  0
SECTION
  2
HEADER
  9
$ACADVER
  1
AC1015
  9
$ACADMAINTVER
 70
    20
  9
$DWGCODEPAGE
  3
ANSI_932
  9
$INSBASE
 10
0.0
 20
0.0
 30
0.0
  9
$EXTMIN
 10
9.999951537608319
 20
9.999999806846743
 30
0.0
  9
$EXTMAX
 10
775.0000015376082
 20
537.9999998068467
 30
0.0
  9
$LIMMIN
 10
0.0
 20
-0.0000001931532552
  9
$LIMMAX
 10
792.0000015376082
 20
545.9999998068466
  9
$ORTHOMODE
 70
     1
  9
$REGENMODE
 70
     1
  9
$FILLMODE
 70
     1
  9
$QTEXTMODE
 70
     0
  9
$MIRRTEXT
 70
     1
  9
$LTSCALE
 40
1.0
  9
$ATTMODE
 70
     1
  9
$TEXTSIZE
 40
2.5
  9
$TRACEWID
 40
1.0
  9
$TEXTSTYLE
  7
STANDARD
  9
$CLAYER
  8
0
  9
$CELTYPE
  6
BYLAYER
  9
$CECOLOR
 62
   256
  9
$CELTSCALE
 40
1.0
  9
$DISPSILH
 70
     0
  9
$DIMSCALE
 40
1.0
  9
$DIMASZ
 40
3.0
  9
$DIMEXO
 40
1.0
  9
$DIMDLI
 40
10.0
  9
$DIMRND
 40
0.0
  9
$DIMDLE
 40
0.0
  9
$DIMEXE
 40
1.0
  9
$DIMTP
 40
0.0
  9
$DIMTM
 40
0.0
  9
$DIMTXT
 40
3.2
  9
$DIMCEN
 40
0.0
  9
$DIMTSZ
 40
0.0
  9
$DIMTOL
 70
     0
  9
$DIMLIM
 70
     0
  9
$DIMTIH
 70
     0
  9
$DIMTOH
 70
     0
  9
$DIMSE1
 70
     0
  9
$DIMSE2
 70
     0
  9
$DIMTAD
 70
     3
  9
$DIMZIN
 70
     8
  9
$DIMBLK
  1

  9
$DIMASO
 70
     1
  9
$DIMSHO
 70
     1
  9
$DIMPOST
  1

  9
$DIMAPOST
  1

  9
$DIMALT
 70
     0
  9
$DIMALTD
 70
     2
  9
$DIMALTF
 40
25.4
  9
$DIMLFAC
 40
1.0
  9
$DIMTOFL
 70
     1
  9
$DIMTVP
 40
0.0
  9
$DIMTIX
 70
     0
  9
$DIMSOXD
 70
     0
  9
$DIMSAH
 70
     1
  9
$DIMBLK1
  1
OPEN
  9
$DIMBLK2
  1
OPEN
  9
$DIMSTYLE
  2
STANDARD
  9
$DIMCLRD
 70
     0
  9
$DIMCLRE
 70
     0
  9
$DIMCLRT
 70
     0
  9
$DIMTFAC
 40
1.0
  9
$DIMGAP
 40
1.0
  9
$DIMJUST
 70
     0
  9
$DIMSD1
 70
     0
  9
$DIMSD2
 70
     0
  9
$DIMTOLJ
 70
     1
  9
$DIMTZIN
 70
     0
  9
$DIMALTZ
 70
     0
  9
$DIMALTTZ
 70
     0
  9
$DIMUPT
 70
     0
  9
$DIMDEC
 70
     4
  9
$DIMTDEC
 70
     4
  9
$DIMALTU
 70
     2
  9
$DIMALTTD
 70
     2
  9
$DIMTXSTY
  7
STANDARD
  9
$DIMAUNIT
 70
     0
  9
$DIMADEC
 70
     0
  9
$DIMALTRND
 40
0.0
  9
$DIMAZIN
 70
     0
  9
$DIMDSEP
 70
    46
  9
$DIMATFIT
 70
     3
  9
$DIMFRAC
 70
     0
  9
$DIMLDRBLK
  1
OPEN
  9
$DIMLUNIT
 70
     2
  9
$DIMLWD
 70
    -2
  9
$DIMLWE
 70
    -2
  9
$DIMTMOVE
 70
     0
  9
$LUNITS
 70
     2
  9
$LUPREC
 70
     4
  9
$SKETCHINC
 40
1.0
  9
$FILLETRAD
 40
10.0
  9
$AUNITS
 70
     0
  9
$AUPREC
 70
     0
  9
$MENU
  1
.
  9
$ELEVATION
 40
0.0
  9
$PELEVATION
 40
0.0
  9
$THICKNESS
 40
0.0
  9
$LIMCHECK
 70
     0
  9
$CHAMFERA
 40
10.0
  9
$CHAMFERB
 40
10.0
  9
$CHAMFERC
 40
20.0
  9
$CHAMFERD
 40
0.0
  9
$SKPOLY
 70
     0
  9
$TDCREATE
 40
2454875.709150915
  9
$TDUCREATE
 40
2454875.334150915
  9
$TDUPDATE
 40
2457192.687567766
  9
$TDUUPDATE
 40
2457192.312567766
  9
$TDINDWG
 40
0.0027628472
  9
$TDUSRTIMER
 40
0.0027628356
  9
$USRTIMER
 70
     1
  9
$ANGBASE
 50
0.0
  9
$ANGDIR
 70
     0
  9
$PDMODE
 70
     0
  9
$PDSIZE
 40
0.0
  9
$PLINEWID
 40
0.0
  9
$SPLFRAME
 70
     0
  9
$SPLINETYPE
 70
     6
  9
$SPLINESEGS
 70
     8
  9
$HANDSEED
  5
6D3
  9
$SURFTAB1
 70
     6
  9
$SURFTAB2
 70
     6
  9
$SURFTYPE
 70
     6
  9
$SURFU
 70
     6
  9
$SURFV
 70
     6
  9
$UCSBASE
  2

  9
$UCSNAME
  2

  9
$UCSORG
 10
0.0
 20
0.0
 30
0.0
  9
$UCSXDIR
 10
1.0
 20
0.0
 30
0.0
  9
$UCSYDIR
 10
0.0
 20
1.0
 30
0.0
  9
$UCSORTHOREF
  2

  9
$UCSORTHOVIEW
 70
     0
  9
$UCSORGTOP
 10
0.0
 20
0.0
 30
0.0
  9
$UCSORGBOTTOM
 10
0.0
 20
0.0
 30
0.0
  9
$UCSORGLEFT
 10
0.0
 20
0.0
 30
0.0
  9
$UCSORGRIGHT
 10
0.0
 20
0.0
 30
0.0
  9
$UCSORGFRONT
 10
0.0
 20
0.0
 30
0.0
  9
$UCSORGBACK
 10
0.0
 20
0.0
 30
0.0
  9
$PUCSBASE
  2

  9
$PUCSNAME
  2

  9
$PUCSORG
 10
0.0
 20
0.0
 30
0.0
  9
$PUCSXDIR
 10
1.0
 20
0.0
 30
0.0
  9
$PUCSYDIR
 10
0.0
 20
1.0
 30
0.0
  9
$PUCSORTHOREF
  2

  9
$PUCSORTHOVIEW
 70
     0
  9
$PUCSORGTOP
 10
0.0
 20
0.0
 30
0.0
  9
$PUCSORGBOTTOM
 10
0.0
 20
0.0
 30
0.0
  9
$PUCSORGLEFT
 10
0.0
 20
0.0
 30
0.0
  9
$PUCSORGRIGHT
 10
0.0
 20
0.0
 30
0.0
  9
$PUCSORGFRONT
 10
0.0
 20
0.0
 30
0.0
  9
$PUCSORGBACK
 10
0.0
 20
0.0
 30
0.0
  9
$USERI1
 70
     0
  9
$USERI2
 70
     0
  9
$USERI3
 70
     0
  9
$USERI4
 70
     0
  9
$USERI5
 70
     0
  9
$USERR1
 40
0.0
  9
$USERR2
 40
0.0
  9
$USERR3
 40
0.0
  9
$USERR4
 40
0.0
  9
$USERR5
 40
0.0
  9
$WORLDVIEW
 70
     1
  9
$SHADEDGE
 70
     3
  9
$SHADEDIF
 70
    70
  9
$TILEMODE
 70
     1
  9
$MAXACTVP
 70
    48
  9
$PINSBASE
 10
0.0
 20
0.0
 30
0.0
  9
$PLIMCHECK
 70
     0
  9
$PEXTMIN
 10
1.000000000000000E+20
 20
1.000000000000000E+20
 30
1.000000000000000E+20
  9
$PEXTMAX
 10
-1.000000000000000E+20
 20
-1.000000000000000E+20
 30
-1.000000000000000E+20
  9
$PLIMMIN
 10
0.0
 20
0.0
  9
$PLIMMAX
 10
420.0
 20
297.0
  9
$UNITMODE
 70
     0
  9
$VISRETAIN
 70
     1
  9
$PLINEGEN
 70
     0
  9
$PSLTSCALE
 70
     1
  9
$TREEDEPTH
 70
  3020
  9
$CMLSTYLE
  2
STANDARD
  9
$CMLJUST
 70
     0
  9
$CMLSCALE
 40
20.0
  9
$PROXYGRAPHICS
 70
     1
  9
$MEASUREMENT
 70
     0
  9
$CELWEIGHT
370
    -1
  9
$ENDCAPS
280
     0
  9
$JOINSTYLE
280
     0
  9
$LWDISPLAY
290
     0
  9
$INSUNITS
 70
     0
  9
$HYPERLINKBASE
  1

  9
$STYLESHEET
  1

  9
$XEDIT
290
     1
  9
$CEPSNTYPE
380
     0
  9
$PSTYLEMODE
290
     1
  9
$FINGERPRINTGUID
  2
{39333DB9-1957-4E74-8425-9B0127441025}
  9
$VERSIONGUID
  2
{6EFC0D8A-A818-4D06-B0AA-D197FFFF822F}
  9
$EXTNAMES
290
     1
  9
$PSVPSCALE
 40
0.0
  9
$OLESTARTUP
290
     0
  0
ENDSEC
  0
SECTION
  2
CLASSES
  0
CLASS
  1
ACDBDICTIONARYWDFLT
  2
AcDbDictionaryWithDefault
  3
ObjectDBX Classes
 90
        0
280
     0
281
     0
  0
CLASS
  1
ACDBPLACEHOLDER
  2
AcDbPlaceHolder
  3
ObjectDBX Classes
 90
        0
280
     0
281
     0
  0
CLASS
  1
LAYOUT
  2
AcDbLayout
  3
ObjectDBX Classes
 90
        0
280
     0
281
     0
  0
CLASS
  1
MATERIAL
  2
AcDbMaterial
  3
ObjectDBX Classes
 90
     1153
280
     0
281
     0
  0
CLASS
  1
VISUALSTYLE
  2
AcDbVisualStyle
  3
ObjectDBX Classes
 90
     4095
280
     0
281
     0
  0
CLASS
  1
TABLESTYLE
  2
AcDbTableStyle
  3
ObjectDBX Classes
 90
     4095
280
     0
281
     0
  0
CLASS
  1
SCALE
  2
AcDbScale
  3
ObjectDBX Classes
 90
     1153
280
     0
281
     0
  0
CLASS
  1
MLEADERSTYLE
  2
AcDbMLeaderStyle
  3
ACDB_MLEADERSTYLE_CLASS
 90
     4095
280
     0
281
     0
  0
CLASS
  1
ACDBSECTIONVIEWSTYLE
  2
AcDbSectionViewStyle
  3
ObjectDBX Classes
 90
     1025
280
     0
281
     0
  0
CLASS
  1
ACDBDETAILVIEWSTYLE
  2
AcDbDetailViewStyle
  3
ObjectDBX Classes
 90
     1025
280
     0
281
     0
  0
CLASS
  1
DICTIONARYVAR
  2
AcDbDictionaryVar
  3
ObjectDBX Classes
 90
        0
280
     0
281
     0
  0
CLASS
  1
CELLSTYLEMAP
  2
AcDbCellStyleMap
  3
ObjectDBX Classes
 90
     1152
280
     0
281
     0
  0
ENDSEC
  0
SECTION
  2
TABLES
  0
TABLE
  2
VPORT
  5
8
330
0
100
AcDbSymbolTable
 70
     1
  0
VPORT
  5
61D
330
8
100
AcDbSymbolTableRecord
100
AcDbViewportTableRecord
  2
*ACTIVE
 70
     0
 10
0.0
 20
0.0
 11
1.0
 21
1.0
 12
611.2084129037817
 22
273.9997569386409
 13
0.0
 23
0.0
 14
10.0
 24
10.0
 15
10.0
 25
10.0
 16
0.0
 26
0.0
 36
1.0
 17
0.0
 27
0.0
 37
0.0
 40
532.0532156729949
 41
2.35006605019815
 42
50.0
 43
0.0
 44
0.0
 50
0.0
 51
0.0
 71
     0
 72
   100
 73
     1
 74
     0
 75
     0
 76
     0
 77
     0
 78
     0
281
     0
 65
     1
110
0.0
120
0.0
130
0.0
111
1.0
121
0.0
131
0.0
112
0.0
122
1.0
132
0.0
 79
     0
146
0.0
1001
ACAD_NAV_VCDISPLAY
1070
     3
  0
ENDTAB
  0
TABLE
  2
LTYPE
  5
5
330
0
100
AcDbSymbolTable
 70
     4
  0
LTYPE
  5
12
330
5
100
AcDbSymbolTableRecord
100
AcDbLinetypeTableRecord
  2
BYBLOCK
 70
     0
  3

 72
    65
 73
     0
 40
0.0
  0
LTYPE
  5
13
330
5
100
AcDbSymbolTableRecord
100
AcDbLinetypeTableRecord
  2
BYLAYER
 70
     0
  3

 72
    65
 73
     0
 40
0.0
  0
LTYPE
  5
14
330
5
100
AcDbSymbolTableRecord
100
AcDbLinetypeTableRecord
  2
CONTINUOUS
 70
     0
  3
Solid line
 72
    65
 73
     0
 40
0.0
  0
LTYPE
  5
4B
330
5
100
AcDbSymbolTableRecord
100
AcDbLinetypeTableRecord
  2
DASHED
 70
     0
  3
Dashed __ __ __ __ __ __ __ __ __ __ __ __ __ _
 72
    65
 73
     2
 40
19.04999999999999
 49
12.7
 74
     0
 49
-6.349999999999998
 74
     0
  0
LTYPE
  5
4C
330
5
100
AcDbSymbolTableRecord
100
AcDbLinetypeTableRecord
  2
CENTER
 70
     0
  3
Center ____ _ ____ _ ____ _ ____ _ ____ _ ____
 72
    65
 73
     4
 40
50.8
 49
31.75
 74
     0
 49
-6.349999999999998
 74
     0
 49
6.349999999999998
 74
     0
 49
-6.349999999999998
 74
     0
  0
LTYPE
  5
4D
330
5
100
AcDbSymbolTableRecord
100
AcDbLinetypeTableRecord
  2
PHANTOM
 70
     0
  3
Phantom ______  __  __  ______  __  __  ______
 72
    65
 73
     6
 40
63.5
 49
31.75
 74
     0
 49
-6.349999999999998
 74
     0
 49
6.349999999999998
 74
     0
 49
-6.349999999999998
 74
     0
 49
6.349999999999998
 74
     0
 49
-6.349999999999998
 74
     0
  0
ENDTAB
  0
TABLE
  2
LAYER
  5
2
330
0
100
AcDbSymbolTable
 70
     8
  0
LAYER
  5
E
102
{ACAD_XDICTIONARY
360
677
102
}
330
2
100
AcDbSymbolTableRecord
100
AcDbLayerTableRecord
  2
0
 70
     0
 62
     7
  6
CONTINUOUS
370
    -3
390
626
  0
LAYER
  5
4E
102
{ACAD_XDICTIONARY
360
679
102
}
330
2
100
AcDbSymbolTableRecord
100
AcDbLayerTableRecord
  2
4
 70
     0
 62
     1
  6
CENTER
370
    -3
390
626
  0
LAYER
  5
4F
102
{ACAD_XDICTIONARY
360
67B
102
}
330
2
100
AcDbSymbolTableRecord
100
AcDbLayerTableRecord
  2
5
 70
     0
 62
     6
  6
PHANTOM
370
    -3
390
626
  0
LAYER
  5
50
102
{ACAD_XDICTIONARY
360
67D
102
}
330
2
100
AcDbSymbolTableRecord
100
AcDbLayerTableRecord
  2
1
 70
     0
 62
     7
  6
CONTINUOUS
370
    -3
390
626
  0
LAYER
  5
51
102
{ACAD_XDICTIONARY
360
67F
102
}
330
2
100
AcDbSymbolTableRecord
100
AcDbLayerTableRecord
  2
2
 70
     0
 62
     4
  6
CONTINUOUS
370
    -3
390
626
  0
LAYER
  5
52
102
{ACAD_XDICTIONARY
360
681
102
}
330
2
100
AcDbSymbolTableRecord
100
AcDbLayerTableRecord
  2
3
 70
     0
 62
     2
  6
DASHED
370
    -3
390
626
  0
LAYER
  5
53
102
{ACAD_XDICTIONARY
360
683
102
}
330
2
100
AcDbSymbolTableRecord
100
AcDbLayerTableRecord
  2
6
 70
     0
 62
     5
  6
CONTINUOUS
370
    -3
390
626
  0
LAYER
  5
54
102
{ACAD_XDICTIONARY
360
685
102
}
330
2
100
AcDbSymbolTableRecord
100
AcDbLayerTableRecord
  2
7
 70
     0
 62
     3
  6
CONTINUOUS
370
    -3
390
626
  0
ENDTAB
  0
TABLE
  2
STYLE
  5
3
330
0
100
AcDbSymbolTable
 70
     1
  0
STYLE
  5
F
330
3
100
AcDbSymbolTableRecord
100
AcDbTextStyleTableRecord
  2
STANDARD
 70
     0
 40
0.0
 41
1.0
 50
0.0
 71
     0
 42
2.5
  3
simplex.shx
  4

  0
ENDTAB
  0
TABLE
  2
VIEW
  5
6
330
0
100
AcDbSymbolTable
 70
     0
  0
ENDTAB
  0
TABLE
  2
UCS
  5
7
330
0
100
AcDbSymbolTable
 70
     0
  0
ENDTAB
  0
TABLE
  2
APPID
  5
9
330
0
100
AcDbSymbolTable
 70
     5
  0
APPID
  5
10
330
9
100
AcDbSymbolTableRecord
100
AcDbRegAppTableRecord
  2
ACAD
 70
     0
  0
APPID
  5
3E
330
9
100
AcDbSymbolTableRecord
100
AcDbRegAppTableRecord
  2
CONTENTTABDATA
 70
     0
  0
APPID
  5
3F
330
9
100
AcDbSymbolTableRecord
100
AcDbRegAppTableRecord
  2
CONTENTCURRENTTAB
 70
     0
  0
APPID
  5
691
330
9
100
AcDbSymbolTableRecord
100
AcDbRegAppTableRecord
  2
ACAD_NAV_VCDISPLAY
 70
     0
  0
APPID
  5
6CA
330
9
100
AcDbSymbolTableRecord
100
AcDbRegAppTableRecord
  2
ACAD_MLEADERVER
 70
     0
  0
ENDTAB
  0
TABLE
  2
DIMSTYLE
  5
A
330
0
100
AcDbSymbolTable
 70
     1
100
AcDbDimStyleTable
 71
     0
  0
DIMSTYLE
105
1D
330
A
100
AcDbSymbolTableRecord
100
AcDbDimStyleTableRecord
  2
STANDARD
 70
     0
 41
3.0
 42
1.0
 43
10.0
 44
1.0
 73
     0
 74
     0
 77
     3
 78
     8
140
3.2
141
0.0
147
1.0
172
     1
173
     1
340
F
341
2E
343
2E
344
2E
  0
ENDTAB
  0
TABLE
  2
BLOCK_RECORD
  5
1
330
0
100
AcDbSymbolTable
 70
     1
  0
BLOCK_RECORD
  5
18
102
{ACAD_XDICTIONARY
360
620
102
}
330
1
100
AcDbSymbolTableRecord
100
AcDbBlockTableRecord
  2
*MODEL_SPACE
340
674
  0
BLOCK_RECORD
  5
15
102
{ACAD_XDICTIONARY
360
61E
102
}
330
1
100
AcDbSymbolTableRecord
100
AcDbBlockTableRecord
  2
*PAPER_SPACE
340
675
  0
BLOCK_RECORD
  5
2E
330
1
100
AcDbSymbolTableRecord
100
AcDbBlockTableRecord
  2
_OPEN
340
0
  0
ENDTAB
  0
ENDSEC
  0
SECTION
  2
BLOCKS
  0
BLOCK
  5
19
330
18
100
AcDbEntity
  8
0
100
AcDbBlockBegin
  2
*MODEL_SPACE
 70
     0
 10
0.0
 20
0.0
 30
0.0
  3
*MODEL_SPACE
  1

  0
ENDBLK
  5
1A
330
18
100
AcDbEntity
  8
0
100
AcDbBlockEnd
  0
BLOCK
  5
16
330
15
100
AcDbEntity
 67
     1
  8
0
100
AcDbBlockBegin
  2
*PAPER_SPACE
 70
     0
 10
0.0
 20
0.0
 30
0.0
  3
*PAPER_SPACE
  1

  0
ENDBLK
  5
17
330
15
100
AcDbEntity
 67
     1
  8
0
100
AcDbBlockEnd
  0
BLOCK
  5
2F
330
2E
100
AcDbEntity
  8
0
100
AcDbBlockBegin
  2
_OPEN
 70
     0
 10
0.0
 20
0.0
 30
0.0
  3
_OPEN
  1

  0
LINE
  5
30
330
2E
100
AcDbEntity
  8
0
  6
ByBlock
 62
     0
100
AcDbLine
 10
-1.0
 20
0.1666666666666666
 30
0.0
 11
0.0
 21
0.0
 31
0.0
  0
LINE
  5
31
330
2E
100
AcDbEntity
  8
0
  6
ByBlock
 62
     0
100
AcDbLine
 10
0.0
 20
0.0
 30
0.0
 11
-1.0
 21
-0.1666666666666666
 31
0.0
  0
LINE
  5
32
330
2E
100
AcDbEntity
  8
0
  6
ByBlock
 62
     0
100
AcDbLine
 10
0.0
 20
0.0
 30
0.0
 11
-1.0
 21
0.0
 31
0.0
  0
ENDBLK
  5
33
330
2E
100
AcDbEntity
  8
0
100
AcDbBlockEnd
  0
ENDSEC
  0
SECTION
  2
ENTITIES
  0
ARC
  5
357
330
18
100
AcDbEntity
  8
1
  6
Continuous
100
AcDbCircle
 10
270.0000015376083
 20
265.9999998068467
 30
0.0
 40
75.0
100
AcDbArc
 50
155.8575559999999
 51
29.15496
  0
ARC
  5
358
330
18
100
AcDbEntity
  8
1
  6
Continuous
100
AcDbCircle
 10
66.16656653760833
 20
264.3661188068466
 30
0.0
 40
46.284634
100
AcDbArc
 50
348.2483139999998
 51
17.537142
  0
LINE
  5
359
330
18
100
AcDbEntity
  8
1
  6
Continuous
100
AcDbLine
 10
110.2999895376081
 20
308.1882628068466
 30
0.0
 11
110.2999895376081
 21
259.9599608068465
 31
0.0
  0
LINE
  5
35A
330
18
100
AcDbEntity
  8
1
  6
Continuous
100
AcDbLine
 10
108.8499925376082
 20
297.8805848068467
 30
0.0
 11
108.8499925376082
 21
227.9999998068467
 31
0.0
  0
LINE
  5
35B
330
18
100
AcDbEntity
  8
1
  6
Continuous
100
AcDbLine
 10
109.8499925376082
 20
297.8805848068467
 30
0.0
 11
109.8499925376082
 21
227.9999998068467
 31
0.0
  0
ARC
  5
35C
330
18
100
AcDbEntity
  8
1
  6
Continuous
100
AcDbCircle
 10
69.36657853760833
 20
264.3661188068466
 30
0.0
 40
46.284634
100
AcDbArc
 50
342.4628629999999
 51
17.537142
  0
ARC
  5
35D
330
18
100
AcDbEntity
  8
1
  6
Continuous
100
AcDbCircle
 10
238.3131435376083
 20
264.1861338068466
 30
0.0
 40
100.0
100
AcDbArc
 50
342.81945
 51
10.11486199999999
  0
ARC
  5
35E
330
18
100
AcDbEntity
  8
1
  6
Continuous
100
AcDbCircle
 10
259.7577985376082
 20
270.1334918068465
 30
0.0
 40
24.0
100
AcDbArc
 50
268.1806259999999
 51
33.82245499999999
  0
ARC
  5
35F
330
18
100
AcDbEntity
  8
5
  6
PHANTOM
100
AcDbCircle
 10
215.9870315376081
 20
270.4007168068467
 30
0.0
 40
3.7
100
AcDbArc
 50
280.0000029999998
 51
100.0000009999999
  0
LINE
  5
360
330
18
100
AcDbEntity
  8
5
  6
PHANTOM
100
AcDbLine
 10
220.5092875376081
 20
266.3260248068466
 30
0.0
 11
235.4778225376083
 21
273.2916478068467
 31
0.0
  0
LINE
  5
361
330
18
100
AcDbEntity
  8
1
  6
Continuous
100
AcDbLine
 10
203.1475435376083
 20
276.1104618068466
 30
0.0
 11
239.3165085376081
 21
253.5115488068467
 31
0.0
  0
LINE
  5
362
330
18
100
AcDbEntity
  8
5
  6
PHANTOM
100
AcDbLine
 10
195.0574975376082
 20
270.4673568068467
 30
0.0
 11
215.3445425376082
 21
274.0445088068467
 31
0.0
  0
ARC
  5
363
330
18
100
AcDbEntity
  8
5
  6
PHANTOM
100
AcDbCircle
 10
243.1654305376082
 20
249.0514638068467
 30
0.0
 40
100.0
100
AcDbArc
 50
11.81945
 51
27.65196699999999
  0
LINE
  5
364
330
18
100
AcDbEntity
  8
1
  6
Continuous
100
AcDbLine
 10
310.3631205376082
 20
260.8675308068465
 30
0.0
 11
275.1780615376083
 21
286.8256928068467
 31
0.0
  0
ARC
  5
365
330
18
100
AcDbEntity
  8
1
  6
Continuous
100
AcDbCircle
 10
228.4063295376081
 20
286.7690468068466
 30
0.0
 40
30.0
100
AcDbArc
 50
176.6792899999999
 51
252.724075
  0
CIRCLE
  5
366
330
18
100
AcDbEntity
  8
1
  6
Continuous
100
AcDbCircle
 10
224.0773495376083
 20
278.3359568068467
 30
0.0
 40
9.0
  0
ARC
  5
367
330
18
100
AcDbEntity
  8
5
  6
PHANTOM
100
AcDbCircle
 10
259.0380125376082
 20
264.6497138068467
 30
0.0
 40
24.0
100
AcDbArc
 50
297.1806259999999
 51
62.82245500000001
  0
LINE
  5
368
330
18
100
AcDbEntity
  8
1
  6
Continuous
100
AcDbLine
 10
318.4585295376083
 20
268.0070588068466
 30
0.0
 11
336.0038865376083
 21
285.5524128068467
 31
0.0
  0
ARC
  5
369
330
18
100
AcDbEntity
  8
1
  6
Continuous
100
AcDbCircle
 10
269.6525135376083
 20
250.7840808068466
 30
0.0
 40
74.93669099999998
100
AcDbArc
 50
16.684713
 51
27.65468499999998
  0
CIRCLE
  5
36A
330
18
100
AcDbEntity
  8
1
  6
Continuous
100
AcDbCircle
 10
270.0000015376083
 20
265.9999998068467
 30
0.0
 40
8.5
  0
LINE
  5
36B
330
18
100
AcDbEntity
  8
1
  6
Continuous
100
AcDbLine
 10
270.0000015376083
 20
275.8149548068467
 30
0.0
 11
261.5000015376083
 21
270.9074768068466
 31
0.0
  0
LINE
  5
36C
330
18
100
AcDbEntity
  8
1
  6
Continuous
100
AcDbLine
 10
270.0000015376083
 20
275.8149548068467
 30
0.0
 11
278.5000015376083
 21
270.9074768068466
 31
0.0
  0
CIRCLE
  5
36D
330
18
100
AcDbEntity
  8
1
  6
Continuous
100
AcDbCircle
 10
270.0000015376083
 20
265.9999998068467
 30
0.0
 40
11.0
  0
LINE
  5
36E
330
18
100
AcDbEntity
  8
1
  6
Continuous
100
AcDbLine
 10
116.0000015376083
 20
254.9999998068467
 30
0.0
 11
116.0000015376083
 21
276.9999998068467
 31
0.0
  0
LINE
  5
36F
330
18
100
AcDbEntity
  8
1
  6
Continuous
100
AcDbLine
 10
126.0000015376083
 20
257.4999998068467
 30
0.0
 11
126.0000015376083
 21
274.4999998068467
 31
0.0
  0
ARC
  5
370
330
18
100
AcDbEntity
  8
1
  6
Continuous
100
AcDbCircle
 10
121.6551025376083
 20
273.3612158068467
 30
0.0
 40
4.344898999999998
100
AcDbArc
 50
325.6157529999998
 51
25.615753
  0
LINE
  5
371
330
18
100
AcDbEntity
  8
1
  6
Continuous
100
AcDbLine
 10
43.15000153760832
 20
256.4999998068466
 30
0.0
 11
43.15000153760832
 21
275.4999998068466
 31
0.0
  0
ARC
  5
372
330
18
100
AcDbEntity
  8
1
  6
Continuous
100
AcDbCircle
 10
48.00606453760831
 20
274.2272408068465
 30
0.0
 40
4.856062999999998
100
AcDbArc
 50
154.3842469999999
 51
214.384247
  0
ARC
  5
373
330
18
100
AcDbEntity
  8
1
  6
Continuous
100
AcDbCircle
 10
229.9663615376083
 20
353.9890908068467
 30
0.0
 40
117.4057939999999
100
AcDbArc
 50
310.18314
 51
354.9800809999999
  0
ARC
  5
374
330
18
100
AcDbEntity
  8
1
  6
Continuous
100
AcDbCircle
 10
58.71088753760831
 20
273.3318198068465
 30
0.0
 40
24.210886
100
AcDbArc
 50
180.0
 51
244.531994
  0
LINE
  5
375
330
18
100
AcDbEntity
  8
1
  6
Continuous
100
AcDbLine
 10
105.6500015376082
 20
245.2575618068467
 30
0.0
 11
105.6500015376082
 21
298.8805848068465
 31
0.0
  0
LINE
  5
376
330
18
100
AcDbEntity
  8
1
  6
Continuous
100
AcDbLine
 10
51.15000153760831
 20
245.2575618068467
 30
0.0
 11
51.15000153760831
 21
340.3219618068466
 31
0.0
  0
LINE
  5
377
330
18
100
AcDbEntity
  8
1
  6
Continuous
100
AcDbLine
 10
54.35000153760832
 20
245.2575618068467
 30
0.0
 11
54.35000153760832
 21
340.3219618068466
 31
0.0
  0
LINE
  5
378
330
18
100
AcDbEntity
  8
1
  6
Continuous
100
AcDbLine
 10
102.5000015376082
 20
197.9484358068466
 30
0.0
 11
102.5000015376082
 21
334.0515638068467
 31
0.0
  0
LINE
  5
379
330
18
100
AcDbEntity
  8
1
  6
Continuous
100
AcDbLine
 10
57.50000153760832
 20
197.9484358068466
 30
0.0
 11
57.50000153760832
 21
334.0515638068467
 31
0.0
  0
LINE
  5
37A
330
18
100
AcDbEntity
  8
1
  6
Continuous
100
AcDbLine
 10
105.2000015376083
 20
238.2012118068467
 30
0.0
 11
105.2000015376083
 21
293.7987878068467
 31
0.0
  0
LINE
  5
37B
330
18
100
AcDbEntity
  8
1
  6
Continuous
100
AcDbLine
 10
54.80000153760832
 20
245.4999998068467
 30
0.0
 11
54.80000153760832
 21
286.4999998068467
 31
0.0
  0
LINE
  5
37C
330
18
100
AcDbEntity
  8
1
  6
Continuous
100
AcDbLine
 10
55.10000153760832
 20
238.1696808068467
 30
0.0
 11
55.10000153760832
 21
293.8303188068466
 31
0.0
  0
LINE
  5
37D
330
18
100
AcDbEntity
  8
4
  6
CENTER
100
AcDbLine
 10
80.00000153760833
 20
180.9999998068467
 30
0.0
 11
80.00000153760833
 21
387.9999998068467
 31
0.0
  0
LINE
  5
37E
330
18
100
AcDbEntity
  8
4
  6
CENTER
100
AcDbLine
 10
310.0000015376083
 20
254.8586068068465
 30
0.0
 11
310.0000015376083
 21
387.9999998068467
 31
0.0
  0
LINE
  5
37F
330
18
100
AcDbEntity
  8
4
  6
CENTER
100
AcDbLine
 10
270.0000015376083
 20
180.9999998068467
 30
0.0
 11
270.0000015376083
 21
350.9999998068467
 31
0.0
  0
LINE
  5
380
330
18
100
AcDbEntity
  8
1
  6
Continuous
100
AcDbLine
 10
127.5000015376083
 20
268.7846978068465
 30
0.0
 11
152.1466495376082
 21
268.7846978068465
 31
0.0
  0
LINE
  5
381
330
18
100
AcDbEntity
  8
1
  6
Continuous
100
AcDbLine
 10
127.3321545376083
 20
261.8321528068467
 30
0.0
 11
152.1466495376082
 21
261.8321528068467
 31
0.0
  0
LINE
  5
382
330
18
100
AcDbEntity
  8
1
  6
Continuous
100
AcDbLine
 10
126.9999935376082
 20
254.8795778068466
 30
0.0
 11
152.1466495376082
 21
254.8795778068466
 31
0.0
  0
TEXT
  5
383
330
18
100
AcDbEntity
  8
7
  6
Continuous
100
AcDbText
 10
10.0
 20
17.99999980684674
 30
0.0
 40
3.0
  1
TYPE No.109HB-PS
 41
1.002350999999997
100
AcDbText
  0
TEXT
  5
384
330
18
100
AcDbEntity
  8
7
  6
Continuous
100
AcDbText
 10
10.0
 20
25.99999980684674
 30
0.0
 40
3.0
  1
CODE No.9102
 41
1.003962999999999
100
AcDbText
  0
TEXT
  5
385
330
18
100
AcDbEntity
  8
4
  6
CENTER
100
AcDbText
 10
23.97945153760831
 20
10.04869980684674
 30
0.0
 40
1.399999999999999
  1
4
 41
1.069393
100
AcDbText
  0
TEXT
  5
386
330
18
100
AcDbEntity
  8
1
  6
Continuous
100
AcDbText
 10
9.999951537608319
 20
9.999999806846743
 30
0.0
 40
1.399999999999999
  1
LAYER
 41
1.009912999999996
100
AcDbText
  0
TEXT
  5
387
330
18
100
AcDbEntity
  8
3
  6
DASHED
100
AcDbText
 10
21.97945153760831
 20
10.04869980684674
 30
0.0
 40
1.399999999999999
  1
3
 41
1.069393
100
AcDbText
  0
TEXT
  5
388
330
18
100
AcDbEntity
  8
2
  6
Continuous
100
AcDbText
 10
19.9794515376083
 20
10.04869980684674
 30
0.0
 40
1.399999999999999
  1
2
 41
1.069393
100
AcDbText
  0
TEXT
  5
389
330
18
100
AcDbEntity
  8
1
  6
Continuous
100
AcDbText
 10
17.97945153760831
 20
10.04869980684674
 30
0.0
 40
1.399999999999999
  1
1
 41
1.069393
100
AcDbText
  0
TEXT
  5
38A
330
18
100
AcDbEntity
  8
7
  6
Continuous
100
AcDbText
 10
29.97945153760831
 20
10.04869980684674
 30
0.0
 40
1.399999999999999
  1
7
 41
1.069393
100
AcDbText
  0
TEXT
  5
38B
330
18
100
AcDbEntity
  8
5
  6
PHANTOM
100
AcDbText
 10
25.97945153760832
 20
10.04869980684674
 30
0.0
 40
1.399999999999999
  1
5
 41
1.069393
100
AcDbText
  0
TEXT
  5
38C
330
18
100
AcDbEntity
  8
6
  6
Continuous
100
AcDbText
 10
27.97945153760831
 20
10.04869980684674
 30
0.0
 40
1.399999999999999
  1
6
 41
1.069393
100
AcDbText
  0
ARC
  5
38D
330
18
100
AcDbEntity
  8
1
  6
Continuous
100
AcDbCircle
 10
80.00000153760833
 20
340.9999998068467
 30
0.0
 40
150.0
100
AcDbArc
 50
263.420407
 51
276.5795929999999
  0
LINE
  5
38E
330
18
100
AcDbEntity
  8
4
  6
CENTER
100
AcDbLine
 10
134.7051165376081
 20
265.9999998068467
 30
0.0
 11
25.29488653760832
 21
265.9999998068467
 31
0.0
  0
ARC
  5
38F
330
18
100
AcDbEntity
  8
1
  6
Continuous
100
AcDbCircle
 10
63.50000153760832
 20
197.9484358068466
 30
0.0
 40
6.0
100
AcDbArc
 50
180.0
 51
263.420407
  0
ARC
  5
390
330
18
100
AcDbEntity
  8
1
  6
Continuous
100
AcDbCircle
 10
58.16671353760831
 20
238.1934568068465
 30
0.0
 40
3.066803999999998
100
AcDbArc
 50
180.444198
 51
257.443844
  0
ARC
  5
391
330
18
100
AcDbEntity
  8
1
  6
Continuous
100
AcDbCircle
 10
46.1500015376083
 20
246.9594858068466
 30
0.0
 40
5.0
100
AcDbArc
 50
0.0
 51
64.53199399999999
  0
LINE
  5
392
330
18
100
AcDbEntity
  8
1
  6
Continuous
100
AcDbLine
 10
54.35000153760832
 20
245.2575618068467
 30
0.0
 11
51.15000153760831
 21
245.2575618068467
 31
0.0
  0
LINE
  5
393
330
18
100
AcDbEntity
  8
1
  6
Continuous
100
AcDbLine
 10
54.80000153760832
 20
245.4999998068467
 30
0.0
 11
55.10000153760832
 21
245.4999998068467
 31
0.0
  0
ARC
  5
397
330
18
100
AcDbEntity
  8
1
  6
Continuous
100
AcDbCircle
 10
61.30149553760831
 20
265.9999998068467
 30
0.0
 40
18.151494
100
AcDbArc
 50
162.412046
 51
197.5879539999999
  0
LINE
  5
399
330
18
100
AcDbEntity
  8
1
  6
Continuous
100
AcDbLine
 10
43.99850753760831
 20
260.5151718068467
 30
0.0
 11
51.15000153760831
 21
260.5151718068467
 31
0.0
  0
LINE
  5
39A
330
18
100
AcDbEntity
  8
1
  6
Continuous
100
AcDbLine
 10
43.99850753760831
 20
255.0303448068467
 30
0.0
 11
51.15000153760831
 21
255.0303448068467
 31
0.0
  0
ARC
  5
39B
330
18
100
AcDbEntity
  8
1
  6
Continuous
100
AcDbCircle
 10
48.00606453760831
 20
257.7727588068467
 30
0.0
 40
4.856062999999998
100
AcDbArc
 50
145.615753
 51
205.615753
  0
LINE
  5
39C
330
18
100
AcDbEntity
  8
1
  6
Continuous
100
AcDbLine
 10
43.99850753760831
 20
255.0303448068467
 30
0.0
 11
43.15000153760832
 21
256.4999998068466
 31
0.0
  0
LINE
  5
39D
330
18
100
AcDbEntity
  8
1
  6
Continuous
100
AcDbLine
 10
54.35000153760832
 20
251.7499998068467
 30
0.0
 11
54.80000153760832
 21
251.7499998068467
 31
0.0
  0
LINE
  5
39E
330
18
100
AcDbEntity
  8
1
  6
Continuous
100
AcDbLine
 10
43.99850753760831
 20
271.4848278068467
 30
0.0
 11
51.15000153760831
 21
271.4848278068467
 31
0.0
  0
LINE
  5
3A1
330
18
100
AcDbEntity
  8
1
  6
Continuous
100
AcDbLine
 10
103.9709725376082
 20
228.0977298068466
 30
0.0
 11
104.3931835376083
 21
236.1539928068467
 31
0.0
  0
ARC
  5
3A2
330
18
100
AcDbEntity
  8
1
  6
Continuous
100
AcDbCircle
 10
102.7318275376082
 20
234.8248728068466
 30
0.0
 40
6.840316999999997
100
AcDbArc
 50
280.43694
 51
333.434949
  0
ARC
  5
3A3
330
18
100
AcDbEntity
  8
1
  6
Continuous
100
AcDbCircle
 10
104.4466175376083
 20
232.5857898068466
 30
0.0
 40
4.596968
100
AcDbArc
 50
273.9957889999999
 51
343.3128509999999
  0
ARC
  5
3A4
330
18
100
AcDbEntity
  8
1
  6
Continuous
100
AcDbCircle
 10
96.50000153760831
 20
197.9484358068466
 30
0.0
 40
6.0
100
AcDbArc
 50
276.5795929999999
 51
0.0
  0
LINE
  5
3A5
330
18
100
AcDbEntity
  8
1
  6
Continuous
100
AcDbLine
 10
108.8499925376082
 20
227.9999998068467
 30
0.0
 11
109.8499925376082
 21
227.9999998068467
 31
0.0
  0
LINE
  5
3A6
330
18
100
AcDbEntity
  8
1
  6
Continuous
100
AcDbLine
 10
103.9709725376082
 20
228.0977298068466
 30
0.0
 11
104.7669485376082
 21
227.9999958068467
 31
0.0
  0
LINE
  5
3A7
330
18
100
AcDbEntity
  8
1
  6
Continuous
100
AcDbLine
 10
109.8499925376082
 20
233.2631528068467
 30
0.0
 11
123.8000055376082
 21
233.2631528068467
 31
0.0
  0
LINE
  5
3A8
330
18
100
AcDbEntity
  8
1
  6
Continuous
100
AcDbLine
 10
109.8499925376082
 20
236.4631528068467
 30
0.0
 11
123.8000055376082
 21
236.4631528068467
 31
0.0
  0
ARC
  5
3A9
330
18
100
AcDbEntity
  8
1
  6
Continuous
100
AcDbCircle
 10
95.76971553760833
 20
81.58915680684673
 30
0.0
 40
164.2811739999999
100
AcDbArc
 50
79.041224
 51
83.804204
  0
LINE
  5
3AA
330
18
100
AcDbEntity
  8
1
  6
Continuous
100
AcDbLine
 10
125.2408125376082
 20
261.0925228068465
 30
0.0
 11
116.0000015376083
 21
261.0925228068465
 31
0.0
  0
LINE
  5
3AB
330
18
100
AcDbEntity
  8
1
  6
Continuous
100
AcDbLine
 10
125.2408125376082
 20
256.1850448068467
 30
0.0
 11
116.0000015376083
 21
256.1850448068467
 31
0.0
  0
LINE
  5
3AC
330
18
100
AcDbEntity
  8
1
  6
Continuous
100
AcDbLine
 10
125.2408125376082
 20
270.9074768068466
 30
0.0
 11
116.0000015376083
 21
270.9074768068466
 31
0.0
  0
ARC
  5
3AD
330
18
100
AcDbEntity
  8
1
  6
Continuous
100
AcDbCircle
 10
88.26114053760834
 20
252.1261898068465
 30
0.0
 40
23.38971499999999
100
AcDbArc
 50
337.369639
 51
22.63036599999999
  0
ARC
  5
3AE
330
18
100
AcDbEntity
  8
1
  6
Continuous
100
AcDbCircle
 10
102.1685015376082
 20
238.2133448068467
 30
0.0
 40
3.031524
100
AcDbArc
 50
276.277901
 51
359.770688
  0
LINE
  5
3AF
330
18
100
AcDbEntity
  8
1
  6
Continuous
100
AcDbLine
 10
108.8500015376083
 20
245.2575618068467
 30
0.0
 11
105.6500015376082
 21
245.2575618068467
 31
0.0
  0
LINE
  5
3B0
330
18
100
AcDbEntity
  8
1
  6
Continuous
100
AcDbLine
 10
110.5100885376083
 20
244.9107508068465
 30
0.0
 11
113.4999865376083
 21
244.9107508068465
 31
0.0
  0
LINE
  5
3B1
330
18
100
AcDbEntity
  8
1
  6
Continuous
100
AcDbLine
 10
113.4999865376083
 20
250.4194488068467
 30
0.0
 11
113.4999865376083
 21
244.9107508068465
 31
0.0
  0
LINE
  5
3B2
330
18
100
AcDbEntity
  8
1
  6
Continuous
100
AcDbLine
 10
105.6500015376082
 20
251.7499998068467
 30
0.0
 11
105.2000015376083
 21
251.7499998068467
 31
0.0
  0
LINE
  5
3B3
330
18
100
AcDbEntity
  8
1
  6
Continuous
100
AcDbLine
 10
114.6936465376081
 20
254.9999998068467
 30
0.0
 11
116.0000015376083
 21
254.9999998068467
 31
0.0
  0
LINE
  5
3B4
330
18
100
AcDbEntity
  8
1
  6
Continuous
100
AcDbLine
 10
127.0000055376082
 20
236.4631528068467
 30
0.0
 11
127.0000055376082
 21
261.5000038068465
 31
0.0
  0
LINE
  5
3B5
330
18
100
AcDbEntity
  8
1
  6
Continuous
100
AcDbLine
 10
123.8000055376082
 20
236.4631528068467
 30
0.0
 11
123.8000055376082
 21
243.4613498068467
 31
0.0
  0
LINE
  5
3B6
330
18
100
AcDbEntity
  8
1
  6
Continuous
100
AcDbLine
 10
119.6302455376082
 20
236.4631528068467
 30
0.0
 11
120.0288665376083
 21
244.0693018068466
 31
0.0
  0
ARC
  5
3B7
330
18
100
AcDbEntity
  8
1
  6
Continuous
100
AcDbCircle
 10
123.8000055376082
 20
236.4631528068467
 30
0.0
 40
3.2
100
AcDbArc
 50
270.0
 51
0.0
  0
ARC
  5
3B8
330
18
100
AcDbEntity
  8
1
  6
Continuous
100
AcDbCircle
 10
109.7591905376082
 20
265.9999998068467
 30
0.0
 40
16.24081099999999
100
AcDbArc
 50
342.4120459999998
 51
17.587954
  0
LINE
  5
3B9
330
18
100
AcDbEntity
  8
1
  6
Continuous
100
AcDbLine
 10
127.5000015376083
 20
261.9999998068467
 30
0.0
 11
127.5000015376083
 21
269.9999998068467
 31
0.0
  0
ARC
  5
3BA
330
18
100
AcDbEntity
  8
1
  6
Continuous
100
AcDbCircle
 10
121.6551025376083
 20
258.6387838068465
 30
0.0
 40
4.344898999999998
100
AcDbArc
 50
334.384247
 51
34.38424699999997
  0
LINE
  5
3BB
330
18
100
AcDbEntity
  8
1
  6
Continuous
100
AcDbLine
 10
125.2408125376082
 20
256.1850448068467
 30
0.0
 11
126.0000015376083
 21
257.4999998068467
 31
0.0
  0
LINE
  5
3BC
330
18
100
AcDbEntity
  8
1
  6
Continuous
100
AcDbLine
 10
127.5000015376083
 20
261.9999998068467
 30
0.0
 11
126.0000015376083
 21
260.4999998068466
 31
0.0
  0
LINE
  5
3BD
330
18
100
AcDbEntity
  8
2
  6
Continuous
100
AcDbLine
 10
126.0000015376083
 20
260.9469998068466
 30
0.0
 11
126.4470015376082
 21
260.9469998068466
 31
0.0
  0
LINE
  5
3BE
330
18
100
AcDbEntity
  8
1
  6
Continuous
100
AcDbLine
 10
127.5000015376083
 20
269.9999998068467
 30
0.0
 11
126.0000015376083
 21
271.4999998068465
 31
0.0
  0
LINE
  5
3BF
330
18
100
AcDbEntity
  8
2
  6
Continuous
100
AcDbLine
 10
126.0000015376083
 20
271.0529998068465
 30
0.0
 11
126.4470015376082
 21
271.0529998068465
 31
0.0
  0
ARC
  5
3C0
330
18
100
AcDbEntity
  8
1
  6
Continuous
100
AcDbCircle
 10
310.0000015376083
 20
95.99999980684676
 30
0.0
 40
53.0
100
AcDbArc
 50
224.049774446887
 51
57.962224
  0
ARC
  5
3C1
330
18
100
AcDbEntity
  8
1
  6
Continuous
100
AcDbCircle
 10
310.0000015376083
 20
95.99999980684676
 30
0.0
 40
42.29999999999999
100
AcDbArc
 50
273.925695
 51
55.77211399999999
  0
ARC
  5
3C2
330
18
100
AcDbEntity
  8
1
  6
Continuous
100
AcDbCircle
 10
310.0000015376083
 20
95.99999980684676
 30
0.0
 40
45.49999999999999
100
AcDbArc
 50
227.9074859999997
 51
58.471245
  0
LINE
  5
3C3
330
18
100
AcDbEntity
  8
4
  6
CENTER
100
AcDbLine
 10
270.0000015376083
 20
43.64999980684674
 30
0.0
 11
270.0000015376083
 21
150.1499998068467
 31
0.0
  0
ARC
  5
3C4
330
18
100
AcDbEntity
  8
1
  6
Continuous
100
AcDbCircle
 10
195.0000015376083
 20
95.99999980684676
 30
0.0
 40
150.0
100
AcDbArc
 50
353.420407
 51
6.579592999999999
  0
LINE
  5
3C5
330
18
100
AcDbEntity
  8
1
  6
Continuous
100
AcDbLine
 10
365.0000015376083
 20
140.9999998068467
 30
0.0
 11
365.0000015376083
 21
50.99999980684675
 31
0.0
  0
LINE
  5
3C6
330
18
100
AcDbEntity
  8
4
  6
CENTER
100
AcDbLine
 10
310.0000015376083
 20
30.99999980684674
 30
0.0
 11
310.0000015376083
 21
160.9999998068467
 31
0.0
  0
ARC
  5
3C7
330
18
100
AcDbEntity
  8
1
  6
Continuous
100
AcDbCircle
 10
345.0000015376084
 20
95.99999980684676
 30
0.0
 40
150.0
100
AcDbArc
 50
173.420407
 51
186.5795929999999
  0
LINE
  5
3C9
330
18
100
AcDbEntity
  8
1
  6
Continuous
100
AcDbLine
 10
279.5000015376083
 20
59.14999980684674
 30
0.0
 11
260.5000015376083
 21
59.14999980684674
 31
0.0
  0
ARC
  5
3CA
330
18
100
AcDbEntity
  8
1
  6
Continuous
100
AcDbCircle
 10
274.7500015376083
 20
72.86968380684673
 30
0.0
 40
13.719684
100
AcDbArc
 50
249.7438419999999
 51
290.256158
  0
LINE
  5
3CB
330
18
100
AcDbEntity
  8
1
  6
Continuous
100
AcDbLine
 10
249.5000015376083
 20
70.79999980684672
 30
0.0
 11
290.5000015376083
 21
70.79999980684672
 31
0.0
  0
LINE
  5
3CC
330
18
100
AcDbEntity
  8
1
  6
Continuous
100
AcDbLine
 10
242.1696825376082
 20
71.09999980684674
 30
0.0
 11
297.8303205376082
 21
71.09999980684674
 31
0.0
  0
LINE
  5
3CD
330
18
100
AcDbEntity
  8
1
  6
Continuous
100
AcDbLine
 10
279.4845705376083
 20
70.34999980684673
 30
0.0
 11
249.2575635376083
 21
70.34999980684673
 31
0.0
  0
LINE
  5
3CE
330
18
100
AcDbEntity
  8
1
  6
Continuous
100
AcDbLine
 10
279.4845705376083
 20
67.14999980684675
 30
0.0
 11
249.2575635376083
 21
67.14999980684675
 31
0.0
  0
LINE
  5
3CF
330
18
100
AcDbEntity
  8
1
  6
Continuous
100
AcDbLine
 10
201.9484375376082
 20
73.49999980684676
 30
0.0
 11
338.0515655376083
 21
73.49999980684676
 31
0.0
  0
LINE
  5
3D0
330
18
100
AcDbEntity
  8
4
  6
CENTER
100
AcDbLine
 10
275.2500015376083
 20
50.99999980684675
 30
0.0
 11
254.7500015376081
 21
50.99999980684675
 31
0.0
  0
LINE
  5
3D1
330
18
100
AcDbEntity
  8
1
  6
Continuous
100
AcDbLine
 10
355.0000015376083
 20
40.99999980684674
 30
0.0
 11
265.0000015376083
 21
40.99999980684674
 31
0.0
  0
LINE
  5
3D2
330
18
100
AcDbEntity
  8
4
  6
CENTER
100
AcDbLine
 10
375.0000015376083
 20
95.99999980684676
 30
0.0
 11
185.0000015376083
 21
95.99999980684676
 31
0.0
  0
ARC
  5
3D3
330
18
100
AcDbEntity
  8
1
  6
Continuous
100
AcDbCircle
 10
201.9484375376082
 20
79.49999980684673
 30
0.0
 40
6.0
100
AcDbArc
 50
186.5795929999999
 51
270.0
  0
ARC
  5
3D4
330
18
100
AcDbEntity
  8
1
  6
Continuous
100
AcDbCircle
 10
265.2500015376081
 20
72.86968380684673
 30
0.0
 40
13.719684
100
AcDbArc
 50
249.7438419999999
 51
290.256158
  0
LINE
  5
3D5
330
18
100
AcDbEntity
  8
1
  6
Continuous
100
AcDbLine
 10
260.5000015376083
 20
59.14999980684674
 30
0.0
 11
260.5000015376083
 21
67.14999980684675
 31
0.0
  0
LINE
  5
3D6
330
18
100
AcDbEntity
  8
4
  6
CENTER
100
AcDbLine
 10
265.0000015376083
 20
61.24999980684674
 30
0.0
 11
265.0000015376083
 21
40.74999980684674
 31
0.0
  0
LINE
  5
3D7
330
18
100
AcDbEntity
  8
1
  6
Continuous
100
AcDbLine
 10
255.0000015376083
 20
50.99999980684675
 30
0.0
 11
255.0000015376083
 21
67.14999980684675
 31
0.0
  0
ARC
  5
3D8
330
18
100
AcDbEntity
  8
1
  6
Continuous
100
AcDbCircle
 10
265.0000015376083
 20
50.99999980684675
 30
0.0
 40
10.0
100
AcDbArc
 50
180.0
 51
270.0
  0
ARC
  5
3DC
330
18
100
AcDbEntity
  8
1
  6
Continuous
100
AcDbCircle
 10
242.1934585376082
 20
74.16671180684675
 30
0.0
 40
3.066803999999998
100
AcDbArc
 50
192.556156
 51
269.555802
  0
LINE
  5
3DD
330
18
100
AcDbEntity
  8
1
  6
Continuous
100
AcDbLine
 10
255.7500015376083
 20
70.34999980684673
 30
0.0
 11
255.7500015376083
 21
70.79999980684672
 31
0.0
  0
LINE
  5
3DE
330
18
100
AcDbEntity
  8
1
  6
Continuous
100
AcDbLine
 10
249.2575635376083
 20
67.14999980684675
 30
0.0
 11
249.2575635376083
 21
70.34999980684673
 31
0.0
  0
LINE
  5
3DF
330
18
100
AcDbEntity
  8
1
  6
Continuous
100
AcDbLine
 10
249.5000015376083
 20
70.79999980684672
 30
0.0
 11
249.5000015376083
 21
71.09999980684674
 31
0.0
  0
LINE
  5
3E0
330
18
100
AcDbEntity
  8
1
  6
Continuous
100
AcDbLine
 10
270.0000015376083
 20
67.14999980684675
 30
0.0
 11
270.0000015376083
 21
59.99850580684675
 31
0.0
  0
ARC
  5
3E1
330
18
100
AcDbEntity
  8
1
  6
Continuous
100
AcDbCircle
 10
337.9643485376082
 20
126.5127918068466
 30
0.0
 40
81.01702600000001
100
AcDbArc
 50
231.0274899999999
 51
247.6822709999999
  0
ARC
  5
3E2
330
18
100
AcDbEntity
  8
1
  6
Continuous
100
AcDbCircle
 10
337.9643485376082
 20
126.5127918068466
 30
0.0
 40
77.817026
100
AcDbArc
 50
231.0274899999999
 51
247.6822709999999
  0
LINE
  5
3E3
330
18
100
AcDbEntity
  8
1
  6
Continuous
100
AcDbLine
 10
279.5000015376083
 20
59.14999980684674
 30
0.0
 11
279.5000015376083
 21
67.14999980684675
 31
0.0
  0
ARC
  5
3E6
330
18
100
AcDbEntity
  8
1
  6
Continuous
100
AcDbCircle
 10
312.2113475376083
 20
63.77578580684672
 30
0.0
 40
13.2
100
AcDbArc
 50
247.6822709999999
 51
273.925695
  0
ARC
  5
3E7
330
18
100
AcDbEntity
  8
1
  6
Continuous
100
AcDbCircle
 10
312.2113475376083
 20
63.77578580684672
 30
0.0
 40
10.0
100
AcDbArc
 50
247.6822709999999
 51
273.925695
  0
ARC
  5
3E8
330
18
100
AcDbEntity
  8
1
  6
Continuous
100
AcDbCircle
 10
276.3103775376082
 20
50.71182080684675
 30
0.0
 40
19.893054
100
AcDbArc
 50
50.28461899999999
 51
80.81847399999999
  0
LINE
  5
3E9
330
18
100
AcDbEntity
  8
1
  6
Continuous
100
AcDbLine
 10
284.2500015376083
 20
68.95177580684674
 30
0.0
 11
284.2500015376083
 21
70.79999980684672
 31
0.0
  0
ARC
  5
3EA
330
18
100
AcDbEntity
  8
1
  6
Continuous
100
AcDbCircle
 10
275.8707725376082
 20
50.02320780684672
 30
0.0
 40
17.5039
100
AcDbArc
 50
50.566477
 51
78.085212
  0
LINE
  5
3EB
330
18
100
AcDbEntity
  8
1
  6
Continuous
100
AcDbLine
 10
290.5000015376083
 20
70.79999980684672
 30
0.0
 11
290.5000015376083
 21
71.09999980684674
 31
0.0
  0
ARC
  5
3EC
330
18
100
AcDbEntity
  8
1
  6
Continuous
100
AcDbCircle
 10
297.8065445376083
 20
74.16671180684675
 30
0.0
 40
3.066803999999998
100
AcDbArc
 50
270.4441979999999
 51
347.443844
  0
LINE
  5
3ED
330
18
100
AcDbEntity
  8
4
  6
CENTER
100
AcDbLine
 10
355.0000015376083
 20
61.24999980684674
 30
0.0
 11
355.0000015376083
 21
40.74999980684674
 31
0.0
  0
LINE
  5
3EE
330
18
100
AcDbEntity
  8
4
  6
CENTER
100
AcDbLine
 10
365.2500015376081
 20
50.99999980684675
 30
0.0
 11
344.7500015376083
 21
50.99999980684675
 31
0.0
  0
ARC
  5
3EF
330
18
100
AcDbEntity
  8
1
  6
Continuous
100
AcDbCircle
 10
355.0000015376083
 20
50.99999980684675
 30
0.0
 40
10.0
100
AcDbArc
 50
270.0
 51
0.0
  0
CIRCLE
  5
3F0
330
18
100
AcDbEntity
  8
1
  6
Continuous
100
AcDbCircle
 10
355.0000015376083
 20
50.99999980684675
 30
0.0
 40
5.25
  0
ARC
  5
3F1
330
18
100
AcDbEntity
  8
1
  6
Continuous
100
AcDbCircle
 10
338.0515655376083
 20
79.49999980684673
 30
0.0
 40
6.0
100
AcDbArc
 50
270.0
 51
353.420407
  0
ARC
  5
3F2
330
18
100
AcDbEntity
  8
1
  6
Continuous
100
AcDbCircle
 10
270.0000015376083
 20
265.9999998068467
 30
0.0
 40
51.5
100
AcDbArc
 50
207.6162249999999
 51
312.450222
  0
ARC
  5
3F3
330
18
100
AcDbEntity
  8
1
  6
Continuous
100
AcDbCircle
 10
265.9444525376082
 20
225.8174508068466
 30
0.0
 40
16.0
100
AcDbArc
 50
50.83572199999999
 51
89.57399699999998
  0
LINE
  5
3F4
330
18
100
AcDbEntity
  8
5
  6
PHANTOM
100
AcDbLine
 10
271.7138005376082
 20
243.9403048068467
 30
0.0
 11
317.4840925376082
 21
262.3895738068467
 31
0.0
  0
LINE
  5
3F5
330
18
100
AcDbEntity
  8
1
  6
Continuous
100
AcDbLine
 10
260.8041715376083
 20
245.8752898068466
 30
0.0
 11
309.7801545376082
 21
239.8215068068467
 31
0.0
  0
ARC
  5
3F6
330
18
100
AcDbEntity
  8
1
  6
Continuous
100
AcDbCircle
 10
271.5113845376083
 20
158.5445718068466
 30
0.0
 40
32.93092199999998
100
AcDbArc
 50
267.308044
 51
316.6030999999998
  0
ARC
  5
3F7
330
18
100
AcDbEntity
  8
1
  6
Continuous
100
AcDbCircle
 10
309.0956305376082
 20
70.01664280684675
 30
0.0
 40
74.326766
100
AcDbArc
 50
102.7683229999999
 51
123.0966439999999
  0
ARC
  5
3F8
330
18
100
AcDbEntity
  8
1
  6
Continuous
100
AcDbCircle
 10
309.0956305376082
 20
70.01664280684675
 30
0.0
 40
71.126766
100
AcDbArc
 50
102.768418
 51
123.0966439999999
  0
LINE
  5
3F9
330
18
100
AcDbEntity
  8
1
  6
Continuous
100
AcDbLine
 10
232.1095785376082
 20
126.3002298068466
 30
0.0
 11
276.7567455376082
 21
126.3002298068466
 31
0.0
  0
ARC
  5
3FA
330
18
100
AcDbEntity
  8
1
  6
Continuous
100
AcDbCircle
 10
259.2979645376082
 20
-579.3593441931533
 30
0.0
 40
704.2898029999999
100
AcDbArc
 50
83.192143
 51
89.129328
  0
ARC
  5
3FB
330
18
100
AcDbEntity
  8
1
  6
Continuous
100
AcDbCircle
 10
259.2979645376082
 20
-579.3593441931533
 30
0.0
 40
705.0898029999999
100
AcDbArc
 50
83.19646999999998
 51
89.13031600000001
  0
LINE
  5
3FC
330
18
100
AcDbEntity
  8
1
  6
Continuous
100
AcDbLine
 10
274.0000015376083
 20
143.4999998068467
 30
0.0
 11
266.0000015376083
 21
143.4999998068467
 31
0.0
  0
LINE
  5
3FD
330
18
100
AcDbEntity
  8
1
  6
Continuous
100
AcDbLine
 10
261.5000015376083
 20
141.9999998068467
 30
0.0
 11
278.5000015376083
 21
141.9999998068467
 31
0.0
  0
ARC
  5
3FE
330
18
100
AcDbEntity
  8
1
  6
Continuous
100
AcDbCircle
 10
274.2500015376083
 20
129.7244928068466
 30
0.0
 40
12.275507
100
AcDbArc
 50
69.743842
 51
110.2561579999999
  0
ARC
  5
3FF
330
18
100
AcDbEntity
  8
1
  6
Continuous
100
AcDbCircle
 10
270.0000015376083
 20
265.9999998068467
 30
0.0
 40
30.8
100
AcDbArc
 50
231.395643
 51
285.9514229999998
  0
LINE
  5
400
330
18
100
AcDbEntity
  8
1
  6
Continuous
100
AcDbLine
 10
279.4845705376083
 20
121.6499998068467
 30
0.0
 11
249.2575635376083
 21
121.6499998068467
 31
0.0
  0
LINE
  5
401
330
18
100
AcDbEntity
  8
1
  6
Continuous
100
AcDbLine
 10
242.2012135376083
 20
121.1999998068466
 30
0.0
 11
297.7987895376083
 21
121.1999998068466
 31
0.0
  0
LINE
  5
402
330
18
100
AcDbEntity
  8
1
  6
Continuous
100
AcDbLine
 10
201.9484375376082
 20
118.4999998068467
 30
0.0
 11
338.0515655376083
 21
118.4999998068467
 31
0.0
  0
LINE
  5
403
330
18
100
AcDbEntity
  8
4
  6
CENTER
100
AcDbLine
 10
275.2500015376083
 20
140.9999998068467
 30
0.0
 11
254.7500015376081
 21
140.9999998068467
 31
0.0
  0
LINE
  5
404
330
18
100
AcDbEntity
  8
1
  6
Continuous
100
AcDbLine
 10
265.0000015376083
 20
150.9999998068467
 30
0.0
 11
311.2391605376082
 21
150.9999998068467
 31
0.0
  0
LINE
  5
405
330
18
100
AcDbEntity
  8
1
  6
Continuous
100
AcDbLine
 10
278.5000015376083
 20
261.0925228068465
 30
0.0
 11
270.0000015376083
 21
256.1850448068467
 31
0.0
  0
CIRCLE
  5
406
330
18
100
AcDbEntity
  8
1
  6
Continuous
100
AcDbCircle
 10
270.0000015376083
 20
265.9999998068467
 30
0.0
 40
6.0
  0
CIRCLE
  5
407
330
18
100
AcDbEntity
  8
2
  6
Continuous
100
AcDbCircle
 10
270.0000015376083
 20
265.9999998068467
 30
0.0
 40
5.052999999999999
  0
LINE
  5
409
330
18
100
AcDbEntity
  8
4
  6
CENTER
100
AcDbLine
 10
355.0000015376083
 20
265.9999998068467
 30
0.0
 11
185.0000015376083
 21
265.9999998068467
 31
0.0
  0
ARC
  5
40A
330
18
100
AcDbEntity
  8
1
  6
Continuous
100
AcDbCircle
 10
211.6571675376082
 20
147.9999998068467
 30
0.0
 40
10.0
100
AcDbArc
 50
90.00000300000001
 51
180.000005
  0
LINE
  5
40B
330
18
100
AcDbEntity
  8
1
  6
Continuous
100
AcDbLine
 10
198.3484665376083
 20
126.3002298068466
 30
0.0
 11
216.8113445376083
 21
126.3002298068466
 31
0.0
  0
ARC
  5
40C
330
18
100
AcDbEntity
  8
1
  6
Continuous
100
AcDbCircle
 10
221.8833485376082
 20
-7.981966193153254
 30
0.0
 40
139.282196
100
AcDbArc
 50
80.77685699999998
 51
99.22075799999998
  0
ARC
  5
40D
330
18
100
AcDbEntity
  8
1
  6
Continuous
100
AcDbCircle
 10
221.8833485376082
 20
-7.981966193153254
 30
0.0
 40
136.082199
100
AcDbArc
 50
80.670613
 51
99.32938499999998
  0
LINE
  5
40E
330
18
100
AcDbEntity
  8
1
  6
Continuous
100
AcDbLine
 10
201.6571675376082
 20
129.8238088068467
 30
0.0
 11
201.6571675376082
 21
147.9999998068467
 31
0.0
  0
ARC
  5
40F
330
18
100
AcDbEntity
  8
1
  6
Continuous
100
AcDbCircle
 10
201.9484375376082
 20
112.4999998068467
 30
0.0
 40
6.0
100
AcDbArc
 50
90.0
 51
173.420407
  0
LINE
  5
410
330
18
100
AcDbEntity
  8
1
  6
Continuous
100
AcDbLine
 10
198.3484665376083
 20
126.3002298068466
 30
0.0
 11
198.3484665376083
 21
129.5004858068466
 31
0.0
  0
LINE
  5
411
330
18
100
AcDbEntity
  8
1
  6
Continuous
100
AcDbLine
 10
199.5649315376083
 20
129.5004708068467
 30
0.0
 11
198.3484705376083
 21
129.5004858068466
 31
0.0
  0
LINE
  5
412
330
18
100
AcDbEntity
  8
1
  6
Continuous
100
AcDbLine
 10
228.5348375376082
 20
131.1413168068466
 30
0.0
 11
228.5348375376082
 21
147.9999998068467
 31
0.0
  0
ARC
  5
413
330
18
100
AcDbEntity
  8
1
  6
Continuous
100
AcDbCircle
 10
265.0000015376083
 20
140.9999998068467
 30
0.0
 40
10.0
100
AcDbArc
 50
90.0
 51
180.0
  0
LINE
  5
414
330
18
100
AcDbEntity
  8
4
  6
CENTER
100
AcDbLine
 10
265.0000015376083
 20
151.2499998068467
 30
0.0
 11
265.0000015376083
 21
130.7499998068467
 31
0.0
  0
ARC
  5
415
330
18
100
AcDbEntity
  8
1
  6
Continuous
100
AcDbCircle
 10
265.0000015376083
 20
140.9999998068467
 30
0.0
 40
5.25
100
AcDbArc
 50
28.43688999999999
 51
228.1896849999998
  0
LINE
  5
416
330
18
100
AcDbEntity
  8
1
  6
Continuous
100
AcDbLine
 10
269.9647265376081
 20
124.8499908068466
 30
0.0
 11
212.4609635376083
 21
124.8511958068467
 31
0.0
  0
LINE
  5
417
330
18
100
AcDbEntity
  8
1
  6
Continuous
100
AcDbLine
 10
269.9647435376083
 20
125.6499908068465
 30
0.0
 11
212.4609805376083
 21
125.6511958068467
 31
0.0
  0
ARC
  5
418
330
18
100
AcDbEntity
  8
1
  6
Continuous
100
AcDbCircle
 10
242.2133465376083
 20
118.1684998068466
 30
0.0
 40
3.031524
100
AcDbArc
 50
90.229312
 51
173.7220989999999
  0
ARC
  5
419
330
18
100
AcDbEntity
  8
1
  6
Continuous
100
AcDbCircle
 10
224.4604615376083
 20
101.4508628068466
 30
0.0
 40
26.0
100
AcDbArc
 50
68.553871
 51
111.4432659999999
  0
LINE
  5
41A
330
18
100
AcDbEntity
  8
1
  6
Continuous
100
AcDbLine
 10
212.4609695376083
 20
124.8511198068467
 30
0.0
 11
212.4609695376083
 21
125.6511958068467
 31
0.0
  0
LINE
  5
41B
330
18
100
AcDbEntity
  8
1
  6
Continuous
100
AcDbLine
 10
249.2575635376083
 20
121.6499998068467
 30
0.0
 11
249.2575635376083
 21
124.8499998068465
 31
0.0
  0
LINE
  5
41C
330
18
100
AcDbEntity
  8
1
  6
Continuous
100
AcDbLine
 10
260.3181885376083
 20
129.4992038068466
 30
0.0
 11
243.6569495376083
 21
129.4995398068466
 31
0.0
  0
LINE
  5
41D
330
18
100
AcDbEntity
  8
1
  6
Continuous
100
AcDbLine
 10
255.0000015376083
 20
129.4993108068467
 30
0.0
 11
255.0000015376083
 21
140.9999998068467
 31
0.0
  0
LINE
  5
41E
330
18
100
AcDbEntity
  8
1
  6
Continuous
100
AcDbLine
 10
255.7500015376083
 20
125.6502888068466
 30
0.0
 11
255.7500015376083
 21
126.3002298068466
 31
0.0
  0
LINE
  5
41F
330
18
100
AcDbEntity
  8
1
  6
Continuous
100
AcDbLine
 10
255.0000015376083
 20
125.6503048068467
 30
0.0
 11
255.0000015376083
 21
126.3002298068466
 31
0.0
  0
LINE
  5
420
330
18
100
AcDbEntity
  8
1
  6
Continuous
100
AcDbLine
 10
261.5000015376083
 20
141.9999998068467
 30
0.0
 11
261.5000015376083
 21
131.9999998068467
 31
0.0
  0
LINE
  5
421
330
18
100
AcDbEntity
  8
1
  6
Continuous
100
AcDbLine
 10
270.0000015376083
 20
141.2408108068467
 30
0.0
 11
270.0000015376083
 21
133.2305648068466
 31
0.0
  0
ARC
  5
422
330
18
100
AcDbEntity
  8
1
  6
Continuous
100
AcDbCircle
 10
257.8643945376083
 20
150.1559558068467
 30
0.0
 40
20.801984
100
AcDbArc
 50
276.774359
 51
300.7787819999998
  0
ARC
  5
423
330
18
100
AcDbEntity
  8
1
  6
Continuous
100
AcDbCircle
 10
257.8754825376082
 20
150.1070538068467
 30
0.0
 40
23.95211499999999
100
AcDbArc
 50
276.7618189999998
 51
301.125439
  0
LINE
  5
424
330
18
100
AcDbEntity
  8
1
  6
Continuous
100
AcDbLine
 10
268.0174125376082
 20
131.9999998068467
 30
0.0
 11
259.0000015376083
 21
131.9999998068467
 31
0.0
  0
LINE
  5
425
330
18
100
AcDbEntity
  8
1
  6
Continuous
100
AcDbLine
 10
259.0000015376083
 20
129.4992298068467
 30
0.0
 11
259.0000015376083
 21
131.9999998068467
 31
0.0
  0
LINE
  5
426
330
18
100
AcDbEntity
  8
1
  6
Continuous
100
AcDbLine
 10
266.0000015376083
 20
143.4999998068467
 30
0.0
 11
264.5000015376083
 21
141.9999998068467
 31
0.0
  0
ARC
  5
427
330
18
100
AcDbEntity
  8
1
  6
Continuous
100
AcDbCircle
 10
265.7500015376083
 20
129.7244928068466
 30
0.0
 40
12.275507
100
AcDbArc
 50
69.743842
 51
110.2561579999999
  0
LINE
  5
428
330
18
100
AcDbEntity
  8
2
  6
Continuous
100
AcDbLine
 10
264.9470015376083
 20
141.9999998068467
 30
0.0
 11
264.9470015376083
 21
142.4469998068467
 31
0.0
  0
ARC
  5
429
330
18
100
AcDbEntity
  8
1
  6
Continuous
100
AcDbCircle
 10
218.5348375376082
 20
147.9999998068467
 30
0.0
 40
10.0
100
AcDbArc
 50
0.0
 51
90.00000300000001
  0
LINE
  5
42A
330
18
100
AcDbEntity
  8
1
  6
Continuous
100
AcDbLine
 10
211.6571675376082
 20
157.9999998068467
 30
0.0
 11
218.5348375376082
 21
157.9999998068467
 31
0.0
  0
LINE
  5
42B
330
18
100
AcDbEntity
  8
5
  6
PHANTOM
100
AcDbLine
 10
206.6278755376083
 20
242.4320948068467
 30
0.0
 11
249.2181345376083
 21
240.2017018068467
 31
0.0
  0
LINE
  5
42C
330
18
100
AcDbEntity
  8
5
  6
PHANTOM
100
AcDbLine
 10
196.3424945376083
 20
263.1797818068467
 30
0.0
 11
216.6295395376083
 21
266.7569348068466
 31
0.0
  0
ARC
  5
42D
330
18
100
AcDbEntity
  8
5
  6
PHANTOM
100
AcDbCircle
 10
223.5523225376083
 20
264.0000048068465
 30
0.0
 40
30.0
100
AcDbArc
 50
205.67929
 51
281.724075
  0
LINE
  5
42E
330
18
100
AcDbEntity
  8
1
  6
Continuous
100
AcDbLine
 10
155.4999975376083
 20
258.2329408068466
 30
0.0
 11
155.4999975376083
 21
265.4313348068465
 31
0.0
  0
ARC
  5
42F
330
18
100
AcDbEntity
  8
1
  6
Continuous
100
AcDbCircle
 10
152.1466495376082
 20
258.2329408068466
 30
0.0
 40
3.353351999999998
100
AcDbArc
 50
269.9999969999999
 51
90.00000500000002
  0
ARC
  5
430
330
18
100
AcDbEntity
  8
1
  6
Continuous
100
AcDbCircle
 10
152.1466495376082
 20
265.4313348068465
 30
0.0
 40
3.353351999999998
100
AcDbArc
 50
0.000003
 51
90.00000500000002
  0
LINE
  5
431
330
18
100
AcDbEntity
  8
5
  6
PHANTOM
100
AcDbLine
 10
196.5153085376083
 20
250.9999958068467
 30
0.0
 11
194.7567105376081
 21
263.2079718068466
 31
0.0
  0
ARC
  5
432
330
18
100
AcDbEntity
  8
5
  6
PHANTOM
100
AcDbCircle
 10
195.6999915376082
 20
266.8235688068467
 30
0.0
 40
3.7
100
AcDbArc
 50
100.0000009999999
 51
279.9999989999998
  0
LINE
  5
433
330
18
100
AcDbEntity
  8
5
  6
PHANTOM
100
AcDbLine
 10
229.6482745376083
 20
234.6258648068467
 30
0.0
 11
265.5679925376082
 21
242.0802288068467
 31
0.0
  0
LINE
  5
434
330
18
100
AcDbEntity
  8
1
  6
Continuous
100
AcDbLine
 10
224.4439765376083
 20
242.1264688068467
 30
0.0
 11
266.0634155376083
 21
241.8170128068467
 31
0.0
  0
LINE
  5
435
330
18
100
AcDbEntity
  8
1
  6
Continuous
100
AcDbLine
 10
219.4971035376083
 20
258.1224688068466
 30
0.0
 11
254.5271445376083
 21
247.2279778068467
 31
0.0
  0
ARC
  5
436
330
18
100
AcDbEntity
  8
1
  6
Continuous
100
AcDbCircle
 10
224.5183285376083
 20
252.1261898068465
 30
0.0
 40
10.0
100
AcDbArc
 50
137.042295
 51
269.573988
  0
ARC
  5
437
330
18
100
AcDbEntity
  8
1
  6
Continuous
100
AcDbCircle
 10
224.5183285376083
 20
252.1261898068465
 30
0.0
 40
9.0
100
AcDbArc
 50
134.656606
 51
10.791545
  0
CIRCLE
  5
438
330
18
100
AcDbEntity
  8
5
  6
PHANTOM
100
AcDbCircle
 10
223.8545545376082
 20
254.5255268068467
 30
0.0
 40
9.0
  0
ARC
  5
439
330
18
100
AcDbEntity
  8
5
  6
PHANTOM
100
AcDbCircle
 10
219.6654695376082
 20
268.1393038068466
 30
0.0
 40
2.0
100
AcDbArc
 50
207.1884199999999
 51
294.9549709999999
  0
ARC
  5
43A
330
18
100
AcDbEntity
  8
1
  6
Continuous
100
AcDbCircle
 10
265.2219795376082
 20
281.6160238068466
 30
0.0
 40
36.01273299999999
100
AcDbArc
 50
252.724079
 51
262.953571
  0
ARC
  5
43B
330
18
100
AcDbEntity
  8
5
  6
PHANTOM
100
AcDbCircle
 10
258.2502505376083
 20
277.3416508068466
 30
0.0
 40
36.01273299999999
100
AcDbArc
 50
281.7240789999999
 51
291.953571
  0
LINE
  5
43C
330
18
100
AcDbEntity
  8
1
  6
Continuous
100
AcDbLine
 10
261.5000015376083
 20
261.0925228068465
 30
0.0
 11
261.5000015376083
 21
270.9074768068466
 31
0.0
  0
LINE
  5
43D
330
18
100
AcDbEntity
  8
1
  6
Continuous
100
AcDbLine
 10
261.5000015376083
 20
261.0925228068465
 30
0.0
 11
270.0000015376083
 21
256.1850448068467
 31
0.0
  0
ARC
  5
43E
330
18
100
AcDbEntity
  8
1
  6
Continuous
100
AcDbCircle
 10
328.1153505376082
 20
161.4999998068467
 30
0.0
 40
10.0
100
AcDbArc
 50
0.0
 51
90.00000300000001
  0
ARC
  5
43F
330
18
100
AcDbEntity
  8
1
  6
Continuous
100
AcDbCircle
 10
336.7931535376083
 20
139.9999918068466
 30
0.0
 40
3.0
100
AcDbArc
 50
90.00000300000001
 51
180.000005
  0
ARC
  5
440
330
18
100
AcDbEntity
  8
1
  6
Continuous
100
AcDbCircle
 10
334.7931535376083
 20
138.7999948068466
 30
0.0
 40
1.0
100
AcDbArc
 50
90.00000300000001
 51
180.000005
  0
ARC
  5
441
330
18
100
AcDbEntity
  8
1
  6
Continuous
100
AcDbCircle
 10
336.7931535376083
 20
124.4770478068466
 30
0.0
 40
3.0
100
AcDbArc
 50
180.0
 51
256.302723
  0
ARC
  5
442
330
18
100
AcDbEntity
  8
1
  6
Continuous
100
AcDbCircle
 10
334.7931535376083
 20
125.6499938068465
 30
0.0
 40
1.0
100
AcDbArc
 50
180.0
 51
263.0
  0
LINE
  5
443
330
18
100
AcDbEntity
  8
1
  6
Continuous
100
AcDbLine
 10
297.0889075376083
 20
142.9999998068467
 30
0.0
 11
338.1153505376082
 21
142.9999998068467
 31
0.0
  0
LINE
  5
444
330
18
100
AcDbEntity
  8
1
  6
Continuous
100
AcDbLine
 10
306.4557445376081
 20
125.2001088068467
 30
0.0
 11
338.2552815376082
 21
121.2956158068467
 31
0.0
  0
ARC
  5
445
330
18
100
AcDbEntity
  8
1
  6
Continuous
100
AcDbCircle
 10
310.0000015376083
 20
95.99999980684676
 30
0.0
 40
53.0
100
AcDbArc
 50
88.66028199999998
 51
126.46557
  0
LINE
  5
446
330
18
100
AcDbEntity
  8
1
  6
Continuous
100
AcDbLine
 10
311.2391605376082
 20
142.9999998068467
 30
0.0
 11
311.2391605376082
 21
161.4999998068467
 31
0.0
  0
ARC
  5
447
330
18
100
AcDbEntity
  8
1
  6
Continuous
100
AcDbCircle
 10
337.9643485376082
 20
65.48720780684674
 30
0.0
 40
81.01702600000001
100
AcDbArc
 50
113.4728629999999
 51
120.2543179999999
  0
LINE
  5
448
330
18
100
AcDbEntity
  8
1
  6
Continuous
100
AcDbLine
 10
297.0888195376083
 20
139.7999798068467
 30
0.0
 11
307.0867345376083
 21
139.7999798068467
 31
0.0
  0
ARC
  5
449
330
18
100
AcDbEntity
  8
1
  6
Continuous
100
AcDbCircle
 10
306.9432225376081
 20
129.0746768068467
 30
0.0
 40
4.0
100
AcDbArc
 50
178.241824
 51
262.999997
  0
LINE
  5
44A
330
18
100
AcDbEntity
  8
1
  6
Continuous
100
AcDbLine
 10
306.4557445376081
 20
125.1044918068467
 30
0.0
 11
301.1204455376083
 21
124.6377138068465
 31
0.0
  0
LINE
  5
44B
330
18
100
AcDbEntity
  8
1
  6
Continuous
100
AcDbLine
 10
303.2272095376083
 20
138.3873848068467
 30
0.0
 11
302.9451165376081
 21
129.1974048068467
 31
0.0
  0
ARC
  5
44C
330
18
100
AcDbEntity
  8
1
  6
Continuous
100
AcDbCircle
 10
279.4845705376083
 20
134.8499998068467
 30
0.0
 40
13.2
100
AcDbArc
 50
270.0
 51
307.4120759999999
  0
LINE
  5
44D
330
18
100
AcDbEntity
  8
1
  6
Continuous
100
AcDbLine
 10
284.2500015376083
 20
121.1999998068466
 30
0.0
 11
284.2500015376083
 21
122.5402208068467
 31
0.0
  0
ARC
  5
44E
330
18
100
AcDbEntity
  8
1
  6
Continuous
100
AcDbCircle
 10
297.7866565376082
 20
118.1684998068466
 30
0.0
 40
3.031524
100
AcDbArc
 50
6.277900999999997
 51
89.77068800000003
  0
ARC
  5
44F
330
18
100
AcDbEntity
  8
1
  6
Continuous
100
AcDbCircle
 10
307.4384485376083
 20
113.5851648068466
 30
0.0
 40
28.18388399999999
100
AcDbArc
 50
111.5441429999998
 51
144.2162299999999
  0
ARC
  5
450
330
18
100
AcDbEntity
  8
1
  6
Continuous
100
AcDbCircle
 10
276.7567455376082
 20
136.3002298068466
 30
0.0
 40
10.0
100
AcDbArc
 50
270.0
 51
321.426643
  0
LINE
  5
451
330
18
100
AcDbEntity
  8
1
  6
Continuous
100
AcDbLine
 10
274.0000015376083
 20
143.4999998068467
 30
0.0
 11
275.5000015376082
 21
141.9999998068467
 31
0.0
  0
LINE
  5
452
330
18
100
AcDbEntity
  8
2
  6
Continuous
100
AcDbLine
 10
275.0530015376082
 20
141.9999998068467
 30
0.0
 11
275.0530015376082
 21
142.4469998068467
 31
0.0
  0
LINE
  5
453
330
18
100
AcDbEntity
  8
1
  6
Continuous
100
AcDbLine
 10
278.5000015376083
 20
141.9999998068467
 30
0.0
 11
278.5000015376083
 21
137.7541928068466
 31
0.0
  0
ARC
  5
454
330
18
100
AcDbEntity
  8
1
  6
Continuous
100
AcDbCircle
 10
337.9643485376082
 20
65.48720780684674
 30
0.0
 40
77.817026
100
AcDbArc
 50
116.5964549999999
 51
120.946554
  0
LINE
  5
455
330
18
100
AcDbEntity
  8
1
  6
Continuous
100
AcDbLine
 10
297.1357815376081
 20
135.5059508068467
 30
0.0
 11
299.3350085376082
 21
126.6254168068467
 31
0.0
  0
ARC
  5
456
330
18
100
AcDbEntity
  8
1
  6
Continuous
100
AcDbCircle
 10
302.2260605376082
 20
127.4265518068466
 30
0.0
 40
3.0
100
AcDbArc
 50
195.488501
 51
268.298994
  0
ARC
  5
457
330
18
100
AcDbEntity
  8
1
  6
Continuous
100
AcDbCircle
 10
296.1720975376083
 20
135.2388918068466
 30
0.0
 40
1.0
100
AcDbArc
 50
15.488501
 51
137.114654
  0
ARC
  5
458
330
18
100
AcDbEntity
  8
1
  6
Continuous
100
AcDbCircle
 10
297.0889075376083
 20
122.9999998068467
 30
0.0
 40
20.0
100
AcDbArc
 50
90.0
 51
102.7683229999999
  0
ARC
  5
459
330
18
100
AcDbEntity
  8
1
  6
Continuous
100
AcDbCircle
 10
297.0888195376083
 20
122.9999798068466
 30
0.0
 40
16.8
100
AcDbArc
 50
90.0
 51
102.768418
  0
LINE
  5
45A
330
18
100
AcDbEntity
  8
1
  6
Continuous
100
AcDbLine
 10
333.7931535376083
 20
121.8434968068467
 30
0.0
 11
333.7931535376083
 21
139.9999918068466
 31
0.0
  0
LINE
  5
45B
330
18
100
AcDbEntity
  8
1
  6
Continuous
100
AcDbLine
 10
306.4224905376082
 20
138.1846788068466
 30
0.0
 11
306.1436065376081
 21
129.0992188068467
 31
0.0
  0
LINE
  5
45C
330
18
100
AcDbEntity
  8
1
  6
Continuous
100
AcDbLine
 10
307.0474505376082
 20
140.2281718068465
 30
0.0
 11
308.4574925376083
 21
124.8587078068466
 31
0.0
  0
ARC
  5
45D
330
18
100
AcDbEntity
  8
1
  6
Continuous
100
AcDbCircle
 10
306.9432225376081
 20
129.0746768068467
 30
0.0
 40
0.8
100
AcDbArc
 50
178.241824
 51
262.999997
  0
LINE
  5
45E
330
18
100
AcDbEntity
  8
1
  6
Continuous
100
AcDbLine
 10
306.8457265376083
 20
128.3762558068467
 30
0.0
 11
308.1494675376083
 21
128.2161768068466
 31
0.0
  0
ARC
  5
45F
330
18
100
AcDbEntity
  8
1
  6
Continuous
100
AcDbCircle
 10
304.0599965376083
 20
139.9540938068467
 30
0.0
 40
3.0
100
AcDbArc
 50
5.241817
 51
90.0
  0
ARC
  5
460
330
18
100
AcDbEntity
  8
1
  6
Continuous
100
AcDbCircle
 10
259.2979645376082
 20
-579.3593441931533
 30
0.0
 40
719.0898029999997
100
AcDbArc
 50
86.177238
 51
86.49761599999996
  0
ARC
  5
461
330
18
100
AcDbEntity
  8
1
  6
Continuous
100
AcDbCircle
 10
321.2391605376081
 20
161.4999998068467
 30
0.0
 40
10.0
100
AcDbArc
 50
90.00000300000001
 51
180.000005
  0
LINE
  5
462
330
18
100
AcDbEntity
  8
1
  6
Continuous
100
AcDbLine
 10
321.2391605376081
 20
171.4999998068467
 30
0.0
 11
328.1153505376082
 21
171.4999998068467
 31
0.0
  0
LINE
  5
463
330
18
100
AcDbEntity
  8
1
  6
Continuous
100
AcDbLine
 10
338.1153505376082
 20
139.7999948068466
 30
0.0
 11
338.1153505376082
 21
161.4999998068467
 31
0.0
  0
ARC
  5
464
330
18
100
AcDbEntity
  8
1
  6
Continuous
100
AcDbCircle
 10
355.0000015376083
 20
140.9999998068467
 30
0.0
 40
10.0
100
AcDbArc
 50
0.0
 51
90.0
  0
CIRCLE
  5
465
330
18
100
AcDbEntity
  8
1
  6
Continuous
100
AcDbCircle
 10
355.0000015376083
 20
140.9999998068467
 30
0.0
 40
5.25
  0
LINE
  5
466
330
18
100
AcDbEntity
  8
4
  6
CENTER
100
AcDbLine
 10
355.0000015376083
 20
151.2499998068467
 30
0.0
 11
355.0000015376083
 21
130.7499998068467
 31
0.0
  0
LINE
  5
467
330
18
100
AcDbEntity
  8
4
  6
CENTER
100
AcDbLine
 10
365.2500015376081
 20
140.9999998068467
 30
0.0
 11
344.7500015376083
 21
140.9999998068467
 31
0.0
  0
LINE
  5
468
330
18
100
AcDbEntity
  8
1
  6
Continuous
100
AcDbLine
 10
338.2552815376082
 20
121.2956158068467
 30
0.0
 11
338.2552815376082
 21
124.2173888068466
 31
0.0
  0
ARC
  5
469
330
18
100
AcDbEntity
  8
1
  6
Continuous
100
AcDbCircle
 10
338.0515655376083
 20
112.4999998068467
 30
0.0
 40
6.0
100
AcDbArc
 50
6.579592999999999
 51
90.0
  0
LINE
  5
46A
330
18
100
AcDbEntity
  8
1
  6
Continuous
100
AcDbLine
 10
342.7845675376083
 20
119.9646968068467
 30
0.0
 11
342.8265295376083
 21
120.7653668068467
 31
0.0
  0
LINE
  5
46B
330
18
100
AcDbEntity
  8
1
  6
Continuous
100
AcDbLine
 10
334.6712845376083
 20
124.6574478068467
 30
0.0
 11
338.2552815376082
 21
124.2173888068466
 31
0.0
  0
LINE
  5
46C
330
18
100
AcDbEntity
  8
1
  6
Continuous
100
AcDbLine
 10
334.7931535376083
 20
139.7999948068466
 30
0.0
 11
338.1153505376082
 21
139.7999948068466
 31
0.0
  0
LINE
  5
46D
330
18
100
AcDbEntity
  8
1
  6
Continuous
100
AcDbLine
 10
334.7931535376083
 20
139.7999948068466
 30
0.0
 11
338.1153505376082
 21
139.7999948068466
 31
0.0
  0
LINE
  5
46E
330
18
100
AcDbEntity
  8
1
  6
Continuous
100
AcDbLine
 10
338.1153505376082
 20
150.9999998068467
 30
0.0
 11
355.0000015376083
 21
150.9999998068467
 31
0.0
  0
ARC
  5
46F
330
18
100
AcDbEntity
  8
1
  6
Continuous
100
AcDbCircle
 10
334.4732125376081
 20
258.5795668068466
 30
0.0
 40
3.7
100
AcDbArc
 50
251.000003
 51
71.00000099999999
  0
ARC
  5
470
330
18
100
AcDbEntity
  8
1
  6
Continuous
100
AcDbCircle
 10
331.9402495376082
 20
235.2385328068467
 30
0.0
 40
2.0
100
AcDbArc
 50
261.0000009999998
 51
356.004411
  0
LINE
  5
471
330
18
100
AcDbEntity
  8
5
  6
PHANTOM
100
AcDbLine
 10
339.7716595376082
 20
267.2452538068467
 30
0.0
 11
319.1232015376081
 21
259.7298288068466
 31
0.0
  0
LINE
  5
472
330
18
100
AcDbEntity
  8
1
  6
Continuous
100
AcDbLine
 10
316.2001335376082
 20
268.7846888068467
 30
0.0
 11
335.6778175376083
 21
262.0779858068467
 31
0.0
  0
ARC
  5
473
330
18
100
AcDbEntity
  8
1
  6
Continuous
100
AcDbCircle
 10
304.7866525376082
 20
273.5033648068466
 30
0.0
 40
45.503368
100
AcDbArc
 50
230.835727
 51
291.4411289999998
  0
LINE
  5
474
330
18
100
AcDbEntity
  8
1
  6
Continuous
100
AcDbLine
 10
278.5000015376083
 20
261.0925228068465
 30
0.0
 11
278.5000015376083
 21
270.9074768068466
 31
0.0
  0
LINE
  5
475
330
18
100
AcDbEntity
  8
1
  6
Continuous
100
AcDbLine
 10
331.6273795376082
 20
233.2631528068467
 30
0.0
 11
309.9242815376081
 21
236.7005838068467
 31
0.0
  0
ARC
  5
476
330
18
100
AcDbEntity
  8
1
  6
Continuous
100
AcDbCircle
 10
310.0807185376082
 20
237.6882778068465
 30
0.0
 40
1.0
100
AcDbArc
 50
160.362323
 51
260.999997
  0
LINE
  5
477
330
18
100
AcDbEntity
  8
1
  6
Continuous
100
AcDbLine
 10
309.1388765376083
 20
238.0243488068467
 30
0.0
 11
309.7801505376083
 21
239.8215138068467
 31
0.0
  0
ARC
  5
478
330
18
100
AcDbEntity
  8
1
  6
Continuous
100
AcDbCircle
 10
309.0693615376083
 20
262.5982438068467
 30
0.0
 40
33.78742600000001
100
AcDbArc
 50
291.4411289999998
 51
302.1409759999999
  0
ARC
  5
479
330
18
100
AcDbEntity
  8
5
  6
PHANTOM
100
AcDbCircle
 10
318.7811815376082
 20
260.6695268068467
 30
0.0
 40
1.0
100
AcDbArc
 50
189.362323
 51
289.999997
  0
LINE
  5
47A
330
18
100
AcDbEntity
  8
1
  6
Continuous
100
AcDbLine
 10
313.7909275376081
 20
261.7878528068467
 30
0.0
 11
333.2686075376082
 21
255.0811478068466
 31
0.0
  0
LINE
  5
47B
330
18
100
AcDbEntity
  8
5
  6
PHANTOM
100
AcDbLine
 10
317.7944975376083
 20
260.5068478068466
 30
0.0
 11
317.4840855376081
 21
262.3895788068467
 31
0.0
  0
ARC
  5
47C
330
18
100
AcDbEntity
  8
1
  6
Continuous
100
AcDbCircle
 10
314.9955325376085
 20
265.2862698068467
 30
0.0
 40
3.7
100
AcDbArc
 50
71.00000099999999
 51
250.999999
  0
ARC
  5
47D
330
18
100
AcDbEntity
  8
1
  6
Continuous
100
AcDbCircle
 10
311.5504755376082
 20
262.4769358068466
 30
0.0
 40
2.0
100
AcDbArc
 50
233.581531
 51
343.693646
  0
ARC
  5
47E
330
18
100
AcDbEntity
  8
1
  6
Continuous
100
AcDbCircle
 10
322.6034995376083
 20
279.2230988068467
 30
0.0
 40
14.378885
100
AcDbArc
 50
221.0978209999999
 51
228.516724
  0
ARC
  5
47F
330
18
100
AcDbEntity
  8
1
  6
Continuous
100
AcDbCircle
 10
309.0693615376083
 20
262.5982438068467
 30
0.0
 40
33.78742600000001
100
AcDbArc
 50
322.314486
 51
16.684713
  0
ARC
  5
480
330
18
100
AcDbEntity
  8
5
  6
PHANTOM
100
AcDbCircle
 10
339.0876185376082
 20
269.1246428068467
 30
0.0
 40
2.0
100
AcDbArc
 50
290.0000009999999
 51
25.00441099999999
  0
ARC
  5
481
330
18
100
AcDbEntity
  8
1
  6
Continuous
100
AcDbCircle
 10
40.50000153760831
 20
357.3498268068465
 30
0.0
 40
6.0
100
AcDbArc
 50
117.4761889999999
 51
180.0
  0
ARC
  5
482
330
18
100
AcDbEntity
  8
1
  6
Continuous
100
AcDbCircle
 10
119.5000015376083
 20
357.3498268068465
 30
0.0
 40
6.0
100
AcDbArc
 50
0.0
 51
62.523811
  0
LINE
  5
483
330
18
100
AcDbEntity
  8
1
  6
Continuous
100
AcDbLine
 10
60.15000153760832
 20
349.3219618068467
 30
0.0
 11
99.85000153760832
 21
349.3219618068467
 31
0.0
  0
ARC
  5
484
330
18
100
AcDbEntity
  8
1
  6
Continuous
100
AcDbCircle
 10
80.00000153760833
 20
190.9999998068467
 30
0.0
 40
150.0
100
AcDbArc
 50
83.42040699999998
 51
96.57959300000001
  0
LINE
  5
485
330
18
100
AcDbEntity
  8
1
  6
Continuous
100
AcDbLine
 10
34.50000153760832
 20
357.3498268068465
 30
0.0
 11
34.50000153760832
 21
273.3318198068465
 31
0.0
  0
ARC
  5
486
330
18
100
AcDbEntity
  8
1
  6
Continuous
100
AcDbCircle
 10
58.16671353760831
 20
293.8065428068465
 30
0.0
 40
3.066803999999998
100
AcDbArc
 50
102.5561559999999
 51
179.555802
  0
LINE
  5
487
330
18
100
AcDbEntity
  8
1
  6
Continuous
100
AcDbLine
 10
43.99850753760831
 20
276.9696548068465
 30
0.0
 11
51.15000153760831
 21
276.9696548068465
 31
0.0
  0
LINE
  5
488
330
18
100
AcDbEntity
  8
1
  6
Continuous
100
AcDbLine
 10
43.99850753760831
 20
276.9696548068465
 30
0.0
 11
43.15000153760832
 21
275.4999998068466
 31
0.0
  0
LINE
  5
489
330
18
100
AcDbEntity
  8
1
  6
Continuous
100
AcDbLine
 10
54.80000153760832
 20
280.2499998068467
 30
0.0
 11
54.35000153760832
 21
280.2499998068467
 31
0.0
  0
LINE
  5
48A
330
18
100
AcDbEntity
  8
1
  6
Continuous
100
AcDbLine
 10
54.80000153760832
 20
286.4999998068467
 30
0.0
 11
55.10000153760832
 21
286.4999998068467
 31
0.0
  0
ARC
  5
48B
330
18
100
AcDbEntity
  8
1
  6
Continuous
100
AcDbCircle
 10
60.15000153760832
 20
340.3219618068466
 30
0.0
 40
9.0
100
AcDbArc
 50
90.0
 51
180.0
  0
ARC
  5
48C
330
18
100
AcDbEntity
  8
1
  6
Continuous
100
AcDbCircle
 10
63.35000153760832
 20
340.3219618068466
 30
0.0
 40
9.0
100
AcDbArc
 50
90.0
 51
180.0
  0
ARC
  5
48D
330
18
100
AcDbEntity
  8
1
  6
Continuous
100
AcDbCircle
 10
63.50000153760832
 20
334.0515638068467
 30
0.0
 40
6.0
100
AcDbArc
 50
96.57959300000001
 51
180.0
  0
LINE
  5
48E
330
18
100
AcDbEntity
  8
1
  6
Continuous
100
AcDbLine
 10
105.6500015376082
 20
311.8805848068467
 30
0.0
 11
105.6500015376082
 21
340.3219618068466
 31
0.0
  0
LINE
  5
48F
330
18
100
AcDbEntity
  8
1
  6
Continuous
100
AcDbLine
 10
108.8500015376083
 20
311.8805848068467
 30
0.0
 11
108.8500015376083
 21
340.3219618068466
 31
0.0
  0
LINE
  5
490
330
18
100
AcDbEntity
  8
1
  6
Continuous
100
AcDbLine
 10
125.5000015376083
 20
357.3498268068465
 30
0.0
 11
125.5000015376083
 21
306.2400818068466
 31
0.0
  0
LINE
  5
491
330
18
100
AcDbEntity
  8
1
  6
Continuous
100
AcDbLine
 10
113.4999865376083
 20
306.2400818068466
 30
0.0
 11
138.6466375376083
 21
306.2400818068466
 31
0.0
  0
LINE
  5
492
330
18
100
AcDbEntity
  8
1
  6
Continuous
100
AcDbLine
 10
113.4999865376083
 20
299.2875368068467
 30
0.0
 11
138.6466375376083
 21
299.2875368068467
 31
0.0
  0
LINE
  5
493
330
18
100
AcDbEntity
  8
1
  6
Continuous
100
AcDbLine
 10
113.4999865376083
 20
292.3349608068465
 30
0.0
 11
138.6466375376083
 21
292.3349608068465
 31
0.0
  0
ARC
  5
494
330
18
100
AcDbEntity
  8
1
  6
Continuous
100
AcDbCircle
 10
107.7434445376083
 20
263.7368618068466
 30
0.0
 40
19.478853
100
AcDbArc
 50
38.32064600000001
 51
70.237248
  0
LINE
  5
495
330
18
100
AcDbEntity
  8
1
  6
Continuous
100
AcDbLine
 10
125.2408125376082
 20
275.8149548068467
 30
0.0
 11
116.0000015376083
 21
275.8149548068467
 31
0.0
  0
LINE
  5
496
330
18
100
AcDbEntity
  8
1
  6
Continuous
100
AcDbLine
 10
113.4999865376083
 20
308.8805848068466
 30
0.0
 11
113.4999865376083
 21
278.3127748068465
 31
0.0
  0
ARC
  5
497
330
18
100
AcDbEntity
  8
1
  6
Continuous
100
AcDbCircle
 10
102.1685815376082
 20
293.7867268068466
 30
0.0
 40
3.031444
100
AcDbArc
 50
0.227961
 51
83.72344899999999
  0
ARC
  5
498
330
18
100
AcDbEntity
  8
1
  6
Continuous
100
AcDbCircle
 10
73.50000153760833
 20
278.3359678068466
 30
0.0
 40
41.0
100
AcDbArc
 50
355.5494239999999
 51
12.680385
  0
LINE
  5
499
330
18
100
AcDbEntity
  8
1
  6
Continuous
100
AcDbLine
 10
105.6500015376082
 20
280.2499998068467
 30
0.0
 11
105.2000015376083
 21
280.2499998068467
 31
0.0
  0
LINE
  5
49A
330
18
100
AcDbEntity
  8
1
  6
Continuous
100
AcDbLine
 10
114.4782295376083
 20
276.9999998068467
 30
0.0
 11
116.0000015376083
 21
276.9999998068467
 31
0.0
  0
LINE
  5
49B
330
18
100
AcDbEntity
  8
1
  6
Continuous
100
AcDbLine
 10
105.6500015376082
 20
299.8805848068467
 30
0.0
 11
105.6500015376082
 21
309.1882628068467
 31
0.0
  0
LINE
  5
49C
330
18
100
AcDbEntity
  8
1
  6
Continuous
100
AcDbLine
 10
108.8500015376083
 20
299.6126308068467
 30
0.0
 11
108.8500015376083
 21
309.1882628068467
 31
0.0
  0
ARC
  5
49D
330
18
100
AcDbEntity
  8
1
  6
Continuous
100
AcDbCircle
 10
107.8499925376082
 20
297.8805848068467
 30
0.0
 40
2.0
100
AcDbArc
 50
0.000003
 51
90.00000500000002
  0
ARC
  5
49E
330
18
100
AcDbEntity
  8
1
  6
Continuous
100
AcDbCircle
 10
113.2999895376081
 20
301.2545168068466
 30
0.0
 40
3.0
100
AcDbArc
 50
90.00000500000002
 51
180.0000009999999
  0
ARC
  5
49F
330
18
100
AcDbEntity
  8
1
  6
Continuous
100
AcDbCircle
 10
107.8499925376082
 20
297.8805848068467
 30
0.0
 40
1.0
100
AcDbArc
 50
0.000003
 51
90.00000500000002
  0
LINE
  5
4A0
330
18
100
AcDbEntity
  8
1
  6
Continuous
100
AcDbLine
 10
103.8501455376083
 20
299.8805848068467
 30
0.0
 11
103.8501455376083
 21
298.8805848068465
 31
0.0
  0
LINE
  5
4A1
330
18
100
AcDbEntity
  8
1
  6
Continuous
100
AcDbLine
 10
103.8501455376083
 20
299.8805848068467
 30
0.0
 11
107.8499925376082
 21
299.8805848068467
 31
0.0
  0
LINE
  5
4A2
330
18
100
AcDbEntity
  8
1
  6
Continuous
100
AcDbLine
 10
103.8501455376083
 20
298.8805848068465
 30
0.0
 11
107.8499925376082
 21
298.8805848068465
 31
0.0
  0
LINE
  5
4A3
330
18
100
AcDbEntity
  8
1
  6
Continuous
100
AcDbLine
 10
113.2999895376081
 20
304.2545168068466
 30
0.0
 11
113.4999865376083
 21
304.2545168068466
 31
0.0
  0
LINE
  5
4A4
330
18
100
AcDbEntity
  8
1
  6
Continuous
100
AcDbLine
 10
103.8501455376083
 20
311.8805848068467
 30
0.0
 11
110.4999865376083
 21
311.8805848068467
 31
0.0
  0
ARC
  5
4A5
330
18
100
AcDbEntity
  8
1
  6
Continuous
100
AcDbCircle
 10
109.2999895376081
 20
308.1882628068466
 30
0.0
 40
1.0
100
AcDbArc
 50
0.000003
 51
90.00000500000002
  0
LINE
  5
4A6
330
18
100
AcDbEntity
  8
1
  6
Continuous
100
AcDbLine
 10
103.8501455376083
 20
309.1882628068467
 30
0.0
 11
109.2999895376081
 21
309.1882628068467
 31
0.0
  0
LINE
  5
4A7
330
18
100
AcDbEntity
  8
1
  6
Continuous
100
AcDbLine
 10
103.8501455376083
 20
309.1882628068467
 30
0.0
 11
103.8501455376083
 21
311.8805848068467
 31
0.0
  0
ARC
  5
4A8
330
18
100
AcDbEntity
  8
1
  6
Continuous
100
AcDbCircle
 10
110.4999865376083
 20
308.8805848068466
 30
0.0
 40
3.0
100
AcDbArc
 50
0.000003
 51
90.00000500000002
  0
ARC
  5
4A9
330
18
100
AcDbEntity
  8
1
  6
Continuous
100
AcDbCircle
 10
138.6466375376083
 20
295.6883238068467
 30
0.0
 40
3.353351999999998
100
AcDbArc
 50
269.9999969999999
 51
90.00000500000002
  0
LINE
  5
4AA
330
18
100
AcDbEntity
  8
1
  6
Continuous
100
AcDbLine
 10
125.5000015376083
 20
292.3349608068465
 30
0.0
 11
125.5000015376083
 21
275.3660248068466
 31
0.0
  0
LINE
  5
4AB
330
18
100
AcDbEntity
  8
1
  6
Continuous
100
AcDbLine
 10
125.2408125376082
 20
275.8149548068467
 30
0.0
 11
126.0000015376083
 21
274.4999998068467
 31
0.0
  0
ARC
  5
4AC
330
18
100
AcDbEntity
  8
1
  6
Continuous
100
AcDbCircle
 10
138.6466375376083
 20
302.8867488068467
 30
0.0
 40
3.353351999999998
100
AcDbArc
 50
0.000003
 51
90.00000500000002
  0
LINE
  5
4AD
330
18
100
AcDbEntity
  8
1
  6
Continuous
100
AcDbLine
 10
141.9999845376081
 20
295.6883238068467
 30
0.0
 11
141.9999845376081
 21
302.8867488068467
 31
0.0
  0
ARC
  5
4AE
330
18
100
AcDbEntity
  8
1
  6
Continuous
100
AcDbCircle
 10
96.50000153760831
 20
334.0515638068467
 30
0.0
 40
6.0
100
AcDbArc
 50
0.0
 51
83.42040699999998
  0
ARC
  5
4AF
330
18
100
AcDbEntity
  8
1
  6
Continuous
100
AcDbCircle
 10
99.85000153760832
 20
340.3219618068466
 30
0.0
 40
9.0
100
AcDbArc
 50
0.0
 51
90.0
  0
ARC
  5
4B0
330
18
100
AcDbEntity
  8
1
  6
Continuous
100
AcDbCircle
 10
96.65000153760834
 20
340.3219618068466
 30
0.0
 40
9.0
100
AcDbArc
 50
0.0
 51
90.0
  0
LINE
  5
4B1
330
18
100
AcDbEntity
  8
1
  6
Continuous
100
AcDbLine
 10
34.54719853760831
 20
367.4126038068466
 30
0.0
 11
125.4528045376083
 21
367.4126038068466
 31
0.0
  0
LINE
  5
4B2
330
18
100
AcDbEntity
  8
1
  6
Continuous
100
AcDbLine
 10
135.0000015376083
 20
377.9999998068467
 30
0.0
 11
25.00000153760832
 21
377.9999998068467
 31
0.0
  0
LINE
  5
4B3
330
18
100
AcDbEntity
  8
1
  6
Continuous
100
AcDbLine
 10
135.0000015376083
 20
373.9999998068467
 30
0.0
 11
25.00000153760832
 21
373.9999998068467
 31
0.0
  0
LINE
  5
4B4
330
18
100
AcDbEntity
  8
1
  6
Continuous
100
AcDbLine
 10
124.2332835376083
 20
362.6730428068467
 30
0.0
 11
35.76671953760831
 21
362.6730428068467
 31
0.0
  0
LINE
  5
4B5
330
18
100
AcDbEntity
  8
4
  6
CENTER
100
AcDbLine
 10
35.00000153760832
 20
381.9999998068467
 30
0.0
 11
35.00000153760832
 21
369.9999998068467
 31
0.0
  0
ARC
  5
4B6
330
18
100
AcDbEntity
  8
1
  6
Continuous
100
AcDbCircle
 10
34.54130653760832
 20
372.0691478068466
 30
0.0
 40
4.656547999999999
100
AcDbArc
 50
185.3461889999999
 51
270.072497
  0
ARC
  5
4B7
330
18
100
AcDbEntity
  8
1
  6
Continuous
100
AcDbCircle
 10
54.26358253760832
 20
357.9453208068467
 30
0.0
 40
19.091498
100
AcDbArc
 50
150.271545
 51
165.662396
  0
LINE
  5
4B8
330
18
100
AcDbEntity
  8
1
  6
Continuous
100
AcDbLine
 10
27.00000153760832
 20
373.9999998068467
 30
0.0
 11
27.99743153760831
 21
373.0370708068466
 31
0.0
  0
ARC
  5
4B9
330
18
100
AcDbEntity
  8
1
  6
Continuous
100
AcDbCircle
 10
28.01250253760832
 20
371.0587458068466
 30
0.0
 40
1.978383
100
AcDbArc
 50
16.942865
 51
90.43648299999999
  0
LINE
  5
4BA
330
18
100
AcDbEntity
  8
1
  6
Continuous
100
AcDbLine
 10
25.00000153760832
 20
373.9999998068467
 30
0.0
 11
25.00000153760832
 21
377.9999998068467
 31
0.0
  0
LINE
  5
4BB
330
18
100
AcDbEntity
  8
4
  6
CENTER
100
AcDbLine
 10
125.0000015376083
 20
381.9999998068467
 30
0.0
 11
125.0000015376083
 21
369.9999998068467
 31
0.0
  0
ARC
  5
4BC
330
18
100
AcDbEntity
  8
1
  6
Continuous
100
AcDbCircle
 10
125.4586965376082
 20
372.0691478068466
 30
0.0
 40
4.656547999999999
100
AcDbArc
 50
269.9275029999999
 51
354.6538109999998
  0
ARC
  5
4BD
330
18
100
AcDbEntity
  8
1
  6
Continuous
100
AcDbCircle
 10
105.7364205376082
 20
357.9453208068467
 30
0.0
 40
19.091498
100
AcDbArc
 50
14.33760399999999
 51
29.728455
  0
ARC
  5
4BE
330
18
100
AcDbEntity
  8
1
  6
Continuous
100
AcDbCircle
 10
131.9875005376082
 20
371.0587458068466
 30
0.0
 40
1.978383
100
AcDbArc
 50
89.563517
 51
163.0571349999998
  0
LINE
  5
4BF
330
18
100
AcDbEntity
  8
1
  6
Continuous
100
AcDbLine
 10
133.0000015376083
 20
373.9999998068467
 30
0.0
 11
132.0025715376082
 21
373.0370708068466
 31
0.0
  0
LINE
  5
4C0
330
18
100
AcDbEntity
  8
1
  6
Continuous
100
AcDbLine
 10
135.0000015376083
 20
377.9999998068467
 30
0.0
 11
135.0000015376083
 21
373.9999998068467
 31
0.0
  0
LINE
  5
4C1
330
18
100
AcDbEntity
  8
1
  6
Continuous
100
AcDbLine
 10
212.5188305376083
 20
444.1488798068466
 30
0.0
 11
212.5188305376083
 21
443.3488918068467
 31
0.0
  0
LINE
  5
4C2
330
18
100
AcDbEntity
  8
4
  6
CENTER
100
AcDbLine
 10
270.0000015376083
 20
407.9999998068466
 30
0.0
 11
270.0000015376083
 21
537.9999998068467
 31
0.0
  0
LINE
  5
4C3
330
18
100
AcDbEntity
  8
1
  6
Continuous
100
AcDbLine
 10
255.0000015376083
 20
517.9999998068467
 30
0.0
 11
255.0000015376083
 21
427.9999998068467
 31
0.0
  0
LINE
  5
4C4
330
18
100
AcDbEntity
  8
4
  6
CENTER
100
AcDbLine
 10
310.0000015376083
 20
537.9999998068467
 30
0.0
 11
310.0000015376083
 21
407.9999998068466
 31
0.0
  0
LINE
  5
4C5
330
18
100
AcDbEntity
  8
1
  6
Continuous
100
AcDbLine
 10
365.0000015376083
 20
427.9999998068467
 30
0.0
 11
365.0000015376083
 21
517.9999998068467
 31
0.0
  0
CIRCLE
  5
4C6
330
18
100
AcDbEntity
  8
1
  6
Continuous
100
AcDbCircle
 10
310.0000015376083
 20
472.9999998068467
 30
0.0
 40
43.0
  0
CIRCLE
  5
4C7
330
18
100
AcDbEntity
  8
1
  6
Continuous
100
AcDbCircle
 10
310.0000015376083
 20
472.9999998068467
 30
0.0
 40
45.0
  0
ARC
  5
4C8
330
18
100
AcDbEntity
  8
1
  6
Continuous
100
AcDbCircle
 10
280.8180025376083
 20
294.4703668068466
 30
0.0
 40
9.5
100
AcDbArc
 50
175.7592909999999
 51
233.5815409999999
  0
LINE
  5
4C9
330
18
100
AcDbEntity
  8
1
  6
Continuous
100
AcDbLine
 10
272.3890595376082
 20
309.2665328068466
 30
0.0
 11
271.3440205376083
 21
295.1728578068467
 31
0.0
  0
LINE
  5
4CA
330
18
100
AcDbEntity
  8
1
  6
Continuous
100
AcDbLine
 10
263.5478555376082
 20
311.8805808068467
 30
0.0
 11
272.3890515376083
 21
309.2665328068466
 31
0.0
  0
LINE
  5
4CB
330
18
100
AcDbEntity
  8
5
  6
PHANTOM
100
AcDbLine
 10
307.7906505376081
 20
281.0794698068467
 30
0.0
 11
264.4323385376083
 21
286.7249348068467
 31
0.0
  0
ARC
  5
4CC
330
18
100
AcDbEntity
  8
1
  6
Continuous
100
AcDbCircle
 10
267.7738335376082
 20
342.3241008068466
 30
0.0
 40
7.0
100
AcDbArc
 50
20.18986299999999
 51
90.0
  0
ARC
  5
4CD
330
18
100
AcDbEntity
  8
1
  6
Continuous
100
AcDbCircle
 10
205.7760305376083
 20
330.7293738068466
 30
0.0
 40
70.531385
100
AcDbArc
 50
340.4168429999998
 51
7.514991000000001
  0
LINE
  5
4CE
330
18
100
AcDbEntity
  8
1
  6
Continuous
100
AcDbLine
 10
265.7667195376083
 20
362.6730428068467
 30
0.0
 11
354.2332835376082
 21
362.6730428068467
 31
0.0
  0
LINE
  5
4CF
330
18
100
AcDbEntity
  8
4
  6
CENTER
100
AcDbLine
 10
275.2500015376083
 20
427.9999998068467
 30
0.0
 11
254.7500015376081
 21
427.9999998068467
 31
0.0
  0
LINE
  5
4D0
330
18
100
AcDbEntity
  8
1
  6
Continuous
100
AcDbLine
 10
355.4528045376081
 20
367.4126038068466
 30
0.0
 11
264.5471985376083
 21
367.4126038068466
 31
0.0
  0
LINE
  5
4D1
330
18
100
AcDbEntity
  8
1
  6
Continuous
100
AcDbLine
 10
365.0000015376083
 20
377.9999998068467
 30
0.0
 11
255.0000015376083
 21
377.9999998068467
 31
0.0
  0
LINE
  5
4D2
330
18
100
AcDbEntity
  8
1
  6
Continuous
100
AcDbLine
 10
365.0000015376083
 20
373.9999998068467
 30
0.0
 11
255.0000015376083
 21
373.9999998068467
 31
0.0
  0
LINE
  5
4D3
330
18
100
AcDbEntity
  8
1
  6
Continuous
100
AcDbLine
 10
265.0000015376083
 20
417.9999998068466
 30
0.0
 11
355.0000015376083
 21
417.9999998068466
 31
0.0
  0
ARC
  5
4D4
330
18
100
AcDbEntity
  8
1
  6
Continuous
100
AcDbCircle
 10
270.0000015376083
 20
265.9999998068467
 30
0.0
 40
51.5
100
AcDbArc
 50
84.418977
 51
143.588817
  0
ARC
  5
4D5
330
18
100
AcDbEntity
  8
1
  6
Continuous
100
AcDbCircle
 10
270.0000015376083
 20
265.9999998068467
 30
0.0
 40
75.0
100
AcDbArc
 50
85.78019000000002
 51
147.5748489999998
  0
LINE
  5
4D6
330
18
100
AcDbEntity
  8
1
  6
Continuous
100
AcDbLine
 10
264.5000015376083
 20
349.3241008068466
 30
0.0
 11
264.5000015376083
 21
358.4730428068467
 31
0.0
  0
LINE
  5
4D7
330
18
100
AcDbEntity
  8
1
  6
Continuous
100
AcDbLine
 10
204.2104255376083
 20
299.2432498068465
 30
0.0
 11
223.6881135376083
 21
292.5365438068465
 31
0.0
  0
LINE
  5
4D8
330
18
100
AcDbEntity
  8
1
  6
Continuous
100
AcDbLine
 10
206.6196285376083
 20
306.2400858068466
 30
0.0
 11
226.0973155376083
 21
299.5333788068467
 31
0.0
  0
LINE
  5
4D9
330
18
100
AcDbEntity
  8
1
  6
Continuous
100
AcDbLine
 10
198.4566945376081
 20
288.5067868068466
 30
0.0
 11
202.8371345376083
 21
300.0367088068466
 31
0.0
  0
ARC
  5
4DA
330
18
100
AcDbEntity
  8
1
  6
Continuous
100
AcDbCircle
 10
205.4150225376082
 20
302.7416688068466
 30
0.0
 40
3.7
100
AcDbArc
 50
71.00000099999999
 51
250.999999
  0
LINE
  5
4DB
330
18
100
AcDbEntity
  8
1
  6
Continuous
100
AcDbLine
 10
226.8725085376082
 20
290.2787218068467
 30
0.0
 11
243.3412845376082
 21
289.1141038068466
 31
0.0
  0
LINE
  5
4DC
330
18
100
AcDbEntity
  8
5
  6
PHANTOM
100
AcDbLine
 10
237.2915435376082
 20
275.6534158068467
 30
0.0
 11
242.1134825376083
 21
302.9999988068467
 31
0.0
  0
ARC
  5
4DD
330
18
100
AcDbEntity
  8
1
  6
Continuous
100
AcDbCircle
 10
224.8927035376082
 20
296.0349618068467
 30
0.0
 40
3.7
100
AcDbArc
 50
251.000003
 51
71.00000099999999
  0
ARC
  5
4DE
330
18
100
AcDbEntity
  8
1
  6
Continuous
100
AcDbCircle
 10
227.0135835376082
 20
292.2737428068467
 30
0.0
 40
2.0
100
AcDbArc
 50
178.18842
 51
265.9549709999998
  0
ARC
  5
4DF
330
18
100
AcDbEntity
  8
5
  6
PHANTOM
100
AcDbCircle
 10
234.1183945376083
 20
276.2129308068467
 30
0.0
 40
3.2221
100
AcDbArc
 50
294.9549609999999
 51
349.999999
  0
LINE
  5
4E0
330
18
100
AcDbEntity
  8
5
  6
PHANTOM
100
AcDbLine
 10
251.1134875376082
 20
305.0000008068467
 30
0.0
 11
257.0322245376081
 21
292.1667498068466
 31
0.0
  0
LINE
  5
4E1
330
18
100
AcDbEntity
  8
1
  6
Continuous
100
AcDbLine
 10
246.0726085376081
 20
290.3004428068466
 30
0.0
 11
263.5478575376083
 21
311.8805808068467
 31
0.0
  0
ARC
  5
4E2
330
18
100
AcDbEntity
  8
5
  6
PHANTOM
100
AcDbCircle
 10
265.6589305376081
 20
296.1454148068467
 30
0.0
 40
9.5
100
AcDbArc
 50
204.759291
 51
262.581541
  0
ARC
  5
4E3
330
18
100
AcDbEntity
  8
1
  6
Continuous
100
AcDbCircle
 10
243.5685685376083
 20
292.3281778068466
 30
0.0
 40
3.2221
100
AcDbArc
 50
265.9549609999999
 51
320.999999
  0
LINE
  5
4E4
330
18
100
AcDbEntity
  8
5
  6
PHANTOM
100
AcDbLine
 10
242.1134805376082
 20
302.9999978068466
 30
0.0
 11
251.1134805376083
 21
304.9999968068467
 31
0.0
  0
LINE
  5
4E5
330
18
100
AcDbEntity
  8
1
  6
Continuous
100
AcDbLine
 10
267.7738335376082
 20
349.3241008068466
 30
0.0
 11
264.5000015376083
 21
349.3241008068466
 31
0.0
  0
ARC
  5
4E6
330
18
100
AcDbEntity
  8
1
  6
Continuous
100
AcDbCircle
 10
211.7150285376082
 20
421.0000038068464
 30
0.0
 40
10.0
100
AcDbArc
 50
179.9999909999999
 51
270.000001
  0
LINE
  5
4E7
330
18
100
AcDbEntity
  8
1
  6
Continuous
100
AcDbLine
 10
198.4063275376083
 20
442.6997698068467
 30
0.0
 11
255.0000015376083
 21
442.6997698068467
 31
0.0
  0
LINE
  5
4E8
330
18
100
AcDbEntity
  8
1
  6
Continuous
100
AcDbLine
 10
255.0000015376083
 20
439.5006838068466
 30
0.0
 11
198.4063205376083
 21
439.4995058068466
 31
0.0
  0
LINE
  5
4E9
330
18
100
AcDbEntity
  8
1
  6
Continuous
100
AcDbLine
 10
201.7150285376083
 20
439.4995748068464
 30
0.0
 11
201.7150285376083
 21
421.0000038068464
 31
0.0
  0
ARC
  5
4EA
330
18
100
AcDbEntity
  8
1
  6
Continuous
100
AcDbCircle
 10
201.7150285376083
 20
440.6997698068464
 30
0.0
 40
2.0
100
AcDbArc
 50
0.0
 51
90.00000300000001
  0
ARC
  5
4EB
330
18
100
AcDbEntity
  8
1
  6
Continuous
100
AcDbCircle
 10
221.9412095376083
 20
576.9819658068468
 30
0.0
 40
139.282196
100
AcDbArc
 50
260.7792419999999
 51
261.650139
  0
LINE
  5
4EC
330
18
100
AcDbEntity
  8
1
  6
Continuous
100
AcDbLine
 10
198.4063275376083
 20
442.6997698068467
 30
0.0
 11
198.4063275376083
 21
439.4995138068464
 31
0.0
  0
LINE
  5
4ED
330
18
100
AcDbEntity
  8
1
  6
Continuous
100
AcDbLine
 10
203.7150285376083
 20
440.6997698068464
 30
0.0
 11
203.7150285376083
 21
439.4996208068467
 31
0.0
  0
LINE
  5
4EE
330
18
100
AcDbEntity
  8
4
  6
CENTER
100
AcDbLine
 10
265.0000015376083
 20
381.9999998068467
 30
0.0
 11
265.0000015376083
 21
369.9999998068467
 31
0.0
  0
LINE
  5
4EF
330
18
100
AcDbEntity
  8
1
  6
Continuous
100
AcDbLine
 10
255.0000015376083
 20
373.9999998068467
 30
0.0
 11
255.0000015376083
 21
377.9999998068467
 31
0.0
  0
ARC
  5
4F0
330
18
100
AcDbEntity
  8
1
  6
Continuous
100
AcDbCircle
 10
264.5413065376082
 20
372.0691478068466
 30
0.0
 40
4.656547999999999
100
AcDbArc
 50
185.3461889999999
 51
270.072497
  0
ARC
  5
4F1
330
18
100
AcDbEntity
  8
1
  6
Continuous
100
AcDbCircle
 10
270.5000015376083
 20
358.4730428068467
 30
0.0
 40
6.0
100
AcDbArc
 50
135.572996
 51
180.0
  0
ARC
  5
4F2
330
18
100
AcDbEntity
  8
1
  6
Continuous
100
AcDbCircle
 10
284.2635825376081
 20
357.9453208068467
 30
0.0
 40
19.091498
100
AcDbArc
 50
150.271545
 51
165.662396
  0
ARC
  5
4F3
330
18
100
AcDbEntity
  8
1
  6
Continuous
100
AcDbCircle
 10
258.0125025376081
 20
371.0587458068466
 30
0.0
 40
1.978383
100
AcDbArc
 50
16.942865
 51
90.43648299999999
  0
LINE
  5
4F4
330
18
100
AcDbEntity
  8
1
  6
Continuous
100
AcDbLine
 10
257.0000015376083
 20
373.9999998068467
 30
0.0
 11
257.9974315376083
 21
373.0370708068466
 31
0.0
  0
ARC
  5
4F5
330
18
100
AcDbEntity
  8
1
  6
Continuous
100
AcDbCircle
 10
221.9412095376083
 20
576.9819658068468
 30
0.0
 40
139.282196
100
AcDbArc
 50
272.7372299999998
 51
279.223143
  0
LINE
  5
4F6
330
18
100
AcDbEntity
  8
1
  6
Continuous
100
AcDbLine
 10
255.0000015376083
 20
443.3496938068469
 30
0.0
 11
212.5188415376082
 21
443.3488108068464
 31
0.0
  0
LINE
  5
4F7
330
18
100
AcDbEntity
  8
1
  6
Continuous
100
AcDbLine
 10
228.5926985376082
 20
439.5001348068466
 30
0.0
 11
228.5926985376082
 21
421.0000038068464
 31
0.0
  0
ARC
  5
4F8
330
18
100
AcDbEntity
  8
1
  6
Continuous
100
AcDbCircle
 10
218.5926985376083
 20
421.0000038068464
 30
0.0
 40
10.0
100
AcDbArc
 50
269.9999969999999
 51
0.0
  0
LINE
  5
4F9
330
18
100
AcDbEntity
  8
1
  6
Continuous
100
AcDbLine
 10
211.7150285376082
 20
410.9999998068467
 30
0.0
 11
218.5926985376083
 21
410.9999998068467
 31
0.0
  0
ARC
  5
4FA
330
18
100
AcDbEntity
  8
1
  6
Continuous
100
AcDbCircle
 10
224.5183275376081
 20
467.3491358068466
 30
0.0
 40
26.0
100
AcDbArc
 50
247.3813269999999
 51
251.4511079999998
  0
ARC
  5
4FB
330
18
100
AcDbEntity
  8
1
  6
Continuous
100
AcDbCircle
 10
224.5183275376081
 20
467.3491358068466
 30
0.0
 40
26.0
100
AcDbArc
 50
288.5488919999999
 51
292.6206209999998
  0
ARC
  5
4FC
330
18
100
AcDbEntity
  8
1
  6
Continuous
100
AcDbCircle
 10
228.5926985376082
 20
440.6997698068464
 30
0.0
 40
2.0
100
AcDbArc
 50
90.00000300000001
 51
180.000005
  0
LINE
  5
4FD
330
18
100
AcDbEntity
  8
1
  6
Continuous
100
AcDbLine
 10
226.5926985376082
 20
440.6997698068464
 30
0.0
 11
226.5926985376082
 21
439.5000938068466
 31
0.0
  0
ARC
  5
4FE
330
18
100
AcDbEntity
  8
1
  6
Continuous
100
AcDbCircle
 10
265.0000015376083
 20
427.9999998068467
 30
0.0
 40
10.0
100
AcDbArc
 50
180.0
 51
270.0
  0
LINE
  5
4FF
330
18
100
AcDbEntity
  8
4
  6
CENTER
100
AcDbLine
 10
265.0000015376083
 20
417.7499998068467
 30
0.0
 11
265.0000015376083
 21
438.2499998068467
 31
0.0
  0
CIRCLE
  5
500
330
18
100
AcDbEntity
  8
1
  6
Continuous
100
AcDbCircle
 10
265.0000015376083
 20
427.9999998068467
 30
0.0
 40
5.25
  0
LINE
  5
509
330
18
100
AcDbEntity
  8
1
  6
Continuous
100
AcDbLine
 10
355.5000015376084
 20
349.3241008068466
 30
0.0
 11
355.5000015376084
 21
358.4730428068467
 31
0.0
  0
ARC
  5
50A
330
18
100
AcDbEntity
  8
5
  6
PHANTOM
100
AcDbCircle
 10
329.9870395376082
 20
290.7671758068466
 30
0.0
 40
3.7
100
AcDbArc
 50
280.0000029999998
 51
100.0000009999999
  0
ARC
  5
50B
330
18
100
AcDbEntity
  8
1
  6
Continuous
100
AcDbCircle
 10
322.6034995376083
 20
279.2230988068467
 30
0.0
 40
14.378885
100
AcDbArc
 50
10.11484199999999
 51
61.08925999999999
  0
LINE
  5
50C
330
18
100
AcDbEntity
  8
1
  6
Continuous
100
AcDbLine
 10
278.6670255376083
 20
340.1121028068467
 30
0.0
 11
282.0801325376081
 21
281.7336138068467
 31
0.0
  0
LINE
  5
50D
330
18
100
AcDbEntity
  8
5
  6
PHANTOM
100
AcDbLine
 10
309.0575035376083
 20
290.8338118068467
 30
0.0
 11
329.3445435376081
 21
294.4109658068466
 31
0.0
  0
LINE
  5
50E
330
18
100
AcDbEntity
  8
5
  6
PHANTOM
100
AcDbLine
 10
310.3424975376082
 20
283.5462348068467
 30
0.0
 11
330.6295355376082
 21
287.1233858068466
 31
0.0
  0
ARC
  5
50F
330
18
100
AcDbEntity
  8
5
  6
PHANTOM
100
AcDbCircle
 10
309.7000025376081
 20
287.1900238068467
 30
0.0
 40
3.7
100
AcDbArc
 50
100.0000009999999
 51
279.9999989999998
  0
ARC
  5
510
330
18
100
AcDbEntity
  8
5
  6
PHANTOM
100
AcDbCircle
 10
308.0488795376083
 20
283.0627278068465
 30
0.0
 40
2.0
100
AcDbArc
 50
262.5815309999999
 51
12.69364599999999
  0
ARC
  5
511
330
18
100
AcDbEntity
  8
1
  6
Continuous
100
AcDbCircle
 10
243.5676445376083
 20
333.4228188068467
 30
0.0
 40
32.790937
100
AcDbArc
 50
11.48855799999999
 51
20.18986299999999
  0
ARC
  5
512
330
18
100
AcDbEntity
  8
1
  6
Continuous
100
AcDbCircle
 10
353.8621195376084
 20
342.2257498068467
 30
0.0
 40
7.098453
100
AcDbArc
 50
90.30719600000002
 51
167.8824749999999
  0
LINE
  5
513
330
18
100
AcDbEntity
  8
1
  6
Continuous
100
AcDbLine
 10
355.5000015376084
 20
349.3241008068466
 30
0.0
 11
353.8240605376083
 21
349.3241008068466
 31
0.0
  0
ARC
  5
514
330
18
100
AcDbEntity
  8
1
  6
Continuous
100
AcDbCircle
 10
328.1732115376082
 20
407.4999958068467
 30
0.0
 40
10.0
100
AcDbArc
 50
269.9999969999999
 51
0.0
  0
ARC
  5
515
330
18
100
AcDbEntity
  8
1
  6
Continuous
100
AcDbCircle
 10
321.2970215376082
 20
407.4999958068467
 30
0.0
 40
10.0
100
AcDbArc
 50
179.9999909999999
 51
270.000001
  0
LINE
  5
516
330
18
100
AcDbEntity
  8
1
  6
Continuous
100
AcDbLine
 10
321.2970215376082
 20
397.4999998068467
 30
0.0
 11
328.1732115376082
 21
397.4999998068467
 31
0.0
  0
LINE
  5
517
330
18
100
AcDbEntity
  8
1
  6
Continuous
100
AcDbLine
 10
311.2970215376082
 20
417.9999998068466
 30
0.0
 11
311.2970215376082
 21
407.4999958068467
 31
0.0
  0
LINE
  5
518
330
18
100
AcDbEntity
  8
4
  6
CENTER
100
AcDbLine
 10
355.0000015376083
 20
381.9999998068467
 30
0.0
 11
355.0000015376083
 21
369.9999998068467
 31
0.0
  0
ARC
  5
519
330
18
100
AcDbEntity
  8
1
  6
Continuous
100
AcDbCircle
 10
355.4586965376083
 20
372.0691478068466
 30
0.0
 40
4.656547999999999
100
AcDbArc
 50
269.9275029999999
 51
354.6538109999998
  0
ARC
  5
51A
330
18
100
AcDbEntity
  8
1
  6
Continuous
100
AcDbCircle
 10
349.5000015376084
 20
358.4730428068467
 30
0.0
 40
6.0
100
AcDbArc
 50
0.0
 51
44.42700399999998
  0
ARC
  5
51B
330
18
100
AcDbEntity
  8
1
  6
Continuous
100
AcDbCircle
 10
335.7364205376083
 20
357.9453208068467
 30
0.0
 40
19.091498
100
AcDbArc
 50
14.33760399999999
 51
29.728455
  0
LINE
  5
51C
330
18
100
AcDbEntity
  8
1
  6
Continuous
100
AcDbLine
 10
363.0000015376083
 20
373.9999998068467
 30
0.0
 11
362.0025715376081
 21
373.0370708068466
 31
0.0
  0
ARC
  5
51D
330
18
100
AcDbEntity
  8
1
  6
Continuous
100
AcDbCircle
 10
361.9875005376083
 20
371.0587458068466
 30
0.0
 40
1.978383
100
AcDbArc
 50
89.563517
 51
163.0571349999998
  0
LINE
  5
51E
330
18
100
AcDbEntity
  8
1
  6
Continuous
100
AcDbLine
 10
365.0000015376083
 20
377.9999998068467
 30
0.0
 11
365.0000015376083
 21
373.9999998068467
 31
0.0
  0
ARC
  5
51F
330
18
100
AcDbEntity
  8
1
  6
Continuous
100
AcDbCircle
 10
355.0000015376083
 20
427.9999998068467
 30
0.0
 40
10.0
100
AcDbArc
 50
270.0
 51
0.0
  0
LINE
  5
520
330
18
100
AcDbEntity
  8
4
  6
CENTER
100
AcDbLine
 10
365.2500015376081
 20
427.9999998068467
 30
0.0
 11
344.7500015376083
 21
427.9999998068467
 31
0.0
  0
LINE
  5
521
330
18
100
AcDbEntity
  8
4
  6
CENTER
100
AcDbLine
 10
355.0000015376083
 20
417.7499998068467
 30
0.0
 11
355.0000015376083
 21
438.2499998068467
 31
0.0
  0
LINE
  5
522
330
18
100
AcDbEntity
  8
1
  6
Continuous
100
AcDbLine
 10
338.1732115376081
 20
417.9999998068466
 30
0.0
 11
338.1732115376081
 21
407.4999958068467
 31
0.0
  0
CIRCLE
  5
523
330
18
100
AcDbEntity
  8
1
  6
Continuous
100
AcDbCircle
 10
355.0000015376083
 20
427.9999998068467
 30
0.0
 40
5.25
  0
LINE
  5
524
330
18
100
AcDbEntity
  8
4
  6
CENTER
100
AcDbLine
 10
275.2500015376083
 20
517.9999998068467
 30
0.0
 11
254.7500015376081
 21
517.9999998068467
 31
0.0
  0
LINE
  5
525
330
18
100
AcDbEntity
  8
1
  6
Continuous
100
AcDbLine
 10
355.0000015376083
 20
527.9999998068467
 30
0.0
 11
265.0000015376083
 21
527.9999998068467
 31
0.0
  0
LINE
  5
526
330
18
100
AcDbEntity
  8
4
  6
CENTER
100
AcDbLine
 10
375.0000015376083
 20
472.9999998068467
 30
0.0
 11
185.0000015376083
 21
472.9999998068467
 31
0.0
  0
ARC
  5
527
330
18
100
AcDbEntity
  8
1
  6
Continuous
100
AcDbCircle
 10
265.0000015376083
 20
517.9999998068467
 30
0.0
 40
10.0
100
AcDbArc
 50
90.0
 51
180.0
  0
LINE
  5
528
330
18
100
AcDbEntity
  8
1
  6
Continuous
100
AcDbLine
 10
201.9484375376082
 20
450.4999998068464
 30
0.0
 11
255.0000015376083
 21
450.4999998068464
 31
0.0
  0
LINE
  5
529
330
18
100
AcDbEntity
  8
1
  6
Continuous
100
AcDbLine
 10
201.9484375376082
 20
495.4999998068466
 30
0.0
 11
255.0000015376083
 21
495.4999998068466
 31
0.0
  0
ARC
  5
52A
330
18
100
AcDbEntity
  8
1
  6
Continuous
100
AcDbCircle
 10
345.0000015376084
 20
472.9999998068467
 30
0.0
 40
150.0
100
AcDbArc
 50
173.420407
 51
186.5795929999999
  0
ARC
  5
52B
330
18
100
AcDbEntity
  8
1
  6
Continuous
100
AcDbCircle
 10
201.9484375376082
 20
456.4999998068467
 30
0.0
 40
6.0
100
AcDbArc
 50
186.5795929999999
 51
270.0
  0
ARC
  5
52C
330
18
100
AcDbEntity
  8
1
  6
Continuous
100
AcDbCircle
 10
201.9484375376082
 20
489.4999998068467
 30
0.0
 40
6.0
100
AcDbArc
 50
90.0
 51
173.420407
  0
LINE
  5
52D
330
18
100
AcDbEntity
  8
1
  6
Continuous
100
AcDbLine
 10
255.0000015376083
 20
444.1496938068469
 30
0.0
 11
212.5188255376083
 21
444.1488108068467
 31
0.0
  0
ARC
  5
52E
330
18
100
AcDbEntity
  8
1
  6
Continuous
100
AcDbCircle
 10
242.2133465376083
 20
450.8314998068467
 30
0.0
 40
3.031524
100
AcDbArc
 50
186.277901
 51
269.770688
  0
LINE
  5
52F
330
18
100
AcDbEntity
  8
1
  6
Continuous
100
AcDbLine
 10
242.2012135376083
 20
447.7999998068467
 30
0.0
 11
255.0000015376083
 21
447.7999998068467
 31
0.0
  0
LINE
  5
530
330
18
100
AcDbEntity
  8
1
  6
Continuous
100
AcDbLine
 10
249.2575635376083
 20
444.1499998068466
 30
0.0
 11
249.2575635376083
 21
447.3499998068468
 31
0.0
  0
LINE
  5
531
330
18
100
AcDbEntity
  8
1
  6
Continuous
100
AcDbLine
 10
255.0000015376083
 20
447.3499998068468
 30
0.0
 11
249.2575635376083
 21
447.3499998068468
 31
0.0
  0
LINE
  5
532
330
18
100
AcDbEntity
  8
1
  6
Continuous
100
AcDbLine
 10
255.0000015376083
 20
444.1499998068466
 30
0.0
 11
249.2575635376083
 21
444.1499998068466
 31
0.0
  0
ARC
  5
533
330
18
100
AcDbEntity
  8
1
  6
Continuous
100
AcDbCircle
 10
242.1934585376082
 20
494.8332878068466
 30
0.0
 40
3.066803999999998
100
AcDbArc
 50
90.44419799999998
 51
167.4438439999998
  0
LINE
  5
534
330
18
100
AcDbEntity
  8
1
  6
Continuous
100
AcDbLine
 10
242.1696825376082
 20
497.8999998068466
 30
0.0
 11
255.0000015376083
 21
497.8999998068466
 31
0.0
  0
LINE
  5
535
330
18
100
AcDbEntity
  8
1
  6
Continuous
100
AcDbLine
 10
249.2575635376083
 20
498.6499998068466
 30
0.0
 11
249.2575635376083
 21
501.8499998068468
 31
0.0
  0
LINE
  5
536
330
18
100
AcDbEntity
  8
1
  6
Continuous
100
AcDbLine
 10
249.5000015376083
 20
498.1999998068467
 30
0.0
 11
249.5000015376083
 21
497.8999998068466
 31
0.0
  0
LINE
  5
537
330
18
100
AcDbEntity
  8
1
  6
Continuous
100
AcDbLine
 10
255.0000015376083
 20
498.6499998068466
 30
0.0
 11
249.2575635376083
 21
498.6499998068466
 31
0.0
  0
LINE
  5
538
330
18
100
AcDbEntity
  8
1
  6
Continuous
100
AcDbLine
 10
255.0000015376083
 20
501.8499998068468
 30
0.0
 11
249.2575635376083
 21
501.8499998068468
 31
0.0
  0
LINE
  5
539
330
18
100
AcDbEntity
  8
1
  6
Continuous
100
AcDbLine
 10
249.5000015376083
 20
498.1999998068467
 30
0.0
 11
255.0000015376083
 21
498.1999998068467
 31
0.0
  0
CIRCLE
  5
53A
330
18
100
AcDbEntity
  8
1
  6
Continuous
100
AcDbCircle
 10
265.0000015376083
 20
517.9999998068467
 30
0.0
 40
5.25
  0
LINE
  5
53B
330
18
100
AcDbEntity
  8
4
  6
CENTER
100
AcDbLine
 10
265.0000015376083
 20
507.7499998068464
 30
0.0
 11
265.0000015376083
 21
528.2499998068466
 31
0.0
  0
ARC
  5
53E
330
18
100
AcDbEntity
  8
1
  6
Continuous
100
AcDbCircle
 10
355.0000015376083
 20
517.9999998068467
 30
0.0
 40
10.0
100
AcDbArc
 50
0.0
 51
90.0
  0
CIRCLE
  5
53F
330
18
100
AcDbEntity
  8
1
  6
Continuous
100
AcDbCircle
 10
310.0000015376083
 20
472.9999998068467
 30
0.0
 40
16.0
  0
LINE
  5
540
330
18
100
AcDbEntity
  8
4
  6
CENTER
100
AcDbLine
 10
365.2500015376081
 20
517.9999998068467
 30
0.0
 11
344.7500015376083
 21
517.9999998068467
 31
0.0
  0
CIRCLE
  5
541
330
18
100
AcDbEntity
  8
1
  6
Continuous
100
AcDbCircle
 10
355.0000015376083
 20
517.9999998068467
 30
0.0
 40
5.25
  0
LINE
  5
542
330
18
100
AcDbEntity
  8
4
  6
CENTER
100
AcDbLine
 10
355.0000015376083
 20
507.7499998068464
 30
0.0
 11
355.0000015376083
 21
528.2499998068466
 31
0.0
  0
ARC
  5
543
330
18
100
AcDbEntity
  8
1
  6
Continuous
100
AcDbCircle
 10
462.6446645376083
 20
282.0415358068467
 30
0.0
 40
20.0
100
AcDbArc
 50
201.333007
 51
228.0000959999998
  0
LINE
  5
544
330
18
100
AcDbEntity
  8
1
  6
Continuous
100
AcDbLine
 10
456.0290305376083
 20
228.0977298068466
 30
0.0
 11
453.3201545376083
 21
279.7861658068466
 31
0.0
  0
LINE
  5
545
330
18
100
AcDbEntity
  8
1
  6
Continuous
100
AcDbLine
 10
455.2330545376082
 20
227.9999958068467
 30
0.0
 11
452.4911525376081
 21
280.3185928068467
 31
0.0
  0
LINE
  5
546
330
18
100
AcDbEntity
  8
1
  6
Continuous
100
AcDbLine
 10
451.5520495376083
 20
237.0943078068466
 30
0.0
 11
449.5121095376084
 21
276.0186758068466
 31
0.0
  0
LINE
  5
547
330
18
100
AcDbEntity
  8
1
  6
Continuous
100
AcDbLine
 10
434.0000015376083
 20
270.5283148068466
 30
0.0
 11
434.0000015376083
 21
274.4999998068467
 31
0.0
  0
ARC
  5
548
330
18
100
AcDbEntity
  8
1
  6
Continuous
100
AcDbCircle
 10
438.3449005376081
 20
273.3612158068467
 30
0.0
 40
4.344898999999998
100
AcDbArc
 50
154.3842469999999
 51
204.924484
  0
LINE
  5
549
330
18
100
AcDbEntity
  8
1
  6
Continuous
100
AcDbLine
 10
681.3329775376082
 20
340.1121028068467
 30
0.0
 11
676.2375115376081
 21
252.9582088068466
 31
0.0
  0
ARC
  5
54A
330
18
100
AcDbEntity
  8
1
  6
Continuous
100
AcDbCircle
 10
690.0000015376082
 20
265.9999998068467
 30
0.0
 40
75.0
100
AcDbArc
 50
150.8450399999999
 51
94.21980999999998
  0
ARC
  5
54B
330
18
100
AcDbEntity
  8
1
  6
Continuous
100
AcDbCircle
 10
690.0000015376082
 20
265.9999998068467
 30
0.0
 40
51.5
100
AcDbArc
 50
165.8749489999999
 51
95.58102299999999
  0
ARC
  5
54C
330
18
100
AcDbEntity
  8
1
  6
Continuous
100
AcDbCircle
 10
690.0000015376082
 20
265.9999998068467
 30
0.0
 40
20.742438
100
AcDbArc
 50
246.922613
 51
40.547858
  0
ARC
  5
54D
330
18
100
AcDbEntity
  8
1
  6
Continuous
100
AcDbCircle
 10
690.0000015376082
 20
265.9999998068467
 30
0.0
 40
30.8
100
AcDbArc
 50
191.42328
 51
85.45048299999997
  0
LINE
  5
54E
330
18
100
AcDbEntity
  8
4
  6
CENTER
100
AcDbLine
 10
650.0000015376082
 20
254.8586068068465
 30
0.0
 11
650.0000015376082
 21
387.9999998068467
 31
0.0
  0
ARC
  5
54F
330
18
100
AcDbEntity
  8
1
  6
Continuous
100
AcDbCircle
 10
730.0336415376082
 20
353.9890908068467
 30
0.0
 40
117.4057939999999
100
AcDbArc
 50
185.019919
 51
245.78031
  0
LINE
  5
550
330
18
100
AcDbEntity
  8
1
  6
Continuous
100
AcDbLine
 10
690.0000015376082
 20
276.9696548068465
 30
0.0
 11
680.5000015376081
 21
271.4848278068467
 31
0.0
  0
LINE
  5
551
330
18
100
AcDbEntity
  8
1
  6
Continuous
100
AcDbLine
 10
690.0000015376082
 20
276.9696548068465
 30
0.0
 11
699.5000015376082
 21
271.4848278068467
 31
0.0
  0
CIRCLE
  5
552
330
18
100
AcDbEntity
  8
1
  6
Continuous
100
AcDbCircle
 10
690.0000015376082
 20
265.9999998068467
 30
0.0
 40
9.5
  0
LINE
  5
553
330
18
100
AcDbEntity
  8
4
  6
CENTER
100
AcDbLine
 10
690.0000015376082
 20
180.9999998068467
 30
0.0
 11
690.0000015376082
 21
350.9999998068467
 31
0.0
  0
ARC
  5
554
330
18
100
AcDbEntity
  8
1
  6
Continuous
100
AcDbCircle
 10
501.2891155376082
 20
273.3318198068465
 30
0.0
 40
24.210886
100
AcDbArc
 50
295.468006
 51
13.996281
  0
ARC
  5
555
330
18
100
AcDbEntity
  8
1
  6
Continuous
100
AcDbCircle
 10
501.2891155376082
 20
273.3318198068465
 30
0.0
 40
21.010886
100
AcDbArc
 50
295.468006
 51
14.143612
  0
ARC
  5
556
330
18
100
AcDbEntity
  8
1
  6
Continuous
100
AcDbCircle
 10
458.7108875376081
 20
273.3318198068465
 30
0.0
 40
21.010886
100
AcDbArc
 50
165.8563879999999
 51
229.2221239999999
  0
ARC
  5
557
330
18
100
AcDbEntity
  8
1
  6
Continuous
100
AcDbCircle
 10
458.7108875376081
 20
273.3318198068465
 30
0.0
 40
24.210886
100
AcDbArc
 50
166.0037189999999
 51
197.7388569999999
  0
LINE
  5
558
330
18
100
AcDbEntity
  8
1
  6
Continuous
100
AcDbLine
 10
502.5000015376083
 20
197.9484358068466
 30
0.0
 11
502.5000015376083
 21
334.0515638068467
 31
0.0
  0
LINE
  5
559
330
18
100
AcDbEntity
  8
1
  6
Continuous
100
AcDbLine
 10
457.5000015376083
 20
197.9484358068466
 30
0.0
 11
457.5000015376083
 21
334.0515638068467
 31
0.0
  0
LINE
  5
55A
330
18
100
AcDbEntity
  8
1
  6
Continuous
100
AcDbLine
 10
454.8000015376083
 20
251.5489968068467
 30
0.0
 11
454.8000015376083
 21
293.7987878068467
 31
0.0
  0
LINE
  5
55B
330
18
100
AcDbEntity
  8
1
  6
Continuous
100
AcDbLine
 10
504.9000015376082
 20
238.1696808068467
 30
0.0
 11
504.9000015376082
 21
293.8303188068466
 31
0.0
  0
LINE
  5
55C
330
18
100
AcDbEntity
  8
1
  6
Continuous
100
AcDbLine
 10
505.2000015376081
 20
245.4999998068467
 30
0.0
 11
505.2000015376081
 21
286.4999998068467
 31
0.0
  0
LINE
  5
55D
330
18
100
AcDbEntity
  8
1
  6
Continuous
100
AcDbLine
 10
505.6500015376082
 20
245.2575618068467
 30
0.0
 11
505.6500015376082
 21
342.4674588068466
 31
0.0
  0
LINE
  5
55E
330
18
100
AcDbEntity
  8
1
  6
Continuous
100
AcDbLine
 10
454.3500015376083
 20
260.1355078068467
 30
0.0
 11
454.3500015376083
 21
293.9677498068467
 31
0.0
  0
LINE
  5
55F
330
18
100
AcDbEntity
  8
4
  6
CENTER
100
AcDbLine
 10
480.0000015376083
 20
387.9999998068467
 30
0.0
 11
480.0000015376083
 21
180.9999998068467
 31
0.0
  0
LINE
  5
560
330
18
100
AcDbEntity
  8
4
  6
CENTER
100
AcDbLine
 10
605.0000015376082
 20
265.9999998068467
 30
0.0
 11
775.0000015376082
 21
265.9999998068467
 31
0.0
  0
LINE
  5
561
330
18
100
AcDbEntity
  8
4
  6
CENTER
100
AcDbLine
 10
425.2948865376081
 20
265.9999998068467
 30
0.0
 11
534.7051165376085
 21
265.9999998068467
 31
0.0
  0
ARC
  5
562
330
18
100
AcDbEntity
  8
1
  6
Continuous
100
AcDbCircle
 10
463.5000015376081
 20
197.9484358068466
 30
0.0
 40
6.0
100
AcDbArc
 50
180.0
 51
263.420407
  0
ARC
  5
563
330
18
100
AcDbEntity
  8
1
  6
Continuous
100
AcDbCircle
 10
455.5533855376081
 20
232.5857898068466
 30
0.0
 40
4.596968
100
AcDbArc
 50
171.5266149999999
 51
266.004211
  0
LINE
  5
564
330
18
100
AcDbEntity
  8
1
  6
Continuous
100
AcDbLine
 10
456.0290305376083
 20
228.0977298068466
 30
0.0
 11
455.2330545376082
 21
227.9999958068467
 31
0.0
  0
LINE
  5
565
330
18
100
AcDbEntity
  8
1
  6
Continuous
100
AcDbLine
 10
432.9999975376083
 20
254.8795778068466
 30
0.0
 11
407.8533495376082
 21
254.8795778068466
 31
0.0
  0
LINE
  5
566
330
18
100
AcDbEntity
  8
1
  6
Continuous
100
AcDbLine
 10
432.9999975376083
 20
262.0779878068467
 30
0.0
 11
407.8533495376082
 21
262.0779878068467
 31
0.0
  0
LINE
  5
567
330
18
100
AcDbEntity
  8
1
  6
Continuous
100
AcDbLine
 10
432.9999975376083
 20
268.7846978068465
 30
0.0
 11
407.8533495376082
 21
268.7846978068465
 31
0.0
  0
LINE
  5
568
330
18
100
AcDbEntity
  8
1
  6
Continuous
100
AcDbLine
 10
404.500001537608
 20
265.4313348068465
 30
0.0
 11
404.500001537608
 21
258.2329248068467
 31
0.0
  0
ARC
  5
569
330
18
100
AcDbEntity
  8
1
  6
Continuous
100
AcDbCircle
 10
407.8533495376082
 20
265.4313348068465
 30
0.0
 40
3.353351999999998
100
AcDbArc
 50
90.00000300000001
 51
270.0000049999998
  0
ARC
  5
56A
330
18
100
AcDbEntity
  8
1
  6
Continuous
100
AcDbCircle
 10
407.8533495376082
 20
258.2329248068467
 30
0.0
 40
3.353351999999998
100
AcDbArc
 50
180.0000029999999
 51
269.999991
  0
LINE
  5
56B
330
18
100
AcDbEntity
  8
1
  6
Continuous
100
AcDbLine
 10
432.9999975376083
 20
268.7846978068465
 30
0.0
 11
432.9999975376083
 21
236.2631528068466
 31
0.0
  0
LINE
  5
56C
330
18
100
AcDbEntity
  8
1
  6
Continuous
100
AcDbLine
 10
436.1999985376083
 20
264.2255098068465
 30
0.0
 11
436.1999985376083
 21
237.2631528068467
 31
0.0
  0
LINE
  5
56D
330
18
100
AcDbEntity
  8
1
  6
Continuous
100
AcDbLine
 10
432.9999975376083
 20
236.2631528068466
 30
0.0
 11
432.9999975376083
 21
268.7846978068465
 31
0.0
  0
LINE
  5
56E
330
18
100
AcDbEntity
  8
1
  6
Continuous
100
AcDbLine
 10
444.4697945376083
 20
248.0341928068466
 30
0.0
 11
444.0980395376083
 21
255.1276908068467
 31
0.0
  0
LINE
  5
56F
330
18
100
AcDbEntity
  8
1
  6
Continuous
100
AcDbLine
 10
443.1546535376082
 20
246.4668698068468
 30
0.0
 11
440.7922065376082
 21
246.1767978068466
 31
0.0
  0
LINE
  5
570
330
18
100
AcDbEntity
  8
1
  6
Continuous
100
AcDbLine
 10
451.8000005376081
 20
233.2631528068467
 30
0.0
 11
435.9999975376083
 21
233.2631528068467
 31
0.0
  0
LINE
  5
571
330
18
100
AcDbEntity
  8
1
  6
Continuous
100
AcDbLine
 10
450.5999995376082
 20
236.2631528068466
 30
0.0
 11
437.1999985376083
 21
236.2631528068466
 31
0.0
  0
LINE
  5
572
330
18
100
AcDbEntity
  8
1
  6
Continuous
100
AcDbLine
 10
440.3802385376083
 20
236.2631528068466
 30
0.0
 11
439.9154465376083
 21
245.1319158068467
 31
0.0
  0
ARC
  5
573
330
18
100
AcDbEntity
  8
1
  6
Continuous
100
AcDbCircle
 10
435.9999975376083
 20
236.2631528068466
 30
0.0
 40
3.0
100
AcDbArc
 50
180.0000029999999
 51
269.999991
  0
ARC
  5
574
330
18
100
AcDbEntity
  8
1
  6
Continuous
100
AcDbCircle
 10
437.1999985376083
 20
237.2631528068467
 30
0.0
 40
1.0
100
AcDbArc
 50
180.0000029999999
 51
269.999991
  0
ARC
  5
575
330
18
100
AcDbEntity
  8
1
  6
Continuous
100
AcDbCircle
 10
440.9140765376083
 20
245.1842518068467
 30
0.0
 40
1.0
100
AcDbArc
 50
96.99999999999995
 51
183.0
  0
ARC
  5
576
330
18
100
AcDbEntity
  8
1
  6
Continuous
100
AcDbCircle
 10
440.083060537608
 20
237.2799528068466
 30
0.0
 40
5.836882
100
AcDbArc
 50
93.60216200000001
 51
131.7025229999997
  0
ARC
  5
577
330
18
100
AcDbEntity
  8
1
  6
Continuous
100
AcDbCircle
 10
469.7302645376081
 20
81.58915280684672
 30
0.0
 40
164.2811739999999
100
AcDbArc
 50
100.4197299999998
 51
100.5271959999998
  0
ARC
  5
578
330
18
100
AcDbEntity
  8
1
  6
Continuous
100
AcDbCircle
 10
451.8000005376081
 20
236.2631528068466
 30
0.0
 40
3.0
100
AcDbArc
 50
269.999991
 51
0.000001
  0
ARC
  5
579
330
18
100
AcDbEntity
  8
1
  6
Continuous
100
AcDbCircle
 10
450.5999995376082
 20
237.2631528068467
 30
0.0
 40
1.0
100
AcDbArc
 50
269.999991
 51
0.000001
  0
ARC
  5
57A
330
18
100
AcDbEntity
  8
1
  6
Continuous
100
AcDbCircle
 10
457.8315015376081
 20
238.2133448068467
 30
0.0
 40
3.031524
100
AcDbArc
 50
222.789925
 51
263.722099
  0
ARC
  5
57B
330
18
100
AcDbEntity
  8
1
  6
Continuous
100
AcDbCircle
 10
442.9718495376083
 20
247.9556888068467
 30
0.0
 40
1.5
100
AcDbArc
 50
277.0
 51
3.0
  0
ARC
  5
57C
330
18
100
AcDbEntity
  8
1
  6
Continuous
100
AcDbCircle
 10
458.7108875376081
 20
273.3318198068465
 30
0.0
 40
24.210886
100
AcDbArc
 50
201.549981
 51
233.052206
  0
ARC
  5
57D
330
18
100
AcDbEntity
  8
1
  6
Continuous
100
AcDbCircle
 10
433.1999985376083
 20
257.0924068068466
 30
0.0
 40
3.0
100
AcDbArc
 50
359.999997
 51
90.00000300000001
  0
LINE
  5
57E
330
18
100
AcDbEntity
  8
1
  6
Continuous
100
AcDbLine
 10
433.1999985376083
 20
260.0924068068467
 30
0.0
 11
432.9999975376083
 21
260.0924068068467
 31
0.0
  0
ARC
  5
57F
330
18
100
AcDbEntity
  8
1
  6
Continuous
100
AcDbCircle
 10
433.1999985376083
 20
264.2255098068465
 30
0.0
 40
3.0
100
AcDbArc
 50
359.999997
 51
90.00000300000001
  0
LINE
  5
580
330
18
100
AcDbEntity
  8
1
  6
Continuous
100
AcDbLine
 10
433.1999985376083
 20
267.2255098068467
 30
0.0
 11
432.9999975376083
 21
267.2255098068467
 31
0.0
  0
ARC
  5
581
330
18
100
AcDbEntity
  8
1
  6
Continuous
100
AcDbCircle
 10
452.2565585376083
 20
263.7368618068466
 30
0.0
 40
19.478853
100
AcDbArc
 50
155.400105
 51
169.68848
  0
LINE
  5
582
330
18
100
AcDbEntity
  8
1
  6
Continuous
100
AcDbLine
 10
432.5000015376083
 20
268.7846978068465
 30
0.0
 11
432.5000015376083
 21
269.9999998068467
 31
0.0
  0
LINE
  5
583
330
18
100
AcDbEntity
  8
1
  6
Continuous
100
AcDbLine
 10
432.5000015376083
 20
269.9999998068467
 30
0.0
 11
434.0000015376083
 21
271.4999998068465
 31
0.0
  0
LINE
  5
584
330
18
100
AcDbEntity
  8
2
  6
Continuous
100
AcDbLine
 10
434.0000015376083
 20
271.0529998068465
 30
0.0
 11
433.5530015376083
 21
271.0529998068465
 31
0.0
  0
LINE
  5
585
330
18
100
AcDbEntity
  8
1
  6
Continuous
100
AcDbLine
 10
450.4415085376083
 20
258.2846978068465
 30
0.0
 11
447.0939285376082
 21
258.2846978068465
 31
0.0
  0
ARC
  5
586
330
18
100
AcDbEntity
  8
1
  6
Continuous
100
AcDbCircle
 10
447.0939285376082
 20
255.2846978068466
 30
0.0
 40
3.0
100
AcDbArc
 50
90.0
 51
183.0
  0
LINE
  5
587
330
18
100
AcDbEntity
  8
1
  6
Continuous
100
AcDbLine
 10
450.0107195376081
 20
266.5045378068466
 30
0.0
 11
449.2620775376082
 21
267.1786168068466
 31
0.0
  0
ARC
  5
588
330
18
100
AcDbEntity
  8
1
  6
Continuous
100
AcDbCircle
 10
480.0000015376083
 20
340.9999998068467
 30
0.0
 40
150.0
100
AcDbArc
 50
263.420407
 51
276.5795929999999
  0
ARC
  5
589
330
18
100
AcDbEntity
  8
1
  6
Continuous
100
AcDbCircle
 10
496.5000015376081
 20
197.9484358068466
 30
0.0
 40
6.0
100
AcDbArc
 50
276.5795929999999
 51
0.0
  0
ARC
  5
58A
330
18
100
AcDbEntity
  8
1
  6
Continuous
100
AcDbCircle
 10
513.8500015376084
 20
246.9594858068466
 30
0.0
 40
8.199999999999997
100
AcDbArc
 50
115.468006
 51
180.0
  0
ARC
  5
58B
330
18
100
AcDbEntity
  8
1
  6
Continuous
100
AcDbCircle
 10
513.8500015376084
 20
246.9594858068466
 30
0.0
 40
5.0
100
AcDbArc
 50
115.468006
 51
180.0
  0
ARC
  5
58C
330
18
100
AcDbEntity
  8
1
  6
Continuous
100
AcDbCircle
 10
501.8332895376082
 20
238.1934568068465
 30
0.0
 40
3.066803999999998
100
AcDbArc
 50
282.556156
 51
359.555802
  0
LINE
  5
58D
330
18
100
AcDbEntity
  8
1
  6
Continuous
100
AcDbLine
 10
505.6500015376082
 20
245.2575618068467
 30
0.0
 11
508.8500015376083
 21
245.2575618068467
 31
0.0
  0
LINE
  5
58E
330
18
100
AcDbEntity
  8
1
  6
Continuous
100
AcDbLine
 10
508.8500015376083
 20
245.2575618068467
 30
0.0
 11
508.8500015376083
 21
246.9594858068466
 31
0.0
  0
LINE
  5
58F
330
18
100
AcDbEntity
  8
1
  6
Continuous
100
AcDbLine
 10
505.2000015376081
 20
245.4999998068467
 30
0.0
 11
504.9000015376082
 21
245.4999998068467
 31
0.0
  0
LINE
  5
590
330
18
100
AcDbEntity
  8
1
  6
Continuous
100
AcDbLine
 10
505.6500015376082
 20
251.7499998068467
 30
0.0
 11
505.2000015376081
 21
251.7499998068467
 31
0.0
  0
ARC
  5
591
330
18
100
AcDbEntity
  8
5
  6
PHANTOM
100
AcDbCircle
 10
764.300011537608
 20
266.8235688068467
 30
0.0
 40
3.7
100
AcDbArc
 50
284.860898
 51
79.999999
  0
LINE
  5
592
330
18
100
AcDbEntity
  8
1
  6
Continuous
100
AcDbLine
 10
680.5000015376081
 20
260.5151718068467
 30
0.0
 11
690.0000015376082
 21
255.0303448068467
 31
0.0
  0
LINE
  5
595
330
18
100
AcDbEntity
  8
1
  6
Continuous
100
AcDbLine
 10
680.5000015376081
 20
260.5151718068467
 30
0.0
 11
680.5000015376081
 21
271.4848278068467
 31
0.0
  0
LINE
  5
596
330
18
100
AcDbEntity
  8
1
  6
Continuous
100
AcDbLine
 10
699.5000015376082
 20
260.5151718068467
 30
0.0
 11
699.5000015376082
 21
271.4848278068467
 31
0.0
  0
LINE
  5
597
330
18
100
AcDbEntity
  8
1
  6
Continuous
100
AcDbLine
 10
699.5000015376082
 20
260.5151718068467
 30
0.0
 11
690.0000015376082
 21
255.0303448068467
 31
0.0
  0
LINE
  5
598
330
18
100
AcDbEntity
  8
5
  6
PHANTOM
100
AcDbLine
 10
764.730623537608
 20
259.6490888068467
 30
0.0
 11
765.8888625376079
 21
267.6894438068465
 31
0.0
  0
LINE
  5
599
330
18
100
AcDbEntity
  8
5
  6
PHANTOM
100
AcDbLine
 10
765.8888625376079
 20
267.6894438068465
 30
0.0
 11
764.9732035376081
 21
268.0047298068467
 31
0.0
  0
LINE
  5
59A
330
18
100
AcDbEntity
  8
5
  6
PHANTOM
100
AcDbLine
 10
764.9425055376078
 20
270.4673568068467
 30
0.0
 11
764.866028537608
 21
270.4808418068465
 31
0.0
  0
LINE
  5
59B
330
18
100
AcDbEntity
  8
1
  6
Continuous
100
AcDbLine
 10
604.5471985376082
 20
367.4126038068466
 30
0.0
 11
695.4528045376084
 21
367.4126038068466
 31
0.0
  0
LINE
  5
59C
330
18
100
AcDbEntity
  8
1
  6
Continuous
100
AcDbLine
 10
694.2332835376084
 20
362.6730428068467
 30
0.0
 11
605.7667195376083
 21
362.6730428068467
 31
0.0
  0
LINE
  5
59D
330
18
100
AcDbEntity
  8
1
  6
Continuous
100
AcDbLine
 10
595.0000015376082
 20
373.9999998068467
 30
0.0
 11
705.0000015376082
 21
373.9999998068467
 31
0.0
  0
LINE
  5
59E
330
18
100
AcDbEntity
  8
1
  6
Continuous
100
AcDbLine
 10
595.0000015376082
 20
377.9999998068467
 30
0.0
 11
705.0000015376082
 21
377.9999998068467
 31
0.0
  0
LINE
  5
59F
330
18
100
AcDbEntity
  8
1
  6
Continuous
100
AcDbLine
 10
504.6717085376083
 20
345.8941318068466
 30
0.0
 11
521.6630835376084
 21
278.4658968068466
 31
0.0
  0
LINE
  5
5A0
330
18
100
AcDbEntity
  8
1
  6
Continuous
100
AcDbLine
 10
508.4959475376083
 20
344.5221448068467
 30
0.0
 11
524.7812145376082
 21
279.1874378068465
 31
0.0
  0
LINE
  5
5A1
330
18
100
AcDbEntity
  8
1
  6
Continuous
100
AcDbLine
 10
524.2332835376084
 20
362.6730428068467
 30
0.0
 11
435.766719537608
 21
362.6730428068467
 31
0.0
  0
LINE
  5
5A2
330
18
100
AcDbEntity
  8
1
  6
Continuous
100
AcDbLine
 10
535.0000015376083
 20
373.9999998068467
 30
0.0
 11
425.0000015376083
 21
373.9999998068467
 31
0.0
  0
LINE
  5
5A3
330
18
100
AcDbEntity
  8
1
  6
Continuous
100
AcDbLine
 10
535.0000015376083
 20
377.9999998068467
 30
0.0
 11
425.0000015376083
 21
377.9999998068467
 31
0.0
  0
LINE
  5
5A4
330
18
100
AcDbEntity
  8
1
  6
Continuous
100
AcDbLine
 10
434.5471985376083
 20
367.4126038068466
 30
0.0
 11
525.4528045376083
 21
367.4126038068466
 31
0.0
  0
ARC
  5
5A5
330
18
100
AcDbEntity
  8
1
  6
Continuous
100
AcDbCircle
 10
440.5000015376083
 20
357.3498268068465
 30
0.0
 40
6.0
100
AcDbArc
 50
117.4761889999999
 51
180.0
  0
ARC
  5
5A6
330
18
100
AcDbEntity
  8
1
  6
Continuous
100
AcDbCircle
 10
463.5000015376081
 20
334.0515638068467
 30
0.0
 40
6.0
100
AcDbArc
 50
96.57959300000001
 51
180.0
  0
ARC
  5
5A7
330
18
100
AcDbEntity
  8
1
  6
Continuous
100
AcDbCircle
 10
460.0753985376082
 20
344.3241008068466
 30
0.0
 40
5.0
100
AcDbArc
 50
90.0
 51
161.6991639999999
  0
ARC
  5
5A8
330
18
100
AcDbEntity
  8
1
  6
Continuous
100
AcDbCircle
 10
458.1500015376083
 20
342.3241008068466
 30
0.0
 40
7.0
100
AcDbArc
 50
90.0
 51
161.6991639999999
  0
LINE
  5
5A9
330
18
100
AcDbEntity
  8
1
  6
Continuous
100
AcDbLine
 10
455.0673615376082
 20
317.3211058068465
 30
0.0
 11
456.6717605376083
 21
294.3771388068467
 31
0.0
  0
LINE
  5
5AA
330
18
100
AcDbEntity
  8
1
  6
Continuous
100
AcDbLine
 10
454.1502175376083
 20
322.5224928068466
 30
0.0
 11
455.7546155376082
 21
299.5785258068466
 31
0.0
  0
LINE
  5
5AB
330
18
100
AcDbEntity
  8
1
  6
Continuous
100
AcDbLine
 10
451.5040555376083
 20
344.5221448068467
 30
0.0
 11
435.2187885376083
 21
279.1874378068465
 31
0.0
  0
LINE
  5
5AC
330
18
100
AcDbEntity
  8
1
  6
Continuous
100
AcDbLine
 10
455.328294537608
 20
345.8941318068466
 30
0.0
 11
438.3369195376082
 21
278.4658968068466
 31
0.0
  0
LINE
  5
5AD
330
18
100
AcDbEntity
  8
1
  6
Continuous
100
AcDbLine
 10
434.5000015376081
 20
357.3498268068465
 30
0.0
 11
434.5000015376081
 21
273.3318198068465
 31
0.0
  0
LINE
  5
5AE
330
18
100
AcDbEntity
  8
1
  6
Continuous
100
AcDbLine
 10
434.5000015376081
 20
299.5334008068466
 30
0.0
 11
421.3533495376082
 21
299.5334008068466
 31
0.0
  0
LINE
  5
5AF
330
18
100
AcDbEntity
  8
1
  6
Continuous
100
AcDbLine
 10
434.5000015376081
 20
306.2400968068467
 30
0.0
 11
421.3533495376082
 21
306.2400968068467
 31
0.0
  0
LINE
  5
5B0
330
18
100
AcDbEntity
  8
1
  6
Continuous
100
AcDbLine
 10
434.5000015376081
 20
292.3349758068466
 30
0.0
 11
421.3533495376082
 21
292.3349758068466
 31
0.0
  0
ARC
  5
5B1
330
18
100
AcDbEntity
  8
1
  6
Continuous
100
AcDbCircle
 10
421.3533495376082
 20
295.6883088068467
 30
0.0
 40
3.353351999999998
100
AcDbArc
 50
180.0000029999999
 51
269.999991
  0
ARC
  5
5B2
330
18
100
AcDbEntity
  8
1
  6
Continuous
100
AcDbCircle
 10
421.3533495376082
 20
302.8867338068467
 30
0.0
 40
3.353351999999998
100
AcDbArc
 50
90.00000300000001
 51
270.0000049999998
  0
LINE
  5
5B3
330
18
100
AcDbEntity
  8
1
  6
Continuous
100
AcDbLine
 10
417.9999975376081
 20
302.8867338068467
 30
0.0
 11
417.9999975376081
 21
295.6883088068467
 31
0.0
  0
LINE
  5
5B4
330
18
100
AcDbEntity
  8
1
  6
Continuous
100
AcDbLine
 10
456.6717605376083
 20
294.3771388068467
 30
0.0
 11
449.2583045376083
 21
293.0699468068467
 31
0.0
  0
LINE
  5
5B5
330
18
100
AcDbEntity
  8
1
  6
Continuous
100
AcDbLine
 10
445.5967735376083
 20
297.5351938068466
 30
0.0
 11
449.2583045376083
 21
293.0699468068467
 31
0.0
  0
LINE
  5
5B6
330
18
100
AcDbEntity
  8
1
  6
Continuous
100
AcDbLine
 10
443.6259305376082
 20
296.9735758068466
 30
0.0
 11
449.6313095376083
 21
286.5719558068467
 31
0.0
  0
LINE
  5
5B7
330
18
100
AcDbEntity
  8
1
  6
Continuous
100
AcDbLine
 10
444.8993835376083
 20
297.1239858068467
 30
0.0
 11
448.7495815376082
 21
292.4286588068466
 31
0.0
  0
LINE
  5
5B8
330
18
100
AcDbEntity
  8
1
  6
Continuous
100
AcDbLine
 10
442.0679555376083
 20
293.2720678068467
 30
0.0
 11
446.8600275376083
 21
284.9719568068465
 31
0.0
  0
ARC
  5
5B9
330
18
100
AcDbEntity
  8
1
  6
Continuous
100
AcDbCircle
 10
497.4869875376083
 20
295.6491178068467
 30
0.0
 40
57.405264
100
AcDbArc
 50
188.034213
 51
201.333007
  0
LINE
  5
5BA
330
18
100
AcDbEntity
  8
1
  6
Continuous
100
AcDbLine
 10
434.5000015376081
 20
275.3660248068466
 30
0.0
 11
434.0000015376083
 21
274.4999998068467
 31
0.0
  0
LINE
  5
5BB
330
18
100
AcDbEntity
  8
1
  6
Continuous
100
AcDbLine
 10
450.7000845376081
 20
284.5146878068466
 30
0.0
 11
451.8303075376081
 21
282.5531418068466
 31
0.0
  0
LINE
  5
5BC
330
18
100
AcDbEntity
  8
1
  6
Continuous
100
AcDbLine
 10
451.1736875376083
 20
285.2951488068466
 30
0.0
 11
452.2363675376082
 21
283.4508258068465
 31
0.0
  0
ARC
  5
5BD
330
18
100
AcDbEntity
  8
1
  6
Continuous
100
AcDbCircle
 10
429.5395195376081
 20
274.9719558068466
 30
0.0
 40
23.19999999999999
100
AcDbArc
 50
3.0
 51
30.0
  0
ARC
  5
5BE
330
18
100
AcDbEntity
  8
1
  6
Continuous
100
AcDbCircle
 10
429.5395195376081
 20
274.9719568068466
 30
0.0
 40
20.0
100
AcDbArc
 50
3.0
 51
30.0
  0
ARC
  5
5BF
330
18
100
AcDbEntity
  8
1
  6
Continuous
100
AcDbCircle
 10
447.4980055376083
 20
280.0569128068466
 30
0.0
 40
5.0
100
AcDbArc
 50
3.0
 51
29.950113
  0
ARC
  5
5C0
330
18
100
AcDbEntity
  8
1
  6
Continuous
100
AcDbCircle
 10
445.1313915376083
 20
279.3570108068467
 30
0.0
 40
8.199999999999997
100
AcDbArc
 50
3.0
 51
29.950113
  0
LINE
  5
5C1
330
18
100
AcDbEntity
  8
1
  6
Continuous
100
AcDbLine
 10
454.3500015376083
 20
280.2499998068467
 30
0.0
 11
454.8000015376083
 21
280.2499998068467
 31
0.0
  0
ARC
  5
5C2
330
18
100
AcDbEntity
  8
1
  6
Continuous
100
AcDbCircle
 10
457.8050595376082
 20
288.6085038068466
 30
0.0
 40
8.199999999999997
100
AcDbArc
 50
188.6895289999999
 51
209.9501129999999
  0
ARC
  5
5C3
330
18
100
AcDbEntity
  8
1
  6
Continuous
100
AcDbCircle
 10
446.1652425376083
 20
290.5336218068466
 30
0.0
 40
4.0
100
AcDbArc
 50
2.915862999999998
 51
39.351938
  0
ARC
  5
5C4
330
18
100
AcDbEntity
  8
1
  6
Continuous
100
AcDbCircle
 10
482.5157185376081
 20
292.3851438068466
 30
0.0
 40
32.397594
100
AcDbArc
 50
182.915855
 51
189.6524
  0
ARC
  5
5C5
330
18
100
AcDbEntity
  8
1
  6
Continuous
100
AcDbCircle
 10
482.5157185376081
 20
292.3851438068466
 30
0.0
 40
33.19759400000001
100
AcDbArc
 50
183.999997
 51
188.6895289999999
  0
LINE
  5
5C6
330
18
100
AcDbEntity
  8
1
  6
Continuous
100
AcDbLine
 10
449.3374305376083
 20
290.9496768068467
 30
0.0
 11
449.3989855376083
 21
290.0693988068466
 31
0.0
  0
ARC
  5
5C7
330
18
100
AcDbEntity
  8
1
  6
Continuous
100
AcDbCircle
 10
446.7230225376083
 20
290.7668528068466
 30
0.0
 40
2.620795
100
AcDbArc
 50
3.999999
 51
39.351938
  0
ARC
  5
5C8
330
18
100
AcDbEntity
  8
1
  6
Continuous
100
AcDbCircle
 10
457.8314215376082
 20
293.7867268068466
 30
0.0
 40
3.031444
100
AcDbArc
 50
175.0348239999999
 51
179.7720389999999
  0
ARC
  5
5C9
330
18
100
AcDbEntity
  8
1
  6
Continuous
100
AcDbCircle
 10
455.5059895376081
 20
287.7913778068466
 30
0.0
 40
5.0
100
AcDbArc
 50
189.6524
 51
209.9501129999999
  0
LINE
  5
5CA
330
18
100
AcDbEntity
  8
1
  6
Continuous
100
AcDbLine
 10
447.6339665376081
 20
315.3601138068467
 30
0.0
 11
448.8414235376081
 21
298.0926718068466
 31
0.0
  0
LINE
  5
5CB
330
18
100
AcDbEntity
  8
1
  6
Continuous
100
AcDbLine
 10
448.7716665376082
 20
299.0902358068467
 30
0.0
 11
455.7546155376082
 21
299.5785258068466
 31
0.0
  0
LINE
  5
5CC
330
18
100
AcDbEntity
  8
1
  6
Continuous
100
AcDbLine
 10
445.7437405376081
 20
297.8760548068467
 30
0.0
 11
448.8414235376081
 21
298.0926718068466
 31
0.0
  0
LINE
  5
5CD
330
18
100
AcDbEntity
  8
1
  6
Continuous
100
AcDbLine
 10
443.6259305376082
 20
296.9735758068466
 30
0.0
 11
442.8942565376082
 21
296.5511438068467
 31
0.0
  0
ARC
  5
5CE
330
18
100
AcDbEntity
  8
1
  6
Continuous
100
AcDbCircle
 10
445.5713565376082
 20
297.3910878068466
 30
0.0
 40
0.68896
100
AcDbArc
 50
183.999997
 51
219.351929
  0
LINE
  5
5CF
330
18
100
AcDbEntity
  8
1
  6
Continuous
100
AcDbLine
 10
444.4951955376082
 20
302.9042788068466
 30
0.0
 11
444.8993935376082
 21
297.1239868068467
 31
0.0
  0
ARC
  5
5D0
330
18
100
AcDbEntity
  8
1
  6
Continuous
100
AcDbCircle
 10
445.7583135376081
 20
297.6676698068467
 30
0.0
 40
0.208904
100
AcDbArc
 50
94.00000400000001
 51
219.351929
  0
LINE
  5
5D1
330
18
100
AcDbEntity
  8
1
  6
Continuous
100
AcDbLine
 10
456.6717605376083
 20
294.3771388068467
 30
0.0
 11
455.7546155376082
 21
299.5785258068466
 31
0.0
  0
ARC
  5
5D2
330
18
100
AcDbEntity
  8
1
  6
Continuous
100
AcDbCircle
 10
457.8314215376082
 20
293.7867268068466
 30
0.0
 40
3.031444
100
AcDbArc
 50
96.276551
 51
115.593951
  0
LINE
  5
5D3
330
18
100
AcDbEntity
  8
1
  6
Continuous
100
AcDbLine
 10
454.3500015376083
 20
321.3894578068465
 30
0.0
 11
454.3500015376083
 21
342.4674618068467
 31
0.0
  0
LINE
  5
5D4
330
18
100
AcDbEntity
  8
1
  6
Continuous
100
AcDbLine
 10
449.3543205376082
 20
322.1871338068465
 30
0.0
 11
454.1502175376083
 21
322.5224928068466
 31
0.0
  0
LINE
  5
5D5
330
18
100
AcDbEntity
  8
1
  6
Continuous
100
AcDbLine
 10
455.0673615376082
 20
317.3211058068465
 30
0.0
 11
454.1502175376083
 21
322.5224928068466
 31
0.0
  0
ARC
  5
5D6
330
18
100
AcDbEntity
  8
1
  6
Continuous
100
AcDbCircle
 10
501.8332895376082
 20
293.8065428068465
 30
0.0
 40
3.066803999999998
100
AcDbArc
 50
0.444198
 51
77.443844
  0
LINE
  5
5D7
330
18
100
AcDbEntity
  8
1
  6
Continuous
100
AcDbLine
 10
505.2000015376081
 20
280.2499998068467
 30
0.0
 11
505.6500015376082
 21
280.2499998068467
 31
0.0
  0
LINE
  5
5D8
330
18
100
AcDbEntity
  8
1
  6
Continuous
100
AcDbLine
 10
505.2000015376081
 20
286.4999998068467
 30
0.0
 11
504.9000015376082
 21
286.4999998068467
 31
0.0
  0
ARC
  5
5D9
330
18
100
AcDbEntity
  8
1
  6
Continuous
100
AcDbCircle
 10
480.0000015376083
 20
190.9999998068467
 30
0.0
 40
150.0
100
AcDbArc
 50
83.42040699999998
 51
96.57959300000001
  0
LINE
  5
5DA
330
18
100
AcDbEntity
  8
1
  6
Continuous
100
AcDbLine
 10
501.8500015376083
 20
349.3241008068466
 30
0.0
 11
458.1500015376083
 21
349.3241008068466
 31
0.0
  0
ARC
  5
5DB
330
18
100
AcDbEntity
  8
1
  6
Continuous
100
AcDbCircle
 10
496.5000015376081
 20
334.0515638068467
 30
0.0
 40
6.0
100
AcDbArc
 50
0.0
 51
83.42040699999998
  0
ARC
  5
5DC
330
18
100
AcDbEntity
  8
1
  6
Continuous
100
AcDbCircle
 10
501.8500015376083
 20
342.3241008068466
 30
0.0
 40
7.0
100
AcDbArc
 50
18.300836
 51
90.0
  0
ARC
  5
5DD
330
18
100
AcDbEntity
  8
1
  6
Continuous
100
AcDbCircle
 10
499.9246035376081
 20
344.3241008068466
 30
0.0
 40
5.0
100
AcDbArc
 50
18.300836
 51
90.0
  0
LINE
  5
5DE
330
18
100
AcDbEntity
  8
1
  6
Continuous
100
AcDbLine
 10
425.0000015376083
 20
373.9999998068467
 30
0.0
 11
425.0000015376083
 21
377.9999998068467
 31
0.0
  0
LINE
  5
5DF
330
18
100
AcDbEntity
  8
4
  6
CENTER
100
AcDbLine
 10
435.0000015376083
 20
381.9999998068467
 30
0.0
 11
435.0000015376083
 21
369.7081348068467
 31
0.0
  0
ARC
  5
5E0
330
18
100
AcDbEntity
  8
1
  6
Continuous
100
AcDbCircle
 10
434.5413065376082
 20
372.0691478068466
 30
0.0
 40
4.656547999999999
100
AcDbArc
 50
185.3461889999999
 51
270.072497
  0
ARC
  5
5E1
330
18
100
AcDbEntity
  8
1
  6
Continuous
100
AcDbCircle
 10
454.2635825376081
 20
357.9453208068467
 30
0.0
 40
19.091498
100
AcDbArc
 50
150.271545
 51
165.662396
  0
ARC
  5
5E2
330
18
100
AcDbEntity
  8
1
  6
Continuous
100
AcDbCircle
 10
428.0125025376081
 20
371.0587458068466
 30
0.0
 40
1.978383
100
AcDbArc
 50
16.942865
 51
90.43648299999999
  0
LINE
  5
5E3
330
18
100
AcDbEntity
  8
1
  6
Continuous
100
AcDbLine
 10
427.0000015376083
 20
373.9999998068467
 30
0.0
 11
427.9974315376083
 21
373.0370708068466
 31
0.0
  0
LINE
  5
5E4
330
18
100
AcDbEntity
  8
1
  6
Continuous
100
AcDbLine
 10
604.5000015376082
 20
349.3241008068466
 30
0.0
 11
604.5000015376082
 21
358.4730428068467
 31
0.0
  0
ARC
  5
5E5
330
18
100
AcDbEntity
  8
1
  6
Continuous
100
AcDbCircle
 10
519.5000015376083
 20
357.3498268068465
 30
0.0
 40
6.0
100
AcDbArc
 50
0.0
 51
62.523811
  0
LINE
  5
5E6
330
18
100
AcDbEntity
  8
1
  6
Continuous
100
AcDbLine
 10
525.5000015376082
 20
357.3498268068465
 30
0.0
 11
525.5000015376082
 21
273.3318198068465
 31
0.0
  0
ARC
  5
5E7
330
18
100
AcDbEntity
  8
1
  6
Continuous
100
AcDbCircle
 10
606.1378835376081
 20
342.2257498068467
 30
0.0
 40
7.098453
100
AcDbArc
 50
12.11752499999999
 51
89.69280399999998
  0
LINE
  5
5E8
330
18
100
AcDbEntity
  8
1
  6
Continuous
100
AcDbLine
 10
604.5000015376082
 20
349.3241008068466
 30
0.0
 11
606.1759425376081
 21
349.3241008068466
 31
0.0
  0
LINE
  5
5E9
330
18
100
AcDbEntity
  8
4
  6
CENTER
100
AcDbLine
 10
525.0000015376083
 20
381.9999998068467
 30
0.0
 11
525.0000015376083
 21
369.7081348068467
 31
0.0
  0
ARC
  5
5EA
330
18
100
AcDbEntity
  8
1
  6
Continuous
100
AcDbCircle
 10
525.4586965376083
 20
372.0691478068466
 30
0.0
 40
4.656547999999999
100
AcDbArc
 50
269.9275029999999
 51
354.6538109999998
  0
ARC
  5
5EB
330
18
100
AcDbEntity
  8
1
  6
Continuous
100
AcDbCircle
 10
505.7364205376083
 20
357.9453208068467
 30
0.0
 40
19.091498
100
AcDbArc
 50
14.33760399999999
 51
29.728455
  0
LINE
  5
5EC
330
18
100
AcDbEntity
  8
1
  6
Continuous
100
AcDbLine
 10
535.0000015376083
 20
377.9999998068467
 30
0.0
 11
535.0000015376083
 21
373.9999998068467
 31
0.0
  0
LINE
  5
5ED
330
18
100
AcDbEntity
  8
1
  6
Continuous
100
AcDbLine
 10
533.0000015376083
 20
373.9999998068467
 30
0.0
 11
532.0025715376083
 21
373.0370708068466
 31
0.0
  0
ARC
  5
5EE
330
18
100
AcDbEntity
  8
1
  6
Continuous
100
AcDbCircle
 10
531.9875005376082
 20
371.0587458068466
 30
0.0
 40
1.978383
100
AcDbArc
 50
89.563517
 51
163.0571349999998
  0
LINE
  5
5EF
330
18
100
AcDbEntity
  8
4
  6
CENTER
100
AcDbLine
 10
605.0000015376082
 20
381.9999998068467
 30
0.0
 11
605.0000015376082
 21
369.9999998068467
 31
0.0
  0
LINE
  5
5F0
330
18
100
AcDbEntity
  8
1
  6
Continuous
100
AcDbLine
 10
597.0000015376082
 20
373.9999998068467
 30
0.0
 11
597.9974315376082
 21
373.0370708068466
 31
0.0
  0
LINE
  5
5F1
330
18
100
AcDbEntity
  8
1
  6
Continuous
100
AcDbLine
 10
595.0000015376082
 20
377.9999998068467
 30
0.0
 11
595.0000015376082
 21
373.9999998068467
 31
0.0
  0
ARC
  5
5F2
330
18
100
AcDbEntity
  8
1
  6
Continuous
100
AcDbCircle
 10
604.5413065376081
 20
372.0691478068466
 30
0.0
 40
4.656547999999999
100
AcDbArc
 50
185.3461889999999
 51
270.072497
  0
ARC
  5
5F3
330
18
100
AcDbEntity
  8
1
  6
Continuous
100
AcDbCircle
 10
610.5000015376082
 20
358.4730428068467
 30
0.0
 40
6.0
100
AcDbArc
 50
135.572996
 51
180.0
  0
ARC
  5
5F4
330
18
100
AcDbEntity
  8
1
  6
Continuous
100
AcDbCircle
 10
624.2635825376082
 20
357.9453208068467
 30
0.0
 40
19.091498
100
AcDbArc
 50
150.271545
 51
165.662396
  0
ARC
  5
5F5
330
18
100
AcDbEntity
  8
1
  6
Continuous
100
AcDbCircle
 10
598.0125025376081
 20
371.0587458068466
 30
0.0
 40
1.978383
100
AcDbArc
 50
16.942865
 51
90.43648299999999
  0
LINE
  5
5F6
330
18
100
AcDbEntity
  8
1
  6
Continuous
100
AcDbLine
 10
695.5000015376082
 20
349.3241008068466
 30
0.0
 11
695.5000015376082
 21
358.4730428068467
 31
0.0
  0
ARC
  5
5F7
330
18
100
AcDbEntity
  8
1
  6
Continuous
100
AcDbCircle
 10
754.2239725376084
 20
330.7293738068466
 30
0.0
 40
70.531385
100
AcDbArc
 50
172.4850089999999
 51
226.598523
  0
ARC
  5
5F8
330
18
100
AcDbEntity
  8
1
  6
Continuous
100
AcDbCircle
 10
692.226169537608
 20
342.3241008068466
 30
0.0
 40
7.0
100
AcDbArc
 50
90.0
 51
159.810137
  0
ARC
  5
5F9
330
18
100
AcDbEntity
  8
1
  6
Continuous
100
AcDbCircle
 10
716.4323585376084
 20
333.4228188068467
 30
0.0
 40
32.790937
100
AcDbArc
 50
159.810137
 51
168.511442
  0
LINE
  5
5FA
330
18
100
AcDbEntity
  8
1
  6
Continuous
100
AcDbLine
 10
692.226169537608
 20
349.3241008068466
 30
0.0
 11
695.5000015376082
 21
349.3241008068466
 31
0.0
  0
ARC
  5
5FB
330
18
100
AcDbEntity
  8
1
  6
Continuous
100
AcDbCircle
 10
754.5849805376081
 20
302.7416688068466
 30
0.0
 40
3.7
100
AcDbArc
 50
313.8608979999999
 51
108.9999989999999
  0
LINE
  5
5FC
330
18
100
AcDbEntity
  8
1
  6
Continuous
100
AcDbLine
 10
758.4398595376081
 20
296.6754918068466
 30
0.0
 11
755.554836537608
 21
304.2692708068467
 31
0.0
  0
LINE
  5
5FD
330
18
100
AcDbEntity
  8
1
  6
Continuous
100
AcDbLine
 10
755.554836537608
 20
304.2692708068467
 30
0.0
 11
754.6011295376081
 21
304.1011058068467
 31
0.0
  0
LINE
  5
5FE
330
18
100
AcDbEntity
  8
1
  6
Continuous
100
AcDbLine
 10
753.380374537608
 20
306.2400858068466
 30
0.0
 11
753.3069495376081
 21
306.2148028068466
 31
0.0
  0
LINE
  5
5FF
330
18
100
AcDbEntity
  8
4
  6
CENTER
100
AcDbLine
 10
695.0000015376082
 20
381.9999998068467
 30
0.0
 11
695.0000015376082
 21
369.9999998068467
 31
0.0
  0
ARC
  5
600
330
18
100
AcDbEntity
  8
1
  6
Continuous
100
AcDbCircle
 10
695.4586965376081
 20
372.0691478068466
 30
0.0
 40
4.656547999999999
100
AcDbArc
 50
269.9275029999999
 51
354.6538109999998
  0
ARC
  5
601
330
18
100
AcDbEntity
  8
1
  6
Continuous
100
AcDbCircle
 10
689.5000015376082
 20
358.4730428068467
 30
0.0
 40
6.0
100
AcDbArc
 50
0.0
 51
44.42700399999998
  0
ARC
  5
602
330
18
100
AcDbEntity
  8
1
  6
Continuous
100
AcDbCircle
 10
675.7364205376083
 20
357.9453208068467
 30
0.0
 40
19.091498
100
AcDbArc
 50
14.33760399999999
 51
29.728455
  0
LINE
  5
603
330
18
100
AcDbEntity
  8
1
  6
Continuous
100
AcDbLine
 10
703.0000015376081
 20
373.9999998068467
 30
0.0
 11
702.0025715376078
 21
373.0370708068466
 31
0.0
  0
ARC
  5
604
330
18
100
AcDbEntity
  8
1
  6
Continuous
100
AcDbCircle
 10
701.9875005376081
 20
371.0587458068466
 30
0.0
 40
1.978383
100
AcDbArc
 50
89.563517
 51
163.0571349999998
  0
LINE
  5
605
330
18
100
AcDbEntity
  8
1
  6
Continuous
100
AcDbLine
 10
705.0000015376082
 20
373.9999998068467
 30
0.0
 11
705.0000015376082
 21
377.9999998068467
 31
0.0
  0
CIRCLE
  5
60B
330
18
100
AcDbEntity
  8
1
  6
Continuous
100
AcDbCircle
 10
265.0000015376083
 20
50.99999980684675
 30
0.0
 40
5.25
  0
ENDSEC
  0
SECTION
  2
OBJECTS
  0
DICTIONARY
  5
C
330
0
100
AcDbDictionary
281
     1
  3
ACAD_CIP_PREVIOUS_PRODUCT_INFO
350
676
  3
ACAD_COLOR
350
659
  3
ACAD_DETAILVIEWSTYLE
350
672
  3
ACAD_GROUP
350
D
  3
ACAD_LAYOUT
350
94
  3
ACAD_MATERIAL
350
627
  3
ACAD_MLEADERSTYLE
350
66E
  3
ACAD_MLINESTYLE
350
1B
  3
ACAD_PLOTSETTINGS
350
95
  3
ACAD_PLOTSTYLENAME
350
625
  3
ACAD_SCALELIST
350
65C
  3
ACAD_SECTIONVIEWSTYLE
350
670
  3
ACAD_TABLESTYLE
350
65A
  3
ACAD_VISUALSTYLE
350
640
  3
ACDB_RECOMPOSE_DATA
350
694
  3
AcDbVariableDictionary
350
687
  3
CONTENTDICTIONARY
350
3D
  3
DWGPROPS
350
695
  0
DICTIONARY
  5
677
330
E
100
AcDbDictionary
280
     1
281
     1
  3
ADSK_XREC_LAYER_RECONCILED
360
678
  0
DICTIONARY
  5
679
330
4E
100
AcDbDictionary
280
     1
281
     1
  3
ADSK_XREC_LAYER_RECONCILED
360
67A
  0
DICTIONARY
  5
67B
330
4F
100
AcDbDictionary
280
     1
281
     1
  3
ADSK_XREC_LAYER_RECONCILED
360
67C
  0
DICTIONARY
  5
67D
330
50
100
AcDbDictionary
280
     1
281
     1
  3
ADSK_XREC_LAYER_RECONCILED
360
67E
  0
DICTIONARY
  5
67F
330
51
100
AcDbDictionary
280
     1
281
     1
  3
ADSK_XREC_LAYER_RECONCILED
360
680
  0
DICTIONARY
  5
681
330
52
100
AcDbDictionary
280
     1
281
     1
  3
ADSK_XREC_LAYER_RECONCILED
360
682
  0
DICTIONARY
  5
683
330
53
100
AcDbDictionary
280
     1
281
     1
  3
ADSK_XREC_LAYER_RECONCILED
360
684
  0
DICTIONARY
  5
685
330
54
100
AcDbDictionary
280
     1
281
     1
  3
ADSK_XREC_LAYER_RECONCILED
360
686
  0
DICTIONARY
  5
620
330
18
100
AcDbDictionary
281
     1
  3
ACAD_LAYOUTSELFREF
350
621
  0
DICTIONARY
  5
61E
330
15
100
AcDbDictionary
281
     1
  3
ACAD_LAYOUTSELFREF
350
61F
  0
XRECORD
  5
676
102
{ACAD_REACTORS
330
C
102
}
330
C
100
AcDbXrecord
280
     1
300
ACDLT
300
2014
300
ACDLT_F_S
  0
DICTIONARY
  5
659
102
{ACAD_REACTORS
330
C
102
}
330
C
100
AcDbDictionary
281
     1
  0
DICTIONARY
  5
672
102
{ACAD_REACTORS
330
C
102
}
330
C
100
AcDbDictionary
281
     1
  3
Imperial24
350
673
  0
DICTIONARY
  5
D
102
{ACAD_REACTORS
330
C
102
}
330
C
100
AcDbDictionary
281
     1
  0
DICTIONARY
  5
94
102
{ACAD_REACTORS
330
C
102
}
330
C
100
AcDbDictionary
281
     1
  3
Model
350
674
  3
レイアウト1
350
675
  0
DICTIONARY
  5
627
102
{ACAD_REACTORS
330
C
102
}
330
C
100
AcDbDictionary
281
     1
  3
ByBlock
350
630
  3
ByLayer
350
628
  3
Global
350
638
  0
DICTIONARY
  5
66E
102
{ACAD_REACTORS
330
C
102
}
330
C
100
AcDbDictionary
281
     1
  3
Standard
350
66F
  0
DICTIONARY
  5
1B
102
{ACAD_REACTORS
330
C
102
}
330
C
100
AcDbDictionary
281
     1
  3
STANDARD
350
1C
  0
DICTIONARY
  5
95
102
{ACAD_REACTORS
330
C
102
}
330
C
100
AcDbDictionary
281
     1
  0
ACDBDICTIONARYWDFLT
  5
625
102
{ACAD_REACTORS
330
C
102
}
330
C
100
AcDbDictionary
281
     1
  3
Normal
350
626
100
AcDbDictionaryWithDefault
340
626
  0
DICTIONARY
  5
65C
102
{ACAD_REACTORS
330
C
102
}
330
C
100
AcDbDictionary
281
     1
  3
A0
350
65D
  3
A1
350
65E
  3
A2
350
65F
  3
A3
350
660
  3
A4
350
661
  3
A5
350
662
  3
A6
350
663
  3
A7
350
664
  3
A8
350
665
  3
A9
350
666
  3
B0
350
667
  3
B1
350
668
  3
B2
350
669
  3
B3
350
66A
  3
B4
350
66B
  3
B5
350
66C
  3
B6
350
66D
  0
DICTIONARY
  5
670
102
{ACAD_REACTORS
330
C
102
}
330
C
100
AcDbDictionary
281
     1
  3
Imperial24
350
671
  0
DICTIONARY
  5
65A
102
{ACAD_REACTORS
330
C
102
}
330
C
100
AcDbDictionary
281
     1
  3
Standard
350
65B
  0
DICTIONARY
  5
640
102
{ACAD_REACTORS
330
C
102
}
330
C
100
AcDbDictionary
281
     1
  3
2dWireframe
350
646
  3
Basic
350
645
  3
Brighten
350
64C
  3
ColorChange
350
650
  3
Conceptual
350
649
  3
Dim
350
64B
  3
EdgeColorOff
350
658
  3
Facepattern
350
64F
  3
Flat
350
641
  3
FlatWithEdges
350
642
  3
Gouraud
350
643
  3
GouraudWithEdges
350
644
  3
Hidden
350
648
  3
JitterOff
350
656
  3
Linepattern
350
64E
  3
OverhangOff
350
657
  3
Realistic
350
64A
  3
Shaded
350
655
  3
Shaded with edges
350
654
  3
Shades of Gray
350
651
  3
Sketchy
350
652
  3
Thicken
350
64D
  3
Wireframe
350
647
  3
X-Ray
350
653
  0
XRECORD
  5
694
102
{ACAD_REACTORS
330
C
102
}
330
C
100
AcDbXrecord
280
     1
 90
        1
330
65B
  0
DICTIONARY
  5
687
102
{ACAD_REACTORS
330
C
102
}
330
C
100
AcDbDictionary
281
     1
  3
CANNOSCALE
350
68C
  3
CMLEADERSTYLE
350
689
  3
CTABLESTYLE
350
688
  3
CVIEWDETAILSTYLE
350
68A
  3
CVIEWSECTIONSTYLE
350
68B
  3
DIMASSOC
350
68F
  3
INDEXCTL
350
68E
  3
SORTENTS
350
68D
  3
XCLIPFRAME
350
690
  0
DICTIONARY
  5
3D
102
{ACAD_REACTORS
330
C
102
}
330
C
100
AcDbDictionary
281
     1
  0
XRECORD
  5
695
102
{ACAD_REACTORS
330
C
102
}
330
C
100
AcDbXrecord
280
     1
  1
DWGPROPS COOKIE
  2

  3

  4

  6

  7

  8
Yoshitsune
  9

300
=
301
=
302
=
303
=
304
=
305
=
306
=
307
=
308
=
309
=
 40
0.0027621990740741
 41
2454875.709150915
 42
2457192.687567766
  1

 90
        0
  0
XRECORD
  5
678
102
{ACAD_REACTORS
330
677
102
}
330
677
100
AcDbXrecord
280
     1
290
     1
  0
XRECORD
  5
67A
102
{ACAD_REACTORS
330
679
102
}
330
679
100
AcDbXrecord
280
     1
290
     1
  0
XRECORD
  5
67C
102
{ACAD_REACTORS
330
67B
102
}
330
67B
100
AcDbXrecord
280
     1
290
     1
  0
XRECORD
  5
67E
102
{ACAD_REACTORS
330
67D
102
}
330
67D
100
AcDbXrecord
280
     1
290
     1
  0
XRECORD
  5
680
102
{ACAD_REACTORS
330
67F
102
}
330
67F
100
AcDbXrecord
280
     1
290
     1
  0
XRECORD
  5
682
102
{ACAD_REACTORS
330
681
102
}
330
681
100
AcDbXrecord
280
     1
290
     1
  0
XRECORD
  5
684
102
{ACAD_REACTORS
330
683
102
}
330
683
100
AcDbXrecord
280
     1
290
     1
  0
XRECORD
  5
686
102
{ACAD_REACTORS
330
685
102
}
330
685
100
AcDbXrecord
280
     1
290
     1
  0
XRECORD
  5
621
102
{ACAD_REACTORS
330
620
102
}
330
620
100
AcDbXrecord
280
     1
340
18
  0
XRECORD
  5
61F
102
{ACAD_REACTORS
330
61E
102
}
330
61E
100
AcDbXrecord
280
     1
340
15
  0
ACDBDETAILVIEWSTYLE
  5
673
102
{ACAD_XDICTIONARY
360
6CD
102
}
102
{ACAD_REACTORS
330
672
102
}
330
672
100
AcDbModelDocViewStyle
 70
     0
  3
Imperial24
290
     0
100
AcDbDetailViewStyle
 70
     0
 71
     0
 90
        3
 71
     1
340
F
 40
0.24
340
0
 40
0.24
300

 40
0.36
280
     3
 71
     2
340
14
 90
       25
 71
     3
340
F
 40
0.24
 90
        1
 40
0.75
 90
        1
300
%<\AcVar ViewType \f "%tc1">% %<\AcVar ViewDetailId>%\PSCALE %<\AcVar ViewScale \f "%sn">%
 71
     4
340
14
 90
       25
340
14
 90
       25
280
     0
  0
LAYOUT
  5
674
102
{ACAD_XDICTIONARY
360
6CF
102
}
102
{ACAD_REACTORS
330
94
102
}
330
94
100
AcDbPlotSettings
  1

  2
Canon LBP9100C
  4

  6

 40
0.0
 41
0.0
 42
0.0
 43
0.0
 44
0.0
 45
0.0
 46
0.0
 47
0.0
 48
0.0
 49
0.0
140
0.0
141
0.0
142
1.0
143
1.0
 70
  1712
 72
     0
 73
     0
 74
     0
  7

 75
     0
147
1.0
148
0.0
149
0.0
100
AcDbLayout
  1
Model
 70
     1
 71
     0
 10
0.0
 20
0.0
 11
12.0
 21
9.0
 12
0.0
 22
0.0
 32
0.0
 14
0.0
 24
0.0
 34
0.0
 15
0.0
 25
0.0
 35
0.0
146
0.0
 13
0.0
 23
0.0
 33
0.0
 16
1.0
 26
0.0
 36
0.0
 17
0.0
 27
1.0
 37
0.0
 76
     0
330
18
331
61D
  0
LAYOUT
  5
675
102
{ACAD_XDICTIONARY
360
6D1
102
}
102
{ACAD_REACTORS
330
94
102
}
330
94
100
AcDbPlotSettings
  1

  2
Canon LBP9100C
  4

  6

 40
0.0
 41
0.0
 42
0.0
 43
0.0
 44
0.0
 45
0.0
 46
0.0
 47
0.0
 48
0.0
 49
0.0
140
0.0
141
0.0
142
1.0
143
1.0
 70
   688
 72
     0
 73
     0
 74
     5
  7

 75
    16
147
1.0
148
0.0
149
0.0
100
AcDbLayout
  1
レイアウト1
 70
     1
 71
     1
 10
0.0
 20
0.0
 11
420.0
 21
297.0
 12
0.0
 22
0.0
 32
0.0
 14
1.000000000000000E+20
 24
1.000000000000000E+20
 34
1.000000000000000E+20
 15
-1.000000000000000E+20
 25
-1.000000000000000E+20
 35
-1.000000000000000E+20
146
0.0
 13
0.0
 23
0.0
 33
0.0
 16
1.0
 26
0.0
 36
0.0
 17
0.0
 27
1.0
 37
0.0
 76
     0
330
15
  0
MATERIAL
  5
630
102
{ACAD_XDICTIONARY
360
631
102
}
102
{ACAD_REACTORS
330
627
102
}
330
627
100
AcDbMaterial
  1
ByBlock
 72
     0
 43
0.0208333333333333
 43
0.0
 43
0.0
 43
0.0
 43
0.0
 43
0.0208333333333333
 43
0.0
 43
0.0
 43
0.0
 43
0.0
 43
1.0
 43
0.0
 43
0.0
 43
0.0
 43
0.0
 43
1.0
 77
     0
 47
0.0208333333333333
 47
0.0
 47
0.0
 47
0.0
 47
0.0
 47
0.0208333333333333
 47
0.0
 47
0.0
 47
0.0
 47
0.0
 47
1.0
 47
0.0
 47
0.0
 47
0.0
 47
0.0
 47
1.0
171
     0
 49
0.0208333333333333
 49
0.0
 49
0.0
 49
0.0
 49
0.0
 49
0.0208333333333333
 49
0.0
 49
0.0
 49
0.0
 49
0.0
 49
1.0
 49
0.0
 49
0.0
 49
0.0
 49
0.0
 49
1.0
175
     0
142
0.0208333333333333
142
0.0
142
0.0
142
0.0
142
0.0
142
0.0208333333333333
142
0.0
142
0.0
142
0.0
142
0.0
142
1.0
142
0.0
142
0.0
142
0.0
142
0.0
142
1.0
179
     0
144
0.0208333333333333
144
0.0
144
0.0
144
0.0
144
0.0
144
0.0208333333333333
144
0.0
144
0.0
144
0.0
144
0.0
144
1.0
144
0.0
144
0.0
144
0.0
144
0.0
144
1.0
147
0.0208333333333333
147
0.0
147
0.0
147
0.0
147
0.0
147
0.0208333333333333
147
0.0
147
0.0
147
0.0
147
0.0
147
1.0
147
0.0
147
0.0
147
0.0
147
0.0
147
1.0
  0
MATERIAL
  5
628
102
{ACAD_XDICTIONARY
360
629
102
}
102
{ACAD_REACTORS
330
627
102
}
330
627
100
AcDbMaterial
  1
ByLayer
 72
     0
 43
0.0208333333333333
 43
0.0
 43
0.0
 43
0.0
 43
0.0
 43
0.0208333333333333
 43
0.0
 43
0.0
 43
0.0
 43
0.0
 43
1.0
 43
0.0
 43
0.0
 43
0.0
 43
0.0
 43
1.0
 77
     0
 47
0.0208333333333333
 47
0.0
 47
0.0
 47
0.0
 47
0.0
 47
0.0208333333333333
 47
0.0
 47
0.0
 47
0.0
 47
0.0
 47
1.0
 47
0.0
 47
0.0
 47
0.0
 47
0.0
 47
1.0
171
     0
 49
0.0208333333333333
 49
0.0
 49
0.0
 49
0.0
 49
0.0
 49
0.0208333333333333
 49
0.0
 49
0.0
 49
0.0
 49
0.0
 49
1.0
 49
0.0
 49
0.0
 49
0.0
 49
0.0
 49
1.0
175
     0
142
0.0208333333333333
142
0.0
142
0.0
142
0.0
142
0.0
142
0.0208333333333333
142
0.0
142
0.0
142
0.0
142
0.0
142
1.0
142
0.0
142
0.0
142
0.0
142
0.0
142
1.0
179
     0
144
0.0208333333333333
144
0.0
144
0.0
144
0.0
144
0.0
144
0.0208333333333333
144
0.0
144
0.0
144
0.0
144
0.0
144
1.0
144
0.0
144
0.0
144
0.0
144
0.0
144
1.0
147
0.0208333333333333
147
0.0
147
0.0
147
0.0
147
0.0
147
0.0208333333333333
147
0.0
147
0.0
147
0.0
147
0.0
147
1.0
147
0.0
147
0.0
147
0.0
147
0.0
147
1.0
  0
MATERIAL
  5
638
102
{ACAD_XDICTIONARY
360
639
102
}
102
{ACAD_REACTORS
330
627
102
}
330
627
100
AcDbMaterial
  1
Global
 72
     0
 43
0.0208333333333333
 43
0.0
 43
0.0
 43
0.0
 43
0.0
 43
0.0208333333333333
 43
0.0
 43
0.0
 43
0.0
 43
0.0
 43
1.0
 43
0.0
 43
0.0
 43
0.0
 43
0.0
 43
1.0
 77
     0
 47
0.0208333333333333
 47
0.0
 47
0.0
 47
0.0
 47
0.0
 47
0.0208333333333333
 47
0.0
 47
0.0
 47
0.0
 47
0.0
 47
1.0
 47
0.0
 47
0.0
 47
0.0
 47
0.0
 47
1.0
171
     0
 49
0.0208333333333333
 49
0.0
 49
0.0
 49
0.0
 49
0.0
 49
0.0208333333333333
 49
0.0
 49
0.0
 49
0.0
 49
0.0
 49
1.0
 49
0.0
 49
0.0
 49
0.0
 49
0.0
 49
1.0
175
     0
142
0.0208333333333333
142
0.0
142
0.0
142
0.0
142
0.0
142
0.0208333333333333
142
0.0
142
0.0
142
0.0
142
0.0
142
1.0
142
0.0
142
0.0
142
0.0
142
0.0
142
1.0
179
     0
144
0.0208333333333333
144
0.0
144
0.0
144
0.0
144
0.0
144
0.0208333333333333
144
0.0
144
0.0
144
0.0
144
0.0
144
1.0
144
0.0
144
0.0
144
0.0
144
0.0
144
1.0
147
0.0208333333333333
147
0.0
147
0.0
147
0.0
147
0.0
147
0.0208333333333333
147
0.0
147
0.0
147
0.0
147
0.0
147
1.0
147
0.0
147
0.0
147
0.0
147
0.0
147
1.0
  0
MLEADERSTYLE
  5
66F
102
{ACAD_REACTORS
330
66E
102
}
330
66E
100
AcDbMLeaderStyle
170
     2
171
     1
172
     0
 90
        2
 40
0.0
 41
0.0
173
     1
 91
-1056964608
340
12
 92
       -2
290
     1
 42
0.09
291
     1
 43
0.36
  3
Standard
 44
0.18
300

342
F
174
     1
178
     6
175
     1
176
     0
 93
-1056964608
 45
0.18
292
     0
297
     0
 46
0.18
 94
-1056964608
 47
1.0
 49
1.0
140
1.0
293
     1
141
0.0
294
     1
177
     0
142
1.0
295
     0
296
     0
143
0.125
1001
ACAD_MLEADERVER
1070
     2
  0
MLINESTYLE
  5
1C
102
{ACAD_REACTORS
330
1B
102
}
330
1B
100
AcDbMlineStyle
  2
STANDARD
 70
     0
  3

 62
   256
 51
90.0
 52
90.0
 71
     2
 49
0.5
 62
   256
  6
BYLAYER
 49
-0.5
 62
   256
  6
BYLAYER
  0
ACDBPLACEHOLDER
  5
626
102
{ACAD_REACTORS
330
625
102
}
330
625
  0
SCALE
  5
65D
102
{ACAD_REACTORS
330
65C
102
}
330
65C
100
AcDbScale
 70
     0
300
1:1
140
1.0
141
1.0
290
     1
  0
SCALE
  5
65E
102
{ACAD_REACTORS
330
65C
102
}
330
65C
100
AcDbScale
 70
     0
300
1/128" = 1'-0"
140
0.0078125
141
12.0
290
     0
  0
SCALE
  5
65F
102
{ACAD_REACTORS
330
65C
102
}
330
65C
100
AcDbScale
 70
     0
300
1/64" = 1'-0"
140
0.015625
141
12.0
290
     0
  0
SCALE
  5
660
102
{ACAD_REACTORS
330
65C
102
}
330
65C
100
AcDbScale
 70
     0
300
1/32" = 1'-0"
140
0.03125
141
12.0
290
     0
  0
SCALE
  5
661
102
{ACAD_REACTORS
330
65C
102
}
330
65C
100
AcDbScale
 70
     0
300
1/16" = 1'-0"
140
0.0625
141
12.0
290
     0
  0
SCALE
  5
662
102
{ACAD_REACTORS
330
65C
102
}
330
65C
100
AcDbScale
 70
     0
300
3/32" = 1'-0"
140
0.09375
141
12.0
290
     0
  0
SCALE
  5
663
102
{ACAD_REACTORS
330
65C
102
}
330
65C
100
AcDbScale
 70
     0
300
1/8" = 1'-0"
140
0.125
141
12.0
290
     0
  0
SCALE
  5
664
102
{ACAD_REACTORS
330
65C
102
}
330
65C
100
AcDbScale
 70
     0
300
3/16" = 1'-0"
140
0.1875
141
12.0
290
     0
  0
SCALE
  5
665
102
{ACAD_REACTORS
330
65C
102
}
330
65C
100
AcDbScale
 70
     0
300
1/4" = 1'-0"
140
0.25
141
12.0
290
     0
  0
SCALE
  5
666
102
{ACAD_REACTORS
330
65C
102
}
330
65C
100
AcDbScale
 70
     0
300
3/8" = 1'-0"
140
0.375
141
12.0
290
     0
  0
SCALE
  5
667
102
{ACAD_REACTORS
330
65C
102
}
330
65C
100
AcDbScale
 70
     0
300
1/2" = 1'-0"
140
0.5
141
12.0
290
     0
  0
SCALE
  5
668
102
{ACAD_REACTORS
330
65C
102
}
330
65C
100
AcDbScale
 70
     0
300
3/4" = 1'-0"
140
0.75
141
12.0
290
     0
  0
SCALE
  5
669
102
{ACAD_REACTORS
330
65C
102
}
330
65C
100
AcDbScale
 70
     0
300
1" = 1'-0"
140
1.0
141
12.0
290
     0
  0
SCALE
  5
66A
102
{ACAD_REACTORS
330
65C
102
}
330
65C
100
AcDbScale
 70
     0
300
1-1/2" = 1'-0"
140
1.5
141
12.0
290
     0
  0
SCALE
  5
66B
102
{ACAD_REACTORS
330
65C
102
}
330
65C
100
AcDbScale
 70
     0
300
3" = 1'-0"
140
3.0
141
12.0
290
     0
  0
SCALE
  5
66C
102
{ACAD_REACTORS
330
65C
102
}
330
65C
100
AcDbScale
 70
     0
300
6" = 1'-0"
140
6.0
141
12.0
290
     0
  0
SCALE
  5
66D
102
{ACAD_REACTORS
330
65C
102
}
330
65C
100
AcDbScale
 70
     0
300
1'-0" = 1'-0"
140
12.0
141
12.0
290
     0
  0
ACDBSECTIONVIEWSTYLE
  5
671
102
{ACAD_XDICTIONARY
360
6CB
102
}
102
{ACAD_REACTORS
330
670
102
}
330
670
100
AcDbModelDocViewStyle
 70
     0
  3
Imperial24
290
     0
100
AcDbSectionViewStyle
 70
     0
 71
     0
 90
       78
 71
     1
340
F
 40
0.24
340
0
340
0
 40
0.24
300
I, O, Q, S, X, Z
 40
0.48
 90
        3
 40
0.18
 90
        1
 71
     2
340
14
 90
       25
340
14
 90
       50
 40
0.24
 40
0.0
 40
0.24
 71
     3
340
F
 40
0.24
 90
        1
 40
0.75
 90
        1
300
%<\AcVar ViewType \f "%tc1">% %<\AcVar ViewSectionStartId>%-%<\AcVar ViewSectionEndId>%\PSCALE %<\AcVar ViewScale \f "%sn">%
 71
     4
300
ANSI31
 40
1.0
 90
        0
290
     0
290
     0
 90
        6
 40
0.0
 40
1.570796326794896
 40
0.2617993877991494
 40
1.308996938995747
 40
-0.2617993877991494
 40
1.832595714594046
  0
TABLESTYLE
  5
65B
102
{ACAD_XDICTIONARY
360
692
102
}
102
{ACAD_REACTORS
330
65A
102
}
330
65A
100
AcDbTableStyle
  3
Standard
 70
     0
 71
     0
 40
0.06
 41
0.06
280
     0
281
     0
  7
STANDARD
140
0.18
170
     2
 62
     0
 63
     7
283
     0
274
    -2
284
     1
 64
     0
275
    -2
285
     1
 65
     0
276
    -2
286
     1
 66
     0
277
    -2
287
     1
 67
     0
278
    -2
288
     1
 68
     0
279
    -2
289
     1
 69
     0
  7
STANDARD
140
0.25
170
     5
 62
     0
 63
     7
283
     0
274
    -2
284
     1
 64
     0
275
    -2
285
     1
 65
     0
276
    -2
286
     1
 66
     0
277
    -2
287
     1
 67
     0
278
    -2
288
     1
 68
     0
279
    -2
289
     1
 69
     0
  7
STANDARD
140
0.18
170
     5
 62
     0
 63
     7
283
     0
274
    -2
284
     1
 64
     0
275
    -2
285
     1
 65
     0
276
    -2
286
     1
 66
     0
277
    -2
287
     1
 67
     0
278
    -2
288
     1
 68
     0
279
    -2
289
     1
 69
     0
  0
VISUALSTYLE
  5
646
102
{ACAD_XDICTIONARY
360
6A3
102
}
102
{ACAD_REACTORS
330
640
102
}
330
640
100
AcDbVisualStyle
  2
2dWireframe
 70
     4
 71
     0
 72
     2
 73
     0
 90
        0
 40
-0.6
 41
-30.0
 62
     5
 63
     7
 74
     1
 91
        4
 64
     7
 65
   257
 75
     1
175
     1
 42
1.0
 92
        0
 66
   257
 43
1.0
 76
     1
 77
     6
 78
     2
 67
     7
 79
     5
170
     0
171
     0
290
     0
174
     0
 93
        1
 44
0.0
173
     0
291
     0
 45
0.0
1001
ACAD
1000
AcDbSavedByObjectVersion
1070
     0
  0
VISUALSTYLE
  5
645
102
{ACAD_XDICTIONARY
360
6A1
102
}
102
{ACAD_REACTORS
330
640
102
}
330
640
100
AcDbVisualStyle
  2
Basic
 70
     7
 71
     1
 72
     0
 73
     1
 90
        0
 40
-0.6
 41
-30.0
 62
     5
 63
     7
 74
     0
 91
        4
 64
     7
 65
   257
 75
     1
175
     1
 42
1.0
 92
        8
 66
     7
 43
1.0
 76
     1
 77
     6
 78
     2
 67
     7
 79
     5
170
     0
171
     0
290
     0
174
     0
 93
        1
 44
0.0
173
     0
291
     1
 45
0.0
1001
ACAD
1000
AcDbSavedByObjectVersion
1070
     0
  0
VISUALSTYLE
  5
64C
102
{ACAD_XDICTIONARY
360
6AF
102
}
102
{ACAD_REACTORS
330
640
102
}
330
640
100
AcDbVisualStyle
  2
Brighten
 70
    12
 71
     2
 72
     2
 73
     0
 90
        0
 40
-0.6
 41
-30.0
 62
     5
 63
     7
 74
     1
 91
        4
 64
     7
 65
   257
 75
     1
175
     1
 42
1.0
 92
        8
 66
     7
 43
1.0
 76
     1
 77
     6
 78
     2
 67
     7
 79
     5
170
     0
171
     0
290
     0
174
     0
 93
        1
 44
50.0
173
     0
291
     1
 45
0.0
1001
ACAD
1000
AcDbSavedByObjectVersion
1070
     0
  0
VISUALSTYLE
  5
650
102
{ACAD_XDICTIONARY
360
6B7
102
}
102
{ACAD_REACTORS
330
640
102
}
330
640
100
AcDbVisualStyle
  2
ColorChange
 70
    16
 71
     2
 72
     2
 73
     3
 90
        0
 40
-0.6
 41
-30.0
 62
     5
 63
     8
 74
     1
 91
        4
 64
     7
 65
   257
 75
     1
175
     1
 42
1.0
 92
        8
 66
     8
 43
1.0
 76
     1
 77
     6
 78
     2
 67
     7
 79
     5
170
     0
171
     0
290
     0
174
     0
 93
        1
 44
0.0
173
     0
291
     1
 45
0.0
1001
ACAD
1000
AcDbSavedByObjectVersion
1070
     0
  0
VISUALSTYLE
  5
649
102
{ACAD_XDICTIONARY
360
6A9
102
}
102
{ACAD_REACTORS
330
640
102
}
330
640
100
AcDbVisualStyle
  2
Conceptual
 70
     9
 71
     3
 72
     2
 73
     0
 90
        0
 40
-0.6
 41
-30.0
 62
     5
 63
     7
 74
     2
 91
        2
 64
     7
 65
   257
 75
     1
175
     1
 42
179.0
 92
        8
 66
     7
 43
1.0
 76
     1
 77
     6
 78
     2
 67
     7
 79
     3
170
     0
171
     0
290
     0
174
     0
 93
        1
 44
0.0
173
     0
291
     0
 45
0.0
1001
ACAD
1000
AcDbSavedByObjectVersion
1070
     0
  0
VISUALSTYLE
  5
64B
102
{ACAD_XDICTIONARY
360
6AD
102
}
102
{ACAD_REACTORS
330
640
102
}
330
640
100
AcDbVisualStyle
  2
Dim
 70
    11
 71
     2
 72
     2
 73
     0
 90
        0
 40
-0.6
 41
-30.0
 62
     5
 63
     7
 74
     1
 91
        4
 64
     7
 65
   257
 75
     1
175
     1
 42
1.0
 92
        8
 66
     7
 43
1.0
 76
     1
 77
     6
 78
     2
 67
     7
 79
     5
170
     0
171
     0
290
     0
174
     0
 93
        1
 44
-50.0
173
     0
291
     1
 45
0.0
1001
ACAD
1000
AcDbSavedByObjectVersion
1070
     0
  0
VISUALSTYLE
  5
658
102
{ACAD_XDICTIONARY
360
6C7
102
}
102
{ACAD_REACTORS
330
640
102
}
330
640
100
AcDbVisualStyle
  2
EdgeColorOff
 70
    22
 71
     2
 72
     2
 73
     0
 90
        0
 40
-0.6
 41
-30.0
 62
     5
 63
     7
 74
     1
 91
        4
 64
     7
 65
   257
 75
     1
175
     1
 42
1.0
 92
        8
 66
     7
 43
1.0
 76
     1
 77
     6
 78
     2
 67
     7
 79
     5
170
     0
171
     0
290
     0
174
     0
 93
        1
 44
0.0
173
     0
291
     1
 45
0.0
1001
ACAD
1000
AcDbSavedByObjectVersion
1070
     0
  0
VISUALSTYLE
  5
64F
102
{ACAD_XDICTIONARY
360
6B5
102
}
102
{ACAD_REACTORS
330
640
102
}
330
640
100
AcDbVisualStyle
  2
Facepattern
 70
    15
 71
     2
 72
     2
 73
     0
 90
        0
 40
-0.6
 41
-30.0
 62
     5
 63
     7
 74
     1
 91
        4
 64
     7
 65
   257
 75
     1
175
     1
 42
1.0
 92
        8
 66
     7
 43
1.0
 76
     1
 77
     6
 78
     2
 67
     7
 79
     5
170
     0
171
     0
290
     0
174
     0
 93
        1
 44
0.0
173
     0
291
     1
 45
0.0
1001
ACAD
1000
AcDbSavedByObjectVersion
1070
     0
  0
VISUALSTYLE
  5
641
102
{ACAD_XDICTIONARY
360
699
102
}
102
{ACAD_REACTORS
330
640
102
}
330
640
100
AcDbVisualStyle
  2
Flat
 70
     0
 71
     2
 72
     1
 73
     1
 90
        2
 40
-0.6
 41
30.0
 62
     5
 63
     7
 74
     0
 91
        0
 64
     7
 65
   257
 75
     1
175
     1
 42
1.0
 92
        8
 66
     7
 43
1.0
 76
     1
 77
     6
 78
     2
 67
     7
 79
     5
170
     0
171
     0
290
     0
174
     0
 93
       13
 44
0.0
173
     0
291
     1
 45
0.0
1001
ACAD
1000
AcDbSavedByObjectVersion
1070
     0
  0
VISUALSTYLE
  5
642
102
{ACAD_XDICTIONARY
360
69B
102
}
102
{ACAD_REACTORS
330
640
102
}
330
640
100
AcDbVisualStyle
  2
FlatWithEdges
 70
     1
 71
     2
 72
     1
 73
     1
 90
        2
 40
-0.6
 41
30.0
 62
     5
 63
     7
 74
     1
 91
        0
 64
     7
 65
   257
 75
     1
175
     1
 42
1.0
 92
        0
 66
   257
 43
1.0
 76
     1
 77
     6
 78
     2
 67
     7
 79
     5
170
     0
171
     0
290
     0
174
     0
 93
       13
 44
0.0
173
     0
291
     1
 45
0.0
1001
ACAD
1000
AcDbSavedByObjectVersion
1070
     0
  0
VISUALSTYLE
  5
643
102
{ACAD_XDICTIONARY
360
69D
102
}
102
{ACAD_REACTORS
330
640
102
}
330
640
100
AcDbVisualStyle
  2
Gouraud
 70
     2
 71
     2
 72
     2
 73
     1
 90
        2
 40
-0.6
 41
30.0
 62
     5
 63
     7
 74
     0
 91
        0
 64
     7
 65
   257
 75
     1
175
     1
 42
1.0
 92
        0
 66
     7
 43
1.0
 76
     1
 77
     6
 78
     2
 67
     7
 79
     5
170
     0
171
     0
290
     0
174
     0
 93
       13
 44
0.0
173
     0
291
     1
 45
0.0
1001
ACAD
1000
AcDbSavedByObjectVersion
1070
     0
  0
VISUALSTYLE
  5
644
102
{ACAD_XDICTIONARY
360
69F
102
}
102
{ACAD_REACTORS
330
640
102
}
330
640
100
AcDbVisualStyle
  2
GouraudWithEdges
 70
     3
 71
     2
 72
     2
 73
     1
 90
        2
 40
-0.6
 41
30.0
 62
     5
 63
     7
 74
     1
 91
        0
 64
     7
 65
   257
 75
     1
175
     1
 42
1.0
 92
        0
 66
   257
 43
1.0
 76
     1
 77
     6
 78
     2
 67
     7
 79
     5
170
     0
171
     0
290
     0
174
     0
 93
       13
 44
0.0
173
     0
291
     1
 45
0.0
1001
ACAD
1000
AcDbSavedByObjectVersion
1070
     0
  0
VISUALSTYLE
  5
648
102
{ACAD_XDICTIONARY
360
6A7
102
}
102
{ACAD_REACTORS
330
640
102
}
330
640
100
AcDbVisualStyle
  2
Hidden
 70
     6
 71
     1
 72
     2
 73
     2
 90
        0
 40
-0.6
 41
-30.0
 62
     5
 63
     7
 74
     2
 91
        2
 64
     7
 65
   257
 75
     2
175
     1
 42
40.0
 92
        0
 66
   257
 43
1.0
 76
     1
 77
     6
 78
     2
 67
     7
 79
     3
170
     0
171
     0
290
     0
174
     0
 93
        1
 44
0.0
173
     0
291
     0
 45
0.0
1001
ACAD
1000
AcDbSavedByObjectVersion
1070
     0
  0
VISUALSTYLE
  5
656
102
{ACAD_XDICTIONARY
360
6C3
102
}
102
{ACAD_REACTORS
330
640
102
}
330
640
100
AcDbVisualStyle
  2
JitterOff
 70
    20
 71
     2
 72
     2
 73
     0
 90
        0
 40
-0.6
 41
-30.0
 62
     5
 63
     7
 74
     1
 91
        4
 64
     7
 65
   257
 75
     1
175
     1
 42
1.0
 92
       10
 66
     7
 43
1.0
 76
     1
 77
     6
 78
     2
 67
     7
 79
     5
170
     0
171
     0
290
     0
174
     0
 93
        1
 44
0.0
173
     0
291
     1
 45
0.0
1001
ACAD
1000
AcDbSavedByObjectVersion
1070
     0
  0
VISUALSTYLE
  5
64E
102
{ACAD_XDICTIONARY
360
6B3
102
}
102
{ACAD_REACTORS
330
640
102
}
330
640
100
AcDbVisualStyle
  2
Linepattern
 70
    14
 71
     2
 72
     2
 73
     0
 90
        0
 40
-0.6
 41
-30.0
 62
     5
 63
     7
 74
     1
 91
        4
 64
     7
 65
   257
 75
     7
175
     7
 42
1.0
 92
        8
 66
     7
 43
1.0
 76
     1
 77
     6
 78
     2
 67
     7
 79
     5
170
     0
171
     0
290
     0
174
     0
 93
        1
 44
0.0
173
     0
291
     1
 45
0.0
1001
ACAD
1000
AcDbSavedByObjectVersion
1070
     0
  0
VISUALSTYLE
  5
657
102
{ACAD_XDICTIONARY
360
6C5
102
}
102
{ACAD_REACTORS
330
640
102
}
330
640
100
AcDbVisualStyle
  2
OverhangOff
 70
    21
 71
     2
 72
     2
 73
     0
 90
        0
 40
-0.6
 41
-30.0
 62
     5
 63
     7
 74
     1
 91
        4
 64
     7
 65
   257
 75
     1
175
     1
 42
1.0
 92
        9
 66
     7
 43
1.0
 76
     1
 77
     6
 78
     2
 67
     7
 79
     5
170
     0
171
     0
290
     0
174
     0
 93
        1
 44
0.0
173
     0
291
     1
 45
0.0
1001
ACAD
1000
AcDbSavedByObjectVersion
1070
     0
  0
VISUALSTYLE
  5
64A
102
{ACAD_XDICTIONARY
360
6AB
102
}
102
{ACAD_REACTORS
330
640
102
}
330
640
100
AcDbVisualStyle
  2
Realistic
 70
     8
 71
     2
 72
     3
 73
     0
 90
        2
 40
-0.6
 41
30.0
 62
     5
 63
     7
 74
     0
 91
        0
 64
     7
 65
   257
 75
     1
175
     1
 42
1.0
 92
        8
 66
   257
 43
1.0
 76
     1
 77
     6
 78
     2
 67
     7
 79
     3
170
     0
171
     0
290
     0
174
     0
 93
       13
 44
0.0
173
     0
291
     0
 45
0.0
1001
ACAD
1000
AcDbSavedByObjectVersion
1070
     0
  0
VISUALSTYLE
  5
655
102
{ACAD_XDICTIONARY
360
6C1
102
}
102
{ACAD_REACTORS
330
640
102
}
330
640
100
AcDbVisualStyle
  2
Shaded
 70
    27
 71
     2
 72
     2
 73
     1
 90
        2
 40
-0.6
 41
30.0
 62
     5
 63
     7
 74
     0
 91
        4
 64
     7
 65
   257
 75
     1
175
     1
 42
1.0
 92
        8
 66
   257
 43
1.0
 76
     1
 77
     6
 78
     2
 67
     8
 79
     3
170
     0
171
     0
290
     0
174
     0
 93
        5
 44
0.0
173
     0
291
     0
 45
0.0
1001
ACAD
1000
AcDbSavedByObjectVersion
1070
     0
  0
VISUALSTYLE
  5
654
102
{ACAD_XDICTIONARY
360
6BF
102
}
102
{ACAD_REACTORS
330
640
102
}
330
640
100
AcDbVisualStyle
  2
Shaded with edges
 70
    26
 71
     2
 72
     2
 73
     1
 90
        2
 40
-0.6
 41
30.0
 62
     5
 63
     7
 74
     1
 91
       10
 64
     7
 65
   257
 75
     2
175
     1
 42
1.0
 92
        8
 66
   257
 43
1.0
 76
     1
 77
     6
 78
     2
 67
     7
 79
     3
170
     0
171
     0
290
     0
174
     0
 93
        5
 44
0.0
173
     0
291
     0
 45
0.0
1001
ACAD
1000
AcDbSavedByObjectVersion
1070
     0
  0
VISUALSTYLE
  5
651
102
{ACAD_XDICTIONARY
360
6B9
102
}
102
{ACAD_REACTORS
330
640
102
}
330
640
100
AcDbVisualStyle
  2
Shades of Gray
 70
    23
 71
     2
 72
     2
 73
     3
 90
        0
 40
-0.6
 41
-30.0
 62
     5
 63
     7
 74
     2
 91
        2
 64
     7
 65
     7
 75
     1
175
     1
 42
40.0
 92
        8
 66
     7
 43
1.0
 76
     1
 77
     6
 78
     2
 67
     7
 79
     3
170
     0
171
     0
290
     0
174
     0
 93
        1
 44
0.0
173
     0
291
     0
 45
0.0
1001
ACAD
1000
AcDbSavedByObjectVersion
1070
     0
  0
VISUALSTYLE
  5
652
102
{ACAD_XDICTIONARY
360
6BB
102
}
102
{ACAD_REACTORS
330
640
102
}
330
640
100
AcDbVisualStyle
  2
Sketchy
 70
    24
 71
     1
 72
     2
 73
     2
 90
        0
 40
-0.6
 41
-30.0
 62
     5
 63
     7
 74
     2
 91
        2
 64
     7
 65
     7
 75
     1
175
     1
 42
40.0
 92
       11
 66
     7
 43
1.0
 76
     1
 77
     6
 78
     2
 67
     7
 79
     6
170
     0
171
     0
290
     0
174
     0
 93
        1
 44
0.0
173
     0
291
     0
 45
0.0
1001
ACAD
1000
AcDbSavedByObjectVersion
1070
     0
  0
VISUALSTYLE
  5
64D
102
{ACAD_XDICTIONARY
360
6B1
102
}
102
{ACAD_REACTORS
330
640
102
}
330
640
100
AcDbVisualStyle
  2
Thicken
 70
    13
 71
     2
 72
     2
 73
     0
 90
        0
 40
-0.6
 41
-30.0
 62
     5
 63
     7
 74
     1
 91
        4
 64
     7
 65
   257
 75
     1
175
     1
 42
1.0
 92
       12
 66
     7
 43
1.0
 76
     1
 77
     6
 78
     2
 67
     7
 79
     5
170
     0
171
     0
290
     0
174
     0
 93
        1
 44
0.0
173
     0
291
     1
 45
0.0
1001
ACAD
1000
AcDbSavedByObjectVersion
1070
     0
  0
VISUALSTYLE
  5
647
102
{ACAD_XDICTIONARY
360
6A5
102
}
102
{ACAD_REACTORS
330
640
102
}
330
640
100
AcDbVisualStyle
  2
Wireframe
 70
     5
 71
     0
 72
     2
 73
     0
 90
        0
 40
-0.6
 41
-30.0
 62
     5
 63
     7
 74
     1
 91
        4
 64
     7
 65
   257
 75
     1
175
     1
 42
1.0
 92
        0
 66
   257
 43
1.0
 76
     1
 77
     6
 78
     2
 67
     7
 79
     3
170
     0
171
     0
290
     0
174
     0
 93
        1
 44
0.0
173
     0
291
     0
 45
0.0
1001
ACAD
1000
AcDbSavedByObjectVersion
1070
     0
  0
VISUALSTYLE
  5
653
102
{ACAD_XDICTIONARY
360
6BD
102
}
102
{ACAD_REACTORS
330
640
102
}
330
640
100
AcDbVisualStyle
  2
X-Ray
 70
    25
 71
     2
 72
     2
 73
     1
 90
        1
 40
0.5
 41
-30.0
 62
     5
 63
     7
 74
     1
 91
        0
 64
     7
 65
   257
 75
     1
175
     1
 42
1.0
 92
        8
 66
     7
 43
1.0
 76
     1
 77
     6
 78
     2
 67
     7
 79
     3
170
     0
171
     0
290
     0
174
     0
 93
       13
 44
0.0
173
     0
291
     0
 45
0.0
1001
ACAD
1000
AcDbSavedByObjectVersion
1070
     0
  0
DICTIONARYVAR
  5
68C
102
{ACAD_REACTORS
330
687
102
}
330
687
100
DictionaryVariables
280
     0
  1
1:1
  0
DICTIONARYVAR
  5
689
102
{ACAD_REACTORS
330
687
102
}
330
687
100
DictionaryVariables
280
     0
  1
STANDARD
  0
DICTIONARYVAR
  5
688
102
{ACAD_REACTORS
330
687
102
}
330
687
100
DictionaryVariables
280
     0
  1
STANDARD
  0
DICTIONARYVAR
  5
68A
102
{ACAD_REACTORS
330
687
102
}
330
687
100
DictionaryVariables
280
     0
  1
Imperial24
  0
DICTIONARYVAR
  5
68B
102
{ACAD_REACTORS
330
687
102
}
330
687
100
DictionaryVariables
280
     0
  1
Imperial24
  0
DICTIONARYVAR
  5
68F
102
{ACAD_REACTORS
330
687
102
}
330
687
100
DictionaryVariables
280
     0
  1
1
  0
DICTIONARYVAR
  5
68E
102
{ACAD_REACTORS
330
687
102
}
330
687
100
DictionaryVariables
280
     0
  1
0
  0
DICTIONARYVAR
  5
68D
102
{ACAD_REACTORS
330
687
102
}
330
687
100
DictionaryVariables
280
     0
  1
127
  0
DICTIONARYVAR
  5
690
102
{ACAD_REACTORS
330
687
102
}
330
687
100
DictionaryVariables
280
     0
  1
2
  0
DICTIONARY
  5
6CD
330
673
100
AcDbDictionary
280
     1
281
     1
  3
ACAD_XREC_ROUNDTRIP
360
6CE
  0
DICTIONARY
  5
6CF
330
674
100
AcDbDictionary
280
     1
281
     1
  3
ACAD_XREC_ROUNDTRIP
360
6D0
  0
DICTIONARY
  5
6D1
330
675
100
AcDbDictionary
280
     1
281
     1
  3
ACAD_XREC_ROUNDTRIP
360
6D2
  0
DICTIONARY
  5
631
330
630
100
AcDbDictionary
280
     1
281
     1
  3
ACAD_XREC_ROUNDTRIP
360
697
  3
BUMPTILE
360
633
  3
DIFFUSETILE
360
632
  3
OPACITYTILE
360
636
  3
REFLECTIONTILE
360
635
  3
REFRACTIONTILE
360
637
  3
SPECULARTILE
360
634
  0
DICTIONARY
  5
629
330
628
100
AcDbDictionary
280
     1
281
     1
  3
ACAD_XREC_ROUNDTRIP
360
696
  3
BUMPTILE
360
62B
  3
DIFFUSETILE
360
62A
  3
OPACITYTILE
360
62E
  3
REFLECTIONTILE
360
62D
  3
REFRACTIONTILE
360
62F
  3
SPECULARTILE
360
62C
  0
DICTIONARY
  5
639
330
638
100
AcDbDictionary
280
     1
281
     1
  3
ACAD_XREC_ROUNDTRIP
360
698
  3
BUMPTILE
360
63B
  3
DIFFUSETILE
360
63A
  3
OPACITYTILE
360
63E
  3
REFLECTIONTILE
360
63D
  3
REFRACTIONTILE
360
63F
  3
SPECULARTILE
360
63C
  0
DICTIONARY
  5
6CB
330
671
100
AcDbDictionary
280
     1
281
     1
  3
ACAD_XREC_ROUNDTRIP
360
6CC
  0
DICTIONARY
  5
692
330
65B
100
AcDbDictionary
280
     1
281
     1
  3
ACAD_ROUNDTRIP_2008_TABLESTYLE_CELLSTYLEMAP
360
693
  3
ACAD_XREC_ROUNDTRIP
360
6C9
  0
DICTIONARY
  5
6A3
330
646
100
AcDbDictionary
280
     1
281
     1
  3
ACAD_XREC_ROUNDTRIP
360
6A4
  0
DICTIONARY
  5
6A1
330
645
100
AcDbDictionary
280
     1
281
     1
  3
ACAD_XREC_ROUNDTRIP
360
6A2
  0
DICTIONARY
  5
6AF
330
64C
100
AcDbDictionary
280
     1
281
     1
  3
ACAD_XREC_ROUNDTRIP
360
6B0
  0
DICTIONARY
  5
6B7
330
650
100
AcDbDictionary
280
     1
281
     1
  3
ACAD_XREC_ROUNDTRIP
360
6B8
  0
DICTIONARY
  5
6A9
330
649
100
AcDbDictionary
280
     1
281
     1
  3
ACAD_XREC_ROUNDTRIP
360
6AA
  0
DICTIONARY
  5
6AD
330
64B
100
AcDbDictionary
280
     1
281
     1
  3
ACAD_XREC_ROUNDTRIP
360
6AE
  0
DICTIONARY
  5
6C7
330
658
100
AcDbDictionary
280
     1
281
     1
  3
ACAD_XREC_ROUNDTRIP
360
6C8
  0
DICTIONARY
  5
6B5
330
64F
100
AcDbDictionary
280
     1
281
     1
  3
ACAD_XREC_ROUNDTRIP
360
6B6
  0
DICTIONARY
  5
699
330
641
100
AcDbDictionary
280
     1
281
     1
  3
ACAD_XREC_ROUNDTRIP
360
69A
  0
DICTIONARY
  5
69B
330
642
100
AcDbDictionary
280
     1
281
     1
  3
ACAD_XREC_ROUNDTRIP
360
69C
  0
DICTIONARY
  5
69D
330
643
100
AcDbDictionary
280
     1
281
     1
  3
ACAD_XREC_ROUNDTRIP
360
69E
  0
DICTIONARY
  5
69F
330
644
100
AcDbDictionary
280
     1
281
     1
  3
ACAD_XREC_ROUNDTRIP
360
6A0
  0
DICTIONARY
  5
6A7
330
648
100
AcDbDictionary
280
     1
281
     1
  3
ACAD_XREC_ROUNDTRIP
360
6A8
  0
DICTIONARY
  5
6C3
330
656
100
AcDbDictionary
280
     1
281
     1
  3
ACAD_XREC_ROUNDTRIP
360
6C4
  0
DICTIONARY
  5
6B3
330
64E
100
AcDbDictionary
280
     1
281
     1
  3
ACAD_XREC_ROUNDTRIP
360
6B4
  0
DICTIONARY
  5
6C5
330
657
100
AcDbDictionary
280
     1
281
     1
  3
ACAD_XREC_ROUNDTRIP
360
6C6
  0
DICTIONARY
  5
6AB
330
64A
100
AcDbDictionary
280
     1
281
     1
  3
ACAD_XREC_ROUNDTRIP
360
6AC
  0
DICTIONARY
  5
6C1
330
655
100
AcDbDictionary
280
     1
281
     1
  3
ACAD_XREC_ROUNDTRIP
360
6C2
  0
DICTIONARY
  5
6BF
330
654
100
AcDbDictionary
280
     1
281
     1
  3
ACAD_XREC_ROUNDTRIP
360
6C0
  0
DICTIONARY
  5
6B9
330
651
100
AcDbDictionary
280
     1
281
     1
  3
ACAD_XREC_ROUNDTRIP
360
6BA
  0
DICTIONARY
  5
6BB
330
652
100
AcDbDictionary
280
     1
281
     1
  3
ACAD_XREC_ROUNDTRIP
360
6BC
  0
DICTIONARY
  5
6B1
330
64D
100
AcDbDictionary
280
     1
281
     1
  3
ACAD_XREC_ROUNDTRIP
360
6B2
  0
DICTIONARY
  5
6A5
330
647
100
AcDbDictionary
280
     1
281
     1
  3
ACAD_XREC_ROUNDTRIP
360
6A6
  0
DICTIONARY
  5
6BD
330
653
100
AcDbDictionary
280
     1
281
     1
  3
ACAD_XREC_ROUNDTRIP
360
6BE
  0
XRECORD
  5
6CE
102
{ACAD_REACTORS
330
6CD
102
}
330
6CD
100
AcDbXrecord
280
     1
102
DISPLAYNAME
  1
Imperial24
102
FLAGS
 90
        0
  0
XRECORD
  5
6D0
102
{ACAD_REACTORS
330
6CF
102
}
330
6CF
100
AcDbXrecord
280
     1
102
SHADEPLOT
 70
     0
102
SHADEPLOTRESLEVEL
 70
     2
102
SHADEPLOTCUSTOMDPI
 70
   300
  0
XRECORD
  5
6D2
102
{ACAD_REACTORS
330
6D1
102
}
330
6D1
100
AcDbXrecord
280
     1
102
SHADEPLOT
 70
     0
102
SHADEPLOTRESLEVEL
 70
     2
102
SHADEPLOTCUSTOMDPI
 70
   300
  0
XRECORD
  5
697
102
{ACAD_REACTORS
330
631
102
}
330
631
100
AcDbXrecord
280
     1
102
MATERIAL
148
0.0
149
0.0
149
0.0
 93
        0
 94
      127
282
     0
 72
     0
 77
     0
171
     0
175
     0
179
     0
273
     0
  0
XRECORD
  5
633
102
{ACAD_REACTORS
330
631
102
}
330
631
100
AcDbXrecord
280
     1
270
     1
271
     1
  0
XRECORD
  5
632
102
{ACAD_REACTORS
330
631
102
}
330
631
100
AcDbXrecord
280
     1
270
     1
271
     1
  0
XRECORD
  5
636
102
{ACAD_REACTORS
330
631
102
}
330
631
100
AcDbXrecord
280
     1
270
     1
271
     1
  0
XRECORD
  5
635
102
{ACAD_REACTORS
330
631
102
}
330
631
100
AcDbXrecord
280
     1
270
     1
271
     1
  0
XRECORD
  5
637
102
{ACAD_REACTORS
330
631
102
}
330
631
100
AcDbXrecord
280
     1
270
     1
271
     1
  0
XRECORD
  5
634
102
{ACAD_REACTORS
330
631
102
}
330
631
100
AcDbXrecord
280
     1
270
     1
271
     1
  0
XRECORD
  5
696
102
{ACAD_REACTORS
330
629
102
}
330
629
100
AcDbXrecord
280
     1
102
MATERIAL
148
0.0
149
0.0
149
0.0
 93
        0
 94
      127
282
     0
 72
     0
 77
     0
171
     0
175
     0
179
     0
273
     0
  0
XRECORD
  5
62B
102
{ACAD_REACTORS
330
629
102
}
330
629
100
AcDbXrecord
280
     1
270
     1
271
     1
  0
XRECORD
  5
62A
102
{ACAD_REACTORS
330
629
102
}
330
629
100
AcDbXrecord
280
     1
270
     1
271
     1
  0
XRECORD
  5
62E
102
{ACAD_REACTORS
330
629
102
}
330
629
100
AcDbXrecord
280
     1
270
     1
271
     1
  0
XRECORD
  5
62D
102
{ACAD_REACTORS
330
629
102
}
330
629
100
AcDbXrecord
280
     1
270
     1
271
     1
  0
XRECORD
  5
62F
102
{ACAD_REACTORS
330
629
102
}
330
629
100
AcDbXrecord
280
     1
270
     1
271
     1
  0
XRECORD
  5
62C
102
{ACAD_REACTORS
330
629
102
}
330
629
100
AcDbXrecord
280
     1
270
     1
271
     1
  0
XRECORD
  5
698
102
{ACAD_REACTORS
330
639
102
}
330
639
100
AcDbXrecord
280
     1
102
MATERIAL
148
0.0
149
0.0
149
0.0
 93
        0
 94
      127
282
     0
 72
     0
 77
     0
171
     0
175
     0
179
     0
273
     0
  0
XRECORD
  5
63B
102
{ACAD_REACTORS
330
639
102
}
330
639
100
AcDbXrecord
280
     1
270
     1
271
     1
  0
XRECORD
  5
63A
102
{ACAD_REACTORS
330
639
102
}
330
639
100
AcDbXrecord
280
     1
270
     1
271
     1
  0
XRECORD
  5
63E
102
{ACAD_REACTORS
330
639
102
}
330
639
100
AcDbXrecord
280
     1
270
     1
271
     1
  0
XRECORD
  5
63D
102
{ACAD_REACTORS
330
639
102
}
330
639
100
AcDbXrecord
280
     1
270
     1
271
     1
  0
XRECORD
  5
63F
102
{ACAD_REACTORS
330
639
102
}
330
639
100
AcDbXrecord
280
     1
270
     1
271
     1
  0
XRECORD
  5
63C
102
{ACAD_REACTORS
330
639
102
}
330
639
100
AcDbXrecord
280
     1
270
     1
271
     1
  0
XRECORD
  5
6CC
102
{ACAD_REACTORS
330
6CB
102
}
330
6CB
100
AcDbXrecord
280
     1
102
DISPLAYNAME
  1
Imperial24
102
FLAGS
 90
        0
  0
CELLSTYLEMAP
  5
693
102
{ACAD_REACTORS
330
692
102
}
330
692
100
AcDbCellStyleMap
 90
        3
300
CELLSTYLE
  1
TABLEFORMAT_BEGIN
 90
        5
170
     1
 91
        0
 92
    32768
 62
   257
 93
        1
300
CONTENTFORMAT
  1
CONTENTFORMAT_BEGIN
 90
        0
 91
        0
 92
      512
 93
        0
300

 40
0.0
140
1.0
 94
        5
 62
     0
340
F
144
0.25
309
CONTENTFORMAT_END
171
     0
 94
        0
309
TABLEFORMAT_END
  1
CELLSTYLE_BEGIN
 90
        1
 91
        1
300
_TITLE
309
CELLSTYLE_END
300
CELLSTYLE
  1
TABLEFORMAT_BEGIN
 90
        5
170
     1
 91
        0
 92
        0
 62
   257
 93
        1
300
CONTENTFORMAT
  1
CONTENTFORMAT_BEGIN
 90
        0
 91
        0
 92
      512
 93
        0
300

 40
0.0
140
1.0
 94
        5
 62
     0
340
F
144
0.18
309
CONTENTFORMAT_END
171
     0
 94
        0
309
TABLEFORMAT_END
  1
CELLSTYLE_BEGIN
 90
        2
 91
        1
300
_HEADER
309
CELLSTYLE_END
300
CELLSTYLE
  1
TABLEFORMAT_BEGIN
 90
        5
170
     1
 91
        0
 92
        0
 62
   257
 93
        1
300
CONTENTFORMAT
  1
CONTENTFORMAT_BEGIN
 90
        0
 91
        0
 92
      512
 93
        0
300

 40
0.0
140
1.0
 94
        2
 62
     0
340
F
144
0.18
309
CONTENTFORMAT_END
171
     0
 94
        0
309
TABLEFORMAT_END
  1
CELLSTYLE_BEGIN
 90
        3
 91
        2
300
_DATA
309
CELLSTYLE_END
  0
XRECORD
  5
6C9
102
{ACAD_REACTORS
330
692
102
}
330
692
100
AcDbXrecord
280
     1
102
ACAD_ROUNDTRIP_PRE2007_TABLESTYLE
 90
      512
 91
        0
  1

 92
      512
 93
        0
  2

 94
      512
 95
        0
  3

  0
XRECORD
  5
6A4
102
{ACAD_REACTORS
330
6A3
102
}
330
6A3
100
AcDbXrecord
280
     1
102
RTVSPost2010Prop28
280
     1
102
RTVSPost2010PropOp28
 70
     1
102
RTVSPost2010Prop29
280
     1
102
RTVSPost2010PropOp29
 70
     1
102
RTVSPost2010Prop30
280
     0
102
RTVSPost2010PropOp30
 70
     1
102
RTVSPost2010Prop31
280
     0
102
RTVSPost2010PropOp31
 70
     1
102
RTVSPost2010Prop32
280
     0
102
RTVSPost2010PropOp32
 70
     1
102
RTVSPost2010Prop33
280
     0
102
RTVSPost2010PropOp33
 70
     1
102
RTVSPost2010Prop34
280
     0
102
RTVSPost2010PropOp34
 70
     1
102
RTVSPost2010Prop35
280
     0
102
RTVSPost2010PropOp35
 70
     1
102
RTVSPost2010Prop36
280
     0
102
RTVSPost2010PropOp36
 70
     1
102
RTVSPost2010Prop37
 90
       50
102
RTVSPost2010PropOp37
 70
     1
102
RTVSPost2010Prop38
140
0.0
102
RTVSPost2010PropOp38
 70
     1
102
RTVSPost2010Prop39
140
1.0
102
RTVSPost2010PropOp39
 70
     1
102
RTVSPost2010Prop40
 90
        0
102
RTVSPost2010PropOp40
 70
     1
102
RTVSPost2010Prop41ColorIndex
 90
       18
102
RTVSPost2010Prop41ColorRGB
 90
        0
102
RTVSPost2010PropOp41
 70
     1
102
RTVSPost2010Prop42
 90
       50
102
RTVSPost2010PropOp42
 70
     1
102
RTVSPost2010Prop43
 90
        3
102
RTVSPost2010PropOp43
 70
     1
102
RTVSPost2010Prop44ColorIndex
 90
        5
102
RTVSPost2010Prop44ColorRGB
 90
      255
102
RTVSPost2010PropOp44
 70
     1
102
RTVSPost2010Prop45
280
     0
102
RTVSPost2010PropOp45
 70
     1
102
RTVSPost2010Prop46
 90
       50
102
RTVSPost2010PropOp46
 70
     1
102
RTVSPost2010Prop47
 90
       50
102
RTVSPost2010PropOp47
 70
     1
102
RTVSPost2010Prop48
 90
       50
102
RTVSPost2010PropOp48
 70
     1
102
RTVSPost2010Prop49
280
     0
102
RTVSPost2010PropOp49
 70
     1
102
RTVSPost2010Prop50
 90
       50
102
RTVSPost2010PropOp50
 70
     1
102
RTVSPost2010Prop51ColorIndex
 90
      256
102
RTVSPost2010Prop51ColorRGB
 90
-16777216
102
RTVSPost2010PropOp51
 70
     0
102
RTVSPost2010Prop52
140
1.0
102
RTVSPost2010PropOp52
 70
     0
102
RTVSPost2010Prop53
 90
        2
102
RTVSPost2010PropOp53
 70
     1
102
RTVSPost2010Prop54
  1
strokes_ogs.tif
102
RTVSPost2010PropOp54
 70
     1
102
RTVSPost2010Prop55
280
     0
102
RTVSPost2010PropOp55
 70
     1
102
RTVSPost2010Prop56
140
1.0
102
RTVSPost2010PropOp56
 70
     1
102
RTVSPost2010Prop57
140
1.0
102
RTVSPost2010PropOp57
 70
     1
102
RTVSPropertyOp0
 70
     1
102
RTVSPropertyOp1
 70
     1
102
RTVSPropertyOp2
 70
     1
102
RTVSPropertyOp3
 70
     1
102
RTVSPropertyOp4
 70
     1
102
RTVSPropertyOp5
 70
     1
102
RTVSPropertyOp6
 70
     1
102
RTVSPropertyOp7
 70
     1
102
RTVSPropertyOp8
 70
     1
102
RTVSPropertyOp9
 70
     1
102
RTVSPropertyOp10
 70
     1
102
RTVSPropertyOp11
 70
     1
102
RTVSPropertyOp12
 70
     1
102
RTVSPropertyOp13
 70
     1
102
RTVSPropertyOp14
 70
     1
102
RTVSPropertyOp15
 70
     1
102
RTVSPropertyOp16
 70
     1
102
RTVSPropertyOp17
 70
     1
102
RTVSPropertyOp18
 70
     1
102
RTVSPropertyOp19
 70
     1
102
RTVSPropertyOp20
 70
     1
102
RTVSPropertyOp21
 70
     1
102
RTVSPropertyOp22
 70
     1
102
RTVSPropertyOp23
 70
     1
102
RTVSPropertyOp24
 70
     1
102
RTVSPropertyOp25
 70
     1
102
RTVSPropertyOp26
 70
     1
102
RTVSPropertyOp27
 70
     1
102
RTVSPropertyOp28
 70
     1
102
RTVSPropertyOp29
 70
     1
102
RTVSPropertyOp30
 70
     1
102
RTVSPropertyOp31
 70
     1
102
RTVSPropertyOp32
 70
     1
102
RTVSPropertyOp33
 70
     1
102
RTVSPropertyOp34
 70
     1
102
RTVSPropertyOp35
 70
     1
102
RTVSPropertyOp36
 70
     1
102
RTVSPropertyOp37
 70
     1
102
RTVSPropertyOp38
 70
     1
102
RTVSPropertyOp39
 70
     1
102
RTVSPropertyOp40
 70
     1
102
RTVSPropertyOp41
 70
     1
102
RTVSPropertyOp42
 70
     1
102
RTVSPropertyOp43
 70
     1
102
RTVSPropertyOp44
 70
     1
102
RTVSPropertyOp45
 70
     1
102
RTVSPropertyOp46
 70
     1
102
RTVSPropertyOp47
 70
     1
102
RTVSPropertyOp48
 70
     1
102
RTVSPropertyOp49
 70
     1
102
RTVSPropertyOp50
 70
     1
102
RTVSPropertyOp51
 70
     0
102
RTVSPropertyOp52
 70
     0
102
RTVSPropertyOp53
 70
     1
102
RTVSPropertyOp54
 70
     1
102
RTVSPropertyOp55
 70
     1
102
RTVSPropertyOp56
 70
     1
102
RTVSPropertyOp57
 70
     1
102
RTVSPropertyOp58
 70
     1
102
RTVSPropertyOp59
 70
     1
102
RTVSPropertyOp60
 70
     1
102
RTVSPropertyOp61
 70
     1
102
RTVSPropertyOp62
 70
     1
  0
XRECORD
  5
6A2
102
{ACAD_REACTORS
330
6A1
102
}
330
6A1
100
AcDbXrecord
280
     1
102
RTVSPost2010Prop28
280
     0
102
RTVSPost2010PropOp28
 70
     1
102
RTVSPost2010Prop29
280
     1
102
RTVSPost2010PropOp29
 70
     1
102
RTVSPost2010Prop30
280
     1
102
RTVSPost2010PropOp30
 70
     1
102
RTVSPost2010Prop31
280
     0
102
RTVSPost2010PropOp31
 70
     1
102
RTVSPost2010Prop32
280
     0
102
RTVSPost2010PropOp32
 70
     1
102
RTVSPost2010Prop33
280
     0
102
RTVSPost2010PropOp33
 70
     1
102
RTVSPost2010Prop34
280
     0
102
RTVSPost2010PropOp34
 70
     1
102
RTVSPost2010Prop35
280
     0
102
RTVSPost2010PropOp35
 70
     1
102
RTVSPost2010Prop36
280
     0
102
RTVSPost2010PropOp36
 70
     1
102
RTVSPost2010Prop37
 90
       50
102
RTVSPost2010PropOp37
 70
     1
102
RTVSPost2010Prop38
140
0.0
102
RTVSPost2010PropOp38
 70
     1
102
RTVSPost2010Prop39
140
1.0
102
RTVSPost2010PropOp39
 70
     1
102
RTVSPost2010Prop40
 90
        0
102
RTVSPost2010PropOp40
 70
     1
102
RTVSPost2010Prop41ColorIndex
 90
       18
102
RTVSPost2010Prop41ColorRGB
 90
        0
102
RTVSPost2010PropOp41
 70
     1
102
RTVSPost2010Prop42
 90
       50
102
RTVSPost2010PropOp42
 70
     1
102
RTVSPost2010Prop43
 90
        3
102
RTVSPost2010PropOp43
 70
     1
102
RTVSPost2010Prop44ColorIndex
 90
        5
102
RTVSPost2010Prop44ColorRGB
 90
      255
102
RTVSPost2010PropOp44
 70
     1
102
RTVSPost2010Prop45
280
     0
102
RTVSPost2010PropOp45
 70
     1
102
RTVSPost2010Prop46
 90
       50
102
RTVSPost2010PropOp46
 70
     1
102
RTVSPost2010Prop47
 90
       50
102
RTVSPost2010PropOp47
 70
     1
102
RTVSPost2010Prop48
 90
       50
102
RTVSPost2010PropOp48
 70
     1
102
RTVSPost2010Prop49
280
     0
102
RTVSPost2010PropOp49
 70
     1
102
RTVSPost2010Prop50
 90
       50
102
RTVSPost2010PropOp50
 70
     1
102
RTVSPost2010Prop51ColorIndex
 90
      256
102
RTVSPost2010Prop51ColorRGB
 90
-16777216
102
RTVSPost2010PropOp51
 70
     0
102
RTVSPost2010Prop52
140
1.0
102
RTVSPost2010PropOp52
 70
     0
102
RTVSPost2010Prop53
 90
        2
102
RTVSPost2010PropOp53
 70
     1
102
RTVSPost2010Prop54
  1
strokes_ogs.tif
102
RTVSPost2010PropOp54
 70
     1
102
RTVSPost2010Prop55
280
     0
102
RTVSPost2010PropOp55
 70
     1
102
RTVSPost2010Prop56
140
1.0
102
RTVSPost2010PropOp56
 70
     1
102
RTVSPost2010Prop57
140
1.0
102
RTVSPost2010PropOp57
 70
     1
102
RTVSPropertyOp0
 70
     1
102
RTVSPropertyOp1
 70
     1
102
RTVSPropertyOp2
 70
     1
102
RTVSPropertyOp3
 70
     1
102
RTVSPropertyOp4
 70
     1
102
RTVSPropertyOp5
 70
     1
102
RTVSPropertyOp6
 70
     1
102
RTVSPropertyOp7
 70
     1
102
RTVSPropertyOp8
 70
     1
102
RTVSPropertyOp9
 70
     1
102
RTVSPropertyOp10
 70
     1
102
RTVSPropertyOp11
 70
     1
102
RTVSPropertyOp12
 70
     1
102
RTVSPropertyOp13
 70
     1
102
RTVSPropertyOp14
 70
     1
102
RTVSPropertyOp15
 70
     1
102
RTVSPropertyOp16
 70
     1
102
RTVSPropertyOp17
 70
     1
102
RTVSPropertyOp18
 70
     1
102
RTVSPropertyOp19
 70
     1
102
RTVSPropertyOp20
 70
     1
102
RTVSPropertyOp21
 70
     1
102
RTVSPropertyOp22
 70
     1
102
RTVSPropertyOp23
 70
     1
102
RTVSPropertyOp24
 70
     1
102
RTVSPropertyOp25
 70
     1
102
RTVSPropertyOp26
 70
     1
102
RTVSPropertyOp27
 70
     1
102
RTVSPropertyOp28
 70
     1
102
RTVSPropertyOp29
 70
     1
102
RTVSPropertyOp30
 70
     1
102
RTVSPropertyOp31
 70
     1
102
RTVSPropertyOp32
 70
     1
102
RTVSPropertyOp33
 70
     1
102
RTVSPropertyOp34
 70
     1
102
RTVSPropertyOp35
 70
     1
102
RTVSPropertyOp36
 70
     1
102
RTVSPropertyOp37
 70
     1
102
RTVSPropertyOp38
 70
     1
102
RTVSPropertyOp39
 70
     1
102
RTVSPropertyOp40
 70
     1
102
RTVSPropertyOp41
 70
     1
102
RTVSPropertyOp42
 70
     1
102
RTVSPropertyOp43
 70
     1
102
RTVSPropertyOp44
 70
     1
102
RTVSPropertyOp45
 70
     1
102
RTVSPropertyOp46
 70
     1
102
RTVSPropertyOp47
 70
     1
102
RTVSPropertyOp48
 70
     1
102
RTVSPropertyOp49
 70
     1
102
RTVSPropertyOp50
 70
     1
102
RTVSPropertyOp51
 70
     0
102
RTVSPropertyOp52
 70
     0
102
RTVSPropertyOp53
 70
     1
102
RTVSPropertyOp54
 70
     1
102
RTVSPropertyOp55
 70
     1
102
RTVSPropertyOp56
 70
     1
102
RTVSPropertyOp57
 70
     1
102
RTVSPropertyOp58
 70
     1
102
RTVSPropertyOp59
 70
     1
102
RTVSPropertyOp60
 70
     1
102
RTVSPropertyOp61
 70
     1
102
RTVSPropertyOp62
 70
     1
  0
XRECORD
  5
6B0
102
{ACAD_REACTORS
330
6AF
102
}
330
6AF
100
AcDbXrecord
280
     1
102
RTVSPost2010Prop28
280
     0
102
RTVSPost2010PropOp28
 70
     1
102
RTVSPost2010Prop29
280
     1
102
RTVSPost2010PropOp29
 70
     1
102
RTVSPost2010Prop30
280
     1
102
RTVSPost2010PropOp30
 70
     1
102
RTVSPost2010Prop31
280
     0
102
RTVSPost2010PropOp31
 70
     1
102
RTVSPost2010Prop32
280
     0
102
RTVSPost2010PropOp32
 70
     1
102
RTVSPost2010Prop33
280
     0
102
RTVSPost2010PropOp33
 70
     1
102
RTVSPost2010Prop34
280
     0
102
RTVSPost2010PropOp34
 70
     1
102
RTVSPost2010Prop35
280
     0
102
RTVSPost2010PropOp35
 70
     1
102
RTVSPost2010Prop36
280
     0
102
RTVSPost2010PropOp36
 70
     1
102
RTVSPost2010Prop37
 90
       50
102
RTVSPost2010PropOp37
 70
     1
102
RTVSPost2010Prop38
140
0.0
102
RTVSPost2010PropOp38
 70
     1
102
RTVSPost2010Prop39
140
1.0
102
RTVSPost2010PropOp39
 70
     1
102
RTVSPost2010Prop40
 90
        0
102
RTVSPost2010PropOp40
 70
     1
102
RTVSPost2010Prop41ColorIndex
 90
       18
102
RTVSPost2010Prop41ColorRGB
 90
        0
102
RTVSPost2010PropOp41
 70
     1
102
RTVSPost2010Prop42
 90
       50
102
RTVSPost2010PropOp42
 70
     1
102
RTVSPost2010Prop43
 90
        3
102
RTVSPost2010PropOp43
 70
     1
102
RTVSPost2010Prop44ColorIndex
 90
        5
102
RTVSPost2010Prop44ColorRGB
 90
      255
102
RTVSPost2010PropOp44
 70
     1
102
RTVSPost2010Prop45
280
     0
102
RTVSPost2010PropOp45
 70
     1
102
RTVSPost2010Prop46
 90
       50
102
RTVSPost2010PropOp46
 70
     1
102
RTVSPost2010Prop47
 90
       50
102
RTVSPost2010PropOp47
 70
     1
102
RTVSPost2010Prop48
 90
       50
102
RTVSPost2010PropOp48
 70
     1
102
RTVSPost2010Prop49
280
     0
102
RTVSPost2010PropOp49
 70
     1
102
RTVSPost2010Prop50
 90
       50
102
RTVSPost2010PropOp50
 70
     1
102
RTVSPost2010Prop51ColorIndex
 90
      256
102
RTVSPost2010Prop51ColorRGB
 90
-16777216
102
RTVSPost2010PropOp51
 70
     0
102
RTVSPost2010Prop52
140
1.0
102
RTVSPost2010PropOp52
 70
     0
102
RTVSPost2010Prop53
 90
        2
102
RTVSPost2010PropOp53
 70
     1
102
RTVSPost2010Prop54
  1
strokes_ogs.tif
102
RTVSPost2010PropOp54
 70
     1
102
RTVSPost2010Prop55
280
     0
102
RTVSPost2010PropOp55
 70
     1
102
RTVSPost2010Prop56
140
1.0
102
RTVSPost2010PropOp56
 70
     1
102
RTVSPost2010Prop57
140
1.0
102
RTVSPost2010PropOp57
 70
     1
102
RTVSPropertyOp0
 70
     1
102
RTVSPropertyOp1
 70
     1
102
RTVSPropertyOp2
 70
     1
102
RTVSPropertyOp3
 70
     1
102
RTVSPropertyOp4
 70
     1
102
RTVSPropertyOp5
 70
     1
102
RTVSPropertyOp6
 70
     1
102
RTVSPropertyOp7
 70
     1
102
RTVSPropertyOp8
 70
     1
102
RTVSPropertyOp9
 70
     1
102
RTVSPropertyOp10
 70
     1
102
RTVSPropertyOp11
 70
     1
102
RTVSPropertyOp12
 70
     1
102
RTVSPropertyOp13
 70
     1
102
RTVSPropertyOp14
 70
     1
102
RTVSPropertyOp15
 70
     1
102
RTVSPropertyOp16
 70
     1
102
RTVSPropertyOp17
 70
     1
102
RTVSPropertyOp18
 70
     1
102
RTVSPropertyOp19
 70
     1
102
RTVSPropertyOp20
 70
     1
102
RTVSPropertyOp21
 70
     1
102
RTVSPropertyOp22
 70
     1
102
RTVSPropertyOp23
 70
     1
102
RTVSPropertyOp24
 70
     1
102
RTVSPropertyOp25
 70
     1
102
RTVSPropertyOp26
 70
     1
102
RTVSPropertyOp27
 70
     1
102
RTVSPropertyOp28
 70
     1
102
RTVSPropertyOp29
 70
     1
102
RTVSPropertyOp30
 70
     1
102
RTVSPropertyOp31
 70
     1
102
RTVSPropertyOp32
 70
     1
102
RTVSPropertyOp33
 70
     1
102
RTVSPropertyOp34
 70
     1
102
RTVSPropertyOp35
 70
     1
102
RTVSPropertyOp36
 70
     1
102
RTVSPropertyOp37
 70
     1
102
RTVSPropertyOp38
 70
     1
102
RTVSPropertyOp39
 70
     1
102
RTVSPropertyOp40
 70
     1
102
RTVSPropertyOp41
 70
     1
102
RTVSPropertyOp42
 70
     1
102
RTVSPropertyOp43
 70
     1
102
RTVSPropertyOp44
 70
     1
102
RTVSPropertyOp45
 70
     1
102
RTVSPropertyOp46
 70
     1
102
RTVSPropertyOp47
 70
     1
102
RTVSPropertyOp48
 70
     1
102
RTVSPropertyOp49
 70
     1
102
RTVSPropertyOp50
 70
     1
102
RTVSPropertyOp51
 70
     0
102
RTVSPropertyOp52
 70
     0
102
RTVSPropertyOp53
 70
     1
102
RTVSPropertyOp54
 70
     1
102
RTVSPropertyOp55
 70
     1
102
RTVSPropertyOp56
 70
     1
102
RTVSPropertyOp57
 70
     1
102
RTVSPropertyOp58
 70
     1
102
RTVSPropertyOp59
 70
     1
102
RTVSPropertyOp60
 70
     1
102
RTVSPropertyOp61
 70
     1
102
RTVSPropertyOp62
 70
     1
  0
XRECORD
  5
6B8
102
{ACAD_REACTORS
330
6B7
102
}
330
6B7
100
AcDbXrecord
280
     1
102
RTVSPost2010Prop28
280
     0
102
RTVSPost2010PropOp28
 70
     1
102
RTVSPost2010Prop29
280
     1
102
RTVSPost2010PropOp29
 70
     1
102
RTVSPost2010Prop30
280
     1
102
RTVSPost2010PropOp30
 70
     1
102
RTVSPost2010Prop31
280
     0
102
RTVSPost2010PropOp31
 70
     1
102
RTVSPost2010Prop32
280
     0
102
RTVSPost2010PropOp32
 70
     1
102
RTVSPost2010Prop33
280
     0
102
RTVSPost2010PropOp33
 70
     1
102
RTVSPost2010Prop34
280
     0
102
RTVSPost2010PropOp34
 70
     1
102
RTVSPost2010Prop35
280
     0
102
RTVSPost2010PropOp35
 70
     1
102
RTVSPost2010Prop36
280
     0
102
RTVSPost2010PropOp36
 70
     1
102
RTVSPost2010Prop37
 90
       50
102
RTVSPost2010PropOp37
 70
     1
102
RTVSPost2010Prop38
140
0.0
102
RTVSPost2010PropOp38
 70
     1
102
RTVSPost2010Prop39
140
1.0
102
RTVSPost2010PropOp39
 70
     1
102
RTVSPost2010Prop40
 90
        0
102
RTVSPost2010PropOp40
 70
     1
102
RTVSPost2010Prop41ColorIndex
 90
       18
102
RTVSPost2010Prop41ColorRGB
 90
        0
102
RTVSPost2010PropOp41
 70
     1
102
RTVSPost2010Prop42
 90
       50
102
RTVSPost2010PropOp42
 70
     1
102
RTVSPost2010Prop43
 90
        3
102
RTVSPost2010PropOp43
 70
     1
102
RTVSPost2010Prop44ColorIndex
 90
        5
102
RTVSPost2010Prop44ColorRGB
 90
      255
102
RTVSPost2010PropOp44
 70
     1
102
RTVSPost2010Prop45
280
     0
102
RTVSPost2010PropOp45
 70
     1
102
RTVSPost2010Prop46
 90
       50
102
RTVSPost2010PropOp46
 70
     1
102
RTVSPost2010Prop47
 90
       50
102
RTVSPost2010PropOp47
 70
     1
102
RTVSPost2010Prop48
 90
       50
102
RTVSPost2010PropOp48
 70
     1
102
RTVSPost2010Prop49
280
     0
102
RTVSPost2010PropOp49
 70
     1
102
RTVSPost2010Prop50
 90
       50
102
RTVSPost2010PropOp50
 70
     1
102
RTVSPost2010Prop51ColorIndex
 90
      256
102
RTVSPost2010Prop51ColorRGB
 90
-16777216
102
RTVSPost2010PropOp51
 70
     0
102
RTVSPost2010Prop52
140
1.0
102
RTVSPost2010PropOp52
 70
     0
102
RTVSPost2010Prop53
 90
        2
102
RTVSPost2010PropOp53
 70
     1
102
RTVSPost2010Prop54
  1
strokes_ogs.tif
102
RTVSPost2010PropOp54
 70
     1
102
RTVSPost2010Prop55
280
     0
102
RTVSPost2010PropOp55
 70
     1
102
RTVSPost2010Prop56
140
1.0
102
RTVSPost2010PropOp56
 70
     1
102
RTVSPost2010Prop57
140
1.0
102
RTVSPost2010PropOp57
 70
     1
102
RTVSPropertyOp0
 70
     1
102
RTVSPropertyOp1
 70
     1
102
RTVSPropertyOp2
 70
     1
102
RTVSPropertyOp3
 70
     1
102
RTVSPropertyOp4
 70
     1
102
RTVSPropertyOp5
 70
     1
102
RTVSPropertyOp6
 70
     1
102
RTVSPropertyOp7
 70
     1
102
RTVSPropertyOp8
 70
     1
102
RTVSPropertyOp9
 70
     1
102
RTVSPropertyOp10
 70
     1
102
RTVSPropertyOp11
 70
     1
102
RTVSPropertyOp12
 70
     1
102
RTVSPropertyOp13
 70
     1
102
RTVSPropertyOp14
 70
     1
102
RTVSPropertyOp15
 70
     1
102
RTVSPropertyOp16
 70
     1
102
RTVSPropertyOp17
 70
     1
102
RTVSPropertyOp18
 70
     1
102
RTVSPropertyOp19
 70
     1
102
RTVSPropertyOp20
 70
     1
102
RTVSPropertyOp21
 70
     1
102
RTVSPropertyOp22
 70
     1
102
RTVSPropertyOp23
 70
     1
102
RTVSPropertyOp24
 70
     1
102
RTVSPropertyOp25
 70
     1
102
RTVSPropertyOp26
 70
     1
102
RTVSPropertyOp27
 70
     1
102
RTVSPropertyOp28
 70
     1
102
RTVSPropertyOp29
 70
     1
102
RTVSPropertyOp30
 70
     1
102
RTVSPropertyOp31
 70
     1
102
RTVSPropertyOp32
 70
     1
102
RTVSPropertyOp33
 70
     1
102
RTVSPropertyOp34
 70
     1
102
RTVSPropertyOp35
 70
     1
102
RTVSPropertyOp36
 70
     1
102
RTVSPropertyOp37
 70
     1
102
RTVSPropertyOp38
 70
     1
102
RTVSPropertyOp39
 70
     1
102
RTVSPropertyOp40
 70
     1
102
RTVSPropertyOp41
 70
     1
102
RTVSPropertyOp42
 70
     1
102
RTVSPropertyOp43
 70
     1
102
RTVSPropertyOp44
 70
     1
102
RTVSPropertyOp45
 70
     1
102
RTVSPropertyOp46
 70
     1
102
RTVSPropertyOp47
 70
     1
102
RTVSPropertyOp48
 70
     1
102
RTVSPropertyOp49
 70
     1
102
RTVSPropertyOp50
 70
     1
102
RTVSPropertyOp51
 70
     0
102
RTVSPropertyOp52
 70
     0
102
RTVSPropertyOp53
 70
     1
102
RTVSPropertyOp54
 70
     1
102
RTVSPropertyOp55
 70
     1
102
RTVSPropertyOp56
 70
     1
102
RTVSPropertyOp57
 70
     1
102
RTVSPropertyOp58
 70
     1
102
RTVSPropertyOp59
 70
     1
102
RTVSPropertyOp60
 70
     1
102
RTVSPropertyOp61
 70
     1
102
RTVSPropertyOp62
 70
     1
  0
XRECORD
  5
6AA
102
{ACAD_REACTORS
330
6A9
102
}
330
6A9
100
AcDbXrecord
280
     1
102
RTVSPost2010Prop28
280
     0
102
RTVSPost2010PropOp28
 70
     1
102
RTVSPost2010Prop29
280
     1
102
RTVSPost2010PropOp29
 70
     1
102
RTVSPost2010Prop30
280
     1
102
RTVSPost2010PropOp30
 70
     1
102
RTVSPost2010Prop31
280
     0
102
RTVSPost2010PropOp31
 70
     1
102
RTVSPost2010Prop32
280
     0
102
RTVSPost2010PropOp32
 70
     1
102
RTVSPost2010Prop33
280
     0
102
RTVSPost2010PropOp33
 70
     1
102
RTVSPost2010Prop34
280
     0
102
RTVSPost2010PropOp34
 70
     1
102
RTVSPost2010Prop35
280
     0
102
RTVSPost2010PropOp35
 70
     1
102
RTVSPost2010Prop36
280
     0
102
RTVSPost2010PropOp36
 70
     1
102
RTVSPost2010Prop37
 90
       50
102
RTVSPost2010PropOp37
 70
     1
102
RTVSPost2010Prop38
140
0.0
102
RTVSPost2010PropOp38
 70
     1
102
RTVSPost2010Prop39
140
1.0
102
RTVSPost2010PropOp39
 70
     1
102
RTVSPost2010Prop40
 90
        0
102
RTVSPost2010PropOp40
 70
     1
102
RTVSPost2010Prop41ColorIndex
 90
       18
102
RTVSPost2010Prop41ColorRGB
 90
        0
102
RTVSPost2010PropOp41
 70
     1
102
RTVSPost2010Prop42
 90
       50
102
RTVSPost2010PropOp42
 70
     1
102
RTVSPost2010Prop43
 90
        3
102
RTVSPost2010PropOp43
 70
     1
102
RTVSPost2010Prop44ColorIndex
 90
        5
102
RTVSPost2010Prop44ColorRGB
 90
      255
102
RTVSPost2010PropOp44
 70
     1
102
RTVSPost2010Prop45
280
     0
102
RTVSPost2010PropOp45
 70
     1
102
RTVSPost2010Prop46
 90
       50
102
RTVSPost2010PropOp46
 70
     1
102
RTVSPost2010Prop47
 90
       50
102
RTVSPost2010PropOp47
 70
     1
102
RTVSPost2010Prop48
 90
       50
102
RTVSPost2010PropOp48
 70
     1
102
RTVSPost2010Prop49
280
     0
102
RTVSPost2010PropOp49
 70
     1
102
RTVSPost2010Prop50
 90
       50
102
RTVSPost2010PropOp50
 70
     1
102
RTVSPost2010Prop51ColorIndex
 90
      256
102
RTVSPost2010Prop51ColorRGB
 90
-16777216
102
RTVSPost2010PropOp51
 70
     0
102
RTVSPost2010Prop52
140
1.0
102
RTVSPost2010PropOp52
 70
     0
102
RTVSPost2010Prop53
 90
        2
102
RTVSPost2010PropOp53
 70
     1
102
RTVSPost2010Prop54
  1
strokes_ogs.tif
102
RTVSPost2010PropOp54
 70
     1
102
RTVSPost2010Prop55
280
     0
102
RTVSPost2010PropOp55
 70
     1
102
RTVSPost2010Prop56
140
1.0
102
RTVSPost2010PropOp56
 70
     1
102
RTVSPost2010Prop57
140
1.0
102
RTVSPost2010PropOp57
 70
     1
102
RTVSPropertyOp0
 70
     1
102
RTVSPropertyOp1
 70
     1
102
RTVSPropertyOp2
 70
     1
102
RTVSPropertyOp3
 70
     1
102
RTVSPropertyOp4
 70
     1
102
RTVSPropertyOp5
 70
     1
102
RTVSPropertyOp6
 70
     1
102
RTVSPropertyOp7
 70
     1
102
RTVSPropertyOp8
 70
     1
102
RTVSPropertyOp9
 70
     1
102
RTVSPropertyOp10
 70
     1
102
RTVSPropertyOp11
 70
     1
102
RTVSPropertyOp12
 70
     1
102
RTVSPropertyOp13
 70
     1
102
RTVSPropertyOp14
 70
     1
102
RTVSPropertyOp15
 70
     1
102
RTVSPropertyOp16
 70
     1
102
RTVSPropertyOp17
 70
     1
102
RTVSPropertyOp18
 70
     1
102
RTVSPropertyOp19
 70
     1
102
RTVSPropertyOp20
 70
     1
102
RTVSPropertyOp21
 70
     1
102
RTVSPropertyOp22
 70
     1
102
RTVSPropertyOp23
 70
     1
102
RTVSPropertyOp24
 70
     1
102
RTVSPropertyOp25
 70
     1
102
RTVSPropertyOp26
 70
     1
102
RTVSPropertyOp27
 70
     1
102
RTVSPropertyOp28
 70
     1
102
RTVSPropertyOp29
 70
     1
102
RTVSPropertyOp30
 70
     1
102
RTVSPropertyOp31
 70
     1
102
RTVSPropertyOp32
 70
     1
102
RTVSPropertyOp33
 70
     1
102
RTVSPropertyOp34
 70
     1
102
RTVSPropertyOp35
 70
     1
102
RTVSPropertyOp36
 70
     1
102
RTVSPropertyOp37
 70
     1
102
RTVSPropertyOp38
 70
     1
102
RTVSPropertyOp39
 70
     1
102
RTVSPropertyOp40
 70
     1
102
RTVSPropertyOp41
 70
     1
102
RTVSPropertyOp42
 70
     1
102
RTVSPropertyOp43
 70
     1
102
RTVSPropertyOp44
 70
     1
102
RTVSPropertyOp45
 70
     1
102
RTVSPropertyOp46
 70
     1
102
RTVSPropertyOp47
 70
     1
102
RTVSPropertyOp48
 70
     1
102
RTVSPropertyOp49
 70
     1
102
RTVSPropertyOp50
 70
     1
102
RTVSPropertyOp51
 70
     0
102
RTVSPropertyOp52
 70
     0
102
RTVSPropertyOp53
 70
     1
102
RTVSPropertyOp54
 70
     1
102
RTVSPropertyOp55
 70
     1
102
RTVSPropertyOp56
 70
     1
102
RTVSPropertyOp57
 70
     1
102
RTVSPropertyOp58
 70
     1
102
RTVSPropertyOp59
 70
     1
102
RTVSPropertyOp60
 70
     1
102
RTVSPropertyOp61
 70
     1
102
RTVSPropertyOp62
 70
     1
  0
XRECORD
  5
6AE
102
{ACAD_REACTORS
330
6AD
102
}
330
6AD
100
AcDbXrecord
280
     1
102
RTVSPost2010Prop28
280
     0
102
RTVSPost2010PropOp28
 70
     1
102
RTVSPost2010Prop29
280
     1
102
RTVSPost2010PropOp29
 70
     1
102
RTVSPost2010Prop30
280
     1
102
RTVSPost2010PropOp30
 70
     1
102
RTVSPost2010Prop31
280
     0
102
RTVSPost2010PropOp31
 70
     1
102
RTVSPost2010Prop32
280
     0
102
RTVSPost2010PropOp32
 70
     1
102
RTVSPost2010Prop33
280
     0
102
RTVSPost2010PropOp33
 70
     1
102
RTVSPost2010Prop34
280
     0
102
RTVSPost2010PropOp34
 70
     1
102
RTVSPost2010Prop35
280
     0
102
RTVSPost2010PropOp35
 70
     1
102
RTVSPost2010Prop36
280
     0
102
RTVSPost2010PropOp36
 70
     1
102
RTVSPost2010Prop37
 90
       50
102
RTVSPost2010PropOp37
 70
     1
102
RTVSPost2010Prop38
140
0.0
102
RTVSPost2010PropOp38
 70
     1
102
RTVSPost2010Prop39
140
1.0
102
RTVSPost2010PropOp39
 70
     1
102
RTVSPost2010Prop40
 90
        0
102
RTVSPost2010PropOp40
 70
     1
102
RTVSPost2010Prop41ColorIndex
 90
       18
102
RTVSPost2010Prop41ColorRGB
 90
        0
102
RTVSPost2010PropOp41
 70
     1
102
RTVSPost2010Prop42
 90
       50
102
RTVSPost2010PropOp42
 70
     1
102
RTVSPost2010Prop43
 90
        3
102
RTVSPost2010PropOp43
 70
     1
102
RTVSPost2010Prop44ColorIndex
 90
        5
102
RTVSPost2010Prop44ColorRGB
 90
      255
102
RTVSPost2010PropOp44
 70
     1
102
RTVSPost2010Prop45
280
     0
102
RTVSPost2010PropOp45
 70
     1
102
RTVSPost2010Prop46
 90
       50
102
RTVSPost2010PropOp46
 70
     1
102
RTVSPost2010Prop47
 90
       50
102
RTVSPost2010PropOp47
 70
     1
102
RTVSPost2010Prop48
 90
       50
102
RTVSPost2010PropOp48
 70
     1
102
RTVSPost2010Prop49
280
     0
102
RTVSPost2010PropOp49
 70
     1
102
RTVSPost2010Prop50
 90
       50
102
RTVSPost2010PropOp50
 70
     1
102
RTVSPost2010Prop51ColorIndex
 90
      256
102
RTVSPost2010Prop51ColorRGB
 90
-16777216
102
RTVSPost2010PropOp51
 70
     0
102
RTVSPost2010Prop52
140
1.0
102
RTVSPost2010PropOp52
 70
     0
102
RTVSPost2010Prop53
 90
        2
102
RTVSPost2010PropOp53
 70
     1
102
RTVSPost2010Prop54
  1
strokes_ogs.tif
102
RTVSPost2010PropOp54
 70
     1
102
RTVSPost2010Prop55
280
     0
102
RTVSPost2010PropOp55
 70
     1
102
RTVSPost2010Prop56
140
1.0
102
RTVSPost2010PropOp56
 70
     1
102
RTVSPost2010Prop57
140
1.0
102
RTVSPost2010PropOp57
 70
     1
102
RTVSPropertyOp0
 70
     1
102
RTVSPropertyOp1
 70
     1
102
RTVSPropertyOp2
 70
     1
102
RTVSPropertyOp3
 70
     1
102
RTVSPropertyOp4
 70
     1
102
RTVSPropertyOp5
 70
     1
102
RTVSPropertyOp6
 70
     1
102
RTVSPropertyOp7
 70
     1
102
RTVSPropertyOp8
 70
     1
102
RTVSPropertyOp9
 70
     1
102
RTVSPropertyOp10
 70
     1
102
RTVSPropertyOp11
 70
     1
102
RTVSPropertyOp12
 70
     1
102
RTVSPropertyOp13
 70
     1
102
RTVSPropertyOp14
 70
     1
102
RTVSPropertyOp15
 70
     1
102
RTVSPropertyOp16
 70
     1
102
RTVSPropertyOp17
 70
     1
102
RTVSPropertyOp18
 70
     1
102
RTVSPropertyOp19
 70
     1
102
RTVSPropertyOp20
 70
     1
102
RTVSPropertyOp21
 70
     1
102
RTVSPropertyOp22
 70
     1
102
RTVSPropertyOp23
 70
     1
102
RTVSPropertyOp24
 70
     1
102
RTVSPropertyOp25
 70
     1
102
RTVSPropertyOp26
 70
     1
102
RTVSPropertyOp27
 70
     1
102
RTVSPropertyOp28
 70
     1
102
RTVSPropertyOp29
 70
     1
102
RTVSPropertyOp30
 70
     1
102
RTVSPropertyOp31
 70
     1
102
RTVSPropertyOp32
 70
     1
102
RTVSPropertyOp33
 70
     1
102
RTVSPropertyOp34
 70
     1
102
RTVSPropertyOp35
 70
     1
102
RTVSPropertyOp36
 70
     1
102
RTVSPropertyOp37
 70
     1
102
RTVSPropertyOp38
 70
     1
102
RTVSPropertyOp39
 70
     1
102
RTVSPropertyOp40
 70
     1
102
RTVSPropertyOp41
 70
     1
102
RTVSPropertyOp42
 70
     1
102
RTVSPropertyOp43
 70
     1
102
RTVSPropertyOp44
 70
     1
102
RTVSPropertyOp45
 70
     1
102
RTVSPropertyOp46
 70
     1
102
RTVSPropertyOp47
 70
     1
102
RTVSPropertyOp48
 70
     1
102
RTVSPropertyOp49
 70
     1
102
RTVSPropertyOp50
 70
     1
102
RTVSPropertyOp51
 70
     0
102
RTVSPropertyOp52
 70
     0
102
RTVSPropertyOp53
 70
     1
102
RTVSPropertyOp54
 70
     1
102
RTVSPropertyOp55
 70
     1
102
RTVSPropertyOp56
 70
     1
102
RTVSPropertyOp57
 70
     1
102
RTVSPropertyOp58
 70
     1
102
RTVSPropertyOp59
 70
     1
102
RTVSPropertyOp60
 70
     1
102
RTVSPropertyOp61
 70
     1
102
RTVSPropertyOp62
 70
     1
  0
XRECORD
  5
6C8
102
{ACAD_REACTORS
330
6C7
102
}
330
6C7
100
AcDbXrecord
280
     1
102
RTVSPost2010Prop28
280
     0
102
RTVSPost2010PropOp28
 70
     1
102
RTVSPost2010Prop29
280
     1
102
RTVSPost2010PropOp29
 70
     1
102
RTVSPost2010Prop30
280
     1
102
RTVSPost2010PropOp30
 70
     1
102
RTVSPost2010Prop31
280
     0
102
RTVSPost2010PropOp31
 70
     1
102
RTVSPost2010Prop32
280
     0
102
RTVSPost2010PropOp32
 70
     1
102
RTVSPost2010Prop33
280
     0
102
RTVSPost2010PropOp33
 70
     1
102
RTVSPost2010Prop34
280
     0
102
RTVSPost2010PropOp34
 70
     1
102
RTVSPost2010Prop35
280
     0
102
RTVSPost2010PropOp35
 70
     1
102
RTVSPost2010Prop36
280
     0
102
RTVSPost2010PropOp36
 70
     1
102
RTVSPost2010Prop37
 90
       50
102
RTVSPost2010PropOp37
 70
     0
102
RTVSPost2010Prop38
140
0.0
102
RTVSPost2010PropOp38
 70
     0
102
RTVSPost2010Prop39
140
1.0
102
RTVSPost2010PropOp39
 70
     0
102
RTVSPost2010Prop40
 90
        0
102
RTVSPost2010PropOp40
 70
     0
102
RTVSPost2010Prop41ColorIndex
 90
       18
102
RTVSPost2010Prop41ColorRGB
 90
        0
102
RTVSPost2010PropOp41
 70
     0
102
RTVSPost2010Prop42
 90
       50
102
RTVSPost2010PropOp42
 70
     0
102
RTVSPost2010Prop43
 90
        3
102
RTVSPost2010PropOp43
 70
     0
102
RTVSPost2010Prop44ColorIndex
 90
        5
102
RTVSPost2010Prop44ColorRGB
 90
      255
102
RTVSPost2010PropOp44
 70
     0
102
RTVSPost2010Prop45
280
     0
102
RTVSPost2010PropOp45
 70
     1
102
RTVSPost2010Prop46
 90
       50
102
RTVSPost2010PropOp46
 70
     0
102
RTVSPost2010Prop47
 90
       50
102
RTVSPost2010PropOp47
 70
     0
102
RTVSPost2010Prop48
 90
       50
102
RTVSPost2010PropOp48
 70
     0
102
RTVSPost2010Prop49
280
     0
102
RTVSPost2010PropOp49
 70
     1
102
RTVSPost2010Prop50
 90
       50
102
RTVSPost2010PropOp50
 70
     0
102
RTVSPost2010Prop51ColorIndex
 90
      256
102
RTVSPost2010Prop51ColorRGB
 90
-16777216
102
RTVSPost2010PropOp51
 70
     0
102
RTVSPost2010Prop52
140
1.0
102
RTVSPost2010PropOp52
 70
     0
102
RTVSPost2010Prop53
 90
        2
102
RTVSPost2010PropOp53
 70
     0
102
RTVSPost2010Prop54
  1
strokes_ogs.tif
102
RTVSPost2010PropOp54
 70
     0
102
RTVSPost2010Prop55
280
     0
102
RTVSPost2010PropOp55
 70
     1
102
RTVSPost2010Prop56
140
1.0
102
RTVSPost2010PropOp56
 70
     0
102
RTVSPost2010Prop57
140
1.0
102
RTVSPost2010PropOp57
 70
     0
102
RTVSPropertyOp0
 70
     0
102
RTVSPropertyOp1
 70
     0
102
RTVSPropertyOp2
 70
     0
102
RTVSPropertyOp3
 70
     0
102
RTVSPropertyOp4
 70
     0
102
RTVSPropertyOp5
 70
     0
102
RTVSPropertyOp6
 70
     0
102
RTVSPropertyOp7
 70
     0
102
RTVSPropertyOp8
 70
     0
102
RTVSPropertyOp9
 70
     0
102
RTVSPropertyOp10
 70
     0
102
RTVSPropertyOp11
 70
     0
102
RTVSPropertyOp12
 70
     0
102
RTVSPropertyOp13
 70
     0
102
RTVSPropertyOp14
 70
     2
102
RTVSPropertyOp15
 70
     0
102
RTVSPropertyOp16
 70
     0
102
RTVSPropertyOp17
 70
     0
102
RTVSPropertyOp18
 70
     0
102
RTVSPropertyOp19
 70
     0
102
RTVSPropertyOp20
 70
     0
102
RTVSPropertyOp21
 70
     0
102
RTVSPropertyOp22
 70
     0
102
RTVSPropertyOp23
 70
     0
102
RTVSPropertyOp24
 70
     0
102
RTVSPropertyOp25
 70
     0
102
RTVSPropertyOp26
 70
     0
102
RTVSPropertyOp27
 70
     0
102
RTVSPropertyOp28
 70
     1
102
RTVSPropertyOp29
 70
     1
102
RTVSPropertyOp30
 70
     1
102
RTVSPropertyOp31
 70
     1
102
RTVSPropertyOp32
 70
     1
102
RTVSPropertyOp33
 70
     1
102
RTVSPropertyOp34
 70
     1
102
RTVSPropertyOp35
 70
     1
102
RTVSPropertyOp36
 70
     1
102
RTVSPropertyOp37
 70
     0
102
RTVSPropertyOp38
 70
     0
102
RTVSPropertyOp39
 70
     0
102
RTVSPropertyOp40
 70
     0
102
RTVSPropertyOp41
 70
     0
102
RTVSPropertyOp42
 70
     0
102
RTVSPropertyOp43
 70
     0
102
RTVSPropertyOp44
 70
     0
102
RTVSPropertyOp45
 70
     1
102
RTVSPropertyOp46
 70
     0
102
RTVSPropertyOp47
 70
     0
102
RTVSPropertyOp48
 70
     0
102
RTVSPropertyOp49
 70
     1
102
RTVSPropertyOp50
 70
     0
102
RTVSPropertyOp51
 70
     0
102
RTVSPropertyOp52
 70
     0
102
RTVSPropertyOp53
 70
     0
102
RTVSPropertyOp54
 70
     0
102
RTVSPropertyOp55
 70
     1
102
RTVSPropertyOp56
 70
     0
102
RTVSPropertyOp57
 70
     0
102
RTVSPropertyOp58
 70
     0
102
RTVSPropertyOp59
 70
     0
102
RTVSPropertyOp60
 70
     0
102
RTVSPropertyOp61
 70
     0
102
RTVSPropertyOp62
 70
     0
  0
XRECORD
  5
6B6
102
{ACAD_REACTORS
330
6B5
102
}
330
6B5
100
AcDbXrecord
280
     1
102
RTVSPost2010Prop28
280
     0
102
RTVSPost2010PropOp28
 70
     1
102
RTVSPost2010Prop29
280
     1
102
RTVSPost2010PropOp29
 70
     1
102
RTVSPost2010Prop30
280
     1
102
RTVSPost2010PropOp30
 70
     1
102
RTVSPost2010Prop31
280
     0
102
RTVSPost2010PropOp31
 70
     1
102
RTVSPost2010Prop32
280
     0
102
RTVSPost2010PropOp32
 70
     1
102
RTVSPost2010Prop33
280
     0
102
RTVSPost2010PropOp33
 70
     1
102
RTVSPost2010Prop34
280
     0
102
RTVSPost2010PropOp34
 70
     1
102
RTVSPost2010Prop35
280
     0
102
RTVSPost2010PropOp35
 70
     1
102
RTVSPost2010Prop36
280
     0
102
RTVSPost2010PropOp36
 70
     1
102
RTVSPost2010Prop37
 90
       50
102
RTVSPost2010PropOp37
 70
     1
102
RTVSPost2010Prop38
140
0.0
102
RTVSPost2010PropOp38
 70
     1
102
RTVSPost2010Prop39
140
1.0
102
RTVSPost2010PropOp39
 70
     1
102
RTVSPost2010Prop40
 90
        0
102
RTVSPost2010PropOp40
 70
     1
102
RTVSPost2010Prop41ColorIndex
 90
       18
102
RTVSPost2010Prop41ColorRGB
 90
        0
102
RTVSPost2010PropOp41
 70
     1
102
RTVSPost2010Prop42
 90
       50
102
RTVSPost2010PropOp42
 70
     1
102
RTVSPost2010Prop43
 90
        3
102
RTVSPost2010PropOp43
 70
     1
102
RTVSPost2010Prop44ColorIndex
 90
        5
102
RTVSPost2010Prop44ColorRGB
 90
      255
102
RTVSPost2010PropOp44
 70
     1
102
RTVSPost2010Prop45
280
     0
102
RTVSPost2010PropOp45
 70
     1
102
RTVSPost2010Prop46
 90
       50
102
RTVSPost2010PropOp46
 70
     1
102
RTVSPost2010Prop47
 90
       50
102
RTVSPost2010PropOp47
 70
     1
102
RTVSPost2010Prop48
 90
       50
102
RTVSPost2010PropOp48
 70
     1
102
RTVSPost2010Prop49
280
     0
102
RTVSPost2010PropOp49
 70
     1
102
RTVSPost2010Prop50
 90
       50
102
RTVSPost2010PropOp50
 70
     1
102
RTVSPost2010Prop51ColorIndex
 90
      256
102
RTVSPost2010Prop51ColorRGB
 90
-16777216
102
RTVSPost2010PropOp51
 70
     0
102
RTVSPost2010Prop52
140
1.0
102
RTVSPost2010PropOp52
 70
     0
102
RTVSPost2010Prop53
 90
        2
102
RTVSPost2010PropOp53
 70
     1
102
RTVSPost2010Prop54
  1
strokes_ogs.tif
102
RTVSPost2010PropOp54
 70
     1
102
RTVSPost2010Prop55
280
     0
102
RTVSPost2010PropOp55
 70
     1
102
RTVSPost2010Prop56
140
1.0
102
RTVSPost2010PropOp56
 70
     1
102
RTVSPost2010Prop57
140
1.0
102
RTVSPost2010PropOp57
 70
     1
102
RTVSPropertyOp0
 70
     1
102
RTVSPropertyOp1
 70
     1
102
RTVSPropertyOp2
 70
     1
102
RTVSPropertyOp3
 70
     1
102
RTVSPropertyOp4
 70
     1
102
RTVSPropertyOp5
 70
     1
102
RTVSPropertyOp6
 70
     1
102
RTVSPropertyOp7
 70
     1
102
RTVSPropertyOp8
 70
     1
102
RTVSPropertyOp9
 70
     1
102
RTVSPropertyOp10
 70
     1
102
RTVSPropertyOp11
 70
     1
102
RTVSPropertyOp12
 70
     1
102
RTVSPropertyOp13
 70
     1
102
RTVSPropertyOp14
 70
     1
102
RTVSPropertyOp15
 70
     1
102
RTVSPropertyOp16
 70
     1
102
RTVSPropertyOp17
 70
     1
102
RTVSPropertyOp18
 70
     1
102
RTVSPropertyOp19
 70
     1
102
RTVSPropertyOp20
 70
     1
102
RTVSPropertyOp21
 70
     1
102
RTVSPropertyOp22
 70
     1
102
RTVSPropertyOp23
 70
     1
102
RTVSPropertyOp24
 70
     1
102
RTVSPropertyOp25
 70
     1
102
RTVSPropertyOp26
 70
     1
102
RTVSPropertyOp27
 70
     1
102
RTVSPropertyOp28
 70
     1
102
RTVSPropertyOp29
 70
     1
102
RTVSPropertyOp30
 70
     1
102
RTVSPropertyOp31
 70
     1
102
RTVSPropertyOp32
 70
     1
102
RTVSPropertyOp33
 70
     1
102
RTVSPropertyOp34
 70
     1
102
RTVSPropertyOp35
 70
     1
102
RTVSPropertyOp36
 70
     1
102
RTVSPropertyOp37
 70
     1
102
RTVSPropertyOp38
 70
     1
102
RTVSPropertyOp39
 70
     1
102
RTVSPropertyOp40
 70
     1
102
RTVSPropertyOp41
 70
     1
102
RTVSPropertyOp42
 70
     1
102
RTVSPropertyOp43
 70
     1
102
RTVSPropertyOp44
 70
     1
102
RTVSPropertyOp45
 70
     1
102
RTVSPropertyOp46
 70
     1
102
RTVSPropertyOp47
 70
     1
102
RTVSPropertyOp48
 70
     1
102
RTVSPropertyOp49
 70
     1
102
RTVSPropertyOp50
 70
     1
102
RTVSPropertyOp51
 70
     0
102
RTVSPropertyOp52
 70
     0
102
RTVSPropertyOp53
 70
     1
102
RTVSPropertyOp54
 70
     1
102
RTVSPropertyOp55
 70
     1
102
RTVSPropertyOp56
 70
     1
102
RTVSPropertyOp57
 70
     1
102
RTVSPropertyOp58
 70
     1
102
RTVSPropertyOp59
 70
     1
102
RTVSPropertyOp60
 70
     1
102
RTVSPropertyOp61
 70
     1
102
RTVSPropertyOp62
 70
     1
  0
XRECORD
  5
69A
102
{ACAD_REACTORS
330
699
102
}
330
699
100
AcDbXrecord
280
     1
102
RTVSPost2010Prop28
280
     0
102
RTVSPost2010PropOp28
 70
     1
102
RTVSPost2010Prop29
280
     1
102
RTVSPost2010PropOp29
 70
     1
102
RTVSPost2010Prop30
280
     1
102
RTVSPost2010PropOp30
 70
     1
102
RTVSPost2010Prop31
280
     0
102
RTVSPost2010PropOp31
 70
     1
102
RTVSPost2010Prop32
280
     0
102
RTVSPost2010PropOp32
 70
     1
102
RTVSPost2010Prop33
280
     0
102
RTVSPost2010PropOp33
 70
     1
102
RTVSPost2010Prop34
280
     0
102
RTVSPost2010PropOp34
 70
     1
102
RTVSPost2010Prop35
280
     0
102
RTVSPost2010PropOp35
 70
     1
102
RTVSPost2010Prop36
280
     0
102
RTVSPost2010PropOp36
 70
     1
102
RTVSPost2010Prop37
 90
       50
102
RTVSPost2010PropOp37
 70
     1
102
RTVSPost2010Prop38
140
0.0
102
RTVSPost2010PropOp38
 70
     1
102
RTVSPost2010Prop39
140
1.0
102
RTVSPost2010PropOp39
 70
     1
102
RTVSPost2010Prop40
 90
        0
102
RTVSPost2010PropOp40
 70
     1
102
RTVSPost2010Prop41ColorIndex
 90
       18
102
RTVSPost2010Prop41ColorRGB
 90
        0
102
RTVSPost2010PropOp41
 70
     1
102
RTVSPost2010Prop42
 90
       50
102
RTVSPost2010PropOp42
 70
     1
102
RTVSPost2010Prop43
 90
        3
102
RTVSPost2010PropOp43
 70
     1
102
RTVSPost2010Prop44ColorIndex
 90
        5
102
RTVSPost2010Prop44ColorRGB
 90
      255
102
RTVSPost2010PropOp44
 70
     1
102
RTVSPost2010Prop45
280
     0
102
RTVSPost2010PropOp45
 70
     1
102
RTVSPost2010Prop46
 90
       50
102
RTVSPost2010PropOp46
 70
     1
102
RTVSPost2010Prop47
 90
       50
102
RTVSPost2010PropOp47
 70
     1
102
RTVSPost2010Prop48
 90
       50
102
RTVSPost2010PropOp48
 70
     1
102
RTVSPost2010Prop49
280
     0
102
RTVSPost2010PropOp49
 70
     1
102
RTVSPost2010Prop50
 90
       50
102
RTVSPost2010PropOp50
 70
     1
102
RTVSPost2010Prop51ColorIndex
 90
      256
102
RTVSPost2010Prop51ColorRGB
 90
-16777216
102
RTVSPost2010PropOp51
 70
     0
102
RTVSPost2010Prop52
140
1.0
102
RTVSPost2010PropOp52
 70
     0
102
RTVSPost2010Prop53
 90
        2
102
RTVSPost2010PropOp53
 70
     1
102
RTVSPost2010Prop54
  1
strokes_ogs.tif
102
RTVSPost2010PropOp54
 70
     1
102
RTVSPost2010Prop55
280
     0
102
RTVSPost2010PropOp55
 70
     1
102
RTVSPost2010Prop56
140
1.0
102
RTVSPost2010PropOp56
 70
     1
102
RTVSPost2010Prop57
140
1.0
102
RTVSPost2010PropOp57
 70
     1
102
RTVSPropertyOp0
 70
     1
102
RTVSPropertyOp1
 70
     1
102
RTVSPropertyOp2
 70
     1
102
RTVSPropertyOp3
 70
     1
102
RTVSPropertyOp4
 70
     1
102
RTVSPropertyOp5
 70
     1
102
RTVSPropertyOp6
 70
     1
102
RTVSPropertyOp7
 70
     1
102
RTVSPropertyOp8
 70
     1
102
RTVSPropertyOp9
 70
     1
102
RTVSPropertyOp10
 70
     1
102
RTVSPropertyOp11
 70
     1
102
RTVSPropertyOp12
 70
     1
102
RTVSPropertyOp13
 70
     1
102
RTVSPropertyOp14
 70
     1
102
RTVSPropertyOp15
 70
     1
102
RTVSPropertyOp16
 70
     1
102
RTVSPropertyOp17
 70
     1
102
RTVSPropertyOp18
 70
     1
102
RTVSPropertyOp19
 70
     1
102
RTVSPropertyOp20
 70
     1
102
RTVSPropertyOp21
 70
     1
102
RTVSPropertyOp22
 70
     1
102
RTVSPropertyOp23
 70
     1
102
RTVSPropertyOp24
 70
     1
102
RTVSPropertyOp25
 70
     1
102
RTVSPropertyOp26
 70
     1
102
RTVSPropertyOp27
 70
     1
102
RTVSPropertyOp28
 70
     1
102
RTVSPropertyOp29
 70
     1
102
RTVSPropertyOp30
 70
     1
102
RTVSPropertyOp31
 70
     1
102
RTVSPropertyOp32
 70
     1
102
RTVSPropertyOp33
 70
     1
102
RTVSPropertyOp34
 70
     1
102
RTVSPropertyOp35
 70
     1
102
RTVSPropertyOp36
 70
     1
102
RTVSPropertyOp37
 70
     1
102
RTVSPropertyOp38
 70
     1
102
RTVSPropertyOp39
 70
     1
102
RTVSPropertyOp40
 70
     1
102
RTVSPropertyOp41
 70
     1
102
RTVSPropertyOp42
 70
     1
102
RTVSPropertyOp43
 70
     1
102
RTVSPropertyOp44
 70
     1
102
RTVSPropertyOp45
 70
     1
102
RTVSPropertyOp46
 70
     1
102
RTVSPropertyOp47
 70
     1
102
RTVSPropertyOp48
 70
     1
102
RTVSPropertyOp49
 70
     1
102
RTVSPropertyOp50
 70
     1
102
RTVSPropertyOp51
 70
     0
102
RTVSPropertyOp52
 70
     0
102
RTVSPropertyOp53
 70
     1
102
RTVSPropertyOp54
 70
     1
102
RTVSPropertyOp55
 70
     1
102
RTVSPropertyOp56
 70
     1
102
RTVSPropertyOp57
 70
     1
102
RTVSPropertyOp58
 70
     1
102
RTVSPropertyOp59
 70
     1
102
RTVSPropertyOp60
 70
     1
102
RTVSPropertyOp61
 70
     1
102
RTVSPropertyOp62
 70
     1
  0
XRECORD
  5
69C
102
{ACAD_REACTORS
330
69B
102
}
330
69B
100
AcDbXrecord
280
     1
102
RTVSPost2010Prop28
280
     0
102
RTVSPost2010PropOp28
 70
     1
102
RTVSPost2010Prop29
280
     1
102
RTVSPost2010PropOp29
 70
     1
102
RTVSPost2010Prop30
280
     1
102
RTVSPost2010PropOp30
 70
     1
102
RTVSPost2010Prop31
280
     0
102
RTVSPost2010PropOp31
 70
     1
102
RTVSPost2010Prop32
280
     0
102
RTVSPost2010PropOp32
 70
     1
102
RTVSPost2010Prop33
280
     0
102
RTVSPost2010PropOp33
 70
     1
102
RTVSPost2010Prop34
280
     0
102
RTVSPost2010PropOp34
 70
     1
102
RTVSPost2010Prop35
280
     0
102
RTVSPost2010PropOp35
 70
     1
102
RTVSPost2010Prop36
280
     0
102
RTVSPost2010PropOp36
 70
     1
102
RTVSPost2010Prop37
 90
       50
102
RTVSPost2010PropOp37
 70
     1
102
RTVSPost2010Prop38
140
0.0
102
RTVSPost2010PropOp38
 70
     1
102
RTVSPost2010Prop39
140
1.0
102
RTVSPost2010PropOp39
 70
     1
102
RTVSPost2010Prop40
 90
        0
102
RTVSPost2010PropOp40
 70
     1
102
RTVSPost2010Prop41ColorIndex
 90
       18
102
RTVSPost2010Prop41ColorRGB
 90
        0
102
RTVSPost2010PropOp41
 70
     1
102
RTVSPost2010Prop42
 90
       50
102
RTVSPost2010PropOp42
 70
     1
102
RTVSPost2010Prop43
 90
        3
102
RTVSPost2010PropOp43
 70
     1
102
RTVSPost2010Prop44ColorIndex
 90
        5
102
RTVSPost2010Prop44ColorRGB
 90
      255
102
RTVSPost2010PropOp44
 70
     1
102
RTVSPost2010Prop45
280
     0
102
RTVSPost2010PropOp45
 70
     1
102
RTVSPost2010Prop46
 90
       50
102
RTVSPost2010PropOp46
 70
     1
102
RTVSPost2010Prop47
 90
       50
102
RTVSPost2010PropOp47
 70
     1
102
RTVSPost2010Prop48
 90
       50
102
RTVSPost2010PropOp48
 70
     1
102
RTVSPost2010Prop49
280
     0
102
RTVSPost2010PropOp49
 70
     1
102
RTVSPost2010Prop50
 90
       50
102
RTVSPost2010PropOp50
 70
     1
102
RTVSPost2010Prop51ColorIndex
 90
      256
102
RTVSPost2010Prop51ColorRGB
 90
-16777216
102
RTVSPost2010PropOp51
 70
     0
102
RTVSPost2010Prop52
140
1.0
102
RTVSPost2010PropOp52
 70
     0
102
RTVSPost2010Prop53
 90
        2
102
RTVSPost2010PropOp53
 70
     1
102
RTVSPost2010Prop54
  1
strokes_ogs.tif
102
RTVSPost2010PropOp54
 70
     1
102
RTVSPost2010Prop55
280
     0
102
RTVSPost2010PropOp55
 70
     1
102
RTVSPost2010Prop56
140
1.0
102
RTVSPost2010PropOp56
 70
     1
102
RTVSPost2010Prop57
140
1.0
102
RTVSPost2010PropOp57
 70
     1
102
RTVSPropertyOp0
 70
     1
102
RTVSPropertyOp1
 70
     1
102
RTVSPropertyOp2
 70
     1
102
RTVSPropertyOp3
 70
     1
102
RTVSPropertyOp4
 70
     1
102
RTVSPropertyOp5
 70
     1
102
RTVSPropertyOp6
 70
     1
102
RTVSPropertyOp7
 70
     1
102
RTVSPropertyOp8
 70
     1
102
RTVSPropertyOp9
 70
     1
102
RTVSPropertyOp10
 70
     1
102
RTVSPropertyOp11
 70
     1
102
RTVSPropertyOp12
 70
     1
102
RTVSPropertyOp13
 70
     1
102
RTVSPropertyOp14
 70
     1
102
RTVSPropertyOp15
 70
     1
102
RTVSPropertyOp16
 70
     1
102
RTVSPropertyOp17
 70
     1
102
RTVSPropertyOp18
 70
     1
102
RTVSPropertyOp19
 70
     1
102
RTVSPropertyOp20
 70
     1
102
RTVSPropertyOp21
 70
     1
102
RTVSPropertyOp22
 70
     1
102
RTVSPropertyOp23
 70
     1
102
RTVSPropertyOp24
 70
     1
102
RTVSPropertyOp25
 70
     1
102
RTVSPropertyOp26
 70
     1
102
RTVSPropertyOp27
 70
     1
102
RTVSPropertyOp28
 70
     1
102
RTVSPropertyOp29
 70
     1
102
RTVSPropertyOp30
 70
     1
102
RTVSPropertyOp31
 70
     1
102
RTVSPropertyOp32
 70
     1
102
RTVSPropertyOp33
 70
     1
102
RTVSPropertyOp34
 70
     1
102
RTVSPropertyOp35
 70
     1
102
RTVSPropertyOp36
 70
     1
102
RTVSPropertyOp37
 70
     1
102
RTVSPropertyOp38
 70
     1
102
RTVSPropertyOp39
 70
     1
102
RTVSPropertyOp40
 70
     1
102
RTVSPropertyOp41
 70
     1
102
RTVSPropertyOp42
 70
     1
102
RTVSPropertyOp43
 70
     1
102
RTVSPropertyOp44
 70
     1
102
RTVSPropertyOp45
 70
     1
102
RTVSPropertyOp46
 70
     1
102
RTVSPropertyOp47
 70
     1
102
RTVSPropertyOp48
 70
     1
102
RTVSPropertyOp49
 70
     1
102
RTVSPropertyOp50
 70
     1
102
RTVSPropertyOp51
 70
     0
102
RTVSPropertyOp52
 70
     0
102
RTVSPropertyOp53
 70
     1
102
RTVSPropertyOp54
 70
     1
102
RTVSPropertyOp55
 70
     1
102
RTVSPropertyOp56
 70
     1
102
RTVSPropertyOp57
 70
     1
102
RTVSPropertyOp58
 70
     1
102
RTVSPropertyOp59
 70
     1
102
RTVSPropertyOp60
 70
     1
102
RTVSPropertyOp61
 70
     1
102
RTVSPropertyOp62
 70
     1
  0
XRECORD
  5
69E
102
{ACAD_REACTORS
330
69D
102
}
330
69D
100
AcDbXrecord
280
     1
102
RTVSPost2010Prop28
280
     0
102
RTVSPost2010PropOp28
 70
     1
102
RTVSPost2010Prop29
280
     1
102
RTVSPost2010PropOp29
 70
     1
102
RTVSPost2010Prop30
280
     1
102
RTVSPost2010PropOp30
 70
     1
102
RTVSPost2010Prop31
280
     0
102
RTVSPost2010PropOp31
 70
     1
102
RTVSPost2010Prop32
280
     0
102
RTVSPost2010PropOp32
 70
     1
102
RTVSPost2010Prop33
280
     0
102
RTVSPost2010PropOp33
 70
     1
102
RTVSPost2010Prop34
280
     0
102
RTVSPost2010PropOp34
 70
     1
102
RTVSPost2010Prop35
280
     0
102
RTVSPost2010PropOp35
 70
     1
102
RTVSPost2010Prop36
280
     0
102
RTVSPost2010PropOp36
 70
     1
102
RTVSPost2010Prop37
 90
       50
102
RTVSPost2010PropOp37
 70
     1
102
RTVSPost2010Prop38
140
0.0
102
RTVSPost2010PropOp38
 70
     1
102
RTVSPost2010Prop39
140
1.0
102
RTVSPost2010PropOp39
 70
     1
102
RTVSPost2010Prop40
 90
        0
102
RTVSPost2010PropOp40
 70
     1
102
RTVSPost2010Prop41ColorIndex
 90
       18
102
RTVSPost2010Prop41ColorRGB
 90
        0
102
RTVSPost2010PropOp41
 70
     1
102
RTVSPost2010Prop42
 90
       50
102
RTVSPost2010PropOp42
 70
     1
102
RTVSPost2010Prop43
 90
        3
102
RTVSPost2010PropOp43
 70
     1
102
RTVSPost2010Prop44ColorIndex
 90
        5
102
RTVSPost2010Prop44ColorRGB
 90
      255
102
RTVSPost2010PropOp44
 70
     1
102
RTVSPost2010Prop45
280
     0
102
RTVSPost2010PropOp45
 70
     1
102
RTVSPost2010Prop46
 90
       50
102
RTVSPost2010PropOp46
 70
     1
102
RTVSPost2010Prop47
 90
       50
102
RTVSPost2010PropOp47
 70
     1
102
RTVSPost2010Prop48
 90
       50
102
RTVSPost2010PropOp48
 70
     1
102
RTVSPost2010Prop49
280
     0
102
RTVSPost2010PropOp49
 70
     1
102
RTVSPost2010Prop50
 90
       50
102
RTVSPost2010PropOp50
 70
     1
102
RTVSPost2010Prop51ColorIndex
 90
      256
102
RTVSPost2010Prop51ColorRGB
 90
-16777216
102
RTVSPost2010PropOp51
 70
     0
102
RTVSPost2010Prop52
140
1.0
102
RTVSPost2010PropOp52
 70
     0
102
RTVSPost2010Prop53
 90
        2
102
RTVSPost2010PropOp53
 70
     1
102
RTVSPost2010Prop54
  1
strokes_ogs.tif
102
RTVSPost2010PropOp54
 70
     1
102
RTVSPost2010Prop55
280
     0
102
RTVSPost2010PropOp55
 70
     1
102
RTVSPost2010Prop56
140
1.0
102
RTVSPost2010PropOp56
 70
     1
102
RTVSPost2010Prop57
140
1.0
102
RTVSPost2010PropOp57
 70
     1
102
RTVSPropertyOp0
 70
     1
102
RTVSPropertyOp1
 70
     1
102
RTVSPropertyOp2
 70
     1
102
RTVSPropertyOp3
 70
     1
102
RTVSPropertyOp4
 70
     1
102
RTVSPropertyOp5
 70
     1
102
RTVSPropertyOp6
 70
     1
102
RTVSPropertyOp7
 70
     1
102
RTVSPropertyOp8
 70
     1
102
RTVSPropertyOp9
 70
     1
102
RTVSPropertyOp10
 70
     1
102
RTVSPropertyOp11
 70
     1
102
RTVSPropertyOp12
 70
     1
102
RTVSPropertyOp13
 70
     1
102
RTVSPropertyOp14
 70
     1
102
RTVSPropertyOp15
 70
     1
102
RTVSPropertyOp16
 70
     1
102
RTVSPropertyOp17
 70
     1
102
RTVSPropertyOp18
 70
     1
102
RTVSPropertyOp19
 70
     1
102
RTVSPropertyOp20
 70
     1
102
RTVSPropertyOp21
 70
     1
102
RTVSPropertyOp22
 70
     1
102
RTVSPropertyOp23
 70
     1
102
RTVSPropertyOp24
 70
     1
102
RTVSPropertyOp25
 70
     1
102
RTVSPropertyOp26
 70
     1
102
RTVSPropertyOp27
 70
     1
102
RTVSPropertyOp28
 70
     1
102
RTVSPropertyOp29
 70
     1
102
RTVSPropertyOp30
 70
     1
102
RTVSPropertyOp31
 70
     1
102
RTVSPropertyOp32
 70
     1
102
RTVSPropertyOp33
 70
     1
102
RTVSPropertyOp34
 70
     1
102
RTVSPropertyOp35
 70
     1
102
RTVSPropertyOp36
 70
     1
102
RTVSPropertyOp37
 70
     1
102
RTVSPropertyOp38
 70
     1
102
RTVSPropertyOp39
 70
     1
102
RTVSPropertyOp40
 70
     1
102
RTVSPropertyOp41
 70
     1
102
RTVSPropertyOp42
 70
     1
102
RTVSPropertyOp43
 70
     1
102
RTVSPropertyOp44
 70
     1
102
RTVSPropertyOp45
 70
     1
102
RTVSPropertyOp46
 70
     1
102
RTVSPropertyOp47
 70
     1
102
RTVSPropertyOp48
 70
     1
102
RTVSPropertyOp49
 70
     1
102
RTVSPropertyOp50
 70
     1
102
RTVSPropertyOp51
 70
     0
102
RTVSPropertyOp52
 70
     0
102
RTVSPropertyOp53
 70
     1
102
RTVSPropertyOp54
 70
     1
102
RTVSPropertyOp55
 70
     1
102
RTVSPropertyOp56
 70
     1
102
RTVSPropertyOp57
 70
     1
102
RTVSPropertyOp58
 70
     1
102
RTVSPropertyOp59
 70
     1
102
RTVSPropertyOp60
 70
     1
102
RTVSPropertyOp61
 70
     1
102
RTVSPropertyOp62
 70
     1
  0
XRECORD
  5
6A0
102
{ACAD_REACTORS
330
69F
102
}
330
69F
100
AcDbXrecord
280
     1
102
RTVSPost2010Prop28
280
     0
102
RTVSPost2010PropOp28
 70
     1
102
RTVSPost2010Prop29
280
     1
102
RTVSPost2010PropOp29
 70
     1
102
RTVSPost2010Prop30
280
     1
102
RTVSPost2010PropOp30
 70
     1
102
RTVSPost2010Prop31
280
     0
102
RTVSPost2010PropOp31
 70
     1
102
RTVSPost2010Prop32
280
     0
102
RTVSPost2010PropOp32
 70
     1
102
RTVSPost2010Prop33
280
     0
102
RTVSPost2010PropOp33
 70
     1
102
RTVSPost2010Prop34
280
     0
102
RTVSPost2010PropOp34
 70
     1
102
RTVSPost2010Prop35
280
     0
102
RTVSPost2010PropOp35
 70
     1
102
RTVSPost2010Prop36
280
     0
102
RTVSPost2010PropOp36
 70
     1
102
RTVSPost2010Prop37
 90
       50
102
RTVSPost2010PropOp37
 70
     1
102
RTVSPost2010Prop38
140
0.0
102
RTVSPost2010PropOp38
 70
     1
102
RTVSPost2010Prop39
140
1.0
102
RTVSPost2010PropOp39
 70
     1
102
RTVSPost2010Prop40
 90
        0
102
RTVSPost2010PropOp40
 70
     1
102
RTVSPost2010Prop41ColorIndex
 90
       18
102
RTVSPost2010Prop41ColorRGB
 90
        0
102
RTVSPost2010PropOp41
 70
     1
102
RTVSPost2010Prop42
 90
       50
102
RTVSPost2010PropOp42
 70
     1
102
RTVSPost2010Prop43
 90
        3
102
RTVSPost2010PropOp43
 70
     1
102
RTVSPost2010Prop44ColorIndex
 90
        5
102
RTVSPost2010Prop44ColorRGB
 90
      255
102
RTVSPost2010PropOp44
 70
     1
102
RTVSPost2010Prop45
280
     0
102
RTVSPost2010PropOp45
 70
     1
102
RTVSPost2010Prop46
 90
       50
102
RTVSPost2010PropOp46
 70
     1
102
RTVSPost2010Prop47
 90
       50
102
RTVSPost2010PropOp47
 70
     1
102
RTVSPost2010Prop48
 90
       50
102
RTVSPost2010PropOp48
 70
     1
102
RTVSPost2010Prop49
280
     0
102
RTVSPost2010PropOp49
 70
     1
102
RTVSPost2010Prop50
 90
       50
102
RTVSPost2010PropOp50
 70
     1
102
RTVSPost2010Prop51ColorIndex
 90
      256
102
RTVSPost2010Prop51ColorRGB
 90
-16777216
102
RTVSPost2010PropOp51
 70
     0
102
RTVSPost2010Prop52
140
1.0
102
RTVSPost2010PropOp52
 70
     0
102
RTVSPost2010Prop53
 90
        2
102
RTVSPost2010PropOp53
 70
     1
102
RTVSPost2010Prop54
  1
strokes_ogs.tif
102
RTVSPost2010PropOp54
 70
     1
102
RTVSPost2010Prop55
280
     0
102
RTVSPost2010PropOp55
 70
     1
102
RTVSPost2010Prop56
140
1.0
102
RTVSPost2010PropOp56
 70
     1
102
RTVSPost2010Prop57
140
1.0
102
RTVSPost2010PropOp57
 70
     1
102
RTVSPropertyOp0
 70
     1
102
RTVSPropertyOp1
 70
     1
102
RTVSPropertyOp2
 70
     1
102
RTVSPropertyOp3
 70
     1
102
RTVSPropertyOp4
 70
     1
102
RTVSPropertyOp5
 70
     1
102
RTVSPropertyOp6
 70
     1
102
RTVSPropertyOp7
 70
     1
102
RTVSPropertyOp8
 70
     1
102
RTVSPropertyOp9
 70
     1
102
RTVSPropertyOp10
 70
     1
102
RTVSPropertyOp11
 70
     1
102
RTVSPropertyOp12
 70
     1
102
RTVSPropertyOp13
 70
     1
102
RTVSPropertyOp14
 70
     1
102
RTVSPropertyOp15
 70
     1
102
RTVSPropertyOp16
 70
     1
102
RTVSPropertyOp17
 70
     1
102
RTVSPropertyOp18
 70
     1
102
RTVSPropertyOp19
 70
     1
102
RTVSPropertyOp20
 70
     1
102
RTVSPropertyOp21
 70
     1
102
RTVSPropertyOp22
 70
     1
102
RTVSPropertyOp23
 70
     1
102
RTVSPropertyOp24
 70
     1
102
RTVSPropertyOp25
 70
     1
102
RTVSPropertyOp26
 70
     1
102
RTVSPropertyOp27
 70
     1
102
RTVSPropertyOp28
 70
     1
102
RTVSPropertyOp29
 70
     1
102
RTVSPropertyOp30
 70
     1
102
RTVSPropertyOp31
 70
     1
102
RTVSPropertyOp32
 70
     1
102
RTVSPropertyOp33
 70
     1
102
RTVSPropertyOp34
 70
     1
102
RTVSPropertyOp35
 70
     1
102
RTVSPropertyOp36
 70
     1
102
RTVSPropertyOp37
 70
     1
102
RTVSPropertyOp38
 70
     1
102
RTVSPropertyOp39
 70
     1
102
RTVSPropertyOp40
 70
     1
102
RTVSPropertyOp41
 70
     1
102
RTVSPropertyOp42
 70
     1
102
RTVSPropertyOp43
 70
     1
102
RTVSPropertyOp44
 70
     1
102
RTVSPropertyOp45
 70
     1
102
RTVSPropertyOp46
 70
     1
102
RTVSPropertyOp47
 70
     1
102
RTVSPropertyOp48
 70
     1
102
RTVSPropertyOp49
 70
     1
102
RTVSPropertyOp50
 70
     1
102
RTVSPropertyOp51
 70
     0
102
RTVSPropertyOp52
 70
     0
102
RTVSPropertyOp53
 70
     1
102
RTVSPropertyOp54
 70
     1
102
RTVSPropertyOp55
 70
     1
102
RTVSPropertyOp56
 70
     1
102
RTVSPropertyOp57
 70
     1
102
RTVSPropertyOp58
 70
     1
102
RTVSPropertyOp59
 70
     1
102
RTVSPropertyOp60
 70
     1
102
RTVSPropertyOp61
 70
     1
102
RTVSPropertyOp62
 70
     1
  0
XRECORD
  5
6A8
102
{ACAD_REACTORS
330
6A7
102
}
330
6A7
100
AcDbXrecord
280
     1
102
RTVSPost2010Prop28
280
     0
102
RTVSPost2010PropOp28
 70
     1
102
RTVSPost2010Prop29
280
     1
102
RTVSPost2010PropOp29
 70
     1
102
RTVSPost2010Prop30
280
     1
102
RTVSPost2010PropOp30
 70
     1
102
RTVSPost2010Prop31
280
     0
102
RTVSPost2010PropOp31
 70
     1
102
RTVSPost2010Prop32
280
     0
102
RTVSPost2010PropOp32
 70
     1
102
RTVSPost2010Prop33
280
     0
102
RTVSPost2010PropOp33
 70
     1
102
RTVSPost2010Prop34
280
     0
102
RTVSPost2010PropOp34
 70
     1
102
RTVSPost2010Prop35
280
     0
102
RTVSPost2010PropOp35
 70
     1
102
RTVSPost2010Prop36
280
     0
102
RTVSPost2010PropOp36
 70
     1
102
RTVSPost2010Prop37
 90
       50
102
RTVSPost2010PropOp37
 70
     1
102
RTVSPost2010Prop38
140
0.0
102
RTVSPost2010PropOp38
 70
     1
102
RTVSPost2010Prop39
140
1.0
102
RTVSPost2010PropOp39
 70
     1
102
RTVSPost2010Prop40
 90
        0
102
RTVSPost2010PropOp40
 70
     1
102
RTVSPost2010Prop41ColorIndex
 90
       18
102
RTVSPost2010Prop41ColorRGB
 90
        0
102
RTVSPost2010PropOp41
 70
     1
102
RTVSPost2010Prop42
 90
       50
102
RTVSPost2010PropOp42
 70
     1
102
RTVSPost2010Prop43
 90
        3
102
RTVSPost2010PropOp43
 70
     1
102
RTVSPost2010Prop44ColorIndex
 90
        5
102
RTVSPost2010Prop44ColorRGB
 90
      255
102
RTVSPost2010PropOp44
 70
     1
102
RTVSPost2010Prop45
280
     0
102
RTVSPost2010PropOp45
 70
     1
102
RTVSPost2010Prop46
 90
       50
102
RTVSPost2010PropOp46
 70
     1
102
RTVSPost2010Prop47
 90
       50
102
RTVSPost2010PropOp47
 70
     1
102
RTVSPost2010Prop48
 90
       50
102
RTVSPost2010PropOp48
 70
     1
102
RTVSPost2010Prop49
280
     0
102
RTVSPost2010PropOp49
 70
     1
102
RTVSPost2010Prop50
 90
       50
102
RTVSPost2010PropOp50
 70
     1
102
RTVSPost2010Prop51ColorIndex
 90
      256
102
RTVSPost2010Prop51ColorRGB
 90
-16777216
102
RTVSPost2010PropOp51
 70
     0
102
RTVSPost2010Prop52
140
1.0
102
RTVSPost2010PropOp52
 70
     0
102
RTVSPost2010Prop53
 90
        2
102
RTVSPost2010PropOp53
 70
     1
102
RTVSPost2010Prop54
  1
strokes_ogs.tif
102
RTVSPost2010PropOp54
 70
     1
102
RTVSPost2010Prop55
280
     0
102
RTVSPost2010PropOp55
 70
     1
102
RTVSPost2010Prop56
140
1.0
102
RTVSPost2010PropOp56
 70
     1
102
RTVSPost2010Prop57
140
1.0
102
RTVSPost2010PropOp57
 70
     1
102
RTVSPropertyOp0
 70
     1
102
RTVSPropertyOp1
 70
     1
102
RTVSPropertyOp2
 70
     1
102
RTVSPropertyOp3
 70
     1
102
RTVSPropertyOp4
 70
     1
102
RTVSPropertyOp5
 70
     1
102
RTVSPropertyOp6
 70
     1
102
RTVSPropertyOp7
 70
     1
102
RTVSPropertyOp8
 70
     1
102
RTVSPropertyOp9
 70
     1
102
RTVSPropertyOp10
 70
     1
102
RTVSPropertyOp11
 70
     1
102
RTVSPropertyOp12
 70
     1
102
RTVSPropertyOp13
 70
     1
102
RTVSPropertyOp14
 70
     1
102
RTVSPropertyOp15
 70
     1
102
RTVSPropertyOp16
 70
     1
102
RTVSPropertyOp17
 70
     1
102
RTVSPropertyOp18
 70
     1
102
RTVSPropertyOp19
 70
     1
102
RTVSPropertyOp20
 70
     1
102
RTVSPropertyOp21
 70
     1
102
RTVSPropertyOp22
 70
     1
102
RTVSPropertyOp23
 70
     1
102
RTVSPropertyOp24
 70
     1
102
RTVSPropertyOp25
 70
     1
102
RTVSPropertyOp26
 70
     1
102
RTVSPropertyOp27
 70
     1
102
RTVSPropertyOp28
 70
     1
102
RTVSPropertyOp29
 70
     1
102
RTVSPropertyOp30
 70
     1
102
RTVSPropertyOp31
 70
     1
102
RTVSPropertyOp32
 70
     1
102
RTVSPropertyOp33
 70
     1
102
RTVSPropertyOp34
 70
     1
102
RTVSPropertyOp35
 70
     1
102
RTVSPropertyOp36
 70
     1
102
RTVSPropertyOp37
 70
     1
102
RTVSPropertyOp38
 70
     1
102
RTVSPropertyOp39
 70
     1
102
RTVSPropertyOp40
 70
     1
102
RTVSPropertyOp41
 70
     1
102
RTVSPropertyOp42
 70
     1
102
RTVSPropertyOp43
 70
     1
102
RTVSPropertyOp44
 70
     1
102
RTVSPropertyOp45
 70
     1
102
RTVSPropertyOp46
 70
     1
102
RTVSPropertyOp47
 70
     1
102
RTVSPropertyOp48
 70
     1
102
RTVSPropertyOp49
 70
     1
102
RTVSPropertyOp50
 70
     1
102
RTVSPropertyOp51
 70
     0
102
RTVSPropertyOp52
 70
     0
102
RTVSPropertyOp53
 70
     1
102
RTVSPropertyOp54
 70
     1
102
RTVSPropertyOp55
 70
     1
102
RTVSPropertyOp56
 70
     1
102
RTVSPropertyOp57
 70
     1
102
RTVSPropertyOp58
 70
     1
102
RTVSPropertyOp59
 70
     1
102
RTVSPropertyOp60
 70
     1
102
RTVSPropertyOp61
 70
     1
102
RTVSPropertyOp62
 70
     1
  0
XRECORD
  5
6C4
102
{ACAD_REACTORS
330
6C3
102
}
330
6C3
100
AcDbXrecord
280
     1
102
RTVSPost2010Prop28
280
     0
102
RTVSPost2010PropOp28
 70
     1
102
RTVSPost2010Prop29
280
     1
102
RTVSPost2010PropOp29
 70
     1
102
RTVSPost2010Prop30
280
     1
102
RTVSPost2010PropOp30
 70
     1
102
RTVSPost2010Prop31
280
     0
102
RTVSPost2010PropOp31
 70
     1
102
RTVSPost2010Prop32
280
     0
102
RTVSPost2010PropOp32
 70
     1
102
RTVSPost2010Prop33
280
     0
102
RTVSPost2010PropOp33
 70
     1
102
RTVSPost2010Prop34
280
     0
102
RTVSPost2010PropOp34
 70
     1
102
RTVSPost2010Prop35
280
     0
102
RTVSPost2010PropOp35
 70
     1
102
RTVSPost2010Prop36
280
     0
102
RTVSPost2010PropOp36
 70
     1
102
RTVSPost2010Prop37
 90
       50
102
RTVSPost2010PropOp37
 70
     0
102
RTVSPost2010Prop38
140
0.0
102
RTVSPost2010PropOp38
 70
     0
102
RTVSPost2010Prop39
140
1.0
102
RTVSPost2010PropOp39
 70
     0
102
RTVSPost2010Prop40
 90
        0
102
RTVSPost2010PropOp40
 70
     0
102
RTVSPost2010Prop41ColorIndex
 90
       18
102
RTVSPost2010Prop41ColorRGB
 90
        0
102
RTVSPost2010PropOp41
 70
     0
102
RTVSPost2010Prop42
 90
       50
102
RTVSPost2010PropOp42
 70
     0
102
RTVSPost2010Prop43
 90
        3
102
RTVSPost2010PropOp43
 70
     0
102
RTVSPost2010Prop44ColorIndex
 90
        5
102
RTVSPost2010Prop44ColorRGB
 90
      255
102
RTVSPost2010PropOp44
 70
     0
102
RTVSPost2010Prop45
280
     0
102
RTVSPost2010PropOp45
 70
     1
102
RTVSPost2010Prop46
 90
       50
102
RTVSPost2010PropOp46
 70
     0
102
RTVSPost2010Prop47
 90
       50
102
RTVSPost2010PropOp47
 70
     0
102
RTVSPost2010Prop48
 90
       50
102
RTVSPost2010PropOp48
 70
     0
102
RTVSPost2010Prop49
280
     0
102
RTVSPost2010PropOp49
 70
     1
102
RTVSPost2010Prop50
 90
       50
102
RTVSPost2010PropOp50
 70
     0
102
RTVSPost2010Prop51ColorIndex
 90
      256
102
RTVSPost2010Prop51ColorRGB
 90
-16777216
102
RTVSPost2010PropOp51
 70
     0
102
RTVSPost2010Prop52
140
1.0
102
RTVSPost2010PropOp52
 70
     0
102
RTVSPost2010Prop53
 90
        2
102
RTVSPost2010PropOp53
 70
     0
102
RTVSPost2010Prop54
  1
strokes_ogs.tif
102
RTVSPost2010PropOp54
 70
     0
102
RTVSPost2010Prop55
280
     0
102
RTVSPost2010PropOp55
 70
     1
102
RTVSPost2010Prop56
140
1.0
102
RTVSPost2010PropOp56
 70
     0
102
RTVSPost2010Prop57
140
1.0
102
RTVSPost2010PropOp57
 70
     0
102
RTVSPropertyOp0
 70
     0
102
RTVSPropertyOp1
 70
     0
102
RTVSPropertyOp2
 70
     0
102
RTVSPropertyOp3
 70
     0
102
RTVSPropertyOp4
 70
     0
102
RTVSPropertyOp5
 70
     0
102
RTVSPropertyOp6
 70
     0
102
RTVSPropertyOp7
 70
     0
102
RTVSPropertyOp8
 70
     0
102
RTVSPropertyOp9
 70
     0
102
RTVSPropertyOp10
 70
     0
102
RTVSPropertyOp11
 70
     0
102
RTVSPropertyOp12
 70
     0
102
RTVSPropertyOp13
 70
     0
102
RTVSPropertyOp14
 70
     2
102
RTVSPropertyOp15
 70
     0
102
RTVSPropertyOp16
 70
     0
102
RTVSPropertyOp17
 70
     0
102
RTVSPropertyOp18
 70
     0
102
RTVSPropertyOp19
 70
     0
102
RTVSPropertyOp20
 70
     0
102
RTVSPropertyOp21
 70
     0
102
RTVSPropertyOp22
 70
     0
102
RTVSPropertyOp23
 70
     0
102
RTVSPropertyOp24
 70
     0
102
RTVSPropertyOp25
 70
     0
102
RTVSPropertyOp26
 70
     0
102
RTVSPropertyOp27
 70
     0
102
RTVSPropertyOp28
 70
     1
102
RTVSPropertyOp29
 70
     1
102
RTVSPropertyOp30
 70
     1
102
RTVSPropertyOp31
 70
     1
102
RTVSPropertyOp32
 70
     1
102
RTVSPropertyOp33
 70
     1
102
RTVSPropertyOp34
 70
     1
102
RTVSPropertyOp35
 70
     1
102
RTVSPropertyOp36
 70
     1
102
RTVSPropertyOp37
 70
     0
102
RTVSPropertyOp38
 70
     0
102
RTVSPropertyOp39
 70
     0
102
RTVSPropertyOp40
 70
     0
102
RTVSPropertyOp41
 70
     0
102
RTVSPropertyOp42
 70
     0
102
RTVSPropertyOp43
 70
     0
102
RTVSPropertyOp44
 70
     0
102
RTVSPropertyOp45
 70
     1
102
RTVSPropertyOp46
 70
     0
102
RTVSPropertyOp47
 70
     0
102
RTVSPropertyOp48
 70
     0
102
RTVSPropertyOp49
 70
     1
102
RTVSPropertyOp50
 70
     0
102
RTVSPropertyOp51
 70
     0
102
RTVSPropertyOp52
 70
     0
102
RTVSPropertyOp53
 70
     0
102
RTVSPropertyOp54
 70
     0
102
RTVSPropertyOp55
 70
     1
102
RTVSPropertyOp56
 70
     0
102
RTVSPropertyOp57
 70
     0
102
RTVSPropertyOp58
 70
     0
102
RTVSPropertyOp59
 70
     0
102
RTVSPropertyOp60
 70
     0
102
RTVSPropertyOp61
 70
     0
102
RTVSPropertyOp62
 70
     0
  0
XRECORD
  5
6B4
102
{ACAD_REACTORS
330
6B3
102
}
330
6B3
100
AcDbXrecord
280
     1
102
RTVSPost2010Prop28
280
     0
102
RTVSPost2010PropOp28
 70
     1
102
RTVSPost2010Prop29
280
     1
102
RTVSPost2010PropOp29
 70
     1
102
RTVSPost2010Prop30
280
     1
102
RTVSPost2010PropOp30
 70
     1
102
RTVSPost2010Prop31
280
     0
102
RTVSPost2010PropOp31
 70
     1
102
RTVSPost2010Prop32
280
     0
102
RTVSPost2010PropOp32
 70
     1
102
RTVSPost2010Prop33
280
     0
102
RTVSPost2010PropOp33
 70
     1
102
RTVSPost2010Prop34
280
     0
102
RTVSPost2010PropOp34
 70
     1
102
RTVSPost2010Prop35
280
     0
102
RTVSPost2010PropOp35
 70
     1
102
RTVSPost2010Prop36
280
     0
102
RTVSPost2010PropOp36
 70
     1
102
RTVSPost2010Prop37
 90
       50
102
RTVSPost2010PropOp37
 70
     1
102
RTVSPost2010Prop38
140
0.0
102
RTVSPost2010PropOp38
 70
     1
102
RTVSPost2010Prop39
140
1.0
102
RTVSPost2010PropOp39
 70
     1
102
RTVSPost2010Prop40
 90
        0
102
RTVSPost2010PropOp40
 70
     1
102
RTVSPost2010Prop41ColorIndex
 90
       18
102
RTVSPost2010Prop41ColorRGB
 90
        0
102
RTVSPost2010PropOp41
 70
     1
102
RTVSPost2010Prop42
 90
       50
102
RTVSPost2010PropOp42
 70
     1
102
RTVSPost2010Prop43
 90
        3
102
RTVSPost2010PropOp43
 70
     1
102
RTVSPost2010Prop44ColorIndex
 90
        5
102
RTVSPost2010Prop44ColorRGB
 90
      255
102
RTVSPost2010PropOp44
 70
     1
102
RTVSPost2010Prop45
280
     0
102
RTVSPost2010PropOp45
 70
     1
102
RTVSPost2010Prop46
 90
       50
102
RTVSPost2010PropOp46
 70
     1
102
RTVSPost2010Prop47
 90
       50
102
RTVSPost2010PropOp47
 70
     1
102
RTVSPost2010Prop48
 90
       50
102
RTVSPost2010PropOp48
 70
     1
102
RTVSPost2010Prop49
280
     0
102
RTVSPost2010PropOp49
 70
     1
102
RTVSPost2010Prop50
 90
       50
102
RTVSPost2010PropOp50
 70
     1
102
RTVSPost2010Prop51ColorIndex
 90
      256
102
RTVSPost2010Prop51ColorRGB
 90
-16777216
102
RTVSPost2010PropOp51
 70
     0
102
RTVSPost2010Prop52
140
1.0
102
RTVSPost2010PropOp52
 70
     0
102
RTVSPost2010Prop53
 90
        2
102
RTVSPost2010PropOp53
 70
     1
102
RTVSPost2010Prop54
  1
strokes_ogs.tif
102
RTVSPost2010PropOp54
 70
     1
102
RTVSPost2010Prop55
280
     0
102
RTVSPost2010PropOp55
 70
     1
102
RTVSPost2010Prop56
140
1.0
102
RTVSPost2010PropOp56
 70
     1
102
RTVSPost2010Prop57
140
1.0
102
RTVSPost2010PropOp57
 70
     1
102
RTVSPropertyOp0
 70
     1
102
RTVSPropertyOp1
 70
     1
102
RTVSPropertyOp2
 70
     1
102
RTVSPropertyOp3
 70
     1
102
RTVSPropertyOp4
 70
     1
102
RTVSPropertyOp5
 70
     1
102
RTVSPropertyOp6
 70
     1
102
RTVSPropertyOp7
 70
     1
102
RTVSPropertyOp8
 70
     1
102
RTVSPropertyOp9
 70
     1
102
RTVSPropertyOp10
 70
     1
102
RTVSPropertyOp11
 70
     1
102
RTVSPropertyOp12
 70
     1
102
RTVSPropertyOp13
 70
     1
102
RTVSPropertyOp14
 70
     1
102
RTVSPropertyOp15
 70
     1
102
RTVSPropertyOp16
 70
     1
102
RTVSPropertyOp17
 70
     1
102
RTVSPropertyOp18
 70
     1
102
RTVSPropertyOp19
 70
     1
102
RTVSPropertyOp20
 70
     1
102
RTVSPropertyOp21
 70
     1
102
RTVSPropertyOp22
 70
     1
102
RTVSPropertyOp23
 70
     1
102
RTVSPropertyOp24
 70
     1
102
RTVSPropertyOp25
 70
     1
102
RTVSPropertyOp26
 70
     1
102
RTVSPropertyOp27
 70
     1
102
RTVSPropertyOp28
 70
     1
102
RTVSPropertyOp29
 70
     1
102
RTVSPropertyOp30
 70
     1
102
RTVSPropertyOp31
 70
     1
102
RTVSPropertyOp32
 70
     1
102
RTVSPropertyOp33
 70
     1
102
RTVSPropertyOp34
 70
     1
102
RTVSPropertyOp35
 70
     1
102
RTVSPropertyOp36
 70
     1
102
RTVSPropertyOp37
 70
     1
102
RTVSPropertyOp38
 70
     1
102
RTVSPropertyOp39
 70
     1
102
RTVSPropertyOp40
 70
     1
102
RTVSPropertyOp41
 70
     1
102
RTVSPropertyOp42
 70
     1
102
RTVSPropertyOp43
 70
     1
102
RTVSPropertyOp44
 70
     1
102
RTVSPropertyOp45
 70
     1
102
RTVSPropertyOp46
 70
     1
102
RTVSPropertyOp47
 70
     1
102
RTVSPropertyOp48
 70
     1
102
RTVSPropertyOp49
 70
     1
102
RTVSPropertyOp50
 70
     1
102
RTVSPropertyOp51
 70
     0
102
RTVSPropertyOp52
 70
     0
102
RTVSPropertyOp53
 70
     1
102
RTVSPropertyOp54
 70
     1
102
RTVSPropertyOp55
 70
     1
102
RTVSPropertyOp56
 70
     1
102
RTVSPropertyOp57
 70
     1
102
RTVSPropertyOp58
 70
     1
102
RTVSPropertyOp59
 70
     1
102
RTVSPropertyOp60
 70
     1
102
RTVSPropertyOp61
 70
     1
102
RTVSPropertyOp62
 70
     1
  0
XRECORD
  5
6C6
102
{ACAD_REACTORS
330
6C5
102
}
330
6C5
100
AcDbXrecord
280
     1
102
RTVSPost2010Prop28
280
     0
102
RTVSPost2010PropOp28
 70
     1
102
RTVSPost2010Prop29
280
     1
102
RTVSPost2010PropOp29
 70
     1
102
RTVSPost2010Prop30
280
     1
102
RTVSPost2010PropOp30
 70
     1
102
RTVSPost2010Prop31
280
     0
102
RTVSPost2010PropOp31
 70
     1
102
RTVSPost2010Prop32
280
     0
102
RTVSPost2010PropOp32
 70
     1
102
RTVSPost2010Prop33
280
     0
102
RTVSPost2010PropOp33
 70
     1
102
RTVSPost2010Prop34
280
     0
102
RTVSPost2010PropOp34
 70
     1
102
RTVSPost2010Prop35
280
     0
102
RTVSPost2010PropOp35
 70
     1
102
RTVSPost2010Prop36
280
     0
102
RTVSPost2010PropOp36
 70
     1
102
RTVSPost2010Prop37
 90
       50
102
RTVSPost2010PropOp37
 70
     0
102
RTVSPost2010Prop38
140
0.0
102
RTVSPost2010PropOp38
 70
     0
102
RTVSPost2010Prop39
140
1.0
102
RTVSPost2010PropOp39
 70
     0
102
RTVSPost2010Prop40
 90
        0
102
RTVSPost2010PropOp40
 70
     0
102
RTVSPost2010Prop41ColorIndex
 90
       18
102
RTVSPost2010Prop41ColorRGB
 90
        0
102
RTVSPost2010PropOp41
 70
     0
102
RTVSPost2010Prop42
 90
       50
102
RTVSPost2010PropOp42
 70
     0
102
RTVSPost2010Prop43
 90
        3
102
RTVSPost2010PropOp43
 70
     0
102
RTVSPost2010Prop44ColorIndex
 90
        5
102
RTVSPost2010Prop44ColorRGB
 90
      255
102
RTVSPost2010PropOp44
 70
     0
102
RTVSPost2010Prop45
280
     0
102
RTVSPost2010PropOp45
 70
     1
102
RTVSPost2010Prop46
 90
       50
102
RTVSPost2010PropOp46
 70
     0
102
RTVSPost2010Prop47
 90
       50
102
RTVSPost2010PropOp47
 70
     0
102
RTVSPost2010Prop48
 90
       50
102
RTVSPost2010PropOp48
 70
     0
102
RTVSPost2010Prop49
280
     0
102
RTVSPost2010PropOp49
 70
     1
102
RTVSPost2010Prop50
 90
       50
102
RTVSPost2010PropOp50
 70
     0
102
RTVSPost2010Prop51ColorIndex
 90
      256
102
RTVSPost2010Prop51ColorRGB
 90
-16777216
102
RTVSPost2010PropOp51
 70
     0
102
RTVSPost2010Prop52
140
1.0
102
RTVSPost2010PropOp52
 70
     0
102
RTVSPost2010Prop53
 90
        2
102
RTVSPost2010PropOp53
 70
     0
102
RTVSPost2010Prop54
  1
strokes_ogs.tif
102
RTVSPost2010PropOp54
 70
     0
102
RTVSPost2010Prop55
280
     0
102
RTVSPost2010PropOp55
 70
     1
102
RTVSPost2010Prop56
140
1.0
102
RTVSPost2010PropOp56
 70
     0
102
RTVSPost2010Prop57
140
1.0
102
RTVSPost2010PropOp57
 70
     0
102
RTVSPropertyOp0
 70
     0
102
RTVSPropertyOp1
 70
     0
102
RTVSPropertyOp2
 70
     0
102
RTVSPropertyOp3
 70
     0
102
RTVSPropertyOp4
 70
     0
102
RTVSPropertyOp5
 70
     0
102
RTVSPropertyOp6
 70
     0
102
RTVSPropertyOp7
 70
     0
102
RTVSPropertyOp8
 70
     0
102
RTVSPropertyOp9
 70
     0
102
RTVSPropertyOp10
 70
     0
102
RTVSPropertyOp11
 70
     0
102
RTVSPropertyOp12
 70
     0
102
RTVSPropertyOp13
 70
     0
102
RTVSPropertyOp14
 70
     2
102
RTVSPropertyOp15
 70
     0
102
RTVSPropertyOp16
 70
     0
102
RTVSPropertyOp17
 70
     0
102
RTVSPropertyOp18
 70
     0
102
RTVSPropertyOp19
 70
     0
102
RTVSPropertyOp20
 70
     0
102
RTVSPropertyOp21
 70
     0
102
RTVSPropertyOp22
 70
     0
102
RTVSPropertyOp23
 70
     0
102
RTVSPropertyOp24
 70
     0
102
RTVSPropertyOp25
 70
     0
102
RTVSPropertyOp26
 70
     0
102
RTVSPropertyOp27
 70
     0
102
RTVSPropertyOp28
 70
     1
102
RTVSPropertyOp29
 70
     1
102
RTVSPropertyOp30
 70
     1
102
RTVSPropertyOp31
 70
     1
102
RTVSPropertyOp32
 70
     1
102
RTVSPropertyOp33
 70
     1
102
RTVSPropertyOp34
 70
     1
102
RTVSPropertyOp35
 70
     1
102
RTVSPropertyOp36
 70
     1
102
RTVSPropertyOp37
 70
     0
102
RTVSPropertyOp38
 70
     0
102
RTVSPropertyOp39
 70
     0
102
RTVSPropertyOp40
 70
     0
102
RTVSPropertyOp41
 70
     0
102
RTVSPropertyOp42
 70
     0
102
RTVSPropertyOp43
 70
     0
102
RTVSPropertyOp44
 70
     0
102
RTVSPropertyOp45
 70
     1
102
RTVSPropertyOp46
 70
     0
102
RTVSPropertyOp47
 70
     0
102
RTVSPropertyOp48
 70
     0
102
RTVSPropertyOp49
 70
     1
102
RTVSPropertyOp50
 70
     0
102
RTVSPropertyOp51
 70
     0
102
RTVSPropertyOp52
 70
     0
102
RTVSPropertyOp53
 70
     0
102
RTVSPropertyOp54
 70
     0
102
RTVSPropertyOp55
 70
     1
102
RTVSPropertyOp56
 70
     0
102
RTVSPropertyOp57
 70
     0
102
RTVSPropertyOp58
 70
     0
102
RTVSPropertyOp59
 70
     0
102
RTVSPropertyOp60
 70
     0
102
RTVSPropertyOp61
 70
     0
102
RTVSPropertyOp62
 70
     0
  0
XRECORD
  5
6AC
102
{ACAD_REACTORS
330
6AB
102
}
330
6AB
100
AcDbXrecord
280
     1
102
RTVSPost2010Prop28
280
     0
102
RTVSPost2010PropOp28
 70
     1
102
RTVSPost2010Prop29
280
     1
102
RTVSPost2010PropOp29
 70
     1
102
RTVSPost2010Prop30
280
     1
102
RTVSPost2010PropOp30
 70
     1
102
RTVSPost2010Prop31
280
     0
102
RTVSPost2010PropOp31
 70
     1
102
RTVSPost2010Prop32
280
     0
102
RTVSPost2010PropOp32
 70
     1
102
RTVSPost2010Prop33
280
     0
102
RTVSPost2010PropOp33
 70
     1
102
RTVSPost2010Prop34
280
     0
102
RTVSPost2010PropOp34
 70
     1
102
RTVSPost2010Prop35
280
     0
102
RTVSPost2010PropOp35
 70
     1
102
RTVSPost2010Prop36
280
     0
102
RTVSPost2010PropOp36
 70
     1
102
RTVSPost2010Prop37
 90
       50
102
RTVSPost2010PropOp37
 70
     1
102
RTVSPost2010Prop38
140
0.0
102
RTVSPost2010PropOp38
 70
     1
102
RTVSPost2010Prop39
140
1.0
102
RTVSPost2010PropOp39
 70
     1
102
RTVSPost2010Prop40
 90
        0
102
RTVSPost2010PropOp40
 70
     1
102
RTVSPost2010Prop41ColorIndex
 90
       18
102
RTVSPost2010Prop41ColorRGB
 90
        0
102
RTVSPost2010PropOp41
 70
     1
102
RTVSPost2010Prop42
 90
       50
102
RTVSPost2010PropOp42
 70
     1
102
RTVSPost2010Prop43
 90
        3
102
RTVSPost2010PropOp43
 70
     1
102
RTVSPost2010Prop44ColorIndex
 90
        5
102
RTVSPost2010Prop44ColorRGB
 90
      255
102
RTVSPost2010PropOp44
 70
     1
102
RTVSPost2010Prop45
280
     0
102
RTVSPost2010PropOp45
 70
     1
102
RTVSPost2010Prop46
 90
       50
102
RTVSPost2010PropOp46
 70
     1
102
RTVSPost2010Prop47
 90
       50
102
RTVSPost2010PropOp47
 70
     1
102
RTVSPost2010Prop48
 90
       50
102
RTVSPost2010PropOp48
 70
     1
102
RTVSPost2010Prop49
280
     0
102
RTVSPost2010PropOp49
 70
     1
102
RTVSPost2010Prop50
 90
       50
102
RTVSPost2010PropOp50
 70
     1
102
RTVSPost2010Prop51ColorIndex
 90
      256
102
RTVSPost2010Prop51ColorRGB
 90
-16777216
102
RTVSPost2010PropOp51
 70
     0
102
RTVSPost2010Prop52
140
1.0
102
RTVSPost2010PropOp52
 70
     0
102
RTVSPost2010Prop53
 90
        2
102
RTVSPost2010PropOp53
 70
     1
102
RTVSPost2010Prop54
  1
strokes_ogs.tif
102
RTVSPost2010PropOp54
 70
     1
102
RTVSPost2010Prop55
280
     0
102
RTVSPost2010PropOp55
 70
     1
102
RTVSPost2010Prop56
140
1.0
102
RTVSPost2010PropOp56
 70
     1
102
RTVSPost2010Prop57
140
1.0
102
RTVSPost2010PropOp57
 70
     1
102
RTVSPropertyOp0
 70
     1
102
RTVSPropertyOp1
 70
     1
102
RTVSPropertyOp2
 70
     1
102
RTVSPropertyOp3
 70
     1
102
RTVSPropertyOp4
 70
     1
102
RTVSPropertyOp5
 70
     1
102
RTVSPropertyOp6
 70
     1
102
RTVSPropertyOp7
 70
     1
102
RTVSPropertyOp8
 70
     1
102
RTVSPropertyOp9
 70
     1
102
RTVSPropertyOp10
 70
     1
102
RTVSPropertyOp11
 70
     1
102
RTVSPropertyOp12
 70
     1
102
RTVSPropertyOp13
 70
     1
102
RTVSPropertyOp14
 70
     1
102
RTVSPropertyOp15
 70
     1
102
RTVSPropertyOp16
 70
     1
102
RTVSPropertyOp17
 70
     1
102
RTVSPropertyOp18
 70
     1
102
RTVSPropertyOp19
 70
     1
102
RTVSPropertyOp20
 70
     1
102
RTVSPropertyOp21
 70
     1
102
RTVSPropertyOp22
 70
     1
102
RTVSPropertyOp23
 70
     1
102
RTVSPropertyOp24
 70
     1
102
RTVSPropertyOp25
 70
     1
102
RTVSPropertyOp26
 70
     1
102
RTVSPropertyOp27
 70
     1
102
RTVSPropertyOp28
 70
     1
102
RTVSPropertyOp29
 70
     1
102
RTVSPropertyOp30
 70
     1
102
RTVSPropertyOp31
 70
     1
102
RTVSPropertyOp32
 70
     1
102
RTVSPropertyOp33
 70
     1
102
RTVSPropertyOp34
 70
     1
102
RTVSPropertyOp35
 70
     1
102
RTVSPropertyOp36
 70
     1
102
RTVSPropertyOp37
 70
     1
102
RTVSPropertyOp38
 70
     1
102
RTVSPropertyOp39
 70
     1
102
RTVSPropertyOp40
 70
     1
102
RTVSPropertyOp41
 70
     1
102
RTVSPropertyOp42
 70
     1
102
RTVSPropertyOp43
 70
     1
102
RTVSPropertyOp44
 70
     1
102
RTVSPropertyOp45
 70
     1
102
RTVSPropertyOp46
 70
     1
102
RTVSPropertyOp47
 70
     1
102
RTVSPropertyOp48
 70
     1
102
RTVSPropertyOp49
 70
     1
102
RTVSPropertyOp50
 70
     1
102
RTVSPropertyOp51
 70
     0
102
RTVSPropertyOp52
 70
     0
102
RTVSPropertyOp53
 70
     1
102
RTVSPropertyOp54
 70
     1
102
RTVSPropertyOp55
 70
     1
102
RTVSPropertyOp56
 70
     1
102
RTVSPropertyOp57
 70
     1
102
RTVSPropertyOp58
 70
     1
102
RTVSPropertyOp59
 70
     1
102
RTVSPropertyOp60
 70
     1
102
RTVSPropertyOp61
 70
     1
102
RTVSPropertyOp62
 70
     1
  0
XRECORD
  5
6C2
102
{ACAD_REACTORS
330
6C1
102
}
330
6C1
100
AcDbXrecord
280
     1
102
RTVSPost2010Prop28
280
     0
102
RTVSPost2010PropOp28
 70
     1
102
RTVSPost2010Prop29
280
     1
102
RTVSPost2010PropOp29
 70
     1
102
RTVSPost2010Prop30
280
     1
102
RTVSPost2010PropOp30
 70
     1
102
RTVSPost2010Prop31
280
     0
102
RTVSPost2010PropOp31
 70
     1
102
RTVSPost2010Prop32
280
     0
102
RTVSPost2010PropOp32
 70
     1
102
RTVSPost2010Prop33
280
     0
102
RTVSPost2010PropOp33
 70
     1
102
RTVSPost2010Prop34
280
     0
102
RTVSPost2010PropOp34
 70
     1
102
RTVSPost2010Prop35
280
     0
102
RTVSPost2010PropOp35
 70
     1
102
RTVSPost2010Prop36
280
     0
102
RTVSPost2010PropOp36
 70
     1
102
RTVSPost2010Prop37
 90
       50
102
RTVSPost2010PropOp37
 70
     1
102
RTVSPost2010Prop38
140
0.0
102
RTVSPost2010PropOp38
 70
     1
102
RTVSPost2010Prop39
140
1.0
102
RTVSPost2010PropOp39
 70
     1
102
RTVSPost2010Prop40
 90
        0
102
RTVSPost2010PropOp40
 70
     1
102
RTVSPost2010Prop41ColorIndex
 90
       18
102
RTVSPost2010Prop41ColorRGB
 90
        0
102
RTVSPost2010PropOp41
 70
     1
102
RTVSPost2010Prop42
 90
       50
102
RTVSPost2010PropOp42
 70
     1
102
RTVSPost2010Prop43
 90
        3
102
RTVSPost2010PropOp43
 70
     1
102
RTVSPost2010Prop44ColorIndex
 90
        5
102
RTVSPost2010Prop44ColorRGB
 90
      255
102
RTVSPost2010PropOp44
 70
     1
102
RTVSPost2010Prop45
280
     0
102
RTVSPost2010PropOp45
 70
     1
102
RTVSPost2010Prop46
 90
       50
102
RTVSPost2010PropOp46
 70
     1
102
RTVSPost2010Prop47
 90
       50
102
RTVSPost2010PropOp47
 70
     1
102
RTVSPost2010Prop48
 90
       50
102
RTVSPost2010PropOp48
 70
     1
102
RTVSPost2010Prop49
280
     0
102
RTVSPost2010PropOp49
 70
     1
102
RTVSPost2010Prop50
 90
       50
102
RTVSPost2010PropOp50
 70
     1
102
RTVSPost2010Prop51ColorIndex
 90
      256
102
RTVSPost2010Prop51ColorRGB
 90
-16777216
102
RTVSPost2010PropOp51
 70
     0
102
RTVSPost2010Prop52
140
1.0
102
RTVSPost2010PropOp52
 70
     0
102
RTVSPost2010Prop53
 90
        2
102
RTVSPost2010PropOp53
 70
     1
102
RTVSPost2010Prop54
  1
strokes_ogs.tif
102
RTVSPost2010PropOp54
 70
     1
102
RTVSPost2010Prop55
280
     0
102
RTVSPost2010PropOp55
 70
     1
102
RTVSPost2010Prop56
140
1.0
102
RTVSPost2010PropOp56
 70
     1
102
RTVSPost2010Prop57
140
1.0
102
RTVSPost2010PropOp57
 70
     1
102
RTVSPropertyOp0
 70
     1
102
RTVSPropertyOp1
 70
     1
102
RTVSPropertyOp2
 70
     1
102
RTVSPropertyOp3
 70
     1
102
RTVSPropertyOp4
 70
     1
102
RTVSPropertyOp5
 70
     1
102
RTVSPropertyOp6
 70
     1
102
RTVSPropertyOp7
 70
     1
102
RTVSPropertyOp8
 70
     1
102
RTVSPropertyOp9
 70
     1
102
RTVSPropertyOp10
 70
     1
102
RTVSPropertyOp11
 70
     1
102
RTVSPropertyOp12
 70
     1
102
RTVSPropertyOp13
 70
     1
102
RTVSPropertyOp14
 70
     1
102
RTVSPropertyOp15
 70
     1
102
RTVSPropertyOp16
 70
     1
102
RTVSPropertyOp17
 70
     1
102
RTVSPropertyOp18
 70
     1
102
RTVSPropertyOp19
 70
     1
102
RTVSPropertyOp20
 70
     1
102
RTVSPropertyOp21
 70
     1
102
RTVSPropertyOp22
 70
     1
102
RTVSPropertyOp23
 70
     1
102
RTVSPropertyOp24
 70
     1
102
RTVSPropertyOp25
 70
     1
102
RTVSPropertyOp26
 70
     1
102
RTVSPropertyOp27
 70
     1
102
RTVSPropertyOp28
 70
     1
102
RTVSPropertyOp29
 70
     1
102
RTVSPropertyOp30
 70
     1
102
RTVSPropertyOp31
 70
     1
102
RTVSPropertyOp32
 70
     1
102
RTVSPropertyOp33
 70
     1
102
RTVSPropertyOp34
 70
     1
102
RTVSPropertyOp35
 70
     1
102
RTVSPropertyOp36
 70
     1
102
RTVSPropertyOp37
 70
     1
102
RTVSPropertyOp38
 70
     1
102
RTVSPropertyOp39
 70
     1
102
RTVSPropertyOp40
 70
     1
102
RTVSPropertyOp41
 70
     1
102
RTVSPropertyOp42
 70
     1
102
RTVSPropertyOp43
 70
     1
102
RTVSPropertyOp44
 70
     1
102
RTVSPropertyOp45
 70
     1
102
RTVSPropertyOp46
 70
     1
102
RTVSPropertyOp47
 70
     1
102
RTVSPropertyOp48
 70
     1
102
RTVSPropertyOp49
 70
     1
102
RTVSPropertyOp50
 70
     1
102
RTVSPropertyOp51
 70
     0
102
RTVSPropertyOp52
 70
     0
102
RTVSPropertyOp53
 70
     1
102
RTVSPropertyOp54
 70
     1
102
RTVSPropertyOp55
 70
     1
102
RTVSPropertyOp56
 70
     1
102
RTVSPropertyOp57
 70
     1
102
RTVSPropertyOp58
 70
     1
102
RTVSPropertyOp59
 70
     1
102
RTVSPropertyOp60
 70
     1
102
RTVSPropertyOp61
 70
     1
102
RTVSPropertyOp62
 70
     1
  0
XRECORD
  5
6C0
102
{ACAD_REACTORS
330
6BF
102
}
330
6BF
100
AcDbXrecord
280
     1
102
RTVSPost2010Prop28
280
     0
102
RTVSPost2010PropOp28
 70
     1
102
RTVSPost2010Prop29
280
     1
102
RTVSPost2010PropOp29
 70
     1
102
RTVSPost2010Prop30
280
     1
102
RTVSPost2010PropOp30
 70
     1
102
RTVSPost2010Prop31
280
     0
102
RTVSPost2010PropOp31
 70
     1
102
RTVSPost2010Prop32
280
     0
102
RTVSPost2010PropOp32
 70
     1
102
RTVSPost2010Prop33
280
     0
102
RTVSPost2010PropOp33
 70
     1
102
RTVSPost2010Prop34
280
     0
102
RTVSPost2010PropOp34
 70
     1
102
RTVSPost2010Prop35
280
     0
102
RTVSPost2010PropOp35
 70
     1
102
RTVSPost2010Prop36
280
     0
102
RTVSPost2010PropOp36
 70
     1
102
RTVSPost2010Prop37
 90
       50
102
RTVSPost2010PropOp37
 70
     1
102
RTVSPost2010Prop38
140
0.0
102
RTVSPost2010PropOp38
 70
     1
102
RTVSPost2010Prop39
140
1.0
102
RTVSPost2010PropOp39
 70
     1
102
RTVSPost2010Prop40
 90
        0
102
RTVSPost2010PropOp40
 70
     1
102
RTVSPost2010Prop41ColorIndex
 90
       18
102
RTVSPost2010Prop41ColorRGB
 90
        0
102
RTVSPost2010PropOp41
 70
     1
102
RTVSPost2010Prop42
 90
       50
102
RTVSPost2010PropOp42
 70
     1
102
RTVSPost2010Prop43
 90
        3
102
RTVSPost2010PropOp43
 70
     1
102
RTVSPost2010Prop44ColorIndex
 90
        5
102
RTVSPost2010Prop44ColorRGB
 90
      255
102
RTVSPost2010PropOp44
 70
     1
102
RTVSPost2010Prop45
280
     0
102
RTVSPost2010PropOp45
 70
     1
102
RTVSPost2010Prop46
 90
       50
102
RTVSPost2010PropOp46
 70
     1
102
RTVSPost2010Prop47
 90
       50
102
RTVSPost2010PropOp47
 70
     1
102
RTVSPost2010Prop48
 90
       50
102
RTVSPost2010PropOp48
 70
     1
102
RTVSPost2010Prop49
280
     0
102
RTVSPost2010PropOp49
 70
     1
102
RTVSPost2010Prop50
 90
       50
102
RTVSPost2010PropOp50
 70
     1
102
RTVSPost2010Prop51ColorIndex
 90
      256
102
RTVSPost2010Prop51ColorRGB
 90
-16777216
102
RTVSPost2010PropOp51
 70
     0
102
RTVSPost2010Prop52
140
1.0
102
RTVSPost2010PropOp52
 70
     0
102
RTVSPost2010Prop53
 90
        2
102
RTVSPost2010PropOp53
 70
     1
102
RTVSPost2010Prop54
  1
strokes_ogs.tif
102
RTVSPost2010PropOp54
 70
     1
102
RTVSPost2010Prop55
280
     0
102
RTVSPost2010PropOp55
 70
     1
102
RTVSPost2010Prop56
140
1.0
102
RTVSPost2010PropOp56
 70
     1
102
RTVSPost2010Prop57
140
1.0
102
RTVSPost2010PropOp57
 70
     1
102
RTVSPropertyOp0
 70
     1
102
RTVSPropertyOp1
 70
     1
102
RTVSPropertyOp2
 70
     1
102
RTVSPropertyOp3
 70
     1
102
RTVSPropertyOp4
 70
     1
102
RTVSPropertyOp5
 70
     1
102
RTVSPropertyOp6
 70
     1
102
RTVSPropertyOp7
 70
     1
102
RTVSPropertyOp8
 70
     1
102
RTVSPropertyOp9
 70
     1
102
RTVSPropertyOp10
 70
     1
102
RTVSPropertyOp11
 70
     1
102
RTVSPropertyOp12
 70
     1
102
RTVSPropertyOp13
 70
     1
102
RTVSPropertyOp14
 70
     1
102
RTVSPropertyOp15
 70
     1
102
RTVSPropertyOp16
 70
     1
102
RTVSPropertyOp17
 70
     1
102
RTVSPropertyOp18
 70
     1
102
RTVSPropertyOp19
 70
     1
102
RTVSPropertyOp20
 70
     1
102
RTVSPropertyOp21
 70
     1
102
RTVSPropertyOp22
 70
     1
102
RTVSPropertyOp23
 70
     1
102
RTVSPropertyOp24
 70
     1
102
RTVSPropertyOp25
 70
     1
102
RTVSPropertyOp26
 70
     1
102
RTVSPropertyOp27
 70
     1
102
RTVSPropertyOp28
 70
     1
102
RTVSPropertyOp29
 70
     1
102
RTVSPropertyOp30
 70
     1
102
RTVSPropertyOp31
 70
     1
102
RTVSPropertyOp32
 70
     1
102
RTVSPropertyOp33
 70
     1
102
RTVSPropertyOp34
 70
     1
102
RTVSPropertyOp35
 70
     1
102
RTVSPropertyOp36
 70
     1
102
RTVSPropertyOp37
 70
     1
102
RTVSPropertyOp38
 70
     1
102
RTVSPropertyOp39
 70
     1
102
RTVSPropertyOp40
 70
     1
102
RTVSPropertyOp41
 70
     1
102
RTVSPropertyOp42
 70
     1
102
RTVSPropertyOp43
 70
     1
102
RTVSPropertyOp44
 70
     1
102
RTVSPropertyOp45
 70
     1
102
RTVSPropertyOp46
 70
     1
102
RTVSPropertyOp47
 70
     1
102
RTVSPropertyOp48
 70
     1
102
RTVSPropertyOp49
 70
     1
102
RTVSPropertyOp50
 70
     1
102
RTVSPropertyOp51
 70
     0
102
RTVSPropertyOp52
 70
     0
102
RTVSPropertyOp53
 70
     1
102
RTVSPropertyOp54
 70
     1
102
RTVSPropertyOp55
 70
     1
102
RTVSPropertyOp56
 70
     1
102
RTVSPropertyOp57
 70
     1
102
RTVSPropertyOp58
 70
     1
102
RTVSPropertyOp59
 70
     1
102
RTVSPropertyOp60
 70
     1
102
RTVSPropertyOp61
 70
     1
102
RTVSPropertyOp62
 70
     1
  0
XRECORD
  5
6BA
102
{ACAD_REACTORS
330
6B9
102
}
330
6B9
100
AcDbXrecord
280
     1
102
RTVSPost2010Prop28
280
     0
102
RTVSPost2010PropOp28
 70
     1
102
RTVSPost2010Prop29
280
     1
102
RTVSPost2010PropOp29
 70
     1
102
RTVSPost2010Prop30
280
     1
102
RTVSPost2010PropOp30
 70
     1
102
RTVSPost2010Prop31
280
     0
102
RTVSPost2010PropOp31
 70
     1
102
RTVSPost2010Prop32
280
     0
102
RTVSPost2010PropOp32
 70
     1
102
RTVSPost2010Prop33
280
     0
102
RTVSPost2010PropOp33
 70
     1
102
RTVSPost2010Prop34
280
     0
102
RTVSPost2010PropOp34
 70
     1
102
RTVSPost2010Prop35
280
     0
102
RTVSPost2010PropOp35
 70
     1
102
RTVSPost2010Prop36
280
     0
102
RTVSPost2010PropOp36
 70
     1
102
RTVSPost2010Prop37
 90
       50
102
RTVSPost2010PropOp37
 70
     1
102
RTVSPost2010Prop38
140
0.0
102
RTVSPost2010PropOp38
 70
     1
102
RTVSPost2010Prop39
140
1.0
102
RTVSPost2010PropOp39
 70
     1
102
RTVSPost2010Prop40
 90
        0
102
RTVSPost2010PropOp40
 70
     1
102
RTVSPost2010Prop41ColorIndex
 90
       18
102
RTVSPost2010Prop41ColorRGB
 90
        0
102
RTVSPost2010PropOp41
 70
     1
102
RTVSPost2010Prop42
 90
       50
102
RTVSPost2010PropOp42
 70
     1
102
RTVSPost2010Prop43
 90
        3
102
RTVSPost2010PropOp43
 70
     1
102
RTVSPost2010Prop44ColorIndex
 90
        5
102
RTVSPost2010Prop44ColorRGB
 90
      255
102
RTVSPost2010PropOp44
 70
     1
102
RTVSPost2010Prop45
280
     0
102
RTVSPost2010PropOp45
 70
     1
102
RTVSPost2010Prop46
 90
       50
102
RTVSPost2010PropOp46
 70
     1
102
RTVSPost2010Prop47
 90
       50
102
RTVSPost2010PropOp47
 70
     1
102
RTVSPost2010Prop48
 90
       50
102
RTVSPost2010PropOp48
 70
     1
102
RTVSPost2010Prop49
280
     0
102
RTVSPost2010PropOp49
 70
     1
102
RTVSPost2010Prop50
 90
       50
102
RTVSPost2010PropOp50
 70
     1
102
RTVSPost2010Prop51ColorIndex
 90
      256
102
RTVSPost2010Prop51ColorRGB
 90
-16777216
102
RTVSPost2010PropOp51
 70
     0
102
RTVSPost2010Prop52
140
1.0
102
RTVSPost2010PropOp52
 70
     0
102
RTVSPost2010Prop53
 90
        2
102
RTVSPost2010PropOp53
 70
     1
102
RTVSPost2010Prop54
  1
strokes_ogs.tif
102
RTVSPost2010PropOp54
 70
     1
102
RTVSPost2010Prop55
280
     0
102
RTVSPost2010PropOp55
 70
     1
102
RTVSPost2010Prop56
140
1.0
102
RTVSPost2010PropOp56
 70
     1
102
RTVSPost2010Prop57
140
1.0
102
RTVSPost2010PropOp57
 70
     1
102
RTVSPropertyOp0
 70
     1
102
RTVSPropertyOp1
 70
     1
102
RTVSPropertyOp2
 70
     1
102
RTVSPropertyOp3
 70
     1
102
RTVSPropertyOp4
 70
     1
102
RTVSPropertyOp5
 70
     1
102
RTVSPropertyOp6
 70
     1
102
RTVSPropertyOp7
 70
     1
102
RTVSPropertyOp8
 70
     1
102
RTVSPropertyOp9
 70
     1
102
RTVSPropertyOp10
 70
     1
102
RTVSPropertyOp11
 70
     1
102
RTVSPropertyOp12
 70
     1
102
RTVSPropertyOp13
 70
     1
102
RTVSPropertyOp14
 70
     1
102
RTVSPropertyOp15
 70
     1
102
RTVSPropertyOp16
 70
     1
102
RTVSPropertyOp17
 70
     1
102
RTVSPropertyOp18
 70
     1
102
RTVSPropertyOp19
 70
     1
102
RTVSPropertyOp20
 70
     1
102
RTVSPropertyOp21
 70
     1
102
RTVSPropertyOp22
 70
     1
102
RTVSPropertyOp23
 70
     1
102
RTVSPropertyOp24
 70
     1
102
RTVSPropertyOp25
 70
     1
102
RTVSPropertyOp26
 70
     1
102
RTVSPropertyOp27
 70
     1
102
RTVSPropertyOp28
 70
     1
102
RTVSPropertyOp29
 70
     1
102
RTVSPropertyOp30
 70
     1
102
RTVSPropertyOp31
 70
     1
102
RTVSPropertyOp32
 70
     1
102
RTVSPropertyOp33
 70
     1
102
RTVSPropertyOp34
 70
     1
102
RTVSPropertyOp35
 70
     1
102
RTVSPropertyOp36
 70
     1
102
RTVSPropertyOp37
 70
     1
102
RTVSPropertyOp38
 70
     1
102
RTVSPropertyOp39
 70
     1
102
RTVSPropertyOp40
 70
     1
102
RTVSPropertyOp41
 70
     1
102
RTVSPropertyOp42
 70
     1
102
RTVSPropertyOp43
 70
     1
102
RTVSPropertyOp44
 70
     1
102
RTVSPropertyOp45
 70
     1
102
RTVSPropertyOp46
 70
     1
102
RTVSPropertyOp47
 70
     1
102
RTVSPropertyOp48
 70
     1
102
RTVSPropertyOp49
 70
     1
102
RTVSPropertyOp50
 70
     1
102
RTVSPropertyOp51
 70
     0
102
RTVSPropertyOp52
 70
     0
102
RTVSPropertyOp53
 70
     1
102
RTVSPropertyOp54
 70
     1
102
RTVSPropertyOp55
 70
     1
102
RTVSPropertyOp56
 70
     1
102
RTVSPropertyOp57
 70
     1
102
RTVSPropertyOp58
 70
     1
102
RTVSPropertyOp59
 70
     1
102
RTVSPropertyOp60
 70
     1
102
RTVSPropertyOp61
 70
     1
102
RTVSPropertyOp62
 70
     1
  0
XRECORD
  5
6BC
102
{ACAD_REACTORS
330
6BB
102
}
330
6BB
100
AcDbXrecord
280
     1
102
RTVSPost2010Prop28
280
     0
102
RTVSPost2010PropOp28
 70
     1
102
RTVSPost2010Prop29
280
     1
102
RTVSPost2010PropOp29
 70
     1
102
RTVSPost2010Prop30
280
     1
102
RTVSPost2010PropOp30
 70
     1
102
RTVSPost2010Prop31
280
     0
102
RTVSPost2010PropOp31
 70
     1
102
RTVSPost2010Prop32
280
     0
102
RTVSPost2010PropOp32
 70
     1
102
RTVSPost2010Prop33
280
     0
102
RTVSPost2010PropOp33
 70
     1
102
RTVSPost2010Prop34
280
     0
102
RTVSPost2010PropOp34
 70
     1
102
RTVSPost2010Prop35
280
     0
102
RTVSPost2010PropOp35
 70
     1
102
RTVSPost2010Prop36
280
     0
102
RTVSPost2010PropOp36
 70
     1
102
RTVSPost2010Prop37
 90
       50
102
RTVSPost2010PropOp37
 70
     1
102
RTVSPost2010Prop38
140
0.0
102
RTVSPost2010PropOp38
 70
     1
102
RTVSPost2010Prop39
140
1.0
102
RTVSPost2010PropOp39
 70
     1
102
RTVSPost2010Prop40
 90
        0
102
RTVSPost2010PropOp40
 70
     1
102
RTVSPost2010Prop41ColorIndex
 90
       18
102
RTVSPost2010Prop41ColorRGB
 90
        0
102
RTVSPost2010PropOp41
 70
     1
102
RTVSPost2010Prop42
 90
       50
102
RTVSPost2010PropOp42
 70
     1
102
RTVSPost2010Prop43
 90
        3
102
RTVSPost2010PropOp43
 70
     1
102
RTVSPost2010Prop44ColorIndex
 90
        5
102
RTVSPost2010Prop44ColorRGB
 90
      255
102
RTVSPost2010PropOp44
 70
     1
102
RTVSPost2010Prop45
280
     0
102
RTVSPost2010PropOp45
 70
     1
102
RTVSPost2010Prop46
 90
       50
102
RTVSPost2010PropOp46
 70
     1
102
RTVSPost2010Prop47
 90
       50
102
RTVSPost2010PropOp47
 70
     1
102
RTVSPost2010Prop48
 90
       50
102
RTVSPost2010PropOp48
 70
     1
102
RTVSPost2010Prop49
280
     0
102
RTVSPost2010PropOp49
 70
     1
102
RTVSPost2010Prop50
 90
       50
102
RTVSPost2010PropOp50
 70
     1
102
RTVSPost2010Prop51ColorIndex
 90
      256
102
RTVSPost2010Prop51ColorRGB
 90
-16777216
102
RTVSPost2010PropOp51
 70
     0
102
RTVSPost2010Prop52
140
1.0
102
RTVSPost2010PropOp52
 70
     0
102
RTVSPost2010Prop53
 90
        2
102
RTVSPost2010PropOp53
 70
     1
102
RTVSPost2010Prop54
  1
strokes_ogs.tif
102
RTVSPost2010PropOp54
 70
     1
102
RTVSPost2010Prop55
280
     0
102
RTVSPost2010PropOp55
 70
     1
102
RTVSPost2010Prop56
140
1.0
102
RTVSPost2010PropOp56
 70
     1
102
RTVSPost2010Prop57
140
1.0
102
RTVSPost2010PropOp57
 70
     1
102
RTVSPropertyOp0
 70
     1
102
RTVSPropertyOp1
 70
     1
102
RTVSPropertyOp2
 70
     1
102
RTVSPropertyOp3
 70
     1
102
RTVSPropertyOp4
 70
     1
102
RTVSPropertyOp5
 70
     1
102
RTVSPropertyOp6
 70
     1
102
RTVSPropertyOp7
 70
     1
102
RTVSPropertyOp8
 70
     1
102
RTVSPropertyOp9
 70
     1
102
RTVSPropertyOp10
 70
     1
102
RTVSPropertyOp11
 70
     1
102
RTVSPropertyOp12
 70
     1
102
RTVSPropertyOp13
 70
     1
102
RTVSPropertyOp14
 70
     1
102
RTVSPropertyOp15
 70
     1
102
RTVSPropertyOp16
 70
     1
102
RTVSPropertyOp17
 70
     1
102
RTVSPropertyOp18
 70
     1
102
RTVSPropertyOp19
 70
     1
102
RTVSPropertyOp20
 70
     1
102
RTVSPropertyOp21
 70
     1
102
RTVSPropertyOp22
 70
     1
102
RTVSPropertyOp23
 70
     1
102
RTVSPropertyOp24
 70
     1
102
RTVSPropertyOp25
 70
     1
102
RTVSPropertyOp26
 70
     1
102
RTVSPropertyOp27
 70
     1
102
RTVSPropertyOp28
 70
     1
102
RTVSPropertyOp29
 70
     1
102
RTVSPropertyOp30
 70
     1
102
RTVSPropertyOp31
 70
     1
102
RTVSPropertyOp32
 70
     1
102
RTVSPropertyOp33
 70
     1
102
RTVSPropertyOp34
 70
     1
102
RTVSPropertyOp35
 70
     1
102
RTVSPropertyOp36
 70
     1
102
RTVSPropertyOp37
 70
     1
102
RTVSPropertyOp38
 70
     1
102
RTVSPropertyOp39
 70
     1
102
RTVSPropertyOp40
 70
     1
102
RTVSPropertyOp41
 70
     1
102
RTVSPropertyOp42
 70
     1
102
RTVSPropertyOp43
 70
     1
102
RTVSPropertyOp44
 70
     1
102
RTVSPropertyOp45
 70
     1
102
RTVSPropertyOp46
 70
     1
102
RTVSPropertyOp47
 70
     1
102
RTVSPropertyOp48
 70
     1
102
RTVSPropertyOp49
 70
     1
102
RTVSPropertyOp50
 70
     1
102
RTVSPropertyOp51
 70
     0
102
RTVSPropertyOp52
 70
     0
102
RTVSPropertyOp53
 70
     1
102
RTVSPropertyOp54
 70
     1
102
RTVSPropertyOp55
 70
     1
102
RTVSPropertyOp56
 70
     1
102
RTVSPropertyOp57
 70
     1
102
RTVSPropertyOp58
 70
     1
102
RTVSPropertyOp59
 70
     1
102
RTVSPropertyOp60
 70
     1
102
RTVSPropertyOp61
 70
     1
102
RTVSPropertyOp62
 70
     1
  0
XRECORD
  5
6B2
102
{ACAD_REACTORS
330
6B1
102
}
330
6B1
100
AcDbXrecord
280
     1
102
RTVSPost2010Prop28
280
     0
102
RTVSPost2010PropOp28
 70
     1
102
RTVSPost2010Prop29
280
     1
102
RTVSPost2010PropOp29
 70
     1
102
RTVSPost2010Prop30
280
     1
102
RTVSPost2010PropOp30
 70
     1
102
RTVSPost2010Prop31
280
     0
102
RTVSPost2010PropOp31
 70
     1
102
RTVSPost2010Prop32
280
     0
102
RTVSPost2010PropOp32
 70
     1
102
RTVSPost2010Prop33
280
     0
102
RTVSPost2010PropOp33
 70
     1
102
RTVSPost2010Prop34
280
     0
102
RTVSPost2010PropOp34
 70
     1
102
RTVSPost2010Prop35
280
     0
102
RTVSPost2010PropOp35
 70
     1
102
RTVSPost2010Prop36
280
     0
102
RTVSPost2010PropOp36
 70
     1
102
RTVSPost2010Prop37
 90
       50
102
RTVSPost2010PropOp37
 70
     1
102
RTVSPost2010Prop38
140
0.0
102
RTVSPost2010PropOp38
 70
     1
102
RTVSPost2010Prop39
140
1.0
102
RTVSPost2010PropOp39
 70
     1
102
RTVSPost2010Prop40
 90
        0
102
RTVSPost2010PropOp40
 70
     1
102
RTVSPost2010Prop41ColorIndex
 90
       18
102
RTVSPost2010Prop41ColorRGB
 90
        0
102
RTVSPost2010PropOp41
 70
     1
102
RTVSPost2010Prop42
 90
       50
102
RTVSPost2010PropOp42
 70
     1
102
RTVSPost2010Prop43
 90
        3
102
RTVSPost2010PropOp43
 70
     1
102
RTVSPost2010Prop44ColorIndex
 90
        5
102
RTVSPost2010Prop44ColorRGB
 90
      255
102
RTVSPost2010PropOp44
 70
     1
102
RTVSPost2010Prop45
280
     0
102
RTVSPost2010PropOp45
 70
     1
102
RTVSPost2010Prop46
 90
       50
102
RTVSPost2010PropOp46
 70
     1
102
RTVSPost2010Prop47
 90
       50
102
RTVSPost2010PropOp47
 70
     1
102
RTVSPost2010Prop48
 90
       50
102
RTVSPost2010PropOp48
 70
     1
102
RTVSPost2010Prop49
280
     0
102
RTVSPost2010PropOp49
 70
     1
102
RTVSPost2010Prop50
 90
       50
102
RTVSPost2010PropOp50
 70
     1
102
RTVSPost2010Prop51ColorIndex
 90
      256
102
RTVSPost2010Prop51ColorRGB
 90
-16777216
102
RTVSPost2010PropOp51
 70
     0
102
RTVSPost2010Prop52
140
1.0
102
RTVSPost2010PropOp52
 70
     0
102
RTVSPost2010Prop53
 90
        2
102
RTVSPost2010PropOp53
 70
     1
102
RTVSPost2010Prop54
  1
strokes_ogs.tif
102
RTVSPost2010PropOp54
 70
     1
102
RTVSPost2010Prop55
280
     0
102
RTVSPost2010PropOp55
 70
     1
102
RTVSPost2010Prop56
140
1.0
102
RTVSPost2010PropOp56
 70
     1
102
RTVSPost2010Prop57
140
1.0
102
RTVSPost2010PropOp57
 70
     1
102
RTVSPropertyOp0
 70
     1
102
RTVSPropertyOp1
 70
     1
102
RTVSPropertyOp2
 70
     1
102
RTVSPropertyOp3
 70
     1
102
RTVSPropertyOp4
 70
     1
102
RTVSPropertyOp5
 70
     1
102
RTVSPropertyOp6
 70
     1
102
RTVSPropertyOp7
 70
     1
102
RTVSPropertyOp8
 70
     1
102
RTVSPropertyOp9
 70
     1
102
RTVSPropertyOp10
 70
     1
102
RTVSPropertyOp11
 70
     1
102
RTVSPropertyOp12
 70
     1
102
RTVSPropertyOp13
 70
     1
102
RTVSPropertyOp14
 70
     1
102
RTVSPropertyOp15
 70
     1
102
RTVSPropertyOp16
 70
     1
102
RTVSPropertyOp17
 70
     1
102
RTVSPropertyOp18
 70
     1
102
RTVSPropertyOp19
 70
     1
102
RTVSPropertyOp20
 70
     1
102
RTVSPropertyOp21
 70
     1
102
RTVSPropertyOp22
 70
     1
102
RTVSPropertyOp23
 70
     1
102
RTVSPropertyOp24
 70
     1
102
RTVSPropertyOp25
 70
     1
102
RTVSPropertyOp26
 70
     1
102
RTVSPropertyOp27
 70
     1
102
RTVSPropertyOp28
 70
     1
102
RTVSPropertyOp29
 70
     1
102
RTVSPropertyOp30
 70
     1
102
RTVSPropertyOp31
 70
     1
102
RTVSPropertyOp32
 70
     1
102
RTVSPropertyOp33
 70
     1
102
RTVSPropertyOp34
 70
     1
102
RTVSPropertyOp35
 70
     1
102
RTVSPropertyOp36
 70
     1
102
RTVSPropertyOp37
 70
     1
102
RTVSPropertyOp38
 70
     1
102
RTVSPropertyOp39
 70
     1
102
RTVSPropertyOp40
 70
     1
102
RTVSPropertyOp41
 70
     1
102
RTVSPropertyOp42
 70
     1
102
RTVSPropertyOp43
 70
     1
102
RTVSPropertyOp44
 70
     1
102
RTVSPropertyOp45
 70
     1
102
RTVSPropertyOp46
 70
     1
102
RTVSPropertyOp47
 70
     1
102
RTVSPropertyOp48
 70
     1
102
RTVSPropertyOp49
 70
     1
102
RTVSPropertyOp50
 70
     1
102
RTVSPropertyOp51
 70
     0
102
RTVSPropertyOp52
 70
     0
102
RTVSPropertyOp53
 70
     1
102
RTVSPropertyOp54
 70
     1
102
RTVSPropertyOp55
 70
     1
102
RTVSPropertyOp56
 70
     1
102
RTVSPropertyOp57
 70
     1
102
RTVSPropertyOp58
 70
     1
102
RTVSPropertyOp59
 70
     1
102
RTVSPropertyOp60
 70
     1
102
RTVSPropertyOp61
 70
     1
102
RTVSPropertyOp62
 70
     1
  0
XRECORD
  5
6A6
102
{ACAD_REACTORS
330
6A5
102
}
330
6A5
100
AcDbXrecord
280
     1
102
RTVSPost2010Prop28
280
     0
102
RTVSPost2010PropOp28
 70
     1
102
RTVSPost2010Prop29
280
     1
102
RTVSPost2010PropOp29
 70
     1
102
RTVSPost2010Prop30
280
     1
102
RTVSPost2010PropOp30
 70
     1
102
RTVSPost2010Prop31
280
     0
102
RTVSPost2010PropOp31
 70
     1
102
RTVSPost2010Prop32
280
     0
102
RTVSPost2010PropOp32
 70
     1
102
RTVSPost2010Prop33
280
     0
102
RTVSPost2010PropOp33
 70
     1
102
RTVSPost2010Prop34
280
     0
102
RTVSPost2010PropOp34
 70
     1
102
RTVSPost2010Prop35
280
     0
102
RTVSPost2010PropOp35
 70
     1
102
RTVSPost2010Prop36
280
     0
102
RTVSPost2010PropOp36
 70
     1
102
RTVSPost2010Prop37
 90
       50
102
RTVSPost2010PropOp37
 70
     1
102
RTVSPost2010Prop38
140
0.0
102
RTVSPost2010PropOp38
 70
     1
102
RTVSPost2010Prop39
140
1.0
102
RTVSPost2010PropOp39
 70
     1
102
RTVSPost2010Prop40
 90
        0
102
RTVSPost2010PropOp40
 70
     1
102
RTVSPost2010Prop41ColorIndex
 90
       18
102
RTVSPost2010Prop41ColorRGB
 90
        0
102
RTVSPost2010PropOp41
 70
     1
102
RTVSPost2010Prop42
 90
       50
102
RTVSPost2010PropOp42
 70
     1
102
RTVSPost2010Prop43
 90
        3
102
RTVSPost2010PropOp43
 70
     1
102
RTVSPost2010Prop44ColorIndex
 90
        5
102
RTVSPost2010Prop44ColorRGB
 90
      255
102
RTVSPost2010PropOp44
 70
     1
102
RTVSPost2010Prop45
280
     0
102
RTVSPost2010PropOp45
 70
     1
102
RTVSPost2010Prop46
 90
       50
102
RTVSPost2010PropOp46
 70
     1
102
RTVSPost2010Prop47
 90
       50
102
RTVSPost2010PropOp47
 70
     1
102
RTVSPost2010Prop48
 90
       50
102
RTVSPost2010PropOp48
 70
     1
102
RTVSPost2010Prop49
280
     0
102
RTVSPost2010PropOp49
 70
     1
102
RTVSPost2010Prop50
 90
       50
102
RTVSPost2010PropOp50
 70
     1
102
RTVSPost2010Prop51ColorIndex
 90
      256
102
RTVSPost2010Prop51ColorRGB
 90
-16777216
102
RTVSPost2010PropOp51
 70
     0
102
RTVSPost2010Prop52
140
1.0
102
RTVSPost2010PropOp52
 70
     0
102
RTVSPost2010Prop53
 90
        2
102
RTVSPost2010PropOp53
 70
     1
102
RTVSPost2010Prop54
  1
strokes_ogs.tif
102
RTVSPost2010PropOp54
 70
     1
102
RTVSPost2010Prop55
280
     0
102
RTVSPost2010PropOp55
 70
     1
102
RTVSPost2010Prop56
140
1.0
102
RTVSPost2010PropOp56
 70
     1
102
RTVSPost2010Prop57
140
1.0
102
RTVSPost2010PropOp57
 70
     1
102
RTVSPropertyOp0
 70
     1
102
RTVSPropertyOp1
 70
     1
102
RTVSPropertyOp2
 70
     1
102
RTVSPropertyOp3
 70
     1
102
RTVSPropertyOp4
 70
     1
102
RTVSPropertyOp5
 70
     1
102
RTVSPropertyOp6
 70
     1
102
RTVSPropertyOp7
 70
     1
102
RTVSPropertyOp8
 70
     1
102
RTVSPropertyOp9
 70
     1
102
RTVSPropertyOp10
 70
     1
102
RTVSPropertyOp11
 70
     1
102
RTVSPropertyOp12
 70
     1
102
RTVSPropertyOp13
 70
     1
102
RTVSPropertyOp14
 70
     1
102
RTVSPropertyOp15
 70
     1
102
RTVSPropertyOp16
 70
     1
102
RTVSPropertyOp17
 70
     1
102
RTVSPropertyOp18
 70
     1
102
RTVSPropertyOp19
 70
     1
102
RTVSPropertyOp20
 70
     1
102
RTVSPropertyOp21
 70
     1
102
RTVSPropertyOp22
 70
     1
102
RTVSPropertyOp23
 70
     1
102
RTVSPropertyOp24
 70
     1
102
RTVSPropertyOp25
 70
     1
102
RTVSPropertyOp26
 70
     1
102
RTVSPropertyOp27
 70
     1
102
RTVSPropertyOp28
 70
     1
102
RTVSPropertyOp29
 70
     1
102
RTVSPropertyOp30
 70
     1
102
RTVSPropertyOp31
 70
     1
102
RTVSPropertyOp32
 70
     1
102
RTVSPropertyOp33
 70
     1
102
RTVSPropertyOp34
 70
     1
102
RTVSPropertyOp35
 70
     1
102
RTVSPropertyOp36
 70
     1
102
RTVSPropertyOp37
 70
     1
102
RTVSPropertyOp38
 70
     1
102
RTVSPropertyOp39
 70
     1
102
RTVSPropertyOp40
 70
     1
102
RTVSPropertyOp41
 70
     1
102
RTVSPropertyOp42
 70
     1
102
RTVSPropertyOp43
 70
     1
102
RTVSPropertyOp44
 70
     1
102
RTVSPropertyOp45
 70
     1
102
RTVSPropertyOp46
 70
     1
102
RTVSPropertyOp47
 70
     1
102
RTVSPropertyOp48
 70
     1
102
RTVSPropertyOp49
 70
     1
102
RTVSPropertyOp50
 70
     1
102
RTVSPropertyOp51
 70
     0
102
RTVSPropertyOp52
 70
     0
102
RTVSPropertyOp53
 70
     1
102
RTVSPropertyOp54
 70
     1
102
RTVSPropertyOp55
 70
     1
102
RTVSPropertyOp56
 70
     1
102
RTVSPropertyOp57
 70
     1
102
RTVSPropertyOp58
 70
     1
102
RTVSPropertyOp59
 70
     1
102
RTVSPropertyOp60
 70
     1
102
RTVSPropertyOp61
 70
     1
102
RTVSPropertyOp62
 70
     1
  0
XRECORD
  5
6BE
102
{ACAD_REACTORS
330
6BD
102
}
330
6BD
100
AcDbXrecord
280
     1
102
RTVSPost2010Prop28
280
     0
102
RTVSPost2010PropOp28
 70
     1
102
RTVSPost2010Prop29
280
     1
102
RTVSPost2010PropOp29
 70
     1
102
RTVSPost2010Prop30
280
     1
102
RTVSPost2010PropOp30
 70
     1
102
RTVSPost2010Prop31
280
     0
102
RTVSPost2010PropOp31
 70
     1
102
RTVSPost2010Prop32
280
     0
102
RTVSPost2010PropOp32
 70
     1
102
RTVSPost2010Prop33
280
     0
102
RTVSPost2010PropOp33
 70
     1
102
RTVSPost2010Prop34
280
     0
102
RTVSPost2010PropOp34
 70
     1
102
RTVSPost2010Prop35
280
     0
102
RTVSPost2010PropOp35
 70
     1
102
RTVSPost2010Prop36
280
     0
102
RTVSPost2010PropOp36
 70
     1
102
RTVSPost2010Prop37
 90
       50
102
RTVSPost2010PropOp37
 70
     1
102
RTVSPost2010Prop38
140
0.0
102
RTVSPost2010PropOp38
 70
     1
102
RTVSPost2010Prop39
140
1.0
102
RTVSPost2010PropOp39
 70
     1
102
RTVSPost2010Prop40
 90
        0
102
RTVSPost2010PropOp40
 70
     1
102
RTVSPost2010Prop41ColorIndex
 90
       18
102
RTVSPost2010Prop41ColorRGB
 90
        0
102
RTVSPost2010PropOp41
 70
     1
102
RTVSPost2010Prop42
 90
       50
102
RTVSPost2010PropOp42
 70
     1
102
RTVSPost2010Prop43
 90
        3
102
RTVSPost2010PropOp43
 70
     1
102
RTVSPost2010Prop44ColorIndex
 90
        5
102
RTVSPost2010Prop44ColorRGB
 90
      255
102
RTVSPost2010PropOp44
 70
     1
102
RTVSPost2010Prop45
280
     0
102
RTVSPost2010PropOp45
 70
     1
102
RTVSPost2010Prop46
 90
       50
102
RTVSPost2010PropOp46
 70
     1
102
RTVSPost2010Prop47
 90
       50
102
RTVSPost2010PropOp47
 70
     1
102
RTVSPost2010Prop48
 90
       50
102
RTVSPost2010PropOp48
 70
     1
102
RTVSPost2010Prop49
280
     0
102
RTVSPost2010PropOp49
 70
     1
102
RTVSPost2010Prop50
 90
       50
102
RTVSPost2010PropOp50
 70
     1
102
RTVSPost2010Prop51ColorIndex
 90
      256
102
RTVSPost2010Prop51ColorRGB
 90
-16777216
102
RTVSPost2010PropOp51
 70
     0
102
RTVSPost2010Prop52
140
1.0
102
RTVSPost2010PropOp52
 70
     0
102
RTVSPost2010Prop53
 90
        2
102
RTVSPost2010PropOp53
 70
     1
102
RTVSPost2010Prop54
  1
strokes_ogs.tif
102
RTVSPost2010PropOp54
 70
     1
102
RTVSPost2010Prop55
280
     0
102
RTVSPost2010PropOp55
 70
     1
102
RTVSPost2010Prop56
140
1.0
102
RTVSPost2010PropOp56
 70
     1
102
RTVSPost2010Prop57
140
1.0
102
RTVSPost2010PropOp57
 70
     1
102
RTVSPropertyOp0
 70
     1
102
RTVSPropertyOp1
 70
     1
102
RTVSPropertyOp2
 70
     1
102
RTVSPropertyOp3
 70
     1
102
RTVSPropertyOp4
 70
     1
102
RTVSPropertyOp5
 70
     1
102
RTVSPropertyOp6
 70
     1
102
RTVSPropertyOp7
 70
     1
102
RTVSPropertyOp8
 70
     1
102
RTVSPropertyOp9
 70
     1
102
RTVSPropertyOp10
 70
     1
102
RTVSPropertyOp11
 70
     1
102
RTVSPropertyOp12
 70
     1
102
RTVSPropertyOp13
 70
     1
102
RTVSPropertyOp14
 70
     1
102
RTVSPropertyOp15
 70
     1
102
RTVSPropertyOp16
 70
     1
102
RTVSPropertyOp17
 70
     1
102
RTVSPropertyOp18
 70
     1
102
RTVSPropertyOp19
 70
     1
102
RTVSPropertyOp20
 70
     1
102
RTVSPropertyOp21
 70
     1
102
RTVSPropertyOp22
 70
     1
102
RTVSPropertyOp23
 70
     1
102
RTVSPropertyOp24
 70
     1
102
RTVSPropertyOp25
 70
     1
102
RTVSPropertyOp26
 70
     1
102
RTVSPropertyOp27
 70
     1
102
RTVSPropertyOp28
 70
     1
102
RTVSPropertyOp29
 70
     1
102
RTVSPropertyOp30
 70
     1
102
RTVSPropertyOp31
 70
     1
102
RTVSPropertyOp32
 70
     1
102
RTVSPropertyOp33
 70
     1
102
RTVSPropertyOp34
 70
     1
102
RTVSPropertyOp35
 70
     1
102
RTVSPropertyOp36
 70
     1
102
RTVSPropertyOp37
 70
     1
102
RTVSPropertyOp38
 70
     1
102
RTVSPropertyOp39
 70
     1
102
RTVSPropertyOp40
 70
     1
102
RTVSPropertyOp41
 70
     1
102
RTVSPropertyOp42
 70
     1
102
RTVSPropertyOp43
 70
     1
102
RTVSPropertyOp44
 70
     1
102
RTVSPropertyOp45
 70
     1
102
RTVSPropertyOp46
 70
     1
102
RTVSPropertyOp47
 70
     1
102
RTVSPropertyOp48
 70
     1
102
RTVSPropertyOp49
 70
     1
102
RTVSPropertyOp50
 70
     1
102
RTVSPropertyOp51
 70
     0
102
RTVSPropertyOp52
 70
     0
102
RTVSPropertyOp53
 70
     1
102
RTVSPropertyOp54
 70
     1
102
RTVSPropertyOp55
 70
     1
102
RTVSPropertyOp56
 70
     1
102
RTVSPropertyOp57
 70
     1
102
RTVSPropertyOp58
 70
     1
102
RTVSPropertyOp59
 70
     1
102
RTVSPropertyOp60
 70
     1
102
RTVSPropertyOp61
 70
     1
102
RTVSPropertyOp62
 70
     1
  0
ENDSEC
  0
EOF
