  0
SECTION
  2
HEADER
  9
$ACADVER
  1
AC1015
  9
$ACADMAINTVER
 70
    20
  9
$DWGCODEPAGE
  3
ANSI_932
  9
$INSBASE
 10
0.0
 20
0.0
 30
0.0
  9
$EXTMIN
 10
9.88032607443165
 20
10.0
 30
0.0
  9
$EXTMAX
 10
881.8123420744319
 20
647.6349418774971
 30
0.0
  9
$LIMMIN
 10
0.0000015376081137
 20
-0.0000001931532552
  9
$LIMMAX
 10
992.000001537608
 20
683.8787876856343
  9
$ORTHOMODE
 70
     1
  9
$REGENMODE
 70
     1
  9
$FILLMODE
 70
     1
  9
$QTEXTMODE
 70
     0
  9
$MIRRTEXT
 70
     1
  9
$LTSCALE
 40
1.0
  9
$ATTMODE
 70
     1
  9
$TEXTSIZE
 40
2.5
  9
$TRACEWID
 40
1.0
  9
$TEXTSTYLE
  7
STANDARD
  9
$CLAYER
  8
0
  9
$CELTYPE
  6
BYLAYER
  9
$CECOLOR
 62
   256
  9
$CELTSCALE
 40
1.0
  9
$DISPSILH
 70
     0
  9
$DIMSCALE
 40
1.0
  9
$DIMASZ
 40
3.0
  9
$DIMEXO
 40
1.0
  9
$DIMDLI
 40
10.0
  9
$DIMRND
 40
0.0
  9
$DIMDLE
 40
0.0
  9
$DIMEXE
 40
1.0
  9
$DIMTP
 40
0.0
  9
$DIMTM
 40
0.0
  9
$DIMTXT
 40
3.2
  9
$DIMCEN
 40
0.0
  9
$DIMTSZ
 40
0.0
  9
$DIMTOL
 70
     0
  9
$DIMLIM
 70
     0
  9
$DIMTIH
 70
     0
  9
$DIMTOH
 70
     0
  9
$DIMSE1
 70
     0
  9
$DIMSE2
 70
     0
  9
$DIMTAD
 70
     3
  9
$DIMZIN
 70
     8
  9
$DIMBLK
  1

  9
$DIMASO
 70
     1
  9
$DIMSHO
 70
     1
  9
$DIMPOST
  1

  9
$DIMAPOST
  1

  9
$DIMALT
 70
     0
  9
$DIMALTD
 70
     2
  9
$DIMALTF
 40
25.4
  9
$DIMLFAC
 40
1.0
  9
$DIMTOFL
 70
     1
  9
$DIMTVP
 40
0.0
  9
$DIMTIX
 70
     0
  9
$DIMSOXD
 70
     0
  9
$DIMSAH
 70
     1
  9
$DIMBLK1
  1
OPEN
  9
$DIMBLK2
  1
OPEN
  9
$DIMSTYLE
  2
STANDARD
  9
$DIMCLRD
 70
     0
  9
$DIMCLRE
 70
     0
  9
$DIMCLRT
 70
     0
  9
$DIMTFAC
 40
1.0
  9
$DIMGAP
 40
1.0
  9
$DIMJUST
 70
     0
  9
$DIMSD1
 70
     0
  9
$DIMSD2
 70
     0
  9
$DIMTOLJ
 70
     1
  9
$DIMTZIN
 70
     0
  9
$DIMALTZ
 70
     0
  9
$DIMALTTZ
 70
     0
  9
$DIMUPT
 70
     0
  9
$DIMDEC
 70
     3
  9
$DIMTDEC
 70
     3
  9
$DIMALTU
 70
     2
  9
$DIMALTTD
 70
     2
  9
$DIMTXSTY
  7
STANDARD
  9
$DIMAUNIT
 70
     0
  9
$DIMADEC
 70
     0
  9
$DIMALTRND
 40
0.0
  9
$DIMAZIN
 70
     0
  9
$DIMDSEP
 70
    46
  9
$DIMATFIT
 70
     3
  9
$DIMFRAC
 70
     0
  9
$DIMLDRBLK
  1
OPEN
  9
$DIMLUNIT
 70
     2
  9
$DIMLWD
 70
    -2
  9
$DIMLWE
 70
    -2
  9
$DIMTMOVE
 70
     0
  9
$LUNITS
 70
     2
  9
$LUPREC
 70
     4
  9
$SKETCHINC
 40
1.0
  9
$FILLETRAD
 40
0.0
  9
$AUNITS
 70
     0
  9
$AUPREC
 70
     0
  9
$MENU
  1
.
  9
$ELEVATION
 40
0.0
  9
$PELEVATION
 40
0.0
  9
$THICKNESS
 40
0.0
  9
$LIMCHECK
 70
     0
  9
$CHAMFERA
 40
10.0
  9
$CHAMFERB
 40
10.0
  9
$CHAMFERC
 40
20.0
  9
$CHAMFERD
 40
0.0
  9
$SKPOLY
 70
     0
  9
$TDCREATE
 40
2454526.717009005
  9
$TDUCREATE
 40
2454526.342009005
  9
$TDUPDATE
 40
2457192.687586875
  9
$TDUUPDATE
 40
2457192.312586875
  9
$TDINDWG
 40
0.2934639931
  9
$TDUSRTIMER
 40
0.2934639931
  9
$USRTIMER
 70
     1
  9
$ANGBASE
 50
0.0
  9
$ANGDIR
 70
     0
  9
$PDMODE
 70
     0
  9
$PDSIZE
 40
0.0
  9
$PLINEWID
 40
0.0
  9
$SPLFRAME
 70
     0
  9
$SPLINETYPE
 70
     6
  9
$SPLINESEGS
 70
     8
  9
$HANDSEED
  5
6651
  9
$SURFTAB1
 70
     6
  9
$SURFTAB2
 70
     6
  9
$SURFTYPE
 70
     6
  9
$SURFU
 70
     6
  9
$SURFV
 70
     6
  9
$UCSBASE
  2

  9
$UCSNAME
  2

  9
$UCSORG
 10
0.0
 20
0.0
 30
0.0
  9
$UCSXDIR
 10
1.0
 20
0.0
 30
0.0
  9
$UCSYDIR
 10
0.0
 20
1.0
 30
0.0
  9
$UCSORTHOREF
  2

  9
$UCSORTHOVIEW
 70
     0
  9
$UCSORGTOP
 10
0.0
 20
0.0
 30
0.0
  9
$UCSORGBOTTOM
 10
0.0
 20
0.0
 30
0.0
  9
$UCSORGLEFT
 10
0.0
 20
0.0
 30
0.0
  9
$UCSORGRIGHT
 10
0.0
 20
0.0
 30
0.0
  9
$UCSORGFRONT
 10
0.0
 20
0.0
 30
0.0
  9
$UCSORGBACK
 10
0.0
 20
0.0
 30
0.0
  9
$PUCSBASE
  2

  9
$PUCSNAME
  2

  9
$PUCSORG
 10
0.0
 20
0.0
 30
0.0
  9
$PUCSXDIR
 10
1.0
 20
0.0
 30
0.0
  9
$PUCSYDIR
 10
0.0
 20
1.0
 30
0.0
  9
$PUCSORTHOREF
  2

  9
$PUCSORTHOVIEW
 70
     0
  9
$PUCSORGTOP
 10
0.0
 20
0.0
 30
0.0
  9
$PUCSORGBOTTOM
 10
0.0
 20
0.0
 30
0.0
  9
$PUCSORGLEFT
 10
0.0
 20
0.0
 30
0.0
  9
$PUCSORGRIGHT
 10
0.0
 20
0.0
 30
0.0
  9
$PUCSORGFRONT
 10
0.0
 20
0.0
 30
0.0
  9
$PUCSORGBACK
 10
0.0
 20
0.0
 30
0.0
  9
$USERI1
 70
     0
  9
$USERI2
 70
     0
  9
$USERI3
 70
     0
  9
$USERI4
 70
     0
  9
$USERI5
 70
     0
  9
$USERR1
 40
0.0
  9
$USERR2
 40
0.0
  9
$USERR3
 40
0.0
  9
$USERR4
 40
0.0
  9
$USERR5
 40
0.0
  9
$WORLDVIEW
 70
     1
  9
$SHADEDGE
 70
     3
  9
$SHADEDIF
 70
    70
  9
$TILEMODE
 70
     1
  9
$MAXACTVP
 70
    48
  9
$PINSBASE
 10
0.0
 20
0.0
 30
0.0
  9
$PLIMCHECK
 70
     0
  9
$PEXTMIN
 10
1.000000000000000E+20
 20
1.000000000000000E+20
 30
1.000000000000000E+20
  9
$PEXTMAX
 10
-1.000000000000000E+20
 20
-1.000000000000000E+20
 30
-1.000000000000000E+20
  9
$PLIMMIN
 10
0.0
 20
0.0
  9
$PLIMMAX
 10
420.0
 20
297.0
  9
$UNITMODE
 70
     0
  9
$VISRETAIN
 70
     1
  9
$PLINEGEN
 70
     0
  9
$PSLTSCALE
 70
     1
  9
$TREEDEPTH
 70
  3020
  9
$CMLSTYLE
  2
STANDARD
  9
$CMLJUST
 70
     0
  9
$CMLSCALE
 40
20.0
  9
$PROXYGRAPHICS
 70
     1
  9
$MEASUREMENT
 70
     0
  9
$CELWEIGHT
370
    -1
  9
$ENDCAPS
280
     0
  9
$JOINSTYLE
280
     0
  9
$LWDISPLAY
290
     0
  9
$INSUNITS
 70
     0
  9
$HYPERLINKBASE
  1

  9
$STYLESHEET
  1

  9
$XEDIT
290
     1
  9
$CEPSNTYPE
380
     0
  9
$PSTYLEMODE
290
     1
  9
$FINGERPRINTGUID
  2
{C977AD47-4434-41C7-9321-67C63776DAA5}
  9
$VERSIONGUID
  2
{424FE6DD-A27A-40AE-82AB-BAB5755BDED3}
  9
$EXTNAMES
290
     1
  9
$PSVPSCALE
 40
0.0
  9
$OLESTARTUP
290
     0
  0
ENDSEC
  0
SECTION
  2
CLASSES
  0
CLASS
  1
ACDBDICTIONARYWDFLT
  2
AcDbDictionaryWithDefault
  3
ObjectDBX Classes
 90
        0
280
     0
281
     0
  0
CLASS
  1
ACDBPLACEHOLDER
  2
AcDbPlaceHolder
  3
ObjectDBX Classes
 90
        0
280
     0
281
     0
  0
CLASS
  1
LAYOUT
  2
AcDbLayout
  3
ObjectDBX Classes
 90
        0
280
     0
281
     0
  0
CLASS
  1
DICTIONARYVAR
  2
AcDbDictionaryVar
  3
ObjectDBX Classes
 90
        0
280
     0
281
     0
  0
CLASS
  1
MATERIAL
  2
AcDbMaterial
  3
ObjectDBX Classes
 90
     1153
280
     0
281
     0
  0
CLASS
  1
VISUALSTYLE
  2
AcDbVisualStyle
  3
ObjectDBX Classes
 90
     4095
280
     0
281
     0
  0
CLASS
  1
TABLESTYLE
  2
AcDbTableStyle
  3
ObjectDBX Classes
 90
     4095
280
     0
281
     0
  0
CLASS
  1
SCALE
  2
AcDbScale
  3
ObjectDBX Classes
 90
     1153
280
     0
281
     0
  0
CLASS
  1
MLEADERSTYLE
  2
AcDbMLeaderStyle
  3
ACDB_MLEADERSTYLE_CLASS
 90
     4095
280
     0
281
     0
  0
CLASS
  1
ACDBSECTIONVIEWSTYLE
  2
AcDbSectionViewStyle
  3
ObjectDBX Classes
 90
     1025
280
     0
281
     0
  0
CLASS
  1
ACDBDETAILVIEWSTYLE
  2
AcDbDetailViewStyle
  3
ObjectDBX Classes
 90
     1025
280
     0
281
     0
  0
CLASS
  1
CELLSTYLEMAP
  2
AcDbCellStyleMap
  3
ObjectDBX Classes
 90
     1152
280
     0
281
     0
  0
ENDSEC
  0
SECTION
  2
TABLES
  0
TABLE
  2
VPORT
  5
8
330
0
100
AcDbSymbolTable
 70
     1
  0
VPORT
  5
659B
330
8
100
AcDbSymbolTableRecord
100
AcDbViewportTableRecord
  2
*ACTIVE
 70
     0
 10
0.0
 20
0.0
 11
1.0
 21
1.0
 12
691.2490170118744
 22
328.8171788962786
 13
0.0
 23
0.0
 14
10.0
 24
10.0
 15
10.0
 25
10.0
 16
0.0
 26
0.0
 36
1.0
 17
0.0
 27
0.0
 37
0.0
 40
642.674588868615
 41
2.35006605019815
 42
50.0
 43
0.0
 44
0.0
 50
0.0
 51
0.0
 71
     0
 72
   100
 73
     1
 74
     0
 75
     0
 76
     0
 77
     0
 78
     0
281
     0
 65
     1
110
0.0
120
0.0
130
0.0
111
1.0
121
0.0
131
0.0
112
0.0
122
1.0
132
0.0
 79
     0
146
0.0
1001
ACAD_NAV_VCDISPLAY
1070
     3
  0
ENDTAB
  0
TABLE
  2
LTYPE
  5
5
330
0
100
AcDbSymbolTable
 70
     4
  0
LTYPE
  5
12
330
5
100
AcDbSymbolTableRecord
100
AcDbLinetypeTableRecord
  2
BYBLOCK
 70
     0
  3

 72
    65
 73
     0
 40
0.0
  0
LTYPE
  5
13
330
5
100
AcDbSymbolTableRecord
100
AcDbLinetypeTableRecord
  2
BYLAYER
 70
     0
  3

 72
    65
 73
     0
 40
0.0
  0
LTYPE
  5
14
330
5
100
AcDbSymbolTableRecord
100
AcDbLinetypeTableRecord
  2
CONTINUOUS
 70
     0
  3
Solid line
 72
    65
 73
     0
 40
0.0
  0
LTYPE
  5
4B
330
5
100
AcDbSymbolTableRecord
100
AcDbLinetypeTableRecord
  2
DASHED
 70
     0
  3
Dashed __ __ __ __ __ __ __ __ __ __ __ __ __ _
 72
    65
 73
     2
 40
19.04999999999999
 49
12.7
 74
     0
 49
-6.349999999999998
 74
     0
  0
LTYPE
  5
4C
330
5
100
AcDbSymbolTableRecord
100
AcDbLinetypeTableRecord
  2
CENTER
 70
     0
  3
Center ____ _ ____ _ ____ _ ____ _ ____ _ ____
 72
    65
 73
     4
 40
50.8
 49
31.75
 74
     0
 49
-6.349999999999998
 74
     0
 49
6.349999999999998
 74
     0
 49
-6.349999999999998
 74
     0
  0
LTYPE
  5
4D
330
5
100
AcDbSymbolTableRecord
100
AcDbLinetypeTableRecord
  2
PHANTOM
 70
     0
  3
Phantom ______  __  __  ______  __  __  ______
 72
    65
 73
     6
 40
63.5
 49
31.75
 74
     0
 49
-6.349999999999998
 74
     0
 49
6.349999999999998
 74
     0
 49
-6.349999999999998
 74
     0
 49
6.349999999999998
 74
     0
 49
-6.349999999999998
 74
     0
  0
ENDTAB
  0
TABLE
  2
LAYER
  5
2
330
0
100
AcDbSymbolTable
 70
     8
  0
LAYER
  5
E
102
{ACAD_XDICTIONARY
360
65F5
102
}
330
2
100
AcDbSymbolTableRecord
100
AcDbLayerTableRecord
  2
0
 70
     0
 62
     7
  6
CONTINUOUS
370
    -3
390
65A4
  0
LAYER
  5
4E
102
{ACAD_XDICTIONARY
360
65F7
102
}
330
2
100
AcDbSymbolTableRecord
100
AcDbLayerTableRecord
  2
4
 70
     0
 62
     1
  6
CENTER
370
    -3
390
65A4
  0
LAYER
  5
4F
102
{ACAD_XDICTIONARY
360
65F9
102
}
330
2
100
AcDbSymbolTableRecord
100
AcDbLayerTableRecord
  2
5
 70
     0
 62
     6
  6
PHANTOM
370
    -3
390
65A4
  0
LAYER
  5
50
102
{ACAD_XDICTIONARY
360
65FB
102
}
330
2
100
AcDbSymbolTableRecord
100
AcDbLayerTableRecord
  2
1
 70
     0
 62
     7
  6
CONTINUOUS
370
    -3
390
65A4
  0
LAYER
  5
51
102
{ACAD_XDICTIONARY
360
65FD
102
}
330
2
100
AcDbSymbolTableRecord
100
AcDbLayerTableRecord
  2
2
 70
     0
 62
     4
  6
CONTINUOUS
370
    -3
390
65A4
  0
LAYER
  5
52
102
{ACAD_XDICTIONARY
360
65FF
102
}
330
2
100
AcDbSymbolTableRecord
100
AcDbLayerTableRecord
  2
3
 70
     0
 62
     2
  6
DASHED
370
    -3
390
65A4
  0
LAYER
  5
53
102
{ACAD_XDICTIONARY
360
6601
102
}
330
2
100
AcDbSymbolTableRecord
100
AcDbLayerTableRecord
  2
6
 70
     0
 62
     5
  6
CONTINUOUS
370
    -3
390
65A4
  0
LAYER
  5
54
102
{ACAD_XDICTIONARY
360
6603
102
}
330
2
100
AcDbSymbolTableRecord
100
AcDbLayerTableRecord
  2
7
 70
     0
 62
     3
  6
CONTINUOUS
370
    -3
390
65A4
  0
ENDTAB
  0
TABLE
  2
STYLE
  5
3
330
0
100
AcDbSymbolTable
 70
     1
  0
STYLE
  5
F
330
3
100
AcDbSymbolTableRecord
100
AcDbTextStyleTableRecord
  2
STANDARD
 70
     0
 40
0.0
 41
1.0
 50
0.0
 71
     0
 42
2.5
  3
simplex.shx
  4

  0
ENDTAB
  0
TABLE
  2
VIEW
  5
6
330
0
100
AcDbSymbolTable
 70
     0
  0
ENDTAB
  0
TABLE
  2
UCS
  5
7
330
0
100
AcDbSymbolTable
 70
     0
  0
ENDTAB
  0
TABLE
  2
APPID
  5
9
330
0
100
AcDbSymbolTable
 70
     5
  0
APPID
  5
10
330
9
100
AcDbSymbolTableRecord
100
AcDbRegAppTableRecord
  2
ACAD
 70
     0
  0
APPID
  5
3E
330
9
100
AcDbSymbolTableRecord
100
AcDbRegAppTableRecord
  2
CONTENTTABDATA
 70
     0
  0
APPID
  5
3F
330
9
100
AcDbSymbolTableRecord
100
AcDbRegAppTableRecord
  2
CONTENTCURRENTTAB
 70
     0
  0
APPID
  5
660F
330
9
100
AcDbSymbolTableRecord
100
AcDbRegAppTableRecord
  2
ACAD_NAV_VCDISPLAY
 70
     0
  0
APPID
  5
6648
330
9
100
AcDbSymbolTableRecord
100
AcDbRegAppTableRecord
  2
ACAD_MLEADERVER
 70
     0
  0
ENDTAB
  0
TABLE
  2
DIMSTYLE
  5
A
330
0
100
AcDbSymbolTable
 70
     1
100
AcDbDimStyleTable
 71
     0
  0
DIMSTYLE
105
1D
330
A
100
AcDbSymbolTableRecord
100
AcDbDimStyleTableRecord
  2
STANDARD
 70
     0
 41
3.0
 42
1.0
 43
10.0
 44
1.0
 73
     0
 74
     0
 77
     3
 78
     8
140
3.2
141
0.0
147
1.0
172
     1
173
     1
271
     3
272
     3
340
F
341
2E
343
2E
344
2E
  0
ENDTAB
  0
TABLE
  2
BLOCK_RECORD
  5
1
330
0
100
AcDbSymbolTable
 70
     1
  0
BLOCK_RECORD
  5
18
102
{ACAD_XDICTIONARY
360
659E
102
}
330
1
100
AcDbSymbolTableRecord
100
AcDbBlockTableRecord
  2
*MODEL_SPACE
340
65F2
  0
BLOCK_RECORD
  5
15
102
{ACAD_XDICTIONARY
360
659C
102
}
330
1
100
AcDbSymbolTableRecord
100
AcDbBlockTableRecord
  2
*PAPER_SPACE
340
65F3
  0
BLOCK_RECORD
  5
2E
330
1
100
AcDbSymbolTableRecord
100
AcDbBlockTableRecord
  2
_OPEN
340
0
  0
ENDTAB
  0
ENDSEC
  0
SECTION
  2
BLOCKS
  0
BLOCK
  5
19
330
18
100
AcDbEntity
  8
0
100
AcDbBlockBegin
  2
*MODEL_SPACE
 70
     0
 10
0.0
 20
0.0
 30
0.0
  3
*MODEL_SPACE
  1

  0
ENDBLK
  5
1A
330
18
100
AcDbEntity
  8
0
100
AcDbBlockEnd
  0
BLOCK
  5
16
330
15
100
AcDbEntity
 67
     1
  8
0
100
AcDbBlockBegin
  2
*PAPER_SPACE
 70
     0
 10
0.0
 20
0.0
 30
0.0
  3
*PAPER_SPACE
  1

  0
ENDBLK
  5
17
330
15
100
AcDbEntity
 67
     1
  8
0
100
AcDbBlockEnd
  0
BLOCK
  5
2F
330
2E
100
AcDbEntity
  8
0
100
AcDbBlockBegin
  2
_OPEN
 70
     0
 10
0.0
 20
0.0
 30
0.0
  3
_OPEN
  1

  0
LINE
  5
30
330
2E
100
AcDbEntity
  8
0
  6
ByBlock
 62
     0
100
AcDbLine
 10
-1.0
 20
0.1666666666666666
 30
0.0
 11
0.0
 21
0.0
 31
0.0
  0
LINE
  5
31
330
2E
100
AcDbEntity
  8
0
  6
ByBlock
 62
     0
100
AcDbLine
 10
0.0
 20
0.0
 30
0.0
 11
-1.0
 21
-0.1666666666666666
 31
0.0
  0
LINE
  5
32
330
2E
100
AcDbEntity
  8
0
  6
ByBlock
 62
     0
100
AcDbLine
 10
0.0
 20
0.0
 30
0.0
 11
-1.0
 21
0.0
 31
0.0
  0
ENDBLK
  5
33
330
2E
100
AcDbEntity
  8
0
100
AcDbBlockEnd
  0
ENDSEC
  0
SECTION
  2
ENTITIES
  0
TEXT
  5
63
330
18
100
AcDbEntity
  8
4
  6
CENTER
 48
0.25
100
AcDbText
 10
23.97950852663849
 20
10.0
 30
0.0
 40
1.399999999999999
  1
4
100
AcDbText
  0
TEXT
  5
64
330
18
100
AcDbEntity
  8
7
  6
Continuous
 48
0.25
100
AcDbText
 10
9.999997526638502
 20
26.0000007607689
 30
0.0
 40
3.0
  1
CODE No.9848
100
AcDbText
  0
TEXT
  5
65
330
18
100
AcDbEntity
  8
7
  6
Continuous
 48
0.25
100
AcDbText
 10
9.999997526638502
 20
18.00000076076889
 30
0.0
 40
3.0
  1
TYPE No.109X-N
100
AcDbText
  0
TEXT
  5
66
330
18
100
AcDbEntity
  8
1
  6
Continuous
 48
0.25
100
AcDbText
 10
9.999997526638502
 20
10.00000076076889
 30
0.0
 40
1.399999999999999
  1
LAYER
100
AcDbText
  0
TEXT
  5
67
330
18
100
AcDbEntity
  8
2
  6
Continuous
 48
0.25
100
AcDbText
 10
19.9795085266385
 20
10.0
 30
0.0
 40
1.399999999999999
  1
2
100
AcDbText
  0
TEXT
  5
68
330
18
100
AcDbEntity
  8
3
  6
DASHED
 48
0.25
100
AcDbText
 10
21.9795085266385
 20
10.0
 30
0.0
 40
1.399999999999999
  1
3
100
AcDbText
  0
TEXT
  5
69
330
18
100
AcDbEntity
  8
1
  6
Continuous
 48
0.25
100
AcDbText
 10
17.9795085266385
 20
10.0
 30
0.0
 40
1.399999999999999
  1
1
100
AcDbText
  0
TEXT
  5
6A
330
18
100
AcDbEntity
  8
5
  6
PHANTOM
 48
0.25
100
AcDbText
 10
25.9795085266385
 20
10.0
 30
0.0
 40
1.399999999999999
  1
5
100
AcDbText
  0
TEXT
  5
6B
330
18
100
AcDbEntity
  8
6
  6
Continuous
 48
0.25
100
AcDbText
 10
27.9795085266385
 20
10.0
 30
0.0
 40
1.399999999999999
  1
6
100
AcDbText
  0
TEXT
  5
6C
330
18
100
AcDbEntity
  8
7
  6
Continuous
 48
0.25
100
AcDbText
 10
29.9795085266385
 20
10.0
 30
0.0
 40
1.399999999999999
  1
7
100
AcDbText
  0
LINE
  5
41F9
330
18
100
AcDbEntity
  8
1
  6
Continuous
100
AcDbLine
 10
799.8123420744319
 20
310.3664200235706
 30
0.0
 11
794.8123420744317
 21
307.4796680235707
 31
0.0
  0
LINE
  5
41FA
330
18
100
AcDbEntity
  8
1
  6
Continuous
100
AcDbLine
 10
804.8123420744317
 20
307.4796680235707
 30
0.0
 11
799.8123420744319
 21
310.3664200235706
 31
0.0
  0
LINE
  5
4210
330
18
100
AcDbEntity
  8
1
  6
Continuous
100
AcDbLine
 10
804.8123420744317
 20
301.7061650235707
 30
0.0
 11
799.8123420744319
 21
298.8194140235706
 31
0.0
  0
LINE
  5
4211
330
18
100
AcDbEntity
  8
1
  6
Continuous
100
AcDbLine
 10
799.8123420744319
 20
298.8194140235706
 30
0.0
 11
794.8123420744317
 21
301.7061650235707
 31
0.0
  0
LINE
  5
4212
330
18
100
AcDbEntity
  8
1
  6
Continuous
100
AcDbLine
 10
794.8123420744317
 20
301.7061650235707
 30
0.0
 11
794.8123420744317
 21
307.4796680235707
 31
0.0
  0
LINE
  5
4213
330
18
100
AcDbEntity
  8
1
  6
Continuous
100
AcDbLine
 10
804.8123420744317
 20
301.7061650235707
 30
0.0
 11
804.8123420744317
 21
307.4796680235707
 31
0.0
  0
LINE
  5
5315
330
18
100
AcDbEntity
  8
1
  6
Continuous
100
AcDbLine
 10
385.0000980744316
 20
416.0929170235706
 30
0.0
 11
385.0000980744316
 21
392.5929170235706
 31
0.0
  0
LINE
  5
5316
330
18
100
AcDbEntity
  8
1
  6
Continuous
100
AcDbLine
 10
258.9831740744316
 20
314.0787600235705
 30
0.0
 11
299.1998980744315
 21
416.7116380235706
 31
0.0
  0
LINE
  5
5317
330
18
100
AcDbEntity
  8
1
  6
Continuous
100
AcDbLine
 10
355.1909980744317
 20
415.7929170235706
 30
0.0
 11
355.1909980744317
 21
375.0440330235706
 31
0.0
  0
LINE
  5
5318
330
18
100
AcDbEntity
  8
1
  6
Continuous
100
AcDbLine
 10
386.6909980744317
 20
416.0929170235706
 30
0.0
 11
386.6909980744317
 21
392.5929170235706
 31
0.0
  0
LINE
  5
5319
330
18
100
AcDbEntity
  8
4
  6
CENTER
 48
0.7
100
AcDbLine
 10
343.1909980744316
 20
456.4928900235708
 30
0.0
 11
343.1909980744316
 21
340.2744770235706
 31
0.0
  0
LINE
  5
531A
330
18
100
AcDbEntity
  8
1
  6
Continuous
100
AcDbLine
 10
305.4363910744316
 20
291.1339970235705
 30
0.0
 11
361.4400110744316
 21
383.6988210235706
 31
0.0
  0
ARC
  5
531B
330
18
100
AcDbEntity
  8
1
  6
Continuous
100
AcDbCircle
 10
283.1909980744317
 20
304.5929170235706
 30
0.0
 40
33.0
100
AcDbArc
 50
325.2188179999996
 51
0.000000000000007
  0
LINE
  5
531C
330
18
100
AcDbEntity
  8
1
  6
Continuous
100
AcDbLine
 10
295.8829570744315
 20
272.0543620235705
 30
0.0
 11
318.0681800744316
 21
245.6150420235705
 31
0.0
  0
LINE
  5
531D
330
18
100
AcDbEntity
  8
1
  6
Continuous
100
AcDbLine
 10
310.2149720744316
 20
282.4671810235705
 30
0.0
 11
328.5046480744317
 21
253.1975810235706
 31
0.0
  0
ARC
  5
531E
330
18
100
AcDbEntity
  8
1
  6
Continuous
100
AcDbCircle
 10
283.1909980744317
 20
304.5929170235706
 30
0.0
 40
75.0
100
AcDbArc
 50
88.88582400000355
 51
38.54163199999997
  0
LINE
  5
531F
330
18
100
AcDbEntity
  8
4
  6
CENTER
 48
0.7
100
AcDbLine
 10
365.1909980744317
 20
304.5929170235706
 30
0.0
 11
201.1909980744317
 21
304.5929170235706
 31
0.0
  0
LINE
  5
5320
330
18
100
AcDbEntity
  8
1
  6
Continuous
100
AcDbLine
 10
318.0037890744315
 20
245.6138260235706
 30
0.0
 11
307.1379910744317
 21
258.3479710235706
 31
0.0
  0
LINE
  5
5321
330
18
100
AcDbEntity
  8
1
  6
Continuous
100
AcDbLine
 10
320.0731300744314
 20
269.8952560235706
 30
0.0
 11
311.9943890744317
 21
283.0649940235706
 31
0.0
  0
ARC
  5
5322
330
18
100
AcDbEntity
  8
1
  6
Continuous
100
AcDbCircle
 10
283.1909980744317
 20
304.5929170235706
 30
0.0
 40
34.851433
100
AcDbArc
 50
325.8682429999955
 51
358.131757000002
  0
LINE
  5
5333
330
18
100
AcDbEntity
  8
1
  6
Continuous
100
AcDbLine
 10
318.0590340744315
 20
306.6087200235707
 30
0.0
 11
350.0599320744315
 21
319.5379220235706
 31
0.0
  0
ARC
  5
5334
330
18
100
AcDbEntity
  8
1
  6
Continuous
100
AcDbCircle
 10
335.1442110744315
 20
306.8268940235706
 30
0.0
 40
4.5
100
AcDbArc
 50
2.462189000002326
 51
112.4737079999995
  0
ARC
  5
5335
330
18
100
AcDbEntity
  8
1
  6
Continuous
100
AcDbCircle
 10
335.1335720744316
 20
307.0360730235705
 30
0.0
 40
6.0
100
AcDbArc
 50
2.69296300000354
 51
112.0000000000007
  0
LINE
  5
5336
330
18
100
AcDbEntity
  8
1
  6
Continuous
100
AcDbLine
 10
333.4240440744315
 20
310.9851410235705
 30
0.0
 11
319.1472260744317
 21
305.0791640235705
 31
0.0
  0
LINE
  5
5337
330
18
100
AcDbEntity
  8
1
  6
Continuous
100
AcDbLine
 10
319.7725280744316
 20
267.5274990235706
 30
0.0
 11
328.5257030744314
 21
253.2584440235706
 31
0.0
  0
ARC
  5
5338
330
18
100
AcDbEntity
  8
1
  6
Continuous
100
AcDbCircle
 10
326.8085520744316
 20
252.1377420235705
 30
0.0
 40
2.0
100
AcDbArc
 50
324.0000000000025
 51
31.99999999999949
  0
ARC
  5
5339
330
18
100
AcDbEntity
  8
1
  6
Continuous
100
AcDbCircle
 10
326.7714740744315
 20
252.1823330235706
 30
0.0
 40
2.057993
100
AcDbArc
 50
309.7442180000023
 51
31.52651999999919
  0
ARC
  5
533A
330
18
100
AcDbEntity
  8
1
  6
Continuous
100
AcDbCircle
 10
319.6002690744317
 20
246.9006180235705
 30
0.0
 40
2.0
100
AcDbArc
 50
220.0000000000026
 51
302.2557819999986
  0
ARC
  5
533B
330
18
100
AcDbEntity
  8
1
  6
Continuous
100
AcDbCircle
 10
319.5693180744315
 20
246.9496610235705
 30
0.0
 40
2.057993
100
AcDbArc
 50
220.4734800000017
 51
302.2557819999986
  0
ARC
  5
533C
330
18
100
AcDbEntity
  8
1
  6
Continuous
100
AcDbCircle
 10
283.1909980744317
 20
304.5929170235706
 30
0.0
 40
56.50122099999999
100
AcDbArc
 50
321.5378110000009
 51
2.462189000002326
  0
ARC
  5
533D
330
18
100
AcDbEntity
  8
1
  6
Continuous
100
AcDbCircle
 10
283.1909980744317
 20
304.5929170235706
 30
0.0
 40
58.0
100
AcDbArc
 50
321.3070369999995
 51
2.69296300000354
  0
ARC
  5
533E
330
18
100
AcDbEntity
  8
1
  6
Continuous
100
AcDbCircle
 10
323.9089320744314
 20
272.2482590235706
 30
0.0
 40
4.5
100
AcDbArc
 50
211.5262920000009
 51
321.5378110000009
  0
ARC
  5
533F
330
18
100
AcDbEntity
  8
1
  6
Continuous
100
AcDbCircle
 10
323.7773720744316
 20
272.0852830235705
 30
0.0
 40
6.0
100
AcDbArc
 50
211.9999999999995
 51
321.3070369999995
  0
ARC
  5
5340
330
18
100
AcDbEntity
  8
1
  6
Continuous
100
AcDbCircle
 10
318.0677310744315
 20
266.4817130235705
 30
0.0
 40
2.0
100
AcDbArc
 50
31.52651999999919
 51
44.46281799999656
  0
ARC
  5
5341
330
18
100
AcDbEntity
  8
1
  6
Continuous
100
AcDbCircle
 10
283.1909980744317
 20
304.5929170235706
 30
0.0
 40
33.0
100
AcDbArc
 50
358.7811820000002
 51
6.837480000001829
  0
ARC
  5
5342
330
18
100
AcDbEntity
  8
1
  6
Continuous
100
AcDbCircle
 10
319.8429390744315
 20
303.3973840235705
 30
0.0
 40
1.82
100
AcDbArc
 50
112.4737079999995
 51
178.131757000002
  0
ARC
  5
5343
330
18
100
AcDbEntity
  8
1
  6
Continuous
100
AcDbCircle
 10
319.1828530744313
 20
303.8271680235705
 30
0.0
 40
3.0
100
AcDbArc
 50
112.0000000000007
 51
178.7811820000001
  0
ARC
  5
5344
330
18
100
AcDbEntity
  8
1
  6
Continuous
100
AcDbCircle
 10
378.9680860744315
 20
392.6249290235706
 30
0.0
 40
6.032011999999999
100
AcDbArc
 50
270.0
 51
0.000000000000007
  0
LINE
  5
5345
330
18
100
AcDbEntity
  8
1
  6
Continuous
100
AcDbLine
 10
380.6909980744316
 20
386.5929170235706
 30
0.0
 11
366.5735630744316
 21
386.5929170235706
 31
0.0
  0
ARC
  5
5346
330
18
100
AcDbEntity
  8
1
  6
Continuous
100
AcDbCircle
 10
380.6909980744316
 20
392.5929170235706
 30
0.0
 40
6.0
100
AcDbArc
 50
270.0
 51
0.000000000000007
  0
ARC
  5
5348
330
18
100
AcDbEntity
  8
1
  6
Continuous
100
AcDbCircle
 10
346.5574000744315
 20
329.8661350235705
 30
0.0
 40
2.0
100
AcDbArc
 50
35.99999999999753
 51
104.000000000002
  0
ARC
  5
5349
330
18
100
AcDbEntity
  8
1
  6
Continuous
100
AcDbCircle
 10
346.5035330744317
 20
329.8446510235705
 30
0.0
 40
2.057993
100
AcDbArc
 50
21.74421799999838
 51
103.5265200000035
  0
LINE
  5
534A
330
18
100
AcDbEntity
  8
1
  6
Continuous
100
AcDbLine
 10
350.0411910744314
 20
319.4763070235707
 30
0.0
 11
334.5725830744315
 21
313.0773860235706
 31
0.0
  0
ARC
  5
534B
330
18
100
AcDbEntity
  8
1
  6
Continuous
100
AcDbCircle
 10
349.3107190744317
 20
321.3922900235705
 30
0.0
 40
2.0
100
AcDbArc
 50
292.0000000000007
 51
14.25578200000132
  0
ARC
  5
534C
330
18
100
AcDbEntity
  8
1
  6
Continuous
100
AcDbCircle
 10
349.2545120744316
 20
321.3780090235705
 30
0.0
 40
2.057993
100
AcDbArc
 50
292.4734799999993
 51
14.25578200000132
  0
ARC
  5
534D
330
18
100
AcDbEntity
  8
1
  6
Continuous
100
AcDbCircle
 10
326.6494750744316
 20
333.1474410235707
 30
0.0
 40
6.0
100
AcDbArc
 50
284.0000000000019
 51
21.97266200000453
  0
LINE
  5
534E
330
18
100
AcDbEntity
  8
1
  6
Continuous
100
AcDbLine
 10
327.1966780744314
 20
327.1001920235705
 30
0.0
 11
346.0735560744315
 21
331.8067270235705
 31
0.0
  0
ARC
  5
534F
330
18
100
AcDbEntity
  8
1
  6
Continuous
100
AcDbCircle
 10
326.5351290744315
 20
333.3229240235706
 30
0.0
 40
4.5
100
AcDbArc
 50
296.135078000001
 51
1.515322000003145
  0
LINE
  5
5350
330
18
100
AcDbEntity
  8
1
  6
Continuous
100
AcDbLine
 10
329.7466190744316
 20
327.9301750235707
 30
0.0
 11
346.0221780744316
 21
331.8455590235705
 31
0.0
  0
ARC
  5
5351
330
18
100
AcDbEntity
  8
1
  6
Continuous
100
AcDbCircle
 10
333.8080710744316
 20
314.9254990235706
 30
0.0
 40
2.0
100
AcDbArc
 50
279.5371820000017
 51
292.4734799999993
  0
ARC
  5
5352
330
18
100
AcDbEntity
  8
1
  6
Continuous
100
AcDbCircle
 10
330.2144100744317
 20
325.9856510235707
 30
0.0
 40
2.0
100
AcDbArc
 50
103.5265200000035
 51
116.4628179999978
  0
LINE
  5
5359
330
18
100
AcDbEntity
  8
1
  6
Continuous
100
AcDbLine
 10
370.1910370744317
 20
385.5928850235707
 30
0.0
 11
367.0156110744315
 21
380.0928850235706
 31
0.0
  0
LINE
  5
535B
330
18
100
AcDbEntity
  8
1
  6
Continuous
100
AcDbLine
 10
364.1910370744317
 20
376.0928850235706
 30
0.0
 11
356.8383110744316
 21
376.0928850235706
 31
0.0
  0
LINE
  5
535C
330
18
100
AcDbEntity
  8
1
  6
Continuous
100
AcDbLine
 10
358.6533730744315
 20
379.0928850235705
 30
0.0
 11
365.2835600744315
 21
379.0928850235705
 31
0.0
  0
LINE
  5
535D
330
18
100
AcDbEntity
  8
1
  6
Continuous
100
AcDbLine
 10
364.1910370744317
 20
376.0928850235706
 30
0.0
 11
364.1910370744317
 21
379.0928850235705
 31
0.0
  0
ARC
  5
535E
330
18
100
AcDbEntity
  8
1
  6
Continuous
100
AcDbCircle
 10
365.2835600744315
 20
381.0928850235707
 30
0.0
 40
2.0
100
AcDbArc
 50
270.0
 51
329.9999999999994
  0
LINE
  5
535F
330
18
100
AcDbEntity
  8
1
  6
Continuous
100
AcDbLine
 10
355.1910370744317
 20
368.0928850235706
 30
0.0
 11
357.0474440744316
 21
369.1646810235706
 31
0.0
  0
ARC
  5
5360
330
18
100
AcDbEntity
  8
1
  6
Continuous
100
AcDbCircle
 10
353.5833420744316
 20
374.2268590235704
 30
0.0
 40
6.133975
100
AcDbArc
 50
256.0751739999981
 51
295.6157529999999
  0
LINE
  5
5361
330
18
100
AcDbEntity
  8
1
  6
Continuous
100
AcDbLine
 10
355.1910370744317
 20
368.0928850235706
 30
0.0
 11
351.9981470744314
 21
368.0928850235706
 31
0.0
  0
LINE
  5
5362
330
18
100
AcDbEntity
  8
1
  6
Continuous
100
AcDbLine
 10
357.0474440744316
 20
369.1646810235706
 30
0.0
 11
357.0474440744316
 21
376.0928850235706
 31
0.0
  0
ARC
  5
5363
330
18
100
AcDbEntity
  8
1
  6
Continuous
100
AcDbCircle
 10
349.1909980744317
 20
375.0440330235706
 30
0.0
 40
6.0
100
AcDbArc
 50
328.8251999999979
 51
0.000000000000007
  0
ARC
  5
5364
330
18
100
AcDbEntity
  8
1
  6
Continuous
100
AcDbCircle
 10
349.1909980744317
 20
375.0440330235706
 30
0.0
 40
6.0
100
AcDbArc
 50
328.8251999999979
 51
0.000000000000007
  0
ARC
  5
5365
330
18
100
AcDbEntity
  8
1
  6
Continuous
100
AcDbCircle
 10
366.5735630744316
 20
380.5929170235706
 30
0.0
 40
6.0
100
AcDbArc
 50
90.0
 51
148.8251999999978
  0
LINE
  5
5366
330
18
100
AcDbEntity
  8
1
  6
Continuous
100
AcDbLine
 10
370.1910370744317
 20
385.5928850235707
 30
0.0
 11
363.2568900744315
 21
385.5928850235707
 31
0.0
  0
ARC
  5
5378
330
18
100
AcDbEntity
  8
1
  6
Continuous
100
AcDbCircle
 10
283.1909980744317
 20
304.5929170235706
 30
0.0
 40
26.0
100
AcDbArc
 50
158.602256
 51
328.8251999999979
  0
ARC
  5
5379
330
18
100
AcDbEntity
  8
1
  6
Continuous
100
AcDbCircle
 10
283.1909980744317
 20
304.5929170235706
 30
0.0
 40
33.0
100
AcDbArc
 50
142.7811820000023
 51
181.2188179999999
  0
LINE
  5
537A
330
18
100
AcDbEntity
  8
4
  6
CENTER
 48
0.7
100
AcDbLine
 10
283.1909980744317
 20
222.5929170235706
 30
0.0
 11
283.1909980744317
 21
386.5929170235706
 31
0.0
  0
ARC
  5
537B
330
18
100
AcDbEntity
  8
1
  6
Continuous
100
AcDbCircle
 10
231.2377860744315
 20
306.8268940235706
 30
0.0
 40
4.5
100
AcDbArc
 50
67.52629200000047
 51
177.5378109999976
  0
ARC
  5
537C
330
18
100
AcDbEntity
  8
1
  6
Continuous
100
AcDbCircle
 10
231.2484240744315
 20
307.0360730235705
 30
0.0
 40
6.0
100
AcDbArc
 50
67.99999999999929
 51
177.3070369999964
  0
LINE
  5
537D
330
18
100
AcDbEntity
  8
1
  6
Continuous
100
AcDbLine
 10
232.9579530744315
 20
310.9851410235705
 30
0.0
 11
247.2347700744317
 21
305.0791640235705
 31
0.0
  0
LINE
  5
537E
330
18
100
AcDbEntity
  8
1
  6
Continuous
100
AcDbLine
 10
248.3229630744317
 20
306.6087200235707
 30
0.0
 11
216.3220650744315
 21
319.5379220235706
 31
0.0
  0
CIRCLE
  5
537F
330
18
100
AcDbEntity
  8
1
  6
Continuous
100
AcDbCircle
 10
283.1909980744317
 20
304.5929170235706
 30
0.0
 40
11.5
  0
CIRCLE
  5
5380
330
18
100
AcDbEntity
  8
1
  6
Continuous
100
AcDbCircle
 10
283.1909980744317
 20
304.5929170235706
 30
0.0
 40
12.0
  0
ARC
  5
5381
330
18
100
AcDbEntity
  8
1
  6
Continuous
100
AcDbCircle
 10
283.1909980744317
 20
304.5929170235706
 30
0.0
 40
33.0
100
AcDbArc
 50
181.2188179999999
 51
214.7811820000004
  0
LINE
  5
5382
330
18
100
AcDbEntity
  8
1
  6
Continuous
100
AcDbLine
 10
256.1670250744316
 20
282.4671810235705
 30
0.0
 11
237.8773480744316
 21
253.1975810235706
 31
0.0
  0
LINE
  5
5383
330
18
100
AcDbEntity
  8
1
  6
Continuous
100
AcDbLine
 10
270.4990400744315
 20
272.0543620235705
 30
0.0
 11
248.3138170744316
 21
245.6150420235705
 31
0.0
  0
LINE
  5
5384
330
18
100
AcDbEntity
  8
1
  6
Continuous
100
AcDbLine
 10
259.2440060744315
 20
258.3479710235706
 30
0.0
 11
248.3782080744315
 21
245.6138260235706
 31
0.0
  0
LINE
  5
5385
330
18
100
AcDbEntity
  8
1
  6
Continuous
100
AcDbLine
 10
246.3088670744316
 20
269.8952560235706
 30
0.0
 11
254.3876080744317
 21
283.0649940235706
 31
0.0
  0
ARC
  5
5386
330
18
100
AcDbEntity
  8
1
  6
Continuous
100
AcDbCircle
 10
247.1991430744314
 20
303.8271680235705
 30
0.0
 40
3.0
100
AcDbArc
 50
1.218817999999888
 51
67.99999999999929
  0
ARC
  5
5387
330
18
100
AcDbEntity
  8
1
  6
Continuous
100
AcDbCircle
 10
283.1909980744317
 20
304.5929170235706
 30
0.0
 40
34.851433
100
AcDbArc
 50
181.8682429999979
 51
214.1317570000044
  0
LINE
  5
5388
330
18
100
AcDbEntity
  8
1
  6
Continuous
100
AcDbLine
 10
261.5887670744316
 20
258.7937580235706
 30
0.0
 11
271.6174640744316
 21
270.5467700235706
 31
0.0
  0
LINE
  5
5389
330
18
100
AcDbEntity
  8
1
  6
Continuous
100
AcDbLine
 10
304.7932300744314
 20
258.7937580235706
 30
0.0
 11
294.7645320744316
 21
270.5467700235706
 31
0.0
  0
ARC
  5
538A
330
18
100
AcDbEntity
  8
1
  6
Continuous
100
AcDbCircle
 10
283.1909980744317
 20
304.5929170235706
 30
0.0
 40
56.50122099999999
100
AcDbArc
 50
249.5378109999992
 51
290.4621890000008
  0
ARC
  5
538B
330
18
100
AcDbEntity
  8
1
  6
Continuous
100
AcDbCircle
 10
283.1909980744317
 20
304.5929170235706
 30
0.0
 40
58.0
100
AcDbArc
 50
249.3070369999981
 51
290.6929630000017
  0
ARC
  5
538C
330
18
100
AcDbEntity
  8
1
  6
Continuous
100
AcDbCircle
 10
301.3700620744316
 20
255.8728120235706
 30
0.0
 40
4.5
100
AcDbArc
 50
290.4621890000008
 51
40.47370799999851
  0
ARC
  5
538D
330
18
100
AcDbEntity
  8
1
  6
Continuous
100
AcDbCircle
 10
301.5657160744317
 20
255.9475700235706
 30
0.0
 40
6.0
100
AcDbArc
 50
290.6929630000017
 51
40.00000000000261
  0
ARC
  5
538E
330
18
100
AcDbEntity
  8
1
  6
Continuous
100
AcDbCircle
 10
308.6594040744316
 20
259.6461630235705
 30
0.0
 40
2.0
100
AcDbArc
 50
207.537182000001
 51
220.4734800000017
  0
ARC
  5
538F
330
18
100
AcDbEntity
  8
1
  6
Continuous
100
AcDbCircle
 10
265.0119350744316
 20
255.8728120235706
 30
0.0
 40
4.5
100
AcDbArc
 50
139.5262920000014
 51
249.5378109999992
  0
ARC
  5
5390
330
18
100
AcDbEntity
  8
1
  6
Continuous
100
AcDbCircle
 10
264.8162810744315
 20
255.9475700235706
 30
0.0
 40
6.0
100
AcDbArc
 50
139.9999999999974
 51
249.3070369999981
  0
ARC
  5
5391
330
18
100
AcDbEntity
  8
1
  6
Continuous
100
AcDbCircle
 10
257.7225930744316
 20
259.6461630235705
 30
0.0
 40
2.0
100
AcDbArc
 50
319.5265199999982
 51
332.462817999999
  0
ARC
  5
5392
330
18
100
AcDbEntity
  8
1
  6
Continuous
100
AcDbCircle
 10
283.1909980744317
 20
304.5929170235706
 30
0.0
 40
33.0
100
AcDbArc
 50
253.2188180000009
 51
286.7811819999992
  0
ARC
  5
5393
330
18
100
AcDbEntity
  8
1
  6
Continuous
100
AcDbCircle
 10
283.1909980744317
 20
304.5929170235706
 30
0.0
 40
34.851433
100
AcDbArc
 50
253.8682429999969
 51
286.1317570000029
  0
ARC
  5
5398
330
18
100
AcDbEntity
  8
1
  6
Continuous
100
AcDbCircle
 10
283.1909980744317
 20
304.5929170235706
 30
0.0
 40
33.0
100
AcDbArc
 50
286.7811819999992
 51
325.2188179999996
  0
ARC
  5
5399
330
18
100
AcDbEntity
  8
1
  6
Continuous
100
AcDbCircle
 10
313.5457580744316
 20
284.0166530235705
 30
0.0
 40
1.82
100
AcDbArc
 50
145.8682429999955
 51
211.5262920000009
  0
ARC
  5
539A
330
18
100
AcDbEntity
  8
1
  6
Continuous
100
AcDbCircle
 10
312.7591160744316
 20
284.0569390235706
 30
0.0
 40
3.0
100
AcDbArc
 50
145.2188179999996
 51
211.9999999999995
  0
ARC
  5
539B
330
18
100
AcDbEntity
  8
1
  6
Continuous
100
AcDbCircle
 10
293.3800510744317
 20
269.3654100235705
 30
0.0
 40
1.82
100
AcDbArc
 50
40.47370799999851
 51
106.1317570000029
  0
ARC
  5
539C
330
18
100
AcDbEntity
  8
1
  6
Continuous
100
AcDbCircle
 10
293.5848230744316
 20
270.1259990235705
 30
0.0
 40
3.0
100
AcDbArc
 50
40.00000000000261
 51
106.7811819999991
  0
ARC
  5
53A0
330
18
100
AcDbEntity
  8
1
  6
Continuous
100
AcDbCircle
 10
283.1909980744317
 20
304.5929170235706
 30
0.0
 40
33.0
100
AcDbArc
 50
214.7811820000004
 51
253.2188180000009
  0
ARC
  5
53A1
330
18
100
AcDbEntity
  8
1
  6
Continuous
100
AcDbCircle
 10
272.7971740744314
 20
270.1259990235705
 30
0.0
 40
3.0
100
AcDbArc
 50
73.21881800000088
 51
139.9999999999974
  0
ARC
  5
53A2
330
18
100
AcDbEntity
  8
1
  6
Continuous
100
AcDbCircle
 10
273.0019460744315
 20
269.3654100235705
 30
0.0
 40
1.82
100
AcDbArc
 50
73.86824299999704
 51
139.5262920000014
  0
ARC
  5
53A3
330
18
100
AcDbEntity
  8
1
  6
Continuous
100
AcDbCircle
 10
252.8362390744316
 20
284.0166530235705
 30
0.0
 40
1.82
100
AcDbArc
 50
328.473707999999
 51
34.13175700000445
  0
ARC
  5
53A4
330
18
100
AcDbEntity
  8
1
  6
Continuous
100
AcDbCircle
 10
253.6228800744315
 20
284.0569390235706
 30
0.0
 40
3.0
100
AcDbArc
 50
328.0000000000005
 51
34.78118200000035
  0
LINE
  5
53A6
330
18
100
AcDbEntity
  8
1
  6
Continuous
100
AcDbLine
 10
237.8562930744315
 20
253.2584440235706
 30
0.0
 11
246.6094690744316
 21
267.5274990235706
 31
0.0
  0
ARC
  5
53A7
330
18
100
AcDbEntity
  8
1
  6
Continuous
100
AcDbCircle
 10
239.5734450744317
 20
252.1377420235705
 30
0.0
 40
2.0
100
AcDbArc
 50
148.0000000000005
 51
230.2557819999976
  0
ARC
  5
53A8
330
18
100
AcDbEntity
  8
1
  6
Continuous
100
AcDbCircle
 10
239.6105230744315
 20
252.1823330235706
 30
0.0
 40
2.057993
100
AcDbArc
 50
148.4734800000008
 51
230.2557819999976
  0
ARC
  5
53A9
330
18
100
AcDbEntity
  8
1
  6
Continuous
100
AcDbCircle
 10
246.7817280744316
 20
246.9006180235705
 30
0.0
 40
2.0
100
AcDbArc
 50
252.0000000000005
 51
319.9999999999973
  0
ARC
  5
53AA
330
18
100
AcDbEntity
  8
1
  6
Continuous
100
AcDbCircle
 10
246.8126790744315
 20
246.9496610235705
 30
0.0
 40
2.057993
100
AcDbArc
 50
237.7442180000013
 51
319.5265199999982
  0
ARC
  5
53AB
330
18
100
AcDbEntity
  8
1
  6
Continuous
100
AcDbCircle
 10
283.1909980744317
 20
304.5929170235706
 30
0.0
 40
56.50122099999999
100
AcDbArc
 50
177.5378109999976
 51
218.4621889999991
  0
ARC
  5
53AC
330
18
100
AcDbEntity
  8
1
  6
Continuous
100
AcDbCircle
 10
283.1909980744317
 20
304.5929170235706
 30
0.0
 40
58.0
100
AcDbArc
 50
177.3070369999964
 51
218.6929630000005
  0
ARC
  5
53AD
330
18
100
AcDbEntity
  8
1
  6
Continuous
100
AcDbCircle
 10
242.4730650744316
 20
272.2482590235706
 30
0.0
 40
4.5
100
AcDbArc
 50
218.4621889999991
 51
328.473707999999
  0
ARC
  5
53AE
330
18
100
AcDbEntity
  8
1
  6
Continuous
100
AcDbCircle
 10
242.6046240744317
 20
272.0852830235705
 30
0.0
 40
6.0
100
AcDbArc
 50
218.6929630000005
 51
328.0000000000005
  0
ARC
  5
53AF
330
18
100
AcDbEntity
  8
1
  6
Continuous
100
AcDbCircle
 10
248.3142660744315
 20
266.4817130235705
 30
0.0
 40
2.0
100
AcDbArc
 50
135.5371820000034
 51
148.4734800000008
  0
ARC
  5
53B0
330
18
100
AcDbEntity
  8
1
  6
Continuous
100
AcDbCircle
 10
246.5390580744315
 20
303.3973840235705
 30
0.0
 40
1.82
100
AcDbArc
 50
1.86824299999798
 51
67.52629200000047
  0
LINE
  5
53B1
330
18
100
AcDbEntity
  8
1
  6
Continuous
100
AcDbLine
 10
238.7943560744315
 20
328.9477420235706
 30
0.0
 11
253.8159900744317
 21
325.3340750235707
 31
0.0
  0
LINE
  5
53B2
330
18
100
AcDbEntity
  8
1
  6
Continuous
100
AcDbLine
 10
253.7973060744316
 20
323.4570150235707
 30
0.0
 11
220.3084410744315
 21
331.8067270235705
 31
0.0
  0
ARC
  5
53B3
330
18
100
AcDbEntity
  8
1
  6
Continuous
100
AcDbCircle
 10
283.1909980744317
 20
304.5929170235706
 30
0.0
 40
56.50122099999999
100
AcDbArc
 50
105.5378110000004
 51
146.4621889999991
  0
ARC
  5
53B4
330
18
100
AcDbEntity
  8
1
  6
Continuous
100
AcDbCircle
 10
283.1909980744317
 20
304.5929170235706
 30
0.0
 40
58.0
100
AcDbArc
 50
105.3070370000023
 51
146.6929630000011
  0
LINE
  5
53B5
330
18
100
AcDbEntity
  8
1
  6
Continuous
100
AcDbLine
 10
275.5994230744315
 20
356.4833450235705
 30
0.0
 11
276.7409060744316
 21
372.8073120235706
 31
0.0
  0
ARC
  5
53B6
330
18
100
AcDbEntity
  8
1
  6
Continuous
100
AcDbCircle
 10
269.2612110744316
 20
354.6936950235706
 30
0.0
 40
4.5
100
AcDbArc
 50
355.5262919999975
 51
105.5378110000004
  0
ARC
  5
53B7
330
18
100
AcDbEntity
  8
1
  6
Continuous
100
AcDbCircle
 10
269.4634400744316
 20
354.7482170235706
 30
0.0
 40
6.0
100
AcDbArc
 50
10.75154699999856
 51
105.3070370000023
  0
LINE
  5
53B8
330
18
100
AcDbEntity
  8
1
  6
Continuous
100
AcDbLine
 10
275.3824250744314
 20
356.0815530235706
 30
0.0
 11
276.6880980744317
 21
372.7704490235705
 31
0.0
  0
ARC
  5
53C3
330
18
100
AcDbEntity
  8
1
  6
Continuous
100
AcDbCircle
 10
283.1909980744317
 20
304.5929170235706
 30
0.0
 40
34.851433
100
AcDbArc
 50
116.8493699999987
 51
142.1317570000005
  0
ARC
  5
53C4
330
18
100
AcDbEntity
  8
1
  6
Continuous
100
AcDbCircle
 10
283.1909980744317
 20
304.5929170235706
 30
0.0
 40
33.0
100
AcDbArc
 50
120.5899730000006
 51
142.7811820000023
  0
ARC
  5
53C5
330
18
100
AcDbEntity
  8
1
  6
Continuous
100
AcDbCircle
 10
254.2416730744316
 20
327.1035930235706
 30
0.0
 40
1.82
100
AcDbArc
 50
256.4737079999981
 51
322.1317570000004
  0
ARC
  5
53C6
330
18
100
AcDbEntity
  8
1
  6
Continuous
100
AcDbCircle
 10
254.5230720744316
 20
326.3679020235707
 30
0.0
 40
3.0
100
AcDbArc
 50
255.999999999998
 51
322.7811820000023
  0
LINE
  5
53C8
330
18
100
AcDbEntity
  8
1
  6
Continuous
100
AcDbLine
 10
273.7475010744315
 20
354.3426880235707
 30
0.0
 11
273.4947490744316
 21
351.1122280235706
 31
0.0
  0
ARC
  5
53C9
330
18
100
AcDbEntity
  8
1
  6
Continuous
100
AcDbCircle
 10
277.3763320744314
 20
355.9255570235706
 30
0.0
 40
2.0
100
AcDbArc
 50
175.526520000003
 51
180.3281609999998
  0
ARC
  5
53E3
330
18
100
AcDbEntity
  8
1
  6
Continuous
100
AcDbCircle
 10
278.7360340744317
 20
372.6678000235706
 30
0.0
 40
2.0
100
AcDbArc
 50
107.9999999999994
 51
176.0000000000033
  0
ARC
  5
53E4
330
18
100
AcDbEntity
  8
1
  6
Continuous
100
AcDbCircle
 10
278.7398210744315
 20
372.6099300235705
 30
0.0
 40
2.057993
100
AcDbArc
 50
93.74421800000073
 51
175.526520000003
  0
ARC
  5
53E5
330
18
100
AcDbEntity
  8
1
  6
Continuous
100
AcDbCircle
 10
217.0712780744315
 20
321.3922900235705
 30
0.0
 40
2.0
100
AcDbArc
 50
180.0
 51
247.9999999999992
  0
ARC
  5
53E6
330
18
100
AcDbEntity
  8
1
  6
Continuous
100
AcDbCircle
 10
217.1274850744316
 20
321.3780090235705
 30
0.0
 40
2.057993
100
AcDbArc
 50
165.7442179999986
 51
247.5265200000006
  0
ARC
  5
53E7
330
18
100
AcDbEntity
  8
1
  6
Continuous
100
AcDbCircle
 10
239.8468680744315
 20
333.3229240235706
 30
0.0
 40
4.5
100
AcDbArc
 50
146.4621889999991
 51
256.4737079999981
  0
ARC
  5
53E8
330
18
100
AcDbEntity
  8
1
  6
Continuous
100
AcDbCircle
 10
239.7325220744314
 20
333.1474410235707
 30
0.0
 40
6.0
100
AcDbArc
 50
146.6929630000011
 51
255.999999999998
  0
LINE
  5
53E9
330
18
100
AcDbEntity
  8
1
  6
Continuous
100
AcDbLine
 10
220.3598190744317
 20
331.8455590235705
 30
0.0
 11
236.6353770744315
 21
327.9301750235707
 31
0.0
  0
ARC
  5
53EA
330
18
100
AcDbEntity
  8
1
  6
Continuous
100
AcDbCircle
 10
236.1675870744316
 20
325.9856510235707
 30
0.0
 40
2.0
100
AcDbArc
 50
63.53718200000216
 51
76.4734799999965
  0
LINE
  5
53EB
330
18
100
AcDbEntity
  8
1
  6
Continuous
100
AcDbLine
 10
231.8094140744315
 20
313.0773860235706
 30
0.0
 11
216.3408060744316
 21
319.4763070235707
 31
0.0
  0
ARC
  5
53EC
330
18
100
AcDbEntity
  8
1
  6
Continuous
100
AcDbCircle
 10
232.5739250744315
 20
314.9254990235706
 30
0.0
 40
2.0
100
AcDbArc
 50
247.5265200000006
 51
260.4628179999981
  0
ARC
  5
53ED
330
18
100
AcDbEntity
  8
1
  6
Continuous
100
AcDbCircle
 10
219.8245970744315
 20
329.8661350235705
 30
0.0
 40
2.0
100
AcDbArc
 50
75.99999999999801
 51
158.2557820000016
  0
ARC
  5
53EE
330
18
100
AcDbEntity
  8
1
  6
Continuous
100
AcDbCircle
 10
219.8784640744315
 20
329.8446510235705
 30
0.0
 40
2.057993
100
AcDbArc
 50
76.4734799999965
 51
158.2557820000016
  0
CIRCLE
  5
53EF
330
18
100
AcDbEntity
  8
1
  6
Continuous
100
AcDbCircle
 10
343.1909980744316
 20
585.6349418774969
 30
0.0
 40
34.0
  0
LINE
  5
53F0
330
18
100
AcDbEntity
  8
4
  6
CENTER
 48
0.7
100
AcDbLine
 10
405.1909980744317
 20
585.634941877497
 30
0.0
 11
201.1909980744317
 21
585.6349418774967
 31
0.0
  0
LINE
  5
53F1
330
18
100
AcDbEntity
  8
1
  6
Continuous
100
AcDbLine
 10
387.1909980744317
 20
530.6349418774969
 30
0.0
 11
299.1909980744317
 21
530.6349418774969
 31
0.0
  0
LINE
  5
53F2
330
18
100
AcDbEntity
  8
1
  6
Continuous
100
AcDbLine
 10
387.1909980744317
 20
640.6349418774968
 30
0.0
 11
299.1909980744317
 21
640.6349418774968
 31
0.0
  0
LINE
  5
53F3
330
18
100
AcDbEntity
  8
1
  6
Continuous
100
AcDbLine
 10
304.1909980744317
 20
422.0929170235706
 30
0.0
 11
380.6909980744316
 21
422.0929170235706
 31
0.0
  0
LINE
  5
53F4
330
18
100
AcDbEntity
  8
1
  6
Continuous
100
AcDbLine
 10
349.1909980744317
 20
421.7929170235707
 30
0.0
 11
306.6484590744317
 21
421.7929170235707
 31
0.0
  0
LINE
  5
53F5
330
18
100
AcDbEntity
  8
1
  6
Continuous
100
AcDbLine
 10
288.1909980744317
 20
444.5928900235704
 30
0.0
 11
332.9409980744316
 21
444.5928900235704
 31
0.0
  0
LINE
  5
53F6
330
18
100
AcDbEntity
  8
1
  6
Continuous
100
AcDbLine
 10
335.2409980744316
 20
449.5928900235704
 30
0.0
 11
288.1909980744317
 21
449.5928900235704
 31
0.0
  0
LINE
  5
53F7
330
18
100
AcDbEntity
  8
1
  6
Continuous
100
AcDbLine
 10
378.1909980744317
 20
431.5929170235706
 30
0.0
 11
308.1909980744317
 21
431.5929170235706
 31
0.0
  0
LINE
  5
53F8
330
18
100
AcDbEntity
  8
1
  6
Continuous
100
AcDbLine
 10
378.1909980744317
 20
424.5929170235706
 30
0.0
 11
308.1909980744317
 21
424.5929170235706
 31
0.0
  0
LINE
  5
53F9
330
18
100
AcDbEntity
  8
4
  6
CENTER
 48
0.7
100
AcDbLine
 10
343.1909980744319
 20
647.6349418774971
 30
0.0
 11
343.1909980744316
 21
523.6349418774969
 31
0.0
  0
LINE
  5
53FA
330
18
100
AcDbEntity
  8
1
  6
Continuous
100
AcDbLine
 10
398.1909980744317
 20
541.6349418774967
 30
0.0
 11
398.1909980744317
 21
629.6349418774967
 31
0.0
  0
LINE
  5
53FB
330
18
100
AcDbEntity
  8
4
  6
CENTER
 48
0.2
100
AcDbLine
 10
397.4409980744317
 20
540.6349418774968
 30
0.0
 11
378.9409980744317
 21
540.6349418774968
 31
0.0
  0
ARC
  5
53FC
330
18
100
AcDbEntity
  8
1
  6
Continuous
100
AcDbCircle
 10
378.9680860744315
 20
416.0609040235706
 30
0.0
 40
6.032011999999999
100
AcDbArc
 50
0.000000000000007
 51
90.0
  0
ARC
  5
53FD
330
18
100
AcDbEntity
  8
1
  6
Continuous
100
AcDbCircle
 10
377.1909980744317
 20
436.5928900235704
 30
0.0
 40
5.0
100
AcDbArc
 50
270.0
 51
0.000000000000007
  0
LINE
  5
53FE
330
18
100
AcDbEntity
  8
1
  6
Continuous
100
AcDbLine
 10
398.1909980744317
 20
449.5928900235704
 30
0.0
 11
351.1409980744315
 21
449.5928900235704
 31
0.0
  0
LINE
  5
53FF
330
18
100
AcDbEntity
  8
1
  6
Continuous
100
AcDbLine
 10
398.1909980744317
 20
444.5928900235704
 30
0.0
 11
353.4409980744317
 21
444.5928900235704
 31
0.0
  0
LINE
  5
5400
330
18
100
AcDbEntity
  8
4
  6
CENTER
 48
0.2
100
AcDbLine
 10
388.1909980744317
 20
455.5928900235706
 30
0.0
 11
388.1909980744317
 21
438.5928900235706
 31
0.0
  0
ARC
  5
5401
330
18
100
AcDbEntity
  8
1
  6
Continuous
100
AcDbCircle
 10
380.6909980744316
 20
416.0929170235706
 30
0.0
 40
6.0
100
AcDbArc
 50
0.000000000000007
 51
90.0
  0
LINE
  5
5402
330
18
100
AcDbEntity
  8
1
  6
Continuous
100
AcDbLine
 10
380.4755620744317
 20
432.8230560235706
 30
0.0
 11
398.1909980744317
 21
443.8928900235705
 31
0.0
  0
LINE
  5
5403
330
18
100
AcDbEntity
  8
1
  6
Continuous
100
AcDbLine
 10
398.1909980744317
 20
449.5928900235704
 30
0.0
 11
398.1909980744317
 21
443.8928900235705
 31
0.0
  0
LINE
  5
5404
330
18
100
AcDbEntity
  8
1
  6
Continuous
100
AcDbLine
 10
382.1909980744317
 20
440.5928900235704
 30
0.0
 11
382.1909980744317
 21
436.5928900235704
 31
0.0
  0
ARC
  5
5405
330
18
100
AcDbEntity
  8
1
  6
Continuous
100
AcDbCircle
 10
386.1909980744317
 20
440.5928900235704
 30
0.0
 40
4.0
100
AcDbArc
 50
90.0
 51
180.0
  0
LINE
  5
5406
330
18
100
AcDbEntity
  8
4
  6
CENTER
 48
0.2
100
AcDbLine
 10
388.1909980744317
 20
531.3849418774967
 30
0.0
 11
388.1909980744317
 21
549.8849418774969
 31
0.0
  0
CIRCLE
  5
5407
330
18
100
AcDbEntity
  8
1
  6
Continuous
100
AcDbCircle
 10
388.1909980744317
 20
540.6349418774968
 30
0.0
 40
5.25
  0
ARC
  5
5408
330
18
100
AcDbEntity
  8
1
  6
Continuous
100
AcDbCircle
 10
387.1909980744317
 20
541.6349418774967
 30
0.0
 40
11.0
100
AcDbArc
 50
270.0
 51
0.000000000000007
  0
LINE
  5
5409
330
18
100
AcDbEntity
  8
1
  6
Continuous
100
AcDbLine
 10
350.5665420744317
 20
449.4928900235707
 30
0.0
 11
335.8154550744316
 21
449.4928900235707
 31
0.0
  0
LINE
  5
540A
330
18
100
AcDbEntity
  8
1
  6
Continuous
100
AcDbLine
 10
348.6909980744317
 20
432.8230560235706
 30
0.0
 11
337.6909980744317
 21
432.8230560235706
 31
0.0
  0
LINE
  5
540B
330
18
100
AcDbEntity
  8
1
  6
Continuous
100
AcDbLine
 10
349.4409980744316
 20
447.8928900235705
 30
0.0
 11
336.9409980744316
 21
447.8928900235705
 31
0.0
  0
LINE
  5
540C
330
18
100
AcDbEntity
  8
1
  6
Continuous
100
AcDbLine
 10
352.0662260744316
 20
443.8928900235705
 30
0.0
 11
334.3157710744317
 21
443.8928900235705
 31
0.0
  0
LINE
  5
540F
330
18
100
AcDbEntity
  8
1
  6
Continuous
100
AcDbLine
 10
378.1909980744317
 20
431.5929170235706
 30
0.0
 11
378.1909980744317
 21
424.5929170235706
 31
0.0
  0
ARC
  5
5410
330
18
100
AcDbEntity
  8
1
  6
Continuous
100
AcDbCircle
 10
372.5909980744315
 20
423.9929170235706
 30
0.0
 40
0.6
100
AcDbArc
 50
0.000000000000007
 51
90.0
  0
LINE
  5
5411
330
18
100
AcDbEntity
  8
1
  6
Continuous
100
AcDbLine
 10
373.1909980744317
 20
423.9929170235706
 30
0.0
 11
373.1909980744317
 21
422.0929170235706
 31
0.0
  0
ARC
  5
5412
330
18
100
AcDbEntity
  8
1
  6
Continuous
100
AcDbCircle
 10
349.1909980744317
 20
415.7929170235706
 30
0.0
 40
6.0
100
AcDbArc
 50
0.000000000000007
 51
90.0
  0
LINE
  5
5413
330
18
100
AcDbEntity
  8
1
  6
Continuous
100
AcDbLine
 10
353.4409980744317
 20
443.7928900235706
 30
0.0
 11
353.4409980744317
 21
434.3230560235706
 31
0.0
  0
ARC
  5
5414
330
18
100
AcDbEntity
  8
1
  6
Continuous
100
AcDbCircle
 10
354.4409980744317
 20
433.8230560235706
 30
0.0
 40
1.0
100
AcDbArc
 50
180.0
 51
270.0
  0
ARC
  5
5415
330
18
100
AcDbEntity
  8
1
  6
Continuous
100
AcDbCircle
 10
352.0662260744316
 20
445.5928900235704
 30
0.0
 40
1.7
100
AcDbArc
 50
270.0
 51
323.9681210000017
  0
ARC
  5
5416
330
18
100
AcDbEntity
  8
1
  6
Continuous
100
AcDbCircle
 10
351.1409980744315
 20
447.8928900235705
 30
0.0
 40
1.7
100
AcDbArc
 50
90.0
 51
180.0
  0
LINE
  5
5417
330
18
100
AcDbEntity
  8
1
  6
Continuous
100
AcDbLine
 10
332.9409980744316
 20
443.7928900235706
 30
0.0
 11
332.9409980744316
 21
434.3230560235706
 31
0.0
  0
ARC
  5
5418
330
18
100
AcDbEntity
  8
1
  6
Continuous
100
AcDbCircle
 10
331.9409980744317
 20
433.8230560235706
 30
0.0
 40
1.0
100
AcDbArc
 50
270.0
 51
0.000000000000007
  0
ARC
  5
5419
330
18
100
AcDbEntity
  8
1
  6
Continuous
100
AcDbCircle
 10
334.3157710744317
 20
445.5928900235704
 30
0.0
 40
1.7
100
AcDbArc
 50
216.0318789999982
 51
270.0
  0
ARC
  5
541A
330
18
100
AcDbEntity
  8
1
  6
Continuous
100
AcDbCircle
 10
335.2409980744316
 20
447.8928900235705
 30
0.0
 40
1.7
100
AcDbArc
 50
0.000000000000007
 51
90.0
  0
LINE
  5
541B
330
18
100
AcDbEntity
  8
1
  6
Continuous
100
AcDbLine
 10
349.4409980744316
 20
530.6349418774969
 30
0.0
 11
349.4409980744316
 21
547.5568968774969
 31
0.0
  0
ARC
  5
541C
330
18
100
AcDbEntity
  8
1
  6
Continuous
100
AcDbCircle
 10
355.4409980744317
 20
547.5568968774969
 30
0.0
 40
6.0
100
AcDbArc
 50
107.8333829999974
 51
180.0
  0
LINE
  5
541D
330
18
100
AcDbEntity
  8
1
  6
Continuous
100
AcDbLine
 10
336.9409980744316
 20
530.6349418774969
 30
0.0
 11
336.9409980744316
 21
547.5568968774969
 31
0.0
  0
ARC
  5
541E
330
18
100
AcDbEntity
  8
1
  6
Continuous
100
AcDbCircle
 10
330.9409980744316
 20
547.5568968774969
 30
0.0
 40
6.0
100
AcDbArc
 50
0.000000000000007
 51
72.16661700000251
  0
ARC
  5
541F
330
18
100
AcDbEntity
  8
1
  6
Continuous
100
AcDbCircle
 10
381.2690430744314
 20
573.3849418774967
 30
0.0
 40
6.0
100
AcDbArc
 50
90.0
 51
162.1666170000024
  0
ARC
  5
5420
330
18
100
AcDbEntity
  8
1
  6
Continuous
100
AcDbCircle
 10
381.2690430744314
 20
597.8849418774967
 30
0.0
 40
6.0
100
AcDbArc
 50
197.8333829999974
 51
270.0
  0
LINE
  5
5421
330
18
100
AcDbEntity
  8
4
  6
CENTER
 48
0.2
100
AcDbLine
 10
397.4409980744317
 20
630.6349418774969
 30
0.0
 11
378.9409980744317
 21
630.6349418774969
 31
0.0
  0
LINE
  5
5422
330
18
100
AcDbEntity
  8
1
  6
Continuous
100
AcDbLine
 10
398.1909980744317
 20
579.3849418774969
 30
0.0
 11
381.2690430744314
 21
579.3849418774969
 31
0.0
  0
LINE
  5
5423
330
18
100
AcDbEntity
  8
1
  6
Continuous
100
AcDbLine
 10
398.1909980744317
 20
591.8849418774969
 30
0.0
 11
381.2690430744314
 21
591.8849418774969
 31
0.0
  0
LINE
  5
5424
330
18
100
AcDbEntity
  8
4
  6
CENTER
 48
0.2
100
AcDbLine
 10
388.1909980744317
 20
621.3849418774969
 30
0.0
 11
388.1909980744317
 21
639.8849418774967
 31
0.0
  0
CIRCLE
  5
5425
330
18
100
AcDbEntity
  8
1
  6
Continuous
100
AcDbCircle
 10
388.1909980744317
 20
630.6349418774969
 30
0.0
 40
5.25
  0
ARC
  5
5426
330
18
100
AcDbEntity
  8
1
  6
Continuous
100
AcDbCircle
 10
387.1909980744317
 20
629.6349418774967
 30
0.0
 40
11.0
100
AcDbArc
 50
0.000000000000007
 51
90.0
  0
CIRCLE
  5
5427
330
18
100
AcDbEntity
  8
1
  6
Continuous
100
AcDbCircle
 10
343.1909980744316
 20
585.6349418774969
 30
0.0
 40
26.0
  0
LINE
  5
5428
330
18
100
AcDbEntity
  8
1
  6
Continuous
100
AcDbLine
 10
356.1683160744314
 20
593.1273988774967
 30
0.0
 11
345.0208140744316
 21
586.6913868774966
 31
0.0
  0
LINE
  5
5429
330
18
100
AcDbEntity
  8
1
  6
Continuous
100
AcDbLine
 10
356.1683160744314
 20
578.1424838774967
 30
0.0
 11
345.0208140744316
 21
584.5784968774968
 31
0.0
  0
ARC
  5
542A
330
18
100
AcDbEntity
  8
1
  6
Continuous
100
AcDbCircle
 10
338.3186940744317
 20
578.5676758774967
 30
0.0
 40
10.0
100
AcDbArc
 50
304.9051719999995
 51
350.8337980000006
  0
ARC
  5
542B
330
18
100
AcDbEntity
  8
1
  6
Continuous
100
AcDbCircle
 10
344.5909980744315
 20
583.2100708774968
 30
0.0
 40
13.0
100
AcDbArc
 50
274.3012219999992
 51
325.6987780000026
  0
LINE
  5
542C
330
18
100
AcDbEntity
  8
1
  6
Continuous
100
AcDbLine
 10
348.1909980744317
 20
576.9746878774967
 30
0.0
 11
344.4409980744317
 21
583.4698778774967
 31
0.0
  0
LINE
  5
542D
330
18
100
AcDbEntity
  8
1
  6
Continuous
100
AcDbLine
 10
353.1909980744317
 20
585.6349418774969
 30
0.0
 11
345.6909980744317
 21
585.6349418774969
 31
0.0
  0
ARC
  5
542E
330
18
100
AcDbEntity
  8
1
  6
Continuous
100
AcDbCircle
 10
338.3186940744317
 20
592.7022068774967
 30
0.0
 40
10.0
100
AcDbArc
 50
9.166201999999355
 51
55.09482800000045
  0
ARC
  5
542F
330
18
100
AcDbEntity
  8
1
  6
Continuous
100
AcDbCircle
 10
344.5909980744315
 20
588.0598128774967
 30
0.0
 40
13.0
100
AcDbArc
 50
34.30122199999731
 51
85.69877800000076
  0
LINE
  5
5430
330
18
100
AcDbEntity
  8
1
  6
Continuous
100
AcDbLine
 10
348.1909980744317
 20
594.2951958774966
 30
0.0
 11
344.4409980744317
 21
587.8000048774967
 31
0.0
  0
ARC
  5
5431
330
18
100
AcDbEntity
  8
1
  6
Continuous
100
AcDbCircle
 10
346.8752780744316
 20
577.8817698774968
 30
0.0
 40
10.0
100
AcDbArc
 50
4.905171999999796
 51
50.83379799999993
  0
ARC
  5
5432
330
18
100
AcDbEntity
  8
1
  6
Continuous
100
AcDbCircle
 10
345.9909980744316
 20
585.6349418774969
 30
0.0
 40
13.0
100
AcDbArc
 50
334.3012220000023
 51
25.69877799999762
  0
ARC
  5
5433
330
18
100
AcDbEntity
  8
1
  6
Continuous
100
AcDbCircle
 10
351.7475820744316
 20
586.3208478774967
 30
0.0
 40
10.0
100
AcDbArc
 50
249.1662020000027
 51
295.0948280000004
  0
ARC
  5
5434
330
18
100
AcDbEntity
  8
1
  6
Continuous
100
AcDbCircle
 10
351.1996890744317
 20
578.7017208774967
 30
0.0
 40
5.0
100
AcDbArc
 50
325.6987780000026
 51
353.5781780000005
  0
ARC
  5
5435
330
18
100
AcDbEntity
  8
1
  6
Continuous
100
AcDbCircle
 10
353.1996890744317
 20
582.1658228774967
 30
0.0
 40
5.0
100
AcDbArc
 50
306.4218219999982
 51
334.3012220000023
  0
ARC
  5
5436
330
18
100
AcDbEntity
  8
1
  6
Continuous
100
AcDbCircle
 10
351.7475820744316
 20
584.9490348774967
 30
0.0
 40
10.0
100
AcDbArc
 50
64.90517199999951
 51
110.8337979999973
  0
ARC
  5
5437
330
18
100
AcDbEntity
  8
1
  6
Continuous
100
AcDbCircle
 10
351.1996890744317
 20
592.5681618774969
 30
0.0
 40
5.0
100
AcDbArc
 50
6.42182199999951
 51
34.30122199999731
  0
ARC
  5
5438
330
18
100
AcDbEntity
  8
1
  6
Continuous
100
AcDbCircle
 10
346.8752780744316
 20
593.3881138774967
 30
0.0
 40
10.0
100
AcDbArc
 50
309.166202
 51
355.0948280000002
  0
ARC
  5
5439
330
18
100
AcDbEntity
  8
1
  6
Continuous
100
AcDbCircle
 10
353.1996890744317
 20
589.1040608774967
 30
0.0
 40
5.0
100
AcDbArc
 50
25.69877799999762
 51
53.57817800000176
  0
LINE
  5
543A
330
18
100
AcDbEntity
  8
1
  6
Continuous
100
AcDbLine
 10
343.1909980744316
 20
570.6500268774967
 30
0.0
 11
343.1909980744316
 21
583.5220518774966
 31
0.0
  0
LINE
  5
543B
330
18
100
AcDbEntity
  8
1
  6
Continuous
100
AcDbLine
 10
341.3611830744316
 20
584.5784968774968
 30
0.0
 11
330.2136810744316
 21
578.1424838774967
 31
0.0
  0
ARC
  5
543C
330
18
100
AcDbEntity
  8
1
  6
Continuous
100
AcDbCircle
 10
339.5067190744316
 20
577.8817698774968
 30
0.0
 40
10.0
100
AcDbArc
 50
129.166202
 51
175.0948280000002
  0
ARC
  5
543D
330
18
100
AcDbEntity
  8
1
  6
Continuous
100
AcDbCircle
 10
340.3909980744315
 20
585.6349418774969
 30
0.0
 40
13.0
100
AcDbArc
 50
154.3012220000023
 51
205.6987779999976
  0
LINE
  5
543E
330
18
100
AcDbEntity
  8
1
  6
Continuous
100
AcDbLine
 10
338.1909980744317
 20
576.9746878774967
 30
0.0
 11
341.9409980744317
 21
583.4698778774967
 31
0.0
  0
ARC
  5
543F
330
18
100
AcDbEntity
  8
1
  6
Continuous
100
AcDbCircle
 10
334.6344150744316
 20
586.3208478774967
 30
0.0
 40
10.0
100
AcDbArc
 50
244.9051719999995
 51
290.8337979999972
  0
ARC
  5
5440
330
18
100
AcDbEntity
  8
1
  6
Continuous
100
AcDbCircle
 10
335.1823080744316
 20
578.7017208774967
 30
0.0
 40
5.0
100
AcDbArc
 50
186.4218219999994
 51
214.3012219999973
  0
ARC
  5
5441
330
18
100
AcDbEntity
  8
1
  6
Continuous
100
AcDbCircle
 10
341.7909980744316
 20
583.2100708774968
 30
0.0
 40
13.0
100
AcDbArc
 50
214.3012219999973
 51
265.6987780000007
  0
ARC
  5
5442
330
18
100
AcDbEntity
  8
1
  6
Continuous
100
AcDbCircle
 10
348.0633020744317
 20
578.5676758774967
 30
0.0
 40
10.0
100
AcDbArc
 50
189.1662019999993
 51
235.0948280000004
  0
ARC
  5
5443
330
18
100
AcDbEntity
  8
1
  6
Continuous
100
AcDbCircle
 10
345.1909980744316
 20
575.2326018774966
 30
0.0
 40
5.0
100
AcDbArc
 50
246.4218220000019
 51
274.3012219999992
  0
ARC
  5
5444
330
18
100
AcDbEntity
  8
1
  6
Continuous
100
AcDbCircle
 10
341.1909980744316
 20
575.2326018774966
 30
0.0
 40
5.0
100
AcDbArc
 50
265.6987780000007
 51
293.578177999998
  0
ARC
  5
5445
330
18
100
AcDbEntity
  8
1
  6
Continuous
100
AcDbCircle
 10
333.1823080744316
 20
582.1658228774967
 30
0.0
 40
5.0
100
AcDbArc
 50
205.6987779999976
 51
233.5781780000018
  0
LINE
  5
5446
330
18
100
AcDbEntity
  8
1
  6
Continuous
100
AcDbLine
 10
341.3611830744316
 20
586.6913868774966
 30
0.0
 11
330.2136810744316
 21
593.1273988774967
 31
0.0
  0
ARC
  5
5447
330
18
100
AcDbEntity
  8
1
  6
Continuous
100
AcDbCircle
 10
334.6344150744316
 20
584.9490348774967
 30
0.0
 40
10.0
100
AcDbArc
 50
69.16620200000271
 51
115.0948280000005
  0
ARC
  5
5448
330
18
100
AcDbEntity
  8
1
  6
Continuous
100
AcDbCircle
 10
335.1823080744316
 20
592.5681618774969
 30
0.0
 40
5.0
100
AcDbArc
 50
145.6987780000026
 51
173.5781780000005
  0
ARC
  5
5449
330
18
100
AcDbEntity
  8
1
  6
Continuous
100
AcDbCircle
 10
341.7909980744316
 20
588.0598128774967
 30
0.0
 40
13.0
100
AcDbArc
 50
94.30122199999926
 51
145.6987780000026
  0
ARC
  5
544A
330
18
100
AcDbEntity
  8
1
  6
Continuous
100
AcDbCircle
 10
339.5067190744316
 20
593.3881138774967
 30
0.0
 40
10.0
100
AcDbArc
 50
184.9051719999998
 51
230.8337979999999
  0
LINE
  5
544B
330
18
100
AcDbEntity
  8
1
  6
Continuous
100
AcDbLine
 10
343.1909980744316
 20
587.7478308774969
 30
0.0
 11
343.1909980744316
 21
600.6198568774967
 31
0.0
  0
ARC
  5
544C
330
18
100
AcDbEntity
  8
1
  6
Continuous
100
AcDbCircle
 10
348.0633020744317
 20
592.7022068774967
 30
0.0
 40
10.0
100
AcDbArc
 50
124.9051719999995
 51
170.8337980000006
  0
LINE
  5
544D
330
18
100
AcDbEntity
  8
1
  6
Continuous
100
AcDbLine
 10
338.1909980744317
 20
594.2951958774966
 30
0.0
 11
341.9409980744317
 21
587.8000048774967
 31
0.0
  0
LINE
  5
544E
330
18
100
AcDbEntity
  8
1
  6
Continuous
100
AcDbLine
 10
333.1909980744317
 20
585.6349418774969
 30
0.0
 11
340.6909980744317
 21
585.6349418774969
 31
0.0
  0
ARC
  5
544F
330
18
100
AcDbEntity
  8
1
  6
Continuous
100
AcDbCircle
 10
343.1909980744316
 20
568.5220518774967
 30
0.0
 40
15.0
100
AcDbArc
 50
85.2198080000012
 51
94.78019199999883
  0
ARC
  5
5450
330
18
100
AcDbEntity
  8
1
  6
Continuous
100
AcDbCircle
 10
343.1909980744316
 20
602.7478308774967
 30
0.0
 40
15.0
100
AcDbArc
 50
265.2198080000011
 51
274.7801919999988
  0
ARC
  5
5451
330
18
100
AcDbEntity
  8
1
  6
Continuous
100
AcDbCircle
 10
358.0111950744317
 20
577.0784968774968
 30
0.0
 40
15.0
100
AcDbArc
 50
145.2198080000002
 51
154.7801919999971
  0
ARC
  5
5452
330
18
100
AcDbEntity
  8
1
  6
Continuous
100
AcDbCircle
 10
358.0111950744317
 20
594.1913868774967
 30
0.0
 40
15.0
100
AcDbArc
 50
205.2198080000028
 51
214.7801919999998
  0
ARC
  5
5453
330
18
100
AcDbEntity
  8
1
  6
Continuous
100
AcDbCircle
 10
328.3708010744317
 20
577.0784968774968
 30
0.0
 40
15.0
100
AcDbArc
 50
25.21980800000282
 51
34.7801919999998
  0
ARC
  5
5454
330
18
100
AcDbEntity
  8
1
  6
Continuous
100
AcDbCircle
 10
328.3708010744317
 20
594.1913868774967
 30
0.0
 40
15.0
100
AcDbArc
 50
325.2198080000002
 51
334.7801919999972
  0
ARC
  5
5455
330
18
100
AcDbEntity
  8
1
  6
Continuous
100
AcDbCircle
 10
345.1909980744316
 20
596.0372808774969
 30
0.0
 40
5.0
100
AcDbArc
 50
85.69877800000076
 51
113.578177999998
  0
ARC
  5
5456
330
18
100
AcDbEntity
  8
1
  6
Continuous
100
AcDbCircle
 10
341.1909980744316
 20
596.0372808774969
 30
0.0
 40
5.0
100
AcDbArc
 50
66.42182200000196
 51
94.30122199999926
  0
ARC
  5
5457
330
18
100
AcDbEntity
  8
1
  6
Continuous
100
AcDbCircle
 10
333.1823080744316
 20
589.1040608774967
 30
0.0
 40
5.0
100
AcDbArc
 50
126.4218219999982
 51
154.3012220000023
  0
LINE
  5
5458
330
18
100
AcDbEntity
  8
1
  6
Continuous
100
AcDbLine
 10
349.4409980744316
 20
640.6349418774968
 30
0.0
 11
349.4409980744316
 21
623.7129868774967
 31
0.0
  0
ARC
  5
5459
330
18
100
AcDbEntity
  8
1
  6
Continuous
100
AcDbCircle
 10
355.4409980744317
 20
623.7129868774967
 30
0.0
 40
6.0
100
AcDbArc
 50
180.0
 51
252.1666170000024
  0
LINE
  5
545A
330
18
100
AcDbEntity
  8
1
  6
Continuous
100
AcDbLine
 10
336.9409980744316
 20
640.6349418774968
 30
0.0
 11
336.9409980744316
 21
623.7129868774967
 31
0.0
  0
ARC
  5
545B
330
18
100
AcDbEntity
  8
1
  6
Continuous
100
AcDbCircle
 10
330.9409980744316
 20
623.7129868774967
 30
0.0
 40
6.0
100
AcDbArc
 50
287.8333829999974
 51
0.000000000000007
  0
LINE
  5
545D
330
18
100
AcDbEntity
  8
4
  6
CENTER
 48
0.7
100
AcDbLine
 10
283.1909980744317
 20
636.1349418774969
 30
0.0
 11
283.1909980744317
 21
535.1349418774969
 31
0.0
  0
LINE
  5
545E
330
18
100
AcDbEntity
  8
1
  6
Continuous
100
AcDbLine
 10
288.1909980744317
 20
541.6349418774967
 30
0.0
 11
288.1909980744317
 21
629.6349418774967
 31
0.0
  0
LINE
  5
5461
330
18
100
AcDbEntity
  8
4
  6
CENTER
 48
0.2
100
AcDbLine
 10
298.1909980744317
 20
455.5928900235706
 30
0.0
 11
298.1909980744317
 21
438.5928900235706
 31
0.0
  0
LINE
  5
5462
330
18
100
AcDbEntity
  8
1
  6
Continuous
100
AcDbLine
 10
308.1909980744317
 20
431.5929170235706
 30
0.0
 11
308.1909980744317
 21
424.5929170235706
 31
0.0
  0
ARC
  5
5463
330
18
100
AcDbEntity
  8
1
  6
Continuous
100
AcDbCircle
 10
307.0882240744317
 20
413.6205950235704
 30
0.0
 40
8.472322
100
AcDbArc
 50
90.0
 51
158.602256
  0
ARC
  5
5464
330
18
100
AcDbEntity
  8
1
  6
Continuous
100
AcDbCircle
 10
306.6484590744317
 20
413.7929170235707
 30
0.0
 40
8.0
100
AcDbArc
 50
90.0
 51
158.602256
  0
ARC
  5
5465
330
18
100
AcDbEntity
  8
1
  6
Continuous
100
AcDbCircle
 10
313.7909980744316
 20
423.9929170235706
 30
0.0
 40
0.6
100
AcDbArc
 50
90.0
 51
180.0
  0
LINE
  5
5466
330
18
100
AcDbEntity
  8
1
  6
Continuous
100
AcDbLine
 10
313.1909980744317
 20
423.9929170235706
 30
0.0
 11
313.1909980744317
 21
422.0929170235706
 31
0.0
  0
ARC
  5
5467
330
18
100
AcDbEntity
  8
1
  6
Continuous
100
AcDbCircle
 10
304.1909980744317
 20
419.0929170235706
 30
0.0
 40
3.0
100
AcDbArc
 50
90.0
 51
166.7625560000029
  0
LINE
  5
5468
330
18
100
AcDbEntity
  8
1
  6
Continuous
100
AcDbLine
 10
305.9064350744315
 20
432.8230560235706
 30
0.0
 11
288.1909980744317
 21
443.8928900235705
 31
0.0
  0
LINE
  5
5469
330
18
100
AcDbEntity
  8
1
  6
Continuous
100
AcDbLine
 10
304.1909980744317
 20
440.5928900235704
 30
0.0
 11
304.1909980744317
 21
436.5928900235704
 31
0.0
  0
ARC
  5
546A
330
18
100
AcDbEntity
  8
1
  6
Continuous
100
AcDbCircle
 10
309.1909980744317
 20
436.5928900235704
 30
0.0
 40
5.0
100
AcDbArc
 50
180.0
 51
270.0
  0
ARC
  5
546B
330
18
100
AcDbEntity
  8
1
  6
Continuous
100
AcDbCircle
 10
300.1909980744317
 20
440.5928900235704
 30
0.0
 40
4.0
100
AcDbArc
 50
0.000000000000007
 51
90.0
  0
LINE
  5
546C
330
18
100
AcDbEntity
  8
1
  6
Continuous
100
AcDbLine
 10
288.1909980744317
 20
449.5928900235704
 30
0.0
 11
288.1909980744317
 21
443.8928900235705
 31
0.0
  0
LINE
  5
546D
330
18
100
AcDbEntity
  8
1
  6
Continuous
100
AcDbLine
 10
288.1909980744317
 20
554.6349418774967
 30
0.0
 11
264.8742140744316
 21
554.6349418774967
 31
0.0
  0
LINE
  5
546F
330
18
100
AcDbEntity
  8
1
  6
Continuous
100
AcDbLine
 10
288.1909980744317
 20
542.1349418774967
 30
0.0
 11
260.1909980744316
 21
542.1349418774967
 31
0.0
  0
LINE
  5
5470
330
18
100
AcDbEntity
  8
1
  6
Continuous
100
AcDbLine
 10
288.1909980744317
 20
554.1349418774967
 30
0.0
 11
260.1909980744316
 21
554.1349418774967
 31
0.0
  0
LINE
  5
5471
330
18
100
AcDbEntity
  8
4
  6
CENTER
 48
0.2
100
AcDbLine
 10
298.1909980744317
 20
531.3849418774967
 30
0.0
 11
298.1909980744317
 21
549.8849418774969
 31
0.0
  0
CIRCLE
  5
5472
330
18
100
AcDbEntity
  8
1
  6
Continuous
100
AcDbCircle
 10
298.1909980744317
 20
540.6349418774968
 30
0.0
 40
5.25
  0
ARC
  5
5473
330
18
100
AcDbEntity
  8
1
  6
Continuous
100
AcDbCircle
 10
299.1909980744317
 20
541.6349418774967
 30
0.0
 40
11.0
100
AcDbArc
 50
180.0
 51
270.0
  0
LINE
  5
5475
330
18
100
AcDbEntity
  8
4
  6
CENTER
 48
0.2
100
AcDbLine
 10
307.4409980744317
 20
540.6349418774968
 30
0.0
 11
288.9409980744316
 21
540.6349418774968
 31
0.0
  0
LINE
  5
547A
330
18
100
AcDbEntity
  8
1
  6
Continuous
100
AcDbLine
 10
266.2409980744316
 20
554.1349418774967
 30
0.0
 11
266.2409980744316
 21
554.6349418774967
 31
0.0
  0
LINE
  5
547B
330
18
100
AcDbEntity
  8
1
  6
Continuous
100
AcDbLine
 10
257.1909980744317
 20
551.1349418774967
 30
0.0
 11
257.1909980744317
 21
545.1349418774968
 31
0.0
  0
ARC
  5
547C
330
18
100
AcDbEntity
  8
1
  6
Continuous
100
AcDbCircle
 10
260.1909980744316
 20
545.1349418774968
 30
0.0
 40
3.0
100
AcDbArc
 50
180.0
 51
270.0
  0
ARC
  5
547D
330
18
100
AcDbEntity
  8
1
  6
Continuous
100
AcDbCircle
 10
260.1909980744316
 20
551.1349418774967
 30
0.0
 40
3.0
100
AcDbArc
 50
90.0
 51
180.0
  0
LINE
  5
547E
330
18
100
AcDbEntity
  8
1
  6
Continuous
100
AcDbLine
 10
264.0229530744316
 20
555.5782358774968
 30
0.0
 11
261.0201780744316
 21
556.6349418774969
 31
0.0
  0
ARC
  5
547F
330
18
100
AcDbEntity
  8
1
  6
Continuous
100
AcDbCircle
 10
263.6909980744317
 20
554.6349398774967
 30
0.0
 40
1.0
100
AcDbArc
 50
9.594142000000321
 51
70.61252800000144
  0
ARC
  5
5480
330
18
100
AcDbEntity
  8
1
  6
Continuous
100
AcDbCircle
 10
264.8742140744316
 20
554.8349418774968
 30
0.0
 40
0.2
100
AcDbArc
 50
189.5941420000003
 51
270.0
  0
LINE
  5
5488
330
18
100
AcDbEntity
  8
1
  6
Continuous
100
AcDbLine
 10
288.1909980744317
 20
587.1349418774967
 30
0.0
 11
212.2709770744315
 21
587.1349418774967
 31
0.0
  0
LINE
  5
5489
330
18
100
AcDbEntity
  8
1
  6
Continuous
100
AcDbLine
 10
288.1909980744317
 20
584.1349418774967
 30
0.0
 11
212.2709770744315
 21
584.1349418774967
 31
0.0
  0
LINE
  5
548A
330
18
100
AcDbEntity
  8
1
  6
Continuous
100
AcDbLine
 10
270.1910180744316
 20
585.6349418774969
 30
0.0
 11
288.1909980744317
 21
585.6349418774969
 31
0.0
  0
LINE
  5
548C
330
18
100
AcDbEntity
  8
1
  6
Continuous
100
AcDbLine
 10
288.1909980744317
 20
579.3849418774969
 30
0.0
 11
305.1129540744316
 21
579.3849418774969
 31
0.0
  0
ARC
  5
548D
330
18
100
AcDbEntity
  8
1
  6
Continuous
100
AcDbCircle
 10
305.1129540744316
 20
573.3849418774967
 30
0.0
 40
6.0
100
AcDbArc
 50
17.83338299999749
 51
90.0
  0
LINE
  5
548E
330
18
100
AcDbEntity
  8
1
  6
Continuous
100
AcDbLine
 10
288.1909980744317
 20
591.8849418774969
 30
0.0
 11
305.1129540744316
 21
591.8849418774969
 31
0.0
  0
ARC
  5
548F
330
18
100
AcDbEntity
  8
1
  6
Continuous
100
AcDbCircle
 10
305.1129540744316
 20
597.8849418774967
 30
0.0
 40
6.0
100
AcDbArc
 50
270.0
 51
342.1666170000025
  0
LINE
  5
5494
330
18
100
AcDbEntity
  8
1
  6
Continuous
100
AcDbLine
 10
269.6910180744316
 20
587.1349418774967
 30
0.0
 11
269.6910180744316
 21
586.1349418774969
 31
0.0
  0
LINE
  5
5495
330
18
100
AcDbEntity
  8
1
  6
Continuous
100
AcDbLine
 10
270.1910180744316
 20
585.6349418774969
 30
0.0
 11
269.6910180744316
 21
586.1349418774969
 31
0.0
  0
LINE
  5
5496
330
18
100
AcDbEntity
  8
1
  6
Continuous
100
AcDbLine
 10
269.6910180744316
 20
584.1349418774967
 30
0.0
 11
269.6910180744316
 21
585.1349418774969
 31
0.0
  0
LINE
  5
5497
330
18
100
AcDbEntity
  8
1
  6
Continuous
100
AcDbLine
 10
270.1910180744316
 20
585.6349418774969
 30
0.0
 11
269.6910180744316
 21
585.1349418774969
 31
0.0
  0
LINE
  5
5498
330
18
100
AcDbEntity
  8
1
  6
Continuous
100
AcDbLine
 10
288.1909980744317
 20
616.6349418774967
 30
0.0
 11
264.8742140744316
 21
616.6349418774967
 31
0.0
  0
LINE
  5
549A
330
18
100
AcDbEntity
  8
1
  6
Continuous
100
AcDbLine
 10
288.1909980744317
 20
629.1349418774967
 30
0.0
 11
260.1909980744316
 21
629.1349418774967
 31
0.0
  0
LINE
  5
549B
330
18
100
AcDbEntity
  8
1
  6
Continuous
100
AcDbLine
 10
288.1909980744317
 20
617.1349418774967
 30
0.0
 11
260.1909980744316
 21
617.1349418774967
 31
0.0
  0
LINE
  5
549C
330
18
100
AcDbEntity
  8
4
  6
CENTER
 48
0.2
100
AcDbLine
 10
298.1909980744317
 20
621.3849418774969
 30
0.0
 11
298.1909980744317
 21
639.8849418774967
 31
0.0
  0
CIRCLE
  5
549D
330
18
100
AcDbEntity
  8
1
  6
Continuous
100
AcDbCircle
 10
298.1909980744317
 20
630.6349418774969
 30
0.0
 40
5.25
  0
LINE
  5
54A1
330
18
100
AcDbEntity
  8
4
  6
CENTER
 48
0.2
100
AcDbLine
 10
307.4409980744317
 20
630.6349418774969
 30
0.0
 11
288.9409980744316
 21
630.6349418774969
 31
0.0
  0
ARC
  5
54A2
330
18
100
AcDbEntity
  8
1
  6
Continuous
100
AcDbCircle
 10
299.1909980744317
 20
629.6349418774967
 30
0.0
 40
11.0
100
AcDbArc
 50
90.0
 51
180.0
  0
ARC
  5
54A3
330
18
100
AcDbEntity
  8
1
  6
Continuous
100
AcDbCircle
 10
260.1909980744316
 20
626.1349418774969
 30
0.0
 40
3.0
100
AcDbArc
 50
90.0
 51
180.0
  0
ARC
  5
54A6
330
18
100
AcDbEntity
  8
1
  6
Continuous
100
AcDbCircle
 10
260.1909980744316
 20
620.1349418774968
 30
0.0
 40
3.0
100
AcDbArc
 50
180.0
 51
270.0
  0
LINE
  5
54A7
330
18
100
AcDbEntity
  8
1
  6
Continuous
100
AcDbLine
 10
264.0229530744316
 20
615.6916478774967
 30
0.0
 11
261.0201780744316
 21
614.6349418774969
 31
0.0
  0
ARC
  5
54A8
330
18
100
AcDbEntity
  8
1
  6
Continuous
100
AcDbCircle
 10
263.6909980744317
 20
616.6349428774967
 30
0.0
 40
1.0
100
AcDbArc
 50
289.3874719999985
 51
350.4058579999997
  0
ARC
  5
54A9
330
18
100
AcDbEntity
  8
1
  6
Continuous
100
AcDbCircle
 10
264.8742140744316
 20
616.4349418774967
 30
0.0
 40
0.2
100
AcDbArc
 50
90.0
 51
170.4058579999996
  0
LINE
  5
54AA
330
18
100
AcDbEntity
  8
1
  6
Continuous
100
AcDbLine
 10
257.1909980744317
 20
626.1349418774969
 30
0.0
 11
257.1909980744317
 21
620.1349418774968
 31
0.0
  0
ARC
  5
54B5
330
18
100
AcDbEntity
  8
1
  6
Continuous
100
AcDbCircle
 10
111.0861150744317
 20
400.4679360235704
 30
0.0
 40
77.705789
100
AcDbArc
 50
174.931973
 51
180.0
  0
ARC
  5
54B6
330
18
100
AcDbEntity
  8
1
  6
Continuous
100
AcDbCircle
 10
18.67453607443167
 20
400.4679360235704
 30
0.0
 40
77.705789
100
AcDbArc
 50
0.000000000000007
 51
5.068027000000006
  0
LINE
  5
54B7
330
18
100
AcDbEntity
  8
1
  6
Continuous
100
AcDbLine
 10
21.38032607443165
 20
418.7929170235705
 30
0.0
 11
21.38032607443165
 21
281.5929170235706
 31
0.0
  0
LINE
  5
54B8
330
18
100
AcDbEntity
  8
1
  6
Continuous
100
AcDbLine
 10
108.3803260744316
 20
418.7929170235705
 30
0.0
 11
108.3803260744316
 21
281.5929170235706
 31
0.0
  0
LINE
  5
54B9
330
18
100
AcDbEntity
  8
4
  6
CENTER
 48
0.7
100
AcDbLine
 10
64.88032607443142
 20
222.5929170235706
 30
0.0
 11
64.88032607443165
 21
456.4929170235706
 31
0.0
  0
LINE
  5
54BA
330
18
100
AcDbEntity
  8
1
  6
Continuous
100
AcDbLine
 10
91.38032607443165
 20
386.5929170235706
 30
0.0
 11
38.38032607443165
 21
386.5929170235706
 31
0.0
  0
LINE
  5
54BD
330
18
100
AcDbEntity
  8
4
  6
CENTER
 48
0.7
100
AcDbLine
 10
14.38032607443165
 20
304.5929170235706
 30
0.0
 11
115.3803260744316
 21
304.5929170235706
 31
0.0
  0
LINE
  5
54BF
330
18
100
AcDbEntity
  8
1
  6
Continuous
100
AcDbLine
 10
96.38032507443178
 20
400.4679360235704
 30
0.0
 11
96.38032607443165
 21
281.5929170235706
 31
0.0
  0
LINE
  5
54C4
330
18
100
AcDbEntity
  8
1
  6
Continuous
100
AcDbLine
 10
95.88032607443166
 20
286.2761330235707
 30
0.0
 11
95.88032607443166
 21
322.9097010235706
 31
0.0
  0
LINE
  5
54D7
330
18
100
AcDbEntity
  8
1
  6
Continuous
100
AcDbLine
 10
105.3803260744316
 20
278.5929170235706
 30
0.0
 11
99.38032607443165
 21
278.5929170235706
 31
0.0
  0
ARC
  5
54D8
330
18
100
AcDbEntity
  8
1
  6
Continuous
100
AcDbCircle
 10
105.3803260744316
 20
281.5929170235706
 30
0.0
 40
3.0
100
AcDbArc
 50
270.0
 51
0.000000000000007
  0
ARC
  5
54DA
330
18
100
AcDbEntity
  8
1
  6
Continuous
100
AcDbCircle
 10
99.38032607443165
 20
281.5929170235706
 30
0.0
 40
3.0
100
AcDbArc
 50
180.0
 51
270.0
  0
ARC
  5
54DB
330
18
100
AcDbEntity
  8
1
  6
Continuous
100
AcDbCircle
 10
95.88032707443153
 20
285.0929170235706
 30
0.0
 40
1.0
100
AcDbArc
 50
99.59414200000031
 51
160.6125280000014
  0
ARC
  5
54DC
330
18
100
AcDbEntity
  8
1
  6
Continuous
100
AcDbCircle
 10
95.68032607443159
 20
286.2761330235707
 30
0.0
 40
0.2
100
AcDbArc
 50
279.5941420000003
 51
0.000000000000007
  0
LINE
  5
54DD
330
18
100
AcDbEntity
  8
1
  6
Continuous
100
AcDbLine
 10
94.9370320744315
 20
285.4248720235706
 30
0.0
 11
93.88032607443165
 21
282.4220960235706
 31
0.0
  0
LINE
  5
54DE
330
18
100
AcDbEntity
  8
1
  6
Continuous
100
AcDbLine
 10
95.88032607443166
 20
287.6429170235705
 30
0.0
 11
96.38032607443165
 21
287.6429170235705
 31
0.0
  0
ARC
  5
54E6
330
18
100
AcDbEntity
  8
1
  6
Continuous
100
AcDbCircle
 10
11.00585907443155
 20
353.5361880235706
 30
0.0
 40
85.374466
100
AcDbArc
 50
0.000000000000007
 51
11.13560200000225
  0
LINE
  5
54E9
330
18
100
AcDbEntity
  8
1
  6
Continuous
100
AcDbLine
 10
95.88032607443166
 20
321.5429170235706
 30
0.0
 11
96.38032607443165
 21
321.5429170235706
 31
0.0
  0
ARC
  5
54EB
330
18
100
AcDbEntity
  8
1
  6
Continuous
100
AcDbCircle
 10
95.88032707443153
 20
324.0929170235706
 30
0.0
 40
1.0
100
AcDbArc
 50
199.3874719999985
 51
260.4058579999996
  0
ARC
  5
54EC
330
18
100
AcDbEntity
  8
1
  6
Continuous
100
AcDbCircle
 10
95.68032607443159
 20
322.9097010235706
 30
0.0
 40
0.2
100
AcDbArc
 50
0.000000000000007
 51
80.40585799999972
  0
LINE
  5
54ED
330
18
100
AcDbEntity
  8
1
  6
Continuous
100
AcDbLine
 10
94.9370320744315
 20
323.7609620235706
 30
0.0
 11
93.88032607443165
 21
326.7637370235705
 31
0.0
  0
LINE
  5
54F3
330
18
100
AcDbEntity
  8
1
  6
Continuous
100
AcDbLine
 10
91.88032607443165
 20
385.5929170235707
 30
0.0
 11
37.88032607443188
 21
385.5929170235707
 31
0.0
  0
ARC
  5
54F4
330
18
100
AcDbEntity
  8
1
  6
Continuous
100
AcDbCircle
 10
27.63227207443151
 20
356.8088910235705
 30
0.0
 40
68.429019
100
AcDbArc
 50
11.13560200000225
 51
22.87265600000422
  0
LINE
  5
54F6
330
18
100
AcDbEntity
  8
1
  6
Continuous
100
AcDbLine
 10
91.88032607443165
 20
385.5929170235707
 30
0.0
 11
88.7048990744315
 21
380.0929170235706
 31
0.0
  0
ARC
  5
54F8
330
18
100
AcDbEntity
  8
1
  6
Continuous
100
AcDbCircle
 10
86.97284807443157
 20
381.0929170235706
 30
0.0
 40
2.0
100
AcDbArc
 50
277.865910999999
 51
329.9999999999994
  0
ARC
  5
54FA
330
18
100
AcDbEntity
  8
1
  6
Continuous
100
AcDbCircle
 10
91.38032607443165
 20
381.5929170235706
 30
0.0
 40
5.0
100
AcDbArc
 50
0.000000000000007
 51
90.0
  0
ARC
  5
54FB
330
18
100
AcDbEntity
  8
1
  6
Continuous
100
AcDbCircle
 10
85.36568307443166
 20
380.6919800235706
 30
0.0
 40
6.0
100
AcDbArc
 50
54.76799599999907
 51
71.89126700000091
  0
ARC
  5
54FC
330
18
100
AcDbEntity
  8
1
  6
Continuous
100
AcDbCircle
 10
86.99530207443148
 20
381.8514370235705
 30
0.0
 40
4.0
100
AcDbArc
 50
22.87265600000422
 51
23.84628300000056
  0
ARC
  5
54FD
330
18
100
AcDbEntity
  8
1
  6
Continuous
100
AcDbCircle
 10
85.98732607443164
 20
382.5929170235706
 30
0.0
 40
4.0
100
AcDbArc
 50
71.89126700000091
 51
90.0
  0
ARC
  5
5502
330
18
100
AcDbEntity
  8
1
  6
Continuous
100
AcDbCircle
 10
70.88032607443166
 20
385.4230440235705
 30
0.0
 40
17.33012699999999
100
AcDbArc
 50
249.7438419999987
 51
254.9499089999998
  0
ARC
  5
5503
330
18
100
AcDbEntity
  8
1
  6
Continuous
100
AcDbCircle
 10
58.88032607443165
 20
385.4230440235705
 30
0.0
 40
17.33012699999999
100
AcDbArc
 50
285.0500910000002
 51
290.2561580000011
  0
LINE
  5
5505
330
18
100
AcDbEntity
  8
1
  6
Continuous
100
AcDbLine
 10
66.38032607443165
 20
368.0929170235706
 30
0.0
 11
63.38032607443165
 21
368.0929170235707
 31
0.0
  0
LINE
  5
5507
330
18
100
AcDbEntity
  8
1
  6
Continuous
100
AcDbLine
 10
59.35397307443166
 20
379.0929170235707
 30
0.0
 11
64.88032607443165
 21
379.0929170235707
 31
0.0
  0
LINE
  5
5508
330
18
100
AcDbEntity
  8
1
  6
Continuous
100
AcDbLine
 10
59.35397307443166
 20
379.0929170235707
 30
0.0
 11
70.40667841368327
 21
379.0929170235707
 31
0.0
  0
LINE
  5
550A
330
18
100
AcDbEntity
  8
1
  6
Continuous
100
AcDbLine
 10
64.88032607443165
 20
376.0929170235706
 30
0.0
 11
64.88032607443165
 21
369.1647140235705
 31
0.0
  0
LINE
  5
550C
330
18
100
AcDbEntity
  8
1
  6
Continuous
100
AcDbLine
 10
66.42871407443158
 20
376.0929170235706
 30
0.0
 11
63.33193792392443
 21
376.0929170235706
 31
0.0
  0
LINE
  5
550D
330
18
100
AcDbEntity
  8
1
  6
Continuous
100
AcDbLine
 10
84.88032607443164
 20
385.5929170235707
 30
0.0
 11
84.88032607443164
 21
386.5929170235706
 31
0.0
  0
LINE
  5
550E
330
18
100
AcDbEntity
  8
1
  6
Continuous
100
AcDbLine
 10
33.38032607443165
 20
400.4679360235704
 30
0.0
 11
33.38032607443165
 21
281.5929170235706
 31
0.0
  0
LINE
  5
551B
330
18
100
AcDbEntity
  8
1
  6
Continuous
100
AcDbLine
 10
33.88032607443165
 20
322.9097010235706
 30
0.0
 11
33.88032607443165
 21
286.2761330235707
 31
0.0
  0
LINE
  5
551D
330
18
100
AcDbEntity
  8
1
  6
Continuous
100
AcDbLine
 10
34.82361907443146
 20
285.4248720235706
 30
0.0
 11
35.88032607443165
 21
282.4220960235706
 31
0.0
  0
LINE
  5
551F
330
18
100
AcDbEntity
  8
1
  6
Continuous
100
AcDbLine
 10
24.38032607443165
 20
278.5929170235706
 30
0.0
 11
30.38032607443165
 21
278.5929170235706
 31
0.0
  0
ARC
  5
5520
330
18
100
AcDbEntity
  8
1
  6
Continuous
100
AcDbCircle
 10
30.38032607443165
 20
281.5929170235706
 30
0.0
 40
3.0
100
AcDbArc
 50
270.0
 51
0.000000000000007
  0
ARC
  5
5521
330
18
100
AcDbEntity
  8
1
  6
Continuous
100
AcDbCircle
 10
33.88032407443165
 20
285.0929170235706
 30
0.0
 40
1.0
100
AcDbArc
 50
19.38747199999859
 51
80.40585799999972
  0
ARC
  5
5522
330
18
100
AcDbEntity
  8
1
  6
Continuous
100
AcDbCircle
 10
34.08032607443146
 20
286.2761330235707
 30
0.0
 40
0.2
100
AcDbArc
 50
180.0
 51
260.4058579999996
  0
LINE
  5
5523
330
18
100
AcDbEntity
  8
1
  6
Continuous
100
AcDbLine
 10
33.88032607443165
 20
287.6429170235705
 30
0.0
 11
33.38032607443165
 21
287.6429170235705
 31
0.0
  0
ARC
  5
5524
330
18
100
AcDbEntity
  8
1
  6
Continuous
100
AcDbCircle
 10
24.38032607443165
 20
281.5929170235706
 30
0.0
 40
3.0
100
AcDbArc
 50
180.0
 51
270.0
  0
ARC
  5
5525
330
18
100
AcDbEntity
  8
1
  6
Continuous
100
AcDbCircle
 10
118.7547920744316
 20
353.5361880235706
 30
0.0
 40
85.374466
100
AcDbArc
 50
168.8643979999977
 51
180.0
  0
LINE
  5
5528
330
18
100
AcDbEntity
  8
1
  6
Continuous
100
AcDbLine
 10
34.82361907443146
 20
323.7609620235706
 30
0.0
 11
35.88032607443165
 21
326.7637370235705
 31
0.0
  0
LINE
  5
552A
330
18
100
AcDbEntity
  8
1
  6
Continuous
100
AcDbLine
 10
33.88032607443165
 20
321.5429170235706
 30
0.0
 11
33.38032607443165
 21
321.5429170235706
 31
0.0
  0
ARC
  5
552B
330
18
100
AcDbEntity
  8
1
  6
Continuous
100
AcDbCircle
 10
33.88032407443165
 20
324.0929170235706
 30
0.0
 40
1.0
100
AcDbArc
 50
279.5941420000003
 51
340.6125280000014
  0
ARC
  5
552C
330
18
100
AcDbEntity
  8
1
  6
Continuous
100
AcDbCircle
 10
34.08032607443146
 20
322.9097010235706
 30
0.0
 40
0.2
100
AcDbArc
 50
99.59414200000031
 51
180.0
  0
ARC
  5
552D
330
18
100
AcDbEntity
  8
1
  6
Continuous
100
AcDbCircle
 10
102.1283800744315
 20
356.8088910235705
 30
0.0
 40
68.429019
100
AcDbArc
 50
157.1273439999957
 51
168.8643979999977
  0
LINE
  5
552F
330
18
100
AcDbEntity
  8
1
  6
Continuous
100
AcDbLine
 10
37.88032607443165
 20
385.5929170235707
 30
0.0
 11
41.05575207443165
 21
380.0929170235706
 31
0.0
  0
ARC
  5
5531
330
18
100
AcDbEntity
  8
1
  6
Continuous
100
AcDbCircle
 10
42.78780307443161
 20
381.0929170235706
 30
0.0
 40
2.0
100
AcDbArc
 50
210.0000000000004
 51
262.1340890000009
  0
ARC
  5
5532
330
18
100
AcDbEntity
  8
1
  6
Continuous
100
AcDbCircle
 10
38.38032607443165
 20
381.5929170235706
 30
0.0
 40
5.0
100
AcDbArc
 50
90.0
 51
180.0
  0
LINE
  5
5533
330
18
100
AcDbEntity
  8
1
  6
Continuous
100
AcDbLine
 10
44.88032607443165
 20
385.5929170235707
 30
0.0
 11
44.88032607443165
 21
386.5929170235706
 31
0.0
  0
ARC
  5
5534
330
18
100
AcDbEntity
  8
1
  6
Continuous
100
AcDbCircle
 10
44.39496807443174
 20
380.6919800235706
 30
0.0
 40
6.0
100
AcDbArc
 50
108.1087329999991
 51
125.2320040000008
  0
ARC
  5
5535
330
18
100
AcDbEntity
  8
1
  6
Continuous
100
AcDbCircle
 10
42.76534907443147
 20
381.8514370235705
 30
0.0
 40
4.0
100
AcDbArc
 50
156.1537169999994
 51
157.1273439999957
  0
ARC
  5
5536
330
18
100
AcDbEntity
  8
1
  6
Continuous
100
AcDbCircle
 10
43.77332607443166
 20
382.5929170235706
 30
0.0
 40
4.0
100
AcDbArc
 50
90.0
 51
108.1087329999991
  0
LINE
  5
553A
330
18
100
AcDbEntity
  8
1
  6
Continuous
100
AcDbLine
 10
9.88032607443165
 20
444.5929170235706
 30
0.0
 11
54.63032607443165
 21
444.5929170235706
 31
0.0
  0
LINE
  5
553B
330
18
100
AcDbEntity
  8
1
  6
Continuous
100
AcDbLine
 10
56.93032607443161
 20
449.5929170235706
 30
0.0
 11
9.88032607443165
 21
449.5929170235706
 31
0.0
  0
LINE
  5
553E
330
18
100
AcDbEntity
  8
1
  6
Continuous
100
AcDbLine
 10
102.1648890744315
 20
432.8230830235704
 30
0.0
 11
119.8803260744316
 21
443.8929170235706
 31
0.0
  0
LINE
  5
553F
330
18
100
AcDbEntity
  8
1
  6
Continuous
100
AcDbLine
 10
119.8803260744316
 20
449.5929170235706
 30
0.0
 11
72.83032607443168
 21
449.5929170235706
 31
0.0
  0
LINE
  5
5540
330
18
100
AcDbEntity
  8
1
  6
Continuous
100
AcDbLine
 10
119.8803260744316
 20
444.5929170235706
 30
0.0
 11
75.13032607443166
 21
444.5929170235706
 31
0.0
  0
LINE
  5
5541
330
18
100
AcDbEntity
  8
1
  6
Continuous
100
AcDbLine
 10
119.8803260744316
 20
449.5929170235706
 30
0.0
 11
119.8803260744316
 21
443.8929170235706
 31
0.0
  0
LINE
  5
5542
330
18
100
AcDbEntity
  8
4
  6
CENTER
 48
0.2
100
AcDbLine
 10
109.8803260744316
 20
455.5929170235706
 30
0.0
 11
109.8803260744316
 21
438.5929170235706
 31
0.0
  0
ARC
  5
5543
330
18
100
AcDbEntity
  8
1
  6
Continuous
100
AcDbCircle
 10
84.38032607443167
 20
382.0929170235706
 30
0.0
 40
40.0
100
AcDbArc
 50
84.69747200000218
 51
90.0
  0
LINE
  5
5544
330
18
100
AcDbEntity
  8
1
  6
Continuous
100
AcDbLine
 10
29.13032607443165
 20
422.0929170235706
 30
0.0
 11
100.6303260744316
 21
422.0929170235706
 31
0.0
  0
LINE
  5
5545
330
18
100
AcDbEntity
  8
1
  6
Continuous
100
AcDbLine
 10
29.88032607443165
 20
431.5929170235706
 30
0.0
 11
99.88032607443166
 21
431.5929170235706
 31
0.0
  0
LINE
  5
5546
330
18
100
AcDbEntity
  8
1
  6
Continuous
100
AcDbLine
 10
29.88032607443165
 20
424.5929170235706
 30
0.0
 11
99.88032607443166
 21
424.5929170235706
 31
0.0
  0
LINE
  5
5547
330
18
100
AcDbEntity
  8
1
  6
Continuous
100
AcDbLine
 10
99.88032607443166
 20
431.5929170235706
 30
0.0
 11
99.88032607443166
 21
424.5929170235706
 31
0.0
  0
LINE
  5
5549
330
18
100
AcDbEntity
  8
1
  6
Continuous
100
AcDbLine
 10
105.3803260744316
 20
421.7929170235707
 30
0.0
 11
100.6303260744316
 21
421.7929170235707
 31
0.0
  0
ARC
  5
554A
330
18
100
AcDbEntity
  8
1
  6
Continuous
100
AcDbCircle
 10
105.3803260744316
 20
418.7929170235705
 30
0.0
 40
3.0
100
AcDbArc
 50
0.000000000000007
 51
90.0
  0
ARC
  5
554B
330
18
100
AcDbEntity
  8
1
  6
Continuous
100
AcDbCircle
 10
30.22625507443172
 20
401.4924030235706
 30
0.0
 40
66.10873199999999
100
AcDbArc
 50
5.068027000000006
 51
12.77670099999723
  0
ARC
  5
554C
330
18
100
AcDbEntity
  8
1
  6
Continuous
100
AcDbCircle
 10
87.3837980744315
 20
414.4538370235705
 30
0.0
 40
7.5
100
AcDbArc
 50
12.77670099999723
 51
84.69747200000218
  0
LINE
  5
554D
330
18
100
AcDbEntity
  8
1
  6
Continuous
100
AcDbLine
 10
100.6303260744316
 20
422.0929170235706
 30
0.0
 11
100.6303260744316
 21
416.7116380235706
 31
0.0
  0
ARC
  5
554E
330
18
100
AcDbEntity
  8
1
  6
Continuous
100
AcDbCircle
 10
94.28032607443174
 20
423.9929170235706
 30
0.0
 40
0.6
100
AcDbArc
 50
0.000000000000007
 51
90.0
  0
LINE
  5
554F
330
18
100
AcDbEntity
  8
1
  6
Continuous
100
AcDbLine
 10
94.88032607443164
 20
423.9929170235706
 30
0.0
 11
94.88032607443164
 21
422.0929170235706
 31
0.0
  0
ARC
  5
5550
330
18
100
AcDbEntity
  8
1
  6
Continuous
100
AcDbCircle
 10
98.88032607443165
 20
436.5929170235706
 30
0.0
 40
5.0
100
AcDbArc
 50
270.0
 51
0.000000000000007
  0
LINE
  5
5551
330
18
100
AcDbEntity
  8
1
  6
Continuous
100
AcDbLine
 10
103.8803260744316
 20
440.5929170235706
 30
0.0
 11
103.8803260744316
 21
436.5929170235706
 31
0.0
  0
ARC
  5
5552
330
18
100
AcDbEntity
  8
1
  6
Continuous
100
AcDbCircle
 10
107.8803260744316
 20
440.5929170235706
 30
0.0
 40
4.0
100
AcDbArc
 50
90.0
 51
180.0
  0
LINE
  5
5553
330
18
100
AcDbEntity
  8
1
  6
Continuous
100
AcDbLine
 10
70.38032607443167
 20
432.8230830235704
 30
0.0
 11
59.38032607443165
 21
432.8230830235704
 31
0.0
  0
LINE
  5
5554
330
18
100
AcDbEntity
  8
1
  6
Continuous
100
AcDbLine
 10
72.25586907443176
 20
449.4929170235706
 30
0.0
 11
57.50478207443165
 21
449.4929170235706
 31
0.0
  0
LINE
  5
5555
330
18
100
AcDbEntity
  8
1
  6
Continuous
100
AcDbLine
 10
71.13032607443166
 20
447.8929170235706
 30
0.0
 11
58.63032607443165
 21
447.8929170235706
 31
0.0
  0
LINE
  5
5556
330
18
100
AcDbEntity
  8
1
  6
Continuous
100
AcDbLine
 10
73.75555307443164
 20
443.8929170235706
 30
0.0
 11
56.00509807443154
 21
443.8929170235706
 31
0.0
  0
LINE
  5
5557
330
18
100
AcDbEntity
  8
1
  6
Continuous
100
AcDbLine
 10
75.13032607443166
 20
443.7929170235705
 30
0.0
 11
75.13032607443166
 21
434.3230830235706
 31
0.0
  0
ARC
  5
5558
330
18
100
AcDbEntity
  8
1
  6
Continuous
100
AcDbCircle
 10
76.13032607443166
 20
433.8230830235706
 30
0.0
 40
1.0
100
AcDbArc
 50
180.0
 51
270.0
  0
ARC
  5
5559
330
18
100
AcDbEntity
  8
1
  6
Continuous
100
AcDbCircle
 10
73.75555307443164
 20
445.5929170235706
 30
0.0
 40
1.7
100
AcDbArc
 50
270.0
 51
323.9681210000017
  0
ARC
  5
555A
330
18
100
AcDbEntity
  8
1
  6
Continuous
100
AcDbCircle
 10
72.83032607443168
 20
447.8929170235706
 30
0.0
 40
1.7
100
AcDbArc
 50
90.0
 51
180.0
  0
LINE
  5
555B
330
18
100
AcDbEntity
  8
1
  6
Continuous
100
AcDbLine
 10
54.63032607443165
 20
443.7929170235705
 30
0.0
 11
54.63032607443165
 21
434.3230830235706
 31
0.0
  0
ARC
  5
555C
330
18
100
AcDbEntity
  8
1
  6
Continuous
100
AcDbCircle
 10
53.63032607443165
 20
433.8230830235706
 30
0.0
 40
1.0
100
AcDbArc
 50
270.0
 51
0.000000000000007
  0
ARC
  5
555D
330
18
100
AcDbEntity
  8
1
  6
Continuous
100
AcDbCircle
 10
56.00509807443154
 20
445.5929170235706
 30
0.0
 40
1.7
100
AcDbArc
 50
216.0318789999982
 51
270.0
  0
ARC
  5
555E
330
18
100
AcDbEntity
  8
1
  6
Continuous
100
AcDbCircle
 10
56.93032607443161
 20
447.8929170235706
 30
0.0
 40
1.7
100
AcDbArc
 50
0.000000000000007
 51
90.0
  0
LINE
  5
555F
330
18
100
AcDbEntity
  8
4
  6
CENTER
 48
0.2
100
AcDbLine
 10
19.88032607443164
 20
455.5929170235706
 30
0.0
 11
19.88032607443164
 21
438.5929170235706
 31
0.0
  0
LINE
  5
5560
330
18
100
AcDbEntity
  8
1
  6
Continuous
100
AcDbLine
 10
27.59576307443149
 20
432.8230830235704
 30
0.0
 11
9.88032607443165
 21
443.8929170235706
 31
0.0
  0
LINE
  5
5561
330
18
100
AcDbEntity
  8
1
  6
Continuous
100
AcDbLine
 10
29.88032607443165
 20
431.5929170235706
 30
0.0
 11
29.88032607443165
 21
424.5929170235706
 31
0.0
  0
ARC
  5
5562
330
18
100
AcDbEntity
  8
1
  6
Continuous
100
AcDbCircle
 10
42.37685407443154
 20
414.4538370235705
 30
0.0
 40
7.5
100
AcDbArc
 50
95.30252799999781
 51
167.2232990000027
  0
ARC
  5
5563
330
18
100
AcDbEntity
  8
1
  6
Continuous
100
AcDbCircle
 10
45.38032607443165
 20
382.0929170235706
 30
0.0
 40
40.0
100
AcDbArc
 50
90.0
 51
95.30252799999781
  0
ARC
  5
5564
330
18
100
AcDbEntity
  8
1
  6
Continuous
100
AcDbCircle
 10
99.53439607443172
 20
401.4924030235706
 30
0.0
 40
66.10873199999999
100
AcDbArc
 50
167.2232990000027
 51
174.931973
  0
LINE
  5
5566
330
18
100
AcDbEntity
  8
1
  6
Continuous
100
AcDbLine
 10
29.13032607443165
 20
421.7929170235707
 30
0.0
 11
24.38032607443165
 21
421.7929170235707
 31
0.0
  0
LINE
  5
5567
330
18
100
AcDbEntity
  8
1
  6
Continuous
100
AcDbLine
 10
29.13032607443165
 20
422.0929170235706
 30
0.0
 11
29.13032607443165
 21
416.7116380235706
 31
0.0
  0
ARC
  5
5568
330
18
100
AcDbEntity
  8
1
  6
Continuous
100
AcDbCircle
 10
35.48032607443156
 20
423.9929170235706
 30
0.0
 40
0.6
100
AcDbArc
 50
90.0
 51
180.0
  0
LINE
  5
5569
330
18
100
AcDbEntity
  8
1
  6
Continuous
100
AcDbLine
 10
34.88032607443165
 20
423.9929170235706
 30
0.0
 11
34.88032607443165
 21
422.0929170235706
 31
0.0
  0
ARC
  5
556A
330
18
100
AcDbEntity
  8
1
  6
Continuous
100
AcDbCircle
 10
24.38032607443165
 20
418.7929170235705
 30
0.0
 40
3.0
100
AcDbArc
 50
90.0
 51
180.0
  0
LINE
  5
556B
330
18
100
AcDbEntity
  8
1
  6
Continuous
100
AcDbLine
 10
25.88032607443165
 20
440.5929170235706
 30
0.0
 11
25.88032607443165
 21
436.5929170235706
 31
0.0
  0
ARC
  5
556C
330
18
100
AcDbEntity
  8
1
  6
Continuous
100
AcDbCircle
 10
30.88032607443165
 20
436.5929170235706
 30
0.0
 40
5.0
100
AcDbArc
 50
180.0
 51
270.0
  0
ARC
  5
556D
330
18
100
AcDbEntity
  8
1
  6
Continuous
100
AcDbCircle
 10
21.88032607443165
 20
440.5929170235706
 30
0.0
 40
4.0
100
AcDbArc
 50
0.000000000000007
 51
90.0
  0
LINE
  5
556E
330
18
100
AcDbEntity
  8
1
  6
Continuous
100
AcDbLine
 10
9.88032607443165
 20
449.5929170235706
 30
0.0
 11
9.88032607443165
 21
443.8929170235706
 31
0.0
  0
ARC
  5
557C
330
18
100
AcDbEntity
  8
1
  6
Continuous
100
AcDbCircle
 10
215.3604160744316
 20
565.3345028774971
 30
0.0
 40
7.0
100
AcDbArc
 50
183.6614410000037
 51
267.2200000000003
  0
LINE
  5
5582
330
18
100
AcDbEntity
  8
1
  6
Continuous
100
AcDbLine
 10
213.6533330744316
 20
612.6349418774967
 30
0.0
 11
288.1909980744317
 21
612.6349418774967
 31
0.0
  0
LINE
  5
5583
330
18
100
AcDbEntity
  8
1
  6
Continuous
100
AcDbLine
 10
250.1909980744331
 20
614.6349418774969
 30
0.0
 11
288.1909980744317
 21
614.6349418774967
 31
0.0
  0
ARC
  5
5586
330
18
100
AcDbEntity
  8
1
  6
Continuous
100
AcDbCircle
 10
215.3604160744316
 20
605.935380877497
 30
0.0
 40
7.0
100
AcDbArc
 50
92.77999999999968
 51
176.3385589999962
  0
LINE
  5
5588
330
18
100
AcDbEntity
  8
1
  6
Continuous
100
AcDbLine
 10
250.1909980744317
 20
614.6349418774969
 30
0.0
 11
215.0209080744316
 21
612.9271428774967
 31
0.0
  0
ARC
  5
5589
330
18
100
AcDbEntity
  8
1
  6
Continuous
100
AcDbCircle
 10
213.6533330744316
 20
610.634941877497
 30
0.0
 40
2.0
100
AcDbArc
 50
89.99999999999998
 51
109.9632019999993
  0
ARC
  5
5592
330
18
100
AcDbEntity
  8
1
  6
Continuous
100
AcDbCircle
 10
212.2709770744315
 20
580.6349418774971
 30
0.0
 40
3.5
100
AcDbArc
 50
89.99999999999998
 51
173.3613670000029
  0
ARC
  5
5593
330
18
100
AcDbEntity
  8
1
  6
Continuous
100
AcDbCircle
 10
298.1909980744317
 20
600.6349418774967
 30
0.0
 40
90.0
100
AcDbArc
 50
176.3385589999962
 51
186.638632999997
  0
ARC
  5
5594
330
18
100
AcDbEntity
  8
1
  6
Continuous
100
AcDbCircle
 10
212.2709770744315
 20
590.6349418774971
 30
0.0
 40
3.5
100
AcDbArc
 50
186.638632999997
 51
270.0
  0
ARC
  5
5595
330
18
100
AcDbEntity
  8
1
  6
Continuous
100
AcDbCircle
 10
298.1909980744317
 20
570.6349418774968
 30
0.0
 40
90.0
100
AcDbArc
 50
173.3613670000029
 51
183.6614410000037
  0
LINE
  5
55AF
330
18
100
AcDbEntity
  8
1
  6
Continuous
100
AcDbLine
 10
213.6533330744316
 20
558.634941877497
 30
0.0
 11
288.1909980744317
 21
558.6349418774967
 31
0.0
  0
LINE
  5
55B0
330
18
100
AcDbEntity
  8
1
  6
Continuous
100
AcDbLine
 10
250.1909980744331
 20
556.634941877497
 30
0.0
 11
288.1909980744317
 21
556.634941877497
 31
0.0
  0
LINE
  5
55B1
330
18
100
AcDbEntity
  8
1
  6
Continuous
100
AcDbLine
 10
250.1909980744317
 20
556.634941877497
 30
0.0
 11
215.0209080744316
 21
558.342740877497
 31
0.0
  0
ARC
  5
55B2
330
18
100
AcDbEntity
  8
1
  6
Continuous
100
AcDbCircle
 10
213.6533330744316
 20
560.634941877497
 30
0.0
 40
2.0
100
AcDbArc
 50
250.0367980000006
 51
270.0
  0
ARC
  5
56C0
330
18
100
AcDbEntity
  8
1
  6
Continuous
100
AcDbCircle
 10
85.18076507443153
 20
372.4234990235705
 30
0.0
 40
7.0
100
AcDbArc
 50
2.779999999999706
 51
86.33855899999629
  0
ARC
  5
56C1
330
18
100
AcDbEntity
  8
1
  6
Continuous
100
AcDbCircle
 10
69.88032607443165
 20
375.5129380235705
 30
0.0
 40
3.5
100
AcDbArc
 50
96.63863299999711
 51
180.0
  0
ARC
  5
56C2
330
18
100
AcDbEntity
  8
1
  6
Continuous
100
AcDbCircle
 10
49.88032607443165
 20
289.5929170235707
 30
0.0
 40
90.0
100
AcDbArc
 50
83.36136700000286
 51
93.66144100000372
  0
ARC
  5
56C3
330
18
100
AcDbEntity
  8
1
  6
Continuous
100
AcDbCircle
 10
59.88032607443165
 20
375.5129380235705
 30
0.0
 40
3.5
100
AcDbArc
 50
0.0
 51
83.36136700000286
  0
ARC
  5
56C4
330
18
100
AcDbEntity
  8
1
  6
Continuous
100
AcDbCircle
 10
79.88032607443166
 20
289.5929170235707
 30
0.0
 40
90.0
100
AcDbArc
 50
86.33855899999629
 51
96.63863299999711
  0
ARC
  5
56C5
330
18
100
AcDbEntity
  8
1
  6
Continuous
100
AcDbCircle
 10
89.88032607443164
 20
374.1305820235705
 30
0.0
 40
2.0
100
AcDbArc
 50
0.000000000000007
 51
19.96320199999936
  0
LINE
  5
56C6
330
18
100
AcDbEntity
  8
1
  6
Continuous
100
AcDbLine
 10
91.88032607443165
 20
244.9898680235685
 30
0.0
 11
91.88032607443165
 21
374.1305820235705
 31
0.0
  0
LINE
  5
56C7
330
18
100
AcDbEntity
  8
1
  6
Continuous
100
AcDbLine
 10
93.88032607443165
 20
337.5929170235707
 30
0.0
 11
92.17252707443163
 21
372.7630070235707
 31
0.0
  0
LINE
  5
56C8
330
18
100
AcDbEntity
  8
1
  6
Continuous
100
AcDbLine
 10
66.38032607443165
 20
375.5129380235705
 30
0.0
 11
66.38032607443165
 21
233.6728960235705
 31
0.0
  0
LINE
  5
56C9
330
18
100
AcDbEntity
  8
1
  6
Continuous
100
AcDbLine
 10
63.38032607443165
 20
375.5129380235705
 30
0.0
 11
63.38032607443165
 21
233.6728960235705
 31
0.0
  0
LINE
  5
56CA
330
18
100
AcDbEntity
  8
1
  6
Continuous
100
AcDbLine
 10
64.88032607443165
 20
317.5928970235705
 30
0.0
 11
64.88032607443165
 21
291.5929370235705
 31
0.0
  0
LINE
  5
56CB
330
18
100
AcDbEntity
  8
1
  6
Continuous
100
AcDbLine
 10
66.38032607443165
 20
291.0929370235706
 30
0.0
 11
65.38032607443165
 21
291.0929370235706
 31
0.0
  0
LINE
  5
56CC
330
18
100
AcDbEntity
  8
1
  6
Continuous
100
AcDbLine
 10
64.88032607443165
 20
291.5929370235705
 30
0.0
 11
65.38032607443165
 21
291.0929370235706
 31
0.0
  0
LINE
  5
56CD
330
18
100
AcDbEntity
  8
1
  6
Continuous
100
AcDbLine
 10
63.38032607443165
 20
291.0929370235706
 30
0.0
 11
64.38032607443165
 21
291.0929370235706
 31
0.0
  0
LINE
  5
56CE
330
18
100
AcDbEntity
  8
1
  6
Continuous
100
AcDbLine
 10
64.88032607443165
 20
291.5929370235705
 30
0.0
 11
64.38032607443165
 21
291.0929370235706
 31
0.0
  0
LINE
  5
56CF
330
18
100
AcDbEntity
  8
1
  6
Continuous
100
AcDbLine
 10
66.38032607443165
 20
318.0928970235705
 30
0.0
 11
65.38032607443165
 21
318.0928970235705
 31
0.0
  0
LINE
  5
56D0
330
18
100
AcDbEntity
  8
1
  6
Continuous
100
AcDbLine
 10
64.88032607443165
 20
317.5928970235705
 30
0.0
 11
65.38032607443165
 21
318.0928970235705
 31
0.0
  0
LINE
  5
56D1
330
18
100
AcDbEntity
  8
1
  6
Continuous
100
AcDbLine
 10
63.38032607443165
 20
318.0928970235705
 30
0.0
 11
64.38032607443165
 21
318.0928970235705
 31
0.0
  0
LINE
  5
56D2
330
18
100
AcDbEntity
  8
1
  6
Continuous
100
AcDbLine
 10
64.88032607443165
 20
317.5928970235705
 30
0.0
 11
64.38032607443165
 21
318.0928970235705
 31
0.0
  0
LINE
  5
56D3
330
18
100
AcDbEntity
  8
1
  6
Continuous
100
AcDbLine
 10
37.88032607443165
 20
244.9898680235685
 30
0.0
 11
37.88032607443165
 21
374.1305820235705
 31
0.0
  0
ARC
  5
56D4
330
18
100
AcDbEntity
  8
1
  6
Continuous
100
AcDbCircle
 10
44.57988707443178
 20
372.4234990235705
 30
0.0
 40
7.0
100
AcDbArc
 50
93.66144100000372
 51
177.2200000000003
  0
LINE
  5
56D5
330
18
100
AcDbEntity
  8
1
  6
Continuous
100
AcDbLine
 10
35.88032607443165
 20
337.5929170235707
 30
0.0
 11
37.58812507443167
 21
372.7630070235707
 31
0.0
  0
ARC
  5
56D6
330
18
100
AcDbEntity
  8
1
  6
Continuous
100
AcDbCircle
 10
39.88032607443165
 20
374.1305820235705
 30
0.0
 40
2.0
100
AcDbArc
 50
160.0367980000006
 51
180.0
  0
LINE
  5
56D7
330
18
100
AcDbEntity
  8
1
  6
Continuous
100
AcDbLine
 10
35.88032607443165
 20
271.592917023572
 30
0.0
 11
35.88032607443165
 21
337.5929170235707
 31
0.0
  0
LINE
  5
56D8
330
18
100
AcDbEntity
  8
1
  6
Continuous
100
AcDbLine
 10
93.88032607443165
 20
271.592917023572
 30
0.0
 11
93.88032607443165
 21
337.5929170235707
 31
0.0
  0
ARC
  5
56D9
330
18
100
AcDbEntity
  8
1
  6
Continuous
100
AcDbCircle
 10
85.18076507443153
 20
236.7623350235705
 30
0.0
 40
7.0
100
AcDbArc
 50
273.6614410000037
 51
357.2200000000003
  0
LINE
  5
56DA
330
18
100
AcDbEntity
  8
1
  6
Continuous
100
AcDbLine
 10
93.88032607443165
 20
271.5929170235706
 30
0.0
 11
92.17252707443163
 21
236.4228270235706
 31
0.0
  0
ARC
  5
56DB
330
18
100
AcDbEntity
  8
1
  6
Continuous
100
AcDbCircle
 10
89.88032607443164
 20
235.0552520235705
 30
0.0
 40
2.0
100
AcDbArc
 50
340.0367980000006
 51
0.000000000000007
  0
LINE
  5
56DC
330
18
100
AcDbEntity
  8
1
  6
Continuous
100
AcDbLine
 10
91.88032607443165
 20
235.0552520235705
 30
0.0
 11
91.88032607443165
 21
244.9898680235705
 31
0.0
  0
ARC
  5
56DD
330
18
100
AcDbEntity
  8
1
  6
Continuous
100
AcDbCircle
 10
44.57988707443178
 20
236.7623350235705
 30
0.0
 40
7.0
100
AcDbArc
 50
182.7799999999997
 51
266.3385589999962
  0
ARC
  5
56DE
330
18
100
AcDbEntity
  8
1
  6
Continuous
100
AcDbCircle
 10
39.88032607443165
 20
235.0552520235705
 30
0.0
 40
2.0
100
AcDbArc
 50
180.0
 51
199.9632019999993
  0
LINE
  5
56DF
330
18
100
AcDbEntity
  8
1
  6
Continuous
100
AcDbLine
 10
37.88032607443165
 20
235.0552520235705
 30
0.0
 11
37.88032607443165
 21
244.9898680235705
 31
0.0
  0
ARC
  5
56E0
330
18
100
AcDbEntity
  8
1
  6
Continuous
100
AcDbCircle
 10
69.88032607443165
 20
233.6728960235705
 30
0.0
 40
3.5
100
AcDbArc
 50
180.0
 51
263.3613670000028
  0
ARC
  5
56E1
330
18
100
AcDbEntity
  8
1
  6
Continuous
100
AcDbCircle
 10
49.88032607443165
 20
319.5929170235706
 30
0.0
 40
90.0
100
AcDbArc
 50
266.3385589999962
 51
276.6386329999971
  0
ARC
  5
56E2
330
18
100
AcDbEntity
  8
1
  6
Continuous
100
AcDbCircle
 10
59.88032607443165
 20
233.6728960235705
 30
0.0
 40
3.5
100
AcDbArc
 50
276.6386329999971
 51
0.0
  0
ARC
  5
56E3
330
18
100
AcDbEntity
  8
1
  6
Continuous
100
AcDbCircle
 10
79.88032607443166
 20
319.5929170235706
 30
0.0
 40
90.0
100
AcDbArc
 50
263.3613670000028
 51
273.6614410000037
  0
LINE
  5
56E4
330
18
100
AcDbEntity
  8
1
  6
Continuous
100
AcDbLine
 10
35.88032607443165
 20
271.5929170235706
 30
0.0
 11
37.58812507443167
 21
236.4228270235706
 31
0.0
  0
CIRCLE
  5
5728
330
18
100
AcDbEntity
  8
1
  6
Continuous
100
AcDbCircle
 10
283.1909980744317
 20
304.5929170235707
 30
0.0
 40
5.5
  0
LINE
  5
587F
330
18
100
AcDbEntity
  8
1
  6
Continuous
100
AcDbLine
 10
510.0016706796327
 20
353.5361880235706
 30
0.0
 11
510.0016700744316
 21
281.5929170235706
 31
0.0
  0
LINE
  5
5880
330
18
100
AcDbEntity
  8
1
  6
Continuous
100
AcDbLine
 10
573.0016700744315
 20
353.5361880235706
 30
0.0
 11
573.0016700744317
 21
281.5929170235706
 31
0.0
  0
ARC
  5
5881
330
18
100
AcDbEntity
  8
1
  6
Continuous
100
AcDbCircle
 10
572.3016700744318
 20
322.9097010235706
 30
0.0
 40
0.2
100
AcDbArc
 50
0.000000000000007
 51
80.40585799999972
  0
ARC
  5
5882
330
18
100
AcDbEntity
  8
1
  6
Continuous
100
AcDbCircle
 10
510.7016700744318
 20
322.9097010235706
 30
0.0
 40
0.2
100
AcDbArc
 50
99.59414200000029
 51
180.0
  0
LINE
  5
5883
330
18
100
AcDbEntity
  8
1
  6
Continuous
100
AcDbLine
 10
498.0016700744316
 20
418.7929170235705
 30
0.0
 11
498.0016700744316
 21
281.5929170235706
 31
0.0
  0
LINE
  5
5884
330
18
100
AcDbEntity
  8
1
  6
Continuous
100
AcDbLine
 10
585.0016700744317
 20
418.7929170235705
 30
0.0
 11
585.0016700744317
 21
281.5929170235706
 31
0.0
  0
LINE
  5
5885
330
18
100
AcDbEntity
  8
1
  6
Continuous
100
AcDbLine
 10
512.5016700744318
 20
271.592917023572
 30
0.0
 11
512.5016700744318
 21
337.5929170235707
 31
0.0
  0
LINE
  5
5886
330
18
100
AcDbEntity
  8
1
  6
Continuous
100
AcDbLine
 10
570.5016700744318
 20
271.592917023572
 30
0.0
 11
570.5016700744318
 21
337.5929170235707
 31
0.0
  0
LINE
  5
5887
330
18
100
AcDbEntity
  8
1
  6
Continuous
100
AcDbLine
 10
568.5016700744317
 20
244.9898680235685
 30
0.0
 11
568.5016700744317
 21
374.1305820235705
 31
0.0
  0
LINE
  5
5888
330
18
100
AcDbEntity
  8
1
  6
Continuous
100
AcDbLine
 10
540.0016700744316
 20
368.0929170235707
 30
0.0
 11
540.0016700744316
 21
233.6728960235705
 31
0.0
  0
LINE
  5
5889
330
18
100
AcDbEntity
  8
1
  6
Continuous
100
AcDbLine
 10
514.5016700744316
 20
244.9898680235685
 30
0.0
 11
514.5016700744316
 21
374.1305820235705
 31
0.0
  0
LINE
  5
588A
330
18
100
AcDbEntity
  8
4
  6
CENTER
 48
0.7
100
AcDbLine
 10
541.5016700744318
 20
222.5929170235706
 30
0.0
 11
541.5016700744318
 21
456.4929170235706
 31
0.0
  0
LINE
  5
588B
330
18
100
AcDbEntity
  8
1
  6
Continuous
100
AcDbLine
 10
543.0016700744316
 20
368.0929170235708
 30
0.0
 11
543.0016700744316
 21
233.6728960235705
 31
0.0
  0
LINE
  5
588C
330
18
100
AcDbEntity
  8
4
  6
CENTER
 48
0.7
100
AcDbLine
 10
592.0016700744318
 20
304.5929170235706
 30
0.0
 11
491.0016700744318
 21
304.5929170235706
 31
0.0
  0
LINE
  5
5890
330
18
100
AcDbEntity
  8
1
  6
Continuous
100
AcDbLine
 10
570.5016700744318
 20
271.5929170235706
 30
0.0
 11
568.7938710744317
 21
236.4228270235706
 31
0.0
  0
LINE
  5
5891
330
18
100
AcDbEntity
  8
1
  6
Continuous
100
AcDbLine
 10
568.5016700744317
 20
235.0552520235705
 30
0.0
 11
568.5016700744317
 21
244.9898680235705
 31
0.0
  0
LINE
  5
5892
330
18
100
AcDbEntity
  8
1
  6
Continuous
100
AcDbLine
 10
514.5016700744316
 20
235.0552520235705
 30
0.0
 11
514.5016700744316
 21
244.9898680235705
 31
0.0
  0
LINE
  5
5893
330
18
100
AcDbEntity
  8
1
  6
Continuous
100
AcDbLine
 10
512.5016700744318
 20
271.5929170235706
 30
0.0
 11
514.2094690744317
 21
236.4228270235706
 31
0.0
  0
ARC
  5
5894
330
18
100
AcDbEntity
  8
1
  6
Continuous
100
AcDbCircle
 10
526.5016700744316
 20
319.5929170235706
 30
0.0
 40
90.0
100
AcDbArc
 50
266.3385589999962
 51
276.6386329999971
  0
ARC
  5
5895
330
18
100
AcDbEntity
  8
1
  6
Continuous
100
AcDbCircle
 10
561.8021090744316
 20
236.7623350235705
 30
0.0
 40
7.0
100
AcDbArc
 50
273.6614410000037
 51
357.2200000000003
  0
ARC
  5
5896
330
18
100
AcDbEntity
  8
1
  6
Continuous
100
AcDbCircle
 10
566.5016700744318
 20
235.0552520235705
 30
0.0
 40
2.0
100
AcDbArc
 50
340.0367980000006
 51
0.000000000000007
  0
ARC
  5
5897
330
18
100
AcDbEntity
  8
1
  6
Continuous
100
AcDbCircle
 10
556.5016700744316
 20
319.5929170235706
 30
0.0
 40
90.0
100
AcDbArc
 50
263.3613670000028
 51
273.6614410000037
  0
ARC
  5
5898
330
18
100
AcDbEntity
  8
1
  6
Continuous
100
AcDbCircle
 10
546.5016700744318
 20
233.6728960235705
 30
0.0
 40
3.5
100
AcDbArc
 50
180.0
 51
263.3613670000028
  0
ARC
  5
5899
330
18
100
AcDbEntity
  8
1
  6
Continuous
100
AcDbCircle
 10
536.5016700744318
 20
233.6728960235705
 30
0.0
 40
3.5
100
AcDbArc
 50
276.6386329999971
 51
0.000000000000007
  0
ARC
  5
589A
330
18
100
AcDbEntity
  8
1
  6
Continuous
100
AcDbCircle
 10
521.2012310744317
 20
236.7623350235705
 30
0.0
 40
7.0
100
AcDbArc
 50
182.7799999999997
 51
266.3385589999962
  0
ARC
  5
589B
330
18
100
AcDbEntity
  8
1
  6
Continuous
100
AcDbCircle
 10
516.5016700744318
 20
235.0552520235705
 30
0.0
 40
2.0
100
AcDbArc
 50
180.0
 51
199.9632019999993
  0
ARC
  5
589C
330
18
100
AcDbEntity
  8
1
  6
Continuous
100
AcDbCircle
 10
582.0016700744317
 20
281.5929170235706
 30
0.0
 40
3.0
100
AcDbArc
 50
270.0
 51
0.000000000000007
  0
ARC
  5
589D
330
18
100
AcDbEntity
  8
1
  6
Continuous
100
AcDbCircle
 10
576.0016700744317
 20
281.5929170235706
 30
0.0
 40
3.0
100
AcDbArc
 50
180.0
 51
270.0
  0
LINE
  5
589E
330
18
100
AcDbEntity
  8
1
  6
Continuous
100
AcDbLine
 10
582.0016700744317
 20
278.5929170235706
 30
0.0
 11
576.0016700744317
 21
278.5929170235706
 31
0.0
  0
LINE
  5
589F
330
18
100
AcDbEntity
  8
1
  6
Continuous
100
AcDbLine
 10
572.5016700744317
 20
322.9097010235706
 30
0.0
 11
572.5016700744317
 21
286.2761330235707
 31
0.0
  0
LINE
  5
58A0
330
18
100
AcDbEntity
  8
1
  6
Continuous
100
AcDbLine
 10
572.5016700744317
 20
287.6429170235705
 30
0.0
 11
573.0016700744317
 21
287.6429170235705
 31
0.0
  0
ARC
  5
58A1
330
18
100
AcDbEntity
  8
1
  6
Continuous
100
AcDbCircle
 10
572.3016700744318
 20
286.2761330235707
 30
0.0
 40
0.2
100
AcDbArc
 50
279.5941420000003
 51
0.000000000000007
  0
ARC
  5
58A2
330
18
100
AcDbEntity
  8
1
  6
Continuous
100
AcDbCircle
 10
572.5016720744317
 20
285.0929170235706
 30
0.0
 40
1.0
100
AcDbArc
 50
99.59414200000029
 51
160.6125280000014
  0
LINE
  5
58A3
330
18
100
AcDbEntity
  8
1
  6
Continuous
100
AcDbLine
 10
571.5583770744318
 20
285.4248720235706
 30
0.0
 11
570.5016700744318
 21
282.4220960235706
 31
0.0
  0
LINE
  5
58A4
330
18
100
AcDbEntity
  8
1
  6
Continuous
100
AcDbLine
 10
572.5016700744317
 20
321.5429170235706
 30
0.0
 11
573.0016700744317
 21
321.5429170235706
 31
0.0
  0
LINE
  5
58A5
330
18
100
AcDbEntity
  8
1
  6
Continuous
100
AcDbLine
 10
541.5016700744318
 20
317.5928970235705
 30
0.0
 11
541.5016700744318
 21
291.5929370235705
 31
0.0
  0
LINE
  5
58A6
330
18
100
AcDbEntity
  8
1
  6
Continuous
100
AcDbLine
 10
541.5016700744318
 20
291.5929370235705
 30
0.0
 11
542.0016700744318
 21
291.0929370235706
 31
0.0
  0
LINE
  5
58A7
330
18
100
AcDbEntity
  8
1
  6
Continuous
100
AcDbLine
 10
543.0016700744316
 20
291.0929370235706
 30
0.0
 11
542.0016700744318
 21
291.0929370235706
 31
0.0
  0
LINE
  5
58A8
330
18
100
AcDbEntity
  8
1
  6
Continuous
100
AcDbLine
 10
541.5016700744318
 20
291.5929370235705
 30
0.0
 11
541.0016700744318
 21
291.0929370235706
 31
0.0
  0
LINE
  5
58A9
330
18
100
AcDbEntity
  8
1
  6
Continuous
100
AcDbLine
 10
540.0016700744316
 20
291.0929370235706
 30
0.0
 11
541.0016700744318
 21
291.0929370235706
 31
0.0
  0
LINE
  5
58AA
330
18
100
AcDbEntity
  8
1
  6
Continuous
100
AcDbLine
 10
541.5016700744318
 20
317.5928970235705
 30
0.0
 11
542.0016700744318
 21
318.0928970235705
 31
0.0
  0
LINE
  5
58AB
330
18
100
AcDbEntity
  8
1
  6
Continuous
100
AcDbLine
 10
543.0016700744316
 20
318.0928970235705
 30
0.0
 11
542.0016700744318
 21
318.0928970235705
 31
0.0
  0
LINE
  5
58AC
330
18
100
AcDbEntity
  8
1
  6
Continuous
100
AcDbLine
 10
541.5016700744318
 20
317.5928970235705
 30
0.0
 11
541.0016700744318
 21
318.0928970235705
 31
0.0
  0
LINE
  5
58AD
330
18
100
AcDbEntity
  8
1
  6
Continuous
100
AcDbLine
 10
540.0016700744316
 20
318.0928970235705
 30
0.0
 11
541.0016700744318
 21
318.0928970235705
 31
0.0
  0
ARC
  5
58AE
330
18
100
AcDbEntity
  8
1
  6
Continuous
100
AcDbCircle
 10
507.0016700744316
 20
281.5929170235706
 30
0.0
 40
3.0
100
AcDbArc
 50
270.0
 51
0.000000000000007
  0
ARC
  5
58AF
330
18
100
AcDbEntity
  8
1
  6
Continuous
100
AcDbCircle
 10
501.0016700744317
 20
281.5929170235706
 30
0.0
 40
3.0
100
AcDbArc
 50
180.0
 51
270.0
  0
LINE
  5
58B0
330
18
100
AcDbEntity
  8
1
  6
Continuous
100
AcDbLine
 10
501.0016700744317
 20
278.5929170235706
 30
0.0
 11
507.0016700744316
 21
278.5929170235706
 31
0.0
  0
LINE
  5
58B1
330
18
100
AcDbEntity
  8
1
  6
Continuous
100
AcDbLine
 10
510.5016700744316
 20
286.2761330235707
 30
0.0
 11
510.5016700744316
 21
322.9097010235706
 31
0.0
  0
LINE
  5
58B2
330
18
100
AcDbEntity
  8
1
  6
Continuous
100
AcDbLine
 10
510.5016700744316
 20
287.6429170235705
 30
0.0
 11
510.0016700744316
 21
287.6429170235705
 31
0.0
  0
LINE
  5
58B3
330
18
100
AcDbEntity
  8
1
  6
Continuous
100
AcDbLine
 10
511.4449640744318
 20
285.4248720235706
 30
0.0
 11
512.5016700744318
 21
282.4220960235706
 31
0.0
  0
ARC
  5
58B4
330
18
100
AcDbEntity
  8
1
  6
Continuous
100
AcDbCircle
 10
510.7016700744318
 20
286.2761330235707
 30
0.0
 40
0.2
100
AcDbArc
 50
180.0
 51
260.4058579999996
  0
ARC
  5
58B5
330
18
100
AcDbEntity
  8
1
  6
Continuous
100
AcDbCircle
 10
510.5016690744318
 20
285.0929170235706
 30
0.0
 40
1.0
100
AcDbArc
 50
19.38747199999859
 51
80.40585799999972
  0
LINE
  5
58B6
330
18
100
AcDbEntity
  8
1
  6
Continuous
100
AcDbLine
 10
510.5016700744316
 20
321.5429170235706
 30
0.0
 11
510.0016700744316
 21
321.5429170235706
 31
0.0
  0
LINE
  5
58B8
330
18
100
AcDbEntity
  8
1
  6
Continuous
100
AcDbLine
 10
578.7862330744318
 20
432.8230830235704
 30
0.0
 11
596.5016700744318
 21
443.8929170235706
 31
0.0
  0
LINE
  5
58B9
330
18
100
AcDbEntity
  8
1
  6
Continuous
100
AcDbLine
 10
549.4516700744318
 20
449.5929170235706
 30
0.0
 11
596.5016700744318
 21
449.5929170235706
 31
0.0
  0
LINE
  5
58BA
330
18
100
AcDbEntity
  8
1
  6
Continuous
100
AcDbLine
 10
596.5016700744318
 20
444.5929170235706
 30
0.0
 11
551.7516700744318
 21
444.5929170235706
 31
0.0
  0
LINE
  5
58BB
330
18
100
AcDbEntity
  8
1
  6
Continuous
100
AcDbLine
 10
596.5016700744318
 20
449.5929170235706
 30
0.0
 11
596.5016700744318
 21
443.8929170235706
 31
0.0
  0
LINE
  5
58BE
330
18
100
AcDbEntity
  8
1
  6
Continuous
100
AcDbLine
 10
517.554981463327
 20
385.5929170235705
 30
0.0
 11
565.4483596855364
 21
385.5929170235705
 31
0.0
  0
LINE
  5
58BF
330
18
100
AcDbEntity
  8
1
  6
Continuous
100
AcDbLine
 10
516.8800845970975
 20
386.5929170235708
 30
0.0
 11
566.1232555517661
 21
386.5929170235706
 31
0.0
  0
ARC
  5
58C1
330
18
100
AcDbEntity
  8
1
  6
Continuous
100
AcDbCircle
 10
487.6272040744732
 20
353.5361880235762
 30
0.0
 40
85.37446599995837
100
AcDbArc
 50
359.9999999999964
 51
11.13560200000391
  0
LINE
  5
58C2
330
18
100
AcDbEntity
  8
1
  6
Continuous
100
AcDbLine
 10
570.5016700744318
 20
337.5929170235707
 30
0.0
 11
568.7938710744317
 21
372.7630070235707
 31
0.0
  0
ARC
  5
58C3
330
18
100
AcDbEntity
  8
1
  6
Continuous
100
AcDbCircle
 10
572.5016720744317
 20
324.0929170235706
 30
0.0
 40
1.0
100
AcDbArc
 50
199.3874719999985
 51
260.4058579999996
  0
LINE
  5
58C4
330
18
100
AcDbEntity
  8
1
  6
Continuous
100
AcDbLine
 10
571.5583770744318
 20
323.7609620235706
 30
0.0
 11
570.5016700744318
 21
326.7637370235705
 31
0.0
  0
ARC
  5
58C5
330
18
100
AcDbEntity
  8
1
  6
Continuous
100
AcDbCircle
 10
562.6086700744316
 20
382.5929170235706
 30
0.0
 40
4.0
100
AcDbArc
 50
71.89126700000091
 51
90.0
  0
ARC
  5
58C6
330
18
100
AcDbEntity
  8
1
  6
Continuous
100
AcDbCircle
 10
561.8021090744316
 20
372.4234990235705
 30
0.0
 40
7.0
100
AcDbArc
 50
2.779999999999706
 51
72.83566492953124
  0
ARC
  5
58C8
330
18
100
AcDbEntity
  8
1
  6
Continuous
100
AcDbCircle
 10
563.616647074432
 20
381.8514370235705
 30
0.0
 40
4.0
100
AcDbArc
 50
22.87265600000422
 51
23.84628300000056
  0
ARC
  5
58C9
330
18
100
AcDbEntity
  8
1
  6
Continuous
100
AcDbCircle
 10
561.9870280744317
 20
380.6919800235706
 30
0.0
 40
6.0
100
AcDbArc
 50
30.17300921479427
 51
71.89126700000091
  0
LINE
  5
58CB
330
18
100
AcDbEntity
  8
1
  6
Continuous
100
AcDbLine
 10
567.2755208837323
 20
383.4691640062282
 30
0.0
 11
565.3262441399602
 21
380.0929171370693
 31
0.0
  0
ARC
  5
58CC
330
18
100
AcDbEntity
  8
1
  6
Continuous
100
AcDbCircle
 10
504.2536160744318
 20
356.8088910235705
 30
0.0
 40
68.429019
100
AcDbArc
 50
11.13560200000225
 51
23.14690758635387
  0
ARC
  5
58CD
330
18
100
AcDbEntity
  8
1
  6
Continuous
100
AcDbCircle
 10
566.5016700744318
 20
374.1305820235705
 30
0.0
 40
2.0
100
AcDbArc
 50
0.000000000000007
 51
19.96320199999936
  0
LINE
  5
58CF
330
18
100
AcDbEntity
  8
1
  6
Continuous
100
AcDbLine
 10
561.5016700744318
 20
385.5929170235707
 30
0.0
 11
561.5016700744318
 21
386.5929170235706
 31
0.0
  0
LINE
  5
58D1
330
18
100
AcDbEntity
  8
1
  6
Continuous
100
AcDbLine
 10
529.5016700744318
 20
368.0929170235701
 30
0.0
 11
553.501670074432
 21
368.0929170235712
 31
0.0
  0
LINE
  5
58D4
330
18
100
AcDbEntity
  8
1
  6
Continuous
100
AcDbLine
 10
541.5016700744318
 20
376.0929170235706
 30
0.0
 11
541.5016700744318
 21
369.1647140235705
 31
0.0
  0
LINE
  5
58D5
330
18
100
AcDbEntity
  8
1
  6
Continuous
100
AcDbLine
 10
563.5941932668628
 20
379.0929170235707
 30
0.0
 11
519.4091478820005
 21
379.0929170235705
 31
0.0
  0
ARC
  5
58D6
330
18
100
AcDbEntity
  8
1
  6
Continuous
100
AcDbCircle
 10
547.5016700744316
 20
385.4230440235705
 30
0.0
 40
17.33012699999999
100
AcDbArc
 50
249.7438419999987
 51
290.2561580235026
  0
ARC
  5
58D7
330
18
100
AcDbEntity
  8
1
  6
Continuous
100
AcDbCircle
 10
535.5016700744316
 20
385.4230440235705
 30
0.0
 40
17.33012699999999
100
AcDbArc
 50
249.7438419764982
 51
290.2561580000011
  0
ARC
  5
58DA
330
18
100
AcDbEntity
  8
1
  6
Continuous
100
AcDbCircle
 10
595.3761785200356
 20
353.5361819391105
 30
0.0
 40
85.37450784040306
100
AcDbArc
 50
168.8643993654081
 51
179.9999959166513
  0
LINE
  5
58DB
330
18
100
AcDbEntity
  8
1
  6
Continuous
100
AcDbLine
 10
512.5016700744318
 20
337.5929170235707
 30
0.0
 11
514.2094690744317
 21
372.7630070235707
 31
0.0
  0
LINE
  5
58DC
330
18
100
AcDbEntity
  8
1
  6
Continuous
100
AcDbLine
 10
511.4449640744318
 20
323.7609620235706
 30
0.0
 11
512.5016700744318
 21
326.7637370235705
 31
0.0
  0
ARC
  5
58DD
330
18
100
AcDbEntity
  8
1
  6
Continuous
100
AcDbCircle
 10
510.5016690744318
 20
324.0929170235706
 30
0.0
 40
1.0
100
AcDbArc
 50
279.5941420000003
 51
340.6125280000014
  0
LINE
  5
58DE
330
18
100
AcDbEntity
  8
1
  6
Continuous
100
AcDbLine
 10
521.5016700744318
 20
385.5929170235707
 30
0.0
 11
521.5016700744318
 21
386.5929170235706
 31
0.0
  0
ARC
  5
58DF
330
18
100
AcDbEntity
  8
1
  6
Continuous
100
AcDbCircle
 10
520.3946700744316
 20
382.5929170235706
 30
0.0
 40
4.0
100
AcDbArc
 50
90.0
 51
108.1087329999991
  0
ARC
  5
58E1
330
18
100
AcDbEntity
  8
1
  6
Continuous
100
AcDbCircle
 10
521.2012310744317
 20
372.4234990235705
 30
0.0
 40
7.0
100
AcDbArc
 50
107.1643324229127
 51
177.2200000000003
  0
ARC
  5
58E2
330
18
100
AcDbEntity
  8
1
  6
Continuous
100
AcDbCircle
 10
519.3866940744318
 20
381.8514370235705
 30
0.0
 40
4.0
100
AcDbArc
 50
156.1537169999994
 51
157.1273439999957
  0
ARC
  5
58E3
330
18
100
AcDbEntity
  8
1
  6
Continuous
100
AcDbCircle
 10
521.0163130744319
 20
380.6919800235706
 30
0.0
 40
6.0
100
AcDbArc
 50
108.1087329999991
 51
149.8270625683063
  0
LINE
  5
58E5
330
18
100
AcDbEntity
  8
1
  6
Continuous
100
AcDbLine
 10
515.7278194284172
 20
383.4691643922176
 30
0.0
 11
517.6770971452667
 21
380.0929169008806
 31
0.0
  0
ARC
  5
58E6
330
18
100
AcDbEntity
  8
1
  6
Continuous
100
AcDbCircle
 10
578.7497240744317
 20
356.8088910235705
 30
0.0
 40
68.429019
100
AcDbArc
 50
156.8530983313391
 51
168.8643979999977
  0
ARC
  5
58E7
330
18
100
AcDbEntity
  8
1
  6
Continuous
100
AcDbCircle
 10
516.5016700744318
 20
374.1305820235705
 30
0.0
 40
2.0
100
AcDbArc
 50
160.0367980000006
 51
180.0
  0
LINE
  5
58EA
330
18
100
AcDbEntity
  8
1
  6
Continuous
100
AcDbLine
 10
576.5016700744317
 20
431.5929170235706
 30
0.0
 11
506.5016700744316
 21
431.5929170235706
 31
0.0
  0
LINE
  5
58EB
330
18
100
AcDbEntity
  8
1
  6
Continuous
100
AcDbLine
 10
576.5016700744317
 20
424.5929170235706
 30
0.0
 11
506.5016700744316
 21
424.5929170235706
 31
0.0
  0
LINE
  5
58EC
330
18
100
AcDbEntity
  8
1
  6
Continuous
100
AcDbLine
 10
577.2516700744318
 20
422.0929170235706
 30
0.0
 11
505.7516700744318
 21
422.0929170235706
 31
0.0
  0
ARC
  5
58ED
330
18
100
AcDbEntity
  8
1
  6
Continuous
100
AcDbCircle
 10
533.5516700744317
 20
447.8929170235706
 30
0.0
 40
1.7
100
AcDbArc
 50
0.000000000000007
 51
90.0
  0
LINE
  5
58EE
330
18
100
AcDbEntity
  8
1
  6
Continuous
100
AcDbLine
 10
532.6264430744316
 20
443.8929170235706
 30
0.0
 11
550.3768980744318
 21
443.8929170235706
 31
0.0
  0
LINE
  5
58EF
330
18
100
AcDbEntity
  8
1
  6
Continuous
100
AcDbLine
 10
534.1261270744317
 20
449.4929170235706
 30
0.0
 11
548.8772140744316
 21
449.4929170235706
 31
0.0
  0
LINE
  5
58F0
330
18
100
AcDbEntity
  8
4
  6
CENTER
 48
0.2
100
AcDbLine
 10
586.5016700744318
 20
455.5929170235706
 30
0.0
 11
586.5016700744318
 21
438.5929170235706
 31
0.0
  0
LINE
  5
58F2
330
18
100
AcDbEntity
  8
1
  6
Continuous
100
AcDbLine
 10
576.5016700744317
 20
431.5929170235706
 30
0.0
 11
576.5016700744317
 21
424.5929170235706
 31
0.0
  0
ARC
  5
58F3
330
18
100
AcDbEntity
  8
1
  6
Continuous
100
AcDbCircle
 10
582.0016700744317
 20
418.7929170235705
 30
0.0
 40
3.0
100
AcDbArc
 50
0.000000000000007
 51
90.0
  0
LINE
  5
58F4
330
18
100
AcDbEntity
  8
1
  6
Continuous
100
AcDbLine
 10
577.2516700744318
 20
422.0929170235706
 30
0.0
 11
577.2516700744318
 21
421.7929170235707
 31
0.0
  0
LINE
  5
58F6
330
18
100
AcDbEntity
  8
1
  6
Continuous
100
AcDbLine
 10
501.0016700744322
 20
421.7929170235711
 30
0.0
 11
505.7516700744318
 21
421.7929170235704
 31
0.0
  0
LINE
  5
58F7
330
18
100
AcDbEntity
  8
1
  6
Continuous
100
AcDbLine
 10
571.5016700744318
 20
423.9929170235706
 30
0.0
 11
571.5016700744318
 21
422.0929170235706
 31
0.0
  0
ARC
  5
58F8
330
18
100
AcDbEntity
  8
1
  6
Continuous
100
AcDbCircle
 10
570.9016700744317
 20
423.9929170235706
 30
0.0
 40
0.6
100
AcDbArc
 50
0.000000000000007
 51
90.0
  0
ARC
  5
58FA
330
18
100
AcDbEntity
  8
1
  6
Continuous
100
AcDbCircle
 10
575.5016700744318
 20
436.5929170235706
 30
0.0
 40
5.0
100
AcDbArc
 50
270.0
 51
0.000000000000007
  0
ARC
  5
58FB
330
18
100
AcDbEntity
  8
1
  6
Continuous
100
AcDbCircle
 10
584.5016700744317
 20
440.5929170235706
 30
0.0
 40
4.0
100
AcDbArc
 50
90.0
 51
180.0
  0
LINE
  5
58FC
330
18
100
AcDbEntity
  8
1
  6
Continuous
100
AcDbLine
 10
580.5016700744317
 20
440.5929170235706
 30
0.0
 11
580.5016700744317
 21
436.5929170235706
 31
0.0
  0
ARC
  5
58FD
330
18
100
AcDbEntity
  8
1
  6
Continuous
100
AcDbCircle
 10
549.4516700744318
 20
447.8929170235706
 30
0.0
 40
1.7
100
AcDbArc
 50
90.0
 51
180.0
  0
ARC
  5
58FE
330
18
100
AcDbEntity
  8
1
  6
Continuous
100
AcDbCircle
 10
550.3768980744318
 20
445.5929170235706
 30
0.0
 40
1.7
100
AcDbArc
 50
270.0
 51
323.9681210000017
  0
ARC
  5
58FF
330
18
100
AcDbEntity
  8
1
  6
Continuous
100
AcDbCircle
 10
552.7516700744318
 20
433.8230830235706
 30
0.0
 40
1.0
100
AcDbArc
 50
180.0
 51
270.0
  0
LINE
  5
5900
330
18
100
AcDbEntity
  8
1
  6
Continuous
100
AcDbLine
 10
551.7516700744318
 20
443.7929170235705
 30
0.0
 11
551.7516700744318
 21
434.3230830235706
 31
0.0
  0
LINE
  5
5901
330
18
100
AcDbEntity
  8
1
  6
Continuous
100
AcDbLine
 10
535.2516700744318
 20
447.8929170235706
 30
0.0
 11
547.7516700744318
 21
447.8929170235706
 31
0.0
  0
LINE
  5
5902
330
18
100
AcDbEntity
  8
1
  6
Continuous
100
AcDbLine
 10
536.0016700744316
 20
432.8230830235704
 30
0.0
 11
547.0016700744317
 21
432.8230830235704
 31
0.0
  0
LINE
  5
5903
330
18
100
AcDbEntity
  8
4
  6
CENTER
 48
0.2
100
AcDbLine
 10
496.5016700744318
 20
455.5929170235706
 30
0.0
 11
496.5016700744318
 21
438.5929170235706
 31
0.0
  0
ARC
  5
5904
330
18
100
AcDbEntity
  8
1
  6
Continuous
100
AcDbCircle
 10
507.5016700744318
 20
436.5929170235706
 30
0.0
 40
5.0
100
AcDbArc
 50
180.0
 51
270.0
  0
LINE
  5
5907
330
18
100
AcDbEntity
  8
1
  6
Continuous
100
AcDbLine
 10
486.5016700744318
 20
444.5929170235706
 30
0.0
 11
531.2516700744318
 21
444.5929170235706
 31
0.0
  0
LINE
  5
5908
330
18
100
AcDbEntity
  8
1
  6
Continuous
100
AcDbLine
 10
486.5016700744318
 20
449.5929170235706
 30
0.0
 11
533.5516700744317
 21
449.5929170235706
 31
0.0
  0
LINE
  5
5909
330
18
100
AcDbEntity
  8
1
  6
Continuous
100
AcDbLine
 10
506.5016700744316
 20
431.5929170235706
 30
0.0
 11
506.5016700744316
 21
424.5929170235706
 31
0.0
  0
LINE
  5
590B
330
18
100
AcDbEntity
  8
1
  6
Continuous
100
AcDbLine
 10
511.5016700744318
 20
423.9929170235706
 30
0.0
 11
511.5016700744318
 21
422.0929170235706
 31
0.0
  0
ARC
  5
590C
330
18
100
AcDbEntity
  8
1
  6
Continuous
100
AcDbCircle
 10
512.1016700744315
 20
423.9929170235706
 30
0.0
 40
0.6
100
AcDbArc
 50
90.0
 51
180.0
  0
LINE
  5
590D
330
18
100
AcDbEntity
  8
1
  6
Continuous
100
AcDbLine
 10
505.7516700744318
 20
422.0929170235706
 30
0.0
 11
505.7516700744318
 21
421.7929170235707
 31
0.0
  0
ARC
  5
590F
330
18
100
AcDbEntity
  8
1
  6
Continuous
100
AcDbCircle
 10
532.6264430744316
 20
445.5929170235706
 30
0.0
 40
1.7
100
AcDbArc
 50
216.0318789999982
 51
270.0
  0
ARC
  5
5910
330
18
100
AcDbEntity
  8
1
  6
Continuous
100
AcDbCircle
 10
530.2516700744318
 20
433.8230830235706
 30
0.0
 40
1.0
100
AcDbArc
 50
270.0
 51
0.000000000000007
  0
LINE
  5
5911
330
18
100
AcDbEntity
  8
1
  6
Continuous
100
AcDbLine
 10
531.2516700744318
 20
443.7929170235705
 30
0.0
 11
531.2516700744318
 21
434.3230830235706
 31
0.0
  0
ARC
  5
5912
330
18
100
AcDbEntity
  8
1
  6
Continuous
100
AcDbCircle
 10
501.0016700744317
 20
418.7929170235705
 30
0.0
 40
3.0
100
AcDbArc
 50
90.0
 51
180.0
  0
LINE
  5
5913
330
18
100
AcDbEntity
  8
1
  6
Continuous
100
AcDbLine
 10
504.2171070744318
 20
432.8230830235704
 30
0.0
 11
486.5016700744318
 21
443.8929170235706
 31
0.0
  0
ARC
  5
5914
330
18
100
AcDbEntity
  8
1
  6
Continuous
100
AcDbCircle
 10
498.5016700744316
 20
440.5929170235706
 30
0.0
 40
4.0
100
AcDbArc
 50
0.000000000000007
 51
90.0
  0
LINE
  5
5915
330
18
100
AcDbEntity
  8
1
  6
Continuous
100
AcDbLine
 10
502.5016700744316
 20
440.5929170235706
 30
0.0
 11
502.5016700744316
 21
436.5929170235706
 31
0.0
  0
LINE
  5
5916
330
18
100
AcDbEntity
  8
1
  6
Continuous
100
AcDbLine
 10
486.5016700744318
 20
449.5929170235706
 30
0.0
 11
486.5016700744318
 21
443.8929170235706
 31
0.0
  0
LINE
  5
59C6
330
18
100
AcDbEntity
  8
1
  6
Continuous
100
AcDbLine
 10
704.8123420744317
 20
431.5929170235706
 30
0.0
 11
774.8123420744319
 21
431.5929170235706
 31
0.0
  0
LINE
  5
59C7
330
18
100
AcDbEntity
  8
1
  6
Continuous
100
AcDbLine
 10
704.8123420744317
 20
424.5929170235706
 30
0.0
 11
774.8123420744319
 21
424.5929170235706
 31
0.0
  0
LINE
  5
59C8
330
18
100
AcDbEntity
  8
1
  6
Continuous
100
AcDbLine
 10
684.8123420744317
 20
444.5928900235704
 30
0.0
 11
729.5623420744317
 21
444.5928900235704
 31
0.0
  0
LINE
  5
59C9
330
18
100
AcDbEntity
  8
1
  6
Continuous
100
AcDbLine
 10
684.8123420744317
 20
449.5928900235704
 30
0.0
 11
731.862342074432
 21
449.5928900235704
 31
0.0
  0
LINE
  5
59CA
330
18
100
AcDbEntity
  8
1
  6
Continuous
100
AcDbLine
 10
778.8123420744319
 20
422.0929170235706
 30
0.0
 11
702.3123420744317
 21
422.0929170235706
 31
0.0
  0
LINE
  5
59CB
330
18
100
AcDbEntity
  8
1
  6
Continuous
100
AcDbLine
 10
718.8123030744317
 20
376.0928850235706
 30
0.0
 11
726.1650290744319
 21
376.0928850235706
 31
0.0
  0
LINE
  5
59CC
330
18
100
AcDbEntity
  8
1
  6
Continuous
100
AcDbLine
 10
777.5669490744319
 20
291.1339970235705
 30
0.0
 11
721.5633290744318
 21
383.6988210235706
 31
0.0
  0
LINE
  5
59CD
330
18
100
AcDbEntity
  8
4
  6
CENTER
 48
0.7
100
AcDbLine
 10
717.8123420744317
 20
304.5929170235706
 30
0.0
 11
881.8123420744319
 21
304.5929170235706
 31
0.0
  0
ARC
  5
59D0
330
18
100
AcDbEntity
  8
1
  6
Continuous
100
AcDbCircle
 10
799.8123420744319
 20
304.5929170235706
 30
0.0
 40
33.0
100
AcDbArc
 50
358.7811820000002
 51
37.21881799999769
  0
ARC
  5
59D1
330
18
100
AcDbEntity
  8
1
  6
Continuous
100
AcDbCircle
 10
799.8123420744319
 20
304.5929170235706
 30
0.0
 40
75.0
100
AcDbArc
 50
141.458368
 51
91.11417599999644
  0
LINE
  5
59D2
330
18
100
AcDbEntity
  8
1
  6
Continuous
100
AcDbLine
 10
824.0201660744318
 20
314.0787600235705
 30
0.0
 11
783.803442074432
 21
416.7116380235706
 31
0.0
  0
LINE
  5
59D3
330
18
100
AcDbEntity
  8
4
  6
CENTER
 48
0.7
100
AcDbLine
 10
799.8123420744319
 20
222.5929170235706
 30
0.0
 11
799.8123420744319
 21
386.5929170235706
 31
0.0
  0
ARC
  5
59D5
330
18
100
AcDbEntity
  8
1
  6
Continuous
100
AcDbCircle
 10
840.3987160744318
 20
272.0852830235705
 30
0.0
 40
6.0
100
AcDbArc
 50
211.9999999999995
 51
321.3070369999995
  0
ARC
  5
59D6
330
18
100
AcDbEntity
  8
1
  6
Continuous
100
AcDbCircle
 10
840.530275074432
 20
272.2482590235706
 30
0.0
 40
4.5
100
AcDbArc
 50
211.5262920000009
 51
321.5378110000008
  0
LINE
  5
59D7
330
18
100
AcDbEntity
  8
1
  6
Continuous
100
AcDbLine
 10
845.147047074432
 20
253.2584440235706
 30
0.0
 11
836.3938710744319
 21
267.5274990235706
 31
0.0
  0
LINE
  5
59D8
330
18
100
AcDbEntity
  8
1
  6
Continuous
100
AcDbLine
 10
826.8363150744319
 20
282.4671810235705
 30
0.0
 11
845.1259920744318
 21
253.1975810235706
 31
0.0
  0
LINE
  5
59D9
330
18
100
AcDbEntity
  8
1
  6
Continuous
100
AcDbLine
 10
834.6803770744317
 20
306.6087200235707
 30
0.0
 11
866.681275074432
 21
319.5379220235706
 31
0.0
  0
LINE
  5
59DA
330
18
100
AcDbEntity
  8
1
  6
Continuous
100
AcDbLine
 10
850.0453870744319
 20
310.9851410235705
 30
0.0
 11
835.7685700744319
 21
305.0791640235705
 31
0.0
  0
ARC
  5
59DB
330
18
100
AcDbEntity
  8
1
  6
Continuous
100
AcDbCircle
 10
799.8123420744319
 20
304.5929170235706
 30
0.0
 40
58.0
100
AcDbArc
 50
321.3070369999995
 51
2.69296300000354
  0
ARC
  5
59DC
330
18
100
AcDbEntity
  8
1
  6
Continuous
100
AcDbCircle
 10
799.8123420744319
 20
304.5929170235706
 30
0.0
 40
56.50122099999999
100
AcDbArc
 50
321.5378110000008
 51
2.462189000002326
  0
ARC
  5
59DD
330
18
100
AcDbEntity
  8
1
  6
Continuous
100
AcDbCircle
 10
843.3928170744319
 20
252.1823330235706
 30
0.0
 40
2.057993
100
AcDbArc
 50
309.7442180000023
 51
31.52651999999919
  0
ARC
  5
59DE
330
18
100
AcDbEntity
  8
1
  6
Continuous
100
AcDbCircle
 10
843.4298950744317
 20
252.1377420235705
 30
0.0
 40
2.0
100
AcDbArc
 50
309.7442180000023
 51
31.99999999999949
  0
ARC
  5
59DF
330
18
100
AcDbEntity
  8
1
  6
Continuous
100
AcDbCircle
 10
865.875855074432
 20
321.3780090235705
 30
0.0
 40
2.057993
100
AcDbArc
 50
292.4734799999993
 51
14.25578200000132
  0
ARC
  5
59E0
330
18
100
AcDbEntity
  8
1
  6
Continuous
100
AcDbCircle
 10
865.932062074432
 20
321.3922900235705
 30
0.0
 40
2.0
100
AcDbArc
 50
292.0000000000007
 51
0.000000000000007
  0
LINE
  5
59E1
330
18
100
AcDbEntity
  8
1
  6
Continuous
100
AcDbLine
 10
851.193926074432
 20
313.0773860235706
 30
0.0
 11
866.6625340744319
 21
319.4763070235707
 31
0.0
  0
ARC
  5
59E2
330
18
100
AcDbEntity
  8
1
  6
Continuous
100
AcDbCircle
 10
851.7549160744319
 20
307.0360730235705
 30
0.0
 40
6.0
100
AcDbArc
 50
2.69296300000354
 51
112.0000000000007
  0
ARC
  5
59E3
330
18
100
AcDbEntity
  8
1
  6
Continuous
100
AcDbCircle
 10
851.7655540744318
 20
306.8268940235706
 30
0.0
 40
4.5
100
AcDbArc
 50
2.462189000002326
 51
112.4737079999995
  0
ARC
  5
59E4
330
18
100
AcDbEntity
  8
1
  6
Continuous
100
AcDbCircle
 10
850.4294150744318
 20
314.9254990235706
 30
0.0
 40
2.0
100
AcDbArc
 50
279.5371820000017
 51
292.4734799999993
  0
ARC
  5
59E5
330
18
100
AcDbEntity
  8
1
  6
Continuous
100
AcDbCircle
 10
799.8123420744319
 20
304.5929170235706
 30
0.0
 40
33.0
100
AcDbArc
 50
214.7811820000003
 51
253.2188180000009
  0
ARC
  5
59E6
330
18
100
AcDbEntity
  8
1
  6
Continuous
100
AcDbCircle
 10
799.8123420744319
 20
304.5929170235706
 30
0.0
 40
58.0
100
AcDbArc
 50
249.3070369999981
 51
290.6929630000017
  0
ARC
  5
59E7
330
18
100
AcDbEntity
  8
1
  6
Continuous
100
AcDbCircle
 10
799.8123420744319
 20
304.5929170235706
 30
0.0
 40
56.50122099999999
100
AcDbArc
 50
249.5378109999992
 51
290.4621890000008
  0
LINE
  5
59E8
330
18
100
AcDbEntity
  8
1
  6
Continuous
100
AcDbLine
 10
778.2101100744321
 20
258.7937580235706
 30
0.0
 11
788.2388080744321
 21
270.5467700235706
 31
0.0
  0
ARC
  5
59E9
330
18
100
AcDbEntity
  8
1
  6
Continuous
100
AcDbCircle
 10
799.8123420744319
 20
304.5929170235706
 30
0.0
 40
26.0
100
AcDbArc
 50
211.1748000000022
 51
21.39774399999998
  0
LINE
  5
59EA
330
18
100
AcDbEntity
  8
1
  6
Continuous
100
AcDbLine
 10
787.120383074432
 20
272.0543620235705
 30
0.0
 11
764.9351600744319
 21
245.6150420235705
 31
0.0
  0
ARC
  5
59EB
330
18
100
AcDbEntity
  8
1
  6
Continuous
100
AcDbCircle
 10
799.8123420744319
 20
304.5929170235706
 30
0.0
 40
33.0
100
AcDbArc
 50
286.7811819999992
 51
325.2188179999996
  0
LINE
  5
59EC
330
18
100
AcDbEntity
  8
1
  6
Continuous
100
AcDbLine
 10
836.6944730744318
 20
269.8952560235706
 30
0.0
 11
828.6157320744319
 21
283.0649940235706
 31
0.0
  0
ARC
  5
59ED
330
18
100
AcDbEntity
  8
1
  6
Continuous
100
AcDbCircle
 10
810.001394074432
 20
269.3654100235705
 30
0.0
 40
1.82
100
AcDbArc
 50
40.47370799999851
 51
106.1317570000029
  0
ARC
  5
59EE
330
18
100
AcDbEntity
  8
1
  6
Continuous
100
AcDbCircle
 10
810.206166074432
 20
270.1259990235705
 30
0.0
 40
3.0
100
AcDbArc
 50
40.00000000000258
 51
106.7811819999991
  0
ARC
  5
59EF
330
18
100
AcDbEntity
  8
1
  6
Continuous
100
AcDbCircle
 10
818.187059074432
 20
255.9475700235706
 30
0.0
 40
6.0
100
AcDbArc
 50
290.6929630000017
 51
40.00000000000258
  0
LINE
  5
59F0
330
18
100
AcDbEntity
  8
1
  6
Continuous
100
AcDbLine
 10
821.4145730744318
 20
258.7937580235706
 30
0.0
 11
811.3858760744319
 21
270.5467700235706
 31
0.0
  0
LINE
  5
59F1
330
18
100
AcDbEntity
  8
1
  6
Continuous
100
AcDbLine
 10
812.5043000744319
 20
272.0543620235705
 30
0.0
 11
834.6895230744319
 21
245.6150420235705
 31
0.0
  0
LINE
  5
59F2
330
18
100
AcDbEntity
  8
1
  6
Continuous
100
AcDbLine
 10
823.7593340744322
 20
258.3479710235706
 30
0.0
 11
834.625132074432
 21
245.6138260235706
 31
0.0
  0
ARC
  5
59F3
330
18
100
AcDbEntity
  8
1
  6
Continuous
100
AcDbCircle
 10
836.1906610744322
 20
246.9496610235705
 30
0.0
 40
2.057993
100
AcDbArc
 50
220.4734800000017
 51
302.2557819999986
  0
ARC
  5
59F4
330
18
100
AcDbEntity
  8
1
  6
Continuous
100
AcDbCircle
 10
836.2216120744319
 20
246.9006180235705
 30
0.0
 40
2.0
100
AcDbArc
 50
220.0000000000026
 51
287.9999999999995
  0
ARC
  5
59F5
330
18
100
AcDbEntity
  8
1
  6
Continuous
100
AcDbCircle
 10
825.2807470744318
 20
259.6461630235705
 30
0.0
 40
2.0
100
AcDbArc
 50
207.537182000001
 51
220.4734800000017
  0
ARC
  5
59F6
330
18
100
AcDbEntity
  8
1
  6
Continuous
100
AcDbCircle
 10
817.9914050744319
 20
255.8728120235706
 30
0.0
 40
4.5
100
AcDbArc
 50
290.4621890000008
 51
40.47370799999851
  0
ARC
  5
59F7
330
18
100
AcDbEntity
  8
1
  6
Continuous
100
AcDbCircle
 10
834.6890740744321
 20
266.4817130235705
 30
0.0
 40
2.0
100
AcDbArc
 50
31.52651999999919
 51
44.46281799999656
  0
ARC
  5
59F8
330
18
100
AcDbEntity
  8
1
  6
Continuous
100
AcDbCircle
 10
799.8123420744319
 20
304.5929170235706
 30
0.0
 40
34.851433
100
AcDbArc
 50
253.868242999997
 51
286.1317570000029
  0
ARC
  5
59F9
330
18
100
AcDbEntity
  8
1
  6
Continuous
100
AcDbCircle
 10
799.8123420744319
 20
304.5929170235706
 30
0.0
 40
33.0
100
AcDbArc
 50
253.2188180000009
 51
286.7811819999992
  0
ARC
  5
59FA
330
18
100
AcDbEntity
  8
1
  6
Continuous
100
AcDbCircle
 10
789.4185170744321
 20
270.1259990235705
 30
0.0
 40
3.0
100
AcDbArc
 50
73.21881800000088
 51
139.9999999999973
  0
ARC
  5
59FB
330
18
100
AcDbEntity
  8
1
  6
Continuous
100
AcDbCircle
 10
789.6232890744317
 20
269.3654100235705
 30
0.0
 40
1.82
100
AcDbArc
 50
73.86824299999704
 51
139.5262920000014
  0
CIRCLE
  5
59FC
330
18
100
AcDbEntity
  8
1
  6
Continuous
100
AcDbCircle
 10
799.8123420744319
 20
304.5929170235706
 30
0.0
 40
12.0
  0
CIRCLE
  5
59FD
330
18
100
AcDbEntity
  8
1
  6
Continuous
100
AcDbCircle
 10
799.8123420744319
 20
304.5929170235706
 30
0.0
 40
11.5
  0
ARC
  5
59FE
330
18
100
AcDbEntity
  8
1
  6
Continuous
100
AcDbCircle
 10
799.8123420744319
 20
304.5929170235706
 30
0.0
 40
34.851433
100
AcDbArc
 50
325.8682429999955
 51
358.1317570000019
  0
ARC
  5
59FF
330
18
100
AcDbEntity
  8
1
  6
Continuous
100
AcDbCircle
 10
799.8123420744319
 20
304.5929170235706
 30
0.0
 40
33.0
100
AcDbArc
 50
325.2188179999996
 51
358.7811820000002
  0
ARC
  5
5A00
330
18
100
AcDbEntity
  8
1
  6
Continuous
100
AcDbCircle
 10
829.3804600744319
 20
284.0569390235706
 30
0.0
 40
3.0
100
AcDbArc
 50
145.2188179999996
 51
211.9999999999995
  0
ARC
  5
5A01
330
18
100
AcDbEntity
  8
1
  6
Continuous
100
AcDbCircle
 10
830.1671010744319
 20
284.0166530235705
 30
0.0
 40
1.82
100
AcDbArc
 50
145.8682429999955
 51
211.5262920000009
  0
ARC
  5
5A02
330
18
100
AcDbEntity
  8
1
  6
Continuous
100
AcDbCircle
 10
836.464282074432
 20
303.3973840235705
 30
0.0
 40
1.82
100
AcDbArc
 50
112.4737079999995
 51
178.131757000002
  0
ARC
  5
5A03
330
18
100
AcDbEntity
  8
1
  6
Continuous
100
AcDbCircle
 10
835.804197074432
 20
303.8271680235705
 30
0.0
 40
3.0
100
AcDbArc
 50
112.0000000000007
 51
178.7811820000001
  0
ARC
  5
5A05
330
18
100
AcDbEntity
  8
1
  6
Continuous
100
AcDbCircle
 10
799.8123420744319
 20
304.5929170235706
 30
0.0
 40
58.0
100
AcDbArc
 50
177.3070369999964
 51
218.6929630000005
  0
ARC
  5
5A06
330
18
100
AcDbEntity
  8
1
  6
Continuous
100
AcDbCircle
 10
799.8123420744319
 20
304.5929170235706
 30
0.0
 40
56.50122099999999
100
AcDbArc
 50
177.5378109999976
 51
218.462188999999
  0
LINE
  5
5A07
330
18
100
AcDbEntity
  8
1
  6
Continuous
100
AcDbLine
 10
762.930210074432
 20
269.8952560235706
 30
0.0
 11
771.0089510744319
 21
283.0649940235706
 31
0.0
  0
LINE
  5
5A08
330
18
100
AcDbEntity
  8
1
  6
Continuous
100
AcDbLine
 10
772.7883680744318
 20
282.4671810235705
 30
0.0
 11
754.4986920744317
 21
253.1975810235706
 31
0.0
  0
ARC
  5
5A09
330
18
100
AcDbEntity
  8
1
  6
Continuous
100
AcDbCircle
 10
781.4376240744317
 20
255.9475700235706
 30
0.0
 40
6.0
100
AcDbArc
 50
139.9999999999973
 51
249.3070369999981
  0
LINE
  5
5A0A
330
18
100
AcDbEntity
  8
1
  6
Continuous
100
AcDbLine
 10
763.2308120744319
 20
267.5274990235706
 30
0.0
 11
754.4776370744321
 21
253.2584440235706
 31
0.0
  0
LINE
  5
5A0B
330
18
100
AcDbEntity
  8
1
  6
Continuous
100
AcDbLine
 10
764.999551074432
 20
245.6138260235706
 30
0.0
 11
775.8653490744316
 21
258.3479710235706
 31
0.0
  0
ARC
  5
5A0C
330
18
100
AcDbEntity
  8
1
  6
Continuous
100
AcDbCircle
 10
774.3439360744319
 20
259.6461630235705
 30
0.0
 40
2.0
100
AcDbArc
 50
319.5265199999982
 51
332.462817999999
  0
ARC
  5
5A0D
330
18
100
AcDbEntity
  8
1
  6
Continuous
100
AcDbCircle
 10
781.6332780744319
 20
255.8728120235706
 30
0.0
 40
4.5
100
AcDbArc
 50
139.5262920000014
 51
249.5378109999992
  0
ARC
  5
5A0E
330
18
100
AcDbEntity
  8
1
  6
Continuous
100
AcDbCircle
 10
763.434022074432
 20
246.9496610235705
 30
0.0
 40
2.057993
100
AcDbArc
 50
237.7442180000013
 51
319.5265199999982
  0
ARC
  5
5A0F
330
18
100
AcDbEntity
  8
1
  6
Continuous
100
AcDbCircle
 10
763.4030710744317
 20
246.9006180235705
 30
0.0
 40
2.0
100
AcDbArc
 50
237.7442180000013
 51
319.9999999999973
  0
ARC
  5
5A10
330
18
100
AcDbEntity
  8
1
  6
Continuous
100
AcDbCircle
 10
756.231866074432
 20
252.1823330235706
 30
0.0
 40
2.057993
100
AcDbArc
 50
148.4734800000008
 51
230.2557819999976
  0
ARC
  5
5A11
330
18
100
AcDbEntity
  8
1
  6
Continuous
100
AcDbCircle
 10
756.1947880744319
 20
252.1377420235705
 30
0.0
 40
2.0
100
AcDbArc
 50
148.0000000000005
 51
215.9999999999974
  0
ARC
  5
5A12
330
18
100
AcDbEntity
  8
1
  6
Continuous
100
AcDbCircle
 10
764.935609074432
 20
266.4817130235705
 30
0.0
 40
2.0
100
AcDbArc
 50
135.5371820000034
 51
148.4734800000008
  0
ARC
  5
5A13
330
18
100
AcDbEntity
  8
1
  6
Continuous
100
AcDbCircle
 10
759.2259680744319
 20
272.0852830235705
 30
0.0
 40
6.0
100
AcDbArc
 50
218.6929630000005
 51
328.0000000000005
  0
ARC
  5
5A14
330
18
100
AcDbEntity
  8
1
  6
Continuous
100
AcDbCircle
 10
759.094408074432
 20
272.2482590235706
 30
0.0
 40
4.5
100
AcDbArc
 50
218.462188999999
 51
328.473707999999
  0
LINE
  5
5A15
330
18
100
AcDbEntity
  8
1
  6
Continuous
100
AcDbLine
 10
749.579296074432
 20
310.9851410235705
 30
0.0
 11
763.8561140744317
 21
305.0791640235705
 31
0.0
  0
LINE
  5
5A16
330
18
100
AcDbEntity
  8
1
  6
Continuous
100
AcDbLine
 10
764.9443060744321
 20
306.6087200235707
 30
0.0
 11
732.9434080744321
 21
319.5379220235706
 31
0.0
  0
ARC
  5
5A17
330
18
100
AcDbEntity
  8
1
  6
Continuous
100
AcDbCircle
 10
799.8123420744319
 20
304.5929170235706
 30
0.0
 40
34.851433
100
AcDbArc
 50
181.8682429999979
 51
214.1317570000044
  0
ARC
  5
5A18
330
18
100
AcDbEntity
  8
1
  6
Continuous
100
AcDbCircle
 10
799.8123420744319
 20
304.5929170235706
 30
0.0
 40
33.0
100
AcDbArc
 50
180.0
 51
214.7811820000003
  0
ARC
  5
5A19
330
18
100
AcDbEntity
  8
1
  6
Continuous
100
AcDbCircle
 10
770.2442240744319
 20
284.0569390235706
 30
0.0
 40
3.0
100
AcDbArc
 50
328.0000000000005
 51
34.78118200000035
  0
ARC
  5
5A1A
330
18
100
AcDbEntity
  8
1
  6
Continuous
100
AcDbCircle
 10
769.4575820744319
 20
284.0166530235705
 30
0.0
 40
1.82
100
AcDbArc
 50
328.473707999999
 51
34.13175700000445
  0
ARC
  5
5A1B
330
18
100
AcDbEntity
  8
1
  6
Continuous
100
AcDbCircle
 10
763.8204870744321
 20
303.8271680235705
 30
0.0
 40
3.0
100
AcDbArc
 50
1.218817999999888
 51
67.99999999999929
  0
ARC
  5
5A1C
330
18
100
AcDbEntity
  8
1
  6
Continuous
100
AcDbCircle
 10
763.1604010744321
 20
303.3973840235705
 30
0.0
 40
1.82
100
AcDbArc
 50
1.86824299999798
 51
67.52629200000047
  0
ARC
  5
5A1D
330
18
100
AcDbEntity
  8
1
  6
Continuous
100
AcDbCircle
 10
799.8123420744319
 20
304.5929170235706
 30
0.0
 40
33.0
100
AcDbArc
 50
173.1625199999981
 51
181.2188179999999
  0
LINE
  5
5A1E
330
18
100
AcDbEntity
  8
1
  6
Continuous
100
AcDbLine
 10
732.9621490744321
 20
319.4763070235707
 30
0.0
 11
748.4307570744321
 21
313.0773860235706
 31
0.0
  0
ARC
  5
5A1F
330
18
100
AcDbEntity
  8
1
  6
Continuous
100
AcDbCircle
 10
749.1952690744319
 20
314.9254990235706
 30
0.0
 40
2.0
100
AcDbArc
 50
247.5265200000006
 51
260.4628179999981
  0
ARC
  5
5A20
330
18
100
AcDbEntity
  8
1
  6
Continuous
100
AcDbCircle
 10
747.8697680744319
 20
307.0360730235705
 30
0.0
 40
6.0
100
AcDbArc
 50
67.99999999999929
 51
177.3070369999964
  0
ARC
  5
5A21
330
18
100
AcDbEntity
  8
1
  6
Continuous
100
AcDbCircle
 10
747.859129074432
 20
306.8268940235706
 30
0.0
 40
4.5
100
AcDbArc
 50
67.52629200000047
 51
177.5378109999976
  0
ARC
  5
5A22
330
18
100
AcDbEntity
  8
1
  6
Continuous
100
AcDbCircle
 10
733.7488280744318
 20
321.3780090235705
 30
0.0
 40
2.057993
100
AcDbArc
 50
165.7442179999986
 51
247.5265200000006
  0
ARC
  5
5A23
330
18
100
AcDbEntity
  8
1
  6
Continuous
100
AcDbCircle
 10
733.6926210744317
 20
321.3922900235705
 30
0.0
 40
2.0
100
AcDbArc
 50
165.7442179999986
 51
247.9999999999992
  0
ARC
  5
5A24
330
18
100
AcDbEntity
  8
1
  6
Continuous
100
AcDbCircle
 10
799.8123420744319
 20
304.5929170235706
 30
0.0
 40
58.0
100
AcDbArc
 50
33.30703699999882
 51
74.69296299999765
  0
ARC
  5
5A25
330
18
100
AcDbEntity
  8
1
  6
Continuous
100
AcDbCircle
 10
799.8123420744319
 20
304.5929170235706
 30
0.0
 40
56.50122099999999
100
AcDbArc
 50
33.53781100000077
 51
74.46218899999959
  0
LINE
  5
5A26
330
18
100
AcDbEntity
  8
1
  6
Continuous
100
AcDbLine
 10
829.2060340744319
 20
323.4570150235707
 30
0.0
 11
862.694899074432
 21
331.8067270235705
 31
0.0
  0
LINE
  5
5A27
330
18
100
AcDbEntity
  8
1
  6
Continuous
100
AcDbLine
 10
844.2089840744319
 20
328.9477420235706
 30
0.0
 11
829.1873500744317
 21
325.3340750235707
 31
0.0
  0
LINE
  5
5A28
330
18
100
AcDbEntity
  8
1
  6
Continuous
100
AcDbLine
 10
862.6435210744316
 20
331.8455590235705
 30
0.0
 11
846.3679630744319
 21
327.9301750235707
 31
0.0
  0
ARC
  5
5A29
330
18
100
AcDbEntity
  8
1
  6
Continuous
100
AcDbCircle
 10
863.1248760744322
 20
329.8446510235705
 30
0.0
 40
2.057993
100
AcDbArc
 50
21.74421799999838
 51
103.5265200000035
  0
ARC
  5
5A2A
330
18
100
AcDbEntity
  8
1
  6
Continuous
100
AcDbCircle
 10
863.1787430744321
 20
329.8661350235705
 30
0.0
 40
2.0
100
AcDbArc
 50
21.74421799999838
 51
104.000000000002
  0
ARC
  5
5A2B
330
18
100
AcDbEntity
  8
1
  6
Continuous
100
AcDbCircle
 10
846.835753074432
 20
325.9856510235707
 30
0.0
 40
2.0
100
AcDbArc
 50
103.5265200000035
 51
116.4628179999978
  0
ARC
  5
5A2C
330
18
100
AcDbEntity
  8
1
  6
Continuous
100
AcDbCircle
 10
843.270818074432
 20
333.1474410235707
 30
0.0
 40
6.0
100
AcDbArc
 50
284.0000000000019
 51
33.30703699999882
  0
ARC
  5
5A2D
330
18
100
AcDbEntity
  8
1
  6
Continuous
100
AcDbCircle
 10
843.156472074432
 20
333.3229240235706
 30
0.0
 40
4.5
100
AcDbArc
 50
283.5262920000019
 51
33.53781100000077
  0
LINE
  5
5A2E
330
18
100
AcDbEntity
  8
1
  6
Continuous
100
AcDbLine
 10
727.8123420744317
 20
415.7929170235706
 30
0.0
 11
727.8123420744317
 21
375.0440330235706
 31
0.0
  0
LINE
  5
5A2F
330
18
100
AcDbEntity
  8
4
  6
CENTER
 48
0.7
100
AcDbLine
 10
739.8123420744317
 20
456.4928900235708
 30
0.0
 11
739.8123420744317
 21
340.2744770235706
 31
0.0
  0
LINE
  5
5A30
330
18
100
AcDbEntity
  8
1
  6
Continuous
100
AcDbLine
 10
807.620915074432
 20
356.0815530235706
 30
0.0
 11
806.3152420744318
 21
372.7704490235705
 31
0.0
  0
LINE
  5
5A31
330
18
100
AcDbEntity
  8
1
  6
Continuous
100
AcDbLine
 10
807.403917074432
 20
356.4833450235705
 30
0.0
 11
806.2624340744319
 21
372.8073120235706
 31
0.0
  0
ARC
  5
5A32
330
18
100
AcDbEntity
  8
1
  6
Continuous
100
AcDbCircle
 10
813.5399000744319
 20
354.7482170235706
 30
0.0
 40
6.0
100
AcDbArc
 50
74.69296299999765
 51
169.2484530000014
  0
ARC
  5
5A33
330
18
100
AcDbEntity
  8
1
  6
Continuous
100
AcDbCircle
 10
813.7421290744319
 20
354.6936950235706
 30
0.0
 40
4.5
100
AcDbArc
 50
74.46218899999959
 51
184.4737080000024
  0
ARC
  5
5A34
330
18
100
AcDbEntity
  8
1
  6
Continuous
100
AcDbCircle
 10
799.8123420744319
 20
304.5929170235706
 30
0.0
 40
33.0
100
AcDbArc
 50
37.21881799999769
 51
59.41002699999935
  0
ARC
  5
5A35
330
18
100
AcDbEntity
  8
1
  6
Continuous
100
AcDbCircle
 10
799.8123420744319
 20
304.5929170235706
 30
0.0
 40
34.851433
100
AcDbArc
 50
37.86824299999948
 51
63.15063000000127
  0
ARC
  5
5A36
330
18
100
AcDbEntity
  8
1
  6
Continuous
100
AcDbCircle
 10
828.4802680744318
 20
326.3679020235707
 30
0.0
 40
3.0
100
AcDbArc
 50
217.2188179999977
 51
284.0000000000019
  0
ARC
  5
5A37
330
18
100
AcDbEntity
  8
1
  6
Continuous
100
AcDbCircle
 10
828.7616670744318
 20
327.1035930235706
 30
0.0
 40
1.82
100
AcDbArc
 50
217.8682429999994
 51
283.5262920000019
  0
ARC
  5
5A38
330
18
100
AcDbEntity
  8
1
  6
Continuous
100
AcDbCircle
 10
805.6270080744321
 20
355.9255570235706
 30
0.0
 40
2.0
100
AcDbArc
 50
359.6718390000002
 51
4.473479999997
  0
LINE
  5
5A39
330
18
100
AcDbEntity
  8
1
  6
Continuous
100
AcDbLine
 10
809.255839074432
 20
354.3426880235707
 30
0.0
 11
809.508591074432
 21
351.1122280235706
 31
0.0
  0
ARC
  5
5A3A
330
18
100
AcDbEntity
  8
1
  6
Continuous
100
AcDbCircle
 10
804.263519074432
 20
372.6099300235705
 30
0.0
 40
2.057993
100
AcDbArc
 50
4.473479999997
 51
86.25578199999926
  0
ARC
  5
5A3B
330
18
100
AcDbEntity
  8
1
  6
Continuous
100
AcDbCircle
 10
804.2673060744316
 20
372.6678000235706
 30
0.0
 40
2.0
100
AcDbArc
 50
3.999999999996525
 51
72.00000000000054
  0
LINE
  5
5A3C
330
18
100
AcDbEntity
  8
1
  6
Continuous
100
AcDbLine
 10
753.2567210744319
 20
327.9301750235707
 30
0.0
 11
736.9811620744319
 21
331.8455590235705
 31
0.0
  0
ARC
  5
5A3D
330
18
100
AcDbEntity
  8
1
  6
Continuous
100
AcDbCircle
 10
756.468211074432
 20
333.3229240235706
 30
0.0
 40
4.5
100
AcDbArc
 50
178.4846779999968
 51
243.8649219999989
  0
LINE
  5
5A3E
330
18
100
AcDbEntity
  8
1
  6
Continuous
100
AcDbLine
 10
755.8066620744321
 20
327.1001920235705
 30
0.0
 11
736.929784074432
 21
331.8067270235705
 31
0.0
  0
ARC
  5
5A3F
330
18
100
AcDbEntity
  8
1
  6
Continuous
100
AcDbCircle
 10
756.353865074432
 20
333.1474410235707
 30
0.0
 40
6.0
100
AcDbArc
 50
158.0273379999954
 51
255.999999999998
  0
ARC
  5
5A40
330
18
100
AcDbEntity
  8
1
  6
Continuous
100
AcDbCircle
 10
752.7889300744317
 20
325.9856510235707
 30
0.0
 40
2.0
100
AcDbArc
 50
63.53718200000216
 51
76.4734799999965
  0
ARC
  5
5A41
330
18
100
AcDbEntity
  8
1
  6
Continuous
100
AcDbCircle
 10
736.4998070744317
 20
329.8446510235705
 30
0.0
 40
2.057993
100
AcDbArc
 50
76.4734799999965
 51
158.2557820000016
  0
ARC
  5
5A42
330
18
100
AcDbEntity
  8
1
  6
Continuous
100
AcDbCircle
 10
736.4459400744318
 20
329.8661350235705
 30
0.0
 40
2.0
100
AcDbArc
 50
75.99999999999801
 51
144.0000000000025
  0
ARC
  5
5A43
330
18
100
AcDbEntity
  8
1
  6
Continuous
100
AcDbCircle
 10
733.8123420744317
 20
375.0440330235706
 30
0.0
 40
6.0
100
AcDbArc
 50
180.0
 51
211.1748000000022
  0
ARC
  5
5A44
330
18
100
AcDbEntity
  8
1
  6
Continuous
100
AcDbCircle
 10
733.8123420744317
 20
375.0440330235706
 30
0.0
 40
6.0
100
AcDbArc
 50
180.0
 51
211.1748000000022
  0
LINE
  5
5A45
330
18
100
AcDbEntity
  8
1
  6
Continuous
100
AcDbLine
 10
725.955896074432
 20
369.1646810235706
 30
0.0
 11
725.955896074432
 21
376.0928850235706
 31
0.0
  0
LINE
  5
5A46
330
18
100
AcDbEntity
  8
1
  6
Continuous
100
AcDbLine
 10
727.8123030744317
 20
368.0928850235706
 30
0.0
 11
731.0051930744321
 21
368.0928850235706
 31
0.0
  0
ARC
  5
5A47
330
18
100
AcDbEntity
  8
1
  6
Continuous
100
AcDbCircle
 10
729.4199980744321
 20
374.2268590235704
 30
0.0
 40
6.133975
100
AcDbArc
 50
244.3842470000001
 51
283.9248260000018
  0
LINE
  5
5A48
330
18
100
AcDbEntity
  8
1
  6
Continuous
100
AcDbLine
 10
727.8123030744317
 20
368.0928850235706
 30
0.0
 11
725.955896074432
 21
369.1646810235706
 31
0.0
  0
ARC
  5
5A49
330
18
100
AcDbEntity
  8
1
  6
Continuous
100
AcDbCircle
 10
782.8123420744319
 20
440.5928900235704
 30
0.0
 40
4.0
100
AcDbArc
 50
90.0
 51
180.0
  0
LINE
  5
5A4A
330
18
100
AcDbEntity
  8
1
  6
Continuous
100
AcDbLine
 10
777.096905074432
 20
432.8230560235706
 30
0.0
 11
794.8123420744317
 21
443.8928900235705
 31
0.0
  0
ARC
  5
5A4B
330
18
100
AcDbEntity
  8
1
  6
Continuous
100
AcDbCircle
 10
778.8123420744319
 20
419.0929170235706
 30
0.0
 40
3.0
100
AcDbArc
 50
13.23744399999706
 51
90.0
  0
ARC
  5
5A4C
330
18
100
AcDbEntity
  8
1
  6
Continuous
100
AcDbCircle
 10
776.3548810744318
 20
413.7929170235707
 30
0.0
 40
8.0
100
AcDbArc
 50
21.39774399999998
 51
90.0
  0
ARC
  5
5A4D
330
18
100
AcDbEntity
  8
1
  6
Continuous
100
AcDbCircle
 10
775.9151160744318
 20
413.6205950235704
 30
0.0
 40
8.472322
100
AcDbArc
 50
21.39774399999998
 51
90.0
  0
LINE
  5
5A4E
330
18
100
AcDbEntity
  8
1
  6
Continuous
100
AcDbLine
 10
747.7623420744317
 20
449.5928900235704
 30
0.0
 11
794.8123420744317
 21
449.5928900235704
 31
0.0
  0
LINE
  5
5A4F
330
18
100
AcDbEntity
  8
1
  6
Continuous
100
AcDbLine
 10
794.8123420744317
 20
444.5928900235704
 30
0.0
 11
750.0623420744317
 21
444.5928900235704
 31
0.0
  0
LINE
  5
5A50
330
18
100
AcDbEntity
  8
4
  6
CENTER
 48
0.2
100
AcDbLine
 10
784.8123420744317
 20
455.5928900235706
 30
0.0
 11
784.8123420744317
 21
438.5928900235706
 31
0.0
  0
LINE
  5
5A51
330
18
100
AcDbEntity
  8
1
  6
Continuous
100
AcDbLine
 10
794.8123420744317
 20
449.5928900235704
 30
0.0
 11
794.8123420744317
 21
443.8928900235705
 31
0.0
  0
LINE
  5
5A52
330
18
100
AcDbEntity
  8
1
  6
Continuous
100
AcDbLine
 10
733.8123420744317
 20
421.7929170235707
 30
0.0
 11
776.3548810744318
 21
421.7929170235707
 31
0.0
  0
LINE
  5
5A53
330
18
100
AcDbEntity
  8
1
  6
Continuous
100
AcDbLine
 10
774.8123420744319
 20
431.5929170235706
 30
0.0
 11
774.8123420744319
 21
424.5929170235706
 31
0.0
  0
LINE
  5
5A54
330
18
100
AcDbEntity
  8
1
  6
Continuous
100
AcDbLine
 10
769.8123420744317
 20
423.9929170235706
 30
0.0
 11
769.8123420744317
 21
422.0929170235706
 31
0.0
  0
ARC
  5
5A55
330
18
100
AcDbEntity
  8
1
  6
Continuous
100
AcDbCircle
 10
769.2123420744319
 20
423.9929170235706
 30
0.0
 40
0.6
100
AcDbArc
 50
0.000000000000007
 51
90.0
  0
ARC
  5
5A56
330
18
100
AcDbEntity
  8
1
  6
Continuous
100
AcDbCircle
 10
773.8123420744317
 20
436.5928900235704
 30
0.0
 40
5.0
100
AcDbArc
 50
270.0
 51
0.000000000000007
  0
LINE
  5
5A57
330
18
100
AcDbEntity
  8
1
  6
Continuous
100
AcDbLine
 10
778.8123420744319
 20
440.5928900235704
 30
0.0
 11
778.8123420744319
 21
436.5928900235704
 31
0.0
  0
ARC
  5
5A58
330
18
100
AcDbEntity
  8
1
  6
Continuous
100
AcDbCircle
 10
733.8123420744317
 20
415.7929170235706
 30
0.0
 40
6.0
100
AcDbArc
 50
90.0
 51
180.0
  0
LINE
  5
5A59
330
18
100
AcDbEntity
  8
1
  6
Continuous
100
AcDbLine
 10
730.9371140744318
 20
443.8928900235705
 30
0.0
 11
748.6875690744319
 21
443.8928900235705
 31
0.0
  0
LINE
  5
5A5A
330
18
100
AcDbEntity
  8
1
  6
Continuous
100
AcDbLine
 10
733.5623420744317
 20
447.8928900235705
 30
0.0
 11
746.0623420744317
 21
447.8928900235705
 31
0.0
  0
LINE
  5
5A5B
330
18
100
AcDbEntity
  8
1
  6
Continuous
100
AcDbLine
 10
734.3123420744317
 20
432.8230560235706
 30
0.0
 11
745.3123420744319
 21
432.8230560235706
 31
0.0
  0
LINE
  5
5A5C
330
18
100
AcDbEntity
  8
1
  6
Continuous
100
AcDbLine
 10
732.4367980744319
 20
449.4928900235707
 30
0.0
 11
747.1878850744319
 21
449.4928900235707
 31
0.0
  0
ARC
  5
5A5D
330
18
100
AcDbEntity
  8
1
  6
Continuous
100
AcDbCircle
 10
747.7623420744317
 20
447.8928900235705
 30
0.0
 40
1.7
100
AcDbArc
 50
90.0
 51
180.0
  0
ARC
  5
5A5E
330
18
100
AcDbEntity
  8
1
  6
Continuous
100
AcDbCircle
 10
748.6875690744319
 20
445.5928900235704
 30
0.0
 40
1.7
100
AcDbArc
 50
270.0
 51
323.9681210000017
  0
ARC
  5
5A5F
330
18
100
AcDbEntity
  8
1
  6
Continuous
100
AcDbCircle
 10
751.0623420744317
 20
433.8230560235706
 30
0.0
 40
1.0
100
AcDbArc
 50
180.0
 51
270.0
  0
LINE
  5
5A60
330
18
100
AcDbEntity
  8
1
  6
Continuous
100
AcDbLine
 10
750.0623420744317
 20
443.7928900235706
 30
0.0
 11
750.0623420744317
 21
434.3230560235706
 31
0.0
  0
ARC
  5
5A61
330
18
100
AcDbEntity
  8
1
  6
Continuous
100
AcDbCircle
 10
731.862342074432
 20
447.8928900235705
 30
0.0
 40
1.7
100
AcDbArc
 50
0.000000000000007
 51
90.0
  0
ARC
  5
5A62
330
18
100
AcDbEntity
  8
1
  6
Continuous
100
AcDbCircle
 10
730.9371140744318
 20
445.5928900235704
 30
0.0
 40
1.7
100
AcDbArc
 50
216.0318789999982
 51
270.0
  0
ARC
  5
5A63
330
18
100
AcDbEntity
  8
1
  6
Continuous
100
AcDbCircle
 10
728.5623420744317
 20
433.8230560235706
 30
0.0
 40
1.0
100
AcDbArc
 50
270.0
 51
0.000000000000007
  0
LINE
  5
5A64
330
18
100
AcDbEntity
  8
1
  6
Continuous
100
AcDbLine
 10
729.5623420744317
 20
443.7928900235706
 30
0.0
 11
729.5623420744317
 21
434.3230560235706
 31
0.0
  0
LINE
  5
5A65
330
18
100
AcDbEntity
  8
1
  6
Continuous
100
AcDbLine
 10
696.3123420744317
 20
416.0929170235706
 30
0.0
 11
696.3123420744317
 21
392.5929170235706
 31
0.0
  0
LINE
  5
5A66
330
18
100
AcDbEntity
  8
1
  6
Continuous
100
AcDbLine
 10
698.0032420744318
 20
416.0929170235706
 30
0.0
 11
698.0032420744318
 21
392.5929170235706
 31
0.0
  0
ARC
  5
5A67
330
18
100
AcDbEntity
  8
1
  6
Continuous
100
AcDbCircle
 10
702.3123420744317
 20
392.5929170235706
 30
0.0
 40
6.0
100
AcDbArc
 50
180.0
 51
270.0
  0
ARC
  5
5A68
330
18
100
AcDbEntity
  8
1
  6
Continuous
100
AcDbCircle
 10
716.4297770744319
 20
380.5929170235706
 30
0.0
 40
6.0
100
AcDbArc
 50
31.17480000000221
 51
90.0
  0
ARC
  5
5A69
330
18
100
AcDbEntity
  8
1
  6
Continuous
100
AcDbCircle
 10
704.035254074432
 20
392.6249290235706
 30
0.0
 40
6.032011999999999
100
AcDbArc
 50
180.0
 51
270.0
  0
LINE
  5
5A6A
330
18
100
AcDbEntity
  8
1
  6
Continuous
100
AcDbLine
 10
712.8123030744317
 20
385.5928850235707
 30
0.0
 11
719.7464500744318
 21
385.5928850235707
 31
0.0
  0
ARC
  5
5A6B
330
18
100
AcDbEntity
  8
1
  6
Continuous
100
AcDbCircle
 10
717.719780074432
 20
381.0928850235707
 30
0.0
 40
2.0
100
AcDbArc
 50
210.0000000000004
 51
270.0
  0
LINE
  5
5A6C
330
18
100
AcDbEntity
  8
1
  6
Continuous
100
AcDbLine
 10
718.8123030744317
 20
376.0928850235706
 30
0.0
 11
718.8123030744317
 21
379.0928850235705
 31
0.0
  0
LINE
  5
5A6D
330
18
100
AcDbEntity
  8
1
  6
Continuous
100
AcDbLine
 10
724.349967074432
 20
379.0928850235705
 30
0.0
 11
717.719780074432
 21
379.0928850235705
 31
0.0
  0
LINE
  5
5A6E
330
18
100
AcDbEntity
  8
1
  6
Continuous
100
AcDbLine
 10
712.8123030744317
 20
385.5928850235707
 30
0.0
 11
715.987729074432
 21
380.0928850235706
 31
0.0
  0
LINE
  5
5A6F
330
18
100
AcDbEntity
  8
1
  6
Continuous
100
AcDbLine
 10
702.3123420744317
 20
386.5929170235706
 30
0.0
 11
716.4297770744319
 21
386.5929170235706
 31
0.0
  0
LINE
  5
5A71
330
18
100
AcDbEntity
  8
4
  6
CENTER
 48
0.2
100
AcDbLine
 10
694.8123420744317
 20
455.5928900235706
 30
0.0
 11
694.8123420744317
 21
438.5928900235706
 31
0.0
  0
LINE
  5
5A72
330
18
100
AcDbEntity
  8
1
  6
Continuous
100
AcDbLine
 10
702.5277780744318
 20
432.8230560235706
 30
0.0
 11
684.8123420744317
 21
443.8928900235705
 31
0.0
  0
ARC
  5
5A73
330
18
100
AcDbEntity
  8
1
  6
Continuous
100
AcDbCircle
 10
702.3123420744317
 20
416.0929170235706
 30
0.0
 40
6.0
100
AcDbArc
 50
90.0
 51
180.0
  0
LINE
  5
5A74
330
18
100
AcDbEntity
  8
1
  6
Continuous
100
AcDbLine
 10
704.8123420744317
 20
431.5929170235706
 30
0.0
 11
704.8123420744317
 21
424.5929170235706
 31
0.0
  0
ARC
  5
5A75
330
18
100
AcDbEntity
  8
1
  6
Continuous
100
AcDbCircle
 10
710.4123420744318
 20
423.9929170235706
 30
0.0
 40
0.6
100
AcDbArc
 50
90.0
 51
180.0
  0
LINE
  5
5A76
330
18
100
AcDbEntity
  8
1
  6
Continuous
100
AcDbLine
 10
709.8123420744317
 20
423.9929170235706
 30
0.0
 11
709.8123420744317
 21
422.0929170235706
 31
0.0
  0
ARC
  5
5A77
330
18
100
AcDbEntity
  8
1
  6
Continuous
100
AcDbCircle
 10
704.035254074432
 20
416.0609040235706
 30
0.0
 40
6.032011999999999
100
AcDbArc
 50
90.0
 51
180.0
  0
ARC
  5
5A78
330
18
100
AcDbEntity
  8
1
  6
Continuous
100
AcDbCircle
 10
696.8123420744317
 20
440.5928900235704
 30
0.0
 40
4.0
100
AcDbArc
 50
0.000000000000007
 51
90.0
  0
LINE
  5
5A79
330
18
100
AcDbEntity
  8
1
  6
Continuous
100
AcDbLine
 10
700.8123420744317
 20
440.5928900235704
 30
0.0
 11
700.8123420744317
 21
436.5928900235704
 31
0.0
  0
ARC
  5
5A7A
330
18
100
AcDbEntity
  8
1
  6
Continuous
100
AcDbCircle
 10
705.8123420744317
 20
436.5928900235704
 30
0.0
 40
5.0
100
AcDbArc
 50
180.0
 51
270.0
  0
LINE
  5
5A7B
330
18
100
AcDbEntity
  8
1
  6
Continuous
100
AcDbLine
 10
684.8123420744317
 20
449.5928900235704
 30
0.0
 11
684.8123420744317
 21
443.8928900235705
 31
0.0
  0
LINE
  5
5B11
330
18
100
AcDbEntity
  8
4
  6
CENTER
 48
0.7
100
AcDbLine
 10
405.1909980744317
 20
93.45089216964437
 30
0.0
 11
201.1909980744317
 21
93.45089216964458
 31
0.0
  0
LINE
  5
5B16
330
18
100
AcDbEntity
  8
1
  6
Continuous
100
AcDbLine
 10
387.1909980744317
 20
38.45089216964447
 30
0.0
 11
299.1909980744317
 21
38.45089216964447
 31
0.0
  0
LINE
  5
5B17
330
18
100
AcDbEntity
  8
1
  6
Continuous
100
AcDbLine
 10
387.1909980744317
 20
148.4508921696444
 30
0.0
 11
299.1909980744317
 21
148.4508921696444
 31
0.0
  0
LINE
  5
5B1D
330
18
100
AcDbEntity
  8
1
  6
Continuous
100
AcDbLine
 10
213.6533330744316
 20
66.45089216964447
 30
0.0
 11
352.7286630744317
 21
66.45089216964464
 31
0.0
  0
LINE
  5
5B1E
330
18
100
AcDbEntity
  8
1
  6
Continuous
100
AcDbLine
 10
213.6533330744316
 20
120.4508921696443
 30
0.0
 11
352.7286630744317
 21
120.4508921696445
 31
0.0
  0
LINE
  5
5B1F
330
18
100
AcDbEntity
  8
1
  6
Continuous
100
AcDbLine
 10
354.1110190744319
 20
94.9508921696445
 30
0.0
 11
212.2709770744315
 21
94.9508921696445
 31
0.0
  0
LINE
  5
5B20
330
18
100
AcDbEntity
  8
1
  6
Continuous
100
AcDbLine
 10
354.1110190744319
 20
91.95089216964465
 30
0.0
 11
212.2709770744315
 21
91.95089216964449
 31
0.0
  0
LINE
  5
5B21
330
18
100
AcDbEntity
  8
1
  6
Continuous
100
AcDbLine
 10
250.1909980744317
 20
122.4508921696443
 30
0.0
 11
215.0209080744316
 21
120.7430931696443
 31
0.0
  0
LINE
  5
5B22
330
18
100
AcDbEntity
  8
1
  6
Continuous
100
AcDbLine
 10
250.1909980744317
 20
64.45089216964447
 30
0.0
 11
215.0209080744316
 21
66.1586911696445
 31
0.0
  0
ARC
  5
5B23
330
18
100
AcDbEntity
  8
1
  6
Continuous
100
AcDbCircle
 10
298.1909980744317
 20
108.4508921696443
 30
0.0
 40
90.0
100
AcDbArc
 50
176.3385589999962
 51
186.638632999997
  0
ARC
  5
5B24
330
18
100
AcDbEntity
  8
1
  6
Continuous
100
AcDbCircle
 10
213.6533330744316
 20
118.4508921696443
 30
0.0
 40
2.0
100
AcDbArc
 50
90.00000000000005
 51
109.9632019999993
  0
ARC
  5
5B25
330
18
100
AcDbEntity
  8
1
  6
Continuous
100
AcDbCircle
 10
215.3604160744316
 20
113.7513311696442
 30
0.0
 40
7.0
100
AcDbArc
 50
92.77999999999968
 51
176.3385589999962
  0
ARC
  5
5B26
330
18
100
AcDbEntity
  8
1
  6
Continuous
100
AcDbCircle
 10
298.1909980744317
 20
78.45089216964447
 30
0.0
 40
90.0
100
AcDbArc
 50
173.3613670000029
 51
183.6614410000037
  0
ARC
  5
5B27
330
18
100
AcDbEntity
  8
1
  6
Continuous
100
AcDbCircle
 10
212.2709770744315
 20
88.45089216964423
 30
0.0
 40
3.5
100
AcDbArc
 50
90.00000000000005
 51
173.3613670000029
  0
ARC
  5
5B28
330
18
100
AcDbEntity
  8
1
  6
Continuous
100
AcDbCircle
 10
212.2709770744315
 20
98.45089216964424
 30
0.0
 40
3.5
100
AcDbArc
 50
186.638632999997
 51
270.0
  0
ARC
  5
5B29
330
18
100
AcDbEntity
  8
1
  6
Continuous
100
AcDbCircle
 10
213.6533330744316
 20
68.45089216964423
 30
0.0
 40
2.0
100
AcDbArc
 50
250.0367980000006
 51
270.0
  0
ARC
  5
5B2A
330
18
100
AcDbEntity
  8
1
  6
Continuous
100
AcDbCircle
 10
215.3604160744316
 20
73.15045316964438
 30
0.0
 40
7.0
100
AcDbArc
 50
183.6614410000037
 51
267.2200000000003
  0
LINE
  5
5B2C
330
18
100
AcDbEntity
  8
1
  6
Continuous
100
AcDbLine
 10
288.1909980744317
 20
137.4508921696444
 30
0.0
 11
288.1909980744317
 21
136.9508921696444
 31
0.0
  0
LINE
  5
5B34
330
18
100
AcDbEntity
  8
4
  6
CENTER
 48
0.7
100
AcDbLine
 10
283.1909980744317
 20
42.95089216964448
 30
0.0
 11
283.1909980744317
 21
143.9508921696444
 31
0.0
  0
LINE
  5
5B35
330
18
100
AcDbEntity
  8
4
  6
CENTER
 48
0.7
100
AcDbLine
 10
343.1909980744319
 20
31.45089216964426
 30
0.0
 11
343.1909980744316
 21
155.4508921696443
 31
0.0
  0
ARC
  5
5B37
330
18
100
AcDbEntity
  8
1
  6
Continuous
100
AcDbCircle
 10
298.1909980744317
 20
138.4508921696444
 30
0.0
 40
5.25
100
AcDbArc
 50
343.3984504009795
 51
196.6015495990204
  0
LINE
  5
5B38
330
18
100
AcDbEntity
  8
4
  6
CENTER
 48
0.2
100
AcDbLine
 10
307.4409980744317
 20
138.4508921696444
 30
0.0
 11
288.9409980744316
 21
138.4508921696444
 31
0.0
  0
ARC
  5
5B39
330
18
100
AcDbEntity
  8
1
  6
Continuous
100
AcDbCircle
 10
299.1909980744317
 20
137.4508921696444
 30
0.0
 40
11.0
100
AcDbArc
 50
90.00000000000005
 51
180.0
  0
LINE
  5
5B3A
330
18
100
AcDbEntity
  8
4
  6
CENTER
 48
0.2
100
AcDbLine
 10
298.1909980744317
 20
147.7008921696444
 30
0.0
 11
298.1909980744317
 21
129.2008921696444
 31
0.0
  0
LINE
  5
5B3B
330
18
100
AcDbEntity
  8
1
  6
Continuous
100
AcDbLine
 10
301.5077820744318
 20
124.4508921696443
 30
0.0
 11
264.8742140744316
 21
124.4508921696444
 31
0.0
  0
LINE
  5
5B3C
330
18
100
AcDbEntity
  8
1
  6
Continuous
100
AcDbLine
 10
250.1909980744331
 20
122.4508921696443
 30
0.0
 11
316.190998074434
 21
122.4508921696441
 31
0.0
  0
LINE
  5
5B3D
330
18
100
AcDbEntity
  8
1
  6
Continuous
100
AcDbLine
 10
354.7450166043101
 20
124.9508921696445
 30
0.0
 11
260.1909980744316
 21
124.9508921696444
 31
0.0
  0
LINE
  5
5B3E
330
18
100
AcDbEntity
  8
1
  6
Continuous
100
AcDbLine
 10
354.1909980744317
 20
136.9508921696446
 30
0.0
 11
260.1909980744316
 21
136.9508921696444
 31
0.0
  0
LINE
  5
5B3F
330
18
100
AcDbEntity
  8
1
  6
Continuous
100
AcDbLine
 10
264.0229530744316
 20
123.5075981696445
 30
0.0
 11
261.0201780744316
 21
122.4508921696444
 31
0.0
  0
ARC
  5
5B40
330
18
100
AcDbEntity
  8
1
  6
Continuous
100
AcDbCircle
 10
260.1909980744316
 20
127.9508921696444
 30
0.0
 40
3.0
100
AcDbArc
 50
180.0
 51
270.0
  0
ARC
  5
5B41
330
18
100
AcDbEntity
  8
1
  6
Continuous
100
AcDbCircle
 10
260.1909980744316
 20
133.9508921696444
 30
0.0
 40
3.0
100
AcDbArc
 50
90.00000000000005
 51
180.0
  0
LINE
  5
5B42
330
18
100
AcDbEntity
  8
1
  6
Continuous
100
AcDbLine
 10
257.1909980744317
 20
127.9508921696444
 30
0.0
 11
257.1909980744317
 21
133.9508921696444
 31
0.0
  0
ARC
  5
5B43
330
18
100
AcDbEntity
  8
1
  6
Continuous
100
AcDbCircle
 10
264.8742140744316
 20
124.2508921696444
 30
0.0
 40
0.2
100
AcDbArc
 50
90.00000000000005
 51
170.4058579999996
  0
ARC
  5
5B44
330
18
100
AcDbEntity
  8
1
  6
Continuous
100
AcDbCircle
 10
263.6909980744317
 20
124.4508941696444
 30
0.0
 40
1.0
100
AcDbArc
 50
289.3874719999985
 51
350.4058579999997
  0
LINE
  5
5B45
330
18
100
AcDbEntity
  8
1
  6
Continuous
100
AcDbLine
 10
266.2409980744316
 20
124.9508921696444
 30
0.0
 11
266.2409980744316
 21
124.4508921696444
 31
0.0
  0
ARC
  5
5B50
330
18
100
AcDbEntity
  8
1
  6
Continuous
100
AcDbCircle
 10
298.1909980744317
 20
48.45089216964447
 30
0.0
 40
5.25
100
AcDbArc
 50
163.3984504009795
 51
16.6015495990204
  0
LINE
  5
5B53
330
18
100
AcDbEntity
  8
4
  6
CENTER
 48
0.2
100
AcDbLine
 10
307.4409980744317
 20
48.45089216964447
 30
0.0
 11
288.9409980744316
 21
48.45089216964447
 31
0.0
  0
ARC
  5
5B54
330
18
100
AcDbEntity
  8
1
  6
Continuous
100
AcDbCircle
 10
260.1909980744316
 20
58.95089216964446
 30
0.0
 40
3.0
100
AcDbArc
 50
90.00000000000005
 51
180.0
  0
LINE
  5
5B56
330
18
100
AcDbEntity
  8
1
  6
Continuous
100
AcDbLine
 10
301.5077820744318
 20
62.45089216964458
 30
0.0
 11
264.8742140744316
 21
62.45089216964448
 31
0.0
  0
LINE
  5
5B57
330
18
100
AcDbEntity
  8
1
  6
Continuous
100
AcDbLine
 10
250.1909980744331
 20
64.45089216964447
 30
0.0
 11
316.1909980744348
 21
64.45089216964465
 31
0.0
  0
LINE
  5
5B58
330
18
100
AcDbEntity
  8
1
  6
Continuous
100
AcDbLine
 10
354.7450166043101
 20
61.95089216964452
 30
0.0
 11
260.1909980744316
 21
61.95089216964447
 31
0.0
  0
LINE
  5
5B59
330
18
100
AcDbEntity
  8
1
  6
Continuous
100
AcDbLine
 10
270.1910180744316
 20
93.45089216964449
 30
0.0
 11
296.1909780744317
 21
93.45089216964449
 31
0.0
  0
LINE
  5
5B5A
330
18
100
AcDbEntity
  8
1
  6
Continuous
100
AcDbLine
 10
270.1910180744316
 20
93.45089216964449
 30
0.0
 11
269.6910180744316
 21
93.95089216964448
 31
0.0
  0
LINE
  5
5B5B
330
18
100
AcDbEntity
  8
1
  6
Continuous
100
AcDbLine
 10
269.6910180744316
 20
94.9508921696445
 30
0.0
 11
269.6910180744316
 21
93.95089216964448
 31
0.0
  0
LINE
  5
5B5C
330
18
100
AcDbEntity
  8
1
  6
Continuous
100
AcDbLine
 10
270.1910180744316
 20
93.45089216964449
 30
0.0
 11
269.6910180744316
 21
92.95089216964449
 31
0.0
  0
LINE
  5
5B5D
330
18
100
AcDbEntity
  8
1
  6
Continuous
100
AcDbLine
 10
269.6910180744316
 20
91.95089216964449
 30
0.0
 11
269.6910180744316
 21
92.95089216964449
 31
0.0
  0
ARC
  5
5B5E
330
18
100
AcDbEntity
  8
1
  6
Continuous
100
AcDbCircle
 10
264.8742140744316
 20
62.65089216964453
 30
0.0
 40
0.2
100
AcDbArc
 50
189.5941420000003
 51
270.0
  0
ARC
  5
5B5F
330
18
100
AcDbEntity
  8
1
  6
Continuous
100
AcDbCircle
 10
263.6909980744317
 20
62.45089116964448
 30
0.0
 40
1.0
100
AcDbArc
 50
9.594142000000324
 51
70.61252800000144
  0
LINE
  5
5B60
330
18
100
AcDbEntity
  8
1
  6
Continuous
100
AcDbLine
 10
264.0229530744316
 20
63.39418616964451
 30
0.0
 11
261.0201780744316
 21
64.45089216964447
 31
0.0
  0
LINE
  5
5B61
330
18
100
AcDbEntity
  8
1
  6
Continuous
100
AcDbLine
 10
354.1909980744315
 20
49.95089216964452
 30
0.0
 11
260.1909980744316
 21
49.95089216964448
 31
0.0
  0
ARC
  5
5B62
330
18
100
AcDbEntity
  8
1
  6
Continuous
100
AcDbCircle
 10
260.1909980744316
 20
52.95089216964449
 30
0.0
 40
3.0
100
AcDbArc
 50
180.0
 51
270.0
  0
LINE
  5
5B63
330
18
100
AcDbEntity
  8
1
  6
Continuous
100
AcDbLine
 10
257.1909980744317
 20
52.95089216964449
 30
0.0
 11
257.1909980744317
 21
58.95089216964446
 31
0.0
  0
ARC
  5
5B64
330
18
100
AcDbEntity
  8
1
  6
Continuous
100
AcDbCircle
 10
299.1909980744317
 20
49.45089216964447
 30
0.0
 40
11.0
100
AcDbArc
 50
180.0
 51
270.0
  0
LINE
  5
5B65
330
18
100
AcDbEntity
  8
4
  6
CENTER
 48
0.2
100
AcDbLine
 10
298.1909980744317
 20
57.70089216964446
 30
0.0
 11
298.1909980744317
 21
39.20089216964447
 31
0.0
  0
LINE
  5
5B90
330
18
100
AcDbEntity
  8
1
  6
Continuous
100
AcDbLine
 10
398.1909980744317
 20
137.4508921696444
 30
0.0
 11
398.1909980744317
 21
49.45089216964447
 31
0.0
  0
ARC
  5
5B92
330
18
100
AcDbEntity
  8
1
  6
Continuous
100
AcDbCircle
 10
387.1909980744317
 20
137.4508921696444
 30
0.0
 40
11.0
100
AcDbArc
 50
0.0
 51
90.00000000000005
  0
LINE
  5
5B93
330
18
100
AcDbEntity
  8
4
  6
CENTER
 48
0.2
100
AcDbLine
 10
388.1909980744317
 20
147.7008921696444
 30
0.0
 11
388.1909980744317
 21
129.2008921696444
 31
0.0
  0
CIRCLE
  5
5B94
330
18
100
AcDbEntity
  8
1
  6
Continuous
100
AcDbCircle
 10
388.1909980744317
 20
138.4508921696444
 30
0.0
 40
5.25
  0
LINE
  5
5B95
330
18
100
AcDbEntity
  8
4
  6
CENTER
 48
0.2
100
AcDbLine
 10
397.4409980744317
 20
138.4508921696444
 30
0.0
 11
378.9409980744317
 21
138.4508921696444
 31
0.0
  0
CIRCLE
  5
5B99
330
18
100
AcDbEntity
  8
1
  6
Continuous
100
AcDbCircle
 10
388.1909980744317
 20
48.45089216964447
 30
0.0
 40
5.25
  0
LINE
  5
5B9A
330
18
100
AcDbEntity
  8
4
  6
CENTER
 48
0.2
100
AcDbLine
 10
397.4409980744317
 20
48.45089216964447
 30
0.0
 11
378.9409980744317
 21
48.45089216964447
 31
0.0
  0
ARC
  5
5B9C
330
18
100
AcDbEntity
  8
1
  6
Continuous
100
AcDbCircle
 10
387.1909980744317
 20
49.45089216964447
 30
0.0
 40
11.0
100
AcDbArc
 50
270.0
 51
0.0
  0
LINE
  5
5B9D
330
18
100
AcDbEntity
  8
4
  6
CENTER
 48
0.2
100
AcDbLine
 10
388.1909980744317
 20
57.70089216964446
 30
0.0
 11
388.1909980744317
 21
39.20089216964447
 31
0.0
  0
LINE
  5
5C7D
330
18
100
AcDbEntity
  8
1
  6
Continuous
100
AcDbLine
 10
316.1909980744316
 20
64.45089216964447
 30
0.0
 11
351.3610880744317
 21
66.1586911696445
 31
0.0
  0
LINE
  5
5C7E
330
18
100
AcDbEntity
  8
1
  6
Continuous
100
AcDbLine
 10
316.1909980744316
 20
122.4508921696443
 30
0.0
 11
351.3610880744317
 21
120.7430931696443
 31
0.0
  0
ARC
  5
5C7F
330
18
100
AcDbEntity
  8
1
  6
Continuous
100
AcDbCircle
 10
351.0215800744317
 20
73.15045316964438
 30
0.0
 40
7.0
100
AcDbArc
 50
272.7799999999997
 51
356.3385589999962
  0
ARC
  5
5C80
330
18
100
AcDbEntity
  8
1
  6
Continuous
100
AcDbCircle
 10
352.7286630744317
 20
68.45089216964423
 30
0.0
 40
2.0
100
AcDbArc
 50
270.0
 51
289.9632019999994
  0
ARC
  5
5C81
330
18
100
AcDbEntity
  8
1
  6
Continuous
100
AcDbCircle
 10
268.1909980744316
 20
108.4508921696443
 30
0.0
 40
90.0
100
AcDbArc
 50
353.3613670000028
 51
3.66144100000372
  0
ARC
  5
5C82
330
18
100
AcDbEntity
  8
1
  6
Continuous
100
AcDbCircle
 10
354.1110190744319
 20
88.45089216964423
 30
0.0
 40
3.5
100
AcDbArc
 50
6.638632999997112
 51
89.99999999999998
  0
ARC
  5
5C83
330
18
100
AcDbEntity
  8
1
  6
Continuous
100
AcDbCircle
 10
268.1909980744316
 20
78.45089216964447
 30
0.0
 40
90.0
100
AcDbArc
 50
356.3385589999962
 51
6.638632999997112
  0
ARC
  5
5C84
330
18
100
AcDbEntity
  8
1
  6
Continuous
100
AcDbCircle
 10
354.1110190744319
 20
98.45089216964424
 30
0.0
 40
3.5
100
AcDbArc
 50
270.0
 51
353.3613670000028
  0
ARC
  5
5C85
330
18
100
AcDbEntity
  8
1
  6
Continuous
100
AcDbCircle
 10
351.0215800744317
 20
113.7513311696442
 30
0.0
 40
7.0
100
AcDbArc
 50
3.66144100000372
 51
87.22000000000033
  0
ARC
  5
5C86
330
18
100
AcDbEntity
  8
1
  6
Continuous
100
AcDbCircle
 10
352.7286630744317
 20
118.4508921696443
 30
0.0
 40
2.0
100
AcDbArc
 50
70.03679800000066
 51
89.99999999999998
  0
LINE
  5
5C87
330
18
100
AcDbEntity
  8
1
  6
Continuous
100
AcDbLine
 10
296.6909780744317
 20
91.95089216964449
 30
0.0
 11
296.6909780744317
 21
92.95089216964449
 31
0.0
  0
LINE
  5
5C88
330
18
100
AcDbEntity
  8
1
  6
Continuous
100
AcDbLine
 10
296.1909780744317
 20
93.45089216964449
 30
0.0
 11
296.6909780744317
 21
92.95089216964449
 31
0.0
  0
LINE
  5
5C89
330
18
100
AcDbEntity
  8
1
  6
Continuous
100
AcDbLine
 10
296.6909780744317
 20
94.9508921696445
 30
0.0
 11
296.6909780744317
 21
93.95089216964448
 31
0.0
  0
LINE
  5
5C8A
330
18
100
AcDbEntity
  8
1
  6
Continuous
100
AcDbLine
 10
296.1909780744317
 20
93.45089216964449
 30
0.0
 11
296.6909780744317
 21
93.95089216964448
 31
0.0
  0
LINE
  5
5C8B
330
18
100
AcDbEntity
  8
1
  6
Continuous
100
AcDbLine
 10
300.1409980744317
 20
124.9508921696444
 30
0.0
 11
300.1409980744317
 21
124.4508921696444
 31
0.0
  0
ARC
  5
5C8C
330
18
100
AcDbEntity
  8
1
  6
Continuous
100
AcDbCircle
 10
302.6909980744317
 20
124.4508941696444
 30
0.0
 40
1.0
100
AcDbArc
 50
189.5941420000003
 51
250.6125280000014
  0
ARC
  5
5C8D
330
18
100
AcDbEntity
  8
1
  6
Continuous
100
AcDbCircle
 10
301.5077820744318
 20
124.2508921696444
 30
0.0
 40
0.2
100
AcDbArc
 50
9.594142000000342
 51
89.99999999999998
  0
LINE
  5
5C8E
330
18
100
AcDbEntity
  8
1
  6
Continuous
100
AcDbLine
 10
302.3590430744318
 20
123.5075981696445
 30
0.0
 11
305.3618180744317
 21
122.4508921696444
 31
0.0
  0
LINE
  5
5C8F
330
18
100
AcDbEntity
  8
1
  6
Continuous
100
AcDbLine
 10
302.3590430744318
 20
63.39418616964451
 30
0.0
 11
305.3618180744317
 21
64.45089216964447
 31
0.0
  0
ARC
  5
5C90
330
18
100
AcDbEntity
  8
1
  6
Continuous
100
AcDbCircle
 10
302.6909980744317
 20
62.45089116964448
 30
0.0
 40
1.0
100
AcDbArc
 50
109.3874719999985
 51
170.4058579999996
  0
ARC
  5
5C91
330
18
100
AcDbEntity
  8
1
  6
Continuous
100
AcDbCircle
 10
301.5077820744318
 20
62.65089216964453
 30
0.0
 40
0.2
100
AcDbArc
 50
270.0
 51
350.4058579999997
  0
LINE
  5
5C92
330
18
100
AcDbEntity
  8
1
  6
Continuous
100
AcDbLine
 10
266.2409980744316
 20
617.1349418774967
 30
0.0
 11
266.2409980744316
 21
616.6349418774967
 31
0.0
  0
LINE
  5
5C93
330
18
100
AcDbEntity
  8
1
  6
Continuous
100
AcDbLine
 10
266.2409980744316
 20
61.95089216964447
 30
0.0
 11
266.2409980744316
 21
62.45089216964448
 31
0.0
  0
LINE
  5
5C94
330
18
100
AcDbEntity
  8
1
  6
Continuous
100
AcDbLine
 10
300.1409980744317
 20
61.95089216964447
 30
0.0
 11
300.1409980744317
 21
62.45089216964448
 31
0.0
  0
LINE
  5
5C95
330
18
100
AcDbEntity
  8
1
  6
Continuous
100
AcDbLine
 10
288.1909980744317
 20
49.95089216964442
 30
0.0
 11
288.1909980744317
 21
49.45089216964447
 31
0.0
  0
LINE
  5
5C96
330
18
100
AcDbEntity
  8
1
  6
Continuous
100
AcDbLine
 10
363.1909986053699
 20
128.3832739175424
 30
0.0
 11
363.1909986053699
 21
124.8513886621338
 31
0.0
  0
LINE
  5
5C98
330
18
100
AcDbEntity
  8
1
  6
Continuous
100
AcDbLine
 10
355.1909980744317
 20
135.9508921696445
 30
0.0
 11
355.1909980744317
 21
134.4387057595016
 31
0.0
  0
LINE
  5
5C9A
330
18
100
AcDbEntity
  8
1
  6
Continuous
100
AcDbLine
 10
385.5810947019191
 20
89.45089216964431
 30
0.0
 11
383.0000980744316
 21
89.45089216964431
 31
0.0
  0
LINE
  5
5C9B
330
18
100
AcDbEntity
  8
1
  6
Continuous
100
AcDbLine
 10
385.5810947019191
 20
97.4508921696443
 30
0.0
 11
383.0000980744316
 21
97.4508921696443
 31
0.0
  0
ARC
  5
5C9D
330
18
100
AcDbEntity
  8
1
  6
Continuous
100
AcDbCircle
 10
343.1909980744316
 20
93.45089216964442
 30
0.0
 40
42.00001003345111
100
AcDbArc
 50
287.5973323678132
 51
354.534977509616
  0
ARC
  5
5CA0
330
18
100
AcDbEntity
  8
1
  6
Continuous
100
AcDbCircle
 10
344.6909880409805
 20
93.45089216964442
 30
0.0
 40
42.00001003345111
100
AcDbArc
 50
355.8038769117285
 51
4.196123088271044
  0
LINE
  5
5CA1
330
18
100
AcDbEntity
  8
1
  6
Continuous
100
AcDbLine
 10
355.1909980744314
 20
50.95089216964453
 30
0.0
 11
355.1909980744314
 21
52.46307857978712
 31
0.0
  0
ARC
  5
5CA2
330
18
100
AcDbEntity
  8
1
  6
Continuous
100
AcDbCircle
 10
354.1909980744317
 20
135.9508921696445
 30
0.0
 40
1.0
100
AcDbArc
 50
0.0
 51
90.0
  0
ARC
  5
5CA3
330
18
100
AcDbEntity
  8
1
  6
Continuous
100
AcDbCircle
 10
356.1909980744317
 20
134.4387057595016
 30
0.0
 40
1.0
100
AcDbArc
 50
180.0
 51
252.4026676321826
  0
ARC
  5
5CA6
330
18
100
AcDbEntity
  8
1
  6
Continuous
100
AcDbCircle
 10
343.1909980744316
 20
84.70165810475846
 30
0.0
 40
42.00001003345111
100
AcDbArc
 50
65.85226518277071
 51
72.76708354284855
  0
ARC
  5
5CA8
330
18
100
AcDbEntity
  8
1
  6
Continuous
100
AcDbCircle
 10
354.7450166043101
 20
121.9508921696446
 30
0.0
 40
3.0
100
AcDbArc
 50
72.76708354284888
 51
90.0
  0
ARC
  5
5CAA
330
18
100
AcDbEntity
  8
1
  6
Continuous
100
AcDbCircle
 10
361.1909986053701
 20
124.8513886621338
 30
0.0
 40
2.0
100
AcDbArc
 50
245.8522651827732
 51
0.0
  0
ARC
  5
5CAB
330
18
100
AcDbEntity
  8
1
  6
Continuous
100
AcDbCircle
 10
343.1909980744316
 20
93.45089216964442
 30
0.0
 40
42.00001003345111
100
AcDbArc
 50
5.465022490383481
 51
72.40266763218639
  0
ARC
  5
5CAC
330
18
100
AcDbEntity
  8
1
  6
Continuous
100
AcDbCircle
 10
385.5810947019191
 20
96.4508921696443
 30
0.0
 40
1.0
100
AcDbArc
 50
4.19612308827029
 51
90.0
  0
ARC
  5
5CAD
330
18
100
AcDbEntity
  8
1
  6
Continuous
100
AcDbCircle
 10
385.5810947019191
 20
90.45089216964433
 30
0.0
 40
1.0
100
AcDbArc
 50
270.0
 51
355.8038769117264
  0
ARC
  5
5CAE
330
18
100
AcDbEntity
  8
1
  6
Continuous
100
AcDbCircle
 10
354.1909980744315
 20
50.95089216964453
 30
0.0
 40
1.0
100
AcDbArc
 50
270.0
 51
0.0
  0
ARC
  5
5CAF
330
18
100
AcDbEntity
  8
1
  6
Continuous
100
AcDbCircle
 10
356.1909980744315
 20
52.46307857978706
 30
0.0
 40
1.0
100
AcDbArc
 50
107.5973323678153
 51
179.9999999999966
  0
ARC
  5
5CB0
330
18
100
AcDbEntity
  8
1
  6
Continuous
100
AcDbCircle
 10
343.1909980744316
 20
102.2001262345304
 30
0.0
 40
42.00001003345111
100
AcDbArc
 50
287.2329164571514
 51
294.1477348172293
  0
LINE
  5
5CB1
330
18
100
AcDbEntity
  8
1
  6
Continuous
100
AcDbLine
 10
363.1909986053699
 20
58.51851042174654
 30
0.0
 11
363.1909986053699
 21
62.05039567715505
 31
0.0
  0
ARC
  5
5CB2
330
18
100
AcDbEntity
  8
1
  6
Continuous
100
AcDbCircle
 10
361.1909986053701
 20
62.05039567715505
 30
0.0
 40
2.0
100
AcDbArc
 50
0.0
 51
114.1477348172267
  0
ARC
  5
5CB3
330
18
100
AcDbEntity
  8
1
  6
Continuous
100
AcDbCircle
 10
354.7450166043101
 20
64.9508921696443
 30
0.0
 40
3.0
100
AcDbArc
 50
270.0
 51
287.2329164571511
  0
ARC
  5
5CB7
330
18
100
AcDbEntity
  8
1
  6
Continuous
100
AcDbCircle
 10
343.1909980744316
 20
93.45089216964442
 30
0.0
 40
21.00003900000001
100
AcDbArc
 50
175.9039638617575
 51
184.0960361382425
  0
ARC
  5
5CB8
330
18
100
AcDbEntity
  8
1
  6
Continuous
100
AcDbCircle
 10
343.1909980744316
 20
93.45089216964442
 30
0.0
 40
23.24726281818152
100
AcDbArc
 50
176.3004927941558
 51
183.6995072058441
  0
ARC
  5
5CB9
330
18
100
AcDbEntity
  8
1
  6
Continuous
100
AcDbCircle
 10
343.1909980744316
 20
93.45089216964442
 30
0.0
 40
27.00003899999999
100
AcDbArc
 50
176.8152660681943
 51
183.1847339318056
  0
ARC
  5
5CBA
330
18
100
AcDbEntity
  8
1
  6
Continuous
100
AcDbCircle
 10
343.1909980744316
 20
93.45089216964442
 30
0.0
 40
21.00003900000001
100
AcDbArc
 50
315.5826011445995
 51
44.41739885540051
  0
ARC
  5
5CBB
330
18
100
AcDbEntity
  8
1
  6
Continuous
100
AcDbCircle
 10
343.1909980744316
 20
93.45089216964442
 30
0.0
 40
23.24726281818152
100
AcDbArc
 50
310.0433540962288
 51
49.95664590377121
  0
ARC
  5
5CBC
330
18
100
AcDbEntity
  8
1
  6
Continuous
100
AcDbCircle
 10
343.1909980744316
 20
93.45089216964442
 30
0.0
 40
27.00003899999999
100
AcDbArc
 50
302.077373461161
 51
57.92262653883913
  0
ARC
  5
5CCC
330
18
100
AcDbEntity
  8
1
  6
Continuous
100
AcDbCircle
 10
343.1910376138803
 20
93.45089216964451
 30
0.0
 40
12.0
100
AcDbArc
 50
352.1618807670893
 51
7.838119232908017
  0
LINE
  5
5CD1
330
18
100
AcDbEntity
  8
1
  6
Continuous
100
AcDbLine
 10
355.8981421239828
 20
95.44154154105951
 30
0.0
 11
357.0474440744316
 21
93.45089216964442
 31
0.0
  0
ARC
  5
5CD3
330
18
100
AcDbEntity
  8
1
  6
Continuous
100
AcDbCircle
 10
343.1910376138803
 20
93.45089216964451
 30
0.0
 40
12.0
100
AcDbArc
 50
172.8192442185425
 51
187.1807557814585
  0
LINE
  5
5CD4
330
18
100
AcDbEntity
  8
1
  6
Continuous
100
AcDbLine
 10
355.898142123983
 20
91.46024279822901
 30
0.0
 11
357.0474440744316
 21
93.45089216964442
 31
0.0
  0
LINE
  5
5CD5
330
18
100
AcDbEntity
  8
1
  6
Continuous
100
AcDbLine
 10
330.2006565571141
 20
91.95089216964451
 30
0.0
 11
329.3346311533296
 21
93.45089216964442
 31
0.0
  0
LINE
  5
5CD6
330
18
100
AcDbEntity
  8
1
  6
Continuous
100
AcDbLine
 10
330.2006565571141
 20
94.9508921696445
 30
0.0
 11
329.3346311533296
 21
93.45089216964442
 31
0.0
  0
ARC
  5
5D78
330
18
100
AcDbEntity
  8
1
  6
Continuous
100
AcDbCircle
 10
563.5941932668628
 20
381.0929170235706
 30
0.0
 40
2.0
100
AcDbArc
 50
270.0
 51
330.0000037545077
  0
ARC
  5
5D79
330
18
100
AcDbEntity
  8
1
  6
Continuous
100
AcDbCircle
 10
519.4091478820005
 20
381.0929170235705
 30
0.0
 40
2.0
100
AcDbArc
 50
210.00000405855
 51
270.0
  0
LINE
  5
5D7A
330
18
100
AcDbEntity
  8
1
  6
Continuous
100
AcDbLine
 10
562.5017090744318
 20
376.0929170235706
 30
0.0
 11
520.5016310744318
 21
376.0929170235706
 31
0.0
  0
LINE
  5
5D7B
330
18
100
AcDbEntity
  8
1
  6
Continuous
100
AcDbLine
 10
562.5017090744318
 20
376.0929170235706
 30
0.0
 11
562.5017090744318
 21
379.0929170235707
 31
0.0
  0
LINE
  5
5D7C
330
18
100
AcDbEntity
  8
1
  6
Continuous
100
AcDbLine
 10
520.5016310744317
 20
376.0929170235706
 30
0.0
 11
520.5016310744317
 21
379.0929170235707
 31
0.0
  0
LINE
  5
5D7D
330
18
100
AcDbEntity
  8
1
  6
Continuous
100
AcDbLine
 10
529.5016700744318
 20
376.0929170235706
 30
0.0
 11
529.5016700744318
 21
368.0929170235701
 31
0.0
  0
LINE
  5
5D7E
330
18
100
AcDbEntity
  8
1
  6
Continuous
100
AcDbLine
 10
553.5016700744318
 20
376.0929170235706
 30
0.0
 11
553.501670074432
 21
368.0929170235712
 31
0.0
  0
LINE
  5
5D88
330
18
100
AcDbEntity
  8
1
  6
Continuous
100
AcDbLine
 10
577.2516700744318
 20
421.7929170235704
 30
0.0
 11
582.0016700744317
 21
421.7929170235707
 31
0.0
  0
LINE
  5
5D89
330
18
100
AcDbEntity
  8
1
  6
Continuous
100
AcDbLine
 10
545.5016700744315
 20
422.0929170235707
 30
0.0
 11
545.5016700744318
 21
386.5929170235706
 31
0.0
  0
LINE
  5
5D8A
330
18
100
AcDbEntity
  8
1
  6
Continuous
100
AcDbLine
 10
537.5016700744315
 20
422.0929170235707
 30
0.0
 11
537.5016700744318
 21
386.5929170235706
 31
0.0
  0
LINE
  5
5DDE
330
18
100
AcDbEntity
  8
1
  6
Continuous
100
AcDbLine
 10
501.2524360095455
 20
377.8958909001056
 30
0.0
 11
501.2524360095455
 21
417.4115402209803
 31
0.0
  0
ARC
  5
5DE0
330
18
100
AcDbEntity
  8
1
  6
Continuous
100
AcDbCircle
 10
505.6353564453494
 20
417.4115402209803
 30
0.0
 40
4.382920435803598
100
AcDbArc
 50
88.4793101712111
 51
180.0
  0
ARC
  5
5DE3
330
18
100
AcDbEntity
  8
1
  6
Continuous
100
AcDbCircle
 10
504.2857093465344
 20
377.8958909001056
 30
0.0
 40
3.03327333698899
100
AcDbArc
 50
180.0
 51
250.0837450021183
  0
ARC
  5
5DE6
330
18
100
AcDbEntity
  8
1
  6
Continuous
100
AcDbCircle
 10
569.2070434114716
 20
356.8088910235705
 30
0.0
 40
68.429019
100
AcDbArc
 50
148.4705725506104
 51
163.0451839243683
  0
ARC
  5
5DEC
330
18
100
AcDbEntity
  8
1
  6
Continuous
100
AcDbCircle
 10
578.717630802329
 20
377.8958909001056
 30
0.0
 40
3.03327333698899
100
AcDbArc
 50
289.9162549978816
 51
0.000000000000007
  0
LINE
  5
5DED
330
18
100
AcDbEntity
  8
1
  6
Continuous
100
AcDbLine
 10
581.7509041393178
 20
377.8958909001056
 30
0.0
 11
581.7509041393178
 21
417.4115402209803
 31
0.0
  0
ARC
  5
5DEE
330
18
100
AcDbEntity
  8
1
  6
Continuous
100
AcDbCircle
 10
577.3679837035142
 20
417.4115402209803
 30
0.0
 40
4.382920435803598
100
AcDbArc
 50
0.000000000000007
 51
91.52068982878892
  0
ARC
  5
5E47
330
18
100
AcDbEntity
  8
1
  6
Continuous
100
AcDbCircle
 10
516.8800845970975
 20
392.5929170235702
 30
0.0
 40
6.0
100
AcDbArc
 50
179.9999999999988
 51
270.0
  0
ARC
  5
600F
330
18
100
AcDbEntity
  8
1
  6
Continuous
100
AcDbCircle
 10
566.1232555517661
 20
392.5929170235702
 30
0.0
 40
6.0
100
AcDbArc
 50
270.0
 51
0.0000000000011011
  0
ARC
  5
6010
330
18
100
AcDbEntity
  8
1
  6
Continuous
100
AcDbCircle
 10
513.7962967373919
 20
356.8088910235705
 30
0.0
 40
68.429019
100
AcDbArc
 50
16.95481607563168
 51
31.52942744938956
  0
ENDSEC
  0
SECTION
  2
OBJECTS
  0
DICTIONARY
  5
C
330
0
100
AcDbDictionary
281
     1
  3
ACAD_CIP_PREVIOUS_PRODUCT_INFO
350
65F4
  3
ACAD_COLOR
350
65D7
  3
ACAD_DETAILVIEWSTYLE
350
65F0
  3
ACAD_GROUP
350
D
  3
ACAD_LAYOUT
350
94
  3
ACAD_MATERIAL
350
65A5
  3
ACAD_MLEADERSTYLE
350
65EC
  3
ACAD_MLINESTYLE
350
1B
  3
ACAD_PLOTSETTINGS
350
95
  3
ACAD_PLOTSTYLENAME
350
65A3
  3
ACAD_SCALELIST
350
65DA
  3
ACAD_SECTIONVIEWSTYLE
350
65EE
  3
ACAD_TABLESTYLE
350
65D8
  3
ACAD_VISUALSTYLE
350
65BE
  3
ACDB_RECOMPOSE_DATA
350
6612
  3
AcDbVariableDictionary
350
6605
  3
CONTENTDICTIONARY
350
3D
  3
DWGPROPS
350
6613
  0
DICTIONARY
  5
65F5
330
E
100
AcDbDictionary
280
     1
281
     1
  3
ADSK_XREC_LAYER_RECONCILED
360
65F6
  0
DICTIONARY
  5
65F7
330
4E
100
AcDbDictionary
280
     1
281
     1
  3
ADSK_XREC_LAYER_RECONCILED
360
65F8
  0
DICTIONARY
  5
65F9
330
4F
100
AcDbDictionary
280
     1
281
     1
  3
ADSK_XREC_LAYER_RECONCILED
360
65FA
  0
DICTIONARY
  5
65FB
330
50
100
AcDbDictionary
280
     1
281
     1
  3
ADSK_XREC_LAYER_RECONCILED
360
65FC
  0
DICTIONARY
  5
65FD
330
51
100
AcDbDictionary
280
     1
281
     1
  3
ADSK_XREC_LAYER_RECONCILED
360
65FE
  0
DICTIONARY
  5
65FF
330
52
100
AcDbDictionary
280
     1
281
     1
  3
ADSK_XREC_LAYER_RECONCILED
360
6600
  0
DICTIONARY
  5
6601
330
53
100
AcDbDictionary
280
     1
281
     1
  3
ADSK_XREC_LAYER_RECONCILED
360
6602
  0
DICTIONARY
  5
6603
330
54
100
AcDbDictionary
280
     1
281
     1
  3
ADSK_XREC_LAYER_RECONCILED
360
6604
  0
DICTIONARY
  5
659E
330
18
100
AcDbDictionary
281
     1
  3
ACAD_LAYOUTSELFREF
350
659F
  0
DICTIONARY
  5
659C
330
15
100
AcDbDictionary
281
     1
  3
ACAD_LAYOUTSELFREF
350
659D
  0
XRECORD
  5
65F4
102
{ACAD_REACTORS
330
C
102
}
330
C
100
AcDbXrecord
280
     1
300
ACDLT
300
2014
300
ACDLT_F_S
  0
DICTIONARY
  5
65D7
102
{ACAD_REACTORS
330
C
102
}
330
C
100
AcDbDictionary
281
     1
  0
DICTIONARY
  5
65F0
102
{ACAD_REACTORS
330
C
102
}
330
C
100
AcDbDictionary
281
     1
  3
Imperial24
350
65F1
  0
DICTIONARY
  5
D
102
{ACAD_REACTORS
330
C
102
}
330
C
100
AcDbDictionary
281
     1
  0
DICTIONARY
  5
94
102
{ACAD_REACTORS
330
C
102
}
330
C
100
AcDbDictionary
281
     1
  3
Model
350
65F2
  3
レイアウト1
350
65F3
  0
DICTIONARY
  5
65A5
102
{ACAD_REACTORS
330
C
102
}
330
C
100
AcDbDictionary
281
     1
  3
ByBlock
350
65AE
  3
ByLayer
350
65A6
  3
Global
350
65B6
  0
DICTIONARY
  5
65EC
102
{ACAD_REACTORS
330
C
102
}
330
C
100
AcDbDictionary
281
     1
  3
Standard
350
65ED
  0
DICTIONARY
  5
1B
102
{ACAD_REACTORS
330
C
102
}
330
C
100
AcDbDictionary
281
     1
  3
STANDARD
350
1C
  0
DICTIONARY
  5
95
102
{ACAD_REACTORS
330
C
102
}
330
C
100
AcDbDictionary
281
     1
  0
ACDBDICTIONARYWDFLT
  5
65A3
102
{ACAD_REACTORS
330
C
102
}
330
C
100
AcDbDictionary
281
     1
  3
Normal
350
65A4
100
AcDbDictionaryWithDefault
340
65A4
  0
DICTIONARY
  5
65DA
102
{ACAD_REACTORS
330
C
102
}
330
C
100
AcDbDictionary
281
     1
  3
A0
350
65DB
  3
A1
350
65DC
  3
A2
350
65DD
  3
A3
350
65DE
  3
A4
350
65DF
  3
A5
350
65E0
  3
A6
350
65E1
  3
A7
350
65E2
  3
A8
350
65E3
  3
A9
350
65E4
  3
B0
350
65E5
  3
B1
350
65E6
  3
B2
350
65E7
  3
B3
350
65E8
  3
B4
350
65E9
  3
B5
350
65EA
  3
B6
350
65EB
  0
DICTIONARY
  5
65EE
102
{ACAD_REACTORS
330
C
102
}
330
C
100
AcDbDictionary
281
     1
  3
Imperial24
350
65EF
  0
DICTIONARY
  5
65D8
102
{ACAD_REACTORS
330
C
102
}
330
C
100
AcDbDictionary
281
     1
  3
Standard
350
65D9
  0
DICTIONARY
  5
65BE
102
{ACAD_REACTORS
330
C
102
}
330
C
100
AcDbDictionary
281
     1
  3
2dWireframe
350
65C4
  3
Basic
350
65C3
  3
Brighten
350
65CA
  3
ColorChange
350
65CE
  3
Conceptual
350
65C7
  3
Dim
350
65C9
  3
EdgeColorOff
350
65D6
  3
Facepattern
350
65CD
  3
Flat
350
65BF
  3
FlatWithEdges
350
65C0
  3
Gouraud
350
65C1
  3
GouraudWithEdges
350
65C2
  3
Hidden
350
65C6
  3
JitterOff
350
65D4
  3
Linepattern
350
65CC
  3
OverhangOff
350
65D5
  3
Realistic
350
65C8
  3
Shaded
350
65D3
  3
Shaded with edges
350
65D2
  3
Shades of Gray
350
65CF
  3
Sketchy
350
65D0
  3
Thicken
350
65CB
  3
Wireframe
350
65C5
  3
X-Ray
350
65D1
  0
XRECORD
  5
6612
102
{ACAD_REACTORS
330
C
102
}
330
C
100
AcDbXrecord
280
     1
 90
        1
330
65D9
  0
DICTIONARY
  5
6605
102
{ACAD_REACTORS
330
C
102
}
330
C
100
AcDbDictionary
281
     1
  3
CANNOSCALE
350
660A
  3
CMLEADERSTYLE
350
6607
  3
CTABLESTYLE
350
6606
  3
CVIEWDETAILSTYLE
350
6608
  3
CVIEWSECTIONSTYLE
350
6609
  3
DIMASSOC
350
660D
  3
INDEXCTL
350
660C
  3
SORTENTS
350
660B
  3
XCLIPFRAME
350
660E
  0
DICTIONARY
  5
3D
102
{ACAD_REACTORS
330
C
102
}
330
C
100
AcDbDictionary
281
     1
  0
XRECORD
  5
6613
102
{ACAD_REACTORS
330
C
102
}
330
C
100
AcDbXrecord
280
     1
  1
DWGPROPS COOKIE
  2

  3

  4

  6

  7

  8
Yoshitsune
  9

300
=
301
=
302
=
303
=
304
=
305
=
306
=
307
=
308
=
309
=
 40
0.2934633217592593
 41
2454526.717009005
 42
2457192.687586875
  1

 90
        0
  0
XRECORD
  5
65F6
102
{ACAD_REACTORS
330
65F5
102
}
330
65F5
100
AcDbXrecord
280
     1
290
     1
  0
XRECORD
  5
65F8
102
{ACAD_REACTORS
330
65F7
102
}
330
65F7
100
AcDbXrecord
280
     1
290
     1
  0
XRECORD
  5
65FA
102
{ACAD_REACTORS
330
65F9
102
}
330
65F9
100
AcDbXrecord
280
     1
290
     1
  0
XRECORD
  5
65FC
102
{ACAD_REACTORS
330
65FB
102
}
330
65FB
100
AcDbXrecord
280
     1
290
     1
  0
XRECORD
  5
65FE
102
{ACAD_REACTORS
330
65FD
102
}
330
65FD
100
AcDbXrecord
280
     1
290
     1
  0
XRECORD
  5
6600
102
{ACAD_REACTORS
330
65FF
102
}
330
65FF
100
AcDbXrecord
280
     1
290
     1
  0
XRECORD
  5
6602
102
{ACAD_REACTORS
330
6601
102
}
330
6601
100
AcDbXrecord
280
     1
290
     1
  0
XRECORD
  5
6604
102
{ACAD_REACTORS
330
6603
102
}
330
6603
100
AcDbXrecord
280
     1
290
     1
  0
XRECORD
  5
659F
102
{ACAD_REACTORS
330
659E
102
}
330
659E
100
AcDbXrecord
280
     1
340
18
  0
XRECORD
  5
659D
102
{ACAD_REACTORS
330
659C
102
}
330
659C
100
AcDbXrecord
280
     1
340
15
  0
ACDBDETAILVIEWSTYLE
  5
65F1
102
{ACAD_XDICTIONARY
360
664B
102
}
102
{ACAD_REACTORS
330
65F0
102
}
330
65F0
100
AcDbModelDocViewStyle
 70
     0
  3
Imperial24
290
     0
100
AcDbDetailViewStyle
 70
     0
 71
     0
 90
        3
 71
     1
340
F
 40
0.24
340
0
 40
0.24
300

 40
0.36
280
     3
 71
     2
340
14
 90
       25
 71
     3
340
F
 40
0.24
 90
        1
 40
0.75
 90
        1
300
%<\AcVar ViewType \f "%tc1">% %<\AcVar ViewDetailId>%\PSCALE %<\AcVar ViewScale \f "%sn">%
 71
     4
340
14
 90
       25
340
14
 90
       25
280
     0
  0
LAYOUT
  5
65F2
102
{ACAD_XDICTIONARY
360
664D
102
}
102
{ACAD_REACTORS
330
94
102
}
330
94
100
AcDbPlotSettings
  1

  2
Canon LBP9100C
  4

  6

 40
0.0
 41
0.0
 42
0.0
 43
0.0
 44
0.0
 45
0.0
 46
0.0
 47
0.0
 48
0.0
 49
0.0
140
0.0
141
0.0
142
1.0
143
1.0
 70
  1712
 72
     0
 73
     0
 74
     0
  7

 75
     0
147
1.0
148
0.0
149
0.0
100
AcDbLayout
  1
Model
 70
     1
 71
     0
 10
0.0
 20
0.0
 11
12.0
 21
9.0
 12
0.0
 22
0.0
 32
0.0
 14
0.0
 24
0.0
 34
0.0
 15
0.0
 25
0.0
 35
0.0
146
0.0
 13
0.0
 23
0.0
 33
0.0
 16
1.0
 26
0.0
 36
0.0
 17
0.0
 27
1.0
 37
0.0
 76
     0
330
18
331
659B
  0
LAYOUT
  5
65F3
102
{ACAD_XDICTIONARY
360
664F
102
}
102
{ACAD_REACTORS
330
94
102
}
330
94
100
AcDbPlotSettings
  1

  2
Canon LBP9100C
  4

  6

 40
0.0
 41
0.0
 42
0.0
 43
0.0
 44
0.0
 45
0.0
 46
0.0
 47
0.0
 48
0.0
 49
0.0
140
0.0
141
0.0
142
1.0
143
1.0
 70
   688
 72
     0
 73
     0
 74
     5
  7

 75
    16
147
1.0
148
0.0
149
0.0
100
AcDbLayout
  1
レイアウト1
 70
     1
 71
     1
 10
0.0
 20
0.0
 11
420.0
 21
297.0
 12
0.0
 22
0.0
 32
0.0
 14
1.000000000000000E+20
 24
1.000000000000000E+20
 34
1.000000000000000E+20
 15
-1.000000000000000E+20
 25
-1.000000000000000E+20
 35
-1.000000000000000E+20
146
0.0
 13
0.0
 23
0.0
 33
0.0
 16
1.0
 26
0.0
 36
0.0
 17
0.0
 27
1.0
 37
0.0
 76
     0
330
15
  0
MATERIAL
  5
65AE
102
{ACAD_XDICTIONARY
360
65AF
102
}
102
{ACAD_REACTORS
330
65A5
102
}
330
65A5
100
AcDbMaterial
  1
ByBlock
 72
     0
 43
0.0208333333333333
 43
0.0
 43
0.0
 43
0.0
 43
0.0
 43
0.0208333333333333
 43
0.0
 43
0.0
 43
0.0
 43
0.0
 43
1.0
 43
0.0
 43
0.0
 43
0.0
 43
0.0
 43
1.0
 77
     0
 47
0.0208333333333333
 47
0.0
 47
0.0
 47
0.0
 47
0.0
 47
0.0208333333333333
 47
0.0
 47
0.0
 47
0.0
 47
0.0
 47
1.0
 47
0.0
 47
0.0
 47
0.0
 47
0.0
 47
1.0
171
     0
 49
0.0208333333333333
 49
0.0
 49
0.0
 49
0.0
 49
0.0
 49
0.0208333333333333
 49
0.0
 49
0.0
 49
0.0
 49
0.0
 49
1.0
 49
0.0
 49
0.0
 49
0.0
 49
0.0
 49
1.0
175
     0
142
0.0208333333333333
142
0.0
142
0.0
142
0.0
142
0.0
142
0.0208333333333333
142
0.0
142
0.0
142
0.0
142
0.0
142
1.0
142
0.0
142
0.0
142
0.0
142
0.0
142
1.0
179
     0
144
0.0208333333333333
144
0.0
144
0.0
144
0.0
144
0.0
144
0.0208333333333333
144
0.0
144
0.0
144
0.0
144
0.0
144
1.0
144
0.0
144
0.0
144
0.0
144
0.0
144
1.0
147
0.0208333333333333
147
0.0
147
0.0
147
0.0
147
0.0
147
0.0208333333333333
147
0.0
147
0.0
147
0.0
147
0.0
147
1.0
147
0.0
147
0.0
147
0.0
147
0.0
147
1.0
  0
MATERIAL
  5
65A6
102
{ACAD_XDICTIONARY
360
65A7
102
}
102
{ACAD_REACTORS
330
65A5
102
}
330
65A5
100
AcDbMaterial
  1
ByLayer
 72
     0
 43
0.0208333333333333
 43
0.0
 43
0.0
 43
0.0
 43
0.0
 43
0.0208333333333333
 43
0.0
 43
0.0
 43
0.0
 43
0.0
 43
1.0
 43
0.0
 43
0.0
 43
0.0
 43
0.0
 43
1.0
 77
     0
 47
0.0208333333333333
 47
0.0
 47
0.0
 47
0.0
 47
0.0
 47
0.0208333333333333
 47
0.0
 47
0.0
 47
0.0
 47
0.0
 47
1.0
 47
0.0
 47
0.0
 47
0.0
 47
0.0
 47
1.0
171
     0
 49
0.0208333333333333
 49
0.0
 49
0.0
 49
0.0
 49
0.0
 49
0.0208333333333333
 49
0.0
 49
0.0
 49
0.0
 49
0.0
 49
1.0
 49
0.0
 49
0.0
 49
0.0
 49
0.0
 49
1.0
175
     0
142
0.0208333333333333
142
0.0
142
0.0
142
0.0
142
0.0
142
0.0208333333333333
142
0.0
142
0.0
142
0.0
142
0.0
142
1.0
142
0.0
142
0.0
142
0.0
142
0.0
142
1.0
179
     0
144
0.0208333333333333
144
0.0
144
0.0
144
0.0
144
0.0
144
0.0208333333333333
144
0.0
144
0.0
144
0.0
144
0.0
144
1.0
144
0.0
144
0.0
144
0.0
144
0.0
144
1.0
147
0.0208333333333333
147
0.0
147
0.0
147
0.0
147
0.0
147
0.0208333333333333
147
0.0
147
0.0
147
0.0
147
0.0
147
1.0
147
0.0
147
0.0
147
0.0
147
0.0
147
1.0
  0
MATERIAL
  5
65B6
102
{ACAD_XDICTIONARY
360
65B7
102
}
102
{ACAD_REACTORS
330
65A5
102
}
330
65A5
100
AcDbMaterial
  1
Global
 72
     0
 43
0.0208333333333333
 43
0.0
 43
0.0
 43
0.0
 43
0.0
 43
0.0208333333333333
 43
0.0
 43
0.0
 43
0.0
 43
0.0
 43
1.0
 43
0.0
 43
0.0
 43
0.0
 43
0.0
 43
1.0
 77
     0
 47
0.0208333333333333
 47
0.0
 47
0.0
 47
0.0
 47
0.0
 47
0.0208333333333333
 47
0.0
 47
0.0
 47
0.0
 47
0.0
 47
1.0
 47
0.0
 47
0.0
 47
0.0
 47
0.0
 47
1.0
171
     0
 49
0.0208333333333333
 49
0.0
 49
0.0
 49
0.0
 49
0.0
 49
0.0208333333333333
 49
0.0
 49
0.0
 49
0.0
 49
0.0
 49
1.0
 49
0.0
 49
0.0
 49
0.0
 49
0.0
 49
1.0
175
     0
142
0.0208333333333333
142
0.0
142
0.0
142
0.0
142
0.0
142
0.0208333333333333
142
0.0
142
0.0
142
0.0
142
0.0
142
1.0
142
0.0
142
0.0
142
0.0
142
0.0
142
1.0
179
     0
144
0.0208333333333333
144
0.0
144
0.0
144
0.0
144
0.0
144
0.0208333333333333
144
0.0
144
0.0
144
0.0
144
0.0
144
1.0
144
0.0
144
0.0
144
0.0
144
0.0
144
1.0
147
0.0208333333333333
147
0.0
147
0.0
147
0.0
147
0.0
147
0.0208333333333333
147
0.0
147
0.0
147
0.0
147
0.0
147
1.0
147
0.0
147
0.0
147
0.0
147
0.0
147
1.0
  0
MLEADERSTYLE
  5
65ED
102
{ACAD_REACTORS
330
65EC
102
}
330
65EC
100
AcDbMLeaderStyle
170
     2
171
     1
172
     0
 90
        2
 40
0.0
 41
0.0
173
     1
 91
-1056964608
340
12
 92
       -2
290
     1
 42
0.09
291
     1
 43
0.36
  3
Standard
 44
0.18
300

342
F
174
     1
178
     6
175
     1
176
     0
 93
-1056964608
 45
0.18
292
     0
297
     0
 46
0.18
 94
-1056964608
 47
1.0
 49
1.0
140
1.0
293
     1
141
0.0
294
     1
177
     0
142
1.0
295
     0
296
     0
143
0.125
1001
ACAD_MLEADERVER
1070
     2
  0
MLINESTYLE
  5
1C
102
{ACAD_REACTORS
330
1B
102
}
330
1B
100
AcDbMlineStyle
  2
STANDARD
 70
     0
  3

 62
   256
 51
90.0
 52
90.0
 71
     2
 49
0.5
 62
   256
  6
BYLAYER
 49
-0.5
 62
   256
  6
BYLAYER
  0
ACDBPLACEHOLDER
  5
65A4
102
{ACAD_REACTORS
330
65A3
102
}
330
65A3
  0
SCALE
  5
65DB
102
{ACAD_REACTORS
330
65DA
102
}
330
65DA
100
AcDbScale
 70
     0
300
1:1
140
1.0
141
1.0
290
     1
  0
SCALE
  5
65DC
102
{ACAD_REACTORS
330
65DA
102
}
330
65DA
100
AcDbScale
 70
     0
300
1/128" = 1'-0"
140
0.0078125
141
12.0
290
     0
  0
SCALE
  5
65DD
102
{ACAD_REACTORS
330
65DA
102
}
330
65DA
100
AcDbScale
 70
     0
300
1/64" = 1'-0"
140
0.015625
141
12.0
290
     0
  0
SCALE
  5
65DE
102
{ACAD_REACTORS
330
65DA
102
}
330
65DA
100
AcDbScale
 70
     0
300
1/32" = 1'-0"
140
0.03125
141
12.0
290
     0
  0
SCALE
  5
65DF
102
{ACAD_REACTORS
330
65DA
102
}
330
65DA
100
AcDbScale
 70
     0
300
1/16" = 1'-0"
140
0.0625
141
12.0
290
     0
  0
SCALE
  5
65E0
102
{ACAD_REACTORS
330
65DA
102
}
330
65DA
100
AcDbScale
 70
     0
300
3/32" = 1'-0"
140
0.09375
141
12.0
290
     0
  0
SCALE
  5
65E1
102
{ACAD_REACTORS
330
65DA
102
}
330
65DA
100
AcDbScale
 70
     0
300
1/8" = 1'-0"
140
0.125
141
12.0
290
     0
  0
SCALE
  5
65E2
102
{ACAD_REACTORS
330
65DA
102
}
330
65DA
100
AcDbScale
 70
     0
300
3/16" = 1'-0"
140
0.1875
141
12.0
290
     0
  0
SCALE
  5
65E3
102
{ACAD_REACTORS
330
65DA
102
}
330
65DA
100
AcDbScale
 70
     0
300
1/4" = 1'-0"
140
0.25
141
12.0
290
     0
  0
SCALE
  5
65E4
102
{ACAD_REACTORS
330
65DA
102
}
330
65DA
100
AcDbScale
 70
     0
300
3/8" = 1'-0"
140
0.375
141
12.0
290
     0
  0
SCALE
  5
65E5
102
{ACAD_REACTORS
330
65DA
102
}
330
65DA
100
AcDbScale
 70
     0
300
1/2" = 1'-0"
140
0.5
141
12.0
290
     0
  0
SCALE
  5
65E6
102
{ACAD_REACTORS
330
65DA
102
}
330
65DA
100
AcDbScale
 70
     0
300
3/4" = 1'-0"
140
0.75
141
12.0
290
     0
  0
SCALE
  5
65E7
102
{ACAD_REACTORS
330
65DA
102
}
330
65DA
100
AcDbScale
 70
     0
300
1" = 1'-0"
140
1.0
141
12.0
290
     0
  0
SCALE
  5
65E8
102
{ACAD_REACTORS
330
65DA
102
}
330
65DA
100
AcDbScale
 70
     0
300
1-1/2" = 1'-0"
140
1.5
141
12.0
290
     0
  0
SCALE
  5
65E9
102
{ACAD_REACTORS
330
65DA
102
}
330
65DA
100
AcDbScale
 70
     0
300
3" = 1'-0"
140
3.0
141
12.0
290
     0
  0
SCALE
  5
65EA
102
{ACAD_REACTORS
330
65DA
102
}
330
65DA
100
AcDbScale
 70
     0
300
6" = 1'-0"
140
6.0
141
12.0
290
     0
  0
SCALE
  5
65EB
102
{ACAD_REACTORS
330
65DA
102
}
330
65DA
100
AcDbScale
 70
     0
300
1'-0" = 1'-0"
140
12.0
141
12.0
290
     0
  0
ACDBSECTIONVIEWSTYLE
  5
65EF
102
{ACAD_XDICTIONARY
360
6649
102
}
102
{ACAD_REACTORS
330
65EE
102
}
330
65EE
100
AcDbModelDocViewStyle
 70
     0
  3
Imperial24
290
     0
100
AcDbSectionViewStyle
 70
     0
 71
     0
 90
       78
 71
     1
340
F
 40
0.24
340
0
340
0
 40
0.24
300
I, O, Q, S, X, Z
 40
0.48
 90
        3
 40
0.18
 90
        1
 71
     2
340
14
 90
       25
340
14
 90
       50
 40
0.24
 40
0.0
 40
0.24
 71
     3
340
F
 40
0.24
 90
        1
 40
0.75
 90
        1
300
%<\AcVar ViewType \f "%tc1">% %<\AcVar ViewSectionStartId>%-%<\AcVar ViewSectionEndId>%\PSCALE %<\AcVar ViewScale \f "%sn">%
 71
     4
300
ANSI31
 40
1.0
 90
        0
290
     0
290
     0
 90
        6
 40
0.0
 40
1.570796326794896
 40
0.2617993877991494
 40
1.308996938995747
 40
-0.2617993877991494
 40
1.832595714594046
  0
TABLESTYLE
  5
65D9
102
{ACAD_XDICTIONARY
360
6610
102
}
102
{ACAD_REACTORS
330
65D8
102
}
330
65D8
100
AcDbTableStyle
  3
Standard
 70
     0
 71
     0
 40
0.06
 41
0.06
280
     0
281
     0
  7
STANDARD
140
0.18
170
     2
 62
     0
 63
     7
283
     0
274
    -2
284
     1
 64
     0
275
    -2
285
     1
 65
     0
276
    -2
286
     1
 66
     0
277
    -2
287
     1
 67
     0
278
    -2
288
     1
 68
     0
279
    -2
289
     1
 69
     0
  7
STANDARD
140
0.25
170
     5
 62
     0
 63
     7
283
     0
274
    -2
284
     1
 64
     0
275
    -2
285
     1
 65
     0
276
    -2
286
     1
 66
     0
277
    -2
287
     1
 67
     0
278
    -2
288
     1
 68
     0
279
    -2
289
     1
 69
     0
  7
STANDARD
140
0.18
170
     5
 62
     0
 63
     7
283
     0
274
    -2
284
     1
 64
     0
275
    -2
285
     1
 65
     0
276
    -2
286
     1
 66
     0
277
    -2
287
     1
 67
     0
278
    -2
288
     1
 68
     0
279
    -2
289
     1
 69
     0
  0
VISUALSTYLE
  5
65C4
102
{ACAD_XDICTIONARY
360
6621
102
}
102
{ACAD_REACTORS
330
65BE
102
}
330
65BE
100
AcDbVisualStyle
  2
2dWireframe
 70
     4
 71
     0
 72
     2
 73
     0
 90
        0
 40
-0.6
 41
-30.0
 62
     5
 63
     7
 74
     1
 91
        4
 64
     7
 65
   257
 75
     1
175
     1
 42
1.0
 92
        0
 66
   257
 43
1.0
 76
     1
 77
     6
 78
     2
 67
     7
 79
     5
170
     0
171
     0
290
     0
174
     0
 93
        1
 44
0.0
173
     0
291
     0
 45
0.0
1001
ACAD
1000
AcDbSavedByObjectVersion
1070
     0
  0
VISUALSTYLE
  5
65C3
102
{ACAD_XDICTIONARY
360
661F
102
}
102
{ACAD_REACTORS
330
65BE
102
}
330
65BE
100
AcDbVisualStyle
  2
Basic
 70
     7
 71
     1
 72
     0
 73
     1
 90
        0
 40
-0.6
 41
-30.0
 62
     5
 63
     7
 74
     0
 91
        4
 64
     7
 65
   257
 75
     1
175
     1
 42
1.0
 92
        8
 66
     7
 43
1.0
 76
     1
 77
     6
 78
     2
 67
     7
 79
     5
170
     0
171
     0
290
     0
174
     0
 93
        1
 44
0.0
173
     0
291
     1
 45
0.0
1001
ACAD
1000
AcDbSavedByObjectVersion
1070
     0
  0
VISUALSTYLE
  5
65CA
102
{ACAD_XDICTIONARY
360
662D
102
}
102
{ACAD_REACTORS
330
65BE
102
}
330
65BE
100
AcDbVisualStyle
  2
Brighten
 70
    12
 71
     2
 72
     2
 73
     0
 90
        0
 40
-0.6
 41
-30.0
 62
     5
 63
     7
 74
     1
 91
        4
 64
     7
 65
   257
 75
     1
175
     1
 42
1.0
 92
        8
 66
     7
 43
1.0
 76
     1
 77
     6
 78
     2
 67
     7
 79
     5
170
     0
171
     0
290
     0
174
     0
 93
        1
 44
50.0
173
     0
291
     1
 45
0.0
1001
ACAD
1000
AcDbSavedByObjectVersion
1070
     0
  0
VISUALSTYLE
  5
65CE
102
{ACAD_XDICTIONARY
360
6635
102
}
102
{ACAD_REACTORS
330
65BE
102
}
330
65BE
100
AcDbVisualStyle
  2
ColorChange
 70
    16
 71
     2
 72
     2
 73
     3
 90
        0
 40
-0.6
 41
-30.0
 62
     5
 63
     8
 74
     1
 91
        4
 64
     7
 65
   257
 75
     1
175
     1
 42
1.0
 92
        8
 66
     8
 43
1.0
 76
     1
 77
     6
 78
     2
 67
     7
 79
     5
170
     0
171
     0
290
     0
174
     0
 93
        1
 44
0.0
173
     0
291
     1
 45
0.0
1001
ACAD
1000
AcDbSavedByObjectVersion
1070
     0
  0
VISUALSTYLE
  5
65C7
102
{ACAD_XDICTIONARY
360
6627
102
}
102
{ACAD_REACTORS
330
65BE
102
}
330
65BE
100
AcDbVisualStyle
  2
Conceptual
 70
     9
 71
     3
 72
     2
 73
     0
 90
        0
 40
-0.6
 41
-30.0
 62
     5
 63
     7
 74
     2
 91
        2
 64
     7
 65
   257
 75
     1
175
     1
 42
179.0
 92
        8
 66
     7
 43
1.0
 76
     1
 77
     6
 78
     2
 67
     7
 79
     3
170
     0
171
     0
290
     0
174
     0
 93
        1
 44
0.0
173
     0
291
     0
 45
0.0
1001
ACAD
1000
AcDbSavedByObjectVersion
1070
     0
  0
VISUALSTYLE
  5
65C9
102
{ACAD_XDICTIONARY
360
662B
102
}
102
{ACAD_REACTORS
330
65BE
102
}
330
65BE
100
AcDbVisualStyle
  2
Dim
 70
    11
 71
     2
 72
     2
 73
     0
 90
        0
 40
-0.6
 41
-30.0
 62
     5
 63
     7
 74
     1
 91
        4
 64
     7
 65
   257
 75
     1
175
     1
 42
1.0
 92
        8
 66
     7
 43
1.0
 76
     1
 77
     6
 78
     2
 67
     7
 79
     5
170
     0
171
     0
290
     0
174
     0
 93
        1
 44
-50.0
173
     0
291
     1
 45
0.0
1001
ACAD
1000
AcDbSavedByObjectVersion
1070
     0
  0
VISUALSTYLE
  5
65D6
102
{ACAD_XDICTIONARY
360
6645
102
}
102
{ACAD_REACTORS
330
65BE
102
}
330
65BE
100
AcDbVisualStyle
  2
EdgeColorOff
 70
    22
 71
     2
 72
     2
 73
     0
 90
        0
 40
-0.6
 41
-30.0
 62
     5
 63
     7
 74
     1
 91
        4
 64
     7
 65
   257
 75
     1
175
     1
 42
1.0
 92
        8
 66
     7
 43
1.0
 76
     1
 77
     6
 78
     2
 67
     7
 79
     5
170
     0
171
     0
290
     0
174
     0
 93
        1
 44
0.0
173
     0
291
     1
 45
0.0
1001
ACAD
1000
AcDbSavedByObjectVersion
1070
     0
  0
VISUALSTYLE
  5
65CD
102
{ACAD_XDICTIONARY
360
6633
102
}
102
{ACAD_REACTORS
330
65BE
102
}
330
65BE
100
AcDbVisualStyle
  2
Facepattern
 70
    15
 71
     2
 72
     2
 73
     0
 90
        0
 40
-0.6
 41
-30.0
 62
     5
 63
     7
 74
     1
 91
        4
 64
     7
 65
   257
 75
     1
175
     1
 42
1.0
 92
        8
 66
     7
 43
1.0
 76
     1
 77
     6
 78
     2
 67
     7
 79
     5
170
     0
171
     0
290
     0
174
     0
 93
        1
 44
0.0
173
     0
291
     1
 45
0.0
1001
ACAD
1000
AcDbSavedByObjectVersion
1070
     0
  0
VISUALSTYLE
  5
65BF
102
{ACAD_XDICTIONARY
360
6617
102
}
102
{ACAD_REACTORS
330
65BE
102
}
330
65BE
100
AcDbVisualStyle
  2
Flat
 70
     0
 71
     2
 72
     1
 73
     1
 90
        2
 40
-0.6
 41
30.0
 62
     5
 63
     7
 74
     0
 91
        0
 64
     7
 65
   257
 75
     1
175
     1
 42
1.0
 92
        8
 66
     7
 43
1.0
 76
     1
 77
     6
 78
     2
 67
     7
 79
     5
170
     0
171
     0
290
     0
174
     0
 93
       13
 44
0.0
173
     0
291
     1
 45
0.0
1001
ACAD
1000
AcDbSavedByObjectVersion
1070
     0
  0
VISUALSTYLE
  5
65C0
102
{ACAD_XDICTIONARY
360
6619
102
}
102
{ACAD_REACTORS
330
65BE
102
}
330
65BE
100
AcDbVisualStyle
  2
FlatWithEdges
 70
     1
 71
     2
 72
     1
 73
     1
 90
        2
 40
-0.6
 41
30.0
 62
     5
 63
     7
 74
     1
 91
        0
 64
     7
 65
   257
 75
     1
175
     1
 42
1.0
 92
        0
 66
   257
 43
1.0
 76
     1
 77
     6
 78
     2
 67
     7
 79
     5
170
     0
171
     0
290
     0
174
     0
 93
       13
 44
0.0
173
     0
291
     1
 45
0.0
1001
ACAD
1000
AcDbSavedByObjectVersion
1070
     0
  0
VISUALSTYLE
  5
65C1
102
{ACAD_XDICTIONARY
360
661B
102
}
102
{ACAD_REACTORS
330
65BE
102
}
330
65BE
100
AcDbVisualStyle
  2
Gouraud
 70
     2
 71
     2
 72
     2
 73
     1
 90
        2
 40
-0.6
 41
30.0
 62
     5
 63
     7
 74
     0
 91
        0
 64
     7
 65
   257
 75
     1
175
     1
 42
1.0
 92
        0
 66
     7
 43
1.0
 76
     1
 77
     6
 78
     2
 67
     7
 79
     5
170
     0
171
     0
290
     0
174
     0
 93
       13
 44
0.0
173
     0
291
     1
 45
0.0
1001
ACAD
1000
AcDbSavedByObjectVersion
1070
     0
  0
VISUALSTYLE
  5
65C2
102
{ACAD_XDICTIONARY
360
661D
102
}
102
{ACAD_REACTORS
330
65BE
102
}
330
65BE
100
AcDbVisualStyle
  2
GouraudWithEdges
 70
     3
 71
     2
 72
     2
 73
     1
 90
        2
 40
-0.6
 41
30.0
 62
     5
 63
     7
 74
     1
 91
        0
 64
     7
 65
   257
 75
     1
175
     1
 42
1.0
 92
        0
 66
   257
 43
1.0
 76
     1
 77
     6
 78
     2
 67
     7
 79
     5
170
     0
171
     0
290
     0
174
     0
 93
       13
 44
0.0
173
     0
291
     1
 45
0.0
1001
ACAD
1000
AcDbSavedByObjectVersion
1070
     0
  0
VISUALSTYLE
  5
65C6
102
{ACAD_XDICTIONARY
360
6625
102
}
102
{ACAD_REACTORS
330
65BE
102
}
330
65BE
100
AcDbVisualStyle
  2
Hidden
 70
     6
 71
     1
 72
     2
 73
     2
 90
        0
 40
-0.6
 41
-30.0
 62
     5
 63
     7
 74
     2
 91
        2
 64
     7
 65
   257
 75
     2
175
     1
 42
40.0
 92
        0
 66
   257
 43
1.0
 76
     1
 77
     6
 78
     2
 67
     7
 79
     3
170
     0
171
     0
290
     0
174
     0
 93
        1
 44
0.0
173
     0
291
     0
 45
0.0
1001
ACAD
1000
AcDbSavedByObjectVersion
1070
     0
  0
VISUALSTYLE
  5
65D4
102
{ACAD_XDICTIONARY
360
6641
102
}
102
{ACAD_REACTORS
330
65BE
102
}
330
65BE
100
AcDbVisualStyle
  2
JitterOff
 70
    20
 71
     2
 72
     2
 73
     0
 90
        0
 40
-0.6
 41
-30.0
 62
     5
 63
     7
 74
     1
 91
        4
 64
     7
 65
   257
 75
     1
175
     1
 42
1.0
 92
       10
 66
     7
 43
1.0
 76
     1
 77
     6
 78
     2
 67
     7
 79
     5
170
     0
171
     0
290
     0
174
     0
 93
        1
 44
0.0
173
     0
291
     1
 45
0.0
1001
ACAD
1000
AcDbSavedByObjectVersion
1070
     0
  0
VISUALSTYLE
  5
65CC
102
{ACAD_XDICTIONARY
360
6631
102
}
102
{ACAD_REACTORS
330
65BE
102
}
330
65BE
100
AcDbVisualStyle
  2
Linepattern
 70
    14
 71
     2
 72
     2
 73
     0
 90
        0
 40
-0.6
 41
-30.0
 62
     5
 63
     7
 74
     1
 91
        4
 64
     7
 65
   257
 75
     7
175
     7
 42
1.0
 92
        8
 66
     7
 43
1.0
 76
     1
 77
     6
 78
     2
 67
     7
 79
     5
170
     0
171
     0
290
     0
174
     0
 93
        1
 44
0.0
173
     0
291
     1
 45
0.0
1001
ACAD
1000
AcDbSavedByObjectVersion
1070
     0
  0
VISUALSTYLE
  5
65D5
102
{ACAD_XDICTIONARY
360
6643
102
}
102
{ACAD_REACTORS
330
65BE
102
}
330
65BE
100
AcDbVisualStyle
  2
OverhangOff
 70
    21
 71
     2
 72
     2
 73
     0
 90
        0
 40
-0.6
 41
-30.0
 62
     5
 63
     7
 74
     1
 91
        4
 64
     7
 65
   257
 75
     1
175
     1
 42
1.0
 92
        9
 66
     7
 43
1.0
 76
     1
 77
     6
 78
     2
 67
     7
 79
     5
170
     0
171
     0
290
     0
174
     0
 93
        1
 44
0.0
173
     0
291
     1
 45
0.0
1001
ACAD
1000
AcDbSavedByObjectVersion
1070
     0
  0
VISUALSTYLE
  5
65C8
102
{ACAD_XDICTIONARY
360
6629
102
}
102
{ACAD_REACTORS
330
65BE
102
}
330
65BE
100
AcDbVisualStyle
  2
Realistic
 70
     8
 71
     2
 72
     3
 73
     0
 90
        2
 40
-0.6
 41
30.0
 62
     5
 63
     7
 74
     0
 91
        0
 64
     7
 65
   257
 75
     1
175
     1
 42
1.0
 92
        8
 66
   257
 43
1.0
 76
     1
 77
     6
 78
     2
 67
     7
 79
     3
170
     0
171
     0
290
     0
174
     0
 93
       13
 44
0.0
173
     0
291
     0
 45
0.0
1001
ACAD
1000
AcDbSavedByObjectVersion
1070
     0
  0
VISUALSTYLE
  5
65D3
102
{ACAD_XDICTIONARY
360
663F
102
}
102
{ACAD_REACTORS
330
65BE
102
}
330
65BE
100
AcDbVisualStyle
  2
Shaded
 70
    27
 71
     2
 72
     2
 73
     1
 90
        2
 40
-0.6
 41
30.0
 62
     5
 63
     7
 74
     0
 91
        4
 64
     7
 65
   257
 75
     1
175
     1
 42
1.0
 92
        8
 66
   257
 43
1.0
 76
     1
 77
     6
 78
     2
 67
     8
 79
     3
170
     0
171
     0
290
     0
174
     0
 93
        5
 44
0.0
173
     0
291
     0
 45
0.0
1001
ACAD
1000
AcDbSavedByObjectVersion
1070
     0
  0
VISUALSTYLE
  5
65D2
102
{ACAD_XDICTIONARY
360
663D
102
}
102
{ACAD_REACTORS
330
65BE
102
}
330
65BE
100
AcDbVisualStyle
  2
Shaded with edges
 70
    26
 71
     2
 72
     2
 73
     1
 90
        2
 40
-0.6
 41
30.0
 62
     5
 63
     7
 74
     1
 91
       10
 64
     7
 65
   257
 75
     2
175
     1
 42
1.0
 92
        8
 66
   257
 43
1.0
 76
     1
 77
     6
 78
     2
 67
     7
 79
     3
170
     0
171
     0
290
     0
174
     0
 93
        5
 44
0.0
173
     0
291
     0
 45
0.0
1001
ACAD
1000
AcDbSavedByObjectVersion
1070
     0
  0
VISUALSTYLE
  5
65CF
102
{ACAD_XDICTIONARY
360
6637
102
}
102
{ACAD_REACTORS
330
65BE
102
}
330
65BE
100
AcDbVisualStyle
  2
Shades of Gray
 70
    23
 71
     2
 72
     2
 73
     3
 90
        0
 40
-0.6
 41
-30.0
 62
     5
 63
     7
 74
     2
 91
        2
 64
     7
 65
     7
 75
     1
175
     1
 42
40.0
 92
        8
 66
     7
 43
1.0
 76
     1
 77
     6
 78
     2
 67
     7
 79
     3
170
     0
171
     0
290
     0
174
     0
 93
        1
 44
0.0
173
     0
291
     0
 45
0.0
1001
ACAD
1000
AcDbSavedByObjectVersion
1070
     0
  0
VISUALSTYLE
  5
65D0
102
{ACAD_XDICTIONARY
360
6639
102
}
102
{ACAD_REACTORS
330
65BE
102
}
330
65BE
100
AcDbVisualStyle
  2
Sketchy
 70
    24
 71
     1
 72
     2
 73
     2
 90
        0
 40
-0.6
 41
-30.0
 62
     5
 63
     7
 74
     2
 91
        2
 64
     7
 65
     7
 75
     1
175
     1
 42
40.0
 92
       11
 66
     7
 43
1.0
 76
     1
 77
     6
 78
     2
 67
     7
 79
     6
170
     0
171
     0
290
     0
174
     0
 93
        1
 44
0.0
173
     0
291
     0
 45
0.0
1001
ACAD
1000
AcDbSavedByObjectVersion
1070
     0
  0
VISUALSTYLE
  5
65CB
102
{ACAD_XDICTIONARY
360
662F
102
}
102
{ACAD_REACTORS
330
65BE
102
}
330
65BE
100
AcDbVisualStyle
  2
Thicken
 70
    13
 71
     2
 72
     2
 73
     0
 90
        0
 40
-0.6
 41
-30.0
 62
     5
 63
     7
 74
     1
 91
        4
 64
     7
 65
   257
 75
     1
175
     1
 42
1.0
 92
       12
 66
     7
 43
1.0
 76
     1
 77
     6
 78
     2
 67
     7
 79
     5
170
     0
171
     0
290
     0
174
     0
 93
        1
 44
0.0
173
     0
291
     1
 45
0.0
1001
ACAD
1000
AcDbSavedByObjectVersion
1070
     0
  0
VISUALSTYLE
  5
65C5
102
{ACAD_XDICTIONARY
360
6623
102
}
102
{ACAD_REACTORS
330
65BE
102
}
330
65BE
100
AcDbVisualStyle
  2
Wireframe
 70
     5
 71
     0
 72
     2
 73
     0
 90
        0
 40
-0.6
 41
-30.0
 62
     5
 63
     7
 74
     1
 91
        4
 64
     7
 65
   257
 75
     1
175
     1
 42
1.0
 92
        0
 66
   257
 43
1.0
 76
     1
 77
     6
 78
     2
 67
     7
 79
     3
170
     0
171
     0
290
     0
174
     0
 93
        1
 44
0.0
173
     0
291
     0
 45
0.0
1001
ACAD
1000
AcDbSavedByObjectVersion
1070
     0
  0
VISUALSTYLE
  5
65D1
102
{ACAD_XDICTIONARY
360
663B
102
}
102
{ACAD_REACTORS
330
65BE
102
}
330
65BE
100
AcDbVisualStyle
  2
X-Ray
 70
    25
 71
     2
 72
     2
 73
     1
 90
        1
 40
0.5
 41
-30.0
 62
     5
 63
     7
 74
     1
 91
        0
 64
     7
 65
   257
 75
     1
175
     1
 42
1.0
 92
        8
 66
     7
 43
1.0
 76
     1
 77
     6
 78
     2
 67
     7
 79
     3
170
     0
171
     0
290
     0
174
     0
 93
       13
 44
0.0
173
     0
291
     0
 45
0.0
1001
ACAD
1000
AcDbSavedByObjectVersion
1070
     0
  0
DICTIONARYVAR
  5
660A
102
{ACAD_REACTORS
330
6605
102
}
330
6605
100
DictionaryVariables
280
     0
  1
1:1
  0
DICTIONARYVAR
  5
6607
102
{ACAD_REACTORS
330
6605
102
}
330
6605
100
DictionaryVariables
280
     0
  1
STANDARD
  0
DICTIONARYVAR
  5
6606
102
{ACAD_REACTORS
330
6605
102
}
330
6605
100
DictionaryVariables
280
     0
  1
STANDARD
  0
DICTIONARYVAR
  5
6608
102
{ACAD_REACTORS
330
6605
102
}
330
6605
100
DictionaryVariables
280
     0
  1
Imperial24
  0
DICTIONARYVAR
  5
6609
102
{ACAD_REACTORS
330
6605
102
}
330
6605
100
DictionaryVariables
280
     0
  1
Imperial24
  0
DICTIONARYVAR
  5
660D
102
{ACAD_REACTORS
330
6605
102
}
330
6605
100
DictionaryVariables
280
     0
  1
1
  0
DICTIONARYVAR
  5
660C
102
{ACAD_REACTORS
330
6605
102
}
330
6605
100
DictionaryVariables
280
     0
  1
0
  0
DICTIONARYVAR
  5
660B
102
{ACAD_REACTORS
330
6605
102
}
330
6605
100
DictionaryVariables
280
     0
  1
127
  0
DICTIONARYVAR
  5
660E
102
{ACAD_REACTORS
330
6605
102
}
330
6605
100
DictionaryVariables
280
     0
  1
2
  0
DICTIONARY
  5
664B
330
65F1
100
AcDbDictionary
280
     1
281
     1
  3
ACAD_XREC_ROUNDTRIP
360
664C
  0
DICTIONARY
  5
664D
330
65F2
100
AcDbDictionary
280
     1
281
     1
  3
ACAD_XREC_ROUNDTRIP
360
664E
  0
DICTIONARY
  5
664F
330
65F3
100
AcDbDictionary
280
     1
281
     1
  3
ACAD_XREC_ROUNDTRIP
360
6650
  0
DICTIONARY
  5
65AF
330
65AE
100
AcDbDictionary
280
     1
281
     1
  3
ACAD_XREC_ROUNDTRIP
360
6615
  3
BUMPTILE
360
65B1
  3
DIFFUSETILE
360
65B0
  3
OPACITYTILE
360
65B4
  3
REFLECTIONTILE
360
65B3
  3
REFRACTIONTILE
360
65B5
  3
SPECULARTILE
360
65B2
  0
DICTIONARY
  5
65A7
330
65A6
100
AcDbDictionary
280
     1
281
     1
  3
ACAD_XREC_ROUNDTRIP
360
6614
  3
BUMPTILE
360
65A9
  3
DIFFUSETILE
360
65A8
  3
OPACITYTILE
360
65AC
  3
REFLECTIONTILE
360
65AB
  3
REFRACTIONTILE
360
65AD
  3
SPECULARTILE
360
65AA
  0
DICTIONARY
  5
65B7
330
65B6
100
AcDbDictionary
280
     1
281
     1
  3
ACAD_XREC_ROUNDTRIP
360
6616
  3
BUMPTILE
360
65B9
  3
DIFFUSETILE
360
65B8
  3
OPACITYTILE
360
65BC
  3
REFLECTIONTILE
360
65BB
  3
REFRACTIONTILE
360
65BD
  3
SPECULARTILE
360
65BA
  0
DICTIONARY
  5
6649
330
65EF
100
AcDbDictionary
280
     1
281
     1
  3
ACAD_XREC_ROUNDTRIP
360
664A
  0
DICTIONARY
  5
6610
330
65D9
100
AcDbDictionary
280
     1
281
     1
  3
ACAD_ROUNDTRIP_2008_TABLESTYLE_CELLSTYLEMAP
360
6611
  3
ACAD_XREC_ROUNDTRIP
360
6647
  0
DICTIONARY
  5
6621
330
65C4
100
AcDbDictionary
280
     1
281
     1
  3
ACAD_XREC_ROUNDTRIP
360
6622
  0
DICTIONARY
  5
661F
330
65C3
100
AcDbDictionary
280
     1
281
     1
  3
ACAD_XREC_ROUNDTRIP
360
6620
  0
DICTIONARY
  5
662D
330
65CA
100
AcDbDictionary
280
     1
281
     1
  3
ACAD_XREC_ROUNDTRIP
360
662E
  0
DICTIONARY
  5
6635
330
65CE
100
AcDbDictionary
280
     1
281
     1
  3
ACAD_XREC_ROUNDTRIP
360
6636
  0
DICTIONARY
  5
6627
330
65C7
100
AcDbDictionary
280
     1
281
     1
  3
ACAD_XREC_ROUNDTRIP
360
6628
  0
DICTIONARY
  5
662B
330
65C9
100
AcDbDictionary
280
     1
281
     1
  3
ACAD_XREC_ROUNDTRIP
360
662C
  0
DICTIONARY
  5
6645
330
65D6
100
AcDbDictionary
280
     1
281
     1
  3
ACAD_XREC_ROUNDTRIP
360
6646
  0
DICTIONARY
  5
6633
330
65CD
100
AcDbDictionary
280
     1
281
     1
  3
ACAD_XREC_ROUNDTRIP
360
6634
  0
DICTIONARY
  5
6617
330
65BF
100
AcDbDictionary
280
     1
281
     1
  3
ACAD_XREC_ROUNDTRIP
360
6618
  0
DICTIONARY
  5
6619
330
65C0
100
AcDbDictionary
280
     1
281
     1
  3
ACAD_XREC_ROUNDTRIP
360
661A
  0
DICTIONARY
  5
661B
330
65C1
100
AcDbDictionary
280
     1
281
     1
  3
ACAD_XREC_ROUNDTRIP
360
661C
  0
DICTIONARY
  5
661D
330
65C2
100
AcDbDictionary
280
     1
281
     1
  3
ACAD_XREC_ROUNDTRIP
360
661E
  0
DICTIONARY
  5
6625
330
65C6
100
AcDbDictionary
280
     1
281
     1
  3
ACAD_XREC_ROUNDTRIP
360
6626
  0
DICTIONARY
  5
6641
330
65D4
100
AcDbDictionary
280
     1
281
     1
  3
ACAD_XREC_ROUNDTRIP
360
6642
  0
DICTIONARY
  5
6631
330
65CC
100
AcDbDictionary
280
     1
281
     1
  3
ACAD_XREC_ROUNDTRIP
360
6632
  0
DICTIONARY
  5
6643
330
65D5
100
AcDbDictionary
280
     1
281
     1
  3
ACAD_XREC_ROUNDTRIP
360
6644
  0
DICTIONARY
  5
6629
330
65C8
100
AcDbDictionary
280
     1
281
     1
  3
ACAD_XREC_ROUNDTRIP
360
662A
  0
DICTIONARY
  5
663F
330
65D3
100
AcDbDictionary
280
     1
281
     1
  3
ACAD_XREC_ROUNDTRIP
360
6640
  0
DICTIONARY
  5
663D
330
65D2
100
AcDbDictionary
280
     1
281
     1
  3
ACAD_XREC_ROUNDTRIP
360
663E
  0
DICTIONARY
  5
6637
330
65CF
100
AcDbDictionary
280
     1
281
     1
  3
ACAD_XREC_ROUNDTRIP
360
6638
  0
DICTIONARY
  5
6639
330
65D0
100
AcDbDictionary
280
     1
281
     1
  3
ACAD_XREC_ROUNDTRIP
360
663A
  0
DICTIONARY
  5
662F
330
65CB
100
AcDbDictionary
280
     1
281
     1
  3
ACAD_XREC_ROUNDTRIP
360
6630
  0
DICTIONARY
  5
6623
330
65C5
100
AcDbDictionary
280
     1
281
     1
  3
ACAD_XREC_ROUNDTRIP
360
6624
  0
DICTIONARY
  5
663B
330
65D1
100
AcDbDictionary
280
     1
281
     1
  3
ACAD_XREC_ROUNDTRIP
360
663C
  0
XRECORD
  5
664C
102
{ACAD_REACTORS
330
664B
102
}
330
664B
100
AcDbXrecord
280
     1
102
DISPLAYNAME
  1
Imperial24
102
FLAGS
 90
        0
  0
XRECORD
  5
664E
102
{ACAD_REACTORS
330
664D
102
}
330
664D
100
AcDbXrecord
280
     1
102
SHADEPLOT
 70
     0
102
SHADEPLOTRESLEVEL
 70
     2
102
SHADEPLOTCUSTOMDPI
 70
   300
  0
XRECORD
  5
6650
102
{ACAD_REACTORS
330
664F
102
}
330
664F
100
AcDbXrecord
280
     1
102
SHADEPLOT
 70
     0
102
SHADEPLOTRESLEVEL
 70
     2
102
SHADEPLOTCUSTOMDPI
 70
   300
  0
XRECORD
  5
6615
102
{ACAD_REACTORS
330
65AF
102
}
330
65AF
100
AcDbXrecord
280
     1
102
MATERIAL
148
0.0
149
0.0
149
0.0
 93
        0
 94
      127
282
     0
 72
     0
 77
     0
171
     0
175
     0
179
     0
273
     0
  0
XRECORD
  5
65B1
102
{ACAD_REACTORS
330
65AF
102
}
330
65AF
100
AcDbXrecord
280
     1
270
     1
271
     1
  0
XRECORD
  5
65B0
102
{ACAD_REACTORS
330
65AF
102
}
330
65AF
100
AcDbXrecord
280
     1
270
     1
271
     1
  0
XRECORD
  5
65B4
102
{ACAD_REACTORS
330
65AF
102
}
330
65AF
100
AcDbXrecord
280
     1
270
     1
271
     1
  0
XRECORD
  5
65B3
102
{ACAD_REACTORS
330
65AF
102
}
330
65AF
100
AcDbXrecord
280
     1
270
     1
271
     1
  0
XRECORD
  5
65B5
102
{ACAD_REACTORS
330
65AF
102
}
330
65AF
100
AcDbXrecord
280
     1
270
     1
271
     1
  0
XRECORD
  5
65B2
102
{ACAD_REACTORS
330
65AF
102
}
330
65AF
100
AcDbXrecord
280
     1
270
     1
271
     1
  0
XRECORD
  5
6614
102
{ACAD_REACTORS
330
65A7
102
}
330
65A7
100
AcDbXrecord
280
     1
102
MATERIAL
148
0.0
149
0.0
149
0.0
 93
        0
 94
      127
282
     0
 72
     0
 77
     0
171
     0
175
     0
179
     0
273
     0
  0
XRECORD
  5
65A9
102
{ACAD_REACTORS
330
65A7
102
}
330
65A7
100
AcDbXrecord
280
     1
270
     1
271
     1
  0
XRECORD
  5
65A8
102
{ACAD_REACTORS
330
65A7
102
}
330
65A7
100
AcDbXrecord
280
     1
270
     1
271
     1
  0
XRECORD
  5
65AC
102
{ACAD_REACTORS
330
65A7
102
}
330
65A7
100
AcDbXrecord
280
     1
270
     1
271
     1
  0
XRECORD
  5
65AB
102
{ACAD_REACTORS
330
65A7
102
}
330
65A7
100
AcDbXrecord
280
     1
270
     1
271
     1
  0
XRECORD
  5
65AD
102
{ACAD_REACTORS
330
65A7
102
}
330
65A7
100
AcDbXrecord
280
     1
270
     1
271
     1
  0
XRECORD
  5
65AA
102
{ACAD_REACTORS
330
65A7
102
}
330
65A7
100
AcDbXrecord
280
     1
270
     1
271
     1
  0
XRECORD
  5
6616
102
{ACAD_REACTORS
330
65B7
102
}
330
65B7
100
AcDbXrecord
280
     1
102
MATERIAL
148
0.0
149
0.0
149
0.0
 93
        0
 94
      127
282
     0
 72
     0
 77
     0
171
     0
175
     0
179
     0
273
     0
  0
XRECORD
  5
65B9
102
{ACAD_REACTORS
330
65B7
102
}
330
65B7
100
AcDbXrecord
280
     1
270
     1
271
     1
  0
XRECORD
  5
65B8
102
{ACAD_REACTORS
330
65B7
102
}
330
65B7
100
AcDbXrecord
280
     1
270
     1
271
     1
  0
XRECORD
  5
65BC
102
{ACAD_REACTORS
330
65B7
102
}
330
65B7
100
AcDbXrecord
280
     1
270
     1
271
     1
  0
XRECORD
  5
65BB
102
{ACAD_REACTORS
330
65B7
102
}
330
65B7
100
AcDbXrecord
280
     1
270
     1
271
     1
  0
XRECORD
  5
65BD
102
{ACAD_REACTORS
330
65B7
102
}
330
65B7
100
AcDbXrecord
280
     1
270
     1
271
     1
  0
XRECORD
  5
65BA
102
{ACAD_REACTORS
330
65B7
102
}
330
65B7
100
AcDbXrecord
280
     1
270
     1
271
     1
  0
XRECORD
  5
664A
102
{ACAD_REACTORS
330
6649
102
}
330
6649
100
AcDbXrecord
280
     1
102
DISPLAYNAME
  1
Imperial24
102
FLAGS
 90
        0
  0
CELLSTYLEMAP
  5
6611
102
{ACAD_REACTORS
330
6610
102
}
330
6610
100
AcDbCellStyleMap
 90
        3
300
CELLSTYLE
  1
TABLEFORMAT_BEGIN
 90
        5
170
     1
 91
        0
 92
    32768
 62
   257
 93
        1
300
CONTENTFORMAT
  1
CONTENTFORMAT_BEGIN
 90
        0
 91
        0
 92
      512
 93
        0
300

 40
0.0
140
1.0
 94
        5
 62
     0
340
F
144
0.25
309
CONTENTFORMAT_END
171
     0
 94
        0
309
TABLEFORMAT_END
  1
CELLSTYLE_BEGIN
 90
        1
 91
        1
300
_TITLE
309
CELLSTYLE_END
300
CELLSTYLE
  1
TABLEFORMAT_BEGIN
 90
        5
170
     1
 91
        0
 92
        0
 62
   257
 93
        1
300
CONTENTFORMAT
  1
CONTENTFORMAT_BEGIN
 90
        0
 91
        0
 92
      512
 93
        0
300

 40
0.0
140
1.0
 94
        5
 62
     0
340
F
144
0.18
309
CONTENTFORMAT_END
171
     0
 94
        0
309
TABLEFORMAT_END
  1
CELLSTYLE_BEGIN
 90
        2
 91
        1
300
_HEADER
309
CELLSTYLE_END
300
CELLSTYLE
  1
TABLEFORMAT_BEGIN
 90
        5
170
     1
 91
        0
 92
        0
 62
   257
 93
        1
300
CONTENTFORMAT
  1
CONTENTFORMAT_BEGIN
 90
        0
 91
        0
 92
      512
 93
        0
300

 40
0.0
140
1.0
 94
        2
 62
     0
340
F
144
0.18
309
CONTENTFORMAT_END
171
     0
 94
        0
309
TABLEFORMAT_END
  1
CELLSTYLE_BEGIN
 90
        3
 91
        2
300
_DATA
309
CELLSTYLE_END
  0
XRECORD
  5
6647
102
{ACAD_REACTORS
330
6610
102
}
330
6610
100
AcDbXrecord
280
     1
102
ACAD_ROUNDTRIP_PRE2007_TABLESTYLE
 90
      512
 91
        0
  1

 92
      512
 93
        0
  2

 94
      512
 95
        0
  3

  0
XRECORD
  5
6622
102
{ACAD_REACTORS
330
6621
102
}
330
6621
100
AcDbXrecord
280
     1
102
RTVSPost2010Prop28
280
     1
102
RTVSPost2010PropOp28
 70
     1
102
RTVSPost2010Prop29
280
     1
102
RTVSPost2010PropOp29
 70
     1
102
RTVSPost2010Prop30
280
     0
102
RTVSPost2010PropOp30
 70
     1
102
RTVSPost2010Prop31
280
     0
102
RTVSPost2010PropOp31
 70
     1
102
RTVSPost2010Prop32
280
     0
102
RTVSPost2010PropOp32
 70
     1
102
RTVSPost2010Prop33
280
     0
102
RTVSPost2010PropOp33
 70
     1
102
RTVSPost2010Prop34
280
     0
102
RTVSPost2010PropOp34
 70
     1
102
RTVSPost2010Prop35
280
     0
102
RTVSPost2010PropOp35
 70
     1
102
RTVSPost2010Prop36
280
     0
102
RTVSPost2010PropOp36
 70
     1
102
RTVSPost2010Prop37
 90
       50
102
RTVSPost2010PropOp37
 70
     1
102
RTVSPost2010Prop38
140
0.0
102
RTVSPost2010PropOp38
 70
     1
102
RTVSPost2010Prop39
140
1.0
102
RTVSPost2010PropOp39
 70
     1
102
RTVSPost2010Prop40
 90
        0
102
RTVSPost2010PropOp40
 70
     1
102
RTVSPost2010Prop41ColorIndex
 90
       18
102
RTVSPost2010Prop41ColorRGB
 90
        0
102
RTVSPost2010PropOp41
 70
     1
102
RTVSPost2010Prop42
 90
       50
102
RTVSPost2010PropOp42
 70
     1
102
RTVSPost2010Prop43
 90
        3
102
RTVSPost2010PropOp43
 70
     1
102
RTVSPost2010Prop44ColorIndex
 90
        5
102
RTVSPost2010Prop44ColorRGB
 90
      255
102
RTVSPost2010PropOp44
 70
     1
102
RTVSPost2010Prop45
280
     0
102
RTVSPost2010PropOp45
 70
     1
102
RTVSPost2010Prop46
 90
       50
102
RTVSPost2010PropOp46
 70
     1
102
RTVSPost2010Prop47
 90
       50
102
RTVSPost2010PropOp47
 70
     1
102
RTVSPost2010Prop48
 90
       50
102
RTVSPost2010PropOp48
 70
     1
102
RTVSPost2010Prop49
280
     0
102
RTVSPost2010PropOp49
 70
     1
102
RTVSPost2010Prop50
 90
       50
102
RTVSPost2010PropOp50
 70
     1
102
RTVSPost2010Prop51ColorIndex
 90
      256
102
RTVSPost2010Prop51ColorRGB
 90
-16777216
102
RTVSPost2010PropOp51
 70
     0
102
RTVSPost2010Prop52
140
1.0
102
RTVSPost2010PropOp52
 70
     0
102
RTVSPost2010Prop53
 90
        2
102
RTVSPost2010PropOp53
 70
     1
102
RTVSPost2010Prop54
  1
strokes_ogs.tif
102
RTVSPost2010PropOp54
 70
     1
102
RTVSPost2010Prop55
280
     0
102
RTVSPost2010PropOp55
 70
     1
102
RTVSPost2010Prop56
140
1.0
102
RTVSPost2010PropOp56
 70
     1
102
RTVSPost2010Prop57
140
1.0
102
RTVSPost2010PropOp57
 70
     1
102
RTVSPropertyOp0
 70
     1
102
RTVSPropertyOp1
 70
     1
102
RTVSPropertyOp2
 70
     1
102
RTVSPropertyOp3
 70
     1
102
RTVSPropertyOp4
 70
     1
102
RTVSPropertyOp5
 70
     1
102
RTVSPropertyOp6
 70
     1
102
RTVSPropertyOp7
 70
     1
102
RTVSPropertyOp8
 70
     1
102
RTVSPropertyOp9
 70
     1
102
RTVSPropertyOp10
 70
     1
102
RTVSPropertyOp11
 70
     1
102
RTVSPropertyOp12
 70
     1
102
RTVSPropertyOp13
 70
     1
102
RTVSPropertyOp14
 70
     1
102
RTVSPropertyOp15
 70
     1
102
RTVSPropertyOp16
 70
     1
102
RTVSPropertyOp17
 70
     1
102
RTVSPropertyOp18
 70
     1
102
RTVSPropertyOp19
 70
     1
102
RTVSPropertyOp20
 70
     1
102
RTVSPropertyOp21
 70
     1
102
RTVSPropertyOp22
 70
     1
102
RTVSPropertyOp23
 70
     1
102
RTVSPropertyOp24
 70
     1
102
RTVSPropertyOp25
 70
     1
102
RTVSPropertyOp26
 70
     1
102
RTVSPropertyOp27
 70
     1
102
RTVSPropertyOp28
 70
     1
102
RTVSPropertyOp29
 70
     1
102
RTVSPropertyOp30
 70
     1
102
RTVSPropertyOp31
 70
     1
102
RTVSPropertyOp32
 70
     1
102
RTVSPropertyOp33
 70
     1
102
RTVSPropertyOp34
 70
     1
102
RTVSPropertyOp35
 70
     1
102
RTVSPropertyOp36
 70
     1
102
RTVSPropertyOp37
 70
     1
102
RTVSPropertyOp38
 70
     1
102
RTVSPropertyOp39
 70
     1
102
RTVSPropertyOp40
 70
     1
102
RTVSPropertyOp41
 70
     1
102
RTVSPropertyOp42
 70
     1
102
RTVSPropertyOp43
 70
     1
102
RTVSPropertyOp44
 70
     1
102
RTVSPropertyOp45
 70
     1
102
RTVSPropertyOp46
 70
     1
102
RTVSPropertyOp47
 70
     1
102
RTVSPropertyOp48
 70
     1
102
RTVSPropertyOp49
 70
     1
102
RTVSPropertyOp50
 70
     1
102
RTVSPropertyOp51
 70
     0
102
RTVSPropertyOp52
 70
     0
102
RTVSPropertyOp53
 70
     1
102
RTVSPropertyOp54
 70
     1
102
RTVSPropertyOp55
 70
     1
102
RTVSPropertyOp56
 70
     1
102
RTVSPropertyOp57
 70
     1
102
RTVSPropertyOp58
 70
     1
102
RTVSPropertyOp59
 70
     1
102
RTVSPropertyOp60
 70
     1
102
RTVSPropertyOp61
 70
     1
102
RTVSPropertyOp62
 70
     1
  0
XRECORD
  5
6620
102
{ACAD_REACTORS
330
661F
102
}
330
661F
100
AcDbXrecord
280
     1
102
RTVSPost2010Prop28
280
     0
102
RTVSPost2010PropOp28
 70
     1
102
RTVSPost2010Prop29
280
     1
102
RTVSPost2010PropOp29
 70
     1
102
RTVSPost2010Prop30
280
     1
102
RTVSPost2010PropOp30
 70
     1
102
RTVSPost2010Prop31
280
     0
102
RTVSPost2010PropOp31
 70
     1
102
RTVSPost2010Prop32
280
     0
102
RTVSPost2010PropOp32
 70
     1
102
RTVSPost2010Prop33
280
     0
102
RTVSPost2010PropOp33
 70
     1
102
RTVSPost2010Prop34
280
     0
102
RTVSPost2010PropOp34
 70
     1
102
RTVSPost2010Prop35
280
     0
102
RTVSPost2010PropOp35
 70
     1
102
RTVSPost2010Prop36
280
     0
102
RTVSPost2010PropOp36
 70
     1
102
RTVSPost2010Prop37
 90
       50
102
RTVSPost2010PropOp37
 70
     1
102
RTVSPost2010Prop38
140
0.0
102
RTVSPost2010PropOp38
 70
     1
102
RTVSPost2010Prop39
140
1.0
102
RTVSPost2010PropOp39
 70
     1
102
RTVSPost2010Prop40
 90
        0
102
RTVSPost2010PropOp40
 70
     1
102
RTVSPost2010Prop41ColorIndex
 90
       18
102
RTVSPost2010Prop41ColorRGB
 90
        0
102
RTVSPost2010PropOp41
 70
     1
102
RTVSPost2010Prop42
 90
       50
102
RTVSPost2010PropOp42
 70
     1
102
RTVSPost2010Prop43
 90
        3
102
RTVSPost2010PropOp43
 70
     1
102
RTVSPost2010Prop44ColorIndex
 90
        5
102
RTVSPost2010Prop44ColorRGB
 90
      255
102
RTVSPost2010PropOp44
 70
     1
102
RTVSPost2010Prop45
280
     0
102
RTVSPost2010PropOp45
 70
     1
102
RTVSPost2010Prop46
 90
       50
102
RTVSPost2010PropOp46
 70
     1
102
RTVSPost2010Prop47
 90
       50
102
RTVSPost2010PropOp47
 70
     1
102
RTVSPost2010Prop48
 90
       50
102
RTVSPost2010PropOp48
 70
     1
102
RTVSPost2010Prop49
280
     0
102
RTVSPost2010PropOp49
 70
     1
102
RTVSPost2010Prop50
 90
       50
102
RTVSPost2010PropOp50
 70
     1
102
RTVSPost2010Prop51ColorIndex
 90
      256
102
RTVSPost2010Prop51ColorRGB
 90
-16777216
102
RTVSPost2010PropOp51
 70
     0
102
RTVSPost2010Prop52
140
1.0
102
RTVSPost2010PropOp52
 70
     0
102
RTVSPost2010Prop53
 90
        2
102
RTVSPost2010PropOp53
 70
     1
102
RTVSPost2010Prop54
  1
strokes_ogs.tif
102
RTVSPost2010PropOp54
 70
     1
102
RTVSPost2010Prop55
280
     0
102
RTVSPost2010PropOp55
 70
     1
102
RTVSPost2010Prop56
140
1.0
102
RTVSPost2010PropOp56
 70
     1
102
RTVSPost2010Prop57
140
1.0
102
RTVSPost2010PropOp57
 70
     1
102
RTVSPropertyOp0
 70
     1
102
RTVSPropertyOp1
 70
     1
102
RTVSPropertyOp2
 70
     1
102
RTVSPropertyOp3
 70
     1
102
RTVSPropertyOp4
 70
     1
102
RTVSPropertyOp5
 70
     1
102
RTVSPropertyOp6
 70
     1
102
RTVSPropertyOp7
 70
     1
102
RTVSPropertyOp8
 70
     1
102
RTVSPropertyOp9
 70
     1
102
RTVSPropertyOp10
 70
     1
102
RTVSPropertyOp11
 70
     1
102
RTVSPropertyOp12
 70
     1
102
RTVSPropertyOp13
 70
     1
102
RTVSPropertyOp14
 70
     1
102
RTVSPropertyOp15
 70
     1
102
RTVSPropertyOp16
 70
     1
102
RTVSPropertyOp17
 70
     1
102
RTVSPropertyOp18
 70
     1
102
RTVSPropertyOp19
 70
     1
102
RTVSPropertyOp20
 70
     1
102
RTVSPropertyOp21
 70
     1
102
RTVSPropertyOp22
 70
     1
102
RTVSPropertyOp23
 70
     1
102
RTVSPropertyOp24
 70
     1
102
RTVSPropertyOp25
 70
     1
102
RTVSPropertyOp26
 70
     1
102
RTVSPropertyOp27
 70
     1
102
RTVSPropertyOp28
 70
     1
102
RTVSPropertyOp29
 70
     1
102
RTVSPropertyOp30
 70
     1
102
RTVSPropertyOp31
 70
     1
102
RTVSPropertyOp32
 70
     1
102
RTVSPropertyOp33
 70
     1
102
RTVSPropertyOp34
 70
     1
102
RTVSPropertyOp35
 70
     1
102
RTVSPropertyOp36
 70
     1
102
RTVSPropertyOp37
 70
     1
102
RTVSPropertyOp38
 70
     1
102
RTVSPropertyOp39
 70
     1
102
RTVSPropertyOp40
 70
     1
102
RTVSPropertyOp41
 70
     1
102
RTVSPropertyOp42
 70
     1
102
RTVSPropertyOp43
 70
     1
102
RTVSPropertyOp44
 70
     1
102
RTVSPropertyOp45
 70
     1
102
RTVSPropertyOp46
 70
     1
102
RTVSPropertyOp47
 70
     1
102
RTVSPropertyOp48
 70
     1
102
RTVSPropertyOp49
 70
     1
102
RTVSPropertyOp50
 70
     1
102
RTVSPropertyOp51
 70
     0
102
RTVSPropertyOp52
 70
     0
102
RTVSPropertyOp53
 70
     1
102
RTVSPropertyOp54
 70
     1
102
RTVSPropertyOp55
 70
     1
102
RTVSPropertyOp56
 70
     1
102
RTVSPropertyOp57
 70
     1
102
RTVSPropertyOp58
 70
     1
102
RTVSPropertyOp59
 70
     1
102
RTVSPropertyOp60
 70
     1
102
RTVSPropertyOp61
 70
     1
102
RTVSPropertyOp62
 70
     1
  0
XRECORD
  5
662E
102
{ACAD_REACTORS
330
662D
102
}
330
662D
100
AcDbXrecord
280
     1
102
RTVSPost2010Prop28
280
     0
102
RTVSPost2010PropOp28
 70
     1
102
RTVSPost2010Prop29
280
     1
102
RTVSPost2010PropOp29
 70
     1
102
RTVSPost2010Prop30
280
     1
102
RTVSPost2010PropOp30
 70
     1
102
RTVSPost2010Prop31
280
     0
102
RTVSPost2010PropOp31
 70
     1
102
RTVSPost2010Prop32
280
     0
102
RTVSPost2010PropOp32
 70
     1
102
RTVSPost2010Prop33
280
     0
102
RTVSPost2010PropOp33
 70
     1
102
RTVSPost2010Prop34
280
     0
102
RTVSPost2010PropOp34
 70
     1
102
RTVSPost2010Prop35
280
     0
102
RTVSPost2010PropOp35
 70
     1
102
RTVSPost2010Prop36
280
     0
102
RTVSPost2010PropOp36
 70
     1
102
RTVSPost2010Prop37
 90
       50
102
RTVSPost2010PropOp37
 70
     1
102
RTVSPost2010Prop38
140
0.0
102
RTVSPost2010PropOp38
 70
     1
102
RTVSPost2010Prop39
140
1.0
102
RTVSPost2010PropOp39
 70
     1
102
RTVSPost2010Prop40
 90
        0
102
RTVSPost2010PropOp40
 70
     1
102
RTVSPost2010Prop41ColorIndex
 90
       18
102
RTVSPost2010Prop41ColorRGB
 90
        0
102
RTVSPost2010PropOp41
 70
     1
102
RTVSPost2010Prop42
 90
       50
102
RTVSPost2010PropOp42
 70
     1
102
RTVSPost2010Prop43
 90
        3
102
RTVSPost2010PropOp43
 70
     1
102
RTVSPost2010Prop44ColorIndex
 90
        5
102
RTVSPost2010Prop44ColorRGB
 90
      255
102
RTVSPost2010PropOp44
 70
     1
102
RTVSPost2010Prop45
280
     0
102
RTVSPost2010PropOp45
 70
     1
102
RTVSPost2010Prop46
 90
       50
102
RTVSPost2010PropOp46
 70
     1
102
RTVSPost2010Prop47
 90
       50
102
RTVSPost2010PropOp47
 70
     1
102
RTVSPost2010Prop48
 90
       50
102
RTVSPost2010PropOp48
 70
     1
102
RTVSPost2010Prop49
280
     0
102
RTVSPost2010PropOp49
 70
     1
102
RTVSPost2010Prop50
 90
       50
102
RTVSPost2010PropOp50
 70
     1
102
RTVSPost2010Prop51ColorIndex
 90
      256
102
RTVSPost2010Prop51ColorRGB
 90
-16777216
102
RTVSPost2010PropOp51
 70
     0
102
RTVSPost2010Prop52
140
1.0
102
RTVSPost2010PropOp52
 70
     0
102
RTVSPost2010Prop53
 90
        2
102
RTVSPost2010PropOp53
 70
     1
102
RTVSPost2010Prop54
  1
strokes_ogs.tif
102
RTVSPost2010PropOp54
 70
     1
102
RTVSPost2010Prop55
280
     0
102
RTVSPost2010PropOp55
 70
     1
102
RTVSPost2010Prop56
140
1.0
102
RTVSPost2010PropOp56
 70
     1
102
RTVSPost2010Prop57
140
1.0
102
RTVSPost2010PropOp57
 70
     1
102
RTVSPropertyOp0
 70
     1
102
RTVSPropertyOp1
 70
     1
102
RTVSPropertyOp2
 70
     1
102
RTVSPropertyOp3
 70
     1
102
RTVSPropertyOp4
 70
     1
102
RTVSPropertyOp5
 70
     1
102
RTVSPropertyOp6
 70
     1
102
RTVSPropertyOp7
 70
     1
102
RTVSPropertyOp8
 70
     1
102
RTVSPropertyOp9
 70
     1
102
RTVSPropertyOp10
 70
     1
102
RTVSPropertyOp11
 70
     1
102
RTVSPropertyOp12
 70
     1
102
RTVSPropertyOp13
 70
     1
102
RTVSPropertyOp14
 70
     1
102
RTVSPropertyOp15
 70
     1
102
RTVSPropertyOp16
 70
     1
102
RTVSPropertyOp17
 70
     1
102
RTVSPropertyOp18
 70
     1
102
RTVSPropertyOp19
 70
     1
102
RTVSPropertyOp20
 70
     1
102
RTVSPropertyOp21
 70
     1
102
RTVSPropertyOp22
 70
     1
102
RTVSPropertyOp23
 70
     1
102
RTVSPropertyOp24
 70
     1
102
RTVSPropertyOp25
 70
     1
102
RTVSPropertyOp26
 70
     1
102
RTVSPropertyOp27
 70
     1
102
RTVSPropertyOp28
 70
     1
102
RTVSPropertyOp29
 70
     1
102
RTVSPropertyOp30
 70
     1
102
RTVSPropertyOp31
 70
     1
102
RTVSPropertyOp32
 70
     1
102
RTVSPropertyOp33
 70
     1
102
RTVSPropertyOp34
 70
     1
102
RTVSPropertyOp35
 70
     1
102
RTVSPropertyOp36
 70
     1
102
RTVSPropertyOp37
 70
     1
102
RTVSPropertyOp38
 70
     1
102
RTVSPropertyOp39
 70
     1
102
RTVSPropertyOp40
 70
     1
102
RTVSPropertyOp41
 70
     1
102
RTVSPropertyOp42
 70
     1
102
RTVSPropertyOp43
 70
     1
102
RTVSPropertyOp44
 70
     1
102
RTVSPropertyOp45
 70
     1
102
RTVSPropertyOp46
 70
     1
102
RTVSPropertyOp47
 70
     1
102
RTVSPropertyOp48
 70
     1
102
RTVSPropertyOp49
 70
     1
102
RTVSPropertyOp50
 70
     1
102
RTVSPropertyOp51
 70
     0
102
RTVSPropertyOp52
 70
     0
102
RTVSPropertyOp53
 70
     1
102
RTVSPropertyOp54
 70
     1
102
RTVSPropertyOp55
 70
     1
102
RTVSPropertyOp56
 70
     1
102
RTVSPropertyOp57
 70
     1
102
RTVSPropertyOp58
 70
     1
102
RTVSPropertyOp59
 70
     1
102
RTVSPropertyOp60
 70
     1
102
RTVSPropertyOp61
 70
     1
102
RTVSPropertyOp62
 70
     1
  0
XRECORD
  5
6636
102
{ACAD_REACTORS
330
6635
102
}
330
6635
100
AcDbXrecord
280
     1
102
RTVSPost2010Prop28
280
     0
102
RTVSPost2010PropOp28
 70
     1
102
RTVSPost2010Prop29
280
     1
102
RTVSPost2010PropOp29
 70
     1
102
RTVSPost2010Prop30
280
     1
102
RTVSPost2010PropOp30
 70
     1
102
RTVSPost2010Prop31
280
     0
102
RTVSPost2010PropOp31
 70
     1
102
RTVSPost2010Prop32
280
     0
102
RTVSPost2010PropOp32
 70
     1
102
RTVSPost2010Prop33
280
     0
102
RTVSPost2010PropOp33
 70
     1
102
RTVSPost2010Prop34
280
     0
102
RTVSPost2010PropOp34
 70
     1
102
RTVSPost2010Prop35
280
     0
102
RTVSPost2010PropOp35
 70
     1
102
RTVSPost2010Prop36
280
     0
102
RTVSPost2010PropOp36
 70
     1
102
RTVSPost2010Prop37
 90
       50
102
RTVSPost2010PropOp37
 70
     1
102
RTVSPost2010Prop38
140
0.0
102
RTVSPost2010PropOp38
 70
     1
102
RTVSPost2010Prop39
140
1.0
102
RTVSPost2010PropOp39
 70
     1
102
RTVSPost2010Prop40
 90
        0
102
RTVSPost2010PropOp40
 70
     1
102
RTVSPost2010Prop41ColorIndex
 90
       18
102
RTVSPost2010Prop41ColorRGB
 90
        0
102
RTVSPost2010PropOp41
 70
     1
102
RTVSPost2010Prop42
 90
       50
102
RTVSPost2010PropOp42
 70
     1
102
RTVSPost2010Prop43
 90
        3
102
RTVSPost2010PropOp43
 70
     1
102
RTVSPost2010Prop44ColorIndex
 90
        5
102
RTVSPost2010Prop44ColorRGB
 90
      255
102
RTVSPost2010PropOp44
 70
     1
102
RTVSPost2010Prop45
280
     0
102
RTVSPost2010PropOp45
 70
     1
102
RTVSPost2010Prop46
 90
       50
102
RTVSPost2010PropOp46
 70
     1
102
RTVSPost2010Prop47
 90
       50
102
RTVSPost2010PropOp47
 70
     1
102
RTVSPost2010Prop48
 90
       50
102
RTVSPost2010PropOp48
 70
     1
102
RTVSPost2010Prop49
280
     0
102
RTVSPost2010PropOp49
 70
     1
102
RTVSPost2010Prop50
 90
       50
102
RTVSPost2010PropOp50
 70
     1
102
RTVSPost2010Prop51ColorIndex
 90
      256
102
RTVSPost2010Prop51ColorRGB
 90
-16777216
102
RTVSPost2010PropOp51
 70
     0
102
RTVSPost2010Prop52
140
1.0
102
RTVSPost2010PropOp52
 70
     0
102
RTVSPost2010Prop53
 90
        2
102
RTVSPost2010PropOp53
 70
     1
102
RTVSPost2010Prop54
  1
strokes_ogs.tif
102
RTVSPost2010PropOp54
 70
     1
102
RTVSPost2010Prop55
280
     0
102
RTVSPost2010PropOp55
 70
     1
102
RTVSPost2010Prop56
140
1.0
102
RTVSPost2010PropOp56
 70
     1
102
RTVSPost2010Prop57
140
1.0
102
RTVSPost2010PropOp57
 70
     1
102
RTVSPropertyOp0
 70
     1
102
RTVSPropertyOp1
 70
     1
102
RTVSPropertyOp2
 70
     1
102
RTVSPropertyOp3
 70
     1
102
RTVSPropertyOp4
 70
     1
102
RTVSPropertyOp5
 70
     1
102
RTVSPropertyOp6
 70
     1
102
RTVSPropertyOp7
 70
     1
102
RTVSPropertyOp8
 70
     1
102
RTVSPropertyOp9
 70
     1
102
RTVSPropertyOp10
 70
     1
102
RTVSPropertyOp11
 70
     1
102
RTVSPropertyOp12
 70
     1
102
RTVSPropertyOp13
 70
     1
102
RTVSPropertyOp14
 70
     1
102
RTVSPropertyOp15
 70
     1
102
RTVSPropertyOp16
 70
     1
102
RTVSPropertyOp17
 70
     1
102
RTVSPropertyOp18
 70
     1
102
RTVSPropertyOp19
 70
     1
102
RTVSPropertyOp20
 70
     1
102
RTVSPropertyOp21
 70
     1
102
RTVSPropertyOp22
 70
     1
102
RTVSPropertyOp23
 70
     1
102
RTVSPropertyOp24
 70
     1
102
RTVSPropertyOp25
 70
     1
102
RTVSPropertyOp26
 70
     1
102
RTVSPropertyOp27
 70
     1
102
RTVSPropertyOp28
 70
     1
102
RTVSPropertyOp29
 70
     1
102
RTVSPropertyOp30
 70
     1
102
RTVSPropertyOp31
 70
     1
102
RTVSPropertyOp32
 70
     1
102
RTVSPropertyOp33
 70
     1
102
RTVSPropertyOp34
 70
     1
102
RTVSPropertyOp35
 70
     1
102
RTVSPropertyOp36
 70
     1
102
RTVSPropertyOp37
 70
     1
102
RTVSPropertyOp38
 70
     1
102
RTVSPropertyOp39
 70
     1
102
RTVSPropertyOp40
 70
     1
102
RTVSPropertyOp41
 70
     1
102
RTVSPropertyOp42
 70
     1
102
RTVSPropertyOp43
 70
     1
102
RTVSPropertyOp44
 70
     1
102
RTVSPropertyOp45
 70
     1
102
RTVSPropertyOp46
 70
     1
102
RTVSPropertyOp47
 70
     1
102
RTVSPropertyOp48
 70
     1
102
RTVSPropertyOp49
 70
     1
102
RTVSPropertyOp50
 70
     1
102
RTVSPropertyOp51
 70
     0
102
RTVSPropertyOp52
 70
     0
102
RTVSPropertyOp53
 70
     1
102
RTVSPropertyOp54
 70
     1
102
RTVSPropertyOp55
 70
     1
102
RTVSPropertyOp56
 70
     1
102
RTVSPropertyOp57
 70
     1
102
RTVSPropertyOp58
 70
     1
102
RTVSPropertyOp59
 70
     1
102
RTVSPropertyOp60
 70
     1
102
RTVSPropertyOp61
 70
     1
102
RTVSPropertyOp62
 70
     1
  0
XRECORD
  5
6628
102
{ACAD_REACTORS
330
6627
102
}
330
6627
100
AcDbXrecord
280
     1
102
RTVSPost2010Prop28
280
     0
102
RTVSPost2010PropOp28
 70
     1
102
RTVSPost2010Prop29
280
     1
102
RTVSPost2010PropOp29
 70
     1
102
RTVSPost2010Prop30
280
     1
102
RTVSPost2010PropOp30
 70
     1
102
RTVSPost2010Prop31
280
     0
102
RTVSPost2010PropOp31
 70
     1
102
RTVSPost2010Prop32
280
     0
102
RTVSPost2010PropOp32
 70
     1
102
RTVSPost2010Prop33
280
     0
102
RTVSPost2010PropOp33
 70
     1
102
RTVSPost2010Prop34
280
     0
102
RTVSPost2010PropOp34
 70
     1
102
RTVSPost2010Prop35
280
     0
102
RTVSPost2010PropOp35
 70
     1
102
RTVSPost2010Prop36
280
     0
102
RTVSPost2010PropOp36
 70
     1
102
RTVSPost2010Prop37
 90
       50
102
RTVSPost2010PropOp37
 70
     1
102
RTVSPost2010Prop38
140
0.0
102
RTVSPost2010PropOp38
 70
     1
102
RTVSPost2010Prop39
140
1.0
102
RTVSPost2010PropOp39
 70
     1
102
RTVSPost2010Prop40
 90
        0
102
RTVSPost2010PropOp40
 70
     1
102
RTVSPost2010Prop41ColorIndex
 90
       18
102
RTVSPost2010Prop41ColorRGB
 90
        0
102
RTVSPost2010PropOp41
 70
     1
102
RTVSPost2010Prop42
 90
       50
102
RTVSPost2010PropOp42
 70
     1
102
RTVSPost2010Prop43
 90
        3
102
RTVSPost2010PropOp43
 70
     1
102
RTVSPost2010Prop44ColorIndex
 90
        5
102
RTVSPost2010Prop44ColorRGB
 90
      255
102
RTVSPost2010PropOp44
 70
     1
102
RTVSPost2010Prop45
280
     0
102
RTVSPost2010PropOp45
 70
     1
102
RTVSPost2010Prop46
 90
       50
102
RTVSPost2010PropOp46
 70
     1
102
RTVSPost2010Prop47
 90
       50
102
RTVSPost2010PropOp47
 70
     1
102
RTVSPost2010Prop48
 90
       50
102
RTVSPost2010PropOp48
 70
     1
102
RTVSPost2010Prop49
280
     0
102
RTVSPost2010PropOp49
 70
     1
102
RTVSPost2010Prop50
 90
       50
102
RTVSPost2010PropOp50
 70
     1
102
RTVSPost2010Prop51ColorIndex
 90
      256
102
RTVSPost2010Prop51ColorRGB
 90
-16777216
102
RTVSPost2010PropOp51
 70
     0
102
RTVSPost2010Prop52
140
1.0
102
RTVSPost2010PropOp52
 70
     0
102
RTVSPost2010Prop53
 90
        2
102
RTVSPost2010PropOp53
 70
     1
102
RTVSPost2010Prop54
  1
strokes_ogs.tif
102
RTVSPost2010PropOp54
 70
     1
102
RTVSPost2010Prop55
280
     0
102
RTVSPost2010PropOp55
 70
     1
102
RTVSPost2010Prop56
140
1.0
102
RTVSPost2010PropOp56
 70
     1
102
RTVSPost2010Prop57
140
1.0
102
RTVSPost2010PropOp57
 70
     1
102
RTVSPropertyOp0
 70
     1
102
RTVSPropertyOp1
 70
     1
102
RTVSPropertyOp2
 70
     1
102
RTVSPropertyOp3
 70
     1
102
RTVSPropertyOp4
 70
     1
102
RTVSPropertyOp5
 70
     1
102
RTVSPropertyOp6
 70
     1
102
RTVSPropertyOp7
 70
     1
102
RTVSPropertyOp8
 70
     1
102
RTVSPropertyOp9
 70
     1
102
RTVSPropertyOp10
 70
     1
102
RTVSPropertyOp11
 70
     1
102
RTVSPropertyOp12
 70
     1
102
RTVSPropertyOp13
 70
     1
102
RTVSPropertyOp14
 70
     1
102
RTVSPropertyOp15
 70
     1
102
RTVSPropertyOp16
 70
     1
102
RTVSPropertyOp17
 70
     1
102
RTVSPropertyOp18
 70
     1
102
RTVSPropertyOp19
 70
     1
102
RTVSPropertyOp20
 70
     1
102
RTVSPropertyOp21
 70
     1
102
RTVSPropertyOp22
 70
     1
102
RTVSPropertyOp23
 70
     1
102
RTVSPropertyOp24
 70
     1
102
RTVSPropertyOp25
 70
     1
102
RTVSPropertyOp26
 70
     1
102
RTVSPropertyOp27
 70
     1
102
RTVSPropertyOp28
 70
     1
102
RTVSPropertyOp29
 70
     1
102
RTVSPropertyOp30
 70
     1
102
RTVSPropertyOp31
 70
     1
102
RTVSPropertyOp32
 70
     1
102
RTVSPropertyOp33
 70
     1
102
RTVSPropertyOp34
 70
     1
102
RTVSPropertyOp35
 70
     1
102
RTVSPropertyOp36
 70
     1
102
RTVSPropertyOp37
 70
     1
102
RTVSPropertyOp38
 70
     1
102
RTVSPropertyOp39
 70
     1
102
RTVSPropertyOp40
 70
     1
102
RTVSPropertyOp41
 70
     1
102
RTVSPropertyOp42
 70
     1
102
RTVSPropertyOp43
 70
     1
102
RTVSPropertyOp44
 70
     1
102
RTVSPropertyOp45
 70
     1
102
RTVSPropertyOp46
 70
     1
102
RTVSPropertyOp47
 70
     1
102
RTVSPropertyOp48
 70
     1
102
RTVSPropertyOp49
 70
     1
102
RTVSPropertyOp50
 70
     1
102
RTVSPropertyOp51
 70
     0
102
RTVSPropertyOp52
 70
     0
102
RTVSPropertyOp53
 70
     1
102
RTVSPropertyOp54
 70
     1
102
RTVSPropertyOp55
 70
     1
102
RTVSPropertyOp56
 70
     1
102
RTVSPropertyOp57
 70
     1
102
RTVSPropertyOp58
 70
     1
102
RTVSPropertyOp59
 70
     1
102
RTVSPropertyOp60
 70
     1
102
RTVSPropertyOp61
 70
     1
102
RTVSPropertyOp62
 70
     1
  0
XRECORD
  5
662C
102
{ACAD_REACTORS
330
662B
102
}
330
662B
100
AcDbXrecord
280
     1
102
RTVSPost2010Prop28
280
     0
102
RTVSPost2010PropOp28
 70
     1
102
RTVSPost2010Prop29
280
     1
102
RTVSPost2010PropOp29
 70
     1
102
RTVSPost2010Prop30
280
     1
102
RTVSPost2010PropOp30
 70
     1
102
RTVSPost2010Prop31
280
     0
102
RTVSPost2010PropOp31
 70
     1
102
RTVSPost2010Prop32
280
     0
102
RTVSPost2010PropOp32
 70
     1
102
RTVSPost2010Prop33
280
     0
102
RTVSPost2010PropOp33
 70
     1
102
RTVSPost2010Prop34
280
     0
102
RTVSPost2010PropOp34
 70
     1
102
RTVSPost2010Prop35
280
     0
102
RTVSPost2010PropOp35
 70
     1
102
RTVSPost2010Prop36
280
     0
102
RTVSPost2010PropOp36
 70
     1
102
RTVSPost2010Prop37
 90
       50
102
RTVSPost2010PropOp37
 70
     1
102
RTVSPost2010Prop38
140
0.0
102
RTVSPost2010PropOp38
 70
     1
102
RTVSPost2010Prop39
140
1.0
102
RTVSPost2010PropOp39
 70
     1
102
RTVSPost2010Prop40
 90
        0
102
RTVSPost2010PropOp40
 70
     1
102
RTVSPost2010Prop41ColorIndex
 90
       18
102
RTVSPost2010Prop41ColorRGB
 90
        0
102
RTVSPost2010PropOp41
 70
     1
102
RTVSPost2010Prop42
 90
       50
102
RTVSPost2010PropOp42
 70
     1
102
RTVSPost2010Prop43
 90
        3
102
RTVSPost2010PropOp43
 70
     1
102
RTVSPost2010Prop44ColorIndex
 90
        5
102
RTVSPost2010Prop44ColorRGB
 90
      255
102
RTVSPost2010PropOp44
 70
     1
102
RTVSPost2010Prop45
280
     0
102
RTVSPost2010PropOp45
 70
     1
102
RTVSPost2010Prop46
 90
       50
102
RTVSPost2010PropOp46
 70
     1
102
RTVSPost2010Prop47
 90
       50
102
RTVSPost2010PropOp47
 70
     1
102
RTVSPost2010Prop48
 90
       50
102
RTVSPost2010PropOp48
 70
     1
102
RTVSPost2010Prop49
280
     0
102
RTVSPost2010PropOp49
 70
     1
102
RTVSPost2010Prop50
 90
       50
102
RTVSPost2010PropOp50
 70
     1
102
RTVSPost2010Prop51ColorIndex
 90
      256
102
RTVSPost2010Prop51ColorRGB
 90
-16777216
102
RTVSPost2010PropOp51
 70
     0
102
RTVSPost2010Prop52
140
1.0
102
RTVSPost2010PropOp52
 70
     0
102
RTVSPost2010Prop53
 90
        2
102
RTVSPost2010PropOp53
 70
     1
102
RTVSPost2010Prop54
  1
strokes_ogs.tif
102
RTVSPost2010PropOp54
 70
     1
102
RTVSPost2010Prop55
280
     0
102
RTVSPost2010PropOp55
 70
     1
102
RTVSPost2010Prop56
140
1.0
102
RTVSPost2010PropOp56
 70
     1
102
RTVSPost2010Prop57
140
1.0
102
RTVSPost2010PropOp57
 70
     1
102
RTVSPropertyOp0
 70
     1
102
RTVSPropertyOp1
 70
     1
102
RTVSPropertyOp2
 70
     1
102
RTVSPropertyOp3
 70
     1
102
RTVSPropertyOp4
 70
     1
102
RTVSPropertyOp5
 70
     1
102
RTVSPropertyOp6
 70
     1
102
RTVSPropertyOp7
 70
     1
102
RTVSPropertyOp8
 70
     1
102
RTVSPropertyOp9
 70
     1
102
RTVSPropertyOp10
 70
     1
102
RTVSPropertyOp11
 70
     1
102
RTVSPropertyOp12
 70
     1
102
RTVSPropertyOp13
 70
     1
102
RTVSPropertyOp14
 70
     1
102
RTVSPropertyOp15
 70
     1
102
RTVSPropertyOp16
 70
     1
102
RTVSPropertyOp17
 70
     1
102
RTVSPropertyOp18
 70
     1
102
RTVSPropertyOp19
 70
     1
102
RTVSPropertyOp20
 70
     1
102
RTVSPropertyOp21
 70
     1
102
RTVSPropertyOp22
 70
     1
102
RTVSPropertyOp23
 70
     1
102
RTVSPropertyOp24
 70
     1
102
RTVSPropertyOp25
 70
     1
102
RTVSPropertyOp26
 70
     1
102
RTVSPropertyOp27
 70
     1
102
RTVSPropertyOp28
 70
     1
102
RTVSPropertyOp29
 70
     1
102
RTVSPropertyOp30
 70
     1
102
RTVSPropertyOp31
 70
     1
102
RTVSPropertyOp32
 70
     1
102
RTVSPropertyOp33
 70
     1
102
RTVSPropertyOp34
 70
     1
102
RTVSPropertyOp35
 70
     1
102
RTVSPropertyOp36
 70
     1
102
RTVSPropertyOp37
 70
     1
102
RTVSPropertyOp38
 70
     1
102
RTVSPropertyOp39
 70
     1
102
RTVSPropertyOp40
 70
     1
102
RTVSPropertyOp41
 70
     1
102
RTVSPropertyOp42
 70
     1
102
RTVSPropertyOp43
 70
     1
102
RTVSPropertyOp44
 70
     1
102
RTVSPropertyOp45
 70
     1
102
RTVSPropertyOp46
 70
     1
102
RTVSPropertyOp47
 70
     1
102
RTVSPropertyOp48
 70
     1
102
RTVSPropertyOp49
 70
     1
102
RTVSPropertyOp50
 70
     1
102
RTVSPropertyOp51
 70
     0
102
RTVSPropertyOp52
 70
     0
102
RTVSPropertyOp53
 70
     1
102
RTVSPropertyOp54
 70
     1
102
RTVSPropertyOp55
 70
     1
102
RTVSPropertyOp56
 70
     1
102
RTVSPropertyOp57
 70
     1
102
RTVSPropertyOp58
 70
     1
102
RTVSPropertyOp59
 70
     1
102
RTVSPropertyOp60
 70
     1
102
RTVSPropertyOp61
 70
     1
102
RTVSPropertyOp62
 70
     1
  0
XRECORD
  5
6646
102
{ACAD_REACTORS
330
6645
102
}
330
6645
100
AcDbXrecord
280
     1
102
RTVSPost2010Prop28
280
     0
102
RTVSPost2010PropOp28
 70
     1
102
RTVSPost2010Prop29
280
     1
102
RTVSPost2010PropOp29
 70
     1
102
RTVSPost2010Prop30
280
     1
102
RTVSPost2010PropOp30
 70
     1
102
RTVSPost2010Prop31
280
     0
102
RTVSPost2010PropOp31
 70
     1
102
RTVSPost2010Prop32
280
     0
102
RTVSPost2010PropOp32
 70
     1
102
RTVSPost2010Prop33
280
     0
102
RTVSPost2010PropOp33
 70
     1
102
RTVSPost2010Prop34
280
     0
102
RTVSPost2010PropOp34
 70
     1
102
RTVSPost2010Prop35
280
     0
102
RTVSPost2010PropOp35
 70
     1
102
RTVSPost2010Prop36
280
     0
102
RTVSPost2010PropOp36
 70
     1
102
RTVSPost2010Prop37
 90
       50
102
RTVSPost2010PropOp37
 70
     0
102
RTVSPost2010Prop38
140
0.0
102
RTVSPost2010PropOp38
 70
     0
102
RTVSPost2010Prop39
140
1.0
102
RTVSPost2010PropOp39
 70
     0
102
RTVSPost2010Prop40
 90
        0
102
RTVSPost2010PropOp40
 70
     0
102
RTVSPost2010Prop41ColorIndex
 90
       18
102
RTVSPost2010Prop41ColorRGB
 90
        0
102
RTVSPost2010PropOp41
 70
     0
102
RTVSPost2010Prop42
 90
       50
102
RTVSPost2010PropOp42
 70
     0
102
RTVSPost2010Prop43
 90
        3
102
RTVSPost2010PropOp43
 70
     0
102
RTVSPost2010Prop44ColorIndex
 90
        5
102
RTVSPost2010Prop44ColorRGB
 90
      255
102
RTVSPost2010PropOp44
 70
     0
102
RTVSPost2010Prop45
280
     0
102
RTVSPost2010PropOp45
 70
     1
102
RTVSPost2010Prop46
 90
       50
102
RTVSPost2010PropOp46
 70
     0
102
RTVSPost2010Prop47
 90
       50
102
RTVSPost2010PropOp47
 70
     0
102
RTVSPost2010Prop48
 90
       50
102
RTVSPost2010PropOp48
 70
     0
102
RTVSPost2010Prop49
280
     0
102
RTVSPost2010PropOp49
 70
     1
102
RTVSPost2010Prop50
 90
       50
102
RTVSPost2010PropOp50
 70
     0
102
RTVSPost2010Prop51ColorIndex
 90
      256
102
RTVSPost2010Prop51ColorRGB
 90
-16777216
102
RTVSPost2010PropOp51
 70
     0
102
RTVSPost2010Prop52
140
1.0
102
RTVSPost2010PropOp52
 70
     0
102
RTVSPost2010Prop53
 90
        2
102
RTVSPost2010PropOp53
 70
     0
102
RTVSPost2010Prop54
  1
strokes_ogs.tif
102
RTVSPost2010PropOp54
 70
     0
102
RTVSPost2010Prop55
280
     0
102
RTVSPost2010PropOp55
 70
     1
102
RTVSPost2010Prop56
140
1.0
102
RTVSPost2010PropOp56
 70
     0
102
RTVSPost2010Prop57
140
1.0
102
RTVSPost2010PropOp57
 70
     0
102
RTVSPropertyOp0
 70
     0
102
RTVSPropertyOp1
 70
     0
102
RTVSPropertyOp2
 70
     0
102
RTVSPropertyOp3
 70
     0
102
RTVSPropertyOp4
 70
     0
102
RTVSPropertyOp5
 70
     0
102
RTVSPropertyOp6
 70
     0
102
RTVSPropertyOp7
 70
     0
102
RTVSPropertyOp8
 70
     0
102
RTVSPropertyOp9
 70
     0
102
RTVSPropertyOp10
 70
     0
102
RTVSPropertyOp11
 70
     0
102
RTVSPropertyOp12
 70
     0
102
RTVSPropertyOp13
 70
     0
102
RTVSPropertyOp14
 70
     2
102
RTVSPropertyOp15
 70
     0
102
RTVSPropertyOp16
 70
     0
102
RTVSPropertyOp17
 70
     0
102
RTVSPropertyOp18
 70
     0
102
RTVSPropertyOp19
 70
     0
102
RTVSPropertyOp20
 70
     0
102
RTVSPropertyOp21
 70
     0
102
RTVSPropertyOp22
 70
     0
102
RTVSPropertyOp23
 70
     0
102
RTVSPropertyOp24
 70
     0
102
RTVSPropertyOp25
 70
     0
102
RTVSPropertyOp26
 70
     0
102
RTVSPropertyOp27
 70
     0
102
RTVSPropertyOp28
 70
     1
102
RTVSPropertyOp29
 70
     1
102
RTVSPropertyOp30
 70
     1
102
RTVSPropertyOp31
 70
     1
102
RTVSPropertyOp32
 70
     1
102
RTVSPropertyOp33
 70
     1
102
RTVSPropertyOp34
 70
     1
102
RTVSPropertyOp35
 70
     1
102
RTVSPropertyOp36
 70
     1
102
RTVSPropertyOp37
 70
     0
102
RTVSPropertyOp38
 70
     0
102
RTVSPropertyOp39
 70
     0
102
RTVSPropertyOp40
 70
     0
102
RTVSPropertyOp41
 70
     0
102
RTVSPropertyOp42
 70
     0
102
RTVSPropertyOp43
 70
     0
102
RTVSPropertyOp44
 70
     0
102
RTVSPropertyOp45
 70
     1
102
RTVSPropertyOp46
 70
     0
102
RTVSPropertyOp47
 70
     0
102
RTVSPropertyOp48
 70
     0
102
RTVSPropertyOp49
 70
     1
102
RTVSPropertyOp50
 70
     0
102
RTVSPropertyOp51
 70
     0
102
RTVSPropertyOp52
 70
     0
102
RTVSPropertyOp53
 70
     0
102
RTVSPropertyOp54
 70
     0
102
RTVSPropertyOp55
 70
     1
102
RTVSPropertyOp56
 70
     0
102
RTVSPropertyOp57
 70
     0
102
RTVSPropertyOp58
 70
     0
102
RTVSPropertyOp59
 70
     0
102
RTVSPropertyOp60
 70
     0
102
RTVSPropertyOp61
 70
     0
102
RTVSPropertyOp62
 70
     0
  0
XRECORD
  5
6634
102
{ACAD_REACTORS
330
6633
102
}
330
6633
100
AcDbXrecord
280
     1
102
RTVSPost2010Prop28
280
     0
102
RTVSPost2010PropOp28
 70
     1
102
RTVSPost2010Prop29
280
     1
102
RTVSPost2010PropOp29
 70
     1
102
RTVSPost2010Prop30
280
     1
102
RTVSPost2010PropOp30
 70
     1
102
RTVSPost2010Prop31
280
     0
102
RTVSPost2010PropOp31
 70
     1
102
RTVSPost2010Prop32
280
     0
102
RTVSPost2010PropOp32
 70
     1
102
RTVSPost2010Prop33
280
     0
102
RTVSPost2010PropOp33
 70
     1
102
RTVSPost2010Prop34
280
     0
102
RTVSPost2010PropOp34
 70
     1
102
RTVSPost2010Prop35
280
     0
102
RTVSPost2010PropOp35
 70
     1
102
RTVSPost2010Prop36
280
     0
102
RTVSPost2010PropOp36
 70
     1
102
RTVSPost2010Prop37
 90
       50
102
RTVSPost2010PropOp37
 70
     1
102
RTVSPost2010Prop38
140
0.0
102
RTVSPost2010PropOp38
 70
     1
102
RTVSPost2010Prop39
140
1.0
102
RTVSPost2010PropOp39
 70
     1
102
RTVSPost2010Prop40
 90
        0
102
RTVSPost2010PropOp40
 70
     1
102
RTVSPost2010Prop41ColorIndex
 90
       18
102
RTVSPost2010Prop41ColorRGB
 90
        0
102
RTVSPost2010PropOp41
 70
     1
102
RTVSPost2010Prop42
 90
       50
102
RTVSPost2010PropOp42
 70
     1
102
RTVSPost2010Prop43
 90
        3
102
RTVSPost2010PropOp43
 70
     1
102
RTVSPost2010Prop44ColorIndex
 90
        5
102
RTVSPost2010Prop44ColorRGB
 90
      255
102
RTVSPost2010PropOp44
 70
     1
102
RTVSPost2010Prop45
280
     0
102
RTVSPost2010PropOp45
 70
     1
102
RTVSPost2010Prop46
 90
       50
102
RTVSPost2010PropOp46
 70
     1
102
RTVSPost2010Prop47
 90
       50
102
RTVSPost2010PropOp47
 70
     1
102
RTVSPost2010Prop48
 90
       50
102
RTVSPost2010PropOp48
 70
     1
102
RTVSPost2010Prop49
280
     0
102
RTVSPost2010PropOp49
 70
     1
102
RTVSPost2010Prop50
 90
       50
102
RTVSPost2010PropOp50
 70
     1
102
RTVSPost2010Prop51ColorIndex
 90
      256
102
RTVSPost2010Prop51ColorRGB
 90
-16777216
102
RTVSPost2010PropOp51
 70
     0
102
RTVSPost2010Prop52
140
1.0
102
RTVSPost2010PropOp52
 70
     0
102
RTVSPost2010Prop53
 90
        2
102
RTVSPost2010PropOp53
 70
     1
102
RTVSPost2010Prop54
  1
strokes_ogs.tif
102
RTVSPost2010PropOp54
 70
     1
102
RTVSPost2010Prop55
280
     0
102
RTVSPost2010PropOp55
 70
     1
102
RTVSPost2010Prop56
140
1.0
102
RTVSPost2010PropOp56
 70
     1
102
RTVSPost2010Prop57
140
1.0
102
RTVSPost2010PropOp57
 70
     1
102
RTVSPropertyOp0
 70
     1
102
RTVSPropertyOp1
 70
     1
102
RTVSPropertyOp2
 70
     1
102
RTVSPropertyOp3
 70
     1
102
RTVSPropertyOp4
 70
     1
102
RTVSPropertyOp5
 70
     1
102
RTVSPropertyOp6
 70
     1
102
RTVSPropertyOp7
 70
     1
102
RTVSPropertyOp8
 70
     1
102
RTVSPropertyOp9
 70
     1
102
RTVSPropertyOp10
 70
     1
102
RTVSPropertyOp11
 70
     1
102
RTVSPropertyOp12
 70
     1
102
RTVSPropertyOp13
 70
     1
102
RTVSPropertyOp14
 70
     1
102
RTVSPropertyOp15
 70
     1
102
RTVSPropertyOp16
 70
     1
102
RTVSPropertyOp17
 70
     1
102
RTVSPropertyOp18
 70
     1
102
RTVSPropertyOp19
 70
     1
102
RTVSPropertyOp20
 70
     1
102
RTVSPropertyOp21
 70
     1
102
RTVSPropertyOp22
 70
     1
102
RTVSPropertyOp23
 70
     1
102
RTVSPropertyOp24
 70
     1
102
RTVSPropertyOp25
 70
     1
102
RTVSPropertyOp26
 70
     1
102
RTVSPropertyOp27
 70
     1
102
RTVSPropertyOp28
 70
     1
102
RTVSPropertyOp29
 70
     1
102
RTVSPropertyOp30
 70
     1
102
RTVSPropertyOp31
 70
     1
102
RTVSPropertyOp32
 70
     1
102
RTVSPropertyOp33
 70
     1
102
RTVSPropertyOp34
 70
     1
102
RTVSPropertyOp35
 70
     1
102
RTVSPropertyOp36
 70
     1
102
RTVSPropertyOp37
 70
     1
102
RTVSPropertyOp38
 70
     1
102
RTVSPropertyOp39
 70
     1
102
RTVSPropertyOp40
 70
     1
102
RTVSPropertyOp41
 70
     1
102
RTVSPropertyOp42
 70
     1
102
RTVSPropertyOp43
 70
     1
102
RTVSPropertyOp44
 70
     1
102
RTVSPropertyOp45
 70
     1
102
RTVSPropertyOp46
 70
     1
102
RTVSPropertyOp47
 70
     1
102
RTVSPropertyOp48
 70
     1
102
RTVSPropertyOp49
 70
     1
102
RTVSPropertyOp50
 70
     1
102
RTVSPropertyOp51
 70
     0
102
RTVSPropertyOp52
 70
     0
102
RTVSPropertyOp53
 70
     1
102
RTVSPropertyOp54
 70
     1
102
RTVSPropertyOp55
 70
     1
102
RTVSPropertyOp56
 70
     1
102
RTVSPropertyOp57
 70
     1
102
RTVSPropertyOp58
 70
     1
102
RTVSPropertyOp59
 70
     1
102
RTVSPropertyOp60
 70
     1
102
RTVSPropertyOp61
 70
     1
102
RTVSPropertyOp62
 70
     1
  0
XRECORD
  5
6618
102
{ACAD_REACTORS
330
6617
102
}
330
6617
100
AcDbXrecord
280
     1
102
RTVSPost2010Prop28
280
     0
102
RTVSPost2010PropOp28
 70
     1
102
RTVSPost2010Prop29
280
     1
102
RTVSPost2010PropOp29
 70
     1
102
RTVSPost2010Prop30
280
     1
102
RTVSPost2010PropOp30
 70
     1
102
RTVSPost2010Prop31
280
     0
102
RTVSPost2010PropOp31
 70
     1
102
RTVSPost2010Prop32
280
     0
102
RTVSPost2010PropOp32
 70
     1
102
RTVSPost2010Prop33
280
     0
102
RTVSPost2010PropOp33
 70
     1
102
RTVSPost2010Prop34
280
     0
102
RTVSPost2010PropOp34
 70
     1
102
RTVSPost2010Prop35
280
     0
102
RTVSPost2010PropOp35
 70
     1
102
RTVSPost2010Prop36
280
     0
102
RTVSPost2010PropOp36
 70
     1
102
RTVSPost2010Prop37
 90
       50
102
RTVSPost2010PropOp37
 70
     1
102
RTVSPost2010Prop38
140
0.0
102
RTVSPost2010PropOp38
 70
     1
102
RTVSPost2010Prop39
140
1.0
102
RTVSPost2010PropOp39
 70
     1
102
RTVSPost2010Prop40
 90
        0
102
RTVSPost2010PropOp40
 70
     1
102
RTVSPost2010Prop41ColorIndex
 90
       18
102
RTVSPost2010Prop41ColorRGB
 90
        0
102
RTVSPost2010PropOp41
 70
     1
102
RTVSPost2010Prop42
 90
       50
102
RTVSPost2010PropOp42
 70
     1
102
RTVSPost2010Prop43
 90
        3
102
RTVSPost2010PropOp43
 70
     1
102
RTVSPost2010Prop44ColorIndex
 90
        5
102
RTVSPost2010Prop44ColorRGB
 90
      255
102
RTVSPost2010PropOp44
 70
     1
102
RTVSPost2010Prop45
280
     0
102
RTVSPost2010PropOp45
 70
     1
102
RTVSPost2010Prop46
 90
       50
102
RTVSPost2010PropOp46
 70
     1
102
RTVSPost2010Prop47
 90
       50
102
RTVSPost2010PropOp47
 70
     1
102
RTVSPost2010Prop48
 90
       50
102
RTVSPost2010PropOp48
 70
     1
102
RTVSPost2010Prop49
280
     0
102
RTVSPost2010PropOp49
 70
     1
102
RTVSPost2010Prop50
 90
       50
102
RTVSPost2010PropOp50
 70
     1
102
RTVSPost2010Prop51ColorIndex
 90
      256
102
RTVSPost2010Prop51ColorRGB
 90
-16777216
102
RTVSPost2010PropOp51
 70
     0
102
RTVSPost2010Prop52
140
1.0
102
RTVSPost2010PropOp52
 70
     0
102
RTVSPost2010Prop53
 90
        2
102
RTVSPost2010PropOp53
 70
     1
102
RTVSPost2010Prop54
  1
strokes_ogs.tif
102
RTVSPost2010PropOp54
 70
     1
102
RTVSPost2010Prop55
280
     0
102
RTVSPost2010PropOp55
 70
     1
102
RTVSPost2010Prop56
140
1.0
102
RTVSPost2010PropOp56
 70
     1
102
RTVSPost2010Prop57
140
1.0
102
RTVSPost2010PropOp57
 70
     1
102
RTVSPropertyOp0
 70
     1
102
RTVSPropertyOp1
 70
     1
102
RTVSPropertyOp2
 70
     1
102
RTVSPropertyOp3
 70
     1
102
RTVSPropertyOp4
 70
     1
102
RTVSPropertyOp5
 70
     1
102
RTVSPropertyOp6
 70
     1
102
RTVSPropertyOp7
 70
     1
102
RTVSPropertyOp8
 70
     1
102
RTVSPropertyOp9
 70
     1
102
RTVSPropertyOp10
 70
     1
102
RTVSPropertyOp11
 70
     1
102
RTVSPropertyOp12
 70
     1
102
RTVSPropertyOp13
 70
     1
102
RTVSPropertyOp14
 70
     1
102
RTVSPropertyOp15
 70
     1
102
RTVSPropertyOp16
 70
     1
102
RTVSPropertyOp17
 70
     1
102
RTVSPropertyOp18
 70
     1
102
RTVSPropertyOp19
 70
     1
102
RTVSPropertyOp20
 70
     1
102
RTVSPropertyOp21
 70
     1
102
RTVSPropertyOp22
 70
     1
102
RTVSPropertyOp23
 70
     1
102
RTVSPropertyOp24
 70
     1
102
RTVSPropertyOp25
 70
     1
102
RTVSPropertyOp26
 70
     1
102
RTVSPropertyOp27
 70
     1
102
RTVSPropertyOp28
 70
     1
102
RTVSPropertyOp29
 70
     1
102
RTVSPropertyOp30
 70
     1
102
RTVSPropertyOp31
 70
     1
102
RTVSPropertyOp32
 70
     1
102
RTVSPropertyOp33
 70
     1
102
RTVSPropertyOp34
 70
     1
102
RTVSPropertyOp35
 70
     1
102
RTVSPropertyOp36
 70
     1
102
RTVSPropertyOp37
 70
     1
102
RTVSPropertyOp38
 70
     1
102
RTVSPropertyOp39
 70
     1
102
RTVSPropertyOp40
 70
     1
102
RTVSPropertyOp41
 70
     1
102
RTVSPropertyOp42
 70
     1
102
RTVSPropertyOp43
 70
     1
102
RTVSPropertyOp44
 70
     1
102
RTVSPropertyOp45
 70
     1
102
RTVSPropertyOp46
 70
     1
102
RTVSPropertyOp47
 70
     1
102
RTVSPropertyOp48
 70
     1
102
RTVSPropertyOp49
 70
     1
102
RTVSPropertyOp50
 70
     1
102
RTVSPropertyOp51
 70
     0
102
RTVSPropertyOp52
 70
     0
102
RTVSPropertyOp53
 70
     1
102
RTVSPropertyOp54
 70
     1
102
RTVSPropertyOp55
 70
     1
102
RTVSPropertyOp56
 70
     1
102
RTVSPropertyOp57
 70
     1
102
RTVSPropertyOp58
 70
     1
102
RTVSPropertyOp59
 70
     1
102
RTVSPropertyOp60
 70
     1
102
RTVSPropertyOp61
 70
     1
102
RTVSPropertyOp62
 70
     1
  0
XRECORD
  5
661A
102
{ACAD_REACTORS
330
6619
102
}
330
6619
100
AcDbXrecord
280
     1
102
RTVSPost2010Prop28
280
     0
102
RTVSPost2010PropOp28
 70
     1
102
RTVSPost2010Prop29
280
     1
102
RTVSPost2010PropOp29
 70
     1
102
RTVSPost2010Prop30
280
     1
102
RTVSPost2010PropOp30
 70
     1
102
RTVSPost2010Prop31
280
     0
102
RTVSPost2010PropOp31
 70
     1
102
RTVSPost2010Prop32
280
     0
102
RTVSPost2010PropOp32
 70
     1
102
RTVSPost2010Prop33
280
     0
102
RTVSPost2010PropOp33
 70
     1
102
RTVSPost2010Prop34
280
     0
102
RTVSPost2010PropOp34
 70
     1
102
RTVSPost2010Prop35
280
     0
102
RTVSPost2010PropOp35
 70
     1
102
RTVSPost2010Prop36
280
     0
102
RTVSPost2010PropOp36
 70
     1
102
RTVSPost2010Prop37
 90
       50
102
RTVSPost2010PropOp37
 70
     1
102
RTVSPost2010Prop38
140
0.0
102
RTVSPost2010PropOp38
 70
     1
102
RTVSPost2010Prop39
140
1.0
102
RTVSPost2010PropOp39
 70
     1
102
RTVSPost2010Prop40
 90
        0
102
RTVSPost2010PropOp40
 70
     1
102
RTVSPost2010Prop41ColorIndex
 90
       18
102
RTVSPost2010Prop41ColorRGB
 90
        0
102
RTVSPost2010PropOp41
 70
     1
102
RTVSPost2010Prop42
 90
       50
102
RTVSPost2010PropOp42
 70
     1
102
RTVSPost2010Prop43
 90
        3
102
RTVSPost2010PropOp43
 70
     1
102
RTVSPost2010Prop44ColorIndex
 90
        5
102
RTVSPost2010Prop44ColorRGB
 90
      255
102
RTVSPost2010PropOp44
 70
     1
102
RTVSPost2010Prop45
280
     0
102
RTVSPost2010PropOp45
 70
     1
102
RTVSPost2010Prop46
 90
       50
102
RTVSPost2010PropOp46
 70
     1
102
RTVSPost2010Prop47
 90
       50
102
RTVSPost2010PropOp47
 70
     1
102
RTVSPost2010Prop48
 90
       50
102
RTVSPost2010PropOp48
 70
     1
102
RTVSPost2010Prop49
280
     0
102
RTVSPost2010PropOp49
 70
     1
102
RTVSPost2010Prop50
 90
       50
102
RTVSPost2010PropOp50
 70
     1
102
RTVSPost2010Prop51ColorIndex
 90
      256
102
RTVSPost2010Prop51ColorRGB
 90
-16777216
102
RTVSPost2010PropOp51
 70
     0
102
RTVSPost2010Prop52
140
1.0
102
RTVSPost2010PropOp52
 70
     0
102
RTVSPost2010Prop53
 90
        2
102
RTVSPost2010PropOp53
 70
     1
102
RTVSPost2010Prop54
  1
strokes_ogs.tif
102
RTVSPost2010PropOp54
 70
     1
102
RTVSPost2010Prop55
280
     0
102
RTVSPost2010PropOp55
 70
     1
102
RTVSPost2010Prop56
140
1.0
102
RTVSPost2010PropOp56
 70
     1
102
RTVSPost2010Prop57
140
1.0
102
RTVSPost2010PropOp57
 70
     1
102
RTVSPropertyOp0
 70
     1
102
RTVSPropertyOp1
 70
     1
102
RTVSPropertyOp2
 70
     1
102
RTVSPropertyOp3
 70
     1
102
RTVSPropertyOp4
 70
     1
102
RTVSPropertyOp5
 70
     1
102
RTVSPropertyOp6
 70
     1
102
RTVSPropertyOp7
 70
     1
102
RTVSPropertyOp8
 70
     1
102
RTVSPropertyOp9
 70
     1
102
RTVSPropertyOp10
 70
     1
102
RTVSPropertyOp11
 70
     1
102
RTVSPropertyOp12
 70
     1
102
RTVSPropertyOp13
 70
     1
102
RTVSPropertyOp14
 70
     1
102
RTVSPropertyOp15
 70
     1
102
RTVSPropertyOp16
 70
     1
102
RTVSPropertyOp17
 70
     1
102
RTVSPropertyOp18
 70
     1
102
RTVSPropertyOp19
 70
     1
102
RTVSPropertyOp20
 70
     1
102
RTVSPropertyOp21
 70
     1
102
RTVSPropertyOp22
 70
     1
102
RTVSPropertyOp23
 70
     1
102
RTVSPropertyOp24
 70
     1
102
RTVSPropertyOp25
 70
     1
102
RTVSPropertyOp26
 70
     1
102
RTVSPropertyOp27
 70
     1
102
RTVSPropertyOp28
 70
     1
102
RTVSPropertyOp29
 70
     1
102
RTVSPropertyOp30
 70
     1
102
RTVSPropertyOp31
 70
     1
102
RTVSPropertyOp32
 70
     1
102
RTVSPropertyOp33
 70
     1
102
RTVSPropertyOp34
 70
     1
102
RTVSPropertyOp35
 70
     1
102
RTVSPropertyOp36
 70
     1
102
RTVSPropertyOp37
 70
     1
102
RTVSPropertyOp38
 70
     1
102
RTVSPropertyOp39
 70
     1
102
RTVSPropertyOp40
 70
     1
102
RTVSPropertyOp41
 70
     1
102
RTVSPropertyOp42
 70
     1
102
RTVSPropertyOp43
 70
     1
102
RTVSPropertyOp44
 70
     1
102
RTVSPropertyOp45
 70
     1
102
RTVSPropertyOp46
 70
     1
102
RTVSPropertyOp47
 70
     1
102
RTVSPropertyOp48
 70
     1
102
RTVSPropertyOp49
 70
     1
102
RTVSPropertyOp50
 70
     1
102
RTVSPropertyOp51
 70
     0
102
RTVSPropertyOp52
 70
     0
102
RTVSPropertyOp53
 70
     1
102
RTVSPropertyOp54
 70
     1
102
RTVSPropertyOp55
 70
     1
102
RTVSPropertyOp56
 70
     1
102
RTVSPropertyOp57
 70
     1
102
RTVSPropertyOp58
 70
     1
102
RTVSPropertyOp59
 70
     1
102
RTVSPropertyOp60
 70
     1
102
RTVSPropertyOp61
 70
     1
102
RTVSPropertyOp62
 70
     1
  0
XRECORD
  5
661C
102
{ACAD_REACTORS
330
661B
102
}
330
661B
100
AcDbXrecord
280
     1
102
RTVSPost2010Prop28
280
     0
102
RTVSPost2010PropOp28
 70
     1
102
RTVSPost2010Prop29
280
     1
102
RTVSPost2010PropOp29
 70
     1
102
RTVSPost2010Prop30
280
     1
102
RTVSPost2010PropOp30
 70
     1
102
RTVSPost2010Prop31
280
     0
102
RTVSPost2010PropOp31
 70
     1
102
RTVSPost2010Prop32
280
     0
102
RTVSPost2010PropOp32
 70
     1
102
RTVSPost2010Prop33
280
     0
102
RTVSPost2010PropOp33
 70
     1
102
RTVSPost2010Prop34
280
     0
102
RTVSPost2010PropOp34
 70
     1
102
RTVSPost2010Prop35
280
     0
102
RTVSPost2010PropOp35
 70
     1
102
RTVSPost2010Prop36
280
     0
102
RTVSPost2010PropOp36
 70
     1
102
RTVSPost2010Prop37
 90
       50
102
RTVSPost2010PropOp37
 70
     1
102
RTVSPost2010Prop38
140
0.0
102
RTVSPost2010PropOp38
 70
     1
102
RTVSPost2010Prop39
140
1.0
102
RTVSPost2010PropOp39
 70
     1
102
RTVSPost2010Prop40
 90
        0
102
RTVSPost2010PropOp40
 70
     1
102
RTVSPost2010Prop41ColorIndex
 90
       18
102
RTVSPost2010Prop41ColorRGB
 90
        0
102
RTVSPost2010PropOp41
 70
     1
102
RTVSPost2010Prop42
 90
       50
102
RTVSPost2010PropOp42
 70
     1
102
RTVSPost2010Prop43
 90
        3
102
RTVSPost2010PropOp43
 70
     1
102
RTVSPost2010Prop44ColorIndex
 90
        5
102
RTVSPost2010Prop44ColorRGB
 90
      255
102
RTVSPost2010PropOp44
 70
     1
102
RTVSPost2010Prop45
280
     0
102
RTVSPost2010PropOp45
 70
     1
102
RTVSPost2010Prop46
 90
       50
102
RTVSPost2010PropOp46
 70
     1
102
RTVSPost2010Prop47
 90
       50
102
RTVSPost2010PropOp47
 70
     1
102
RTVSPost2010Prop48
 90
       50
102
RTVSPost2010PropOp48
 70
     1
102
RTVSPost2010Prop49
280
     0
102
RTVSPost2010PropOp49
 70
     1
102
RTVSPost2010Prop50
 90
       50
102
RTVSPost2010PropOp50
 70
     1
102
RTVSPost2010Prop51ColorIndex
 90
      256
102
RTVSPost2010Prop51ColorRGB
 90
-16777216
102
RTVSPost2010PropOp51
 70
     0
102
RTVSPost2010Prop52
140
1.0
102
RTVSPost2010PropOp52
 70
     0
102
RTVSPost2010Prop53
 90
        2
102
RTVSPost2010PropOp53
 70
     1
102
RTVSPost2010Prop54
  1
strokes_ogs.tif
102
RTVSPost2010PropOp54
 70
     1
102
RTVSPost2010Prop55
280
     0
102
RTVSPost2010PropOp55
 70
     1
102
RTVSPost2010Prop56
140
1.0
102
RTVSPost2010PropOp56
 70
     1
102
RTVSPost2010Prop57
140
1.0
102
RTVSPost2010PropOp57
 70
     1
102
RTVSPropertyOp0
 70
     1
102
RTVSPropertyOp1
 70
     1
102
RTVSPropertyOp2
 70
     1
102
RTVSPropertyOp3
 70
     1
102
RTVSPropertyOp4
 70
     1
102
RTVSPropertyOp5
 70
     1
102
RTVSPropertyOp6
 70
     1
102
RTVSPropertyOp7
 70
     1
102
RTVSPropertyOp8
 70
     1
102
RTVSPropertyOp9
 70
     1
102
RTVSPropertyOp10
 70
     1
102
RTVSPropertyOp11
 70
     1
102
RTVSPropertyOp12
 70
     1
102
RTVSPropertyOp13
 70
     1
102
RTVSPropertyOp14
 70
     1
102
RTVSPropertyOp15
 70
     1
102
RTVSPropertyOp16
 70
     1
102
RTVSPropertyOp17
 70
     1
102
RTVSPropertyOp18
 70
     1
102
RTVSPropertyOp19
 70
     1
102
RTVSPropertyOp20
 70
     1
102
RTVSPropertyOp21
 70
     1
102
RTVSPropertyOp22
 70
     1
102
RTVSPropertyOp23
 70
     1
102
RTVSPropertyOp24
 70
     1
102
RTVSPropertyOp25
 70
     1
102
RTVSPropertyOp26
 70
     1
102
RTVSPropertyOp27
 70
     1
102
RTVSPropertyOp28
 70
     1
102
RTVSPropertyOp29
 70
     1
102
RTVSPropertyOp30
 70
     1
102
RTVSPropertyOp31
 70
     1
102
RTVSPropertyOp32
 70
     1
102
RTVSPropertyOp33
 70
     1
102
RTVSPropertyOp34
 70
     1
102
RTVSPropertyOp35
 70
     1
102
RTVSPropertyOp36
 70
     1
102
RTVSPropertyOp37
 70
     1
102
RTVSPropertyOp38
 70
     1
102
RTVSPropertyOp39
 70
     1
102
RTVSPropertyOp40
 70
     1
102
RTVSPropertyOp41
 70
     1
102
RTVSPropertyOp42
 70
     1
102
RTVSPropertyOp43
 70
     1
102
RTVSPropertyOp44
 70
     1
102
RTVSPropertyOp45
 70
     1
102
RTVSPropertyOp46
 70
     1
102
RTVSPropertyOp47
 70
     1
102
RTVSPropertyOp48
 70
     1
102
RTVSPropertyOp49
 70
     1
102
RTVSPropertyOp50
 70
     1
102
RTVSPropertyOp51
 70
     0
102
RTVSPropertyOp52
 70
     0
102
RTVSPropertyOp53
 70
     1
102
RTVSPropertyOp54
 70
     1
102
RTVSPropertyOp55
 70
     1
102
RTVSPropertyOp56
 70
     1
102
RTVSPropertyOp57
 70
     1
102
RTVSPropertyOp58
 70
     1
102
RTVSPropertyOp59
 70
     1
102
RTVSPropertyOp60
 70
     1
102
RTVSPropertyOp61
 70
     1
102
RTVSPropertyOp62
 70
     1
  0
XRECORD
  5
661E
102
{ACAD_REACTORS
330
661D
102
}
330
661D
100
AcDbXrecord
280
     1
102
RTVSPost2010Prop28
280
     0
102
RTVSPost2010PropOp28
 70
     1
102
RTVSPost2010Prop29
280
     1
102
RTVSPost2010PropOp29
 70
     1
102
RTVSPost2010Prop30
280
     1
102
RTVSPost2010PropOp30
 70
     1
102
RTVSPost2010Prop31
280
     0
102
RTVSPost2010PropOp31
 70
     1
102
RTVSPost2010Prop32
280
     0
102
RTVSPost2010PropOp32
 70
     1
102
RTVSPost2010Prop33
280
     0
102
RTVSPost2010PropOp33
 70
     1
102
RTVSPost2010Prop34
280
     0
102
RTVSPost2010PropOp34
 70
     1
102
RTVSPost2010Prop35
280
     0
102
RTVSPost2010PropOp35
 70
     1
102
RTVSPost2010Prop36
280
     0
102
RTVSPost2010PropOp36
 70
     1
102
RTVSPost2010Prop37
 90
       50
102
RTVSPost2010PropOp37
 70
     1
102
RTVSPost2010Prop38
140
0.0
102
RTVSPost2010PropOp38
 70
     1
102
RTVSPost2010Prop39
140
1.0
102
RTVSPost2010PropOp39
 70
     1
102
RTVSPost2010Prop40
 90
        0
102
RTVSPost2010PropOp40
 70
     1
102
RTVSPost2010Prop41ColorIndex
 90
       18
102
RTVSPost2010Prop41ColorRGB
 90
        0
102
RTVSPost2010PropOp41
 70
     1
102
RTVSPost2010Prop42
 90
       50
102
RTVSPost2010PropOp42
 70
     1
102
RTVSPost2010Prop43
 90
        3
102
RTVSPost2010PropOp43
 70
     1
102
RTVSPost2010Prop44ColorIndex
 90
        5
102
RTVSPost2010Prop44ColorRGB
 90
      255
102
RTVSPost2010PropOp44
 70
     1
102
RTVSPost2010Prop45
280
     0
102
RTVSPost2010PropOp45
 70
     1
102
RTVSPost2010Prop46
 90
       50
102
RTVSPost2010PropOp46
 70
     1
102
RTVSPost2010Prop47
 90
       50
102
RTVSPost2010PropOp47
 70
     1
102
RTVSPost2010Prop48
 90
       50
102
RTVSPost2010PropOp48
 70
     1
102
RTVSPost2010Prop49
280
     0
102
RTVSPost2010PropOp49
 70
     1
102
RTVSPost2010Prop50
 90
       50
102
RTVSPost2010PropOp50
 70
     1
102
RTVSPost2010Prop51ColorIndex
 90
      256
102
RTVSPost2010Prop51ColorRGB
 90
-16777216
102
RTVSPost2010PropOp51
 70
     0
102
RTVSPost2010Prop52
140
1.0
102
RTVSPost2010PropOp52
 70
     0
102
RTVSPost2010Prop53
 90
        2
102
RTVSPost2010PropOp53
 70
     1
102
RTVSPost2010Prop54
  1
strokes_ogs.tif
102
RTVSPost2010PropOp54
 70
     1
102
RTVSPost2010Prop55
280
     0
102
RTVSPost2010PropOp55
 70
     1
102
RTVSPost2010Prop56
140
1.0
102
RTVSPost2010PropOp56
 70
     1
102
RTVSPost2010Prop57
140
1.0
102
RTVSPost2010PropOp57
 70
     1
102
RTVSPropertyOp0
 70
     1
102
RTVSPropertyOp1
 70
     1
102
RTVSPropertyOp2
 70
     1
102
RTVSPropertyOp3
 70
     1
102
RTVSPropertyOp4
 70
     1
102
RTVSPropertyOp5
 70
     1
102
RTVSPropertyOp6
 70
     1
102
RTVSPropertyOp7
 70
     1
102
RTVSPropertyOp8
 70
     1
102
RTVSPropertyOp9
 70
     1
102
RTVSPropertyOp10
 70
     1
102
RTVSPropertyOp11
 70
     1
102
RTVSPropertyOp12
 70
     1
102
RTVSPropertyOp13
 70
     1
102
RTVSPropertyOp14
 70
     1
102
RTVSPropertyOp15
 70
     1
102
RTVSPropertyOp16
 70
     1
102
RTVSPropertyOp17
 70
     1
102
RTVSPropertyOp18
 70
     1
102
RTVSPropertyOp19
 70
     1
102
RTVSPropertyOp20
 70
     1
102
RTVSPropertyOp21
 70
     1
102
RTVSPropertyOp22
 70
     1
102
RTVSPropertyOp23
 70
     1
102
RTVSPropertyOp24
 70
     1
102
RTVSPropertyOp25
 70
     1
102
RTVSPropertyOp26
 70
     1
102
RTVSPropertyOp27
 70
     1
102
RTVSPropertyOp28
 70
     1
102
RTVSPropertyOp29
 70
     1
102
RTVSPropertyOp30
 70
     1
102
RTVSPropertyOp31
 70
     1
102
RTVSPropertyOp32
 70
     1
102
RTVSPropertyOp33
 70
     1
102
RTVSPropertyOp34
 70
     1
102
RTVSPropertyOp35
 70
     1
102
RTVSPropertyOp36
 70
     1
102
RTVSPropertyOp37
 70
     1
102
RTVSPropertyOp38
 70
     1
102
RTVSPropertyOp39
 70
     1
102
RTVSPropertyOp40
 70
     1
102
RTVSPropertyOp41
 70
     1
102
RTVSPropertyOp42
 70
     1
102
RTVSPropertyOp43
 70
     1
102
RTVSPropertyOp44
 70
     1
102
RTVSPropertyOp45
 70
     1
102
RTVSPropertyOp46
 70
     1
102
RTVSPropertyOp47
 70
     1
102
RTVSPropertyOp48
 70
     1
102
RTVSPropertyOp49
 70
     1
102
RTVSPropertyOp50
 70
     1
102
RTVSPropertyOp51
 70
     0
102
RTVSPropertyOp52
 70
     0
102
RTVSPropertyOp53
 70
     1
102
RTVSPropertyOp54
 70
     1
102
RTVSPropertyOp55
 70
     1
102
RTVSPropertyOp56
 70
     1
102
RTVSPropertyOp57
 70
     1
102
RTVSPropertyOp58
 70
     1
102
RTVSPropertyOp59
 70
     1
102
RTVSPropertyOp60
 70
     1
102
RTVSPropertyOp61
 70
     1
102
RTVSPropertyOp62
 70
     1
  0
XRECORD
  5
6626
102
{ACAD_REACTORS
330
6625
102
}
330
6625
100
AcDbXrecord
280
     1
102
RTVSPost2010Prop28
280
     0
102
RTVSPost2010PropOp28
 70
     1
102
RTVSPost2010Prop29
280
     1
102
RTVSPost2010PropOp29
 70
     1
102
RTVSPost2010Prop30
280
     1
102
RTVSPost2010PropOp30
 70
     1
102
RTVSPost2010Prop31
280
     0
102
RTVSPost2010PropOp31
 70
     1
102
RTVSPost2010Prop32
280
     0
102
RTVSPost2010PropOp32
 70
     1
102
RTVSPost2010Prop33
280
     0
102
RTVSPost2010PropOp33
 70
     1
102
RTVSPost2010Prop34
280
     0
102
RTVSPost2010PropOp34
 70
     1
102
RTVSPost2010Prop35
280
     0
102
RTVSPost2010PropOp35
 70
     1
102
RTVSPost2010Prop36
280
     0
102
RTVSPost2010PropOp36
 70
     1
102
RTVSPost2010Prop37
 90
       50
102
RTVSPost2010PropOp37
 70
     1
102
RTVSPost2010Prop38
140
0.0
102
RTVSPost2010PropOp38
 70
     1
102
RTVSPost2010Prop39
140
1.0
102
RTVSPost2010PropOp39
 70
     1
102
RTVSPost2010Prop40
 90
        0
102
RTVSPost2010PropOp40
 70
     1
102
RTVSPost2010Prop41ColorIndex
 90
       18
102
RTVSPost2010Prop41ColorRGB
 90
        0
102
RTVSPost2010PropOp41
 70
     1
102
RTVSPost2010Prop42
 90
       50
102
RTVSPost2010PropOp42
 70
     1
102
RTVSPost2010Prop43
 90
        3
102
RTVSPost2010PropOp43
 70
     1
102
RTVSPost2010Prop44ColorIndex
 90
        5
102
RTVSPost2010Prop44ColorRGB
 90
      255
102
RTVSPost2010PropOp44
 70
     1
102
RTVSPost2010Prop45
280
     0
102
RTVSPost2010PropOp45
 70
     1
102
RTVSPost2010Prop46
 90
       50
102
RTVSPost2010PropOp46
 70
     1
102
RTVSPost2010Prop47
 90
       50
102
RTVSPost2010PropOp47
 70
     1
102
RTVSPost2010Prop48
 90
       50
102
RTVSPost2010PropOp48
 70
     1
102
RTVSPost2010Prop49
280
     0
102
RTVSPost2010PropOp49
 70
     1
102
RTVSPost2010Prop50
 90
       50
102
RTVSPost2010PropOp50
 70
     1
102
RTVSPost2010Prop51ColorIndex
 90
      256
102
RTVSPost2010Prop51ColorRGB
 90
-16777216
102
RTVSPost2010PropOp51
 70
     0
102
RTVSPost2010Prop52
140
1.0
102
RTVSPost2010PropOp52
 70
     0
102
RTVSPost2010Prop53
 90
        2
102
RTVSPost2010PropOp53
 70
     1
102
RTVSPost2010Prop54
  1
strokes_ogs.tif
102
RTVSPost2010PropOp54
 70
     1
102
RTVSPost2010Prop55
280
     0
102
RTVSPost2010PropOp55
 70
     1
102
RTVSPost2010Prop56
140
1.0
102
RTVSPost2010PropOp56
 70
     1
102
RTVSPost2010Prop57
140
1.0
102
RTVSPost2010PropOp57
 70
     1
102
RTVSPropertyOp0
 70
     1
102
RTVSPropertyOp1
 70
     1
102
RTVSPropertyOp2
 70
     1
102
RTVSPropertyOp3
 70
     1
102
RTVSPropertyOp4
 70
     1
102
RTVSPropertyOp5
 70
     1
102
RTVSPropertyOp6
 70
     1
102
RTVSPropertyOp7
 70
     1
102
RTVSPropertyOp8
 70
     1
102
RTVSPropertyOp9
 70
     1
102
RTVSPropertyOp10
 70
     1
102
RTVSPropertyOp11
 70
     1
102
RTVSPropertyOp12
 70
     1
102
RTVSPropertyOp13
 70
     1
102
RTVSPropertyOp14
 70
     1
102
RTVSPropertyOp15
 70
     1
102
RTVSPropertyOp16
 70
     1
102
RTVSPropertyOp17
 70
     1
102
RTVSPropertyOp18
 70
     1
102
RTVSPropertyOp19
 70
     1
102
RTVSPropertyOp20
 70
     1
102
RTVSPropertyOp21
 70
     1
102
RTVSPropertyOp22
 70
     1
102
RTVSPropertyOp23
 70
     1
102
RTVSPropertyOp24
 70
     1
102
RTVSPropertyOp25
 70
     1
102
RTVSPropertyOp26
 70
     1
102
RTVSPropertyOp27
 70
     1
102
RTVSPropertyOp28
 70
     1
102
RTVSPropertyOp29
 70
     1
102
RTVSPropertyOp30
 70
     1
102
RTVSPropertyOp31
 70
     1
102
RTVSPropertyOp32
 70
     1
102
RTVSPropertyOp33
 70
     1
102
RTVSPropertyOp34
 70
     1
102
RTVSPropertyOp35
 70
     1
102
RTVSPropertyOp36
 70
     1
102
RTVSPropertyOp37
 70
     1
102
RTVSPropertyOp38
 70
     1
102
RTVSPropertyOp39
 70
     1
102
RTVSPropertyOp40
 70
     1
102
RTVSPropertyOp41
 70
     1
102
RTVSPropertyOp42
 70
     1
102
RTVSPropertyOp43
 70
     1
102
RTVSPropertyOp44
 70
     1
102
RTVSPropertyOp45
 70
     1
102
RTVSPropertyOp46
 70
     1
102
RTVSPropertyOp47
 70
     1
102
RTVSPropertyOp48
 70
     1
102
RTVSPropertyOp49
 70
     1
102
RTVSPropertyOp50
 70
     1
102
RTVSPropertyOp51
 70
     0
102
RTVSPropertyOp52
 70
     0
102
RTVSPropertyOp53
 70
     1
102
RTVSPropertyOp54
 70
     1
102
RTVSPropertyOp55
 70
     1
102
RTVSPropertyOp56
 70
     1
102
RTVSPropertyOp57
 70
     1
102
RTVSPropertyOp58
 70
     1
102
RTVSPropertyOp59
 70
     1
102
RTVSPropertyOp60
 70
     1
102
RTVSPropertyOp61
 70
     1
102
RTVSPropertyOp62
 70
     1
  0
XRECORD
  5
6642
102
{ACAD_REACTORS
330
6641
102
}
330
6641
100
AcDbXrecord
280
     1
102
RTVSPost2010Prop28
280
     0
102
RTVSPost2010PropOp28
 70
     1
102
RTVSPost2010Prop29
280
     1
102
RTVSPost2010PropOp29
 70
     1
102
RTVSPost2010Prop30
280
     1
102
RTVSPost2010PropOp30
 70
     1
102
RTVSPost2010Prop31
280
     0
102
RTVSPost2010PropOp31
 70
     1
102
RTVSPost2010Prop32
280
     0
102
RTVSPost2010PropOp32
 70
     1
102
RTVSPost2010Prop33
280
     0
102
RTVSPost2010PropOp33
 70
     1
102
RTVSPost2010Prop34
280
     0
102
RTVSPost2010PropOp34
 70
     1
102
RTVSPost2010Prop35
280
     0
102
RTVSPost2010PropOp35
 70
     1
102
RTVSPost2010Prop36
280
     0
102
RTVSPost2010PropOp36
 70
     1
102
RTVSPost2010Prop37
 90
       50
102
RTVSPost2010PropOp37
 70
     0
102
RTVSPost2010Prop38
140
0.0
102
RTVSPost2010PropOp38
 70
     0
102
RTVSPost2010Prop39
140
1.0
102
RTVSPost2010PropOp39
 70
     0
102
RTVSPost2010Prop40
 90
        0
102
RTVSPost2010PropOp40
 70
     0
102
RTVSPost2010Prop41ColorIndex
 90
       18
102
RTVSPost2010Prop41ColorRGB
 90
        0
102
RTVSPost2010PropOp41
 70
     0
102
RTVSPost2010Prop42
 90
       50
102
RTVSPost2010PropOp42
 70
     0
102
RTVSPost2010Prop43
 90
        3
102
RTVSPost2010PropOp43
 70
     0
102
RTVSPost2010Prop44ColorIndex
 90
        5
102
RTVSPost2010Prop44ColorRGB
 90
      255
102
RTVSPost2010PropOp44
 70
     0
102
RTVSPost2010Prop45
280
     0
102
RTVSPost2010PropOp45
 70
     1
102
RTVSPost2010Prop46
 90
       50
102
RTVSPost2010PropOp46
 70
     0
102
RTVSPost2010Prop47
 90
       50
102
RTVSPost2010PropOp47
 70
     0
102
RTVSPost2010Prop48
 90
       50
102
RTVSPost2010PropOp48
 70
     0
102
RTVSPost2010Prop49
280
     0
102
RTVSPost2010PropOp49
 70
     1
102
RTVSPost2010Prop50
 90
       50
102
RTVSPost2010PropOp50
 70
     0
102
RTVSPost2010Prop51ColorIndex
 90
      256
102
RTVSPost2010Prop51ColorRGB
 90
-16777216
102
RTVSPost2010PropOp51
 70
     0
102
RTVSPost2010Prop52
140
1.0
102
RTVSPost2010PropOp52
 70
     0
102
RTVSPost2010Prop53
 90
        2
102
RTVSPost2010PropOp53
 70
     0
102
RTVSPost2010Prop54
  1
strokes_ogs.tif
102
RTVSPost2010PropOp54
 70
     0
102
RTVSPost2010Prop55
280
     0
102
RTVSPost2010PropOp55
 70
     1
102
RTVSPost2010Prop56
140
1.0
102
RTVSPost2010PropOp56
 70
     0
102
RTVSPost2010Prop57
140
1.0
102
RTVSPost2010PropOp57
 70
     0
102
RTVSPropertyOp0
 70
     0
102
RTVSPropertyOp1
 70
     0
102
RTVSPropertyOp2
 70
     0
102
RTVSPropertyOp3
 70
     0
102
RTVSPropertyOp4
 70
     0
102
RTVSPropertyOp5
 70
     0
102
RTVSPropertyOp6
 70
     0
102
RTVSPropertyOp7
 70
     0
102
RTVSPropertyOp8
 70
     0
102
RTVSPropertyOp9
 70
     0
102
RTVSPropertyOp10
 70
     0
102
RTVSPropertyOp11
 70
     0
102
RTVSPropertyOp12
 70
     0
102
RTVSPropertyOp13
 70
     0
102
RTVSPropertyOp14
 70
     2
102
RTVSPropertyOp15
 70
     0
102
RTVSPropertyOp16
 70
     0
102
RTVSPropertyOp17
 70
     0
102
RTVSPropertyOp18
 70
     0
102
RTVSPropertyOp19
 70
     0
102
RTVSPropertyOp20
 70
     0
102
RTVSPropertyOp21
 70
     0
102
RTVSPropertyOp22
 70
     0
102
RTVSPropertyOp23
 70
     0
102
RTVSPropertyOp24
 70
     0
102
RTVSPropertyOp25
 70
     0
102
RTVSPropertyOp26
 70
     0
102
RTVSPropertyOp27
 70
     0
102
RTVSPropertyOp28
 70
     1
102
RTVSPropertyOp29
 70
     1
102
RTVSPropertyOp30
 70
     1
102
RTVSPropertyOp31
 70
     1
102
RTVSPropertyOp32
 70
     1
102
RTVSPropertyOp33
 70
     1
102
RTVSPropertyOp34
 70
     1
102
RTVSPropertyOp35
 70
     1
102
RTVSPropertyOp36
 70
     1
102
RTVSPropertyOp37
 70
     0
102
RTVSPropertyOp38
 70
     0
102
RTVSPropertyOp39
 70
     0
102
RTVSPropertyOp40
 70
     0
102
RTVSPropertyOp41
 70
     0
102
RTVSPropertyOp42
 70
     0
102
RTVSPropertyOp43
 70
     0
102
RTVSPropertyOp44
 70
     0
102
RTVSPropertyOp45
 70
     1
102
RTVSPropertyOp46
 70
     0
102
RTVSPropertyOp47
 70
     0
102
RTVSPropertyOp48
 70
     0
102
RTVSPropertyOp49
 70
     1
102
RTVSPropertyOp50
 70
     0
102
RTVSPropertyOp51
 70
     0
102
RTVSPropertyOp52
 70
     0
102
RTVSPropertyOp53
 70
     0
102
RTVSPropertyOp54
 70
     0
102
RTVSPropertyOp55
 70
     1
102
RTVSPropertyOp56
 70
     0
102
RTVSPropertyOp57
 70
     0
102
RTVSPropertyOp58
 70
     0
102
RTVSPropertyOp59
 70
     0
102
RTVSPropertyOp60
 70
     0
102
RTVSPropertyOp61
 70
     0
102
RTVSPropertyOp62
 70
     0
  0
XRECORD
  5
6632
102
{ACAD_REACTORS
330
6631
102
}
330
6631
100
AcDbXrecord
280
     1
102
RTVSPost2010Prop28
280
     0
102
RTVSPost2010PropOp28
 70
     1
102
RTVSPost2010Prop29
280
     1
102
RTVSPost2010PropOp29
 70
     1
102
RTVSPost2010Prop30
280
     1
102
RTVSPost2010PropOp30
 70
     1
102
RTVSPost2010Prop31
280
     0
102
RTVSPost2010PropOp31
 70
     1
102
RTVSPost2010Prop32
280
     0
102
RTVSPost2010PropOp32
 70
     1
102
RTVSPost2010Prop33
280
     0
102
RTVSPost2010PropOp33
 70
     1
102
RTVSPost2010Prop34
280
     0
102
RTVSPost2010PropOp34
 70
     1
102
RTVSPost2010Prop35
280
     0
102
RTVSPost2010PropOp35
 70
     1
102
RTVSPost2010Prop36
280
     0
102
RTVSPost2010PropOp36
 70
     1
102
RTVSPost2010Prop37
 90
       50
102
RTVSPost2010PropOp37
 70
     1
102
RTVSPost2010Prop38
140
0.0
102
RTVSPost2010PropOp38
 70
     1
102
RTVSPost2010Prop39
140
1.0
102
RTVSPost2010PropOp39
 70
     1
102
RTVSPost2010Prop40
 90
        0
102
RTVSPost2010PropOp40
 70
     1
102
RTVSPost2010Prop41ColorIndex
 90
       18
102
RTVSPost2010Prop41ColorRGB
 90
        0
102
RTVSPost2010PropOp41
 70
     1
102
RTVSPost2010Prop42
 90
       50
102
RTVSPost2010PropOp42
 70
     1
102
RTVSPost2010Prop43
 90
        3
102
RTVSPost2010PropOp43
 70
     1
102
RTVSPost2010Prop44ColorIndex
 90
        5
102
RTVSPost2010Prop44ColorRGB
 90
      255
102
RTVSPost2010PropOp44
 70
     1
102
RTVSPost2010Prop45
280
     0
102
RTVSPost2010PropOp45
 70
     1
102
RTVSPost2010Prop46
 90
       50
102
RTVSPost2010PropOp46
 70
     1
102
RTVSPost2010Prop47
 90
       50
102
RTVSPost2010PropOp47
 70
     1
102
RTVSPost2010Prop48
 90
       50
102
RTVSPost2010PropOp48
 70
     1
102
RTVSPost2010Prop49
280
     0
102
RTVSPost2010PropOp49
 70
     1
102
RTVSPost2010Prop50
 90
       50
102
RTVSPost2010PropOp50
 70
     1
102
RTVSPost2010Prop51ColorIndex
 90
      256
102
RTVSPost2010Prop51ColorRGB
 90
-16777216
102
RTVSPost2010PropOp51
 70
     0
102
RTVSPost2010Prop52
140
1.0
102
RTVSPost2010PropOp52
 70
     0
102
RTVSPost2010Prop53
 90
        2
102
RTVSPost2010PropOp53
 70
     1
102
RTVSPost2010Prop54
  1
strokes_ogs.tif
102
RTVSPost2010PropOp54
 70
     1
102
RTVSPost2010Prop55
280
     0
102
RTVSPost2010PropOp55
 70
     1
102
RTVSPost2010Prop56
140
1.0
102
RTVSPost2010PropOp56
 70
     1
102
RTVSPost2010Prop57
140
1.0
102
RTVSPost2010PropOp57
 70
     1
102
RTVSPropertyOp0
 70
     1
102
RTVSPropertyOp1
 70
     1
102
RTVSPropertyOp2
 70
     1
102
RTVSPropertyOp3
 70
     1
102
RTVSPropertyOp4
 70
     1
102
RTVSPropertyOp5
 70
     1
102
RTVSPropertyOp6
 70
     1
102
RTVSPropertyOp7
 70
     1
102
RTVSPropertyOp8
 70
     1
102
RTVSPropertyOp9
 70
     1
102
RTVSPropertyOp10
 70
     1
102
RTVSPropertyOp11
 70
     1
102
RTVSPropertyOp12
 70
     1
102
RTVSPropertyOp13
 70
     1
102
RTVSPropertyOp14
 70
     1
102
RTVSPropertyOp15
 70
     1
102
RTVSPropertyOp16
 70
     1
102
RTVSPropertyOp17
 70
     1
102
RTVSPropertyOp18
 70
     1
102
RTVSPropertyOp19
 70
     1
102
RTVSPropertyOp20
 70
     1
102
RTVSPropertyOp21
 70
     1
102
RTVSPropertyOp22
 70
     1
102
RTVSPropertyOp23
 70
     1
102
RTVSPropertyOp24
 70
     1
102
RTVSPropertyOp25
 70
     1
102
RTVSPropertyOp26
 70
     1
102
RTVSPropertyOp27
 70
     1
102
RTVSPropertyOp28
 70
     1
102
RTVSPropertyOp29
 70
     1
102
RTVSPropertyOp30
 70
     1
102
RTVSPropertyOp31
 70
     1
102
RTVSPropertyOp32
 70
     1
102
RTVSPropertyOp33
 70
     1
102
RTVSPropertyOp34
 70
     1
102
RTVSPropertyOp35
 70
     1
102
RTVSPropertyOp36
 70
     1
102
RTVSPropertyOp37
 70
     1
102
RTVSPropertyOp38
 70
     1
102
RTVSPropertyOp39
 70
     1
102
RTVSPropertyOp40
 70
     1
102
RTVSPropertyOp41
 70
     1
102
RTVSPropertyOp42
 70
     1
102
RTVSPropertyOp43
 70
     1
102
RTVSPropertyOp44
 70
     1
102
RTVSPropertyOp45
 70
     1
102
RTVSPropertyOp46
 70
     1
102
RTVSPropertyOp47
 70
     1
102
RTVSPropertyOp48
 70
     1
102
RTVSPropertyOp49
 70
     1
102
RTVSPropertyOp50
 70
     1
102
RTVSPropertyOp51
 70
     0
102
RTVSPropertyOp52
 70
     0
102
RTVSPropertyOp53
 70
     1
102
RTVSPropertyOp54
 70
     1
102
RTVSPropertyOp55
 70
     1
102
RTVSPropertyOp56
 70
     1
102
RTVSPropertyOp57
 70
     1
102
RTVSPropertyOp58
 70
     1
102
RTVSPropertyOp59
 70
     1
102
RTVSPropertyOp60
 70
     1
102
RTVSPropertyOp61
 70
     1
102
RTVSPropertyOp62
 70
     1
  0
XRECORD
  5
6644
102
{ACAD_REACTORS
330
6643
102
}
330
6643
100
AcDbXrecord
280
     1
102
RTVSPost2010Prop28
280
     0
102
RTVSPost2010PropOp28
 70
     1
102
RTVSPost2010Prop29
280
     1
102
RTVSPost2010PropOp29
 70
     1
102
RTVSPost2010Prop30
280
     1
102
RTVSPost2010PropOp30
 70
     1
102
RTVSPost2010Prop31
280
     0
102
RTVSPost2010PropOp31
 70
     1
102
RTVSPost2010Prop32
280
     0
102
RTVSPost2010PropOp32
 70
     1
102
RTVSPost2010Prop33
280
     0
102
RTVSPost2010PropOp33
 70
     1
102
RTVSPost2010Prop34
280
     0
102
RTVSPost2010PropOp34
 70
     1
102
RTVSPost2010Prop35
280
     0
102
RTVSPost2010PropOp35
 70
     1
102
RTVSPost2010Prop36
280
     0
102
RTVSPost2010PropOp36
 70
     1
102
RTVSPost2010Prop37
 90
       50
102
RTVSPost2010PropOp37
 70
     0
102
RTVSPost2010Prop38
140
0.0
102
RTVSPost2010PropOp38
 70
     0
102
RTVSPost2010Prop39
140
1.0
102
RTVSPost2010PropOp39
 70
     0
102
RTVSPost2010Prop40
 90
        0
102
RTVSPost2010PropOp40
 70
     0
102
RTVSPost2010Prop41ColorIndex
 90
       18
102
RTVSPost2010Prop41ColorRGB
 90
        0
102
RTVSPost2010PropOp41
 70
     0
102
RTVSPost2010Prop42
 90
       50
102
RTVSPost2010PropOp42
 70
     0
102
RTVSPost2010Prop43
 90
        3
102
RTVSPost2010PropOp43
 70
     0
102
RTVSPost2010Prop44ColorIndex
 90
        5
102
RTVSPost2010Prop44ColorRGB
 90
      255
102
RTVSPost2010PropOp44
 70
     0
102
RTVSPost2010Prop45
280
     0
102
RTVSPost2010PropOp45
 70
     1
102
RTVSPost2010Prop46
 90
       50
102
RTVSPost2010PropOp46
 70
     0
102
RTVSPost2010Prop47
 90
       50
102
RTVSPost2010PropOp47
 70
     0
102
RTVSPost2010Prop48
 90
       50
102
RTVSPost2010PropOp48
 70
     0
102
RTVSPost2010Prop49
280
     0
102
RTVSPost2010PropOp49
 70
     1
102
RTVSPost2010Prop50
 90
       50
102
RTVSPost2010PropOp50
 70
     0
102
RTVSPost2010Prop51ColorIndex
 90
      256
102
RTVSPost2010Prop51ColorRGB
 90
-16777216
102
RTVSPost2010PropOp51
 70
     0
102
RTVSPost2010Prop52
140
1.0
102
RTVSPost2010PropOp52
 70
     0
102
RTVSPost2010Prop53
 90
        2
102
RTVSPost2010PropOp53
 70
     0
102
RTVSPost2010Prop54
  1
strokes_ogs.tif
102
RTVSPost2010PropOp54
 70
     0
102
RTVSPost2010Prop55
280
     0
102
RTVSPost2010PropOp55
 70
     1
102
RTVSPost2010Prop56
140
1.0
102
RTVSPost2010PropOp56
 70
     0
102
RTVSPost2010Prop57
140
1.0
102
RTVSPost2010PropOp57
 70
     0
102
RTVSPropertyOp0
 70
     0
102
RTVSPropertyOp1
 70
     0
102
RTVSPropertyOp2
 70
     0
102
RTVSPropertyOp3
 70
     0
102
RTVSPropertyOp4
 70
     0
102
RTVSPropertyOp5
 70
     0
102
RTVSPropertyOp6
 70
     0
102
RTVSPropertyOp7
 70
     0
102
RTVSPropertyOp8
 70
     0
102
RTVSPropertyOp9
 70
     0
102
RTVSPropertyOp10
 70
     0
102
RTVSPropertyOp11
 70
     0
102
RTVSPropertyOp12
 70
     0
102
RTVSPropertyOp13
 70
     0
102
RTVSPropertyOp14
 70
     2
102
RTVSPropertyOp15
 70
     0
102
RTVSPropertyOp16
 70
     0
102
RTVSPropertyOp17
 70
     0
102
RTVSPropertyOp18
 70
     0
102
RTVSPropertyOp19
 70
     0
102
RTVSPropertyOp20
 70
     0
102
RTVSPropertyOp21
 70
     0
102
RTVSPropertyOp22
 70
     0
102
RTVSPropertyOp23
 70
     0
102
RTVSPropertyOp24
 70
     0
102
RTVSPropertyOp25
 70
     0
102
RTVSPropertyOp26
 70
     0
102
RTVSPropertyOp27
 70
     0
102
RTVSPropertyOp28
 70
     1
102
RTVSPropertyOp29
 70
     1
102
RTVSPropertyOp30
 70
     1
102
RTVSPropertyOp31
 70
     1
102
RTVSPropertyOp32
 70
     1
102
RTVSPropertyOp33
 70
     1
102
RTVSPropertyOp34
 70
     1
102
RTVSPropertyOp35
 70
     1
102
RTVSPropertyOp36
 70
     1
102
RTVSPropertyOp37
 70
     0
102
RTVSPropertyOp38
 70
     0
102
RTVSPropertyOp39
 70
     0
102
RTVSPropertyOp40
 70
     0
102
RTVSPropertyOp41
 70
     0
102
RTVSPropertyOp42
 70
     0
102
RTVSPropertyOp43
 70
     0
102
RTVSPropertyOp44
 70
     0
102
RTVSPropertyOp45
 70
     1
102
RTVSPropertyOp46
 70
     0
102
RTVSPropertyOp47
 70
     0
102
RTVSPropertyOp48
 70
     0
102
RTVSPropertyOp49
 70
     1
102
RTVSPropertyOp50
 70
     0
102
RTVSPropertyOp51
 70
     0
102
RTVSPropertyOp52
 70
     0
102
RTVSPropertyOp53
 70
     0
102
RTVSPropertyOp54
 70
     0
102
RTVSPropertyOp55
 70
     1
102
RTVSPropertyOp56
 70
     0
102
RTVSPropertyOp57
 70
     0
102
RTVSPropertyOp58
 70
     0
102
RTVSPropertyOp59
 70
     0
102
RTVSPropertyOp60
 70
     0
102
RTVSPropertyOp61
 70
     0
102
RTVSPropertyOp62
 70
     0
  0
XRECORD
  5
662A
102
{ACAD_REACTORS
330
6629
102
}
330
6629
100
AcDbXrecord
280
     1
102
RTVSPost2010Prop28
280
     0
102
RTVSPost2010PropOp28
 70
     1
102
RTVSPost2010Prop29
280
     1
102
RTVSPost2010PropOp29
 70
     1
102
RTVSPost2010Prop30
280
     1
102
RTVSPost2010PropOp30
 70
     1
102
RTVSPost2010Prop31
280
     0
102
RTVSPost2010PropOp31
 70
     1
102
RTVSPost2010Prop32
280
     0
102
RTVSPost2010PropOp32
 70
     1
102
RTVSPost2010Prop33
280
     0
102
RTVSPost2010PropOp33
 70
     1
102
RTVSPost2010Prop34
280
     0
102
RTVSPost2010PropOp34
 70
     1
102
RTVSPost2010Prop35
280
     0
102
RTVSPost2010PropOp35
 70
     1
102
RTVSPost2010Prop36
280
     0
102
RTVSPost2010PropOp36
 70
     1
102
RTVSPost2010Prop37
 90
       50
102
RTVSPost2010PropOp37
 70
     1
102
RTVSPost2010Prop38
140
0.0
102
RTVSPost2010PropOp38
 70
     1
102
RTVSPost2010Prop39
140
1.0
102
RTVSPost2010PropOp39
 70
     1
102
RTVSPost2010Prop40
 90
        0
102
RTVSPost2010PropOp40
 70
     1
102
RTVSPost2010Prop41ColorIndex
 90
       18
102
RTVSPost2010Prop41ColorRGB
 90
        0
102
RTVSPost2010PropOp41
 70
     1
102
RTVSPost2010Prop42
 90
       50
102
RTVSPost2010PropOp42
 70
     1
102
RTVSPost2010Prop43
 90
        3
102
RTVSPost2010PropOp43
 70
     1
102
RTVSPost2010Prop44ColorIndex
 90
        5
102
RTVSPost2010Prop44ColorRGB
 90
      255
102
RTVSPost2010PropOp44
 70
     1
102
RTVSPost2010Prop45
280
     0
102
RTVSPost2010PropOp45
 70
     1
102
RTVSPost2010Prop46
 90
       50
102
RTVSPost2010PropOp46
 70
     1
102
RTVSPost2010Prop47
 90
       50
102
RTVSPost2010PropOp47
 70
     1
102
RTVSPost2010Prop48
 90
       50
102
RTVSPost2010PropOp48
 70
     1
102
RTVSPost2010Prop49
280
     0
102
RTVSPost2010PropOp49
 70
     1
102
RTVSPost2010Prop50
 90
       50
102
RTVSPost2010PropOp50
 70
     1
102
RTVSPost2010Prop51ColorIndex
 90
      256
102
RTVSPost2010Prop51ColorRGB
 90
-16777216
102
RTVSPost2010PropOp51
 70
     0
102
RTVSPost2010Prop52
140
1.0
102
RTVSPost2010PropOp52
 70
     0
102
RTVSPost2010Prop53
 90
        2
102
RTVSPost2010PropOp53
 70
     1
102
RTVSPost2010Prop54
  1
strokes_ogs.tif
102
RTVSPost2010PropOp54
 70
     1
102
RTVSPost2010Prop55
280
     0
102
RTVSPost2010PropOp55
 70
     1
102
RTVSPost2010Prop56
140
1.0
102
RTVSPost2010PropOp56
 70
     1
102
RTVSPost2010Prop57
140
1.0
102
RTVSPost2010PropOp57
 70
     1
102
RTVSPropertyOp0
 70
     1
102
RTVSPropertyOp1
 70
     1
102
RTVSPropertyOp2
 70
     1
102
RTVSPropertyOp3
 70
     1
102
RTVSPropertyOp4
 70
     1
102
RTVSPropertyOp5
 70
     1
102
RTVSPropertyOp6
 70
     1
102
RTVSPropertyOp7
 70
     1
102
RTVSPropertyOp8
 70
     1
102
RTVSPropertyOp9
 70
     1
102
RTVSPropertyOp10
 70
     1
102
RTVSPropertyOp11
 70
     1
102
RTVSPropertyOp12
 70
     1
102
RTVSPropertyOp13
 70
     1
102
RTVSPropertyOp14
 70
     1
102
RTVSPropertyOp15
 70
     1
102
RTVSPropertyOp16
 70
     1
102
RTVSPropertyOp17
 70
     1
102
RTVSPropertyOp18
 70
     1
102
RTVSPropertyOp19
 70
     1
102
RTVSPropertyOp20
 70
     1
102
RTVSPropertyOp21
 70
     1
102
RTVSPropertyOp22
 70
     1
102
RTVSPropertyOp23
 70
     1
102
RTVSPropertyOp24
 70
     1
102
RTVSPropertyOp25
 70
     1
102
RTVSPropertyOp26
 70
     1
102
RTVSPropertyOp27
 70
     1
102
RTVSPropertyOp28
 70
     1
102
RTVSPropertyOp29
 70
     1
102
RTVSPropertyOp30
 70
     1
102
RTVSPropertyOp31
 70
     1
102
RTVSPropertyOp32
 70
     1
102
RTVSPropertyOp33
 70
     1
102
RTVSPropertyOp34
 70
     1
102
RTVSPropertyOp35
 70
     1
102
RTVSPropertyOp36
 70
     1
102
RTVSPropertyOp37
 70
     1
102
RTVSPropertyOp38
 70
     1
102
RTVSPropertyOp39
 70
     1
102
RTVSPropertyOp40
 70
     1
102
RTVSPropertyOp41
 70
     1
102
RTVSPropertyOp42
 70
     1
102
RTVSPropertyOp43
 70
     1
102
RTVSPropertyOp44
 70
     1
102
RTVSPropertyOp45
 70
     1
102
RTVSPropertyOp46
 70
     1
102
RTVSPropertyOp47
 70
     1
102
RTVSPropertyOp48
 70
     1
102
RTVSPropertyOp49
 70
     1
102
RTVSPropertyOp50
 70
     1
102
RTVSPropertyOp51
 70
     0
102
RTVSPropertyOp52
 70
     0
102
RTVSPropertyOp53
 70
     1
102
RTVSPropertyOp54
 70
     1
102
RTVSPropertyOp55
 70
     1
102
RTVSPropertyOp56
 70
     1
102
RTVSPropertyOp57
 70
     1
102
RTVSPropertyOp58
 70
     1
102
RTVSPropertyOp59
 70
     1
102
RTVSPropertyOp60
 70
     1
102
RTVSPropertyOp61
 70
     1
102
RTVSPropertyOp62
 70
     1
  0
XRECORD
  5
6640
102
{ACAD_REACTORS
330
663F
102
}
330
663F
100
AcDbXrecord
280
     1
102
RTVSPost2010Prop28
280
     0
102
RTVSPost2010PropOp28
 70
     1
102
RTVSPost2010Prop29
280
     1
102
RTVSPost2010PropOp29
 70
     1
102
RTVSPost2010Prop30
280
     1
102
RTVSPost2010PropOp30
 70
     1
102
RTVSPost2010Prop31
280
     0
102
RTVSPost2010PropOp31
 70
     1
102
RTVSPost2010Prop32
280
     0
102
RTVSPost2010PropOp32
 70
     1
102
RTVSPost2010Prop33
280
     0
102
RTVSPost2010PropOp33
 70
     1
102
RTVSPost2010Prop34
280
     0
102
RTVSPost2010PropOp34
 70
     1
102
RTVSPost2010Prop35
280
     0
102
RTVSPost2010PropOp35
 70
     1
102
RTVSPost2010Prop36
280
     0
102
RTVSPost2010PropOp36
 70
     1
102
RTVSPost2010Prop37
 90
       50
102
RTVSPost2010PropOp37
 70
     1
102
RTVSPost2010Prop38
140
0.0
102
RTVSPost2010PropOp38
 70
     1
102
RTVSPost2010Prop39
140
1.0
102
RTVSPost2010PropOp39
 70
     1
102
RTVSPost2010Prop40
 90
        0
102
RTVSPost2010PropOp40
 70
     1
102
RTVSPost2010Prop41ColorIndex
 90
       18
102
RTVSPost2010Prop41ColorRGB
 90
        0
102
RTVSPost2010PropOp41
 70
     1
102
RTVSPost2010Prop42
 90
       50
102
RTVSPost2010PropOp42
 70
     1
102
RTVSPost2010Prop43
 90
        3
102
RTVSPost2010PropOp43
 70
     1
102
RTVSPost2010Prop44ColorIndex
 90
        5
102
RTVSPost2010Prop44ColorRGB
 90
      255
102
RTVSPost2010PropOp44
 70
     1
102
RTVSPost2010Prop45
280
     0
102
RTVSPost2010PropOp45
 70
     1
102
RTVSPost2010Prop46
 90
       50
102
RTVSPost2010PropOp46
 70
     1
102
RTVSPost2010Prop47
 90
       50
102
RTVSPost2010PropOp47
 70
     1
102
RTVSPost2010Prop48
 90
       50
102
RTVSPost2010PropOp48
 70
     1
102
RTVSPost2010Prop49
280
     0
102
RTVSPost2010PropOp49
 70
     1
102
RTVSPost2010Prop50
 90
       50
102
RTVSPost2010PropOp50
 70
     1
102
RTVSPost2010Prop51ColorIndex
 90
      256
102
RTVSPost2010Prop51ColorRGB
 90
-16777216
102
RTVSPost2010PropOp51
 70
     0
102
RTVSPost2010Prop52
140
1.0
102
RTVSPost2010PropOp52
 70
     0
102
RTVSPost2010Prop53
 90
        2
102
RTVSPost2010PropOp53
 70
     1
102
RTVSPost2010Prop54
  1
strokes_ogs.tif
102
RTVSPost2010PropOp54
 70
     1
102
RTVSPost2010Prop55
280
     0
102
RTVSPost2010PropOp55
 70
     1
102
RTVSPost2010Prop56
140
1.0
102
RTVSPost2010PropOp56
 70
     1
102
RTVSPost2010Prop57
140
1.0
102
RTVSPost2010PropOp57
 70
     1
102
RTVSPropertyOp0
 70
     1
102
RTVSPropertyOp1
 70
     1
102
RTVSPropertyOp2
 70
     1
102
RTVSPropertyOp3
 70
     1
102
RTVSPropertyOp4
 70
     1
102
RTVSPropertyOp5
 70
     1
102
RTVSPropertyOp6
 70
     1
102
RTVSPropertyOp7
 70
     1
102
RTVSPropertyOp8
 70
     1
102
RTVSPropertyOp9
 70
     1
102
RTVSPropertyOp10
 70
     1
102
RTVSPropertyOp11
 70
     1
102
RTVSPropertyOp12
 70
     1
102
RTVSPropertyOp13
 70
     1
102
RTVSPropertyOp14
 70
     1
102
RTVSPropertyOp15
 70
     1
102
RTVSPropertyOp16
 70
     1
102
RTVSPropertyOp17
 70
     1
102
RTVSPropertyOp18
 70
     1
102
RTVSPropertyOp19
 70
     1
102
RTVSPropertyOp20
 70
     1
102
RTVSPropertyOp21
 70
     1
102
RTVSPropertyOp22
 70
     1
102
RTVSPropertyOp23
 70
     1
102
RTVSPropertyOp24
 70
     1
102
RTVSPropertyOp25
 70
     1
102
RTVSPropertyOp26
 70
     1
102
RTVSPropertyOp27
 70
     1
102
RTVSPropertyOp28
 70
     1
102
RTVSPropertyOp29
 70
     1
102
RTVSPropertyOp30
 70
     1
102
RTVSPropertyOp31
 70
     1
102
RTVSPropertyOp32
 70
     1
102
RTVSPropertyOp33
 70
     1
102
RTVSPropertyOp34
 70
     1
102
RTVSPropertyOp35
 70
     1
102
RTVSPropertyOp36
 70
     1
102
RTVSPropertyOp37
 70
     1
102
RTVSPropertyOp38
 70
     1
102
RTVSPropertyOp39
 70
     1
102
RTVSPropertyOp40
 70
     1
102
RTVSPropertyOp41
 70
     1
102
RTVSPropertyOp42
 70
     1
102
RTVSPropertyOp43
 70
     1
102
RTVSPropertyOp44
 70
     1
102
RTVSPropertyOp45
 70
     1
102
RTVSPropertyOp46
 70
     1
102
RTVSPropertyOp47
 70
     1
102
RTVSPropertyOp48
 70
     1
102
RTVSPropertyOp49
 70
     1
102
RTVSPropertyOp50
 70
     1
102
RTVSPropertyOp51
 70
     0
102
RTVSPropertyOp52
 70
     0
102
RTVSPropertyOp53
 70
     1
102
RTVSPropertyOp54
 70
     1
102
RTVSPropertyOp55
 70
     1
102
RTVSPropertyOp56
 70
     1
102
RTVSPropertyOp57
 70
     1
102
RTVSPropertyOp58
 70
     1
102
RTVSPropertyOp59
 70
     1
102
RTVSPropertyOp60
 70
     1
102
RTVSPropertyOp61
 70
     1
102
RTVSPropertyOp62
 70
     1
  0
XRECORD
  5
663E
102
{ACAD_REACTORS
330
663D
102
}
330
663D
100
AcDbXrecord
280
     1
102
RTVSPost2010Prop28
280
     0
102
RTVSPost2010PropOp28
 70
     1
102
RTVSPost2010Prop29
280
     1
102
RTVSPost2010PropOp29
 70
     1
102
RTVSPost2010Prop30
280
     1
102
RTVSPost2010PropOp30
 70
     1
102
RTVSPost2010Prop31
280
     0
102
RTVSPost2010PropOp31
 70
     1
102
RTVSPost2010Prop32
280
     0
102
RTVSPost2010PropOp32
 70
     1
102
RTVSPost2010Prop33
280
     0
102
RTVSPost2010PropOp33
 70
     1
102
RTVSPost2010Prop34
280
     0
102
RTVSPost2010PropOp34
 70
     1
102
RTVSPost2010Prop35
280
     0
102
RTVSPost2010PropOp35
 70
     1
102
RTVSPost2010Prop36
280
     0
102
RTVSPost2010PropOp36
 70
     1
102
RTVSPost2010Prop37
 90
       50
102
RTVSPost2010PropOp37
 70
     1
102
RTVSPost2010Prop38
140
0.0
102
RTVSPost2010PropOp38
 70
     1
102
RTVSPost2010Prop39
140
1.0
102
RTVSPost2010PropOp39
 70
     1
102
RTVSPost2010Prop40
 90
        0
102
RTVSPost2010PropOp40
 70
     1
102
RTVSPost2010Prop41ColorIndex
 90
       18
102
RTVSPost2010Prop41ColorRGB
 90
        0
102
RTVSPost2010PropOp41
 70
     1
102
RTVSPost2010Prop42
 90
       50
102
RTVSPost2010PropOp42
 70
     1
102
RTVSPost2010Prop43
 90
        3
102
RTVSPost2010PropOp43
 70
     1
102
RTVSPost2010Prop44ColorIndex
 90
        5
102
RTVSPost2010Prop44ColorRGB
 90
      255
102
RTVSPost2010PropOp44
 70
     1
102
RTVSPost2010Prop45
280
     0
102
RTVSPost2010PropOp45
 70
     1
102
RTVSPost2010Prop46
 90
       50
102
RTVSPost2010PropOp46
 70
     1
102
RTVSPost2010Prop47
 90
       50
102
RTVSPost2010PropOp47
 70
     1
102
RTVSPost2010Prop48
 90
       50
102
RTVSPost2010PropOp48
 70
     1
102
RTVSPost2010Prop49
280
     0
102
RTVSPost2010PropOp49
 70
     1
102
RTVSPost2010Prop50
 90
       50
102
RTVSPost2010PropOp50
 70
     1
102
RTVSPost2010Prop51ColorIndex
 90
      256
102
RTVSPost2010Prop51ColorRGB
 90
-16777216
102
RTVSPost2010PropOp51
 70
     0
102
RTVSPost2010Prop52
140
1.0
102
RTVSPost2010PropOp52
 70
     0
102
RTVSPost2010Prop53
 90
        2
102
RTVSPost2010PropOp53
 70
     1
102
RTVSPost2010Prop54
  1
strokes_ogs.tif
102
RTVSPost2010PropOp54
 70
     1
102
RTVSPost2010Prop55
280
     0
102
RTVSPost2010PropOp55
 70
     1
102
RTVSPost2010Prop56
140
1.0
102
RTVSPost2010PropOp56
 70
     1
102
RTVSPost2010Prop57
140
1.0
102
RTVSPost2010PropOp57
 70
     1
102
RTVSPropertyOp0
 70
     1
102
RTVSPropertyOp1
 70
     1
102
RTVSPropertyOp2
 70
     1
102
RTVSPropertyOp3
 70
     1
102
RTVSPropertyOp4
 70
     1
102
RTVSPropertyOp5
 70
     1
102
RTVSPropertyOp6
 70
     1
102
RTVSPropertyOp7
 70
     1
102
RTVSPropertyOp8
 70
     1
102
RTVSPropertyOp9
 70
     1
102
RTVSPropertyOp10
 70
     1
102
RTVSPropertyOp11
 70
     1
102
RTVSPropertyOp12
 70
     1
102
RTVSPropertyOp13
 70
     1
102
RTVSPropertyOp14
 70
     1
102
RTVSPropertyOp15
 70
     1
102
RTVSPropertyOp16
 70
     1
102
RTVSPropertyOp17
 70
     1
102
RTVSPropertyOp18
 70
     1
102
RTVSPropertyOp19
 70
     1
102
RTVSPropertyOp20
 70
     1
102
RTVSPropertyOp21
 70
     1
102
RTVSPropertyOp22
 70
     1
102
RTVSPropertyOp23
 70
     1
102
RTVSPropertyOp24
 70
     1
102
RTVSPropertyOp25
 70
     1
102
RTVSPropertyOp26
 70
     1
102
RTVSPropertyOp27
 70
     1
102
RTVSPropertyOp28
 70
     1
102
RTVSPropertyOp29
 70
     1
102
RTVSPropertyOp30
 70
     1
102
RTVSPropertyOp31
 70
     1
102
RTVSPropertyOp32
 70
     1
102
RTVSPropertyOp33
 70
     1
102
RTVSPropertyOp34
 70
     1
102
RTVSPropertyOp35
 70
     1
102
RTVSPropertyOp36
 70
     1
102
RTVSPropertyOp37
 70
     1
102
RTVSPropertyOp38
 70
     1
102
RTVSPropertyOp39
 70
     1
102
RTVSPropertyOp40
 70
     1
102
RTVSPropertyOp41
 70
     1
102
RTVSPropertyOp42
 70
     1
102
RTVSPropertyOp43
 70
     1
102
RTVSPropertyOp44
 70
     1
102
RTVSPropertyOp45
 70
     1
102
RTVSPropertyOp46
 70
     1
102
RTVSPropertyOp47
 70
     1
102
RTVSPropertyOp48
 70
     1
102
RTVSPropertyOp49
 70
     1
102
RTVSPropertyOp50
 70
     1
102
RTVSPropertyOp51
 70
     0
102
RTVSPropertyOp52
 70
     0
102
RTVSPropertyOp53
 70
     1
102
RTVSPropertyOp54
 70
     1
102
RTVSPropertyOp55
 70
     1
102
RTVSPropertyOp56
 70
     1
102
RTVSPropertyOp57
 70
     1
102
RTVSPropertyOp58
 70
     1
102
RTVSPropertyOp59
 70
     1
102
RTVSPropertyOp60
 70
     1
102
RTVSPropertyOp61
 70
     1
102
RTVSPropertyOp62
 70
     1
  0
XRECORD
  5
6638
102
{ACAD_REACTORS
330
6637
102
}
330
6637
100
AcDbXrecord
280
     1
102
RTVSPost2010Prop28
280
     0
102
RTVSPost2010PropOp28
 70
     1
102
RTVSPost2010Prop29
280
     1
102
RTVSPost2010PropOp29
 70
     1
102
RTVSPost2010Prop30
280
     1
102
RTVSPost2010PropOp30
 70
     1
102
RTVSPost2010Prop31
280
     0
102
RTVSPost2010PropOp31
 70
     1
102
RTVSPost2010Prop32
280
     0
102
RTVSPost2010PropOp32
 70
     1
102
RTVSPost2010Prop33
280
     0
102
RTVSPost2010PropOp33
 70
     1
102
RTVSPost2010Prop34
280
     0
102
RTVSPost2010PropOp34
 70
     1
102
RTVSPost2010Prop35
280
     0
102
RTVSPost2010PropOp35
 70
     1
102
RTVSPost2010Prop36
280
     0
102
RTVSPost2010PropOp36
 70
     1
102
RTVSPost2010Prop37
 90
       50
102
RTVSPost2010PropOp37
 70
     1
102
RTVSPost2010Prop38
140
0.0
102
RTVSPost2010PropOp38
 70
     1
102
RTVSPost2010Prop39
140
1.0
102
RTVSPost2010PropOp39
 70
     1
102
RTVSPost2010Prop40
 90
        0
102
RTVSPost2010PropOp40
 70
     1
102
RTVSPost2010Prop41ColorIndex
 90
       18
102
RTVSPost2010Prop41ColorRGB
 90
        0
102
RTVSPost2010PropOp41
 70
     1
102
RTVSPost2010Prop42
 90
       50
102
RTVSPost2010PropOp42
 70
     1
102
RTVSPost2010Prop43
 90
        3
102
RTVSPost2010PropOp43
 70
     1
102
RTVSPost2010Prop44ColorIndex
 90
        5
102
RTVSPost2010Prop44ColorRGB
 90
      255
102
RTVSPost2010PropOp44
 70
     1
102
RTVSPost2010Prop45
280
     0
102
RTVSPost2010PropOp45
 70
     1
102
RTVSPost2010Prop46
 90
       50
102
RTVSPost2010PropOp46
 70
     1
102
RTVSPost2010Prop47
 90
       50
102
RTVSPost2010PropOp47
 70
     1
102
RTVSPost2010Prop48
 90
       50
102
RTVSPost2010PropOp48
 70
     1
102
RTVSPost2010Prop49
280
     0
102
RTVSPost2010PropOp49
 70
     1
102
RTVSPost2010Prop50
 90
       50
102
RTVSPost2010PropOp50
 70
     1
102
RTVSPost2010Prop51ColorIndex
 90
      256
102
RTVSPost2010Prop51ColorRGB
 90
-16777216
102
RTVSPost2010PropOp51
 70
     0
102
RTVSPost2010Prop52
140
1.0
102
RTVSPost2010PropOp52
 70
     0
102
RTVSPost2010Prop53
 90
        2
102
RTVSPost2010PropOp53
 70
     1
102
RTVSPost2010Prop54
  1
strokes_ogs.tif
102
RTVSPost2010PropOp54
 70
     1
102
RTVSPost2010Prop55
280
     0
102
RTVSPost2010PropOp55
 70
     1
102
RTVSPost2010Prop56
140
1.0
102
RTVSPost2010PropOp56
 70
     1
102
RTVSPost2010Prop57
140
1.0
102
RTVSPost2010PropOp57
 70
     1
102
RTVSPropertyOp0
 70
     1
102
RTVSPropertyOp1
 70
     1
102
RTVSPropertyOp2
 70
     1
102
RTVSPropertyOp3
 70
     1
102
RTVSPropertyOp4
 70
     1
102
RTVSPropertyOp5
 70
     1
102
RTVSPropertyOp6
 70
     1
102
RTVSPropertyOp7
 70
     1
102
RTVSPropertyOp8
 70
     1
102
RTVSPropertyOp9
 70
     1
102
RTVSPropertyOp10
 70
     1
102
RTVSPropertyOp11
 70
     1
102
RTVSPropertyOp12
 70
     1
102
RTVSPropertyOp13
 70
     1
102
RTVSPropertyOp14
 70
     1
102
RTVSPropertyOp15
 70
     1
102
RTVSPropertyOp16
 70
     1
102
RTVSPropertyOp17
 70
     1
102
RTVSPropertyOp18
 70
     1
102
RTVSPropertyOp19
 70
     1
102
RTVSPropertyOp20
 70
     1
102
RTVSPropertyOp21
 70
     1
102
RTVSPropertyOp22
 70
     1
102
RTVSPropertyOp23
 70
     1
102
RTVSPropertyOp24
 70
     1
102
RTVSPropertyOp25
 70
     1
102
RTVSPropertyOp26
 70
     1
102
RTVSPropertyOp27
 70
     1
102
RTVSPropertyOp28
 70
     1
102
RTVSPropertyOp29
 70
     1
102
RTVSPropertyOp30
 70
     1
102
RTVSPropertyOp31
 70
     1
102
RTVSPropertyOp32
 70
     1
102
RTVSPropertyOp33
 70
     1
102
RTVSPropertyOp34
 70
     1
102
RTVSPropertyOp35
 70
     1
102
RTVSPropertyOp36
 70
     1
102
RTVSPropertyOp37
 70
     1
102
RTVSPropertyOp38
 70
     1
102
RTVSPropertyOp39
 70
     1
102
RTVSPropertyOp40
 70
     1
102
RTVSPropertyOp41
 70
     1
102
RTVSPropertyOp42
 70
     1
102
RTVSPropertyOp43
 70
     1
102
RTVSPropertyOp44
 70
     1
102
RTVSPropertyOp45
 70
     1
102
RTVSPropertyOp46
 70
     1
102
RTVSPropertyOp47
 70
     1
102
RTVSPropertyOp48
 70
     1
102
RTVSPropertyOp49
 70
     1
102
RTVSPropertyOp50
 70
     1
102
RTVSPropertyOp51
 70
     0
102
RTVSPropertyOp52
 70
     0
102
RTVSPropertyOp53
 70
     1
102
RTVSPropertyOp54
 70
     1
102
RTVSPropertyOp55
 70
     1
102
RTVSPropertyOp56
 70
     1
102
RTVSPropertyOp57
 70
     1
102
RTVSPropertyOp58
 70
     1
102
RTVSPropertyOp59
 70
     1
102
RTVSPropertyOp60
 70
     1
102
RTVSPropertyOp61
 70
     1
102
RTVSPropertyOp62
 70
     1
  0
XRECORD
  5
663A
102
{ACAD_REACTORS
330
6639
102
}
330
6639
100
AcDbXrecord
280
     1
102
RTVSPost2010Prop28
280
     0
102
RTVSPost2010PropOp28
 70
     1
102
RTVSPost2010Prop29
280
     1
102
RTVSPost2010PropOp29
 70
     1
102
RTVSPost2010Prop30
280
     1
102
RTVSPost2010PropOp30
 70
     1
102
RTVSPost2010Prop31
280
     0
102
RTVSPost2010PropOp31
 70
     1
102
RTVSPost2010Prop32
280
     0
102
RTVSPost2010PropOp32
 70
     1
102
RTVSPost2010Prop33
280
     0
102
RTVSPost2010PropOp33
 70
     1
102
RTVSPost2010Prop34
280
     0
102
RTVSPost2010PropOp34
 70
     1
102
RTVSPost2010Prop35
280
     0
102
RTVSPost2010PropOp35
 70
     1
102
RTVSPost2010Prop36
280
     0
102
RTVSPost2010PropOp36
 70
     1
102
RTVSPost2010Prop37
 90
       50
102
RTVSPost2010PropOp37
 70
     1
102
RTVSPost2010Prop38
140
0.0
102
RTVSPost2010PropOp38
 70
     1
102
RTVSPost2010Prop39
140
1.0
102
RTVSPost2010PropOp39
 70
     1
102
RTVSPost2010Prop40
 90
        0
102
RTVSPost2010PropOp40
 70
     1
102
RTVSPost2010Prop41ColorIndex
 90
       18
102
RTVSPost2010Prop41ColorRGB
 90
        0
102
RTVSPost2010PropOp41
 70
     1
102
RTVSPost2010Prop42
 90
       50
102
RTVSPost2010PropOp42
 70
     1
102
RTVSPost2010Prop43
 90
        3
102
RTVSPost2010PropOp43
 70
     1
102
RTVSPost2010Prop44ColorIndex
 90
        5
102
RTVSPost2010Prop44ColorRGB
 90
      255
102
RTVSPost2010PropOp44
 70
     1
102
RTVSPost2010Prop45
280
     0
102
RTVSPost2010PropOp45
 70
     1
102
RTVSPost2010Prop46
 90
       50
102
RTVSPost2010PropOp46
 70
     1
102
RTVSPost2010Prop47
 90
       50
102
RTVSPost2010PropOp47
 70
     1
102
RTVSPost2010Prop48
 90
       50
102
RTVSPost2010PropOp48
 70
     1
102
RTVSPost2010Prop49
280
     0
102
RTVSPost2010PropOp49
 70
     1
102
RTVSPost2010Prop50
 90
       50
102
RTVSPost2010PropOp50
 70
     1
102
RTVSPost2010Prop51ColorIndex
 90
      256
102
RTVSPost2010Prop51ColorRGB
 90
-16777216
102
RTVSPost2010PropOp51
 70
     0
102
RTVSPost2010Prop52
140
1.0
102
RTVSPost2010PropOp52
 70
     0
102
RTVSPost2010Prop53
 90
        2
102
RTVSPost2010PropOp53
 70
     1
102
RTVSPost2010Prop54
  1
strokes_ogs.tif
102
RTVSPost2010PropOp54
 70
     1
102
RTVSPost2010Prop55
280
     0
102
RTVSPost2010PropOp55
 70
     1
102
RTVSPost2010Prop56
140
1.0
102
RTVSPost2010PropOp56
 70
     1
102
RTVSPost2010Prop57
140
1.0
102
RTVSPost2010PropOp57
 70
     1
102
RTVSPropertyOp0
 70
     1
102
RTVSPropertyOp1
 70
     1
102
RTVSPropertyOp2
 70
     1
102
RTVSPropertyOp3
 70
     1
102
RTVSPropertyOp4
 70
     1
102
RTVSPropertyOp5
 70
     1
102
RTVSPropertyOp6
 70
     1
102
RTVSPropertyOp7
 70
     1
102
RTVSPropertyOp8
 70
     1
102
RTVSPropertyOp9
 70
     1
102
RTVSPropertyOp10
 70
     1
102
RTVSPropertyOp11
 70
     1
102
RTVSPropertyOp12
 70
     1
102
RTVSPropertyOp13
 70
     1
102
RTVSPropertyOp14
 70
     1
102
RTVSPropertyOp15
 70
     1
102
RTVSPropertyOp16
 70
     1
102
RTVSPropertyOp17
 70
     1
102
RTVSPropertyOp18
 70
     1
102
RTVSPropertyOp19
 70
     1
102
RTVSPropertyOp20
 70
     1
102
RTVSPropertyOp21
 70
     1
102
RTVSPropertyOp22
 70
     1
102
RTVSPropertyOp23
 70
     1
102
RTVSPropertyOp24
 70
     1
102
RTVSPropertyOp25
 70
     1
102
RTVSPropertyOp26
 70
     1
102
RTVSPropertyOp27
 70
     1
102
RTVSPropertyOp28
 70
     1
102
RTVSPropertyOp29
 70
     1
102
RTVSPropertyOp30
 70
     1
102
RTVSPropertyOp31
 70
     1
102
RTVSPropertyOp32
 70
     1
102
RTVSPropertyOp33
 70
     1
102
RTVSPropertyOp34
 70
     1
102
RTVSPropertyOp35
 70
     1
102
RTVSPropertyOp36
 70
     1
102
RTVSPropertyOp37
 70
     1
102
RTVSPropertyOp38
 70
     1
102
RTVSPropertyOp39
 70
     1
102
RTVSPropertyOp40
 70
     1
102
RTVSPropertyOp41
 70
     1
102
RTVSPropertyOp42
 70
     1
102
RTVSPropertyOp43
 70
     1
102
RTVSPropertyOp44
 70
     1
102
RTVSPropertyOp45
 70
     1
102
RTVSPropertyOp46
 70
     1
102
RTVSPropertyOp47
 70
     1
102
RTVSPropertyOp48
 70
     1
102
RTVSPropertyOp49
 70
     1
102
RTVSPropertyOp50
 70
     1
102
RTVSPropertyOp51
 70
     0
102
RTVSPropertyOp52
 70
     0
102
RTVSPropertyOp53
 70
     1
102
RTVSPropertyOp54
 70
     1
102
RTVSPropertyOp55
 70
     1
102
RTVSPropertyOp56
 70
     1
102
RTVSPropertyOp57
 70
     1
102
RTVSPropertyOp58
 70
     1
102
RTVSPropertyOp59
 70
     1
102
RTVSPropertyOp60
 70
     1
102
RTVSPropertyOp61
 70
     1
102
RTVSPropertyOp62
 70
     1
  0
XRECORD
  5
6630
102
{ACAD_REACTORS
330
662F
102
}
330
662F
100
AcDbXrecord
280
     1
102
RTVSPost2010Prop28
280
     0
102
RTVSPost2010PropOp28
 70
     1
102
RTVSPost2010Prop29
280
     1
102
RTVSPost2010PropOp29
 70
     1
102
RTVSPost2010Prop30
280
     1
102
RTVSPost2010PropOp30
 70
     1
102
RTVSPost2010Prop31
280
     0
102
RTVSPost2010PropOp31
 70
     1
102
RTVSPost2010Prop32
280
     0
102
RTVSPost2010PropOp32
 70
     1
102
RTVSPost2010Prop33
280
     0
102
RTVSPost2010PropOp33
 70
     1
102
RTVSPost2010Prop34
280
     0
102
RTVSPost2010PropOp34
 70
     1
102
RTVSPost2010Prop35
280
     0
102
RTVSPost2010PropOp35
 70
     1
102
RTVSPost2010Prop36
280
     0
102
RTVSPost2010PropOp36
 70
     1
102
RTVSPost2010Prop37
 90
       50
102
RTVSPost2010PropOp37
 70
     1
102
RTVSPost2010Prop38
140
0.0
102
RTVSPost2010PropOp38
 70
     1
102
RTVSPost2010Prop39
140
1.0
102
RTVSPost2010PropOp39
 70
     1
102
RTVSPost2010Prop40
 90
        0
102
RTVSPost2010PropOp40
 70
     1
102
RTVSPost2010Prop41ColorIndex
 90
       18
102
RTVSPost2010Prop41ColorRGB
 90
        0
102
RTVSPost2010PropOp41
 70
     1
102
RTVSPost2010Prop42
 90
       50
102
RTVSPost2010PropOp42
 70
     1
102
RTVSPost2010Prop43
 90
        3
102
RTVSPost2010PropOp43
 70
     1
102
RTVSPost2010Prop44ColorIndex
 90
        5
102
RTVSPost2010Prop44ColorRGB
 90
      255
102
RTVSPost2010PropOp44
 70
     1
102
RTVSPost2010Prop45
280
     0
102
RTVSPost2010PropOp45
 70
     1
102
RTVSPost2010Prop46
 90
       50
102
RTVSPost2010PropOp46
 70
     1
102
RTVSPost2010Prop47
 90
       50
102
RTVSPost2010PropOp47
 70
     1
102
RTVSPost2010Prop48
 90
       50
102
RTVSPost2010PropOp48
 70
     1
102
RTVSPost2010Prop49
280
     0
102
RTVSPost2010PropOp49
 70
     1
102
RTVSPost2010Prop50
 90
       50
102
RTVSPost2010PropOp50
 70
     1
102
RTVSPost2010Prop51ColorIndex
 90
      256
102
RTVSPost2010Prop51ColorRGB
 90
-16777216
102
RTVSPost2010PropOp51
 70
     0
102
RTVSPost2010Prop52
140
1.0
102
RTVSPost2010PropOp52
 70
     0
102
RTVSPost2010Prop53
 90
        2
102
RTVSPost2010PropOp53
 70
     1
102
RTVSPost2010Prop54
  1
strokes_ogs.tif
102
RTVSPost2010PropOp54
 70
     1
102
RTVSPost2010Prop55
280
     0
102
RTVSPost2010PropOp55
 70
     1
102
RTVSPost2010Prop56
140
1.0
102
RTVSPost2010PropOp56
 70
     1
102
RTVSPost2010Prop57
140
1.0
102
RTVSPost2010PropOp57
 70
     1
102
RTVSPropertyOp0
 70
     1
102
RTVSPropertyOp1
 70
     1
102
RTVSPropertyOp2
 70
     1
102
RTVSPropertyOp3
 70
     1
102
RTVSPropertyOp4
 70
     1
102
RTVSPropertyOp5
 70
     1
102
RTVSPropertyOp6
 70
     1
102
RTVSPropertyOp7
 70
     1
102
RTVSPropertyOp8
 70
     1
102
RTVSPropertyOp9
 70
     1
102
RTVSPropertyOp10
 70
     1
102
RTVSPropertyOp11
 70
     1
102
RTVSPropertyOp12
 70
     1
102
RTVSPropertyOp13
 70
     1
102
RTVSPropertyOp14
 70
     1
102
RTVSPropertyOp15
 70
     1
102
RTVSPropertyOp16
 70
     1
102
RTVSPropertyOp17
 70
     1
102
RTVSPropertyOp18
 70
     1
102
RTVSPropertyOp19
 70
     1
102
RTVSPropertyOp20
 70
     1
102
RTVSPropertyOp21
 70
     1
102
RTVSPropertyOp22
 70
     1
102
RTVSPropertyOp23
 70
     1
102
RTVSPropertyOp24
 70
     1
102
RTVSPropertyOp25
 70
     1
102
RTVSPropertyOp26
 70
     1
102
RTVSPropertyOp27
 70
     1
102
RTVSPropertyOp28
 70
     1
102
RTVSPropertyOp29
 70
     1
102
RTVSPropertyOp30
 70
     1
102
RTVSPropertyOp31
 70
     1
102
RTVSPropertyOp32
 70
     1
102
RTVSPropertyOp33
 70
     1
102
RTVSPropertyOp34
 70
     1
102
RTVSPropertyOp35
 70
     1
102
RTVSPropertyOp36
 70
     1
102
RTVSPropertyOp37
 70
     1
102
RTVSPropertyOp38
 70
     1
102
RTVSPropertyOp39
 70
     1
102
RTVSPropertyOp40
 70
     1
102
RTVSPropertyOp41
 70
     1
102
RTVSPropertyOp42
 70
     1
102
RTVSPropertyOp43
 70
     1
102
RTVSPropertyOp44
 70
     1
102
RTVSPropertyOp45
 70
     1
102
RTVSPropertyOp46
 70
     1
102
RTVSPropertyOp47
 70
     1
102
RTVSPropertyOp48
 70
     1
102
RTVSPropertyOp49
 70
     1
102
RTVSPropertyOp50
 70
     1
102
RTVSPropertyOp51
 70
     0
102
RTVSPropertyOp52
 70
     0
102
RTVSPropertyOp53
 70
     1
102
RTVSPropertyOp54
 70
     1
102
RTVSPropertyOp55
 70
     1
102
RTVSPropertyOp56
 70
     1
102
RTVSPropertyOp57
 70
     1
102
RTVSPropertyOp58
 70
     1
102
RTVSPropertyOp59
 70
     1
102
RTVSPropertyOp60
 70
     1
102
RTVSPropertyOp61
 70
     1
102
RTVSPropertyOp62
 70
     1
  0
XRECORD
  5
6624
102
{ACAD_REACTORS
330
6623
102
}
330
6623
100
AcDbXrecord
280
     1
102
RTVSPost2010Prop28
280
     0
102
RTVSPost2010PropOp28
 70
     1
102
RTVSPost2010Prop29
280
     1
102
RTVSPost2010PropOp29
 70
     1
102
RTVSPost2010Prop30
280
     1
102
RTVSPost2010PropOp30
 70
     1
102
RTVSPost2010Prop31
280
     0
102
RTVSPost2010PropOp31
 70
     1
102
RTVSPost2010Prop32
280
     0
102
RTVSPost2010PropOp32
 70
     1
102
RTVSPost2010Prop33
280
     0
102
RTVSPost2010PropOp33
 70
     1
102
RTVSPost2010Prop34
280
     0
102
RTVSPost2010PropOp34
 70
     1
102
RTVSPost2010Prop35
280
     0
102
RTVSPost2010PropOp35
 70
     1
102
RTVSPost2010Prop36
280
     0
102
RTVSPost2010PropOp36
 70
     1
102
RTVSPost2010Prop37
 90
       50
102
RTVSPost2010PropOp37
 70
     1
102
RTVSPost2010Prop38
140
0.0
102
RTVSPost2010PropOp38
 70
     1
102
RTVSPost2010Prop39
140
1.0
102
RTVSPost2010PropOp39
 70
     1
102
RTVSPost2010Prop40
 90
        0
102
RTVSPost2010PropOp40
 70
     1
102
RTVSPost2010Prop41ColorIndex
 90
       18
102
RTVSPost2010Prop41ColorRGB
 90
        0
102
RTVSPost2010PropOp41
 70
     1
102
RTVSPost2010Prop42
 90
       50
102
RTVSPost2010PropOp42
 70
     1
102
RTVSPost2010Prop43
 90
        3
102
RTVSPost2010PropOp43
 70
     1
102
RTVSPost2010Prop44ColorIndex
 90
        5
102
RTVSPost2010Prop44ColorRGB
 90
      255
102
RTVSPost2010PropOp44
 70
     1
102
RTVSPost2010Prop45
280
     0
102
RTVSPost2010PropOp45
 70
     1
102
RTVSPost2010Prop46
 90
       50
102
RTVSPost2010PropOp46
 70
     1
102
RTVSPost2010Prop47
 90
       50
102
RTVSPost2010PropOp47
 70
     1
102
RTVSPost2010Prop48
 90
       50
102
RTVSPost2010PropOp48
 70
     1
102
RTVSPost2010Prop49
280
     0
102
RTVSPost2010PropOp49
 70
     1
102
RTVSPost2010Prop50
 90
       50
102
RTVSPost2010PropOp50
 70
     1
102
RTVSPost2010Prop51ColorIndex
 90
      256
102
RTVSPost2010Prop51ColorRGB
 90
-16777216
102
RTVSPost2010PropOp51
 70
     0
102
RTVSPost2010Prop52
140
1.0
102
RTVSPost2010PropOp52
 70
     0
102
RTVSPost2010Prop53
 90
        2
102
RTVSPost2010PropOp53
 70
     1
102
RTVSPost2010Prop54
  1
strokes_ogs.tif
102
RTVSPost2010PropOp54
 70
     1
102
RTVSPost2010Prop55
280
     0
102
RTVSPost2010PropOp55
 70
     1
102
RTVSPost2010Prop56
140
1.0
102
RTVSPost2010PropOp56
 70
     1
102
RTVSPost2010Prop57
140
1.0
102
RTVSPost2010PropOp57
 70
     1
102
RTVSPropertyOp0
 70
     1
102
RTVSPropertyOp1
 70
     1
102
RTVSPropertyOp2
 70
     1
102
RTVSPropertyOp3
 70
     1
102
RTVSPropertyOp4
 70
     1
102
RTVSPropertyOp5
 70
     1
102
RTVSPropertyOp6
 70
     1
102
RTVSPropertyOp7
 70
     1
102
RTVSPropertyOp8
 70
     1
102
RTVSPropertyOp9
 70
     1
102
RTVSPropertyOp10
 70
     1
102
RTVSPropertyOp11
 70
     1
102
RTVSPropertyOp12
 70
     1
102
RTVSPropertyOp13
 70
     1
102
RTVSPropertyOp14
 70
     1
102
RTVSPropertyOp15
 70
     1
102
RTVSPropertyOp16
 70
     1
102
RTVSPropertyOp17
 70
     1
102
RTVSPropertyOp18
 70
     1
102
RTVSPropertyOp19
 70
     1
102
RTVSPropertyOp20
 70
     1
102
RTVSPropertyOp21
 70
     1
102
RTVSPropertyOp22
 70
     1
102
RTVSPropertyOp23
 70
     1
102
RTVSPropertyOp24
 70
     1
102
RTVSPropertyOp25
 70
     1
102
RTVSPropertyOp26
 70
     1
102
RTVSPropertyOp27
 70
     1
102
RTVSPropertyOp28
 70
     1
102
RTVSPropertyOp29
 70
     1
102
RTVSPropertyOp30
 70
     1
102
RTVSPropertyOp31
 70
     1
102
RTVSPropertyOp32
 70
     1
102
RTVSPropertyOp33
 70
     1
102
RTVSPropertyOp34
 70
     1
102
RTVSPropertyOp35
 70
     1
102
RTVSPropertyOp36
 70
     1
102
RTVSPropertyOp37
 70
     1
102
RTVSPropertyOp38
 70
     1
102
RTVSPropertyOp39
 70
     1
102
RTVSPropertyOp40
 70
     1
102
RTVSPropertyOp41
 70
     1
102
RTVSPropertyOp42
 70
     1
102
RTVSPropertyOp43
 70
     1
102
RTVSPropertyOp44
 70
     1
102
RTVSPropertyOp45
 70
     1
102
RTVSPropertyOp46
 70
     1
102
RTVSPropertyOp47
 70
     1
102
RTVSPropertyOp48
 70
     1
102
RTVSPropertyOp49
 70
     1
102
RTVSPropertyOp50
 70
     1
102
RTVSPropertyOp51
 70
     0
102
RTVSPropertyOp52
 70
     0
102
RTVSPropertyOp53
 70
     1
102
RTVSPropertyOp54
 70
     1
102
RTVSPropertyOp55
 70
     1
102
RTVSPropertyOp56
 70
     1
102
RTVSPropertyOp57
 70
     1
102
RTVSPropertyOp58
 70
     1
102
RTVSPropertyOp59
 70
     1
102
RTVSPropertyOp60
 70
     1
102
RTVSPropertyOp61
 70
     1
102
RTVSPropertyOp62
 70
     1
  0
XRECORD
  5
663C
102
{ACAD_REACTORS
330
663B
102
}
330
663B
100
AcDbXrecord
280
     1
102
RTVSPost2010Prop28
280
     0
102
RTVSPost2010PropOp28
 70
     1
102
RTVSPost2010Prop29
280
     1
102
RTVSPost2010PropOp29
 70
     1
102
RTVSPost2010Prop30
280
     1
102
RTVSPost2010PropOp30
 70
     1
102
RTVSPost2010Prop31
280
     0
102
RTVSPost2010PropOp31
 70
     1
102
RTVSPost2010Prop32
280
     0
102
RTVSPost2010PropOp32
 70
     1
102
RTVSPost2010Prop33
280
     0
102
RTVSPost2010PropOp33
 70
     1
102
RTVSPost2010Prop34
280
     0
102
RTVSPost2010PropOp34
 70
     1
102
RTVSPost2010Prop35
280
     0
102
RTVSPost2010PropOp35
 70
     1
102
RTVSPost2010Prop36
280
     0
102
RTVSPost2010PropOp36
 70
     1
102
RTVSPost2010Prop37
 90
       50
102
RTVSPost2010PropOp37
 70
     1
102
RTVSPost2010Prop38
140
0.0
102
RTVSPost2010PropOp38
 70
     1
102
RTVSPost2010Prop39
140
1.0
102
RTVSPost2010PropOp39
 70
     1
102
RTVSPost2010Prop40
 90
        0
102
RTVSPost2010PropOp40
 70
     1
102
RTVSPost2010Prop41ColorIndex
 90
       18
102
RTVSPost2010Prop41ColorRGB
 90
        0
102
RTVSPost2010PropOp41
 70
     1
102
RTVSPost2010Prop42
 90
       50
102
RTVSPost2010PropOp42
 70
     1
102
RTVSPost2010Prop43
 90
        3
102
RTVSPost2010PropOp43
 70
     1
102
RTVSPost2010Prop44ColorIndex
 90
        5
102
RTVSPost2010Prop44ColorRGB
 90
      255
102
RTVSPost2010PropOp44
 70
     1
102
RTVSPost2010Prop45
280
     0
102
RTVSPost2010PropOp45
 70
     1
102
RTVSPost2010Prop46
 90
       50
102
RTVSPost2010PropOp46
 70
     1
102
RTVSPost2010Prop47
 90
       50
102
RTVSPost2010PropOp47
 70
     1
102
RTVSPost2010Prop48
 90
       50
102
RTVSPost2010PropOp48
 70
     1
102
RTVSPost2010Prop49
280
     0
102
RTVSPost2010PropOp49
 70
     1
102
RTVSPost2010Prop50
 90
       50
102
RTVSPost2010PropOp50
 70
     1
102
RTVSPost2010Prop51ColorIndex
 90
      256
102
RTVSPost2010Prop51ColorRGB
 90
-16777216
102
RTVSPost2010PropOp51
 70
     0
102
RTVSPost2010Prop52
140
1.0
102
RTVSPost2010PropOp52
 70
     0
102
RTVSPost2010Prop53
 90
        2
102
RTVSPost2010PropOp53
 70
     1
102
RTVSPost2010Prop54
  1
strokes_ogs.tif
102
RTVSPost2010PropOp54
 70
     1
102
RTVSPost2010Prop55
280
     0
102
RTVSPost2010PropOp55
 70
     1
102
RTVSPost2010Prop56
140
1.0
102
RTVSPost2010PropOp56
 70
     1
102
RTVSPost2010Prop57
140
1.0
102
RTVSPost2010PropOp57
 70
     1
102
RTVSPropertyOp0
 70
     1
102
RTVSPropertyOp1
 70
     1
102
RTVSPropertyOp2
 70
     1
102
RTVSPropertyOp3
 70
     1
102
RTVSPropertyOp4
 70
     1
102
RTVSPropertyOp5
 70
     1
102
RTVSPropertyOp6
 70
     1
102
RTVSPropertyOp7
 70
     1
102
RTVSPropertyOp8
 70
     1
102
RTVSPropertyOp9
 70
     1
102
RTVSPropertyOp10
 70
     1
102
RTVSPropertyOp11
 70
     1
102
RTVSPropertyOp12
 70
     1
102
RTVSPropertyOp13
 70
     1
102
RTVSPropertyOp14
 70
     1
102
RTVSPropertyOp15
 70
     1
102
RTVSPropertyOp16
 70
     1
102
RTVSPropertyOp17
 70
     1
102
RTVSPropertyOp18
 70
     1
102
RTVSPropertyOp19
 70
     1
102
RTVSPropertyOp20
 70
     1
102
RTVSPropertyOp21
 70
     1
102
RTVSPropertyOp22
 70
     1
102
RTVSPropertyOp23
 70
     1
102
RTVSPropertyOp24
 70
     1
102
RTVSPropertyOp25
 70
     1
102
RTVSPropertyOp26
 70
     1
102
RTVSPropertyOp27
 70
     1
102
RTVSPropertyOp28
 70
     1
102
RTVSPropertyOp29
 70
     1
102
RTVSPropertyOp30
 70
     1
102
RTVSPropertyOp31
 70
     1
102
RTVSPropertyOp32
 70
     1
102
RTVSPropertyOp33
 70
     1
102
RTVSPropertyOp34
 70
     1
102
RTVSPropertyOp35
 70
     1
102
RTVSPropertyOp36
 70
     1
102
RTVSPropertyOp37
 70
     1
102
RTVSPropertyOp38
 70
     1
102
RTVSPropertyOp39
 70
     1
102
RTVSPropertyOp40
 70
     1
102
RTVSPropertyOp41
 70
     1
102
RTVSPropertyOp42
 70
     1
102
RTVSPropertyOp43
 70
     1
102
RTVSPropertyOp44
 70
     1
102
RTVSPropertyOp45
 70
     1
102
RTVSPropertyOp46
 70
     1
102
RTVSPropertyOp47
 70
     1
102
RTVSPropertyOp48
 70
     1
102
RTVSPropertyOp49
 70
     1
102
RTVSPropertyOp50
 70
     1
102
RTVSPropertyOp51
 70
     0
102
RTVSPropertyOp52
 70
     0
102
RTVSPropertyOp53
 70
     1
102
RTVSPropertyOp54
 70
     1
102
RTVSPropertyOp55
 70
     1
102
RTVSPropertyOp56
 70
     1
102
RTVSPropertyOp57
 70
     1
102
RTVSPropertyOp58
 70
     1
102
RTVSPropertyOp59
 70
     1
102
RTVSPropertyOp60
 70
     1
102
RTVSPropertyOp61
 70
     1
102
RTVSPropertyOp62
 70
     1
  0
ENDSEC
  0
EOF
