  0
SECTION
  2
HEADER
  9
$ACADVER
  1
AC1015
  9
$ACADMAINTVER
 70
    20
  9
$DWGCODEPAGE
  3
ANSI_932
  9
$INSBASE
 10
0.0
 20
0.0
 30
0.0
  9
$EXTMIN
 10
10.0
 20
9.999999999999998
 30
0.0
  9
$EXTMAX
 10
385.56178
 20
320.6364619999998
 30
0.0
  9
$LIMMIN
 10
0.0
 20
0.0
  9
$LIMMAX
 10
495.0
 20
341.25
  9
$ORTHOMODE
 70
     1
  9
$REGENMODE
 70
     1
  9
$FILLMODE
 70
     1
  9
$QTEXTMODE
 70
     0
  9
$MIRRTEXT
 70
     1
  9
$LTSCALE
 40
20.0
  9
$ATTMODE
 70
     1
  9
$TEXTSIZE
 40
5.0
  9
$TRACEWID
 40
1.0
  9
$TEXTSTYLE
  7
STANDARD
  9
$CLAYER
  8
0
  9
$CELTYPE
  6
BYLAYER
  9
$CECOLOR
 62
   256
  9
$CELTSCALE
 40
1.0
  9
$DISPSILH
 70
     0
  9
$DIMSCALE
 40
1.0
  9
$DIMASZ
 40
3.0
  9
$DIMEXO
 40
1.0
  9
$DIMDLI
 40
10.0
  9
$DIMRND
 40
0.0
  9
$DIMDLE
 40
0.0
  9
$DIMEXE
 40
1.0
  9
$DIMTP
 40
0.0
  9
$DIMTM
 40
0.0
  9
$DIMTXT
 40
3.2
  9
$DIMCEN
 40
0.0
  9
$DIMTSZ
 40
0.0
  9
$DIMTOL
 70
     0
  9
$DIMLIM
 70
     0
  9
$DIMTIH
 70
     0
  9
$DIMTOH
 70
     0
  9
$DIMSE1
 70
     0
  9
$DIMSE2
 70
     0
  9
$DIMTAD
 70
     3
  9
$DIMZIN
 70
     8
  9
$DIMBLK
  1

  9
$DIMASO
 70
     1
  9
$DIMSHO
 70
     1
  9
$DIMPOST
  1

  9
$DIMAPOST
  1

  9
$DIMALT
 70
     0
  9
$DIMALTD
 70
     2
  9
$DIMALTF
 40
25.4
  9
$DIMLFAC
 40
1.0
  9
$DIMTOFL
 70
     1
  9
$DIMTVP
 40
0.0
  9
$DIMTIX
 70
     0
  9
$DIMSOXD
 70
     0
  9
$DIMSAH
 70
     1
  9
$DIMBLK1
  1
OPEN
  9
$DIMBLK2
  1
OPEN
  9
$DIMSTYLE
  2
STANDARD
  9
$DIMCLRD
 70
     0
  9
$DIMCLRE
 70
     0
  9
$DIMCLRT
 70
     0
  9
$DIMTFAC
 40
1.0
  9
$DIMGAP
 40
1.0
  9
$DIMJUST
 70
     0
  9
$DIMSD1
 70
     0
  9
$DIMSD2
 70
     0
  9
$DIMTOLJ
 70
     1
  9
$DIMTZIN
 70
     0
  9
$DIMALTZ
 70
     0
  9
$DIMALTTZ
 70
     0
  9
$DIMUPT
 70
     0
  9
$DIMDEC
 70
     4
  9
$DIMTDEC
 70
     4
  9
$DIMALTU
 70
     2
  9
$DIMALTTD
 70
     2
  9
$DIMTXSTY
  7
STANDARD
  9
$DIMAUNIT
 70
     0
  9
$DIMADEC
 70
     0
  9
$DIMALTRND
 40
0.0
  9
$DIMAZIN
 70
     0
  9
$DIMDSEP
 70
    46
  9
$DIMATFIT
 70
     3
  9
$DIMFRAC
 70
     0
  9
$DIMLDRBLK
  1
OPEN
  9
$DIMLUNIT
 70
     2
  9
$DIMLWD
 70
    -2
  9
$DIMLWE
 70
    -2
  9
$DIMTMOVE
 70
     0
  9
$LUNITS
 70
     2
  9
$LUPREC
 70
     4
  9
$SKETCHINC
 40
1.0
  9
$FILLETRAD
 40
0.0
  9
$AUNITS
 70
     0
  9
$AUPREC
 70
     2
  9
$MENU
  1
.
  9
$ELEVATION
 40
0.0
  9
$PELEVATION
 40
0.0
  9
$THICKNESS
 40
0.0
  9
$LIMCHECK
 70
     0
  9
$CHAMFERA
 40
10.0
  9
$CHAMFERB
 40
10.0
  9
$CHAMFERC
 40
0.0
  9
$CHAMFERD
 40
0.0
  9
$SKPOLY
 70
     0
  9
$TDCREATE
 40
2451302.659953241
  9
$TDUCREATE
 40
2451302.284953241
  9
$TDUPDATE
 40
2457192.687676389
  9
$TDUUPDATE
 40
2457192.312676389
  9
$TDINDWG
 40
0.0000134259
  9
$TDUSRTIMER
 40
0.0000130093
  9
$USRTIMER
 70
     1
  9
$ANGBASE
 50
0.0
  9
$ANGDIR
 70
     0
  9
$PDMODE
 70
     0
  9
$PDSIZE
 40
0.0
  9
$PLINEWID
 40
0.0
  9
$SPLFRAME
 70
     0
  9
$SPLINETYPE
 70
     6
  9
$SPLINESEGS
 70
     8
  9
$HANDSEED
  5
C233
  9
$SURFTAB1
 70
     6
  9
$SURFTAB2
 70
     6
  9
$SURFTYPE
 70
     6
  9
$SURFU
 70
     6
  9
$SURFV
 70
     6
  9
$UCSBASE
  2

  9
$UCSNAME
  2

  9
$UCSORG
 10
0.0
 20
0.0
 30
0.0
  9
$UCSXDIR
 10
1.0
 20
0.0
 30
0.0
  9
$UCSYDIR
 10
0.0
 20
1.0
 30
0.0
  9
$UCSORTHOREF
  2

  9
$UCSORTHOVIEW
 70
     0
  9
$UCSORGTOP
 10
0.0
 20
0.0
 30
0.0
  9
$UCSORGBOTTOM
 10
0.0
 20
0.0
 30
0.0
  9
$UCSORGLEFT
 10
0.0
 20
0.0
 30
0.0
  9
$UCSORGRIGHT
 10
0.0
 20
0.0
 30
0.0
  9
$UCSORGFRONT
 10
0.0
 20
0.0
 30
0.0
  9
$UCSORGBACK
 10
0.0
 20
0.0
 30
0.0
  9
$PUCSBASE
  2

  9
$PUCSNAME
  2

  9
$PUCSORG
 10
0.0
 20
0.0
 30
0.0
  9
$PUCSXDIR
 10
1.0
 20
0.0
 30
0.0
  9
$PUCSYDIR
 10
0.0
 20
1.0
 30
0.0
  9
$PUCSORTHOREF
  2

  9
$PUCSORTHOVIEW
 70
     0
  9
$PUCSORGTOP
 10
0.0
 20
0.0
 30
0.0
  9
$PUCSORGBOTTOM
 10
0.0
 20
0.0
 30
0.0
  9
$PUCSORGLEFT
 10
0.0
 20
0.0
 30
0.0
  9
$PUCSORGRIGHT
 10
0.0
 20
0.0
 30
0.0
  9
$PUCSORGFRONT
 10
0.0
 20
0.0
 30
0.0
  9
$PUCSORGBACK
 10
0.0
 20
0.0
 30
0.0
  9
$USERI1
 70
     0
  9
$USERI2
 70
     0
  9
$USERI3
 70
     0
  9
$USERI4
 70
     0
  9
$USERI5
 70
     0
  9
$USERR1
 40
0.0
  9
$USERR2
 40
0.0
  9
$USERR3
 40
0.0
  9
$USERR4
 40
0.0
  9
$USERR5
 40
0.0
  9
$WORLDVIEW
 70
     1
  9
$SHADEDGE
 70
     3
  9
$SHADEDIF
 70
    70
  9
$TILEMODE
 70
     1
  9
$MAXACTVP
 70
    16
  9
$PINSBASE
 10
0.0
 20
0.0
 30
0.0
  9
$PLIMCHECK
 70
     0
  9
$PEXTMIN
 10
1.000000000000000E+20
 20
1.000000000000000E+20
 30
1.000000000000000E+20
  9
$PEXTMAX
 10
-1.000000000000000E+20
 20
-1.000000000000000E+20
 30
-1.000000000000000E+20
  9
$PLIMMIN
 10
0.0
 20
0.0
  9
$PLIMMAX
 10
420.0
 20
297.0
  9
$UNITMODE
 70
     0
  9
$VISRETAIN
 70
     0
  9
$PLINEGEN
 70
     0
  9
$PSLTSCALE
 70
     0
  9
$TREEDEPTH
 70
  3020
  9
$CMLSTYLE
  2
STANDARD
  9
$CMLJUST
 70
     0
  9
$CMLSCALE
 40
1.0
  9
$PROXYGRAPHICS
 70
     1
  9
$MEASUREMENT
 70
     0
  9
$CELWEIGHT
370
    -1
  9
$ENDCAPS
280
     0
  9
$JOINSTYLE
280
     0
  9
$LWDISPLAY
290
     0
  9
$INSUNITS
 70
     0
  9
$HYPERLINKBASE
  1

  9
$STYLESHEET
  1

  9
$XEDIT
290
     1
  9
$CEPSNTYPE
380
     0
  9
$PSTYLEMODE
290
     1
  9
$FINGERPRINTGUID
  2
{6F6DC572-9E85-4BC2-BD1D-E85161C4787E}
  9
$VERSIONGUID
  2
{17A340B5-E940-4415-B256-5D6C3800626A}
  9
$EXTNAMES
290
     1
  9
$PSVPSCALE
 40
0.0
  9
$OLESTARTUP
290
     0
  0
ENDSEC
  0
SECTION
  2
CLASSES
  0
CLASS
  1
ACDBDICTIONARYWDFLT
  2
AcDbDictionaryWithDefault
  3
ObjectDBX Classes
 90
        0
280
     0
281
     0
  0
CLASS
  1
ACDBPLACEHOLDER
  2
AcDbPlaceHolder
  3
ObjectDBX Classes
 90
        0
280
     0
281
     0
  0
CLASS
  1
LAYOUT
  2
AcDbLayout
  3
ObjectDBX Classes
 90
        0
280
     0
281
     0
  0
CLASS
  1
DICTIONARYVAR
  2
AcDbDictionaryVar
  3
ObjectDBX Classes
 90
        0
280
     0
281
     0
  0
CLASS
  1
MATERIAL
  2
AcDbMaterial
  3
ObjectDBX Classes
 90
     1153
280
     0
281
     0
  0
CLASS
  1
VISUALSTYLE
  2
AcDbVisualStyle
  3
ObjectDBX Classes
 90
     4095
280
     0
281
     0
  0
CLASS
  1
TABLESTYLE
  2
AcDbTableStyle
  3
ObjectDBX Classes
 90
     4095
280
     0
281
     0
  0
CLASS
  1
SCALE
  2
AcDbScale
  3
ObjectDBX Classes
 90
     1153
280
     0
281
     0
  0
CLASS
  1
MLEADERSTYLE
  2
AcDbMLeaderStyle
  3
ACDB_MLEADERSTYLE_CLASS
 90
     4095
280
     0
281
     0
  0
CLASS
  1
ACDBSECTIONVIEWSTYLE
  2
AcDbSectionViewStyle
  3
ObjectDBX Classes
 90
     1025
280
     0
281
     0
  0
CLASS
  1
ACDBDETAILVIEWSTYLE
  2
AcDbDetailViewStyle
  3
ObjectDBX Classes
 90
     1025
280
     0
281
     0
  0
CLASS
  1
CELLSTYLEMAP
  2
AcDbCellStyleMap
  3
ObjectDBX Classes
 90
     1152
280
     0
281
     0
  0
ENDSEC
  0
SECTION
  2
TABLES
  0
TABLE
  2
VPORT
  5
BD3C
330
0
100
AcDbSymbolTable
 70
     1
  0
VPORT
  5
C17C
330
BD3C
100
AcDbSymbolTableRecord
100
AcDbViewportTableRecord
  2
*ACTIVE
 70
     0
 10
0.0
 20
0.0
 11
1.0
 21
1.0
 12
291.8729970859988
 22
165.3137977854218
 13
0.0
 23
0.0
 14
10.0
 24
10.0
 15
10.0
 25
10.0
 16
0.0
 26
0.0
 36
1.0
 17
0.0
 27
0.0
 37
0.0
 40
314.0859382227115
 41
2.35006605019815
 42
50.0
 43
0.0
 44
0.0
 50
0.0
 51
0.0
 71
     0
 72
   100
 73
     1
 74
     0
 75
     0
 76
     0
 77
     0
 78
     0
281
     0
 65
     1
110
0.0
120
0.0
130
0.0
111
1.0
121
0.0
131
0.0
112
0.0
122
1.0
132
0.0
 79
     0
146
0.0
1001
ACAD_NAV_VCDISPLAY
1070
     3
  0
ENDTAB
  0
TABLE
  2
LTYPE
  5
BD39
330
0
100
AcDbSymbolTable
 70
     4
  0
LTYPE
  5
BD47
330
BD39
100
AcDbSymbolTableRecord
100
AcDbLinetypeTableRecord
  2
BYBLOCK
 70
     0
  3

 72
    65
 73
     0
 40
0.0
  0
LTYPE
  5
BD48
330
BD39
100
AcDbSymbolTableRecord
100
AcDbLinetypeTableRecord
  2
BYLAYER
 70
     0
  3

 72
    65
 73
     0
 40
0.0
  0
LTYPE
  5
BD49
330
BD39
100
AcDbSymbolTableRecord
100
AcDbLinetypeTableRecord
  2
CONTINUOUS
 70
     0
  3
Solid line
 72
    65
 73
     0
 40
0.0
  0
LTYPE
  5
BD57
330
BD39
100
AcDbSymbolTableRecord
100
AcDbLinetypeTableRecord
  2
DASHED
 70
     0
  3
__ __ __ __ __ __ __ __ __ __ __ __ __ __ __ __
 72
    65
 73
     2
 40
0.75
 49
0.5
 74
     0
 49
-0.25
 74
     0
  0
LTYPE
  5
BD58
330
BD39
100
AcDbSymbolTableRecord
100
AcDbLinetypeTableRecord
  2
CENTER
 70
     0
  3
____ _ ____ _ ____ _ ____ _ ____ _ ____ _ ____ 
 72
    65
 73
     4
 40
2.0
 49
1.25
 74
     0
 49
-0.25
 74
     0
 49
0.25
 74
     0
 49
-0.25
 74
     0
  0
LTYPE
  5
BD59
330
BD39
100
AcDbSymbolTableRecord
100
AcDbLinetypeTableRecord
  2
PHANTOM
 70
     0
  3
______  __  __  ______  __  __  ______  __  __ 
 72
    65
 73
     6
 40
2.5
 49
1.25
 74
     0
 49
-0.25
 74
     0
 49
0.25
 74
     0
 49
-0.25
 74
     0
 49
0.25
 74
     0
 49
-0.25
 74
     0
  0
ENDTAB
  0
TABLE
  2
LAYER
  5
BD36
330
0
100
AcDbSymbolTable
 70
     8
  0
LAYER
  5
BD44
102
{ACAD_XDICTIONARY
360
C1D7
102
}
330
BD36
100
AcDbSymbolTableRecord
100
AcDbLayerTableRecord
  2
0
 70
     0
 62
     7
  6
CONTINUOUS
370
    -3
390
C185
  0
LAYER
  5
BD5A
102
{ACAD_XDICTIONARY
360
C1D9
102
}
330
BD36
100
AcDbSymbolTableRecord
100
AcDbLayerTableRecord
  2
4
 70
     0
 62
     1
  6
CENTER
370
    -3
390
C185
  0
LAYER
  5
BD5B
102
{ACAD_XDICTIONARY
360
C1DB
102
}
330
BD36
100
AcDbSymbolTableRecord
100
AcDbLayerTableRecord
  2
5
 70
     0
 62
     6
  6
PHANTOM
370
    -3
390
C185
  0
LAYER
  5
BD5C
102
{ACAD_XDICTIONARY
360
C1DD
102
}
330
BD36
100
AcDbSymbolTableRecord
100
AcDbLayerTableRecord
  2
1
 70
     0
 62
     7
  6
CONTINUOUS
370
    -3
390
C185
  0
LAYER
  5
BD5D
102
{ACAD_XDICTIONARY
360
C1DF
102
}
330
BD36
100
AcDbSymbolTableRecord
100
AcDbLayerTableRecord
  2
2
 70
     0
 62
     4
  6
CONTINUOUS
370
    -3
390
C185
  0
LAYER
  5
BD5E
102
{ACAD_XDICTIONARY
360
C1E1
102
}
330
BD36
100
AcDbSymbolTableRecord
100
AcDbLayerTableRecord
  2
3
 70
     0
 62
     2
  6
DASHED
370
    -3
390
C185
  0
LAYER
  5
BD5F
102
{ACAD_XDICTIONARY
360
C1E3
102
}
330
BD36
100
AcDbSymbolTableRecord
100
AcDbLayerTableRecord
  2
6
 70
     0
 62
     5
  6
CONTINUOUS
370
    -3
390
C185
  0
LAYER
  5
BD60
102
{ACAD_XDICTIONARY
360
C1E5
102
}
330
BD36
100
AcDbSymbolTableRecord
100
AcDbLayerTableRecord
  2
7
 70
     0
 62
     3
  6
CONTINUOUS
370
    -3
390
C185
  0
ENDTAB
  0
TABLE
  2
STYLE
  5
BD37
330
0
100
AcDbSymbolTable
 70
     1
  0
STYLE
  5
BD45
330
BD37
100
AcDbSymbolTableRecord
100
AcDbTextStyleTableRecord
  2
STANDARD
 70
     0
 40
0.0
 41
1.0
 50
0.0
 71
     0
 42
5.0
  3
txt
  4

  0
ENDTAB
  0
TABLE
  2
VIEW
  5
BD3A
330
0
100
AcDbSymbolTable
 70
     0
  0
ENDTAB
  0
TABLE
  2
UCS
  5
BD3B
330
0
100
AcDbSymbolTable
 70
     0
  0
ENDTAB
  0
TABLE
  2
APPID
  5
BD3D
330
0
100
AcDbSymbolTable
 70
     3
  0
APPID
  5
BD46
330
BD3D
100
AcDbSymbolTableRecord
100
AcDbRegAppTableRecord
  2
ACAD
 70
     0
  0
APPID
  5
C1F1
330
BD3D
100
AcDbSymbolTableRecord
100
AcDbRegAppTableRecord
  2
ACAD_NAV_VCDISPLAY
 70
     0
  0
APPID
  5
C22A
330
BD3D
100
AcDbSymbolTableRecord
100
AcDbRegAppTableRecord
  2
ACAD_MLEADERVER
 70
     0
  0
ENDTAB
  0
TABLE
  2
DIMSTYLE
  5
BD3E
330
0
100
AcDbSymbolTable
 70
     1
100
AcDbDimStyleTable
 71
     0
  0
DIMSTYLE
105
BD62
330
BD3E
100
AcDbSymbolTableRecord
100
AcDbDimStyleTableRecord
  2
STANDARD
 70
     0
 41
3.0
 42
1.0
 43
10.0
 44
1.0
 73
     0
 74
     0
 77
     3
 78
     8
140
3.2
141
0.0
147
1.0
172
     1
173
     1
284
     8
285
     8
286
     8
340
BD45
  0
ENDTAB
  0
TABLE
  2
BLOCK_RECORD
  5
BD35
330
0
100
AcDbSymbolTable
 70
     1
  0
BLOCK_RECORD
  5
BD52
102
{ACAD_XDICTIONARY
360
C17F
102
}
330
BD35
100
AcDbSymbolTableRecord
100
AcDbBlockTableRecord
  2
*MODEL_SPACE
340
C1D3
  0
BLOCK_RECORD
  5
BD4E
102
{ACAD_XDICTIONARY
360
C17D
102
}
330
BD35
100
AcDbSymbolTableRecord
100
AcDbBlockTableRecord
  2
*PAPER_SPACE
340
C1D4
  0
BLOCK_RECORD
  5
BD6A
330
BD35
100
AcDbSymbolTableRecord
100
AcDbBlockTableRecord
  2
_OPEN
340
0
  0
ENDTAB
  0
ENDSEC
  0
SECTION
  2
BLOCKS
  0
BLOCK
  5
BD53
330
BD52
100
AcDbEntity
  8
0
100
AcDbBlockBegin
  2
*MODEL_SPACE
 70
     0
 10
0.0
 20
0.0
 30
0.0
  3
*MODEL_SPACE
  1

  0
ENDBLK
  5
BD54
330
BD52
100
AcDbEntity
  8
0
100
AcDbBlockEnd
  0
BLOCK
  5
BD4F
330
BD4E
100
AcDbEntity
 67
     1
  8
0
100
AcDbBlockBegin
  2
*PAPER_SPACE
 70
     0
 10
0.0
 20
0.0
 30
0.0
  3
*PAPER_SPACE
  1

  0
ENDBLK
  5
BD50
330
BD4E
100
AcDbEntity
 67
     1
  8
0
100
AcDbBlockEnd
  0
BLOCK
  5
BD6B
330
BD6A
100
AcDbEntity
  8
0
100
AcDbBlockBegin
  2
_OPEN
 70
     0
 10
0.0
 20
0.0
 30
0.0
  3
_OPEN
  1

  0
LINE
  5
BD6C
330
BD6A
100
AcDbEntity
  8
0
  6
ByBlock
 62
     0
100
AcDbLine
 10
-1.0
 20
0.166667
 30
0.0
 11
0.0
 21
0.0
 31
0.0
  0
LINE
  5
BD6D
330
BD6A
100
AcDbEntity
  8
0
  6
ByBlock
 62
     0
100
AcDbLine
 10
0.0
 20
0.0
 30
0.0
 11
-1.0
 21
-0.166667
 31
0.0
  0
LINE
  5
BD6E
330
BD6A
100
AcDbEntity
  8
0
  6
ByBlock
 62
     0
100
AcDbLine
 10
0.0
 20
0.0
 30
0.0
 11
-1.0
 21
0.0
 31
0.0
  0
ENDBLK
  5
BD6F
330
BD6A
100
AcDbEntity
  8
0
100
AcDbBlockEnd
  0
ENDSEC
  0
SECTION
  2
ENTITIES
  0
TEXT
  5
BD70
330
BD52
100
AcDbEntity
  8
7
  6
Continuous
100
AcDbText
 10
10.0
 20
18.0
 30
0.0
 40
3.0
  1
TYPE No.203S d=21
100
AcDbText
  0
TEXT
  5
BD71
330
BD52
100
AcDbEntity
  8
7
  6
Continuous
100
AcDbText
 10
10.0
 20
26.0
 30
0.0
 40
3.0
  1
CODE No.9173
100
AcDbText
  0
TEXT
  5
BD72
330
BD52
100
AcDbEntity
  8
1
  6
Continuous
100
AcDbText
 10
10.0
 20
10.0
 30
0.0
 40
1.399999999999999
  1
LAYER
100
AcDbText
  0
TEXT
  5
BD73
330
BD52
100
AcDbEntity
  8
1
  6
Continuous
100
AcDbText
 10
17.97951099999998
 20
10.04873699999998
 30
0.0
 40
1.399999999999999
  1
1
100
AcDbText
  0
TEXT
  5
BD74
330
BD52
100
AcDbEntity
  8
7
  6
Continuous
100
AcDbText
 10
29.97951099999999
 20
10.04873699999998
 30
0.0
 40
1.399999999999999
  1
7
100
AcDbText
  0
TEXT
  5
BD75
330
BD52
100
AcDbEntity
  8
4
  6
CENTER
100
AcDbText
 10
23.97951099999999
 20
10.04873699999998
 30
0.0
 40
1.399999999999999
  1
4
100
AcDbText
  0
TEXT
  5
BD76
330
BD52
100
AcDbEntity
  8
3
  6
DASHED
100
AcDbText
 10
21.979511
 20
10.04873699999998
 30
0.0
 40
1.399999999999999
  1
3
100
AcDbText
  0
TEXT
  5
BD77
330
BD52
100
AcDbEntity
  8
2
  6
Continuous
100
AcDbText
 10
19.97951099999999
 20
10.04873699999998
 30
0.0
 40
1.399999999999999
  1
2
100
AcDbText
  0
TEXT
  5
BD78
330
BD52
100
AcDbEntity
  8
6
  6
Continuous
100
AcDbText
 10
27.979511
 20
10.04873699999998
 30
0.0
 40
1.399999999999999
  1
6
100
AcDbText
  0
TEXT
  5
BD79
330
BD52
100
AcDbEntity
  8
5
  6
PHANTOM
100
AcDbText
 10
25.97951099999999
 20
10.04873699999998
 30
0.0
 40
1.399999999999999
  1
5
100
AcDbText
  0
LINE
  5
BD7A
330
BD52
100
AcDbEntity
  8
1
  6
Continuous
100
AcDbLine
 10
263.2132029999999
 20
187.370179
 30
0.0
 11
263.2132029999999
 21
166.9701789999998
 31
0.0
  0
ARC
  5
BD7B
330
BD52
100
AcDbEntity
  8
1
  6
Continuous
100
AcDbCircle
 10
228.5132029999998
 20
187.370179
 30
0.0
 40
3.0
100
AcDbArc
 50
90.0
 51
180.0
  0
ARC
  5
BD7C
330
BD52
100
AcDbEntity
  8
1
  6
Continuous
100
AcDbCircle
 10
260.2132029999999
 20
187.370179
 30
0.0
 40
3.0
100
AcDbArc
 50
0.0
 51
90.0
  0
LINE
  5
BD7D
330
BD52
100
AcDbEntity
  8
1
  6
Continuous
100
AcDbLine
 10
228.1131039999999
 20
190.3702369999998
 30
0.0
 11
260.613104
 21
190.3700429999999
 31
0.0
  0
LINE
  5
BD7E
330
BD52
100
AcDbEntity
  8
1
  6
Continuous
100
AcDbLine
 10
231.1158789999999
 20
183.6664279999999
 30
0.0
 11
257.6105279999998
 21
183.6664279999999
 31
0.0
  0
ARC
  5
BD7F
330
BD52
100
AcDbEntity
  8
1
  6
Continuous
100
AcDbCircle
 10
257.6105279999998
 20
179.7177379999999
 30
0.0
 40
3.94869
100
AcDbArc
 50
33.136856
 51
90.0
  0
ARC
  5
BD80
330
BD52
100
AcDbEntity
  8
1
  6
Continuous
100
AcDbCircle
 10
249.094448
 20
174.158366
 30
0.0
 40
14.11875499999999
100
AcDbArc
 50
0.0
 51
33.136856
  0
ARC
  5
BD81
330
BD52
100
AcDbEntity
  8
1
  6
Continuous
100
AcDbCircle
 10
247.9536839999999
 20
174.074811
 30
0.0
 40
13.262575
100
AcDbArc
 50
4.189117999999997
 51
46.32007700000001
  0
ARC
  5
BD82
330
BD52
100
AcDbEntity
  8
1
  6
Continuous
100
AcDbCircle
 10
231.1158789999999
 20
179.7177379999999
 30
0.0
 40
3.94869
100
AcDbArc
 50
90.0
 51
146.863144
  0
ARC
  5
BD83
330
BD52
100
AcDbEntity
  8
1
  6
Continuous
100
AcDbCircle
 10
239.631959
 20
174.158366
 30
0.0
 40
14.11875499999999
100
AcDbArc
 50
146.863144
 51
180.0
  0
LINE
  5
BD84
330
BD52
100
AcDbEntity
  8
1
  6
Continuous
100
AcDbLine
 10
234.3632029999999
 20
180.0857409999999
 30
0.0
 11
234.3632029999999
 21
135.278334
 31
0.0
  0
LINE
  5
BD85
330
BD52
100
AcDbEntity
  8
1
  6
Continuous
100
AcDbLine
 10
232.8632029999999
 20
166.1820379999998
 30
0.0
 11
232.8632029999999
 21
149.1820379999998
 31
0.0
  0
LINE
  5
BD86
330
BD52
100
AcDbEntity
  8
1
  6
Continuous
100
AcDbLine
 10
232.8632029999999
 20
166.1820379999998
 30
0.0
 11
234.3632029999999
 21
166.1820379999998
 31
0.0
  0
ARC
  5
BD87
330
BD52
100
AcDbEntity
  8
1
  6
Continuous
100
AcDbCircle
 10
244.3632029999999
 20
147.6820379999998
 30
0.0
 40
35.0
100
AcDbArc
 50
75.30157599999999
 51
104.698424
  0
ARC
  5
BD88
330
BD52
100
AcDbEntity
  8
1
  6
Continuous
100
AcDbCircle
 10
235.8632029999998
 20
180.0857409999999
 30
0.0
 40
1.5
100
AcDbArc
 50
104.698424
 51
180.0
  0
LINE
  5
BD89
330
BD52
100
AcDbEntity
  8
1
  6
Continuous
100
AcDbLine
 10
254.3632029999999
 20
180.0857409999999
 30
0.0
 11
254.3632029999999
 21
135.278334
 31
0.0
  0
LINE
  5
BD8A
330
BD52
100
AcDbEntity
  8
1
  6
Continuous
100
AcDbLine
 10
255.8632029999999
 20
166.1820379999998
 30
0.0
 11
254.3632029999999
 21
166.1820379999998
 31
0.0
  0
ARC
  5
BD8B
330
BD52
100
AcDbEntity
  8
1
  6
Continuous
100
AcDbCircle
 10
252.8632029999999
 20
180.0857409999999
 30
0.0
 40
1.5
100
AcDbArc
 50
0.0
 51
75.30157599999999
  0
LINE
  5
BD8C
330
BD52
100
AcDbEntity
  8
1
  6
Continuous
100
AcDbLine
 10
232.8632029999999
 20
149.1820379999998
 30
0.0
 11
234.3632029999999
 21
149.1820379999998
 31
0.0
  0
ARC
  5
BD8D
330
BD52
100
AcDbEntity
  8
1
  6
Continuous
100
AcDbCircle
 10
244.3632029999999
 20
167.6820379999998
 30
0.0
 40
35.0
100
AcDbArc
 50
255.301576
 51
284.6984239999999
  0
ARC
  5
BD8E
330
BD52
100
AcDbEntity
  8
1
  6
Continuous
100
AcDbCircle
 10
235.8632029999998
 20
135.278334
 30
0.0
 40
1.5
100
AcDbArc
 50
180.0
 51
255.301576
  0
LINE
  5
BD8F
330
BD52
100
AcDbEntity
  8
1
  6
Continuous
100
AcDbLine
 10
255.8632029999999
 20
149.1820379999998
 30
0.0
 11
254.3632029999999
 21
149.1820379999998
 31
0.0
  0
ARC
  5
BD90
330
BD52
100
AcDbEntity
  8
1
  6
Continuous
100
AcDbCircle
 10
252.8632029999999
 20
135.278334
 30
0.0
 40
1.5
100
AcDbArc
 50
284.6984239999999
 51
0.0
  0
LINE
  5
BD91
330
BD52
100
AcDbEntity
  8
1
  6
Continuous
100
AcDbLine
 10
255.8632029999999
 20
166.1820379999998
 30
0.0
 11
255.8632029999999
 21
149.1820379999998
 31
0.0
  0
LINE
  5
BD92
330
BD52
100
AcDbEntity
  8
1
  6
Continuous
100
AcDbLine
 10
231.8632029999999
 20
160.6820379999998
 30
0.0
 11
232.8632029999999
 21
160.6820379999998
 31
0.0
  0
LINE
  5
BD93
330
BD52
100
AcDbEntity
  8
1
  6
Continuous
100
AcDbLine
 10
255.8632029999999
 20
160.6820379999998
 30
0.0
 11
256.8632029999998
 21
160.6820379999998
 31
0.0
  0
LINE
  5
BD94
330
BD52
100
AcDbEntity
  8
1
  6
Continuous
100
AcDbLine
 10
231.8632029999999
 20
154.6820379999998
 30
0.0
 11
232.8632029999999
 21
154.6820379999998
 31
0.0
  0
LINE
  5
BD95
330
BD52
100
AcDbEntity
  8
1
  6
Continuous
100
AcDbLine
 10
255.8632029999999
 20
154.6820379999998
 30
0.0
 11
256.8632029999998
 21
154.6820379999998
 31
0.0
  0
LINE
  5
BD96
330
BD52
100
AcDbEntity
  8
4
  6
CENTER
100
AcDbLine
 10
176.0146189999999
 20
296.7864619999998
 30
0.0
 11
103.715027
 21
296.7864619999998
 31
0.0
  0
LINE
  5
BD97
330
BD52
100
AcDbEntity
  8
4
  6
CENTER
100
AcDbLine
 10
152.164619
 20
320.6364619999998
 30
0.0
 11
152.164619
 21
272.936462
 31
0.0
  0
LINE
  5
BD98
330
BD52
100
AcDbEntity
  8
4
  6
CENTER
100
AcDbLine
 10
244.3632029999999
 20
239.682576
 30
0.0
 11
244.3632029999999
 21
127.6820379999999
 31
0.0
  0
LINE
  5
BD99
330
BD52
100
AcDbEntity
  8
4
  6
CENTER
100
AcDbLine
 10
215.8634029999999
 20
157.6820379999998
 30
0.0
 11
265.863443
 21
157.6820379999998
 31
0.0
  0
LINE
  5
BD9A
330
BD52
100
AcDbEntity
  8
4
  6
CENTER
100
AcDbLine
 10
103.164626
 20
157.6822369999999
 30
0.0
 11
163.164626
 21
157.6822369999999
 31
0.0
  0
LINE
  5
BD9B
330
BD52
100
AcDbEntity
  8
1
  6
Continuous
100
AcDbLine
 10
135.717126
 20
187.550838
 30
0.0
 11
132.0371259999998
 21
187.5070279999999
 31
0.0
  0
ARC
  5
BD9C
330
BD52
100
AcDbEntity
  8
1
  6
Continuous
100
AcDbCircle
 10
133.5146259999999
 20
156.732237
 30
0.0
 40
7.5
100
AcDbArc
 50
221.016873
 51
277.6844179999998
  0
ARC
  5
BD9D
330
BD52
100
AcDbEntity
  8
1
  6
Continuous
100
AcDbCircle
 10
133.164626
 20
157.6822369999999
 30
0.0
 40
8.5
100
AcDbArc
 50
215.770985
 51
279.319315
  0
ARC
  5
BD9E
330
BD52
100
AcDbEntity
  8
1
  6
Continuous
100
AcDbCircle
 10
133.164626
 20
157.6822369999999
 30
0.0
 40
17.5
100
AcDbArc
 50
107.378525
 51
144.752443
  0
ARC
  5
BD9F
330
BD52
100
AcDbEntity
  8
1
  6
Continuous
100
AcDbCircle
 10
133.164626
 20
157.6822369999999
 30
0.0
 40
25.0
100
AcDbArc
 50
99.78061099999999
 51
147.9938109999999
  0
LINE
  5
BDA0
330
BD52
100
AcDbEntity
  8
1
  6
Continuous
100
AcDbLine
 10
141.0146259999999
 20
186.633782
 30
0.0
 11
141.0146259999999
 21
162.276283
 31
0.0
  0
ARC
  5
BDA1
330
BD52
100
AcDbEntity
  8
1
  6
Continuous
100
AcDbCircle
 10
205.7691629999999
 20
136.558325
 30
0.0
 40
63.35981999999999
100
AcDbArc
 50
134.0470019999999
 51
143.333821
  0
LINE
  5
BDA2
330
BD52
100
AcDbEntity
  8
4
  6
CENTER
100
AcDbLine
 10
152.1646259999999
 20
239.53127
 30
0.0
 11
152.1646259999999
 21
167.1422599999999
 31
0.0
  0
ARC
  5
BDA3
330
BD52
100
AcDbEntity
  8
1
  6
Continuous
100
AcDbCircle
 10
268.1828499999999
 20
90.093882
 30
0.0
 40
141.169928
100
AcDbArc
 50
143.333821
 51
147.9917129999998
  0
ARC
  5
BDA4
330
BD52
100
AcDbEntity
  8
1
  6
Continuous
100
AcDbCircle
 10
165.5442449999999
 20
178.144123
 30
0.0
 40
5.502905999999999
100
AcDbArc
 50
90.0
 51
134.0470019999999
  0
LINE
  5
BDA5
330
BD52
100
AcDbEntity
  8
1
  6
Continuous
100
AcDbLine
 10
169.3501259999998
 20
183.5870279999998
 30
0.0
 11
169.127126
 21
183.647028
 31
0.0
  0
LINE
  5
BDA6
330
BD52
100
AcDbEntity
  8
1
  6
Continuous
100
AcDbLine
 10
169.127126
 20
183.647028
 30
0.0
 11
165.5442449999999
 21
183.647028
 31
0.0
  0
LINE
  5
BDA7
330
BD52
100
AcDbEntity
  8
1
  6
Continuous
100
AcDbLine
 10
170.764126
 20
183.6743669999999
 30
0.0
 11
170.015126
 21
183.6320279999999
 31
0.0
  0
ARC
  5
BDA8
330
BD52
100
AcDbEntity
  8
1
  6
Continuous
100
AcDbCircle
 10
167.9451409999998
 20
187.7889979999999
 30
0.0
 40
2.732905
100
AcDbArc
 50
0.0
 51
70.822161
  0
LINE
  5
BDA9
330
BD52
100
AcDbEntity
  8
1
  6
Continuous
100
AcDbLine
 10
170.015126
 20
183.6320279999999
 30
0.0
 11
169.3501259999998
 21
183.5870279999998
 31
0.0
  0
ARC
  5
BDAA
330
BD52
100
AcDbEntity
  8
1
  6
Continuous
100
AcDbCircle
 10
136.8794169999999
 20
187.2558689999999
 30
0.0
 40
3.266183999999998
100
AcDbArc
 50
107.537707
 51
141.743298
  0
ARC
  5
BDAB
330
BD52
100
AcDbEntity
  8
1
  6
Continuous
100
AcDbCircle
 10
137.810311
 20
186.521835
 30
0.0
 40
4.451666999999998
100
AcDbArc
 50
141.743298
 51
156.849068
  0
LINE
  5
BDAC
330
BD52
100
AcDbEntity
  8
1
  6
Continuous
100
AcDbLine
 10
133.717126
 20
188.272028
 30
0.0
 11
133.5721259999999
 21
187.837028
 31
0.0
  0
LINE
  5
BDAD
330
BD52
100
AcDbEntity
  8
1
  6
Continuous
100
AcDbLine
 10
133.5721259999999
 20
187.837028
 30
0.0
 11
133.232126
 21
187.6370279999999
 31
0.0
  0
LINE
  5
BDAE
330
BD52
100
AcDbEntity
  8
1
  6
Continuous
100
AcDbLine
 10
133.232126
 20
187.6370279999999
 30
0.0
 11
133.062126
 21
187.552028
 31
0.0
  0
LINE
  5
BDAF
330
BD52
100
AcDbEntity
  8
1
  6
Continuous
100
AcDbLine
 10
133.062126
 20
187.552028
 30
0.0
 11
132.877126
 21
187.517028
 31
0.0
  0
ARC
  5
BDB0
330
BD52
100
AcDbEntity
  8
1
  6
Continuous
100
AcDbCircle
 10
135.6928139999999
 20
189.593062
 30
0.0
 40
2.042368999999998
100
AcDbArc
 50
270.6820599999999
 51
340.178191
  0
LINE
  5
BDB1
330
BD52
100
AcDbEntity
  8
1
  6
Continuous
100
AcDbLine
 10
130.877126
 20
187.497028
 30
0.0
 11
127.658798
 21
187.5613949999998
 31
0.0
  0
LINE
  5
BDB2
330
BD52
100
AcDbEntity
  8
1
  6
Continuous
100
AcDbLine
 10
132.0371259999998
 20
187.5070279999999
 30
0.0
 11
131.442126
 21
187.487028
 31
0.0
  0
LINE
  5
BDB3
330
BD52
100
AcDbEntity
  8
1
  6
Continuous
100
AcDbLine
 10
131.442126
 20
187.487028
 30
0.0
 11
130.877126
 21
187.497028
 31
0.0
  0
ARC
  5
BDB4
330
BD52
100
AcDbEntity
  8
1
  6
Continuous
100
AcDbCircle
 10
127.631779
 20
186.210488
 30
0.0
 40
1.351175999999999
100
AcDbArc
 50
88.85423700000002
 51
129.236686
  0
LINE
  5
BDB5
330
BD52
100
AcDbEntity
  8
1
  6
Continuous
100
AcDbLine
 10
129.217126
 20
185.5300409999999
 30
0.0
 11
126.9481689999998
 21
185.563798
 31
0.0
  0
LINE
  5
BDB6
330
BD52
100
AcDbEntity
  8
1
  6
Continuous
100
AcDbLine
 10
126.7771259999999
 20
187.2570279999999
 30
0.0
 11
126.717126
 21
186.3420279999999
 31
0.0
  0
LINE
  5
BDB7
330
BD52
100
AcDbEntity
  8
1
  6
Continuous
100
AcDbLine
 10
126.717126
 20
186.3420279999999
 30
0.0
 11
126.717126
 21
185.6570279999999
 31
0.0
  0
ARC
  5
BDB8
330
BD52
100
AcDbEntity
  8
1
  6
Continuous
100
AcDbCircle
 10
126.953311
 20
185.9094419999999
 30
0.0
 40
0.345682
100
AcDbArc
 50
226.9023309999998
 51
269.1476279999998
  0
LINE
  5
BDB9
330
BD52
100
AcDbEntity
  8
1
  6
Continuous
100
AcDbLine
 10
225.5132029999999
 20
187.370179
 30
0.0
 11
225.5132029999999
 21
166.9701789999998
 31
0.0
  0
ARC
  5
BDBA
330
BD52
100
AcDbEntity
  8
1
  6
Continuous
100
AcDbCircle
 10
56.366049
 20
135.278334
 30
0.0
 40
1.5
100
AcDbArc
 50
284.6984239999999
 51
0.0
  0
ARC
  5
BDBB
330
BD52
100
AcDbEntity
  8
1
  6
Continuous
100
AcDbCircle
 10
47.86604899999999
 20
167.6820379999998
 30
0.0
 40
35.0
100
AcDbArc
 50
255.301576
 51
284.6984239999999
  0
ARC
  5
BDBC
330
BD52
100
AcDbEntity
  8
1
  6
Continuous
100
AcDbCircle
 10
39.36604899999998
 20
135.278334
 30
0.0
 40
1.5
100
AcDbArc
 50
180.0
 51
255.301576
  0
LINE
  5
BDBD
330
BD52
100
AcDbEntity
  8
4
  6
CENTER
100
AcDbLine
 10
76.36584899999999
 20
157.6820379999998
 30
0.0
 11
26.365809
 21
157.6820379999998
 31
0.0
  0
ARC
  5
BDBE
330
BD52
100
AcDbEntity
  8
1
  6
Continuous
100
AcDbCircle
 10
56.366049
 20
180.0857409999999
 30
0.0
 40
1.5
100
AcDbArc
 50
0.0
 51
75.30157599999999
  0
LINE
  5
BDBF
330
BD52
100
AcDbEntity
  8
1
  6
Continuous
100
AcDbLine
 10
57.866049
 20
180.0857409999999
 30
0.0
 11
57.866049
 21
135.278334
 31
0.0
  0
LINE
  5
BDC0
330
BD52
100
AcDbEntity
  8
1
  6
Continuous
100
AcDbLine
 10
59.36604899999998
 20
159.8297699999999
 30
0.0
 11
59.36604899999998
 21
149.1820379999998
 31
0.0
  0
LINE
  5
BDC1
330
BD52
100
AcDbEntity
  8
1
  6
Continuous
100
AcDbLine
 10
59.36604899999998
 20
149.1820379999998
 30
0.0
 11
57.866049
 21
149.1820379999998
 31
0.0
  0
LINE
  5
BDC2
330
BD52
100
AcDbEntity
  8
1
  6
Continuous
100
AcDbLine
 10
60.366049
 20
154.6820379999998
 30
0.0
 11
59.36604899999998
 21
154.6820379999998
 31
0.0
  0
LINE
  5
BDC3
330
BD52
100
AcDbEntity
  8
1
  6
Continuous
100
AcDbLine
 10
58.47234199999999
 20
166.1820379999998
 30
0.0
 11
57.866049
 21
166.1820379999998
 31
0.0
  0
ARC
  5
BDC4
330
BD52
100
AcDbEntity
  8
1
  6
Continuous
100
AcDbCircle
 10
39.36604899999998
 20
180.0857409999999
 30
0.0
 40
1.5
100
AcDbArc
 50
104.698424
 51
180.0
  0
LINE
  5
BDC5
330
BD52
100
AcDbEntity
  8
1
  6
Continuous
100
AcDbLine
 10
37.86604899999999
 20
180.0857409999999
 30
0.0
 11
37.86604899999999
 21
135.278334
 31
0.0
  0
LINE
  5
BDC6
330
BD52
100
AcDbEntity
  8
1
  6
Continuous
100
AcDbLine
 10
36.366049
 20
166.1820379999998
 30
0.0
 11
36.366049
 21
149.1820379999998
 31
0.0
  0
LINE
  5
BDC7
330
BD52
100
AcDbEntity
  8
1
  6
Continuous
100
AcDbLine
 10
36.366049
 20
149.1820379999998
 30
0.0
 11
37.86604899999999
 21
149.1820379999998
 31
0.0
  0
LINE
  5
BDC8
330
BD52
100
AcDbEntity
  8
1
  6
Continuous
100
AcDbLine
 10
36.366049
 20
166.1820379999998
 30
0.0
 11
37.86604899999999
 21
166.1820379999998
 31
0.0
  0
ARC
  5
BDC9
330
BD52
100
AcDbEntity
  8
1
  6
Continuous
100
AcDbCircle
 10
47.86604899999999
 20
147.6820379999998
 30
0.0
 40
35.0
100
AcDbArc
 50
75.30157599999999
 51
104.698424
  0
LINE
  5
BDCA
330
BD52
100
AcDbEntity
  8
4
  6
CENTER
100
AcDbLine
 10
47.86604899999999
 20
239.6825769999999
 30
0.0
 11
47.86604899999999
 21
127.6820379999999
 31
0.0
  0
LINE
  5
BDCB
330
BD52
100
AcDbEntity
  8
1
  6
Continuous
100
AcDbLine
 10
31.616049
 20
190.3702369999998
 30
0.0
 11
64.116049
 21
190.370044
 31
0.0
  0
ARC
  5
BDCC
330
BD52
100
AcDbEntity
  8
1
  6
Continuous
100
AcDbCircle
 10
37.11580899999999
 20
183.581018
 30
0.0
 40
3.75
100
AcDbArc
 50
90.0
 51
180.0
  0
LINE
  5
BDCD
330
BD52
100
AcDbEntity
  8
1
  6
Continuous
100
AcDbLine
 10
33.36580899999999
 20
149.2453159999998
 30
0.0
 11
35.36604899999999
 21
149.2453159999998
 31
0.0
  0
ARC
  5
BDCE
330
BD52
100
AcDbEntity
  8
1
  6
Continuous
100
AcDbCircle
 10
55.731462
 20
167.6022299999999
 30
0.0
 40
26.722888
100
AcDbArc
 50
181.355289
 51
204.692905
  0
LINE
  5
BDCF
330
BD52
100
AcDbEntity
  8
1
  6
Continuous
100
AcDbLine
 10
33.36580899999999
 20
183.581018
 30
0.0
 11
33.36580899999999
 21
149.2453159999998
 31
0.0
  0
LINE
  5
BDD0
330
BD52
100
AcDbEntity
  8
1
  6
Continuous
100
AcDbLine
 10
32.432493
 20
161.9320379999998
 30
0.0
 11
32.432493
 21
153.4320379999998
 31
0.0
  0
ARC
  5
BDD1
330
BD52
100
AcDbEntity
  8
1
  6
Continuous
100
AcDbCircle
 10
40.36580899999999
 20
157.6820379999998
 30
0.0
 40
9.0
100
AcDbArc
 50
151.821357
 51
208.178643
  0
LINE
  5
BDD2
330
BD52
100
AcDbEntity
  8
1
  6
Continuous
100
AcDbLine
 10
33.36580899999999
 20
153.4320379999998
 30
0.0
 11
32.432493
 21
153.4320379999998
 31
0.0
  0
LINE
  5
BDD3
330
BD52
100
AcDbEntity
  8
1
  6
Continuous
100
AcDbLine
 10
29.016049
 20
187.370179
 30
0.0
 11
29.016049
 21
166.9701789999998
 31
0.0
  0
LINE
  5
BDD4
330
BD52
100
AcDbEntity
  8
1
  6
Continuous
100
AcDbLine
 10
33.36580899999999
 20
161.9320379999998
 30
0.0
 11
32.432493
 21
161.9320379999998
 31
0.0
  0
ARC
  5
BDD5
330
BD52
100
AcDbEntity
  8
1
  6
Continuous
100
AcDbCircle
 10
32.23066699999999
 20
187.1480939999999
 30
0.0
 40
3.22228
100
AcDbArc
 50
89.37084
 51
176.0479389999999
  0
ARC
  5
BDD6
330
BD52
100
AcDbEntity
  8
1
  6
Continuous
100
AcDbCircle
 10
40.006289
 20
167.4394839999999
 30
0.0
 40
26.713884
100
AcDbArc
 50
353.4437459999999
 51
358.9933849999999
  0
LINE
  5
BDD7
330
BD52
100
AcDbEntity
  8
1
  6
Continuous
100
AcDbLine
 10
35.36604899999999
 20
183.589424
 30
0.0
 11
35.36604899999999
 21
149.2453159999998
 31
0.0
  0
LINE
  5
BDD8
330
BD52
100
AcDbEntity
  8
1
  6
Continuous
100
AcDbLine
 10
60.366049
 20
183.589424
 30
0.0
 11
60.366049
 21
172.2863889999999
 31
0.0
  0
LINE
  5
BDD9
330
BD52
100
AcDbEntity
  8
1
  6
Continuous
100
AcDbLine
 10
62.366289
 20
183.581018
 30
0.0
 11
62.366289
 21
172.2892159999999
 31
0.0
  0
LINE
  5
BDDA
330
BD52
100
AcDbEntity
  8
1
  6
Continuous
100
AcDbLine
 10
35.36604899999999
 20
154.6820379999998
 30
0.0
 11
36.366049
 21
154.6820379999998
 31
0.0
  0
LINE
  5
BDDB
330
BD52
100
AcDbEntity
  8
1
  6
Continuous
100
AcDbLine
 10
60.366049
 20
149.2453159999998
 30
0.0
 11
62.366289
 21
149.2453159999998
 31
0.0
  0
ARC
  5
BDDC
330
BD52
100
AcDbEntity
  8
1
  6
Continuous
100
AcDbCircle
 10
63.50143199999997
 20
187.1480939999999
 30
0.0
 40
3.22228
100
AcDbArc
 50
3.952061
 51
90.62915999999999
  0
LINE
  5
BDDD
330
BD52
100
AcDbEntity
  8
1
  6
Continuous
100
AcDbLine
 10
66.716049
 20
187.370179
 30
0.0
 11
66.716049
 21
172.2492179999999
 31
0.0
  0
LINE
  5
BDDE
330
BD52
100
AcDbEntity
  8
1
  6
Continuous
100
AcDbLine
 10
35.36604899999999
 20
160.6820379999998
 30
0.0
 11
36.366049
 21
160.6820379999998
 31
0.0
  0
LINE
  5
BDDF
330
BD52
100
AcDbEntity
  8
1
  6
Continuous
100
AcDbLine
 10
37.11604899999999
 20
185.339424
 30
0.0
 11
58.61604899999999
 21
185.339424
 31
0.0
  0
LINE
  5
BDE0
330
BD52
100
AcDbEntity
  8
1
  6
Continuous
100
AcDbLine
 10
37.11580899999999
 20
187.331018
 30
0.0
 11
58.616289
 21
187.331018
 31
0.0
  0
ARC
  5
BDE1
330
BD52
100
AcDbEntity
  8
1
  6
Continuous
100
AcDbCircle
 10
37.11604899999999
 20
183.589424
 30
0.0
 40
1.75
100
AcDbArc
 50
90.0
 51
180.0
  0
ARC
  5
BDE2
330
BD52
100
AcDbEntity
  8
1
  6
Continuous
100
AcDbCircle
 10
58.616289
 20
183.581018
 30
0.0
 40
3.75
100
AcDbArc
 50
0.0
 51
90.0
  0
ARC
  5
BDE3
330
BD52
100
AcDbEntity
  8
1
  6
Continuous
100
AcDbCircle
 10
58.61604899999999
 20
183.589424
 30
0.0
 40
1.75
100
AcDbArc
 50
0.0
 51
90.0
  0
LINE
  5
BDE4
330
BD52
100
AcDbEntity
  8
1
  6
Continuous
100
AcDbLine
 10
256.8632029999998
 20
183.589424
 30
0.0
 11
256.8632029999998
 21
149.2453159999998
 31
0.0
  0
ARC
  5
BDE5
330
BD52
100
AcDbEntity
  8
1
  6
Continuous
100
AcDbCircle
 10
252.113443
 20
157.6820379999998
 30
0.0
 40
9.0
100
AcDbArc
 50
331.8213569999999
 51
355.5531859999998
  0
LINE
  5
BDE6
330
BD52
100
AcDbEntity
  8
1
  6
Continuous
100
AcDbLine
 10
260.046759
 20
154.816337
 30
0.0
 11
260.046759
 21
153.4320379999998
 31
0.0
  0
LINE
  5
BDE7
330
BD52
100
AcDbEntity
  8
1
  6
Continuous
100
AcDbLine
 10
259.4357299999999
 20
153.4320379999998
 30
0.0
 11
260.046759
 21
153.4320379999998
 31
0.0
  0
LINE
  5
BDE8
330
BD52
100
AcDbEntity
  8
1
  6
Continuous
100
AcDbLine
 10
129.4032709999999
 20
187.5265049999999
 30
0.0
 11
126.953979
 21
165.561912
 31
0.0
  0
LINE
  5
BDE9
330
BD52
100
AcDbEntity
  8
4
  6
CENTER
100
AcDbLine
 10
176.0146189999999
 20
70.009612
 30
0.0
 11
103.164626
 21
70.009612
 31
0.0
  0
LINE
  5
BDEA
330
BD52
100
AcDbEntity
  8
4
  6
CENTER
100
AcDbLine
 10
152.164619
 20
46.159612
 30
0.0
 11
152.164619
 21
93.859612
 31
0.0
  0
LINE
  5
BDEB
330
BD52
100
AcDbEntity
  8
1
  6
Continuous
100
AcDbLine
 10
137.8128769999999
 20
57.50961199999998
 30
0.0
 11
126.07531
 21
57.50961199999998
 31
0.0
  0
LINE
  5
BDEC
330
BD52
100
AcDbEntity
  8
1
  6
Continuous
100
AcDbLine
 10
137.8132369999999
 20
55.50937199999999
 30
0.0
 11
126.07531
 21
55.50937199999999
 31
0.0
  0
LINE
  5
BDED
330
BD52
100
AcDbEntity
  8
1
  6
Continuous
100
AcDbLine
 10
137.8128769999999
 20
82.509612
 30
0.0
 11
126.07531
 21
82.509612
 31
0.0
  0
LINE
  5
BDEE
330
BD52
100
AcDbEntity
  8
4
  6
CENTER
100
AcDbLine
 10
133.164626
 20
127.682237
 30
0.0
 11
133.164626
 21
185.6822369999999
 31
0.0
  0
LINE
  5
BDEF
330
BD52
100
AcDbEntity
  8
1
  6
Continuous
100
AcDbLine
 10
126.07531
 20
55.50937199999999
 30
0.0
 11
126.07531
 21
57.50961199999998
 31
0.0
  0
LINE
  5
BDF0
330
BD52
100
AcDbEntity
  8
1
  6
Continuous
100
AcDbLine
 10
126.07531
 20
82.509612
 30
0.0
 11
126.07531
 21
84.50985199999998
 31
0.0
  0
ARC
  5
BDF1
330
BD52
100
AcDbEntity
  8
1
  6
Continuous
100
AcDbCircle
 10
152.164619
 20
70.009612
 30
0.0
 40
13.6
100
AcDbArc
 50
227.332075
 51
91.34108699999996
  0
ARC
  5
BDF2
330
BD52
100
AcDbEntity
  8
1
  6
Continuous
100
AcDbCircle
 10
152.164619
 20
70.009612
 30
0.0
 40
12.0
100
AcDbArc
 50
236.44269
 51
123.55731
  0
LINE
  5
BDF3
330
BD52
100
AcDbEntity
  8
1
  6
Continuous
100
AcDbLine
 10
110.760923
 20
80.009612
 30
0.0
 11
155.56833
 21
80.009612
 31
0.0
  0
ARC
  5
BDF4
330
BD52
100
AcDbEntity
  8
1
  6
Continuous
100
AcDbCircle
 10
123.1646259999999
 20
70.009612
 30
0.0
 40
35.0
100
AcDbArc
 50
345.3015759999999
 51
14.698424
  0
ARC
  5
BDF5
330
BD52
100
AcDbEntity
  8
1
  6
Continuous
100
AcDbCircle
 10
155.56833
 20
78.509612
 30
0.0
 40
1.5
100
AcDbArc
 50
14.698424
 51
90.0
  0
LINE
  5
BDF6
330
BD52
100
AcDbEntity
  8
1
  6
Continuous
100
AcDbLine
 10
110.760923
 20
60.00961199999998
 30
0.0
 11
155.56833
 21
60.00961199999998
 31
0.0
  0
ARC
  5
BDF7
330
BD52
100
AcDbEntity
  8
1
  6
Continuous
100
AcDbCircle
 10
155.56833
 20
61.509612
 30
0.0
 40
1.5
100
AcDbArc
 50
270.0
 51
345.3015759999999
  0
LINE
  5
BDF8
330
BD52
100
AcDbEntity
  8
4
  6
CENTER
100
AcDbLine
 10
133.164626
 20
98.509652
 30
0.0
 11
133.164626
 21
48.509372
 31
0.0
  0
ARC
  5
BDF9
330
BD52
100
AcDbEntity
  8
1
  6
Continuous
100
AcDbCircle
 10
133.164626
 20
62.509372
 30
0.0
 40
9.0
100
AcDbArc
 50
241.8213569999999
 51
298.178643
  0
LINE
  5
BDFA
330
BD52
100
AcDbEntity
  8
1
  6
Continuous
100
AcDbLine
 10
128.914626
 20
54.576056
 30
0.0
 11
137.414626
 21
54.576056
 31
0.0
  0
LINE
  5
BDFB
330
BD52
100
AcDbEntity
  8
1
  6
Continuous
100
AcDbLine
 10
124.664626
 20
58.509612
 30
0.0
 11
141.664626
 21
58.509612
 31
0.0
  0
LINE
  5
BDFC
330
BD52
100
AcDbEntity
  8
1
  6
Continuous
100
AcDbLine
 10
124.664626
 20
81.50961200000002
 30
0.0
 11
141.664626
 21
81.50961200000002
 31
0.0
  0
LINE
  5
BDFD
330
BD52
100
AcDbEntity
  8
1
  6
Continuous
100
AcDbLine
 10
136.164626
 20
57.50961199999998
 30
0.0
 11
136.164626
 21
58.509612
 31
0.0
  0
LINE
  5
BDFE
330
BD52
100
AcDbEntity
  8
1
  6
Continuous
100
AcDbLine
 10
137.414626
 20
55.50937199999999
 30
0.0
 11
137.414626
 21
54.576056
 31
0.0
  0
LINE
  5
BDFF
330
BD52
100
AcDbEntity
  8
1
  6
Continuous
100
AcDbLine
 10
141.664626
 20
58.509612
 30
0.0
 11
141.664626
 21
60.00961199999998
 31
0.0
  0
LINE
  5
BE00
330
BD52
100
AcDbEntity
  8
1
  6
Continuous
100
AcDbLine
 10
136.164626
 20
82.509612
 30
0.0
 11
136.164626
 21
81.50961200000002
 31
0.0
  0
LINE
  5
BE01
330
BD52
100
AcDbEntity
  8
1
  6
Continuous
100
AcDbLine
 10
141.664626
 20
81.50961200000002
 30
0.0
 11
141.664626
 21
80.009612
 31
0.0
  0
LINE
  5
BE02
330
BD52
100
AcDbEntity
  8
1
  6
Continuous
100
AcDbLine
 10
130.164626
 20
57.50961199999998
 30
0.0
 11
130.164626
 21
58.509612
 31
0.0
  0
LINE
  5
BE03
330
BD52
100
AcDbEntity
  8
1
  6
Continuous
100
AcDbLine
 10
128.914626
 20
55.50937199999999
 30
0.0
 11
128.914626
 21
54.576056
 31
0.0
  0
LINE
  5
BE04
330
BD52
100
AcDbEntity
  8
1
  6
Continuous
100
AcDbLine
 10
124.664626
 20
58.509612
 30
0.0
 11
124.664626
 21
60.00961199999998
 31
0.0
  0
LINE
  5
BE05
330
BD52
100
AcDbEntity
  8
1
  6
Continuous
100
AcDbLine
 10
130.164626
 20
82.509612
 30
0.0
 11
130.164626
 21
81.50961200000002
 31
0.0
  0
LINE
  5
BE06
330
BD52
100
AcDbEntity
  8
1
  6
Continuous
100
AcDbLine
 10
124.664626
 20
81.50961200000002
 30
0.0
 11
124.664626
 21
80.009612
 31
0.0
  0
ARC
  5
BE07
330
BD52
100
AcDbEntity
  8
1
  6
Continuous
100
AcDbCircle
 10
110.760923
 20
78.509612
 30
0.0
 40
1.5
100
AcDbArc
 50
90.0
 51
165.301576
  0
ARC
  5
BE08
330
BD52
100
AcDbEntity
  8
1
  6
Continuous
100
AcDbCircle
 10
143.1646259999999
 20
70.009612
 30
0.0
 40
35.0
100
AcDbArc
 50
165.301576
 51
194.698424
  0
ARC
  5
BE09
330
BD52
100
AcDbEntity
  8
1
  6
Continuous
100
AcDbCircle
 10
110.760923
 20
61.509612
 30
0.0
 40
1.5
100
AcDbArc
 50
194.698424
 51
270.0
  0
LINE
  5
BE0A
330
BD52
100
AcDbEntity
  8
1
  6
Continuous
100
AcDbLine
 10
170.764126
 20
183.6743669999999
 30
0.0
 11
171.0146259999999
 21
183.6743669999999
 31
0.0
  0
LINE
  5
BE0B
330
BD52
100
AcDbEntity
  8
1
  6
Continuous
100
AcDbLine
 10
171.0146259999999
 20
183.6743669999999
 30
0.0
 11
170.6780469999999
 21
187.7889979999999
 31
0.0
  0
ARC
  5
BE0C
330
BD52
100
AcDbEntity
  8
1
  6
Continuous
100
AcDbCircle
 10
152.164619
 20
70.009612
 30
0.0
 40
18.85
100
AcDbArc
 50
236.2769409999999
 51
54.775542
  0
ARC
  5
BE0D
330
BD52
100
AcDbEntity
  8
1
  6
Continuous
100
AcDbCircle
 10
152.164619
 20
70.009612
 30
0.0
 40
16.85
100
AcDbArc
 50
236.2759829999999
 51
64.422782
  0
ARC
  5
BE0E
330
BD52
100
AcDbEntity
  8
1
  6
Continuous
100
AcDbCircle
 10
55.731462
 20
167.6022299999999
 30
0.0
 40
26.722888
100
AcDbArc
 50
212.0233099999999
 51
213.180835
  0
LINE
  5
BE0F
330
BD52
100
AcDbEntity
  8
1
  6
Continuous
100
AcDbLine
 10
258.863443
 20
150.097637
 30
0.0
 11
258.863443
 21
149.2453159999998
 31
0.0
  0
ARC
  5
BE10
330
BD52
100
AcDbEntity
  8
1
  6
Continuous
100
AcDbCircle
 10
236.503443
 20
167.4394839999999
 30
0.0
 40
26.713884
100
AcDbArc
 50
331.812974
 51
358.9933849999999
  0
LINE
  5
BE11
330
BD52
100
AcDbEntity
  8
1
  6
Continuous
100
AcDbLine
 10
256.8632029999998
 20
149.2453159999998
 30
0.0
 11
258.863443
 21
149.2453159999998
 31
0.0
  0
ARC
  5
BE12
330
BD52
100
AcDbEntity
  8
1
  6
Continuous
100
AcDbCircle
 10
268.863443
 20
150.097637
 30
0.0
 40
10.0
100
AcDbArc
 50
151.812974
 51
180.0
  0
LINE
  5
BE13
330
BD52
100
AcDbEntity
  8
1
  6
Continuous
100
AcDbLine
 10
261.180827
 20
175.043628
 30
0.0
 11
261.180827
 21
167.8554389999999
 31
0.0
  0
ARC
  5
BE14
330
BD52
100
AcDbEntity
  8
1
  6
Continuous
100
AcDbCircle
 10
234.4710669999999
 20
168.3247439999998
 30
0.0
 40
26.713884
100
AcDbArc
 50
331.812974
 51
358.9933849999999
  0
ARC
  5
BE15
330
BD52
100
AcDbEntity
  8
1
  6
Continuous
100
AcDbCircle
 10
266.831067
 20
150.9828979999998
 30
0.0
 40
10.0
100
AcDbArc
 50
151.812974
 51
175.405317
  0
LINE
  5
BE16
330
BD52
100
AcDbEntity
  8
1
  6
Continuous
100
AcDbLine
 10
135.8952069999999
 20
190.3702369999998
 30
0.0
 11
168.842904
 21
190.3702369999998
 31
0.0
  0
LINE
  5
BE17
330
BD52
100
AcDbEntity
  8
1
  6
Continuous
100
AcDbLine
 10
144.834619
 20
309.4823939999999
 30
0.0
 11
137.5046189999999
 21
296.7864619999998
 31
0.0
  0
CIRCLE
  5
BE18
330
BD52
100
AcDbEntity
  8
1
  6
Continuous
100
AcDbCircle
 10
152.164619
 20
296.7864619999998
 30
0.0
 40
14.660012
  0
CIRCLE
  5
BE19
330
BD52
100
AcDbEntity
  8
1
  6
Continuous
100
AcDbCircle
 10
152.164619
 20
296.7864619999998
 30
0.0
 40
16.25
  0
CIRCLE
  5
BE1A
330
BD52
100
AcDbEntity
  8
1
  6
Continuous
100
AcDbCircle
 10
152.164619
 20
296.7864619999998
 30
0.0
 40
16.00018
  0
CIRCLE
  5
BE1B
330
BD52
100
AcDbEntity
  8
1
  6
Continuous
100
AcDbCircle
 10
152.164619
 20
296.7864619999998
 30
0.0
 40
4.0
  0
LINE
  5
BE1C
330
BD52
100
AcDbEntity
  8
4
  6
CENTER
100
AcDbLine
 10
133.165027
 20
268.2866619999999
 30
0.0
 11
133.165027
 21
317.7864619999998
 31
0.0
  0
ARC
  5
BE1D
330
BD52
100
AcDbEntity
  8
1
  6
Continuous
100
AcDbCircle
 10
110.761324
 20
288.2864619999999
 30
0.0
 40
1.5
100
AcDbArc
 50
194.698424
 51
270.0
  0
LINE
  5
BE1E
330
BD52
100
AcDbEntity
  8
1
  6
Continuous
100
AcDbLine
 10
124.6650269999999
 20
285.2864619999999
 30
0.0
 11
128.4592249999997
 21
285.2864619999999
 31
0.0
  0
LINE
  5
BE1F
330
BD52
100
AcDbEntity
  8
1
  6
Continuous
100
AcDbLine
 10
127.883256
 20
286.7864619999998
 30
0.0
 11
110.761324
 21
286.7864619999998
 31
0.0
  0
LINE
  5
BE20
330
BD52
100
AcDbEntity
  8
1
  6
Continuous
100
AcDbLine
 10
128.8957469999998
 20
284.2864619999998
 30
0.0
 11
126.4406609999999
 21
284.2864619999998
 31
0.0
  0
ARC
  5
BE21
330
BD52
100
AcDbEntity
  8
1
  6
Continuous
100
AcDbCircle
 10
156.167527
 20
296.7864619999998
 30
0.0
 40
30.0
100
AcDbArc
 50
154.381133
 51
205.6188689999999
  0
ARC
  5
BE22
330
BD52
100
AcDbEntity
  8
1
  6
Continuous
100
AcDbCircle
 10
152.572527
 20
296.7864619999998
 30
0.0
 40
19.0
100
AcDbArc
 50
127.799415
 51
232.200585
  0
LINE
  5
BE23
330
BD52
100
AcDbEntity
  8
1
  6
Continuous
100
AcDbLine
 10
137.415027
 20
312.2198179999998
 30
0.0
 11
128.915027
 21
312.2198179999998
 31
0.0
  0
ARC
  5
BE24
330
BD52
100
AcDbEntity
  8
1
  6
Continuous
100
AcDbCircle
 10
133.165027
 20
304.2865019999999
 30
0.0
 40
9.0
100
AcDbArc
 50
61.82135699999999
 51
118.178643
  0
ARC
  5
BE25
330
BD52
100
AcDbEntity
  8
1
  6
Continuous
100
AcDbCircle
 10
127.34396
 20
283.5035919999999
 30
0.0
 40
1.8
100
AcDbArc
 50
317.4539069999998
 51
9.961921999999999
  0
LINE
  5
BE26
330
BD52
100
AcDbEntity
  8
1
  6
Continuous
100
AcDbLine
 10
128.915027
 20
311.2864619999998
 30
0.0
 11
128.915027
 21
312.2198179999998
 31
0.0
  0
LINE
  5
BE27
330
BD52
100
AcDbEntity
  8
1
  6
Continuous
100
AcDbLine
 10
124.6650269999999
 20
285.2864619999999
 30
0.0
 11
124.6650269999999
 21
286.7864619999998
 31
0.0
  0
LINE
  5
BE28
330
BD52
100
AcDbEntity
  8
1
  6
Continuous
100
AcDbLine
 10
137.8128769999999
 20
311.2864619999998
 30
0.0
 11
126.015027
 21
311.2864619999998
 31
0.0
  0
LINE
  5
BE29
330
BD52
100
AcDbEntity
  8
1
  6
Continuous
100
AcDbLine
 10
124.6650269999999
 20
308.2864619999999
 30
0.0
 11
128.4592249999997
 21
308.2864619999999
 31
0.0
  0
LINE
  5
BE2A
330
BD52
100
AcDbEntity
  8
1
  6
Continuous
100
AcDbLine
 10
127.883256
 20
306.7864619999999
 30
0.0
 11
110.761324
 21
306.7864619999999
 31
0.0
  0
LINE
  5
BE2B
330
BD52
100
AcDbEntity
  8
1
  6
Continuous
100
AcDbLine
 10
128.8957469999998
 20
309.2864619999998
 30
0.0
 11
126.015027
 21
309.2864619999998
 31
0.0
  0
ARC
  5
BE2C
330
BD52
100
AcDbEntity
  8
1
  6
Continuous
100
AcDbCircle
 10
127.34396
 20
310.0693319999999
 30
0.0
 40
1.8
100
AcDbArc
 50
350.0380779999999
 51
42.546093
  0
LINE
  5
BE2D
330
BD52
100
AcDbEntity
  8
1
  6
Continuous
100
AcDbLine
 10
124.6650269999999
 20
308.2864619999999
 30
0.0
 11
124.6650269999999
 21
306.7864619999999
 31
0.0
  0
LINE
  5
BE2E
330
BD52
100
AcDbEntity
  8
1
  6
Continuous
100
AcDbLine
 10
126.015027
 20
309.2864619999998
 30
0.0
 11
126.015027
 21
311.2864619999998
 31
0.0
  0
ARC
  5
BE2F
330
BD52
100
AcDbEntity
  8
1
  6
Continuous
100
AcDbCircle
 10
143.165027
 20
296.7864619999998
 30
0.0
 40
35.0
100
AcDbArc
 50
165.301576
 51
194.698424
  0
LINE
  5
BE30
330
BD52
100
AcDbEntity
  8
1
  6
Continuous
100
AcDbLine
 10
257.059234
 20
195.782458
 30
0.0
 11
231.6673699999999
 21
195.782458
 31
0.0
  0
LINE
  5
BE31
330
BD52
100
AcDbEntity
  8
1
  6
Continuous
100
AcDbLine
 10
231.6673699999999
 20
198.682458
 30
0.0
 11
257.059234
 21
198.682458
 31
0.0
  0
LINE
  5
BE32
330
BD52
100
AcDbEntity
  8
1
  6
Continuous
100
AcDbLine
 10
228.8537349999999
 20
193.7226369999999
 30
0.0
 11
259.8728689999999
 21
193.7226369999999
 31
0.0
  0
LINE
  5
BE33
330
BD52
100
AcDbEntity
  8
1
  6
Continuous
100
AcDbLine
 10
260.3634829999999
 20
193.1469489999998
 30
0.0
 11
228.363122
 21
193.1469489999998
 31
0.0
  0
LINE
  5
BE34
330
BD52
100
AcDbEntity
  8
1
  6
Continuous
100
AcDbLine
 10
255.397476
 20
191.8012329999999
 30
0.0
 11
257.3974729999998
 21
190.3702369999998
 31
0.0
  0
LINE
  5
BE35
330
BD52
100
AcDbEntity
  8
1
  6
Continuous
100
AcDbLine
 10
257.3974729999998
 20
191.8012329999999
 30
0.0
 11
255.397476
 21
190.3702369999998
 31
0.0
  0
LINE
  5
BE36
330
BD52
100
AcDbEntity
  8
1
  6
Continuous
100
AcDbLine
 10
260.6132029999999
 20
191.8011929999999
 30
0.0
 11
228.1132029999999
 21
191.801273
 31
0.0
  0
LINE
  5
BE37
330
BD52
100
AcDbEntity
  8
1
  6
Continuous
100
AcDbLine
 10
238.426914
 20
191.8012329999999
 30
0.0
 11
240.42691
 21
190.3702369999998
 31
0.0
  0
LINE
  5
BE38
330
BD52
100
AcDbEntity
  8
1
  6
Continuous
100
AcDbLine
 10
241.8411240000001
 20
191.8012329999999
 30
0.0
 11
239.8411269999999
 21
190.3702369999998
 31
0.0
  0
LINE
  5
BE39
330
BD52
100
AcDbEntity
  8
1
  6
Continuous
100
AcDbLine
 10
240.42691
 20
191.8012329999999
 30
0.0
 11
238.426914
 21
190.3702369999998
 31
0.0
  0
LINE
  5
BE3A
330
BD52
100
AcDbEntity
  8
1
  6
Continuous
100
AcDbLine
 10
231.6673699999999
 20
195.782458
 30
0.0
 11
231.6673699999999
 21
198.682458
 31
0.0
  0
LINE
  5
BE3B
330
BD52
100
AcDbEntity
  8
1
  6
Continuous
100
AcDbLine
 10
229.9416319999999
 20
191.8012329999999
 30
0.0
 11
231.9416289999999
 21
190.3702369999998
 31
0.0
  0
LINE
  5
BE3C
330
BD52
100
AcDbEntity
  8
1
  6
Continuous
100
AcDbLine
 10
229.113202
 20
190.3702369999998
 30
0.0
 11
228.1132029999999
 21
191.370235
 31
0.0
  0
LINE
  5
BE3D
330
BD52
100
AcDbEntity
  8
1
  6
Continuous
100
AcDbLine
 10
231.9416289999999
 20
191.8012329999999
 30
0.0
 11
229.9416319999999
 21
190.3702369999998
 31
0.0
  0
LINE
  5
BE3E
330
BD52
100
AcDbEntity
  8
1
  6
Continuous
100
AcDbLine
 10
230.5274149999999
 20
191.8012329999999
 30
0.0
 11
228.5274189999999
 21
190.3702369999998
 31
0.0
  0
LINE
  5
BE3F
330
BD52
100
AcDbEntity
  8
1
  6
Continuous
100
AcDbLine
 10
228.1132029999999
 20
191.8012329999999
 30
0.0
 11
228.1132029999999
 21
190.3702369999998
 31
0.0
  0
ARC
  5
BE40
330
BD52
100
AcDbEntity
  8
1
  6
Continuous
100
AcDbCircle
 10
232.164266
 20
193.2824579999999
 30
0.0
 40
2.5
100
AcDbArc
 50
90.0
 51
169.858981
  0
LINE
  5
BE41
330
BD52
100
AcDbEntity
  8
1
  6
Continuous
100
AcDbLine
 10
229.113202
 20
191.8012329999999
 30
0.0
 11
228.1132029999999
 21
191.370235
 31
0.0
  0
ARC
  5
BE42
330
BD52
100
AcDbEntity
  8
1
  6
Continuous
100
AcDbCircle
 10
229.393633
 20
192.765625
 30
0.0
 40
1.098799999999998
100
AcDbArc
 50
119.429525
 51
159.693839
  0
ARC
  5
BE43
330
BD52
100
AcDbEntity
  8
1
  6
Continuous
100
AcDbCircle
 10
230.711497
 20
193.4778359999999
 30
0.0
 40
2.371570999999998
100
AcDbArc
 50
188.020211
 51
224.9867219999999
  0
LINE
  5
BE44
330
BD52
100
AcDbEntity
  8
1
  6
Continuous
100
AcDbLine
 10
235.5984859999999
 20
191.8012329999999
 30
0.0
 11
237.5984829999999
 21
190.3702369999998
 31
0.0
  0
LINE
  5
BE45
330
BD52
100
AcDbEntity
  8
1
  6
Continuous
100
AcDbLine
 10
232.7700589999998
 20
191.8012329999999
 30
0.0
 11
234.770056
 21
190.3702369999998
 31
0.0
  0
LINE
  5
BE46
330
BD52
100
AcDbEntity
  8
1
  6
Continuous
100
AcDbLine
 10
239.0126959999999
 20
191.8012329999999
 30
0.0
 11
237.0127
 21
190.3702369999998
 31
0.0
  0
LINE
  5
BE47
330
BD52
100
AcDbEntity
  8
1
  6
Continuous
100
AcDbLine
 10
237.5984829999999
 20
191.8012329999999
 30
0.0
 11
235.5984859999999
 21
190.3702369999998
 31
0.0
  0
LINE
  5
BE48
330
BD52
100
AcDbEntity
  8
1
  6
Continuous
100
AcDbLine
 10
236.184269
 20
191.8012329999999
 30
0.0
 11
234.1842729999999
 21
190.3702369999998
 31
0.0
  0
LINE
  5
BE49
330
BD52
100
AcDbEntity
  8
1
  6
Continuous
100
AcDbLine
 10
234.770056
 20
191.8012329999999
 30
0.0
 11
232.7700589999998
 21
190.3702369999998
 31
0.0
  0
LINE
  5
BE4A
330
BD52
100
AcDbEntity
  8
1
  6
Continuous
100
AcDbLine
 10
233.355842
 20
191.8012329999999
 30
0.0
 11
231.3558459999999
 21
190.3702369999998
 31
0.0
  0
LINE
  5
BE4B
330
BD52
100
AcDbEntity
  8
1
  6
Continuous
100
AcDbLine
 10
244.363302
 20
195.782458
 30
0.0
 11
244.363302
 21
198.682458
 31
0.0
  0
LINE
  5
BE4C
330
BD52
100
AcDbEntity
  8
1
  6
Continuous
100
AcDbLine
 10
241.255341
 20
191.8012329999999
 30
0.0
 11
243.2553369999999
 21
190.3702369999998
 31
0.0
  0
LINE
  5
BE4D
330
BD52
100
AcDbEntity
  8
1
  6
Continuous
100
AcDbLine
 10
244.669551
 20
191.8012329999999
 30
0.0
 11
242.669554
 21
190.3702369999998
 31
0.0
  0
LINE
  5
BE4E
330
BD52
100
AcDbEntity
  8
1
  6
Continuous
100
AcDbLine
 10
243.2553369999999
 20
191.8012329999999
 30
0.0
 11
241.255341
 21
190.3702369999998
 31
0.0
  0
LINE
  5
BE4F
330
BD52
100
AcDbEntity
  8
1
  6
Continuous
100
AcDbLine
 10
252.5690490000001
 20
191.8012329999999
 30
0.0
 11
254.5690459999999
 21
190.3702369999998
 31
0.0
  0
LINE
  5
BE50
330
BD52
100
AcDbEntity
  8
1
  6
Continuous
100
AcDbLine
 10
249.740622
 20
191.8012329999999
 30
0.0
 11
251.7406189999999
 21
190.3702369999998
 31
0.0
  0
LINE
  5
BE51
330
BD52
100
AcDbEntity
  8
1
  6
Continuous
100
AcDbLine
 10
246.912195
 20
191.8012329999999
 30
0.0
 11
248.912191
 21
190.3702369999998
 31
0.0
  0
LINE
  5
BE52
330
BD52
100
AcDbEntity
  8
1
  6
Continuous
100
AcDbLine
 10
244.083768
 20
191.8012329999999
 30
0.0
 11
246.083764
 21
190.3702369999998
 31
0.0
  0
LINE
  5
BE53
330
BD52
100
AcDbEntity
  8
1
  6
Continuous
100
AcDbLine
 10
255.9832589999998
 20
191.8012329999999
 30
0.0
 11
253.9832629999999
 21
190.3702369999998
 31
0.0
  0
LINE
  5
BE54
330
BD52
100
AcDbEntity
  8
1
  6
Continuous
100
AcDbLine
 10
254.5690459999999
 20
191.8012329999999
 30
0.0
 11
252.5690490000001
 21
190.3702369999998
 31
0.0
  0
LINE
  5
BE55
330
BD52
100
AcDbEntity
  8
1
  6
Continuous
100
AcDbLine
 10
253.1548319999999
 20
191.8012329999999
 30
0.0
 11
251.1548359999999
 21
190.3702369999998
 31
0.0
  0
LINE
  5
BE56
330
BD52
100
AcDbEntity
  8
1
  6
Continuous
100
AcDbLine
 10
251.7406189999999
 20
191.8012329999999
 30
0.0
 11
249.740622
 21
190.3702369999998
 31
0.0
  0
LINE
  5
BE57
330
BD52
100
AcDbEntity
  8
1
  6
Continuous
100
AcDbLine
 10
250.3264049999999
 20
191.8012329999999
 30
0.0
 11
248.326409
 21
190.3702369999998
 31
0.0
  0
LINE
  5
BE58
330
BD52
100
AcDbEntity
  8
1
  6
Continuous
100
AcDbLine
 10
248.912191
 20
191.8012329999999
 30
0.0
 11
246.912195
 21
190.3702369999998
 31
0.0
  0
LINE
  5
BE59
330
BD52
100
AcDbEntity
  8
1
  6
Continuous
100
AcDbLine
 10
247.4979779999999
 20
191.8012329999999
 30
0.0
 11
245.497981
 21
190.3702369999998
 31
0.0
  0
LINE
  5
BE5A
330
BD52
100
AcDbEntity
  8
1
  6
Continuous
100
AcDbLine
 10
246.083764
 20
191.8012329999999
 30
0.0
 11
244.083768
 21
190.3702369999998
 31
0.0
  0
LINE
  5
BE5B
330
BD52
100
AcDbEntity
  8
1
  6
Continuous
100
AcDbLine
 10
234.6132029999999
 20
232.6825759999999
 30
0.0
 11
254.1132029999999
 21
232.6825759999999
 31
0.0
  0
LINE
  5
BE5C
330
BD52
100
AcDbEntity
  8
1
  6
Continuous
100
AcDbLine
 10
246.863164
 20
234.6825759999999
 30
0.0
 11
241.8632029999999
 21
234.6825759999999
 31
0.0
  0
LINE
  5
BE5D
330
BD52
100
AcDbEntity
  8
1
  6
Continuous
100
AcDbLine
 10
257.059234
 20
198.682458
 30
0.0
 11
257.059234
 21
195.782458
 31
0.0
  0
LINE
  5
BE5E
330
BD52
100
AcDbEntity
  8
1
  6
Continuous
100
AcDbLine
 10
258.2259029999999
 20
191.8012329999999
 30
0.0
 11
260.2259
 21
190.3702369999998
 31
0.0
  0
LINE
  5
BE5F
330
BD52
100
AcDbEntity
  8
1
  6
Continuous
100
AcDbLine
 10
260.6132029999999
 20
191.343323
 30
0.0
 11
259.6401169999999
 21
190.3702369999998
 31
0.0
  0
LINE
  5
BE60
330
BD52
100
AcDbEntity
  8
1
  6
Continuous
100
AcDbLine
 10
260.2259
 20
191.8012329999999
 30
0.0
 11
258.2259029999999
 21
190.3702369999998
 31
0.0
  0
LINE
  5
BE61
330
BD52
100
AcDbEntity
  8
1
  6
Continuous
100
AcDbLine
 10
258.8116859999999
 20
191.8012329999999
 30
0.0
 11
256.81169
 21
190.3702369999998
 31
0.0
  0
LINE
  5
BE62
330
BD52
100
AcDbEntity
  8
1
  6
Continuous
100
AcDbLine
 10
260.6132029999999
 20
191.8012329999999
 30
0.0
 11
260.6132029999999
 21
190.3702369999998
 31
0.0
  0
ARC
  5
BE63
330
BD52
100
AcDbEntity
  8
1
  6
Continuous
100
AcDbCircle
 10
256.562379
 20
193.2824579999999
 30
0.0
 40
2.5
100
AcDbArc
 50
10.141019
 51
90.0
  0
ARC
  5
BE64
330
BD52
100
AcDbEntity
  8
1
  6
Continuous
100
AcDbCircle
 10
259.3329709999998
 20
192.765625
 30
0.0
 40
1.098799999999998
100
AcDbArc
 50
20.306161
 51
60.57047500000001
  0
ARC
  5
BE65
330
BD52
100
AcDbEntity
  8
1
  6
Continuous
100
AcDbCircle
 10
258.0151079999998
 20
193.4778359999999
 30
0.0
 40
2.371570999999998
100
AcDbArc
 50
315.0106999999998
 51
351.9797889999999
  0
LINE
  5
BE66
330
BD52
100
AcDbEntity
  8
1
  6
Continuous
100
AcDbLine
 10
39.68711499999999
 20
191.8012339999999
 30
0.0
 11
37.687119
 21
190.370238
 31
0.0
  0
LINE
  5
BE67
330
BD52
100
AcDbEntity
  8
1
  6
Continuous
100
AcDbLine
 10
60.56208
 20
195.7824589999999
 30
0.0
 11
35.17021599999999
 21
195.7824589999999
 31
0.0
  0
LINE
  5
BE68
330
BD52
100
AcDbEntity
  8
1
  6
Continuous
100
AcDbLine
 10
35.17021599999999
 20
198.6824589999999
 30
0.0
 11
60.56208
 21
198.6824589999999
 31
0.0
  0
LINE
  5
BE69
330
BD52
100
AcDbEntity
  8
1
  6
Continuous
100
AcDbLine
 10
32.356581
 20
193.722638
 30
0.0
 11
63.375715
 21
193.722638
 31
0.0
  0
LINE
  5
BE6A
330
BD52
100
AcDbEntity
  8
1
  6
Continuous
100
AcDbLine
 10
63.866329
 20
193.14695
 30
0.0
 11
31.865968
 21
193.14695
 31
0.0
  0
LINE
  5
BE6B
330
BD52
100
AcDbEntity
  8
1
  6
Continuous
100
AcDbLine
 10
64.116049
 20
191.8011939999999
 30
0.0
 11
31.616049
 21
191.8012739999998
 31
0.0
  0
LINE
  5
BE6C
330
BD52
100
AcDbEntity
  8
1
  6
Continuous
100
AcDbLine
 10
33.44447799999999
 20
191.8012339999999
 30
0.0
 11
35.44447499999999
 21
190.370238
 31
0.0
  0
LINE
  5
BE6D
330
BD52
100
AcDbEntity
  8
1
  6
Continuous
100
AcDbLine
 10
32.616048
 20
190.370238
 30
0.0
 11
31.616049
 21
191.370236
 31
0.0
  0
LINE
  5
BE6E
330
BD52
100
AcDbEntity
  8
1
  6
Continuous
100
AcDbLine
 10
35.44447499999999
 20
191.8012339999999
 30
0.0
 11
33.44447799999999
 21
190.370238
 31
0.0
  0
LINE
  5
BE6F
330
BD52
100
AcDbEntity
  8
1
  6
Continuous
100
AcDbLine
 10
34.03026099999999
 20
191.8012339999999
 30
0.0
 11
32.03026499999999
 21
190.370238
 31
0.0
  0
LINE
  5
BE70
330
BD52
100
AcDbEntity
  8
1
  6
Continuous
100
AcDbLine
 10
31.616049
 20
191.8012339999999
 30
0.0
 11
31.616049
 21
190.370238
 31
0.0
  0
ARC
  5
BE71
330
BD52
100
AcDbEntity
  8
1
  6
Continuous
100
AcDbCircle
 10
35.66711200000001
 20
193.2824589999999
 30
0.0
 40
2.5
100
AcDbArc
 50
90.0
 51
169.858981
  0
LINE
  5
BE72
330
BD52
100
AcDbEntity
  8
1
  6
Continuous
100
AcDbLine
 10
32.616048
 20
191.8012339999999
 30
0.0
 11
31.616049
 21
191.370236
 31
0.0
  0
ARC
  5
BE73
330
BD52
100
AcDbEntity
  8
1
  6
Continuous
100
AcDbCircle
 10
32.896479
 20
192.765626
 30
0.0
 40
1.098799999999998
100
AcDbArc
 50
119.429525
 51
159.693839
  0
LINE
  5
BE74
330
BD52
100
AcDbEntity
  8
1
  6
Continuous
100
AcDbLine
 10
36.272905
 20
191.8012339999999
 30
0.0
 11
38.272902
 21
190.370238
 31
0.0
  0
LINE
  5
BE75
330
BD52
100
AcDbEntity
  8
1
  6
Continuous
100
AcDbLine
 10
38.272902
 20
191.8012339999999
 30
0.0
 11
36.272905
 21
190.370238
 31
0.0
  0
LINE
  5
BE76
330
BD52
100
AcDbEntity
  8
1
  6
Continuous
100
AcDbLine
 10
36.858688
 20
191.8012339999999
 30
0.0
 11
34.85869199999999
 21
190.370238
 31
0.0
  0
ARC
  5
BE77
330
BD52
100
AcDbEntity
  8
1
  6
Continuous
100
AcDbCircle
 10
34.214343
 20
193.477837
 30
0.0
 40
2.371570999999998
100
AcDbArc
 50
188.020211
 51
224.9867219999999
  0
LINE
  5
BE78
330
BD52
100
AcDbEntity
  8
1
  6
Continuous
100
AcDbLine
 10
35.17021599999999
 20
195.7824589999999
 30
0.0
 11
35.17021599999999
 21
198.6824589999999
 31
0.0
  0
LINE
  5
BE79
330
BD52
100
AcDbEntity
  8
1
  6
Continuous
100
AcDbLine
 10
53.243468
 20
191.8012339999999
 30
0.0
 11
55.243465
 21
190.370238
 31
0.0
  0
LINE
  5
BE7A
330
BD52
100
AcDbEntity
  8
1
  6
Continuous
100
AcDbLine
 10
55.243465
 20
191.8012339999999
 30
0.0
 11
53.243468
 21
190.370238
 31
0.0
  0
LINE
  5
BE7B
330
BD52
100
AcDbEntity
  8
1
  6
Continuous
100
AcDbLine
 10
56.65767800000001
 20
191.8012339999999
 30
0.0
 11
54.65768199999999
 21
190.370238
 31
0.0
  0
LINE
  5
BE7C
330
BD52
100
AcDbEntity
  8
1
  6
Continuous
100
AcDbLine
 10
41.92975999999997
 20
191.8012339999999
 30
0.0
 11
43.92975599999998
 21
190.370238
 31
0.0
  0
LINE
  5
BE7D
330
BD52
100
AcDbEntity
  8
1
  6
Continuous
100
AcDbLine
 10
45.34397
 20
191.8012339999999
 30
0.0
 11
43.343973
 21
190.370238
 31
0.0
  0
LINE
  5
BE7E
330
BD52
100
AcDbEntity
  8
1
  6
Continuous
100
AcDbLine
 10
43.92975599999998
 20
191.8012339999999
 30
0.0
 11
41.92975999999997
 21
190.370238
 31
0.0
  0
LINE
  5
BE7F
330
BD52
100
AcDbEntity
  8
1
  6
Continuous
100
AcDbLine
 10
42.515542
 20
191.8012339999999
 30
0.0
 11
40.515546
 21
190.370238
 31
0.0
  0
LINE
  5
BE80
330
BD52
100
AcDbEntity
  8
1
  6
Continuous
100
AcDbLine
 10
44.758187
 20
191.8012339999999
 30
0.0
 11
46.758183
 21
190.370238
 31
0.0
  0
LINE
  5
BE81
330
BD52
100
AcDbEntity
  8
1
  6
Continuous
100
AcDbLine
 10
48.172397
 20
191.8012339999999
 30
0.0
 11
46.1724
 21
190.370238
 31
0.0
  0
LINE
  5
BE82
330
BD52
100
AcDbEntity
  8
1
  6
Continuous
100
AcDbLine
 10
46.758183
 20
191.8012339999999
 30
0.0
 11
44.758187
 21
190.370238
 31
0.0
  0
LINE
  5
BE83
330
BD52
100
AcDbEntity
  8
1
  6
Continuous
100
AcDbLine
 10
50.415041
 20
191.8012339999999
 30
0.0
 11
52.41503699999999
 21
190.370238
 31
0.0
  0
LINE
  5
BE84
330
BD52
100
AcDbEntity
  8
1
  6
Continuous
100
AcDbLine
 10
47.586614
 20
191.8012339999999
 30
0.0
 11
49.58661
 21
190.370238
 31
0.0
  0
LINE
  5
BE85
330
BD52
100
AcDbEntity
  8
1
  6
Continuous
100
AcDbLine
 10
53.829251
 20
191.8012339999999
 30
0.0
 11
51.82925499999999
 21
190.370238
 31
0.0
  0
LINE
  5
BE86
330
BD52
100
AcDbEntity
  8
1
  6
Continuous
100
AcDbLine
 10
52.41503699999999
 20
191.8012339999999
 30
0.0
 11
50.415041
 21
190.370238
 31
0.0
  0
LINE
  5
BE87
330
BD52
100
AcDbEntity
  8
1
  6
Continuous
100
AcDbLine
 10
51.000824
 20
191.8012339999999
 30
0.0
 11
49.000827
 21
190.370238
 31
0.0
  0
LINE
  5
BE88
330
BD52
100
AcDbEntity
  8
1
  6
Continuous
100
AcDbLine
 10
49.58661
 20
191.8012339999999
 30
0.0
 11
47.586614
 21
190.370238
 31
0.0
  0
LINE
  5
BE89
330
BD52
100
AcDbEntity
  8
1
  6
Continuous
100
AcDbLine
 10
47.86614799999997
 20
195.7824589999999
 30
0.0
 11
47.86614799999997
 21
198.6824589999999
 31
0.0
  0
LINE
  5
BE8A
330
BD52
100
AcDbEntity
  8
1
  6
Continuous
100
AcDbLine
 10
39.101332
 20
191.8012339999999
 30
0.0
 11
41.10132899999999
 21
190.370238
 31
0.0
  0
LINE
  5
BE8B
330
BD52
100
AcDbEntity
  8
1
  6
Continuous
100
AcDbLine
 10
41.10132899999999
 20
191.8012339999999
 30
0.0
 11
39.101332
 21
190.370238
 31
0.0
  0
LINE
  5
BE8C
330
BD52
100
AcDbEntity
  8
1
  6
Continuous
100
AcDbLine
 10
58.900322
 20
191.8012339999999
 30
0.0
 11
60.90031899999999
 21
190.370238
 31
0.0
  0
LINE
  5
BE8D
330
BD52
100
AcDbEntity
  8
1
  6
Continuous
100
AcDbLine
 10
60.90031899999999
 20
191.8012339999999
 30
0.0
 11
58.900322
 21
190.370238
 31
0.0
  0
LINE
  5
BE8E
330
BD52
100
AcDbEntity
  8
1
  6
Continuous
100
AcDbLine
 10
56.071895
 20
191.8012339999999
 30
0.0
 11
58.07189199999999
 21
190.370238
 31
0.0
  0
LINE
  5
BE8F
330
BD52
100
AcDbEntity
  8
1
  6
Continuous
100
AcDbLine
 10
59.486105
 20
191.8012339999999
 30
0.0
 11
57.486109
 21
190.370238
 31
0.0
  0
LINE
  5
BE90
330
BD52
100
AcDbEntity
  8
1
  6
Continuous
100
AcDbLine
 10
58.07189199999999
 20
191.8012339999999
 30
0.0
 11
56.071895
 21
190.370238
 31
0.0
  0
LINE
  5
BE91
330
BD52
100
AcDbEntity
  8
1
  6
Continuous
100
AcDbLine
 10
61.728749
 20
191.8012339999999
 30
0.0
 11
63.72874599999999
 21
190.370238
 31
0.0
  0
LINE
  5
BE92
330
BD52
100
AcDbEntity
  8
1
  6
Continuous
100
AcDbLine
 10
64.116049
 20
191.3433239999999
 30
0.0
 11
63.142963
 21
190.370238
 31
0.0
  0
LINE
  5
BE93
330
BD52
100
AcDbEntity
  8
1
  6
Continuous
100
AcDbLine
 10
63.72874599999999
 20
191.8012339999999
 30
0.0
 11
61.728749
 21
190.370238
 31
0.0
  0
LINE
  5
BE94
330
BD52
100
AcDbEntity
  8
1
  6
Continuous
100
AcDbLine
 10
62.31453199999999
 20
191.8012339999999
 30
0.0
 11
60.31453599999998
 21
190.370238
 31
0.0
  0
LINE
  5
BE95
330
BD52
100
AcDbEntity
  8
1
  6
Continuous
100
AcDbLine
 10
64.116049
 20
191.8012339999999
 30
0.0
 11
64.116049
 21
190.370238
 31
0.0
  0
ARC
  5
BE96
330
BD52
100
AcDbEntity
  8
1
  6
Continuous
100
AcDbCircle
 10
60.06522499999999
 20
193.2824589999999
 30
0.0
 40
2.5
100
AcDbArc
 50
10.141019
 51
90.0
  0
ARC
  5
BE97
330
BD52
100
AcDbEntity
  8
1
  6
Continuous
100
AcDbCircle
 10
62.835817
 20
192.765626
 30
0.0
 40
1.098799999999998
100
AcDbArc
 50
20.306161
 51
60.57047500000001
  0
ARC
  5
BE98
330
BD52
100
AcDbEntity
  8
1
  6
Continuous
100
AcDbCircle
 10
61.51795400000001
 20
193.477837
 30
0.0
 40
2.371570999999998
100
AcDbArc
 50
315.0106999999998
 51
351.9797889999999
  0
LINE
  5
BE99
330
BD52
100
AcDbEntity
  8
1
  6
Continuous
100
AcDbLine
 10
60.56208
 20
198.6824589999999
 30
0.0
 11
60.56208
 21
195.7824589999999
 31
0.0
  0
LINE
  5
BE9A
330
BD52
100
AcDbEntity
  8
1
  6
Continuous
100
AcDbLine
 10
38.11604899999998
 20
232.682577
 30
0.0
 11
57.616049
 21
232.682577
 31
0.0
  0
LINE
  5
BE9B
330
BD52
100
AcDbEntity
  8
1
  6
Continuous
100
AcDbLine
 10
50.36601
 20
234.682577
 30
0.0
 11
45.36604899999999
 21
234.682577
 31
0.0
  0
LINE
  5
BE9C
330
BD52
100
AcDbEntity
  8
1
  6
Continuous
100
AcDbLine
 10
137.5046259999998
 20
195.7823409999998
 30
0.0
 11
137.5046259999998
 21
198.6824589999999
 31
0.0
  0
LINE
  5
BE9D
330
BD52
100
AcDbEntity
  8
1
  6
Continuous
100
AcDbLine
 10
144.8346259999999
 20
198.6824589999999
 30
0.0
 11
144.8346259999999
 21
195.782415
 31
0.0
  0
LINE
  5
BE9E
330
BD52
100
AcDbEntity
  8
1
  6
Continuous
100
AcDbLine
 10
159.494626
 20
198.6824589999999
 30
0.0
 11
159.494626
 21
195.782415
 31
0.0
  0
LINE
  5
BE9F
330
BD52
100
AcDbEntity
  8
1
  6
Continuous
100
AcDbLine
 10
166.824626
 20
195.7823409999998
 30
0.0
 11
166.824626
 21
198.6824589999999
 31
0.0
  0
LINE
  5
BEA0
330
BD52
100
AcDbEntity
  8
1
  6
Continuous
100
AcDbLine
 10
149.664626
 20
234.682577
 30
0.0
 11
154.664587
 21
234.682577
 31
0.0
  0
LINE
  5
BEA1
330
BD52
100
AcDbEntity
  8
1
  6
Continuous
100
AcDbLine
 10
168.4145069999999
 20
191.3433239999999
 30
0.0
 11
167.4414209999999
 21
190.370238
 31
0.0
  0
ARC
  5
BEA2
330
BD52
100
AcDbEntity
  8
1
  6
Continuous
100
AcDbCircle
 10
165.816412
 20
193.477837
 30
0.0
 40
2.371570999999998
100
AcDbArc
 50
315.0106999999998
 51
351.9797889999999
  0
ARC
  5
BEA3
330
BD52
100
AcDbEntity
  8
1
  6
Continuous
100
AcDbCircle
 10
167.1342749999998
 20
192.765626
 30
0.0
 40
1.098799999999998
100
AcDbArc
 50
20.306161
 51
60.57047500000001
  0
LINE
  5
BEA4
330
BD52
100
AcDbEntity
  8
1
  6
Continuous
100
AcDbLine
 10
168.1647869999999
 20
193.14695
 30
0.0
 11
136.164426
 21
193.14695
 31
0.0
  0
LINE
  5
BEA5
330
BD52
100
AcDbEntity
  8
1
  6
Continuous
100
AcDbLine
 10
136.9145059999999
 20
190.370238
 30
0.0
 11
135.9145069999999
 21
191.370236
 31
0.0
  0
ARC
  5
BEA6
330
BD52
100
AcDbEntity
  8
1
  6
Continuous
100
AcDbCircle
 10
138.512801
 20
193.477837
 30
0.0
 40
2.371570999999998
100
AcDbArc
 50
188.020211
 51
224.9867219999999
  0
ARC
  5
BEA7
330
BD52
100
AcDbEntity
  8
1
  6
Continuous
100
AcDbCircle
 10
137.194937
 20
192.765626
 30
0.0
 40
1.098799999999998
100
AcDbArc
 50
119.429525
 51
159.693839
  0
LINE
  5
BEA8
330
BD52
100
AcDbEntity
  8
1
  6
Continuous
100
AcDbLine
 10
136.9145059999999
 20
191.8012339999999
 30
0.0
 11
135.9145069999999
 21
191.370236
 31
0.0
  0
LINE
  5
BEA9
330
BD52
100
AcDbEntity
  8
1
  6
Continuous
100
AcDbLine
 10
168.4145069999999
 20
191.8011939999999
 30
0.0
 11
135.9145069999999
 21
191.8012739999998
 31
0.0
  0
LINE
  5
BEAA
330
BD52
100
AcDbEntity
  8
1
  6
Continuous
100
AcDbLine
 10
135.9145069999999
 20
191.8012339999999
 30
0.0
 11
135.9145069999999
 21
190.370238
 31
0.0
  0
LINE
  5
BEAB
330
BD52
100
AcDbEntity
  8
1
  6
Continuous
100
AcDbLine
 10
153.8850679999999
 20
191.8012339999999
 30
0.0
 11
151.885072
 21
190.370238
 31
0.0
  0
LINE
  5
BEAC
330
BD52
100
AcDbEntity
  8
1
  6
Continuous
100
AcDbLine
 10
151.885072
 20
191.8012339999999
 30
0.0
 11
153.8850679999999
 21
190.370238
 31
0.0
  0
LINE
  5
BEAD
330
BD52
100
AcDbEntity
  8
1
  6
Continuous
100
AcDbLine
 10
152.4708549999998
 20
191.8012339999999
 30
0.0
 11
150.4708579999999
 21
190.370238
 31
0.0
  0
LINE
  5
BEAE
330
BD52
100
AcDbEntity
  8
1
  6
Continuous
100
AcDbLine
 10
136.655039
 20
193.722638
 30
0.0
 11
167.6741729999999
 21
193.722638
 31
0.0
  0
LINE
  5
BEAF
330
BD52
100
AcDbEntity
  8
1
  6
Continuous
100
AcDbLine
 10
166.824626
 20
195.7824589999999
 30
0.0
 11
137.5046259999998
 21
195.7824589999999
 31
0.0
  0
LINE
  5
BEB0
330
BD52
100
AcDbEntity
  8
1
  6
Continuous
100
AcDbLine
 10
145.399787
 20
191.8012339999999
 30
0.0
 11
143.39979
 21
190.370238
 31
0.0
  0
LINE
  5
BEB1
330
BD52
100
AcDbEntity
  8
1
  6
Continuous
100
AcDbLine
 10
143.39979
 20
191.8012339999999
 30
0.0
 11
145.399787
 21
190.370238
 31
0.0
  0
LINE
  5
BEB2
330
BD52
100
AcDbEntity
  8
1
  6
Continuous
100
AcDbLine
 10
151.0566409999999
 20
191.8012339999999
 30
0.0
 11
149.056645
 21
190.370238
 31
0.0
  0
LINE
  5
BEB3
330
BD52
100
AcDbEntity
  8
1
  6
Continuous
100
AcDbLine
 10
149.056645
 20
191.8012339999999
 30
0.0
 11
151.0566409999999
 21
190.370238
 31
0.0
  0
LINE
  5
BEB4
330
BD52
100
AcDbEntity
  8
1
  6
Continuous
100
AcDbLine
 10
146.814
 20
191.8012339999999
 30
0.0
 11
144.814004
 21
190.370238
 31
0.0
  0
LINE
  5
BEB5
330
BD52
100
AcDbEntity
  8
1
  6
Continuous
100
AcDbLine
 10
148.2282139999998
 20
191.8012339999999
 30
0.0
 11
146.228218
 21
190.370238
 31
0.0
  0
LINE
  5
BEB6
330
BD52
100
AcDbEntity
  8
1
  6
Continuous
100
AcDbLine
 10
149.642428
 20
191.8012339999999
 30
0.0
 11
147.6424309999999
 21
190.370238
 31
0.0
  0
LINE
  5
BEB7
330
BD52
100
AcDbEntity
  8
1
  6
Continuous
100
AcDbLine
 10
146.228218
 20
191.8012339999999
 30
0.0
 11
148.2282139999998
 21
190.370238
 31
0.0
  0
LINE
  5
BEB8
330
BD52
100
AcDbEntity
  8
1
  6
Continuous
100
AcDbLine
 10
141.1571459999999
 20
191.8012339999999
 30
0.0
 11
139.1571499999998
 21
190.370238
 31
0.0
  0
LINE
  5
BEB9
330
BD52
100
AcDbEntity
  8
1
  6
Continuous
100
AcDbLine
 10
142.5713599999999
 20
191.8012339999999
 30
0.0
 11
140.5713629999999
 21
190.370238
 31
0.0
  0
LINE
  5
BEBA
330
BD52
100
AcDbEntity
  8
1
  6
Continuous
100
AcDbLine
 10
140.5713629999999
 20
191.8012339999999
 30
0.0
 11
142.5713599999999
 21
190.370238
 31
0.0
  0
LINE
  5
BEBB
330
BD52
100
AcDbEntity
  8
1
  6
Continuous
100
AcDbLine
 10
138.328719
 20
191.8012339999999
 30
0.0
 11
136.328723
 21
190.370238
 31
0.0
  0
LINE
  5
BEBC
330
BD52
100
AcDbEntity
  8
1
  6
Continuous
100
AcDbLine
 10
139.742933
 20
191.8012339999999
 30
0.0
 11
137.7429359999999
 21
190.370238
 31
0.0
  0
LINE
  5
BEBD
330
BD52
100
AcDbEntity
  8
1
  6
Continuous
100
AcDbLine
 10
137.7429359999999
 20
191.8012339999999
 30
0.0
 11
139.742933
 21
190.370238
 31
0.0
  0
LINE
  5
BEBE
330
BD52
100
AcDbEntity
  8
1
  6
Continuous
100
AcDbLine
 10
143.9855729999998
 20
191.8012339999999
 30
0.0
 11
141.985577
 21
190.370238
 31
0.0
  0
ARC
  5
BEBF
330
BD52
100
AcDbEntity
  8
1
  6
Continuous
100
AcDbCircle
 10
139.9655699999998
 20
193.2824589999999
 30
0.0
 40
2.5
100
AcDbArc
 50
90.0
 51
169.858981
  0
LINE
  5
BEC0
330
BD52
100
AcDbEntity
  8
1
  6
Continuous
100
AcDbLine
 10
166.61299
 20
191.8012339999999
 30
0.0
 11
164.6129939999999
 21
190.370238
 31
0.0
  0
LINE
  5
BEC1
330
BD52
100
AcDbEntity
  8
1
  6
Continuous
100
AcDbLine
 10
168.027204
 20
191.8012339999999
 30
0.0
 11
166.0272069999998
 21
190.370238
 31
0.0
  0
LINE
  5
BEC2
330
BD52
100
AcDbEntity
  8
1
  6
Continuous
100
AcDbLine
 10
166.0272069999998
 20
191.8012339999999
 30
0.0
 11
168.027204
 21
190.370238
 31
0.0
  0
LINE
  5
BEC3
330
BD52
100
AcDbEntity
  8
1
  6
Continuous
100
AcDbLine
 10
162.3703499999998
 20
191.8012339999999
 30
0.0
 11
160.3703529999999
 21
190.370238
 31
0.0
  0
LINE
  5
BEC4
330
BD52
100
AcDbEntity
  8
1
  6
Continuous
100
AcDbLine
 10
163.7845629999999
 20
191.8012339999999
 30
0.0
 11
161.7845669999999
 21
190.370238
 31
0.0
  0
LINE
  5
BEC5
330
BD52
100
AcDbEntity
  8
1
  6
Continuous
100
AcDbLine
 10
160.3703529999999
 20
191.8012339999999
 30
0.0
 11
162.3703499999998
 21
190.370238
 31
0.0
  0
LINE
  5
BEC6
330
BD52
100
AcDbEntity
  8
1
  6
Continuous
100
AcDbLine
 10
165.198777
 20
191.8012339999999
 30
0.0
 11
163.19878
 21
190.370238
 31
0.0
  0
LINE
  5
BEC7
330
BD52
100
AcDbEntity
  8
1
  6
Continuous
100
AcDbLine
 10
163.19878
 20
191.8012339999999
 30
0.0
 11
165.198777
 21
190.370238
 31
0.0
  0
LINE
  5
BEC8
330
BD52
100
AcDbEntity
  8
1
  6
Continuous
100
AcDbLine
 10
155.299282
 20
191.8012339999999
 30
0.0
 11
153.299285
 21
190.370238
 31
0.0
  0
LINE
  5
BEC9
330
BD52
100
AcDbEntity
  8
1
  6
Continuous
100
AcDbLine
 10
156.7134949999999
 20
191.8012339999999
 30
0.0
 11
154.713499
 21
190.370238
 31
0.0
  0
LINE
  5
BECA
330
BD52
100
AcDbEntity
  8
1
  6
Continuous
100
AcDbLine
 10
158.127709
 20
191.8012339999999
 30
0.0
 11
156.127713
 21
190.370238
 31
0.0
  0
LINE
  5
BECB
330
BD52
100
AcDbEntity
  8
1
  6
Continuous
100
AcDbLine
 10
154.713499
 20
191.8012339999999
 30
0.0
 11
156.7134949999999
 21
190.370238
 31
0.0
  0
LINE
  5
BECC
330
BD52
100
AcDbEntity
  8
1
  6
Continuous
100
AcDbLine
 10
160.9561359999999
 20
191.8012339999999
 30
0.0
 11
158.95614
 21
190.370238
 31
0.0
  0
LINE
  5
BECD
330
BD52
100
AcDbEntity
  8
1
  6
Continuous
100
AcDbLine
 10
159.541923
 20
191.8012339999999
 30
0.0
 11
157.5419259999998
 21
190.370238
 31
0.0
  0
LINE
  5
BECE
330
BD52
100
AcDbEntity
  8
1
  6
Continuous
100
AcDbLine
 10
157.5419259999998
 20
191.8012339999999
 30
0.0
 11
159.541923
 21
190.370238
 31
0.0
  0
ARC
  5
BECF
330
BD52
100
AcDbEntity
  8
1
  6
Continuous
100
AcDbCircle
 10
164.363683
 20
193.2824589999999
 30
0.0
 40
2.5
100
AcDbArc
 50
10.141019
 51
90.0
  0
LINE
  5
BED0
330
BD52
100
AcDbEntity
  8
1
  6
Continuous
100
AcDbLine
 10
137.5046259999998
 20
198.6824589999999
 30
0.0
 11
166.824626
 21
198.6824589999999
 31
0.0
  0
LINE
  5
BED1
330
BD52
100
AcDbEntity
  8
1
  6
Continuous
100
AcDbLine
 10
168.4145069999999
 20
191.8012339999999
 30
0.0
 11
168.4145069999999
 21
190.370238
 31
0.0
  0
LINE
  5
BED2
330
BD52
100
AcDbEntity
  8
1
  6
Continuous
100
AcDbLine
 10
141.464626
 20
232.682577
 30
0.0
 11
162.864626
 21
232.682577
 31
0.0
  0
ARC
  5
BED3
330
BD52
100
AcDbEntity
  8
1
  6
Continuous
100
AcDbCircle
 10
110.761324
 20
305.2864619999998
 30
0.0
 40
1.5
100
AcDbArc
 50
90.0
 51
165.301576
  0
ARC
  5
BED4
330
BD52
100
AcDbEntity
  8
1
  6
Continuous
100
AcDbCircle
 10
137.8132369999999
 20
91.50985199999999
 30
0.0
 40
7.0
100
AcDbArc
 50
284.6805419999999
 51
303.723059
  0
ARC
  5
BED5
330
BD52
100
AcDbEntity
  8
1
  6
Continuous
100
AcDbCircle
 10
137.8128769999999
 20
91.50961200000001
 30
0.0
 40
9.0
100
AcDbArc
 50
270.0
 51
303.724017
  0
ARC
  5
BED6
330
BD52
100
AcDbEntity
  8
1
  6
Continuous
100
AcDbCircle
 10
137.8132369999999
 20
48.509372
 30
0.0
 40
7.0
100
AcDbArc
 50
56.276941
 51
90.0
  0
ARC
  5
BED7
330
BD52
100
AcDbEntity
  8
1
  6
Continuous
100
AcDbCircle
 10
137.8128769999999
 20
48.509612
 30
0.0
 40
9.0
100
AcDbArc
 50
56.27598299999999
 51
90.0
  0
CIRCLE
  5
BED8
330
BD52
100
AcDbEntity
  8
2
  6
Continuous
100
AcDbCircle
 10
152.164619
 20
296.7864619999998
 30
0.0
 40
3.3235
  0
ARC
  5
BED9
330
BD52
100
AcDbEntity
  8
1
  6
Continuous
100
AcDbCircle
 10
152.164619
 20
296.7864619999998
 30
0.0
 40
18.85
100
AcDbArc
 50
236.2759829999999
 51
123.7240169999999
  0
ARC
  5
BEDA
330
BD52
100
AcDbEntity
  8
1
  6
Continuous
100
AcDbCircle
 10
137.8128769999999
 20
318.2864619999999
 30
0.0
 40
7.0
100
AcDbArc
 50
270.0
 51
303.724017
  0
LINE
  5
BEDB
330
BD52
100
AcDbEntity
  8
1
  6
Continuous
100
AcDbLine
 10
137.415027
 20
311.2864619999998
 30
0.0
 11
137.415027
 21
312.2198179999998
 31
0.0
  0
ARC
  5
BEDC
330
BD52
100
AcDbEntity
  8
1
  6
Continuous
100
AcDbCircle
 10
137.8128769999999
 20
275.2864619999999
 30
0.0
 40
7.0
100
AcDbArc
 50
56.27598299999999
 51
61.644602
  0
CIRCLE
  5
BEDD
330
BD52
100
AcDbEntity
  8
1
  6
Continuous
100
AcDbCircle
 10
152.164619
 20
296.7864619999998
 30
0.0
 40
2.5
  0
ARC
  5
BEDE
330
BD52
100
AcDbEntity
  8
1
  6
Continuous
100
AcDbCircle
 10
156.167527
 20
70.009612
 30
0.0
 40
30.0
100
AcDbArc
 50
155.375682
 51
157.4596899999999
  0
ARC
  5
BEDF
330
BD52
100
AcDbEntity
  8
1
  6
Continuous
100
AcDbCircle
 10
156.167527
 20
70.009612
 30
0.0
 40
30.0
100
AcDbArc
 50
202.54031
 51
204.6243179999999
  0
ARC
  5
BEE0
330
BD52
100
AcDbEntity
  8
1
  6
Continuous
100
AcDbCircle
 10
152.164619
 20
296.7864619999998
 30
0.0
 40
10.7
100
AcDbArc
 50
114.326207
 51
245.673793
  0
ARC
  5
BEE1
330
BD52
100
AcDbEntity
  8
1
  6
Continuous
100
AcDbCircle
 10
152.164619
 20
296.7864619999998
 30
0.0
 40
10.7
100
AcDbArc
 50
294.326207
 51
65.673793
  0
ARC
  5
BEE2
330
BD52
100
AcDbEntity
  8
1
  6
Continuous
100
AcDbCircle
 10
152.164619
 20
296.7864619999998
 30
0.0
 40
10.5
100
AcDbArc
 50
248.213211
 51
291.786789
  0
LINE
  5
BEE3
330
BD52
100
AcDbEntity
  8
1
  6
Continuous
100
AcDbLine
 10
156.572283
 20
287.0364619999999
 30
0.0
 11
147.756956
 21
287.0364619999999
 31
0.0
  0
ARC
  5
BEE4
330
BD52
100
AcDbEntity
  8
1
  6
Continuous
100
AcDbCircle
 10
152.164619
 20
296.7864619999998
 30
0.0
 40
10.5
100
AcDbArc
 50
68.213211
 51
111.7867889999999
  0
LINE
  5
BEE5
330
BD52
100
AcDbEntity
  8
1
  6
Continuous
100
AcDbLine
 10
156.572283
 20
306.5364619999999
 30
0.0
 11
147.756956
 21
306.5364619999999
 31
0.0
  0
ARC
  5
BEE6
330
BD52
100
AcDbEntity
  8
1
  6
Continuous
100
AcDbCircle
 10
115.3541689999999
 20
214.3441999999998
 30
0.0
 40
47.31041199999999
100
AcDbArc
 50
347.597035
 51
17.642101
  0
ARC
  5
BEE7
330
BD52
100
AcDbEntity
  8
1
  6
Continuous
100
AcDbCircle
 10
188.9750819999999
 20
214.3441999999998
 30
0.0
 40
47.31041199999999
100
AcDbArc
 50
162.357899
 51
192.402965
  0
LINE
  5
BEE8
330
BD52
100
AcDbEntity
  8
1
  6
Continuous
100
AcDbLine
 10
141.664626
 20
204.1825929999999
 30
0.0
 11
162.664626
 21
204.1825929999999
 31
0.0
  0
LINE
  5
BEE9
330
BD52
100
AcDbEntity
  8
1
  6
Continuous
100
AcDbLine
 10
141.664626
 20
204.1825929999999
 30
0.0
 11
141.664626
 21
200.182459
 31
0.0
  0
LINE
  5
BEEA
330
BD52
100
AcDbEntity
  8
1
  6
Continuous
100
AcDbLine
 10
162.664626
 20
204.1825929999999
 30
0.0
 11
162.664626
 21
200.182459
 31
0.0
  0
LINE
  5
BEEB
330
BD52
100
AcDbEntity
  8
1
  6
Continuous
100
AcDbLine
 10
162.864626
 20
228.682577
 30
0.0
 11
141.464626
 21
228.682577
 31
0.0
  0
LINE
  5
BEEC
330
BD52
100
AcDbEntity
  8
1
  6
Continuous
100
AcDbLine
 10
147.7569259999999
 20
232.682577
 30
0.0
 11
147.7569259999999
 21
228.682577
 31
0.0
  0
LINE
  5
BEED
330
BD52
100
AcDbEntity
  8
1
  6
Continuous
100
AcDbLine
 10
141.464626
 20
228.682577
 30
0.0
 11
141.464626
 21
232.682577
 31
0.0
  0
LINE
  5
BEEE
330
BD52
100
AcDbEntity
  8
1
  6
Continuous
100
AcDbLine
 10
162.864626
 20
228.682577
 30
0.0
 11
162.864626
 21
232.682577
 31
0.0
  0
LINE
  5
BEEF
330
BD52
100
AcDbEntity
  8
1
  6
Continuous
100
AcDbLine
 10
156.572326
 20
232.682577
 30
0.0
 11
156.572326
 21
228.682577
 31
0.0
  0
ARC
  5
BEF0
330
BD52
100
AcDbEntity
  8
1
  6
Continuous
100
AcDbCircle
 10
161.164626
 20
200.182459
 30
0.0
 40
1.5
100
AcDbArc
 50
270.0
 51
0.0
  0
ARC
  5
BEF1
330
BD52
100
AcDbEntity
  8
1
  6
Continuous
100
AcDbCircle
 10
143.1646259999999
 20
200.182459
 30
0.0
 40
1.5
100
AcDbArc
 50
180.0
 51
270.0
  0
LINE
  5
BEF2
330
BD52
100
AcDbEntity
  8
1
  6
Continuous
100
AcDbLine
 10
254.8632229999999
 20
204.1825919999999
 30
0.0
 11
233.8632229999999
 21
204.1825919999999
 31
0.0
  0
ARC
  5
BEF3
330
BD52
100
AcDbEntity
  8
1
  6
Continuous
100
AcDbCircle
 10
281.1736819999999
 20
214.344199
 30
0.0
 40
47.31041199999999
100
AcDbArc
 50
162.357899
 51
192.402965
  0
LINE
  5
BEF4
330
BD52
100
AcDbEntity
  8
1
  6
Continuous
100
AcDbLine
 10
234.6132029999999
 20
228.6825759999999
 30
0.0
 11
254.1132029999999
 21
228.6825759999999
 31
0.0
  0
LINE
  5
BEF5
330
BD52
100
AcDbEntity
  8
1
  6
Continuous
100
AcDbLine
 10
233.8632229999999
 20
204.1825919999999
 30
0.0
 11
233.8632229999999
 21
200.182458
 31
0.0
  0
LINE
  5
BEF6
330
BD52
100
AcDbEntity
  8
1
  6
Continuous
100
AcDbLine
 10
234.6132029999999
 20
228.6825759999999
 30
0.0
 11
234.6132029999999
 21
232.6825759999999
 31
0.0
  0
ARC
  5
BEF7
330
BD52
100
AcDbEntity
  8
1
  6
Continuous
100
AcDbCircle
 10
207.5527689999999
 20
214.344199
 30
0.0
 40
47.31041199999999
100
AcDbArc
 50
347.597035
 51
17.642101
  0
LINE
  5
BEF8
330
BD52
100
AcDbEntity
  8
1
  6
Continuous
100
AcDbLine
 10
254.8632229999999
 20
204.1825919999999
 30
0.0
 11
254.8632229999999
 21
200.182458
 31
0.0
  0
LINE
  5
BEF9
330
BD52
100
AcDbEntity
  8
1
  6
Continuous
100
AcDbLine
 10
254.1132029999999
 20
228.6825759999999
 30
0.0
 11
254.1132029999999
 21
232.6825759999999
 31
0.0
  0
LINE
  5
BEFA
330
BD52
100
AcDbEntity
  8
1
  6
Continuous
100
AcDbLine
 10
38.11604899999998
 20
228.682577
 30
0.0
 11
57.616049
 21
228.682577
 31
0.0
  0
LINE
  5
BEFB
330
BD52
100
AcDbEntity
  8
1
  6
Continuous
100
AcDbLine
 10
58.36606899999999
 20
204.1825929999999
 30
0.0
 11
37.366069
 21
204.1825929999999
 31
0.0
  0
ARC
  5
BEFC
330
BD52
100
AcDbEntity
  8
1
  6
Continuous
100
AcDbCircle
 10
84.67652800000001
 20
214.3441999999998
 30
0.0
 40
47.31041199999999
100
AcDbArc
 50
162.357899
 51
192.402965
  0
LINE
  5
BEFD
330
BD52
100
AcDbEntity
  8
1
  6
Continuous
100
AcDbLine
 10
37.366069
 20
204.1825929999999
 30
0.0
 11
37.366069
 21
200.182459
 31
0.0
  0
LINE
  5
BEFE
330
BD52
100
AcDbEntity
  8
1
  6
Continuous
100
AcDbLine
 10
38.11604899999998
 20
228.682577
 30
0.0
 11
38.11604899999998
 21
232.682577
 31
0.0
  0
ARC
  5
BEFF
330
BD52
100
AcDbEntity
  8
1
  6
Continuous
100
AcDbCircle
 10
11.055615
 20
214.3441999999998
 30
0.0
 40
47.31041199999999
100
AcDbArc
 50
347.597035
 51
17.642101
  0
LINE
  5
BF00
330
BD52
100
AcDbEntity
  8
1
  6
Continuous
100
AcDbLine
 10
58.36606899999999
 20
204.1825929999999
 30
0.0
 11
58.36606899999999
 21
200.182459
 31
0.0
  0
LINE
  5
BF01
330
BD52
100
AcDbEntity
  8
1
  6
Continuous
100
AcDbLine
 10
57.616049
 20
228.682577
 30
0.0
 11
57.616049
 21
232.682577
 31
0.0
  0
ARC
  5
BF02
330
BD52
100
AcDbEntity
  8
1
  6
Continuous
100
AcDbCircle
 10
38.866069
 20
200.182459
 30
0.0
 40
1.5
100
AcDbArc
 50
180.0
 51
270.0
  0
ARC
  5
BF03
330
BD52
100
AcDbEntity
  8
1
  6
Continuous
100
AcDbCircle
 10
56.86606900000001
 20
200.182459
 30
0.0
 40
1.5
100
AcDbArc
 50
270.0
 51
0.0
  0
ARC
  5
BF04
330
BD52
100
AcDbEntity
  8
1
  6
Continuous
100
AcDbCircle
 10
253.363223
 20
200.182458
 30
0.0
 40
1.5
100
AcDbArc
 50
270.0
 51
0.0
  0
ARC
  5
BF05
330
BD52
100
AcDbEntity
  8
1
  6
Continuous
100
AcDbCircle
 10
235.363223
 20
200.182458
 30
0.0
 40
1.5
100
AcDbArc
 50
180.0
 51
270.0
  0
LINE
  5
BF06
330
BD52
100
AcDbEntity
  8
1
  6
Continuous
100
AcDbLine
 10
137.5046199999998
 20
296.7864619999998
 30
0.0
 11
144.834619
 21
284.09053
 31
0.0
  0
LINE
  5
BF07
330
BD52
100
AcDbEntity
  8
1
  6
Continuous
100
AcDbLine
 10
144.83462
 20
284.09053
 30
0.0
 11
159.4946189999998
 21
284.09053
 31
0.0
  0
LINE
  5
BF08
330
BD52
100
AcDbEntity
  8
1
  6
Continuous
100
AcDbLine
 10
159.4946189999998
 20
284.09053
 30
0.0
 11
166.8246189999998
 21
296.7864619999998
 31
0.0
  0
LINE
  5
BF09
330
BD52
100
AcDbEntity
  8
1
  6
Continuous
100
AcDbLine
 10
166.8246189999998
 20
296.7864619999998
 30
0.0
 11
159.4946189999998
 21
309.4823939999999
 31
0.0
  0
LINE
  5
BF0A
330
BD52
100
AcDbEntity
  8
1
  6
Continuous
100
AcDbLine
 10
159.4946189999998
 20
309.4823939999999
 30
0.0
 11
144.834619
 21
309.4823939999999
 31
0.0
  0
LINE
  5
BF0B
330
BD52
100
AcDbEntity
  8
1
  6
Continuous
100
AcDbLine
 10
51.86604899999998
 20
233.182577
 30
0.0
 11
43.866049
 21
233.182577
 31
0.0
  0
LINE
  5
BF0C
330
BD52
100
AcDbEntity
  8
1
  6
Continuous
100
AcDbLine
 10
43.866049
 20
233.182577
 30
0.0
 11
45.36604899999999
 21
234.682577
 31
0.0
  0
LINE
  5
BF0D
330
BD52
100
AcDbEntity
  8
1
  6
Continuous
100
AcDbLine
 10
43.866049
 20
232.682577
 30
0.0
 11
43.866049
 21
233.182577
 31
0.0
  0
LINE
  5
BF0E
330
BD52
100
AcDbEntity
  8
2
  6
Continuous
100
AcDbLine
 10
44.54252899999999
 20
233.859057
 30
0.0
 11
44.54252899999999
 21
232.682577
 31
0.0
  0
LINE
  5
BF0F
330
BD52
100
AcDbEntity
  8
1
  6
Continuous
100
AcDbLine
 10
51.86604899999998
 20
232.682577
 30
0.0
 11
51.86604899999998
 21
233.182577
 31
0.0
  0
LINE
  5
BF10
330
BD52
100
AcDbEntity
  8
2
  6
Continuous
100
AcDbLine
 10
51.189529
 20
233.8590579999999
 30
0.0
 11
51.189529
 21
232.682577
 31
0.0
  0
LINE
  5
BF11
330
BD52
100
AcDbEntity
  8
1
  6
Continuous
100
AcDbLine
 10
51.86600999999999
 20
233.182577
 30
0.0
 11
50.36601
 21
234.682577
 31
0.0
  0
LINE
  5
BF12
330
BD52
100
AcDbEntity
  8
1
  6
Continuous
100
AcDbLine
 10
156.164626
 20
233.182577
 30
0.0
 11
148.1646259999999
 21
233.182577
 31
0.0
  0
LINE
  5
BF13
330
BD52
100
AcDbEntity
  8
2
  6
Continuous
100
AcDbLine
 10
148.8411059999999
 20
233.859057
 30
0.0
 11
148.8411059999999
 21
232.682577
 31
0.0
  0
LINE
  5
BF14
330
BD52
100
AcDbEntity
  8
1
  6
Continuous
100
AcDbLine
 10
148.1646259999999
 20
232.682577
 30
0.0
 11
148.1646259999999
 21
233.182577
 31
0.0
  0
LINE
  5
BF15
330
BD52
100
AcDbEntity
  8
1
  6
Continuous
100
AcDbLine
 10
148.1646259999999
 20
233.182577
 30
0.0
 11
149.664626
 21
234.682577
 31
0.0
  0
LINE
  5
BF16
330
BD52
100
AcDbEntity
  8
2
  6
Continuous
100
AcDbLine
 10
155.4881059999999
 20
233.8590579999999
 30
0.0
 11
155.4881059999999
 21
232.682577
 31
0.0
  0
LINE
  5
BF17
330
BD52
100
AcDbEntity
  8
1
  6
Continuous
100
AcDbLine
 10
156.164626
 20
232.682577
 30
0.0
 11
156.164626
 21
233.182577
 31
0.0
  0
LINE
  5
BF18
330
BD52
100
AcDbEntity
  8
1
  6
Continuous
100
AcDbLine
 10
156.164587
 20
233.182577
 30
0.0
 11
154.664587
 21
234.682577
 31
0.0
  0
LINE
  5
BF19
330
BD52
100
AcDbEntity
  8
1
  6
Continuous
100
AcDbLine
 10
248.363164
 20
233.182576
 30
0.0
 11
246.863164
 21
234.6825759999999
 31
0.0
  0
LINE
  5
BF1A
330
BD52
100
AcDbEntity
  8
1
  6
Continuous
100
AcDbLine
 10
248.3632029999998
 20
232.6825759999999
 30
0.0
 11
248.3632029999998
 21
233.182576
 31
0.0
  0
LINE
  5
BF1B
330
BD52
100
AcDbEntity
  8
2
  6
Continuous
100
AcDbLine
 10
247.686683
 20
233.859057
 30
0.0
 11
247.686683
 21
232.6825759999999
 31
0.0
  0
LINE
  5
BF1C
330
BD52
100
AcDbEntity
  8
1
  6
Continuous
100
AcDbLine
 10
240.3632029999999
 20
233.182576
 30
0.0
 11
241.8632029999999
 21
234.6825759999999
 31
0.0
  0
LINE
  5
BF1D
330
BD52
100
AcDbEntity
  8
1
  6
Continuous
100
AcDbLine
 10
240.3632029999999
 20
232.6825759999999
 30
0.0
 11
240.3632029999999
 21
233.182576
 31
0.0
  0
LINE
  5
BF1E
330
BD52
100
AcDbEntity
  8
2
  6
Continuous
100
AcDbLine
 10
241.0396829999999
 20
233.859056
 30
0.0
 11
241.0396829999999
 21
232.6825759999999
 31
0.0
  0
LINE
  5
BF1F
330
BD52
100
AcDbEntity
  8
1
  6
Continuous
100
AcDbLine
 10
248.3632029999998
 20
233.182576
 30
0.0
 11
240.3632029999999
 21
233.182576
 31
0.0
  0
ARC
  5
BF20
330
BD52
100
AcDbEntity
  8
1
  6
Continuous
100
AcDbCircle
 10
65.012106
 20
137.4699259999998
 30
0.0
 40
1.0
100
AcDbArc
 50
97.370643
 51
135.3226
  0
LINE
  5
BF21
330
BD52
100
AcDbEntity
  8
1
  6
Continuous
100
AcDbLine
 10
65.472342
 20
170.2892159999999
 30
0.0
 11
60.47234200000001
 21
170.2892159999999
 31
0.0
  0
LINE
  5
BF22
330
BD52
100
AcDbEntity
  8
1
  6
Continuous
100
AcDbLine
 10
65.472342
 20
170.2892159999999
 30
0.0
 11
60.47234200000001
 21
170.2892159999999
 31
0.0
  0
LINE
  5
BF23
330
BD52
100
AcDbEntity
  8
1
  6
Continuous
100
AcDbLine
 10
65.472342
 20
172.2892159999999
 30
0.0
 11
60.47234200000001
 21
172.2892159999999
 31
0.0
  0
LINE
  5
BF24
330
BD52
100
AcDbEntity
  8
1
  6
Continuous
100
AcDbLine
 10
64.366049
 20
150.002907
 30
0.0
 11
67.363196
 21
150.002907
 31
0.0
  0
LINE
  5
BF25
330
BD52
100
AcDbEntity
  8
1
  6
Continuous
100
AcDbLine
 10
63.79228799999999
 20
149.13086
 30
0.0
 11
65.48921800000001
 21
148.6226659999998
 31
0.0
  0
LINE
  5
BF26
330
BD52
100
AcDbEntity
  8
1
  6
Continuous
100
AcDbLine
 10
65.472342
 20
167.426018
 30
0.0
 11
60.47234200000001
 21
167.426018
 31
0.0
  0
ARC
  5
BF27
330
BD52
100
AcDbEntity
  8
1
  6
Continuous
100
AcDbCircle
 10
64.60680299999999
 20
163.889329
 30
0.0
 40
0.5
100
AcDbArc
 50
3.077856
 51
90.00000500000002
  0
LINE
  5
BF28
330
BD52
100
AcDbEntity
  8
1
  6
Continuous
100
AcDbLine
 10
64.366049
 20
164.389329
 30
0.0
 11
66.915274
 21
164.389329
 31
0.0
  0
LINE
  5
BF29
330
BD52
100
AcDbEntity
  8
1
  6
Continuous
100
AcDbLine
 10
67.84488499999999
 20
149.447282
 30
0.0
 11
63.95801399999999
 21
137.0817879999999
 31
0.0
  0
LINE
  5
BF2A
330
BD52
100
AcDbEntity
  8
1
  6
Continuous
100
AcDbLine
 10
65.489203
 20
148.6226659999998
 30
0.0
 11
62.05005500000001
 21
137.6815189999998
 31
0.0
  0
LINE
  5
BF2B
330
BD52
100
AcDbEntity
  8
1
  6
Continuous
100
AcDbLine
 10
64.366049
 20
167.426018
 30
0.0
 11
64.366049
 21
150.002907
 31
0.0
  0
LINE
  5
BF2C
330
BD52
100
AcDbEntity
  8
1
  6
Continuous
100
AcDbLine
 10
62.36604899999999
 20
159.824105
 30
0.0
 11
62.36604899999999
 21
151.046784
 31
0.0
  0
ARC
  5
BF2D
330
BD52
100
AcDbEntity
  8
1
  6
Continuous
100
AcDbCircle
 10
64.366049
 20
151.046784
 30
0.0
 40
2.0
100
AcDbArc
 50
179.999997
 51
253.3282509999999
  0
LINE
  5
BF2E
330
BD52
100
AcDbEntity
  8
1
  6
Continuous
100
AcDbLine
 10
63.95801399999999
 20
137.0817879999999
 30
0.0
 11
62.05005500000001
 21
137.6815189999998
 31
0.0
  0
LINE
  5
BF2F
330
BD52
100
AcDbEntity
  8
1
  6
Continuous
100
AcDbLine
 10
63.40444
 20
149.247002
 30
0.0
 11
61.98283299999999
 21
137.467667
 31
0.0
  0
ARC
  5
BF30
330
BD52
100
AcDbEntity
  8
1
  6
Continuous
100
AcDbCircle
 10
60.47234200000001
 20
170.2892159999999
 30
0.0
 40
2.0
100
AcDbArc
 50
90.00000500000002
 51
180.0000009999999
  0
LINE
  5
BF31
330
BD52
100
AcDbEntity
  8
1
  6
Continuous
100
AcDbLine
 10
59.472342
 20
159.824105
 30
0.0
 11
62.36604899999999
 21
159.824105
 31
0.0
  0
LINE
  5
BF32
330
BD52
100
AcDbEntity
  8
1
  6
Continuous
100
AcDbLine
 10
60.47234200000001
 20
160.324105
 30
0.0
 11
63.366049
 21
160.324105
 31
0.0
  0
ARC
  5
BF33
330
BD52
100
AcDbEntity
  8
1
  6
Continuous
100
AcDbCircle
 10
59.472342
 20
160.824105
 30
0.0
 40
1.0
100
AcDbArc
 50
179.999997
 51
269.9999969999999
  0
ARC
  5
BF34
330
BD52
100
AcDbEntity
  8
1
  6
Continuous
100
AcDbCircle
 10
63.366049
 20
159.324105
 30
0.0
 40
1.0
100
AcDbArc
 50
0.000003
 51
90.00000500000002
  0
LINE
  5
BF35
330
BD52
100
AcDbEntity
  8
1
  6
Continuous
100
AcDbLine
 10
60.47234200000001
 20
170.2892159999999
 30
0.0
 11
60.47234200000001
 21
160.324105
 31
0.0
  0
LINE
  5
BF36
330
BD52
100
AcDbEntity
  8
1
  6
Continuous
100
AcDbLine
 10
58.47234199999999
 20
170.2892159999999
 30
0.0
 11
58.47234199999999
 21
160.824105
 31
0.0
  0
LINE
  5
BF37
330
BD52
100
AcDbEntity
  8
5
  6
PHANTOM
100
AcDbLine
 10
119.312118
 20
158.992303
 30
0.0
 11
123.0762169999999
 21
160.0721069999999
 31
0.0
  0
ARC
  5
BF38
330
BD52
100
AcDbEntity
  8
1
  6
Continuous
100
AcDbCircle
 10
121.6620929999999
 20
171.961702
 30
0.0
 40
4.93677
100
AcDbArc
 50
251.7994349999999
 51
284.6765299999999
  0
ARC
  5
BF39
330
BD52
100
AcDbEntity
  8
5
  6
PHANTOM
100
AcDbCircle
 10
459.239837
 20
-896.2690569999999
 30
0.0
 40
1096.410278
100
AcDbArc
 50
107.688082
 51
107.9409899999999
  0
ARC
  5
BF3A
330
BD52
100
AcDbEntity
  8
1
  6
Continuous
100
AcDbCircle
 10
108.907211
 20
121.8270889999998
 30
0.0
 40
35.431274
100
AcDbArc
 50
59.45394900000001
 51
68.68807700000001
  0
ARC
  5
BF3B
330
BD52
100
AcDbEntity
  8
1
  6
Continuous
100
AcDbCircle
 10
117.4183799999999
 20
84.50985199999998
 30
0.0
 40
2.0
100
AcDbArc
 50
90.00000300000001
 51
153.4156519999999
  0
ARC
  5
BF3C
330
BD52
100
AcDbEntity
  8
1
  6
Continuous
100
AcDbCircle
 10
116.355529
 20
82.61614499999998
 30
0.0
 40
2.0
100
AcDbArc
 50
269.9999969999999
 51
333.4156469999999
  0
LINE
  5
BF3D
330
BD52
100
AcDbEntity
  8
1
  6
Continuous
100
AcDbLine
 10
117.3607779999999
 20
84.50984400000001
 30
0.0
 11
115.965225
 21
81.72109499999997
 31
0.0
  0
LINE
  5
BF3E
330
BD52
100
AcDbEntity
  8
1
  6
Continuous
100
AcDbLine
 10
115.6298209999998
 20
85.40487199999999
 30
0.0
 11
114.234283
 21
82.61613699999998
 31
0.0
  0
LINE
  5
BF3F
330
BD52
100
AcDbEntity
  8
1
  6
Continuous
100
AcDbLine
 10
106.0387259999999
 20
80.61614500000002
 30
0.0
 11
106.0387259999999
 21
87.61614499999996
 31
0.0
  0
ARC
  5
BF40
330
BD52
100
AcDbEntity
  8
1
  6
Continuous
100
AcDbCircle
 10
111.538726
 20
87.61614499999996
 30
0.0
 40
5.5
100
AcDbArc
 50
0.0
 51
180.000005
  0
ARC
  5
BF41
330
BD52
100
AcDbEntity
  8
1
  6
Continuous
100
AcDbCircle
 10
114.176681
 20
82.61614499999998
 30
0.0
 40
2.0
100
AcDbArc
 50
269.9999969999999
 51
333.4156469999999
  0
LINE
  5
BF42
330
BD52
100
AcDbEntity
  8
1
  6
Continuous
100
AcDbLine
 10
107.532852
 20
80.61614500000002
 30
0.0
 11
107.532852
 21
82.61614499999998
 31
0.0
  0
LINE
  5
BF43
330
BD52
100
AcDbEntity
  8
1
  6
Continuous
100
AcDbLine
 10
106.0387259999999
 20
80.61614500000002
 30
0.0
 11
116.355529
 21
80.61614500000002
 31
0.0
  0
LINE
  5
BF44
330
BD52
100
AcDbEntity
  8
1
  6
Continuous
100
AcDbLine
 10
106.0387259999999
 20
82.61614499999998
 30
0.0
 11
114.234283
 21
82.61614499999998
 31
0.0
  0
LINE
  5
BF45
330
BD52
100
AcDbEntity
  8
1
  6
Continuous
100
AcDbLine
 10
117.098053
 20
86.50985199999999
 30
0.0
 11
117.098053
 21
87.61614499999996
 31
0.0
  0
LINE
  5
BF46
330
BD52
100
AcDbEntity
  8
1
  6
Continuous
100
AcDbLine
 10
67.84488499999999
 20
151.9085379999999
 30
0.0
 11
67.84488499999999
 21
149.4472889999999
 31
0.0
  0
ARC
  5
BF47
330
BD52
100
AcDbEntity
  8
1
  6
Continuous
100
AcDbCircle
 10
69.876227
 20
145.5004659999999
 30
0.0
 40
6.340179
100
AcDbArc
 50
277.370682
 51
309.623304
  0
LINE
  5
BF48
330
BD52
100
AcDbEntity
  8
1
  6
Continuous
100
AcDbLine
 10
75.376227
 20
144.893525
 30
0.0
 11
75.376227
 21
143.714051
 31
0.0
  0
ARC
  5
BF49
330
BD52
100
AcDbEntity
  8
1
  6
Continuous
100
AcDbCircle
 10
71.355307
 20
144.893525
 30
0.0
 40
4.020926
100
AcDbArc
 50
351.566194
 51
50.37669799999999
  0
ARC
  5
BF4A
330
BD52
100
AcDbEntity
  8
1
  6
Continuous
100
AcDbCircle
 10
71.355307
 20
143.714051
 30
0.0
 40
4.020926
100
AcDbArc
 50
309.623304
 51
61.115504
  0
LINE
  5
BF4B
330
BD52
100
AcDbEntity
  8
1
  6
Continuous
100
AcDbLine
 10
67.47414300000001
 20
148.2678149999999
 30
0.0
 11
69.876227
 21
148.2678149999999
 31
0.0
  0
LINE
  5
BF4C
330
BD52
100
AcDbEntity
  8
1
  6
Continuous
100
AcDbLine
 10
67.84488499999999
 20
149.4472889999999
 30
0.0
 11
69.876227
 21
149.4472889999999
 31
0.0
  0
ARC
  5
BF4D
330
BD52
100
AcDbEntity
  8
1
  6
Continuous
100
AcDbCircle
 10
67.363196
 20
149.5212099999999
 30
0.0
 40
0.481696
100
AcDbArc
 50
342.5503990000001
 51
90.00000500000002
  0
LINE
  5
BF4E
330
BD52
100
AcDbEntity
  8
1
  6
Continuous
100
AcDbLine
 10
64.883826
 20
138.461655
 30
0.0
 11
70.68959699999997
 21
139.21267
 31
0.0
  0
ARC
  5
BF4F
330
BD52
100
AcDbEntity
  8
1
  6
Continuous
100
AcDbCircle
 10
69.876227
 20
141.927636
 30
0.0
 40
6.340179
100
AcDbArc
 50
50.37669799999999
 51
90.00000500000002
  0
ARC
  5
BF50
330
BD52
100
AcDbEntity
  8
1
  6
Continuous
100
AcDbCircle
 10
69.876227
 20
143.10711
 30
0.0
 40
6.340179
100
AcDbArc
 50
50.37669799999999
 51
90.00000500000002
  0
ARC
  5
BF51
330
BD52
100
AcDbEntity
  8
1
  6
Continuous
100
AcDbCircle
 10
65.472342
 20
150.9328089999999
 30
0.0
 40
19.356407
100
AcDbArc
 50
75.41017499999998
 51
90.00000500000002
  0
ARC
  5
BF52
330
BD52
100
AcDbEntity
  8
1
  6
Continuous
100
AcDbCircle
 10
65.472342
 20
152.9328089999999
 30
0.0
 40
19.356407
100
AcDbArc
 50
75.41017499999998
 51
90.00000500000002
  0
ARC
  5
BF53
330
BD52
100
AcDbEntity
  8
1
  6
Continuous
100
AcDbCircle
 10
70.138007
 20
170.8576129999999
 30
0.0
 40
0.834336
100
AcDbArc
 50
0.000003
 51
75.41017499999998
  0
ARC
  5
BF54
330
BD52
100
AcDbEntity
  8
1
  6
Continuous
100
AcDbCircle
 10
65.472342
 20
186.7824259999999
 30
0.0
 40
19.356407
100
AcDbArc
 50
269.9999969999999
 51
284.589829
  0
ARC
  5
BF55
330
BD52
100
AcDbEntity
  8
1
  6
Continuous
100
AcDbCircle
 10
66.915274
 20
163.889329
 30
0.0
 40
0.5
100
AcDbArc
 50
3.077856
 51
90.00000500000002
  0
LINE
  5
BF56
330
BD52
100
AcDbEntity
  8
1
  6
Continuous
100
AcDbLine
 10
65.106085
 20
163.916176
 30
0.0
 11
65.113298
 21
163.7820379999998
 31
0.0
  0
LINE
  5
BF57
330
BD52
100
AcDbEntity
  8
1
  6
Continuous
100
AcDbLine
 10
67.41455699999999
 20
163.916176
 30
0.0
 11
67.43932700000001
 21
163.4555379999999
 31
0.0
  0
LINE
  5
BF58
330
BD52
100
AcDbEntity
  8
1
  6
Continuous
100
AcDbLine
 10
70.97234199999999
 20
170.8576129999999
 30
0.0
 11
70.97234199999999
 21
168.8576129999999
 31
0.0
  0
ARC
  5
BF59
330
BD52
100
AcDbEntity
  8
1
  6
Continuous
100
AcDbCircle
 10
70.138007
 20
168.8576129999999
 30
0.0
 40
0.834336
100
AcDbArc
 50
284.589829
 51
75.41017499999998
  0
LINE
  5
BF5A
330
BD52
100
AcDbEntity
  8
1
  6
Continuous
100
AcDbLine
 10
118.9802999999999
 20
167.7039429999998
 30
0.0
 11
115.083312
 21
157.174554
 31
0.0
  0
ARC
  5
BF5B
330
BD52
100
AcDbEntity
  8
5
  6
PHANTOM
100
AcDbCircle
 10
115.23912
 20
161.540681
 30
0.0
 40
4.93677
100
AcDbArc
 50
290.799433
 51
323.676531
  0
ARC
  5
BF5C
330
BD52
100
AcDbEntity
  8
1
  6
Continuous
100
AcDbCircle
 10
105.5099019999999
 20
136.5540329999997
 30
0.0
 40
22.719694
100
AcDbArc
 50
65.227289
 51
72.51581100000001
  0
ARC
  5
BF5D
330
BD52
100
AcDbEntity
  8
5
  6
PHANTOM
100
AcDbCircle
 10
-1788.187012
 20
-4923.495986
 30
0.0
 40
5415.550781
100
AcDbArc
 50
69.50158
 51
69.53411200000001
  0
LINE
  5
BF5E
330
BD52
100
AcDbEntity
  8
5
  6
PHANTOM
100
AcDbLine
 10
104.059875
 20
150.520135
 30
0.0
 11
114.5244589999999
 21
155.180856
 31
0.0
  0
LINE
  5
BF5F
330
BD52
100
AcDbEntity
  8
5
  6
PHANTOM
100
AcDbLine
 10
103.504958
 20
152.460237
 30
0.0
 11
113.729827
 21
157.055909
 31
0.0
  0
LINE
  5
BF60
330
BD52
100
AcDbEntity
  8
5
  6
PHANTOM
100
AcDbLine
 10
103.504974
 20
152.460237
 30
0.0
 11
104.1032399999999
 21
150.3685619999999
 31
0.0
  0
ARC
  5
BF61
330
BD52
100
AcDbEntity
  8
5
  6
PHANTOM
100
AcDbCircle
 10
104.450927
 20
147.7972499999999
 30
0.0
 40
2.594708999999999
100
AcDbArc
 50
69.53411200000001
 51
97.70087700000001
  0
ARC
  5
BF62
330
BD52
100
AcDbEntity
  8
5
  6
PHANTOM
100
AcDbCircle
 10
115.6734919999999
 20
158.9795619999999
 30
0.0
 40
2.440793999999999
100
AcDbArc
 50
271.258398
 51
302.701659
  0
LINE
  5
BF63
330
BD52
100
AcDbEntity
  8
5
  6
PHANTOM
100
AcDbLine
 10
114.5244589999999
 20
155.180848
 30
0.0
 11
113.896056
 21
157.058603
 31
0.0
  0
ARC
  5
BF64
330
BD52
100
AcDbEntity
  8
5
  6
PHANTOM
100
AcDbCircle
 10
114.3748159999999
 20
155.322641
 30
0.0
 40
1.038931
100
AcDbArc
 50
70.09784200000002
 51
103.151006
  0
ARC
  5
BF65
330
BD52
100
AcDbEntity
  8
5
  6
PHANTOM
100
AcDbCircle
 10
116.0645289999999
 20
152.935464
 30
0.0
 40
3.619658999999998
100
AcDbArc
 50
95.34903100000002
 51
111.6606219999999
  0
ARC
  5
BF66
330
BD52
100
AcDbEntity
  8
1
  6
Continuous
100
AcDbCircle
 10
-276.7003639999999
 20
-866.5975479999998
 30
0.0
 40
1096.410278
100
AcDbArc
 50
68.68807700000001
 51
68.940993
  0
ARC
  5
BF67
330
BD52
100
AcDbEntity
  8
1
  6
Continuous
100
AcDbCircle
 10
113.3554379999998
 20
146.4129879999999
 30
0.0
 40
10.8994
100
AcDbArc
 50
68.940993
 51
81.16270799999998
  0
ARC
  5
BF68
330
BD52
100
AcDbEntity
  8
5
  6
PHANTOM
100
AcDbCircle
 10
124.861968
 20
136.4580629999998
 30
0.0
 40
10.8994
100
AcDbArc
 50
107.9409899999999
 51
120.162712
  0
ARC
  5
BF69
330
BD52
100
AcDbEntity
  8
5
  6
PHANTOM
100
AcDbCircle
 10
124.969283
 20
123.858857
 30
0.0
 40
22.719694
100
AcDbArc
 50
104.227287
 51
111.515809
  0
ARC
  5
BF6A
330
BD52
100
AcDbEntity
  8
5
  6
PHANTOM
100
AcDbCircle
 10
106.775436
 20
170.0092939999999
 30
0.0
 40
26.88754799999999
100
AcDbArc
 50
287.720507
 51
291.5158109999999
  0
ARC
  5
BF6B
330
BD52
100
AcDbEntity
  8
5
  6
PHANTOM
100
AcDbCircle
 10
105.8788749999998
 20
142.838998
 30
0.0
 40
6.739846
100
AcDbArc
 50
25.095239
 51
69.50158
  0
ARC
  5
BF6C
330
BD52
100
AcDbEntity
  8
5
  6
PHANTOM
100
AcDbCircle
 10
114.210479
 20
146.74096
 30
0.0
 40
2.460205999999999
100
AcDbArc
 50
205.095244
 51
287.720507
  0
LINE
  5
BF6D
330
BD52
100
AcDbEntity
  8
5
  6
PHANTOM
100
AcDbLine
 10
115.8344719999999
 20
156.5440759999999
 30
0.0
 11
119.432296
 21
145.9087539999999
 31
0.0
  0
ARC
  5
BF6E
330
BD52
100
AcDbEntity
  8
1
  6
Continuous
100
AcDbCircle
 10
104.6290579999999
 20
168.0702829999999
 30
0.0
 40
2.594708999999999
100
AcDbArc
 50
30.53411500000001
 51
58.700872
  0
LINE
  5
BF6F
330
BD52
100
AcDbEntity
  8
1
  6
Continuous
100
AcDbLine
 10
106.828429
 20
172.2894149999999
 30
0.0
 11
105.977035
 21
170.287378
 31
0.0
  0
LINE
  5
BF70
330
BD52
100
AcDbEntity
  8
1
  6
Continuous
100
AcDbLine
 10
106.0387259999999
 20
170.432451
 30
0.0
 11
117.104324
 21
167.468934
 31
0.0
  0
LINE
  5
BF71
330
BD52
100
AcDbEntity
  8
5
  6
PHANTOM
100
AcDbLine
 10
119.3121029999999
 20
158.992303
 30
0.0
 11
119.2166129999999
 21
158.6164259999998
 31
0.0
  0
ARC
  5
BF72
330
BD52
100
AcDbEntity
  8
1
  6
Continuous
100
AcDbCircle
 10
117.6130669999998
 20
169.222833
 30
0.0
 40
0.210357
100
AcDbArc
 50
28.650816
 51
75.20206299999998
  0
ARC
  5
BF73
330
BD52
100
AcDbEntity
  8
1
  6
Continuous
100
AcDbCircle
 10
116.888107
 20
164.754747
 30
0.0
 40
3.619658999999998
100
AcDbArc
 50
56.349033
 51
72.66062499999998
  0
ARC
  5
BF74
330
BD52
100
AcDbEntity
  8
1
  6
Continuous
100
AcDbCircle
 10
117.0772549999999
 20
167.673303
 30
0.0
 40
1.038931
100
AcDbArc
 50
31.097841
 51
64.15100799999999
  0
LINE
  5
BF75
330
BD52
100
AcDbEntity
  8
1
  6
Continuous
100
AcDbLine
 10
117.104324
 20
167.468934
 30
0.0
 11
117.7976679999999
 21
169.323694
 31
0.0
  0
ARC
  5
BF76
330
BD52
100
AcDbEntity
  8
1
  6
Continuous
100
AcDbCircle
 10
120.3878929999999
 20
169.697984
 30
0.0
 40
2.440793999999999
100
AcDbArc
 50
232.2584009999999
 51
263.7016609999998
  0
ARC
  5
BF77
330
BD52
100
AcDbEntity
  8
1
  6
Continuous
100
AcDbCircle
 10
111.5489189999999
 20
161.107507
 30
0.0
 40
2.460205999999999
100
AcDbArc
 50
166.0952429999998
 51
248.7204919999999
  0
ARC
  5
BF78
330
BD52
100
AcDbEntity
  8
1
  6
Continuous
100
AcDbCircle
 10
120.4140309999999
 20
183.869417
 30
0.0
 40
26.88754799999999
100
AcDbArc
 50
248.720502
 51
252.5158129999999
  0
ARC
  5
BF79
330
BD52
100
AcDbEntity
  8
1
  6
Continuous
100
AcDbCircle
 10
102.618453
 20
163.318361
 30
0.0
 40
6.739846
100
AcDbArc
 50
346.095239
 51
30.501579
  0
ARC
  5
BF7A
330
BD52
100
AcDbEntity
  8
1
  6
Continuous
100
AcDbCircle
 10
-4557.695190999999
 20
-2581.98915
 30
0.0
 40
5415.550781
100
AcDbArc
 50
30.501579
 51
30.53411500000001
  0
LINE
  5
BF7B
330
BD52
100
AcDbEntity
  8
1
  6
Continuous
100
AcDbLine
 10
106.828429
 20
172.2894149999999
 30
0.0
 11
117.666793
 21
169.4262099999999
 31
0.0
  0
LWPOLYLINE
  5
BF7C
330
BD52
100
AcDbEntity
  8
1
  6
Continuous
100
AcDbPolyline
 90
        2
 70
     0
 43
0.0
 10
149.1222529999998
 20
86.73414099999998
 10
149.658737
 20
83.91758199999998
  0
LINE
  5
BF80
330
BD52
100
AcDbEntity
  8
1
  6
Continuous
100
AcDbLine
 10
139.9386589999998
 20
88.09226499999999
 30
0.0
 11
161.8778989999999
 21
84.84773500000001
 31
0.0
  0
LINE
  5
BF81
330
BD52
100
AcDbEntity
  8
1
  6
Continuous
100
AcDbLine
 10
140.786178
 20
89.98867999999999
 30
0.0
 11
162.170486
 21
86.82622
 31
0.0
  0
LINE
  5
BF82
330
BD52
100
AcDbEntity
  8
1
  6
Continuous
100
AcDbLine
 10
119.539627
 20
84.50984400000001
 30
0.0
 11
118.1440879999999
 21
81.72110999999999
 31
0.0
  0
LINE
  5
BF83
330
BD52
100
AcDbEntity
  8
1
  6
Continuous
100
AcDbLine
 10
117.3607779999999
 20
84.50985199999998
 30
0.0
 11
138.658874
 21
84.50985199999998
 31
0.0
  0
LINE
  5
BF84
330
BD52
100
AcDbEntity
  8
1
  6
Continuous
100
AcDbLine
 10
117.4183799999999
 20
86.50985199999999
 30
0.0
 11
136.480026
 21
86.50985199999999
 31
0.0
  0
LWPOLYLINE
  5
BF85
330
BD52
100
AcDbEntity
  8
1
  6
Continuous
100
AcDbPolyline
 90
        2
 70
     0
 43
0.0
 10
140.3229819999999
 20
85.40044599999998
 10
141.941787
 20
87.828654
  0
ARC
  5
BF89
330
BD52
100
AcDbEntity
  8
1
  6
Continuous
100
AcDbCircle
 10
140.1789549999998
 20
87.55129499999998
 30
0.0
 40
0.5
100
AcDbArc
 50
81.58765499999999
 51
146.309933
  0
ARC
  5
BF8A
330
BD52
100
AcDbEntity
  8
1
  6
Continuous
100
AcDbCircle
 10
136.480026
 20
86.50985199999999
 30
0.0
 40
2.0
100
AcDbArc
 50
269.9999969999999
 51
326.309931
  0
LWPOLYLINE
  5
BF8B
330
BD52
100
AcDbEntity
  8
1
  6
Continuous
100
AcDbPolyline
 90
        2
 70
     0
 43
0.0
 10
136.480026
 20
86.50985199999999
 10
137.962646
 20
88.73378999999998
  0
LWPOLYLINE
  5
BF8F
330
BD52
100
AcDbEntity
  8
1
  6
Continuous
100
AcDbPolyline
 90
        2
 70
     0
 43
0.0
 10
138.144134
 20
85.40044599999998
 10
139.9386739999999
 20
88.09226499999999
  0
ARC
  5
BF93
330
BD52
100
AcDbEntity
  8
1
  6
Continuous
100
AcDbCircle
 10
138.658874
 20
86.50985199999999
 30
0.0
 40
2.0
100
AcDbArc
 50
269.9999969999999
 51
326.309931
  0
LWPOLYLINE
  5
BF94
330
BD52
100
AcDbEntity
  8
1
  6
Continuous
100
AcDbPolyline
 90
       18
 70
     0
 43
0.0
 10
137.9626309999999
 20
88.73375899999997
 10
138.078628
 20
88.884821
 10
138.2037959999999
 20
89.02837599999998
 10
138.3376309999999
 20
89.16387399999996
 10
138.4796899999997
 20
89.29082699999998
 10
138.6293179999998
 20
89.408671
 10
138.7859949999999
 20
89.51699299999999
 10
138.949127
 20
89.61538199999997
 10
139.1180419999998
 20
89.70340999999995
 10
139.2920829999999
 20
89.78077199999999
 10
139.4706569999999
 20
89.847178
 10
139.6529539999999
 20
89.90233899999998
 10
139.838333
 20
89.946055
 10
140.0260769999999
 20
89.97816
 10
140.2154989999999
 20
89.99854499999996
 10
140.405777
 20
90.00710500000002
 10
140.596206
 20
90.003825
 10
140.786163
 20
89.98868799999998
  0
ARC
  5
BFA8
330
BD52
100
AcDbEntity
  8
1
  6
Continuous
100
AcDbCircle
 10
161.7001639999998
 20
86.89577699999999
 30
0.0
 40
2.0
100
AcDbArc
 50
261.5876559999999
 51
351.5876549999999
  0
ARC
  5
BFA9
330
BD52
100
AcDbEntity
  8
1
  6
Continuous
100
AcDbCircle
 10
160.186172
 20
94.791377
 30
0.0
 40
2.909844999999998
100
AcDbArc
 50
23.929797
 51
136.0702089999997
  0
ARC
  5
BFAA
330
BD52
100
AcDbEntity
  8
1
  6
Continuous
100
AcDbCircle
 10
163.5281369999999
 20
91.57198599999999
 30
0.0
 40
7.550231
100
AcDbArc
 50
136.0702089999997
 51
170.7781019999998
  0
ARC
  5
BFAB
330
BD52
100
AcDbEntity
  8
1
  6
Continuous
100
AcDbCircle
 10
161.1997069999999
 20
94.64149
 30
0.0
 40
2.909844999999998
100
AcDbArc
 50
23.929797
 51
81.58765499999999
  0
ARC
  5
BFAC
330
BD52
100
AcDbEntity
  8
1
  6
Continuous
100
AcDbCircle
 10
156.9582059999999
 20
92.75927199999999
 30
0.0
 40
7.550231
100
AcDbArc
 50
352.7213919999999
 51
23.929797
  0
LINE
  5
BFAD
330
BD52
100
AcDbEntity
  8
1
  6
Continuous
100
AcDbLine
 10
162.7382499999999
 20
87.24769100000001
 30
0.0
 11
163.434051
 21
91.95259300000001
 31
0.0
  0
ARC
  5
BFAE
330
BD52
100
AcDbEntity
  8
1
  6
Continuous
100
AcDbCircle
 10
162.243637
 20
87.32084099999999
 30
0.0
 40
0.5
100
AcDbArc
 50
261.5876559999999
 51
351.5876549999999
  0
LINE
  5
BFAF
330
BD52
100
AcDbEntity
  8
1
  6
Continuous
100
AcDbLine
 10
163.678649
 20
86.60317499999996
 30
0.0
 11
164.410125
 21
91.54937999999999
 31
0.0
  0
ARC
  5
BFB0
330
BD52
100
AcDbEntity
  8
1
  6
Continuous
100
AcDbCircle
 10
155.944656
 20
92.90915899999999
 30
0.0
 40
7.550231
100
AcDbArc
 50
352.7213919999999
 51
23.929797
  0
LINE
  5
BFB1
330
BD52
100
AcDbEntity
  8
1
  6
Continuous
100
AcDbLine
 10
160.6118769999999
 20
97.669917
 30
0.0
 11
161.625412
 21
97.52002199999999
 31
0.0
  0
LWPOLYLINE
  5
BFB2
330
BD52
100
AcDbEntity
  8
1
  6
Continuous
100
AcDbPolyline
 90
        2
 70
     0
 43
0.0
 10
151.7047419999999
 20
86.35221300000003
 10
150.866287
 20
83.83684800000002
  0
LWPOLYLINE
  5
BFB6
330
BD52
100
AcDbEntity
  8
1
  6
Continuous
100
AcDbPolyline
 90
        2
 70
     0
 43
0.0
 10
152.7182919999999
 20
86.20232599999999
 10
151.8798209999999
 20
83.68694599999997
  0
ARC
  5
BFBA
330
BD52
100
AcDbEntity
  8
1
  6
Continuous
100
AcDbCircle
 10
150.2730399999999
 20
84.03458699999999
 30
0.0
 40
0.625342
100
AcDbArc
 50
190.7843039999999
 51
341.5650509999999
  0
LINE
  5
BFBB
330
BD52
100
AcDbEntity
  8
1
  6
Continuous
100
AcDbLine
 10
150.181549
 20
83.41597199999998
 30
0.0
 11
151.1950979999998
 21
83.266085
 31
0.0
  0
ARC
  5
BFBC
330
BD52
100
AcDbEntity
  8
1
  6
Continuous
100
AcDbCircle
 10
151.286575
 20
83.884699
 30
0.0
 40
0.625342
100
AcDbArc
 50
261.5876559999999
 51
341.5650509999999
  0
LINE
  5
BFBD
330
BD52
100
AcDbEntity
  8
1
  6
Continuous
100
AcDbLine
 10
155.3432459999999
 20
87.835879
 30
0.0
 11
156.0591269999999
 21
92.676554
 31
0.0
  0
LINE
  5
BFBE
330
BD52
100
AcDbEntity
  8
1
  6
Continuous
100
AcDbLine
 10
154.7288049999998
 20
159.573068
 30
0.0
 11
153.3648059999999
 21
155.8614359999999
 31
0.0
  0
LINE
  5
BFBF
330
BD52
100
AcDbEntity
  8
1
  6
Continuous
100
AcDbLine
 10
153.3648059999999
 20
155.8614209999998
 30
0.0
 11
155.5083919999999
 21
154.8575989999999
 31
0.0
  0
ARC
  5
BFC0
330
BD52
100
AcDbEntity
  8
5
  6
PHANTOM
100
AcDbCircle
 10
155.484298
 20
167.010286
 30
0.0
 40
1.414184999999997
100
AcDbArc
 50
184.9331399999999
 51
286.3461699999998
  0
ARC
  5
BFC1
330
BD52
100
AcDbEntity
  8
1
  6
Continuous
100
AcDbCircle
 10
151.5886379999998
 20
160.5002069999999
 30
0.0
 40
3.187289999999998
100
AcDbArc
 50
24.02594
 51
70.284901
  0
LINE
  5
BFC2
330
BD52
100
AcDbEntity
  8
1
  6
Continuous
100
AcDbLine
 10
144.3960109999999
 20
163.4711159999999
 30
0.0
 11
154.7288049999998
 21
159.5730599999999
 31
0.0
  0
ARC
  5
BFC3
330
BD52
100
AcDbEntity
  8
1
  6
Continuous
100
AcDbCircle
 10
177.9001609999999
 20
193.235628
 30
0.0
 40
56.58425499999999
100
AcDbArc
 50
237.84417
 51
247.0983529999998
  0
ARC
  5
BFC4
330
BD52
100
AcDbEntity
  8
5
  6
PHANTOM
100
AcDbCircle
 10
145.5561969999999
 20
213.465394
 30
0.0
 40
56.58425499999999
100
AcDbArc
 50
276.844168
 51
286.0983499999999
  0
ARC
  5
BFC5
330
BD52
100
AcDbEntity
  8
1
  6
Continuous
100
AcDbCircle
 10
155.747863
 20
319.32274
 30
0.0
 40
171.423233
100
AcDbArc
 50
263.532088
 51
264.8760509999998
  0
ARC
  5
BFC6
330
BD52
100
AcDbEntity
  8
5
  6
PHANTOM
100
AcDbCircle
 10
128.7661129999999
 20
173.415262
 30
0.0
 40
23.93382099999999
100
AcDbArc
 50
287.737541
 51
299.683153
  0
ARC
  5
BFC7
330
BD52
100
AcDbEntity
  8
5
  6
PHANTOM
100
AcDbCircle
 10
127.575286
 20
177.1382309999999
 30
0.0
 40
27.842596
100
AcDbArc
 50
278.453948
 51
287.737541
  0
ARC
  5
BFC8
330
BD52
100
AcDbEntity
  8
1
  6
Continuous
100
AcDbCircle
 10
136.385482
 20
151.6616379999998
 30
0.0
 40
2.671529999999997
100
AcDbArc
 50
256.74801
 51
271.11771
  0
ARC
  5
BFC9
330
BD52
100
AcDbEntity
  8
1
  6
Continuous
100
AcDbCircle
 10
139.6474599999999
 20
172.6771709999999
 30
0.0
 40
23.93382099999999
100
AcDbArc
 50
248.737537
 51
260.6831549999998
  0
ARC
  5
BFCA
330
BD52
100
AcDbEntity
  8
1
  6
Continuous
100
AcDbCircle
 10
255.052886
 20
115.488107
 30
0.0
 40
123.5627139999998
100
AcDbArc
 50
162.1740479999999
 51
164.262006
  0
ARC
  5
BFCB
330
BD52
100
AcDbEntity
  8
5
  6
PHANTOM
100
AcDbCircle
 10
136.877456
 20
114.551866
 30
0.0
 40
35.431274
100
AcDbArc
 50
98.453946
 51
107.688082
  0
ARC
  5
BFCC
330
BD52
100
AcDbEntity
  8
1
  6
Continuous
100
AcDbCircle
 10
141.0649409999998
 20
176.319871
 30
0.0
 40
27.842596
100
AcDbArc
 50
239.45395
 51
248.737537
  0
ARC
  5
BFCD
330
BD52
100
AcDbEntity
  8
5
  6
PHANTOM
100
AcDbCircle
 10
48.99143099999999
 20
297.51259
 30
0.0
 40
171.423233
100
AcDbArc
 50
302.5320859999999
 51
303.876052
  0
ARC
  5
BFCE
330
BD52
100
AcDbEntity
  8
5
  6
PHANTOM
100
AcDbCircle
 10
139.4565879999998
 20
155.0302979999998
 30
0.0
 40
2.671529999999997
100
AcDbArc
 50
295.748014
 51
310.1177079999998
  0
ARC
  5
BFCF
330
BD52
100
AcDbEntity
  8
5
  6
PHANTOM
100
AcDbCircle
 10
254.443206
 20
201.5979929999998
 30
0.0
 40
123.5627139999998
100
AcDbArc
 50
200.9023819999999
 51
203.262007
  0
ARC
  5
BFD0
330
BD52
100
AcDbEntity
  8
5
  6
PHANTOM
100
AcDbCircle
 10
155.6275019999999
 20
129.555002
 30
0.0
 40
27.92838099999999
100
AcDbArc
 50
96.844166
 51
113.385232
  0
ARC
  5
BFD1
330
BD52
100
AcDbEntity
  8
1
  6
Continuous
100
AcDbCircle
 10
132.9205159999999
 20
121.686921
 30
0.0
 40
27.92838099999999
100
AcDbArc
 50
57.844169
 51
74.38523399999998
  0
ARC
  5
BFD2
330
BD52
100
AcDbEntity
  8
5
  6
PHANTOM
100
AcDbCircle
 10
141.4627529999999
 20
169.6472179999998
 30
0.0
 40
3.284759999999999
100
AcDbArc
 50
129.8009419999999
 51
184.4514439999999
  0
ARC
  5
BFD3
330
BD52
100
AcDbEntity
  8
5
  6
PHANTOM
100
AcDbCircle
 10
139.0056299999999
 20
162.461625
 30
0.0
 40
3.732066
100
AcDbArc
 50
85.56350100000001
 51
106.7198209999999
  0
ARC
  5
BFD4
330
BD52
100
AcDbEntity
  8
5
  6
PHANTOM
100
AcDbCircle
 10
119.0046379999998
 20
160.984178
 30
0.0
 40
20.94500899999999
100
AcDbArc
 50
14.37038999999999
 51
23.668023
  0
ARC
  5
BFD5
330
BD52
100
AcDbEntity
  8
1
  6
Continuous
100
AcDbCircle
 10
129.203506
 20
145.784524
 30
0.0
 40
20.298761
100
AcDbArc
 50
55.98089599999998
 51
63.073792
  0
LINE
  5
BFD6
330
BD52
100
AcDbEntity
  8
5
  6
PHANTOM
100
AcDbLine
 10
138.249999
 20
169.249177
 30
0.0
 11
148.733215
 21
172.7224589999999
 31
0.0
  0
ARC
  5
BFD7
330
BD52
100
AcDbEntity
  8
5
  6
PHANTOM
100
AcDbCircle
 10
254.443206
 20
201.5979929999998
 30
0.0
 40
123.5627139999998
100
AcDbArc
 50
196.650248
 51
198.908923
  0
ARC
  5
BFD8
330
BD52
100
AcDbEntity
  8
5
  6
PHANTOM
100
AcDbCircle
 10
137.57373
 20
145.9431619999998
 30
0.0
 40
20.298761
100
AcDbArc
 50
94.98089699999999
 51
102.073789
  0
ARC
  5
BFD9
330
BD52
100
AcDbEntity
  8
5
  6
PHANTOM
100
AcDbCircle
 10
136.0583949999998
 20
165.106843
 30
0.0
 40
1.086873999999999
100
AcDbArc
 50
77.954486
 51
103.139634
  0
ARC
  5
BFDA
330
BD52
100
AcDbEntity
  8
5
  6
PHANTOM
100
AcDbCircle
 10
137.2796779999999
 20
168.2073069999999
 30
0.0
 40
2.267253999999998
100
AcDbArc
 50
243.9841279999999
 51
286.719816
  0
ARC
  5
BFDB
330
BD52
100
AcDbEntity
  8
1
  6
Continuous
100
AcDbCircle
 10
129.61209
 20
178.645677
 30
0.0
 40
13.95287699999999
100
AcDbArc
 50
269.5458449999999
 51
279.438779
  0
ARC
  5
BFDC
330
BD52
100
AcDbEntity
  8
1
  6
Continuous
100
AcDbCircle
 10
133.6271509999999
 20
154.4941419999998
 30
0.0
 40
10.530131
100
AcDbArc
 50
63.073792
 51
99.43877800000002
  0
ARC
  5
BFDD
330
BD52
100
AcDbEntity
  8
5
  6
PHANTOM
100
AcDbCircle
 10
117.2110739999999
 20
171.7382139999999
 30
0.0
 40
13.95287699999999
100
AcDbArc
 50
308.5458459999999
 51
318.438777
  0
ARC
  5
BFDE
330
BD52
100
AcDbEntity
  8
5
  6
PHANTOM
100
AcDbCircle
 10
123.2453449999999
 20
164.164537
 30
0.0
 40
4.269231999999997
100
AcDbArc
 50
269.844337
 51
308.5458459999999
  0
LINE
  5
BFDF
330
BD52
100
AcDbEntity
  8
5
  6
PHANTOM
100
AcDbLine
 10
123.0762169999999
 20
160.0721069999999
 30
0.0
 11
123.233733
 21
159.895318
 31
0.0
  0
LINE
  5
BFE0
330
BD52
100
AcDbEntity
  8
1
  6
Continuous
100
AcDbLine
 10
123.2236469999999
 20
167.418031
 30
0.0
 11
126.82846
 21
165.88836
 31
0.0
  0
LINE
  5
BFE1
330
BD52
100
AcDbEntity
  8
1
  6
Continuous
100
AcDbLine
 10
123.2236469999999
 20
167.418023
 30
0.0
 11
122.912887
 21
167.186006
 31
0.0
  0
LINE
  5
BFE2
330
BD52
100
AcDbEntity
  8
1
  6
Continuous
100
AcDbLine
 10
126.828475
 20
165.88836
 30
0.0
 11
126.839629
 21
165.6518409999998
 31
0.0
  0
ARC
  5
BFE3
330
BD52
100
AcDbEntity
  8
5
  6
PHANTOM
100
AcDbCircle
 10
135.5304099999999
 20
155.495698
 30
0.0
 40
10.530131
100
AcDbArc
 50
102.073789
 51
138.438782
  0
ARC
  5
BFE4
330
BD52
100
AcDbEntity
  8
1
  6
Continuous
100
AcDbCircle
 10
129.535339
 20
168.962343
 30
0.0
 40
4.269231999999997
100
AcDbArc
 50
230.844333
 51
269.5458449999999
  0
ARC
  5
BFE5
330
BD52
100
AcDbEntity
  8
5
  6
PHANTOM
100
AcDbCircle
 10
150.256423
 20
166.559053
 30
0.0
 40
3.833123
100
AcDbArc
 50
4.933144999999997
 51
26.958099
  0
LINE
  5
BFE6
330
BD52
100
AcDbEntity
  8
5
  6
PHANTOM
100
AcDbLine
 10
152.3065939999999
 20
169.5484779999999
 30
0.0
 11
153.673034
 21
168.296747
 31
0.0
  0
ARC
  5
BFE7
330
BD52
100
AcDbEntity
  8
5
  6
PHANTOM
100
AcDbCircle
 10
145.5266109999998
 20
171.1077129999999
 30
0.0
 40
3.590214
100
AcDbArc
 50
15.150125
 51
63.02593899999999
  0
ARC
  5
BFE8
330
BD52
100
AcDbEntity
  8
5
  6
PHANTOM
100
AcDbCircle
 10
150.056106
 20
173.7134259999999
 30
0.0
 40
4.734078
100
AcDbArc
 50
269.4296699999999
 51
298.3840579999998
  0
ARC
  5
BFE9
330
BD52
100
AcDbEntity
  8
5
  6
PHANTOM
100
AcDbCircle
 10
161.334991
 20
175.612886
 30
0.0
 40
13.106242
100
AcDbArc
 50
197.688805
 51
210.4064539999999
  0
ARC
  5
BFEA
330
BD52
100
AcDbEntity
  8
5
  6
PHANTOM
100
AcDbCircle
 10
149.198241
 20
171.7421739999998
 30
0.0
 40
0.367205
100
AcDbArc
 50
124.162457
 51
197.688802
  0
ARC
  5
BFEB
330
BD52
100
AcDbEntity
  8
1
  6
Continuous
100
AcDbCircle
 10
147.191222
 20
158.3295909999999
 30
0.0
 40
6.714102999999997
100
AcDbArc
 50
70.284901
 51
90.80094499999995
  0
LINE
  5
BFEC
330
BD52
100
AcDbEntity
  8
1
  6
Continuous
100
AcDbLine
 10
149.4561909999999
 20
164.650125
 30
0.0
 11
152.663848
 21
163.500665
 31
0.0
  0
ARC
  5
BFED
330
BD52
100
AcDbEntity
  8
1
  6
Continuous
100
AcDbCircle
 10
255.052886
 20
115.488107
 30
0.0
 40
123.5627139999998
100
AcDbArc
 50
157.650246
 51
159.637255
  0
LINE
  5
BFEE
330
BD52
100
AcDbEntity
  8
1
  6
Continuous
100
AcDbLine
 10
144.4378039999998
 20
163.6214
 30
0.0
 11
143.277679
 21
160.43065
 31
0.0
  0
LINE
  5
BFEF
330
BD52
100
AcDbEntity
  8
1
  6
Continuous
100
AcDbLine
 10
140.772201
 20
162.473993
 30
0.0
 11
143.277679
 21
160.43065
 31
0.0
  0
LINE
  5
BFF0
330
BD52
100
AcDbEntity
  8
5
  6
PHANTOM
100
AcDbLine
 10
141.4405209999999
 20
173.349908
 30
0.0
 11
144.656722
 21
174.475259
 31
0.0
  0
ARC
  5
BFF1
330
BD52
100
AcDbEntity
  8
5
  6
PHANTOM
100
AcDbCircle
 10
143.657958
 20
167.0125439999999
 30
0.0
 40
6.714102999999997
100
AcDbArc
 50
109.284898
 51
129.8009419999999
  0
ARC
  5
BFF2
330
BD52
100
AcDbEntity
  8
1
  6
Continuous
100
AcDbCircle
 10
140.0859669999998
 20
161.6311429999998
 30
0.0
 40
1.086873999999999
100
AcDbArc
 50
38.954485
 51
64.13963599999999
  0
ARC
  5
BFF3
330
BD52
100
AcDbEntity
  8
1
  6
Continuous
100
AcDbCircle
 10
147.143295
 20
161.7586
 30
0.0
 40
3.284759999999999
100
AcDbArc
 50
90.80094499999995
 51
145.451447
  0
ARC
  5
BFF4
330
BD52
100
AcDbEntity
  8
5
  6
PHANTOM
100
AcDbCircle
 10
145.709365
 20
171.4668129999998
 30
0.0
 40
3.187289999999998
100
AcDbArc
 50
63.02593899999999
 51
109.284898
  0
ARC
  5
BFF5
330
BD52
100
AcDbEntity
  8
1
  6
Continuous
100
AcDbCircle
 10
162.0298149999999
 20
140.972802
 30
0.0
 40
1.162484
100
AcDbArc
 50
268.9252189999999
 51
323.707377
  0
LINE
  5
BFF6
330
BD52
100
AcDbEntity
  8
1
  6
Continuous
100
AcDbLine
 10
163.9107349999999
 20
139.160478
 30
0.0
 11
165.2591699999998
 21
140.339944
 31
0.0
  0
LINE
  5
BFF7
330
BD52
100
AcDbEntity
  8
1
  6
Continuous
100
AcDbLine
 10
155.5083919999999
 20
154.8576139999999
 30
0.0
 11
155.7825919999999
 21
153.0249109999998
 31
0.0
  0
ARC
  5
BFF8
330
BD52
100
AcDbEntity
  8
1
  6
Continuous
100
AcDbCircle
 10
156.3805989999998
 20
150.88527
 30
0.0
 40
1.414184999999997
100
AcDbArc
 50
145.9331389999998
 51
247.3461759999999
  0
ARC
  5
BFF9
330
BD52
100
AcDbEntity
  8
1
  6
Continuous
100
AcDbCircle
 10
157.01979
 20
152.3407759999998
 30
0.0
 40
3.003727999999998
100
AcDbArc
 50
246.787777
 51
285.585185
  0
LINE
  5
BFFA
330
BD52
100
AcDbEntity
  8
1
  6
Continuous
100
AcDbLine
 10
155.8359059999999
 20
149.5801939999998
 30
0.0
 11
155.8488
 21
148.7621849999999
 31
0.0
  0
ARC
  5
BFFB
330
BD52
100
AcDbEntity
  8
1
  6
Continuous
100
AcDbCircle
 10
152.0338129999998
 20
153.824602
 30
0.0
 40
3.833123
100
AcDbArc
 50
325.9331439999999
 51
347.9581
  0
LINE
  5
BFFC
330
BD52
100
AcDbEntity
  8
1
  6
Continuous
100
AcDbLine
 10
157.8268119999999
 20
149.447488
 30
0.0
 11
165.2591699999998
 21
140.339952
 31
0.0
  0
LINE
  5
BFFD
330
BD52
100
AcDbEntity
  8
1
  6
Continuous
100
AcDbLine
 10
163.9107199999999
 20
139.160478
 30
0.0
 11
155.8488
 21
148.762178
 31
0.0
  0
ARC
  5
BFFE
330
BD52
100
AcDbEntity
  8
1
  6
Continuous
100
AcDbCircle
 10
162.318328
 20
156.3512049999999
 30
0.0
 40
16.543596
100
AcDbArc
 50
247.0983529999998
 51
268.9252189999999
  0
ARC
  5
BFFF
330
BD52
100
AcDbEntity
  8
5
  6
PHANTOM
100
AcDbCircle
 10
156.65895
 20
174.994844
 30
0.0
 40
16.543596
100
AcDbArc
 50
286.0983499999999
 51
307.925221
  0
LINE
  5
C000
330
BD52
100
AcDbEntity
  8
5
  6
PHANTOM
100
AcDbLine
 10
168.7149499999998
 20
162.637277
 30
0.0
 11
169.0206139999999
 21
164.402498
 31
0.0
  0
ARC
  5
C001
330
BD52
100
AcDbEntity
  8
5
  6
PHANTOM
100
AcDbCircle
 10
166.112685
 20
162.8620159999998
 30
0.0
 40
1.162484
100
AcDbArc
 50
307.925221
 51
2.707376
  0
ARC
  5
C002
330
BD52
100
AcDbEntity
  8
1
  6
Continuous
100
AcDbCircle
 10
151.2206109999999
 20
160.3361519999999
 30
0.0
 40
3.590214
100
AcDbArc
 50
336.150123
 51
24.02594
  0
LINE
  5
C003
330
BD52
100
AcDbEntity
  8
5
  6
PHANTOM
100
AcDbLine
 10
155.882293
 20
165.653261
 30
0.0
 11
156.4071039999998
 21
165.025667
 31
0.0
  0
ARC
  5
C004
330
BD52
100
AcDbEntity
  8
5
  6
PHANTOM
100
AcDbCircle
 10
155.0650629999998
 20
168.5436799999999
 30
0.0
 40
3.003727999999998
100
AcDbArc
 50
285.787782
 51
324.5851859999999
  0
LINE
  5
C005
330
BD52
100
AcDbEntity
  8
5
  6
PHANTOM
100
AcDbLine
 10
157.513046
 20
166.8030409999998
 30
0.0
 11
169.020629
 21
164.402498
 31
0.0
  0
LINE
  5
C006
330
BD52
100
AcDbEntity
  8
5
  6
PHANTOM
100
AcDbLine
 10
168.7149499999998
 20
162.6372849999999
 30
0.0
 11
156.4071039999998
 21
165.025674
 31
0.0
  0
ARC
  5
C007
330
BD52
100
AcDbEntity
  8
1
  6
Continuous
100
AcDbCircle
 10
122.305309
 20
281.2864619999999
 30
0.0
 40
1.0
100
AcDbArc
 50
269.9999969999999
 51
355.1494599999998
  0
ARC
  5
C008
330
BD52
100
AcDbEntity
  8
1
  6
Continuous
100
AcDbCircle
 10
124.1774179999999
 20
283.7864619999999
 30
0.0
 40
1.5
100
AcDbArc
 50
73.55996299999998
 51
175.1494639999999
  0
LINE
  5
C009
330
BD52
100
AcDbEntity
  8
1
  6
Continuous
100
AcDbLine
 10
117.9474899999999
 20
280.2864619999999
 30
0.0
 11
139.508312
 21
280.2864619999999
 31
0.0
  0
ARC
  5
C00A
330
BD52
100
AcDbEntity
  8
1
  6
Continuous
100
AcDbCircle
 10
120.3890649999999
 20
282.2864619999998
 30
0.0
 40
2.0
100
AcDbArc
 50
206.584348
 51
269.9999969999999
  0
LINE
  5
C00B
330
BD52
100
AcDbEntity
  8
1
  6
Continuous
100
AcDbLine
 10
117.9474899999999
 20
285.180173
 30
0.0
 11
117.9474899999999
 21
279.180177
 31
0.0
  0
LINE
  5
C00C
330
BD52
100
AcDbEntity
  8
1
  6
Continuous
100
AcDbLine
 10
106.8881639999998
 20
286.180173
 30
0.0
 11
106.8881639999998
 21
279.180177
 31
0.0
  0
LINE
  5
C00D
330
BD52
100
AcDbEntity
  8
1
  6
Continuous
100
AcDbLine
 10
106.0391269999998
 20
286.180173
 30
0.0
 11
106.0391269999998
 21
279.180177
 31
0.0
  0
ARC
  5
C00E
330
BD52
100
AcDbEntity
  8
1
  6
Continuous
100
AcDbCircle
 10
112.388164
 20
279.180177
 30
0.0
 40
5.5
100
AcDbArc
 50
179.9999909999999
 51
0.00001
  0
ARC
  5
C00F
330
BD52
100
AcDbEntity
  8
1
  6
Continuous
100
AcDbCircle
 10
111.5391269999999
 20
279.180177
 30
0.0
 40
5.5
100
AcDbArc
 50
179.9999909999999
 51
274.426783
  0
LINE
  5
C010
330
BD52
100
AcDbEntity
  8
1
  6
Continuous
100
AcDbLine
 10
106.0391269999998
 20
286.180173
 30
0.0
 11
117.204967
 21
286.180173
 31
0.0
  0
ARC
  5
C011
330
BD52
100
AcDbEntity
  8
1
  6
Continuous
100
AcDbCircle
 10
116.9474899999999
 20
285.180173
 30
0.0
 40
1.0
100
AcDbArc
 50
0.0
 51
90.00000300000001
  0
ARC
  5
C012
330
BD52
100
AcDbEntity
  8
1
  6
Continuous
100
AcDbCircle
 10
117.204967
 20
284.180173
 30
0.0
 40
2.0
100
AcDbArc
 50
26.58435300000001
 51
90.00000300000001
  0
LINE
  5
C013
330
BD52
100
AcDbEntity
  8
1
  6
Continuous
100
AcDbLine
 10
122.544734
 20
282.2864629999999
 30
0.0
 11
122.6827889999998
 21
283.9132989999999
 31
0.0
  0
LINE
  5
C014
330
BD52
100
AcDbEntity
  8
1
  6
Continuous
100
AcDbLine
 10
118.6005159999998
 20
281.391431
 30
0.0
 11
117.947493
 21
282.6963779999999
 31
0.0
  0
LINE
  5
C015
330
BD52
100
AcDbEntity
  8
1
  6
Continuous
100
AcDbLine
 10
120.3890649999999
 20
282.2864619999998
 30
0.0
 11
122.544735
 21
282.2864619999998
 31
0.0
  0
LINE
  5
C016
330
BD52
100
AcDbEntity
  8
1
  6
Continuous
100
AcDbLine
 10
120.3890689999999
 20
282.2864599999999
 30
0.0
 11
118.993521
 21
285.075207
 31
0.0
  0
ARC
  5
C017
330
BD52
100
AcDbEntity
  8
1
  6
Continuous
100
AcDbCircle
 10
162.5495949999999
 20
279.9005369999998
 30
0.0
 40
2.0
100
AcDbArc
 50
8.412345
 51
63.28534200000001
  0
LWPOLYLINE
  5
C018
330
BD52
100
AcDbEntity
  8
1
  6
Continuous
100
AcDbPolyline
 90
        2
 70
     0
 43
0.0
 10
141.1724129999998
 20
281.395864
 10
142.7714269999998
 20
278.9973499999999
  0
LWPOLYLINE
  5
C01C
330
BD52
100
AcDbEntity
  8
1
  6
Continuous
100
AcDbPolyline
 90
        2
 70
     0
 43
0.0
 10
137.329464
 20
280.2864619999999
 10
138.812084
 20
278.0625279999998
  0
LWPOLYLINE
  5
C020
330
BD52
100
AcDbEntity
  8
1
  6
Continuous
100
AcDbPolyline
 90
        2
 70
     0
 43
0.0
 10
139.508312
 20
280.2864619999999
 10
141.107326
 20
277.887948
  0
ARC
  5
C024
330
BD52
100
AcDbEntity
  8
1
  6
Continuous
100
AcDbCircle
 10
125.740398
 20
281.2864619999999
 30
0.0
 40
1.0
100
AcDbArc
 50
269.9999969999999
 51
4.850539999999998
  0
LWPOLYLINE
  5
C025
330
BD52
100
AcDbEntity
  8
1
  6
Continuous
100
AcDbPolyline
 90
       18
 70
     0
 43
0.0
 10
138.812069
 20
278.0625469999999
 10
138.9280579999999
 20
277.9115
 10
139.053226
 20
277.7679339999999
 10
139.187069
 20
277.6324359999999
 10
139.3291199999999
 20
277.505483
 10
139.478756
 20
277.3876389999999
 10
139.6354249999999
 20
277.2793249999998
 10
139.798565
 20
277.1809399999999
 10
139.9674719999999
 20
277.0929039999999
 10
140.141514
 20
277.015542
 10
140.320087
 20
276.94914
 10
140.5023919999998
 20
276.893979
 10
140.687771
 20
276.850259
 10
140.8755149999998
 20
276.818147
 10
141.06493
 20
276.797769
 10
141.255207
 20
276.7892089999999
 10
141.4456439999999
 20
276.7924929999999
 10
141.6355929999998
 20
276.8076219999999
  0
LINE
  5
C039
330
BD52
100
AcDbEntity
  8
1
  6
Continuous
100
AcDbLine
 10
143.0640149999999
 20
277.018867
 30
0.0
 11
142.771423
 21
278.9973499999999
 31
0.0
  0
ARC
  5
C03A
330
BD52
100
AcDbEntity
  8
1
  6
Continuous
100
AcDbCircle
 10
142.7714269999998
 20
278.9973499999999
 30
0.0
 40
2.0
100
AcDbArc
 50
213.690067
 51
278.412345
  0
LINE
  5
C03B
330
BD52
100
AcDbEntity
  8
1
  6
Continuous
100
AcDbLine
 10
164.528082
 20
280.1931319999998
 30
0.0
 11
165.2595629999999
 21
275.2469259999999
 31
0.0
  0
LINE
  5
C03C
330
BD52
100
AcDbEntity
  8
1
  6
Continuous
100
AcDbLine
 10
161.4613019999999
 20
269.1263989999999
 30
0.0
 11
162.4748459999999
 21
269.27629
 31
0.0
  0
ARC
  5
C03D
330
BD52
100
AcDbEntity
  8
1
  6
Continuous
100
AcDbCircle
 10
162.0491439999999
 20
272.154824
 30
0.0
 40
2.909844999999998
100
AcDbArc
 50
278.412345
 51
336.070203
  0
ARC
  5
C03E
330
BD52
100
AcDbEntity
  8
1
  6
Continuous
100
AcDbCircle
 10
157.807636
 20
274.0370459999999
 30
0.0
 40
7.550231
100
AcDbArc
 50
336.070203
 51
9.546331
  0
ARC
  5
C03F
330
BD52
100
AcDbEntity
  8
1
  6
Continuous
100
AcDbCircle
 10
165.391109
 20
275.3742149999999
 30
0.0
 40
7.550231
100
AcDbArc
 50
188.4123429999999
 51
223.9297909999999
  0
ARC
  5
C040
330
BD52
100
AcDbEntity
  8
1
  6
Continuous
100
AcDbCircle
 10
164.377567
 20
275.2243279999999
 30
0.0
 40
7.550231
100
AcDbArc
 50
188.4123429999999
 51
223.9297909999999
  0
LINE
  5
C041
330
BD52
100
AcDbEntity
  8
1
  6
Continuous
100
AcDbLine
 10
157.275418
 20
278.642531
 30
0.0
 11
157.922113
 21
274.269645
 31
0.0
  0
LINE
  5
C042
330
BD52
100
AcDbEntity
  8
1
  6
Continuous
100
AcDbLine
 10
156.276979
 20
278.390512
 30
0.0
 11
156.908569
 21
274.11976
 31
0.0
  0
ARC
  5
C043
330
BD52
100
AcDbEntity
  8
1
  6
Continuous
100
AcDbCircle
 10
162.0491439999999
 20
272.154824
 30
0.0
 40
2.909844999999998
100
AcDbArc
 50
223.9297909999999
 51
336.070203
  0
ARC
  5
C044
330
BD52
100
AcDbEntity
  8
1
  6
Continuous
100
AcDbCircle
 10
161.035602
 20
272.0049369999999
 30
0.0
 40
2.909844999999998
100
AcDbArc
 50
223.9297909999999
 51
278.412345
  0
LINE
  5
C045
330
BD52
100
AcDbEntity
  8
1
  6
Continuous
100
AcDbLine
 10
126.6591299999999
 20
282.2864619999998
 30
0.0
 11
139.508312
 21
282.2864619999998
 31
0.0
  0
LINE
  5
C046
330
BD52
100
AcDbEntity
  8
1
  6
Continuous
100
AcDbLine
 10
126.736819
 20
281.371018
 30
0.0
 11
126.521079
 21
283.9132989999999
 31
0.0
  0
LINE
  5
C047
330
BD52
100
AcDbEntity
  8
1
  6
Continuous
100
AcDbLine
 10
123.301731
 20
281.2019029999999
 30
0.0
 11
123.5318219999999
 21
283.913296
 31
0.0
  0
ARC
  5
C048
330
BD52
100
AcDbEntity
  8
1
  6
Continuous
100
AcDbCircle
 10
125.0264469999999
 20
283.7864619999999
 30
0.0
 40
1.5
100
AcDbArc
 50
0.0
 51
175.1494639999999
  0
ARC
  5
C049
330
BD52
100
AcDbEntity
  8
1
  6
Continuous
100
AcDbCircle
 10
139.508312
 20
280.2864619999999
 30
0.0
 40
2.0
100
AcDbArc
 50
33.690069
 51
90.00000300000001
  0
LINE
  5
C04A
330
BD52
100
AcDbEntity
  8
1
  6
Continuous
100
AcDbLine
 10
66.716049
 20
167.4660159999999
 30
0.0
 11
66.716049
 21
166.9701789999998
 31
0.0
  0
LINE
  5
C04B
330
BD52
100
AcDbEntity
  8
1
  6
Continuous
100
AcDbLine
 10
60.366049
 20
159.824105
 30
0.0
 11
60.366049
 21
149.2453159999998
 31
0.0
  0
LINE
  5
C04C
330
BD52
100
AcDbEntity
  8
1
  6
Continuous
100
AcDbLine
 10
62.366289
 20
151.015801
 30
0.0
 11
62.366289
 21
149.2453159999998
 31
0.0
  0
LINE
  5
C04D
330
BD52
100
AcDbEntity
  8
1
  6
Continuous
100
AcDbLine
 10
62.366289
 20
167.426018
 30
0.0
 11
62.366289
 21
160.324105
 31
0.0
  0
LWPOLYLINE
  5
C04E
330
BD52
100
AcDbEntity
  8
1
  6
Continuous
100
AcDbPolyline
 90
        2
 70
     0
 43
0.0
 10
145.043427
 20
279.33335
 10
142.7714269999998
 20
278.9973499999999
  0
LWPOLYLINE
  5
C052
330
BD52
100
AcDbEntity
  8
1
  6
Continuous
100
AcDbPolyline
 90
        2
 70
     0
 43
0.0
 10
150.063219
 20
278.05396
 10
141.2609519999998
 20
276.7522169999999
  0
ARC
  5
C056
330
BD52
100
AcDbEntity
  8
1
  6
Continuous
100
AcDbCircle
 10
152.164619
 20
70.009612
 30
0.0
 40
16.85
100
AcDbArc
 50
100.305769
 51
123.7240169999999
  0
ARC
  5
C057
330
BD52
100
AcDbEntity
  8
1
  6
Continuous
100
AcDbCircle
 10
152.164619
 20
70.009612
 30
0.0
 40
18.85
100
AcDbArc
 50
112.9289389999998
 51
123.723059
  0
ARC
  5
C058
330
BD52
100
AcDbEntity
  8
1
  6
Continuous
100
AcDbCircle
 10
152.164619
 20
70.009612
 30
0.0
 40
18.85
100
AcDbArc
 50
79.95666700000002
 51
97.80992000000004
  0
ARC
  5
C059
330
BD52
100
AcDbEntity
  8
1
  6
Continuous
100
AcDbCircle
 10
152.164619
 20
70.009612
 30
0.0
 40
13.6
100
AcDbArc
 50
98.89518000000002
 51
132.6679249999999
  0
LINE
  5
C05A
330
BD52
100
AcDbEntity
  8
1
  6
Continuous
100
AcDbLine
 10
347.7117799999998
 20
186.633782
 30
0.0
 11
347.7117799999998
 21
162.276283
 31
0.0
  0
LINE
  5
C05B
330
BD52
100
AcDbEntity
  8
4
  6
CENTER
100
AcDbLine
 10
355.56178
 20
127.682237
 30
0.0
 11
355.56178
 21
185.6822369999999
 31
0.0
  0
LINE
  5
C05C
330
BD52
100
AcDbEntity
  8
1
  6
Continuous
100
AcDbLine
 10
359.3231349999999
 20
187.5265049999999
 30
0.0
 11
362.679392
 21
157.4284969999999
 31
0.0
  0
LINE
  5
C05D
330
BD52
100
AcDbEntity
  8
4
  6
CENTER
100
AcDbLine
 10
336.5617799999998
 20
239.53127
 30
0.0
 11
336.5617799999998
 21
167.1422599999999
 31
0.0
  0
ARC
  5
C05E
330
BD52
100
AcDbEntity
  8
1
  6
Continuous
100
AcDbCircle
 10
282.957243
 20
136.558325
 30
0.0
 40
63.35981999999999
100
AcDbArc
 50
36.666179
 51
45.952998
  0
ARC
  5
C05F
330
BD52
100
AcDbEntity
  8
1
  6
Continuous
100
AcDbCircle
 10
355.56178
 20
157.6822369999999
 30
0.0
 40
25.0
100
AcDbArc
 50
144.1619329999998
 51
80.219389
  0
ARC
  5
C060
330
BD52
100
AcDbEntity
  8
1
  6
Continuous
100
AcDbCircle
 10
397.6036619999999
 20
192.391394
 30
0.0
 40
63.31738699999998
100
AcDbArc
 50
210.0174259999998
 51
218.02512
  0
ARC
  5
C061
330
BD52
100
AcDbEntity
  8
1
  6
Continuous
100
AcDbCircle
 10
355.56178
 20
157.6822369999999
 30
0.0
 40
17.5
100
AcDbArc
 50
153.524335
 51
72.62147500000001
  0
LINE
  5
C062
330
BD52
100
AcDbEntity
  8
4
  6
CENTER
100
AcDbLine
 10
385.56178
 20
157.6822369999999
 30
0.0
 11
325.56178
 21
157.6822369999999
 31
0.0
  0
LINE
  5
C063
330
BD52
100
AcDbEntity
  8
1
  6
Continuous
100
AcDbLine
 10
381.897977
 20
172.2894149999999
 30
0.0
 11
376.761552
 21
170.932509
 31
0.0
  0
ARC
  5
C064
330
BD52
100
AcDbEntity
  8
5
  6
PHANTOM
100
AcDbCircle
 10
382.8475319999999
 20
142.838998
 30
0.0
 40
6.739846
100
AcDbArc
 50
110.49842
 51
128.3985869999999
  0
LINE
  5
C065
330
BD52
100
AcDbEntity
  8
5
  6
PHANTOM
100
AcDbLine
 10
385.221448
 20
152.460237
 30
0.0
 11
380.375763
 21
154.6381799999998
 31
0.0
  0
ARC
  5
C066
330
BD52
100
AcDbEntity
  8
5
  6
PHANTOM
100
AcDbCircle
 10
384.2754799999998
 20
147.7972499999999
 30
0.0
 40
2.594708999999999
100
AcDbArc
 50
82.299123
 51
110.4658879999998
  0
ARC
  5
C067
330
BD52
100
AcDbEntity
  8
5
  6
PHANTOM
100
AcDbCircle
 10
2276.913418999999
 20
-4923.495986
 30
0.0
 40
5415.550781
100
AcDbArc
 50
110.4658879999998
 51
110.49842
  0
LINE
  5
C068
330
BD52
100
AcDbEntity
  8
5
  6
PHANTOM
100
AcDbLine
 10
385.2214329999998
 20
152.460237
 30
0.0
 11
384.623166
 21
150.3685619999999
 31
0.0
  0
ARC
  5
C069
330
BD52
100
AcDbEntity
  8
1
  6
Continuous
100
AcDbCircle
 10
386.1079529999998
 20
163.318361
 30
0.0
 40
6.739846
100
AcDbArc
 50
149.498421
 51
167.3987689999998
  0
ARC
  5
C06A
330
BD52
100
AcDbEntity
  8
1
  6
Continuous
100
AcDbCircle
 10
384.097349
 20
168.0702829999999
 30
0.0
 40
2.594708999999999
100
AcDbArc
 50
121.299128
 51
149.4658849999999
  0
LINE
  5
C06B
330
BD52
100
AcDbEntity
  8
1
  6
Continuous
100
AcDbLine
 10
381.897977
 20
172.2894149999999
 30
0.0
 11
382.749372
 21
170.287378
 31
0.0
  0
ARC
  5
C06C
330
BD52
100
AcDbEntity
  8
1
  6
Continuous
100
AcDbCircle
 10
5046.421598
 20
-2581.98915
 30
0.0
 40
5415.550781
100
AcDbArc
 50
149.4658849999999
 51
149.498421
  0
ARC
  5
C06D
330
BD52
100
AcDbEntity
  8
1
  6
Continuous
100
AcDbCircle
 10
355.56178
 20
157.6822369999999
 30
0.0
 40
8.5
100
AcDbArc
 50
258.2104419999998
 51
40.37695
  0
ARC
  5
C06E
330
BD52
100
AcDbEntity
  8
1
  6
Continuous
100
AcDbCircle
 10
355.2117799999999
 20
156.732237
 30
0.0
 40
7.5
100
AcDbArc
 50
244.0790989999999
 51
5.326703
  0
ARC
  5
C06F
330
BD52
100
AcDbEntity
  8
1
  6
Continuous
100
AcDbCircle
 10
357.1788649999998
 20
160.77953
 30
0.0
 40
12.0
100
AcDbArc
 50
218.02512
 51
244.0790989999999
  0
LINE
  5
C070
330
BD52
100
AcDbEntity
  8
1
  6
Continuous
100
AcDbLine
 10
330.8995949999999
 20
149.447488
 30
0.0
 11
323.467237
 21
140.339952
 31
0.0
  0
LINE
  5
C071
330
BD52
100
AcDbEntity
  8
1
  6
Continuous
100
AcDbLine
 10
324.815687
 20
139.160478
 30
0.0
 11
325.7596299999999
 21
140.2847089999999
 31
0.0
  0
ARC
  5
C072
330
BD52
100
AcDbEntity
  8
1
  6
Continuous
100
AcDbCircle
 10
326.4080789999998
 20
156.3512049999999
 30
0.0
 40
16.543596
100
AcDbArc
 50
271.0747809999999
 51
292.901647
  0
ARC
  5
C073
330
BD52
100
AcDbEntity
  8
1
  6
Continuous
100
AcDbCircle
 10
331.7066169999999
 20
152.3407759999998
 30
0.0
 40
3.003727999999998
100
AcDbArc
 50
254.414815
 51
275.4322649999999
  0
ARC
  5
C074
330
BD52
100
AcDbEntity
  8
1
  6
Continuous
100
AcDbCircle
 10
310.8262459999999
 20
193.235628
 30
0.0
 40
56.58425499999999
100
AcDbArc
 50
292.901647
 51
296.132919
  0
ARC
  5
C075
330
BD52
100
AcDbEntity
  8
1
  6
Continuous
100
AcDbCircle
 10
326.696592
 20
140.972802
 30
0.0
 40
1.162484
100
AcDbArc
 50
216.292623
 51
271.0747809999999
  0
LINE
  5
C076
330
BD52
100
AcDbEntity
  8
1
  6
Continuous
100
AcDbLine
 10
324.8156709999999
 20
139.160478
 30
0.0
 11
323.467237
 21
140.339944
 31
0.0
  0
LINE
  5
C077
330
BD52
100
AcDbEntity
  8
5
  6
PHANTOM
100
AcDbLine
 10
331.2133609999999
 20
166.8030409999998
 30
0.0
 11
319.7057779999998
 21
164.402498
 31
0.0
  0
LINE
  5
C078
330
BD52
100
AcDbEntity
  8
5
  6
PHANTOM
100
AcDbLine
 10
320.011457
 20
162.6372849999999
 30
0.0
 11
321.452535
 21
162.916932
 31
0.0
  0
ARC
  5
C079
330
BD52
100
AcDbEntity
  8
5
  6
PHANTOM
100
AcDbCircle
 10
343.1702089999999
 20
213.465394
 30
0.0
 40
56.58425499999999
100
AcDbArc
 50
253.9016499999999
 51
257.132924
  0
ARC
  5
C07A
330
BD52
100
AcDbEntity
  8
5
  6
PHANTOM
100
AcDbCircle
 10
333.6613439999998
 20
168.5436799999999
 30
0.0
 40
3.003727999999998
100
AcDbArc
 50
215.4148139999998
 51
236.4322789999999
  0
ARC
  5
C07B
330
BD52
100
AcDbEntity
  8
1
  6
Continuous
100
AcDbCircle
 10
220.543556
 20
90.093882
 30
0.0
 40
141.169928
100
AcDbArc
 50
30.017426
 51
36.666179
  0
ARC
  5
C07C
330
BD52
100
AcDbEntity
  8
5
  6
PHANTOM
100
AcDbCircle
 10
332.0674569999998
 20
174.994844
 30
0.0
 40
16.543596
100
AcDbArc
 50
232.0747789999999
 51
253.9016499999999
  0
LINE
  5
C07D
330
BD52
100
AcDbEntity
  8
5
  6
PHANTOM
100
AcDbLine
 10
320.011457
 20
162.637277
 30
0.0
 11
319.7057930000001
 21
164.402498
 31
0.0
  0
ARC
  5
C07E
330
BD52
100
AcDbEntity
  8
5
  6
PHANTOM
100
AcDbCircle
 10
322.613721
 20
162.8620159999998
 30
0.0
 40
1.162484
100
AcDbArc
 50
177.2926239999999
 51
232.0747789999999
  0
LINE
  5
C07F
330
BD52
100
AcDbEntity
  8
1
  6
Continuous
100
AcDbLine
 10
325.8617799999999
 20
228.682577
 30
0.0
 11
347.26178
 21
228.682577
 31
0.0
  0
LINE
  5
C080
330
BD52
100
AcDbEntity
  8
1
  6
Continuous
100
AcDbLine
 10
347.26178
 20
232.682577
 30
0.0
 11
325.8617799999999
 21
232.682577
 31
0.0
  0
LINE
  5
C081
330
BD52
100
AcDbEntity
  8
1
  6
Continuous
100
AcDbLine
 10
344.740833
 20
191.8012339999999
 30
0.0
 11
346.740829
 21
190.370238
 31
0.0
  0
LINE
  5
C082
330
BD52
100
AcDbEntity
  8
1
  6
Continuous
100
AcDbLine
 10
345.326616
 20
191.8012339999999
 30
0.0
 11
343.3266189999998
 21
190.370238
 31
0.0
  0
LINE
  5
C083
330
BD52
100
AcDbEntity
  8
1
  6
Continuous
100
AcDbLine
 10
343.3266189999998
 20
191.8012339999999
 30
0.0
 11
345.326616
 21
190.370238
 31
0.0
  0
LINE
  5
C084
330
BD52
100
AcDbEntity
  8
1
  6
Continuous
100
AcDbLine
 10
320.311899
 20
191.8011939999999
 30
0.0
 11
352.8118989999999
 21
191.8012739999998
 31
0.0
  0
LINE
  5
C085
330
BD52
100
AcDbEntity
  8
1
  6
Continuous
100
AcDbLine
 10
347.0617799999998
 20
204.1825929999999
 30
0.0
 11
326.0617799999999
 21
204.1825929999999
 31
0.0
  0
LINE
  5
C086
330
BD52
100
AcDbEntity
  8
1
  6
Continuous
100
AcDbLine
 10
351.2217799999998
 20
198.6824589999999
 30
0.0
 11
321.9017799999999
 21
198.6824589999999
 31
0.0
  0
LINE
  5
C087
330
BD52
100
AcDbEntity
  8
1
  6
Continuous
100
AcDbLine
 10
321.9017799999999
 20
195.7824589999999
 30
0.0
 11
351.2217799999998
 21
195.7824589999999
 31
0.0
  0
LINE
  5
C088
330
BD52
100
AcDbEntity
  8
1
  6
Continuous
100
AcDbLine
 10
352.071367
 20
193.722638
 30
0.0
 11
321.052234
 21
193.722638
 31
0.0
  0
LINE
  5
C089
330
BD52
100
AcDbEntity
  8
1
  6
Continuous
100
AcDbLine
 10
320.561619
 20
193.14695
 30
0.0
 11
352.56198
 21
193.14695
 31
0.0
  0
LINE
  5
C08A
330
BD52
100
AcDbEntity
  8
1
  6
Continuous
100
AcDbLine
 10
352.8312
 20
190.3702369999998
 30
0.0
 11
319.883502
 21
190.3702369999998
 31
0.0
  0
ARC
  5
C08B
330
BD52
100
AcDbEntity
  8
1
  6
Continuous
100
AcDbCircle
 10
299.751325
 20
214.3441999999998
 30
0.0
 40
47.31041199999999
100
AcDbArc
 50
347.597035
 51
17.642101
  0
LINE
  5
C08C
330
BD52
100
AcDbEntity
  8
1
  6
Continuous
100
AcDbLine
 10
351.2217799999998
 20
195.7823409999998
 30
0.0
 11
351.2217799999998
 21
198.6824589999999
 31
0.0
  0
LINE
  5
C08D
330
BD52
100
AcDbEntity
  8
1
  6
Continuous
100
AcDbLine
 10
359.5092799999998
 20
185.5300409999999
 30
0.0
 11
361.778237
 21
185.563798
 31
0.0
  0
ARC
  5
C08E
330
BD52
100
AcDbEntity
  8
1
  6
Continuous
100
AcDbCircle
 10
361.0946269999999
 20
186.210488
 30
0.0
 40
1.351175999999999
100
AcDbArc
 50
50.763314
 51
91.14576300000001
  0
ARC
  5
C08F
330
BD52
100
AcDbEntity
  8
1
  6
Continuous
100
AcDbCircle
 10
361.773095
 20
185.9094419999999
 30
0.0
 40
0.345682
100
AcDbArc
 50
270.852372
 51
313.097669
  0
LINE
  5
C090
330
BD52
100
AcDbEntity
  8
1
  6
Continuous
100
AcDbLine
 10
362.00928
 20
186.3420279999999
 30
0.0
 11
362.00928
 21
185.6570279999999
 31
0.0
  0
LINE
  5
C091
330
BD52
100
AcDbEntity
  8
1
  6
Continuous
100
AcDbLine
 10
361.9492799999999
 20
187.2570279999999
 30
0.0
 11
362.00928
 21
186.3420279999999
 31
0.0
  0
ARC
  5
C092
330
BD52
100
AcDbEntity
  8
1
  6
Continuous
100
AcDbCircle
 10
348.7608359999999
 20
193.2824589999999
 30
0.0
 40
2.5
100
AcDbArc
 50
10.141019
 51
90.0
  0
LINE
  5
C093
330
BD52
100
AcDbEntity
  8
1
  6
Continuous
100
AcDbLine
 10
350.98347
 20
191.8012339999999
 30
0.0
 11
348.983473
 21
190.370238
 31
0.0
  0
LINE
  5
C094
330
BD52
100
AcDbEntity
  8
1
  6
Continuous
100
AcDbLine
 10
348.983473
 20
191.8012339999999
 30
0.0
 11
350.98347
 21
190.370238
 31
0.0
  0
LINE
  5
C095
330
BD52
100
AcDbEntity
  8
1
  6
Continuous
100
AcDbLine
 10
350.397687
 20
191.8012339999999
 30
0.0
 11
352.3976829999999
 21
190.370238
 31
0.0
  0
LINE
  5
C096
330
BD52
100
AcDbEntity
  8
1
  6
Continuous
100
AcDbLine
 10
348.1550429999999
 20
191.8012339999999
 30
0.0
 11
346.1550459999998
 21
190.370238
 31
0.0
  0
LINE
  5
C097
330
BD52
100
AcDbEntity
  8
1
  6
Continuous
100
AcDbLine
 10
346.1550459999998
 20
191.8012339999999
 30
0.0
 11
348.1550429999999
 21
190.370238
 31
0.0
  0
LINE
  5
C098
330
BD52
100
AcDbEntity
  8
1
  6
Continuous
100
AcDbLine
 10
347.5692599999999
 20
191.8012339999999
 30
0.0
 11
349.569256
 21
190.370238
 31
0.0
  0
LINE
  5
C099
330
BD52
100
AcDbEntity
  8
1
  6
Continuous
100
AcDbLine
 10
352.8118989999999
 20
191.8012339999999
 30
0.0
 11
352.8118989999999
 21
190.370238
 31
0.0
  0
LINE
  5
C09A
330
BD52
100
AcDbEntity
  8
1
  6
Continuous
100
AcDbLine
 10
351.8118999999999
 20
191.8012339999999
 30
0.0
 11
352.8118989999999
 21
191.370236
 31
0.0
  0
ARC
  5
C09B
330
BD52
100
AcDbEntity
  8
1
  6
Continuous
100
AcDbCircle
 10
351.531469
 20
192.765626
 30
0.0
 40
1.098799999999998
100
AcDbArc
 50
20.306161
 51
60.57047500000001
  0
ARC
  5
C09C
330
BD52
100
AcDbEntity
  8
1
  6
Continuous
100
AcDbCircle
 10
350.2136049999998
 20
193.477837
 30
0.0
 40
2.371570999999998
100
AcDbArc
 50
315.0132779999998
 51
351.9797889999999
  0
LINE
  5
C09D
330
BD52
100
AcDbEntity
  8
1
  6
Continuous
100
AcDbLine
 10
351.8118999999999
 20
190.370238
 30
0.0
 11
352.8118989999999
 21
191.370236
 31
0.0
  0
LINE
  5
C09E
330
BD52
100
AcDbEntity
  8
1
  6
Continuous
100
AcDbLine
 10
357.2842799999999
 20
187.487028
 30
0.0
 11
357.8492799999998
 21
187.497028
 31
0.0
  0
LINE
  5
C09F
330
BD52
100
AcDbEntity
  8
1
  6
Continuous
100
AcDbLine
 10
356.68928
 20
187.5070279999999
 30
0.0
 11
357.2842799999999
 21
187.487028
 31
0.0
  0
LINE
  5
C0A0
330
BD52
100
AcDbEntity
  8
1
  6
Continuous
100
AcDbLine
 10
357.8492799999998
 20
187.497028
 30
0.0
 11
361.067608
 21
187.5613949999998
 31
0.0
  0
ARC
  5
C0A1
330
BD52
100
AcDbEntity
  8
1
  6
Continuous
100
AcDbCircle
 10
353.033592
 20
189.593062
 30
0.0
 40
2.042368999999998
100
AcDbArc
 50
199.821809
 51
269.3179399999999
  0
LINE
  5
C0A2
330
BD52
100
AcDbEntity
  8
1
  6
Continuous
100
AcDbLine
 10
355.6642799999999
 20
187.552028
 30
0.0
 11
355.8492799999998
 21
187.517028
 31
0.0
  0
LINE
  5
C0A3
330
BD52
100
AcDbEntity
  8
1
  6
Continuous
100
AcDbLine
 10
355.49428
 20
187.6370279999999
 30
0.0
 11
355.6642799999999
 21
187.552028
 31
0.0
  0
LINE
  5
C0A4
330
BD52
100
AcDbEntity
  8
1
  6
Continuous
100
AcDbLine
 10
355.1542799999999
 20
187.837028
 30
0.0
 11
355.49428
 21
187.6370279999999
 31
0.0
  0
LINE
  5
C0A5
330
BD52
100
AcDbEntity
  8
1
  6
Continuous
100
AcDbLine
 10
355.0092799999998
 20
188.272028
 30
0.0
 11
355.1542799999999
 21
187.837028
 31
0.0
  0
ARC
  5
C0A6
330
BD52
100
AcDbEntity
  8
1
  6
Continuous
100
AcDbCircle
 10
350.916095
 20
186.521835
 30
0.0
 40
4.451666999999998
100
AcDbArc
 50
23.150932
 51
38.25670199999999
  0
ARC
  5
C0A7
330
BD52
100
AcDbEntity
  8
1
  6
Continuous
100
AcDbCircle
 10
351.8469889999999
 20
187.2558689999999
 30
0.0
 40
3.266183999999998
100
AcDbArc
 50
38.25670199999999
 51
72.462293
  0
LINE
  5
C0A8
330
BD52
100
AcDbEntity
  8
1
  6
Continuous
100
AcDbLine
 10
353.0092799999998
 20
187.550838
 30
0.0
 11
356.68928
 21
187.5070279999999
 31
0.0
  0
ARC
  5
C0A9
330
BD52
100
AcDbEntity
  8
1
  6
Continuous
100
AcDbCircle
 10
345.56178
 20
200.182459
 30
0.0
 40
1.5
100
AcDbArc
 50
270.0
 51
0.0
  0
LINE
  5
C0AA
330
BD52
100
AcDbEntity
  8
1
  6
Continuous
100
AcDbLine
 10
347.0617799999998
 20
204.1825929999999
 30
0.0
 11
347.0617799999998
 21
200.182459
 31
0.0
  0
LINE
  5
C0AB
330
BD52
100
AcDbEntity
  8
1
  6
Continuous
100
AcDbLine
 10
347.26178
 20
228.682577
 30
0.0
 11
347.26178
 21
232.682577
 31
0.0
  0
ARC
  5
C0AC
330
BD52
100
AcDbEntity
  8
1
  6
Continuous
100
AcDbCircle
 10
373.3722379999999
 20
214.3441999999998
 30
0.0
 40
47.31041199999999
100
AcDbArc
 50
162.357899
 51
192.402965
  0
LINE
  5
C0AD
330
BD52
100
AcDbEntity
  8
1
  6
Continuous
100
AcDbLine
 10
321.9017799999999
 20
195.7823409999998
 30
0.0
 11
321.9017799999999
 21
198.6824589999999
 31
0.0
  0
LINE
  5
C0AE
330
BD52
100
AcDbEntity
  8
1
  6
Continuous
100
AcDbLine
 10
329.2317799999999
 20
198.6824589999999
 30
0.0
 11
329.2317799999999
 21
195.782415
 31
0.0
  0
LINE
  5
C0AF
330
BD52
100
AcDbEntity
  8
1
  6
Continuous
100
AcDbLine
 10
343.89178
 20
198.6824589999999
 30
0.0
 11
343.89178
 21
195.782415
 31
0.0
  0
LINE
  5
C0B0
330
BD52
100
AcDbEntity
  8
1
  6
Continuous
100
AcDbLine
 10
327.7702699999999
 20
191.8012339999999
 30
0.0
 11
329.770266
 21
190.370238
 31
0.0
  0
LINE
  5
C0B1
330
BD52
100
AcDbEntity
  8
1
  6
Continuous
100
AcDbLine
 10
331.18448
 20
191.8012339999999
 30
0.0
 11
329.184483
 21
190.370238
 31
0.0
  0
LINE
  5
C0B2
330
BD52
100
AcDbEntity
  8
1
  6
Continuous
100
AcDbLine
 10
329.184483
 20
191.8012339999999
 30
0.0
 11
331.18448
 21
190.370238
 31
0.0
  0
LINE
  5
C0B3
330
BD52
100
AcDbEntity
  8
1
  6
Continuous
100
AcDbLine
 10
334.0129069999999
 20
191.8012339999999
 30
0.0
 11
332.0129109999998
 21
190.370238
 31
0.0
  0
LINE
  5
C0B4
330
BD52
100
AcDbEntity
  8
1
  6
Continuous
100
AcDbLine
 10
330.598697
 20
191.8012339999999
 30
0.0
 11
332.598693
 21
190.370238
 31
0.0
  0
LINE
  5
C0B5
330
BD52
100
AcDbEntity
  8
1
  6
Continuous
100
AcDbLine
 10
332.0129109999998
 20
191.8012339999999
 30
0.0
 11
334.0129069999999
 21
190.370238
 31
0.0
  0
LINE
  5
C0B6
330
BD52
100
AcDbEntity
  8
1
  6
Continuous
100
AcDbLine
 10
333.427124
 20
191.8012339999999
 30
0.0
 11
335.427121
 21
190.370238
 31
0.0
  0
LINE
  5
C0B7
330
BD52
100
AcDbEntity
  8
1
  6
Continuous
100
AcDbLine
 10
342.4981879999999
 20
191.8012339999999
 30
0.0
 11
340.498192
 21
190.370238
 31
0.0
  0
LINE
  5
C0B8
330
BD52
100
AcDbEntity
  8
1
  6
Continuous
100
AcDbLine
 10
339.083978
 20
191.8012339999999
 30
0.0
 11
341.083975
 21
190.370238
 31
0.0
  0
LINE
  5
C0B9
330
BD52
100
AcDbEntity
  8
1
  6
Continuous
100
AcDbLine
 10
340.498192
 20
191.8012339999999
 30
0.0
 11
342.4981879999999
 21
190.370238
 31
0.0
  0
LINE
  5
C0BA
330
BD52
100
AcDbEntity
  8
1
  6
Continuous
100
AcDbLine
 10
341.9124059999999
 20
191.8012339999999
 30
0.0
 11
343.9124019999999
 21
190.370238
 31
0.0
  0
LINE
  5
C0BB
330
BD52
100
AcDbEntity
  8
1
  6
Continuous
100
AcDbLine
 10
339.6697609999999
 20
191.8012339999999
 30
0.0
 11
337.669765
 21
190.370238
 31
0.0
  0
LINE
  5
C0BC
330
BD52
100
AcDbEntity
  8
1
  6
Continuous
100
AcDbLine
 10
337.669765
 20
191.8012339999999
 30
0.0
 11
339.6697609999999
 21
190.370238
 31
0.0
  0
LINE
  5
C0BD
330
BD52
100
AcDbEntity
  8
1
  6
Continuous
100
AcDbLine
 10
336.2555509999999
 20
191.8012339999999
 30
0.0
 11
338.2555479999999
 21
190.370238
 31
0.0
  0
LINE
  5
C0BE
330
BD52
100
AcDbEntity
  8
1
  6
Continuous
100
AcDbLine
 10
336.8413339999999
 20
191.8012339999999
 30
0.0
 11
334.841338
 21
190.370238
 31
0.0
  0
LINE
  5
C0BF
330
BD52
100
AcDbEntity
  8
1
  6
Continuous
100
AcDbLine
 10
334.841338
 20
191.8012339999999
 30
0.0
 11
336.8413339999999
 21
190.370238
 31
0.0
  0
LINE
  5
C0C0
330
BD52
100
AcDbEntity
  8
1
  6
Continuous
100
AcDbLine
 10
320.311899
 20
191.8012339999999
 30
0.0
 11
320.311899
 21
190.370238
 31
0.0
  0
ARC
  5
C0C1
330
BD52
100
AcDbEntity
  8
1
  6
Continuous
100
AcDbCircle
 10
324.362723
 20
193.2824589999999
 30
0.0
 40
2.5
100
AcDbArc
 50
90.0
 51
169.858981
  0
LINE
  5
C0C2
330
BD52
100
AcDbEntity
  8
1
  6
Continuous
100
AcDbLine
 10
325.527626
 20
191.8012339999999
 30
0.0
 11
323.5276289999998
 21
190.370238
 31
0.0
  0
LINE
  5
C0C3
330
BD52
100
AcDbEntity
  8
1
  6
Continuous
100
AcDbLine
 10
323.5276289999998
 20
191.8012339999999
 30
0.0
 11
325.527626
 21
190.370238
 31
0.0
  0
LINE
  5
C0C4
330
BD52
100
AcDbEntity
  8
1
  6
Continuous
100
AcDbLine
 10
328.3560529999999
 20
191.8012339999999
 30
0.0
 11
326.356056
 21
190.370238
 31
0.0
  0
LINE
  5
C0C5
330
BD52
100
AcDbEntity
  8
1
  6
Continuous
100
AcDbLine
 10
324.9418429999999
 20
191.8012339999999
 30
0.0
 11
326.941839
 21
190.370238
 31
0.0
  0
LINE
  5
C0C6
330
BD52
100
AcDbEntity
  8
1
  6
Continuous
100
AcDbLine
 10
326.356056
 20
191.8012339999999
 30
0.0
 11
328.3560529999999
 21
190.370238
 31
0.0
  0
LINE
  5
C0C7
330
BD52
100
AcDbEntity
  8
1
  6
Continuous
100
AcDbLine
 10
322.699199
 20
191.8012339999999
 30
0.0
 11
320.699202
 21
190.370238
 31
0.0
  0
LINE
  5
C0C8
330
BD52
100
AcDbEntity
  8
1
  6
Continuous
100
AcDbLine
 10
320.699202
 20
191.8012339999999
 30
0.0
 11
322.699199
 21
190.370238
 31
0.0
  0
LINE
  5
C0C9
330
BD52
100
AcDbEntity
  8
1
  6
Continuous
100
AcDbLine
 10
322.1134159999999
 20
191.8012339999999
 30
0.0
 11
324.1134119999999
 21
190.370238
 31
0.0
  0
ARC
  5
C0CA
330
BD52
100
AcDbEntity
  8
1
  6
Continuous
100
AcDbCircle
 10
321.592131
 20
192.765626
 30
0.0
 40
1.098799999999998
100
AcDbArc
 50
119.429525
 51
159.693839
  0
ARC
  5
C0CB
330
BD52
100
AcDbEntity
  8
1
  6
Continuous
100
AcDbCircle
 10
322.9099939999999
 20
193.477837
 30
0.0
 40
2.371570999999998
100
AcDbArc
 50
188.020211
 51
224.9892999999999
  0
LINE
  5
C0CC
330
BD52
100
AcDbEntity
  8
1
  6
Continuous
100
AcDbLine
 10
320.311899
 20
191.3433239999999
 30
0.0
 11
321.284985
 21
190.370238
 31
0.0
  0
LINE
  5
C0CD
330
BD52
100
AcDbEntity
  8
1
  6
Continuous
100
AcDbLine
 10
317.7117799999999
 20
183.6743669999999
 30
0.0
 11
318.04836
 21
187.7889979999999
 31
0.0
  0
LINE
  5
C0CE
330
BD52
100
AcDbEntity
  8
1
  6
Continuous
100
AcDbLine
 10
317.9622799999999
 20
183.6743669999999
 30
0.0
 11
317.7117799999999
 21
183.6743669999999
 31
0.0
  0
LINE
  5
C0CF
330
BD52
100
AcDbEntity
  8
1
  6
Continuous
100
AcDbLine
 10
318.7112799999998
 20
183.6320279999999
 30
0.0
 11
319.37628
 21
183.5870279999998
 31
0.0
  0
ARC
  5
C0D0
330
BD52
100
AcDbEntity
  8
1
  6
Continuous
100
AcDbCircle
 10
320.781266
 20
187.7889979999999
 30
0.0
 40
2.732905
100
AcDbArc
 50
109.1778389999999
 51
180.0
  0
LINE
  5
C0D1
330
BD52
100
AcDbEntity
  8
1
  6
Continuous
100
AcDbLine
 10
317.9622799999999
 20
183.6743669999999
 30
0.0
 11
318.7112799999998
 21
183.6320279999999
 31
0.0
  0
LINE
  5
C0D2
330
BD52
100
AcDbEntity
  8
1
  6
Continuous
100
AcDbLine
 10
319.5992799999999
 20
183.647028
 30
0.0
 11
323.182161
 21
183.647028
 31
0.0
  0
LINE
  5
C0D3
330
BD52
100
AcDbEntity
  8
1
  6
Continuous
100
AcDbLine
 10
319.37628
 20
183.5870279999998
 30
0.0
 11
319.5992799999999
 21
183.647028
 31
0.0
  0
ARC
  5
C0D4
330
BD52
100
AcDbEntity
  8
1
  6
Continuous
100
AcDbCircle
 10
323.182161
 20
178.144123
 30
0.0
 40
5.502905999999999
100
AcDbArc
 50
45.952998
 51
90.0
  0
ARC
  5
C0D5
330
BD52
100
AcDbEntity
  8
1
  6
Continuous
100
AcDbCircle
 10
327.56178
 20
200.182459
 30
0.0
 40
1.5
100
AcDbArc
 50
180.0
 51
270.0
  0
LINE
  5
C0D6
330
BD52
100
AcDbEntity
  8
1
  6
Continuous
100
AcDbLine
 10
326.0617799999999
 20
204.1825929999999
 30
0.0
 11
326.0617799999999
 21
200.182459
 31
0.0
  0
LINE
  5
C0D7
330
BD52
100
AcDbEntity
  8
1
  6
Continuous
100
AcDbLine
 10
332.561819
 20
233.182577
 30
0.0
 11
334.061819
 21
234.682577
 31
0.0
  0
LINE
  5
C0D8
330
BD52
100
AcDbEntity
  8
1
  6
Continuous
100
AcDbLine
 10
332.5617799999998
 20
232.682577
 30
0.0
 11
332.5617799999998
 21
233.182577
 31
0.0
  0
LINE
  5
C0D9
330
BD52
100
AcDbEntity
  8
2
  6
Continuous
100
AcDbLine
 10
333.2383
 20
233.8590579999999
 30
0.0
 11
333.2383
 21
232.682577
 31
0.0
  0
LINE
  5
C0DA
330
BD52
100
AcDbEntity
  8
1
  6
Continuous
100
AcDbLine
 10
340.5617799999999
 20
233.182577
 30
0.0
 11
339.06178
 21
234.682577
 31
0.0
  0
LINE
  5
C0DB
330
BD52
100
AcDbEntity
  8
1
  6
Continuous
100
AcDbLine
 10
340.5617799999999
 20
232.682577
 30
0.0
 11
340.5617799999999
 21
233.182577
 31
0.0
  0
LINE
  5
C0DC
330
BD52
100
AcDbEntity
  8
2
  6
Continuous
100
AcDbLine
 10
339.8852999999999
 20
233.859057
 30
0.0
 11
339.8852999999999
 21
232.682577
 31
0.0
  0
LINE
  5
C0DD
330
BD52
100
AcDbEntity
  8
1
  6
Continuous
100
AcDbLine
 10
332.5617799999998
 20
233.182577
 30
0.0
 11
340.5617799999999
 21
233.182577
 31
0.0
  0
LINE
  5
C0DE
330
BD52
100
AcDbEntity
  8
1
  6
Continuous
100
AcDbLine
 10
332.1540799999999
 20
232.682577
 30
0.0
 11
332.1540799999999
 21
228.682577
 31
0.0
  0
LINE
  5
C0DF
330
BD52
100
AcDbEntity
  8
1
  6
Continuous
100
AcDbLine
 10
340.96948
 20
232.682577
 30
0.0
 11
340.96948
 21
228.682577
 31
0.0
  0
LINE
  5
C0E0
330
BD52
100
AcDbEntity
  8
1
  6
Continuous
100
AcDbLine
 10
339.06178
 20
234.682577
 30
0.0
 11
334.061819
 21
234.682577
 31
0.0
  0
LINE
  5
C0E1
330
BD52
100
AcDbEntity
  8
1
  6
Continuous
100
AcDbLine
 10
325.8617799999999
 20
228.682577
 30
0.0
 11
325.8617799999999
 21
232.682577
 31
0.0
  0
CIRCLE
  5
C0E2
330
BD52
100
AcDbEntity
  8
1
  6
Continuous
100
AcDbCircle
 10
355.56178
 20
157.6822369999999
 30
0.0
 40
4.25
  0
LINE
  5
C0E3
330
BD52
100
AcDbEntity
  8
1
  6
Continuous
100
AcDbLine
 10
138.165027
 20
274.7864619999999
 30
0.0
 11
128.165027
 21
274.7864619999999
 31
0.0
  0
ARC
  5
C0E4
330
BD52
100
AcDbEntity
  8
1
  6
Continuous
100
AcDbCircle
 10
135.665027
 20
282.011754
 30
0.0
 40
7.225291999999997
100
AcDbArc
 50
249.7567339999999
 51
290.243266
  0
LINE
  5
C0E5
330
BD52
100
AcDbEntity
  8
1
  6
Continuous
100
AcDbLine
 10
66.266049
 20
159.5820379999999
 30
0.0
 11
64.366049
 21
157.6820379999998
 31
0.0
  0
ARC
  5
C0E6
330
BD52
100
AcDbEntity
  8
1
  6
Continuous
100
AcDbCircle
 10
75.826998
 20
157.682538
 30
0.0
 40
9.560949
100
AcDbArc
 50
162.4247879999998
 51
197.5752119999999
  0
ARC
  5
C0E7
330
BD52
100
AcDbEntity
  8
1
  6
Continuous
100
AcDbCircle
 10
60.305101
 20
157.682538
 30
0.0
 40
9.560949
100
AcDbArc
 50
342.4247879999999
 51
17.575212
  0
LINE
  5
C0E8
330
BD52
100
AcDbEntity
  8
1
  6
Continuous
100
AcDbLine
 10
71.36584899999999
 20
160.1405379999999
 30
0.0
 11
71.36584899999999
 21
155.2235379999999
 31
0.0
  0
LINE
  5
C0E9
330
BD52
100
AcDbEntity
  8
1
  6
Continuous
100
AcDbLine
 10
70.82434899999999
 20
160.6820379999998
 30
0.0
 11
70.82434899999999
 21
154.6820379999998
 31
0.0
  0
LINE
  5
C0EA
330
BD52
100
AcDbEntity
  8
1
  6
Continuous
100
AcDbLine
 10
66.266049
 20
163.7820379999998
 30
0.0
 11
66.266049
 21
151.5820379999999
 31
0.0
  0
LINE
  5
C0EB
330
BD52
100
AcDbEntity
  8
1
  6
Continuous
100
AcDbLine
 10
69.866049
 20
162.6825379999999
 30
0.0
 11
69.866049
 21
152.6815379999999
 31
0.0
  0
ARC
  5
C0EC
330
BD52
100
AcDbEntity
  8
1
  6
Continuous
100
AcDbCircle
 10
130.665027
 20
271.16117
 30
0.0
 40
7.225291999999997
100
AcDbArc
 50
69.75673399999999
 51
110.2432659999999
  0
ARC
  5
C0ED
330
BD52
100
AcDbEntity
  8
1
  6
Continuous
100
AcDbCircle
 10
130.665027
 20
282.011754
 30
0.0
 40
7.225291999999997
100
AcDbArc
 50
249.7567339999999
 51
290.243266
  0
LINE
  5
C0EE
330
BD52
100
AcDbEntity
  8
1
  6
Continuous
100
AcDbLine
 10
128.165027
 20
278.386462
 30
0.0
 11
128.165027
 21
274.7864619999999
 31
0.0
  0
ARC
  5
C0EF
330
BD52
100
AcDbEntity
  8
1
  6
Continuous
100
AcDbCircle
 10
135.665027
 20
271.16117
 30
0.0
 40
7.225291999999997
100
AcDbArc
 50
69.75673399999999
 51
110.2432659999999
  0
LINE
  5
C0F0
330
BD52
100
AcDbEntity
  8
1
  6
Continuous
100
AcDbLine
 10
133.165027
 20
275.232754
 30
0.0
 11
133.165027
 21
277.94017
 31
0.0
  0
LINE
  5
C0F1
330
BD52
100
AcDbEntity
  8
2
  6
Continuous
100
AcDbLine
 10
135.6235269999999
 20
273.2866619999999
 30
0.0
 11
135.6235269999999
 21
274.7864619999999
 31
0.0
  0
LINE
  5
C0F2
330
BD52
100
AcDbEntity
  8
1
  6
Continuous
100
AcDbLine
 10
136.165027
 20
273.828162
 30
0.0
 11
136.165027
 21
274.7864619999999
 31
0.0
  0
LINE
  5
C0F3
330
BD52
100
AcDbEntity
  8
1
  6
Continuous
100
AcDbLine
 10
136.165027
 20
273.828162
 30
0.0
 11
130.165027
 21
273.828162
 31
0.0
  0
LINE
  5
C0F4
330
BD52
100
AcDbEntity
  8
1
  6
Continuous
100
AcDbLine
 10
135.6235269999999
 20
273.2866619999999
 30
0.0
 11
136.165027
 21
273.828162
 31
0.0
  0
LINE
  5
C0F5
330
BD52
100
AcDbEntity
  8
1
  6
Continuous
100
AcDbLine
 10
135.6235269999999
 20
273.2866619999999
 30
0.0
 11
130.706527
 21
273.2866619999999
 31
0.0
  0
LINE
  5
C0F6
330
BD52
100
AcDbEntity
  8
1
  6
Continuous
100
AcDbLine
 10
130.165027
 20
273.828162
 30
0.0
 11
130.165027
 21
274.7864619999999
 31
0.0
  0
LINE
  5
C0F7
330
BD52
100
AcDbEntity
  8
2
  6
Continuous
100
AcDbLine
 10
130.706527
 20
273.2866619999999
 30
0.0
 11
130.706527
 21
274.7864619999999
 31
0.0
  0
LINE
  5
C0F8
330
BD52
100
AcDbEntity
  8
1
  6
Continuous
100
AcDbLine
 10
130.706527
 20
273.2866619999999
 30
0.0
 11
130.165027
 21
273.828162
 31
0.0
  0
LINE
  5
C0F9
330
BD52
100
AcDbEntity
  8
1
  6
Continuous
100
AcDbLine
 10
135.0650269999999
 20
278.386462
 30
0.0
 11
133.165027
 21
280.2864619999999
 31
0.0
  0
LINE
  5
C0FA
330
BD52
100
AcDbEntity
  8
1
  6
Continuous
100
AcDbLine
 10
133.165027
 20
278.386462
 30
0.0
 11
131.265027
 21
280.2864619999999
 31
0.0
  0
LINE
  5
C0FB
330
BD52
100
AcDbEntity
  8
1
  6
Continuous
100
AcDbLine
 10
127.0650269999999
 20
278.386462
 30
0.0
 11
127.0650269999999
 21
280.2864619999999
 31
0.0
  0
LINE
  5
C0FC
330
BD52
100
AcDbEntity
  8
1
  6
Continuous
100
AcDbLine
 10
127.0650269999999
 20
278.386462
 30
0.0
 11
138.5961279999999
 21
278.386462
 31
0.0
  0
LINE
  5
C0FD
330
BD52
100
AcDbEntity
  8
1
  6
Continuous
100
AcDbLine
 10
66.266049
 20
157.6820379999998
 30
0.0
 11
64.366049
 21
155.782038
 31
0.0
  0
LINE
  5
C0FE
330
BD52
100
AcDbEntity
  8
1
  6
Continuous
100
AcDbLine
 10
66.266049
 20
151.5820379999999
 30
0.0
 11
64.366049
 21
151.5820379999999
 31
0.0
  0
LINE
  5
C0FF
330
BD52
100
AcDbEntity
  8
1
  6
Continuous
100
AcDbLine
 10
66.71234100000001
 20
154.7955379999999
 30
0.0
 11
69.419758
 21
154.7955379999999
 31
0.0
  0
LINE
  5
C100
330
BD52
100
AcDbEntity
  8
2
  6
Continuous
100
AcDbLine
 10
71.36584899999999
 20
155.2235379999999
 30
0.0
 11
69.866049
 21
155.2235379999999
 31
0.0
  0
LINE
  5
C101
330
BD52
100
AcDbEntity
  8
1
  6
Continuous
100
AcDbLine
 10
70.82434899999999
 20
154.6820379999998
 30
0.0
 11
69.866049
 21
154.6820379999998
 31
0.0
  0
LINE
  5
C102
330
BD52
100
AcDbEntity
  8
1
  6
Continuous
100
AcDbLine
 10
71.36584899999999
 20
155.2235379999999
 30
0.0
 11
70.82434899999999
 21
154.6820379999998
 31
0.0
  0
LINE
  5
C103
330
BD52
100
AcDbEntity
  8
1
  6
Continuous
100
AcDbLine
 10
66.71234100000001
 20
151.9085379999999
 30
0.0
 11
69.419758
 21
151.9085379999999
 31
0.0
  0
LINE
  5
C104
330
BD52
100
AcDbEntity
  8
1
  6
Continuous
100
AcDbLine
 10
66.266049
 20
152.6815379999999
 30
0.0
 11
66.71234100000001
 21
151.9085379999999
 31
0.0
  0
ARC
  5
C105
330
BD52
100
AcDbEntity
  8
1
  6
Continuous
100
AcDbCircle
 10
68.82204899999999
 20
153.3525379999999
 30
0.0
 40
2.55582
100
AcDbArc
 50
214.3528569999999
 51
214.3839999999999
  0
ARC
  5
C106
330
BD52
100
AcDbEntity
  8
1
  6
Continuous
100
AcDbCircle
 10
67.31004899999999
 20
153.3525379999999
 30
0.0
 40
2.55582
100
AcDbArc
 50
325.6159999999998
 51
325.647143
  0
LINE
  5
C107
330
BD52
100
AcDbEntity
  8
1
  6
Continuous
100
AcDbLine
 10
69.866049
 20
152.6815379999999
 30
0.0
 11
69.419758
 21
151.9085379999999
 31
0.0
  0
ARC
  5
C108
330
BD52
100
AcDbEntity
  8
1
  6
Continuous
100
AcDbCircle
 10
67.31006999999999
 20
153.3515379999998
 30
0.0
 40
2.555979999999999
100
AcDbArc
 50
334.371637
 51
34.371637
  0
ARC
  5
C109
330
BD52
100
AcDbEntity
  8
1
  6
Continuous
100
AcDbCircle
 10
68.822029
 20
153.3515379999998
 30
0.0
 40
2.555979999999999
100
AcDbArc
 50
145.6283629999998
 51
205.6283629999998
  0
LINE
  5
C10A
330
BD52
100
AcDbEntity
  8
1
  6
Continuous
100
AcDbLine
 10
66.266049
 20
163.7820379999998
 30
0.0
 11
64.366049
 21
163.7820379999998
 31
0.0
  0
LINE
  5
C10B
330
BD52
100
AcDbEntity
  8
1
  6
Continuous
100
AcDbLine
 10
66.71234100000001
 20
163.4555379999999
 30
0.0
 11
69.419758
 21
163.4555379999999
 31
0.0
  0
LINE
  5
C10C
330
BD52
100
AcDbEntity
  8
1
  6
Continuous
100
AcDbLine
 10
66.71234100000001
 20
160.569538
 30
0.0
 11
69.419758
 21
160.569538
 31
0.0
  0
LINE
  5
C10D
330
BD52
100
AcDbEntity
  8
1
  6
Continuous
100
AcDbLine
 10
66.266049
 20
162.6825379999999
 30
0.0
 11
66.71234100000001
 21
163.4555379999999
 31
0.0
  0
ARC
  5
C10E
330
BD52
100
AcDbEntity
  8
1
  6
Continuous
100
AcDbCircle
 10
68.822029
 20
162.0125379999998
 30
0.0
 40
2.555979999999999
100
AcDbArc
 50
154.371637
 51
214.371637
  0
LINE
  5
C10F
330
BD52
100
AcDbEntity
  8
1
  6
Continuous
100
AcDbLine
 10
69.866049
 20
162.6825379999999
 30
0.0
 11
69.419758
 21
163.4555379999999
 31
0.0
  0
ARC
  5
C110
330
BD52
100
AcDbEntity
  8
1
  6
Continuous
100
AcDbCircle
 10
67.31006999999999
 20
162.0125379999998
 30
0.0
 40
2.555979999999999
100
AcDbArc
 50
325.6283629999999
 51
25.628363
  0
LINE
  5
C111
330
BD52
100
AcDbEntity
  8
2
  6
Continuous
100
AcDbLine
 10
71.36584899999999
 20
160.1405379999999
 30
0.0
 11
69.866049
 21
160.1405379999999
 31
0.0
  0
LINE
  5
C112
330
BD52
100
AcDbEntity
  8
1
  6
Continuous
100
AcDbLine
 10
70.82434899999999
 20
160.6820379999998
 30
0.0
 11
69.866049
 21
160.6820379999998
 31
0.0
  0
LINE
  5
C113
330
BD52
100
AcDbEntity
  8
1
  6
Continuous
100
AcDbLine
 10
71.36584899999999
 20
160.1405379999999
 30
0.0
 11
70.82434899999999
 21
160.6820379999998
 31
0.0
  0
LINE
  5
C114
330
BD52
100
AcDbEntity
  8
1
  6
Continuous
100
AcDbLine
 10
138.1646259999999
 20
154.7952369999999
 30
0.0
 11
138.1646259999999
 21
160.5692369999999
 31
0.0
  0
LINE
  5
C115
330
BD52
100
AcDbEntity
  8
1
  6
Continuous
100
AcDbLine
 10
128.164626
 20
154.7952369999999
 30
0.0
 11
128.164626
 21
160.5692369999999
 31
0.0
  0
CIRCLE
  5
C116
330
BD52
100
AcDbEntity
  8
1
  6
Continuous
100
AcDbCircle
 10
133.164626
 20
157.6822369999999
 30
0.0
 40
3.0
  0
CIRCLE
  5
C117
330
BD52
100
AcDbEntity
  8
1
  6
Continuous
100
AcDbCircle
 10
133.164626
 20
157.6822369999999
 30
0.0
 40
5.0
  0
CIRCLE
  5
C118
330
BD52
100
AcDbEntity
  8
1
  6
Continuous
100
AcDbCircle
 10
133.164626
 20
157.6822369999999
 30
0.0
 40
6.099999999999997
  0
LINE
  5
C119
330
BD52
100
AcDbEntity
  8
1
  6
Continuous
100
AcDbLine
 10
138.165027
 20
278.386462
 30
0.0
 11
138.165027
 21
274.7864619999999
 31
0.0
  0
LINE
  5
C11A
330
BD52
100
AcDbEntity
  8
1
  6
Continuous
100
AcDbLine
 10
138.1646259999999
 20
154.7952369999999
 30
0.0
 11
133.164626
 21
151.908237
 31
0.0
  0
CIRCLE
  5
C11B
330
BD52
100
AcDbEntity
  8
2
  6
Continuous
100
AcDbCircle
 10
133.164626
 20
157.6822369999999
 30
0.0
 40
2.458499999999999
  0
LINE
  5
C11C
330
BD52
100
AcDbEntity
  8
1
  6
Continuous
100
AcDbLine
 10
128.164626
 20
154.7952369999999
 30
0.0
 11
133.164626
 21
151.908237
 31
0.0
  0
LINE
  5
C11D
330
BD52
100
AcDbEntity
  8
1
  6
Continuous
100
AcDbLine
 10
133.164626
 20
163.455237
 30
0.0
 11
138.1646259999999
 21
160.5692369999999
 31
0.0
  0
LINE
  5
C11E
330
BD52
100
AcDbEntity
  8
1
  6
Continuous
100
AcDbLine
 10
133.164626
 20
163.455237
 30
0.0
 11
128.164626
 21
160.5692369999999
 31
0.0
  0
LINE
  5
C11F
330
BD52
100
AcDbEntity
  8
1
  6
Continuous
100
AcDbLine
 10
127.064626
 20
88.409852
 30
0.0
 11
137.6849879999997
 21
88.409852
 31
0.0
  0
ARC
  5
C120
330
BD52
100
AcDbEntity
  8
1
  6
Continuous
100
AcDbCircle
 10
130.6646259999999
 20
84.78455999999999
 30
0.0
 40
7.225291999999997
100
AcDbArc
 50
69.75673399999999
 51
110.2432659999999
  0
ARC
  5
C121
330
BD52
100
AcDbEntity
  8
1
  6
Continuous
100
AcDbCircle
 10
130.6646259999999
 20
95.635144
 30
0.0
 40
7.225291999999997
100
AcDbArc
 50
249.7567339999999
 51
290.243266
  0
LINE
  5
C122
330
BD52
100
AcDbEntity
  8
1
  6
Continuous
100
AcDbLine
 10
138.1646259999999
 20
92.00985199999999
 30
0.0
 11
128.164626
 21
92.00985199999999
 31
0.0
  0
LINE
  5
C123
330
BD52
100
AcDbEntity
  8
1
  6
Continuous
100
AcDbLine
 10
127.064626
 20
88.409852
 30
0.0
 11
127.064626
 21
86.50985199999999
 31
0.0
  0
LINE
  5
C124
330
BD52
100
AcDbEntity
  8
1
  6
Continuous
100
AcDbLine
 10
128.164626
 20
88.409852
 30
0.0
 11
128.164626
 21
92.00985199999999
 31
0.0
  0
LINE
  5
C125
330
BD52
100
AcDbEntity
  8
1
  6
Continuous
100
AcDbLine
 10
138.1646259999999
 20
89.051187
 30
0.0
 11
138.1646259999999
 21
92.00985199999999
 31
0.0
  0
LINE
  5
C126
330
BD52
100
AcDbEntity
  8
1
  6
Continuous
100
AcDbLine
 10
133.164626
 20
88.409852
 30
0.0
 11
135.0646259999997
 21
86.50985199999999
 31
0.0
  0
LINE
  5
C127
330
BD52
100
AcDbEntity
  8
1
  6
Continuous
100
AcDbLine
 10
131.2646259999999
 20
88.409852
 30
0.0
 11
133.164626
 21
86.50985199999999
 31
0.0
  0
LINE
  5
C128
330
BD52
100
AcDbEntity
  8
1
  6
Continuous
100
AcDbLine
 10
130.706126
 20
93.509652
 30
0.0
 11
130.164626
 21
92.96815200000001
 31
0.0
  0
LINE
  5
C129
330
BD52
100
AcDbEntity
  8
2
  6
Continuous
100
AcDbLine
 10
130.706126
 20
93.509652
 30
0.0
 11
130.706126
 21
92.00985199999999
 31
0.0
  0
LINE
  5
C12A
330
BD52
100
AcDbEntity
  8
1
  6
Continuous
100
AcDbLine
 10
130.164626
 20
92.96815200000001
 30
0.0
 11
130.164626
 21
92.00985199999999
 31
0.0
  0
LINE
  5
C12B
330
BD52
100
AcDbEntity
  8
1
  6
Continuous
100
AcDbLine
 10
135.623126
 20
93.509652
 30
0.0
 11
130.706126
 21
93.509652
 31
0.0
  0
LINE
  5
C12C
330
BD52
100
AcDbEntity
  8
1
  6
Continuous
100
AcDbLine
 10
135.623126
 20
93.509652
 30
0.0
 11
136.164626
 21
92.96815200000001
 31
0.0
  0
LINE
  5
C12D
330
BD52
100
AcDbEntity
  8
1
  6
Continuous
100
AcDbLine
 10
136.164626
 20
92.96815200000001
 30
0.0
 11
130.164626
 21
92.96815200000001
 31
0.0
  0
LINE
  5
C12E
330
BD52
100
AcDbEntity
  8
1
  6
Continuous
100
AcDbLine
 10
136.164626
 20
92.96815200000001
 30
0.0
 11
136.164626
 21
92.00985199999999
 31
0.0
  0
LINE
  5
C12F
330
BD52
100
AcDbEntity
  8
2
  6
Continuous
100
AcDbLine
 10
135.623126
 20
93.509652
 30
0.0
 11
135.623126
 21
92.00985199999999
 31
0.0
  0
LINE
  5
C130
330
BD52
100
AcDbEntity
  8
1
  6
Continuous
100
AcDbLine
 10
133.164626
 20
91.56356
 30
0.0
 11
133.164626
 21
88.85614399999999
 31
0.0
  0
ARC
  5
C131
330
BD52
100
AcDbEntity
  8
1
  6
Continuous
100
AcDbCircle
 10
135.6646259999999
 20
95.635144
 30
0.0
 40
7.225291999999997
100
AcDbArc
 50
249.7567339999999
 51
288.2942969999998
  0
ARC
  5
C132
330
BD52
100
AcDbEntity
  8
1
  6
Continuous
100
AcDbCircle
 10
135.6646259999999
 20
84.78455999999999
 30
0.0
 40
7.225291999999997
100
AcDbArc
 50
69.75673399999999
 51
110.2432659999999
  0
ARC
  5
C133
330
BD52
100
AcDbEntity
  8
1
  6
Continuous
100
AcDbCircle
 10
133.164626
 20
157.6822369999999
 30
0.0
 40
25.0
100
AcDbArc
 50
163.4853389999999
 51
322.4205609999998
  0
ARC
  5
C134
330
BD52
100
AcDbEntity
  8
1
  6
Continuous
100
AcDbCircle
 10
133.164626
 20
157.6822369999999
 30
0.0
 40
17.5
100
AcDbArc
 50
182.0292169999999
 51
318.8861289999999
  0
ARC
  5
C135
330
BD52
100
AcDbEntity
  8
1
  6
Continuous
100
AcDbCircle
 10
133.164626
 20
157.6822369999999
 30
0.0
 40
17.5
100
AcDbArc
 50
23.79675099999999
 51
26.47566499999999
  0
ARC
  5
C136
330
BD52
100
AcDbEntity
  8
1
  6
Continuous
100
AcDbCircle
 10
133.164626
 20
157.6822369999999
 30
0.0
 40
25.0
100
AcDbArc
 50
340.5327529999999
 51
35.83806699999998
  0
ARC
  5
C137
330
BD52
100
AcDbEntity
  8
1
  6
Continuous
100
AcDbCircle
 10
240.7727219999999
 20
174.074811
 30
0.0
 40
13.262575
100
AcDbArc
 50
133.679923
 51
175.810882
  0
LINE
  5
C138
330
BD52
100
AcDbEntity
  8
1
  6
Continuous
100
AcDbLine
 10
227.5455799999999
 20
175.043628
 30
0.0
 11
227.5455799999999
 21
167.8554389999999
 31
0.0
  0
ARC
  5
C139
330
BD52
100
AcDbEntity
  8
1
  6
Continuous
100
AcDbCircle
 10
254.25534
 20
168.3247439999998
 30
0.0
 40
26.713884
100
AcDbArc
 50
181.006615
 51
208.187026
  0
ARC
  5
C13A
330
BD52
100
AcDbEntity
  8
1
  6
Continuous
100
AcDbCircle
 10
221.89534
 20
150.9828979999998
 30
0.0
 40
10.0
100
AcDbArc
 50
4.594682999999998
 51
28.18702599999999
  0
LINE
  5
C13B
330
BD52
100
AcDbEntity
  8
1
  6
Continuous
100
AcDbLine
 10
231.8632029999999
 20
183.589424
 30
0.0
 11
231.8632029999999
 21
149.2453159999998
 31
0.0
  0
LINE
  5
C13C
330
BD52
100
AcDbEntity
  8
1
  6
Continuous
100
AcDbLine
 10
231.8632029999999
 20
149.2453159999998
 30
0.0
 11
228.8250319999999
 21
149.2453159999998
 31
0.0
  0
ARC
  5
C13D
330
BD52
100
AcDbEntity
  8
1
  6
Continuous
100
AcDbCircle
 10
219.8629629999998
 20
150.097637
 30
0.0
 40
10.0
100
AcDbArc
 50
355.1106259999999
 51
28.18702599999999
  0
ARC
  5
C13E
330
BD52
100
AcDbEntity
  8
1
  6
Continuous
100
AcDbCircle
 10
252.222963
 20
167.4394839999999
 30
0.0
 40
26.713884
100
AcDbArc
 50
181.006615
 51
208.187026
  0
ARC
  5
C13F
330
BD52
100
AcDbEntity
  8
1
  6
Continuous
100
AcDbCircle
 10
226.7569169999999
 20
188.782426
 30
0.0
 40
19.356407
100
AcDbArc
 50
255.410175
 51
266.3160179999999
  0
LINE
  5
C140
330
BD52
100
AcDbEntity
  8
1
  6
Continuous
100
AcDbLine
 10
221.256917
 20
170.8576209999999
 30
0.0
 11
221.256917
 21
169.426026
 31
0.0
  0
ARC
  5
C141
330
BD52
100
AcDbEntity
  8
1
  6
Continuous
100
AcDbCircle
 10
226.7569169999999
 20
187.350831
 30
0.0
 40
19.356407
100
AcDbArc
 50
255.410175
 51
266.3160179999999
  0
LINE
  5
C142
330
BD52
100
AcDbEntity
  8
1
  6
Continuous
100
AcDbLine
 10
229.307338
 20
153.384548
 30
0.0
 11
227.2287339999998
 21
152.414567
 31
0.0
  0
LINE
  5
C143
330
BD52
100
AcDbEntity
  8
1
  6
Continuous
100
AcDbLine
 10
229.4357349999999
 20
152.9893559999999
 30
0.0
 11
228.429814
 21
152.5199439999999
 31
0.0
  0
LINE
  5
C144
330
BD52
100
AcDbEntity
  8
1
  6
Continuous
100
AcDbLine
 10
228.148583
 20
155.8612369999999
 30
0.0
 11
227.2469679999999
 21
155.8612369999999
 31
0.0
  0
ARC
  5
C145
330
BD52
100
AcDbEntity
  8
1
  6
Continuous
100
AcDbCircle
 10
229.126347
 20
138.4024359999999
 30
0.0
 40
1.0
100
AcDbArc
 50
6.881516
 51
82.629368
  0
LINE
  5
C146
330
BD52
100
AcDbEntity
  8
1
  6
Continuous
100
AcDbLine
 10
228.271229
 20
137.0817879999999
 30
0.0
 11
230.2710459999999
 21
137.2635959999997
 31
0.0
  0
LINE
  5
C147
330
BD52
100
AcDbEntity
  8
1
  6
Continuous
100
AcDbLine
 10
228.429829
 20
152.5199439999999
 30
0.0
 11
230.271062
 21
137.263581
 31
0.0
  0
ARC
  5
C148
330
BD52
100
AcDbEntity
  8
1
  6
Continuous
100
AcDbCircle
 10
227.027516
 20
147.4472969999998
 30
0.0
 40
2.0
100
AcDbArc
 50
6.881516
 51
90.00000300000001
  0
ARC
  5
C149
330
BD52
100
AcDbEntity
  8
1
  6
Continuous
100
AcDbCircle
 10
220.8739519999999
 20
144.893525
 30
0.0
 40
4.020926
100
AcDbArc
 50
129.6233039999999
 51
230.3767119999998
  0
ARC
  5
C14A
330
BD52
100
AcDbEntity
  8
1
  6
Continuous
100
AcDbCircle
 10
222.353032
 20
145.5004739999999
 30
0.0
 40
6.340179
100
AcDbArc
 50
230.376698
 51
262.629318
  0
ARC
  5
C14B
330
BD52
100
AcDbEntity
  8
1
  6
Continuous
100
AcDbCircle
 10
222.353032
 20
146.6799319999998
 30
0.0
 40
6.340179
100
AcDbArc
 50
230.376698
 51
262.674645
  0
LINE
  5
C14C
330
BD52
100
AcDbEntity
  8
1
  6
Continuous
100
AcDbLine
 10
229.2546429999999
 20
139.3941659999998
 30
0.0
 11
221.5446369999999
 21
140.391501
 31
0.0
  0
LINE
  5
C14D
330
BD52
100
AcDbEntity
  8
1
  6
Continuous
100
AcDbLine
 10
216.8530319999999
 20
144.893525
 30
0.0
 11
216.8530319999999
 21
143.714051
 31
0.0
  0
LINE
  5
C14E
330
BD52
100
AcDbEntity
  8
1
  6
Continuous
100
AcDbLine
 10
228.11675
 20
138.3618779999999
 30
0.0
 11
221.5396619999999
 21
139.2126619999999
 31
0.0
  0
LINE
  5
C14F
330
BD52
100
AcDbEntity
  8
1
  6
Continuous
100
AcDbLine
 10
228.11675
 20
138.3618779999999
 30
0.0
 11
228.271245
 21
137.0817879999999
 31
0.0
  0
ARC
  5
C150
330
BD52
100
AcDbEntity
  8
1
  6
Continuous
100
AcDbCircle
 10
220.8739519999999
 20
143.714051
 30
0.0
 40
4.020926
100
AcDbArc
 50
180.0000029999999
 51
230.376698
  0
ARC
  5
C151
330
BD52
100
AcDbEntity
  8
1
  6
Continuous
100
AcDbCircle
 10
222.091252
 20
169.426026
 30
0.0
 40
0.834336
100
AcDbArc
 50
180.0000029999999
 51
255.410175
  0
ARC
  5
C152
330
BD52
100
AcDbEntity
  8
1
  6
Continuous
100
AcDbCircle
 10
227.2469679999999
 20
154.8612369999999
 30
0.0
 40
1.0
100
AcDbArc
 50
90.0
 51
186.8815209999999
  0
LINE
  5
C153
330
BD52
100
AcDbEntity
  8
1
  6
Continuous
100
AcDbLine
 10
225.303899
 20
164.389237
 30
0.0
 11
225.6829149999998
 21
164.396881
 31
0.0
  0
LINE
  5
C154
330
BD52
100
AcDbEntity
  8
1
  6
Continuous
100
AcDbLine
 10
224.7926529999999
 20
163.4709169999998
 30
0.0
 11
226.3207439999999
 21
159.5728609999999
 31
0.0
  0
LINE
  5
C155
330
BD52
100
AcDbEntity
  8
1
  6
Continuous
100
AcDbLine
 10
227.027516
 20
149.4472969999999
 30
0.0
 11
222.353032
 21
149.4472969999999
 31
0.0
  0
ARC
  5
C156
330
BD52
100
AcDbEntity
  8
1
  6
Continuous
100
AcDbCircle
 10
227.6516009999999
 20
151.5083929999998
 30
0.0
 40
1.0
100
AcDbArc
 50
115.01613
 51
186.8815209999999
  0
LINE
  5
C157
330
BD52
100
AcDbEntity
  8
1
  6
Continuous
100
AcDbLine
 10
226.6588029999998
 20
151.3885659999999
 30
0.0
 11
226.893635
 21
149.4427949999999
 31
0.0
  0
LINE
  5
C158
330
BD52
100
AcDbEntity
  8
1
  6
Continuous
100
AcDbLine
 10
226.3804759999999
 20
160.6721029999999
 30
0.0
 11
226.1190229999999
 21
155.861222
 31
0.0
  0
LINE
  5
C159
330
BD52
100
AcDbEntity
  8
1
  6
Continuous
100
AcDbLine
 10
226.1190229999999
 20
155.861222
 30
0.0
 11
226.2541699999999
 21
154.7414249999999
 31
0.0
  0
LINE
  5
C15A
330
BD52
100
AcDbEntity
  8
1
  6
Continuous
100
AcDbLine
 10
224.384373
 20
161.7699739999999
 30
0.0
 11
224.384373
 21
149.4472969999999
 31
0.0
  0
LINE
  5
C15B
330
BD52
100
AcDbEntity
  8
1
  6
Continuous
100
AcDbLine
 10
224.384373
 20
161.7699739999999
 30
0.0
 11
224.704396
 21
161.864869
 31
0.0
  0
LINE
  5
C15C
330
BD52
100
AcDbEntity
  8
1
  6
Continuous
100
AcDbLine
 10
224.384373
 20
161.7699589999998
 30
0.0
 11
224.6272629999999
 21
160.4304659999999
 31
0.0
  0
LINE
  5
C15D
330
BD52
100
AcDbEntity
  8
1
  6
Continuous
100
AcDbLine
 10
224.8146869999999
 20
163.9161689999999
 30
0.0
 11
224.6272629999999
 21
160.430451
 31
0.0
  0
ARC
  5
C15E
330
BD52
100
AcDbEntity
  8
1
  6
Continuous
100
AcDbCircle
 10
222.353032
 20
143.1071169999998
 30
0.0
 40
6.340179
100
AcDbArc
 50
90.00000300000001
 51
129.6233039999999
  0
ARC
  5
C15F
330
BD52
100
AcDbEntity
  8
1
  6
Continuous
100
AcDbCircle
 10
225.3139689999999
 20
163.889329
 30
0.0
 40
0.5
100
AcDbArc
 50
38.307718
 51
176.9221419999998
  0
ARC
  5
C160
330
BD52
100
AcDbEntity
  8
1
  6
Continuous
100
AcDbCircle
 10
226.7569169999999
 20
152.932816
 30
0.0
 40
19.356407
100
AcDbArc
 50
93.68398199999999
 51
104.589825
  0
ARC
  5
C161
330
BD52
100
AcDbEntity
  8
1
  6
Continuous
100
AcDbCircle
 10
222.091252
 20
170.8576209999999
 30
0.0
 40
0.834336
100
AcDbArc
 50
104.589825
 51
255.410175
  0
ARC
  5
C162
330
BD52
100
AcDbEntity
  8
1
  6
Continuous
100
AcDbCircle
 10
224.919183
 20
153.3515379999998
 30
0.0
 40
2.555979999999999
100
AcDbArc
 50
145.6283629999998
 51
205.6283629999998
  0
LINE
  5
C163
330
BD52
100
AcDbEntity
  8
1
  6
Continuous
100
AcDbLine
 10
222.3632029999999
 20
162.6825379999999
 30
0.0
 11
222.3632029999999
 21
152.6815379999999
 31
0.0
  0
LINE
  5
C164
330
BD52
100
AcDbEntity
  8
1
  6
Continuous
100
AcDbLine
 10
222.3632029999999
 20
152.6815379999999
 30
0.0
 11
222.809495
 21
151.9085379999999
 31
0.0
  0
ARC
  5
C165
330
BD52
100
AcDbEntity
  8
1
  6
Continuous
100
AcDbCircle
 10
224.9192029999999
 20
153.3525379999999
 30
0.0
 40
2.55582
100
AcDbArc
 50
214.3528569999999
 51
214.3839999999999
  0
LINE
  5
C166
330
BD52
100
AcDbEntity
  8
1
  6
Continuous
100
AcDbLine
 10
224.384373
 20
151.9085379999999
 30
0.0
 11
222.809495
 21
151.9085379999999
 31
0.0
  0
LINE
  5
C167
330
BD52
100
AcDbEntity
  8
1
  6
Continuous
100
AcDbLine
 10
220.8634029999998
 20
160.1405379999999
 30
0.0
 11
221.4049029999999
 21
160.6820379999998
 31
0.0
  0
LINE
  5
C168
330
BD52
100
AcDbEntity
  8
1
  6
Continuous
100
AcDbLine
 10
221.4049029999999
 20
160.6820379999998
 30
0.0
 11
222.3632029999999
 21
160.6820379999998
 31
0.0
  0
LINE
  5
C169
330
BD52
100
AcDbEntity
  8
2
  6
Continuous
100
AcDbLine
 10
220.8634029999998
 20
160.1405379999999
 30
0.0
 11
222.3632029999999
 21
160.1405379999999
 31
0.0
  0
ARC
  5
C16A
330
BD52
100
AcDbEntity
  8
1
  6
Continuous
100
AcDbCircle
 10
224.919183
 20
162.0125379999998
 30
0.0
 40
2.555979999999999
100
AcDbArc
 50
154.371637
 51
214.371637
  0
LINE
  5
C16B
330
BD52
100
AcDbEntity
  8
1
  6
Continuous
100
AcDbLine
 10
222.3632029999999
 20
162.6825379999999
 30
0.0
 11
222.809495
 21
163.4555379999999
 31
0.0
  0
LINE
  5
C16C
330
BD52
100
AcDbEntity
  8
1
  6
Continuous
100
AcDbLine
 10
224.384373
 20
160.569538
 30
0.0
 11
222.809495
 21
160.569538
 31
0.0
  0
LINE
  5
C16D
330
BD52
100
AcDbEntity
  8
1
  6
Continuous
100
AcDbLine
 10
224.789919
 20
163.4555379999999
 30
0.0
 11
222.809495
 21
163.4555379999999
 31
0.0
  0
LINE
  5
C16E
330
BD52
100
AcDbEntity
  8
1
  6
Continuous
100
AcDbLine
 10
220.8634029999998
 20
155.2235379999999
 30
0.0
 11
221.4049029999999
 21
154.6820379999998
 31
0.0
  0
LINE
  5
C16F
330
BD52
100
AcDbEntity
  8
1
  6
Continuous
100
AcDbLine
 10
221.4049029999999
 20
154.6820379999998
 30
0.0
 11
222.3632029999999
 21
154.6820379999998
 31
0.0
  0
LINE
  5
C170
330
BD52
100
AcDbEntity
  8
2
  6
Continuous
100
AcDbLine
 10
220.8634029999998
 20
155.2235379999999
 30
0.0
 11
222.3632029999999
 21
155.2235379999999
 31
0.0
  0
LINE
  5
C171
330
BD52
100
AcDbEntity
  8
1
  6
Continuous
100
AcDbLine
 10
224.384373
 20
154.7955379999999
 30
0.0
 11
222.809495
 21
154.7955379999999
 31
0.0
  0
LINE
  5
C172
330
BD52
100
AcDbEntity
  8
1
  6
Continuous
100
AcDbLine
 10
221.4049029999999
 20
160.6820379999998
 30
0.0
 11
221.4049029999999
 21
154.6820379999998
 31
0.0
  0
LINE
  5
C173
330
BD52
100
AcDbEntity
  8
1
  6
Continuous
100
AcDbLine
 10
220.8634029999998
 20
160.1405379999999
 30
0.0
 11
220.8634029999998
 21
155.2235379999999
 31
0.0
  0
ARC
  5
C174
330
BD52
100
AcDbEntity
  8
1
  6
Continuous
100
AcDbCircle
 10
231.9241519999999
 20
157.682538
 30
0.0
 40
9.560949
100
AcDbArc
 50
162.4247879999998
 51
197.5752119999999
  0
ENDSEC
  0
SECTION
  2
OBJECTS
  0
DICTIONARY
  5
BD40
330
0
100
AcDbDictionary
281
     1
  3
ACAD_CIP_PREVIOUS_PRODUCT_INFO
350
C1D6
  3
ACAD_COLOR
350
C1B8
  3
ACAD_DETAILVIEWSTYLE
350
C1D1
  3
ACAD_GROUP
350
BD41
  3
ACAD_LAYOUT
350
BD4D
  3
ACAD_MATERIAL
350
C186
  3
ACAD_MLEADERSTYLE
350
C1CD
  3
ACAD_MLINESTYLE
350
BD4A
  3
ACAD_PLOTSETTINGS
350
BD4C
  3
ACAD_PLOTSTYLENAME
350
C184
  3
ACAD_SCALELIST
350
C1BB
  3
ACAD_SECTIONVIEWSTYLE
350
C1CF
  3
ACAD_TABLESTYLE
350
C1B9
  3
ACAD_VISUALSTYLE
350
C19F
  3
ACDB_RECOMPOSE_DATA
350
C1F4
  3
AcDbVariableDictionary
350
C1E7
  3
DWGPROPS
350
C1F5
  0
DICTIONARY
  5
C1D7
330
BD44
100
AcDbDictionary
280
     1
281
     1
  3
ADSK_XREC_LAYER_RECONCILED
360
C1D8
  0
DICTIONARY
  5
C1D9
330
BD5A
100
AcDbDictionary
280
     1
281
     1
  3
ADSK_XREC_LAYER_RECONCILED
360
C1DA
  0
DICTIONARY
  5
C1DB
330
BD5B
100
AcDbDictionary
280
     1
281
     1
  3
ADSK_XREC_LAYER_RECONCILED
360
C1DC
  0
DICTIONARY
  5
C1DD
330
BD5C
100
AcDbDictionary
280
     1
281
     1
  3
ADSK_XREC_LAYER_RECONCILED
360
C1DE
  0
DICTIONARY
  5
C1DF
330
BD5D
100
AcDbDictionary
280
     1
281
     1
  3
ADSK_XREC_LAYER_RECONCILED
360
C1E0
  0
DICTIONARY
  5
C1E1
330
BD5E
100
AcDbDictionary
280
     1
281
     1
  3
ADSK_XREC_LAYER_RECONCILED
360
C1E2
  0
DICTIONARY
  5
C1E3
330
BD5F
100
AcDbDictionary
280
     1
281
     1
  3
ADSK_XREC_LAYER_RECONCILED
360
C1E4
  0
DICTIONARY
  5
C1E5
330
BD60
100
AcDbDictionary
280
     1
281
     1
  3
ADSK_XREC_LAYER_RECONCILED
360
C1E6
  0
DICTIONARY
  5
C17F
330
BD52
100
AcDbDictionary
281
     1
  3
ACAD_LAYOUTSELFREF
350
C180
  0
DICTIONARY
  5
C17D
330
BD4E
100
AcDbDictionary
281
     1
  3
ACAD_LAYOUTSELFREF
350
C17E
  0
XRECORD
  5
C1D6
102
{ACAD_REACTORS
330
BD40
102
}
330
BD40
100
AcDbXrecord
280
     1
300
ACDLT
300
2014
300
ACDLT_F_S
  0
DICTIONARY
  5
C1B8
102
{ACAD_REACTORS
330
BD40
102
}
330
BD40
100
AcDbDictionary
281
     1
  0
DICTIONARY
  5
C1D1
102
{ACAD_REACTORS
330
BD40
102
}
330
BD40
100
AcDbDictionary
281
     1
  3
Imperial24
350
C1D2
  0
DICTIONARY
  5
BD41
102
{ACAD_REACTORS
330
BD40
102
}
330
BD40
100
AcDbDictionary
281
     1
  0
DICTIONARY
  5
BD4D
102
{ACAD_REACTORS
330
BD40
102
}
330
BD40
100
AcDbDictionary
281
     1
  3
Model
350
C1D3
  3
レイアウト1
350
C1D4
  0
DICTIONARY
  5
C186
102
{ACAD_REACTORS
330
BD40
102
}
330
BD40
100
AcDbDictionary
281
     1
  3
ByBlock
350
C18F
  3
ByLayer
350
C187
  3
Global
350
C197
  0
DICTIONARY
  5
C1CD
102
{ACAD_REACTORS
330
BD40
102
}
330
BD40
100
AcDbDictionary
281
     1
  3
Standard
350
C1CE
  0
DICTIONARY
  5
BD4A
102
{ACAD_REACTORS
330
BD40
102
}
330
BD40
100
AcDbDictionary
281
     1
  3
STANDARD
350
BD4B
  0
DICTIONARY
  5
BD4C
102
{ACAD_REACTORS
330
BD40
102
}
330
BD40
100
AcDbDictionary
281
     1
  0
ACDBDICTIONARYWDFLT
  5
C184
102
{ACAD_REACTORS
330
BD40
102
}
330
BD40
100
AcDbDictionary
281
     1
  3
Normal
350
C185
100
AcDbDictionaryWithDefault
340
C185
  0
DICTIONARY
  5
C1BB
102
{ACAD_REACTORS
330
BD40
102
}
330
BD40
100
AcDbDictionary
281
     1
  3
A0
350
C1BC
  3
A1
350
C1BD
  3
A2
350
C1BE
  3
A3
350
C1BF
  3
A4
350
C1C0
  3
A5
350
C1C1
  3
A6
350
C1C2
  3
A7
350
C1C3
  3
A8
350
C1C4
  3
A9
350
C1C5
  3
B0
350
C1C6
  3
B1
350
C1C7
  3
B2
350
C1C8
  3
B3
350
C1C9
  3
B4
350
C1CA
  3
B5
350
C1CB
  3
B6
350
C1CC
  0
DICTIONARY
  5
C1CF
102
{ACAD_REACTORS
330
BD40
102
}
330
BD40
100
AcDbDictionary
281
     1
  3
Imperial24
350
C1D0
  0
DICTIONARY
  5
C1B9
102
{ACAD_REACTORS
330
BD40
102
}
330
BD40
100
AcDbDictionary
281
     1
  3
Standard
350
C1BA
  0
DICTIONARY
  5
C19F
102
{ACAD_REACTORS
330
BD40
102
}
330
BD40
100
AcDbDictionary
281
     1
  3
2dWireframe
350
C1A5
  3
Basic
350
C1A4
  3
Brighten
350
C1AB
  3
ColorChange
350
C1AF
  3
Conceptual
350
C1A8
  3
Dim
350
C1AA
  3
EdgeColorOff
350
C1B7
  3
Facepattern
350
C1AE
  3
Flat
350
C1A0
  3
FlatWithEdges
350
C1A1
  3
Gouraud
350
C1A2
  3
GouraudWithEdges
350
C1A3
  3
Hidden
350
C1A7
  3
JitterOff
350
C1B5
  3
Linepattern
350
C1AD
  3
OverhangOff
350
C1B6
  3
Realistic
350
C1A9
  3
Shaded
350
C1B4
  3
Shaded with edges
350
C1B3
  3
Shades of Gray
350
C1B0
  3
Sketchy
350
C1B1
  3
Thicken
350
C1AC
  3
Wireframe
350
C1A6
  3
X-Ray
350
C1B2
  0
XRECORD
  5
C1F4
102
{ACAD_REACTORS
330
BD40
102
}
330
BD40
100
AcDbXrecord
280
     1
 90
        1
330
C1BA
  0
DICTIONARY
  5
C1E7
102
{ACAD_REACTORS
330
BD40
102
}
330
BD40
100
AcDbDictionary
281
     1
  3
CANNOSCALE
350
C1EC
  3
CMLEADERSTYLE
350
C1E9
  3
CTABLESTYLE
350
C1E8
  3
CVIEWDETAILSTYLE
350
C1EA
  3
CVIEWSECTIONSTYLE
350
C1EB
  3
DIMASSOC
350
C1EF
  3
INDEXCTL
350
C1EE
  3
SORTENTS
350
C1ED
  3
XCLIPFRAME
350
C1F0
  0
XRECORD
  5
C1F5
102
{ACAD_REACTORS
330
BD40
102
}
330
BD40
100
AcDbXrecord
280
     1
  1
DWGPROPS COOKIE
  2

  3

  4

  6

  7

  8
Yoshitsune
  9

300
=
301
=
302
=
303
=
304
=
305
=
306
=
307
=
308
=
309
=
 40
0.0000127546296296
 41
2451302.659953241
 42
2457192.687676389
  1

 90
        0
  0
XRECORD
  5
C1D8
102
{ACAD_REACTORS
330
C1D7
102
}
330
C1D7
100
AcDbXrecord
280
     1
290
     1
  0
XRECORD
  5
C1DA
102
{ACAD_REACTORS
330
C1D9
102
}
330
C1D9
100
AcDbXrecord
280
     1
290
     1
  0
XRECORD
  5
C1DC
102
{ACAD_REACTORS
330
C1DB
102
}
330
C1DB
100
AcDbXrecord
280
     1
290
     1
  0
XRECORD
  5
C1DE
102
{ACAD_REACTORS
330
C1DD
102
}
330
C1DD
100
AcDbXrecord
280
     1
290
     1
  0
XRECORD
  5
C1E0
102
{ACAD_REACTORS
330
C1DF
102
}
330
C1DF
100
AcDbXrecord
280
     1
290
     1
  0
XRECORD
  5
C1E2
102
{ACAD_REACTORS
330
C1E1
102
}
330
C1E1
100
AcDbXrecord
280
     1
290
     1
  0
XRECORD
  5
C1E4
102
{ACAD_REACTORS
330
C1E3
102
}
330
C1E3
100
AcDbXrecord
280
     1
290
     1
  0
XRECORD
  5
C1E6
102
{ACAD_REACTORS
330
C1E5
102
}
330
C1E5
100
AcDbXrecord
280
     1
290
     1
  0
XRECORD
  5
C180
102
{ACAD_REACTORS
330
C17F
102
}
330
C17F
100
AcDbXrecord
280
     1
340
BD52
  0
XRECORD
  5
C17E
102
{ACAD_REACTORS
330
C17D
102
}
330
C17D
100
AcDbXrecord
280
     1
340
BD4E
  0
ACDBDETAILVIEWSTYLE
  5
C1D2
102
{ACAD_XDICTIONARY
360
C22D
102
}
102
{ACAD_REACTORS
330
C1D1
102
}
330
C1D1
100
AcDbModelDocViewStyle
 70
     0
  3
Imperial24
290
     0
100
AcDbDetailViewStyle
 70
     0
 71
     0
 90
        3
 71
     1
340
BD45
 40
0.24
340
0
 40
0.24
300

 40
0.36
280
     3
 71
     2
340
BD49
 90
       25
 71
     3
340
BD45
 40
0.24
 90
        1
 40
0.75
 90
        1
300
%<\AcVar ViewType \f "%tc1">% %<\AcVar ViewDetailId>%\PSCALE %<\AcVar ViewScale \f "%sn">%
 71
     4
340
BD49
 90
       25
340
BD49
 90
       25
280
     0
  0
LAYOUT
  5
C1D3
102
{ACAD_XDICTIONARY
360
C22F
102
}
102
{ACAD_REACTORS
330
BD4D
102
}
330
BD4D
100
AcDbPlotSettings
  1

  2
Canon LBP9100C
  4

  6

 40
0.0
 41
0.0
 42
0.0
 43
0.0
 44
0.0
 45
0.0
 46
0.0
 47
0.0
 48
0.0
 49
0.0
140
0.0
141
0.0
142
1.0
143
1.0
 70
  1712
 72
     0
 73
     0
 74
     0
  7

 75
     0
147
1.0
148
0.0
149
0.0
100
AcDbLayout
  1
Model
 70
     1
 71
     0
 10
0.0
 20
0.0
 11
12.0
 21
9.0
 12
0.0
 22
0.0
 32
0.0
 14
0.0
 24
0.0
 34
0.0
 15
0.0
 25
0.0
 35
0.0
146
0.0
 13
0.0
 23
0.0
 33
0.0
 16
1.0
 26
0.0
 36
0.0
 17
0.0
 27
1.0
 37
0.0
 76
     0
330
BD52
331
C17C
  0
LAYOUT
  5
C1D4
102
{ACAD_XDICTIONARY
360
C231
102
}
102
{ACAD_REACTORS
330
BD4D
102
}
330
BD4D
100
AcDbPlotSettings
  1

  2
Canon LBP9100C
  4

  6

 40
0.0
 41
0.0
 42
0.0
 43
0.0
 44
0.0
 45
0.0
 46
0.0
 47
0.0
 48
0.0
 49
0.0
140
0.0
141
0.0
142
1.0
143
1.0
 70
   688
 72
     0
 73
     0
 74
     5
  7

 75
    16
147
1.0
148
0.0
149
0.0
100
AcDbLayout
  1
レイアウト1
 70
     0
 71
     1
 10
0.0
 20
0.0
 11
420.0
 21
297.0
 12
0.0
 22
0.0
 32
0.0
 14
1.000000000000000E+20
 24
1.000000000000000E+20
 34
1.000000000000000E+20
 15
-1.000000000000000E+20
 25
-1.000000000000000E+20
 35
-1.000000000000000E+20
146
0.0
 13
0.0
 23
0.0
 33
0.0
 16
1.0
 26
0.0
 36
0.0
 17
0.0
 27
1.0
 37
0.0
 76
     0
330
BD4E
  0
MATERIAL
  5
C18F
102
{ACAD_XDICTIONARY
360
C190
102
}
102
{ACAD_REACTORS
330
C186
102
}
330
C186
100
AcDbMaterial
  1
ByBlock
 72
     0
 43
0.0208333333333333
 43
0.0
 43
0.0
 43
0.0
 43
0.0
 43
0.0208333333333333
 43
0.0
 43
0.0
 43
0.0
 43
0.0
 43
1.0
 43
0.0
 43
0.0
 43
0.0
 43
0.0
 43
1.0
 77
     0
 47
0.0208333333333333
 47
0.0
 47
0.0
 47
0.0
 47
0.0
 47
0.0208333333333333
 47
0.0
 47
0.0
 47
0.0
 47
0.0
 47
1.0
 47
0.0
 47
0.0
 47
0.0
 47
0.0
 47
1.0
171
     0
 49
0.0208333333333333
 49
0.0
 49
0.0
 49
0.0
 49
0.0
 49
0.0208333333333333
 49
0.0
 49
0.0
 49
0.0
 49
0.0
 49
1.0
 49
0.0
 49
0.0
 49
0.0
 49
0.0
 49
1.0
175
     0
142
0.0208333333333333
142
0.0
142
0.0
142
0.0
142
0.0
142
0.0208333333333333
142
0.0
142
0.0
142
0.0
142
0.0
142
1.0
142
0.0
142
0.0
142
0.0
142
0.0
142
1.0
179
     0
144
0.0208333333333333
144
0.0
144
0.0
144
0.0
144
0.0
144
0.0208333333333333
144
0.0
144
0.0
144
0.0
144
0.0
144
1.0
144
0.0
144
0.0
144
0.0
144
0.0
144
1.0
147
0.0208333333333333
147
0.0
147
0.0
147
0.0
147
0.0
147
0.0208333333333333
147
0.0
147
0.0
147
0.0
147
0.0
147
1.0
147
0.0
147
0.0
147
0.0
147
0.0
147
1.0
  0
MATERIAL
  5
C187
102
{ACAD_XDICTIONARY
360
C188
102
}
102
{ACAD_REACTORS
330
C186
102
}
330
C186
100
AcDbMaterial
  1
ByLayer
 72
     0
 43
0.0208333333333333
 43
0.0
 43
0.0
 43
0.0
 43
0.0
 43
0.0208333333333333
 43
0.0
 43
0.0
 43
0.0
 43
0.0
 43
1.0
 43
0.0
 43
0.0
 43
0.0
 43
0.0
 43
1.0
 77
     0
 47
0.0208333333333333
 47
0.0
 47
0.0
 47
0.0
 47
0.0
 47
0.0208333333333333
 47
0.0
 47
0.0
 47
0.0
 47
0.0
 47
1.0
 47
0.0
 47
0.0
 47
0.0
 47
0.0
 47
1.0
171
     0
 49
0.0208333333333333
 49
0.0
 49
0.0
 49
0.0
 49
0.0
 49
0.0208333333333333
 49
0.0
 49
0.0
 49
0.0
 49
0.0
 49
1.0
 49
0.0
 49
0.0
 49
0.0
 49
0.0
 49
1.0
175
     0
142
0.0208333333333333
142
0.0
142
0.0
142
0.0
142
0.0
142
0.0208333333333333
142
0.0
142
0.0
142
0.0
142
0.0
142
1.0
142
0.0
142
0.0
142
0.0
142
0.0
142
1.0
179
     0
144
0.0208333333333333
144
0.0
144
0.0
144
0.0
144
0.0
144
0.0208333333333333
144
0.0
144
0.0
144
0.0
144
0.0
144
1.0
144
0.0
144
0.0
144
0.0
144
0.0
144
1.0
147
0.0208333333333333
147
0.0
147
0.0
147
0.0
147
0.0
147
0.0208333333333333
147
0.0
147
0.0
147
0.0
147
0.0
147
1.0
147
0.0
147
0.0
147
0.0
147
0.0
147
1.0
  0
MATERIAL
  5
C197
102
{ACAD_XDICTIONARY
360
C198
102
}
102
{ACAD_REACTORS
330
C186
102
}
330
C186
100
AcDbMaterial
  1
Global
 72
     0
 43
0.0208333333333333
 43
0.0
 43
0.0
 43
0.0
 43
0.0
 43
0.0208333333333333
 43
0.0
 43
0.0
 43
0.0
 43
0.0
 43
1.0
 43
0.0
 43
0.0
 43
0.0
 43
0.0
 43
1.0
 77
     0
 47
0.0208333333333333
 47
0.0
 47
0.0
 47
0.0
 47
0.0
 47
0.0208333333333333
 47
0.0
 47
0.0
 47
0.0
 47
0.0
 47
1.0
 47
0.0
 47
0.0
 47
0.0
 47
0.0
 47
1.0
171
     0
 49
0.0208333333333333
 49
0.0
 49
0.0
 49
0.0
 49
0.0
 49
0.0208333333333333
 49
0.0
 49
0.0
 49
0.0
 49
0.0
 49
1.0
 49
0.0
 49
0.0
 49
0.0
 49
0.0
 49
1.0
175
     0
142
0.0208333333333333
142
0.0
142
0.0
142
0.0
142
0.0
142
0.0208333333333333
142
0.0
142
0.0
142
0.0
142
0.0
142
1.0
142
0.0
142
0.0
142
0.0
142
0.0
142
1.0
179
     0
144
0.0208333333333333
144
0.0
144
0.0
144
0.0
144
0.0
144
0.0208333333333333
144
0.0
144
0.0
144
0.0
144
0.0
144
1.0
144
0.0
144
0.0
144
0.0
144
0.0
144
1.0
147
0.0208333333333333
147
0.0
147
0.0
147
0.0
147
0.0
147
0.0208333333333333
147
0.0
147
0.0
147
0.0
147
0.0
147
1.0
147
0.0
147
0.0
147
0.0
147
0.0
147
1.0
  0
MLEADERSTYLE
  5
C1CE
102
{ACAD_REACTORS
330
C1CD
102
}
330
C1CD
100
AcDbMLeaderStyle
170
     2
171
     1
172
     0
 90
        2
 40
0.0
 41
0.0
173
     1
 91
-1056964608
340
BD47
 92
       -2
290
     1
 42
0.09
291
     1
 43
0.36
  3
Standard
 44
0.18
300

342
BD45
174
     1
178
     6
175
     1
176
     0
 93
-1056964608
 45
0.18
292
     0
297
     0
 46
0.18
 94
-1056964608
 47
1.0
 49
1.0
140
1.0
293
     1
141
0.0
294
     1
177
     0
142
1.0
295
     0
296
     0
143
0.125
1001
ACAD_MLEADERVER
1070
     2
  0
MLINESTYLE
  5
BD4B
102
{ACAD_REACTORS
330
BD4A
102
}
330
BD4A
100
AcDbMlineStyle
  2
STANDARD
 70
     0
  3

 62
   256
 51
90.0
 52
90.0
 71
     2
 49
0.5
 62
   256
  6
BYLAYER
 49
-0.5
 62
   256
  6
BYLAYER
  0
ACDBPLACEHOLDER
  5
C185
102
{ACAD_REACTORS
330
C184
102
}
330
C184
  0
SCALE
  5
C1BC
102
{ACAD_REACTORS
330
C1BB
102
}
330
C1BB
100
AcDbScale
 70
     0
300
1:1
140
1.0
141
1.0
290
     1
  0
SCALE
  5
C1BD
102
{ACAD_REACTORS
330
C1BB
102
}
330
C1BB
100
AcDbScale
 70
     0
300
1/128" = 1'-0"
140
0.0078125
141
12.0
290
     0
  0
SCALE
  5
C1BE
102
{ACAD_REACTORS
330
C1BB
102
}
330
C1BB
100
AcDbScale
 70
     0
300
1/64" = 1'-0"
140
0.015625
141
12.0
290
     0
  0
SCALE
  5
C1BF
102
{ACAD_REACTORS
330
C1BB
102
}
330
C1BB
100
AcDbScale
 70
     0
300
1/32" = 1'-0"
140
0.03125
141
12.0
290
     0
  0
SCALE
  5
C1C0
102
{ACAD_REACTORS
330
C1BB
102
}
330
C1BB
100
AcDbScale
 70
     0
300
1/16" = 1'-0"
140
0.0625
141
12.0
290
     0
  0
SCALE
  5
C1C1
102
{ACAD_REACTORS
330
C1BB
102
}
330
C1BB
100
AcDbScale
 70
     0
300
3/32" = 1'-0"
140
0.09375
141
12.0
290
     0
  0
SCALE
  5
C1C2
102
{ACAD_REACTORS
330
C1BB
102
}
330
C1BB
100
AcDbScale
 70
     0
300
1/8" = 1'-0"
140
0.125
141
12.0
290
     0
  0
SCALE
  5
C1C3
102
{ACAD_REACTORS
330
C1BB
102
}
330
C1BB
100
AcDbScale
 70
     0
300
3/16" = 1'-0"
140
0.1875
141
12.0
290
     0
  0
SCALE
  5
C1C4
102
{ACAD_REACTORS
330
C1BB
102
}
330
C1BB
100
AcDbScale
 70
     0
300
1/4" = 1'-0"
140
0.25
141
12.0
290
     0
  0
SCALE
  5
C1C5
102
{ACAD_REACTORS
330
C1BB
102
}
330
C1BB
100
AcDbScale
 70
     0
300
3/8" = 1'-0"
140
0.375
141
12.0
290
     0
  0
SCALE
  5
C1C6
102
{ACAD_REACTORS
330
C1BB
102
}
330
C1BB
100
AcDbScale
 70
     0
300
1/2" = 1'-0"
140
0.5
141
12.0
290
     0
  0
SCALE
  5
C1C7
102
{ACAD_REACTORS
330
C1BB
102
}
330
C1BB
100
AcDbScale
 70
     0
300
3/4" = 1'-0"
140
0.75
141
12.0
290
     0
  0
SCALE
  5
C1C8
102
{ACAD_REACTORS
330
C1BB
102
}
330
C1BB
100
AcDbScale
 70
     0
300
1" = 1'-0"
140
1.0
141
12.0
290
     0
  0
SCALE
  5
C1C9
102
{ACAD_REACTORS
330
C1BB
102
}
330
C1BB
100
AcDbScale
 70
     0
300
1-1/2" = 1'-0"
140
1.5
141
12.0
290
     0
  0
SCALE
  5
C1CA
102
{ACAD_REACTORS
330
C1BB
102
}
330
C1BB
100
AcDbScale
 70
     0
300
3" = 1'-0"
140
3.0
141
12.0
290
     0
  0
SCALE
  5
C1CB
102
{ACAD_REACTORS
330
C1BB
102
}
330
C1BB
100
AcDbScale
 70
     0
300
6" = 1'-0"
140
6.0
141
12.0
290
     0
  0
SCALE
  5
C1CC
102
{ACAD_REACTORS
330
C1BB
102
}
330
C1BB
100
AcDbScale
 70
     0
300
1'-0" = 1'-0"
140
12.0
141
12.0
290
     0
  0
ACDBSECTIONVIEWSTYLE
  5
C1D0
102
{ACAD_XDICTIONARY
360
C22B
102
}
102
{ACAD_REACTORS
330
C1CF
102
}
330
C1CF
100
AcDbModelDocViewStyle
 70
     0
  3
Imperial24
290
     0
100
AcDbSectionViewStyle
 70
     0
 71
     0
 90
       78
 71
     1
340
BD45
 40
0.24
340
0
340
0
 40
0.24
300
I, O, Q, S, X, Z
 40
0.48
 90
        3
 40
0.18
 90
        1
 71
     2
340
BD49
 90
       25
340
BD49
 90
       50
 40
0.24
 40
0.0
 40
0.24
 71
     3
340
BD45
 40
0.24
 90
        1
 40
0.75
 90
        1
300
%<\AcVar ViewType \f "%tc1">% %<\AcVar ViewSectionStartId>%-%<\AcVar ViewSectionEndId>%\PSCALE %<\AcVar ViewScale \f "%sn">%
 71
     4
300
ANSI31
 40
1.0
 90
        0
290
     0
290
     0
 90
        6
 40
0.0
 40
1.570796326794896
 40
0.2617993877991494
 40
1.308996938995747
 40
-0.2617993877991494
 40
1.832595714594046
  0
TABLESTYLE
  5
C1BA
102
{ACAD_XDICTIONARY
360
C1F2
102
}
102
{ACAD_REACTORS
330
C1B9
102
}
330
C1B9
100
AcDbTableStyle
  3
Standard
 70
     0
 71
     0
 40
0.06
 41
0.06
280
     0
281
     0
  7
STANDARD
140
0.18
170
     2
 62
     0
 63
     7
283
     0
274
    -2
284
     1
 64
     0
275
    -2
285
     1
 65
     0
276
    -2
286
     1
 66
     0
277
    -2
287
     1
 67
     0
278
    -2
288
     1
 68
     0
279
    -2
289
     1
 69
     0
  7
STANDARD
140
0.25
170
     5
 62
     0
 63
     7
283
     0
274
    -2
284
     1
 64
     0
275
    -2
285
     1
 65
     0
276
    -2
286
     1
 66
     0
277
    -2
287
     1
 67
     0
278
    -2
288
     1
 68
     0
279
    -2
289
     1
 69
     0
  7
STANDARD
140
0.18
170
     5
 62
     0
 63
     7
283
     0
274
    -2
284
     1
 64
     0
275
    -2
285
     1
 65
     0
276
    -2
286
     1
 66
     0
277
    -2
287
     1
 67
     0
278
    -2
288
     1
 68
     0
279
    -2
289
     1
 69
     0
  0
VISUALSTYLE
  5
C1A5
102
{ACAD_XDICTIONARY
360
C203
102
}
102
{ACAD_REACTORS
330
C19F
102
}
330
C19F
100
AcDbVisualStyle
  2
2dWireframe
 70
     4
 71
     0
 72
     2
 73
     0
 90
        0
 40
-0.6
 41
-30.0
 62
     5
 63
     7
 74
     1
 91
        4
 64
     7
 65
   257
 75
     1
175
     1
 42
1.0
 92
        0
 66
   257
 43
1.0
 76
     1
 77
     6
 78
     2
 67
     7
 79
     5
170
     0
171
     0
290
     0
174
     0
 93
        1
 44
0.0
173
     0
291
     0
 45
0.0
1001
ACAD
1000
AcDbSavedByObjectVersion
1070
     0
  0
VISUALSTYLE
  5
C1A4
102
{ACAD_XDICTIONARY
360
C201
102
}
102
{ACAD_REACTORS
330
C19F
102
}
330
C19F
100
AcDbVisualStyle
  2
Basic
 70
     7
 71
     1
 72
     0
 73
     1
 90
        0
 40
-0.6
 41
-30.0
 62
     5
 63
     7
 74
     0
 91
        4
 64
     7
 65
   257
 75
     1
175
     1
 42
1.0
 92
        8
 66
     7
 43
1.0
 76
     1
 77
     6
 78
     2
 67
     7
 79
     5
170
     0
171
     0
290
     0
174
     0
 93
        1
 44
0.0
173
     0
291
     1
 45
0.0
1001
ACAD
1000
AcDbSavedByObjectVersion
1070
     0
  0
VISUALSTYLE
  5
C1AB
102
{ACAD_XDICTIONARY
360
C20F
102
}
102
{ACAD_REACTORS
330
C19F
102
}
330
C19F
100
AcDbVisualStyle
  2
Brighten
 70
    12
 71
     2
 72
     2
 73
     0
 90
        0
 40
-0.6
 41
-30.0
 62
     5
 63
     7
 74
     1
 91
        4
 64
     7
 65
   257
 75
     1
175
     1
 42
1.0
 92
        8
 66
     7
 43
1.0
 76
     1
 77
     6
 78
     2
 67
     7
 79
     5
170
     0
171
     0
290
     0
174
     0
 93
        1
 44
50.0
173
     0
291
     1
 45
0.0
1001
ACAD
1000
AcDbSavedByObjectVersion
1070
     0
  0
VISUALSTYLE
  5
C1AF
102
{ACAD_XDICTIONARY
360
C217
102
}
102
{ACAD_REACTORS
330
C19F
102
}
330
C19F
100
AcDbVisualStyle
  2
ColorChange
 70
    16
 71
     2
 72
     2
 73
     3
 90
        0
 40
-0.6
 41
-30.0
 62
     5
 63
     8
 74
     1
 91
        4
 64
     7
 65
   257
 75
     1
175
     1
 42
1.0
 92
        8
 66
     8
 43
1.0
 76
     1
 77
     6
 78
     2
 67
     7
 79
     5
170
     0
171
     0
290
     0
174
     0
 93
        1
 44
0.0
173
     0
291
     1
 45
0.0
1001
ACAD
1000
AcDbSavedByObjectVersion
1070
     0
  0
VISUALSTYLE
  5
C1A8
102
{ACAD_XDICTIONARY
360
C209
102
}
102
{ACAD_REACTORS
330
C19F
102
}
330
C19F
100
AcDbVisualStyle
  2
Conceptual
 70
     9
 71
     3
 72
     2
 73
     0
 90
        0
 40
-0.6
 41
-30.0
 62
     5
 63
     7
 74
     2
 91
        2
 64
     7
 65
   257
 75
     1
175
     1
 42
179.0
 92
        8
 66
     7
 43
1.0
 76
     1
 77
     6
 78
     2
 67
     7
 79
     3
170
     0
171
     0
290
     0
174
     0
 93
        1
 44
0.0
173
     0
291
     0
 45
0.0
1001
ACAD
1000
AcDbSavedByObjectVersion
1070
     0
  0
VISUALSTYLE
  5
C1AA
102
{ACAD_XDICTIONARY
360
C20D
102
}
102
{ACAD_REACTORS
330
C19F
102
}
330
C19F
100
AcDbVisualStyle
  2
Dim
 70
    11
 71
     2
 72
     2
 73
     0
 90
        0
 40
-0.6
 41
-30.0
 62
     5
 63
     7
 74
     1
 91
        4
 64
     7
 65
   257
 75
     1
175
     1
 42
1.0
 92
        8
 66
     7
 43
1.0
 76
     1
 77
     6
 78
     2
 67
     7
 79
     5
170
     0
171
     0
290
     0
174
     0
 93
        1
 44
-50.0
173
     0
291
     1
 45
0.0
1001
ACAD
1000
AcDbSavedByObjectVersion
1070
     0
  0
VISUALSTYLE
  5
C1B7
102
{ACAD_XDICTIONARY
360
C227
102
}
102
{ACAD_REACTORS
330
C19F
102
}
330
C19F
100
AcDbVisualStyle
  2
EdgeColorOff
 70
    22
 71
     2
 72
     2
 73
     0
 90
        0
 40
-0.6
 41
-30.0
 62
     5
 63
     7
 74
     1
 91
        4
 64
     7
 65
   257
 75
     1
175
     1
 42
1.0
 92
        8
 66
     7
 43
1.0
 76
     1
 77
     6
 78
     2
 67
     7
 79
     5
170
     0
171
     0
290
     0
174
     0
 93
        1
 44
0.0
173
     0
291
     1
 45
0.0
1001
ACAD
1000
AcDbSavedByObjectVersion
1070
     0
  0
VISUALSTYLE
  5
C1AE
102
{ACAD_XDICTIONARY
360
C215
102
}
102
{ACAD_REACTORS
330
C19F
102
}
330
C19F
100
AcDbVisualStyle
  2
Facepattern
 70
    15
 71
     2
 72
     2
 73
     0
 90
        0
 40
-0.6
 41
-30.0
 62
     5
 63
     7
 74
     1
 91
        4
 64
     7
 65
   257
 75
     1
175
     1
 42
1.0
 92
        8
 66
     7
 43
1.0
 76
     1
 77
     6
 78
     2
 67
     7
 79
     5
170
     0
171
     0
290
     0
174
     0
 93
        1
 44
0.0
173
     0
291
     1
 45
0.0
1001
ACAD
1000
AcDbSavedByObjectVersion
1070
     0
  0
VISUALSTYLE
  5
C1A0
102
{ACAD_XDICTIONARY
360
C1F9
102
}
102
{ACAD_REACTORS
330
C19F
102
}
330
C19F
100
AcDbVisualStyle
  2
Flat
 70
     0
 71
     2
 72
     1
 73
     1
 90
        2
 40
-0.6
 41
30.0
 62
     5
 63
     7
 74
     0
 91
        0
 64
     7
 65
   257
 75
     1
175
     1
 42
1.0
 92
        8
 66
     7
 43
1.0
 76
     1
 77
     6
 78
     2
 67
     7
 79
     5
170
     0
171
     0
290
     0
174
     0
 93
       13
 44
0.0
173
     0
291
     1
 45
0.0
1001
ACAD
1000
AcDbSavedByObjectVersion
1070
     0
  0
VISUALSTYLE
  5
C1A1
102
{ACAD_XDICTIONARY
360
C1FB
102
}
102
{ACAD_REACTORS
330
C19F
102
}
330
C19F
100
AcDbVisualStyle
  2
FlatWithEdges
 70
     1
 71
     2
 72
     1
 73
     1
 90
        2
 40
-0.6
 41
30.0
 62
     5
 63
     7
 74
     1
 91
        0
 64
     7
 65
   257
 75
     1
175
     1
 42
1.0
 92
        0
 66
   257
 43
1.0
 76
     1
 77
     6
 78
     2
 67
     7
 79
     5
170
     0
171
     0
290
     0
174
     0
 93
       13
 44
0.0
173
     0
291
     1
 45
0.0
1001
ACAD
1000
AcDbSavedByObjectVersion
1070
     0
  0
VISUALSTYLE
  5
C1A2
102
{ACAD_XDICTIONARY
360
C1FD
102
}
102
{ACAD_REACTORS
330
C19F
102
}
330
C19F
100
AcDbVisualStyle
  2
Gouraud
 70
     2
 71
     2
 72
     2
 73
     1
 90
        2
 40
-0.6
 41
30.0
 62
     5
 63
     7
 74
     0
 91
        0
 64
     7
 65
   257
 75
     1
175
     1
 42
1.0
 92
        0
 66
     7
 43
1.0
 76
     1
 77
     6
 78
     2
 67
     7
 79
     5
170
     0
171
     0
290
     0
174
     0
 93
       13
 44
0.0
173
     0
291
     1
 45
0.0
1001
ACAD
1000
AcDbSavedByObjectVersion
1070
     0
  0
VISUALSTYLE
  5
C1A3
102
{ACAD_XDICTIONARY
360
C1FF
102
}
102
{ACAD_REACTORS
330
C19F
102
}
330
C19F
100
AcDbVisualStyle
  2
GouraudWithEdges
 70
     3
 71
     2
 72
     2
 73
     1
 90
        2
 40
-0.6
 41
30.0
 62
     5
 63
     7
 74
     1
 91
        0
 64
     7
 65
   257
 75
     1
175
     1
 42
1.0
 92
        0
 66
   257
 43
1.0
 76
     1
 77
     6
 78
     2
 67
     7
 79
     5
170
     0
171
     0
290
     0
174
     0
 93
       13
 44
0.0
173
     0
291
     1
 45
0.0
1001
ACAD
1000
AcDbSavedByObjectVersion
1070
     0
  0
VISUALSTYLE
  5
C1A7
102
{ACAD_XDICTIONARY
360
C207
102
}
102
{ACAD_REACTORS
330
C19F
102
}
330
C19F
100
AcDbVisualStyle
  2
Hidden
 70
     6
 71
     1
 72
     2
 73
     2
 90
        0
 40
-0.6
 41
-30.0
 62
     5
 63
     7
 74
     2
 91
        2
 64
     7
 65
   257
 75
     2
175
     1
 42
40.0
 92
        0
 66
   257
 43
1.0
 76
     1
 77
     6
 78
     2
 67
     7
 79
     3
170
     0
171
     0
290
     0
174
     0
 93
        1
 44
0.0
173
     0
291
     0
 45
0.0
1001
ACAD
1000
AcDbSavedByObjectVersion
1070
     0
  0
VISUALSTYLE
  5
C1B5
102
{ACAD_XDICTIONARY
360
C223
102
}
102
{ACAD_REACTORS
330
C19F
102
}
330
C19F
100
AcDbVisualStyle
  2
JitterOff
 70
    20
 71
     2
 72
     2
 73
     0
 90
        0
 40
-0.6
 41
-30.0
 62
     5
 63
     7
 74
     1
 91
        4
 64
     7
 65
   257
 75
     1
175
     1
 42
1.0
 92
       10
 66
     7
 43
1.0
 76
     1
 77
     6
 78
     2
 67
     7
 79
     5
170
     0
171
     0
290
     0
174
     0
 93
        1
 44
0.0
173
     0
291
     1
 45
0.0
1001
ACAD
1000
AcDbSavedByObjectVersion
1070
     0
  0
VISUALSTYLE
  5
C1AD
102
{ACAD_XDICTIONARY
360
C213
102
}
102
{ACAD_REACTORS
330
C19F
102
}
330
C19F
100
AcDbVisualStyle
  2
Linepattern
 70
    14
 71
     2
 72
     2
 73
     0
 90
        0
 40
-0.6
 41
-30.0
 62
     5
 63
     7
 74
     1
 91
        4
 64
     7
 65
   257
 75
     7
175
     7
 42
1.0
 92
        8
 66
     7
 43
1.0
 76
     1
 77
     6
 78
     2
 67
     7
 79
     5
170
     0
171
     0
290
     0
174
     0
 93
        1
 44
0.0
173
     0
291
     1
 45
0.0
1001
ACAD
1000
AcDbSavedByObjectVersion
1070
     0
  0
VISUALSTYLE
  5
C1B6
102
{ACAD_XDICTIONARY
360
C225
102
}
102
{ACAD_REACTORS
330
C19F
102
}
330
C19F
100
AcDbVisualStyle
  2
OverhangOff
 70
    21
 71
     2
 72
     2
 73
     0
 90
        0
 40
-0.6
 41
-30.0
 62
     5
 63
     7
 74
     1
 91
        4
 64
     7
 65
   257
 75
     1
175
     1
 42
1.0
 92
        9
 66
     7
 43
1.0
 76
     1
 77
     6
 78
     2
 67
     7
 79
     5
170
     0
171
     0
290
     0
174
     0
 93
        1
 44
0.0
173
     0
291
     1
 45
0.0
1001
ACAD
1000
AcDbSavedByObjectVersion
1070
     0
  0
VISUALSTYLE
  5
C1A9
102
{ACAD_XDICTIONARY
360
C20B
102
}
102
{ACAD_REACTORS
330
C19F
102
}
330
C19F
100
AcDbVisualStyle
  2
Realistic
 70
     8
 71
     2
 72
     3
 73
     0
 90
        2
 40
-0.6
 41
30.0
 62
     5
 63
     7
 74
     0
 91
        0
 64
     7
 65
   257
 75
     1
175
     1
 42
1.0
 92
        8
 66
   257
 43
1.0
 76
     1
 77
     6
 78
     2
 67
     7
 79
     3
170
     0
171
     0
290
     0
174
     0
 93
       13
 44
0.0
173
     0
291
     0
 45
0.0
1001
ACAD
1000
AcDbSavedByObjectVersion
1070
     0
  0
VISUALSTYLE
  5
C1B4
102
{ACAD_XDICTIONARY
360
C221
102
}
102
{ACAD_REACTORS
330
C19F
102
}
330
C19F
100
AcDbVisualStyle
  2
Shaded
 70
    27
 71
     2
 72
     2
 73
     1
 90
        2
 40
-0.6
 41
30.0
 62
     5
 63
     7
 74
     0
 91
        4
 64
     7
 65
   257
 75
     1
175
     1
 42
1.0
 92
        8
 66
   257
 43
1.0
 76
     1
 77
     6
 78
     2
 67
     8
 79
     3
170
     0
171
     0
290
     0
174
     0
 93
        5
 44
0.0
173
     0
291
     0
 45
0.0
1001
ACAD
1000
AcDbSavedByObjectVersion
1070
     0
  0
VISUALSTYLE
  5
C1B3
102
{ACAD_XDICTIONARY
360
C21F
102
}
102
{ACAD_REACTORS
330
C19F
102
}
330
C19F
100
AcDbVisualStyle
  2
Shaded with edges
 70
    26
 71
     2
 72
     2
 73
     1
 90
        2
 40
-0.6
 41
30.0
 62
     5
 63
     7
 74
     1
 91
       10
 64
     7
 65
   257
 75
     2
175
     1
 42
1.0
 92
        8
 66
   257
 43
1.0
 76
     1
 77
     6
 78
     2
 67
     7
 79
     3
170
     0
171
     0
290
     0
174
     0
 93
        5
 44
0.0
173
     0
291
     0
 45
0.0
1001
ACAD
1000
AcDbSavedByObjectVersion
1070
     0
  0
VISUALSTYLE
  5
C1B0
102
{ACAD_XDICTIONARY
360
C219
102
}
102
{ACAD_REACTORS
330
C19F
102
}
330
C19F
100
AcDbVisualStyle
  2
Shades of Gray
 70
    23
 71
     2
 72
     2
 73
     3
 90
        0
 40
-0.6
 41
-30.0
 62
     5
 63
     7
 74
     2
 91
        2
 64
     7
 65
     7
 75
     1
175
     1
 42
40.0
 92
        8
 66
     7
 43
1.0
 76
     1
 77
     6
 78
     2
 67
     7
 79
     3
170
     0
171
     0
290
     0
174
     0
 93
        1
 44
0.0
173
     0
291
     0
 45
0.0
1001
ACAD
1000
AcDbSavedByObjectVersion
1070
     0
  0
VISUALSTYLE
  5
C1B1
102
{ACAD_XDICTIONARY
360
C21B
102
}
102
{ACAD_REACTORS
330
C19F
102
}
330
C19F
100
AcDbVisualStyle
  2
Sketchy
 70
    24
 71
     1
 72
     2
 73
     2
 90
        0
 40
-0.6
 41
-30.0
 62
     5
 63
     7
 74
     2
 91
        2
 64
     7
 65
     7
 75
     1
175
     1
 42
40.0
 92
       11
 66
     7
 43
1.0
 76
     1
 77
     6
 78
     2
 67
     7
 79
     6
170
     0
171
     0
290
     0
174
     0
 93
        1
 44
0.0
173
     0
291
     0
 45
0.0
1001
ACAD
1000
AcDbSavedByObjectVersion
1070
     0
  0
VISUALSTYLE
  5
C1AC
102
{ACAD_XDICTIONARY
360
C211
102
}
102
{ACAD_REACTORS
330
C19F
102
}
330
C19F
100
AcDbVisualStyle
  2
Thicken
 70
    13
 71
     2
 72
     2
 73
     0
 90
        0
 40
-0.6
 41
-30.0
 62
     5
 63
     7
 74
     1
 91
        4
 64
     7
 65
   257
 75
     1
175
     1
 42
1.0
 92
       12
 66
     7
 43
1.0
 76
     1
 77
     6
 78
     2
 67
     7
 79
     5
170
     0
171
     0
290
     0
174
     0
 93
        1
 44
0.0
173
     0
291
     1
 45
0.0
1001
ACAD
1000
AcDbSavedByObjectVersion
1070
     0
  0
VISUALSTYLE
  5
C1A6
102
{ACAD_XDICTIONARY
360
C205
102
}
102
{ACAD_REACTORS
330
C19F
102
}
330
C19F
100
AcDbVisualStyle
  2
Wireframe
 70
     5
 71
     0
 72
     2
 73
     0
 90
        0
 40
-0.6
 41
-30.0
 62
     5
 63
     7
 74
     1
 91
        4
 64
     7
 65
   257
 75
     1
175
     1
 42
1.0
 92
        0
 66
   257
 43
1.0
 76
     1
 77
     6
 78
     2
 67
     7
 79
     3
170
     0
171
     0
290
     0
174
     0
 93
        1
 44
0.0
173
     0
291
     0
 45
0.0
1001
ACAD
1000
AcDbSavedByObjectVersion
1070
     0
  0
VISUALSTYLE
  5
C1B2
102
{ACAD_XDICTIONARY
360
C21D
102
}
102
{ACAD_REACTORS
330
C19F
102
}
330
C19F
100
AcDbVisualStyle
  2
X-Ray
 70
    25
 71
     2
 72
     2
 73
     1
 90
        1
 40
0.5
 41
-30.0
 62
     5
 63
     7
 74
     1
 91
        0
 64
     7
 65
   257
 75
     1
175
     1
 42
1.0
 92
        8
 66
     7
 43
1.0
 76
     1
 77
     6
 78
     2
 67
     7
 79
     3
170
     0
171
     0
290
     0
174
     0
 93
       13
 44
0.0
173
     0
291
     0
 45
0.0
1001
ACAD
1000
AcDbSavedByObjectVersion
1070
     0
  0
DICTIONARYVAR
  5
C1EC
102
{ACAD_REACTORS
330
C1E7
102
}
330
C1E7
100
DictionaryVariables
280
     0
  1
1:1
  0
DICTIONARYVAR
  5
C1E9
102
{ACAD_REACTORS
330
C1E7
102
}
330
C1E7
100
DictionaryVariables
280
     0
  1
STANDARD
  0
DICTIONARYVAR
  5
C1E8
102
{ACAD_REACTORS
330
C1E7
102
}
330
C1E7
100
DictionaryVariables
280
     0
  1
STANDARD
  0
DICTIONARYVAR
  5
C1EA
102
{ACAD_REACTORS
330
C1E7
102
}
330
C1E7
100
DictionaryVariables
280
     0
  1
Imperial24
  0
DICTIONARYVAR
  5
C1EB
102
{ACAD_REACTORS
330
C1E7
102
}
330
C1E7
100
DictionaryVariables
280
     0
  1
Imperial24
  0
DICTIONARYVAR
  5
C1EF
102
{ACAD_REACTORS
330
C1E7
102
}
330
C1E7
100
DictionaryVariables
280
     0
  1
1
  0
DICTIONARYVAR
  5
C1EE
102
{ACAD_REACTORS
330
C1E7
102
}
330
C1E7
100
DictionaryVariables
280
     0
  1
0
  0
DICTIONARYVAR
  5
C1ED
102
{ACAD_REACTORS
330
C1E7
102
}
330
C1E7
100
DictionaryVariables
280
     0
  1
127
  0
DICTIONARYVAR
  5
C1F0
102
{ACAD_REACTORS
330
C1E7
102
}
330
C1E7
100
DictionaryVariables
280
     0
  1
2
  0
DICTIONARY
  5
C22D
330
C1D2
100
AcDbDictionary
280
     1
281
     1
  3
ACAD_XREC_ROUNDTRIP
360
C22E
  0
DICTIONARY
  5
C22F
330
C1D3
100
AcDbDictionary
280
     1
281
     1
  3
ACAD_XREC_ROUNDTRIP
360
C230
  0
DICTIONARY
  5
C231
330
C1D4
100
AcDbDictionary
280
     1
281
     1
  3
ACAD_XREC_ROUNDTRIP
360
C232
  0
DICTIONARY
  5
C190
330
C18F
100
AcDbDictionary
280
     1
281
     1
  3
ACAD_XREC_ROUNDTRIP
360
C1F7
  3
BUMPTILE
360
C192
  3
DIFFUSETILE
360
C191
  3
OPACITYTILE
360
C195
  3
REFLECTIONTILE
360
C194
  3
REFRACTIONTILE
360
C196
  3
SPECULARTILE
360
C193
  0
DICTIONARY
  5
C188
330
C187
100
AcDbDictionary
280
     1
281
     1
  3
ACAD_XREC_ROUNDTRIP
360
C1F6
  3
BUMPTILE
360
C18A
  3
DIFFUSETILE
360
C189
  3
OPACITYTILE
360
C18D
  3
REFLECTIONTILE
360
C18C
  3
REFRACTIONTILE
360
C18E
  3
SPECULARTILE
360
C18B
  0
DICTIONARY
  5
C198
330
C197
100
AcDbDictionary
280
     1
281
     1
  3
ACAD_XREC_ROUNDTRIP
360
C1F8
  3
BUMPTILE
360
C19A
  3
DIFFUSETILE
360
C199
  3
OPACITYTILE
360
C19D
  3
REFLECTIONTILE
360
C19C
  3
REFRACTIONTILE
360
C19E
  3
SPECULARTILE
360
C19B
  0
DICTIONARY
  5
C22B
330
C1D0
100
AcDbDictionary
280
     1
281
     1
  3
ACAD_XREC_ROUNDTRIP
360
C22C
  0
DICTIONARY
  5
C1F2
330
C1BA
100
AcDbDictionary
280
     1
281
     1
  3
ACAD_ROUNDTRIP_2008_TABLESTYLE_CELLSTYLEMAP
360
C1F3
  3
ACAD_XREC_ROUNDTRIP
360
C229
  0
DICTIONARY
  5
C203
330
C1A5
100
AcDbDictionary
280
     1
281
     1
  3
ACAD_XREC_ROUNDTRIP
360
C204
  0
DICTIONARY
  5
C201
330
C1A4
100
AcDbDictionary
280
     1
281
     1
  3
ACAD_XREC_ROUNDTRIP
360
C202
  0
DICTIONARY
  5
C20F
330
C1AB
100
AcDbDictionary
280
     1
281
     1
  3
ACAD_XREC_ROUNDTRIP
360
C210
  0
DICTIONARY
  5
C217
330
C1AF
100
AcDbDictionary
280
     1
281
     1
  3
ACAD_XREC_ROUNDTRIP
360
C218
  0
DICTIONARY
  5
C209
330
C1A8
100
AcDbDictionary
280
     1
281
     1
  3
ACAD_XREC_ROUNDTRIP
360
C20A
  0
DICTIONARY
  5
C20D
330
C1AA
100
AcDbDictionary
280
     1
281
     1
  3
ACAD_XREC_ROUNDTRIP
360
C20E
  0
DICTIONARY
  5
C227
330
C1B7
100
AcDbDictionary
280
     1
281
     1
  3
ACAD_XREC_ROUNDTRIP
360
C228
  0
DICTIONARY
  5
C215
330
C1AE
100
AcDbDictionary
280
     1
281
     1
  3
ACAD_XREC_ROUNDTRIP
360
C216
  0
DICTIONARY
  5
C1F9
330
C1A0
100
AcDbDictionary
280
     1
281
     1
  3
ACAD_XREC_ROUNDTRIP
360
C1FA
  0
DICTIONARY
  5
C1FB
330
C1A1
100
AcDbDictionary
280
     1
281
     1
  3
ACAD_XREC_ROUNDTRIP
360
C1FC
  0
DICTIONARY
  5
C1FD
330
C1A2
100
AcDbDictionary
280
     1
281
     1
  3
ACAD_XREC_ROUNDTRIP
360
C1FE
  0
DICTIONARY
  5
C1FF
330
C1A3
100
AcDbDictionary
280
     1
281
     1
  3
ACAD_XREC_ROUNDTRIP
360
C200
  0
DICTIONARY
  5
C207
330
C1A7
100
AcDbDictionary
280
     1
281
     1
  3
ACAD_XREC_ROUNDTRIP
360
C208
  0
DICTIONARY
  5
C223
330
C1B5
100
AcDbDictionary
280
     1
281
     1
  3
ACAD_XREC_ROUNDTRIP
360
C224
  0
DICTIONARY
  5
C213
330
C1AD
100
AcDbDictionary
280
     1
281
     1
  3
ACAD_XREC_ROUNDTRIP
360
C214
  0
DICTIONARY
  5
C225
330
C1B6
100
AcDbDictionary
280
     1
281
     1
  3
ACAD_XREC_ROUNDTRIP
360
C226
  0
DICTIONARY
  5
C20B
330
C1A9
100
AcDbDictionary
280
     1
281
     1
  3
ACAD_XREC_ROUNDTRIP
360
C20C
  0
DICTIONARY
  5
C221
330
C1B4
100
AcDbDictionary
280
     1
281
     1
  3
ACAD_XREC_ROUNDTRIP
360
C222
  0
DICTIONARY
  5
C21F
330
C1B3
100
AcDbDictionary
280
     1
281
     1
  3
ACAD_XREC_ROUNDTRIP
360
C220
  0
DICTIONARY
  5
C219
330
C1B0
100
AcDbDictionary
280
     1
281
     1
  3
ACAD_XREC_ROUNDTRIP
360
C21A
  0
DICTIONARY
  5
C21B
330
C1B1
100
AcDbDictionary
280
     1
281
     1
  3
ACAD_XREC_ROUNDTRIP
360
C21C
  0
DICTIONARY
  5
C211
330
C1AC
100
AcDbDictionary
280
     1
281
     1
  3
ACAD_XREC_ROUNDTRIP
360
C212
  0
DICTIONARY
  5
C205
330
C1A6
100
AcDbDictionary
280
     1
281
     1
  3
ACAD_XREC_ROUNDTRIP
360
C206
  0
DICTIONARY
  5
C21D
330
C1B2
100
AcDbDictionary
280
     1
281
     1
  3
ACAD_XREC_ROUNDTRIP
360
C21E
  0
XRECORD
  5
C22E
102
{ACAD_REACTORS
330
C22D
102
}
330
C22D
100
AcDbXrecord
280
     1
102
DISPLAYNAME
  1
Imperial24
102
FLAGS
 90
        0
  0
XRECORD
  5
C230
102
{ACAD_REACTORS
330
C22F
102
}
330
C22F
100
AcDbXrecord
280
     1
102
SHADEPLOT
 70
     0
102
SHADEPLOTRESLEVEL
 70
     2
102
SHADEPLOTCUSTOMDPI
 70
   300
  0
XRECORD
  5
C232
102
{ACAD_REACTORS
330
C231
102
}
330
C231
100
AcDbXrecord
280
     1
102
SHADEPLOT
 70
     0
102
SHADEPLOTRESLEVEL
 70
     2
102
SHADEPLOTCUSTOMDPI
 70
   300
  0
XRECORD
  5
C1F7
102
{ACAD_REACTORS
330
C190
102
}
330
C190
100
AcDbXrecord
280
     1
102
MATERIAL
148
0.0
149
0.0
149
0.0
 93
        0
 94
      127
282
     0
 72
     0
 77
     0
171
     0
175
     0
179
     0
273
     0
  0
XRECORD
  5
C192
102
{ACAD_REACTORS
330
C190
102
}
330
C190
100
AcDbXrecord
280
     1
270
     1
271
     1
  0
XRECORD
  5
C191
102
{ACAD_REACTORS
330
C190
102
}
330
C190
100
AcDbXrecord
280
     1
270
     1
271
     1
  0
XRECORD
  5
C195
102
{ACAD_REACTORS
330
C190
102
}
330
C190
100
AcDbXrecord
280
     1
270
     1
271
     1
  0
XRECORD
  5
C194
102
{ACAD_REACTORS
330
C190
102
}
330
C190
100
AcDbXrecord
280
     1
270
     1
271
     1
  0
XRECORD
  5
C196
102
{ACAD_REACTORS
330
C190
102
}
330
C190
100
AcDbXrecord
280
     1
270
     1
271
     1
  0
XRECORD
  5
C193
102
{ACAD_REACTORS
330
C190
102
}
330
C190
100
AcDbXrecord
280
     1
270
     1
271
     1
  0
XRECORD
  5
C1F6
102
{ACAD_REACTORS
330
C188
102
}
330
C188
100
AcDbXrecord
280
     1
102
MATERIAL
148
0.0
149
0.0
149
0.0
 93
        0
 94
      127
282
     0
 72
     0
 77
     0
171
     0
175
     0
179
     0
273
     0
  0
XRECORD
  5
C18A
102
{ACAD_REACTORS
330
C188
102
}
330
C188
100
AcDbXrecord
280
     1
270
     1
271
     1
  0
XRECORD
  5
C189
102
{ACAD_REACTORS
330
C188
102
}
330
C188
100
AcDbXrecord
280
     1
270
     1
271
     1
  0
XRECORD
  5
C18D
102
{ACAD_REACTORS
330
C188
102
}
330
C188
100
AcDbXrecord
280
     1
270
     1
271
     1
  0
XRECORD
  5
C18C
102
{ACAD_REACTORS
330
C188
102
}
330
C188
100
AcDbXrecord
280
     1
270
     1
271
     1
  0
XRECORD
  5
C18E
102
{ACAD_REACTORS
330
C188
102
}
330
C188
100
AcDbXrecord
280
     1
270
     1
271
     1
  0
XRECORD
  5
C18B
102
{ACAD_REACTORS
330
C188
102
}
330
C188
100
AcDbXrecord
280
     1
270
     1
271
     1
  0
XRECORD
  5
C1F8
102
{ACAD_REACTORS
330
C198
102
}
330
C198
100
AcDbXrecord
280
     1
102
MATERIAL
148
0.0
149
0.0
149
0.0
 93
        0
 94
      127
282
     0
 72
     0
 77
     0
171
     0
175
     0
179
     0
273
     0
  0
XRECORD
  5
C19A
102
{ACAD_REACTORS
330
C198
102
}
330
C198
100
AcDbXrecord
280
     1
270
     1
271
     1
  0
XRECORD
  5
C199
102
{ACAD_REACTORS
330
C198
102
}
330
C198
100
AcDbXrecord
280
     1
270
     1
271
     1
  0
XRECORD
  5
C19D
102
{ACAD_REACTORS
330
C198
102
}
330
C198
100
AcDbXrecord
280
     1
270
     1
271
     1
  0
XRECORD
  5
C19C
102
{ACAD_REACTORS
330
C198
102
}
330
C198
100
AcDbXrecord
280
     1
270
     1
271
     1
  0
XRECORD
  5
C19E
102
{ACAD_REACTORS
330
C198
102
}
330
C198
100
AcDbXrecord
280
     1
270
     1
271
     1
  0
XRECORD
  5
C19B
102
{ACAD_REACTORS
330
C198
102
}
330
C198
100
AcDbXrecord
280
     1
270
     1
271
     1
  0
XRECORD
  5
C22C
102
{ACAD_REACTORS
330
C22B
102
}
330
C22B
100
AcDbXrecord
280
     1
102
DISPLAYNAME
  1
Imperial24
102
FLAGS
 90
        0
  0
CELLSTYLEMAP
  5
C1F3
102
{ACAD_REACTORS
330
C1F2
102
}
330
C1F2
100
AcDbCellStyleMap
 90
        3
300
CELLSTYLE
  1
TABLEFORMAT_BEGIN
 90
        5
170
     1
 91
        0
 92
    32768
 62
   257
 93
        1
300
CONTENTFORMAT
  1
CONTENTFORMAT_BEGIN
 90
        0
 91
        0
 92
      512
 93
        0
300

 40
0.0
140
1.0
 94
        5
 62
     0
340
BD45
144
0.25
309
CONTENTFORMAT_END
171
     0
 94
        0
309
TABLEFORMAT_END
  1
CELLSTYLE_BEGIN
 90
        1
 91
        1
300
_TITLE
309
CELLSTYLE_END
300
CELLSTYLE
  1
TABLEFORMAT_BEGIN
 90
        5
170
     1
 91
        0
 92
        0
 62
   257
 93
        1
300
CONTENTFORMAT
  1
CONTENTFORMAT_BEGIN
 90
        0
 91
        0
 92
      512
 93
        0
300

 40
0.0
140
1.0
 94
        5
 62
     0
340
BD45
144
0.18
309
CONTENTFORMAT_END
171
     0
 94
        0
309
TABLEFORMAT_END
  1
CELLSTYLE_BEGIN
 90
        2
 91
        1
300
_HEADER
309
CELLSTYLE_END
300
CELLSTYLE
  1
TABLEFORMAT_BEGIN
 90
        5
170
     1
 91
        0
 92
        0
 62
   257
 93
        1
300
CONTENTFORMAT
  1
CONTENTFORMAT_BEGIN
 90
        0
 91
        0
 92
      512
 93
        0
300

 40
0.0
140
1.0
 94
        2
 62
     0
340
BD45
144
0.18
309
CONTENTFORMAT_END
171
     0
 94
        0
309
TABLEFORMAT_END
  1
CELLSTYLE_BEGIN
 90
        3
 91
        2
300
_DATA
309
CELLSTYLE_END
  0
XRECORD
  5
C229
102
{ACAD_REACTORS
330
C1F2
102
}
330
C1F2
100
AcDbXrecord
280
     1
102
ACAD_ROUNDTRIP_PRE2007_TABLESTYLE
 90
      512
 91
        0
  1

 92
      512
 93
        0
  2

 94
      512
 95
        0
  3

  0
XRECORD
  5
C204
102
{ACAD_REACTORS
330
C203
102
}
330
C203
100
AcDbXrecord
280
     1
102
RTVSPost2010Prop28
280
     1
102
RTVSPost2010PropOp28
 70
     1
102
RTVSPost2010Prop29
280
     1
102
RTVSPost2010PropOp29
 70
     1
102
RTVSPost2010Prop30
280
     0
102
RTVSPost2010PropOp30
 70
     1
102
RTVSPost2010Prop31
280
     0
102
RTVSPost2010PropOp31
 70
     1
102
RTVSPost2010Prop32
280
     0
102
RTVSPost2010PropOp32
 70
     1
102
RTVSPost2010Prop33
280
     0
102
RTVSPost2010PropOp33
 70
     1
102
RTVSPost2010Prop34
280
     0
102
RTVSPost2010PropOp34
 70
     1
102
RTVSPost2010Prop35
280
     0
102
RTVSPost2010PropOp35
 70
     1
102
RTVSPost2010Prop36
280
     0
102
RTVSPost2010PropOp36
 70
     1
102
RTVSPost2010Prop37
 90
       50
102
RTVSPost2010PropOp37
 70
     1
102
RTVSPost2010Prop38
140
0.0
102
RTVSPost2010PropOp38
 70
     1
102
RTVSPost2010Prop39
140
1.0
102
RTVSPost2010PropOp39
 70
     1
102
RTVSPost2010Prop40
 90
        0
102
RTVSPost2010PropOp40
 70
     1
102
RTVSPost2010Prop41ColorIndex
 90
       18
102
RTVSPost2010Prop41ColorRGB
 90
        0
102
RTVSPost2010PropOp41
 70
     1
102
RTVSPost2010Prop42
 90
       50
102
RTVSPost2010PropOp42
 70
     1
102
RTVSPost2010Prop43
 90
        3
102
RTVSPost2010PropOp43
 70
     1
102
RTVSPost2010Prop44ColorIndex
 90
        5
102
RTVSPost2010Prop44ColorRGB
 90
      255
102
RTVSPost2010PropOp44
 70
     1
102
RTVSPost2010Prop45
280
     0
102
RTVSPost2010PropOp45
 70
     1
102
RTVSPost2010Prop46
 90
       50
102
RTVSPost2010PropOp46
 70
     1
102
RTVSPost2010Prop47
 90
       50
102
RTVSPost2010PropOp47
 70
     1
102
RTVSPost2010Prop48
 90
       50
102
RTVSPost2010PropOp48
 70
     1
102
RTVSPost2010Prop49
280
     0
102
RTVSPost2010PropOp49
 70
     1
102
RTVSPost2010Prop50
 90
       50
102
RTVSPost2010PropOp50
 70
     1
102
RTVSPost2010Prop51ColorIndex
 90
      256
102
RTVSPost2010Prop51ColorRGB
 90
-16777216
102
RTVSPost2010PropOp51
 70
     0
102
RTVSPost2010Prop52
140
1.0
102
RTVSPost2010PropOp52
 70
     0
102
RTVSPost2010Prop53
 90
        2
102
RTVSPost2010PropOp53
 70
     1
102
RTVSPost2010Prop54
  1
strokes_ogs.tif
102
RTVSPost2010PropOp54
 70
     1
102
RTVSPost2010Prop55
280
     0
102
RTVSPost2010PropOp55
 70
     1
102
RTVSPost2010Prop56
140
1.0
102
RTVSPost2010PropOp56
 70
     1
102
RTVSPost2010Prop57
140
1.0
102
RTVSPost2010PropOp57
 70
     1
102
RTVSPropertyOp0
 70
     1
102
RTVSPropertyOp1
 70
     1
102
RTVSPropertyOp2
 70
     1
102
RTVSPropertyOp3
 70
     1
102
RTVSPropertyOp4
 70
     1
102
RTVSPropertyOp5
 70
     1
102
RTVSPropertyOp6
 70
     1
102
RTVSPropertyOp7
 70
     1
102
RTVSPropertyOp8
 70
     1
102
RTVSPropertyOp9
 70
     1
102
RTVSPropertyOp10
 70
     1
102
RTVSPropertyOp11
 70
     1
102
RTVSPropertyOp12
 70
     1
102
RTVSPropertyOp13
 70
     1
102
RTVSPropertyOp14
 70
     1
102
RTVSPropertyOp15
 70
     1
102
RTVSPropertyOp16
 70
     1
102
RTVSPropertyOp17
 70
     1
102
RTVSPropertyOp18
 70
     1
102
RTVSPropertyOp19
 70
     1
102
RTVSPropertyOp20
 70
     1
102
RTVSPropertyOp21
 70
     1
102
RTVSPropertyOp22
 70
     1
102
RTVSPropertyOp23
 70
     1
102
RTVSPropertyOp24
 70
     1
102
RTVSPropertyOp25
 70
     1
102
RTVSPropertyOp26
 70
     1
102
RTVSPropertyOp27
 70
     1
102
RTVSPropertyOp28
 70
     1
102
RTVSPropertyOp29
 70
     1
102
RTVSPropertyOp30
 70
     1
102
RTVSPropertyOp31
 70
     1
102
RTVSPropertyOp32
 70
     1
102
RTVSPropertyOp33
 70
     1
102
RTVSPropertyOp34
 70
     1
102
RTVSPropertyOp35
 70
     1
102
RTVSPropertyOp36
 70
     1
102
RTVSPropertyOp37
 70
     1
102
RTVSPropertyOp38
 70
     1
102
RTVSPropertyOp39
 70
     1
102
RTVSPropertyOp40
 70
     1
102
RTVSPropertyOp41
 70
     1
102
RTVSPropertyOp42
 70
     1
102
RTVSPropertyOp43
 70
     1
102
RTVSPropertyOp44
 70
     1
102
RTVSPropertyOp45
 70
     1
102
RTVSPropertyOp46
 70
     1
102
RTVSPropertyOp47
 70
     1
102
RTVSPropertyOp48
 70
     1
102
RTVSPropertyOp49
 70
     1
102
RTVSPropertyOp50
 70
     1
102
RTVSPropertyOp51
 70
     0
102
RTVSPropertyOp52
 70
     0
102
RTVSPropertyOp53
 70
     1
102
RTVSPropertyOp54
 70
     1
102
RTVSPropertyOp55
 70
     1
102
RTVSPropertyOp56
 70
     1
102
RTVSPropertyOp57
 70
     1
102
RTVSPropertyOp58
 70
     1
102
RTVSPropertyOp59
 70
     1
102
RTVSPropertyOp60
 70
     1
102
RTVSPropertyOp61
 70
     1
102
RTVSPropertyOp62
 70
     1
  0
XRECORD
  5
C202
102
{ACAD_REACTORS
330
C201
102
}
330
C201
100
AcDbXrecord
280
     1
102
RTVSPost2010Prop28
280
     0
102
RTVSPost2010PropOp28
 70
     1
102
RTVSPost2010Prop29
280
     1
102
RTVSPost2010PropOp29
 70
     1
102
RTVSPost2010Prop30
280
     1
102
RTVSPost2010PropOp30
 70
     1
102
RTVSPost2010Prop31
280
     0
102
RTVSPost2010PropOp31
 70
     1
102
RTVSPost2010Prop32
280
     0
102
RTVSPost2010PropOp32
 70
     1
102
RTVSPost2010Prop33
280
     0
102
RTVSPost2010PropOp33
 70
     1
102
RTVSPost2010Prop34
280
     0
102
RTVSPost2010PropOp34
 70
     1
102
RTVSPost2010Prop35
280
     0
102
RTVSPost2010PropOp35
 70
     1
102
RTVSPost2010Prop36
280
     0
102
RTVSPost2010PropOp36
 70
     1
102
RTVSPost2010Prop37
 90
       50
102
RTVSPost2010PropOp37
 70
     1
102
RTVSPost2010Prop38
140
0.0
102
RTVSPost2010PropOp38
 70
     1
102
RTVSPost2010Prop39
140
1.0
102
RTVSPost2010PropOp39
 70
     1
102
RTVSPost2010Prop40
 90
        0
102
RTVSPost2010PropOp40
 70
     1
102
RTVSPost2010Prop41ColorIndex
 90
       18
102
RTVSPost2010Prop41ColorRGB
 90
        0
102
RTVSPost2010PropOp41
 70
     1
102
RTVSPost2010Prop42
 90
       50
102
RTVSPost2010PropOp42
 70
     1
102
RTVSPost2010Prop43
 90
        3
102
RTVSPost2010PropOp43
 70
     1
102
RTVSPost2010Prop44ColorIndex
 90
        5
102
RTVSPost2010Prop44ColorRGB
 90
      255
102
RTVSPost2010PropOp44
 70
     1
102
RTVSPost2010Prop45
280
     0
102
RTVSPost2010PropOp45
 70
     1
102
RTVSPost2010Prop46
 90
       50
102
RTVSPost2010PropOp46
 70
     1
102
RTVSPost2010Prop47
 90
       50
102
RTVSPost2010PropOp47
 70
     1
102
RTVSPost2010Prop48
 90
       50
102
RTVSPost2010PropOp48
 70
     1
102
RTVSPost2010Prop49
280
     0
102
RTVSPost2010PropOp49
 70
     1
102
RTVSPost2010Prop50
 90
       50
102
RTVSPost2010PropOp50
 70
     1
102
RTVSPost2010Prop51ColorIndex
 90
      256
102
RTVSPost2010Prop51ColorRGB
 90
-16777216
102
RTVSPost2010PropOp51
 70
     0
102
RTVSPost2010Prop52
140
1.0
102
RTVSPost2010PropOp52
 70
     0
102
RTVSPost2010Prop53
 90
        2
102
RTVSPost2010PropOp53
 70
     1
102
RTVSPost2010Prop54
  1
strokes_ogs.tif
102
RTVSPost2010PropOp54
 70
     1
102
RTVSPost2010Prop55
280
     0
102
RTVSPost2010PropOp55
 70
     1
102
RTVSPost2010Prop56
140
1.0
102
RTVSPost2010PropOp56
 70
     1
102
RTVSPost2010Prop57
140
1.0
102
RTVSPost2010PropOp57
 70
     1
102
RTVSPropertyOp0
 70
     1
102
RTVSPropertyOp1
 70
     1
102
RTVSPropertyOp2
 70
     1
102
RTVSPropertyOp3
 70
     1
102
RTVSPropertyOp4
 70
     1
102
RTVSPropertyOp5
 70
     1
102
RTVSPropertyOp6
 70
     1
102
RTVSPropertyOp7
 70
     1
102
RTVSPropertyOp8
 70
     1
102
RTVSPropertyOp9
 70
     1
102
RTVSPropertyOp10
 70
     1
102
RTVSPropertyOp11
 70
     1
102
RTVSPropertyOp12
 70
     1
102
RTVSPropertyOp13
 70
     1
102
RTVSPropertyOp14
 70
     1
102
RTVSPropertyOp15
 70
     1
102
RTVSPropertyOp16
 70
     1
102
RTVSPropertyOp17
 70
     1
102
RTVSPropertyOp18
 70
     1
102
RTVSPropertyOp19
 70
     1
102
RTVSPropertyOp20
 70
     1
102
RTVSPropertyOp21
 70
     1
102
RTVSPropertyOp22
 70
     1
102
RTVSPropertyOp23
 70
     1
102
RTVSPropertyOp24
 70
     1
102
RTVSPropertyOp25
 70
     1
102
RTVSPropertyOp26
 70
     1
102
RTVSPropertyOp27
 70
     1
102
RTVSPropertyOp28
 70
     1
102
RTVSPropertyOp29
 70
     1
102
RTVSPropertyOp30
 70
     1
102
RTVSPropertyOp31
 70
     1
102
RTVSPropertyOp32
 70
     1
102
RTVSPropertyOp33
 70
     1
102
RTVSPropertyOp34
 70
     1
102
RTVSPropertyOp35
 70
     1
102
RTVSPropertyOp36
 70
     1
102
RTVSPropertyOp37
 70
     1
102
RTVSPropertyOp38
 70
     1
102
RTVSPropertyOp39
 70
     1
102
RTVSPropertyOp40
 70
     1
102
RTVSPropertyOp41
 70
     1
102
RTVSPropertyOp42
 70
     1
102
RTVSPropertyOp43
 70
     1
102
RTVSPropertyOp44
 70
     1
102
RTVSPropertyOp45
 70
     1
102
RTVSPropertyOp46
 70
     1
102
RTVSPropertyOp47
 70
     1
102
RTVSPropertyOp48
 70
     1
102
RTVSPropertyOp49
 70
     1
102
RTVSPropertyOp50
 70
     1
102
RTVSPropertyOp51
 70
     0
102
RTVSPropertyOp52
 70
     0
102
RTVSPropertyOp53
 70
     1
102
RTVSPropertyOp54
 70
     1
102
RTVSPropertyOp55
 70
     1
102
RTVSPropertyOp56
 70
     1
102
RTVSPropertyOp57
 70
     1
102
RTVSPropertyOp58
 70
     1
102
RTVSPropertyOp59
 70
     1
102
RTVSPropertyOp60
 70
     1
102
RTVSPropertyOp61
 70
     1
102
RTVSPropertyOp62
 70
     1
  0
XRECORD
  5
C210
102
{ACAD_REACTORS
330
C20F
102
}
330
C20F
100
AcDbXrecord
280
     1
102
RTVSPost2010Prop28
280
     0
102
RTVSPost2010PropOp28
 70
     1
102
RTVSPost2010Prop29
280
     1
102
RTVSPost2010PropOp29
 70
     1
102
RTVSPost2010Prop30
280
     1
102
RTVSPost2010PropOp30
 70
     1
102
RTVSPost2010Prop31
280
     0
102
RTVSPost2010PropOp31
 70
     1
102
RTVSPost2010Prop32
280
     0
102
RTVSPost2010PropOp32
 70
     1
102
RTVSPost2010Prop33
280
     0
102
RTVSPost2010PropOp33
 70
     1
102
RTVSPost2010Prop34
280
     0
102
RTVSPost2010PropOp34
 70
     1
102
RTVSPost2010Prop35
280
     0
102
RTVSPost2010PropOp35
 70
     1
102
RTVSPost2010Prop36
280
     0
102
RTVSPost2010PropOp36
 70
     1
102
RTVSPost2010Prop37
 90
       50
102
RTVSPost2010PropOp37
 70
     1
102
RTVSPost2010Prop38
140
0.0
102
RTVSPost2010PropOp38
 70
     1
102
RTVSPost2010Prop39
140
1.0
102
RTVSPost2010PropOp39
 70
     1
102
RTVSPost2010Prop40
 90
        0
102
RTVSPost2010PropOp40
 70
     1
102
RTVSPost2010Prop41ColorIndex
 90
       18
102
RTVSPost2010Prop41ColorRGB
 90
        0
102
RTVSPost2010PropOp41
 70
     1
102
RTVSPost2010Prop42
 90
       50
102
RTVSPost2010PropOp42
 70
     1
102
RTVSPost2010Prop43
 90
        3
102
RTVSPost2010PropOp43
 70
     1
102
RTVSPost2010Prop44ColorIndex
 90
        5
102
RTVSPost2010Prop44ColorRGB
 90
      255
102
RTVSPost2010PropOp44
 70
     1
102
RTVSPost2010Prop45
280
     0
102
RTVSPost2010PropOp45
 70
     1
102
RTVSPost2010Prop46
 90
       50
102
RTVSPost2010PropOp46
 70
     1
102
RTVSPost2010Prop47
 90
       50
102
RTVSPost2010PropOp47
 70
     1
102
RTVSPost2010Prop48
 90
       50
102
RTVSPost2010PropOp48
 70
     1
102
RTVSPost2010Prop49
280
     0
102
RTVSPost2010PropOp49
 70
     1
102
RTVSPost2010Prop50
 90
       50
102
RTVSPost2010PropOp50
 70
     1
102
RTVSPost2010Prop51ColorIndex
 90
      256
102
RTVSPost2010Prop51ColorRGB
 90
-16777216
102
RTVSPost2010PropOp51
 70
     0
102
RTVSPost2010Prop52
140
1.0
102
RTVSPost2010PropOp52
 70
     0
102
RTVSPost2010Prop53
 90
        2
102
RTVSPost2010PropOp53
 70
     1
102
RTVSPost2010Prop54
  1
strokes_ogs.tif
102
RTVSPost2010PropOp54
 70
     1
102
RTVSPost2010Prop55
280
     0
102
RTVSPost2010PropOp55
 70
     1
102
RTVSPost2010Prop56
140
1.0
102
RTVSPost2010PropOp56
 70
     1
102
RTVSPost2010Prop57
140
1.0
102
RTVSPost2010PropOp57
 70
     1
102
RTVSPropertyOp0
 70
     1
102
RTVSPropertyOp1
 70
     1
102
RTVSPropertyOp2
 70
     1
102
RTVSPropertyOp3
 70
     1
102
RTVSPropertyOp4
 70
     1
102
RTVSPropertyOp5
 70
     1
102
RTVSPropertyOp6
 70
     1
102
RTVSPropertyOp7
 70
     1
102
RTVSPropertyOp8
 70
     1
102
RTVSPropertyOp9
 70
     1
102
RTVSPropertyOp10
 70
     1
102
RTVSPropertyOp11
 70
     1
102
RTVSPropertyOp12
 70
     1
102
RTVSPropertyOp13
 70
     1
102
RTVSPropertyOp14
 70
     1
102
RTVSPropertyOp15
 70
     1
102
RTVSPropertyOp16
 70
     1
102
RTVSPropertyOp17
 70
     1
102
RTVSPropertyOp18
 70
     1
102
RTVSPropertyOp19
 70
     1
102
RTVSPropertyOp20
 70
     1
102
RTVSPropertyOp21
 70
     1
102
RTVSPropertyOp22
 70
     1
102
RTVSPropertyOp23
 70
     1
102
RTVSPropertyOp24
 70
     1
102
RTVSPropertyOp25
 70
     1
102
RTVSPropertyOp26
 70
     1
102
RTVSPropertyOp27
 70
     1
102
RTVSPropertyOp28
 70
     1
102
RTVSPropertyOp29
 70
     1
102
RTVSPropertyOp30
 70
     1
102
RTVSPropertyOp31
 70
     1
102
RTVSPropertyOp32
 70
     1
102
RTVSPropertyOp33
 70
     1
102
RTVSPropertyOp34
 70
     1
102
RTVSPropertyOp35
 70
     1
102
RTVSPropertyOp36
 70
     1
102
RTVSPropertyOp37
 70
     1
102
RTVSPropertyOp38
 70
     1
102
RTVSPropertyOp39
 70
     1
102
RTVSPropertyOp40
 70
     1
102
RTVSPropertyOp41
 70
     1
102
RTVSPropertyOp42
 70
     1
102
RTVSPropertyOp43
 70
     1
102
RTVSPropertyOp44
 70
     1
102
RTVSPropertyOp45
 70
     1
102
RTVSPropertyOp46
 70
     1
102
RTVSPropertyOp47
 70
     1
102
RTVSPropertyOp48
 70
     1
102
RTVSPropertyOp49
 70
     1
102
RTVSPropertyOp50
 70
     1
102
RTVSPropertyOp51
 70
     0
102
RTVSPropertyOp52
 70
     0
102
RTVSPropertyOp53
 70
     1
102
RTVSPropertyOp54
 70
     1
102
RTVSPropertyOp55
 70
     1
102
RTVSPropertyOp56
 70
     1
102
RTVSPropertyOp57
 70
     1
102
RTVSPropertyOp58
 70
     1
102
RTVSPropertyOp59
 70
     1
102
RTVSPropertyOp60
 70
     1
102
RTVSPropertyOp61
 70
     1
102
RTVSPropertyOp62
 70
     1
  0
XRECORD
  5
C218
102
{ACAD_REACTORS
330
C217
102
}
330
C217
100
AcDbXrecord
280
     1
102
RTVSPost2010Prop28
280
     0
102
RTVSPost2010PropOp28
 70
     1
102
RTVSPost2010Prop29
280
     1
102
RTVSPost2010PropOp29
 70
     1
102
RTVSPost2010Prop30
280
     1
102
RTVSPost2010PropOp30
 70
     1
102
RTVSPost2010Prop31
280
     0
102
RTVSPost2010PropOp31
 70
     1
102
RTVSPost2010Prop32
280
     0
102
RTVSPost2010PropOp32
 70
     1
102
RTVSPost2010Prop33
280
     0
102
RTVSPost2010PropOp33
 70
     1
102
RTVSPost2010Prop34
280
     0
102
RTVSPost2010PropOp34
 70
     1
102
RTVSPost2010Prop35
280
     0
102
RTVSPost2010PropOp35
 70
     1
102
RTVSPost2010Prop36
280
     0
102
RTVSPost2010PropOp36
 70
     1
102
RTVSPost2010Prop37
 90
       50
102
RTVSPost2010PropOp37
 70
     1
102
RTVSPost2010Prop38
140
0.0
102
RTVSPost2010PropOp38
 70
     1
102
RTVSPost2010Prop39
140
1.0
102
RTVSPost2010PropOp39
 70
     1
102
RTVSPost2010Prop40
 90
        0
102
RTVSPost2010PropOp40
 70
     1
102
RTVSPost2010Prop41ColorIndex
 90
       18
102
RTVSPost2010Prop41ColorRGB
 90
        0
102
RTVSPost2010PropOp41
 70
     1
102
RTVSPost2010Prop42
 90
       50
102
RTVSPost2010PropOp42
 70
     1
102
RTVSPost2010Prop43
 90
        3
102
RTVSPost2010PropOp43
 70
     1
102
RTVSPost2010Prop44ColorIndex
 90
        5
102
RTVSPost2010Prop44ColorRGB
 90
      255
102
RTVSPost2010PropOp44
 70
     1
102
RTVSPost2010Prop45
280
     0
102
RTVSPost2010PropOp45
 70
     1
102
RTVSPost2010Prop46
 90
       50
102
RTVSPost2010PropOp46
 70
     1
102
RTVSPost2010Prop47
 90
       50
102
RTVSPost2010PropOp47
 70
     1
102
RTVSPost2010Prop48
 90
       50
102
RTVSPost2010PropOp48
 70
     1
102
RTVSPost2010Prop49
280
     0
102
RTVSPost2010PropOp49
 70
     1
102
RTVSPost2010Prop50
 90
       50
102
RTVSPost2010PropOp50
 70
     1
102
RTVSPost2010Prop51ColorIndex
 90
      256
102
RTVSPost2010Prop51ColorRGB
 90
-16777216
102
RTVSPost2010PropOp51
 70
     0
102
RTVSPost2010Prop52
140
1.0
102
RTVSPost2010PropOp52
 70
     0
102
RTVSPost2010Prop53
 90
        2
102
RTVSPost2010PropOp53
 70
     1
102
RTVSPost2010Prop54
  1
strokes_ogs.tif
102
RTVSPost2010PropOp54
 70
     1
102
RTVSPost2010Prop55
280
     0
102
RTVSPost2010PropOp55
 70
     1
102
RTVSPost2010Prop56
140
1.0
102
RTVSPost2010PropOp56
 70
     1
102
RTVSPost2010Prop57
140
1.0
102
RTVSPost2010PropOp57
 70
     1
102
RTVSPropertyOp0
 70
     1
102
RTVSPropertyOp1
 70
     1
102
RTVSPropertyOp2
 70
     1
102
RTVSPropertyOp3
 70
     1
102
RTVSPropertyOp4
 70
     1
102
RTVSPropertyOp5
 70
     1
102
RTVSPropertyOp6
 70
     1
102
RTVSPropertyOp7
 70
     1
102
RTVSPropertyOp8
 70
     1
102
RTVSPropertyOp9
 70
     1
102
RTVSPropertyOp10
 70
     1
102
RTVSPropertyOp11
 70
     1
102
RTVSPropertyOp12
 70
     1
102
RTVSPropertyOp13
 70
     1
102
RTVSPropertyOp14
 70
     1
102
RTVSPropertyOp15
 70
     1
102
RTVSPropertyOp16
 70
     1
102
RTVSPropertyOp17
 70
     1
102
RTVSPropertyOp18
 70
     1
102
RTVSPropertyOp19
 70
     1
102
RTVSPropertyOp20
 70
     1
102
RTVSPropertyOp21
 70
     1
102
RTVSPropertyOp22
 70
     1
102
RTVSPropertyOp23
 70
     1
102
RTVSPropertyOp24
 70
     1
102
RTVSPropertyOp25
 70
     1
102
RTVSPropertyOp26
 70
     1
102
RTVSPropertyOp27
 70
     1
102
RTVSPropertyOp28
 70
     1
102
RTVSPropertyOp29
 70
     1
102
RTVSPropertyOp30
 70
     1
102
RTVSPropertyOp31
 70
     1
102
RTVSPropertyOp32
 70
     1
102
RTVSPropertyOp33
 70
     1
102
RTVSPropertyOp34
 70
     1
102
RTVSPropertyOp35
 70
     1
102
RTVSPropertyOp36
 70
     1
102
RTVSPropertyOp37
 70
     1
102
RTVSPropertyOp38
 70
     1
102
RTVSPropertyOp39
 70
     1
102
RTVSPropertyOp40
 70
     1
102
RTVSPropertyOp41
 70
     1
102
RTVSPropertyOp42
 70
     1
102
RTVSPropertyOp43
 70
     1
102
RTVSPropertyOp44
 70
     1
102
RTVSPropertyOp45
 70
     1
102
RTVSPropertyOp46
 70
     1
102
RTVSPropertyOp47
 70
     1
102
RTVSPropertyOp48
 70
     1
102
RTVSPropertyOp49
 70
     1
102
RTVSPropertyOp50
 70
     1
102
RTVSPropertyOp51
 70
     0
102
RTVSPropertyOp52
 70
     0
102
RTVSPropertyOp53
 70
     1
102
RTVSPropertyOp54
 70
     1
102
RTVSPropertyOp55
 70
     1
102
RTVSPropertyOp56
 70
     1
102
RTVSPropertyOp57
 70
     1
102
RTVSPropertyOp58
 70
     1
102
RTVSPropertyOp59
 70
     1
102
RTVSPropertyOp60
 70
     1
102
RTVSPropertyOp61
 70
     1
102
RTVSPropertyOp62
 70
     1
  0
XRECORD
  5
C20A
102
{ACAD_REACTORS
330
C209
102
}
330
C209
100
AcDbXrecord
280
     1
102
RTVSPost2010Prop28
280
     0
102
RTVSPost2010PropOp28
 70
     1
102
RTVSPost2010Prop29
280
     1
102
RTVSPost2010PropOp29
 70
     1
102
RTVSPost2010Prop30
280
     1
102
RTVSPost2010PropOp30
 70
     1
102
RTVSPost2010Prop31
280
     0
102
RTVSPost2010PropOp31
 70
     1
102
RTVSPost2010Prop32
280
     0
102
RTVSPost2010PropOp32
 70
     1
102
RTVSPost2010Prop33
280
     0
102
RTVSPost2010PropOp33
 70
     1
102
RTVSPost2010Prop34
280
     0
102
RTVSPost2010PropOp34
 70
     1
102
RTVSPost2010Prop35
280
     0
102
RTVSPost2010PropOp35
 70
     1
102
RTVSPost2010Prop36
280
     0
102
RTVSPost2010PropOp36
 70
     1
102
RTVSPost2010Prop37
 90
       50
102
RTVSPost2010PropOp37
 70
     1
102
RTVSPost2010Prop38
140
0.0
102
RTVSPost2010PropOp38
 70
     1
102
RTVSPost2010Prop39
140
1.0
102
RTVSPost2010PropOp39
 70
     1
102
RTVSPost2010Prop40
 90
        0
102
RTVSPost2010PropOp40
 70
     1
102
RTVSPost2010Prop41ColorIndex
 90
       18
102
RTVSPost2010Prop41ColorRGB
 90
        0
102
RTVSPost2010PropOp41
 70
     1
102
RTVSPost2010Prop42
 90
       50
102
RTVSPost2010PropOp42
 70
     1
102
RTVSPost2010Prop43
 90
        3
102
RTVSPost2010PropOp43
 70
     1
102
RTVSPost2010Prop44ColorIndex
 90
        5
102
RTVSPost2010Prop44ColorRGB
 90
      255
102
RTVSPost2010PropOp44
 70
     1
102
RTVSPost2010Prop45
280
     0
102
RTVSPost2010PropOp45
 70
     1
102
RTVSPost2010Prop46
 90
       50
102
RTVSPost2010PropOp46
 70
     1
102
RTVSPost2010Prop47
 90
       50
102
RTVSPost2010PropOp47
 70
     1
102
RTVSPost2010Prop48
 90
       50
102
RTVSPost2010PropOp48
 70
     1
102
RTVSPost2010Prop49
280
     0
102
RTVSPost2010PropOp49
 70
     1
102
RTVSPost2010Prop50
 90
       50
102
RTVSPost2010PropOp50
 70
     1
102
RTVSPost2010Prop51ColorIndex
 90
      256
102
RTVSPost2010Prop51ColorRGB
 90
-16777216
102
RTVSPost2010PropOp51
 70
     0
102
RTVSPost2010Prop52
140
1.0
102
RTVSPost2010PropOp52
 70
     0
102
RTVSPost2010Prop53
 90
        2
102
RTVSPost2010PropOp53
 70
     1
102
RTVSPost2010Prop54
  1
strokes_ogs.tif
102
RTVSPost2010PropOp54
 70
     1
102
RTVSPost2010Prop55
280
     0
102
RTVSPost2010PropOp55
 70
     1
102
RTVSPost2010Prop56
140
1.0
102
RTVSPost2010PropOp56
 70
     1
102
RTVSPost2010Prop57
140
1.0
102
RTVSPost2010PropOp57
 70
     1
102
RTVSPropertyOp0
 70
     1
102
RTVSPropertyOp1
 70
     1
102
RTVSPropertyOp2
 70
     1
102
RTVSPropertyOp3
 70
     1
102
RTVSPropertyOp4
 70
     1
102
RTVSPropertyOp5
 70
     1
102
RTVSPropertyOp6
 70
     1
102
RTVSPropertyOp7
 70
     1
102
RTVSPropertyOp8
 70
     1
102
RTVSPropertyOp9
 70
     1
102
RTVSPropertyOp10
 70
     1
102
RTVSPropertyOp11
 70
     1
102
RTVSPropertyOp12
 70
     1
102
RTVSPropertyOp13
 70
     1
102
RTVSPropertyOp14
 70
     1
102
RTVSPropertyOp15
 70
     1
102
RTVSPropertyOp16
 70
     1
102
RTVSPropertyOp17
 70
     1
102
RTVSPropertyOp18
 70
     1
102
RTVSPropertyOp19
 70
     1
102
RTVSPropertyOp20
 70
     1
102
RTVSPropertyOp21
 70
     1
102
RTVSPropertyOp22
 70
     1
102
RTVSPropertyOp23
 70
     1
102
RTVSPropertyOp24
 70
     1
102
RTVSPropertyOp25
 70
     1
102
RTVSPropertyOp26
 70
     1
102
RTVSPropertyOp27
 70
     1
102
RTVSPropertyOp28
 70
     1
102
RTVSPropertyOp29
 70
     1
102
RTVSPropertyOp30
 70
     1
102
RTVSPropertyOp31
 70
     1
102
RTVSPropertyOp32
 70
     1
102
RTVSPropertyOp33
 70
     1
102
RTVSPropertyOp34
 70
     1
102
RTVSPropertyOp35
 70
     1
102
RTVSPropertyOp36
 70
     1
102
RTVSPropertyOp37
 70
     1
102
RTVSPropertyOp38
 70
     1
102
RTVSPropertyOp39
 70
     1
102
RTVSPropertyOp40
 70
     1
102
RTVSPropertyOp41
 70
     1
102
RTVSPropertyOp42
 70
     1
102
RTVSPropertyOp43
 70
     1
102
RTVSPropertyOp44
 70
     1
102
RTVSPropertyOp45
 70
     1
102
RTVSPropertyOp46
 70
     1
102
RTVSPropertyOp47
 70
     1
102
RTVSPropertyOp48
 70
     1
102
RTVSPropertyOp49
 70
     1
102
RTVSPropertyOp50
 70
     1
102
RTVSPropertyOp51
 70
     0
102
RTVSPropertyOp52
 70
     0
102
RTVSPropertyOp53
 70
     1
102
RTVSPropertyOp54
 70
     1
102
RTVSPropertyOp55
 70
     1
102
RTVSPropertyOp56
 70
     1
102
RTVSPropertyOp57
 70
     1
102
RTVSPropertyOp58
 70
     1
102
RTVSPropertyOp59
 70
     1
102
RTVSPropertyOp60
 70
     1
102
RTVSPropertyOp61
 70
     1
102
RTVSPropertyOp62
 70
     1
  0
XRECORD
  5
C20E
102
{ACAD_REACTORS
330
C20D
102
}
330
C20D
100
AcDbXrecord
280
     1
102
RTVSPost2010Prop28
280
     0
102
RTVSPost2010PropOp28
 70
     1
102
RTVSPost2010Prop29
280
     1
102
RTVSPost2010PropOp29
 70
     1
102
RTVSPost2010Prop30
280
     1
102
RTVSPost2010PropOp30
 70
     1
102
RTVSPost2010Prop31
280
     0
102
RTVSPost2010PropOp31
 70
     1
102
RTVSPost2010Prop32
280
     0
102
RTVSPost2010PropOp32
 70
     1
102
RTVSPost2010Prop33
280
     0
102
RTVSPost2010PropOp33
 70
     1
102
RTVSPost2010Prop34
280
     0
102
RTVSPost2010PropOp34
 70
     1
102
RTVSPost2010Prop35
280
     0
102
RTVSPost2010PropOp35
 70
     1
102
RTVSPost2010Prop36
280
     0
102
RTVSPost2010PropOp36
 70
     1
102
RTVSPost2010Prop37
 90
       50
102
RTVSPost2010PropOp37
 70
     1
102
RTVSPost2010Prop38
140
0.0
102
RTVSPost2010PropOp38
 70
     1
102
RTVSPost2010Prop39
140
1.0
102
RTVSPost2010PropOp39
 70
     1
102
RTVSPost2010Prop40
 90
        0
102
RTVSPost2010PropOp40
 70
     1
102
RTVSPost2010Prop41ColorIndex
 90
       18
102
RTVSPost2010Prop41ColorRGB
 90
        0
102
RTVSPost2010PropOp41
 70
     1
102
RTVSPost2010Prop42
 90
       50
102
RTVSPost2010PropOp42
 70
     1
102
RTVSPost2010Prop43
 90
        3
102
RTVSPost2010PropOp43
 70
     1
102
RTVSPost2010Prop44ColorIndex
 90
        5
102
RTVSPost2010Prop44ColorRGB
 90
      255
102
RTVSPost2010PropOp44
 70
     1
102
RTVSPost2010Prop45
280
     0
102
RTVSPost2010PropOp45
 70
     1
102
RTVSPost2010Prop46
 90
       50
102
RTVSPost2010PropOp46
 70
     1
102
RTVSPost2010Prop47
 90
       50
102
RTVSPost2010PropOp47
 70
     1
102
RTVSPost2010Prop48
 90
       50
102
RTVSPost2010PropOp48
 70
     1
102
RTVSPost2010Prop49
280
     0
102
RTVSPost2010PropOp49
 70
     1
102
RTVSPost2010Prop50
 90
       50
102
RTVSPost2010PropOp50
 70
     1
102
RTVSPost2010Prop51ColorIndex
 90
      256
102
RTVSPost2010Prop51ColorRGB
 90
-16777216
102
RTVSPost2010PropOp51
 70
     0
102
RTVSPost2010Prop52
140
1.0
102
RTVSPost2010PropOp52
 70
     0
102
RTVSPost2010Prop53
 90
        2
102
RTVSPost2010PropOp53
 70
     1
102
RTVSPost2010Prop54
  1
strokes_ogs.tif
102
RTVSPost2010PropOp54
 70
     1
102
RTVSPost2010Prop55
280
     0
102
RTVSPost2010PropOp55
 70
     1
102
RTVSPost2010Prop56
140
1.0
102
RTVSPost2010PropOp56
 70
     1
102
RTVSPost2010Prop57
140
1.0
102
RTVSPost2010PropOp57
 70
     1
102
RTVSPropertyOp0
 70
     1
102
RTVSPropertyOp1
 70
     1
102
RTVSPropertyOp2
 70
     1
102
RTVSPropertyOp3
 70
     1
102
RTVSPropertyOp4
 70
     1
102
RTVSPropertyOp5
 70
     1
102
RTVSPropertyOp6
 70
     1
102
RTVSPropertyOp7
 70
     1
102
RTVSPropertyOp8
 70
     1
102
RTVSPropertyOp9
 70
     1
102
RTVSPropertyOp10
 70
     1
102
RTVSPropertyOp11
 70
     1
102
RTVSPropertyOp12
 70
     1
102
RTVSPropertyOp13
 70
     1
102
RTVSPropertyOp14
 70
     1
102
RTVSPropertyOp15
 70
     1
102
RTVSPropertyOp16
 70
     1
102
RTVSPropertyOp17
 70
     1
102
RTVSPropertyOp18
 70
     1
102
RTVSPropertyOp19
 70
     1
102
RTVSPropertyOp20
 70
     1
102
RTVSPropertyOp21
 70
     1
102
RTVSPropertyOp22
 70
     1
102
RTVSPropertyOp23
 70
     1
102
RTVSPropertyOp24
 70
     1
102
RTVSPropertyOp25
 70
     1
102
RTVSPropertyOp26
 70
     1
102
RTVSPropertyOp27
 70
     1
102
RTVSPropertyOp28
 70
     1
102
RTVSPropertyOp29
 70
     1
102
RTVSPropertyOp30
 70
     1
102
RTVSPropertyOp31
 70
     1
102
RTVSPropertyOp32
 70
     1
102
RTVSPropertyOp33
 70
     1
102
RTVSPropertyOp34
 70
     1
102
RTVSPropertyOp35
 70
     1
102
RTVSPropertyOp36
 70
     1
102
RTVSPropertyOp37
 70
     1
102
RTVSPropertyOp38
 70
     1
102
RTVSPropertyOp39
 70
     1
102
RTVSPropertyOp40
 70
     1
102
RTVSPropertyOp41
 70
     1
102
RTVSPropertyOp42
 70
     1
102
RTVSPropertyOp43
 70
     1
102
RTVSPropertyOp44
 70
     1
102
RTVSPropertyOp45
 70
     1
102
RTVSPropertyOp46
 70
     1
102
RTVSPropertyOp47
 70
     1
102
RTVSPropertyOp48
 70
     1
102
RTVSPropertyOp49
 70
     1
102
RTVSPropertyOp50
 70
     1
102
RTVSPropertyOp51
 70
     0
102
RTVSPropertyOp52
 70
     0
102
RTVSPropertyOp53
 70
     1
102
RTVSPropertyOp54
 70
     1
102
RTVSPropertyOp55
 70
     1
102
RTVSPropertyOp56
 70
     1
102
RTVSPropertyOp57
 70
     1
102
RTVSPropertyOp58
 70
     1
102
RTVSPropertyOp59
 70
     1
102
RTVSPropertyOp60
 70
     1
102
RTVSPropertyOp61
 70
     1
102
RTVSPropertyOp62
 70
     1
  0
XRECORD
  5
C228
102
{ACAD_REACTORS
330
C227
102
}
330
C227
100
AcDbXrecord
280
     1
102
RTVSPost2010Prop28
280
     0
102
RTVSPost2010PropOp28
 70
     1
102
RTVSPost2010Prop29
280
     1
102
RTVSPost2010PropOp29
 70
     1
102
RTVSPost2010Prop30
280
     1
102
RTVSPost2010PropOp30
 70
     1
102
RTVSPost2010Prop31
280
     0
102
RTVSPost2010PropOp31
 70
     1
102
RTVSPost2010Prop32
280
     0
102
RTVSPost2010PropOp32
 70
     1
102
RTVSPost2010Prop33
280
     0
102
RTVSPost2010PropOp33
 70
     1
102
RTVSPost2010Prop34
280
     0
102
RTVSPost2010PropOp34
 70
     1
102
RTVSPost2010Prop35
280
     0
102
RTVSPost2010PropOp35
 70
     1
102
RTVSPost2010Prop36
280
     0
102
RTVSPost2010PropOp36
 70
     1
102
RTVSPost2010Prop37
 90
       50
102
RTVSPost2010PropOp37
 70
     0
102
RTVSPost2010Prop38
140
0.0
102
RTVSPost2010PropOp38
 70
     0
102
RTVSPost2010Prop39
140
1.0
102
RTVSPost2010PropOp39
 70
     0
102
RTVSPost2010Prop40
 90
        0
102
RTVSPost2010PropOp40
 70
     0
102
RTVSPost2010Prop41ColorIndex
 90
       18
102
RTVSPost2010Prop41ColorRGB
 90
        0
102
RTVSPost2010PropOp41
 70
     0
102
RTVSPost2010Prop42
 90
       50
102
RTVSPost2010PropOp42
 70
     0
102
RTVSPost2010Prop43
 90
        3
102
RTVSPost2010PropOp43
 70
     0
102
RTVSPost2010Prop44ColorIndex
 90
        5
102
RTVSPost2010Prop44ColorRGB
 90
      255
102
RTVSPost2010PropOp44
 70
     0
102
RTVSPost2010Prop45
280
     0
102
RTVSPost2010PropOp45
 70
     1
102
RTVSPost2010Prop46
 90
       50
102
RTVSPost2010PropOp46
 70
     0
102
RTVSPost2010Prop47
 90
       50
102
RTVSPost2010PropOp47
 70
     0
102
RTVSPost2010Prop48
 90
       50
102
RTVSPost2010PropOp48
 70
     0
102
RTVSPost2010Prop49
280
     0
102
RTVSPost2010PropOp49
 70
     1
102
RTVSPost2010Prop50
 90
       50
102
RTVSPost2010PropOp50
 70
     0
102
RTVSPost2010Prop51ColorIndex
 90
      256
102
RTVSPost2010Prop51ColorRGB
 90
-16777216
102
RTVSPost2010PropOp51
 70
     0
102
RTVSPost2010Prop52
140
1.0
102
RTVSPost2010PropOp52
 70
     0
102
RTVSPost2010Prop53
 90
        2
102
RTVSPost2010PropOp53
 70
     0
102
RTVSPost2010Prop54
  1
strokes_ogs.tif
102
RTVSPost2010PropOp54
 70
     0
102
RTVSPost2010Prop55
280
     0
102
RTVSPost2010PropOp55
 70
     1
102
RTVSPost2010Prop56
140
1.0
102
RTVSPost2010PropOp56
 70
     0
102
RTVSPost2010Prop57
140
1.0
102
RTVSPost2010PropOp57
 70
     0
102
RTVSPropertyOp0
 70
     0
102
RTVSPropertyOp1
 70
     0
102
RTVSPropertyOp2
 70
     0
102
RTVSPropertyOp3
 70
     0
102
RTVSPropertyOp4
 70
     0
102
RTVSPropertyOp5
 70
     0
102
RTVSPropertyOp6
 70
     0
102
RTVSPropertyOp7
 70
     0
102
RTVSPropertyOp8
 70
     0
102
RTVSPropertyOp9
 70
     0
102
RTVSPropertyOp10
 70
     0
102
RTVSPropertyOp11
 70
     0
102
RTVSPropertyOp12
 70
     0
102
RTVSPropertyOp13
 70
     0
102
RTVSPropertyOp14
 70
     2
102
RTVSPropertyOp15
 70
     0
102
RTVSPropertyOp16
 70
     0
102
RTVSPropertyOp17
 70
     0
102
RTVSPropertyOp18
 70
     0
102
RTVSPropertyOp19
 70
     0
102
RTVSPropertyOp20
 70
     0
102
RTVSPropertyOp21
 70
     0
102
RTVSPropertyOp22
 70
     0
102
RTVSPropertyOp23
 70
     0
102
RTVSPropertyOp24
 70
     0
102
RTVSPropertyOp25
 70
     0
102
RTVSPropertyOp26
 70
     0
102
RTVSPropertyOp27
 70
     0
102
RTVSPropertyOp28
 70
     1
102
RTVSPropertyOp29
 70
     1
102
RTVSPropertyOp30
 70
     1
102
RTVSPropertyOp31
 70
     1
102
RTVSPropertyOp32
 70
     1
102
RTVSPropertyOp33
 70
     1
102
RTVSPropertyOp34
 70
     1
102
RTVSPropertyOp35
 70
     1
102
RTVSPropertyOp36
 70
     1
102
RTVSPropertyOp37
 70
     0
102
RTVSPropertyOp38
 70
     0
102
RTVSPropertyOp39
 70
     0
102
RTVSPropertyOp40
 70
     0
102
RTVSPropertyOp41
 70
     0
102
RTVSPropertyOp42
 70
     0
102
RTVSPropertyOp43
 70
     0
102
RTVSPropertyOp44
 70
     0
102
RTVSPropertyOp45
 70
     1
102
RTVSPropertyOp46
 70
     0
102
RTVSPropertyOp47
 70
     0
102
RTVSPropertyOp48
 70
     0
102
RTVSPropertyOp49
 70
     1
102
RTVSPropertyOp50
 70
     0
102
RTVSPropertyOp51
 70
     0
102
RTVSPropertyOp52
 70
     0
102
RTVSPropertyOp53
 70
     0
102
RTVSPropertyOp54
 70
     0
102
RTVSPropertyOp55
 70
     1
102
RTVSPropertyOp56
 70
     0
102
RTVSPropertyOp57
 70
     0
102
RTVSPropertyOp58
 70
     0
102
RTVSPropertyOp59
 70
     0
102
RTVSPropertyOp60
 70
     0
102
RTVSPropertyOp61
 70
     0
102
RTVSPropertyOp62
 70
     0
  0
XRECORD
  5
C216
102
{ACAD_REACTORS
330
C215
102
}
330
C215
100
AcDbXrecord
280
     1
102
RTVSPost2010Prop28
280
     0
102
RTVSPost2010PropOp28
 70
     1
102
RTVSPost2010Prop29
280
     1
102
RTVSPost2010PropOp29
 70
     1
102
RTVSPost2010Prop30
280
     1
102
RTVSPost2010PropOp30
 70
     1
102
RTVSPost2010Prop31
280
     0
102
RTVSPost2010PropOp31
 70
     1
102
RTVSPost2010Prop32
280
     0
102
RTVSPost2010PropOp32
 70
     1
102
RTVSPost2010Prop33
280
     0
102
RTVSPost2010PropOp33
 70
     1
102
RTVSPost2010Prop34
280
     0
102
RTVSPost2010PropOp34
 70
     1
102
RTVSPost2010Prop35
280
     0
102
RTVSPost2010PropOp35
 70
     1
102
RTVSPost2010Prop36
280
     0
102
RTVSPost2010PropOp36
 70
     1
102
RTVSPost2010Prop37
 90
       50
102
RTVSPost2010PropOp37
 70
     1
102
RTVSPost2010Prop38
140
0.0
102
RTVSPost2010PropOp38
 70
     1
102
RTVSPost2010Prop39
140
1.0
102
RTVSPost2010PropOp39
 70
     1
102
RTVSPost2010Prop40
 90
        0
102
RTVSPost2010PropOp40
 70
     1
102
RTVSPost2010Prop41ColorIndex
 90
       18
102
RTVSPost2010Prop41ColorRGB
 90
        0
102
RTVSPost2010PropOp41
 70
     1
102
RTVSPost2010Prop42
 90
       50
102
RTVSPost2010PropOp42
 70
     1
102
RTVSPost2010Prop43
 90
        3
102
RTVSPost2010PropOp43
 70
     1
102
RTVSPost2010Prop44ColorIndex
 90
        5
102
RTVSPost2010Prop44ColorRGB
 90
      255
102
RTVSPost2010PropOp44
 70
     1
102
RTVSPost2010Prop45
280
     0
102
RTVSPost2010PropOp45
 70
     1
102
RTVSPost2010Prop46
 90
       50
102
RTVSPost2010PropOp46
 70
     1
102
RTVSPost2010Prop47
 90
       50
102
RTVSPost2010PropOp47
 70
     1
102
RTVSPost2010Prop48
 90
       50
102
RTVSPost2010PropOp48
 70
     1
102
RTVSPost2010Prop49
280
     0
102
RTVSPost2010PropOp49
 70
     1
102
RTVSPost2010Prop50
 90
       50
102
RTVSPost2010PropOp50
 70
     1
102
RTVSPost2010Prop51ColorIndex
 90
      256
102
RTVSPost2010Prop51ColorRGB
 90
-16777216
102
RTVSPost2010PropOp51
 70
     0
102
RTVSPost2010Prop52
140
1.0
102
RTVSPost2010PropOp52
 70
     0
102
RTVSPost2010Prop53
 90
        2
102
RTVSPost2010PropOp53
 70
     1
102
RTVSPost2010Prop54
  1
strokes_ogs.tif
102
RTVSPost2010PropOp54
 70
     1
102
RTVSPost2010Prop55
280
     0
102
RTVSPost2010PropOp55
 70
     1
102
RTVSPost2010Prop56
140
1.0
102
RTVSPost2010PropOp56
 70
     1
102
RTVSPost2010Prop57
140
1.0
102
RTVSPost2010PropOp57
 70
     1
102
RTVSPropertyOp0
 70
     1
102
RTVSPropertyOp1
 70
     1
102
RTVSPropertyOp2
 70
     1
102
RTVSPropertyOp3
 70
     1
102
RTVSPropertyOp4
 70
     1
102
RTVSPropertyOp5
 70
     1
102
RTVSPropertyOp6
 70
     1
102
RTVSPropertyOp7
 70
     1
102
RTVSPropertyOp8
 70
     1
102
RTVSPropertyOp9
 70
     1
102
RTVSPropertyOp10
 70
     1
102
RTVSPropertyOp11
 70
     1
102
RTVSPropertyOp12
 70
     1
102
RTVSPropertyOp13
 70
     1
102
RTVSPropertyOp14
 70
     1
102
RTVSPropertyOp15
 70
     1
102
RTVSPropertyOp16
 70
     1
102
RTVSPropertyOp17
 70
     1
102
RTVSPropertyOp18
 70
     1
102
RTVSPropertyOp19
 70
     1
102
RTVSPropertyOp20
 70
     1
102
RTVSPropertyOp21
 70
     1
102
RTVSPropertyOp22
 70
     1
102
RTVSPropertyOp23
 70
     1
102
RTVSPropertyOp24
 70
     1
102
RTVSPropertyOp25
 70
     1
102
RTVSPropertyOp26
 70
     1
102
RTVSPropertyOp27
 70
     1
102
RTVSPropertyOp28
 70
     1
102
RTVSPropertyOp29
 70
     1
102
RTVSPropertyOp30
 70
     1
102
RTVSPropertyOp31
 70
     1
102
RTVSPropertyOp32
 70
     1
102
RTVSPropertyOp33
 70
     1
102
RTVSPropertyOp34
 70
     1
102
RTVSPropertyOp35
 70
     1
102
RTVSPropertyOp36
 70
     1
102
RTVSPropertyOp37
 70
     1
102
RTVSPropertyOp38
 70
     1
102
RTVSPropertyOp39
 70
     1
102
RTVSPropertyOp40
 70
     1
102
RTVSPropertyOp41
 70
     1
102
RTVSPropertyOp42
 70
     1
102
RTVSPropertyOp43
 70
     1
102
RTVSPropertyOp44
 70
     1
102
RTVSPropertyOp45
 70
     1
102
RTVSPropertyOp46
 70
     1
102
RTVSPropertyOp47
 70
     1
102
RTVSPropertyOp48
 70
     1
102
RTVSPropertyOp49
 70
     1
102
RTVSPropertyOp50
 70
     1
102
RTVSPropertyOp51
 70
     0
102
RTVSPropertyOp52
 70
     0
102
RTVSPropertyOp53
 70
     1
102
RTVSPropertyOp54
 70
     1
102
RTVSPropertyOp55
 70
     1
102
RTVSPropertyOp56
 70
     1
102
RTVSPropertyOp57
 70
     1
102
RTVSPropertyOp58
 70
     1
102
RTVSPropertyOp59
 70
     1
102
RTVSPropertyOp60
 70
     1
102
RTVSPropertyOp61
 70
     1
102
RTVSPropertyOp62
 70
     1
  0
XRECORD
  5
C1FA
102
{ACAD_REACTORS
330
C1F9
102
}
330
C1F9
100
AcDbXrecord
280
     1
102
RTVSPost2010Prop28
280
     0
102
RTVSPost2010PropOp28
 70
     1
102
RTVSPost2010Prop29
280
     1
102
RTVSPost2010PropOp29
 70
     1
102
RTVSPost2010Prop30
280
     1
102
RTVSPost2010PropOp30
 70
     1
102
RTVSPost2010Prop31
280
     0
102
RTVSPost2010PropOp31
 70
     1
102
RTVSPost2010Prop32
280
     0
102
RTVSPost2010PropOp32
 70
     1
102
RTVSPost2010Prop33
280
     0
102
RTVSPost2010PropOp33
 70
     1
102
RTVSPost2010Prop34
280
     0
102
RTVSPost2010PropOp34
 70
     1
102
RTVSPost2010Prop35
280
     0
102
RTVSPost2010PropOp35
 70
     1
102
RTVSPost2010Prop36
280
     0
102
RTVSPost2010PropOp36
 70
     1
102
RTVSPost2010Prop37
 90
       50
102
RTVSPost2010PropOp37
 70
     1
102
RTVSPost2010Prop38
140
0.0
102
RTVSPost2010PropOp38
 70
     1
102
RTVSPost2010Prop39
140
1.0
102
RTVSPost2010PropOp39
 70
     1
102
RTVSPost2010Prop40
 90
        0
102
RTVSPost2010PropOp40
 70
     1
102
RTVSPost2010Prop41ColorIndex
 90
       18
102
RTVSPost2010Prop41ColorRGB
 90
        0
102
RTVSPost2010PropOp41
 70
     1
102
RTVSPost2010Prop42
 90
       50
102
RTVSPost2010PropOp42
 70
     1
102
RTVSPost2010Prop43
 90
        3
102
RTVSPost2010PropOp43
 70
     1
102
RTVSPost2010Prop44ColorIndex
 90
        5
102
RTVSPost2010Prop44ColorRGB
 90
      255
102
RTVSPost2010PropOp44
 70
     1
102
RTVSPost2010Prop45
280
     0
102
RTVSPost2010PropOp45
 70
     1
102
RTVSPost2010Prop46
 90
       50
102
RTVSPost2010PropOp46
 70
     1
102
RTVSPost2010Prop47
 90
       50
102
RTVSPost2010PropOp47
 70
     1
102
RTVSPost2010Prop48
 90
       50
102
RTVSPost2010PropOp48
 70
     1
102
RTVSPost2010Prop49
280
     0
102
RTVSPost2010PropOp49
 70
     1
102
RTVSPost2010Prop50
 90
       50
102
RTVSPost2010PropOp50
 70
     1
102
RTVSPost2010Prop51ColorIndex
 90
      256
102
RTVSPost2010Prop51ColorRGB
 90
-16777216
102
RTVSPost2010PropOp51
 70
     0
102
RTVSPost2010Prop52
140
1.0
102
RTVSPost2010PropOp52
 70
     0
102
RTVSPost2010Prop53
 90
        2
102
RTVSPost2010PropOp53
 70
     1
102
RTVSPost2010Prop54
  1
strokes_ogs.tif
102
RTVSPost2010PropOp54
 70
     1
102
RTVSPost2010Prop55
280
     0
102
RTVSPost2010PropOp55
 70
     1
102
RTVSPost2010Prop56
140
1.0
102
RTVSPost2010PropOp56
 70
     1
102
RTVSPost2010Prop57
140
1.0
102
RTVSPost2010PropOp57
 70
     1
102
RTVSPropertyOp0
 70
     1
102
RTVSPropertyOp1
 70
     1
102
RTVSPropertyOp2
 70
     1
102
RTVSPropertyOp3
 70
     1
102
RTVSPropertyOp4
 70
     1
102
RTVSPropertyOp5
 70
     1
102
RTVSPropertyOp6
 70
     1
102
RTVSPropertyOp7
 70
     1
102
RTVSPropertyOp8
 70
     1
102
RTVSPropertyOp9
 70
     1
102
RTVSPropertyOp10
 70
     1
102
RTVSPropertyOp11
 70
     1
102
RTVSPropertyOp12
 70
     1
102
RTVSPropertyOp13
 70
     1
102
RTVSPropertyOp14
 70
     1
102
RTVSPropertyOp15
 70
     1
102
RTVSPropertyOp16
 70
     1
102
RTVSPropertyOp17
 70
     1
102
RTVSPropertyOp18
 70
     1
102
RTVSPropertyOp19
 70
     1
102
RTVSPropertyOp20
 70
     1
102
RTVSPropertyOp21
 70
     1
102
RTVSPropertyOp22
 70
     1
102
RTVSPropertyOp23
 70
     1
102
RTVSPropertyOp24
 70
     1
102
RTVSPropertyOp25
 70
     1
102
RTVSPropertyOp26
 70
     1
102
RTVSPropertyOp27
 70
     1
102
RTVSPropertyOp28
 70
     1
102
RTVSPropertyOp29
 70
     1
102
RTVSPropertyOp30
 70
     1
102
RTVSPropertyOp31
 70
     1
102
RTVSPropertyOp32
 70
     1
102
RTVSPropertyOp33
 70
     1
102
RTVSPropertyOp34
 70
     1
102
RTVSPropertyOp35
 70
     1
102
RTVSPropertyOp36
 70
     1
102
RTVSPropertyOp37
 70
     1
102
RTVSPropertyOp38
 70
     1
102
RTVSPropertyOp39
 70
     1
102
RTVSPropertyOp40
 70
     1
102
RTVSPropertyOp41
 70
     1
102
RTVSPropertyOp42
 70
     1
102
RTVSPropertyOp43
 70
     1
102
RTVSPropertyOp44
 70
     1
102
RTVSPropertyOp45
 70
     1
102
RTVSPropertyOp46
 70
     1
102
RTVSPropertyOp47
 70
     1
102
RTVSPropertyOp48
 70
     1
102
RTVSPropertyOp49
 70
     1
102
RTVSPropertyOp50
 70
     1
102
RTVSPropertyOp51
 70
     0
102
RTVSPropertyOp52
 70
     0
102
RTVSPropertyOp53
 70
     1
102
RTVSPropertyOp54
 70
     1
102
RTVSPropertyOp55
 70
     1
102
RTVSPropertyOp56
 70
     1
102
RTVSPropertyOp57
 70
     1
102
RTVSPropertyOp58
 70
     1
102
RTVSPropertyOp59
 70
     1
102
RTVSPropertyOp60
 70
     1
102
RTVSPropertyOp61
 70
     1
102
RTVSPropertyOp62
 70
     1
  0
XRECORD
  5
C1FC
102
{ACAD_REACTORS
330
C1FB
102
}
330
C1FB
100
AcDbXrecord
280
     1
102
RTVSPost2010Prop28
280
     0
102
RTVSPost2010PropOp28
 70
     1
102
RTVSPost2010Prop29
280
     1
102
RTVSPost2010PropOp29
 70
     1
102
RTVSPost2010Prop30
280
     1
102
RTVSPost2010PropOp30
 70
     1
102
RTVSPost2010Prop31
280
     0
102
RTVSPost2010PropOp31
 70
     1
102
RTVSPost2010Prop32
280
     0
102
RTVSPost2010PropOp32
 70
     1
102
RTVSPost2010Prop33
280
     0
102
RTVSPost2010PropOp33
 70
     1
102
RTVSPost2010Prop34
280
     0
102
RTVSPost2010PropOp34
 70
     1
102
RTVSPost2010Prop35
280
     0
102
RTVSPost2010PropOp35
 70
     1
102
RTVSPost2010Prop36
280
     0
102
RTVSPost2010PropOp36
 70
     1
102
RTVSPost2010Prop37
 90
       50
102
RTVSPost2010PropOp37
 70
     1
102
RTVSPost2010Prop38
140
0.0
102
RTVSPost2010PropOp38
 70
     1
102
RTVSPost2010Prop39
140
1.0
102
RTVSPost2010PropOp39
 70
     1
102
RTVSPost2010Prop40
 90
        0
102
RTVSPost2010PropOp40
 70
     1
102
RTVSPost2010Prop41ColorIndex
 90
       18
102
RTVSPost2010Prop41ColorRGB
 90
        0
102
RTVSPost2010PropOp41
 70
     1
102
RTVSPost2010Prop42
 90
       50
102
RTVSPost2010PropOp42
 70
     1
102
RTVSPost2010Prop43
 90
        3
102
RTVSPost2010PropOp43
 70
     1
102
RTVSPost2010Prop44ColorIndex
 90
        5
102
RTVSPost2010Prop44ColorRGB
 90
      255
102
RTVSPost2010PropOp44
 70
     1
102
RTVSPost2010Prop45
280
     0
102
RTVSPost2010PropOp45
 70
     1
102
RTVSPost2010Prop46
 90
       50
102
RTVSPost2010PropOp46
 70
     1
102
RTVSPost2010Prop47
 90
       50
102
RTVSPost2010PropOp47
 70
     1
102
RTVSPost2010Prop48
 90
       50
102
RTVSPost2010PropOp48
 70
     1
102
RTVSPost2010Prop49
280
     0
102
RTVSPost2010PropOp49
 70
     1
102
RTVSPost2010Prop50
 90
       50
102
RTVSPost2010PropOp50
 70
     1
102
RTVSPost2010Prop51ColorIndex
 90
      256
102
RTVSPost2010Prop51ColorRGB
 90
-16777216
102
RTVSPost2010PropOp51
 70
     0
102
RTVSPost2010Prop52
140
1.0
102
RTVSPost2010PropOp52
 70
     0
102
RTVSPost2010Prop53
 90
        2
102
RTVSPost2010PropOp53
 70
     1
102
RTVSPost2010Prop54
  1
strokes_ogs.tif
102
RTVSPost2010PropOp54
 70
     1
102
RTVSPost2010Prop55
280
     0
102
RTVSPost2010PropOp55
 70
     1
102
RTVSPost2010Prop56
140
1.0
102
RTVSPost2010PropOp56
 70
     1
102
RTVSPost2010Prop57
140
1.0
102
RTVSPost2010PropOp57
 70
     1
102
RTVSPropertyOp0
 70
     1
102
RTVSPropertyOp1
 70
     1
102
RTVSPropertyOp2
 70
     1
102
RTVSPropertyOp3
 70
     1
102
RTVSPropertyOp4
 70
     1
102
RTVSPropertyOp5
 70
     1
102
RTVSPropertyOp6
 70
     1
102
RTVSPropertyOp7
 70
     1
102
RTVSPropertyOp8
 70
     1
102
RTVSPropertyOp9
 70
     1
102
RTVSPropertyOp10
 70
     1
102
RTVSPropertyOp11
 70
     1
102
RTVSPropertyOp12
 70
     1
102
RTVSPropertyOp13
 70
     1
102
RTVSPropertyOp14
 70
     1
102
RTVSPropertyOp15
 70
     1
102
RTVSPropertyOp16
 70
     1
102
RTVSPropertyOp17
 70
     1
102
RTVSPropertyOp18
 70
     1
102
RTVSPropertyOp19
 70
     1
102
RTVSPropertyOp20
 70
     1
102
RTVSPropertyOp21
 70
     1
102
RTVSPropertyOp22
 70
     1
102
RTVSPropertyOp23
 70
     1
102
RTVSPropertyOp24
 70
     1
102
RTVSPropertyOp25
 70
     1
102
RTVSPropertyOp26
 70
     1
102
RTVSPropertyOp27
 70
     1
102
RTVSPropertyOp28
 70
     1
102
RTVSPropertyOp29
 70
     1
102
RTVSPropertyOp30
 70
     1
102
RTVSPropertyOp31
 70
     1
102
RTVSPropertyOp32
 70
     1
102
RTVSPropertyOp33
 70
     1
102
RTVSPropertyOp34
 70
     1
102
RTVSPropertyOp35
 70
     1
102
RTVSPropertyOp36
 70
     1
102
RTVSPropertyOp37
 70
     1
102
RTVSPropertyOp38
 70
     1
102
RTVSPropertyOp39
 70
     1
102
RTVSPropertyOp40
 70
     1
102
RTVSPropertyOp41
 70
     1
102
RTVSPropertyOp42
 70
     1
102
RTVSPropertyOp43
 70
     1
102
RTVSPropertyOp44
 70
     1
102
RTVSPropertyOp45
 70
     1
102
RTVSPropertyOp46
 70
     1
102
RTVSPropertyOp47
 70
     1
102
RTVSPropertyOp48
 70
     1
102
RTVSPropertyOp49
 70
     1
102
RTVSPropertyOp50
 70
     1
102
RTVSPropertyOp51
 70
     0
102
RTVSPropertyOp52
 70
     0
102
RTVSPropertyOp53
 70
     1
102
RTVSPropertyOp54
 70
     1
102
RTVSPropertyOp55
 70
     1
102
RTVSPropertyOp56
 70
     1
102
RTVSPropertyOp57
 70
     1
102
RTVSPropertyOp58
 70
     1
102
RTVSPropertyOp59
 70
     1
102
RTVSPropertyOp60
 70
     1
102
RTVSPropertyOp61
 70
     1
102
RTVSPropertyOp62
 70
     1
  0
XRECORD
  5
C1FE
102
{ACAD_REACTORS
330
C1FD
102
}
330
C1FD
100
AcDbXrecord
280
     1
102
RTVSPost2010Prop28
280
     0
102
RTVSPost2010PropOp28
 70
     1
102
RTVSPost2010Prop29
280
     1
102
RTVSPost2010PropOp29
 70
     1
102
RTVSPost2010Prop30
280
     1
102
RTVSPost2010PropOp30
 70
     1
102
RTVSPost2010Prop31
280
     0
102
RTVSPost2010PropOp31
 70
     1
102
RTVSPost2010Prop32
280
     0
102
RTVSPost2010PropOp32
 70
     1
102
RTVSPost2010Prop33
280
     0
102
RTVSPost2010PropOp33
 70
     1
102
RTVSPost2010Prop34
280
     0
102
RTVSPost2010PropOp34
 70
     1
102
RTVSPost2010Prop35
280
     0
102
RTVSPost2010PropOp35
 70
     1
102
RTVSPost2010Prop36
280
     0
102
RTVSPost2010PropOp36
 70
     1
102
RTVSPost2010Prop37
 90
       50
102
RTVSPost2010PropOp37
 70
     1
102
RTVSPost2010Prop38
140
0.0
102
RTVSPost2010PropOp38
 70
     1
102
RTVSPost2010Prop39
140
1.0
102
RTVSPost2010PropOp39
 70
     1
102
RTVSPost2010Prop40
 90
        0
102
RTVSPost2010PropOp40
 70
     1
102
RTVSPost2010Prop41ColorIndex
 90
       18
102
RTVSPost2010Prop41ColorRGB
 90
        0
102
RTVSPost2010PropOp41
 70
     1
102
RTVSPost2010Prop42
 90
       50
102
RTVSPost2010PropOp42
 70
     1
102
RTVSPost2010Prop43
 90
        3
102
RTVSPost2010PropOp43
 70
     1
102
RTVSPost2010Prop44ColorIndex
 90
        5
102
RTVSPost2010Prop44ColorRGB
 90
      255
102
RTVSPost2010PropOp44
 70
     1
102
RTVSPost2010Prop45
280
     0
102
RTVSPost2010PropOp45
 70
     1
102
RTVSPost2010Prop46
 90
       50
102
RTVSPost2010PropOp46
 70
     1
102
RTVSPost2010Prop47
 90
       50
102
RTVSPost2010PropOp47
 70
     1
102
RTVSPost2010Prop48
 90
       50
102
RTVSPost2010PropOp48
 70
     1
102
RTVSPost2010Prop49
280
     0
102
RTVSPost2010PropOp49
 70
     1
102
RTVSPost2010Prop50
 90
       50
102
RTVSPost2010PropOp50
 70
     1
102
RTVSPost2010Prop51ColorIndex
 90
      256
102
RTVSPost2010Prop51ColorRGB
 90
-16777216
102
RTVSPost2010PropOp51
 70
     0
102
RTVSPost2010Prop52
140
1.0
102
RTVSPost2010PropOp52
 70
     0
102
RTVSPost2010Prop53
 90
        2
102
RTVSPost2010PropOp53
 70
     1
102
RTVSPost2010Prop54
  1
strokes_ogs.tif
102
RTVSPost2010PropOp54
 70
     1
102
RTVSPost2010Prop55
280
     0
102
RTVSPost2010PropOp55
 70
     1
102
RTVSPost2010Prop56
140
1.0
102
RTVSPost2010PropOp56
 70
     1
102
RTVSPost2010Prop57
140
1.0
102
RTVSPost2010PropOp57
 70
     1
102
RTVSPropertyOp0
 70
     1
102
RTVSPropertyOp1
 70
     1
102
RTVSPropertyOp2
 70
     1
102
RTVSPropertyOp3
 70
     1
102
RTVSPropertyOp4
 70
     1
102
RTVSPropertyOp5
 70
     1
102
RTVSPropertyOp6
 70
     1
102
RTVSPropertyOp7
 70
     1
102
RTVSPropertyOp8
 70
     1
102
RTVSPropertyOp9
 70
     1
102
RTVSPropertyOp10
 70
     1
102
RTVSPropertyOp11
 70
     1
102
RTVSPropertyOp12
 70
     1
102
RTVSPropertyOp13
 70
     1
102
RTVSPropertyOp14
 70
     1
102
RTVSPropertyOp15
 70
     1
102
RTVSPropertyOp16
 70
     1
102
RTVSPropertyOp17
 70
     1
102
RTVSPropertyOp18
 70
     1
102
RTVSPropertyOp19
 70
     1
102
RTVSPropertyOp20
 70
     1
102
RTVSPropertyOp21
 70
     1
102
RTVSPropertyOp22
 70
     1
102
RTVSPropertyOp23
 70
     1
102
RTVSPropertyOp24
 70
     1
102
RTVSPropertyOp25
 70
     1
102
RTVSPropertyOp26
 70
     1
102
RTVSPropertyOp27
 70
     1
102
RTVSPropertyOp28
 70
     1
102
RTVSPropertyOp29
 70
     1
102
RTVSPropertyOp30
 70
     1
102
RTVSPropertyOp31
 70
     1
102
RTVSPropertyOp32
 70
     1
102
RTVSPropertyOp33
 70
     1
102
RTVSPropertyOp34
 70
     1
102
RTVSPropertyOp35
 70
     1
102
RTVSPropertyOp36
 70
     1
102
RTVSPropertyOp37
 70
     1
102
RTVSPropertyOp38
 70
     1
102
RTVSPropertyOp39
 70
     1
102
RTVSPropertyOp40
 70
     1
102
RTVSPropertyOp41
 70
     1
102
RTVSPropertyOp42
 70
     1
102
RTVSPropertyOp43
 70
     1
102
RTVSPropertyOp44
 70
     1
102
RTVSPropertyOp45
 70
     1
102
RTVSPropertyOp46
 70
     1
102
RTVSPropertyOp47
 70
     1
102
RTVSPropertyOp48
 70
     1
102
RTVSPropertyOp49
 70
     1
102
RTVSPropertyOp50
 70
     1
102
RTVSPropertyOp51
 70
     0
102
RTVSPropertyOp52
 70
     0
102
RTVSPropertyOp53
 70
     1
102
RTVSPropertyOp54
 70
     1
102
RTVSPropertyOp55
 70
     1
102
RTVSPropertyOp56
 70
     1
102
RTVSPropertyOp57
 70
     1
102
RTVSPropertyOp58
 70
     1
102
RTVSPropertyOp59
 70
     1
102
RTVSPropertyOp60
 70
     1
102
RTVSPropertyOp61
 70
     1
102
RTVSPropertyOp62
 70
     1
  0
XRECORD
  5
C200
102
{ACAD_REACTORS
330
C1FF
102
}
330
C1FF
100
AcDbXrecord
280
     1
102
RTVSPost2010Prop28
280
     0
102
RTVSPost2010PropOp28
 70
     1
102
RTVSPost2010Prop29
280
     1
102
RTVSPost2010PropOp29
 70
     1
102
RTVSPost2010Prop30
280
     1
102
RTVSPost2010PropOp30
 70
     1
102
RTVSPost2010Prop31
280
     0
102
RTVSPost2010PropOp31
 70
     1
102
RTVSPost2010Prop32
280
     0
102
RTVSPost2010PropOp32
 70
     1
102
RTVSPost2010Prop33
280
     0
102
RTVSPost2010PropOp33
 70
     1
102
RTVSPost2010Prop34
280
     0
102
RTVSPost2010PropOp34
 70
     1
102
RTVSPost2010Prop35
280
     0
102
RTVSPost2010PropOp35
 70
     1
102
RTVSPost2010Prop36
280
     0
102
RTVSPost2010PropOp36
 70
     1
102
RTVSPost2010Prop37
 90
       50
102
RTVSPost2010PropOp37
 70
     1
102
RTVSPost2010Prop38
140
0.0
102
RTVSPost2010PropOp38
 70
     1
102
RTVSPost2010Prop39
140
1.0
102
RTVSPost2010PropOp39
 70
     1
102
RTVSPost2010Prop40
 90
        0
102
RTVSPost2010PropOp40
 70
     1
102
RTVSPost2010Prop41ColorIndex
 90
       18
102
RTVSPost2010Prop41ColorRGB
 90
        0
102
RTVSPost2010PropOp41
 70
     1
102
RTVSPost2010Prop42
 90
       50
102
RTVSPost2010PropOp42
 70
     1
102
RTVSPost2010Prop43
 90
        3
102
RTVSPost2010PropOp43
 70
     1
102
RTVSPost2010Prop44ColorIndex
 90
        5
102
RTVSPost2010Prop44ColorRGB
 90
      255
102
RTVSPost2010PropOp44
 70
     1
102
RTVSPost2010Prop45
280
     0
102
RTVSPost2010PropOp45
 70
     1
102
RTVSPost2010Prop46
 90
       50
102
RTVSPost2010PropOp46
 70
     1
102
RTVSPost2010Prop47
 90
       50
102
RTVSPost2010PropOp47
 70
     1
102
RTVSPost2010Prop48
 90
       50
102
RTVSPost2010PropOp48
 70
     1
102
RTVSPost2010Prop49
280
     0
102
RTVSPost2010PropOp49
 70
     1
102
RTVSPost2010Prop50
 90
       50
102
RTVSPost2010PropOp50
 70
     1
102
RTVSPost2010Prop51ColorIndex
 90
      256
102
RTVSPost2010Prop51ColorRGB
 90
-16777216
102
RTVSPost2010PropOp51
 70
     0
102
RTVSPost2010Prop52
140
1.0
102
RTVSPost2010PropOp52
 70
     0
102
RTVSPost2010Prop53
 90
        2
102
RTVSPost2010PropOp53
 70
     1
102
RTVSPost2010Prop54
  1
strokes_ogs.tif
102
RTVSPost2010PropOp54
 70
     1
102
RTVSPost2010Prop55
280
     0
102
RTVSPost2010PropOp55
 70
     1
102
RTVSPost2010Prop56
140
1.0
102
RTVSPost2010PropOp56
 70
     1
102
RTVSPost2010Prop57
140
1.0
102
RTVSPost2010PropOp57
 70
     1
102
RTVSPropertyOp0
 70
     1
102
RTVSPropertyOp1
 70
     1
102
RTVSPropertyOp2
 70
     1
102
RTVSPropertyOp3
 70
     1
102
RTVSPropertyOp4
 70
     1
102
RTVSPropertyOp5
 70
     1
102
RTVSPropertyOp6
 70
     1
102
RTVSPropertyOp7
 70
     1
102
RTVSPropertyOp8
 70
     1
102
RTVSPropertyOp9
 70
     1
102
RTVSPropertyOp10
 70
     1
102
RTVSPropertyOp11
 70
     1
102
RTVSPropertyOp12
 70
     1
102
RTVSPropertyOp13
 70
     1
102
RTVSPropertyOp14
 70
     1
102
RTVSPropertyOp15
 70
     1
102
RTVSPropertyOp16
 70
     1
102
RTVSPropertyOp17
 70
     1
102
RTVSPropertyOp18
 70
     1
102
RTVSPropertyOp19
 70
     1
102
RTVSPropertyOp20
 70
     1
102
RTVSPropertyOp21
 70
     1
102
RTVSPropertyOp22
 70
     1
102
RTVSPropertyOp23
 70
     1
102
RTVSPropertyOp24
 70
     1
102
RTVSPropertyOp25
 70
     1
102
RTVSPropertyOp26
 70
     1
102
RTVSPropertyOp27
 70
     1
102
RTVSPropertyOp28
 70
     1
102
RTVSPropertyOp29
 70
     1
102
RTVSPropertyOp30
 70
     1
102
RTVSPropertyOp31
 70
     1
102
RTVSPropertyOp32
 70
     1
102
RTVSPropertyOp33
 70
     1
102
RTVSPropertyOp34
 70
     1
102
RTVSPropertyOp35
 70
     1
102
RTVSPropertyOp36
 70
     1
102
RTVSPropertyOp37
 70
     1
102
RTVSPropertyOp38
 70
     1
102
RTVSPropertyOp39
 70
     1
102
RTVSPropertyOp40
 70
     1
102
RTVSPropertyOp41
 70
     1
102
RTVSPropertyOp42
 70
     1
102
RTVSPropertyOp43
 70
     1
102
RTVSPropertyOp44
 70
     1
102
RTVSPropertyOp45
 70
     1
102
RTVSPropertyOp46
 70
     1
102
RTVSPropertyOp47
 70
     1
102
RTVSPropertyOp48
 70
     1
102
RTVSPropertyOp49
 70
     1
102
RTVSPropertyOp50
 70
     1
102
RTVSPropertyOp51
 70
     0
102
RTVSPropertyOp52
 70
     0
102
RTVSPropertyOp53
 70
     1
102
RTVSPropertyOp54
 70
     1
102
RTVSPropertyOp55
 70
     1
102
RTVSPropertyOp56
 70
     1
102
RTVSPropertyOp57
 70
     1
102
RTVSPropertyOp58
 70
     1
102
RTVSPropertyOp59
 70
     1
102
RTVSPropertyOp60
 70
     1
102
RTVSPropertyOp61
 70
     1
102
RTVSPropertyOp62
 70
     1
  0
XRECORD
  5
C208
102
{ACAD_REACTORS
330
C207
102
}
330
C207
100
AcDbXrecord
280
     1
102
RTVSPost2010Prop28
280
     0
102
RTVSPost2010PropOp28
 70
     1
102
RTVSPost2010Prop29
280
     1
102
RTVSPost2010PropOp29
 70
     1
102
RTVSPost2010Prop30
280
     1
102
RTVSPost2010PropOp30
 70
     1
102
RTVSPost2010Prop31
280
     0
102
RTVSPost2010PropOp31
 70
     1
102
RTVSPost2010Prop32
280
     0
102
RTVSPost2010PropOp32
 70
     1
102
RTVSPost2010Prop33
280
     0
102
RTVSPost2010PropOp33
 70
     1
102
RTVSPost2010Prop34
280
     0
102
RTVSPost2010PropOp34
 70
     1
102
RTVSPost2010Prop35
280
     0
102
RTVSPost2010PropOp35
 70
     1
102
RTVSPost2010Prop36
280
     0
102
RTVSPost2010PropOp36
 70
     1
102
RTVSPost2010Prop37
 90
       50
102
RTVSPost2010PropOp37
 70
     1
102
RTVSPost2010Prop38
140
0.0
102
RTVSPost2010PropOp38
 70
     1
102
RTVSPost2010Prop39
140
1.0
102
RTVSPost2010PropOp39
 70
     1
102
RTVSPost2010Prop40
 90
        0
102
RTVSPost2010PropOp40
 70
     1
102
RTVSPost2010Prop41ColorIndex
 90
       18
102
RTVSPost2010Prop41ColorRGB
 90
        0
102
RTVSPost2010PropOp41
 70
     1
102
RTVSPost2010Prop42
 90
       50
102
RTVSPost2010PropOp42
 70
     1
102
RTVSPost2010Prop43
 90
        3
102
RTVSPost2010PropOp43
 70
     1
102
RTVSPost2010Prop44ColorIndex
 90
        5
102
RTVSPost2010Prop44ColorRGB
 90
      255
102
RTVSPost2010PropOp44
 70
     1
102
RTVSPost2010Prop45
280
     0
102
RTVSPost2010PropOp45
 70
     1
102
RTVSPost2010Prop46
 90
       50
102
RTVSPost2010PropOp46
 70
     1
102
RTVSPost2010Prop47
 90
       50
102
RTVSPost2010PropOp47
 70
     1
102
RTVSPost2010Prop48
 90
       50
102
RTVSPost2010PropOp48
 70
     1
102
RTVSPost2010Prop49
280
     0
102
RTVSPost2010PropOp49
 70
     1
102
RTVSPost2010Prop50
 90
       50
102
RTVSPost2010PropOp50
 70
     1
102
RTVSPost2010Prop51ColorIndex
 90
      256
102
RTVSPost2010Prop51ColorRGB
 90
-16777216
102
RTVSPost2010PropOp51
 70
     0
102
RTVSPost2010Prop52
140
1.0
102
RTVSPost2010PropOp52
 70
     0
102
RTVSPost2010Prop53
 90
        2
102
RTVSPost2010PropOp53
 70
     1
102
RTVSPost2010Prop54
  1
strokes_ogs.tif
102
RTVSPost2010PropOp54
 70
     1
102
RTVSPost2010Prop55
280
     0
102
RTVSPost2010PropOp55
 70
     1
102
RTVSPost2010Prop56
140
1.0
102
RTVSPost2010PropOp56
 70
     1
102
RTVSPost2010Prop57
140
1.0
102
RTVSPost2010PropOp57
 70
     1
102
RTVSPropertyOp0
 70
     1
102
RTVSPropertyOp1
 70
     1
102
RTVSPropertyOp2
 70
     1
102
RTVSPropertyOp3
 70
     1
102
RTVSPropertyOp4
 70
     1
102
RTVSPropertyOp5
 70
     1
102
RTVSPropertyOp6
 70
     1
102
RTVSPropertyOp7
 70
     1
102
RTVSPropertyOp8
 70
     1
102
RTVSPropertyOp9
 70
     1
102
RTVSPropertyOp10
 70
     1
102
RTVSPropertyOp11
 70
     1
102
RTVSPropertyOp12
 70
     1
102
RTVSPropertyOp13
 70
     1
102
RTVSPropertyOp14
 70
     1
102
RTVSPropertyOp15
 70
     1
102
RTVSPropertyOp16
 70
     1
102
RTVSPropertyOp17
 70
     1
102
RTVSPropertyOp18
 70
     1
102
RTVSPropertyOp19
 70
     1
102
RTVSPropertyOp20
 70
     1
102
RTVSPropertyOp21
 70
     1
102
RTVSPropertyOp22
 70
     1
102
RTVSPropertyOp23
 70
     1
102
RTVSPropertyOp24
 70
     1
102
RTVSPropertyOp25
 70
     1
102
RTVSPropertyOp26
 70
     1
102
RTVSPropertyOp27
 70
     1
102
RTVSPropertyOp28
 70
     1
102
RTVSPropertyOp29
 70
     1
102
RTVSPropertyOp30
 70
     1
102
RTVSPropertyOp31
 70
     1
102
RTVSPropertyOp32
 70
     1
102
RTVSPropertyOp33
 70
     1
102
RTVSPropertyOp34
 70
     1
102
RTVSPropertyOp35
 70
     1
102
RTVSPropertyOp36
 70
     1
102
RTVSPropertyOp37
 70
     1
102
RTVSPropertyOp38
 70
     1
102
RTVSPropertyOp39
 70
     1
102
RTVSPropertyOp40
 70
     1
102
RTVSPropertyOp41
 70
     1
102
RTVSPropertyOp42
 70
     1
102
RTVSPropertyOp43
 70
     1
102
RTVSPropertyOp44
 70
     1
102
RTVSPropertyOp45
 70
     1
102
RTVSPropertyOp46
 70
     1
102
RTVSPropertyOp47
 70
     1
102
RTVSPropertyOp48
 70
     1
102
RTVSPropertyOp49
 70
     1
102
RTVSPropertyOp50
 70
     1
102
RTVSPropertyOp51
 70
     0
102
RTVSPropertyOp52
 70
     0
102
RTVSPropertyOp53
 70
     1
102
RTVSPropertyOp54
 70
     1
102
RTVSPropertyOp55
 70
     1
102
RTVSPropertyOp56
 70
     1
102
RTVSPropertyOp57
 70
     1
102
RTVSPropertyOp58
 70
     1
102
RTVSPropertyOp59
 70
     1
102
RTVSPropertyOp60
 70
     1
102
RTVSPropertyOp61
 70
     1
102
RTVSPropertyOp62
 70
     1
  0
XRECORD
  5
C224
102
{ACAD_REACTORS
330
C223
102
}
330
C223
100
AcDbXrecord
280
     1
102
RTVSPost2010Prop28
280
     0
102
RTVSPost2010PropOp28
 70
     1
102
RTVSPost2010Prop29
280
     1
102
RTVSPost2010PropOp29
 70
     1
102
RTVSPost2010Prop30
280
     1
102
RTVSPost2010PropOp30
 70
     1
102
RTVSPost2010Prop31
280
     0
102
RTVSPost2010PropOp31
 70
     1
102
RTVSPost2010Prop32
280
     0
102
RTVSPost2010PropOp32
 70
     1
102
RTVSPost2010Prop33
280
     0
102
RTVSPost2010PropOp33
 70
     1
102
RTVSPost2010Prop34
280
     0
102
RTVSPost2010PropOp34
 70
     1
102
RTVSPost2010Prop35
280
     0
102
RTVSPost2010PropOp35
 70
     1
102
RTVSPost2010Prop36
280
     0
102
RTVSPost2010PropOp36
 70
     1
102
RTVSPost2010Prop37
 90
       50
102
RTVSPost2010PropOp37
 70
     0
102
RTVSPost2010Prop38
140
0.0
102
RTVSPost2010PropOp38
 70
     0
102
RTVSPost2010Prop39
140
1.0
102
RTVSPost2010PropOp39
 70
     0
102
RTVSPost2010Prop40
 90
        0
102
RTVSPost2010PropOp40
 70
     0
102
RTVSPost2010Prop41ColorIndex
 90
       18
102
RTVSPost2010Prop41ColorRGB
 90
        0
102
RTVSPost2010PropOp41
 70
     0
102
RTVSPost2010Prop42
 90
       50
102
RTVSPost2010PropOp42
 70
     0
102
RTVSPost2010Prop43
 90
        3
102
RTVSPost2010PropOp43
 70
     0
102
RTVSPost2010Prop44ColorIndex
 90
        5
102
RTVSPost2010Prop44ColorRGB
 90
      255
102
RTVSPost2010PropOp44
 70
     0
102
RTVSPost2010Prop45
280
     0
102
RTVSPost2010PropOp45
 70
     1
102
RTVSPost2010Prop46
 90
       50
102
RTVSPost2010PropOp46
 70
     0
102
RTVSPost2010Prop47
 90
       50
102
RTVSPost2010PropOp47
 70
     0
102
RTVSPost2010Prop48
 90
       50
102
RTVSPost2010PropOp48
 70
     0
102
RTVSPost2010Prop49
280
     0
102
RTVSPost2010PropOp49
 70
     1
102
RTVSPost2010Prop50
 90
       50
102
RTVSPost2010PropOp50
 70
     0
102
RTVSPost2010Prop51ColorIndex
 90
      256
102
RTVSPost2010Prop51ColorRGB
 90
-16777216
102
RTVSPost2010PropOp51
 70
     0
102
RTVSPost2010Prop52
140
1.0
102
RTVSPost2010PropOp52
 70
     0
102
RTVSPost2010Prop53
 90
        2
102
RTVSPost2010PropOp53
 70
     0
102
RTVSPost2010Prop54
  1
strokes_ogs.tif
102
RTVSPost2010PropOp54
 70
     0
102
RTVSPost2010Prop55
280
     0
102
RTVSPost2010PropOp55
 70
     1
102
RTVSPost2010Prop56
140
1.0
102
RTVSPost2010PropOp56
 70
     0
102
RTVSPost2010Prop57
140
1.0
102
RTVSPost2010PropOp57
 70
     0
102
RTVSPropertyOp0
 70
     0
102
RTVSPropertyOp1
 70
     0
102
RTVSPropertyOp2
 70
     0
102
RTVSPropertyOp3
 70
     0
102
RTVSPropertyOp4
 70
     0
102
RTVSPropertyOp5
 70
     0
102
RTVSPropertyOp6
 70
     0
102
RTVSPropertyOp7
 70
     0
102
RTVSPropertyOp8
 70
     0
102
RTVSPropertyOp9
 70
     0
102
RTVSPropertyOp10
 70
     0
102
RTVSPropertyOp11
 70
     0
102
RTVSPropertyOp12
 70
     0
102
RTVSPropertyOp13
 70
     0
102
RTVSPropertyOp14
 70
     2
102
RTVSPropertyOp15
 70
     0
102
RTVSPropertyOp16
 70
     0
102
RTVSPropertyOp17
 70
     0
102
RTVSPropertyOp18
 70
     0
102
RTVSPropertyOp19
 70
     0
102
RTVSPropertyOp20
 70
     0
102
RTVSPropertyOp21
 70
     0
102
RTVSPropertyOp22
 70
     0
102
RTVSPropertyOp23
 70
     0
102
RTVSPropertyOp24
 70
     0
102
RTVSPropertyOp25
 70
     0
102
RTVSPropertyOp26
 70
     0
102
RTVSPropertyOp27
 70
     0
102
RTVSPropertyOp28
 70
     1
102
RTVSPropertyOp29
 70
     1
102
RTVSPropertyOp30
 70
     1
102
RTVSPropertyOp31
 70
     1
102
RTVSPropertyOp32
 70
     1
102
RTVSPropertyOp33
 70
     1
102
RTVSPropertyOp34
 70
     1
102
RTVSPropertyOp35
 70
     1
102
RTVSPropertyOp36
 70
     1
102
RTVSPropertyOp37
 70
     0
102
RTVSPropertyOp38
 70
     0
102
RTVSPropertyOp39
 70
     0
102
RTVSPropertyOp40
 70
     0
102
RTVSPropertyOp41
 70
     0
102
RTVSPropertyOp42
 70
     0
102
RTVSPropertyOp43
 70
     0
102
RTVSPropertyOp44
 70
     0
102
RTVSPropertyOp45
 70
     1
102
RTVSPropertyOp46
 70
     0
102
RTVSPropertyOp47
 70
     0
102
RTVSPropertyOp48
 70
     0
102
RTVSPropertyOp49
 70
     1
102
RTVSPropertyOp50
 70
     0
102
RTVSPropertyOp51
 70
     0
102
RTVSPropertyOp52
 70
     0
102
RTVSPropertyOp53
 70
     0
102
RTVSPropertyOp54
 70
     0
102
RTVSPropertyOp55
 70
     1
102
RTVSPropertyOp56
 70
     0
102
RTVSPropertyOp57
 70
     0
102
RTVSPropertyOp58
 70
     0
102
RTVSPropertyOp59
 70
     0
102
RTVSPropertyOp60
 70
     0
102
RTVSPropertyOp61
 70
     0
102
RTVSPropertyOp62
 70
     0
  0
XRECORD
  5
C214
102
{ACAD_REACTORS
330
C213
102
}
330
C213
100
AcDbXrecord
280
     1
102
RTVSPost2010Prop28
280
     0
102
RTVSPost2010PropOp28
 70
     1
102
RTVSPost2010Prop29
280
     1
102
RTVSPost2010PropOp29
 70
     1
102
RTVSPost2010Prop30
280
     1
102
RTVSPost2010PropOp30
 70
     1
102
RTVSPost2010Prop31
280
     0
102
RTVSPost2010PropOp31
 70
     1
102
RTVSPost2010Prop32
280
     0
102
RTVSPost2010PropOp32
 70
     1
102
RTVSPost2010Prop33
280
     0
102
RTVSPost2010PropOp33
 70
     1
102
RTVSPost2010Prop34
280
     0
102
RTVSPost2010PropOp34
 70
     1
102
RTVSPost2010Prop35
280
     0
102
RTVSPost2010PropOp35
 70
     1
102
RTVSPost2010Prop36
280
     0
102
RTVSPost2010PropOp36
 70
     1
102
RTVSPost2010Prop37
 90
       50
102
RTVSPost2010PropOp37
 70
     1
102
RTVSPost2010Prop38
140
0.0
102
RTVSPost2010PropOp38
 70
     1
102
RTVSPost2010Prop39
140
1.0
102
RTVSPost2010PropOp39
 70
     1
102
RTVSPost2010Prop40
 90
        0
102
RTVSPost2010PropOp40
 70
     1
102
RTVSPost2010Prop41ColorIndex
 90
       18
102
RTVSPost2010Prop41ColorRGB
 90
        0
102
RTVSPost2010PropOp41
 70
     1
102
RTVSPost2010Prop42
 90
       50
102
RTVSPost2010PropOp42
 70
     1
102
RTVSPost2010Prop43
 90
        3
102
RTVSPost2010PropOp43
 70
     1
102
RTVSPost2010Prop44ColorIndex
 90
        5
102
RTVSPost2010Prop44ColorRGB
 90
      255
102
RTVSPost2010PropOp44
 70
     1
102
RTVSPost2010Prop45
280
     0
102
RTVSPost2010PropOp45
 70
     1
102
RTVSPost2010Prop46
 90
       50
102
RTVSPost2010PropOp46
 70
     1
102
RTVSPost2010Prop47
 90
       50
102
RTVSPost2010PropOp47
 70
     1
102
RTVSPost2010Prop48
 90
       50
102
RTVSPost2010PropOp48
 70
     1
102
RTVSPost2010Prop49
280
     0
102
RTVSPost2010PropOp49
 70
     1
102
RTVSPost2010Prop50
 90
       50
102
RTVSPost2010PropOp50
 70
     1
102
RTVSPost2010Prop51ColorIndex
 90
      256
102
RTVSPost2010Prop51ColorRGB
 90
-16777216
102
RTVSPost2010PropOp51
 70
     0
102
RTVSPost2010Prop52
140
1.0
102
RTVSPost2010PropOp52
 70
     0
102
RTVSPost2010Prop53
 90
        2
102
RTVSPost2010PropOp53
 70
     1
102
RTVSPost2010Prop54
  1
strokes_ogs.tif
102
RTVSPost2010PropOp54
 70
     1
102
RTVSPost2010Prop55
280
     0
102
RTVSPost2010PropOp55
 70
     1
102
RTVSPost2010Prop56
140
1.0
102
RTVSPost2010PropOp56
 70
     1
102
RTVSPost2010Prop57
140
1.0
102
RTVSPost2010PropOp57
 70
     1
102
RTVSPropertyOp0
 70
     1
102
RTVSPropertyOp1
 70
     1
102
RTVSPropertyOp2
 70
     1
102
RTVSPropertyOp3
 70
     1
102
RTVSPropertyOp4
 70
     1
102
RTVSPropertyOp5
 70
     1
102
RTVSPropertyOp6
 70
     1
102
RTVSPropertyOp7
 70
     1
102
RTVSPropertyOp8
 70
     1
102
RTVSPropertyOp9
 70
     1
102
RTVSPropertyOp10
 70
     1
102
RTVSPropertyOp11
 70
     1
102
RTVSPropertyOp12
 70
     1
102
RTVSPropertyOp13
 70
     1
102
RTVSPropertyOp14
 70
     1
102
RTVSPropertyOp15
 70
     1
102
RTVSPropertyOp16
 70
     1
102
RTVSPropertyOp17
 70
     1
102
RTVSPropertyOp18
 70
     1
102
RTVSPropertyOp19
 70
     1
102
RTVSPropertyOp20
 70
     1
102
RTVSPropertyOp21
 70
     1
102
RTVSPropertyOp22
 70
     1
102
RTVSPropertyOp23
 70
     1
102
RTVSPropertyOp24
 70
     1
102
RTVSPropertyOp25
 70
     1
102
RTVSPropertyOp26
 70
     1
102
RTVSPropertyOp27
 70
     1
102
RTVSPropertyOp28
 70
     1
102
RTVSPropertyOp29
 70
     1
102
RTVSPropertyOp30
 70
     1
102
RTVSPropertyOp31
 70
     1
102
RTVSPropertyOp32
 70
     1
102
RTVSPropertyOp33
 70
     1
102
RTVSPropertyOp34
 70
     1
102
RTVSPropertyOp35
 70
     1
102
RTVSPropertyOp36
 70
     1
102
RTVSPropertyOp37
 70
     1
102
RTVSPropertyOp38
 70
     1
102
RTVSPropertyOp39
 70
     1
102
RTVSPropertyOp40
 70
     1
102
RTVSPropertyOp41
 70
     1
102
RTVSPropertyOp42
 70
     1
102
RTVSPropertyOp43
 70
     1
102
RTVSPropertyOp44
 70
     1
102
RTVSPropertyOp45
 70
     1
102
RTVSPropertyOp46
 70
     1
102
RTVSPropertyOp47
 70
     1
102
RTVSPropertyOp48
 70
     1
102
RTVSPropertyOp49
 70
     1
102
RTVSPropertyOp50
 70
     1
102
RTVSPropertyOp51
 70
     0
102
RTVSPropertyOp52
 70
     0
102
RTVSPropertyOp53
 70
     1
102
RTVSPropertyOp54
 70
     1
102
RTVSPropertyOp55
 70
     1
102
RTVSPropertyOp56
 70
     1
102
RTVSPropertyOp57
 70
     1
102
RTVSPropertyOp58
 70
     1
102
RTVSPropertyOp59
 70
     1
102
RTVSPropertyOp60
 70
     1
102
RTVSPropertyOp61
 70
     1
102
RTVSPropertyOp62
 70
     1
  0
XRECORD
  5
C226
102
{ACAD_REACTORS
330
C225
102
}
330
C225
100
AcDbXrecord
280
     1
102
RTVSPost2010Prop28
280
     0
102
RTVSPost2010PropOp28
 70
     1
102
RTVSPost2010Prop29
280
     1
102
RTVSPost2010PropOp29
 70
     1
102
RTVSPost2010Prop30
280
     1
102
RTVSPost2010PropOp30
 70
     1
102
RTVSPost2010Prop31
280
     0
102
RTVSPost2010PropOp31
 70
     1
102
RTVSPost2010Prop32
280
     0
102
RTVSPost2010PropOp32
 70
     1
102
RTVSPost2010Prop33
280
     0
102
RTVSPost2010PropOp33
 70
     1
102
RTVSPost2010Prop34
280
     0
102
RTVSPost2010PropOp34
 70
     1
102
RTVSPost2010Prop35
280
     0
102
RTVSPost2010PropOp35
 70
     1
102
RTVSPost2010Prop36
280
     0
102
RTVSPost2010PropOp36
 70
     1
102
RTVSPost2010Prop37
 90
       50
102
RTVSPost2010PropOp37
 70
     0
102
RTVSPost2010Prop38
140
0.0
102
RTVSPost2010PropOp38
 70
     0
102
RTVSPost2010Prop39
140
1.0
102
RTVSPost2010PropOp39
 70
     0
102
RTVSPost2010Prop40
 90
        0
102
RTVSPost2010PropOp40
 70
     0
102
RTVSPost2010Prop41ColorIndex
 90
       18
102
RTVSPost2010Prop41ColorRGB
 90
        0
102
RTVSPost2010PropOp41
 70
     0
102
RTVSPost2010Prop42
 90
       50
102
RTVSPost2010PropOp42
 70
     0
102
RTVSPost2010Prop43
 90
        3
102
RTVSPost2010PropOp43
 70
     0
102
RTVSPost2010Prop44ColorIndex
 90
        5
102
RTVSPost2010Prop44ColorRGB
 90
      255
102
RTVSPost2010PropOp44
 70
     0
102
RTVSPost2010Prop45
280
     0
102
RTVSPost2010PropOp45
 70
     1
102
RTVSPost2010Prop46
 90
       50
102
RTVSPost2010PropOp46
 70
     0
102
RTVSPost2010Prop47
 90
       50
102
RTVSPost2010PropOp47
 70
     0
102
RTVSPost2010Prop48
 90
       50
102
RTVSPost2010PropOp48
 70
     0
102
RTVSPost2010Prop49
280
     0
102
RTVSPost2010PropOp49
 70
     1
102
RTVSPost2010Prop50
 90
       50
102
RTVSPost2010PropOp50
 70
     0
102
RTVSPost2010Prop51ColorIndex
 90
      256
102
RTVSPost2010Prop51ColorRGB
 90
-16777216
102
RTVSPost2010PropOp51
 70
     0
102
RTVSPost2010Prop52
140
1.0
102
RTVSPost2010PropOp52
 70
     0
102
RTVSPost2010Prop53
 90
        2
102
RTVSPost2010PropOp53
 70
     0
102
RTVSPost2010Prop54
  1
strokes_ogs.tif
102
RTVSPost2010PropOp54
 70
     0
102
RTVSPost2010Prop55
280
     0
102
RTVSPost2010PropOp55
 70
     1
102
RTVSPost2010Prop56
140
1.0
102
RTVSPost2010PropOp56
 70
     0
102
RTVSPost2010Prop57
140
1.0
102
RTVSPost2010PropOp57
 70
     0
102
RTVSPropertyOp0
 70
     0
102
RTVSPropertyOp1
 70
     0
102
RTVSPropertyOp2
 70
     0
102
RTVSPropertyOp3
 70
     0
102
RTVSPropertyOp4
 70
     0
102
RTVSPropertyOp5
 70
     0
102
RTVSPropertyOp6
 70
     0
102
RTVSPropertyOp7
 70
     0
102
RTVSPropertyOp8
 70
     0
102
RTVSPropertyOp9
 70
     0
102
RTVSPropertyOp10
 70
     0
102
RTVSPropertyOp11
 70
     0
102
RTVSPropertyOp12
 70
     0
102
RTVSPropertyOp13
 70
     0
102
RTVSPropertyOp14
 70
     2
102
RTVSPropertyOp15
 70
     0
102
RTVSPropertyOp16
 70
     0
102
RTVSPropertyOp17
 70
     0
102
RTVSPropertyOp18
 70
     0
102
RTVSPropertyOp19
 70
     0
102
RTVSPropertyOp20
 70
     0
102
RTVSPropertyOp21
 70
     0
102
RTVSPropertyOp22
 70
     0
102
RTVSPropertyOp23
 70
     0
102
RTVSPropertyOp24
 70
     0
102
RTVSPropertyOp25
 70
     0
102
RTVSPropertyOp26
 70
     0
102
RTVSPropertyOp27
 70
     0
102
RTVSPropertyOp28
 70
     1
102
RTVSPropertyOp29
 70
     1
102
RTVSPropertyOp30
 70
     1
102
RTVSPropertyOp31
 70
     1
102
RTVSPropertyOp32
 70
     1
102
RTVSPropertyOp33
 70
     1
102
RTVSPropertyOp34
 70
     1
102
RTVSPropertyOp35
 70
     1
102
RTVSPropertyOp36
 70
     1
102
RTVSPropertyOp37
 70
     0
102
RTVSPropertyOp38
 70
     0
102
RTVSPropertyOp39
 70
     0
102
RTVSPropertyOp40
 70
     0
102
RTVSPropertyOp41
 70
     0
102
RTVSPropertyOp42
 70
     0
102
RTVSPropertyOp43
 70
     0
102
RTVSPropertyOp44
 70
     0
102
RTVSPropertyOp45
 70
     1
102
RTVSPropertyOp46
 70
     0
102
RTVSPropertyOp47
 70
     0
102
RTVSPropertyOp48
 70
     0
102
RTVSPropertyOp49
 70
     1
102
RTVSPropertyOp50
 70
     0
102
RTVSPropertyOp51
 70
     0
102
RTVSPropertyOp52
 70
     0
102
RTVSPropertyOp53
 70
     0
102
RTVSPropertyOp54
 70
     0
102
RTVSPropertyOp55
 70
     1
102
RTVSPropertyOp56
 70
     0
102
RTVSPropertyOp57
 70
     0
102
RTVSPropertyOp58
 70
     0
102
RTVSPropertyOp59
 70
     0
102
RTVSPropertyOp60
 70
     0
102
RTVSPropertyOp61
 70
     0
102
RTVSPropertyOp62
 70
     0
  0
XRECORD
  5
C20C
102
{ACAD_REACTORS
330
C20B
102
}
330
C20B
100
AcDbXrecord
280
     1
102
RTVSPost2010Prop28
280
     0
102
RTVSPost2010PropOp28
 70
     1
102
RTVSPost2010Prop29
280
     1
102
RTVSPost2010PropOp29
 70
     1
102
RTVSPost2010Prop30
280
     1
102
RTVSPost2010PropOp30
 70
     1
102
RTVSPost2010Prop31
280
     0
102
RTVSPost2010PropOp31
 70
     1
102
RTVSPost2010Prop32
280
     0
102
RTVSPost2010PropOp32
 70
     1
102
RTVSPost2010Prop33
280
     0
102
RTVSPost2010PropOp33
 70
     1
102
RTVSPost2010Prop34
280
     0
102
RTVSPost2010PropOp34
 70
     1
102
RTVSPost2010Prop35
280
     0
102
RTVSPost2010PropOp35
 70
     1
102
RTVSPost2010Prop36
280
     0
102
RTVSPost2010PropOp36
 70
     1
102
RTVSPost2010Prop37
 90
       50
102
RTVSPost2010PropOp37
 70
     1
102
RTVSPost2010Prop38
140
0.0
102
RTVSPost2010PropOp38
 70
     1
102
RTVSPost2010Prop39
140
1.0
102
RTVSPost2010PropOp39
 70
     1
102
RTVSPost2010Prop40
 90
        0
102
RTVSPost2010PropOp40
 70
     1
102
RTVSPost2010Prop41ColorIndex
 90
       18
102
RTVSPost2010Prop41ColorRGB
 90
        0
102
RTVSPost2010PropOp41
 70
     1
102
RTVSPost2010Prop42
 90
       50
102
RTVSPost2010PropOp42
 70
     1
102
RTVSPost2010Prop43
 90
        3
102
RTVSPost2010PropOp43
 70
     1
102
RTVSPost2010Prop44ColorIndex
 90
        5
102
RTVSPost2010Prop44ColorRGB
 90
      255
102
RTVSPost2010PropOp44
 70
     1
102
RTVSPost2010Prop45
280
     0
102
RTVSPost2010PropOp45
 70
     1
102
RTVSPost2010Prop46
 90
       50
102
RTVSPost2010PropOp46
 70
     1
102
RTVSPost2010Prop47
 90
       50
102
RTVSPost2010PropOp47
 70
     1
102
RTVSPost2010Prop48
 90
       50
102
RTVSPost2010PropOp48
 70
     1
102
RTVSPost2010Prop49
280
     0
102
RTVSPost2010PropOp49
 70
     1
102
RTVSPost2010Prop50
 90
       50
102
RTVSPost2010PropOp50
 70
     1
102
RTVSPost2010Prop51ColorIndex
 90
      256
102
RTVSPost2010Prop51ColorRGB
 90
-16777216
102
RTVSPost2010PropOp51
 70
     0
102
RTVSPost2010Prop52
140
1.0
102
RTVSPost2010PropOp52
 70
     0
102
RTVSPost2010Prop53
 90
        2
102
RTVSPost2010PropOp53
 70
     1
102
RTVSPost2010Prop54
  1
strokes_ogs.tif
102
RTVSPost2010PropOp54
 70
     1
102
RTVSPost2010Prop55
280
     0
102
RTVSPost2010PropOp55
 70
     1
102
RTVSPost2010Prop56
140
1.0
102
RTVSPost2010PropOp56
 70
     1
102
RTVSPost2010Prop57
140
1.0
102
RTVSPost2010PropOp57
 70
     1
102
RTVSPropertyOp0
 70
     1
102
RTVSPropertyOp1
 70
     1
102
RTVSPropertyOp2
 70
     1
102
RTVSPropertyOp3
 70
     1
102
RTVSPropertyOp4
 70
     1
102
RTVSPropertyOp5
 70
     1
102
RTVSPropertyOp6
 70
     1
102
RTVSPropertyOp7
 70
     1
102
RTVSPropertyOp8
 70
     1
102
RTVSPropertyOp9
 70
     1
102
RTVSPropertyOp10
 70
     1
102
RTVSPropertyOp11
 70
     1
102
RTVSPropertyOp12
 70
     1
102
RTVSPropertyOp13
 70
     1
102
RTVSPropertyOp14
 70
     1
102
RTVSPropertyOp15
 70
     1
102
RTVSPropertyOp16
 70
     1
102
RTVSPropertyOp17
 70
     1
102
RTVSPropertyOp18
 70
     1
102
RTVSPropertyOp19
 70
     1
102
RTVSPropertyOp20
 70
     1
102
RTVSPropertyOp21
 70
     1
102
RTVSPropertyOp22
 70
     1
102
RTVSPropertyOp23
 70
     1
102
RTVSPropertyOp24
 70
     1
102
RTVSPropertyOp25
 70
     1
102
RTVSPropertyOp26
 70
     1
102
RTVSPropertyOp27
 70
     1
102
RTVSPropertyOp28
 70
     1
102
RTVSPropertyOp29
 70
     1
102
RTVSPropertyOp30
 70
     1
102
RTVSPropertyOp31
 70
     1
102
RTVSPropertyOp32
 70
     1
102
RTVSPropertyOp33
 70
     1
102
RTVSPropertyOp34
 70
     1
102
RTVSPropertyOp35
 70
     1
102
RTVSPropertyOp36
 70
     1
102
RTVSPropertyOp37
 70
     1
102
RTVSPropertyOp38
 70
     1
102
RTVSPropertyOp39
 70
     1
102
RTVSPropertyOp40
 70
     1
102
RTVSPropertyOp41
 70
     1
102
RTVSPropertyOp42
 70
     1
102
RTVSPropertyOp43
 70
     1
102
RTVSPropertyOp44
 70
     1
102
RTVSPropertyOp45
 70
     1
102
RTVSPropertyOp46
 70
     1
102
RTVSPropertyOp47
 70
     1
102
RTVSPropertyOp48
 70
     1
102
RTVSPropertyOp49
 70
     1
102
RTVSPropertyOp50
 70
     1
102
RTVSPropertyOp51
 70
     0
102
RTVSPropertyOp52
 70
     0
102
RTVSPropertyOp53
 70
     1
102
RTVSPropertyOp54
 70
     1
102
RTVSPropertyOp55
 70
     1
102
RTVSPropertyOp56
 70
     1
102
RTVSPropertyOp57
 70
     1
102
RTVSPropertyOp58
 70
     1
102
RTVSPropertyOp59
 70
     1
102
RTVSPropertyOp60
 70
     1
102
RTVSPropertyOp61
 70
     1
102
RTVSPropertyOp62
 70
     1
  0
XRECORD
  5
C222
102
{ACAD_REACTORS
330
C221
102
}
330
C221
100
AcDbXrecord
280
     1
102
RTVSPost2010Prop28
280
     0
102
RTVSPost2010PropOp28
 70
     1
102
RTVSPost2010Prop29
280
     1
102
RTVSPost2010PropOp29
 70
     1
102
RTVSPost2010Prop30
280
     1
102
RTVSPost2010PropOp30
 70
     1
102
RTVSPost2010Prop31
280
     0
102
RTVSPost2010PropOp31
 70
     1
102
RTVSPost2010Prop32
280
     0
102
RTVSPost2010PropOp32
 70
     1
102
RTVSPost2010Prop33
280
     0
102
RTVSPost2010PropOp33
 70
     1
102
RTVSPost2010Prop34
280
     0
102
RTVSPost2010PropOp34
 70
     1
102
RTVSPost2010Prop35
280
     0
102
RTVSPost2010PropOp35
 70
     1
102
RTVSPost2010Prop36
280
     0
102
RTVSPost2010PropOp36
 70
     1
102
RTVSPost2010Prop37
 90
       50
102
RTVSPost2010PropOp37
 70
     1
102
RTVSPost2010Prop38
140
0.0
102
RTVSPost2010PropOp38
 70
     1
102
RTVSPost2010Prop39
140
1.0
102
RTVSPost2010PropOp39
 70
     1
102
RTVSPost2010Prop40
 90
        0
102
RTVSPost2010PropOp40
 70
     1
102
RTVSPost2010Prop41ColorIndex
 90
       18
102
RTVSPost2010Prop41ColorRGB
 90
        0
102
RTVSPost2010PropOp41
 70
     1
102
RTVSPost2010Prop42
 90
       50
102
RTVSPost2010PropOp42
 70
     1
102
RTVSPost2010Prop43
 90
        3
102
RTVSPost2010PropOp43
 70
     1
102
RTVSPost2010Prop44ColorIndex
 90
        5
102
RTVSPost2010Prop44ColorRGB
 90
      255
102
RTVSPost2010PropOp44
 70
     1
102
RTVSPost2010Prop45
280
     0
102
RTVSPost2010PropOp45
 70
     1
102
RTVSPost2010Prop46
 90
       50
102
RTVSPost2010PropOp46
 70
     1
102
RTVSPost2010Prop47
 90
       50
102
RTVSPost2010PropOp47
 70
     1
102
RTVSPost2010Prop48
 90
       50
102
RTVSPost2010PropOp48
 70
     1
102
RTVSPost2010Prop49
280
     0
102
RTVSPost2010PropOp49
 70
     1
102
RTVSPost2010Prop50
 90
       50
102
RTVSPost2010PropOp50
 70
     1
102
RTVSPost2010Prop51ColorIndex
 90
      256
102
RTVSPost2010Prop51ColorRGB
 90
-16777216
102
RTVSPost2010PropOp51
 70
     0
102
RTVSPost2010Prop52
140
1.0
102
RTVSPost2010PropOp52
 70
     0
102
RTVSPost2010Prop53
 90
        2
102
RTVSPost2010PropOp53
 70
     1
102
RTVSPost2010Prop54
  1
strokes_ogs.tif
102
RTVSPost2010PropOp54
 70
     1
102
RTVSPost2010Prop55
280
     0
102
RTVSPost2010PropOp55
 70
     1
102
RTVSPost2010Prop56
140
1.0
102
RTVSPost2010PropOp56
 70
     1
102
RTVSPost2010Prop57
140
1.0
102
RTVSPost2010PropOp57
 70
     1
102
RTVSPropertyOp0
 70
     1
102
RTVSPropertyOp1
 70
     1
102
RTVSPropertyOp2
 70
     1
102
RTVSPropertyOp3
 70
     1
102
RTVSPropertyOp4
 70
     1
102
RTVSPropertyOp5
 70
     1
102
RTVSPropertyOp6
 70
     1
102
RTVSPropertyOp7
 70
     1
102
RTVSPropertyOp8
 70
     1
102
RTVSPropertyOp9
 70
     1
102
RTVSPropertyOp10
 70
     1
102
RTVSPropertyOp11
 70
     1
102
RTVSPropertyOp12
 70
     1
102
RTVSPropertyOp13
 70
     1
102
RTVSPropertyOp14
 70
     1
102
RTVSPropertyOp15
 70
     1
102
RTVSPropertyOp16
 70
     1
102
RTVSPropertyOp17
 70
     1
102
RTVSPropertyOp18
 70
     1
102
RTVSPropertyOp19
 70
     1
102
RTVSPropertyOp20
 70
     1
102
RTVSPropertyOp21
 70
     1
102
RTVSPropertyOp22
 70
     1
102
RTVSPropertyOp23
 70
     1
102
RTVSPropertyOp24
 70
     1
102
RTVSPropertyOp25
 70
     1
102
RTVSPropertyOp26
 70
     1
102
RTVSPropertyOp27
 70
     1
102
RTVSPropertyOp28
 70
     1
102
RTVSPropertyOp29
 70
     1
102
RTVSPropertyOp30
 70
     1
102
RTVSPropertyOp31
 70
     1
102
RTVSPropertyOp32
 70
     1
102
RTVSPropertyOp33
 70
     1
102
RTVSPropertyOp34
 70
     1
102
RTVSPropertyOp35
 70
     1
102
RTVSPropertyOp36
 70
     1
102
RTVSPropertyOp37
 70
     1
102
RTVSPropertyOp38
 70
     1
102
RTVSPropertyOp39
 70
     1
102
RTVSPropertyOp40
 70
     1
102
RTVSPropertyOp41
 70
     1
102
RTVSPropertyOp42
 70
     1
102
RTVSPropertyOp43
 70
     1
102
RTVSPropertyOp44
 70
     1
102
RTVSPropertyOp45
 70
     1
102
RTVSPropertyOp46
 70
     1
102
RTVSPropertyOp47
 70
     1
102
RTVSPropertyOp48
 70
     1
102
RTVSPropertyOp49
 70
     1
102
RTVSPropertyOp50
 70
     1
102
RTVSPropertyOp51
 70
     0
102
RTVSPropertyOp52
 70
     0
102
RTVSPropertyOp53
 70
     1
102
RTVSPropertyOp54
 70
     1
102
RTVSPropertyOp55
 70
     1
102
RTVSPropertyOp56
 70
     1
102
RTVSPropertyOp57
 70
     1
102
RTVSPropertyOp58
 70
     1
102
RTVSPropertyOp59
 70
     1
102
RTVSPropertyOp60
 70
     1
102
RTVSPropertyOp61
 70
     1
102
RTVSPropertyOp62
 70
     1
  0
XRECORD
  5
C220
102
{ACAD_REACTORS
330
C21F
102
}
330
C21F
100
AcDbXrecord
280
     1
102
RTVSPost2010Prop28
280
     0
102
RTVSPost2010PropOp28
 70
     1
102
RTVSPost2010Prop29
280
     1
102
RTVSPost2010PropOp29
 70
     1
102
RTVSPost2010Prop30
280
     1
102
RTVSPost2010PropOp30
 70
     1
102
RTVSPost2010Prop31
280
     0
102
RTVSPost2010PropOp31
 70
     1
102
RTVSPost2010Prop32
280
     0
102
RTVSPost2010PropOp32
 70
     1
102
RTVSPost2010Prop33
280
     0
102
RTVSPost2010PropOp33
 70
     1
102
RTVSPost2010Prop34
280
     0
102
RTVSPost2010PropOp34
 70
     1
102
RTVSPost2010Prop35
280
     0
102
RTVSPost2010PropOp35
 70
     1
102
RTVSPost2010Prop36
280
     0
102
RTVSPost2010PropOp36
 70
     1
102
RTVSPost2010Prop37
 90
       50
102
RTVSPost2010PropOp37
 70
     1
102
RTVSPost2010Prop38
140
0.0
102
RTVSPost2010PropOp38
 70
     1
102
RTVSPost2010Prop39
140
1.0
102
RTVSPost2010PropOp39
 70
     1
102
RTVSPost2010Prop40
 90
        0
102
RTVSPost2010PropOp40
 70
     1
102
RTVSPost2010Prop41ColorIndex
 90
       18
102
RTVSPost2010Prop41ColorRGB
 90
        0
102
RTVSPost2010PropOp41
 70
     1
102
RTVSPost2010Prop42
 90
       50
102
RTVSPost2010PropOp42
 70
     1
102
RTVSPost2010Prop43
 90
        3
102
RTVSPost2010PropOp43
 70
     1
102
RTVSPost2010Prop44ColorIndex
 90
        5
102
RTVSPost2010Prop44ColorRGB
 90
      255
102
RTVSPost2010PropOp44
 70
     1
102
RTVSPost2010Prop45
280
     0
102
RTVSPost2010PropOp45
 70
     1
102
RTVSPost2010Prop46
 90
       50
102
RTVSPost2010PropOp46
 70
     1
102
RTVSPost2010Prop47
 90
       50
102
RTVSPost2010PropOp47
 70
     1
102
RTVSPost2010Prop48
 90
       50
102
RTVSPost2010PropOp48
 70
     1
102
RTVSPost2010Prop49
280
     0
102
RTVSPost2010PropOp49
 70
     1
102
RTVSPost2010Prop50
 90
       50
102
RTVSPost2010PropOp50
 70
     1
102
RTVSPost2010Prop51ColorIndex
 90
      256
102
RTVSPost2010Prop51ColorRGB
 90
-16777216
102
RTVSPost2010PropOp51
 70
     0
102
RTVSPost2010Prop52
140
1.0
102
RTVSPost2010PropOp52
 70
     0
102
RTVSPost2010Prop53
 90
        2
102
RTVSPost2010PropOp53
 70
     1
102
RTVSPost2010Prop54
  1
strokes_ogs.tif
102
RTVSPost2010PropOp54
 70
     1
102
RTVSPost2010Prop55
280
     0
102
RTVSPost2010PropOp55
 70
     1
102
RTVSPost2010Prop56
140
1.0
102
RTVSPost2010PropOp56
 70
     1
102
RTVSPost2010Prop57
140
1.0
102
RTVSPost2010PropOp57
 70
     1
102
RTVSPropertyOp0
 70
     1
102
RTVSPropertyOp1
 70
     1
102
RTVSPropertyOp2
 70
     1
102
RTVSPropertyOp3
 70
     1
102
RTVSPropertyOp4
 70
     1
102
RTVSPropertyOp5
 70
     1
102
RTVSPropertyOp6
 70
     1
102
RTVSPropertyOp7
 70
     1
102
RTVSPropertyOp8
 70
     1
102
RTVSPropertyOp9
 70
     1
102
RTVSPropertyOp10
 70
     1
102
RTVSPropertyOp11
 70
     1
102
RTVSPropertyOp12
 70
     1
102
RTVSPropertyOp13
 70
     1
102
RTVSPropertyOp14
 70
     1
102
RTVSPropertyOp15
 70
     1
102
RTVSPropertyOp16
 70
     1
102
RTVSPropertyOp17
 70
     1
102
RTVSPropertyOp18
 70
     1
102
RTVSPropertyOp19
 70
     1
102
RTVSPropertyOp20
 70
     1
102
RTVSPropertyOp21
 70
     1
102
RTVSPropertyOp22
 70
     1
102
RTVSPropertyOp23
 70
     1
102
RTVSPropertyOp24
 70
     1
102
RTVSPropertyOp25
 70
     1
102
RTVSPropertyOp26
 70
     1
102
RTVSPropertyOp27
 70
     1
102
RTVSPropertyOp28
 70
     1
102
RTVSPropertyOp29
 70
     1
102
RTVSPropertyOp30
 70
     1
102
RTVSPropertyOp31
 70
     1
102
RTVSPropertyOp32
 70
     1
102
RTVSPropertyOp33
 70
     1
102
RTVSPropertyOp34
 70
     1
102
RTVSPropertyOp35
 70
     1
102
RTVSPropertyOp36
 70
     1
102
RTVSPropertyOp37
 70
     1
102
RTVSPropertyOp38
 70
     1
102
RTVSPropertyOp39
 70
     1
102
RTVSPropertyOp40
 70
     1
102
RTVSPropertyOp41
 70
     1
102
RTVSPropertyOp42
 70
     1
102
RTVSPropertyOp43
 70
     1
102
RTVSPropertyOp44
 70
     1
102
RTVSPropertyOp45
 70
     1
102
RTVSPropertyOp46
 70
     1
102
RTVSPropertyOp47
 70
     1
102
RTVSPropertyOp48
 70
     1
102
RTVSPropertyOp49
 70
     1
102
RTVSPropertyOp50
 70
     1
102
RTVSPropertyOp51
 70
     0
102
RTVSPropertyOp52
 70
     0
102
RTVSPropertyOp53
 70
     1
102
RTVSPropertyOp54
 70
     1
102
RTVSPropertyOp55
 70
     1
102
RTVSPropertyOp56
 70
     1
102
RTVSPropertyOp57
 70
     1
102
RTVSPropertyOp58
 70
     1
102
RTVSPropertyOp59
 70
     1
102
RTVSPropertyOp60
 70
     1
102
RTVSPropertyOp61
 70
     1
102
RTVSPropertyOp62
 70
     1
  0
XRECORD
  5
C21A
102
{ACAD_REACTORS
330
C219
102
}
330
C219
100
AcDbXrecord
280
     1
102
RTVSPost2010Prop28
280
     0
102
RTVSPost2010PropOp28
 70
     1
102
RTVSPost2010Prop29
280
     1
102
RTVSPost2010PropOp29
 70
     1
102
RTVSPost2010Prop30
280
     1
102
RTVSPost2010PropOp30
 70
     1
102
RTVSPost2010Prop31
280
     0
102
RTVSPost2010PropOp31
 70
     1
102
RTVSPost2010Prop32
280
     0
102
RTVSPost2010PropOp32
 70
     1
102
RTVSPost2010Prop33
280
     0
102
RTVSPost2010PropOp33
 70
     1
102
RTVSPost2010Prop34
280
     0
102
RTVSPost2010PropOp34
 70
     1
102
RTVSPost2010Prop35
280
     0
102
RTVSPost2010PropOp35
 70
     1
102
RTVSPost2010Prop36
280
     0
102
RTVSPost2010PropOp36
 70
     1
102
RTVSPost2010Prop37
 90
       50
102
RTVSPost2010PropOp37
 70
     1
102
RTVSPost2010Prop38
140
0.0
102
RTVSPost2010PropOp38
 70
     1
102
RTVSPost2010Prop39
140
1.0
102
RTVSPost2010PropOp39
 70
     1
102
RTVSPost2010Prop40
 90
        0
102
RTVSPost2010PropOp40
 70
     1
102
RTVSPost2010Prop41ColorIndex
 90
       18
102
RTVSPost2010Prop41ColorRGB
 90
        0
102
RTVSPost2010PropOp41
 70
     1
102
RTVSPost2010Prop42
 90
       50
102
RTVSPost2010PropOp42
 70
     1
102
RTVSPost2010Prop43
 90
        3
102
RTVSPost2010PropOp43
 70
     1
102
RTVSPost2010Prop44ColorIndex
 90
        5
102
RTVSPost2010Prop44ColorRGB
 90
      255
102
RTVSPost2010PropOp44
 70
     1
102
RTVSPost2010Prop45
280
     0
102
RTVSPost2010PropOp45
 70
     1
102
RTVSPost2010Prop46
 90
       50
102
RTVSPost2010PropOp46
 70
     1
102
RTVSPost2010Prop47
 90
       50
102
RTVSPost2010PropOp47
 70
     1
102
RTVSPost2010Prop48
 90
       50
102
RTVSPost2010PropOp48
 70
     1
102
RTVSPost2010Prop49
280
     0
102
RTVSPost2010PropOp49
 70
     1
102
RTVSPost2010Prop50
 90
       50
102
RTVSPost2010PropOp50
 70
     1
102
RTVSPost2010Prop51ColorIndex
 90
      256
102
RTVSPost2010Prop51ColorRGB
 90
-16777216
102
RTVSPost2010PropOp51
 70
     0
102
RTVSPost2010Prop52
140
1.0
102
RTVSPost2010PropOp52
 70
     0
102
RTVSPost2010Prop53
 90
        2
102
RTVSPost2010PropOp53
 70
     1
102
RTVSPost2010Prop54
  1
strokes_ogs.tif
102
RTVSPost2010PropOp54
 70
     1
102
RTVSPost2010Prop55
280
     0
102
RTVSPost2010PropOp55
 70
     1
102
RTVSPost2010Prop56
140
1.0
102
RTVSPost2010PropOp56
 70
     1
102
RTVSPost2010Prop57
140
1.0
102
RTVSPost2010PropOp57
 70
     1
102
RTVSPropertyOp0
 70
     1
102
RTVSPropertyOp1
 70
     1
102
RTVSPropertyOp2
 70
     1
102
RTVSPropertyOp3
 70
     1
102
RTVSPropertyOp4
 70
     1
102
RTVSPropertyOp5
 70
     1
102
RTVSPropertyOp6
 70
     1
102
RTVSPropertyOp7
 70
     1
102
RTVSPropertyOp8
 70
     1
102
RTVSPropertyOp9
 70
     1
102
RTVSPropertyOp10
 70
     1
102
RTVSPropertyOp11
 70
     1
102
RTVSPropertyOp12
 70
     1
102
RTVSPropertyOp13
 70
     1
102
RTVSPropertyOp14
 70
     1
102
RTVSPropertyOp15
 70
     1
102
RTVSPropertyOp16
 70
     1
102
RTVSPropertyOp17
 70
     1
102
RTVSPropertyOp18
 70
     1
102
RTVSPropertyOp19
 70
     1
102
RTVSPropertyOp20
 70
     1
102
RTVSPropertyOp21
 70
     1
102
RTVSPropertyOp22
 70
     1
102
RTVSPropertyOp23
 70
     1
102
RTVSPropertyOp24
 70
     1
102
RTVSPropertyOp25
 70
     1
102
RTVSPropertyOp26
 70
     1
102
RTVSPropertyOp27
 70
     1
102
RTVSPropertyOp28
 70
     1
102
RTVSPropertyOp29
 70
     1
102
RTVSPropertyOp30
 70
     1
102
RTVSPropertyOp31
 70
     1
102
RTVSPropertyOp32
 70
     1
102
RTVSPropertyOp33
 70
     1
102
RTVSPropertyOp34
 70
     1
102
RTVSPropertyOp35
 70
     1
102
RTVSPropertyOp36
 70
     1
102
RTVSPropertyOp37
 70
     1
102
RTVSPropertyOp38
 70
     1
102
RTVSPropertyOp39
 70
     1
102
RTVSPropertyOp40
 70
     1
102
RTVSPropertyOp41
 70
     1
102
RTVSPropertyOp42
 70
     1
102
RTVSPropertyOp43
 70
     1
102
RTVSPropertyOp44
 70
     1
102
RTVSPropertyOp45
 70
     1
102
RTVSPropertyOp46
 70
     1
102
RTVSPropertyOp47
 70
     1
102
RTVSPropertyOp48
 70
     1
102
RTVSPropertyOp49
 70
     1
102
RTVSPropertyOp50
 70
     1
102
RTVSPropertyOp51
 70
     0
102
RTVSPropertyOp52
 70
     0
102
RTVSPropertyOp53
 70
     1
102
RTVSPropertyOp54
 70
     1
102
RTVSPropertyOp55
 70
     1
102
RTVSPropertyOp56
 70
     1
102
RTVSPropertyOp57
 70
     1
102
RTVSPropertyOp58
 70
     1
102
RTVSPropertyOp59
 70
     1
102
RTVSPropertyOp60
 70
     1
102
RTVSPropertyOp61
 70
     1
102
RTVSPropertyOp62
 70
     1
  0
XRECORD
  5
C21C
102
{ACAD_REACTORS
330
C21B
102
}
330
C21B
100
AcDbXrecord
280
     1
102
RTVSPost2010Prop28
280
     0
102
RTVSPost2010PropOp28
 70
     1
102
RTVSPost2010Prop29
280
     1
102
RTVSPost2010PropOp29
 70
     1
102
RTVSPost2010Prop30
280
     1
102
RTVSPost2010PropOp30
 70
     1
102
RTVSPost2010Prop31
280
     0
102
RTVSPost2010PropOp31
 70
     1
102
RTVSPost2010Prop32
280
     0
102
RTVSPost2010PropOp32
 70
     1
102
RTVSPost2010Prop33
280
     0
102
RTVSPost2010PropOp33
 70
     1
102
RTVSPost2010Prop34
280
     0
102
RTVSPost2010PropOp34
 70
     1
102
RTVSPost2010Prop35
280
     0
102
RTVSPost2010PropOp35
 70
     1
102
RTVSPost2010Prop36
280
     0
102
RTVSPost2010PropOp36
 70
     1
102
RTVSPost2010Prop37
 90
       50
102
RTVSPost2010PropOp37
 70
     1
102
RTVSPost2010Prop38
140
0.0
102
RTVSPost2010PropOp38
 70
     1
102
RTVSPost2010Prop39
140
1.0
102
RTVSPost2010PropOp39
 70
     1
102
RTVSPost2010Prop40
 90
        0
102
RTVSPost2010PropOp40
 70
     1
102
RTVSPost2010Prop41ColorIndex
 90
       18
102
RTVSPost2010Prop41ColorRGB
 90
        0
102
RTVSPost2010PropOp41
 70
     1
102
RTVSPost2010Prop42
 90
       50
102
RTVSPost2010PropOp42
 70
     1
102
RTVSPost2010Prop43
 90
        3
102
RTVSPost2010PropOp43
 70
     1
102
RTVSPost2010Prop44ColorIndex
 90
        5
102
RTVSPost2010Prop44ColorRGB
 90
      255
102
RTVSPost2010PropOp44
 70
     1
102
RTVSPost2010Prop45
280
     0
102
RTVSPost2010PropOp45
 70
     1
102
RTVSPost2010Prop46
 90
       50
102
RTVSPost2010PropOp46
 70
     1
102
RTVSPost2010Prop47
 90
       50
102
RTVSPost2010PropOp47
 70
     1
102
RTVSPost2010Prop48
 90
       50
102
RTVSPost2010PropOp48
 70
     1
102
RTVSPost2010Prop49
280
     0
102
RTVSPost2010PropOp49
 70
     1
102
RTVSPost2010Prop50
 90
       50
102
RTVSPost2010PropOp50
 70
     1
102
RTVSPost2010Prop51ColorIndex
 90
      256
102
RTVSPost2010Prop51ColorRGB
 90
-16777216
102
RTVSPost2010PropOp51
 70
     0
102
RTVSPost2010Prop52
140
1.0
102
RTVSPost2010PropOp52
 70
     0
102
RTVSPost2010Prop53
 90
        2
102
RTVSPost2010PropOp53
 70
     1
102
RTVSPost2010Prop54
  1
strokes_ogs.tif
102
RTVSPost2010PropOp54
 70
     1
102
RTVSPost2010Prop55
280
     0
102
RTVSPost2010PropOp55
 70
     1
102
RTVSPost2010Prop56
140
1.0
102
RTVSPost2010PropOp56
 70
     1
102
RTVSPost2010Prop57
140
1.0
102
RTVSPost2010PropOp57
 70
     1
102
RTVSPropertyOp0
 70
     1
102
RTVSPropertyOp1
 70
     1
102
RTVSPropertyOp2
 70
     1
102
RTVSPropertyOp3
 70
     1
102
RTVSPropertyOp4
 70
     1
102
RTVSPropertyOp5
 70
     1
102
RTVSPropertyOp6
 70
     1
102
RTVSPropertyOp7
 70
     1
102
RTVSPropertyOp8
 70
     1
102
RTVSPropertyOp9
 70
     1
102
RTVSPropertyOp10
 70
     1
102
RTVSPropertyOp11
 70
     1
102
RTVSPropertyOp12
 70
     1
102
RTVSPropertyOp13
 70
     1
102
RTVSPropertyOp14
 70
     1
102
RTVSPropertyOp15
 70
     1
102
RTVSPropertyOp16
 70
     1
102
RTVSPropertyOp17
 70
     1
102
RTVSPropertyOp18
 70
     1
102
RTVSPropertyOp19
 70
     1
102
RTVSPropertyOp20
 70
     1
102
RTVSPropertyOp21
 70
     1
102
RTVSPropertyOp22
 70
     1
102
RTVSPropertyOp23
 70
     1
102
RTVSPropertyOp24
 70
     1
102
RTVSPropertyOp25
 70
     1
102
RTVSPropertyOp26
 70
     1
102
RTVSPropertyOp27
 70
     1
102
RTVSPropertyOp28
 70
     1
102
RTVSPropertyOp29
 70
     1
102
RTVSPropertyOp30
 70
     1
102
RTVSPropertyOp31
 70
     1
102
RTVSPropertyOp32
 70
     1
102
RTVSPropertyOp33
 70
     1
102
RTVSPropertyOp34
 70
     1
102
RTVSPropertyOp35
 70
     1
102
RTVSPropertyOp36
 70
     1
102
RTVSPropertyOp37
 70
     1
102
RTVSPropertyOp38
 70
     1
102
RTVSPropertyOp39
 70
     1
102
RTVSPropertyOp40
 70
     1
102
RTVSPropertyOp41
 70
     1
102
RTVSPropertyOp42
 70
     1
102
RTVSPropertyOp43
 70
     1
102
RTVSPropertyOp44
 70
     1
102
RTVSPropertyOp45
 70
     1
102
RTVSPropertyOp46
 70
     1
102
RTVSPropertyOp47
 70
     1
102
RTVSPropertyOp48
 70
     1
102
RTVSPropertyOp49
 70
     1
102
RTVSPropertyOp50
 70
     1
102
RTVSPropertyOp51
 70
     0
102
RTVSPropertyOp52
 70
     0
102
RTVSPropertyOp53
 70
     1
102
RTVSPropertyOp54
 70
     1
102
RTVSPropertyOp55
 70
     1
102
RTVSPropertyOp56
 70
     1
102
RTVSPropertyOp57
 70
     1
102
RTVSPropertyOp58
 70
     1
102
RTVSPropertyOp59
 70
     1
102
RTVSPropertyOp60
 70
     1
102
RTVSPropertyOp61
 70
     1
102
RTVSPropertyOp62
 70
     1
  0
XRECORD
  5
C212
102
{ACAD_REACTORS
330
C211
102
}
330
C211
100
AcDbXrecord
280
     1
102
RTVSPost2010Prop28
280
     0
102
RTVSPost2010PropOp28
 70
     1
102
RTVSPost2010Prop29
280
     1
102
RTVSPost2010PropOp29
 70
     1
102
RTVSPost2010Prop30
280
     1
102
RTVSPost2010PropOp30
 70
     1
102
RTVSPost2010Prop31
280
     0
102
RTVSPost2010PropOp31
 70
     1
102
RTVSPost2010Prop32
280
     0
102
RTVSPost2010PropOp32
 70
     1
102
RTVSPost2010Prop33
280
     0
102
RTVSPost2010PropOp33
 70
     1
102
RTVSPost2010Prop34
280
     0
102
RTVSPost2010PropOp34
 70
     1
102
RTVSPost2010Prop35
280
     0
102
RTVSPost2010PropOp35
 70
     1
102
RTVSPost2010Prop36
280
     0
102
RTVSPost2010PropOp36
 70
     1
102
RTVSPost2010Prop37
 90
       50
102
RTVSPost2010PropOp37
 70
     1
102
RTVSPost2010Prop38
140
0.0
102
RTVSPost2010PropOp38
 70
     1
102
RTVSPost2010Prop39
140
1.0
102
RTVSPost2010PropOp39
 70
     1
102
RTVSPost2010Prop40
 90
        0
102
RTVSPost2010PropOp40
 70
     1
102
RTVSPost2010Prop41ColorIndex
 90
       18
102
RTVSPost2010Prop41ColorRGB
 90
        0
102
RTVSPost2010PropOp41
 70
     1
102
RTVSPost2010Prop42
 90
       50
102
RTVSPost2010PropOp42
 70
     1
102
RTVSPost2010Prop43
 90
        3
102
RTVSPost2010PropOp43
 70
     1
102
RTVSPost2010Prop44ColorIndex
 90
        5
102
RTVSPost2010Prop44ColorRGB
 90
      255
102
RTVSPost2010PropOp44
 70
     1
102
RTVSPost2010Prop45
280
     0
102
RTVSPost2010PropOp45
 70
     1
102
RTVSPost2010Prop46
 90
       50
102
RTVSPost2010PropOp46
 70
     1
102
RTVSPost2010Prop47
 90
       50
102
RTVSPost2010PropOp47
 70
     1
102
RTVSPost2010Prop48
 90
       50
102
RTVSPost2010PropOp48
 70
     1
102
RTVSPost2010Prop49
280
     0
102
RTVSPost2010PropOp49
 70
     1
102
RTVSPost2010Prop50
 90
       50
102
RTVSPost2010PropOp50
 70
     1
102
RTVSPost2010Prop51ColorIndex
 90
      256
102
RTVSPost2010Prop51ColorRGB
 90
-16777216
102
RTVSPost2010PropOp51
 70
     0
102
RTVSPost2010Prop52
140
1.0
102
RTVSPost2010PropOp52
 70
     0
102
RTVSPost2010Prop53
 90
        2
102
RTVSPost2010PropOp53
 70
     1
102
RTVSPost2010Prop54
  1
strokes_ogs.tif
102
RTVSPost2010PropOp54
 70
     1
102
RTVSPost2010Prop55
280
     0
102
RTVSPost2010PropOp55
 70
     1
102
RTVSPost2010Prop56
140
1.0
102
RTVSPost2010PropOp56
 70
     1
102
RTVSPost2010Prop57
140
1.0
102
RTVSPost2010PropOp57
 70
     1
102
RTVSPropertyOp0
 70
     1
102
RTVSPropertyOp1
 70
     1
102
RTVSPropertyOp2
 70
     1
102
RTVSPropertyOp3
 70
     1
102
RTVSPropertyOp4
 70
     1
102
RTVSPropertyOp5
 70
     1
102
RTVSPropertyOp6
 70
     1
102
RTVSPropertyOp7
 70
     1
102
RTVSPropertyOp8
 70
     1
102
RTVSPropertyOp9
 70
     1
102
RTVSPropertyOp10
 70
     1
102
RTVSPropertyOp11
 70
     1
102
RTVSPropertyOp12
 70
     1
102
RTVSPropertyOp13
 70
     1
102
RTVSPropertyOp14
 70
     1
102
RTVSPropertyOp15
 70
     1
102
RTVSPropertyOp16
 70
     1
102
RTVSPropertyOp17
 70
     1
102
RTVSPropertyOp18
 70
     1
102
RTVSPropertyOp19
 70
     1
102
RTVSPropertyOp20
 70
     1
102
RTVSPropertyOp21
 70
     1
102
RTVSPropertyOp22
 70
     1
102
RTVSPropertyOp23
 70
     1
102
RTVSPropertyOp24
 70
     1
102
RTVSPropertyOp25
 70
     1
102
RTVSPropertyOp26
 70
     1
102
RTVSPropertyOp27
 70
     1
102
RTVSPropertyOp28
 70
     1
102
RTVSPropertyOp29
 70
     1
102
RTVSPropertyOp30
 70
     1
102
RTVSPropertyOp31
 70
     1
102
RTVSPropertyOp32
 70
     1
102
RTVSPropertyOp33
 70
     1
102
RTVSPropertyOp34
 70
     1
102
RTVSPropertyOp35
 70
     1
102
RTVSPropertyOp36
 70
     1
102
RTVSPropertyOp37
 70
     1
102
RTVSPropertyOp38
 70
     1
102
RTVSPropertyOp39
 70
     1
102
RTVSPropertyOp40
 70
     1
102
RTVSPropertyOp41
 70
     1
102
RTVSPropertyOp42
 70
     1
102
RTVSPropertyOp43
 70
     1
102
RTVSPropertyOp44
 70
     1
102
RTVSPropertyOp45
 70
     1
102
RTVSPropertyOp46
 70
     1
102
RTVSPropertyOp47
 70
     1
102
RTVSPropertyOp48
 70
     1
102
RTVSPropertyOp49
 70
     1
102
RTVSPropertyOp50
 70
     1
102
RTVSPropertyOp51
 70
     0
102
RTVSPropertyOp52
 70
     0
102
RTVSPropertyOp53
 70
     1
102
RTVSPropertyOp54
 70
     1
102
RTVSPropertyOp55
 70
     1
102
RTVSPropertyOp56
 70
     1
102
RTVSPropertyOp57
 70
     1
102
RTVSPropertyOp58
 70
     1
102
RTVSPropertyOp59
 70
     1
102
RTVSPropertyOp60
 70
     1
102
RTVSPropertyOp61
 70
     1
102
RTVSPropertyOp62
 70
     1
  0
XRECORD
  5
C206
102
{ACAD_REACTORS
330
C205
102
}
330
C205
100
AcDbXrecord
280
     1
102
RTVSPost2010Prop28
280
     0
102
RTVSPost2010PropOp28
 70
     1
102
RTVSPost2010Prop29
280
     1
102
RTVSPost2010PropOp29
 70
     1
102
RTVSPost2010Prop30
280
     1
102
RTVSPost2010PropOp30
 70
     1
102
RTVSPost2010Prop31
280
     0
102
RTVSPost2010PropOp31
 70
     1
102
RTVSPost2010Prop32
280
     0
102
RTVSPost2010PropOp32
 70
     1
102
RTVSPost2010Prop33
280
     0
102
RTVSPost2010PropOp33
 70
     1
102
RTVSPost2010Prop34
280
     0
102
RTVSPost2010PropOp34
 70
     1
102
RTVSPost2010Prop35
280
     0
102
RTVSPost2010PropOp35
 70
     1
102
RTVSPost2010Prop36
280
     0
102
RTVSPost2010PropOp36
 70
     1
102
RTVSPost2010Prop37
 90
       50
102
RTVSPost2010PropOp37
 70
     1
102
RTVSPost2010Prop38
140
0.0
102
RTVSPost2010PropOp38
 70
     1
102
RTVSPost2010Prop39
140
1.0
102
RTVSPost2010PropOp39
 70
     1
102
RTVSPost2010Prop40
 90
        0
102
RTVSPost2010PropOp40
 70
     1
102
RTVSPost2010Prop41ColorIndex
 90
       18
102
RTVSPost2010Prop41ColorRGB
 90
        0
102
RTVSPost2010PropOp41
 70
     1
102
RTVSPost2010Prop42
 90
       50
102
RTVSPost2010PropOp42
 70
     1
102
RTVSPost2010Prop43
 90
        3
102
RTVSPost2010PropOp43
 70
     1
102
RTVSPost2010Prop44ColorIndex
 90
        5
102
RTVSPost2010Prop44ColorRGB
 90
      255
102
RTVSPost2010PropOp44
 70
     1
102
RTVSPost2010Prop45
280
     0
102
RTVSPost2010PropOp45
 70
     1
102
RTVSPost2010Prop46
 90
       50
102
RTVSPost2010PropOp46
 70
     1
102
RTVSPost2010Prop47
 90
       50
102
RTVSPost2010PropOp47
 70
     1
102
RTVSPost2010Prop48
 90
       50
102
RTVSPost2010PropOp48
 70
     1
102
RTVSPost2010Prop49
280
     0
102
RTVSPost2010PropOp49
 70
     1
102
RTVSPost2010Prop50
 90
       50
102
RTVSPost2010PropOp50
 70
     1
102
RTVSPost2010Prop51ColorIndex
 90
      256
102
RTVSPost2010Prop51ColorRGB
 90
-16777216
102
RTVSPost2010PropOp51
 70
     0
102
RTVSPost2010Prop52
140
1.0
102
RTVSPost2010PropOp52
 70
     0
102
RTVSPost2010Prop53
 90
        2
102
RTVSPost2010PropOp53
 70
     1
102
RTVSPost2010Prop54
  1
strokes_ogs.tif
102
RTVSPost2010PropOp54
 70
     1
102
RTVSPost2010Prop55
280
     0
102
RTVSPost2010PropOp55
 70
     1
102
RTVSPost2010Prop56
140
1.0
102
RTVSPost2010PropOp56
 70
     1
102
RTVSPost2010Prop57
140
1.0
102
RTVSPost2010PropOp57
 70
     1
102
RTVSPropertyOp0
 70
     1
102
RTVSPropertyOp1
 70
     1
102
RTVSPropertyOp2
 70
     1
102
RTVSPropertyOp3
 70
     1
102
RTVSPropertyOp4
 70
     1
102
RTVSPropertyOp5
 70
     1
102
RTVSPropertyOp6
 70
     1
102
RTVSPropertyOp7
 70
     1
102
RTVSPropertyOp8
 70
     1
102
RTVSPropertyOp9
 70
     1
102
RTVSPropertyOp10
 70
     1
102
RTVSPropertyOp11
 70
     1
102
RTVSPropertyOp12
 70
     1
102
RTVSPropertyOp13
 70
     1
102
RTVSPropertyOp14
 70
     1
102
RTVSPropertyOp15
 70
     1
102
RTVSPropertyOp16
 70
     1
102
RTVSPropertyOp17
 70
     1
102
RTVSPropertyOp18
 70
     1
102
RTVSPropertyOp19
 70
     1
102
RTVSPropertyOp20
 70
     1
102
RTVSPropertyOp21
 70
     1
102
RTVSPropertyOp22
 70
     1
102
RTVSPropertyOp23
 70
     1
102
RTVSPropertyOp24
 70
     1
102
RTVSPropertyOp25
 70
     1
102
RTVSPropertyOp26
 70
     1
102
RTVSPropertyOp27
 70
     1
102
RTVSPropertyOp28
 70
     1
102
RTVSPropertyOp29
 70
     1
102
RTVSPropertyOp30
 70
     1
102
RTVSPropertyOp31
 70
     1
102
RTVSPropertyOp32
 70
     1
102
RTVSPropertyOp33
 70
     1
102
RTVSPropertyOp34
 70
     1
102
RTVSPropertyOp35
 70
     1
102
RTVSPropertyOp36
 70
     1
102
RTVSPropertyOp37
 70
     1
102
RTVSPropertyOp38
 70
     1
102
RTVSPropertyOp39
 70
     1
102
RTVSPropertyOp40
 70
     1
102
RTVSPropertyOp41
 70
     1
102
RTVSPropertyOp42
 70
     1
102
RTVSPropertyOp43
 70
     1
102
RTVSPropertyOp44
 70
     1
102
RTVSPropertyOp45
 70
     1
102
RTVSPropertyOp46
 70
     1
102
RTVSPropertyOp47
 70
     1
102
RTVSPropertyOp48
 70
     1
102
RTVSPropertyOp49
 70
     1
102
RTVSPropertyOp50
 70
     1
102
RTVSPropertyOp51
 70
     0
102
RTVSPropertyOp52
 70
     0
102
RTVSPropertyOp53
 70
     1
102
RTVSPropertyOp54
 70
     1
102
RTVSPropertyOp55
 70
     1
102
RTVSPropertyOp56
 70
     1
102
RTVSPropertyOp57
 70
     1
102
RTVSPropertyOp58
 70
     1
102
RTVSPropertyOp59
 70
     1
102
RTVSPropertyOp60
 70
     1
102
RTVSPropertyOp61
 70
     1
102
RTVSPropertyOp62
 70
     1
  0
XRECORD
  5
C21E
102
{ACAD_REACTORS
330
C21D
102
}
330
C21D
100
AcDbXrecord
280
     1
102
RTVSPost2010Prop28
280
     0
102
RTVSPost2010PropOp28
 70
     1
102
RTVSPost2010Prop29
280
     1
102
RTVSPost2010PropOp29
 70
     1
102
RTVSPost2010Prop30
280
     1
102
RTVSPost2010PropOp30
 70
     1
102
RTVSPost2010Prop31
280
     0
102
RTVSPost2010PropOp31
 70
     1
102
RTVSPost2010Prop32
280
     0
102
RTVSPost2010PropOp32
 70
     1
102
RTVSPost2010Prop33
280
     0
102
RTVSPost2010PropOp33
 70
     1
102
RTVSPost2010Prop34
280
     0
102
RTVSPost2010PropOp34
 70
     1
102
RTVSPost2010Prop35
280
     0
102
RTVSPost2010PropOp35
 70
     1
102
RTVSPost2010Prop36
280
     0
102
RTVSPost2010PropOp36
 70
     1
102
RTVSPost2010Prop37
 90
       50
102
RTVSPost2010PropOp37
 70
     1
102
RTVSPost2010Prop38
140
0.0
102
RTVSPost2010PropOp38
 70
     1
102
RTVSPost2010Prop39
140
1.0
102
RTVSPost2010PropOp39
 70
     1
102
RTVSPost2010Prop40
 90
        0
102
RTVSPost2010PropOp40
 70
     1
102
RTVSPost2010Prop41ColorIndex
 90
       18
102
RTVSPost2010Prop41ColorRGB
 90
        0
102
RTVSPost2010PropOp41
 70
     1
102
RTVSPost2010Prop42
 90
       50
102
RTVSPost2010PropOp42
 70
     1
102
RTVSPost2010Prop43
 90
        3
102
RTVSPost2010PropOp43
 70
     1
102
RTVSPost2010Prop44ColorIndex
 90
        5
102
RTVSPost2010Prop44ColorRGB
 90
      255
102
RTVSPost2010PropOp44
 70
     1
102
RTVSPost2010Prop45
280
     0
102
RTVSPost2010PropOp45
 70
     1
102
RTVSPost2010Prop46
 90
       50
102
RTVSPost2010PropOp46
 70
     1
102
RTVSPost2010Prop47
 90
       50
102
RTVSPost2010PropOp47
 70
     1
102
RTVSPost2010Prop48
 90
       50
102
RTVSPost2010PropOp48
 70
     1
102
RTVSPost2010Prop49
280
     0
102
RTVSPost2010PropOp49
 70
     1
102
RTVSPost2010Prop50
 90
       50
102
RTVSPost2010PropOp50
 70
     1
102
RTVSPost2010Prop51ColorIndex
 90
      256
102
RTVSPost2010Prop51ColorRGB
 90
-16777216
102
RTVSPost2010PropOp51
 70
     0
102
RTVSPost2010Prop52
140
1.0
102
RTVSPost2010PropOp52
 70
     0
102
RTVSPost2010Prop53
 90
        2
102
RTVSPost2010PropOp53
 70
     1
102
RTVSPost2010Prop54
  1
strokes_ogs.tif
102
RTVSPost2010PropOp54
 70
     1
102
RTVSPost2010Prop55
280
     0
102
RTVSPost2010PropOp55
 70
     1
102
RTVSPost2010Prop56
140
1.0
102
RTVSPost2010PropOp56
 70
     1
102
RTVSPost2010Prop57
140
1.0
102
RTVSPost2010PropOp57
 70
     1
102
RTVSPropertyOp0
 70
     1
102
RTVSPropertyOp1
 70
     1
102
RTVSPropertyOp2
 70
     1
102
RTVSPropertyOp3
 70
     1
102
RTVSPropertyOp4
 70
     1
102
RTVSPropertyOp5
 70
     1
102
RTVSPropertyOp6
 70
     1
102
RTVSPropertyOp7
 70
     1
102
RTVSPropertyOp8
 70
     1
102
RTVSPropertyOp9
 70
     1
102
RTVSPropertyOp10
 70
     1
102
RTVSPropertyOp11
 70
     1
102
RTVSPropertyOp12
 70
     1
102
RTVSPropertyOp13
 70
     1
102
RTVSPropertyOp14
 70
     1
102
RTVSPropertyOp15
 70
     1
102
RTVSPropertyOp16
 70
     1
102
RTVSPropertyOp17
 70
     1
102
RTVSPropertyOp18
 70
     1
102
RTVSPropertyOp19
 70
     1
102
RTVSPropertyOp20
 70
     1
102
RTVSPropertyOp21
 70
     1
102
RTVSPropertyOp22
 70
     1
102
RTVSPropertyOp23
 70
     1
102
RTVSPropertyOp24
 70
     1
102
RTVSPropertyOp25
 70
     1
102
RTVSPropertyOp26
 70
     1
102
RTVSPropertyOp27
 70
     1
102
RTVSPropertyOp28
 70
     1
102
RTVSPropertyOp29
 70
     1
102
RTVSPropertyOp30
 70
     1
102
RTVSPropertyOp31
 70
     1
102
RTVSPropertyOp32
 70
     1
102
RTVSPropertyOp33
 70
     1
102
RTVSPropertyOp34
 70
     1
102
RTVSPropertyOp35
 70
     1
102
RTVSPropertyOp36
 70
     1
102
RTVSPropertyOp37
 70
     1
102
RTVSPropertyOp38
 70
     1
102
RTVSPropertyOp39
 70
     1
102
RTVSPropertyOp40
 70
     1
102
RTVSPropertyOp41
 70
     1
102
RTVSPropertyOp42
 70
     1
102
RTVSPropertyOp43
 70
     1
102
RTVSPropertyOp44
 70
     1
102
RTVSPropertyOp45
 70
     1
102
RTVSPropertyOp46
 70
     1
102
RTVSPropertyOp47
 70
     1
102
RTVSPropertyOp48
 70
     1
102
RTVSPropertyOp49
 70
     1
102
RTVSPropertyOp50
 70
     1
102
RTVSPropertyOp51
 70
     0
102
RTVSPropertyOp52
 70
     0
102
RTVSPropertyOp53
 70
     1
102
RTVSPropertyOp54
 70
     1
102
RTVSPropertyOp55
 70
     1
102
RTVSPropertyOp56
 70
     1
102
RTVSPropertyOp57
 70
     1
102
RTVSPropertyOp58
 70
     1
102
RTVSPropertyOp59
 70
     1
102
RTVSPropertyOp60
 70
     1
102
RTVSPropertyOp61
 70
     1
102
RTVSPropertyOp62
 70
     1
  0
ENDSEC
  0
EOF
