  0
SECTION
  2
HEADER
  9
$ACADVER
  1
AC1015
  9
$ACADMAINTVER
 70
    20
  9
$DWGCODEPAGE
  3
ANSI_932
  9
$INSBASE
 10
0.0
 20
0.0
 30
0.0
  9
$EXTMIN
 10
10.0
 20
9.999999999999998
 30
0.0
  9
$EXTMAX
 10
385.56178
 20
320.6364619999998
 30
0.0
  9
$LIMMIN
 10
0.0
 20
0.0
  9
$LIMMAX
 10
495.0
 20
341.25
  9
$ORTHOMODE
 70
     1
  9
$REGENMODE
 70
     1
  9
$FILLMODE
 70
     1
  9
$QTEXTMODE
 70
     0
  9
$MIRRTEXT
 70
     1
  9
$LTSCALE
 40
20.0
  9
$ATTMODE
 70
     1
  9
$TEXTSIZE
 40
5.0
  9
$TRACEWID
 40
1.0
  9
$TEXTSTYLE
  7
STANDARD
  9
$CLAYER
  8
0
  9
$CELTYPE
  6
BYLAYER
  9
$CECOLOR
 62
   256
  9
$CELTSCALE
 40
1.0
  9
$DISPSILH
 70
     0
  9
$DIMSCALE
 40
1.0
  9
$DIMASZ
 40
3.0
  9
$DIMEXO
 40
1.0
  9
$DIMDLI
 40
10.0
  9
$DIMRND
 40
0.0
  9
$DIMDLE
 40
0.0
  9
$DIMEXE
 40
1.0
  9
$DIMTP
 40
0.0
  9
$DIMTM
 40
0.0
  9
$DIMTXT
 40
3.2
  9
$DIMCEN
 40
0.0
  9
$DIMTSZ
 40
0.0
  9
$DIMTOL
 70
     0
  9
$DIMLIM
 70
     0
  9
$DIMTIH
 70
     0
  9
$DIMTOH
 70
     0
  9
$DIMSE1
 70
     0
  9
$DIMSE2
 70
     0
  9
$DIMTAD
 70
     3
  9
$DIMZIN
 70
     8
  9
$DIMBLK
  1

  9
$DIMASO
 70
     1
  9
$DIMSHO
 70
     1
  9
$DIMPOST
  1

  9
$DIMAPOST
  1

  9
$DIMALT
 70
     0
  9
$DIMALTD
 70
     2
  9
$DIMALTF
 40
25.4
  9
$DIMLFAC
 40
1.0
  9
$DIMTOFL
 70
     1
  9
$DIMTVP
 40
0.0
  9
$DIMTIX
 70
     0
  9
$DIMSOXD
 70
     0
  9
$DIMSAH
 70
     1
  9
$DIMBLK1
  1
OPEN
  9
$DIMBLK2
  1
OPEN
  9
$DIMSTYLE
  2
STANDARD
  9
$DIMCLRD
 70
     0
  9
$DIMCLRE
 70
     0
  9
$DIMCLRT
 70
     0
  9
$DIMTFAC
 40
1.0
  9
$DIMGAP
 40
1.0
  9
$DIMJUST
 70
     0
  9
$DIMSD1
 70
     0
  9
$DIMSD2
 70
     0
  9
$DIMTOLJ
 70
     1
  9
$DIMTZIN
 70
     0
  9
$DIMALTZ
 70
     0
  9
$DIMALTTZ
 70
     0
  9
$DIMUPT
 70
     0
  9
$DIMDEC
 70
     4
  9
$DIMTDEC
 70
     4
  9
$DIMALTU
 70
     2
  9
$DIMALTTD
 70
     2
  9
$DIMTXSTY
  7
STANDARD
  9
$DIMAUNIT
 70
     0
  9
$DIMADEC
 70
     0
  9
$DIMALTRND
 40
0.0
  9
$DIMAZIN
 70
     0
  9
$DIMDSEP
 70
    46
  9
$DIMATFIT
 70
     3
  9
$DIMFRAC
 70
     0
  9
$DIMLDRBLK
  1
OPEN
  9
$DIMLUNIT
 70
     2
  9
$DIMLWD
 70
    -2
  9
$DIMLWE
 70
    -2
  9
$DIMTMOVE
 70
     0
  9
$LUNITS
 70
     2
  9
$LUPREC
 70
     4
  9
$SKETCHINC
 40
1.0
  9
$FILLETRAD
 40
7.0
  9
$AUNITS
 70
     0
  9
$AUPREC
 70
     2
  9
$MENU
  1
.
  9
$ELEVATION
 40
0.0
  9
$PELEVATION
 40
0.0
  9
$THICKNESS
 40
0.0
  9
$LIMCHECK
 70
     0
  9
$CHAMFERA
 40
10.0
  9
$CHAMFERB
 40
10.0
  9
$CHAMFERC
 40
0.0
  9
$CHAMFERD
 40
0.0
  9
$SKPOLY
 70
     0
  9
$TDCREATE
 40
2451302.654730903
  9
$TDUCREATE
 40
2451302.279730903
  9
$TDUPDATE
 40
2457192.687685347
  9
$TDUUPDATE
 40
2457192.312685347
  9
$TDINDWG
 40
0.0000104167
  9
$TDUSRTIMER
 40
0.0000101042
  9
$USRTIMER
 70
     1
  9
$ANGBASE
 50
0.0
  9
$ANGDIR
 70
     0
  9
$PDMODE
 70
     0
  9
$PDSIZE
 40
0.0
  9
$PLINEWID
 40
0.0
  9
$SPLFRAME
 70
     0
  9
$SPLINETYPE
 70
     6
  9
$SPLINESEGS
 70
     8
  9
$HANDSEED
  5
AE08
  9
$SURFTAB1
 70
     6
  9
$SURFTAB2
 70
     6
  9
$SURFTYPE
 70
     6
  9
$SURFU
 70
     6
  9
$SURFV
 70
     6
  9
$UCSBASE
  2

  9
$UCSNAME
  2

  9
$UCSORG
 10
0.0
 20
0.0
 30
0.0
  9
$UCSXDIR
 10
1.0
 20
0.0
 30
0.0
  9
$UCSYDIR
 10
0.0
 20
1.0
 30
0.0
  9
$UCSORTHOREF
  2

  9
$UCSORTHOVIEW
 70
     0
  9
$UCSORGTOP
 10
0.0
 20
0.0
 30
0.0
  9
$UCSORGBOTTOM
 10
0.0
 20
0.0
 30
0.0
  9
$UCSORGLEFT
 10
0.0
 20
0.0
 30
0.0
  9
$UCSORGRIGHT
 10
0.0
 20
0.0
 30
0.0
  9
$UCSORGFRONT
 10
0.0
 20
0.0
 30
0.0
  9
$UCSORGBACK
 10
0.0
 20
0.0
 30
0.0
  9
$PUCSBASE
  2

  9
$PUCSNAME
  2

  9
$PUCSORG
 10
0.0
 20
0.0
 30
0.0
  9
$PUCSXDIR
 10
1.0
 20
0.0
 30
0.0
  9
$PUCSYDIR
 10
0.0
 20
1.0
 30
0.0
  9
$PUCSORTHOREF
  2

  9
$PUCSORTHOVIEW
 70
     0
  9
$PUCSORGTOP
 10
0.0
 20
0.0
 30
0.0
  9
$PUCSORGBOTTOM
 10
0.0
 20
0.0
 30
0.0
  9
$PUCSORGLEFT
 10
0.0
 20
0.0
 30
0.0
  9
$PUCSORGRIGHT
 10
0.0
 20
0.0
 30
0.0
  9
$PUCSORGFRONT
 10
0.0
 20
0.0
 30
0.0
  9
$PUCSORGBACK
 10
0.0
 20
0.0
 30
0.0
  9
$USERI1
 70
     0
  9
$USERI2
 70
     0
  9
$USERI3
 70
     0
  9
$USERI4
 70
     0
  9
$USERI5
 70
     0
  9
$USERR1
 40
0.0
  9
$USERR2
 40
0.0
  9
$USERR3
 40
0.0
  9
$USERR4
 40
0.0
  9
$USERR5
 40
0.0
  9
$WORLDVIEW
 70
     1
  9
$SHADEDGE
 70
     3
  9
$SHADEDIF
 70
    70
  9
$TILEMODE
 70
     1
  9
$MAXACTVP
 70
    16
  9
$PINSBASE
 10
0.0
 20
0.0
 30
0.0
  9
$PLIMCHECK
 70
     0
  9
$PEXTMIN
 10
1.000000000000000E+20
 20
1.000000000000000E+20
 30
1.000000000000000E+20
  9
$PEXTMAX
 10
-1.000000000000000E+20
 20
-1.000000000000000E+20
 30
-1.000000000000000E+20
  9
$PLIMMIN
 10
0.0
 20
0.0
  9
$PLIMMAX
 10
420.0
 20
297.0
  9
$UNITMODE
 70
     0
  9
$VISRETAIN
 70
     0
  9
$PLINEGEN
 70
     0
  9
$PSLTSCALE
 70
     0
  9
$TREEDEPTH
 70
  3020
  9
$CMLSTYLE
  2
STANDARD
  9
$CMLJUST
 70
     0
  9
$CMLSCALE
 40
1.0
  9
$PROXYGRAPHICS
 70
     1
  9
$MEASUREMENT
 70
     0
  9
$CELWEIGHT
370
    -1
  9
$ENDCAPS
280
     0
  9
$JOINSTYLE
280
     0
  9
$LWDISPLAY
290
     0
  9
$INSUNITS
 70
     0
  9
$HYPERLINKBASE
  1

  9
$STYLESHEET
  1

  9
$XEDIT
290
     1
  9
$CEPSNTYPE
380
     0
  9
$PSTYLEMODE
290
     1
  9
$FINGERPRINTGUID
  2
{BB0F1295-CF49-4BF6-B504-15F057C67367}
  9
$VERSIONGUID
  2
{C7083CAD-132D-443E-AB08-1864E0001EDC}
  9
$EXTNAMES
290
     1
  9
$PSVPSCALE
 40
0.0
  9
$OLESTARTUP
290
     0
  0
ENDSEC
  0
SECTION
  2
CLASSES
  0
CLASS
  1
ACDBDICTIONARYWDFLT
  2
AcDbDictionaryWithDefault
  3
ObjectDBX Classes
 90
        0
280
     0
281
     0
  0
CLASS
  1
ACDBPLACEHOLDER
  2
AcDbPlaceHolder
  3
ObjectDBX Classes
 90
        0
280
     0
281
     0
  0
CLASS
  1
LAYOUT
  2
AcDbLayout
  3
ObjectDBX Classes
 90
        0
280
     0
281
     0
  0
CLASS
  1
DICTIONARYVAR
  2
AcDbDictionaryVar
  3
ObjectDBX Classes
 90
        0
280
     0
281
     0
  0
CLASS
  1
MATERIAL
  2
AcDbMaterial
  3
ObjectDBX Classes
 90
     1153
280
     0
281
     0
  0
CLASS
  1
VISUALSTYLE
  2
AcDbVisualStyle
  3
ObjectDBX Classes
 90
     4095
280
     0
281
     0
  0
CLASS
  1
TABLESTYLE
  2
AcDbTableStyle
  3
ObjectDBX Classes
 90
     4095
280
     0
281
     0
  0
CLASS
  1
SCALE
  2
AcDbScale
  3
ObjectDBX Classes
 90
     1153
280
     0
281
     0
  0
CLASS
  1
MLEADERSTYLE
  2
AcDbMLeaderStyle
  3
ACDB_MLEADERSTYLE_CLASS
 90
     4095
280
     0
281
     0
  0
CLASS
  1
ACDBSECTIONVIEWSTYLE
  2
AcDbSectionViewStyle
  3
ObjectDBX Classes
 90
     1025
280
     0
281
     0
  0
CLASS
  1
ACDBDETAILVIEWSTYLE
  2
AcDbDetailViewStyle
  3
ObjectDBX Classes
 90
     1025
280
     0
281
     0
  0
CLASS
  1
CELLSTYLEMAP
  2
AcDbCellStyleMap
  3
ObjectDBX Classes
 90
     1152
280
     0
281
     0
  0
ENDSEC
  0
SECTION
  2
TABLES
  0
TABLE
  2
VPORT
  5
AABE
330
0
100
AcDbSymbolTable
 70
     1
  0
VPORT
  5
AD51
330
AABE
100
AcDbSymbolTableRecord
100
AcDbViewportTableRecord
  2
*ACTIVE
 70
     0
 10
0.0
 20
0.0
 11
1.0
 21
1.0
 12
291.8729970859988
 22
165.3137977854218
 13
0.0
 23
0.0
 14
10.0
 24
10.0
 15
10.0
 25
10.0
 16
0.0
 26
0.0
 36
1.0
 17
0.0
 27
0.0
 37
0.0
 40
314.0859382227115
 41
2.35006605019815
 42
50.0
 43
0.0
 44
0.0
 50
0.0
 51
0.0
 71
     0
 72
   100
 73
     1
 74
     0
 75
     0
 76
     0
 77
     0
 78
     0
281
     0
 65
     1
110
0.0
120
0.0
130
0.0
111
1.0
121
0.0
131
0.0
112
0.0
122
1.0
132
0.0
 79
     0
146
0.0
1001
ACAD_NAV_VCDISPLAY
1070
     3
  0
ENDTAB
  0
TABLE
  2
LTYPE
  5
AABB
330
0
100
AcDbSymbolTable
 70
     4
  0
LTYPE
  5
AAC9
330
AABB
100
AcDbSymbolTableRecord
100
AcDbLinetypeTableRecord
  2
BYBLOCK
 70
     0
  3

 72
    65
 73
     0
 40
0.0
  0
LTYPE
  5
AACA
330
AABB
100
AcDbSymbolTableRecord
100
AcDbLinetypeTableRecord
  2
BYLAYER
 70
     0
  3

 72
    65
 73
     0
 40
0.0
  0
LTYPE
  5
AACB
330
AABB
100
AcDbSymbolTableRecord
100
AcDbLinetypeTableRecord
  2
CONTINUOUS
 70
     0
  3
Solid line
 72
    65
 73
     0
 40
0.0
  0
LTYPE
  5
AAD9
330
AABB
100
AcDbSymbolTableRecord
100
AcDbLinetypeTableRecord
  2
DASHED
 70
     0
  3
__ __ __ __ __ __ __ __ __ __ __ __ __ __ __ __
 72
    65
 73
     2
 40
0.75
 49
0.5
 74
     0
 49
-0.25
 74
     0
  0
LTYPE
  5
AADA
330
AABB
100
AcDbSymbolTableRecord
100
AcDbLinetypeTableRecord
  2
CENTER
 70
     0
  3
____ _ ____ _ ____ _ ____ _ ____ _ ____ _ ____ 
 72
    65
 73
     4
 40
2.0
 49
1.25
 74
     0
 49
-0.25
 74
     0
 49
0.25
 74
     0
 49
-0.25
 74
     0
  0
LTYPE
  5
AADB
330
AABB
100
AcDbSymbolTableRecord
100
AcDbLinetypeTableRecord
  2
PHANTOM
 70
     0
  3
______  __  __  ______  __  __  ______  __  __ 
 72
    65
 73
     6
 40
2.5
 49
1.25
 74
     0
 49
-0.25
 74
     0
 49
0.25
 74
     0
 49
-0.25
 74
     0
 49
0.25
 74
     0
 49
-0.25
 74
     0
  0
ENDTAB
  0
TABLE
  2
LAYER
  5
AAB8
330
0
100
AcDbSymbolTable
 70
     8
  0
LAYER
  5
AAC6
102
{ACAD_XDICTIONARY
360
ADAC
102
}
330
AAB8
100
AcDbSymbolTableRecord
100
AcDbLayerTableRecord
  2
0
 70
     0
 62
     7
  6
CONTINUOUS
370
    -3
390
AD5A
  0
LAYER
  5
AADC
102
{ACAD_XDICTIONARY
360
ADAE
102
}
330
AAB8
100
AcDbSymbolTableRecord
100
AcDbLayerTableRecord
  2
4
 70
     0
 62
     1
  6
CENTER
370
    -3
390
AD5A
  0
LAYER
  5
AADD
102
{ACAD_XDICTIONARY
360
ADB0
102
}
330
AAB8
100
AcDbSymbolTableRecord
100
AcDbLayerTableRecord
  2
5
 70
     0
 62
     6
  6
PHANTOM
370
    -3
390
AD5A
  0
LAYER
  5
AADE
102
{ACAD_XDICTIONARY
360
ADB2
102
}
330
AAB8
100
AcDbSymbolTableRecord
100
AcDbLayerTableRecord
  2
1
 70
     0
 62
     7
  6
CONTINUOUS
370
    -3
390
AD5A
  0
LAYER
  5
AADF
102
{ACAD_XDICTIONARY
360
ADB4
102
}
330
AAB8
100
AcDbSymbolTableRecord
100
AcDbLayerTableRecord
  2
2
 70
     0
 62
     4
  6
CONTINUOUS
370
    -3
390
AD5A
  0
LAYER
  5
AAE0
102
{ACAD_XDICTIONARY
360
ADB6
102
}
330
AAB8
100
AcDbSymbolTableRecord
100
AcDbLayerTableRecord
  2
3
 70
     0
 62
     2
  6
DASHED
370
    -3
390
AD5A
  0
LAYER
  5
AAE1
102
{ACAD_XDICTIONARY
360
ADB8
102
}
330
AAB8
100
AcDbSymbolTableRecord
100
AcDbLayerTableRecord
  2
6
 70
     0
 62
     5
  6
CONTINUOUS
370
    -3
390
AD5A
  0
LAYER
  5
AAE2
102
{ACAD_XDICTIONARY
360
ADBA
102
}
330
AAB8
100
AcDbSymbolTableRecord
100
AcDbLayerTableRecord
  2
7
 70
     0
 62
     3
  6
CONTINUOUS
370
    -3
390
AD5A
  0
ENDTAB
  0
TABLE
  2
STYLE
  5
AAB9
330
0
100
AcDbSymbolTable
 70
     1
  0
STYLE
  5
AAC7
330
AAB9
100
AcDbSymbolTableRecord
100
AcDbTextStyleTableRecord
  2
STANDARD
 70
     0
 40
0.0
 41
1.0
 50
0.0
 71
     0
 42
5.0
  3
txt
  4

  0
ENDTAB
  0
TABLE
  2
VIEW
  5
AABC
330
0
100
AcDbSymbolTable
 70
     0
  0
ENDTAB
  0
TABLE
  2
UCS
  5
AABD
330
0
100
AcDbSymbolTable
 70
     0
  0
ENDTAB
  0
TABLE
  2
APPID
  5
AABF
330
0
100
AcDbSymbolTable
 70
     3
  0
APPID
  5
AAC8
330
AABF
100
AcDbSymbolTableRecord
100
AcDbRegAppTableRecord
  2
ACAD
 70
     0
  0
APPID
  5
ADC6
330
AABF
100
AcDbSymbolTableRecord
100
AcDbRegAppTableRecord
  2
ACAD_NAV_VCDISPLAY
 70
     0
  0
APPID
  5
ADFF
330
AABF
100
AcDbSymbolTableRecord
100
AcDbRegAppTableRecord
  2
ACAD_MLEADERVER
 70
     0
  0
ENDTAB
  0
TABLE
  2
DIMSTYLE
  5
AAC0
330
0
100
AcDbSymbolTable
 70
     1
100
AcDbDimStyleTable
 71
     0
  0
DIMSTYLE
105
AAE4
330
AAC0
100
AcDbSymbolTableRecord
100
AcDbDimStyleTableRecord
  2
STANDARD
 70
     0
 41
3.0
 42
1.0
 43
10.0
 44
1.0
 73
     0
 74
     0
 77
     3
 78
     8
140
3.2
141
0.0
147
1.0
172
     1
173
     1
284
     8
285
     8
286
     8
340
AAC7
  0
ENDTAB
  0
TABLE
  2
BLOCK_RECORD
  5
AAB7
330
0
100
AcDbSymbolTable
 70
     1
  0
BLOCK_RECORD
  5
AAD4
102
{ACAD_XDICTIONARY
360
AD54
102
}
330
AAB7
100
AcDbSymbolTableRecord
100
AcDbBlockTableRecord
  2
*MODEL_SPACE
340
ADA8
  0
BLOCK_RECORD
  5
AAD0
102
{ACAD_XDICTIONARY
360
AD52
102
}
330
AAB7
100
AcDbSymbolTableRecord
100
AcDbBlockTableRecord
  2
*PAPER_SPACE
340
ADA9
  0
BLOCK_RECORD
  5
AAEC
330
AAB7
100
AcDbSymbolTableRecord
100
AcDbBlockTableRecord
  2
_OPEN
340
0
  0
ENDTAB
  0
ENDSEC
  0
SECTION
  2
BLOCKS
  0
BLOCK
  5
AAD5
330
AAD4
100
AcDbEntity
  8
0
100
AcDbBlockBegin
  2
*MODEL_SPACE
 70
     0
 10
0.0
 20
0.0
 30
0.0
  3
*MODEL_SPACE
  1

  0
ENDBLK
  5
AAD6
330
AAD4
100
AcDbEntity
  8
0
100
AcDbBlockEnd
  0
BLOCK
  5
AAD1
330
AAD0
100
AcDbEntity
 67
     1
  8
0
100
AcDbBlockBegin
  2
*PAPER_SPACE
 70
     0
 10
0.0
 20
0.0
 30
0.0
  3
*PAPER_SPACE
  1

  0
ENDBLK
  5
AAD2
330
AAD0
100
AcDbEntity
 67
     1
  8
0
100
AcDbBlockEnd
  0
BLOCK
  5
AAED
330
AAEC
100
AcDbEntity
  8
0
100
AcDbBlockBegin
  2
_OPEN
 70
     0
 10
0.0
 20
0.0
 30
0.0
  3
_OPEN
  1

  0
LINE
  5
AAEE
330
AAEC
100
AcDbEntity
  8
0
  6
ByBlock
 62
     0
100
AcDbLine
 10
-1.0
 20
0.166667
 30
0.0
 11
0.0
 21
0.0
 31
0.0
  0
LINE
  5
AAEF
330
AAEC
100
AcDbEntity
  8
0
  6
ByBlock
 62
     0
100
AcDbLine
 10
0.0
 20
0.0
 30
0.0
 11
-1.0
 21
-0.166667
 31
0.0
  0
LINE
  5
AAF0
330
AAEC
100
AcDbEntity
  8
0
  6
ByBlock
 62
     0
100
AcDbLine
 10
0.0
 20
0.0
 30
0.0
 11
-1.0
 21
0.0
 31
0.0
  0
ENDBLK
  5
AAF1
330
AAEC
100
AcDbEntity
  8
0
100
AcDbBlockEnd
  0
ENDSEC
  0
SECTION
  2
ENTITIES
  0
TEXT
  5
AAF2
330
AAD4
100
AcDbEntity
  8
7
  6
Continuous
100
AcDbText
 10
10.0
 20
18.0
 30
0.0
 40
3.0
  1
TYPE No.203 d=16
100
AcDbText
  0
TEXT
  5
AAF3
330
AAD4
100
AcDbEntity
  8
7
  6
Continuous
100
AcDbText
 10
10.0
 20
26.0
 30
0.0
 40
3.0
  1
CODE No.9157
100
AcDbText
  0
TEXT
  5
AAF4
330
AAD4
100
AcDbEntity
  8
1
  6
Continuous
100
AcDbText
 10
10.0
 20
10.0
 30
0.0
 40
1.399999999999999
  1
LAYER
100
AcDbText
  0
TEXT
  5
AAF5
330
AAD4
100
AcDbEntity
  8
1
  6
Continuous
100
AcDbText
 10
17.97951099999998
 20
10.04873699999998
 30
0.0
 40
1.399999999999999
  1
1
100
AcDbText
  0
TEXT
  5
AAF6
330
AAD4
100
AcDbEntity
  8
7
  6
Continuous
100
AcDbText
 10
29.97951099999999
 20
10.04873699999998
 30
0.0
 40
1.399999999999999
  1
7
100
AcDbText
  0
TEXT
  5
AAF7
330
AAD4
100
AcDbEntity
  8
4
  6
CENTER
100
AcDbText
 10
23.97951099999999
 20
10.04873699999998
 30
0.0
 40
1.399999999999999
  1
4
100
AcDbText
  0
TEXT
  5
AAF8
330
AAD4
100
AcDbEntity
  8
3
  6
DASHED
100
AcDbText
 10
21.979511
 20
10.04873699999998
 30
0.0
 40
1.399999999999999
  1
3
100
AcDbText
  0
TEXT
  5
AAF9
330
AAD4
100
AcDbEntity
  8
2
  6
Continuous
100
AcDbText
 10
19.97951099999999
 20
10.04873699999998
 30
0.0
 40
1.399999999999999
  1
2
100
AcDbText
  0
TEXT
  5
AAFA
330
AAD4
100
AcDbEntity
  8
6
  6
Continuous
100
AcDbText
 10
27.979511
 20
10.04873699999998
 30
0.0
 40
1.399999999999999
  1
6
100
AcDbText
  0
TEXT
  5
AAFB
330
AAD4
100
AcDbEntity
  8
5
  6
PHANTOM
100
AcDbText
 10
25.97951099999999
 20
10.04873699999998
 30
0.0
 40
1.399999999999999
  1
5
100
AcDbText
  0
LINE
  5
AAFC
330
AAD4
100
AcDbEntity
  8
1
  6
Continuous
100
AcDbLine
 10
263.2132029999999
 20
187.370179
 30
0.0
 11
263.2132029999999
 21
166.9701789999998
 31
0.0
  0
ARC
  5
AAFD
330
AAD4
100
AcDbEntity
  8
1
  6
Continuous
100
AcDbCircle
 10
228.5132029999998
 20
187.370179
 30
0.0
 40
3.0
100
AcDbArc
 50
90.0
 51
180.0
  0
ARC
  5
AAFE
330
AAD4
100
AcDbEntity
  8
1
  6
Continuous
100
AcDbCircle
 10
260.2132029999999
 20
187.370179
 30
0.0
 40
3.0
100
AcDbArc
 50
0.0
 51
90.0
  0
LINE
  5
AAFF
330
AAD4
100
AcDbEntity
  8
1
  6
Continuous
100
AcDbLine
 10
228.1131039999999
 20
190.3702369999998
 30
0.0
 11
260.613104
 21
190.3700429999999
 31
0.0
  0
LINE
  5
AB00
330
AAD4
100
AcDbEntity
  8
1
  6
Continuous
100
AcDbLine
 10
231.1158789999999
 20
183.6664279999999
 30
0.0
 11
257.6105279999998
 21
183.6664279999999
 31
0.0
  0
ARC
  5
AB01
330
AAD4
100
AcDbEntity
  8
1
  6
Continuous
100
AcDbCircle
 10
257.6105279999998
 20
179.7177379999999
 30
0.0
 40
3.94869
100
AcDbArc
 50
33.136856
 51
90.0
  0
ARC
  5
AB02
330
AAD4
100
AcDbEntity
  8
1
  6
Continuous
100
AcDbCircle
 10
249.094448
 20
174.158366
 30
0.0
 40
14.11875499999999
100
AcDbArc
 50
0.0
 51
33.136856
  0
ARC
  5
AB03
330
AAD4
100
AcDbEntity
  8
1
  6
Continuous
100
AcDbCircle
 10
247.9536839999999
 20
174.074811
 30
0.0
 40
13.262575
100
AcDbArc
 50
4.189117999999997
 51
46.32007700000001
  0
ARC
  5
AB04
330
AAD4
100
AcDbEntity
  8
1
  6
Continuous
100
AcDbCircle
 10
231.1158789999999
 20
179.7177379999999
 30
0.0
 40
3.94869
100
AcDbArc
 50
90.0
 51
146.863144
  0
ARC
  5
AB05
330
AAD4
100
AcDbEntity
  8
1
  6
Continuous
100
AcDbCircle
 10
239.631959
 20
174.158366
 30
0.0
 40
14.11875499999999
100
AcDbArc
 50
146.863144
 51
180.0
  0
LINE
  5
AB06
330
AAD4
100
AcDbEntity
  8
1
  6
Continuous
100
AcDbLine
 10
234.3632029999999
 20
180.0857409999999
 30
0.0
 11
234.3632029999999
 21
135.278334
 31
0.0
  0
LINE
  5
AB07
330
AAD4
100
AcDbEntity
  8
1
  6
Continuous
100
AcDbLine
 10
232.8632029999999
 20
166.1820379999998
 30
0.0
 11
232.8632029999999
 21
149.1820379999998
 31
0.0
  0
LINE
  5
AB08
330
AAD4
100
AcDbEntity
  8
1
  6
Continuous
100
AcDbLine
 10
232.8632029999999
 20
166.1820379999998
 30
0.0
 11
234.3632029999999
 21
166.1820379999998
 31
0.0
  0
ARC
  5
AB09
330
AAD4
100
AcDbEntity
  8
1
  6
Continuous
100
AcDbCircle
 10
244.3632029999999
 20
147.6820379999998
 30
0.0
 40
35.0
100
AcDbArc
 50
75.30157599999999
 51
104.698424
  0
ARC
  5
AB0A
330
AAD4
100
AcDbEntity
  8
1
  6
Continuous
100
AcDbCircle
 10
235.8632029999998
 20
180.0857409999999
 30
0.0
 40
1.5
100
AcDbArc
 50
104.698424
 51
180.0
  0
LINE
  5
AB0B
330
AAD4
100
AcDbEntity
  8
1
  6
Continuous
100
AcDbLine
 10
254.3632029999999
 20
180.0857409999999
 30
0.0
 11
254.3632029999999
 21
135.278334
 31
0.0
  0
LINE
  5
AB0C
330
AAD4
100
AcDbEntity
  8
1
  6
Continuous
100
AcDbLine
 10
255.8632029999999
 20
166.1820379999998
 30
0.0
 11
254.3632029999999
 21
166.1820379999998
 31
0.0
  0
ARC
  5
AB0D
330
AAD4
100
AcDbEntity
  8
1
  6
Continuous
100
AcDbCircle
 10
252.8632029999999
 20
180.0857409999999
 30
0.0
 40
1.5
100
AcDbArc
 50
0.0
 51
75.30157599999999
  0
LINE
  5
AB0E
330
AAD4
100
AcDbEntity
  8
1
  6
Continuous
100
AcDbLine
 10
232.8632029999999
 20
149.1820379999998
 30
0.0
 11
234.3632029999999
 21
149.1820379999998
 31
0.0
  0
ARC
  5
AB0F
330
AAD4
100
AcDbEntity
  8
1
  6
Continuous
100
AcDbCircle
 10
244.3632029999999
 20
167.6820379999998
 30
0.0
 40
35.0
100
AcDbArc
 50
255.301576
 51
284.6984239999999
  0
ARC
  5
AB10
330
AAD4
100
AcDbEntity
  8
1
  6
Continuous
100
AcDbCircle
 10
235.8632029999998
 20
135.278334
 30
0.0
 40
1.5
100
AcDbArc
 50
180.0
 51
255.301576
  0
LINE
  5
AB11
330
AAD4
100
AcDbEntity
  8
1
  6
Continuous
100
AcDbLine
 10
255.8632029999999
 20
149.1820379999998
 30
0.0
 11
254.3632029999999
 21
149.1820379999998
 31
0.0
  0
ARC
  5
AB12
330
AAD4
100
AcDbEntity
  8
1
  6
Continuous
100
AcDbCircle
 10
252.8632029999999
 20
135.278334
 30
0.0
 40
1.5
100
AcDbArc
 50
284.6984239999999
 51
0.0
  0
LINE
  5
AB13
330
AAD4
100
AcDbEntity
  8
1
  6
Continuous
100
AcDbLine
 10
255.8632029999999
 20
166.1820379999998
 30
0.0
 11
255.8632029999999
 21
149.1820379999998
 31
0.0
  0
LINE
  5
AB14
330
AAD4
100
AcDbEntity
  8
1
  6
Continuous
100
AcDbLine
 10
231.8632029999999
 20
160.6820379999998
 30
0.0
 11
232.8632029999999
 21
160.6820379999998
 31
0.0
  0
LINE
  5
AB15
330
AAD4
100
AcDbEntity
  8
1
  6
Continuous
100
AcDbLine
 10
255.8632029999999
 20
160.6820379999998
 30
0.0
 11
256.8632029999998
 21
160.6820379999998
 31
0.0
  0
LINE
  5
AB16
330
AAD4
100
AcDbEntity
  8
1
  6
Continuous
100
AcDbLine
 10
231.8632029999999
 20
154.6820379999998
 30
0.0
 11
232.8632029999999
 21
154.6820379999998
 31
0.0
  0
LINE
  5
AB17
330
AAD4
100
AcDbEntity
  8
1
  6
Continuous
100
AcDbLine
 10
255.8632029999999
 20
154.6820379999998
 30
0.0
 11
256.8632029999998
 21
154.6820379999998
 31
0.0
  0
LINE
  5
AB18
330
AAD4
100
AcDbEntity
  8
4
  6
CENTER
100
AcDbLine
 10
176.0146189999999
 20
296.7864619999998
 30
0.0
 11
103.715027
 21
296.7864619999998
 31
0.0
  0
LINE
  5
AB19
330
AAD4
100
AcDbEntity
  8
4
  6
CENTER
100
AcDbLine
 10
152.164619
 20
320.6364619999998
 30
0.0
 11
152.164619
 21
272.936462
 31
0.0
  0
LINE
  5
AB1A
330
AAD4
100
AcDbEntity
  8
4
  6
CENTER
100
AcDbLine
 10
244.3632029999999
 20
239.682576
 30
0.0
 11
244.3632029999999
 21
127.6820379999999
 31
0.0
  0
LINE
  5
AB1B
330
AAD4
100
AcDbEntity
  8
4
  6
CENTER
100
AcDbLine
 10
222.6129629999999
 20
157.6820379999998
 30
0.0
 11
265.863443
 21
157.6820379999998
 31
0.0
  0
LINE
  5
AB1C
330
AAD4
100
AcDbEntity
  8
4
  6
CENTER
100
AcDbLine
 10
103.164626
 20
157.6822369999999
 30
0.0
 11
163.164626
 21
157.6822369999999
 31
0.0
  0
LINE
  5
AB1D
330
AAD4
100
AcDbEntity
  8
1
  6
Continuous
100
AcDbLine
 10
135.717126
 20
187.550838
 30
0.0
 11
132.0371259999998
 21
187.5070279999999
 31
0.0
  0
ARC
  5
AB1E
330
AAD4
100
AcDbEntity
  8
1
  6
Continuous
100
AcDbCircle
 10
133.5146259999999
 20
156.732237
 30
0.0
 40
7.5
100
AcDbArc
 50
174.673297
 51
295.9209009999998
  0
ARC
  5
AB1F
330
AAD4
100
AcDbEntity
  8
1
  6
Continuous
100
AcDbCircle
 10
133.164626
 20
157.6822369999999
 30
0.0
 40
8.5
100
AcDbArc
 50
139.62305
 51
281.789558
  0
ARC
  5
AB20
330
AAD4
100
AcDbEntity
  8
1
  6
Continuous
100
AcDbCircle
 10
133.164626
 20
157.6822369999999
 30
0.0
 40
17.5
100
AcDbArc
 50
107.378525
 51
26.47566499999999
  0
ARC
  5
AB21
330
AAD4
100
AcDbEntity
  8
1
  6
Continuous
100
AcDbCircle
 10
133.164626
 20
157.6822369999999
 30
0.0
 40
25.0
100
AcDbArc
 50
99.78061099999999
 51
35.83806699999998
  0
LINE
  5
AB22
330
AAD4
100
AcDbEntity
  8
1
  6
Continuous
100
AcDbLine
 10
141.0146259999999
 20
186.633782
 30
0.0
 11
141.0146259999999
 21
156.449475
 31
0.0
  0
ARC
  5
AB23
330
AAD4
100
AcDbEntity
  8
1
  6
Continuous
100
AcDbCircle
 10
205.7691629999999
 20
136.558325
 30
0.0
 40
63.35981999999999
100
AcDbArc
 50
134.0470019999999
 51
143.333821
  0
LINE
  5
AB24
330
AAD4
100
AcDbEntity
  8
4
  6
CENTER
100
AcDbLine
 10
152.1646259999999
 20
239.53127
 30
0.0
 11
152.1646259999999
 21
167.1422599999999
 31
0.0
  0
ARC
  5
AB25
330
AAD4
100
AcDbEntity
  8
1
  6
Continuous
100
AcDbCircle
 10
91.122744
 20
192.391394
 30
0.0
 40
63.31738699999998
100
AcDbArc
 50
321.97488
 51
329.982574
  0
ARC
  5
AB26
330
AAD4
100
AcDbEntity
  8
1
  6
Continuous
100
AcDbCircle
 10
268.1828499999999
 20
90.093882
 30
0.0
 40
141.169928
100
AcDbArc
 50
143.333821
 51
149.982574
  0
ARC
  5
AB27
330
AAD4
100
AcDbEntity
  8
1
  6
Continuous
100
AcDbCircle
 10
165.5442449999999
 20
178.144123
 30
0.0
 40
5.502905999999999
100
AcDbArc
 50
90.0
 51
134.0470019999999
  0
LINE
  5
AB28
330
AAD4
100
AcDbEntity
  8
1
  6
Continuous
100
AcDbLine
 10
169.3501259999998
 20
183.5870279999998
 30
0.0
 11
169.127126
 21
183.647028
 31
0.0
  0
LINE
  5
AB29
330
AAD4
100
AcDbEntity
  8
1
  6
Continuous
100
AcDbLine
 10
169.127126
 20
183.647028
 30
0.0
 11
165.5442449999999
 21
183.647028
 31
0.0
  0
LINE
  5
AB2A
330
AAD4
100
AcDbEntity
  8
1
  6
Continuous
100
AcDbLine
 10
170.764126
 20
183.6743669999999
 30
0.0
 11
170.015126
 21
183.6320279999999
 31
0.0
  0
ARC
  5
AB2B
330
AAD4
100
AcDbEntity
  8
1
  6
Continuous
100
AcDbCircle
 10
167.9451409999998
 20
187.7889979999999
 30
0.0
 40
2.732905
100
AcDbArc
 50
0.0
 51
70.822161
  0
LINE
  5
AB2C
330
AAD4
100
AcDbEntity
  8
1
  6
Continuous
100
AcDbLine
 10
170.015126
 20
183.6320279999999
 30
0.0
 11
169.3501259999998
 21
183.5870279999998
 31
0.0
  0
ARC
  5
AB2D
330
AAD4
100
AcDbEntity
  8
1
  6
Continuous
100
AcDbCircle
 10
136.8794169999999
 20
187.2558689999999
 30
0.0
 40
3.266183999999998
100
AcDbArc
 50
107.537707
 51
141.743298
  0
ARC
  5
AB2E
330
AAD4
100
AcDbEntity
  8
1
  6
Continuous
100
AcDbCircle
 10
137.810311
 20
186.521835
 30
0.0
 40
4.451666999999998
100
AcDbArc
 50
141.743298
 51
156.849068
  0
LINE
  5
AB2F
330
AAD4
100
AcDbEntity
  8
1
  6
Continuous
100
AcDbLine
 10
133.717126
 20
188.272028
 30
0.0
 11
133.5721259999999
 21
187.837028
 31
0.0
  0
LINE
  5
AB30
330
AAD4
100
AcDbEntity
  8
1
  6
Continuous
100
AcDbLine
 10
133.5721259999999
 20
187.837028
 30
0.0
 11
133.232126
 21
187.6370279999999
 31
0.0
  0
LINE
  5
AB31
330
AAD4
100
AcDbEntity
  8
1
  6
Continuous
100
AcDbLine
 10
133.232126
 20
187.6370279999999
 30
0.0
 11
133.062126
 21
187.552028
 31
0.0
  0
LINE
  5
AB32
330
AAD4
100
AcDbEntity
  8
1
  6
Continuous
100
AcDbLine
 10
133.062126
 20
187.552028
 30
0.0
 11
132.877126
 21
187.517028
 31
0.0
  0
ARC
  5
AB33
330
AAD4
100
AcDbEntity
  8
1
  6
Continuous
100
AcDbCircle
 10
135.6928139999999
 20
189.593062
 30
0.0
 40
2.042368999999998
100
AcDbArc
 50
270.6820599999999
 51
340.178191
  0
LINE
  5
AB34
330
AAD4
100
AcDbEntity
  8
1
  6
Continuous
100
AcDbLine
 10
130.877126
 20
187.497028
 30
0.0
 11
127.658798
 21
187.5613949999998
 31
0.0
  0
LINE
  5
AB35
330
AAD4
100
AcDbEntity
  8
1
  6
Continuous
100
AcDbLine
 10
132.0371259999998
 20
187.5070279999999
 30
0.0
 11
131.442126
 21
187.487028
 31
0.0
  0
LINE
  5
AB36
330
AAD4
100
AcDbEntity
  8
1
  6
Continuous
100
AcDbLine
 10
131.442126
 20
187.487028
 30
0.0
 11
130.877126
 21
187.497028
 31
0.0
  0
ARC
  5
AB37
330
AAD4
100
AcDbEntity
  8
1
  6
Continuous
100
AcDbCircle
 10
127.631779
 20
186.210488
 30
0.0
 40
1.351175999999999
100
AcDbArc
 50
88.85423700000002
 51
129.236686
  0
LINE
  5
AB38
330
AAD4
100
AcDbEntity
  8
1
  6
Continuous
100
AcDbLine
 10
129.217126
 20
185.5300409999999
 30
0.0
 11
126.9481689999998
 21
185.563798
 31
0.0
  0
LINE
  5
AB39
330
AAD4
100
AcDbEntity
  8
1
  6
Continuous
100
AcDbLine
 10
126.7771259999999
 20
187.2570279999999
 30
0.0
 11
126.717126
 21
186.3420279999999
 31
0.0
  0
LINE
  5
AB3A
330
AAD4
100
AcDbEntity
  8
1
  6
Continuous
100
AcDbLine
 10
126.717126
 20
186.3420279999999
 30
0.0
 11
126.717126
 21
185.6570279999999
 31
0.0
  0
ARC
  5
AB3B
330
AAD4
100
AcDbEntity
  8
1
  6
Continuous
100
AcDbCircle
 10
126.953311
 20
185.9094419999999
 30
0.0
 40
0.345682
100
AcDbArc
 50
226.9023309999998
 51
269.1476279999998
  0
LINE
  5
AB3C
330
AAD4
100
AcDbEntity
  8
1
  6
Continuous
100
AcDbLine
 10
225.5132029999999
 20
187.370179
 30
0.0
 11
225.5132029999999
 21
166.9701789999998
 31
0.0
  0
ARC
  5
AB3D
330
AAD4
100
AcDbEntity
  8
1
  6
Continuous
100
AcDbCircle
 10
56.366049
 20
135.278334
 30
0.0
 40
1.5
100
AcDbArc
 50
284.6984239999999
 51
0.0
  0
ARC
  5
AB3E
330
AAD4
100
AcDbEntity
  8
1
  6
Continuous
100
AcDbCircle
 10
47.86604899999999
 20
167.6820379999998
 30
0.0
 40
35.0
100
AcDbArc
 50
255.301576
 51
284.6984239999999
  0
ARC
  5
AB3F
330
AAD4
100
AcDbEntity
  8
1
  6
Continuous
100
AcDbCircle
 10
39.36604899999998
 20
135.278334
 30
0.0
 40
1.5
100
AcDbArc
 50
180.0
 51
255.301576
  0
LINE
  5
AB40
330
AAD4
100
AcDbEntity
  8
4
  6
CENTER
100
AcDbLine
 10
68.822001
 20
157.6820379999998
 30
0.0
 11
26.365809
 21
157.6820379999998
 31
0.0
  0
ARC
  5
AB41
330
AAD4
100
AcDbEntity
  8
1
  6
Continuous
100
AcDbCircle
 10
56.366049
 20
180.0857409999999
 30
0.0
 40
1.5
100
AcDbArc
 50
0.0
 51
75.30157599999999
  0
LINE
  5
AB42
330
AAD4
100
AcDbEntity
  8
1
  6
Continuous
100
AcDbLine
 10
57.866049
 20
180.0857409999999
 30
0.0
 11
57.866049
 21
135.278334
 31
0.0
  0
LINE
  5
AB43
330
AAD4
100
AcDbEntity
  8
1
  6
Continuous
100
AcDbLine
 10
59.36604899999998
 20
166.1820379999998
 30
0.0
 11
59.36604899999998
 21
149.1820379999998
 31
0.0
  0
LINE
  5
AB44
330
AAD4
100
AcDbEntity
  8
1
  6
Continuous
100
AcDbLine
 10
59.36604899999998
 20
149.1820379999998
 30
0.0
 11
57.866049
 21
149.1820379999998
 31
0.0
  0
LINE
  5
AB45
330
AAD4
100
AcDbEntity
  8
1
  6
Continuous
100
AcDbLine
 10
59.86604899999999
 20
154.6820379999998
 30
0.0
 11
59.36604899999998
 21
154.6820379999998
 31
0.0
  0
LINE
  5
AB46
330
AAD4
100
AcDbEntity
  8
1
  6
Continuous
100
AcDbLine
 10
59.36604899999998
 20
166.1820379999998
 30
0.0
 11
57.866049
 21
166.1820379999998
 31
0.0
  0
LINE
  5
AB47
330
AAD4
100
AcDbEntity
  8
1
  6
Continuous
100
AcDbLine
 10
59.96955299999999
 20
160.6820379999998
 30
0.0
 11
59.36604899999998
 21
160.6820379999998
 31
0.0
  0
ARC
  5
AB48
330
AAD4
100
AcDbEntity
  8
1
  6
Continuous
100
AcDbCircle
 10
39.36604899999998
 20
180.0857409999999
 30
0.0
 40
1.5
100
AcDbArc
 50
104.698424
 51
180.0
  0
LINE
  5
AB49
330
AAD4
100
AcDbEntity
  8
1
  6
Continuous
100
AcDbLine
 10
37.86604899999999
 20
180.0857409999999
 30
0.0
 11
37.86604899999999
 21
135.278334
 31
0.0
  0
LINE
  5
AB4A
330
AAD4
100
AcDbEntity
  8
1
  6
Continuous
100
AcDbLine
 10
36.366049
 20
166.1820379999998
 30
0.0
 11
36.366049
 21
149.1820379999998
 31
0.0
  0
LINE
  5
AB4B
330
AAD4
100
AcDbEntity
  8
1
  6
Continuous
100
AcDbLine
 10
36.366049
 20
149.1820379999998
 30
0.0
 11
37.86604899999999
 21
149.1820379999998
 31
0.0
  0
LINE
  5
AB4C
330
AAD4
100
AcDbEntity
  8
1
  6
Continuous
100
AcDbLine
 10
36.366049
 20
154.6820379999998
 30
0.0
 11
36.266049
 21
154.6820379999998
 31
0.0
  0
LINE
  5
AB4D
330
AAD4
100
AcDbEntity
  8
1
  6
Continuous
100
AcDbLine
 10
36.366049
 20
166.1820379999998
 30
0.0
 11
37.86604899999999
 21
166.1820379999998
 31
0.0
  0
LINE
  5
AB4E
330
AAD4
100
AcDbEntity
  8
1
  6
Continuous
100
AcDbLine
 10
36.366049
 20
160.6820379999998
 30
0.0
 11
36.162545
 21
160.6820379999998
 31
0.0
  0
ARC
  5
AB4F
330
AAD4
100
AcDbEntity
  8
1
  6
Continuous
100
AcDbCircle
 10
47.86604899999999
 20
147.6820379999998
 30
0.0
 40
35.0
100
AcDbArc
 50
75.30157599999999
 51
104.698424
  0
LINE
  5
AB50
330
AAD4
100
AcDbEntity
  8
4
  6
CENTER
100
AcDbLine
 10
47.86604899999999
 20
239.6825769999999
 30
0.0
 11
47.86604899999999
 21
127.6820379999999
 31
0.0
  0
LINE
  5
AB51
330
AAD4
100
AcDbEntity
  8
1
  6
Continuous
100
AcDbLine
 10
32.20065799999999
 20
190.370234
 30
0.0
 11
63.547226
 21
190.3700479999999
 31
0.0
  0
ARC
  5
AB52
330
AAD4
100
AcDbEntity
  8
1
  6
Continuous
100
AcDbCircle
 10
37.11580899999999
 20
183.581018
 30
0.0
 40
3.75
100
AcDbArc
 50
90.0
 51
180.0
  0
LINE
  5
AB53
330
AAD4
100
AcDbEntity
  8
1
  6
Continuous
100
AcDbLine
 10
33.36580899999999
 20
149.2453159999998
 30
0.0
 11
35.36604899999999
 21
149.2453159999998
 31
0.0
  0
ARC
  5
AB54
330
AAD4
100
AcDbEntity
  8
1
  6
Continuous
100
AcDbCircle
 10
55.731462
 20
167.6022299999999
 30
0.0
 40
26.722888
100
AcDbArc
 50
181.355289
 51
204.692905
  0
LINE
  5
AB55
330
AAD4
100
AcDbEntity
  8
1
  6
Continuous
100
AcDbLine
 10
33.36580899999999
 20
183.581018
 30
0.0
 11
33.36580899999999
 21
149.2453159999998
 31
0.0
  0
LINE
  5
AB56
330
AAD4
100
AcDbEntity
  8
1
  6
Continuous
100
AcDbLine
 10
32.432493
 20
161.9320379999998
 30
0.0
 11
32.432493
 21
153.4320379999998
 31
0.0
  0
ARC
  5
AB57
330
AAD4
100
AcDbEntity
  8
1
  6
Continuous
100
AcDbCircle
 10
40.36580899999999
 20
157.6820379999998
 30
0.0
 40
9.0
100
AcDbArc
 50
151.821357
 51
208.178643
  0
LINE
  5
AB58
330
AAD4
100
AcDbEntity
  8
1
  6
Continuous
100
AcDbLine
 10
33.36580899999999
 20
153.4320379999998
 30
0.0
 11
32.432493
 21
153.4320379999998
 31
0.0
  0
LINE
  5
AB59
330
AAD4
100
AcDbEntity
  8
1
  6
Continuous
100
AcDbLine
 10
29.016049
 20
187.370179
 30
0.0
 11
29.016049
 21
166.9701789999998
 31
0.0
  0
LINE
  5
AB5A
330
AAD4
100
AcDbEntity
  8
1
  6
Continuous
100
AcDbLine
 10
33.36580899999999
 20
161.9320379999998
 30
0.0
 11
32.432493
 21
161.9320379999998
 31
0.0
  0
ARC
  5
AB5B
330
AAD4
100
AcDbEntity
  8
1
  6
Continuous
100
AcDbCircle
 10
32.23066699999999
 20
187.1480939999999
 30
0.0
 40
3.22228
100
AcDbArc
 50
89.37084
 51
176.0479389999999
  0
ARC
  5
AB5C
330
AAD4
100
AcDbEntity
  8
1
  6
Continuous
100
AcDbCircle
 10
40.006289
 20
167.4394839999999
 30
0.0
 40
26.713884
100
AcDbArc
 50
326.8265529999998
 51
358.9933849999999
  0
LINE
  5
AB5D
330
AAD4
100
AcDbEntity
  8
1
  6
Continuous
100
AcDbLine
 10
35.36604899999999
 20
183.589424
 30
0.0
 11
35.36604899999999
 21
149.2453159999998
 31
0.0
  0
LINE
  5
AB5E
330
AAD4
100
AcDbEntity
  8
1
  6
Continuous
100
AcDbLine
 10
60.366049
 20
183.589424
 30
0.0
 11
60.366049
 21
149.2453159999998
 31
0.0
  0
LINE
  5
AB5F
330
AAD4
100
AcDbEntity
  8
1
  6
Continuous
100
AcDbLine
 10
62.366289
 20
183.581018
 30
0.0
 11
62.366289
 21
149.2453159999998
 31
0.0
  0
LINE
  5
AB60
330
AAD4
100
AcDbEntity
  8
1
  6
Continuous
100
AcDbLine
 10
35.36604899999999
 20
154.6820379999998
 30
0.0
 11
36.366049
 21
154.6820379999998
 31
0.0
  0
LINE
  5
AB61
330
AAD4
100
AcDbEntity
  8
1
  6
Continuous
100
AcDbLine
 10
60.366049
 20
149.2453159999998
 30
0.0
 11
62.366289
 21
149.2453159999998
 31
0.0
  0
LINE
  5
AB62
330
AAD4
100
AcDbEntity
  8
1
  6
Continuous
100
AcDbLine
 10
60.366049
 20
154.6820379999998
 30
0.0
 11
59.36604899999998
 21
154.6820379999998
 31
0.0
  0
ARC
  5
AB63
330
AAD4
100
AcDbEntity
  8
1
  6
Continuous
100
AcDbCircle
 10
63.50143199999997
 20
187.1480939999999
 30
0.0
 40
3.22228
100
AcDbArc
 50
3.952061
 51
90.62915999999999
  0
LINE
  5
AB64
330
AAD4
100
AcDbEntity
  8
1
  6
Continuous
100
AcDbLine
 10
66.716049
 20
187.370179
 30
0.0
 11
66.716049
 21
166.9701789999998
 31
0.0
  0
LINE
  5
AB65
330
AAD4
100
AcDbEntity
  8
1
  6
Continuous
100
AcDbLine
 10
35.36604899999999
 20
160.6820379999998
 30
0.0
 11
36.366049
 21
160.6820379999998
 31
0.0
  0
LINE
  5
AB66
330
AAD4
100
AcDbEntity
  8
1
  6
Continuous
100
AcDbLine
 10
59.36604899999998
 20
160.6820379999998
 30
0.0
 11
60.366049
 21
160.6820379999998
 31
0.0
  0
LINE
  5
AB67
330
AAD4
100
AcDbEntity
  8
1
  6
Continuous
100
AcDbLine
 10
37.11604899999999
 20
185.339424
 30
0.0
 11
58.61604899999999
 21
185.339424
 31
0.0
  0
LINE
  5
AB68
330
AAD4
100
AcDbEntity
  8
1
  6
Continuous
100
AcDbLine
 10
37.11580899999999
 20
187.331018
 30
0.0
 11
58.616289
 21
187.331018
 31
0.0
  0
ARC
  5
AB69
330
AAD4
100
AcDbEntity
  8
1
  6
Continuous
100
AcDbCircle
 10
37.11604899999999
 20
183.589424
 30
0.0
 40
1.75
100
AcDbArc
 50
90.0
 51
180.0
  0
ARC
  5
AB6A
330
AAD4
100
AcDbEntity
  8
1
  6
Continuous
100
AcDbCircle
 10
58.616289
 20
183.581018
 30
0.0
 40
3.75
100
AcDbArc
 50
0.0
 51
90.0
  0
ARC
  5
AB6B
330
AAD4
100
AcDbEntity
  8
1
  6
Continuous
100
AcDbCircle
 10
58.61604899999999
 20
183.589424
 30
0.0
 40
1.75
100
AcDbArc
 50
0.0
 51
90.0
  0
LINE
  5
AB6C
330
AAD4
100
AcDbEntity
  8
1
  6
Continuous
100
AcDbLine
 10
256.8632029999998
 20
183.589424
 30
0.0
 11
256.8632029999998
 21
149.2453159999998
 31
0.0
  0
LINE
  5
AB6D
330
AAD4
100
AcDbEntity
  8
1
  6
Continuous
100
AcDbLine
 10
231.8632029999999
 20
183.589424
 30
0.0
 11
231.8632029999999
 21
149.2453159999998
 31
0.0
  0
ARC
  5
AB6E
330
AAD4
100
AcDbEntity
  8
1
  6
Continuous
100
AcDbCircle
 10
252.113443
 20
157.6820379999998
 30
0.0
 40
9.0
100
AcDbArc
 50
331.8213569999999
 51
355.5531859999998
  0
LINE
  5
AB6F
330
AAD4
100
AcDbEntity
  8
1
  6
Continuous
100
AcDbLine
 10
260.046759
 20
154.816337
 30
0.0
 11
260.046759
 21
153.4320379999998
 31
0.0
  0
LINE
  5
AB70
330
AAD4
100
AcDbEntity
  8
1
  6
Continuous
100
AcDbLine
 10
259.4357299999999
 20
153.4320379999998
 30
0.0
 11
260.046759
 21
153.4320379999998
 31
0.0
  0
LINE
  5
AB71
330
AAD4
100
AcDbEntity
  8
1
  6
Continuous
100
AcDbLine
 10
129.4032709999999
 20
187.5265049999999
 30
0.0
 11
126.0470149999999
 21
157.4284969999999
 31
0.0
  0
ARC
  5
AB72
330
AAD4
100
AcDbEntity
  8
1
  6
Continuous
100
AcDbCircle
 10
131.547542
 20
160.77953
 30
0.0
 40
12.0
100
AcDbArc
 50
295.9209009999998
 51
321.97488
  0
LINE
  5
AB73
330
AAD4
100
AcDbEntity
  8
4
  6
CENTER
100
AcDbLine
 10
176.0146189999999
 20
70.009612
 30
0.0
 11
103.164626
 21
70.009612
 31
0.0
  0
LINE
  5
AB74
330
AAD4
100
AcDbEntity
  8
4
  6
CENTER
100
AcDbLine
 10
152.164619
 20
46.159612
 30
0.0
 11
152.164619
 21
93.859612
 31
0.0
  0
LINE
  5
AB75
330
AAD4
100
AcDbEntity
  8
1
  6
Continuous
100
AcDbLine
 10
137.8128769999999
 20
57.50961199999998
 30
0.0
 11
126.07531
 21
57.50961199999998
 31
0.0
  0
LINE
  5
AB76
330
AAD4
100
AcDbEntity
  8
1
  6
Continuous
100
AcDbLine
 10
137.8132369999999
 20
55.50937199999999
 30
0.0
 11
126.07531
 21
55.50937199999999
 31
0.0
  0
LINE
  5
AB77
330
AAD4
100
AcDbEntity
  8
1
  6
Continuous
100
AcDbLine
 10
137.8132369999999
 20
84.50985199999998
 30
0.0
 11
126.07531
 21
84.50985199999998
 31
0.0
  0
LINE
  5
AB78
330
AAD4
100
AcDbEntity
  8
1
  6
Continuous
100
AcDbLine
 10
137.8128769999999
 20
82.509612
 30
0.0
 11
126.07531
 21
82.509612
 31
0.0
  0
LINE
  5
AB79
330
AAD4
100
AcDbEntity
  8
1
  6
Continuous
100
AcDbLine
 10
130.164626
 20
81.70961199999998
 30
0.0
 11
130.164626
 21
81.50961200000002
 31
0.0
  0
LINE
  5
AB7A
330
AAD4
100
AcDbEntity
  8
4
  6
CENTER
100
AcDbLine
 10
133.164626
 20
127.682237
 30
0.0
 11
133.164626
 21
185.6822369999999
 31
0.0
  0
LINE
  5
AB7B
330
AAD4
100
AcDbEntity
  8
1
  6
Continuous
100
AcDbLine
 10
126.07531
 20
55.50937199999999
 30
0.0
 11
126.07531
 21
57.50961199999998
 31
0.0
  0
LINE
  5
AB7C
330
AAD4
100
AcDbEntity
  8
1
  6
Continuous
100
AcDbLine
 10
126.07531
 20
82.509612
 30
0.0
 11
126.07531
 21
84.50985199999998
 31
0.0
  0
ARC
  5
AB7D
330
AAD4
100
AcDbEntity
  8
1
  6
Continuous
100
AcDbCircle
 10
152.164619
 20
70.009612
 30
0.0
 40
13.6
100
AcDbArc
 50
227.332075
 51
132.6679249999999
  0
ARC
  5
AB7E
330
AAD4
100
AcDbEntity
  8
1
  6
Continuous
100
AcDbCircle
 10
152.164619
 20
70.009612
 30
0.0
 40
12.0
100
AcDbArc
 50
236.44269
 51
123.55731
  0
LINE
  5
AB7F
330
AAD4
100
AcDbEntity
  8
1
  6
Continuous
100
AcDbLine
 10
110.760923
 20
80.009612
 30
0.0
 11
155.56833
 21
80.009612
 31
0.0
  0
ARC
  5
AB80
330
AAD4
100
AcDbEntity
  8
1
  6
Continuous
100
AcDbCircle
 10
123.1646259999999
 20
70.009612
 30
0.0
 40
35.0
100
AcDbArc
 50
345.3015759999999
 51
14.698424
  0
ARC
  5
AB81
330
AAD4
100
AcDbEntity
  8
1
  6
Continuous
100
AcDbCircle
 10
155.56833
 20
78.509612
 30
0.0
 40
1.5
100
AcDbArc
 50
14.698424
 51
90.0
  0
LINE
  5
AB82
330
AAD4
100
AcDbEntity
  8
1
  6
Continuous
100
AcDbLine
 10
110.760923
 20
60.00961199999998
 30
0.0
 11
155.56833
 21
60.00961199999998
 31
0.0
  0
ARC
  5
AB83
330
AAD4
100
AcDbEntity
  8
1
  6
Continuous
100
AcDbCircle
 10
155.56833
 20
61.509612
 30
0.0
 40
1.5
100
AcDbArc
 50
270.0
 51
345.3015759999999
  0
LINE
  5
AB84
330
AAD4
100
AcDbEntity
  8
4
  6
CENTER
100
AcDbLine
 10
133.164626
 20
90.96532399999999
 30
0.0
 11
133.164626
 21
48.509372
 31
0.0
  0
ARC
  5
AB85
330
AAD4
100
AcDbEntity
  8
1
  6
Continuous
100
AcDbCircle
 10
133.164626
 20
62.509372
 30
0.0
 40
9.0
100
AcDbArc
 50
241.8213569999999
 51
298.178643
  0
LINE
  5
AB86
330
AAD4
100
AcDbEntity
  8
1
  6
Continuous
100
AcDbLine
 10
128.914626
 20
54.576056
 30
0.0
 11
137.414626
 21
54.576056
 31
0.0
  0
LINE
  5
AB87
330
AAD4
100
AcDbEntity
  8
1
  6
Continuous
100
AcDbLine
 10
124.664626
 20
58.509612
 30
0.0
 11
141.664626
 21
58.509612
 31
0.0
  0
LINE
  5
AB88
330
AAD4
100
AcDbEntity
  8
1
  6
Continuous
100
AcDbLine
 10
124.664626
 20
81.50961200000002
 30
0.0
 11
141.664626
 21
81.50961200000002
 31
0.0
  0
LINE
  5
AB89
330
AAD4
100
AcDbEntity
  8
1
  6
Continuous
100
AcDbLine
 10
136.164626
 20
57.50961199999998
 30
0.0
 11
136.164626
 21
58.109612
 31
0.0
  0
LINE
  5
AB8A
330
AAD4
100
AcDbEntity
  8
1
  6
Continuous
100
AcDbLine
 10
137.414626
 20
55.50937199999999
 30
0.0
 11
137.414626
 21
54.576056
 31
0.0
  0
LINE
  5
AB8B
330
AAD4
100
AcDbEntity
  8
1
  6
Continuous
100
AcDbLine
 10
136.164626
 20
58.509612
 30
0.0
 11
136.164626
 21
58.00961199999999
 31
0.0
  0
LINE
  5
AB8C
330
AAD4
100
AcDbEntity
  8
1
  6
Continuous
100
AcDbLine
 10
141.664626
 20
58.509612
 30
0.0
 11
141.664626
 21
60.00961199999998
 31
0.0
  0
LINE
  5
AB8D
330
AAD4
100
AcDbEntity
  8
1
  6
Continuous
100
AcDbLine
 10
136.164626
 20
81.70961199999998
 30
0.0
 11
136.164626
 21
81.50961200000002
 31
0.0
  0
LINE
  5
AB8E
330
AAD4
100
AcDbEntity
  8
1
  6
Continuous
100
AcDbLine
 10
136.164626
 20
82.509612
 30
0.0
 11
136.164626
 21
81.50961200000002
 31
0.0
  0
LINE
  5
AB8F
330
AAD4
100
AcDbEntity
  8
1
  6
Continuous
100
AcDbLine
 10
141.664626
 20
81.50961200000002
 30
0.0
 11
141.664626
 21
80.009612
 31
0.0
  0
LINE
  5
AB90
330
AAD4
100
AcDbEntity
  8
1
  6
Continuous
100
AcDbLine
 10
130.164626
 20
57.50961199999998
 30
0.0
 11
130.164626
 21
58.109612
 31
0.0
  0
LINE
  5
AB91
330
AAD4
100
AcDbEntity
  8
1
  6
Continuous
100
AcDbLine
 10
128.914626
 20
55.50937199999999
 30
0.0
 11
128.914626
 21
54.576056
 31
0.0
  0
LINE
  5
AB92
330
AAD4
100
AcDbEntity
  8
1
  6
Continuous
100
AcDbLine
 10
130.164626
 20
58.509612
 30
0.0
 11
130.164626
 21
57.90610799999999
 31
0.0
  0
LINE
  5
AB93
330
AAD4
100
AcDbEntity
  8
1
  6
Continuous
100
AcDbLine
 10
124.664626
 20
58.509612
 30
0.0
 11
124.664626
 21
60.00961199999998
 31
0.0
  0
LINE
  5
AB94
330
AAD4
100
AcDbEntity
  8
1
  6
Continuous
100
AcDbLine
 10
130.164626
 20
81.50961200000002
 30
0.0
 11
130.164626
 21
81.70961199999998
 31
0.0
  0
LINE
  5
AB95
330
AAD4
100
AcDbEntity
  8
1
  6
Continuous
100
AcDbLine
 10
130.164626
 20
82.509612
 30
0.0
 11
130.164626
 21
81.50961200000002
 31
0.0
  0
LINE
  5
AB96
330
AAD4
100
AcDbEntity
  8
1
  6
Continuous
100
AcDbLine
 10
124.664626
 20
81.50961200000002
 30
0.0
 11
124.664626
 21
80.009612
 31
0.0
  0
ARC
  5
AB97
330
AAD4
100
AcDbEntity
  8
1
  6
Continuous
100
AcDbCircle
 10
110.760923
 20
78.509612
 30
0.0
 40
1.5
100
AcDbArc
 50
90.0
 51
165.301576
  0
ARC
  5
AB98
330
AAD4
100
AcDbEntity
  8
1
  6
Continuous
100
AcDbCircle
 10
143.1646259999999
 20
70.009612
 30
0.0
 40
35.0
100
AcDbArc
 50
165.301576
 51
194.698424
  0
ARC
  5
AB99
330
AAD4
100
AcDbEntity
  8
1
  6
Continuous
100
AcDbCircle
 10
110.760923
 20
61.509612
 30
0.0
 40
1.5
100
AcDbArc
 50
194.698424
 51
270.0
  0
LINE
  5
AB9A
330
AAD4
100
AcDbEntity
  8
1
  6
Continuous
100
AcDbLine
 10
228.5132029999998
 20
190.370179
 30
0.0
 11
260.2132029999999
 21
190.370179
 31
0.0
  0
LINE
  5
AB9B
330
AAD4
100
AcDbEntity
  8
1
  6
Continuous
100
AcDbLine
 10
170.764126
 20
183.6743669999999
 30
0.0
 11
171.0146259999999
 21
183.6743669999999
 31
0.0
  0
LINE
  5
AB9C
330
AAD4
100
AcDbEntity
  8
1
  6
Continuous
100
AcDbLine
 10
171.0146259999999
 20
183.6743669999999
 30
0.0
 11
170.6780469999999
 21
187.7889979999999
 31
0.0
  0
ARC
  5
AB9D
330
AAD4
100
AcDbEntity
  8
1
  6
Continuous
100
AcDbCircle
 10
152.164619
 20
70.009612
 30
0.0
 40
18.85
100
AcDbArc
 50
236.2769409999999
 51
123.723059
  0
ARC
  5
AB9E
330
AAD4
100
AcDbEntity
  8
1
  6
Continuous
100
AcDbCircle
 10
152.164619
 20
70.009612
 30
0.0
 40
16.85
100
AcDbArc
 50
236.2759829999999
 51
123.7240169999999
  0
LINE
  5
AB9F
330
AAD4
100
AcDbEntity
  8
1
  6
Continuous
100
AcDbLine
 10
62.666289
 20
161.6820379999998
 30
0.0
 11
62.666289
 21
153.6820379999998
 31
0.0
  0
ARC
  5
ABA0
330
AAD4
100
AcDbEntity
  8
1
  6
Continuous
100
AcDbCircle
 10
56.322001
 20
157.6820379999998
 30
0.0
 40
7.5
100
AcDbArc
 50
327.769047
 51
32.230953
  0
LINE
  5
ABA1
330
AAD4
100
AcDbEntity
  8
1
  6
Continuous
100
AcDbLine
 10
62.666289
 20
153.6820379999998
 30
0.0
 11
62.366289
 21
153.6820379999998
 31
0.0
  0
LINE
  5
ABA2
330
AAD4
100
AcDbEntity
  8
1
  6
Continuous
100
AcDbLine
 10
62.666289
 20
161.6820379999998
 30
0.0
 11
62.366289
 21
161.6820379999998
 31
0.0
  0
CIRCLE
  5
ABA3
330
AAD4
100
AcDbEntity
  8
1
  6
Continuous
100
AcDbCircle
 10
133.164626
 20
157.6822369999999
 30
0.0
 40
4.0
  0
LINE
  5
ABA4
330
AAD4
100
AcDbEntity
  8
1
  6
Continuous
100
AcDbLine
 10
137.164626
 20
84.80961200000001
 30
0.0
 11
137.164626
 21
84.509612
 31
0.0
  0
LINE
  5
ABA5
330
AAD4
100
AcDbEntity
  8
1
  6
Continuous
100
AcDbLine
 10
129.164626
 20
84.80961200000001
 30
0.0
 11
129.164626
 21
84.509612
 31
0.0
  0
LINE
  5
ABA6
330
AAD4
100
AcDbEntity
  8
1
  6
Continuous
100
AcDbLine
 10
137.164626
 20
84.80961200000001
 30
0.0
 11
129.164626
 21
84.80961200000001
 31
0.0
  0
ARC
  5
ABA7
330
AAD4
100
AcDbEntity
  8
1
  6
Continuous
100
AcDbCircle
 10
133.164626
 20
78.46532399999998
 30
0.0
 40
7.5
100
AcDbArc
 50
57.76904700000001
 51
122.230953
  0
ARC
  5
ABA8
330
AAD4
100
AcDbEntity
  8
1
  6
Continuous
100
AcDbCircle
 10
55.731462
 20
167.6022299999999
 30
0.0
 40
26.722888
100
AcDbArc
 50
212.0233099999999
 51
213.180835
  0
LINE
  5
ABA9
330
AAD4
100
AcDbEntity
  8
1
  6
Continuous
100
AcDbLine
 10
258.863443
 20
150.097637
 30
0.0
 11
258.863443
 21
149.2453159999998
 31
0.0
  0
ARC
  5
ABAA
330
AAD4
100
AcDbEntity
  8
1
  6
Continuous
100
AcDbCircle
 10
236.503443
 20
167.4394839999999
 30
0.0
 40
26.713884
100
AcDbArc
 50
331.812974
 51
358.9933849999999
  0
LINE
  5
ABAB
330
AAD4
100
AcDbEntity
  8
1
  6
Continuous
100
AcDbLine
 10
256.8632029999998
 20
149.2453159999998
 30
0.0
 11
258.863443
 21
149.2453159999998
 31
0.0
  0
ARC
  5
ABAC
330
AAD4
100
AcDbEntity
  8
1
  6
Continuous
100
AcDbCircle
 10
268.863443
 20
150.097637
 30
0.0
 40
10.0
100
AcDbArc
 50
151.812974
 51
180.0
  0
LINE
  5
ABAD
330
AAD4
100
AcDbEntity
  8
1
  6
Continuous
100
AcDbLine
 10
261.180827
 20
175.043628
 30
0.0
 11
261.180827
 21
167.8554389999999
 31
0.0
  0
ARC
  5
ABAE
330
AAD4
100
AcDbEntity
  8
1
  6
Continuous
100
AcDbCircle
 10
234.4710669999999
 20
168.3247439999998
 30
0.0
 40
26.713884
100
AcDbArc
 50
331.812974
 51
358.9933849999999
  0
ARC
  5
ABAF
330
AAD4
100
AcDbEntity
  8
1
  6
Continuous
100
AcDbCircle
 10
266.831067
 20
150.9828979999998
 30
0.0
 40
10.0
100
AcDbArc
 50
151.812974
 51
175.405317
  0
ARC
  5
ABB0
330
AAD4
100
AcDbEntity
  8
1
  6
Continuous
100
AcDbCircle
 10
252.222963
 20
167.4394839999999
 30
0.0
 40
26.713884
100
AcDbArc
 50
181.006615
 51
208.187026
  0
ARC
  5
ABB1
330
AAD4
100
AcDbEntity
  8
1
  6
Continuous
100
AcDbCircle
 10
219.8629629999998
 20
150.097637
 30
0.0
 40
10.0
100
AcDbArc
 50
0.0
 51
28.18702599999999
  0
LINE
  5
ABB2
330
AAD4
100
AcDbEntity
  8
1
  6
Continuous
100
AcDbLine
 10
231.8632029999999
 20
149.2453159999998
 30
0.0
 11
229.8629629999998
 21
149.2453159999998
 31
0.0
  0
LINE
  5
ABB3
330
AAD4
100
AcDbEntity
  8
1
  6
Continuous
100
AcDbLine
 10
229.8629629999998
 20
150.097637
 30
0.0
 11
229.8629629999998
 21
149.2453159999998
 31
0.0
  0
ARC
  5
ABB4
330
AAD4
100
AcDbEntity
  8
1
  6
Continuous
100
AcDbCircle
 10
221.89534
 20
150.9828979999998
 30
0.0
 40
10.0
100
AcDbArc
 50
4.594682999999998
 51
28.18702599999999
  0
ARC
  5
ABB5
330
AAD4
100
AcDbEntity
  8
1
  6
Continuous
100
AcDbCircle
 10
254.25534
 20
168.3247439999998
 30
0.0
 40
26.713884
100
AcDbArc
 50
181.006615
 51
208.187026
  0
LINE
  5
ABB6
330
AAD4
100
AcDbEntity
  8
1
  6
Continuous
100
AcDbLine
 10
227.5455799999999
 20
175.043628
 30
0.0
 11
227.5455799999999
 21
167.8554389999999
 31
0.0
  0
ARC
  5
ABB7
330
AAD4
100
AcDbEntity
  8
1
  6
Continuous
100
AcDbCircle
 10
240.7727219999999
 20
174.074811
 30
0.0
 40
13.262575
100
AcDbArc
 50
133.679923
 51
175.810882
  0
LINE
  5
ABB8
330
AAD4
100
AcDbEntity
  8
1
  6
Continuous
100
AcDbLine
 10
135.8952069999999
 20
190.3702369999998
 30
0.0
 11
168.842904
 21
190.3702369999998
 31
0.0
  0
LINE
  5
ABB9
330
AAD4
100
AcDbEntity
  8
4
  6
CENTER
100
AcDbLine
 10
355.56178
 20
127.682237
 30
0.0
 11
355.56178
 21
185.6822369999999
 31
0.0
  0
LINE
  5
ABBA
330
AAD4
100
AcDbEntity
  8
1
  6
Continuous
100
AcDbLine
 10
359.3231349999999
 20
187.5265049999999
 30
0.0
 11
362.679392
 21
157.4284969999999
 31
0.0
  0
LINE
  5
ABBB
330
AAD4
100
AcDbEntity
  8
4
  6
CENTER
100
AcDbLine
 10
336.5617799999998
 20
239.53127
 30
0.0
 11
336.5617799999998
 21
167.1422599999999
 31
0.0
  0
ARC
  5
ABBC
330
AAD4
100
AcDbEntity
  8
1
  6
Continuous
100
AcDbCircle
 10
282.957243
 20
136.558325
 30
0.0
 40
63.35981999999999
100
AcDbArc
 50
36.666179
 51
45.952998
  0
LINE
  5
ABBD
330
AAD4
100
AcDbEntity
  8
1
  6
Continuous
100
AcDbLine
 10
347.7117799999998
 20
186.633782
 30
0.0
 11
347.7117799999998
 21
156.449475
 31
0.0
  0
ARC
  5
ABBE
330
AAD4
100
AcDbEntity
  8
1
  6
Continuous
100
AcDbCircle
 10
355.56178
 20
157.6822369999999
 30
0.0
 40
25.0
100
AcDbArc
 50
144.1619329999998
 51
80.219389
  0
ARC
  5
ABBF
330
AAD4
100
AcDbEntity
  8
1
  6
Continuous
100
AcDbCircle
 10
355.56178
 20
157.6822369999999
 30
0.0
 40
17.5
100
AcDbArc
 50
153.524335
 51
72.62147500000001
  0
ARC
  5
ABC0
330
AAD4
100
AcDbEntity
  8
1
  6
Continuous
100
AcDbCircle
 10
355.56178
 20
157.6822369999999
 30
0.0
 40
8.5
100
AcDbArc
 50
258.2104419999998
 51
40.37695
  0
ARC
  5
ABC1
330
AAD4
100
AcDbEntity
  8
1
  6
Continuous
100
AcDbCircle
 10
355.2117799999999
 20
156.732237
 30
0.0
 40
7.5
100
AcDbArc
 50
244.0790989999999
 51
5.326703
  0
LINE
  5
ABC2
330
AAD4
100
AcDbEntity
  8
4
  6
CENTER
100
AcDbLine
 10
385.56178
 20
157.6822369999999
 30
0.0
 11
325.56178
 21
157.6822369999999
 31
0.0
  0
ARC
  5
ABC3
330
AAD4
100
AcDbEntity
  8
1
  6
Continuous
100
AcDbCircle
 10
397.6036619999999
 20
192.391394
 30
0.0
 40
63.31738699999998
100
AcDbArc
 50
210.0174259999998
 51
218.02512
  0
ARC
  5
ABC4
330
AAD4
100
AcDbEntity
  8
1
  6
Continuous
100
AcDbCircle
 10
357.1788649999998
 20
160.77953
 30
0.0
 40
12.0
100
AcDbArc
 50
218.02512
 51
244.0790989999999
  0
ARC
  5
ABC5
330
AAD4
100
AcDbEntity
  8
1
  6
Continuous
100
AcDbCircle
 10
220.543556
 20
90.093882
 30
0.0
 40
141.169928
100
AcDbArc
 50
30.017426
 51
36.666179
  0
LINE
  5
ABC6
330
AAD4
100
AcDbEntity
  8
1
  6
Continuous
100
AcDbLine
 10
359.5092799999998
 20
185.5300409999999
 30
0.0
 11
361.778237
 21
185.563798
 31
0.0
  0
ARC
  5
ABC7
330
AAD4
100
AcDbEntity
  8
1
  6
Continuous
100
AcDbCircle
 10
361.0946269999999
 20
186.210488
 30
0.0
 40
1.351175999999999
100
AcDbArc
 50
50.763314
 51
91.14576300000001
  0
ARC
  5
ABC8
330
AAD4
100
AcDbEntity
  8
1
  6
Continuous
100
AcDbCircle
 10
361.773095
 20
185.9094419999999
 30
0.0
 40
0.345682
100
AcDbArc
 50
270.852372
 51
313.097669
  0
LINE
  5
ABC9
330
AAD4
100
AcDbEntity
  8
1
  6
Continuous
100
AcDbLine
 10
362.00928
 20
186.3420279999999
 30
0.0
 11
362.00928
 21
185.6570279999999
 31
0.0
  0
LINE
  5
ABCA
330
AAD4
100
AcDbEntity
  8
1
  6
Continuous
100
AcDbLine
 10
361.9492799999999
 20
187.2570279999999
 30
0.0
 11
362.00928
 21
186.3420279999999
 31
0.0
  0
LINE
  5
ABCB
330
AAD4
100
AcDbEntity
  8
1
  6
Continuous
100
AcDbLine
 10
352.8312
 20
190.3702369999998
 30
0.0
 11
319.883502
 21
190.3702369999998
 31
0.0
  0
ARC
  5
ABCC
330
AAD4
100
AcDbEntity
  8
1
  6
Continuous
100
AcDbCircle
 10
351.8469889999999
 20
187.2558689999999
 30
0.0
 40
3.266183999999998
100
AcDbArc
 50
38.25670199999999
 51
72.462293
  0
LINE
  5
ABCD
330
AAD4
100
AcDbEntity
  8
1
  6
Continuous
100
AcDbLine
 10
357.2842799999999
 20
187.487028
 30
0.0
 11
357.8492799999998
 21
187.497028
 31
0.0
  0
LINE
  5
ABCE
330
AAD4
100
AcDbEntity
  8
1
  6
Continuous
100
AcDbLine
 10
356.68928
 20
187.5070279999999
 30
0.0
 11
357.2842799999999
 21
187.487028
 31
0.0
  0
LINE
  5
ABCF
330
AAD4
100
AcDbEntity
  8
1
  6
Continuous
100
AcDbLine
 10
357.8492799999998
 20
187.497028
 30
0.0
 11
361.067608
 21
187.5613949999998
 31
0.0
  0
ARC
  5
ABD0
330
AAD4
100
AcDbEntity
  8
1
  6
Continuous
100
AcDbCircle
 10
353.033592
 20
189.593062
 30
0.0
 40
2.042368999999998
100
AcDbArc
 50
199.821809
 51
269.3179399999999
  0
LINE
  5
ABD1
330
AAD4
100
AcDbEntity
  8
1
  6
Continuous
100
AcDbLine
 10
355.6642799999999
 20
187.552028
 30
0.0
 11
355.8492799999998
 21
187.517028
 31
0.0
  0
LINE
  5
ABD2
330
AAD4
100
AcDbEntity
  8
1
  6
Continuous
100
AcDbLine
 10
355.49428
 20
187.6370279999999
 30
0.0
 11
355.6642799999999
 21
187.552028
 31
0.0
  0
LINE
  5
ABD3
330
AAD4
100
AcDbEntity
  8
1
  6
Continuous
100
AcDbLine
 10
355.1542799999999
 20
187.837028
 30
0.0
 11
355.49428
 21
187.6370279999999
 31
0.0
  0
LINE
  5
ABD4
330
AAD4
100
AcDbEntity
  8
1
  6
Continuous
100
AcDbLine
 10
355.0092799999998
 20
188.272028
 30
0.0
 11
355.1542799999999
 21
187.837028
 31
0.0
  0
ARC
  5
ABD5
330
AAD4
100
AcDbEntity
  8
1
  6
Continuous
100
AcDbCircle
 10
350.916095
 20
186.521835
 30
0.0
 40
4.451666999999998
100
AcDbArc
 50
23.150932
 51
38.25670199999999
  0
LINE
  5
ABD6
330
AAD4
100
AcDbEntity
  8
1
  6
Continuous
100
AcDbLine
 10
353.0092799999998
 20
187.550838
 30
0.0
 11
356.68928
 21
187.5070279999999
 31
0.0
  0
ARC
  5
ABD7
330
AAD4
100
AcDbEntity
  8
1
  6
Continuous
100
AcDbCircle
 10
320.781266
 20
187.7889979999999
 30
0.0
 40
2.732905
100
AcDbArc
 50
109.1778389999999
 51
180.0
  0
LINE
  5
ABD8
330
AAD4
100
AcDbEntity
  8
1
  6
Continuous
100
AcDbLine
 10
317.7117799999999
 20
183.6743669999999
 30
0.0
 11
318.04836
 21
187.7889979999999
 31
0.0
  0
LINE
  5
ABD9
330
AAD4
100
AcDbEntity
  8
1
  6
Continuous
100
AcDbLine
 10
317.9622799999999
 20
183.6743669999999
 30
0.0
 11
317.7117799999999
 21
183.6743669999999
 31
0.0
  0
LINE
  5
ABDA
330
AAD4
100
AcDbEntity
  8
1
  6
Continuous
100
AcDbLine
 10
318.7112799999998
 20
183.6320279999999
 30
0.0
 11
319.37628
 21
183.5870279999998
 31
0.0
  0
LINE
  5
ABDB
330
AAD4
100
AcDbEntity
  8
1
  6
Continuous
100
AcDbLine
 10
317.9622799999999
 20
183.6743669999999
 30
0.0
 11
318.7112799999998
 21
183.6320279999999
 31
0.0
  0
LINE
  5
ABDC
330
AAD4
100
AcDbEntity
  8
1
  6
Continuous
100
AcDbLine
 10
319.5992799999999
 20
183.647028
 30
0.0
 11
323.182161
 21
183.647028
 31
0.0
  0
LINE
  5
ABDD
330
AAD4
100
AcDbEntity
  8
1
  6
Continuous
100
AcDbLine
 10
319.37628
 20
183.5870279999998
 30
0.0
 11
319.5992799999999
 21
183.647028
 31
0.0
  0
ARC
  5
ABDE
330
AAD4
100
AcDbEntity
  8
1
  6
Continuous
100
AcDbCircle
 10
323.182161
 20
178.144123
 30
0.0
 40
5.502905999999999
100
AcDbArc
 50
45.952998
 51
90.0
  0
CIRCLE
  5
ABDF
330
AAD4
100
AcDbEntity
  8
1
  6
Continuous
100
AcDbCircle
 10
355.56178
 20
157.6822369999999
 30
0.0
 40
4.25
  0
LINE
  5
ABE0
330
AAD4
100
AcDbEntity
  8
1
  6
Continuous
100
AcDbLine
 10
144.834619
 20
309.4823939999999
 30
0.0
 11
137.5046189999999
 21
296.7864619999998
 31
0.0
  0
LINE
  5
ABE1
330
AAD4
100
AcDbEntity
  8
1
  6
Continuous
100
AcDbLine
 10
137.5046189999999
 20
296.7864619999998
 30
0.0
 11
144.834619
 21
284.09053
 31
0.0
  0
CIRCLE
  5
ABE2
330
AAD4
100
AcDbEntity
  8
1
  6
Continuous
100
AcDbCircle
 10
152.164619
 20
296.7864619999998
 30
0.0
 40
14.660012
  0
CIRCLE
  5
ABE3
330
AAD4
100
AcDbEntity
  8
1
  6
Continuous
100
AcDbCircle
 10
152.164619
 20
296.7864619999998
 30
0.0
 40
16.25
  0
CIRCLE
  5
ABE4
330
AAD4
100
AcDbEntity
  8
1
  6
Continuous
100
AcDbCircle
 10
152.164619
 20
296.7864619999998
 30
0.0
 40
16.00018
  0
CIRCLE
  5
ABE5
330
AAD4
100
AcDbEntity
  8
1
  6
Continuous
100
AcDbCircle
 10
152.164619
 20
296.7864619999998
 30
0.0
 40
8.0
  0
ARC
  5
ABE6
330
AAD4
100
AcDbEntity
  8
1
  6
Continuous
100
AcDbCircle
 10
152.164619
 20
296.7864619999998
 30
0.0
 40
7.9
100
AcDbArc
 50
117.6157799999999
 51
242.38422
  0
ARC
  5
ABE7
330
AAD4
100
AcDbEntity
  8
1
  6
Continuous
100
AcDbCircle
 10
152.164619
 20
296.7864619999998
 30
0.0
 40
7.9
100
AcDbArc
 50
297.6157799999999
 51
62.38421999999999
  0
LINE
  5
ABE8
330
AAD4
100
AcDbEntity
  8
1
  6
Continuous
100
AcDbLine
 10
166.8246189999998
 20
296.7864619999998
 30
0.0
 11
159.4946189999998
 21
309.4823939999999
 31
0.0
  0
LINE
  5
ABE9
330
AAD4
100
AcDbEntity
  8
1
  6
Continuous
100
AcDbLine
 10
159.4946189999998
 20
284.09053
 30
0.0
 11
166.8246189999998
 21
296.7864619999998
 31
0.0
  0
LINE
  5
ABEA
330
AAD4
100
AcDbEntity
  8
1
  6
Continuous
100
AcDbLine
 10
155.8265859999999
 20
289.7864619999999
 30
0.0
 11
148.502653
 21
289.7864619999999
 31
0.0
  0
CIRCLE
  5
ABEB
330
AAD4
100
AcDbEntity
  8
1
  6
Continuous
100
AcDbCircle
 10
152.164619
 20
296.7864619999998
 30
0.0
 40
4.0
  0
LINE
  5
ABEC
330
AAD4
100
AcDbEntity
  8
1
  6
Continuous
100
AcDbLine
 10
155.8265859999999
 20
303.7864619999999
 30
0.0
 11
148.502653
 21
303.7864619999999
 31
0.0
  0
LINE
  5
ABED
330
AAD4
100
AcDbEntity
  8
4
  6
CENTER
100
AcDbLine
 10
133.165027
 20
275.286422
 30
0.0
 11
133.165027
 21
317.7864619999998
 31
0.0
  0
ARC
  5
ABEE
330
AAD4
100
AcDbEntity
  8
1
  6
Continuous
100
AcDbCircle
 10
110.761324
 20
288.2864619999999
 30
0.0
 40
1.5
100
AcDbArc
 50
194.698424
 51
270.0
  0
LINE
  5
ABEF
330
AAD4
100
AcDbEntity
  8
1
  6
Continuous
100
AcDbLine
 10
137.8128769999999
 20
282.2864619999998
 30
0.0
 11
126.015027
 21
282.2864619999998
 31
0.0
  0
LINE
  5
ABF0
330
AAD4
100
AcDbEntity
  8
1
  6
Continuous
100
AcDbLine
 10
124.6650269999999
 20
285.2864619999999
 30
0.0
 11
128.4592249999997
 21
285.2864619999999
 31
0.0
  0
LINE
  5
ABF1
330
AAD4
100
AcDbEntity
  8
1
  6
Continuous
100
AcDbLine
 10
127.883256
 20
286.7864619999998
 30
0.0
 11
110.761324
 21
286.7864619999998
 31
0.0
  0
LINE
  5
ABF2
330
AAD4
100
AcDbEntity
  8
1
  6
Continuous
100
AcDbLine
 10
128.8957469999998
 20
284.2864619999998
 30
0.0
 11
126.015027
 21
284.2864619999998
 31
0.0
  0
ARC
  5
ABF3
330
AAD4
100
AcDbEntity
  8
1
  6
Continuous
100
AcDbCircle
 10
156.167527
 20
296.7864619999998
 30
0.0
 40
30.0
100
AcDbArc
 50
154.381133
 51
205.6188689999999
  0
ARC
  5
ABF4
330
AAD4
100
AcDbEntity
  8
1
  6
Continuous
100
AcDbCircle
 10
152.572527
 20
296.7864619999998
 30
0.0
 40
19.0
100
AcDbArc
 50
127.799415
 51
232.200585
  0
LINE
  5
ABF5
330
AAD4
100
AcDbEntity
  8
1
  6
Continuous
100
AcDbLine
 10
137.415027
 20
312.2198179999998
 30
0.0
 11
128.915027
 21
312.2198179999998
 31
0.0
  0
ARC
  5
ABF6
330
AAD4
100
AcDbEntity
  8
1
  6
Continuous
100
AcDbCircle
 10
133.165027
 20
304.2865019999999
 30
0.0
 40
9.0
100
AcDbArc
 50
61.82135699999999
 51
118.178643
  0
ARC
  5
ABF7
330
AAD4
100
AcDbEntity
  8
1
  6
Continuous
100
AcDbCircle
 10
127.34396
 20
283.5035919999999
 30
0.0
 40
1.8
100
AcDbArc
 50
317.4539069999998
 51
9.961921999999999
  0
LINE
  5
ABF8
330
AAD4
100
AcDbEntity
  8
1
  6
Continuous
100
AcDbLine
 10
128.915027
 20
311.2864619999998
 30
0.0
 11
128.915027
 21
312.2198179999998
 31
0.0
  0
LINE
  5
ABF9
330
AAD4
100
AcDbEntity
  8
1
  6
Continuous
100
AcDbLine
 10
124.6650269999999
 20
285.2864619999999
 30
0.0
 11
124.6650269999999
 21
286.7864619999998
 31
0.0
  0
LINE
  5
ABFA
330
AAD4
100
AcDbEntity
  8
1
  6
Continuous
100
AcDbLine
 10
126.015027
 20
282.2864619999998
 30
0.0
 11
126.015027
 21
284.2864619999998
 31
0.0
  0
LINE
  5
ABFB
330
AAD4
100
AcDbEntity
  8
1
  6
Continuous
100
AcDbLine
 10
137.8128769999999
 20
311.2864619999998
 30
0.0
 11
126.015027
 21
311.2864619999998
 31
0.0
  0
LINE
  5
ABFC
330
AAD4
100
AcDbEntity
  8
1
  6
Continuous
100
AcDbLine
 10
124.6650269999999
 20
308.2864619999999
 30
0.0
 11
128.4592249999997
 21
308.2864619999999
 31
0.0
  0
LINE
  5
ABFD
330
AAD4
100
AcDbEntity
  8
1
  6
Continuous
100
AcDbLine
 10
127.883256
 20
306.7864619999999
 30
0.0
 11
110.761324
 21
306.7864619999999
 31
0.0
  0
LINE
  5
ABFE
330
AAD4
100
AcDbEntity
  8
1
  6
Continuous
100
AcDbLine
 10
128.8957469999998
 20
309.2864619999998
 30
0.0
 11
126.015027
 21
309.2864619999998
 31
0.0
  0
LINE
  5
ABFF
330
AAD4
100
AcDbEntity
  8
1
  6
Continuous
100
AcDbLine
 10
137.165027
 20
281.9421730000001
 30
0.0
 11
129.165027
 21
281.9421730000001
 31
0.0
  0
ARC
  5
AC00
330
AAD4
100
AcDbEntity
  8
1
  6
Continuous
100
AcDbCircle
 10
133.165027
 20
288.2864619999999
 30
0.0
 40
7.5
100
AcDbArc
 50
237.769047
 51
302.230953
  0
LINE
  5
AC01
330
AAD4
100
AcDbEntity
  8
1
  6
Continuous
100
AcDbLine
 10
129.165027
 20
281.9421730000001
 30
0.0
 11
129.165027
 21
282.2864619999998
 31
0.0
  0
ARC
  5
AC02
330
AAD4
100
AcDbEntity
  8
1
  6
Continuous
100
AcDbCircle
 10
127.34396
 20
310.0693319999999
 30
0.0
 40
1.8
100
AcDbArc
 50
350.0380779999999
 51
42.546093
  0
LINE
  5
AC03
330
AAD4
100
AcDbEntity
  8
1
  6
Continuous
100
AcDbLine
 10
124.6650269999999
 20
308.2864619999999
 30
0.0
 11
124.6650269999999
 21
306.7864619999999
 31
0.0
  0
LINE
  5
AC04
330
AAD4
100
AcDbEntity
  8
1
  6
Continuous
100
AcDbLine
 10
126.015027
 20
309.2864619999998
 30
0.0
 11
126.015027
 21
311.2864619999998
 31
0.0
  0
ARC
  5
AC05
330
AAD4
100
AcDbEntity
  8
1
  6
Continuous
100
AcDbCircle
 10
143.165027
 20
296.7864619999998
 30
0.0
 40
35.0
100
AcDbArc
 50
165.301576
 51
194.698424
  0
LINE
  5
AC06
330
AAD4
100
AcDbEntity
  8
1
  6
Continuous
100
AcDbLine
 10
257.059234
 20
195.782458
 30
0.0
 11
231.6673699999999
 21
195.782458
 31
0.0
  0
LINE
  5
AC07
330
AAD4
100
AcDbEntity
  8
1
  6
Continuous
100
AcDbLine
 10
231.6673699999999
 20
198.682458
 30
0.0
 11
257.059234
 21
198.682458
 31
0.0
  0
LINE
  5
AC08
330
AAD4
100
AcDbEntity
  8
1
  6
Continuous
100
AcDbLine
 10
260.6132029999999
 20
191.8011929999999
 30
0.0
 11
228.1132029999999
 21
191.801273
 31
0.0
  0
LINE
  5
AC09
330
AAD4
100
AcDbEntity
  8
1
  6
Continuous
100
AcDbLine
 10
228.8537349999999
 20
193.7226369999999
 30
0.0
 11
259.8728689999999
 21
193.7226369999999
 31
0.0
  0
LINE
  5
AC0A
330
AAD4
100
AcDbEntity
  8
1
  6
Continuous
100
AcDbLine
 10
260.3634829999999
 20
193.1469489999998
 30
0.0
 11
228.363122
 21
193.1469489999998
 31
0.0
  0
LINE
  5
AC0B
330
AAD4
100
AcDbEntity
  8
1
  6
Continuous
100
AcDbLine
 10
255.397476
 20
191.8012329999999
 30
0.0
 11
257.3974729999998
 21
190.3702369999998
 31
0.0
  0
LINE
  5
AC0C
330
AAD4
100
AcDbEntity
  8
1
  6
Continuous
100
AcDbLine
 10
257.3974729999998
 20
191.8012329999999
 30
0.0
 11
255.397476
 21
190.3702369999998
 31
0.0
  0
LINE
  5
AC0D
330
AAD4
100
AcDbEntity
  8
1
  6
Continuous
100
AcDbLine
 10
236.3633019999999
 20
202.482576
 30
0.0
 11
236.3633019999999
 21
200.182576
 31
0.0
  0
LINE
  5
AC0E
330
AAD4
100
AcDbEntity
  8
1
  6
Continuous
100
AcDbLine
 10
252.363302
 20
202.482576
 30
0.0
 11
252.363302
 21
200.182576
 31
0.0
  0
LINE
  5
AC0F
330
AAD4
100
AcDbEntity
  8
1
  6
Continuous
100
AcDbLine
 10
244.3632029999999
 20
191.8012329999999
 30
0.0
 11
228.1132029999999
 21
191.801273
 31
0.0
  0
LINE
  5
AC10
330
AAD4
100
AcDbEntity
  8
1
  6
Continuous
100
AcDbLine
 10
238.426914
 20
191.8012329999999
 30
0.0
 11
240.42691
 21
190.3702369999998
 31
0.0
  0
LINE
  5
AC11
330
AAD4
100
AcDbEntity
  8
1
  6
Continuous
100
AcDbLine
 10
241.8411240000001
 20
191.8012329999999
 30
0.0
 11
239.8411269999999
 21
190.3702369999998
 31
0.0
  0
LINE
  5
AC12
330
AAD4
100
AcDbEntity
  8
1
  6
Continuous
100
AcDbLine
 10
240.42691
 20
191.8012329999999
 30
0.0
 11
238.426914
 21
190.3702369999998
 31
0.0
  0
LINE
  5
AC13
330
AAD4
100
AcDbEntity
  8
1
  6
Continuous
100
AcDbLine
 10
231.6673699999999
 20
195.782458
 30
0.0
 11
231.6673699999999
 21
198.682458
 31
0.0
  0
LINE
  5
AC14
330
AAD4
100
AcDbEntity
  8
1
  6
Continuous
100
AcDbLine
 10
229.9416319999999
 20
191.8012329999999
 30
0.0
 11
231.9416289999999
 21
190.3702369999998
 31
0.0
  0
LINE
  5
AC15
330
AAD4
100
AcDbEntity
  8
1
  6
Continuous
100
AcDbLine
 10
229.113202
 20
190.3702369999998
 30
0.0
 11
228.1132029999999
 21
191.370235
 31
0.0
  0
LINE
  5
AC16
330
AAD4
100
AcDbEntity
  8
1
  6
Continuous
100
AcDbLine
 10
231.9416289999999
 20
191.8012329999999
 30
0.0
 11
229.9416319999999
 21
190.3702369999998
 31
0.0
  0
LINE
  5
AC17
330
AAD4
100
AcDbEntity
  8
1
  6
Continuous
100
AcDbLine
 10
230.5274149999999
 20
191.8012329999999
 30
0.0
 11
228.5274189999999
 21
190.3702369999998
 31
0.0
  0
LINE
  5
AC18
330
AAD4
100
AcDbEntity
  8
1
  6
Continuous
100
AcDbLine
 10
228.1132029999999
 20
191.8012329999999
 30
0.0
 11
228.1132029999999
 21
190.3702369999998
 31
0.0
  0
LINE
  5
AC19
330
AAD4
100
AcDbEntity
  8
1
  6
Continuous
100
AcDbLine
 10
228.1132029999999
 20
191.8012329999999
 30
0.0
 11
228.1132029999999
 21
190.3702369999998
 31
0.0
  0
ARC
  5
AC1A
330
AAD4
100
AcDbEntity
  8
1
  6
Continuous
100
AcDbCircle
 10
232.164266
 20
193.2824579999999
 30
0.0
 40
2.5
100
AcDbArc
 50
90.0
 51
169.858981
  0
LINE
  5
AC1B
330
AAD4
100
AcDbEntity
  8
1
  6
Continuous
100
AcDbLine
 10
229.113202
 20
191.8012329999999
 30
0.0
 11
228.1132029999999
 21
191.370235
 31
0.0
  0
ARC
  5
AC1C
330
AAD4
100
AcDbEntity
  8
1
  6
Continuous
100
AcDbCircle
 10
229.393633
 20
192.765625
 30
0.0
 40
1.098799999999998
100
AcDbArc
 50
119.429525
 51
159.693839
  0
ARC
  5
AC1D
330
AAD4
100
AcDbEntity
  8
1
  6
Continuous
100
AcDbCircle
 10
230.711497
 20
193.4778359999999
 30
0.0
 40
2.371570999999998
100
AcDbArc
 50
188.020211
 51
224.9867219999999
  0
LINE
  5
AC1E
330
AAD4
100
AcDbEntity
  8
1
  6
Continuous
100
AcDbLine
 10
235.5984859999999
 20
191.8012329999999
 30
0.0
 11
237.5984829999999
 21
190.3702369999998
 31
0.0
  0
LINE
  5
AC1F
330
AAD4
100
AcDbEntity
  8
1
  6
Continuous
100
AcDbLine
 10
232.7700589999998
 20
191.8012329999999
 30
0.0
 11
234.770056
 21
190.3702369999998
 31
0.0
  0
LINE
  5
AC20
330
AAD4
100
AcDbEntity
  8
1
  6
Continuous
100
AcDbLine
 10
239.0126959999999
 20
191.8012329999999
 30
0.0
 11
237.0127
 21
190.3702369999998
 31
0.0
  0
LINE
  5
AC21
330
AAD4
100
AcDbEntity
  8
1
  6
Continuous
100
AcDbLine
 10
237.5984829999999
 20
191.8012329999999
 30
0.0
 11
235.5984859999999
 21
190.3702369999998
 31
0.0
  0
LINE
  5
AC22
330
AAD4
100
AcDbEntity
  8
1
  6
Continuous
100
AcDbLine
 10
236.184269
 20
191.8012329999999
 30
0.0
 11
234.1842729999999
 21
190.3702369999998
 31
0.0
  0
LINE
  5
AC23
330
AAD4
100
AcDbEntity
  8
1
  6
Continuous
100
AcDbLine
 10
234.770056
 20
191.8012329999999
 30
0.0
 11
232.7700589999998
 21
190.3702369999998
 31
0.0
  0
LINE
  5
AC24
330
AAD4
100
AcDbEntity
  8
1
  6
Continuous
100
AcDbLine
 10
233.355842
 20
191.8012329999999
 30
0.0
 11
231.3558459999999
 21
190.3702369999998
 31
0.0
  0
ARC
  5
AC25
330
AAD4
100
AcDbEntity
  8
1
  6
Continuous
100
AcDbCircle
 10
237.863302
 20
200.182576
 30
0.0
 40
1.5
100
AcDbArc
 50
180.0
 51
270.0
  0
LINE
  5
AC26
330
AAD4
100
AcDbEntity
  8
1
  6
Continuous
100
AcDbLine
 10
244.363302
 20
195.782458
 30
0.0
 11
244.363302
 21
198.682458
 31
0.0
  0
LINE
  5
AC27
330
AAD4
100
AcDbEntity
  8
1
  6
Continuous
100
AcDbLine
 10
241.255341
 20
191.8012329999999
 30
0.0
 11
243.2553369999999
 21
190.3702369999998
 31
0.0
  0
LINE
  5
AC28
330
AAD4
100
AcDbEntity
  8
1
  6
Continuous
100
AcDbLine
 10
244.669551
 20
191.8012329999999
 30
0.0
 11
242.669554
 21
190.3702369999998
 31
0.0
  0
LINE
  5
AC29
330
AAD4
100
AcDbEntity
  8
1
  6
Continuous
100
AcDbLine
 10
243.2553369999999
 20
191.8012329999999
 30
0.0
 11
241.255341
 21
190.3702369999998
 31
0.0
  0
LINE
  5
AC2A
330
AAD4
100
AcDbEntity
  8
1
  6
Continuous
100
AcDbLine
 10
252.5690490000001
 20
191.8012329999999
 30
0.0
 11
254.5690459999999
 21
190.3702369999998
 31
0.0
  0
LINE
  5
AC2B
330
AAD4
100
AcDbEntity
  8
1
  6
Continuous
100
AcDbLine
 10
249.740622
 20
191.8012329999999
 30
0.0
 11
251.7406189999999
 21
190.3702369999998
 31
0.0
  0
LINE
  5
AC2C
330
AAD4
100
AcDbEntity
  8
1
  6
Continuous
100
AcDbLine
 10
246.912195
 20
191.8012329999999
 30
0.0
 11
248.912191
 21
190.3702369999998
 31
0.0
  0
LINE
  5
AC2D
330
AAD4
100
AcDbEntity
  8
1
  6
Continuous
100
AcDbLine
 10
244.083768
 20
191.8012329999999
 30
0.0
 11
246.083764
 21
190.3702369999998
 31
0.0
  0
LINE
  5
AC2E
330
AAD4
100
AcDbEntity
  8
1
  6
Continuous
100
AcDbLine
 10
255.9832589999998
 20
191.8012329999999
 30
0.0
 11
253.9832629999999
 21
190.3702369999998
 31
0.0
  0
LINE
  5
AC2F
330
AAD4
100
AcDbEntity
  8
1
  6
Continuous
100
AcDbLine
 10
254.5690459999999
 20
191.8012329999999
 30
0.0
 11
252.5690490000001
 21
190.3702369999998
 31
0.0
  0
LINE
  5
AC30
330
AAD4
100
AcDbEntity
  8
1
  6
Continuous
100
AcDbLine
 10
253.1548319999999
 20
191.8012329999999
 30
0.0
 11
251.1548359999999
 21
190.3702369999998
 31
0.0
  0
LINE
  5
AC31
330
AAD4
100
AcDbEntity
  8
1
  6
Continuous
100
AcDbLine
 10
251.7406189999999
 20
191.8012329999999
 30
0.0
 11
249.740622
 21
190.3702369999998
 31
0.0
  0
LINE
  5
AC32
330
AAD4
100
AcDbEntity
  8
1
  6
Continuous
100
AcDbLine
 10
250.3264049999999
 20
191.8012329999999
 30
0.0
 11
248.326409
 21
190.3702369999998
 31
0.0
  0
LINE
  5
AC33
330
AAD4
100
AcDbEntity
  8
1
  6
Continuous
100
AcDbLine
 10
248.912191
 20
191.8012329999999
 30
0.0
 11
246.912195
 21
190.3702369999998
 31
0.0
  0
LINE
  5
AC34
330
AAD4
100
AcDbEntity
  8
1
  6
Continuous
100
AcDbLine
 10
247.4979779999999
 20
191.8012329999999
 30
0.0
 11
245.497981
 21
190.3702369999998
 31
0.0
  0
LINE
  5
AC35
330
AAD4
100
AcDbEntity
  8
1
  6
Continuous
100
AcDbLine
 10
246.083764
 20
191.8012329999999
 30
0.0
 11
244.083768
 21
190.3702369999998
 31
0.0
  0
ARC
  5
AC36
330
AAD4
100
AcDbEntity
  8
1
  6
Continuous
100
AcDbCircle
 10
250.8633019999999
 20
200.182576
 30
0.0
 40
1.5
100
AcDbArc
 50
270.0
 51
0.0
  0
ARC
  5
AC37
330
AAD4
100
AcDbEntity
  8
1
  6
Continuous
100
AcDbCircle
 10
350.4594729999998
 20
214.6703309999999
 30
0.0
 40
114.0961689999999
100
AcDbArc
 50
172.388703
 51
186.132036
  0
ARC
  5
AC38
330
AAD4
100
AcDbEntity
  8
1
  6
Continuous
100
AcDbCircle
 10
138.267131
 20
214.6703309999999
 30
0.0
 40
114.0961689999999
100
AcDbArc
 50
353.8679639999998
 51
7.611297
  0
LINE
  5
AC39
330
AAD4
100
AcDbEntity
  8
1
  6
Continuous
100
AcDbLine
 10
252.363302
 20
202.482576
 30
0.0
 11
236.3633019999999
 21
202.482576
 31
0.0
  0
LINE
  5
AC3A
330
AAD4
100
AcDbEntity
  8
1
  6
Continuous
100
AcDbLine
 10
237.363302
 20
229.7825759999998
 30
0.0
 11
251.3633019999998
 21
229.7825759999998
 31
0.0
  0
LINE
  5
AC3B
330
AAD4
100
AcDbEntity
  8
1
  6
Continuous
100
AcDbLine
 10
237.363302
 20
232.6825759999999
 30
0.0
 11
251.3633019999998
 21
232.6825759999999
 31
0.0
  0
LINE
  5
AC3C
330
AAD4
100
AcDbEntity
  8
1
  6
Continuous
100
AcDbLine
 10
237.363302
 20
229.7825759999998
 30
0.0
 11
237.363302
 21
232.6825759999999
 31
0.0
  0
LINE
  5
AC3D
330
AAD4
100
AcDbEntity
  8
1
  6
Continuous
100
AcDbLine
 10
251.3633019999998
 20
229.7825759999998
 30
0.0
 11
251.3633019999998
 21
232.6825759999999
 31
0.0
  0
LINE
  5
AC3E
330
AAD4
100
AcDbEntity
  8
1
  6
Continuous
100
AcDbLine
 10
257.059234
 20
198.682458
 30
0.0
 11
257.059234
 21
195.782458
 31
0.0
  0
LINE
  5
AC3F
330
AAD4
100
AcDbEntity
  8
1
  6
Continuous
100
AcDbLine
 10
258.2259029999999
 20
191.8012329999999
 30
0.0
 11
260.2259
 21
190.3702369999998
 31
0.0
  0
LINE
  5
AC40
330
AAD4
100
AcDbEntity
  8
1
  6
Continuous
100
AcDbLine
 10
260.6132029999999
 20
191.343323
 30
0.0
 11
259.6401169999999
 21
190.3702369999998
 31
0.0
  0
LINE
  5
AC41
330
AAD4
100
AcDbEntity
  8
1
  6
Continuous
100
AcDbLine
 10
260.2259
 20
191.8012329999999
 30
0.0
 11
258.2259029999999
 21
190.3702369999998
 31
0.0
  0
LINE
  5
AC42
330
AAD4
100
AcDbEntity
  8
1
  6
Continuous
100
AcDbLine
 10
258.8116859999999
 20
191.8012329999999
 30
0.0
 11
256.81169
 21
190.3702369999998
 31
0.0
  0
LINE
  5
AC43
330
AAD4
100
AcDbEntity
  8
1
  6
Continuous
100
AcDbLine
 10
260.6132029999999
 20
191.8012329999999
 30
0.0
 11
260.6132029999999
 21
190.3702369999998
 31
0.0
  0
LINE
  5
AC44
330
AAD4
100
AcDbEntity
  8
1
  6
Continuous
100
AcDbLine
 10
260.6132029999999
 20
191.8012329999999
 30
0.0
 11
260.6132029999999
 21
190.3702369999998
 31
0.0
  0
ARC
  5
AC45
330
AAD4
100
AcDbEntity
  8
1
  6
Continuous
100
AcDbCircle
 10
256.562379
 20
193.2824579999999
 30
0.0
 40
2.5
100
AcDbArc
 50
10.141019
 51
90.0
  0
ARC
  5
AC46
330
AAD4
100
AcDbEntity
  8
1
  6
Continuous
100
AcDbCircle
 10
259.3329709999998
 20
192.765625
 30
0.0
 40
1.098799999999998
100
AcDbArc
 50
20.306161
 51
60.57047500000001
  0
ARC
  5
AC47
330
AAD4
100
AcDbEntity
  8
1
  6
Continuous
100
AcDbCircle
 10
258.0151079999998
 20
193.4778359999999
 30
0.0
 40
2.371570999999998
100
AcDbArc
 50
315.0106999999998
 51
351.9797889999999
  0
ARC
  5
AC48
330
AAD4
100
AcDbEntity
  8
1
  6
Continuous
100
AcDbCircle
 10
-58.23002299999998
 20
214.6703319999998
 30
0.0
 40
114.0961689999999
100
AcDbArc
 50
353.8679639999998
 51
7.611297
  0
ARC
  5
AC49
330
AAD4
100
AcDbEntity
  8
1
  6
Continuous
100
AcDbCircle
 10
153.962319
 20
214.6703319999998
 30
0.0
 40
114.0961689999999
100
AcDbArc
 50
172.388703
 51
186.132036
  0
LINE
  5
AC4A
330
AAD4
100
AcDbEntity
  8
1
  6
Continuous
100
AcDbLine
 10
39.68711499999999
 20
191.8012339999999
 30
0.0
 11
37.687119
 21
190.370238
 31
0.0
  0
LINE
  5
AC4B
330
AAD4
100
AcDbEntity
  8
1
  6
Continuous
100
AcDbLine
 10
60.56208
 20
195.7824589999999
 30
0.0
 11
35.17021599999999
 21
195.7824589999999
 31
0.0
  0
LINE
  5
AC4C
330
AAD4
100
AcDbEntity
  8
1
  6
Continuous
100
AcDbLine
 10
35.17021599999999
 20
198.6824589999999
 30
0.0
 11
60.56208
 21
198.6824589999999
 31
0.0
  0
LINE
  5
AC4D
330
AAD4
100
AcDbEntity
  8
1
  6
Continuous
100
AcDbLine
 10
64.116049
 20
191.8011939999999
 30
0.0
 11
31.616049
 21
191.8012739999998
 31
0.0
  0
LINE
  5
AC4E
330
AAD4
100
AcDbEntity
  8
1
  6
Continuous
100
AcDbLine
 10
32.356581
 20
193.722638
 30
0.0
 11
63.375715
 21
193.722638
 31
0.0
  0
LINE
  5
AC4F
330
AAD4
100
AcDbEntity
  8
1
  6
Continuous
100
AcDbLine
 10
63.866329
 20
193.14695
 30
0.0
 11
31.865968
 21
193.14695
 31
0.0
  0
LINE
  5
AC50
330
AAD4
100
AcDbEntity
  8
1
  6
Continuous
100
AcDbLine
 10
47.86604899999999
 20
191.8012339999999
 30
0.0
 11
31.616049
 21
191.8012739999998
 31
0.0
  0
LINE
  5
AC51
330
AAD4
100
AcDbEntity
  8
1
  6
Continuous
100
AcDbLine
 10
33.44447799999999
 20
191.8012339999999
 30
0.0
 11
35.44447499999999
 21
190.370238
 31
0.0
  0
LINE
  5
AC52
330
AAD4
100
AcDbEntity
  8
1
  6
Continuous
100
AcDbLine
 10
32.616048
 20
190.370238
 30
0.0
 11
31.616049
 21
191.370236
 31
0.0
  0
LINE
  5
AC53
330
AAD4
100
AcDbEntity
  8
1
  6
Continuous
100
AcDbLine
 10
35.44447499999999
 20
191.8012339999999
 30
0.0
 11
33.44447799999999
 21
190.370238
 31
0.0
  0
LINE
  5
AC54
330
AAD4
100
AcDbEntity
  8
1
  6
Continuous
100
AcDbLine
 10
34.03026099999999
 20
191.8012339999999
 30
0.0
 11
32.03026499999999
 21
190.370238
 31
0.0
  0
LINE
  5
AC55
330
AAD4
100
AcDbEntity
  8
1
  6
Continuous
100
AcDbLine
 10
31.616049
 20
191.8012339999999
 30
0.0
 11
31.616049
 21
190.370238
 31
0.0
  0
LINE
  5
AC56
330
AAD4
100
AcDbEntity
  8
1
  6
Continuous
100
AcDbLine
 10
31.616049
 20
191.8012339999999
 30
0.0
 11
31.616049
 21
190.370238
 31
0.0
  0
ARC
  5
AC57
330
AAD4
100
AcDbEntity
  8
1
  6
Continuous
100
AcDbCircle
 10
35.66711200000001
 20
193.2824589999999
 30
0.0
 40
2.5
100
AcDbArc
 50
90.0
 51
169.858981
  0
LINE
  5
AC58
330
AAD4
100
AcDbEntity
  8
1
  6
Continuous
100
AcDbLine
 10
32.616048
 20
191.8012339999999
 30
0.0
 11
31.616049
 21
191.370236
 31
0.0
  0
ARC
  5
AC59
330
AAD4
100
AcDbEntity
  8
1
  6
Continuous
100
AcDbCircle
 10
32.896479
 20
192.765626
 30
0.0
 40
1.098799999999998
100
AcDbArc
 50
119.429525
 51
159.693839
  0
LINE
  5
AC5A
330
AAD4
100
AcDbEntity
  8
1
  6
Continuous
100
AcDbLine
 10
36.272905
 20
191.8012339999999
 30
0.0
 11
38.272902
 21
190.370238
 31
0.0
  0
LINE
  5
AC5B
330
AAD4
100
AcDbEntity
  8
1
  6
Continuous
100
AcDbLine
 10
38.272902
 20
191.8012339999999
 30
0.0
 11
36.272905
 21
190.370238
 31
0.0
  0
LINE
  5
AC5C
330
AAD4
100
AcDbEntity
  8
1
  6
Continuous
100
AcDbLine
 10
36.858688
 20
191.8012339999999
 30
0.0
 11
34.85869199999999
 21
190.370238
 31
0.0
  0
ARC
  5
AC5D
330
AAD4
100
AcDbEntity
  8
1
  6
Continuous
100
AcDbCircle
 10
34.214343
 20
193.477837
 30
0.0
 40
2.371570999999998
100
AcDbArc
 50
188.020211
 51
224.9867219999999
  0
LINE
  5
AC5E
330
AAD4
100
AcDbEntity
  8
1
  6
Continuous
100
AcDbLine
 10
35.17021599999999
 20
195.7824589999999
 30
0.0
 11
35.17021599999999
 21
198.6824589999999
 31
0.0
  0
ARC
  5
AC5F
330
AAD4
100
AcDbEntity
  8
1
  6
Continuous
100
AcDbCircle
 10
54.366148
 20
200.1825769999999
 30
0.0
 40
1.5
100
AcDbArc
 50
270.0
 51
0.0
  0
LINE
  5
AC60
330
AAD4
100
AcDbEntity
  8
1
  6
Continuous
100
AcDbLine
 10
55.86614799999999
 20
202.482577
 30
0.0
 11
39.86614799999999
 21
202.482577
 31
0.0
  0
LINE
  5
AC61
330
AAD4
100
AcDbEntity
  8
1
  6
Continuous
100
AcDbLine
 10
53.243468
 20
191.8012339999999
 30
0.0
 11
55.243465
 21
190.370238
 31
0.0
  0
LINE
  5
AC62
330
AAD4
100
AcDbEntity
  8
1
  6
Continuous
100
AcDbLine
 10
55.243465
 20
191.8012339999999
 30
0.0
 11
53.243468
 21
190.370238
 31
0.0
  0
LINE
  5
AC63
330
AAD4
100
AcDbEntity
  8
1
  6
Continuous
100
AcDbLine
 10
56.65767800000001
 20
191.8012339999999
 30
0.0
 11
54.65768199999999
 21
190.370238
 31
0.0
  0
LINE
  5
AC64
330
AAD4
100
AcDbEntity
  8
1
  6
Continuous
100
AcDbLine
 10
39.86614799999999
 20
202.482577
 30
0.0
 11
39.86614799999999
 21
200.1825769999999
 31
0.0
  0
LINE
  5
AC65
330
AAD4
100
AcDbEntity
  8
1
  6
Continuous
100
AcDbLine
 10
41.92975999999997
 20
191.8012339999999
 30
0.0
 11
43.92975599999998
 21
190.370238
 31
0.0
  0
LINE
  5
AC66
330
AAD4
100
AcDbEntity
  8
1
  6
Continuous
100
AcDbLine
 10
45.34397
 20
191.8012339999999
 30
0.0
 11
43.343973
 21
190.370238
 31
0.0
  0
LINE
  5
AC67
330
AAD4
100
AcDbEntity
  8
1
  6
Continuous
100
AcDbLine
 10
43.92975599999998
 20
191.8012339999999
 30
0.0
 11
41.92975999999997
 21
190.370238
 31
0.0
  0
LINE
  5
AC68
330
AAD4
100
AcDbEntity
  8
1
  6
Continuous
100
AcDbLine
 10
42.515542
 20
191.8012339999999
 30
0.0
 11
40.515546
 21
190.370238
 31
0.0
  0
LINE
  5
AC69
330
AAD4
100
AcDbEntity
  8
1
  6
Continuous
100
AcDbLine
 10
44.758187
 20
191.8012339999999
 30
0.0
 11
46.758183
 21
190.370238
 31
0.0
  0
LINE
  5
AC6A
330
AAD4
100
AcDbEntity
  8
1
  6
Continuous
100
AcDbLine
 10
48.172397
 20
191.8012339999999
 30
0.0
 11
46.1724
 21
190.370238
 31
0.0
  0
LINE
  5
AC6B
330
AAD4
100
AcDbEntity
  8
1
  6
Continuous
100
AcDbLine
 10
46.758183
 20
191.8012339999999
 30
0.0
 11
44.758187
 21
190.370238
 31
0.0
  0
LINE
  5
AC6C
330
AAD4
100
AcDbEntity
  8
1
  6
Continuous
100
AcDbLine
 10
50.415041
 20
191.8012339999999
 30
0.0
 11
52.41503699999999
 21
190.370238
 31
0.0
  0
LINE
  5
AC6D
330
AAD4
100
AcDbEntity
  8
1
  6
Continuous
100
AcDbLine
 10
47.586614
 20
191.8012339999999
 30
0.0
 11
49.58661
 21
190.370238
 31
0.0
  0
LINE
  5
AC6E
330
AAD4
100
AcDbEntity
  8
1
  6
Continuous
100
AcDbLine
 10
53.829251
 20
191.8012339999999
 30
0.0
 11
51.82925499999999
 21
190.370238
 31
0.0
  0
LINE
  5
AC6F
330
AAD4
100
AcDbEntity
  8
1
  6
Continuous
100
AcDbLine
 10
52.41503699999999
 20
191.8012339999999
 30
0.0
 11
50.415041
 21
190.370238
 31
0.0
  0
LINE
  5
AC70
330
AAD4
100
AcDbEntity
  8
1
  6
Continuous
100
AcDbLine
 10
51.000824
 20
191.8012339999999
 30
0.0
 11
49.000827
 21
190.370238
 31
0.0
  0
LINE
  5
AC71
330
AAD4
100
AcDbEntity
  8
1
  6
Continuous
100
AcDbLine
 10
49.58661
 20
191.8012339999999
 30
0.0
 11
47.586614
 21
190.370238
 31
0.0
  0
LINE
  5
AC72
330
AAD4
100
AcDbEntity
  8
1
  6
Continuous
100
AcDbLine
 10
47.86614799999997
 20
195.7824589999999
 30
0.0
 11
47.86614799999997
 21
198.6824589999999
 31
0.0
  0
LINE
  5
AC73
330
AAD4
100
AcDbEntity
  8
1
  6
Continuous
100
AcDbLine
 10
39.101332
 20
191.8012339999999
 30
0.0
 11
41.10132899999999
 21
190.370238
 31
0.0
  0
LINE
  5
AC74
330
AAD4
100
AcDbEntity
  8
1
  6
Continuous
100
AcDbLine
 10
41.10132899999999
 20
191.8012339999999
 30
0.0
 11
39.101332
 21
190.370238
 31
0.0
  0
ARC
  5
AC75
330
AAD4
100
AcDbEntity
  8
1
  6
Continuous
100
AcDbCircle
 10
41.36614799999999
 20
200.1825769999999
 30
0.0
 40
1.5
100
AcDbArc
 50
180.0
 51
270.0
  0
LINE
  5
AC76
330
AAD4
100
AcDbEntity
  8
1
  6
Continuous
100
AcDbLine
 10
55.86614799999999
 20
202.482577
 30
0.0
 11
55.86614799999999
 21
200.1825769999999
 31
0.0
  0
LINE
  5
AC77
330
AAD4
100
AcDbEntity
  8
1
  6
Continuous
100
AcDbLine
 10
58.900322
 20
191.8012339999999
 30
0.0
 11
60.90031899999999
 21
190.370238
 31
0.0
  0
LINE
  5
AC78
330
AAD4
100
AcDbEntity
  8
1
  6
Continuous
100
AcDbLine
 10
60.90031899999999
 20
191.8012339999999
 30
0.0
 11
58.900322
 21
190.370238
 31
0.0
  0
LINE
  5
AC79
330
AAD4
100
AcDbEntity
  8
1
  6
Continuous
100
AcDbLine
 10
56.071895
 20
191.8012339999999
 30
0.0
 11
58.07189199999999
 21
190.370238
 31
0.0
  0
LINE
  5
AC7A
330
AAD4
100
AcDbEntity
  8
1
  6
Continuous
100
AcDbLine
 10
59.486105
 20
191.8012339999999
 30
0.0
 11
57.486109
 21
190.370238
 31
0.0
  0
LINE
  5
AC7B
330
AAD4
100
AcDbEntity
  8
1
  6
Continuous
100
AcDbLine
 10
58.07189199999999
 20
191.8012339999999
 30
0.0
 11
56.071895
 21
190.370238
 31
0.0
  0
LINE
  5
AC7C
330
AAD4
100
AcDbEntity
  8
1
  6
Continuous
100
AcDbLine
 10
61.728749
 20
191.8012339999999
 30
0.0
 11
63.72874599999999
 21
190.370238
 31
0.0
  0
LINE
  5
AC7D
330
AAD4
100
AcDbEntity
  8
1
  6
Continuous
100
AcDbLine
 10
64.116049
 20
191.3433239999999
 30
0.0
 11
63.142963
 21
190.370238
 31
0.0
  0
LINE
  5
AC7E
330
AAD4
100
AcDbEntity
  8
1
  6
Continuous
100
AcDbLine
 10
63.72874599999999
 20
191.8012339999999
 30
0.0
 11
61.728749
 21
190.370238
 31
0.0
  0
LINE
  5
AC7F
330
AAD4
100
AcDbEntity
  8
1
  6
Continuous
100
AcDbLine
 10
62.31453199999999
 20
191.8012339999999
 30
0.0
 11
60.31453599999998
 21
190.370238
 31
0.0
  0
LINE
  5
AC80
330
AAD4
100
AcDbEntity
  8
1
  6
Continuous
100
AcDbLine
 10
64.116049
 20
191.8012339999999
 30
0.0
 11
64.116049
 21
190.370238
 31
0.0
  0
LINE
  5
AC81
330
AAD4
100
AcDbEntity
  8
1
  6
Continuous
100
AcDbLine
 10
64.116049
 20
191.8012339999999
 30
0.0
 11
64.116049
 21
190.370238
 31
0.0
  0
ARC
  5
AC82
330
AAD4
100
AcDbEntity
  8
1
  6
Continuous
100
AcDbCircle
 10
60.06522499999999
 20
193.2824589999999
 30
0.0
 40
2.5
100
AcDbArc
 50
10.141019
 51
90.0
  0
ARC
  5
AC83
330
AAD4
100
AcDbEntity
  8
1
  6
Continuous
100
AcDbCircle
 10
62.835817
 20
192.765626
 30
0.0
 40
1.098799999999998
100
AcDbArc
 50
20.306161
 51
60.57047500000001
  0
ARC
  5
AC84
330
AAD4
100
AcDbEntity
  8
1
  6
Continuous
100
AcDbCircle
 10
61.51795400000001
 20
193.477837
 30
0.0
 40
2.371570999999998
100
AcDbArc
 50
315.0106999999998
 51
351.9797889999999
  0
LINE
  5
AC85
330
AAD4
100
AcDbEntity
  8
1
  6
Continuous
100
AcDbLine
 10
60.56208
 20
198.6824589999999
 30
0.0
 11
60.56208
 21
195.7824589999999
 31
0.0
  0
LINE
  5
AC86
330
AAD4
100
AcDbEntity
  8
1
  6
Continuous
100
AcDbLine
 10
40.86614799999997
 20
229.782577
 30
0.0
 11
54.86614799999999
 21
229.782577
 31
0.0
  0
LINE
  5
AC87
330
AAD4
100
AcDbEntity
  8
1
  6
Continuous
100
AcDbLine
 10
40.86614799999997
 20
232.682577
 30
0.0
 11
54.86614799999999
 21
232.682577
 31
0.0
  0
LINE
  5
AC88
330
AAD4
100
AcDbEntity
  8
1
  6
Continuous
100
AcDbLine
 10
40.86614799999997
 20
229.782577
 30
0.0
 11
40.86614799999997
 21
232.682577
 31
0.0
  0
LINE
  5
AC89
330
AAD4
100
AcDbEntity
  8
1
  6
Continuous
100
AcDbLine
 10
50.36601
 20
234.682577
 30
0.0
 11
45.36604899999999
 21
234.682577
 31
0.0
  0
LINE
  5
AC8A
330
AAD4
100
AcDbEntity
  8
1
  6
Continuous
100
AcDbLine
 10
54.86614799999999
 20
229.782577
 30
0.0
 11
54.86614799999999
 21
232.682577
 31
0.0
  0
LINE
  5
AC8B
330
AAD4
100
AcDbEntity
  8
1
  6
Continuous
100
AcDbLine
 10
47.86604899999999
 20
198.6824589999999
 30
0.0
 11
47.86614799999997
 21
195.7824589999999
 31
0.0
  0
LINE
  5
AC8C
330
AAD4
100
AcDbEntity
  8
1
  6
Continuous
100
AcDbLine
 10
137.5046259999998
 20
195.7823409999998
 30
0.0
 11
137.5046259999998
 21
198.6824589999999
 31
0.0
  0
LINE
  5
AC8D
330
AAD4
100
AcDbEntity
  8
1
  6
Continuous
100
AcDbLine
 10
144.8346259999999
 20
198.6824589999999
 30
0.0
 11
144.8346259999999
 21
195.782415
 31
0.0
  0
LINE
  5
AC8E
330
AAD4
100
AcDbEntity
  8
1
  6
Continuous
100
AcDbLine
 10
159.494626
 20
198.6824589999999
 30
0.0
 11
159.494626
 21
195.782415
 31
0.0
  0
LINE
  5
AC8F
330
AAD4
100
AcDbEntity
  8
1
  6
Continuous
100
AcDbLine
 10
166.824626
 20
195.7823409999998
 30
0.0
 11
166.824626
 21
198.6824589999999
 31
0.0
  0
LINE
  5
AC90
330
AAD4
100
AcDbEntity
  8
1
  6
Continuous
100
AcDbLine
 10
155.829126
 20
229.782577
 30
0.0
 11
155.829126
 21
232.682577
 31
0.0
  0
LINE
  5
AC91
330
AAD4
100
AcDbEntity
  8
1
  6
Continuous
100
AcDbLine
 10
160.0646259999998
 20
229.782577
 30
0.0
 11
160.0646259999998
 21
232.682577
 31
0.0
  0
LINE
  5
AC92
330
AAD4
100
AcDbEntity
  8
1
  6
Continuous
100
AcDbLine
 10
144.2646259999999
 20
229.782577
 30
0.0
 11
144.2646259999999
 21
232.682577
 31
0.0
  0
LINE
  5
AC93
330
AAD4
100
AcDbEntity
  8
1
  6
Continuous
100
AcDbLine
 10
148.5001259999999
 20
229.782577
 30
0.0
 11
148.5001259999999
 21
232.682577
 31
0.0
  0
LINE
  5
AC94
330
AAD4
100
AcDbEntity
  8
1
  6
Continuous
100
AcDbLine
 10
334.0617799999999
 20
234.682673
 30
0.0
 11
339.0617409999999
 21
234.682673
 31
0.0
  0
LINE
  5
AC95
330
AAD4
100
AcDbEntity
  8
1
  6
Continuous
100
AcDbLine
 10
244.3632029999999
 20
198.682458
 30
0.0
 11
244.3632029999999
 21
195.782458
 31
0.0
  0
LINE
  5
AC96
330
AAD4
100
AcDbEntity
  8
1
  6
Continuous
100
AcDbLine
 10
168.4145069999999
 20
191.3433239999999
 30
0.0
 11
167.4414209999999
 21
190.370238
 31
0.0
  0
ARC
  5
AC97
330
AAD4
100
AcDbEntity
  8
1
  6
Continuous
100
AcDbCircle
 10
165.816412
 20
193.477837
 30
0.0
 40
2.371570999999998
100
AcDbArc
 50
315.0106999999998
 51
351.9797889999999
  0
ARC
  5
AC98
330
AAD4
100
AcDbEntity
  8
1
  6
Continuous
100
AcDbCircle
 10
167.1342749999998
 20
192.765626
 30
0.0
 40
1.098799999999998
100
AcDbArc
 50
20.306161
 51
60.57047500000001
  0
LINE
  5
AC99
330
AAD4
100
AcDbEntity
  8
1
  6
Continuous
100
AcDbLine
 10
168.1647869999999
 20
193.14695
 30
0.0
 11
136.164426
 21
193.14695
 31
0.0
  0
LINE
  5
AC9A
330
AAD4
100
AcDbEntity
  8
1
  6
Continuous
100
AcDbLine
 10
168.4145069999999
 20
191.8011939999999
 30
0.0
 11
135.9145069999999
 21
191.8012739999998
 31
0.0
  0
LINE
  5
AC9B
330
AAD4
100
AcDbEntity
  8
1
  6
Continuous
100
AcDbLine
 10
136.9145059999999
 20
190.370238
 30
0.0
 11
135.9145069999999
 21
191.370236
 31
0.0
  0
ARC
  5
AC9C
330
AAD4
100
AcDbEntity
  8
1
  6
Continuous
100
AcDbCircle
 10
138.512801
 20
193.477837
 30
0.0
 40
2.371570999999998
100
AcDbArc
 50
188.020211
 51
224.9867219999999
  0
ARC
  5
AC9D
330
AAD4
100
AcDbEntity
  8
1
  6
Continuous
100
AcDbCircle
 10
137.194937
 20
192.765626
 30
0.0
 40
1.098799999999998
100
AcDbArc
 50
119.429525
 51
159.693839
  0
LINE
  5
AC9E
330
AAD4
100
AcDbEntity
  8
1
  6
Continuous
100
AcDbLine
 10
136.9145059999999
 20
191.8012339999999
 30
0.0
 11
135.9145069999999
 21
191.370236
 31
0.0
  0
LINE
  5
AC9F
330
AAD4
100
AcDbEntity
  8
1
  6
Continuous
100
AcDbLine
 10
152.1645069999999
 20
191.8012339999999
 30
0.0
 11
135.9145069999999
 21
191.8012739999998
 31
0.0
  0
LINE
  5
ACA0
330
AAD4
100
AcDbEntity
  8
1
  6
Continuous
100
AcDbLine
 10
135.9145069999999
 20
191.8012339999999
 30
0.0
 11
135.9145069999999
 21
190.370238
 31
0.0
  0
LINE
  5
ACA1
330
AAD4
100
AcDbEntity
  8
1
  6
Continuous
100
AcDbLine
 10
135.9145069999999
 20
191.8012339999999
 30
0.0
 11
135.9145069999999
 21
190.370238
 31
0.0
  0
LINE
  5
ACA2
330
AAD4
100
AcDbEntity
  8
1
  6
Continuous
100
AcDbLine
 10
153.8850679999999
 20
191.8012339999999
 30
0.0
 11
151.885072
 21
190.370238
 31
0.0
  0
LINE
  5
ACA3
330
AAD4
100
AcDbEntity
  8
1
  6
Continuous
100
AcDbLine
 10
151.885072
 20
191.8012339999999
 30
0.0
 11
153.8850679999999
 21
190.370238
 31
0.0
  0
LINE
  5
ACA4
330
AAD4
100
AcDbEntity
  8
1
  6
Continuous
100
AcDbLine
 10
152.4708549999998
 20
191.8012339999999
 30
0.0
 11
150.4708579999999
 21
190.370238
 31
0.0
  0
LINE
  5
ACA5
330
AAD4
100
AcDbEntity
  8
1
  6
Continuous
100
AcDbLine
 10
136.4991159999999
 20
190.370234
 30
0.0
 11
167.845684
 21
190.3700479999999
 31
0.0
  0
LINE
  5
ACA6
330
AAD4
100
AcDbEntity
  8
1
  6
Continuous
100
AcDbLine
 10
136.655039
 20
193.722638
 30
0.0
 11
167.6741729999999
 21
193.722638
 31
0.0
  0
LINE
  5
ACA7
330
AAD4
100
AcDbEntity
  8
1
  6
Continuous
100
AcDbLine
 10
166.824626
 20
195.7824589999999
 30
0.0
 11
137.5046259999998
 21
195.7824589999999
 31
0.0
  0
LINE
  5
ACA8
330
AAD4
100
AcDbEntity
  8
1
  6
Continuous
100
AcDbLine
 10
145.399787
 20
191.8012339999999
 30
0.0
 11
143.39979
 21
190.370238
 31
0.0
  0
LINE
  5
ACA9
330
AAD4
100
AcDbEntity
  8
1
  6
Continuous
100
AcDbLine
 10
143.39979
 20
191.8012339999999
 30
0.0
 11
145.399787
 21
190.370238
 31
0.0
  0
LINE
  5
ACAA
330
AAD4
100
AcDbEntity
  8
1
  6
Continuous
100
AcDbLine
 10
151.0566409999999
 20
191.8012339999999
 30
0.0
 11
149.056645
 21
190.370238
 31
0.0
  0
LINE
  5
ACAB
330
AAD4
100
AcDbEntity
  8
1
  6
Continuous
100
AcDbLine
 10
149.056645
 20
191.8012339999999
 30
0.0
 11
151.0566409999999
 21
190.370238
 31
0.0
  0
LINE
  5
ACAC
330
AAD4
100
AcDbEntity
  8
1
  6
Continuous
100
AcDbLine
 10
146.814
 20
191.8012339999999
 30
0.0
 11
144.814004
 21
190.370238
 31
0.0
  0
LINE
  5
ACAD
330
AAD4
100
AcDbEntity
  8
1
  6
Continuous
100
AcDbLine
 10
148.2282139999998
 20
191.8012339999999
 30
0.0
 11
146.228218
 21
190.370238
 31
0.0
  0
LINE
  5
ACAE
330
AAD4
100
AcDbEntity
  8
1
  6
Continuous
100
AcDbLine
 10
149.642428
 20
191.8012339999999
 30
0.0
 11
147.6424309999999
 21
190.370238
 31
0.0
  0
LINE
  5
ACAF
330
AAD4
100
AcDbEntity
  8
1
  6
Continuous
100
AcDbLine
 10
146.228218
 20
191.8012339999999
 30
0.0
 11
148.2282139999998
 21
190.370238
 31
0.0
  0
LINE
  5
ACB0
330
AAD4
100
AcDbEntity
  8
1
  6
Continuous
100
AcDbLine
 10
141.1571459999999
 20
191.8012339999999
 30
0.0
 11
139.1571499999998
 21
190.370238
 31
0.0
  0
LINE
  5
ACB1
330
AAD4
100
AcDbEntity
  8
1
  6
Continuous
100
AcDbLine
 10
142.5713599999999
 20
191.8012339999999
 30
0.0
 11
140.5713629999999
 21
190.370238
 31
0.0
  0
LINE
  5
ACB2
330
AAD4
100
AcDbEntity
  8
1
  6
Continuous
100
AcDbLine
 10
140.5713629999999
 20
191.8012339999999
 30
0.0
 11
142.5713599999999
 21
190.370238
 31
0.0
  0
LINE
  5
ACB3
330
AAD4
100
AcDbEntity
  8
1
  6
Continuous
100
AcDbLine
 10
138.328719
 20
191.8012339999999
 30
0.0
 11
136.328723
 21
190.370238
 31
0.0
  0
LINE
  5
ACB4
330
AAD4
100
AcDbEntity
  8
1
  6
Continuous
100
AcDbLine
 10
139.742933
 20
191.8012339999999
 30
0.0
 11
137.7429359999999
 21
190.370238
 31
0.0
  0
LINE
  5
ACB5
330
AAD4
100
AcDbEntity
  8
1
  6
Continuous
100
AcDbLine
 10
137.7429359999999
 20
191.8012339999999
 30
0.0
 11
139.742933
 21
190.370238
 31
0.0
  0
LINE
  5
ACB6
330
AAD4
100
AcDbEntity
  8
1
  6
Continuous
100
AcDbLine
 10
143.9855729999998
 20
191.8012339999999
 30
0.0
 11
141.985577
 21
190.370238
 31
0.0
  0
ARC
  5
ACB7
330
AAD4
100
AcDbEntity
  8
1
  6
Continuous
100
AcDbCircle
 10
139.9655699999998
 20
193.2824589999999
 30
0.0
 40
2.5
100
AcDbArc
 50
90.0
 51
169.858981
  0
LINE
  5
ACB8
330
AAD4
100
AcDbEntity
  8
1
  6
Continuous
100
AcDbLine
 10
166.61299
 20
191.8012339999999
 30
0.0
 11
164.6129939999999
 21
190.370238
 31
0.0
  0
LINE
  5
ACB9
330
AAD4
100
AcDbEntity
  8
1
  6
Continuous
100
AcDbLine
 10
168.027204
 20
191.8012339999999
 30
0.0
 11
166.0272069999998
 21
190.370238
 31
0.0
  0
LINE
  5
ACBA
330
AAD4
100
AcDbEntity
  8
1
  6
Continuous
100
AcDbLine
 10
166.0272069999998
 20
191.8012339999999
 30
0.0
 11
168.027204
 21
190.370238
 31
0.0
  0
LINE
  5
ACBB
330
AAD4
100
AcDbEntity
  8
1
  6
Continuous
100
AcDbLine
 10
162.3703499999998
 20
191.8012339999999
 30
0.0
 11
160.3703529999999
 21
190.370238
 31
0.0
  0
LINE
  5
ACBC
330
AAD4
100
AcDbEntity
  8
1
  6
Continuous
100
AcDbLine
 10
163.7845629999999
 20
191.8012339999999
 30
0.0
 11
161.7845669999999
 21
190.370238
 31
0.0
  0
LINE
  5
ACBD
330
AAD4
100
AcDbEntity
  8
1
  6
Continuous
100
AcDbLine
 10
160.3703529999999
 20
191.8012339999999
 30
0.0
 11
162.3703499999998
 21
190.370238
 31
0.0
  0
LINE
  5
ACBE
330
AAD4
100
AcDbEntity
  8
1
  6
Continuous
100
AcDbLine
 10
165.198777
 20
191.8012339999999
 30
0.0
 11
163.19878
 21
190.370238
 31
0.0
  0
LINE
  5
ACBF
330
AAD4
100
AcDbEntity
  8
1
  6
Continuous
100
AcDbLine
 10
163.19878
 20
191.8012339999999
 30
0.0
 11
165.198777
 21
190.370238
 31
0.0
  0
LINE
  5
ACC0
330
AAD4
100
AcDbEntity
  8
1
  6
Continuous
100
AcDbLine
 10
155.299282
 20
191.8012339999999
 30
0.0
 11
153.299285
 21
190.370238
 31
0.0
  0
LINE
  5
ACC1
330
AAD4
100
AcDbEntity
  8
1
  6
Continuous
100
AcDbLine
 10
156.7134949999999
 20
191.8012339999999
 30
0.0
 11
154.713499
 21
190.370238
 31
0.0
  0
LINE
  5
ACC2
330
AAD4
100
AcDbEntity
  8
1
  6
Continuous
100
AcDbLine
 10
158.127709
 20
191.8012339999999
 30
0.0
 11
156.127713
 21
190.370238
 31
0.0
  0
LINE
  5
ACC3
330
AAD4
100
AcDbEntity
  8
1
  6
Continuous
100
AcDbLine
 10
154.713499
 20
191.8012339999999
 30
0.0
 11
156.7134949999999
 21
190.370238
 31
0.0
  0
LINE
  5
ACC4
330
AAD4
100
AcDbEntity
  8
1
  6
Continuous
100
AcDbLine
 10
160.9561359999999
 20
191.8012339999999
 30
0.0
 11
158.95614
 21
190.370238
 31
0.0
  0
LINE
  5
ACC5
330
AAD4
100
AcDbEntity
  8
1
  6
Continuous
100
AcDbLine
 10
159.541923
 20
191.8012339999999
 30
0.0
 11
157.5419259999998
 21
190.370238
 31
0.0
  0
LINE
  5
ACC6
330
AAD4
100
AcDbEntity
  8
1
  6
Continuous
100
AcDbLine
 10
157.5419259999998
 20
191.8012339999999
 30
0.0
 11
159.541923
 21
190.370238
 31
0.0
  0
ARC
  5
ACC7
330
AAD4
100
AcDbEntity
  8
1
  6
Continuous
100
AcDbCircle
 10
164.363683
 20
193.2824589999999
 30
0.0
 40
2.5
100
AcDbArc
 50
10.141019
 51
90.0
  0
LINE
  5
ACC8
330
AAD4
100
AcDbEntity
  8
1
  6
Continuous
100
AcDbLine
 10
137.5046259999998
 20
198.6824589999999
 30
0.0
 11
166.824626
 21
198.6824589999999
 31
0.0
  0
LINE
  5
ACC9
330
AAD4
100
AcDbEntity
  8
1
  6
Continuous
100
AcDbLine
 10
168.4145069999999
 20
191.8012339999999
 30
0.0
 11
168.4145069999999
 21
190.370238
 31
0.0
  0
LINE
  5
ACCA
330
AAD4
100
AcDbEntity
  8
1
  6
Continuous
100
AcDbLine
 10
168.4145069999999
 20
191.8012339999999
 30
0.0
 11
168.4145069999999
 21
190.370238
 31
0.0
  0
ARC
  5
ACCB
330
AAD4
100
AcDbEntity
  8
1
  6
Continuous
100
AcDbCircle
 10
258.260777
 20
214.6703319999998
 30
0.0
 40
114.0961689999999
100
AcDbArc
 50
172.388703
 51
186.132036
  0
LINE
  5
ACCC
330
AAD4
100
AcDbEntity
  8
1
  6
Continuous
100
AcDbLine
 10
160.164606
 20
202.482577
 30
0.0
 11
144.1646059999999
 21
202.482577
 31
0.0
  0
ARC
  5
ACCD
330
AAD4
100
AcDbEntity
  8
1
  6
Continuous
100
AcDbCircle
 10
145.6646059999999
 20
200.1825769999999
 30
0.0
 40
1.5
100
AcDbArc
 50
180.0
 51
270.0
  0
LINE
  5
ACCE
330
AAD4
100
AcDbEntity
  8
1
  6
Continuous
100
AcDbLine
 10
144.1646059999999
 20
202.482577
 30
0.0
 11
144.1646059999999
 21
200.1825769999999
 31
0.0
  0
ARC
  5
ACCF
330
AAD4
100
AcDbEntity
  8
1
  6
Continuous
100
AcDbCircle
 10
46.068435
 20
214.6703319999998
 30
0.0
 40
114.0961689999999
100
AcDbArc
 50
353.8679639999998
 51
7.611297
  0
LINE
  5
ACD0
330
AAD4
100
AcDbEntity
  8
1
  6
Continuous
100
AcDbLine
 10
160.164606
 20
202.482577
 30
0.0
 11
160.164606
 21
200.1825769999999
 31
0.0
  0
ARC
  5
ACD1
330
AAD4
100
AcDbEntity
  8
1
  6
Continuous
100
AcDbCircle
 10
158.6646059999999
 20
200.1825769999999
 30
0.0
 40
1.5
100
AcDbArc
 50
270.0
 51
0.0
  0
LINE
  5
ACD2
330
AAD4
100
AcDbEntity
  8
1
  6
Continuous
100
AcDbLine
 10
144.2646259999999
 20
232.682577
 30
0.0
 11
160.0646259999998
 21
232.682577
 31
0.0
  0
LINE
  5
ACD3
330
AAD4
100
AcDbEntity
  8
1
  6
Continuous
100
AcDbLine
 10
144.2646259999999
 20
229.782577
 30
0.0
 11
160.0646259999998
 21
229.782577
 31
0.0
  0
LINE
  5
ACD4
330
AAD4
100
AcDbEntity
  8
1
  6
Continuous
100
AcDbLine
 10
328.6617799999999
 20
229.782673
 30
0.0
 11
344.4617799999999
 21
229.782673
 31
0.0
  0
LINE
  5
ACD5
330
AAD4
100
AcDbEntity
  8
1
  6
Continuous
100
AcDbLine
 10
328.6617799999999
 20
232.682673
 30
0.0
 11
344.4617799999999
 21
232.682673
 31
0.0
  0
LINE
  5
ACD6
330
AAD4
100
AcDbEntity
  8
1
  6
Continuous
100
AcDbLine
 10
340.2262799999999
 20
229.782673
 30
0.0
 11
340.2262799999999
 21
232.682673
 31
0.0
  0
LINE
  5
ACD7
330
AAD4
100
AcDbEntity
  8
1
  6
Continuous
100
AcDbLine
 10
332.8972799999998
 20
229.782673
 30
0.0
 11
332.8972799999998
 21
232.682673
 31
0.0
  0
LINE
  5
ACD8
330
AAD4
100
AcDbEntity
  8
1
  6
Continuous
100
AcDbLine
 10
328.6617799999999
 20
229.782673
 30
0.0
 11
328.6617799999999
 21
232.682673
 31
0.0
  0
LINE
  5
ACD9
330
AAD4
100
AcDbEntity
  8
1
  6
Continuous
100
AcDbLine
 10
344.4617799999999
 20
229.782673
 30
0.0
 11
344.4617799999999
 21
232.682673
 31
0.0
  0
ARC
  5
ACDA
330
AAD4
100
AcDbEntity
  8
1
  6
Continuous
100
AcDbCircle
 10
230.4655889999999
 20
214.6704279999999
 30
0.0
 40
114.0961689999999
100
AcDbArc
 50
353.8679639999998
 51
7.611297
  0
ARC
  5
ACDB
330
AAD4
100
AcDbEntity
  8
1
  6
Continuous
100
AcDbCircle
 10
442.657931
 20
214.6704279999999
 30
0.0
 40
114.0961689999999
100
AcDbArc
 50
172.388703
 51
186.132036
  0
LINE
  5
ACDC
330
AAD4
100
AcDbEntity
  8
1
  6
Continuous
100
AcDbLine
 10
351.2217799999998
 20
195.782555
 30
0.0
 11
321.9017799999999
 21
195.782555
 31
0.0
  0
LINE
  5
ACDD
330
AAD4
100
AcDbEntity
  8
1
  6
Continuous
100
AcDbLine
 10
321.9017799999999
 20
198.682555
 30
0.0
 11
351.2217799999998
 21
198.682555
 31
0.0
  0
ARC
  5
ACDE
330
AAD4
100
AcDbEntity
  8
1
  6
Continuous
100
AcDbCircle
 10
343.06176
 20
200.1826729999999
 30
0.0
 40
1.5
100
AcDbArc
 50
270.0
 51
0.0
  0
LINE
  5
ACDF
330
AAD4
100
AcDbEntity
  8
1
  6
Continuous
100
AcDbLine
 10
344.5617599999998
 20
202.482673
 30
0.0
 11
328.56176
 21
202.482673
 31
0.0
  0
LINE
  5
ACE0
330
AAD4
100
AcDbEntity
  8
1
  6
Continuous
100
AcDbLine
 10
343.89178
 20
198.682555
 30
0.0
 11
343.89178
 21
195.782511
 31
0.0
  0
LINE
  5
ACE1
330
AAD4
100
AcDbEntity
  8
1
  6
Continuous
100
AcDbLine
 10
351.2217799999998
 20
195.7824369999999
 30
0.0
 11
351.2217799999998
 21
198.682555
 31
0.0
  0
ARC
  5
ACE2
330
AAD4
100
AcDbEntity
  8
1
  6
Continuous
100
AcDbCircle
 10
348.7608369999999
 20
193.282555
 30
0.0
 40
2.5
100
AcDbArc
 50
10.141019
 51
90.0
  0
LINE
  5
ACE3
330
AAD4
100
AcDbEntity
  8
1
  6
Continuous
100
AcDbLine
 10
344.5617599999998
 20
202.482673
 30
0.0
 11
344.5617599999998
 21
200.1826729999999
 31
0.0
  0
LINE
  5
ACE4
330
AAD4
100
AcDbEntity
  8
1
  6
Continuous
100
AcDbLine
 10
321.052193
 20
193.7227339999998
 30
0.0
 11
352.0713269999998
 21
193.7227339999998
 31
0.0
  0
LINE
  5
ACE5
330
AAD4
100
AcDbEntity
  8
1
  6
Continuous
100
AcDbLine
 10
352.811661
 20
191.8012899999999
 30
0.0
 11
320.311661
 21
191.8013699999999
 31
0.0
  0
LINE
  5
ACE6
330
AAD4
100
AcDbEntity
  8
1
  6
Continuous
100
AcDbLine
 10
352.561941
 20
193.1470459999999
 30
0.0
 11
320.5615799999999
 21
193.1470459999999
 31
0.0
  0
LINE
  5
ACE7
330
AAD4
100
AcDbEntity
  8
1
  6
Continuous
100
AcDbLine
 10
329.2317799999999
 20
198.682555
 30
0.0
 11
329.2317799999999
 21
195.782511
 31
0.0
  0
LINE
  5
ACE8
330
AAD4
100
AcDbEntity
  8
1
  6
Continuous
100
AcDbLine
 10
321.9017799999999
 20
195.7824369999999
 30
0.0
 11
321.9017799999999
 21
198.682555
 31
0.0
  0
LINE
  5
ACE9
330
AAD4
100
AcDbEntity
  8
1
  6
Continuous
100
AcDbLine
 10
328.3827269999998
 20
191.80133
 30
0.0
 11
326.3827309999999
 21
190.370334
 31
0.0
  0
LINE
  5
ACEA
330
AAD4
100
AcDbEntity
  8
1
  6
Continuous
100
AcDbLine
 10
327.796944
 20
191.80133
 30
0.0
 11
329.796941
 21
190.370334
 31
0.0
  0
LINE
  5
ACEB
330
AAD4
100
AcDbEntity
  8
1
  6
Continuous
100
AcDbLine
 10
329.796941
 20
191.80133
 30
0.0
 11
327.796944
 21
190.370334
 31
0.0
  0
LINE
  5
ACEC
330
AAD4
100
AcDbEntity
  8
1
  6
Continuous
100
AcDbLine
 10
336.561661
 20
191.80133
 30
0.0
 11
320.311661
 21
191.8013699999999
 31
0.0
  0
ARC
  5
ACED
330
AAD4
100
AcDbEntity
  8
1
  6
Continuous
100
AcDbCircle
 10
324.362724
 20
193.282555
 30
0.0
 40
2.5
100
AcDbArc
 50
90.0
 51
169.858981
  0
LINE
  5
ACEE
330
AAD4
100
AcDbEntity
  8
1
  6
Continuous
100
AcDbLine
 10
322.1400899999999
 20
191.80133
 30
0.0
 11
324.140087
 21
190.370334
 31
0.0
  0
LINE
  5
ACEF
330
AAD4
100
AcDbEntity
  8
1
  6
Continuous
100
AcDbLine
 10
324.140087
 20
191.80133
 30
0.0
 11
322.1400899999999
 21
190.370334
 31
0.0
  0
LINE
  5
ACF0
330
AAD4
100
AcDbEntity
  8
1
  6
Continuous
100
AcDbLine
 10
322.7258729999999
 20
191.80133
 30
0.0
 11
320.7258770000001
 21
190.370334
 31
0.0
  0
LINE
  5
ACF1
330
AAD4
100
AcDbEntity
  8
1
  6
Continuous
100
AcDbLine
 10
324.968517
 20
191.80133
 30
0.0
 11
326.968514
 21
190.370334
 31
0.0
  0
LINE
  5
ACF2
330
AAD4
100
AcDbEntity
  8
1
  6
Continuous
100
AcDbLine
 10
326.968514
 20
191.80133
 30
0.0
 11
324.968517
 21
190.370334
 31
0.0
  0
LINE
  5
ACF3
330
AAD4
100
AcDbEntity
  8
1
  6
Continuous
100
AcDbLine
 10
325.5543
 20
191.80133
 30
0.0
 11
323.554304
 21
190.370334
 31
0.0
  0
LINE
  5
ACF4
330
AAD4
100
AcDbEntity
  8
1
  6
Continuous
100
AcDbLine
 10
320.311661
 20
191.80133
 30
0.0
 11
320.311661
 21
190.370334
 31
0.0
  0
LINE
  5
ACF5
330
AAD4
100
AcDbEntity
  8
1
  6
Continuous
100
AcDbLine
 10
320.311661
 20
191.80133
 30
0.0
 11
320.311661
 21
190.370334
 31
0.0
  0
LINE
  5
ACF6
330
AAD4
100
AcDbEntity
  8
1
  6
Continuous
100
AcDbLine
 10
321.31166
 20
191.80133
 30
0.0
 11
320.311661
 21
191.3703319999999
 31
0.0
  0
ARC
  5
ACF7
330
AAD4
100
AcDbEntity
  8
1
  6
Continuous
100
AcDbCircle
 10
321.5920909999999
 20
192.765722
 30
0.0
 40
1.098799999999998
100
AcDbArc
 50
119.429525
 51
159.693839
  0
ARC
  5
ACF8
330
AAD4
100
AcDbEntity
  8
1
  6
Continuous
100
AcDbCircle
 10
322.9099549999999
 20
193.4779329999998
 30
0.0
 40
2.371570999999998
100
AcDbArc
 50
188.020211
 51
224.9867219999999
  0
LINE
  5
ACF9
330
AAD4
100
AcDbEntity
  8
1
  6
Continuous
100
AcDbLine
 10
321.31166
 20
190.370334
 30
0.0
 11
320.311661
 21
191.3703319999999
 31
0.0
  0
LINE
  5
ACFA
330
AAD4
100
AcDbEntity
  8
1
  6
Continuous
100
AcDbLine
 10
330.625372
 20
191.80133
 30
0.0
 11
332.6253679999999
 21
190.370334
 31
0.0
  0
LINE
  5
ACFB
330
AAD4
100
AcDbEntity
  8
1
  6
Continuous
100
AcDbLine
 10
334.0395819999999
 20
191.80133
 30
0.0
 11
332.039585
 21
190.370334
 31
0.0
  0
LINE
  5
ACFC
330
AAD4
100
AcDbEntity
  8
1
  6
Continuous
100
AcDbLine
 10
332.6253679999999
 20
191.80133
 30
0.0
 11
330.625372
 21
190.370334
 31
0.0
  0
LINE
  5
ACFD
330
AAD4
100
AcDbEntity
  8
1
  6
Continuous
100
AcDbLine
 10
331.211154
 20
191.80133
 30
0.0
 11
329.211158
 21
190.370334
 31
0.0
  0
LINE
  5
ACFE
330
AAD4
100
AcDbEntity
  8
1
  6
Continuous
100
AcDbLine
 10
328.56176
 20
202.482673
 30
0.0
 11
328.56176
 21
200.1826729999999
 31
0.0
  0
ARC
  5
ACFF
330
AAD4
100
AcDbEntity
  8
1
  6
Continuous
100
AcDbCircle
 10
330.0617599999998
 20
200.1826729999999
 30
0.0
 40
1.5
100
AcDbArc
 50
180.0
 51
270.0
  0
LINE
  5
AD00
330
AAD4
100
AcDbEntity
  8
1
  6
Continuous
100
AcDbLine
 10
345.35329
 20
191.80133
 30
0.0
 11
343.353294
 21
190.370334
 31
0.0
  0
LINE
  5
AD01
330
AAD4
100
AcDbEntity
  8
1
  6
Continuous
100
AcDbLine
 10
341.9390799999998
 20
191.80133
 30
0.0
 11
343.939077
 21
190.370334
 31
0.0
  0
LINE
  5
AD02
330
AAD4
100
AcDbEntity
  8
1
  6
Continuous
100
AcDbLine
 10
343.939077
 20
191.80133
 30
0.0
 11
341.9390799999998
 21
190.370334
 31
0.0
  0
LINE
  5
AD03
330
AAD4
100
AcDbEntity
  8
1
  6
Continuous
100
AcDbLine
 10
339.1106529999999
 20
191.80133
 30
0.0
 11
341.110649
 21
190.370334
 31
0.0
  0
LINE
  5
AD04
330
AAD4
100
AcDbEntity
  8
1
  6
Continuous
100
AcDbLine
 10
342.524863
 20
191.80133
 30
0.0
 11
340.5248669999999
 21
190.370334
 31
0.0
  0
LINE
  5
AD05
330
AAD4
100
AcDbEntity
  8
1
  6
Continuous
100
AcDbLine
 10
341.110649
 20
191.80133
 30
0.0
 11
339.1106529999999
 21
190.370334
 31
0.0
  0
LINE
  5
AD06
330
AAD4
100
AcDbEntity
  8
1
  6
Continuous
100
AcDbLine
 10
339.696436
 20
191.80133
 30
0.0
 11
337.6964389999999
 21
190.370334
 31
0.0
  0
LINE
  5
AD07
330
AAD4
100
AcDbEntity
  8
1
  6
Continuous
100
AcDbLine
 10
352.811661
 20
191.80133
 30
0.0
 11
352.811661
 21
190.370334
 31
0.0
  0
LINE
  5
AD08
330
AAD4
100
AcDbEntity
  8
1
  6
Continuous
100
AcDbLine
 10
352.811661
 20
191.80133
 30
0.0
 11
352.811661
 21
190.370334
 31
0.0
  0
LINE
  5
AD09
330
AAD4
100
AcDbEntity
  8
1
  6
Continuous
100
AcDbLine
 10
347.595934
 20
191.80133
 30
0.0
 11
349.5959309999999
 21
190.370334
 31
0.0
  0
LINE
  5
AD0A
330
AAD4
100
AcDbEntity
  8
1
  6
Continuous
100
AcDbLine
 10
349.5959309999999
 20
191.80133
 30
0.0
 11
347.595934
 21
190.370334
 31
0.0
  0
LINE
  5
AD0B
330
AAD4
100
AcDbEntity
  8
1
  6
Continuous
100
AcDbLine
 10
344.7675069999998
 20
191.80133
 30
0.0
 11
346.7675039999999
 21
190.370334
 31
0.0
  0
LINE
  5
AD0C
330
AAD4
100
AcDbEntity
  8
1
  6
Continuous
100
AcDbLine
 10
348.1817169999998
 20
191.80133
 30
0.0
 11
346.1817209999999
 21
190.370334
 31
0.0
  0
LINE
  5
AD0D
330
AAD4
100
AcDbEntity
  8
1
  6
Continuous
100
AcDbLine
 10
346.7675039999999
 20
191.80133
 30
0.0
 11
344.7675069999998
 21
190.370334
 31
0.0
  0
LINE
  5
AD0E
330
AAD4
100
AcDbEntity
  8
1
  6
Continuous
100
AcDbLine
 10
350.4243609999999
 20
191.80133
 30
0.0
 11
352.4243579999999
 21
190.370334
 31
0.0
  0
LINE
  5
AD0F
330
AAD4
100
AcDbEntity
  8
1
  6
Continuous
100
AcDbLine
 10
352.4243579999999
 20
191.80133
 30
0.0
 11
350.4243609999999
 21
190.370334
 31
0.0
  0
LINE
  5
AD10
330
AAD4
100
AcDbEntity
  8
1
  6
Continuous
100
AcDbLine
 10
351.0101439999999
 20
191.80133
 30
0.0
 11
349.010148
 21
190.370334
 31
0.0
  0
ARC
  5
AD11
330
AAD4
100
AcDbEntity
  8
1
  6
Continuous
100
AcDbCircle
 10
351.531429
 20
192.765722
 30
0.0
 40
1.098799999999998
100
AcDbArc
 50
20.306161
 51
60.57047500000001
  0
ARC
  5
AD12
330
AAD4
100
AcDbEntity
  8
1
  6
Continuous
100
AcDbCircle
 10
350.213566
 20
193.4779329999998
 30
0.0
 40
2.371570999999998
100
AcDbArc
 50
315.0106999999998
 51
351.9797889999999
  0
LINE
  5
AD13
330
AAD4
100
AcDbEntity
  8
1
  6
Continuous
100
AcDbLine
 10
352.811661
 20
191.34342
 30
0.0
 11
351.838575
 21
190.370334
 31
0.0
  0
LINE
  5
AD14
330
AAD4
100
AcDbEntity
  8
1
  6
Continuous
100
AcDbLine
 10
333.453799
 20
191.80133
 30
0.0
 11
335.453795
 21
190.370334
 31
0.0
  0
LINE
  5
AD15
330
AAD4
100
AcDbEntity
  8
1
  6
Continuous
100
AcDbLine
 10
335.453795
 20
191.80133
 30
0.0
 11
333.453799
 21
190.370334
 31
0.0
  0
LINE
  5
AD16
330
AAD4
100
AcDbEntity
  8
1
  6
Continuous
100
AcDbLine
 10
336.8680089999998
 20
191.80133
 30
0.0
 11
334.868012
 21
190.370334
 31
0.0
  0
LINE
  5
AD17
330
AAD4
100
AcDbEntity
  8
1
  6
Continuous
100
AcDbLine
 10
336.2822259999999
 20
191.80133
 30
0.0
 11
338.2822219999999
 21
190.370334
 31
0.0
  0
LINE
  5
AD18
330
AAD4
100
AcDbEntity
  8
1
  6
Continuous
100
AcDbLine
 10
338.2822219999999
 20
191.80133
 30
0.0
 11
336.2822259999999
 21
190.370334
 31
0.0
  0
ARC
  5
AD19
330
AAD4
100
AcDbEntity
  8
1
  6
Continuous
100
AcDbCircle
 10
110.761324
 20
305.2864619999998
 30
0.0
 40
1.5
100
AcDbArc
 50
90.0
 51
165.301576
  0
ARC
  5
AD1A
330
AAD4
100
AcDbEntity
  8
1
  6
Continuous
100
AcDbCircle
 10
137.8132369999999
 20
91.50985199999999
 30
0.0
 40
7.0
100
AcDbArc
 50
270.0
 51
303.723059
  0
ARC
  5
AD1B
330
AAD4
100
AcDbEntity
  8
1
  6
Continuous
100
AcDbCircle
 10
137.8128769999999
 20
91.50961200000001
 30
0.0
 40
9.0
100
AcDbArc
 50
270.0
 51
303.724017
  0
ARC
  5
AD1C
330
AAD4
100
AcDbEntity
  8
1
  6
Continuous
100
AcDbCircle
 10
137.8132369999999
 20
48.509372
 30
0.0
 40
7.0
100
AcDbArc
 50
56.276941
 51
90.0
  0
ARC
  5
AD1D
330
AAD4
100
AcDbEntity
  8
1
  6
Continuous
100
AcDbCircle
 10
137.8128769999999
 20
48.509612
 30
0.0
 40
9.0
100
AcDbArc
 50
56.27598299999999
 51
90.0
  0
CIRCLE
  5
AD1E
330
AAD4
100
AcDbEntity
  8
2
  6
Continuous
100
AcDbCircle
 10
152.164619
 20
296.7864619999998
 30
0.0
 40
3.3235
  0
ARC
  5
AD1F
330
AAD4
100
AcDbEntity
  8
1
  6
Continuous
100
AcDbCircle
 10
152.164619
 20
296.7864619999998
 30
0.0
 40
18.85
100
AcDbArc
 50
236.2759829999999
 51
123.7240169999999
  0
LINE
  5
AD20
330
AAD4
100
AcDbEntity
  8
1
  6
Continuous
100
AcDbLine
 10
137.165027
 20
281.9421730000001
 30
0.0
 11
137.165027
 21
282.2864619999998
 31
0.0
  0
ARC
  5
AD21
330
AAD4
100
AcDbEntity
  8
1
  6
Continuous
100
AcDbCircle
 10
137.8128769999999
 20
318.2864619999999
 30
0.0
 40
7.0
100
AcDbArc
 50
270.0
 51
303.724017
  0
LINE
  5
AD22
330
AAD4
100
AcDbEntity
  8
1
  6
Continuous
100
AcDbLine
 10
137.415027
 20
311.2864619999998
 30
0.0
 11
137.415027
 21
312.2198179999998
 31
0.0
  0
ARC
  5
AD23
330
AAD4
100
AcDbEntity
  8
1
  6
Continuous
100
AcDbCircle
 10
137.8128769999999
 20
275.2864619999999
 30
0.0
 40
7.0
100
AcDbArc
 50
56.27598299999999
 51
90.0
  0
CIRCLE
  5
AD24
330
AAD4
100
AcDbEntity
  8
1
  6
Continuous
100
AcDbCircle
 10
152.164619
 20
296.7864619999998
 30
0.0
 40
2.5
  0
ARC
  5
AD25
330
AAD4
100
AcDbEntity
  8
1
  6
Continuous
100
AcDbCircle
 10
156.167527
 20
70.009612
 30
0.0
 40
30.0
100
AcDbArc
 50
155.375682
 51
157.4596899999999
  0
ARC
  5
AD26
330
AAD4
100
AcDbEntity
  8
1
  6
Continuous
100
AcDbCircle
 10
156.167527
 20
70.009612
 30
0.0
 40
30.0
100
AcDbArc
 50
202.54031
 51
204.6243179999999
  0
LINE
  5
AD27
330
AAD4
100
AcDbEntity
  8
1
  6
Continuous
100
AcDbLine
 10
144.834619
 20
309.4823939999999
 30
0.0
 11
159.4946189999998
 21
309.4823939999999
 31
0.0
  0
LINE
  5
AD28
330
AAD4
100
AcDbEntity
  8
1
  6
Continuous
100
AcDbLine
 10
144.834619
 20
284.09053
 30
0.0
 11
159.4946189999998
 21
284.09053
 31
0.0
  0
LINE
  5
AD29
330
AAD4
100
AcDbEntity
  8
1
  6
Continuous
100
AcDbLine
 10
340.561741
 20
233.1826729999999
 30
0.0
 11
339.0617409999999
 21
234.682673
 31
0.0
  0
LINE
  5
AD2A
330
AAD4
100
AcDbEntity
  8
1
  6
Continuous
100
AcDbLine
 10
340.5617799999999
 20
232.682673
 30
0.0
 11
340.5617799999999
 21
233.1826729999999
 31
0.0
  0
LINE
  5
AD2B
330
AAD4
100
AcDbEntity
  8
2
  6
Continuous
100
AcDbLine
 10
339.88526
 20
233.8591539999999
 30
0.0
 11
339.88526
 21
232.682673
 31
0.0
  0
LINE
  5
AD2C
330
AAD4
100
AcDbEntity
  8
1
  6
Continuous
100
AcDbLine
 10
332.5617799999998
 20
233.1826729999999
 30
0.0
 11
334.0617799999999
 21
234.682673
 31
0.0
  0
LINE
  5
AD2D
330
AAD4
100
AcDbEntity
  8
1
  6
Continuous
100
AcDbLine
 10
332.5617799999998
 20
232.682673
 30
0.0
 11
332.5617799999998
 21
233.1826729999999
 31
0.0
  0
LINE
  5
AD2E
330
AAD4
100
AcDbEntity
  8
2
  6
Continuous
100
AcDbLine
 10
333.23826
 20
233.8591529999999
 30
0.0
 11
333.23826
 21
232.682673
 31
0.0
  0
LINE
  5
AD2F
330
AAD4
100
AcDbEntity
  8
1
  6
Continuous
100
AcDbLine
 10
340.5617799999999
 20
233.1826729999999
 30
0.0
 11
332.5617799999998
 21
233.1826729999999
 31
0.0
  0
LINE
  5
AD30
330
AAD4
100
AcDbEntity
  8
1
  6
Continuous
100
AcDbLine
 10
339.0617409999999
 20
234.682673
 30
0.0
 11
334.0617799999999
 21
234.682673
 31
0.0
  0
LINE
  5
AD31
330
AAD4
100
AcDbEntity
  8
1
  6
Continuous
100
AcDbLine
 10
51.86604899999998
 20
233.182577
 30
0.0
 11
43.866049
 21
233.182577
 31
0.0
  0
LINE
  5
AD32
330
AAD4
100
AcDbEntity
  8
2
  6
Continuous
100
AcDbLine
 10
44.54252899999999
 20
233.859057
 30
0.0
 11
44.54252899999999
 21
232.682577
 31
0.0
  0
LINE
  5
AD33
330
AAD4
100
AcDbEntity
  8
1
  6
Continuous
100
AcDbLine
 10
43.866049
 20
232.682577
 30
0.0
 11
43.866049
 21
233.182577
 31
0.0
  0
LINE
  5
AD34
330
AAD4
100
AcDbEntity
  8
1
  6
Continuous
100
AcDbLine
 10
43.866049
 20
233.182577
 30
0.0
 11
45.36604899999999
 21
234.682577
 31
0.0
  0
LINE
  5
AD35
330
AAD4
100
AcDbEntity
  8
2
  6
Continuous
100
AcDbLine
 10
51.189529
 20
233.8590579999999
 30
0.0
 11
51.189529
 21
232.682577
 31
0.0
  0
LINE
  5
AD36
330
AAD4
100
AcDbEntity
  8
1
  6
Continuous
100
AcDbLine
 10
51.86604899999998
 20
232.682577
 30
0.0
 11
51.86604899999998
 21
233.182577
 31
0.0
  0
LINE
  5
AD37
330
AAD4
100
AcDbEntity
  8
1
  6
Continuous
100
AcDbLine
 10
51.86600999999999
 20
233.182577
 30
0.0
 11
50.36601
 21
234.682577
 31
0.0
  0
LINE
  5
AD38
330
AAD4
100
AcDbEntity
  8
1
  6
Continuous
100
AcDbLine
 10
154.664587
 20
234.682577
 30
0.0
 11
149.664626
 21
234.682577
 31
0.0
  0
LINE
  5
AD39
330
AAD4
100
AcDbEntity
  8
1
  6
Continuous
100
AcDbLine
 10
156.164626
 20
233.182577
 30
0.0
 11
148.1646259999999
 21
233.182577
 31
0.0
  0
LINE
  5
AD3A
330
AAD4
100
AcDbEntity
  8
2
  6
Continuous
100
AcDbLine
 10
148.8411059999999
 20
233.859057
 30
0.0
 11
148.8411059999999
 21
232.682577
 31
0.0
  0
LINE
  5
AD3B
330
AAD4
100
AcDbEntity
  8
1
  6
Continuous
100
AcDbLine
 10
148.1646259999999
 20
232.682577
 30
0.0
 11
148.1646259999999
 21
233.182577
 31
0.0
  0
LINE
  5
AD3C
330
AAD4
100
AcDbEntity
  8
1
  6
Continuous
100
AcDbLine
 10
148.1646259999999
 20
233.182577
 30
0.0
 11
149.664626
 21
234.682577
 31
0.0
  0
LINE
  5
AD3D
330
AAD4
100
AcDbEntity
  8
2
  6
Continuous
100
AcDbLine
 10
155.4881059999999
 20
233.8590579999999
 30
0.0
 11
155.4881059999999
 21
232.682577
 31
0.0
  0
LINE
  5
AD3E
330
AAD4
100
AcDbEntity
  8
1
  6
Continuous
100
AcDbLine
 10
156.164626
 20
232.682577
 30
0.0
 11
156.164626
 21
233.182577
 31
0.0
  0
LINE
  5
AD3F
330
AAD4
100
AcDbEntity
  8
1
  6
Continuous
100
AcDbLine
 10
156.164587
 20
233.182577
 30
0.0
 11
154.664587
 21
234.682577
 31
0.0
  0
LINE
  5
AD40
330
AAD4
100
AcDbEntity
  8
1
  6
Continuous
100
AcDbLine
 10
149.664626
 20
234.682577
 30
0.0
 11
154.664587
 21
234.682577
 31
0.0
  0
LINE
  5
AD41
330
AAD4
100
AcDbEntity
  8
1
  6
Continuous
100
AcDbLine
 10
241.863302
 20
234.6825759999999
 30
0.0
 11
246.863263
 21
234.6825759999999
 31
0.0
  0
LINE
  5
AD42
330
AAD4
100
AcDbEntity
  8
1
  6
Continuous
100
AcDbLine
 10
248.3632629999999
 20
233.182576
 30
0.0
 11
246.863263
 21
234.6825759999999
 31
0.0
  0
LINE
  5
AD43
330
AAD4
100
AcDbEntity
  8
1
  6
Continuous
100
AcDbLine
 10
248.363302
 20
232.6825759999999
 30
0.0
 11
248.363302
 21
233.182576
 31
0.0
  0
LINE
  5
AD44
330
AAD4
100
AcDbEntity
  8
2
  6
Continuous
100
AcDbLine
 10
247.6867819999999
 20
233.859057
 30
0.0
 11
247.6867819999999
 21
232.6825759999999
 31
0.0
  0
LINE
  5
AD45
330
AAD4
100
AcDbEntity
  8
1
  6
Continuous
100
AcDbLine
 10
240.363302
 20
233.182576
 30
0.0
 11
241.863302
 21
234.6825759999999
 31
0.0
  0
LINE
  5
AD46
330
AAD4
100
AcDbEntity
  8
1
  6
Continuous
100
AcDbLine
 10
240.363302
 20
232.6825759999999
 30
0.0
 11
240.363302
 21
233.182576
 31
0.0
  0
LINE
  5
AD47
330
AAD4
100
AcDbEntity
  8
2
  6
Continuous
100
AcDbLine
 10
241.0397819999999
 20
233.859056
 30
0.0
 11
241.0397819999999
 21
232.6825759999999
 31
0.0
  0
LINE
  5
AD48
330
AAD4
100
AcDbEntity
  8
1
  6
Continuous
100
AcDbLine
 10
248.363302
 20
233.182576
 30
0.0
 11
240.363302
 21
233.182576
 31
0.0
  0
LINE
  5
AD49
330
AAD4
100
AcDbEntity
  8
1
  6
Continuous
100
AcDbLine
 10
246.863263
 20
234.6825759999999
 30
0.0
 11
241.863302
 21
234.6825759999999
 31
0.0
  0
ENDSEC
  0
SECTION
  2
OBJECTS
  0
DICTIONARY
  5
AAC2
330
0
100
AcDbDictionary
281
     1
  3
ACAD_CIP_PREVIOUS_PRODUCT_INFO
350
ADAB
  3
ACAD_COLOR
350
AD8D
  3
ACAD_DETAILVIEWSTYLE
350
ADA6
  3
ACAD_GROUP
350
AAC3
  3
ACAD_LAYOUT
350
AACF
  3
ACAD_MATERIAL
350
AD5B
  3
ACAD_MLEADERSTYLE
350
ADA2
  3
ACAD_MLINESTYLE
350
AACC
  3
ACAD_PLOTSETTINGS
350
AACE
  3
ACAD_PLOTSTYLENAME
350
AD59
  3
ACAD_SCALELIST
350
AD90
  3
ACAD_SECTIONVIEWSTYLE
350
ADA4
  3
ACAD_TABLESTYLE
350
AD8E
  3
ACAD_VISUALSTYLE
350
AD74
  3
ACDB_RECOMPOSE_DATA
350
ADC9
  3
AcDbVariableDictionary
350
ADBC
  3
DWGPROPS
350
ADCA
  0
DICTIONARY
  5
ADAC
330
AAC6
100
AcDbDictionary
280
     1
281
     1
  3
ADSK_XREC_LAYER_RECONCILED
360
ADAD
  0
DICTIONARY
  5
ADAE
330
AADC
100
AcDbDictionary
280
     1
281
     1
  3
ADSK_XREC_LAYER_RECONCILED
360
ADAF
  0
DICTIONARY
  5
ADB0
330
AADD
100
AcDbDictionary
280
     1
281
     1
  3
ADSK_XREC_LAYER_RECONCILED
360
ADB1
  0
DICTIONARY
  5
ADB2
330
AADE
100
AcDbDictionary
280
     1
281
     1
  3
ADSK_XREC_LAYER_RECONCILED
360
ADB3
  0
DICTIONARY
  5
ADB4
330
AADF
100
AcDbDictionary
280
     1
281
     1
  3
ADSK_XREC_LAYER_RECONCILED
360
ADB5
  0
DICTIONARY
  5
ADB6
330
AAE0
100
AcDbDictionary
280
     1
281
     1
  3
ADSK_XREC_LAYER_RECONCILED
360
ADB7
  0
DICTIONARY
  5
ADB8
330
AAE1
100
AcDbDictionary
280
     1
281
     1
  3
ADSK_XREC_LAYER_RECONCILED
360
ADB9
  0
DICTIONARY
  5
ADBA
330
AAE2
100
AcDbDictionary
280
     1
281
     1
  3
ADSK_XREC_LAYER_RECONCILED
360
ADBB
  0
DICTIONARY
  5
AD54
330
AAD4
100
AcDbDictionary
281
     1
  3
ACAD_LAYOUTSELFREF
350
AD55
  0
DICTIONARY
  5
AD52
330
AAD0
100
AcDbDictionary
281
     1
  3
ACAD_LAYOUTSELFREF
350
AD53
  0
XRECORD
  5
ADAB
102
{ACAD_REACTORS
330
AAC2
102
}
330
AAC2
100
AcDbXrecord
280
     1
300
ACDLT
300
2014
300
ACDLT_F_S
  0
DICTIONARY
  5
AD8D
102
{ACAD_REACTORS
330
AAC2
102
}
330
AAC2
100
AcDbDictionary
281
     1
  0
DICTIONARY
  5
ADA6
102
{ACAD_REACTORS
330
AAC2
102
}
330
AAC2
100
AcDbDictionary
281
     1
  3
Imperial24
350
ADA7
  0
DICTIONARY
  5
AAC3
102
{ACAD_REACTORS
330
AAC2
102
}
330
AAC2
100
AcDbDictionary
281
     1
  0
DICTIONARY
  5
AACF
102
{ACAD_REACTORS
330
AAC2
102
}
330
AAC2
100
AcDbDictionary
281
     1
  3
Model
350
ADA8
  3
レイアウト1
350
ADA9
  0
DICTIONARY
  5
AD5B
102
{ACAD_REACTORS
330
AAC2
102
}
330
AAC2
100
AcDbDictionary
281
     1
  3
ByBlock
350
AD64
  3
ByLayer
350
AD5C
  3
Global
350
AD6C
  0
DICTIONARY
  5
ADA2
102
{ACAD_REACTORS
330
AAC2
102
}
330
AAC2
100
AcDbDictionary
281
     1
  3
Standard
350
ADA3
  0
DICTIONARY
  5
AACC
102
{ACAD_REACTORS
330
AAC2
102
}
330
AAC2
100
AcDbDictionary
281
     1
  3
STANDARD
350
AACD
  0
DICTIONARY
  5
AACE
102
{ACAD_REACTORS
330
AAC2
102
}
330
AAC2
100
AcDbDictionary
281
     1
  0
ACDBDICTIONARYWDFLT
  5
AD59
102
{ACAD_REACTORS
330
AAC2
102
}
330
AAC2
100
AcDbDictionary
281
     1
  3
Normal
350
AD5A
100
AcDbDictionaryWithDefault
340
AD5A
  0
DICTIONARY
  5
AD90
102
{ACAD_REACTORS
330
AAC2
102
}
330
AAC2
100
AcDbDictionary
281
     1
  3
A0
350
AD91
  3
A1
350
AD92
  3
A2
350
AD93
  3
A3
350
AD94
  3
A4
350
AD95
  3
A5
350
AD96
  3
A6
350
AD97
  3
A7
350
AD98
  3
A8
350
AD99
  3
A9
350
AD9A
  3
B0
350
AD9B
  3
B1
350
AD9C
  3
B2
350
AD9D
  3
B3
350
AD9E
  3
B4
350
AD9F
  3
B5
350
ADA0
  3
B6
350
ADA1
  0
DICTIONARY
  5
ADA4
102
{ACAD_REACTORS
330
AAC2
102
}
330
AAC2
100
AcDbDictionary
281
     1
  3
Imperial24
350
ADA5
  0
DICTIONARY
  5
AD8E
102
{ACAD_REACTORS
330
AAC2
102
}
330
AAC2
100
AcDbDictionary
281
     1
  3
Standard
350
AD8F
  0
DICTIONARY
  5
AD74
102
{ACAD_REACTORS
330
AAC2
102
}
330
AAC2
100
AcDbDictionary
281
     1
  3
2dWireframe
350
AD7A
  3
Basic
350
AD79
  3
Brighten
350
AD80
  3
ColorChange
350
AD84
  3
Conceptual
350
AD7D
  3
Dim
350
AD7F
  3
EdgeColorOff
350
AD8C
  3
Facepattern
350
AD83
  3
Flat
350
AD75
  3
FlatWithEdges
350
AD76
  3
Gouraud
350
AD77
  3
GouraudWithEdges
350
AD78
  3
Hidden
350
AD7C
  3
JitterOff
350
AD8A
  3
Linepattern
350
AD82
  3
OverhangOff
350
AD8B
  3
Realistic
350
AD7E
  3
Shaded
350
AD89
  3
Shaded with edges
350
AD88
  3
Shades of Gray
350
AD85
  3
Sketchy
350
AD86
  3
Thicken
350
AD81
  3
Wireframe
350
AD7B
  3
X-Ray
350
AD87
  0
XRECORD
  5
ADC9
102
{ACAD_REACTORS
330
AAC2
102
}
330
AAC2
100
AcDbXrecord
280
     1
 90
        1
330
AD8F
  0
DICTIONARY
  5
ADBC
102
{ACAD_REACTORS
330
AAC2
102
}
330
AAC2
100
AcDbDictionary
281
     1
  3
CANNOSCALE
350
ADC1
  3
CMLEADERSTYLE
350
ADBE
  3
CTABLESTYLE
350
ADBD
  3
CVIEWDETAILSTYLE
350
ADBF
  3
CVIEWSECTIONSTYLE
350
ADC0
  3
DIMASSOC
350
ADC4
  3
INDEXCTL
350
ADC3
  3
SORTENTS
350
ADC2
  3
XCLIPFRAME
350
ADC5
  0
XRECORD
  5
ADCA
102
{ACAD_REACTORS
330
AAC2
102
}
330
AAC2
100
AcDbXrecord
280
     1
  1
DWGPROPS COOKIE
  2

  3

  4

  6

  7

  8
Yoshitsune
  9

300
=
301
=
302
=
303
=
304
=
305
=
306
=
307
=
308
=
309
=
 40
0.0000097569444444
 41
2451302.654730903
 42
2457192.687685347
  1

 90
        0
  0
XRECORD
  5
ADAD
102
{ACAD_REACTORS
330
ADAC
102
}
330
ADAC
100
AcDbXrecord
280
     1
290
     1
  0
XRECORD
  5
ADAF
102
{ACAD_REACTORS
330
ADAE
102
}
330
ADAE
100
AcDbXrecord
280
     1
290
     1
  0
XRECORD
  5
ADB1
102
{ACAD_REACTORS
330
ADB0
102
}
330
ADB0
100
AcDbXrecord
280
     1
290
     1
  0
XRECORD
  5
ADB3
102
{ACAD_REACTORS
330
ADB2
102
}
330
ADB2
100
AcDbXrecord
280
     1
290
     1
  0
XRECORD
  5
ADB5
102
{ACAD_REACTORS
330
ADB4
102
}
330
ADB4
100
AcDbXrecord
280
     1
290
     1
  0
XRECORD
  5
ADB7
102
{ACAD_REACTORS
330
ADB6
102
}
330
ADB6
100
AcDbXrecord
280
     1
290
     1
  0
XRECORD
  5
ADB9
102
{ACAD_REACTORS
330
ADB8
102
}
330
ADB8
100
AcDbXrecord
280
     1
290
     1
  0
XRECORD
  5
ADBB
102
{ACAD_REACTORS
330
ADBA
102
}
330
ADBA
100
AcDbXrecord
280
     1
290
     1
  0
XRECORD
  5
AD55
102
{ACAD_REACTORS
330
AD54
102
}
330
AD54
100
AcDbXrecord
280
     1
340
AAD4
  0
XRECORD
  5
AD53
102
{ACAD_REACTORS
330
AD52
102
}
330
AD52
100
AcDbXrecord
280
     1
340
AAD0
  0
ACDBDETAILVIEWSTYLE
  5
ADA7
102
{ACAD_XDICTIONARY
360
AE02
102
}
102
{ACAD_REACTORS
330
ADA6
102
}
330
ADA6
100
AcDbModelDocViewStyle
 70
     0
  3
Imperial24
290
     0
100
AcDbDetailViewStyle
 70
     0
 71
     0
 90
        3
 71
     1
340
AAC7
 40
0.24
340
0
 40
0.24
300

 40
0.36
280
     3
 71
     2
340
AACB
 90
       25
 71
     3
340
AAC7
 40
0.24
 90
        1
 40
0.75
 90
        1
300
%<\AcVar ViewType \f "%tc1">% %<\AcVar ViewDetailId>%\PSCALE %<\AcVar ViewScale \f "%sn">%
 71
     4
340
AACB
 90
       25
340
AACB
 90
       25
280
     0
  0
LAYOUT
  5
ADA8
102
{ACAD_XDICTIONARY
360
AE04
102
}
102
{ACAD_REACTORS
330
AACF
102
}
330
AACF
100
AcDbPlotSettings
  1

  2
Canon LBP9100C
  4

  6

 40
0.0
 41
0.0
 42
0.0
 43
0.0
 44
0.0
 45
0.0
 46
0.0
 47
0.0
 48
0.0
 49
0.0
140
0.0
141
0.0
142
1.0
143
1.0
 70
  1712
 72
     0
 73
     0
 74
     0
  7

 75
     0
147
1.0
148
0.0
149
0.0
100
AcDbLayout
  1
Model
 70
     1
 71
     0
 10
0.0
 20
0.0
 11
12.0
 21
9.0
 12
0.0
 22
0.0
 32
0.0
 14
0.0
 24
0.0
 34
0.0
 15
0.0
 25
0.0
 35
0.0
146
0.0
 13
0.0
 23
0.0
 33
0.0
 16
1.0
 26
0.0
 36
0.0
 17
0.0
 27
1.0
 37
0.0
 76
     0
330
AAD4
331
AD51
  0
LAYOUT
  5
ADA9
102
{ACAD_XDICTIONARY
360
AE06
102
}
102
{ACAD_REACTORS
330
AACF
102
}
330
AACF
100
AcDbPlotSettings
  1

  2
Canon LBP9100C
  4

  6

 40
0.0
 41
0.0
 42
0.0
 43
0.0
 44
0.0
 45
0.0
 46
0.0
 47
0.0
 48
0.0
 49
0.0
140
0.0
141
0.0
142
1.0
143
1.0
 70
   688
 72
     0
 73
     0
 74
     5
  7

 75
    16
147
1.0
148
0.0
149
0.0
100
AcDbLayout
  1
レイアウト1
 70
     0
 71
     1
 10
0.0
 20
0.0
 11
420.0
 21
297.0
 12
0.0
 22
0.0
 32
0.0
 14
1.000000000000000E+20
 24
1.000000000000000E+20
 34
1.000000000000000E+20
 15
-1.000000000000000E+20
 25
-1.000000000000000E+20
 35
-1.000000000000000E+20
146
0.0
 13
0.0
 23
0.0
 33
0.0
 16
1.0
 26
0.0
 36
0.0
 17
0.0
 27
1.0
 37
0.0
 76
     0
330
AAD0
  0
MATERIAL
  5
AD64
102
{ACAD_XDICTIONARY
360
AD65
102
}
102
{ACAD_REACTORS
330
AD5B
102
}
330
AD5B
100
AcDbMaterial
  1
ByBlock
 72
     0
 43
0.0208333333333333
 43
0.0
 43
0.0
 43
0.0
 43
0.0
 43
0.0208333333333333
 43
0.0
 43
0.0
 43
0.0
 43
0.0
 43
1.0
 43
0.0
 43
0.0
 43
0.0
 43
0.0
 43
1.0
 77
     0
 47
0.0208333333333333
 47
0.0
 47
0.0
 47
0.0
 47
0.0
 47
0.0208333333333333
 47
0.0
 47
0.0
 47
0.0
 47
0.0
 47
1.0
 47
0.0
 47
0.0
 47
0.0
 47
0.0
 47
1.0
171
     0
 49
0.0208333333333333
 49
0.0
 49
0.0
 49
0.0
 49
0.0
 49
0.0208333333333333
 49
0.0
 49
0.0
 49
0.0
 49
0.0
 49
1.0
 49
0.0
 49
0.0
 49
0.0
 49
0.0
 49
1.0
175
     0
142
0.0208333333333333
142
0.0
142
0.0
142
0.0
142
0.0
142
0.0208333333333333
142
0.0
142
0.0
142
0.0
142
0.0
142
1.0
142
0.0
142
0.0
142
0.0
142
0.0
142
1.0
179
     0
144
0.0208333333333333
144
0.0
144
0.0
144
0.0
144
0.0
144
0.0208333333333333
144
0.0
144
0.0
144
0.0
144
0.0
144
1.0
144
0.0
144
0.0
144
0.0
144
0.0
144
1.0
147
0.0208333333333333
147
0.0
147
0.0
147
0.0
147
0.0
147
0.0208333333333333
147
0.0
147
0.0
147
0.0
147
0.0
147
1.0
147
0.0
147
0.0
147
0.0
147
0.0
147
1.0
  0
MATERIAL
  5
AD5C
102
{ACAD_XDICTIONARY
360
AD5D
102
}
102
{ACAD_REACTORS
330
AD5B
102
}
330
AD5B
100
AcDbMaterial
  1
ByLayer
 72
     0
 43
0.0208333333333333
 43
0.0
 43
0.0
 43
0.0
 43
0.0
 43
0.0208333333333333
 43
0.0
 43
0.0
 43
0.0
 43
0.0
 43
1.0
 43
0.0
 43
0.0
 43
0.0
 43
0.0
 43
1.0
 77
     0
 47
0.0208333333333333
 47
0.0
 47
0.0
 47
0.0
 47
0.0
 47
0.0208333333333333
 47
0.0
 47
0.0
 47
0.0
 47
0.0
 47
1.0
 47
0.0
 47
0.0
 47
0.0
 47
0.0
 47
1.0
171
     0
 49
0.0208333333333333
 49
0.0
 49
0.0
 49
0.0
 49
0.0
 49
0.0208333333333333
 49
0.0
 49
0.0
 49
0.0
 49
0.0
 49
1.0
 49
0.0
 49
0.0
 49
0.0
 49
0.0
 49
1.0
175
     0
142
0.0208333333333333
142
0.0
142
0.0
142
0.0
142
0.0
142
0.0208333333333333
142
0.0
142
0.0
142
0.0
142
0.0
142
1.0
142
0.0
142
0.0
142
0.0
142
0.0
142
1.0
179
     0
144
0.0208333333333333
144
0.0
144
0.0
144
0.0
144
0.0
144
0.0208333333333333
144
0.0
144
0.0
144
0.0
144
0.0
144
1.0
144
0.0
144
0.0
144
0.0
144
0.0
144
1.0
147
0.0208333333333333
147
0.0
147
0.0
147
0.0
147
0.0
147
0.0208333333333333
147
0.0
147
0.0
147
0.0
147
0.0
147
1.0
147
0.0
147
0.0
147
0.0
147
0.0
147
1.0
  0
MATERIAL
  5
AD6C
102
{ACAD_XDICTIONARY
360
AD6D
102
}
102
{ACAD_REACTORS
330
AD5B
102
}
330
AD5B
100
AcDbMaterial
  1
Global
 72
     0
 43
0.0208333333333333
 43
0.0
 43
0.0
 43
0.0
 43
0.0
 43
0.0208333333333333
 43
0.0
 43
0.0
 43
0.0
 43
0.0
 43
1.0
 43
0.0
 43
0.0
 43
0.0
 43
0.0
 43
1.0
 77
     0
 47
0.0208333333333333
 47
0.0
 47
0.0
 47
0.0
 47
0.0
 47
0.0208333333333333
 47
0.0
 47
0.0
 47
0.0
 47
0.0
 47
1.0
 47
0.0
 47
0.0
 47
0.0
 47
0.0
 47
1.0
171
     0
 49
0.0208333333333333
 49
0.0
 49
0.0
 49
0.0
 49
0.0
 49
0.0208333333333333
 49
0.0
 49
0.0
 49
0.0
 49
0.0
 49
1.0
 49
0.0
 49
0.0
 49
0.0
 49
0.0
 49
1.0
175
     0
142
0.0208333333333333
142
0.0
142
0.0
142
0.0
142
0.0
142
0.0208333333333333
142
0.0
142
0.0
142
0.0
142
0.0
142
1.0
142
0.0
142
0.0
142
0.0
142
0.0
142
1.0
179
     0
144
0.0208333333333333
144
0.0
144
0.0
144
0.0
144
0.0
144
0.0208333333333333
144
0.0
144
0.0
144
0.0
144
0.0
144
1.0
144
0.0
144
0.0
144
0.0
144
0.0
144
1.0
147
0.0208333333333333
147
0.0
147
0.0
147
0.0
147
0.0
147
0.0208333333333333
147
0.0
147
0.0
147
0.0
147
0.0
147
1.0
147
0.0
147
0.0
147
0.0
147
0.0
147
1.0
  0
MLEADERSTYLE
  5
ADA3
102
{ACAD_REACTORS
330
ADA2
102
}
330
ADA2
100
AcDbMLeaderStyle
170
     2
171
     1
172
     0
 90
        2
 40
0.0
 41
0.0
173
     1
 91
-1056964608
340
AAC9
 92
       -2
290
     1
 42
0.09
291
     1
 43
0.36
  3
Standard
 44
0.18
300

342
AAC7
174
     1
178
     6
175
     1
176
     0
 93
-1056964608
 45
0.18
292
     0
297
     0
 46
0.18
 94
-1056964608
 47
1.0
 49
1.0
140
1.0
293
     1
141
0.0
294
     1
177
     0
142
1.0
295
     0
296
     0
143
0.125
1001
ACAD_MLEADERVER
1070
     2
  0
MLINESTYLE
  5
AACD
102
{ACAD_REACTORS
330
AACC
102
}
330
AACC
100
AcDbMlineStyle
  2
STANDARD
 70
     0
  3

 62
   256
 51
90.0
 52
90.0
 71
     2
 49
0.5
 62
   256
  6
BYLAYER
 49
-0.5
 62
   256
  6
BYLAYER
  0
ACDBPLACEHOLDER
  5
AD5A
102
{ACAD_REACTORS
330
AD59
102
}
330
AD59
  0
SCALE
  5
AD91
102
{ACAD_REACTORS
330
AD90
102
}
330
AD90
100
AcDbScale
 70
     0
300
1:1
140
1.0
141
1.0
290
     1
  0
SCALE
  5
AD92
102
{ACAD_REACTORS
330
AD90
102
}
330
AD90
100
AcDbScale
 70
     0
300
1/128" = 1'-0"
140
0.0078125
141
12.0
290
     0
  0
SCALE
  5
AD93
102
{ACAD_REACTORS
330
AD90
102
}
330
AD90
100
AcDbScale
 70
     0
300
1/64" = 1'-0"
140
0.015625
141
12.0
290
     0
  0
SCALE
  5
AD94
102
{ACAD_REACTORS
330
AD90
102
}
330
AD90
100
AcDbScale
 70
     0
300
1/32" = 1'-0"
140
0.03125
141
12.0
290
     0
  0
SCALE
  5
AD95
102
{ACAD_REACTORS
330
AD90
102
}
330
AD90
100
AcDbScale
 70
     0
300
1/16" = 1'-0"
140
0.0625
141
12.0
290
     0
  0
SCALE
  5
AD96
102
{ACAD_REACTORS
330
AD90
102
}
330
AD90
100
AcDbScale
 70
     0
300
3/32" = 1'-0"
140
0.09375
141
12.0
290
     0
  0
SCALE
  5
AD97
102
{ACAD_REACTORS
330
AD90
102
}
330
AD90
100
AcDbScale
 70
     0
300
1/8" = 1'-0"
140
0.125
141
12.0
290
     0
  0
SCALE
  5
AD98
102
{ACAD_REACTORS
330
AD90
102
}
330
AD90
100
AcDbScale
 70
     0
300
3/16" = 1'-0"
140
0.1875
141
12.0
290
     0
  0
SCALE
  5
AD99
102
{ACAD_REACTORS
330
AD90
102
}
330
AD90
100
AcDbScale
 70
     0
300
1/4" = 1'-0"
140
0.25
141
12.0
290
     0
  0
SCALE
  5
AD9A
102
{ACAD_REACTORS
330
AD90
102
}
330
AD90
100
AcDbScale
 70
     0
300
3/8" = 1'-0"
140
0.375
141
12.0
290
     0
  0
SCALE
  5
AD9B
102
{ACAD_REACTORS
330
AD90
102
}
330
AD90
100
AcDbScale
 70
     0
300
1/2" = 1'-0"
140
0.5
141
12.0
290
     0
  0
SCALE
  5
AD9C
102
{ACAD_REACTORS
330
AD90
102
}
330
AD90
100
AcDbScale
 70
     0
300
3/4" = 1'-0"
140
0.75
141
12.0
290
     0
  0
SCALE
  5
AD9D
102
{ACAD_REACTORS
330
AD90
102
}
330
AD90
100
AcDbScale
 70
     0
300
1" = 1'-0"
140
1.0
141
12.0
290
     0
  0
SCALE
  5
AD9E
102
{ACAD_REACTORS
330
AD90
102
}
330
AD90
100
AcDbScale
 70
     0
300
1-1/2" = 1'-0"
140
1.5
141
12.0
290
     0
  0
SCALE
  5
AD9F
102
{ACAD_REACTORS
330
AD90
102
}
330
AD90
100
AcDbScale
 70
     0
300
3" = 1'-0"
140
3.0
141
12.0
290
     0
  0
SCALE
  5
ADA0
102
{ACAD_REACTORS
330
AD90
102
}
330
AD90
100
AcDbScale
 70
     0
300
6" = 1'-0"
140
6.0
141
12.0
290
     0
  0
SCALE
  5
ADA1
102
{ACAD_REACTORS
330
AD90
102
}
330
AD90
100
AcDbScale
 70
     0
300
1'-0" = 1'-0"
140
12.0
141
12.0
290
     0
  0
ACDBSECTIONVIEWSTYLE
  5
ADA5
102
{ACAD_XDICTIONARY
360
AE00
102
}
102
{ACAD_REACTORS
330
ADA4
102
}
330
ADA4
100
AcDbModelDocViewStyle
 70
     0
  3
Imperial24
290
     0
100
AcDbSectionViewStyle
 70
     0
 71
     0
 90
       78
 71
     1
340
AAC7
 40
0.24
340
0
340
0
 40
0.24
300
I, O, Q, S, X, Z
 40
0.48
 90
        3
 40
0.18
 90
        1
 71
     2
340
AACB
 90
       25
340
AACB
 90
       50
 40
0.24
 40
0.0
 40
0.24
 71
     3
340
AAC7
 40
0.24
 90
        1
 40
0.75
 90
        1
300
%<\AcVar ViewType \f "%tc1">% %<\AcVar ViewSectionStartId>%-%<\AcVar ViewSectionEndId>%\PSCALE %<\AcVar ViewScale \f "%sn">%
 71
     4
300
ANSI31
 40
1.0
 90
        0
290
     0
290
     0
 90
        6
 40
0.0
 40
1.570796326794896
 40
0.2617993877991494
 40
1.308996938995747
 40
-0.2617993877991494
 40
1.832595714594046
  0
TABLESTYLE
  5
AD8F
102
{ACAD_XDICTIONARY
360
ADC7
102
}
102
{ACAD_REACTORS
330
AD8E
102
}
330
AD8E
100
AcDbTableStyle
  3
Standard
 70
     0
 71
     0
 40
0.06
 41
0.06
280
     0
281
     0
  7
STANDARD
140
0.18
170
     2
 62
     0
 63
     7
283
     0
274
    -2
284
     1
 64
     0
275
    -2
285
     1
 65
     0
276
    -2
286
     1
 66
     0
277
    -2
287
     1
 67
     0
278
    -2
288
     1
 68
     0
279
    -2
289
     1
 69
     0
  7
STANDARD
140
0.25
170
     5
 62
     0
 63
     7
283
     0
274
    -2
284
     1
 64
     0
275
    -2
285
     1
 65
     0
276
    -2
286
     1
 66
     0
277
    -2
287
     1
 67
     0
278
    -2
288
     1
 68
     0
279
    -2
289
     1
 69
     0
  7
STANDARD
140
0.18
170
     5
 62
     0
 63
     7
283
     0
274
    -2
284
     1
 64
     0
275
    -2
285
     1
 65
     0
276
    -2
286
     1
 66
     0
277
    -2
287
     1
 67
     0
278
    -2
288
     1
 68
     0
279
    -2
289
     1
 69
     0
  0
VISUALSTYLE
  5
AD7A
102
{ACAD_XDICTIONARY
360
ADD8
102
}
102
{ACAD_REACTORS
330
AD74
102
}
330
AD74
100
AcDbVisualStyle
  2
2dWireframe
 70
     4
 71
     0
 72
     2
 73
     0
 90
        0
 40
-0.6
 41
-30.0
 62
     5
 63
     7
 74
     1
 91
        4
 64
     7
 65
   257
 75
     1
175
     1
 42
1.0
 92
        0
 66
   257
 43
1.0
 76
     1
 77
     6
 78
     2
 67
     7
 79
     5
170
     0
171
     0
290
     0
174
     0
 93
        1
 44
0.0
173
     0
291
     0
 45
0.0
1001
ACAD
1000
AcDbSavedByObjectVersion
1070
     0
  0
VISUALSTYLE
  5
AD79
102
{ACAD_XDICTIONARY
360
ADD6
102
}
102
{ACAD_REACTORS
330
AD74
102
}
330
AD74
100
AcDbVisualStyle
  2
Basic
 70
     7
 71
     1
 72
     0
 73
     1
 90
        0
 40
-0.6
 41
-30.0
 62
     5
 63
     7
 74
     0
 91
        4
 64
     7
 65
   257
 75
     1
175
     1
 42
1.0
 92
        8
 66
     7
 43
1.0
 76
     1
 77
     6
 78
     2
 67
     7
 79
     5
170
     0
171
     0
290
     0
174
     0
 93
        1
 44
0.0
173
     0
291
     1
 45
0.0
1001
ACAD
1000
AcDbSavedByObjectVersion
1070
     0
  0
VISUALSTYLE
  5
AD80
102
{ACAD_XDICTIONARY
360
ADE4
102
}
102
{ACAD_REACTORS
330
AD74
102
}
330
AD74
100
AcDbVisualStyle
  2
Brighten
 70
    12
 71
     2
 72
     2
 73
     0
 90
        0
 40
-0.6
 41
-30.0
 62
     5
 63
     7
 74
     1
 91
        4
 64
     7
 65
   257
 75
     1
175
     1
 42
1.0
 92
        8
 66
     7
 43
1.0
 76
     1
 77
     6
 78
     2
 67
     7
 79
     5
170
     0
171
     0
290
     0
174
     0
 93
        1
 44
50.0
173
     0
291
     1
 45
0.0
1001
ACAD
1000
AcDbSavedByObjectVersion
1070
     0
  0
VISUALSTYLE
  5
AD84
102
{ACAD_XDICTIONARY
360
ADEC
102
}
102
{ACAD_REACTORS
330
AD74
102
}
330
AD74
100
AcDbVisualStyle
  2
ColorChange
 70
    16
 71
     2
 72
     2
 73
     3
 90
        0
 40
-0.6
 41
-30.0
 62
     5
 63
     8
 74
     1
 91
        4
 64
     7
 65
   257
 75
     1
175
     1
 42
1.0
 92
        8
 66
     8
 43
1.0
 76
     1
 77
     6
 78
     2
 67
     7
 79
     5
170
     0
171
     0
290
     0
174
     0
 93
        1
 44
0.0
173
     0
291
     1
 45
0.0
1001
ACAD
1000
AcDbSavedByObjectVersion
1070
     0
  0
VISUALSTYLE
  5
AD7D
102
{ACAD_XDICTIONARY
360
ADDE
102
}
102
{ACAD_REACTORS
330
AD74
102
}
330
AD74
100
AcDbVisualStyle
  2
Conceptual
 70
     9
 71
     3
 72
     2
 73
     0
 90
        0
 40
-0.6
 41
-30.0
 62
     5
 63
     7
 74
     2
 91
        2
 64
     7
 65
   257
 75
     1
175
     1
 42
179.0
 92
        8
 66
     7
 43
1.0
 76
     1
 77
     6
 78
     2
 67
     7
 79
     3
170
     0
171
     0
290
     0
174
     0
 93
        1
 44
0.0
173
     0
291
     0
 45
0.0
1001
ACAD
1000
AcDbSavedByObjectVersion
1070
     0
  0
VISUALSTYLE
  5
AD7F
102
{ACAD_XDICTIONARY
360
ADE2
102
}
102
{ACAD_REACTORS
330
AD74
102
}
330
AD74
100
AcDbVisualStyle
  2
Dim
 70
    11
 71
     2
 72
     2
 73
     0
 90
        0
 40
-0.6
 41
-30.0
 62
     5
 63
     7
 74
     1
 91
        4
 64
     7
 65
   257
 75
     1
175
     1
 42
1.0
 92
        8
 66
     7
 43
1.0
 76
     1
 77
     6
 78
     2
 67
     7
 79
     5
170
     0
171
     0
290
     0
174
     0
 93
        1
 44
-50.0
173
     0
291
     1
 45
0.0
1001
ACAD
1000
AcDbSavedByObjectVersion
1070
     0
  0
VISUALSTYLE
  5
AD8C
102
{ACAD_XDICTIONARY
360
ADFC
102
}
102
{ACAD_REACTORS
330
AD74
102
}
330
AD74
100
AcDbVisualStyle
  2
EdgeColorOff
 70
    22
 71
     2
 72
     2
 73
     0
 90
        0
 40
-0.6
 41
-30.0
 62
     5
 63
     7
 74
     1
 91
        4
 64
     7
 65
   257
 75
     1
175
     1
 42
1.0
 92
        8
 66
     7
 43
1.0
 76
     1
 77
     6
 78
     2
 67
     7
 79
     5
170
     0
171
     0
290
     0
174
     0
 93
        1
 44
0.0
173
     0
291
     1
 45
0.0
1001
ACAD
1000
AcDbSavedByObjectVersion
1070
     0
  0
VISUALSTYLE
  5
AD83
102
{ACAD_XDICTIONARY
360
ADEA
102
}
102
{ACAD_REACTORS
330
AD74
102
}
330
AD74
100
AcDbVisualStyle
  2
Facepattern
 70
    15
 71
     2
 72
     2
 73
     0
 90
        0
 40
-0.6
 41
-30.0
 62
     5
 63
     7
 74
     1
 91
        4
 64
     7
 65
   257
 75
     1
175
     1
 42
1.0
 92
        8
 66
     7
 43
1.0
 76
     1
 77
     6
 78
     2
 67
     7
 79
     5
170
     0
171
     0
290
     0
174
     0
 93
        1
 44
0.0
173
     0
291
     1
 45
0.0
1001
ACAD
1000
AcDbSavedByObjectVersion
1070
     0
  0
VISUALSTYLE
  5
AD75
102
{ACAD_XDICTIONARY
360
ADCE
102
}
102
{ACAD_REACTORS
330
AD74
102
}
330
AD74
100
AcDbVisualStyle
  2
Flat
 70
     0
 71
     2
 72
     1
 73
     1
 90
        2
 40
-0.6
 41
30.0
 62
     5
 63
     7
 74
     0
 91
        0
 64
     7
 65
   257
 75
     1
175
     1
 42
1.0
 92
        8
 66
     7
 43
1.0
 76
     1
 77
     6
 78
     2
 67
     7
 79
     5
170
     0
171
     0
290
     0
174
     0
 93
       13
 44
0.0
173
     0
291
     1
 45
0.0
1001
ACAD
1000
AcDbSavedByObjectVersion
1070
     0
  0
VISUALSTYLE
  5
AD76
102
{ACAD_XDICTIONARY
360
ADD0
102
}
102
{ACAD_REACTORS
330
AD74
102
}
330
AD74
100
AcDbVisualStyle
  2
FlatWithEdges
 70
     1
 71
     2
 72
     1
 73
     1
 90
        2
 40
-0.6
 41
30.0
 62
     5
 63
     7
 74
     1
 91
        0
 64
     7
 65
   257
 75
     1
175
     1
 42
1.0
 92
        0
 66
   257
 43
1.0
 76
     1
 77
     6
 78
     2
 67
     7
 79
     5
170
     0
171
     0
290
     0
174
     0
 93
       13
 44
0.0
173
     0
291
     1
 45
0.0
1001
ACAD
1000
AcDbSavedByObjectVersion
1070
     0
  0
VISUALSTYLE
  5
AD77
102
{ACAD_XDICTIONARY
360
ADD2
102
}
102
{ACAD_REACTORS
330
AD74
102
}
330
AD74
100
AcDbVisualStyle
  2
Gouraud
 70
     2
 71
     2
 72
     2
 73
     1
 90
        2
 40
-0.6
 41
30.0
 62
     5
 63
     7
 74
     0
 91
        0
 64
     7
 65
   257
 75
     1
175
     1
 42
1.0
 92
        0
 66
     7
 43
1.0
 76
     1
 77
     6
 78
     2
 67
     7
 79
     5
170
     0
171
     0
290
     0
174
     0
 93
       13
 44
0.0
173
     0
291
     1
 45
0.0
1001
ACAD
1000
AcDbSavedByObjectVersion
1070
     0
  0
VISUALSTYLE
  5
AD78
102
{ACAD_XDICTIONARY
360
ADD4
102
}
102
{ACAD_REACTORS
330
AD74
102
}
330
AD74
100
AcDbVisualStyle
  2
GouraudWithEdges
 70
     3
 71
     2
 72
     2
 73
     1
 90
        2
 40
-0.6
 41
30.0
 62
     5
 63
     7
 74
     1
 91
        0
 64
     7
 65
   257
 75
     1
175
     1
 42
1.0
 92
        0
 66
   257
 43
1.0
 76
     1
 77
     6
 78
     2
 67
     7
 79
     5
170
     0
171
     0
290
     0
174
     0
 93
       13
 44
0.0
173
     0
291
     1
 45
0.0
1001
ACAD
1000
AcDbSavedByObjectVersion
1070
     0
  0
VISUALSTYLE
  5
AD7C
102
{ACAD_XDICTIONARY
360
ADDC
102
}
102
{ACAD_REACTORS
330
AD74
102
}
330
AD74
100
AcDbVisualStyle
  2
Hidden
 70
     6
 71
     1
 72
     2
 73
     2
 90
        0
 40
-0.6
 41
-30.0
 62
     5
 63
     7
 74
     2
 91
        2
 64
     7
 65
   257
 75
     2
175
     1
 42
40.0
 92
        0
 66
   257
 43
1.0
 76
     1
 77
     6
 78
     2
 67
     7
 79
     3
170
     0
171
     0
290
     0
174
     0
 93
        1
 44
0.0
173
     0
291
     0
 45
0.0
1001
ACAD
1000
AcDbSavedByObjectVersion
1070
     0
  0
VISUALSTYLE
  5
AD8A
102
{ACAD_XDICTIONARY
360
ADF8
102
}
102
{ACAD_REACTORS
330
AD74
102
}
330
AD74
100
AcDbVisualStyle
  2
JitterOff
 70
    20
 71
     2
 72
     2
 73
     0
 90
        0
 40
-0.6
 41
-30.0
 62
     5
 63
     7
 74
     1
 91
        4
 64
     7
 65
   257
 75
     1
175
     1
 42
1.0
 92
       10
 66
     7
 43
1.0
 76
     1
 77
     6
 78
     2
 67
     7
 79
     5
170
     0
171
     0
290
     0
174
     0
 93
        1
 44
0.0
173
     0
291
     1
 45
0.0
1001
ACAD
1000
AcDbSavedByObjectVersion
1070
     0
  0
VISUALSTYLE
  5
AD82
102
{ACAD_XDICTIONARY
360
ADE8
102
}
102
{ACAD_REACTORS
330
AD74
102
}
330
AD74
100
AcDbVisualStyle
  2
Linepattern
 70
    14
 71
     2
 72
     2
 73
     0
 90
        0
 40
-0.6
 41
-30.0
 62
     5
 63
     7
 74
     1
 91
        4
 64
     7
 65
   257
 75
     7
175
     7
 42
1.0
 92
        8
 66
     7
 43
1.0
 76
     1
 77
     6
 78
     2
 67
     7
 79
     5
170
     0
171
     0
290
     0
174
     0
 93
        1
 44
0.0
173
     0
291
     1
 45
0.0
1001
ACAD
1000
AcDbSavedByObjectVersion
1070
     0
  0
VISUALSTYLE
  5
AD8B
102
{ACAD_XDICTIONARY
360
ADFA
102
}
102
{ACAD_REACTORS
330
AD74
102
}
330
AD74
100
AcDbVisualStyle
  2
OverhangOff
 70
    21
 71
     2
 72
     2
 73
     0
 90
        0
 40
-0.6
 41
-30.0
 62
     5
 63
     7
 74
     1
 91
        4
 64
     7
 65
   257
 75
     1
175
     1
 42
1.0
 92
        9
 66
     7
 43
1.0
 76
     1
 77
     6
 78
     2
 67
     7
 79
     5
170
     0
171
     0
290
     0
174
     0
 93
        1
 44
0.0
173
     0
291
     1
 45
0.0
1001
ACAD
1000
AcDbSavedByObjectVersion
1070
     0
  0
VISUALSTYLE
  5
AD7E
102
{ACAD_XDICTIONARY
360
ADE0
102
}
102
{ACAD_REACTORS
330
AD74
102
}
330
AD74
100
AcDbVisualStyle
  2
Realistic
 70
     8
 71
     2
 72
     3
 73
     0
 90
        2
 40
-0.6
 41
30.0
 62
     5
 63
     7
 74
     0
 91
        0
 64
     7
 65
   257
 75
     1
175
     1
 42
1.0
 92
        8
 66
   257
 43
1.0
 76
     1
 77
     6
 78
     2
 67
     7
 79
     3
170
     0
171
     0
290
     0
174
     0
 93
       13
 44
0.0
173
     0
291
     0
 45
0.0
1001
ACAD
1000
AcDbSavedByObjectVersion
1070
     0
  0
VISUALSTYLE
  5
AD89
102
{ACAD_XDICTIONARY
360
ADF6
102
}
102
{ACAD_REACTORS
330
AD74
102
}
330
AD74
100
AcDbVisualStyle
  2
Shaded
 70
    27
 71
     2
 72
     2
 73
     1
 90
        2
 40
-0.6
 41
30.0
 62
     5
 63
     7
 74
     0
 91
        4
 64
     7
 65
   257
 75
     1
175
     1
 42
1.0
 92
        8
 66
   257
 43
1.0
 76
     1
 77
     6
 78
     2
 67
     8
 79
     3
170
     0
171
     0
290
     0
174
     0
 93
        5
 44
0.0
173
     0
291
     0
 45
0.0
1001
ACAD
1000
AcDbSavedByObjectVersion
1070
     0
  0
VISUALSTYLE
  5
AD88
102
{ACAD_XDICTIONARY
360
ADF4
102
}
102
{ACAD_REACTORS
330
AD74
102
}
330
AD74
100
AcDbVisualStyle
  2
Shaded with edges
 70
    26
 71
     2
 72
     2
 73
     1
 90
        2
 40
-0.6
 41
30.0
 62
     5
 63
     7
 74
     1
 91
       10
 64
     7
 65
   257
 75
     2
175
     1
 42
1.0
 92
        8
 66
   257
 43
1.0
 76
     1
 77
     6
 78
     2
 67
     7
 79
     3
170
     0
171
     0
290
     0
174
     0
 93
        5
 44
0.0
173
     0
291
     0
 45
0.0
1001
ACAD
1000
AcDbSavedByObjectVersion
1070
     0
  0
VISUALSTYLE
  5
AD85
102
{ACAD_XDICTIONARY
360
ADEE
102
}
102
{ACAD_REACTORS
330
AD74
102
}
330
AD74
100
AcDbVisualStyle
  2
Shades of Gray
 70
    23
 71
     2
 72
     2
 73
     3
 90
        0
 40
-0.6
 41
-30.0
 62
     5
 63
     7
 74
     2
 91
        2
 64
     7
 65
     7
 75
     1
175
     1
 42
40.0
 92
        8
 66
     7
 43
1.0
 76
     1
 77
     6
 78
     2
 67
     7
 79
     3
170
     0
171
     0
290
     0
174
     0
 93
        1
 44
0.0
173
     0
291
     0
 45
0.0
1001
ACAD
1000
AcDbSavedByObjectVersion
1070
     0
  0
VISUALSTYLE
  5
AD86
102
{ACAD_XDICTIONARY
360
ADF0
102
}
102
{ACAD_REACTORS
330
AD74
102
}
330
AD74
100
AcDbVisualStyle
  2
Sketchy
 70
    24
 71
     1
 72
     2
 73
     2
 90
        0
 40
-0.6
 41
-30.0
 62
     5
 63
     7
 74
     2
 91
        2
 64
     7
 65
     7
 75
     1
175
     1
 42
40.0
 92
       11
 66
     7
 43
1.0
 76
     1
 77
     6
 78
     2
 67
     7
 79
     6
170
     0
171
     0
290
     0
174
     0
 93
        1
 44
0.0
173
     0
291
     0
 45
0.0
1001
ACAD
1000
AcDbSavedByObjectVersion
1070
     0
  0
VISUALSTYLE
  5
AD81
102
{ACAD_XDICTIONARY
360
ADE6
102
}
102
{ACAD_REACTORS
330
AD74
102
}
330
AD74
100
AcDbVisualStyle
  2
Thicken
 70
    13
 71
     2
 72
     2
 73
     0
 90
        0
 40
-0.6
 41
-30.0
 62
     5
 63
     7
 74
     1
 91
        4
 64
     7
 65
   257
 75
     1
175
     1
 42
1.0
 92
       12
 66
     7
 43
1.0
 76
     1
 77
     6
 78
     2
 67
     7
 79
     5
170
     0
171
     0
290
     0
174
     0
 93
        1
 44
0.0
173
     0
291
     1
 45
0.0
1001
ACAD
1000
AcDbSavedByObjectVersion
1070
     0
  0
VISUALSTYLE
  5
AD7B
102
{ACAD_XDICTIONARY
360
ADDA
102
}
102
{ACAD_REACTORS
330
AD74
102
}
330
AD74
100
AcDbVisualStyle
  2
Wireframe
 70
     5
 71
     0
 72
     2
 73
     0
 90
        0
 40
-0.6
 41
-30.0
 62
     5
 63
     7
 74
     1
 91
        4
 64
     7
 65
   257
 75
     1
175
     1
 42
1.0
 92
        0
 66
   257
 43
1.0
 76
     1
 77
     6
 78
     2
 67
     7
 79
     3
170
     0
171
     0
290
     0
174
     0
 93
        1
 44
0.0
173
     0
291
     0
 45
0.0
1001
ACAD
1000
AcDbSavedByObjectVersion
1070
     0
  0
VISUALSTYLE
  5
AD87
102
{ACAD_XDICTIONARY
360
ADF2
102
}
102
{ACAD_REACTORS
330
AD74
102
}
330
AD74
100
AcDbVisualStyle
  2
X-Ray
 70
    25
 71
     2
 72
     2
 73
     1
 90
        1
 40
0.5
 41
-30.0
 62
     5
 63
     7
 74
     1
 91
        0
 64
     7
 65
   257
 75
     1
175
     1
 42
1.0
 92
        8
 66
     7
 43
1.0
 76
     1
 77
     6
 78
     2
 67
     7
 79
     3
170
     0
171
     0
290
     0
174
     0
 93
       13
 44
0.0
173
     0
291
     0
 45
0.0
1001
ACAD
1000
AcDbSavedByObjectVersion
1070
     0
  0
DICTIONARYVAR
  5
ADC1
102
{ACAD_REACTORS
330
ADBC
102
}
330
ADBC
100
DictionaryVariables
280
     0
  1
1:1
  0
DICTIONARYVAR
  5
ADBE
102
{ACAD_REACTORS
330
ADBC
102
}
330
ADBC
100
DictionaryVariables
280
     0
  1
STANDARD
  0
DICTIONARYVAR
  5
ADBD
102
{ACAD_REACTORS
330
ADBC
102
}
330
ADBC
100
DictionaryVariables
280
     0
  1
STANDARD
  0
DICTIONARYVAR
  5
ADBF
102
{ACAD_REACTORS
330
ADBC
102
}
330
ADBC
100
DictionaryVariables
280
     0
  1
Imperial24
  0
DICTIONARYVAR
  5
ADC0
102
{ACAD_REACTORS
330
ADBC
102
}
330
ADBC
100
DictionaryVariables
280
     0
  1
Imperial24
  0
DICTIONARYVAR
  5
ADC4
102
{ACAD_REACTORS
330
ADBC
102
}
330
ADBC
100
DictionaryVariables
280
     0
  1
1
  0
DICTIONARYVAR
  5
ADC3
102
{ACAD_REACTORS
330
ADBC
102
}
330
ADBC
100
DictionaryVariables
280
     0
  1
0
  0
DICTIONARYVAR
  5
ADC2
102
{ACAD_REACTORS
330
ADBC
102
}
330
ADBC
100
DictionaryVariables
280
     0
  1
127
  0
DICTIONARYVAR
  5
ADC5
102
{ACAD_REACTORS
330
ADBC
102
}
330
ADBC
100
DictionaryVariables
280
     0
  1
2
  0
DICTIONARY
  5
AE02
330
ADA7
100
AcDbDictionary
280
     1
281
     1
  3
ACAD_XREC_ROUNDTRIP
360
AE03
  0
DICTIONARY
  5
AE04
330
ADA8
100
AcDbDictionary
280
     1
281
     1
  3
ACAD_XREC_ROUNDTRIP
360
AE05
  0
DICTIONARY
  5
AE06
330
ADA9
100
AcDbDictionary
280
     1
281
     1
  3
ACAD_XREC_ROUNDTRIP
360
AE07
  0
DICTIONARY
  5
AD65
330
AD64
100
AcDbDictionary
280
     1
281
     1
  3
ACAD_XREC_ROUNDTRIP
360
ADCC
  3
BUMPTILE
360
AD67
  3
DIFFUSETILE
360
AD66
  3
OPACITYTILE
360
AD6A
  3
REFLECTIONTILE
360
AD69
  3
REFRACTIONTILE
360
AD6B
  3
SPECULARTILE
360
AD68
  0
DICTIONARY
  5
AD5D
330
AD5C
100
AcDbDictionary
280
     1
281
     1
  3
ACAD_XREC_ROUNDTRIP
360
ADCB
  3
BUMPTILE
360
AD5F
  3
DIFFUSETILE
360
AD5E
  3
OPACITYTILE
360
AD62
  3
REFLECTIONTILE
360
AD61
  3
REFRACTIONTILE
360
AD63
  3
SPECULARTILE
360
AD60
  0
DICTIONARY
  5
AD6D
330
AD6C
100
AcDbDictionary
280
     1
281
     1
  3
ACAD_XREC_ROUNDTRIP
360
ADCD
  3
BUMPTILE
360
AD6F
  3
DIFFUSETILE
360
AD6E
  3
OPACITYTILE
360
AD72
  3
REFLECTIONTILE
360
AD71
  3
REFRACTIONTILE
360
AD73
  3
SPECULARTILE
360
AD70
  0
DICTIONARY
  5
AE00
330
ADA5
100
AcDbDictionary
280
     1
281
     1
  3
ACAD_XREC_ROUNDTRIP
360
AE01
  0
DICTIONARY
  5
ADC7
330
AD8F
100
AcDbDictionary
280
     1
281
     1
  3
ACAD_ROUNDTRIP_2008_TABLESTYLE_CELLSTYLEMAP
360
ADC8
  3
ACAD_XREC_ROUNDTRIP
360
ADFE
  0
DICTIONARY
  5
ADD8
330
AD7A
100
AcDbDictionary
280
     1
281
     1
  3
ACAD_XREC_ROUNDTRIP
360
ADD9
  0
DICTIONARY
  5
ADD6
330
AD79
100
AcDbDictionary
280
     1
281
     1
  3
ACAD_XREC_ROUNDTRIP
360
ADD7
  0
DICTIONARY
  5
ADE4
330
AD80
100
AcDbDictionary
280
     1
281
     1
  3
ACAD_XREC_ROUNDTRIP
360
ADE5
  0
DICTIONARY
  5
ADEC
330
AD84
100
AcDbDictionary
280
     1
281
     1
  3
ACAD_XREC_ROUNDTRIP
360
ADED
  0
DICTIONARY
  5
ADDE
330
AD7D
100
AcDbDictionary
280
     1
281
     1
  3
ACAD_XREC_ROUNDTRIP
360
ADDF
  0
DICTIONARY
  5
ADE2
330
AD7F
100
AcDbDictionary
280
     1
281
     1
  3
ACAD_XREC_ROUNDTRIP
360
ADE3
  0
DICTIONARY
  5
ADFC
330
AD8C
100
AcDbDictionary
280
     1
281
     1
  3
ACAD_XREC_ROUNDTRIP
360
ADFD
  0
DICTIONARY
  5
ADEA
330
AD83
100
AcDbDictionary
280
     1
281
     1
  3
ACAD_XREC_ROUNDTRIP
360
ADEB
  0
DICTIONARY
  5
ADCE
330
AD75
100
AcDbDictionary
280
     1
281
     1
  3
ACAD_XREC_ROUNDTRIP
360
ADCF
  0
DICTIONARY
  5
ADD0
330
AD76
100
AcDbDictionary
280
     1
281
     1
  3
ACAD_XREC_ROUNDTRIP
360
ADD1
  0
DICTIONARY
  5
ADD2
330
AD77
100
AcDbDictionary
280
     1
281
     1
  3
ACAD_XREC_ROUNDTRIP
360
ADD3
  0
DICTIONARY
  5
ADD4
330
AD78
100
AcDbDictionary
280
     1
281
     1
  3
ACAD_XREC_ROUNDTRIP
360
ADD5
  0
DICTIONARY
  5
ADDC
330
AD7C
100
AcDbDictionary
280
     1
281
     1
  3
ACAD_XREC_ROUNDTRIP
360
ADDD
  0
DICTIONARY
  5
ADF8
330
AD8A
100
AcDbDictionary
280
     1
281
     1
  3
ACAD_XREC_ROUNDTRIP
360
ADF9
  0
DICTIONARY
  5
ADE8
330
AD82
100
AcDbDictionary
280
     1
281
     1
  3
ACAD_XREC_ROUNDTRIP
360
ADE9
  0
DICTIONARY
  5
ADFA
330
AD8B
100
AcDbDictionary
280
     1
281
     1
  3
ACAD_XREC_ROUNDTRIP
360
ADFB
  0
DICTIONARY
  5
ADE0
330
AD7E
100
AcDbDictionary
280
     1
281
     1
  3
ACAD_XREC_ROUNDTRIP
360
ADE1
  0
DICTIONARY
  5
ADF6
330
AD89
100
AcDbDictionary
280
     1
281
     1
  3
ACAD_XREC_ROUNDTRIP
360
ADF7
  0
DICTIONARY
  5
ADF4
330
AD88
100
AcDbDictionary
280
     1
281
     1
  3
ACAD_XREC_ROUNDTRIP
360
ADF5
  0
DICTIONARY
  5
ADEE
330
AD85
100
AcDbDictionary
280
     1
281
     1
  3
ACAD_XREC_ROUNDTRIP
360
ADEF
  0
DICTIONARY
  5
ADF0
330
AD86
100
AcDbDictionary
280
     1
281
     1
  3
ACAD_XREC_ROUNDTRIP
360
ADF1
  0
DICTIONARY
  5
ADE6
330
AD81
100
AcDbDictionary
280
     1
281
     1
  3
ACAD_XREC_ROUNDTRIP
360
ADE7
  0
DICTIONARY
  5
ADDA
330
AD7B
100
AcDbDictionary
280
     1
281
     1
  3
ACAD_XREC_ROUNDTRIP
360
ADDB
  0
DICTIONARY
  5
ADF2
330
AD87
100
AcDbDictionary
280
     1
281
     1
  3
ACAD_XREC_ROUNDTRIP
360
ADF3
  0
XRECORD
  5
AE03
102
{ACAD_REACTORS
330
AE02
102
}
330
AE02
100
AcDbXrecord
280
     1
102
DISPLAYNAME
  1
Imperial24
102
FLAGS
 90
        0
  0
XRECORD
  5
AE05
102
{ACAD_REACTORS
330
AE04
102
}
330
AE04
100
AcDbXrecord
280
     1
102
SHADEPLOT
 70
     0
102
SHADEPLOTRESLEVEL
 70
     2
102
SHADEPLOTCUSTOMDPI
 70
   300
  0
XRECORD
  5
AE07
102
{ACAD_REACTORS
330
AE06
102
}
330
AE06
100
AcDbXrecord
280
     1
102
SHADEPLOT
 70
     0
102
SHADEPLOTRESLEVEL
 70
     2
102
SHADEPLOTCUSTOMDPI
 70
   300
  0
XRECORD
  5
ADCC
102
{ACAD_REACTORS
330
AD65
102
}
330
AD65
100
AcDbXrecord
280
     1
102
MATERIAL
148
0.0
149
0.0
149
0.0
 93
        0
 94
      127
282
     0
 72
     0
 77
     0
171
     0
175
     0
179
     0
273
     0
  0
XRECORD
  5
AD67
102
{ACAD_REACTORS
330
AD65
102
}
330
AD65
100
AcDbXrecord
280
     1
270
     1
271
     1
  0
XRECORD
  5
AD66
102
{ACAD_REACTORS
330
AD65
102
}
330
AD65
100
AcDbXrecord
280
     1
270
     1
271
     1
  0
XRECORD
  5
AD6A
102
{ACAD_REACTORS
330
AD65
102
}
330
AD65
100
AcDbXrecord
280
     1
270
     1
271
     1
  0
XRECORD
  5
AD69
102
{ACAD_REACTORS
330
AD65
102
}
330
AD65
100
AcDbXrecord
280
     1
270
     1
271
     1
  0
XRECORD
  5
AD6B
102
{ACAD_REACTORS
330
AD65
102
}
330
AD65
100
AcDbXrecord
280
     1
270
     1
271
     1
  0
XRECORD
  5
AD68
102
{ACAD_REACTORS
330
AD65
102
}
330
AD65
100
AcDbXrecord
280
     1
270
     1
271
     1
  0
XRECORD
  5
ADCB
102
{ACAD_REACTORS
330
AD5D
102
}
330
AD5D
100
AcDbXrecord
280
     1
102
MATERIAL
148
0.0
149
0.0
149
0.0
 93
        0
 94
      127
282
     0
 72
     0
 77
     0
171
     0
175
     0
179
     0
273
     0
  0
XRECORD
  5
AD5F
102
{ACAD_REACTORS
330
AD5D
102
}
330
AD5D
100
AcDbXrecord
280
     1
270
     1
271
     1
  0
XRECORD
  5
AD5E
102
{ACAD_REACTORS
330
AD5D
102
}
330
AD5D
100
AcDbXrecord
280
     1
270
     1
271
     1
  0
XRECORD
  5
AD62
102
{ACAD_REACTORS
330
AD5D
102
}
330
AD5D
100
AcDbXrecord
280
     1
270
     1
271
     1
  0
XRECORD
  5
AD61
102
{ACAD_REACTORS
330
AD5D
102
}
330
AD5D
100
AcDbXrecord
280
     1
270
     1
271
     1
  0
XRECORD
  5
AD63
102
{ACAD_REACTORS
330
AD5D
102
}
330
AD5D
100
AcDbXrecord
280
     1
270
     1
271
     1
  0
XRECORD
  5
AD60
102
{ACAD_REACTORS
330
AD5D
102
}
330
AD5D
100
AcDbXrecord
280
     1
270
     1
271
     1
  0
XRECORD
  5
ADCD
102
{ACAD_REACTORS
330
AD6D
102
}
330
AD6D
100
AcDbXrecord
280
     1
102
MATERIAL
148
0.0
149
0.0
149
0.0
 93
        0
 94
      127
282
     0
 72
     0
 77
     0
171
     0
175
     0
179
     0
273
     0
  0
XRECORD
  5
AD6F
102
{ACAD_REACTORS
330
AD6D
102
}
330
AD6D
100
AcDbXrecord
280
     1
270
     1
271
     1
  0
XRECORD
  5
AD6E
102
{ACAD_REACTORS
330
AD6D
102
}
330
AD6D
100
AcDbXrecord
280
     1
270
     1
271
     1
  0
XRECORD
  5
AD72
102
{ACAD_REACTORS
330
AD6D
102
}
330
AD6D
100
AcDbXrecord
280
     1
270
     1
271
     1
  0
XRECORD
  5
AD71
102
{ACAD_REACTORS
330
AD6D
102
}
330
AD6D
100
AcDbXrecord
280
     1
270
     1
271
     1
  0
XRECORD
  5
AD73
102
{ACAD_REACTORS
330
AD6D
102
}
330
AD6D
100
AcDbXrecord
280
     1
270
     1
271
     1
  0
XRECORD
  5
AD70
102
{ACAD_REACTORS
330
AD6D
102
}
330
AD6D
100
AcDbXrecord
280
     1
270
     1
271
     1
  0
XRECORD
  5
AE01
102
{ACAD_REACTORS
330
AE00
102
}
330
AE00
100
AcDbXrecord
280
     1
102
DISPLAYNAME
  1
Imperial24
102
FLAGS
 90
        0
  0
CELLSTYLEMAP
  5
ADC8
102
{ACAD_REACTORS
330
ADC7
102
}
330
ADC7
100
AcDbCellStyleMap
 90
        3
300
CELLSTYLE
  1
TABLEFORMAT_BEGIN
 90
        5
170
     1
 91
        0
 92
    32768
 62
   257
 93
        1
300
CONTENTFORMAT
  1
CONTENTFORMAT_BEGIN
 90
        0
 91
        0
 92
      512
 93
        0
300

 40
0.0
140
1.0
 94
        5
 62
     0
340
AAC7
144
0.25
309
CONTENTFORMAT_END
171
     0
 94
        0
309
TABLEFORMAT_END
  1
CELLSTYLE_BEGIN
 90
        1
 91
        1
300
_TITLE
309
CELLSTYLE_END
300
CELLSTYLE
  1
TABLEFORMAT_BEGIN
 90
        5
170
     1
 91
        0
 92
        0
 62
   257
 93
        1
300
CONTENTFORMAT
  1
CONTENTFORMAT_BEGIN
 90
        0
 91
        0
 92
      512
 93
        0
300

 40
0.0
140
1.0
 94
        5
 62
     0
340
AAC7
144
0.18
309
CONTENTFORMAT_END
171
     0
 94
        0
309
TABLEFORMAT_END
  1
CELLSTYLE_BEGIN
 90
        2
 91
        1
300
_HEADER
309
CELLSTYLE_END
300
CELLSTYLE
  1
TABLEFORMAT_BEGIN
 90
        5
170
     1
 91
        0
 92
        0
 62
   257
 93
        1
300
CONTENTFORMAT
  1
CONTENTFORMAT_BEGIN
 90
        0
 91
        0
 92
      512
 93
        0
300

 40
0.0
140
1.0
 94
        2
 62
     0
340
AAC7
144
0.18
309
CONTENTFORMAT_END
171
     0
 94
        0
309
TABLEFORMAT_END
  1
CELLSTYLE_BEGIN
 90
        3
 91
        2
300
_DATA
309
CELLSTYLE_END
  0
XRECORD
  5
ADFE
102
{ACAD_REACTORS
330
ADC7
102
}
330
ADC7
100
AcDbXrecord
280
     1
102
ACAD_ROUNDTRIP_PRE2007_TABLESTYLE
 90
      512
 91
        0
  1

 92
      512
 93
        0
  2

 94
      512
 95
        0
  3

  0
XRECORD
  5
ADD9
102
{ACAD_REACTORS
330
ADD8
102
}
330
ADD8
100
AcDbXrecord
280
     1
102
RTVSPost2010Prop28
280
     1
102
RTVSPost2010PropOp28
 70
     1
102
RTVSPost2010Prop29
280
     1
102
RTVSPost2010PropOp29
 70
     1
102
RTVSPost2010Prop30
280
     0
102
RTVSPost2010PropOp30
 70
     1
102
RTVSPost2010Prop31
280
     0
102
RTVSPost2010PropOp31
 70
     1
102
RTVSPost2010Prop32
280
     0
102
RTVSPost2010PropOp32
 70
     1
102
RTVSPost2010Prop33
280
     0
102
RTVSPost2010PropOp33
 70
     1
102
RTVSPost2010Prop34
280
     0
102
RTVSPost2010PropOp34
 70
     1
102
RTVSPost2010Prop35
280
     0
102
RTVSPost2010PropOp35
 70
     1
102
RTVSPost2010Prop36
280
     0
102
RTVSPost2010PropOp36
 70
     1
102
RTVSPost2010Prop37
 90
       50
102
RTVSPost2010PropOp37
 70
     1
102
RTVSPost2010Prop38
140
0.0
102
RTVSPost2010PropOp38
 70
     1
102
RTVSPost2010Prop39
140
1.0
102
RTVSPost2010PropOp39
 70
     1
102
RTVSPost2010Prop40
 90
        0
102
RTVSPost2010PropOp40
 70
     1
102
RTVSPost2010Prop41ColorIndex
 90
       18
102
RTVSPost2010Prop41ColorRGB
 90
        0
102
RTVSPost2010PropOp41
 70
     1
102
RTVSPost2010Prop42
 90
       50
102
RTVSPost2010PropOp42
 70
     1
102
RTVSPost2010Prop43
 90
        3
102
RTVSPost2010PropOp43
 70
     1
102
RTVSPost2010Prop44ColorIndex
 90
        5
102
RTVSPost2010Prop44ColorRGB
 90
      255
102
RTVSPost2010PropOp44
 70
     1
102
RTVSPost2010Prop45
280
     0
102
RTVSPost2010PropOp45
 70
     1
102
RTVSPost2010Prop46
 90
       50
102
RTVSPost2010PropOp46
 70
     1
102
RTVSPost2010Prop47
 90
       50
102
RTVSPost2010PropOp47
 70
     1
102
RTVSPost2010Prop48
 90
       50
102
RTVSPost2010PropOp48
 70
     1
102
RTVSPost2010Prop49
280
     0
102
RTVSPost2010PropOp49
 70
     1
102
RTVSPost2010Prop50
 90
       50
102
RTVSPost2010PropOp50
 70
     1
102
RTVSPost2010Prop51ColorIndex
 90
      256
102
RTVSPost2010Prop51ColorRGB
 90
-16777216
102
RTVSPost2010PropOp51
 70
     0
102
RTVSPost2010Prop52
140
1.0
102
RTVSPost2010PropOp52
 70
     0
102
RTVSPost2010Prop53
 90
        2
102
RTVSPost2010PropOp53
 70
     1
102
RTVSPost2010Prop54
  1
strokes_ogs.tif
102
RTVSPost2010PropOp54
 70
     1
102
RTVSPost2010Prop55
280
     0
102
RTVSPost2010PropOp55
 70
     1
102
RTVSPost2010Prop56
140
1.0
102
RTVSPost2010PropOp56
 70
     1
102
RTVSPost2010Prop57
140
1.0
102
RTVSPost2010PropOp57
 70
     1
102
RTVSPropertyOp0
 70
     1
102
RTVSPropertyOp1
 70
     1
102
RTVSPropertyOp2
 70
     1
102
RTVSPropertyOp3
 70
     1
102
RTVSPropertyOp4
 70
     1
102
RTVSPropertyOp5
 70
     1
102
RTVSPropertyOp6
 70
     1
102
RTVSPropertyOp7
 70
     1
102
RTVSPropertyOp8
 70
     1
102
RTVSPropertyOp9
 70
     1
102
RTVSPropertyOp10
 70
     1
102
RTVSPropertyOp11
 70
     1
102
RTVSPropertyOp12
 70
     1
102
RTVSPropertyOp13
 70
     1
102
RTVSPropertyOp14
 70
     1
102
RTVSPropertyOp15
 70
     1
102
RTVSPropertyOp16
 70
     1
102
RTVSPropertyOp17
 70
     1
102
RTVSPropertyOp18
 70
     1
102
RTVSPropertyOp19
 70
     1
102
RTVSPropertyOp20
 70
     1
102
RTVSPropertyOp21
 70
     1
102
RTVSPropertyOp22
 70
     1
102
RTVSPropertyOp23
 70
     1
102
RTVSPropertyOp24
 70
     1
102
RTVSPropertyOp25
 70
     1
102
RTVSPropertyOp26
 70
     1
102
RTVSPropertyOp27
 70
     1
102
RTVSPropertyOp28
 70
     1
102
RTVSPropertyOp29
 70
     1
102
RTVSPropertyOp30
 70
     1
102
RTVSPropertyOp31
 70
     1
102
RTVSPropertyOp32
 70
     1
102
RTVSPropertyOp33
 70
     1
102
RTVSPropertyOp34
 70
     1
102
RTVSPropertyOp35
 70
     1
102
RTVSPropertyOp36
 70
     1
102
RTVSPropertyOp37
 70
     1
102
RTVSPropertyOp38
 70
     1
102
RTVSPropertyOp39
 70
     1
102
RTVSPropertyOp40
 70
     1
102
RTVSPropertyOp41
 70
     1
102
RTVSPropertyOp42
 70
     1
102
RTVSPropertyOp43
 70
     1
102
RTVSPropertyOp44
 70
     1
102
RTVSPropertyOp45
 70
     1
102
RTVSPropertyOp46
 70
     1
102
RTVSPropertyOp47
 70
     1
102
RTVSPropertyOp48
 70
     1
102
RTVSPropertyOp49
 70
     1
102
RTVSPropertyOp50
 70
     1
102
RTVSPropertyOp51
 70
     0
102
RTVSPropertyOp52
 70
     0
102
RTVSPropertyOp53
 70
     1
102
RTVSPropertyOp54
 70
     1
102
RTVSPropertyOp55
 70
     1
102
RTVSPropertyOp56
 70
     1
102
RTVSPropertyOp57
 70
     1
102
RTVSPropertyOp58
 70
     1
102
RTVSPropertyOp59
 70
     1
102
RTVSPropertyOp60
 70
     1
102
RTVSPropertyOp61
 70
     1
102
RTVSPropertyOp62
 70
     1
  0
XRECORD
  5
ADD7
102
{ACAD_REACTORS
330
ADD6
102
}
330
ADD6
100
AcDbXrecord
280
     1
102
RTVSPost2010Prop28
280
     0
102
RTVSPost2010PropOp28
 70
     1
102
RTVSPost2010Prop29
280
     1
102
RTVSPost2010PropOp29
 70
     1
102
RTVSPost2010Prop30
280
     1
102
RTVSPost2010PropOp30
 70
     1
102
RTVSPost2010Prop31
280
     0
102
RTVSPost2010PropOp31
 70
     1
102
RTVSPost2010Prop32
280
     0
102
RTVSPost2010PropOp32
 70
     1
102
RTVSPost2010Prop33
280
     0
102
RTVSPost2010PropOp33
 70
     1
102
RTVSPost2010Prop34
280
     0
102
RTVSPost2010PropOp34
 70
     1
102
RTVSPost2010Prop35
280
     0
102
RTVSPost2010PropOp35
 70
     1
102
RTVSPost2010Prop36
280
     0
102
RTVSPost2010PropOp36
 70
     1
102
RTVSPost2010Prop37
 90
       50
102
RTVSPost2010PropOp37
 70
     1
102
RTVSPost2010Prop38
140
0.0
102
RTVSPost2010PropOp38
 70
     1
102
RTVSPost2010Prop39
140
1.0
102
RTVSPost2010PropOp39
 70
     1
102
RTVSPost2010Prop40
 90
        0
102
RTVSPost2010PropOp40
 70
     1
102
RTVSPost2010Prop41ColorIndex
 90
       18
102
RTVSPost2010Prop41ColorRGB
 90
        0
102
RTVSPost2010PropOp41
 70
     1
102
RTVSPost2010Prop42
 90
       50
102
RTVSPost2010PropOp42
 70
     1
102
RTVSPost2010Prop43
 90
        3
102
RTVSPost2010PropOp43
 70
     1
102
RTVSPost2010Prop44ColorIndex
 90
        5
102
RTVSPost2010Prop44ColorRGB
 90
      255
102
RTVSPost2010PropOp44
 70
     1
102
RTVSPost2010Prop45
280
     0
102
RTVSPost2010PropOp45
 70
     1
102
RTVSPost2010Prop46
 90
       50
102
RTVSPost2010PropOp46
 70
     1
102
RTVSPost2010Prop47
 90
       50
102
RTVSPost2010PropOp47
 70
     1
102
RTVSPost2010Prop48
 90
       50
102
RTVSPost2010PropOp48
 70
     1
102
RTVSPost2010Prop49
280
     0
102
RTVSPost2010PropOp49
 70
     1
102
RTVSPost2010Prop50
 90
       50
102
RTVSPost2010PropOp50
 70
     1
102
RTVSPost2010Prop51ColorIndex
 90
      256
102
RTVSPost2010Prop51ColorRGB
 90
-16777216
102
RTVSPost2010PropOp51
 70
     0
102
RTVSPost2010Prop52
140
1.0
102
RTVSPost2010PropOp52
 70
     0
102
RTVSPost2010Prop53
 90
        2
102
RTVSPost2010PropOp53
 70
     1
102
RTVSPost2010Prop54
  1
strokes_ogs.tif
102
RTVSPost2010PropOp54
 70
     1
102
RTVSPost2010Prop55
280
     0
102
RTVSPost2010PropOp55
 70
     1
102
RTVSPost2010Prop56
140
1.0
102
RTVSPost2010PropOp56
 70
     1
102
RTVSPost2010Prop57
140
1.0
102
RTVSPost2010PropOp57
 70
     1
102
RTVSPropertyOp0
 70
     1
102
RTVSPropertyOp1
 70
     1
102
RTVSPropertyOp2
 70
     1
102
RTVSPropertyOp3
 70
     1
102
RTVSPropertyOp4
 70
     1
102
RTVSPropertyOp5
 70
     1
102
RTVSPropertyOp6
 70
     1
102
RTVSPropertyOp7
 70
     1
102
RTVSPropertyOp8
 70
     1
102
RTVSPropertyOp9
 70
     1
102
RTVSPropertyOp10
 70
     1
102
RTVSPropertyOp11
 70
     1
102
RTVSPropertyOp12
 70
     1
102
RTVSPropertyOp13
 70
     1
102
RTVSPropertyOp14
 70
     1
102
RTVSPropertyOp15
 70
     1
102
RTVSPropertyOp16
 70
     1
102
RTVSPropertyOp17
 70
     1
102
RTVSPropertyOp18
 70
     1
102
RTVSPropertyOp19
 70
     1
102
RTVSPropertyOp20
 70
     1
102
RTVSPropertyOp21
 70
     1
102
RTVSPropertyOp22
 70
     1
102
RTVSPropertyOp23
 70
     1
102
RTVSPropertyOp24
 70
     1
102
RTVSPropertyOp25
 70
     1
102
RTVSPropertyOp26
 70
     1
102
RTVSPropertyOp27
 70
     1
102
RTVSPropertyOp28
 70
     1
102
RTVSPropertyOp29
 70
     1
102
RTVSPropertyOp30
 70
     1
102
RTVSPropertyOp31
 70
     1
102
RTVSPropertyOp32
 70
     1
102
RTVSPropertyOp33
 70
     1
102
RTVSPropertyOp34
 70
     1
102
RTVSPropertyOp35
 70
     1
102
RTVSPropertyOp36
 70
     1
102
RTVSPropertyOp37
 70
     1
102
RTVSPropertyOp38
 70
     1
102
RTVSPropertyOp39
 70
     1
102
RTVSPropertyOp40
 70
     1
102
RTVSPropertyOp41
 70
     1
102
RTVSPropertyOp42
 70
     1
102
RTVSPropertyOp43
 70
     1
102
RTVSPropertyOp44
 70
     1
102
RTVSPropertyOp45
 70
     1
102
RTVSPropertyOp46
 70
     1
102
RTVSPropertyOp47
 70
     1
102
RTVSPropertyOp48
 70
     1
102
RTVSPropertyOp49
 70
     1
102
RTVSPropertyOp50
 70
     1
102
RTVSPropertyOp51
 70
     0
102
RTVSPropertyOp52
 70
     0
102
RTVSPropertyOp53
 70
     1
102
RTVSPropertyOp54
 70
     1
102
RTVSPropertyOp55
 70
     1
102
RTVSPropertyOp56
 70
     1
102
RTVSPropertyOp57
 70
     1
102
RTVSPropertyOp58
 70
     1
102
RTVSPropertyOp59
 70
     1
102
RTVSPropertyOp60
 70
     1
102
RTVSPropertyOp61
 70
     1
102
RTVSPropertyOp62
 70
     1
  0
XRECORD
  5
ADE5
102
{ACAD_REACTORS
330
ADE4
102
}
330
ADE4
100
AcDbXrecord
280
     1
102
RTVSPost2010Prop28
280
     0
102
RTVSPost2010PropOp28
 70
     1
102
RTVSPost2010Prop29
280
     1
102
RTVSPost2010PropOp29
 70
     1
102
RTVSPost2010Prop30
280
     1
102
RTVSPost2010PropOp30
 70
     1
102
RTVSPost2010Prop31
280
     0
102
RTVSPost2010PropOp31
 70
     1
102
RTVSPost2010Prop32
280
     0
102
RTVSPost2010PropOp32
 70
     1
102
RTVSPost2010Prop33
280
     0
102
RTVSPost2010PropOp33
 70
     1
102
RTVSPost2010Prop34
280
     0
102
RTVSPost2010PropOp34
 70
     1
102
RTVSPost2010Prop35
280
     0
102
RTVSPost2010PropOp35
 70
     1
102
RTVSPost2010Prop36
280
     0
102
RTVSPost2010PropOp36
 70
     1
102
RTVSPost2010Prop37
 90
       50
102
RTVSPost2010PropOp37
 70
     1
102
RTVSPost2010Prop38
140
0.0
102
RTVSPost2010PropOp38
 70
     1
102
RTVSPost2010Prop39
140
1.0
102
RTVSPost2010PropOp39
 70
     1
102
RTVSPost2010Prop40
 90
        0
102
RTVSPost2010PropOp40
 70
     1
102
RTVSPost2010Prop41ColorIndex
 90
       18
102
RTVSPost2010Prop41ColorRGB
 90
        0
102
RTVSPost2010PropOp41
 70
     1
102
RTVSPost2010Prop42
 90
       50
102
RTVSPost2010PropOp42
 70
     1
102
RTVSPost2010Prop43
 90
        3
102
RTVSPost2010PropOp43
 70
     1
102
RTVSPost2010Prop44ColorIndex
 90
        5
102
RTVSPost2010Prop44ColorRGB
 90
      255
102
RTVSPost2010PropOp44
 70
     1
102
RTVSPost2010Prop45
280
     0
102
RTVSPost2010PropOp45
 70
     1
102
RTVSPost2010Prop46
 90
       50
102
RTVSPost2010PropOp46
 70
     1
102
RTVSPost2010Prop47
 90
       50
102
RTVSPost2010PropOp47
 70
     1
102
RTVSPost2010Prop48
 90
       50
102
RTVSPost2010PropOp48
 70
     1
102
RTVSPost2010Prop49
280
     0
102
RTVSPost2010PropOp49
 70
     1
102
RTVSPost2010Prop50
 90
       50
102
RTVSPost2010PropOp50
 70
     1
102
RTVSPost2010Prop51ColorIndex
 90
      256
102
RTVSPost2010Prop51ColorRGB
 90
-16777216
102
RTVSPost2010PropOp51
 70
     0
102
RTVSPost2010Prop52
140
1.0
102
RTVSPost2010PropOp52
 70
     0
102
RTVSPost2010Prop53
 90
        2
102
RTVSPost2010PropOp53
 70
     1
102
RTVSPost2010Prop54
  1
strokes_ogs.tif
102
RTVSPost2010PropOp54
 70
     1
102
RTVSPost2010Prop55
280
     0
102
RTVSPost2010PropOp55
 70
     1
102
RTVSPost2010Prop56
140
1.0
102
RTVSPost2010PropOp56
 70
     1
102
RTVSPost2010Prop57
140
1.0
102
RTVSPost2010PropOp57
 70
     1
102
RTVSPropertyOp0
 70
     1
102
RTVSPropertyOp1
 70
     1
102
RTVSPropertyOp2
 70
     1
102
RTVSPropertyOp3
 70
     1
102
RTVSPropertyOp4
 70
     1
102
RTVSPropertyOp5
 70
     1
102
RTVSPropertyOp6
 70
     1
102
RTVSPropertyOp7
 70
     1
102
RTVSPropertyOp8
 70
     1
102
RTVSPropertyOp9
 70
     1
102
RTVSPropertyOp10
 70
     1
102
RTVSPropertyOp11
 70
     1
102
RTVSPropertyOp12
 70
     1
102
RTVSPropertyOp13
 70
     1
102
RTVSPropertyOp14
 70
     1
102
RTVSPropertyOp15
 70
     1
102
RTVSPropertyOp16
 70
     1
102
RTVSPropertyOp17
 70
     1
102
RTVSPropertyOp18
 70
     1
102
RTVSPropertyOp19
 70
     1
102
RTVSPropertyOp20
 70
     1
102
RTVSPropertyOp21
 70
     1
102
RTVSPropertyOp22
 70
     1
102
RTVSPropertyOp23
 70
     1
102
RTVSPropertyOp24
 70
     1
102
RTVSPropertyOp25
 70
     1
102
RTVSPropertyOp26
 70
     1
102
RTVSPropertyOp27
 70
     1
102
RTVSPropertyOp28
 70
     1
102
RTVSPropertyOp29
 70
     1
102
RTVSPropertyOp30
 70
     1
102
RTVSPropertyOp31
 70
     1
102
RTVSPropertyOp32
 70
     1
102
RTVSPropertyOp33
 70
     1
102
RTVSPropertyOp34
 70
     1
102
RTVSPropertyOp35
 70
     1
102
RTVSPropertyOp36
 70
     1
102
RTVSPropertyOp37
 70
     1
102
RTVSPropertyOp38
 70
     1
102
RTVSPropertyOp39
 70
     1
102
RTVSPropertyOp40
 70
     1
102
RTVSPropertyOp41
 70
     1
102
RTVSPropertyOp42
 70
     1
102
RTVSPropertyOp43
 70
     1
102
RTVSPropertyOp44
 70
     1
102
RTVSPropertyOp45
 70
     1
102
RTVSPropertyOp46
 70
     1
102
RTVSPropertyOp47
 70
     1
102
RTVSPropertyOp48
 70
     1
102
RTVSPropertyOp49
 70
     1
102
RTVSPropertyOp50
 70
     1
102
RTVSPropertyOp51
 70
     0
102
RTVSPropertyOp52
 70
     0
102
RTVSPropertyOp53
 70
     1
102
RTVSPropertyOp54
 70
     1
102
RTVSPropertyOp55
 70
     1
102
RTVSPropertyOp56
 70
     1
102
RTVSPropertyOp57
 70
     1
102
RTVSPropertyOp58
 70
     1
102
RTVSPropertyOp59
 70
     1
102
RTVSPropertyOp60
 70
     1
102
RTVSPropertyOp61
 70
     1
102
RTVSPropertyOp62
 70
     1
  0
XRECORD
  5
ADED
102
{ACAD_REACTORS
330
ADEC
102
}
330
ADEC
100
AcDbXrecord
280
     1
102
RTVSPost2010Prop28
280
     0
102
RTVSPost2010PropOp28
 70
     1
102
RTVSPost2010Prop29
280
     1
102
RTVSPost2010PropOp29
 70
     1
102
RTVSPost2010Prop30
280
     1
102
RTVSPost2010PropOp30
 70
     1
102
RTVSPost2010Prop31
280
     0
102
RTVSPost2010PropOp31
 70
     1
102
RTVSPost2010Prop32
280
     0
102
RTVSPost2010PropOp32
 70
     1
102
RTVSPost2010Prop33
280
     0
102
RTVSPost2010PropOp33
 70
     1
102
RTVSPost2010Prop34
280
     0
102
RTVSPost2010PropOp34
 70
     1
102
RTVSPost2010Prop35
280
     0
102
RTVSPost2010PropOp35
 70
     1
102
RTVSPost2010Prop36
280
     0
102
RTVSPost2010PropOp36
 70
     1
102
RTVSPost2010Prop37
 90
       50
102
RTVSPost2010PropOp37
 70
     1
102
RTVSPost2010Prop38
140
0.0
102
RTVSPost2010PropOp38
 70
     1
102
RTVSPost2010Prop39
140
1.0
102
RTVSPost2010PropOp39
 70
     1
102
RTVSPost2010Prop40
 90
        0
102
RTVSPost2010PropOp40
 70
     1
102
RTVSPost2010Prop41ColorIndex
 90
       18
102
RTVSPost2010Prop41ColorRGB
 90
        0
102
RTVSPost2010PropOp41
 70
     1
102
RTVSPost2010Prop42
 90
       50
102
RTVSPost2010PropOp42
 70
     1
102
RTVSPost2010Prop43
 90
        3
102
RTVSPost2010PropOp43
 70
     1
102
RTVSPost2010Prop44ColorIndex
 90
        5
102
RTVSPost2010Prop44ColorRGB
 90
      255
102
RTVSPost2010PropOp44
 70
     1
102
RTVSPost2010Prop45
280
     0
102
RTVSPost2010PropOp45
 70
     1
102
RTVSPost2010Prop46
 90
       50
102
RTVSPost2010PropOp46
 70
     1
102
RTVSPost2010Prop47
 90
       50
102
RTVSPost2010PropOp47
 70
     1
102
RTVSPost2010Prop48
 90
       50
102
RTVSPost2010PropOp48
 70
     1
102
RTVSPost2010Prop49
280
     0
102
RTVSPost2010PropOp49
 70
     1
102
RTVSPost2010Prop50
 90
       50
102
RTVSPost2010PropOp50
 70
     1
102
RTVSPost2010Prop51ColorIndex
 90
      256
102
RTVSPost2010Prop51ColorRGB
 90
-16777216
102
RTVSPost2010PropOp51
 70
     0
102
RTVSPost2010Prop52
140
1.0
102
RTVSPost2010PropOp52
 70
     0
102
RTVSPost2010Prop53
 90
        2
102
RTVSPost2010PropOp53
 70
     1
102
RTVSPost2010Prop54
  1
strokes_ogs.tif
102
RTVSPost2010PropOp54
 70
     1
102
RTVSPost2010Prop55
280
     0
102
RTVSPost2010PropOp55
 70
     1
102
RTVSPost2010Prop56
140
1.0
102
RTVSPost2010PropOp56
 70
     1
102
RTVSPost2010Prop57
140
1.0
102
RTVSPost2010PropOp57
 70
     1
102
RTVSPropertyOp0
 70
     1
102
RTVSPropertyOp1
 70
     1
102
RTVSPropertyOp2
 70
     1
102
RTVSPropertyOp3
 70
     1
102
RTVSPropertyOp4
 70
     1
102
RTVSPropertyOp5
 70
     1
102
RTVSPropertyOp6
 70
     1
102
RTVSPropertyOp7
 70
     1
102
RTVSPropertyOp8
 70
     1
102
RTVSPropertyOp9
 70
     1
102
RTVSPropertyOp10
 70
     1
102
RTVSPropertyOp11
 70
     1
102
RTVSPropertyOp12
 70
     1
102
RTVSPropertyOp13
 70
     1
102
RTVSPropertyOp14
 70
     1
102
RTVSPropertyOp15
 70
     1
102
RTVSPropertyOp16
 70
     1
102
RTVSPropertyOp17
 70
     1
102
RTVSPropertyOp18
 70
     1
102
RTVSPropertyOp19
 70
     1
102
RTVSPropertyOp20
 70
     1
102
RTVSPropertyOp21
 70
     1
102
RTVSPropertyOp22
 70
     1
102
RTVSPropertyOp23
 70
     1
102
RTVSPropertyOp24
 70
     1
102
RTVSPropertyOp25
 70
     1
102
RTVSPropertyOp26
 70
     1
102
RTVSPropertyOp27
 70
     1
102
RTVSPropertyOp28
 70
     1
102
RTVSPropertyOp29
 70
     1
102
RTVSPropertyOp30
 70
     1
102
RTVSPropertyOp31
 70
     1
102
RTVSPropertyOp32
 70
     1
102
RTVSPropertyOp33
 70
     1
102
RTVSPropertyOp34
 70
     1
102
RTVSPropertyOp35
 70
     1
102
RTVSPropertyOp36
 70
     1
102
RTVSPropertyOp37
 70
     1
102
RTVSPropertyOp38
 70
     1
102
RTVSPropertyOp39
 70
     1
102
RTVSPropertyOp40
 70
     1
102
RTVSPropertyOp41
 70
     1
102
RTVSPropertyOp42
 70
     1
102
RTVSPropertyOp43
 70
     1
102
RTVSPropertyOp44
 70
     1
102
RTVSPropertyOp45
 70
     1
102
RTVSPropertyOp46
 70
     1
102
RTVSPropertyOp47
 70
     1
102
RTVSPropertyOp48
 70
     1
102
RTVSPropertyOp49
 70
     1
102
RTVSPropertyOp50
 70
     1
102
RTVSPropertyOp51
 70
     0
102
RTVSPropertyOp52
 70
     0
102
RTVSPropertyOp53
 70
     1
102
RTVSPropertyOp54
 70
     1
102
RTVSPropertyOp55
 70
     1
102
RTVSPropertyOp56
 70
     1
102
RTVSPropertyOp57
 70
     1
102
RTVSPropertyOp58
 70
     1
102
RTVSPropertyOp59
 70
     1
102
RTVSPropertyOp60
 70
     1
102
RTVSPropertyOp61
 70
     1
102
RTVSPropertyOp62
 70
     1
  0
XRECORD
  5
ADDF
102
{ACAD_REACTORS
330
ADDE
102
}
330
ADDE
100
AcDbXrecord
280
     1
102
RTVSPost2010Prop28
280
     0
102
RTVSPost2010PropOp28
 70
     1
102
RTVSPost2010Prop29
280
     1
102
RTVSPost2010PropOp29
 70
     1
102
RTVSPost2010Prop30
280
     1
102
RTVSPost2010PropOp30
 70
     1
102
RTVSPost2010Prop31
280
     0
102
RTVSPost2010PropOp31
 70
     1
102
RTVSPost2010Prop32
280
     0
102
RTVSPost2010PropOp32
 70
     1
102
RTVSPost2010Prop33
280
     0
102
RTVSPost2010PropOp33
 70
     1
102
RTVSPost2010Prop34
280
     0
102
RTVSPost2010PropOp34
 70
     1
102
RTVSPost2010Prop35
280
     0
102
RTVSPost2010PropOp35
 70
     1
102
RTVSPost2010Prop36
280
     0
102
RTVSPost2010PropOp36
 70
     1
102
RTVSPost2010Prop37
 90
       50
102
RTVSPost2010PropOp37
 70
     1
102
RTVSPost2010Prop38
140
0.0
102
RTVSPost2010PropOp38
 70
     1
102
RTVSPost2010Prop39
140
1.0
102
RTVSPost2010PropOp39
 70
     1
102
RTVSPost2010Prop40
 90
        0
102
RTVSPost2010PropOp40
 70
     1
102
RTVSPost2010Prop41ColorIndex
 90
       18
102
RTVSPost2010Prop41ColorRGB
 90
        0
102
RTVSPost2010PropOp41
 70
     1
102
RTVSPost2010Prop42
 90
       50
102
RTVSPost2010PropOp42
 70
     1
102
RTVSPost2010Prop43
 90
        3
102
RTVSPost2010PropOp43
 70
     1
102
RTVSPost2010Prop44ColorIndex
 90
        5
102
RTVSPost2010Prop44ColorRGB
 90
      255
102
RTVSPost2010PropOp44
 70
     1
102
RTVSPost2010Prop45
280
     0
102
RTVSPost2010PropOp45
 70
     1
102
RTVSPost2010Prop46
 90
       50
102
RTVSPost2010PropOp46
 70
     1
102
RTVSPost2010Prop47
 90
       50
102
RTVSPost2010PropOp47
 70
     1
102
RTVSPost2010Prop48
 90
       50
102
RTVSPost2010PropOp48
 70
     1
102
RTVSPost2010Prop49
280
     0
102
RTVSPost2010PropOp49
 70
     1
102
RTVSPost2010Prop50
 90
       50
102
RTVSPost2010PropOp50
 70
     1
102
RTVSPost2010Prop51ColorIndex
 90
      256
102
RTVSPost2010Prop51ColorRGB
 90
-16777216
102
RTVSPost2010PropOp51
 70
     0
102
RTVSPost2010Prop52
140
1.0
102
RTVSPost2010PropOp52
 70
     0
102
RTVSPost2010Prop53
 90
        2
102
RTVSPost2010PropOp53
 70
     1
102
RTVSPost2010Prop54
  1
strokes_ogs.tif
102
RTVSPost2010PropOp54
 70
     1
102
RTVSPost2010Prop55
280
     0
102
RTVSPost2010PropOp55
 70
     1
102
RTVSPost2010Prop56
140
1.0
102
RTVSPost2010PropOp56
 70
     1
102
RTVSPost2010Prop57
140
1.0
102
RTVSPost2010PropOp57
 70
     1
102
RTVSPropertyOp0
 70
     1
102
RTVSPropertyOp1
 70
     1
102
RTVSPropertyOp2
 70
     1
102
RTVSPropertyOp3
 70
     1
102
RTVSPropertyOp4
 70
     1
102
RTVSPropertyOp5
 70
     1
102
RTVSPropertyOp6
 70
     1
102
RTVSPropertyOp7
 70
     1
102
RTVSPropertyOp8
 70
     1
102
RTVSPropertyOp9
 70
     1
102
RTVSPropertyOp10
 70
     1
102
RTVSPropertyOp11
 70
     1
102
RTVSPropertyOp12
 70
     1
102
RTVSPropertyOp13
 70
     1
102
RTVSPropertyOp14
 70
     1
102
RTVSPropertyOp15
 70
     1
102
RTVSPropertyOp16
 70
     1
102
RTVSPropertyOp17
 70
     1
102
RTVSPropertyOp18
 70
     1
102
RTVSPropertyOp19
 70
     1
102
RTVSPropertyOp20
 70
     1
102
RTVSPropertyOp21
 70
     1
102
RTVSPropertyOp22
 70
     1
102
RTVSPropertyOp23
 70
     1
102
RTVSPropertyOp24
 70
     1
102
RTVSPropertyOp25
 70
     1
102
RTVSPropertyOp26
 70
     1
102
RTVSPropertyOp27
 70
     1
102
RTVSPropertyOp28
 70
     1
102
RTVSPropertyOp29
 70
     1
102
RTVSPropertyOp30
 70
     1
102
RTVSPropertyOp31
 70
     1
102
RTVSPropertyOp32
 70
     1
102
RTVSPropertyOp33
 70
     1
102
RTVSPropertyOp34
 70
     1
102
RTVSPropertyOp35
 70
     1
102
RTVSPropertyOp36
 70
     1
102
RTVSPropertyOp37
 70
     1
102
RTVSPropertyOp38
 70
     1
102
RTVSPropertyOp39
 70
     1
102
RTVSPropertyOp40
 70
     1
102
RTVSPropertyOp41
 70
     1
102
RTVSPropertyOp42
 70
     1
102
RTVSPropertyOp43
 70
     1
102
RTVSPropertyOp44
 70
     1
102
RTVSPropertyOp45
 70
     1
102
RTVSPropertyOp46
 70
     1
102
RTVSPropertyOp47
 70
     1
102
RTVSPropertyOp48
 70
     1
102
RTVSPropertyOp49
 70
     1
102
RTVSPropertyOp50
 70
     1
102
RTVSPropertyOp51
 70
     0
102
RTVSPropertyOp52
 70
     0
102
RTVSPropertyOp53
 70
     1
102
RTVSPropertyOp54
 70
     1
102
RTVSPropertyOp55
 70
     1
102
RTVSPropertyOp56
 70
     1
102
RTVSPropertyOp57
 70
     1
102
RTVSPropertyOp58
 70
     1
102
RTVSPropertyOp59
 70
     1
102
RTVSPropertyOp60
 70
     1
102
RTVSPropertyOp61
 70
     1
102
RTVSPropertyOp62
 70
     1
  0
XRECORD
  5
ADE3
102
{ACAD_REACTORS
330
ADE2
102
}
330
ADE2
100
AcDbXrecord
280
     1
102
RTVSPost2010Prop28
280
     0
102
RTVSPost2010PropOp28
 70
     1
102
RTVSPost2010Prop29
280
     1
102
RTVSPost2010PropOp29
 70
     1
102
RTVSPost2010Prop30
280
     1
102
RTVSPost2010PropOp30
 70
     1
102
RTVSPost2010Prop31
280
     0
102
RTVSPost2010PropOp31
 70
     1
102
RTVSPost2010Prop32
280
     0
102
RTVSPost2010PropOp32
 70
     1
102
RTVSPost2010Prop33
280
     0
102
RTVSPost2010PropOp33
 70
     1
102
RTVSPost2010Prop34
280
     0
102
RTVSPost2010PropOp34
 70
     1
102
RTVSPost2010Prop35
280
     0
102
RTVSPost2010PropOp35
 70
     1
102
RTVSPost2010Prop36
280
     0
102
RTVSPost2010PropOp36
 70
     1
102
RTVSPost2010Prop37
 90
       50
102
RTVSPost2010PropOp37
 70
     1
102
RTVSPost2010Prop38
140
0.0
102
RTVSPost2010PropOp38
 70
     1
102
RTVSPost2010Prop39
140
1.0
102
RTVSPost2010PropOp39
 70
     1
102
RTVSPost2010Prop40
 90
        0
102
RTVSPost2010PropOp40
 70
     1
102
RTVSPost2010Prop41ColorIndex
 90
       18
102
RTVSPost2010Prop41ColorRGB
 90
        0
102
RTVSPost2010PropOp41
 70
     1
102
RTVSPost2010Prop42
 90
       50
102
RTVSPost2010PropOp42
 70
     1
102
RTVSPost2010Prop43
 90
        3
102
RTVSPost2010PropOp43
 70
     1
102
RTVSPost2010Prop44ColorIndex
 90
        5
102
RTVSPost2010Prop44ColorRGB
 90
      255
102
RTVSPost2010PropOp44
 70
     1
102
RTVSPost2010Prop45
280
     0
102
RTVSPost2010PropOp45
 70
     1
102
RTVSPost2010Prop46
 90
       50
102
RTVSPost2010PropOp46
 70
     1
102
RTVSPost2010Prop47
 90
       50
102
RTVSPost2010PropOp47
 70
     1
102
RTVSPost2010Prop48
 90
       50
102
RTVSPost2010PropOp48
 70
     1
102
RTVSPost2010Prop49
280
     0
102
RTVSPost2010PropOp49
 70
     1
102
RTVSPost2010Prop50
 90
       50
102
RTVSPost2010PropOp50
 70
     1
102
RTVSPost2010Prop51ColorIndex
 90
      256
102
RTVSPost2010Prop51ColorRGB
 90
-16777216
102
RTVSPost2010PropOp51
 70
     0
102
RTVSPost2010Prop52
140
1.0
102
RTVSPost2010PropOp52
 70
     0
102
RTVSPost2010Prop53
 90
        2
102
RTVSPost2010PropOp53
 70
     1
102
RTVSPost2010Prop54
  1
strokes_ogs.tif
102
RTVSPost2010PropOp54
 70
     1
102
RTVSPost2010Prop55
280
     0
102
RTVSPost2010PropOp55
 70
     1
102
RTVSPost2010Prop56
140
1.0
102
RTVSPost2010PropOp56
 70
     1
102
RTVSPost2010Prop57
140
1.0
102
RTVSPost2010PropOp57
 70
     1
102
RTVSPropertyOp0
 70
     1
102
RTVSPropertyOp1
 70
     1
102
RTVSPropertyOp2
 70
     1
102
RTVSPropertyOp3
 70
     1
102
RTVSPropertyOp4
 70
     1
102
RTVSPropertyOp5
 70
     1
102
RTVSPropertyOp6
 70
     1
102
RTVSPropertyOp7
 70
     1
102
RTVSPropertyOp8
 70
     1
102
RTVSPropertyOp9
 70
     1
102
RTVSPropertyOp10
 70
     1
102
RTVSPropertyOp11
 70
     1
102
RTVSPropertyOp12
 70
     1
102
RTVSPropertyOp13
 70
     1
102
RTVSPropertyOp14
 70
     1
102
RTVSPropertyOp15
 70
     1
102
RTVSPropertyOp16
 70
     1
102
RTVSPropertyOp17
 70
     1
102
RTVSPropertyOp18
 70
     1
102
RTVSPropertyOp19
 70
     1
102
RTVSPropertyOp20
 70
     1
102
RTVSPropertyOp21
 70
     1
102
RTVSPropertyOp22
 70
     1
102
RTVSPropertyOp23
 70
     1
102
RTVSPropertyOp24
 70
     1
102
RTVSPropertyOp25
 70
     1
102
RTVSPropertyOp26
 70
     1
102
RTVSPropertyOp27
 70
     1
102
RTVSPropertyOp28
 70
     1
102
RTVSPropertyOp29
 70
     1
102
RTVSPropertyOp30
 70
     1
102
RTVSPropertyOp31
 70
     1
102
RTVSPropertyOp32
 70
     1
102
RTVSPropertyOp33
 70
     1
102
RTVSPropertyOp34
 70
     1
102
RTVSPropertyOp35
 70
     1
102
RTVSPropertyOp36
 70
     1
102
RTVSPropertyOp37
 70
     1
102
RTVSPropertyOp38
 70
     1
102
RTVSPropertyOp39
 70
     1
102
RTVSPropertyOp40
 70
     1
102
RTVSPropertyOp41
 70
     1
102
RTVSPropertyOp42
 70
     1
102
RTVSPropertyOp43
 70
     1
102
RTVSPropertyOp44
 70
     1
102
RTVSPropertyOp45
 70
     1
102
RTVSPropertyOp46
 70
     1
102
RTVSPropertyOp47
 70
     1
102
RTVSPropertyOp48
 70
     1
102
RTVSPropertyOp49
 70
     1
102
RTVSPropertyOp50
 70
     1
102
RTVSPropertyOp51
 70
     0
102
RTVSPropertyOp52
 70
     0
102
RTVSPropertyOp53
 70
     1
102
RTVSPropertyOp54
 70
     1
102
RTVSPropertyOp55
 70
     1
102
RTVSPropertyOp56
 70
     1
102
RTVSPropertyOp57
 70
     1
102
RTVSPropertyOp58
 70
     1
102
RTVSPropertyOp59
 70
     1
102
RTVSPropertyOp60
 70
     1
102
RTVSPropertyOp61
 70
     1
102
RTVSPropertyOp62
 70
     1
  0
XRECORD
  5
ADFD
102
{ACAD_REACTORS
330
ADFC
102
}
330
ADFC
100
AcDbXrecord
280
     1
102
RTVSPost2010Prop28
280
     0
102
RTVSPost2010PropOp28
 70
     1
102
RTVSPost2010Prop29
280
     1
102
RTVSPost2010PropOp29
 70
     1
102
RTVSPost2010Prop30
280
     1
102
RTVSPost2010PropOp30
 70
     1
102
RTVSPost2010Prop31
280
     0
102
RTVSPost2010PropOp31
 70
     1
102
RTVSPost2010Prop32
280
     0
102
RTVSPost2010PropOp32
 70
     1
102
RTVSPost2010Prop33
280
     0
102
RTVSPost2010PropOp33
 70
     1
102
RTVSPost2010Prop34
280
     0
102
RTVSPost2010PropOp34
 70
     1
102
RTVSPost2010Prop35
280
     0
102
RTVSPost2010PropOp35
 70
     1
102
RTVSPost2010Prop36
280
     0
102
RTVSPost2010PropOp36
 70
     1
102
RTVSPost2010Prop37
 90
       50
102
RTVSPost2010PropOp37
 70
     0
102
RTVSPost2010Prop38
140
0.0
102
RTVSPost2010PropOp38
 70
     0
102
RTVSPost2010Prop39
140
1.0
102
RTVSPost2010PropOp39
 70
     0
102
RTVSPost2010Prop40
 90
        0
102
RTVSPost2010PropOp40
 70
     0
102
RTVSPost2010Prop41ColorIndex
 90
       18
102
RTVSPost2010Prop41ColorRGB
 90
        0
102
RTVSPost2010PropOp41
 70
     0
102
RTVSPost2010Prop42
 90
       50
102
RTVSPost2010PropOp42
 70
     0
102
RTVSPost2010Prop43
 90
        3
102
RTVSPost2010PropOp43
 70
     0
102
RTVSPost2010Prop44ColorIndex
 90
        5
102
RTVSPost2010Prop44ColorRGB
 90
      255
102
RTVSPost2010PropOp44
 70
     0
102
RTVSPost2010Prop45
280
     0
102
RTVSPost2010PropOp45
 70
     1
102
RTVSPost2010Prop46
 90
       50
102
RTVSPost2010PropOp46
 70
     0
102
RTVSPost2010Prop47
 90
       50
102
RTVSPost2010PropOp47
 70
     0
102
RTVSPost2010Prop48
 90
       50
102
RTVSPost2010PropOp48
 70
     0
102
RTVSPost2010Prop49
280
     0
102
RTVSPost2010PropOp49
 70
     1
102
RTVSPost2010Prop50
 90
       50
102
RTVSPost2010PropOp50
 70
     0
102
RTVSPost2010Prop51ColorIndex
 90
      256
102
RTVSPost2010Prop51ColorRGB
 90
-16777216
102
RTVSPost2010PropOp51
 70
     0
102
RTVSPost2010Prop52
140
1.0
102
RTVSPost2010PropOp52
 70
     0
102
RTVSPost2010Prop53
 90
        2
102
RTVSPost2010PropOp53
 70
     0
102
RTVSPost2010Prop54
  1
strokes_ogs.tif
102
RTVSPost2010PropOp54
 70
     0
102
RTVSPost2010Prop55
280
     0
102
RTVSPost2010PropOp55
 70
     1
102
RTVSPost2010Prop56
140
1.0
102
RTVSPost2010PropOp56
 70
     0
102
RTVSPost2010Prop57
140
1.0
102
RTVSPost2010PropOp57
 70
     0
102
RTVSPropertyOp0
 70
     0
102
RTVSPropertyOp1
 70
     0
102
RTVSPropertyOp2
 70
     0
102
RTVSPropertyOp3
 70
     0
102
RTVSPropertyOp4
 70
     0
102
RTVSPropertyOp5
 70
     0
102
RTVSPropertyOp6
 70
     0
102
RTVSPropertyOp7
 70
     0
102
RTVSPropertyOp8
 70
     0
102
RTVSPropertyOp9
 70
     0
102
RTVSPropertyOp10
 70
     0
102
RTVSPropertyOp11
 70
     0
102
RTVSPropertyOp12
 70
     0
102
RTVSPropertyOp13
 70
     0
102
RTVSPropertyOp14
 70
     2
102
RTVSPropertyOp15
 70
     0
102
RTVSPropertyOp16
 70
     0
102
RTVSPropertyOp17
 70
     0
102
RTVSPropertyOp18
 70
     0
102
RTVSPropertyOp19
 70
     0
102
RTVSPropertyOp20
 70
     0
102
RTVSPropertyOp21
 70
     0
102
RTVSPropertyOp22
 70
     0
102
RTVSPropertyOp23
 70
     0
102
RTVSPropertyOp24
 70
     0
102
RTVSPropertyOp25
 70
     0
102
RTVSPropertyOp26
 70
     0
102
RTVSPropertyOp27
 70
     0
102
RTVSPropertyOp28
 70
     1
102
RTVSPropertyOp29
 70
     1
102
RTVSPropertyOp30
 70
     1
102
RTVSPropertyOp31
 70
     1
102
RTVSPropertyOp32
 70
     1
102
RTVSPropertyOp33
 70
     1
102
RTVSPropertyOp34
 70
     1
102
RTVSPropertyOp35
 70
     1
102
RTVSPropertyOp36
 70
     1
102
RTVSPropertyOp37
 70
     0
102
RTVSPropertyOp38
 70
     0
102
RTVSPropertyOp39
 70
     0
102
RTVSPropertyOp40
 70
     0
102
RTVSPropertyOp41
 70
     0
102
RTVSPropertyOp42
 70
     0
102
RTVSPropertyOp43
 70
     0
102
RTVSPropertyOp44
 70
     0
102
RTVSPropertyOp45
 70
     1
102
RTVSPropertyOp46
 70
     0
102
RTVSPropertyOp47
 70
     0
102
RTVSPropertyOp48
 70
     0
102
RTVSPropertyOp49
 70
     1
102
RTVSPropertyOp50
 70
     0
102
RTVSPropertyOp51
 70
     0
102
RTVSPropertyOp52
 70
     0
102
RTVSPropertyOp53
 70
     0
102
RTVSPropertyOp54
 70
     0
102
RTVSPropertyOp55
 70
     1
102
RTVSPropertyOp56
 70
     0
102
RTVSPropertyOp57
 70
     0
102
RTVSPropertyOp58
 70
     0
102
RTVSPropertyOp59
 70
     0
102
RTVSPropertyOp60
 70
     0
102
RTVSPropertyOp61
 70
     0
102
RTVSPropertyOp62
 70
     0
  0
XRECORD
  5
ADEB
102
{ACAD_REACTORS
330
ADEA
102
}
330
ADEA
100
AcDbXrecord
280
     1
102
RTVSPost2010Prop28
280
     0
102
RTVSPost2010PropOp28
 70
     1
102
RTVSPost2010Prop29
280
     1
102
RTVSPost2010PropOp29
 70
     1
102
RTVSPost2010Prop30
280
     1
102
RTVSPost2010PropOp30
 70
     1
102
RTVSPost2010Prop31
280
     0
102
RTVSPost2010PropOp31
 70
     1
102
RTVSPost2010Prop32
280
     0
102
RTVSPost2010PropOp32
 70
     1
102
RTVSPost2010Prop33
280
     0
102
RTVSPost2010PropOp33
 70
     1
102
RTVSPost2010Prop34
280
     0
102
RTVSPost2010PropOp34
 70
     1
102
RTVSPost2010Prop35
280
     0
102
RTVSPost2010PropOp35
 70
     1
102
RTVSPost2010Prop36
280
     0
102
RTVSPost2010PropOp36
 70
     1
102
RTVSPost2010Prop37
 90
       50
102
RTVSPost2010PropOp37
 70
     1
102
RTVSPost2010Prop38
140
0.0
102
RTVSPost2010PropOp38
 70
     1
102
RTVSPost2010Prop39
140
1.0
102
RTVSPost2010PropOp39
 70
     1
102
RTVSPost2010Prop40
 90
        0
102
RTVSPost2010PropOp40
 70
     1
102
RTVSPost2010Prop41ColorIndex
 90
       18
102
RTVSPost2010Prop41ColorRGB
 90
        0
102
RTVSPost2010PropOp41
 70
     1
102
RTVSPost2010Prop42
 90
       50
102
RTVSPost2010PropOp42
 70
     1
102
RTVSPost2010Prop43
 90
        3
102
RTVSPost2010PropOp43
 70
     1
102
RTVSPost2010Prop44ColorIndex
 90
        5
102
RTVSPost2010Prop44ColorRGB
 90
      255
102
RTVSPost2010PropOp44
 70
     1
102
RTVSPost2010Prop45
280
     0
102
RTVSPost2010PropOp45
 70
     1
102
RTVSPost2010Prop46
 90
       50
102
RTVSPost2010PropOp46
 70
     1
102
RTVSPost2010Prop47
 90
       50
102
RTVSPost2010PropOp47
 70
     1
102
RTVSPost2010Prop48
 90
       50
102
RTVSPost2010PropOp48
 70
     1
102
RTVSPost2010Prop49
280
     0
102
RTVSPost2010PropOp49
 70
     1
102
RTVSPost2010Prop50
 90
       50
102
RTVSPost2010PropOp50
 70
     1
102
RTVSPost2010Prop51ColorIndex
 90
      256
102
RTVSPost2010Prop51ColorRGB
 90
-16777216
102
RTVSPost2010PropOp51
 70
     0
102
RTVSPost2010Prop52
140
1.0
102
RTVSPost2010PropOp52
 70
     0
102
RTVSPost2010Prop53
 90
        2
102
RTVSPost2010PropOp53
 70
     1
102
RTVSPost2010Prop54
  1
strokes_ogs.tif
102
RTVSPost2010PropOp54
 70
     1
102
RTVSPost2010Prop55
280
     0
102
RTVSPost2010PropOp55
 70
     1
102
RTVSPost2010Prop56
140
1.0
102
RTVSPost2010PropOp56
 70
     1
102
RTVSPost2010Prop57
140
1.0
102
RTVSPost2010PropOp57
 70
     1
102
RTVSPropertyOp0
 70
     1
102
RTVSPropertyOp1
 70
     1
102
RTVSPropertyOp2
 70
     1
102
RTVSPropertyOp3
 70
     1
102
RTVSPropertyOp4
 70
     1
102
RTVSPropertyOp5
 70
     1
102
RTVSPropertyOp6
 70
     1
102
RTVSPropertyOp7
 70
     1
102
RTVSPropertyOp8
 70
     1
102
RTVSPropertyOp9
 70
     1
102
RTVSPropertyOp10
 70
     1
102
RTVSPropertyOp11
 70
     1
102
RTVSPropertyOp12
 70
     1
102
RTVSPropertyOp13
 70
     1
102
RTVSPropertyOp14
 70
     1
102
RTVSPropertyOp15
 70
     1
102
RTVSPropertyOp16
 70
     1
102
RTVSPropertyOp17
 70
     1
102
RTVSPropertyOp18
 70
     1
102
RTVSPropertyOp19
 70
     1
102
RTVSPropertyOp20
 70
     1
102
RTVSPropertyOp21
 70
     1
102
RTVSPropertyOp22
 70
     1
102
RTVSPropertyOp23
 70
     1
102
RTVSPropertyOp24
 70
     1
102
RTVSPropertyOp25
 70
     1
102
RTVSPropertyOp26
 70
     1
102
RTVSPropertyOp27
 70
     1
102
RTVSPropertyOp28
 70
     1
102
RTVSPropertyOp29
 70
     1
102
RTVSPropertyOp30
 70
     1
102
RTVSPropertyOp31
 70
     1
102
RTVSPropertyOp32
 70
     1
102
RTVSPropertyOp33
 70
     1
102
RTVSPropertyOp34
 70
     1
102
RTVSPropertyOp35
 70
     1
102
RTVSPropertyOp36
 70
     1
102
RTVSPropertyOp37
 70
     1
102
RTVSPropertyOp38
 70
     1
102
RTVSPropertyOp39
 70
     1
102
RTVSPropertyOp40
 70
     1
102
RTVSPropertyOp41
 70
     1
102
RTVSPropertyOp42
 70
     1
102
RTVSPropertyOp43
 70
     1
102
RTVSPropertyOp44
 70
     1
102
RTVSPropertyOp45
 70
     1
102
RTVSPropertyOp46
 70
     1
102
RTVSPropertyOp47
 70
     1
102
RTVSPropertyOp48
 70
     1
102
RTVSPropertyOp49
 70
     1
102
RTVSPropertyOp50
 70
     1
102
RTVSPropertyOp51
 70
     0
102
RTVSPropertyOp52
 70
     0
102
RTVSPropertyOp53
 70
     1
102
RTVSPropertyOp54
 70
     1
102
RTVSPropertyOp55
 70
     1
102
RTVSPropertyOp56
 70
     1
102
RTVSPropertyOp57
 70
     1
102
RTVSPropertyOp58
 70
     1
102
RTVSPropertyOp59
 70
     1
102
RTVSPropertyOp60
 70
     1
102
RTVSPropertyOp61
 70
     1
102
RTVSPropertyOp62
 70
     1
  0
XRECORD
  5
ADCF
102
{ACAD_REACTORS
330
ADCE
102
}
330
ADCE
100
AcDbXrecord
280
     1
102
RTVSPost2010Prop28
280
     0
102
RTVSPost2010PropOp28
 70
     1
102
RTVSPost2010Prop29
280
     1
102
RTVSPost2010PropOp29
 70
     1
102
RTVSPost2010Prop30
280
     1
102
RTVSPost2010PropOp30
 70
     1
102
RTVSPost2010Prop31
280
     0
102
RTVSPost2010PropOp31
 70
     1
102
RTVSPost2010Prop32
280
     0
102
RTVSPost2010PropOp32
 70
     1
102
RTVSPost2010Prop33
280
     0
102
RTVSPost2010PropOp33
 70
     1
102
RTVSPost2010Prop34
280
     0
102
RTVSPost2010PropOp34
 70
     1
102
RTVSPost2010Prop35
280
     0
102
RTVSPost2010PropOp35
 70
     1
102
RTVSPost2010Prop36
280
     0
102
RTVSPost2010PropOp36
 70
     1
102
RTVSPost2010Prop37
 90
       50
102
RTVSPost2010PropOp37
 70
     1
102
RTVSPost2010Prop38
140
0.0
102
RTVSPost2010PropOp38
 70
     1
102
RTVSPost2010Prop39
140
1.0
102
RTVSPost2010PropOp39
 70
     1
102
RTVSPost2010Prop40
 90
        0
102
RTVSPost2010PropOp40
 70
     1
102
RTVSPost2010Prop41ColorIndex
 90
       18
102
RTVSPost2010Prop41ColorRGB
 90
        0
102
RTVSPost2010PropOp41
 70
     1
102
RTVSPost2010Prop42
 90
       50
102
RTVSPost2010PropOp42
 70
     1
102
RTVSPost2010Prop43
 90
        3
102
RTVSPost2010PropOp43
 70
     1
102
RTVSPost2010Prop44ColorIndex
 90
        5
102
RTVSPost2010Prop44ColorRGB
 90
      255
102
RTVSPost2010PropOp44
 70
     1
102
RTVSPost2010Prop45
280
     0
102
RTVSPost2010PropOp45
 70
     1
102
RTVSPost2010Prop46
 90
       50
102
RTVSPost2010PropOp46
 70
     1
102
RTVSPost2010Prop47
 90
       50
102
RTVSPost2010PropOp47
 70
     1
102
RTVSPost2010Prop48
 90
       50
102
RTVSPost2010PropOp48
 70
     1
102
RTVSPost2010Prop49
280
     0
102
RTVSPost2010PropOp49
 70
     1
102
RTVSPost2010Prop50
 90
       50
102
RTVSPost2010PropOp50
 70
     1
102
RTVSPost2010Prop51ColorIndex
 90
      256
102
RTVSPost2010Prop51ColorRGB
 90
-16777216
102
RTVSPost2010PropOp51
 70
     0
102
RTVSPost2010Prop52
140
1.0
102
RTVSPost2010PropOp52
 70
     0
102
RTVSPost2010Prop53
 90
        2
102
RTVSPost2010PropOp53
 70
     1
102
RTVSPost2010Prop54
  1
strokes_ogs.tif
102
RTVSPost2010PropOp54
 70
     1
102
RTVSPost2010Prop55
280
     0
102
RTVSPost2010PropOp55
 70
     1
102
RTVSPost2010Prop56
140
1.0
102
RTVSPost2010PropOp56
 70
     1
102
RTVSPost2010Prop57
140
1.0
102
RTVSPost2010PropOp57
 70
     1
102
RTVSPropertyOp0
 70
     1
102
RTVSPropertyOp1
 70
     1
102
RTVSPropertyOp2
 70
     1
102
RTVSPropertyOp3
 70
     1
102
RTVSPropertyOp4
 70
     1
102
RTVSPropertyOp5
 70
     1
102
RTVSPropertyOp6
 70
     1
102
RTVSPropertyOp7
 70
     1
102
RTVSPropertyOp8
 70
     1
102
RTVSPropertyOp9
 70
     1
102
RTVSPropertyOp10
 70
     1
102
RTVSPropertyOp11
 70
     1
102
RTVSPropertyOp12
 70
     1
102
RTVSPropertyOp13
 70
     1
102
RTVSPropertyOp14
 70
     1
102
RTVSPropertyOp15
 70
     1
102
RTVSPropertyOp16
 70
     1
102
RTVSPropertyOp17
 70
     1
102
RTVSPropertyOp18
 70
     1
102
RTVSPropertyOp19
 70
     1
102
RTVSPropertyOp20
 70
     1
102
RTVSPropertyOp21
 70
     1
102
RTVSPropertyOp22
 70
     1
102
RTVSPropertyOp23
 70
     1
102
RTVSPropertyOp24
 70
     1
102
RTVSPropertyOp25
 70
     1
102
RTVSPropertyOp26
 70
     1
102
RTVSPropertyOp27
 70
     1
102
RTVSPropertyOp28
 70
     1
102
RTVSPropertyOp29
 70
     1
102
RTVSPropertyOp30
 70
     1
102
RTVSPropertyOp31
 70
     1
102
RTVSPropertyOp32
 70
     1
102
RTVSPropertyOp33
 70
     1
102
RTVSPropertyOp34
 70
     1
102
RTVSPropertyOp35
 70
     1
102
RTVSPropertyOp36
 70
     1
102
RTVSPropertyOp37
 70
     1
102
RTVSPropertyOp38
 70
     1
102
RTVSPropertyOp39
 70
     1
102
RTVSPropertyOp40
 70
     1
102
RTVSPropertyOp41
 70
     1
102
RTVSPropertyOp42
 70
     1
102
RTVSPropertyOp43
 70
     1
102
RTVSPropertyOp44
 70
     1
102
RTVSPropertyOp45
 70
     1
102
RTVSPropertyOp46
 70
     1
102
RTVSPropertyOp47
 70
     1
102
RTVSPropertyOp48
 70
     1
102
RTVSPropertyOp49
 70
     1
102
RTVSPropertyOp50
 70
     1
102
RTVSPropertyOp51
 70
     0
102
RTVSPropertyOp52
 70
     0
102
RTVSPropertyOp53
 70
     1
102
RTVSPropertyOp54
 70
     1
102
RTVSPropertyOp55
 70
     1
102
RTVSPropertyOp56
 70
     1
102
RTVSPropertyOp57
 70
     1
102
RTVSPropertyOp58
 70
     1
102
RTVSPropertyOp59
 70
     1
102
RTVSPropertyOp60
 70
     1
102
RTVSPropertyOp61
 70
     1
102
RTVSPropertyOp62
 70
     1
  0
XRECORD
  5
ADD1
102
{ACAD_REACTORS
330
ADD0
102
}
330
ADD0
100
AcDbXrecord
280
     1
102
RTVSPost2010Prop28
280
     0
102
RTVSPost2010PropOp28
 70
     1
102
RTVSPost2010Prop29
280
     1
102
RTVSPost2010PropOp29
 70
     1
102
RTVSPost2010Prop30
280
     1
102
RTVSPost2010PropOp30
 70
     1
102
RTVSPost2010Prop31
280
     0
102
RTVSPost2010PropOp31
 70
     1
102
RTVSPost2010Prop32
280
     0
102
RTVSPost2010PropOp32
 70
     1
102
RTVSPost2010Prop33
280
     0
102
RTVSPost2010PropOp33
 70
     1
102
RTVSPost2010Prop34
280
     0
102
RTVSPost2010PropOp34
 70
     1
102
RTVSPost2010Prop35
280
     0
102
RTVSPost2010PropOp35
 70
     1
102
RTVSPost2010Prop36
280
     0
102
RTVSPost2010PropOp36
 70
     1
102
RTVSPost2010Prop37
 90
       50
102
RTVSPost2010PropOp37
 70
     1
102
RTVSPost2010Prop38
140
0.0
102
RTVSPost2010PropOp38
 70
     1
102
RTVSPost2010Prop39
140
1.0
102
RTVSPost2010PropOp39
 70
     1
102
RTVSPost2010Prop40
 90
        0
102
RTVSPost2010PropOp40
 70
     1
102
RTVSPost2010Prop41ColorIndex
 90
       18
102
RTVSPost2010Prop41ColorRGB
 90
        0
102
RTVSPost2010PropOp41
 70
     1
102
RTVSPost2010Prop42
 90
       50
102
RTVSPost2010PropOp42
 70
     1
102
RTVSPost2010Prop43
 90
        3
102
RTVSPost2010PropOp43
 70
     1
102
RTVSPost2010Prop44ColorIndex
 90
        5
102
RTVSPost2010Prop44ColorRGB
 90
      255
102
RTVSPost2010PropOp44
 70
     1
102
RTVSPost2010Prop45
280
     0
102
RTVSPost2010PropOp45
 70
     1
102
RTVSPost2010Prop46
 90
       50
102
RTVSPost2010PropOp46
 70
     1
102
RTVSPost2010Prop47
 90
       50
102
RTVSPost2010PropOp47
 70
     1
102
RTVSPost2010Prop48
 90
       50
102
RTVSPost2010PropOp48
 70
     1
102
RTVSPost2010Prop49
280
     0
102
RTVSPost2010PropOp49
 70
     1
102
RTVSPost2010Prop50
 90
       50
102
RTVSPost2010PropOp50
 70
     1
102
RTVSPost2010Prop51ColorIndex
 90
      256
102
RTVSPost2010Prop51ColorRGB
 90
-16777216
102
RTVSPost2010PropOp51
 70
     0
102
RTVSPost2010Prop52
140
1.0
102
RTVSPost2010PropOp52
 70
     0
102
RTVSPost2010Prop53
 90
        2
102
RTVSPost2010PropOp53
 70
     1
102
RTVSPost2010Prop54
  1
strokes_ogs.tif
102
RTVSPost2010PropOp54
 70
     1
102
RTVSPost2010Prop55
280
     0
102
RTVSPost2010PropOp55
 70
     1
102
RTVSPost2010Prop56
140
1.0
102
RTVSPost2010PropOp56
 70
     1
102
RTVSPost2010Prop57
140
1.0
102
RTVSPost2010PropOp57
 70
     1
102
RTVSPropertyOp0
 70
     1
102
RTVSPropertyOp1
 70
     1
102
RTVSPropertyOp2
 70
     1
102
RTVSPropertyOp3
 70
     1
102
RTVSPropertyOp4
 70
     1
102
RTVSPropertyOp5
 70
     1
102
RTVSPropertyOp6
 70
     1
102
RTVSPropertyOp7
 70
     1
102
RTVSPropertyOp8
 70
     1
102
RTVSPropertyOp9
 70
     1
102
RTVSPropertyOp10
 70
     1
102
RTVSPropertyOp11
 70
     1
102
RTVSPropertyOp12
 70
     1
102
RTVSPropertyOp13
 70
     1
102
RTVSPropertyOp14
 70
     1
102
RTVSPropertyOp15
 70
     1
102
RTVSPropertyOp16
 70
     1
102
RTVSPropertyOp17
 70
     1
102
RTVSPropertyOp18
 70
     1
102
RTVSPropertyOp19
 70
     1
102
RTVSPropertyOp20
 70
     1
102
RTVSPropertyOp21
 70
     1
102
RTVSPropertyOp22
 70
     1
102
RTVSPropertyOp23
 70
     1
102
RTVSPropertyOp24
 70
     1
102
RTVSPropertyOp25
 70
     1
102
RTVSPropertyOp26
 70
     1
102
RTVSPropertyOp27
 70
     1
102
RTVSPropertyOp28
 70
     1
102
RTVSPropertyOp29
 70
     1
102
RTVSPropertyOp30
 70
     1
102
RTVSPropertyOp31
 70
     1
102
RTVSPropertyOp32
 70
     1
102
RTVSPropertyOp33
 70
     1
102
RTVSPropertyOp34
 70
     1
102
RTVSPropertyOp35
 70
     1
102
RTVSPropertyOp36
 70
     1
102
RTVSPropertyOp37
 70
     1
102
RTVSPropertyOp38
 70
     1
102
RTVSPropertyOp39
 70
     1
102
RTVSPropertyOp40
 70
     1
102
RTVSPropertyOp41
 70
     1
102
RTVSPropertyOp42
 70
     1
102
RTVSPropertyOp43
 70
     1
102
RTVSPropertyOp44
 70
     1
102
RTVSPropertyOp45
 70
     1
102
RTVSPropertyOp46
 70
     1
102
RTVSPropertyOp47
 70
     1
102
RTVSPropertyOp48
 70
     1
102
RTVSPropertyOp49
 70
     1
102
RTVSPropertyOp50
 70
     1
102
RTVSPropertyOp51
 70
     0
102
RTVSPropertyOp52
 70
     0
102
RTVSPropertyOp53
 70
     1
102
RTVSPropertyOp54
 70
     1
102
RTVSPropertyOp55
 70
     1
102
RTVSPropertyOp56
 70
     1
102
RTVSPropertyOp57
 70
     1
102
RTVSPropertyOp58
 70
     1
102
RTVSPropertyOp59
 70
     1
102
RTVSPropertyOp60
 70
     1
102
RTVSPropertyOp61
 70
     1
102
RTVSPropertyOp62
 70
     1
  0
XRECORD
  5
ADD3
102
{ACAD_REACTORS
330
ADD2
102
}
330
ADD2
100
AcDbXrecord
280
     1
102
RTVSPost2010Prop28
280
     0
102
RTVSPost2010PropOp28
 70
     1
102
RTVSPost2010Prop29
280
     1
102
RTVSPost2010PropOp29
 70
     1
102
RTVSPost2010Prop30
280
     1
102
RTVSPost2010PropOp30
 70
     1
102
RTVSPost2010Prop31
280
     0
102
RTVSPost2010PropOp31
 70
     1
102
RTVSPost2010Prop32
280
     0
102
RTVSPost2010PropOp32
 70
     1
102
RTVSPost2010Prop33
280
     0
102
RTVSPost2010PropOp33
 70
     1
102
RTVSPost2010Prop34
280
     0
102
RTVSPost2010PropOp34
 70
     1
102
RTVSPost2010Prop35
280
     0
102
RTVSPost2010PropOp35
 70
     1
102
RTVSPost2010Prop36
280
     0
102
RTVSPost2010PropOp36
 70
     1
102
RTVSPost2010Prop37
 90
       50
102
RTVSPost2010PropOp37
 70
     1
102
RTVSPost2010Prop38
140
0.0
102
RTVSPost2010PropOp38
 70
     1
102
RTVSPost2010Prop39
140
1.0
102
RTVSPost2010PropOp39
 70
     1
102
RTVSPost2010Prop40
 90
        0
102
RTVSPost2010PropOp40
 70
     1
102
RTVSPost2010Prop41ColorIndex
 90
       18
102
RTVSPost2010Prop41ColorRGB
 90
        0
102
RTVSPost2010PropOp41
 70
     1
102
RTVSPost2010Prop42
 90
       50
102
RTVSPost2010PropOp42
 70
     1
102
RTVSPost2010Prop43
 90
        3
102
RTVSPost2010PropOp43
 70
     1
102
RTVSPost2010Prop44ColorIndex
 90
        5
102
RTVSPost2010Prop44ColorRGB
 90
      255
102
RTVSPost2010PropOp44
 70
     1
102
RTVSPost2010Prop45
280
     0
102
RTVSPost2010PropOp45
 70
     1
102
RTVSPost2010Prop46
 90
       50
102
RTVSPost2010PropOp46
 70
     1
102
RTVSPost2010Prop47
 90
       50
102
RTVSPost2010PropOp47
 70
     1
102
RTVSPost2010Prop48
 90
       50
102
RTVSPost2010PropOp48
 70
     1
102
RTVSPost2010Prop49
280
     0
102
RTVSPost2010PropOp49
 70
     1
102
RTVSPost2010Prop50
 90
       50
102
RTVSPost2010PropOp50
 70
     1
102
RTVSPost2010Prop51ColorIndex
 90
      256
102
RTVSPost2010Prop51ColorRGB
 90
-16777216
102
RTVSPost2010PropOp51
 70
     0
102
RTVSPost2010Prop52
140
1.0
102
RTVSPost2010PropOp52
 70
     0
102
RTVSPost2010Prop53
 90
        2
102
RTVSPost2010PropOp53
 70
     1
102
RTVSPost2010Prop54
  1
strokes_ogs.tif
102
RTVSPost2010PropOp54
 70
     1
102
RTVSPost2010Prop55
280
     0
102
RTVSPost2010PropOp55
 70
     1
102
RTVSPost2010Prop56
140
1.0
102
RTVSPost2010PropOp56
 70
     1
102
RTVSPost2010Prop57
140
1.0
102
RTVSPost2010PropOp57
 70
     1
102
RTVSPropertyOp0
 70
     1
102
RTVSPropertyOp1
 70
     1
102
RTVSPropertyOp2
 70
     1
102
RTVSPropertyOp3
 70
     1
102
RTVSPropertyOp4
 70
     1
102
RTVSPropertyOp5
 70
     1
102
RTVSPropertyOp6
 70
     1
102
RTVSPropertyOp7
 70
     1
102
RTVSPropertyOp8
 70
     1
102
RTVSPropertyOp9
 70
     1
102
RTVSPropertyOp10
 70
     1
102
RTVSPropertyOp11
 70
     1
102
RTVSPropertyOp12
 70
     1
102
RTVSPropertyOp13
 70
     1
102
RTVSPropertyOp14
 70
     1
102
RTVSPropertyOp15
 70
     1
102
RTVSPropertyOp16
 70
     1
102
RTVSPropertyOp17
 70
     1
102
RTVSPropertyOp18
 70
     1
102
RTVSPropertyOp19
 70
     1
102
RTVSPropertyOp20
 70
     1
102
RTVSPropertyOp21
 70
     1
102
RTVSPropertyOp22
 70
     1
102
RTVSPropertyOp23
 70
     1
102
RTVSPropertyOp24
 70
     1
102
RTVSPropertyOp25
 70
     1
102
RTVSPropertyOp26
 70
     1
102
RTVSPropertyOp27
 70
     1
102
RTVSPropertyOp28
 70
     1
102
RTVSPropertyOp29
 70
     1
102
RTVSPropertyOp30
 70
     1
102
RTVSPropertyOp31
 70
     1
102
RTVSPropertyOp32
 70
     1
102
RTVSPropertyOp33
 70
     1
102
RTVSPropertyOp34
 70
     1
102
RTVSPropertyOp35
 70
     1
102
RTVSPropertyOp36
 70
     1
102
RTVSPropertyOp37
 70
     1
102
RTVSPropertyOp38
 70
     1
102
RTVSPropertyOp39
 70
     1
102
RTVSPropertyOp40
 70
     1
102
RTVSPropertyOp41
 70
     1
102
RTVSPropertyOp42
 70
     1
102
RTVSPropertyOp43
 70
     1
102
RTVSPropertyOp44
 70
     1
102
RTVSPropertyOp45
 70
     1
102
RTVSPropertyOp46
 70
     1
102
RTVSPropertyOp47
 70
     1
102
RTVSPropertyOp48
 70
     1
102
RTVSPropertyOp49
 70
     1
102
RTVSPropertyOp50
 70
     1
102
RTVSPropertyOp51
 70
     0
102
RTVSPropertyOp52
 70
     0
102
RTVSPropertyOp53
 70
     1
102
RTVSPropertyOp54
 70
     1
102
RTVSPropertyOp55
 70
     1
102
RTVSPropertyOp56
 70
     1
102
RTVSPropertyOp57
 70
     1
102
RTVSPropertyOp58
 70
     1
102
RTVSPropertyOp59
 70
     1
102
RTVSPropertyOp60
 70
     1
102
RTVSPropertyOp61
 70
     1
102
RTVSPropertyOp62
 70
     1
  0
XRECORD
  5
ADD5
102
{ACAD_REACTORS
330
ADD4
102
}
330
ADD4
100
AcDbXrecord
280
     1
102
RTVSPost2010Prop28
280
     0
102
RTVSPost2010PropOp28
 70
     1
102
RTVSPost2010Prop29
280
     1
102
RTVSPost2010PropOp29
 70
     1
102
RTVSPost2010Prop30
280
     1
102
RTVSPost2010PropOp30
 70
     1
102
RTVSPost2010Prop31
280
     0
102
RTVSPost2010PropOp31
 70
     1
102
RTVSPost2010Prop32
280
     0
102
RTVSPost2010PropOp32
 70
     1
102
RTVSPost2010Prop33
280
     0
102
RTVSPost2010PropOp33
 70
     1
102
RTVSPost2010Prop34
280
     0
102
RTVSPost2010PropOp34
 70
     1
102
RTVSPost2010Prop35
280
     0
102
RTVSPost2010PropOp35
 70
     1
102
RTVSPost2010Prop36
280
     0
102
RTVSPost2010PropOp36
 70
     1
102
RTVSPost2010Prop37
 90
       50
102
RTVSPost2010PropOp37
 70
     1
102
RTVSPost2010Prop38
140
0.0
102
RTVSPost2010PropOp38
 70
     1
102
RTVSPost2010Prop39
140
1.0
102
RTVSPost2010PropOp39
 70
     1
102
RTVSPost2010Prop40
 90
        0
102
RTVSPost2010PropOp40
 70
     1
102
RTVSPost2010Prop41ColorIndex
 90
       18
102
RTVSPost2010Prop41ColorRGB
 90
        0
102
RTVSPost2010PropOp41
 70
     1
102
RTVSPost2010Prop42
 90
       50
102
RTVSPost2010PropOp42
 70
     1
102
RTVSPost2010Prop43
 90
        3
102
RTVSPost2010PropOp43
 70
     1
102
RTVSPost2010Prop44ColorIndex
 90
        5
102
RTVSPost2010Prop44ColorRGB
 90
      255
102
RTVSPost2010PropOp44
 70
     1
102
RTVSPost2010Prop45
280
     0
102
RTVSPost2010PropOp45
 70
     1
102
RTVSPost2010Prop46
 90
       50
102
RTVSPost2010PropOp46
 70
     1
102
RTVSPost2010Prop47
 90
       50
102
RTVSPost2010PropOp47
 70
     1
102
RTVSPost2010Prop48
 90
       50
102
RTVSPost2010PropOp48
 70
     1
102
RTVSPost2010Prop49
280
     0
102
RTVSPost2010PropOp49
 70
     1
102
RTVSPost2010Prop50
 90
       50
102
RTVSPost2010PropOp50
 70
     1
102
RTVSPost2010Prop51ColorIndex
 90
      256
102
RTVSPost2010Prop51ColorRGB
 90
-16777216
102
RTVSPost2010PropOp51
 70
     0
102
RTVSPost2010Prop52
140
1.0
102
RTVSPost2010PropOp52
 70
     0
102
RTVSPost2010Prop53
 90
        2
102
RTVSPost2010PropOp53
 70
     1
102
RTVSPost2010Prop54
  1
strokes_ogs.tif
102
RTVSPost2010PropOp54
 70
     1
102
RTVSPost2010Prop55
280
     0
102
RTVSPost2010PropOp55
 70
     1
102
RTVSPost2010Prop56
140
1.0
102
RTVSPost2010PropOp56
 70
     1
102
RTVSPost2010Prop57
140
1.0
102
RTVSPost2010PropOp57
 70
     1
102
RTVSPropertyOp0
 70
     1
102
RTVSPropertyOp1
 70
     1
102
RTVSPropertyOp2
 70
     1
102
RTVSPropertyOp3
 70
     1
102
RTVSPropertyOp4
 70
     1
102
RTVSPropertyOp5
 70
     1
102
RTVSPropertyOp6
 70
     1
102
RTVSPropertyOp7
 70
     1
102
RTVSPropertyOp8
 70
     1
102
RTVSPropertyOp9
 70
     1
102
RTVSPropertyOp10
 70
     1
102
RTVSPropertyOp11
 70
     1
102
RTVSPropertyOp12
 70
     1
102
RTVSPropertyOp13
 70
     1
102
RTVSPropertyOp14
 70
     1
102
RTVSPropertyOp15
 70
     1
102
RTVSPropertyOp16
 70
     1
102
RTVSPropertyOp17
 70
     1
102
RTVSPropertyOp18
 70
     1
102
RTVSPropertyOp19
 70
     1
102
RTVSPropertyOp20
 70
     1
102
RTVSPropertyOp21
 70
     1
102
RTVSPropertyOp22
 70
     1
102
RTVSPropertyOp23
 70
     1
102
RTVSPropertyOp24
 70
     1
102
RTVSPropertyOp25
 70
     1
102
RTVSPropertyOp26
 70
     1
102
RTVSPropertyOp27
 70
     1
102
RTVSPropertyOp28
 70
     1
102
RTVSPropertyOp29
 70
     1
102
RTVSPropertyOp30
 70
     1
102
RTVSPropertyOp31
 70
     1
102
RTVSPropertyOp32
 70
     1
102
RTVSPropertyOp33
 70
     1
102
RTVSPropertyOp34
 70
     1
102
RTVSPropertyOp35
 70
     1
102
RTVSPropertyOp36
 70
     1
102
RTVSPropertyOp37
 70
     1
102
RTVSPropertyOp38
 70
     1
102
RTVSPropertyOp39
 70
     1
102
RTVSPropertyOp40
 70
     1
102
RTVSPropertyOp41
 70
     1
102
RTVSPropertyOp42
 70
     1
102
RTVSPropertyOp43
 70
     1
102
RTVSPropertyOp44
 70
     1
102
RTVSPropertyOp45
 70
     1
102
RTVSPropertyOp46
 70
     1
102
RTVSPropertyOp47
 70
     1
102
RTVSPropertyOp48
 70
     1
102
RTVSPropertyOp49
 70
     1
102
RTVSPropertyOp50
 70
     1
102
RTVSPropertyOp51
 70
     0
102
RTVSPropertyOp52
 70
     0
102
RTVSPropertyOp53
 70
     1
102
RTVSPropertyOp54
 70
     1
102
RTVSPropertyOp55
 70
     1
102
RTVSPropertyOp56
 70
     1
102
RTVSPropertyOp57
 70
     1
102
RTVSPropertyOp58
 70
     1
102
RTVSPropertyOp59
 70
     1
102
RTVSPropertyOp60
 70
     1
102
RTVSPropertyOp61
 70
     1
102
RTVSPropertyOp62
 70
     1
  0
XRECORD
  5
ADDD
102
{ACAD_REACTORS
330
ADDC
102
}
330
ADDC
100
AcDbXrecord
280
     1
102
RTVSPost2010Prop28
280
     0
102
RTVSPost2010PropOp28
 70
     1
102
RTVSPost2010Prop29
280
     1
102
RTVSPost2010PropOp29
 70
     1
102
RTVSPost2010Prop30
280
     1
102
RTVSPost2010PropOp30
 70
     1
102
RTVSPost2010Prop31
280
     0
102
RTVSPost2010PropOp31
 70
     1
102
RTVSPost2010Prop32
280
     0
102
RTVSPost2010PropOp32
 70
     1
102
RTVSPost2010Prop33
280
     0
102
RTVSPost2010PropOp33
 70
     1
102
RTVSPost2010Prop34
280
     0
102
RTVSPost2010PropOp34
 70
     1
102
RTVSPost2010Prop35
280
     0
102
RTVSPost2010PropOp35
 70
     1
102
RTVSPost2010Prop36
280
     0
102
RTVSPost2010PropOp36
 70
     1
102
RTVSPost2010Prop37
 90
       50
102
RTVSPost2010PropOp37
 70
     1
102
RTVSPost2010Prop38
140
0.0
102
RTVSPost2010PropOp38
 70
     1
102
RTVSPost2010Prop39
140
1.0
102
RTVSPost2010PropOp39
 70
     1
102
RTVSPost2010Prop40
 90
        0
102
RTVSPost2010PropOp40
 70
     1
102
RTVSPost2010Prop41ColorIndex
 90
       18
102
RTVSPost2010Prop41ColorRGB
 90
        0
102
RTVSPost2010PropOp41
 70
     1
102
RTVSPost2010Prop42
 90
       50
102
RTVSPost2010PropOp42
 70
     1
102
RTVSPost2010Prop43
 90
        3
102
RTVSPost2010PropOp43
 70
     1
102
RTVSPost2010Prop44ColorIndex
 90
        5
102
RTVSPost2010Prop44ColorRGB
 90
      255
102
RTVSPost2010PropOp44
 70
     1
102
RTVSPost2010Prop45
280
     0
102
RTVSPost2010PropOp45
 70
     1
102
RTVSPost2010Prop46
 90
       50
102
RTVSPost2010PropOp46
 70
     1
102
RTVSPost2010Prop47
 90
       50
102
RTVSPost2010PropOp47
 70
     1
102
RTVSPost2010Prop48
 90
       50
102
RTVSPost2010PropOp48
 70
     1
102
RTVSPost2010Prop49
280
     0
102
RTVSPost2010PropOp49
 70
     1
102
RTVSPost2010Prop50
 90
       50
102
RTVSPost2010PropOp50
 70
     1
102
RTVSPost2010Prop51ColorIndex
 90
      256
102
RTVSPost2010Prop51ColorRGB
 90
-16777216
102
RTVSPost2010PropOp51
 70
     0
102
RTVSPost2010Prop52
140
1.0
102
RTVSPost2010PropOp52
 70
     0
102
RTVSPost2010Prop53
 90
        2
102
RTVSPost2010PropOp53
 70
     1
102
RTVSPost2010Prop54
  1
strokes_ogs.tif
102
RTVSPost2010PropOp54
 70
     1
102
RTVSPost2010Prop55
280
     0
102
RTVSPost2010PropOp55
 70
     1
102
RTVSPost2010Prop56
140
1.0
102
RTVSPost2010PropOp56
 70
     1
102
RTVSPost2010Prop57
140
1.0
102
RTVSPost2010PropOp57
 70
     1
102
RTVSPropertyOp0
 70
     1
102
RTVSPropertyOp1
 70
     1
102
RTVSPropertyOp2
 70
     1
102
RTVSPropertyOp3
 70
     1
102
RTVSPropertyOp4
 70
     1
102
RTVSPropertyOp5
 70
     1
102
RTVSPropertyOp6
 70
     1
102
RTVSPropertyOp7
 70
     1
102
RTVSPropertyOp8
 70
     1
102
RTVSPropertyOp9
 70
     1
102
RTVSPropertyOp10
 70
     1
102
RTVSPropertyOp11
 70
     1
102
RTVSPropertyOp12
 70
     1
102
RTVSPropertyOp13
 70
     1
102
RTVSPropertyOp14
 70
     1
102
RTVSPropertyOp15
 70
     1
102
RTVSPropertyOp16
 70
     1
102
RTVSPropertyOp17
 70
     1
102
RTVSPropertyOp18
 70
     1
102
RTVSPropertyOp19
 70
     1
102
RTVSPropertyOp20
 70
     1
102
RTVSPropertyOp21
 70
     1
102
RTVSPropertyOp22
 70
     1
102
RTVSPropertyOp23
 70
     1
102
RTVSPropertyOp24
 70
     1
102
RTVSPropertyOp25
 70
     1
102
RTVSPropertyOp26
 70
     1
102
RTVSPropertyOp27
 70
     1
102
RTVSPropertyOp28
 70
     1
102
RTVSPropertyOp29
 70
     1
102
RTVSPropertyOp30
 70
     1
102
RTVSPropertyOp31
 70
     1
102
RTVSPropertyOp32
 70
     1
102
RTVSPropertyOp33
 70
     1
102
RTVSPropertyOp34
 70
     1
102
RTVSPropertyOp35
 70
     1
102
RTVSPropertyOp36
 70
     1
102
RTVSPropertyOp37
 70
     1
102
RTVSPropertyOp38
 70
     1
102
RTVSPropertyOp39
 70
     1
102
RTVSPropertyOp40
 70
     1
102
RTVSPropertyOp41
 70
     1
102
RTVSPropertyOp42
 70
     1
102
RTVSPropertyOp43
 70
     1
102
RTVSPropertyOp44
 70
     1
102
RTVSPropertyOp45
 70
     1
102
RTVSPropertyOp46
 70
     1
102
RTVSPropertyOp47
 70
     1
102
RTVSPropertyOp48
 70
     1
102
RTVSPropertyOp49
 70
     1
102
RTVSPropertyOp50
 70
     1
102
RTVSPropertyOp51
 70
     0
102
RTVSPropertyOp52
 70
     0
102
RTVSPropertyOp53
 70
     1
102
RTVSPropertyOp54
 70
     1
102
RTVSPropertyOp55
 70
     1
102
RTVSPropertyOp56
 70
     1
102
RTVSPropertyOp57
 70
     1
102
RTVSPropertyOp58
 70
     1
102
RTVSPropertyOp59
 70
     1
102
RTVSPropertyOp60
 70
     1
102
RTVSPropertyOp61
 70
     1
102
RTVSPropertyOp62
 70
     1
  0
XRECORD
  5
ADF9
102
{ACAD_REACTORS
330
ADF8
102
}
330
ADF8
100
AcDbXrecord
280
     1
102
RTVSPost2010Prop28
280
     0
102
RTVSPost2010PropOp28
 70
     1
102
RTVSPost2010Prop29
280
     1
102
RTVSPost2010PropOp29
 70
     1
102
RTVSPost2010Prop30
280
     1
102
RTVSPost2010PropOp30
 70
     1
102
RTVSPost2010Prop31
280
     0
102
RTVSPost2010PropOp31
 70
     1
102
RTVSPost2010Prop32
280
     0
102
RTVSPost2010PropOp32
 70
     1
102
RTVSPost2010Prop33
280
     0
102
RTVSPost2010PropOp33
 70
     1
102
RTVSPost2010Prop34
280
     0
102
RTVSPost2010PropOp34
 70
     1
102
RTVSPost2010Prop35
280
     0
102
RTVSPost2010PropOp35
 70
     1
102
RTVSPost2010Prop36
280
     0
102
RTVSPost2010PropOp36
 70
     1
102
RTVSPost2010Prop37
 90
       50
102
RTVSPost2010PropOp37
 70
     0
102
RTVSPost2010Prop38
140
0.0
102
RTVSPost2010PropOp38
 70
     0
102
RTVSPost2010Prop39
140
1.0
102
RTVSPost2010PropOp39
 70
     0
102
RTVSPost2010Prop40
 90
        0
102
RTVSPost2010PropOp40
 70
     0
102
RTVSPost2010Prop41ColorIndex
 90
       18
102
RTVSPost2010Prop41ColorRGB
 90
        0
102
RTVSPost2010PropOp41
 70
     0
102
RTVSPost2010Prop42
 90
       50
102
RTVSPost2010PropOp42
 70
     0
102
RTVSPost2010Prop43
 90
        3
102
RTVSPost2010PropOp43
 70
     0
102
RTVSPost2010Prop44ColorIndex
 90
        5
102
RTVSPost2010Prop44ColorRGB
 90
      255
102
RTVSPost2010PropOp44
 70
     0
102
RTVSPost2010Prop45
280
     0
102
RTVSPost2010PropOp45
 70
     1
102
RTVSPost2010Prop46
 90
       50
102
RTVSPost2010PropOp46
 70
     0
102
RTVSPost2010Prop47
 90
       50
102
RTVSPost2010PropOp47
 70
     0
102
RTVSPost2010Prop48
 90
       50
102
RTVSPost2010PropOp48
 70
     0
102
RTVSPost2010Prop49
280
     0
102
RTVSPost2010PropOp49
 70
     1
102
RTVSPost2010Prop50
 90
       50
102
RTVSPost2010PropOp50
 70
     0
102
RTVSPost2010Prop51ColorIndex
 90
      256
102
RTVSPost2010Prop51ColorRGB
 90
-16777216
102
RTVSPost2010PropOp51
 70
     0
102
RTVSPost2010Prop52
140
1.0
102
RTVSPost2010PropOp52
 70
     0
102
RTVSPost2010Prop53
 90
        2
102
RTVSPost2010PropOp53
 70
     0
102
RTVSPost2010Prop54
  1
strokes_ogs.tif
102
RTVSPost2010PropOp54
 70
     0
102
RTVSPost2010Prop55
280
     0
102
RTVSPost2010PropOp55
 70
     1
102
RTVSPost2010Prop56
140
1.0
102
RTVSPost2010PropOp56
 70
     0
102
RTVSPost2010Prop57
140
1.0
102
RTVSPost2010PropOp57
 70
     0
102
RTVSPropertyOp0
 70
     0
102
RTVSPropertyOp1
 70
     0
102
RTVSPropertyOp2
 70
     0
102
RTVSPropertyOp3
 70
     0
102
RTVSPropertyOp4
 70
     0
102
RTVSPropertyOp5
 70
     0
102
RTVSPropertyOp6
 70
     0
102
RTVSPropertyOp7
 70
     0
102
RTVSPropertyOp8
 70
     0
102
RTVSPropertyOp9
 70
     0
102
RTVSPropertyOp10
 70
     0
102
RTVSPropertyOp11
 70
     0
102
RTVSPropertyOp12
 70
     0
102
RTVSPropertyOp13
 70
     0
102
RTVSPropertyOp14
 70
     2
102
RTVSPropertyOp15
 70
     0
102
RTVSPropertyOp16
 70
     0
102
RTVSPropertyOp17
 70
     0
102
RTVSPropertyOp18
 70
     0
102
RTVSPropertyOp19
 70
     0
102
RTVSPropertyOp20
 70
     0
102
RTVSPropertyOp21
 70
     0
102
RTVSPropertyOp22
 70
     0
102
RTVSPropertyOp23
 70
     0
102
RTVSPropertyOp24
 70
     0
102
RTVSPropertyOp25
 70
     0
102
RTVSPropertyOp26
 70
     0
102
RTVSPropertyOp27
 70
     0
102
RTVSPropertyOp28
 70
     1
102
RTVSPropertyOp29
 70
     1
102
RTVSPropertyOp30
 70
     1
102
RTVSPropertyOp31
 70
     1
102
RTVSPropertyOp32
 70
     1
102
RTVSPropertyOp33
 70
     1
102
RTVSPropertyOp34
 70
     1
102
RTVSPropertyOp35
 70
     1
102
RTVSPropertyOp36
 70
     1
102
RTVSPropertyOp37
 70
     0
102
RTVSPropertyOp38
 70
     0
102
RTVSPropertyOp39
 70
     0
102
RTVSPropertyOp40
 70
     0
102
RTVSPropertyOp41
 70
     0
102
RTVSPropertyOp42
 70
     0
102
RTVSPropertyOp43
 70
     0
102
RTVSPropertyOp44
 70
     0
102
RTVSPropertyOp45
 70
     1
102
RTVSPropertyOp46
 70
     0
102
RTVSPropertyOp47
 70
     0
102
RTVSPropertyOp48
 70
     0
102
RTVSPropertyOp49
 70
     1
102
RTVSPropertyOp50
 70
     0
102
RTVSPropertyOp51
 70
     0
102
RTVSPropertyOp52
 70
     0
102
RTVSPropertyOp53
 70
     0
102
RTVSPropertyOp54
 70
     0
102
RTVSPropertyOp55
 70
     1
102
RTVSPropertyOp56
 70
     0
102
RTVSPropertyOp57
 70
     0
102
RTVSPropertyOp58
 70
     0
102
RTVSPropertyOp59
 70
     0
102
RTVSPropertyOp60
 70
     0
102
RTVSPropertyOp61
 70
     0
102
RTVSPropertyOp62
 70
     0
  0
XRECORD
  5
ADE9
102
{ACAD_REACTORS
330
ADE8
102
}
330
ADE8
100
AcDbXrecord
280
     1
102
RTVSPost2010Prop28
280
     0
102
RTVSPost2010PropOp28
 70
     1
102
RTVSPost2010Prop29
280
     1
102
RTVSPost2010PropOp29
 70
     1
102
RTVSPost2010Prop30
280
     1
102
RTVSPost2010PropOp30
 70
     1
102
RTVSPost2010Prop31
280
     0
102
RTVSPost2010PropOp31
 70
     1
102
RTVSPost2010Prop32
280
     0
102
RTVSPost2010PropOp32
 70
     1
102
RTVSPost2010Prop33
280
     0
102
RTVSPost2010PropOp33
 70
     1
102
RTVSPost2010Prop34
280
     0
102
RTVSPost2010PropOp34
 70
     1
102
RTVSPost2010Prop35
280
     0
102
RTVSPost2010PropOp35
 70
     1
102
RTVSPost2010Prop36
280
     0
102
RTVSPost2010PropOp36
 70
     1
102
RTVSPost2010Prop37
 90
       50
102
RTVSPost2010PropOp37
 70
     1
102
RTVSPost2010Prop38
140
0.0
102
RTVSPost2010PropOp38
 70
     1
102
RTVSPost2010Prop39
140
1.0
102
RTVSPost2010PropOp39
 70
     1
102
RTVSPost2010Prop40
 90
        0
102
RTVSPost2010PropOp40
 70
     1
102
RTVSPost2010Prop41ColorIndex
 90
       18
102
RTVSPost2010Prop41ColorRGB
 90
        0
102
RTVSPost2010PropOp41
 70
     1
102
RTVSPost2010Prop42
 90
       50
102
RTVSPost2010PropOp42
 70
     1
102
RTVSPost2010Prop43
 90
        3
102
RTVSPost2010PropOp43
 70
     1
102
RTVSPost2010Prop44ColorIndex
 90
        5
102
RTVSPost2010Prop44ColorRGB
 90
      255
102
RTVSPost2010PropOp44
 70
     1
102
RTVSPost2010Prop45
280
     0
102
RTVSPost2010PropOp45
 70
     1
102
RTVSPost2010Prop46
 90
       50
102
RTVSPost2010PropOp46
 70
     1
102
RTVSPost2010Prop47
 90
       50
102
RTVSPost2010PropOp47
 70
     1
102
RTVSPost2010Prop48
 90
       50
102
RTVSPost2010PropOp48
 70
     1
102
RTVSPost2010Prop49
280
     0
102
RTVSPost2010PropOp49
 70
     1
102
RTVSPost2010Prop50
 90
       50
102
RTVSPost2010PropOp50
 70
     1
102
RTVSPost2010Prop51ColorIndex
 90
      256
102
RTVSPost2010Prop51ColorRGB
 90
-16777216
102
RTVSPost2010PropOp51
 70
     0
102
RTVSPost2010Prop52
140
1.0
102
RTVSPost2010PropOp52
 70
     0
102
RTVSPost2010Prop53
 90
        2
102
RTVSPost2010PropOp53
 70
     1
102
RTVSPost2010Prop54
  1
strokes_ogs.tif
102
RTVSPost2010PropOp54
 70
     1
102
RTVSPost2010Prop55
280
     0
102
RTVSPost2010PropOp55
 70
     1
102
RTVSPost2010Prop56
140
1.0
102
RTVSPost2010PropOp56
 70
     1
102
RTVSPost2010Prop57
140
1.0
102
RTVSPost2010PropOp57
 70
     1
102
RTVSPropertyOp0
 70
     1
102
RTVSPropertyOp1
 70
     1
102
RTVSPropertyOp2
 70
     1
102
RTVSPropertyOp3
 70
     1
102
RTVSPropertyOp4
 70
     1
102
RTVSPropertyOp5
 70
     1
102
RTVSPropertyOp6
 70
     1
102
RTVSPropertyOp7
 70
     1
102
RTVSPropertyOp8
 70
     1
102
RTVSPropertyOp9
 70
     1
102
RTVSPropertyOp10
 70
     1
102
RTVSPropertyOp11
 70
     1
102
RTVSPropertyOp12
 70
     1
102
RTVSPropertyOp13
 70
     1
102
RTVSPropertyOp14
 70
     1
102
RTVSPropertyOp15
 70
     1
102
RTVSPropertyOp16
 70
     1
102
RTVSPropertyOp17
 70
     1
102
RTVSPropertyOp18
 70
     1
102
RTVSPropertyOp19
 70
     1
102
RTVSPropertyOp20
 70
     1
102
RTVSPropertyOp21
 70
     1
102
RTVSPropertyOp22
 70
     1
102
RTVSPropertyOp23
 70
     1
102
RTVSPropertyOp24
 70
     1
102
RTVSPropertyOp25
 70
     1
102
RTVSPropertyOp26
 70
     1
102
RTVSPropertyOp27
 70
     1
102
RTVSPropertyOp28
 70
     1
102
RTVSPropertyOp29
 70
     1
102
RTVSPropertyOp30
 70
     1
102
RTVSPropertyOp31
 70
     1
102
RTVSPropertyOp32
 70
     1
102
RTVSPropertyOp33
 70
     1
102
RTVSPropertyOp34
 70
     1
102
RTVSPropertyOp35
 70
     1
102
RTVSPropertyOp36
 70
     1
102
RTVSPropertyOp37
 70
     1
102
RTVSPropertyOp38
 70
     1
102
RTVSPropertyOp39
 70
     1
102
RTVSPropertyOp40
 70
     1
102
RTVSPropertyOp41
 70
     1
102
RTVSPropertyOp42
 70
     1
102
RTVSPropertyOp43
 70
     1
102
RTVSPropertyOp44
 70
     1
102
RTVSPropertyOp45
 70
     1
102
RTVSPropertyOp46
 70
     1
102
RTVSPropertyOp47
 70
     1
102
RTVSPropertyOp48
 70
     1
102
RTVSPropertyOp49
 70
     1
102
RTVSPropertyOp50
 70
     1
102
RTVSPropertyOp51
 70
     0
102
RTVSPropertyOp52
 70
     0
102
RTVSPropertyOp53
 70
     1
102
RTVSPropertyOp54
 70
     1
102
RTVSPropertyOp55
 70
     1
102
RTVSPropertyOp56
 70
     1
102
RTVSPropertyOp57
 70
     1
102
RTVSPropertyOp58
 70
     1
102
RTVSPropertyOp59
 70
     1
102
RTVSPropertyOp60
 70
     1
102
RTVSPropertyOp61
 70
     1
102
RTVSPropertyOp62
 70
     1
  0
XRECORD
  5
ADFB
102
{ACAD_REACTORS
330
ADFA
102
}
330
ADFA
100
AcDbXrecord
280
     1
102
RTVSPost2010Prop28
280
     0
102
RTVSPost2010PropOp28
 70
     1
102
RTVSPost2010Prop29
280
     1
102
RTVSPost2010PropOp29
 70
     1
102
RTVSPost2010Prop30
280
     1
102
RTVSPost2010PropOp30
 70
     1
102
RTVSPost2010Prop31
280
     0
102
RTVSPost2010PropOp31
 70
     1
102
RTVSPost2010Prop32
280
     0
102
RTVSPost2010PropOp32
 70
     1
102
RTVSPost2010Prop33
280
     0
102
RTVSPost2010PropOp33
 70
     1
102
RTVSPost2010Prop34
280
     0
102
RTVSPost2010PropOp34
 70
     1
102
RTVSPost2010Prop35
280
     0
102
RTVSPost2010PropOp35
 70
     1
102
RTVSPost2010Prop36
280
     0
102
RTVSPost2010PropOp36
 70
     1
102
RTVSPost2010Prop37
 90
       50
102
RTVSPost2010PropOp37
 70
     0
102
RTVSPost2010Prop38
140
0.0
102
RTVSPost2010PropOp38
 70
     0
102
RTVSPost2010Prop39
140
1.0
102
RTVSPost2010PropOp39
 70
     0
102
RTVSPost2010Prop40
 90
        0
102
RTVSPost2010PropOp40
 70
     0
102
RTVSPost2010Prop41ColorIndex
 90
       18
102
RTVSPost2010Prop41ColorRGB
 90
        0
102
RTVSPost2010PropOp41
 70
     0
102
RTVSPost2010Prop42
 90
       50
102
RTVSPost2010PropOp42
 70
     0
102
RTVSPost2010Prop43
 90
        3
102
RTVSPost2010PropOp43
 70
     0
102
RTVSPost2010Prop44ColorIndex
 90
        5
102
RTVSPost2010Prop44ColorRGB
 90
      255
102
RTVSPost2010PropOp44
 70
     0
102
RTVSPost2010Prop45
280
     0
102
RTVSPost2010PropOp45
 70
     1
102
RTVSPost2010Prop46
 90
       50
102
RTVSPost2010PropOp46
 70
     0
102
RTVSPost2010Prop47
 90
       50
102
RTVSPost2010PropOp47
 70
     0
102
RTVSPost2010Prop48
 90
       50
102
RTVSPost2010PropOp48
 70
     0
102
RTVSPost2010Prop49
280
     0
102
RTVSPost2010PropOp49
 70
     1
102
RTVSPost2010Prop50
 90
       50
102
RTVSPost2010PropOp50
 70
     0
102
RTVSPost2010Prop51ColorIndex
 90
      256
102
RTVSPost2010Prop51ColorRGB
 90
-16777216
102
RTVSPost2010PropOp51
 70
     0
102
RTVSPost2010Prop52
140
1.0
102
RTVSPost2010PropOp52
 70
     0
102
RTVSPost2010Prop53
 90
        2
102
RTVSPost2010PropOp53
 70
     0
102
RTVSPost2010Prop54
  1
strokes_ogs.tif
102
RTVSPost2010PropOp54
 70
     0
102
RTVSPost2010Prop55
280
     0
102
RTVSPost2010PropOp55
 70
     1
102
RTVSPost2010Prop56
140
1.0
102
RTVSPost2010PropOp56
 70
     0
102
RTVSPost2010Prop57
140
1.0
102
RTVSPost2010PropOp57
 70
     0
102
RTVSPropertyOp0
 70
     0
102
RTVSPropertyOp1
 70
     0
102
RTVSPropertyOp2
 70
     0
102
RTVSPropertyOp3
 70
     0
102
RTVSPropertyOp4
 70
     0
102
RTVSPropertyOp5
 70
     0
102
RTVSPropertyOp6
 70
     0
102
RTVSPropertyOp7
 70
     0
102
RTVSPropertyOp8
 70
     0
102
RTVSPropertyOp9
 70
     0
102
RTVSPropertyOp10
 70
     0
102
RTVSPropertyOp11
 70
     0
102
RTVSPropertyOp12
 70
     0
102
RTVSPropertyOp13
 70
     0
102
RTVSPropertyOp14
 70
     2
102
RTVSPropertyOp15
 70
     0
102
RTVSPropertyOp16
 70
     0
102
RTVSPropertyOp17
 70
     0
102
RTVSPropertyOp18
 70
     0
102
RTVSPropertyOp19
 70
     0
102
RTVSPropertyOp20
 70
     0
102
RTVSPropertyOp21
 70
     0
102
RTVSPropertyOp22
 70
     0
102
RTVSPropertyOp23
 70
     0
102
RTVSPropertyOp24
 70
     0
102
RTVSPropertyOp25
 70
     0
102
RTVSPropertyOp26
 70
     0
102
RTVSPropertyOp27
 70
     0
102
RTVSPropertyOp28
 70
     1
102
RTVSPropertyOp29
 70
     1
102
RTVSPropertyOp30
 70
     1
102
RTVSPropertyOp31
 70
     1
102
RTVSPropertyOp32
 70
     1
102
RTVSPropertyOp33
 70
     1
102
RTVSPropertyOp34
 70
     1
102
RTVSPropertyOp35
 70
     1
102
RTVSPropertyOp36
 70
     1
102
RTVSPropertyOp37
 70
     0
102
RTVSPropertyOp38
 70
     0
102
RTVSPropertyOp39
 70
     0
102
RTVSPropertyOp40
 70
     0
102
RTVSPropertyOp41
 70
     0
102
RTVSPropertyOp42
 70
     0
102
RTVSPropertyOp43
 70
     0
102
RTVSPropertyOp44
 70
     0
102
RTVSPropertyOp45
 70
     1
102
RTVSPropertyOp46
 70
     0
102
RTVSPropertyOp47
 70
     0
102
RTVSPropertyOp48
 70
     0
102
RTVSPropertyOp49
 70
     1
102
RTVSPropertyOp50
 70
     0
102
RTVSPropertyOp51
 70
     0
102
RTVSPropertyOp52
 70
     0
102
RTVSPropertyOp53
 70
     0
102
RTVSPropertyOp54
 70
     0
102
RTVSPropertyOp55
 70
     1
102
RTVSPropertyOp56
 70
     0
102
RTVSPropertyOp57
 70
     0
102
RTVSPropertyOp58
 70
     0
102
RTVSPropertyOp59
 70
     0
102
RTVSPropertyOp60
 70
     0
102
RTVSPropertyOp61
 70
     0
102
RTVSPropertyOp62
 70
     0
  0
XRECORD
  5
ADE1
102
{ACAD_REACTORS
330
ADE0
102
}
330
ADE0
100
AcDbXrecord
280
     1
102
RTVSPost2010Prop28
280
     0
102
RTVSPost2010PropOp28
 70
     1
102
RTVSPost2010Prop29
280
     1
102
RTVSPost2010PropOp29
 70
     1
102
RTVSPost2010Prop30
280
     1
102
RTVSPost2010PropOp30
 70
     1
102
RTVSPost2010Prop31
280
     0
102
RTVSPost2010PropOp31
 70
     1
102
RTVSPost2010Prop32
280
     0
102
RTVSPost2010PropOp32
 70
     1
102
RTVSPost2010Prop33
280
     0
102
RTVSPost2010PropOp33
 70
     1
102
RTVSPost2010Prop34
280
     0
102
RTVSPost2010PropOp34
 70
     1
102
RTVSPost2010Prop35
280
     0
102
RTVSPost2010PropOp35
 70
     1
102
RTVSPost2010Prop36
280
     0
102
RTVSPost2010PropOp36
 70
     1
102
RTVSPost2010Prop37
 90
       50
102
RTVSPost2010PropOp37
 70
     1
102
RTVSPost2010Prop38
140
0.0
102
RTVSPost2010PropOp38
 70
     1
102
RTVSPost2010Prop39
140
1.0
102
RTVSPost2010PropOp39
 70
     1
102
RTVSPost2010Prop40
 90
        0
102
RTVSPost2010PropOp40
 70
     1
102
RTVSPost2010Prop41ColorIndex
 90
       18
102
RTVSPost2010Prop41ColorRGB
 90
        0
102
RTVSPost2010PropOp41
 70
     1
102
RTVSPost2010Prop42
 90
       50
102
RTVSPost2010PropOp42
 70
     1
102
RTVSPost2010Prop43
 90
        3
102
RTVSPost2010PropOp43
 70
     1
102
RTVSPost2010Prop44ColorIndex
 90
        5
102
RTVSPost2010Prop44ColorRGB
 90
      255
102
RTVSPost2010PropOp44
 70
     1
102
RTVSPost2010Prop45
280
     0
102
RTVSPost2010PropOp45
 70
     1
102
RTVSPost2010Prop46
 90
       50
102
RTVSPost2010PropOp46
 70
     1
102
RTVSPost2010Prop47
 90
       50
102
RTVSPost2010PropOp47
 70
     1
102
RTVSPost2010Prop48
 90
       50
102
RTVSPost2010PropOp48
 70
     1
102
RTVSPost2010Prop49
280
     0
102
RTVSPost2010PropOp49
 70
     1
102
RTVSPost2010Prop50
 90
       50
102
RTVSPost2010PropOp50
 70
     1
102
RTVSPost2010Prop51ColorIndex
 90
      256
102
RTVSPost2010Prop51ColorRGB
 90
-16777216
102
RTVSPost2010PropOp51
 70
     0
102
RTVSPost2010Prop52
140
1.0
102
RTVSPost2010PropOp52
 70
     0
102
RTVSPost2010Prop53
 90
        2
102
RTVSPost2010PropOp53
 70
     1
102
RTVSPost2010Prop54
  1
strokes_ogs.tif
102
RTVSPost2010PropOp54
 70
     1
102
RTVSPost2010Prop55
280
     0
102
RTVSPost2010PropOp55
 70
     1
102
RTVSPost2010Prop56
140
1.0
102
RTVSPost2010PropOp56
 70
     1
102
RTVSPost2010Prop57
140
1.0
102
RTVSPost2010PropOp57
 70
     1
102
RTVSPropertyOp0
 70
     1
102
RTVSPropertyOp1
 70
     1
102
RTVSPropertyOp2
 70
     1
102
RTVSPropertyOp3
 70
     1
102
RTVSPropertyOp4
 70
     1
102
RTVSPropertyOp5
 70
     1
102
RTVSPropertyOp6
 70
     1
102
RTVSPropertyOp7
 70
     1
102
RTVSPropertyOp8
 70
     1
102
RTVSPropertyOp9
 70
     1
102
RTVSPropertyOp10
 70
     1
102
RTVSPropertyOp11
 70
     1
102
RTVSPropertyOp12
 70
     1
102
RTVSPropertyOp13
 70
     1
102
RTVSPropertyOp14
 70
     1
102
RTVSPropertyOp15
 70
     1
102
RTVSPropertyOp16
 70
     1
102
RTVSPropertyOp17
 70
     1
102
RTVSPropertyOp18
 70
     1
102
RTVSPropertyOp19
 70
     1
102
RTVSPropertyOp20
 70
     1
102
RTVSPropertyOp21
 70
     1
102
RTVSPropertyOp22
 70
     1
102
RTVSPropertyOp23
 70
     1
102
RTVSPropertyOp24
 70
     1
102
RTVSPropertyOp25
 70
     1
102
RTVSPropertyOp26
 70
     1
102
RTVSPropertyOp27
 70
     1
102
RTVSPropertyOp28
 70
     1
102
RTVSPropertyOp29
 70
     1
102
RTVSPropertyOp30
 70
     1
102
RTVSPropertyOp31
 70
     1
102
RTVSPropertyOp32
 70
     1
102
RTVSPropertyOp33
 70
     1
102
RTVSPropertyOp34
 70
     1
102
RTVSPropertyOp35
 70
     1
102
RTVSPropertyOp36
 70
     1
102
RTVSPropertyOp37
 70
     1
102
RTVSPropertyOp38
 70
     1
102
RTVSPropertyOp39
 70
     1
102
RTVSPropertyOp40
 70
     1
102
RTVSPropertyOp41
 70
     1
102
RTVSPropertyOp42
 70
     1
102
RTVSPropertyOp43
 70
     1
102
RTVSPropertyOp44
 70
     1
102
RTVSPropertyOp45
 70
     1
102
RTVSPropertyOp46
 70
     1
102
RTVSPropertyOp47
 70
     1
102
RTVSPropertyOp48
 70
     1
102
RTVSPropertyOp49
 70
     1
102
RTVSPropertyOp50
 70
     1
102
RTVSPropertyOp51
 70
     0
102
RTVSPropertyOp52
 70
     0
102
RTVSPropertyOp53
 70
     1
102
RTVSPropertyOp54
 70
     1
102
RTVSPropertyOp55
 70
     1
102
RTVSPropertyOp56
 70
     1
102
RTVSPropertyOp57
 70
     1
102
RTVSPropertyOp58
 70
     1
102
RTVSPropertyOp59
 70
     1
102
RTVSPropertyOp60
 70
     1
102
RTVSPropertyOp61
 70
     1
102
RTVSPropertyOp62
 70
     1
  0
XRECORD
  5
ADF7
102
{ACAD_REACTORS
330
ADF6
102
}
330
ADF6
100
AcDbXrecord
280
     1
102
RTVSPost2010Prop28
280
     0
102
RTVSPost2010PropOp28
 70
     1
102
RTVSPost2010Prop29
280
     1
102
RTVSPost2010PropOp29
 70
     1
102
RTVSPost2010Prop30
280
     1
102
RTVSPost2010PropOp30
 70
     1
102
RTVSPost2010Prop31
280
     0
102
RTVSPost2010PropOp31
 70
     1
102
RTVSPost2010Prop32
280
     0
102
RTVSPost2010PropOp32
 70
     1
102
RTVSPost2010Prop33
280
     0
102
RTVSPost2010PropOp33
 70
     1
102
RTVSPost2010Prop34
280
     0
102
RTVSPost2010PropOp34
 70
     1
102
RTVSPost2010Prop35
280
     0
102
RTVSPost2010PropOp35
 70
     1
102
RTVSPost2010Prop36
280
     0
102
RTVSPost2010PropOp36
 70
     1
102
RTVSPost2010Prop37
 90
       50
102
RTVSPost2010PropOp37
 70
     1
102
RTVSPost2010Prop38
140
0.0
102
RTVSPost2010PropOp38
 70
     1
102
RTVSPost2010Prop39
140
1.0
102
RTVSPost2010PropOp39
 70
     1
102
RTVSPost2010Prop40
 90
        0
102
RTVSPost2010PropOp40
 70
     1
102
RTVSPost2010Prop41ColorIndex
 90
       18
102
RTVSPost2010Prop41ColorRGB
 90
        0
102
RTVSPost2010PropOp41
 70
     1
102
RTVSPost2010Prop42
 90
       50
102
RTVSPost2010PropOp42
 70
     1
102
RTVSPost2010Prop43
 90
        3
102
RTVSPost2010PropOp43
 70
     1
102
RTVSPost2010Prop44ColorIndex
 90
        5
102
RTVSPost2010Prop44ColorRGB
 90
      255
102
RTVSPost2010PropOp44
 70
     1
102
RTVSPost2010Prop45
280
     0
102
RTVSPost2010PropOp45
 70
     1
102
RTVSPost2010Prop46
 90
       50
102
RTVSPost2010PropOp46
 70
     1
102
RTVSPost2010Prop47
 90
       50
102
RTVSPost2010PropOp47
 70
     1
102
RTVSPost2010Prop48
 90
       50
102
RTVSPost2010PropOp48
 70
     1
102
RTVSPost2010Prop49
280
     0
102
RTVSPost2010PropOp49
 70
     1
102
RTVSPost2010Prop50
 90
       50
102
RTVSPost2010PropOp50
 70
     1
102
RTVSPost2010Prop51ColorIndex
 90
      256
102
RTVSPost2010Prop51ColorRGB
 90
-16777216
102
RTVSPost2010PropOp51
 70
     0
102
RTVSPost2010Prop52
140
1.0
102
RTVSPost2010PropOp52
 70
     0
102
RTVSPost2010Prop53
 90
        2
102
RTVSPost2010PropOp53
 70
     1
102
RTVSPost2010Prop54
  1
strokes_ogs.tif
102
RTVSPost2010PropOp54
 70
     1
102
RTVSPost2010Prop55
280
     0
102
RTVSPost2010PropOp55
 70
     1
102
RTVSPost2010Prop56
140
1.0
102
RTVSPost2010PropOp56
 70
     1
102
RTVSPost2010Prop57
140
1.0
102
RTVSPost2010PropOp57
 70
     1
102
RTVSPropertyOp0
 70
     1
102
RTVSPropertyOp1
 70
     1
102
RTVSPropertyOp2
 70
     1
102
RTVSPropertyOp3
 70
     1
102
RTVSPropertyOp4
 70
     1
102
RTVSPropertyOp5
 70
     1
102
RTVSPropertyOp6
 70
     1
102
RTVSPropertyOp7
 70
     1
102
RTVSPropertyOp8
 70
     1
102
RTVSPropertyOp9
 70
     1
102
RTVSPropertyOp10
 70
     1
102
RTVSPropertyOp11
 70
     1
102
RTVSPropertyOp12
 70
     1
102
RTVSPropertyOp13
 70
     1
102
RTVSPropertyOp14
 70
     1
102
RTVSPropertyOp15
 70
     1
102
RTVSPropertyOp16
 70
     1
102
RTVSPropertyOp17
 70
     1
102
RTVSPropertyOp18
 70
     1
102
RTVSPropertyOp19
 70
     1
102
RTVSPropertyOp20
 70
     1
102
RTVSPropertyOp21
 70
     1
102
RTVSPropertyOp22
 70
     1
102
RTVSPropertyOp23
 70
     1
102
RTVSPropertyOp24
 70
     1
102
RTVSPropertyOp25
 70
     1
102
RTVSPropertyOp26
 70
     1
102
RTVSPropertyOp27
 70
     1
102
RTVSPropertyOp28
 70
     1
102
RTVSPropertyOp29
 70
     1
102
RTVSPropertyOp30
 70
     1
102
RTVSPropertyOp31
 70
     1
102
RTVSPropertyOp32
 70
     1
102
RTVSPropertyOp33
 70
     1
102
RTVSPropertyOp34
 70
     1
102
RTVSPropertyOp35
 70
     1
102
RTVSPropertyOp36
 70
     1
102
RTVSPropertyOp37
 70
     1
102
RTVSPropertyOp38
 70
     1
102
RTVSPropertyOp39
 70
     1
102
RTVSPropertyOp40
 70
     1
102
RTVSPropertyOp41
 70
     1
102
RTVSPropertyOp42
 70
     1
102
RTVSPropertyOp43
 70
     1
102
RTVSPropertyOp44
 70
     1
102
RTVSPropertyOp45
 70
     1
102
RTVSPropertyOp46
 70
     1
102
RTVSPropertyOp47
 70
     1
102
RTVSPropertyOp48
 70
     1
102
RTVSPropertyOp49
 70
     1
102
RTVSPropertyOp50
 70
     1
102
RTVSPropertyOp51
 70
     0
102
RTVSPropertyOp52
 70
     0
102
RTVSPropertyOp53
 70
     1
102
RTVSPropertyOp54
 70
     1
102
RTVSPropertyOp55
 70
     1
102
RTVSPropertyOp56
 70
     1
102
RTVSPropertyOp57
 70
     1
102
RTVSPropertyOp58
 70
     1
102
RTVSPropertyOp59
 70
     1
102
RTVSPropertyOp60
 70
     1
102
RTVSPropertyOp61
 70
     1
102
RTVSPropertyOp62
 70
     1
  0
XRECORD
  5
ADF5
102
{ACAD_REACTORS
330
ADF4
102
}
330
ADF4
100
AcDbXrecord
280
     1
102
RTVSPost2010Prop28
280
     0
102
RTVSPost2010PropOp28
 70
     1
102
RTVSPost2010Prop29
280
     1
102
RTVSPost2010PropOp29
 70
     1
102
RTVSPost2010Prop30
280
     1
102
RTVSPost2010PropOp30
 70
     1
102
RTVSPost2010Prop31
280
     0
102
RTVSPost2010PropOp31
 70
     1
102
RTVSPost2010Prop32
280
     0
102
RTVSPost2010PropOp32
 70
     1
102
RTVSPost2010Prop33
280
     0
102
RTVSPost2010PropOp33
 70
     1
102
RTVSPost2010Prop34
280
     0
102
RTVSPost2010PropOp34
 70
     1
102
RTVSPost2010Prop35
280
     0
102
RTVSPost2010PropOp35
 70
     1
102
RTVSPost2010Prop36
280
     0
102
RTVSPost2010PropOp36
 70
     1
102
RTVSPost2010Prop37
 90
       50
102
RTVSPost2010PropOp37
 70
     1
102
RTVSPost2010Prop38
140
0.0
102
RTVSPost2010PropOp38
 70
     1
102
RTVSPost2010Prop39
140
1.0
102
RTVSPost2010PropOp39
 70
     1
102
RTVSPost2010Prop40
 90
        0
102
RTVSPost2010PropOp40
 70
     1
102
RTVSPost2010Prop41ColorIndex
 90
       18
102
RTVSPost2010Prop41ColorRGB
 90
        0
102
RTVSPost2010PropOp41
 70
     1
102
RTVSPost2010Prop42
 90
       50
102
RTVSPost2010PropOp42
 70
     1
102
RTVSPost2010Prop43
 90
        3
102
RTVSPost2010PropOp43
 70
     1
102
RTVSPost2010Prop44ColorIndex
 90
        5
102
RTVSPost2010Prop44ColorRGB
 90
      255
102
RTVSPost2010PropOp44
 70
     1
102
RTVSPost2010Prop45
280
     0
102
RTVSPost2010PropOp45
 70
     1
102
RTVSPost2010Prop46
 90
       50
102
RTVSPost2010PropOp46
 70
     1
102
RTVSPost2010Prop47
 90
       50
102
RTVSPost2010PropOp47
 70
     1
102
RTVSPost2010Prop48
 90
       50
102
RTVSPost2010PropOp48
 70
     1
102
RTVSPost2010Prop49
280
     0
102
RTVSPost2010PropOp49
 70
     1
102
RTVSPost2010Prop50
 90
       50
102
RTVSPost2010PropOp50
 70
     1
102
RTVSPost2010Prop51ColorIndex
 90
      256
102
RTVSPost2010Prop51ColorRGB
 90
-16777216
102
RTVSPost2010PropOp51
 70
     0
102
RTVSPost2010Prop52
140
1.0
102
RTVSPost2010PropOp52
 70
     0
102
RTVSPost2010Prop53
 90
        2
102
RTVSPost2010PropOp53
 70
     1
102
RTVSPost2010Prop54
  1
strokes_ogs.tif
102
RTVSPost2010PropOp54
 70
     1
102
RTVSPost2010Prop55
280
     0
102
RTVSPost2010PropOp55
 70
     1
102
RTVSPost2010Prop56
140
1.0
102
RTVSPost2010PropOp56
 70
     1
102
RTVSPost2010Prop57
140
1.0
102
RTVSPost2010PropOp57
 70
     1
102
RTVSPropertyOp0
 70
     1
102
RTVSPropertyOp1
 70
     1
102
RTVSPropertyOp2
 70
     1
102
RTVSPropertyOp3
 70
     1
102
RTVSPropertyOp4
 70
     1
102
RTVSPropertyOp5
 70
     1
102
RTVSPropertyOp6
 70
     1
102
RTVSPropertyOp7
 70
     1
102
RTVSPropertyOp8
 70
     1
102
RTVSPropertyOp9
 70
     1
102
RTVSPropertyOp10
 70
     1
102
RTVSPropertyOp11
 70
     1
102
RTVSPropertyOp12
 70
     1
102
RTVSPropertyOp13
 70
     1
102
RTVSPropertyOp14
 70
     1
102
RTVSPropertyOp15
 70
     1
102
RTVSPropertyOp16
 70
     1
102
RTVSPropertyOp17
 70
     1
102
RTVSPropertyOp18
 70
     1
102
RTVSPropertyOp19
 70
     1
102
RTVSPropertyOp20
 70
     1
102
RTVSPropertyOp21
 70
     1
102
RTVSPropertyOp22
 70
     1
102
RTVSPropertyOp23
 70
     1
102
RTVSPropertyOp24
 70
     1
102
RTVSPropertyOp25
 70
     1
102
RTVSPropertyOp26
 70
     1
102
RTVSPropertyOp27
 70
     1
102
RTVSPropertyOp28
 70
     1
102
RTVSPropertyOp29
 70
     1
102
RTVSPropertyOp30
 70
     1
102
RTVSPropertyOp31
 70
     1
102
RTVSPropertyOp32
 70
     1
102
RTVSPropertyOp33
 70
     1
102
RTVSPropertyOp34
 70
     1
102
RTVSPropertyOp35
 70
     1
102
RTVSPropertyOp36
 70
     1
102
RTVSPropertyOp37
 70
     1
102
RTVSPropertyOp38
 70
     1
102
RTVSPropertyOp39
 70
     1
102
RTVSPropertyOp40
 70
     1
102
RTVSPropertyOp41
 70
     1
102
RTVSPropertyOp42
 70
     1
102
RTVSPropertyOp43
 70
     1
102
RTVSPropertyOp44
 70
     1
102
RTVSPropertyOp45
 70
     1
102
RTVSPropertyOp46
 70
     1
102
RTVSPropertyOp47
 70
     1
102
RTVSPropertyOp48
 70
     1
102
RTVSPropertyOp49
 70
     1
102
RTVSPropertyOp50
 70
     1
102
RTVSPropertyOp51
 70
     0
102
RTVSPropertyOp52
 70
     0
102
RTVSPropertyOp53
 70
     1
102
RTVSPropertyOp54
 70
     1
102
RTVSPropertyOp55
 70
     1
102
RTVSPropertyOp56
 70
     1
102
RTVSPropertyOp57
 70
     1
102
RTVSPropertyOp58
 70
     1
102
RTVSPropertyOp59
 70
     1
102
RTVSPropertyOp60
 70
     1
102
RTVSPropertyOp61
 70
     1
102
RTVSPropertyOp62
 70
     1
  0
XRECORD
  5
ADEF
102
{ACAD_REACTORS
330
ADEE
102
}
330
ADEE
100
AcDbXrecord
280
     1
102
RTVSPost2010Prop28
280
     0
102
RTVSPost2010PropOp28
 70
     1
102
RTVSPost2010Prop29
280
     1
102
RTVSPost2010PropOp29
 70
     1
102
RTVSPost2010Prop30
280
     1
102
RTVSPost2010PropOp30
 70
     1
102
RTVSPost2010Prop31
280
     0
102
RTVSPost2010PropOp31
 70
     1
102
RTVSPost2010Prop32
280
     0
102
RTVSPost2010PropOp32
 70
     1
102
RTVSPost2010Prop33
280
     0
102
RTVSPost2010PropOp33
 70
     1
102
RTVSPost2010Prop34
280
     0
102
RTVSPost2010PropOp34
 70
     1
102
RTVSPost2010Prop35
280
     0
102
RTVSPost2010PropOp35
 70
     1
102
RTVSPost2010Prop36
280
     0
102
RTVSPost2010PropOp36
 70
     1
102
RTVSPost2010Prop37
 90
       50
102
RTVSPost2010PropOp37
 70
     1
102
RTVSPost2010Prop38
140
0.0
102
RTVSPost2010PropOp38
 70
     1
102
RTVSPost2010Prop39
140
1.0
102
RTVSPost2010PropOp39
 70
     1
102
RTVSPost2010Prop40
 90
        0
102
RTVSPost2010PropOp40
 70
     1
102
RTVSPost2010Prop41ColorIndex
 90
       18
102
RTVSPost2010Prop41ColorRGB
 90
        0
102
RTVSPost2010PropOp41
 70
     1
102
RTVSPost2010Prop42
 90
       50
102
RTVSPost2010PropOp42
 70
     1
102
RTVSPost2010Prop43
 90
        3
102
RTVSPost2010PropOp43
 70
     1
102
RTVSPost2010Prop44ColorIndex
 90
        5
102
RTVSPost2010Prop44ColorRGB
 90
      255
102
RTVSPost2010PropOp44
 70
     1
102
RTVSPost2010Prop45
280
     0
102
RTVSPost2010PropOp45
 70
     1
102
RTVSPost2010Prop46
 90
       50
102
RTVSPost2010PropOp46
 70
     1
102
RTVSPost2010Prop47
 90
       50
102
RTVSPost2010PropOp47
 70
     1
102
RTVSPost2010Prop48
 90
       50
102
RTVSPost2010PropOp48
 70
     1
102
RTVSPost2010Prop49
280
     0
102
RTVSPost2010PropOp49
 70
     1
102
RTVSPost2010Prop50
 90
       50
102
RTVSPost2010PropOp50
 70
     1
102
RTVSPost2010Prop51ColorIndex
 90
      256
102
RTVSPost2010Prop51ColorRGB
 90
-16777216
102
RTVSPost2010PropOp51
 70
     0
102
RTVSPost2010Prop52
140
1.0
102
RTVSPost2010PropOp52
 70
     0
102
RTVSPost2010Prop53
 90
        2
102
RTVSPost2010PropOp53
 70
     1
102
RTVSPost2010Prop54
  1
strokes_ogs.tif
102
RTVSPost2010PropOp54
 70
     1
102
RTVSPost2010Prop55
280
     0
102
RTVSPost2010PropOp55
 70
     1
102
RTVSPost2010Prop56
140
1.0
102
RTVSPost2010PropOp56
 70
     1
102
RTVSPost2010Prop57
140
1.0
102
RTVSPost2010PropOp57
 70
     1
102
RTVSPropertyOp0
 70
     1
102
RTVSPropertyOp1
 70
     1
102
RTVSPropertyOp2
 70
     1
102
RTVSPropertyOp3
 70
     1
102
RTVSPropertyOp4
 70
     1
102
RTVSPropertyOp5
 70
     1
102
RTVSPropertyOp6
 70
     1
102
RTVSPropertyOp7
 70
     1
102
RTVSPropertyOp8
 70
     1
102
RTVSPropertyOp9
 70
     1
102
RTVSPropertyOp10
 70
     1
102
RTVSPropertyOp11
 70
     1
102
RTVSPropertyOp12
 70
     1
102
RTVSPropertyOp13
 70
     1
102
RTVSPropertyOp14
 70
     1
102
RTVSPropertyOp15
 70
     1
102
RTVSPropertyOp16
 70
     1
102
RTVSPropertyOp17
 70
     1
102
RTVSPropertyOp18
 70
     1
102
RTVSPropertyOp19
 70
     1
102
RTVSPropertyOp20
 70
     1
102
RTVSPropertyOp21
 70
     1
102
RTVSPropertyOp22
 70
     1
102
RTVSPropertyOp23
 70
     1
102
RTVSPropertyOp24
 70
     1
102
RTVSPropertyOp25
 70
     1
102
RTVSPropertyOp26
 70
     1
102
RTVSPropertyOp27
 70
     1
102
RTVSPropertyOp28
 70
     1
102
RTVSPropertyOp29
 70
     1
102
RTVSPropertyOp30
 70
     1
102
RTVSPropertyOp31
 70
     1
102
RTVSPropertyOp32
 70
     1
102
RTVSPropertyOp33
 70
     1
102
RTVSPropertyOp34
 70
     1
102
RTVSPropertyOp35
 70
     1
102
RTVSPropertyOp36
 70
     1
102
RTVSPropertyOp37
 70
     1
102
RTVSPropertyOp38
 70
     1
102
RTVSPropertyOp39
 70
     1
102
RTVSPropertyOp40
 70
     1
102
RTVSPropertyOp41
 70
     1
102
RTVSPropertyOp42
 70
     1
102
RTVSPropertyOp43
 70
     1
102
RTVSPropertyOp44
 70
     1
102
RTVSPropertyOp45
 70
     1
102
RTVSPropertyOp46
 70
     1
102
RTVSPropertyOp47
 70
     1
102
RTVSPropertyOp48
 70
     1
102
RTVSPropertyOp49
 70
     1
102
RTVSPropertyOp50
 70
     1
102
RTVSPropertyOp51
 70
     0
102
RTVSPropertyOp52
 70
     0
102
RTVSPropertyOp53
 70
     1
102
RTVSPropertyOp54
 70
     1
102
RTVSPropertyOp55
 70
     1
102
RTVSPropertyOp56
 70
     1
102
RTVSPropertyOp57
 70
     1
102
RTVSPropertyOp58
 70
     1
102
RTVSPropertyOp59
 70
     1
102
RTVSPropertyOp60
 70
     1
102
RTVSPropertyOp61
 70
     1
102
RTVSPropertyOp62
 70
     1
  0
XRECORD
  5
ADF1
102
{ACAD_REACTORS
330
ADF0
102
}
330
ADF0
100
AcDbXrecord
280
     1
102
RTVSPost2010Prop28
280
     0
102
RTVSPost2010PropOp28
 70
     1
102
RTVSPost2010Prop29
280
     1
102
RTVSPost2010PropOp29
 70
     1
102
RTVSPost2010Prop30
280
     1
102
RTVSPost2010PropOp30
 70
     1
102
RTVSPost2010Prop31
280
     0
102
RTVSPost2010PropOp31
 70
     1
102
RTVSPost2010Prop32
280
     0
102
RTVSPost2010PropOp32
 70
     1
102
RTVSPost2010Prop33
280
     0
102
RTVSPost2010PropOp33
 70
     1
102
RTVSPost2010Prop34
280
     0
102
RTVSPost2010PropOp34
 70
     1
102
RTVSPost2010Prop35
280
     0
102
RTVSPost2010PropOp35
 70
     1
102
RTVSPost2010Prop36
280
     0
102
RTVSPost2010PropOp36
 70
     1
102
RTVSPost2010Prop37
 90
       50
102
RTVSPost2010PropOp37
 70
     1
102
RTVSPost2010Prop38
140
0.0
102
RTVSPost2010PropOp38
 70
     1
102
RTVSPost2010Prop39
140
1.0
102
RTVSPost2010PropOp39
 70
     1
102
RTVSPost2010Prop40
 90
        0
102
RTVSPost2010PropOp40
 70
     1
102
RTVSPost2010Prop41ColorIndex
 90
       18
102
RTVSPost2010Prop41ColorRGB
 90
        0
102
RTVSPost2010PropOp41
 70
     1
102
RTVSPost2010Prop42
 90
       50
102
RTVSPost2010PropOp42
 70
     1
102
RTVSPost2010Prop43
 90
        3
102
RTVSPost2010PropOp43
 70
     1
102
RTVSPost2010Prop44ColorIndex
 90
        5
102
RTVSPost2010Prop44ColorRGB
 90
      255
102
RTVSPost2010PropOp44
 70
     1
102
RTVSPost2010Prop45
280
     0
102
RTVSPost2010PropOp45
 70
     1
102
RTVSPost2010Prop46
 90
       50
102
RTVSPost2010PropOp46
 70
     1
102
RTVSPost2010Prop47
 90
       50
102
RTVSPost2010PropOp47
 70
     1
102
RTVSPost2010Prop48
 90
       50
102
RTVSPost2010PropOp48
 70
     1
102
RTVSPost2010Prop49
280
     0
102
RTVSPost2010PropOp49
 70
     1
102
RTVSPost2010Prop50
 90
       50
102
RTVSPost2010PropOp50
 70
     1
102
RTVSPost2010Prop51ColorIndex
 90
      256
102
RTVSPost2010Prop51ColorRGB
 90
-16777216
102
RTVSPost2010PropOp51
 70
     0
102
RTVSPost2010Prop52
140
1.0
102
RTVSPost2010PropOp52
 70
     0
102
RTVSPost2010Prop53
 90
        2
102
RTVSPost2010PropOp53
 70
     1
102
RTVSPost2010Prop54
  1
strokes_ogs.tif
102
RTVSPost2010PropOp54
 70
     1
102
RTVSPost2010Prop55
280
     0
102
RTVSPost2010PropOp55
 70
     1
102
RTVSPost2010Prop56
140
1.0
102
RTVSPost2010PropOp56
 70
     1
102
RTVSPost2010Prop57
140
1.0
102
RTVSPost2010PropOp57
 70
     1
102
RTVSPropertyOp0
 70
     1
102
RTVSPropertyOp1
 70
     1
102
RTVSPropertyOp2
 70
     1
102
RTVSPropertyOp3
 70
     1
102
RTVSPropertyOp4
 70
     1
102
RTVSPropertyOp5
 70
     1
102
RTVSPropertyOp6
 70
     1
102
RTVSPropertyOp7
 70
     1
102
RTVSPropertyOp8
 70
     1
102
RTVSPropertyOp9
 70
     1
102
RTVSPropertyOp10
 70
     1
102
RTVSPropertyOp11
 70
     1
102
RTVSPropertyOp12
 70
     1
102
RTVSPropertyOp13
 70
     1
102
RTVSPropertyOp14
 70
     1
102
RTVSPropertyOp15
 70
     1
102
RTVSPropertyOp16
 70
     1
102
RTVSPropertyOp17
 70
     1
102
RTVSPropertyOp18
 70
     1
102
RTVSPropertyOp19
 70
     1
102
RTVSPropertyOp20
 70
     1
102
RTVSPropertyOp21
 70
     1
102
RTVSPropertyOp22
 70
     1
102
RTVSPropertyOp23
 70
     1
102
RTVSPropertyOp24
 70
     1
102
RTVSPropertyOp25
 70
     1
102
RTVSPropertyOp26
 70
     1
102
RTVSPropertyOp27
 70
     1
102
RTVSPropertyOp28
 70
     1
102
RTVSPropertyOp29
 70
     1
102
RTVSPropertyOp30
 70
     1
102
RTVSPropertyOp31
 70
     1
102
RTVSPropertyOp32
 70
     1
102
RTVSPropertyOp33
 70
     1
102
RTVSPropertyOp34
 70
     1
102
RTVSPropertyOp35
 70
     1
102
RTVSPropertyOp36
 70
     1
102
RTVSPropertyOp37
 70
     1
102
RTVSPropertyOp38
 70
     1
102
RTVSPropertyOp39
 70
     1
102
RTVSPropertyOp40
 70
     1
102
RTVSPropertyOp41
 70
     1
102
RTVSPropertyOp42
 70
     1
102
RTVSPropertyOp43
 70
     1
102
RTVSPropertyOp44
 70
     1
102
RTVSPropertyOp45
 70
     1
102
RTVSPropertyOp46
 70
     1
102
RTVSPropertyOp47
 70
     1
102
RTVSPropertyOp48
 70
     1
102
RTVSPropertyOp49
 70
     1
102
RTVSPropertyOp50
 70
     1
102
RTVSPropertyOp51
 70
     0
102
RTVSPropertyOp52
 70
     0
102
RTVSPropertyOp53
 70
     1
102
RTVSPropertyOp54
 70
     1
102
RTVSPropertyOp55
 70
     1
102
RTVSPropertyOp56
 70
     1
102
RTVSPropertyOp57
 70
     1
102
RTVSPropertyOp58
 70
     1
102
RTVSPropertyOp59
 70
     1
102
RTVSPropertyOp60
 70
     1
102
RTVSPropertyOp61
 70
     1
102
RTVSPropertyOp62
 70
     1
  0
XRECORD
  5
ADE7
102
{ACAD_REACTORS
330
ADE6
102
}
330
ADE6
100
AcDbXrecord
280
     1
102
RTVSPost2010Prop28
280
     0
102
RTVSPost2010PropOp28
 70
     1
102
RTVSPost2010Prop29
280
     1
102
RTVSPost2010PropOp29
 70
     1
102
RTVSPost2010Prop30
280
     1
102
RTVSPost2010PropOp30
 70
     1
102
RTVSPost2010Prop31
280
     0
102
RTVSPost2010PropOp31
 70
     1
102
RTVSPost2010Prop32
280
     0
102
RTVSPost2010PropOp32
 70
     1
102
RTVSPost2010Prop33
280
     0
102
RTVSPost2010PropOp33
 70
     1
102
RTVSPost2010Prop34
280
     0
102
RTVSPost2010PropOp34
 70
     1
102
RTVSPost2010Prop35
280
     0
102
RTVSPost2010PropOp35
 70
     1
102
RTVSPost2010Prop36
280
     0
102
RTVSPost2010PropOp36
 70
     1
102
RTVSPost2010Prop37
 90
       50
102
RTVSPost2010PropOp37
 70
     1
102
RTVSPost2010Prop38
140
0.0
102
RTVSPost2010PropOp38
 70
     1
102
RTVSPost2010Prop39
140
1.0
102
RTVSPost2010PropOp39
 70
     1
102
RTVSPost2010Prop40
 90
        0
102
RTVSPost2010PropOp40
 70
     1
102
RTVSPost2010Prop41ColorIndex
 90
       18
102
RTVSPost2010Prop41ColorRGB
 90
        0
102
RTVSPost2010PropOp41
 70
     1
102
RTVSPost2010Prop42
 90
       50
102
RTVSPost2010PropOp42
 70
     1
102
RTVSPost2010Prop43
 90
        3
102
RTVSPost2010PropOp43
 70
     1
102
RTVSPost2010Prop44ColorIndex
 90
        5
102
RTVSPost2010Prop44ColorRGB
 90
      255
102
RTVSPost2010PropOp44
 70
     1
102
RTVSPost2010Prop45
280
     0
102
RTVSPost2010PropOp45
 70
     1
102
RTVSPost2010Prop46
 90
       50
102
RTVSPost2010PropOp46
 70
     1
102
RTVSPost2010Prop47
 90
       50
102
RTVSPost2010PropOp47
 70
     1
102
RTVSPost2010Prop48
 90
       50
102
RTVSPost2010PropOp48
 70
     1
102
RTVSPost2010Prop49
280
     0
102
RTVSPost2010PropOp49
 70
     1
102
RTVSPost2010Prop50
 90
       50
102
RTVSPost2010PropOp50
 70
     1
102
RTVSPost2010Prop51ColorIndex
 90
      256
102
RTVSPost2010Prop51ColorRGB
 90
-16777216
102
RTVSPost2010PropOp51
 70
     0
102
RTVSPost2010Prop52
140
1.0
102
RTVSPost2010PropOp52
 70
     0
102
RTVSPost2010Prop53
 90
        2
102
RTVSPost2010PropOp53
 70
     1
102
RTVSPost2010Prop54
  1
strokes_ogs.tif
102
RTVSPost2010PropOp54
 70
     1
102
RTVSPost2010Prop55
280
     0
102
RTVSPost2010PropOp55
 70
     1
102
RTVSPost2010Prop56
140
1.0
102
RTVSPost2010PropOp56
 70
     1
102
RTVSPost2010Prop57
140
1.0
102
RTVSPost2010PropOp57
 70
     1
102
RTVSPropertyOp0
 70
     1
102
RTVSPropertyOp1
 70
     1
102
RTVSPropertyOp2
 70
     1
102
RTVSPropertyOp3
 70
     1
102
RTVSPropertyOp4
 70
     1
102
RTVSPropertyOp5
 70
     1
102
RTVSPropertyOp6
 70
     1
102
RTVSPropertyOp7
 70
     1
102
RTVSPropertyOp8
 70
     1
102
RTVSPropertyOp9
 70
     1
102
RTVSPropertyOp10
 70
     1
102
RTVSPropertyOp11
 70
     1
102
RTVSPropertyOp12
 70
     1
102
RTVSPropertyOp13
 70
     1
102
RTVSPropertyOp14
 70
     1
102
RTVSPropertyOp15
 70
     1
102
RTVSPropertyOp16
 70
     1
102
RTVSPropertyOp17
 70
     1
102
RTVSPropertyOp18
 70
     1
102
RTVSPropertyOp19
 70
     1
102
RTVSPropertyOp20
 70
     1
102
RTVSPropertyOp21
 70
     1
102
RTVSPropertyOp22
 70
     1
102
RTVSPropertyOp23
 70
     1
102
RTVSPropertyOp24
 70
     1
102
RTVSPropertyOp25
 70
     1
102
RTVSPropertyOp26
 70
     1
102
RTVSPropertyOp27
 70
     1
102
RTVSPropertyOp28
 70
     1
102
RTVSPropertyOp29
 70
     1
102
RTVSPropertyOp30
 70
     1
102
RTVSPropertyOp31
 70
     1
102
RTVSPropertyOp32
 70
     1
102
RTVSPropertyOp33
 70
     1
102
RTVSPropertyOp34
 70
     1
102
RTVSPropertyOp35
 70
     1
102
RTVSPropertyOp36
 70
     1
102
RTVSPropertyOp37
 70
     1
102
RTVSPropertyOp38
 70
     1
102
RTVSPropertyOp39
 70
     1
102
RTVSPropertyOp40
 70
     1
102
RTVSPropertyOp41
 70
     1
102
RTVSPropertyOp42
 70
     1
102
RTVSPropertyOp43
 70
     1
102
RTVSPropertyOp44
 70
     1
102
RTVSPropertyOp45
 70
     1
102
RTVSPropertyOp46
 70
     1
102
RTVSPropertyOp47
 70
     1
102
RTVSPropertyOp48
 70
     1
102
RTVSPropertyOp49
 70
     1
102
RTVSPropertyOp50
 70
     1
102
RTVSPropertyOp51
 70
     0
102
RTVSPropertyOp52
 70
     0
102
RTVSPropertyOp53
 70
     1
102
RTVSPropertyOp54
 70
     1
102
RTVSPropertyOp55
 70
     1
102
RTVSPropertyOp56
 70
     1
102
RTVSPropertyOp57
 70
     1
102
RTVSPropertyOp58
 70
     1
102
RTVSPropertyOp59
 70
     1
102
RTVSPropertyOp60
 70
     1
102
RTVSPropertyOp61
 70
     1
102
RTVSPropertyOp62
 70
     1
  0
XRECORD
  5
ADDB
102
{ACAD_REACTORS
330
ADDA
102
}
330
ADDA
100
AcDbXrecord
280
     1
102
RTVSPost2010Prop28
280
     0
102
RTVSPost2010PropOp28
 70
     1
102
RTVSPost2010Prop29
280
     1
102
RTVSPost2010PropOp29
 70
     1
102
RTVSPost2010Prop30
280
     1
102
RTVSPost2010PropOp30
 70
     1
102
RTVSPost2010Prop31
280
     0
102
RTVSPost2010PropOp31
 70
     1
102
RTVSPost2010Prop32
280
     0
102
RTVSPost2010PropOp32
 70
     1
102
RTVSPost2010Prop33
280
     0
102
RTVSPost2010PropOp33
 70
     1
102
RTVSPost2010Prop34
280
     0
102
RTVSPost2010PropOp34
 70
     1
102
RTVSPost2010Prop35
280
     0
102
RTVSPost2010PropOp35
 70
     1
102
RTVSPost2010Prop36
280
     0
102
RTVSPost2010PropOp36
 70
     1
102
RTVSPost2010Prop37
 90
       50
102
RTVSPost2010PropOp37
 70
     1
102
RTVSPost2010Prop38
140
0.0
102
RTVSPost2010PropOp38
 70
     1
102
RTVSPost2010Prop39
140
1.0
102
RTVSPost2010PropOp39
 70
     1
102
RTVSPost2010Prop40
 90
        0
102
RTVSPost2010PropOp40
 70
     1
102
RTVSPost2010Prop41ColorIndex
 90
       18
102
RTVSPost2010Prop41ColorRGB
 90
        0
102
RTVSPost2010PropOp41
 70
     1
102
RTVSPost2010Prop42
 90
       50
102
RTVSPost2010PropOp42
 70
     1
102
RTVSPost2010Prop43
 90
        3
102
RTVSPost2010PropOp43
 70
     1
102
RTVSPost2010Prop44ColorIndex
 90
        5
102
RTVSPost2010Prop44ColorRGB
 90
      255
102
RTVSPost2010PropOp44
 70
     1
102
RTVSPost2010Prop45
280
     0
102
RTVSPost2010PropOp45
 70
     1
102
RTVSPost2010Prop46
 90
       50
102
RTVSPost2010PropOp46
 70
     1
102
RTVSPost2010Prop47
 90
       50
102
RTVSPost2010PropOp47
 70
     1
102
RTVSPost2010Prop48
 90
       50
102
RTVSPost2010PropOp48
 70
     1
102
RTVSPost2010Prop49
280
     0
102
RTVSPost2010PropOp49
 70
     1
102
RTVSPost2010Prop50
 90
       50
102
RTVSPost2010PropOp50
 70
     1
102
RTVSPost2010Prop51ColorIndex
 90
      256
102
RTVSPost2010Prop51ColorRGB
 90
-16777216
102
RTVSPost2010PropOp51
 70
     0
102
RTVSPost2010Prop52
140
1.0
102
RTVSPost2010PropOp52
 70
     0
102
RTVSPost2010Prop53
 90
        2
102
RTVSPost2010PropOp53
 70
     1
102
RTVSPost2010Prop54
  1
strokes_ogs.tif
102
RTVSPost2010PropOp54
 70
     1
102
RTVSPost2010Prop55
280
     0
102
RTVSPost2010PropOp55
 70
     1
102
RTVSPost2010Prop56
140
1.0
102
RTVSPost2010PropOp56
 70
     1
102
RTVSPost2010Prop57
140
1.0
102
RTVSPost2010PropOp57
 70
     1
102
RTVSPropertyOp0
 70
     1
102
RTVSPropertyOp1
 70
     1
102
RTVSPropertyOp2
 70
     1
102
RTVSPropertyOp3
 70
     1
102
RTVSPropertyOp4
 70
     1
102
RTVSPropertyOp5
 70
     1
102
RTVSPropertyOp6
 70
     1
102
RTVSPropertyOp7
 70
     1
102
RTVSPropertyOp8
 70
     1
102
RTVSPropertyOp9
 70
     1
102
RTVSPropertyOp10
 70
     1
102
RTVSPropertyOp11
 70
     1
102
RTVSPropertyOp12
 70
     1
102
RTVSPropertyOp13
 70
     1
102
RTVSPropertyOp14
 70
     1
102
RTVSPropertyOp15
 70
     1
102
RTVSPropertyOp16
 70
     1
102
RTVSPropertyOp17
 70
     1
102
RTVSPropertyOp18
 70
     1
102
RTVSPropertyOp19
 70
     1
102
RTVSPropertyOp20
 70
     1
102
RTVSPropertyOp21
 70
     1
102
RTVSPropertyOp22
 70
     1
102
RTVSPropertyOp23
 70
     1
102
RTVSPropertyOp24
 70
     1
102
RTVSPropertyOp25
 70
     1
102
RTVSPropertyOp26
 70
     1
102
RTVSPropertyOp27
 70
     1
102
RTVSPropertyOp28
 70
     1
102
RTVSPropertyOp29
 70
     1
102
RTVSPropertyOp30
 70
     1
102
RTVSPropertyOp31
 70
     1
102
RTVSPropertyOp32
 70
     1
102
RTVSPropertyOp33
 70
     1
102
RTVSPropertyOp34
 70
     1
102
RTVSPropertyOp35
 70
     1
102
RTVSPropertyOp36
 70
     1
102
RTVSPropertyOp37
 70
     1
102
RTVSPropertyOp38
 70
     1
102
RTVSPropertyOp39
 70
     1
102
RTVSPropertyOp40
 70
     1
102
RTVSPropertyOp41
 70
     1
102
RTVSPropertyOp42
 70
     1
102
RTVSPropertyOp43
 70
     1
102
RTVSPropertyOp44
 70
     1
102
RTVSPropertyOp45
 70
     1
102
RTVSPropertyOp46
 70
     1
102
RTVSPropertyOp47
 70
     1
102
RTVSPropertyOp48
 70
     1
102
RTVSPropertyOp49
 70
     1
102
RTVSPropertyOp50
 70
     1
102
RTVSPropertyOp51
 70
     0
102
RTVSPropertyOp52
 70
     0
102
RTVSPropertyOp53
 70
     1
102
RTVSPropertyOp54
 70
     1
102
RTVSPropertyOp55
 70
     1
102
RTVSPropertyOp56
 70
     1
102
RTVSPropertyOp57
 70
     1
102
RTVSPropertyOp58
 70
     1
102
RTVSPropertyOp59
 70
     1
102
RTVSPropertyOp60
 70
     1
102
RTVSPropertyOp61
 70
     1
102
RTVSPropertyOp62
 70
     1
  0
XRECORD
  5
ADF3
102
{ACAD_REACTORS
330
ADF2
102
}
330
ADF2
100
AcDbXrecord
280
     1
102
RTVSPost2010Prop28
280
     0
102
RTVSPost2010PropOp28
 70
     1
102
RTVSPost2010Prop29
280
     1
102
RTVSPost2010PropOp29
 70
     1
102
RTVSPost2010Prop30
280
     1
102
RTVSPost2010PropOp30
 70
     1
102
RTVSPost2010Prop31
280
     0
102
RTVSPost2010PropOp31
 70
     1
102
RTVSPost2010Prop32
280
     0
102
RTVSPost2010PropOp32
 70
     1
102
RTVSPost2010Prop33
280
     0
102
RTVSPost2010PropOp33
 70
     1
102
RTVSPost2010Prop34
280
     0
102
RTVSPost2010PropOp34
 70
     1
102
RTVSPost2010Prop35
280
     0
102
RTVSPost2010PropOp35
 70
     1
102
RTVSPost2010Prop36
280
     0
102
RTVSPost2010PropOp36
 70
     1
102
RTVSPost2010Prop37
 90
       50
102
RTVSPost2010PropOp37
 70
     1
102
RTVSPost2010Prop38
140
0.0
102
RTVSPost2010PropOp38
 70
     1
102
RTVSPost2010Prop39
140
1.0
102
RTVSPost2010PropOp39
 70
     1
102
RTVSPost2010Prop40
 90
        0
102
RTVSPost2010PropOp40
 70
     1
102
RTVSPost2010Prop41ColorIndex
 90
       18
102
RTVSPost2010Prop41ColorRGB
 90
        0
102
RTVSPost2010PropOp41
 70
     1
102
RTVSPost2010Prop42
 90
       50
102
RTVSPost2010PropOp42
 70
     1
102
RTVSPost2010Prop43
 90
        3
102
RTVSPost2010PropOp43
 70
     1
102
RTVSPost2010Prop44ColorIndex
 90
        5
102
RTVSPost2010Prop44ColorRGB
 90
      255
102
RTVSPost2010PropOp44
 70
     1
102
RTVSPost2010Prop45
280
     0
102
RTVSPost2010PropOp45
 70
     1
102
RTVSPost2010Prop46
 90
       50
102
RTVSPost2010PropOp46
 70
     1
102
RTVSPost2010Prop47
 90
       50
102
RTVSPost2010PropOp47
 70
     1
102
RTVSPost2010Prop48
 90
       50
102
RTVSPost2010PropOp48
 70
     1
102
RTVSPost2010Prop49
280
     0
102
RTVSPost2010PropOp49
 70
     1
102
RTVSPost2010Prop50
 90
       50
102
RTVSPost2010PropOp50
 70
     1
102
RTVSPost2010Prop51ColorIndex
 90
      256
102
RTVSPost2010Prop51ColorRGB
 90
-16777216
102
RTVSPost2010PropOp51
 70
     0
102
RTVSPost2010Prop52
140
1.0
102
RTVSPost2010PropOp52
 70
     0
102
RTVSPost2010Prop53
 90
        2
102
RTVSPost2010PropOp53
 70
     1
102
RTVSPost2010Prop54
  1
strokes_ogs.tif
102
RTVSPost2010PropOp54
 70
     1
102
RTVSPost2010Prop55
280
     0
102
RTVSPost2010PropOp55
 70
     1
102
RTVSPost2010Prop56
140
1.0
102
RTVSPost2010PropOp56
 70
     1
102
RTVSPost2010Prop57
140
1.0
102
RTVSPost2010PropOp57
 70
     1
102
RTVSPropertyOp0
 70
     1
102
RTVSPropertyOp1
 70
     1
102
RTVSPropertyOp2
 70
     1
102
RTVSPropertyOp3
 70
     1
102
RTVSPropertyOp4
 70
     1
102
RTVSPropertyOp5
 70
     1
102
RTVSPropertyOp6
 70
     1
102
RTVSPropertyOp7
 70
     1
102
RTVSPropertyOp8
 70
     1
102
RTVSPropertyOp9
 70
     1
102
RTVSPropertyOp10
 70
     1
102
RTVSPropertyOp11
 70
     1
102
RTVSPropertyOp12
 70
     1
102
RTVSPropertyOp13
 70
     1
102
RTVSPropertyOp14
 70
     1
102
RTVSPropertyOp15
 70
     1
102
RTVSPropertyOp16
 70
     1
102
RTVSPropertyOp17
 70
     1
102
RTVSPropertyOp18
 70
     1
102
RTVSPropertyOp19
 70
     1
102
RTVSPropertyOp20
 70
     1
102
RTVSPropertyOp21
 70
     1
102
RTVSPropertyOp22
 70
     1
102
RTVSPropertyOp23
 70
     1
102
RTVSPropertyOp24
 70
     1
102
RTVSPropertyOp25
 70
     1
102
RTVSPropertyOp26
 70
     1
102
RTVSPropertyOp27
 70
     1
102
RTVSPropertyOp28
 70
     1
102
RTVSPropertyOp29
 70
     1
102
RTVSPropertyOp30
 70
     1
102
RTVSPropertyOp31
 70
     1
102
RTVSPropertyOp32
 70
     1
102
RTVSPropertyOp33
 70
     1
102
RTVSPropertyOp34
 70
     1
102
RTVSPropertyOp35
 70
     1
102
RTVSPropertyOp36
 70
     1
102
RTVSPropertyOp37
 70
     1
102
RTVSPropertyOp38
 70
     1
102
RTVSPropertyOp39
 70
     1
102
RTVSPropertyOp40
 70
     1
102
RTVSPropertyOp41
 70
     1
102
RTVSPropertyOp42
 70
     1
102
RTVSPropertyOp43
 70
     1
102
RTVSPropertyOp44
 70
     1
102
RTVSPropertyOp45
 70
     1
102
RTVSPropertyOp46
 70
     1
102
RTVSPropertyOp47
 70
     1
102
RTVSPropertyOp48
 70
     1
102
RTVSPropertyOp49
 70
     1
102
RTVSPropertyOp50
 70
     1
102
RTVSPropertyOp51
 70
     0
102
RTVSPropertyOp52
 70
     0
102
RTVSPropertyOp53
 70
     1
102
RTVSPropertyOp54
 70
     1
102
RTVSPropertyOp55
 70
     1
102
RTVSPropertyOp56
 70
     1
102
RTVSPropertyOp57
 70
     1
102
RTVSPropertyOp58
 70
     1
102
RTVSPropertyOp59
 70
     1
102
RTVSPropertyOp60
 70
     1
102
RTVSPropertyOp61
 70
     1
102
RTVSPropertyOp62
 70
     1
  0
ENDSEC
  0
EOF
