  0
SECTION
  2
HEADER
  9
$ACADVER
  1
AC1015
  9
$ACADMAINTVER
 70
    20
  9
$DWGCODEPAGE
  3
ANSI_932
  9
$INSBASE
 10
0.0
 20
0.0
 30
0.0
  9
$EXTMIN
 10
10.0
 20
9.999999999999998
 30
0.0
  9
$EXTMAX
 10
356.5618329999999
 20
320.484862
 30
0.0
  9
$LIMMIN
 10
0.0
 20
0.0
  9
$LIMMAX
 10
495.0
 20
341.25
  9
$ORTHOMODE
 70
     1
  9
$REGENMODE
 70
     1
  9
$FILLMODE
 70
     1
  9
$QTEXTMODE
 70
     0
  9
$MIRRTEXT
 70
     1
  9
$LTSCALE
 40
20.0
  9
$ATTMODE
 70
     1
  9
$TEXTSIZE
 40
5.0
  9
$TRACEWID
 40
1.0
  9
$TEXTSTYLE
  7
STANDARD
  9
$CLAYER
  8
0
  9
$CELTYPE
  6
BYLAYER
  9
$CECOLOR
 62
   256
  9
$CELTSCALE
 40
1.0
  9
$DISPSILH
 70
     0
  9
$DIMSCALE
 40
1.0
  9
$DIMASZ
 40
3.0
  9
$DIMEXO
 40
1.0
  9
$DIMDLI
 40
10.0
  9
$DIMRND
 40
0.0
  9
$DIMDLE
 40
0.0
  9
$DIMEXE
 40
1.0
  9
$DIMTP
 40
0.0
  9
$DIMTM
 40
0.0
  9
$DIMTXT
 40
3.2
  9
$DIMCEN
 40
0.0
  9
$DIMTSZ
 40
0.0
  9
$DIMTOL
 70
     0
  9
$DIMLIM
 70
     0
  9
$DIMTIH
 70
     0
  9
$DIMTOH
 70
     0
  9
$DIMSE1
 70
     0
  9
$DIMSE2
 70
     0
  9
$DIMTAD
 70
     3
  9
$DIMZIN
 70
     8
  9
$DIMBLK
  1

  9
$DIMASO
 70
     1
  9
$DIMSHO
 70
     1
  9
$DIMPOST
  1

  9
$DIMAPOST
  1

  9
$DIMALT
 70
     0
  9
$DIMALTD
 70
     2
  9
$DIMALTF
 40
25.4
  9
$DIMLFAC
 40
1.0
  9
$DIMTOFL
 70
     1
  9
$DIMTVP
 40
0.0
  9
$DIMTIX
 70
     0
  9
$DIMSOXD
 70
     0
  9
$DIMSAH
 70
     1
  9
$DIMBLK1
  1
OPEN
  9
$DIMBLK2
  1
OPEN
  9
$DIMSTYLE
  2
STANDARD
  9
$DIMCLRD
 70
     0
  9
$DIMCLRE
 70
     0
  9
$DIMCLRT
 70
     0
  9
$DIMTFAC
 40
1.0
  9
$DIMGAP
 40
1.0
  9
$DIMJUST
 70
     0
  9
$DIMSD1
 70
     0
  9
$DIMSD2
 70
     0
  9
$DIMTOLJ
 70
     1
  9
$DIMTZIN
 70
     0
  9
$DIMALTZ
 70
     0
  9
$DIMALTTZ
 70
     0
  9
$DIMUPT
 70
     0
  9
$DIMDEC
 70
     4
  9
$DIMTDEC
 70
     4
  9
$DIMALTU
 70
     2
  9
$DIMALTTD
 70
     2
  9
$DIMTXSTY
  7
STANDARD
  9
$DIMAUNIT
 70
     0
  9
$DIMADEC
 70
     0
  9
$DIMALTRND
 40
0.0
  9
$DIMAZIN
 70
     0
  9
$DIMDSEP
 70
    46
  9
$DIMATFIT
 70
     3
  9
$DIMFRAC
 70
     0
  9
$DIMLDRBLK
  1
OPEN
  9
$DIMLUNIT
 70
     2
  9
$DIMLWD
 70
    -2
  9
$DIMLWE
 70
    -2
  9
$DIMTMOVE
 70
     0
  9
$LUNITS
 70
     2
  9
$LUPREC
 70
     4
  9
$SKETCHINC
 40
1.0
  9
$FILLETRAD
 40
7.0
  9
$AUNITS
 70
     0
  9
$AUPREC
 70
     2
  9
$MENU
  1
.
  9
$ELEVATION
 40
0.0
  9
$PELEVATION
 40
0.0
  9
$THICKNESS
 40
0.0
  9
$LIMCHECK
 70
     0
  9
$CHAMFERA
 40
10.0
  9
$CHAMFERB
 40
10.0
  9
$CHAMFERC
 40
0.0
  9
$CHAMFERD
 40
0.0
  9
$SKPOLY
 70
     0
  9
$TDCREATE
 40
2451302.655420602
  9
$TDUCREATE
 40
2451302.280420602
  9
$TDUPDATE
 40
2457192.687693160
  9
$TDUUPDATE
 40
2457192.312693160
  9
$TDINDWG
 40
0.0000106250
  9
$TDUSRTIMER
 40
0.0000103241
  9
$USRTIMER
 70
     1
  9
$ANGBASE
 50
0.0
  9
$ANGDIR
 70
     0
  9
$PDMODE
 70
     0
  9
$PDSIZE
 40
0.0
  9
$PLINEWID
 40
0.0
  9
$SPLFRAME
 70
     0
  9
$SPLINETYPE
 70
     6
  9
$SPLINESEGS
 70
     8
  9
$HANDSEED
  5
AD18
  9
$SURFTAB1
 70
     6
  9
$SURFTAB2
 70
     6
  9
$SURFTYPE
 70
     6
  9
$SURFU
 70
     6
  9
$SURFV
 70
     6
  9
$UCSBASE
  2

  9
$UCSNAME
  2

  9
$UCSORG
 10
0.0
 20
0.0
 30
0.0
  9
$UCSXDIR
 10
1.0
 20
0.0
 30
0.0
  9
$UCSYDIR
 10
0.0
 20
1.0
 30
0.0
  9
$UCSORTHOREF
  2

  9
$UCSORTHOVIEW
 70
     0
  9
$UCSORGTOP
 10
0.0
 20
0.0
 30
0.0
  9
$UCSORGBOTTOM
 10
0.0
 20
0.0
 30
0.0
  9
$UCSORGLEFT
 10
0.0
 20
0.0
 30
0.0
  9
$UCSORGRIGHT
 10
0.0
 20
0.0
 30
0.0
  9
$UCSORGFRONT
 10
0.0
 20
0.0
 30
0.0
  9
$UCSORGBACK
 10
0.0
 20
0.0
 30
0.0
  9
$PUCSBASE
  2

  9
$PUCSNAME
  2

  9
$PUCSORG
 10
0.0
 20
0.0
 30
0.0
  9
$PUCSXDIR
 10
1.0
 20
0.0
 30
0.0
  9
$PUCSYDIR
 10
0.0
 20
1.0
 30
0.0
  9
$PUCSORTHOREF
  2

  9
$PUCSORTHOVIEW
 70
     0
  9
$PUCSORGTOP
 10
0.0
 20
0.0
 30
0.0
  9
$PUCSORGBOTTOM
 10
0.0
 20
0.0
 30
0.0
  9
$PUCSORGLEFT
 10
0.0
 20
0.0
 30
0.0
  9
$PUCSORGRIGHT
 10
0.0
 20
0.0
 30
0.0
  9
$PUCSORGFRONT
 10
0.0
 20
0.0
 30
0.0
  9
$PUCSORGBACK
 10
0.0
 20
0.0
 30
0.0
  9
$USERI1
 70
     0
  9
$USERI2
 70
     0
  9
$USERI3
 70
     0
  9
$USERI4
 70
     0
  9
$USERI5
 70
     0
  9
$USERR1
 40
0.0
  9
$USERR2
 40
0.0
  9
$USERR3
 40
0.0
  9
$USERR4
 40
0.0
  9
$USERR5
 40
0.0
  9
$WORLDVIEW
 70
     1
  9
$SHADEDGE
 70
     3
  9
$SHADEDIF
 70
    70
  9
$TILEMODE
 70
     1
  9
$MAXACTVP
 70
    16
  9
$PINSBASE
 10
0.0
 20
0.0
 30
0.0
  9
$PLIMCHECK
 70
     0
  9
$PEXTMIN
 10
1.000000000000000E+20
 20
1.000000000000000E+20
 30
1.000000000000000E+20
  9
$PEXTMAX
 10
-1.000000000000000E+20
 20
-1.000000000000000E+20
 30
-1.000000000000000E+20
  9
$PLIMMIN
 10
0.0
 20
0.0
  9
$PLIMMAX
 10
420.0
 20
297.0
  9
$UNITMODE
 70
     0
  9
$VISRETAIN
 70
     0
  9
$PLINEGEN
 70
     0
  9
$PSLTSCALE
 70
     0
  9
$TREEDEPTH
 70
  3020
  9
$CMLSTYLE
  2
STANDARD
  9
$CMLJUST
 70
     0
  9
$CMLSCALE
 40
1.0
  9
$PROXYGRAPHICS
 70
     1
  9
$MEASUREMENT
 70
     0
  9
$CELWEIGHT
370
    -1
  9
$ENDCAPS
280
     0
  9
$JOINSTYLE
280
     0
  9
$LWDISPLAY
290
     0
  9
$INSUNITS
 70
     0
  9
$HYPERLINKBASE
  1

  9
$STYLESHEET
  1

  9
$XEDIT
290
     1
  9
$CEPSNTYPE
380
     0
  9
$PSTYLEMODE
290
     1
  9
$FINGERPRINTGUID
  2
{548C0BA0-FB80-4CE4-B196-C4BDDB6350F5}
  9
$VERSIONGUID
  2
{0814549B-0A5B-45C5-9324-37B6CA0AEFFC}
  9
$EXTNAMES
290
     1
  9
$PSVPSCALE
 40
0.0
  9
$OLESTARTUP
290
     0
  0
ENDSEC
  0
SECTION
  2
CLASSES
  0
CLASS
  1
ACDBDICTIONARYWDFLT
  2
AcDbDictionaryWithDefault
  3
ObjectDBX Classes
 90
        0
280
     0
281
     0
  0
CLASS
  1
ACDBPLACEHOLDER
  2
AcDbPlaceHolder
  3
ObjectDBX Classes
 90
        0
280
     0
281
     0
  0
CLASS
  1
LAYOUT
  2
AcDbLayout
  3
ObjectDBX Classes
 90
        0
280
     0
281
     0
  0
CLASS
  1
DICTIONARYVAR
  2
AcDbDictionaryVar
  3
ObjectDBX Classes
 90
        0
280
     0
281
     0
  0
CLASS
  1
MATERIAL
  2
AcDbMaterial
  3
ObjectDBX Classes
 90
     1153
280
     0
281
     0
  0
CLASS
  1
VISUALSTYLE
  2
AcDbVisualStyle
  3
ObjectDBX Classes
 90
     4095
280
     0
281
     0
  0
CLASS
  1
TABLESTYLE
  2
AcDbTableStyle
  3
ObjectDBX Classes
 90
     4095
280
     0
281
     0
  0
CLASS
  1
SCALE
  2
AcDbScale
  3
ObjectDBX Classes
 90
     1153
280
     0
281
     0
  0
CLASS
  1
MLEADERSTYLE
  2
AcDbMLeaderStyle
  3
ACDB_MLEADERSTYLE_CLASS
 90
     4095
280
     0
281
     0
  0
CLASS
  1
ACDBSECTIONVIEWSTYLE
  2
AcDbSectionViewStyle
  3
ObjectDBX Classes
 90
     1025
280
     0
281
     0
  0
CLASS
  1
ACDBDETAILVIEWSTYLE
  2
AcDbDetailViewStyle
  3
ObjectDBX Classes
 90
     1025
280
     0
281
     0
  0
CLASS
  1
CELLSTYLEMAP
  2
AcDbCellStyleMap
  3
ObjectDBX Classes
 90
     1152
280
     0
281
     0
  0
ENDSEC
  0
SECTION
  2
TABLES
  0
TABLE
  2
VPORT
  5
A9DC
330
0
100
AcDbSymbolTable
 70
     1
  0
VPORT
  5
AC61
330
A9DC
100
AcDbSymbolTableRecord
100
AcDbViewportTableRecord
  2
*ACTIVE
 70
     0
 10
0.0
 20
0.0
 11
1.0
 21
1.0
 12
277.3316158177674
 22
165.2487095132513
 13
0.0
 23
0.0
 14
10.0
 24
10.0
 15
10.0
 25
10.0
 16
0.0
 26
0.0
 36
1.0
 17
0.0
 27
0.0
 37
0.0
 40
313.9543232635158
 41
2.35006605019815
 42
50.0
 43
0.0
 44
0.0
 50
0.0
 51
0.0
 71
     0
 72
   100
 73
     1
 74
     0
 75
     0
 76
     0
 77
     0
 78
     0
281
     0
 65
     1
110
0.0
120
0.0
130
0.0
111
1.0
121
0.0
131
0.0
112
0.0
122
1.0
132
0.0
 79
     0
146
0.0
1001
ACAD_NAV_VCDISPLAY
1070
     3
  0
ENDTAB
  0
TABLE
  2
LTYPE
  5
A9D9
330
0
100
AcDbSymbolTable
 70
     4
  0
LTYPE
  5
A9E7
330
A9D9
100
AcDbSymbolTableRecord
100
AcDbLinetypeTableRecord
  2
BYBLOCK
 70
     0
  3

 72
    65
 73
     0
 40
0.0
  0
LTYPE
  5
A9E8
330
A9D9
100
AcDbSymbolTableRecord
100
AcDbLinetypeTableRecord
  2
BYLAYER
 70
     0
  3

 72
    65
 73
     0
 40
0.0
  0
LTYPE
  5
A9E9
330
A9D9
100
AcDbSymbolTableRecord
100
AcDbLinetypeTableRecord
  2
CONTINUOUS
 70
     0
  3
Solid line
 72
    65
 73
     0
 40
0.0
  0
LTYPE
  5
A9F7
330
A9D9
100
AcDbSymbolTableRecord
100
AcDbLinetypeTableRecord
  2
DASHED
 70
     0
  3
__ __ __ __ __ __ __ __ __ __ __ __ __ __ __ __
 72
    65
 73
     2
 40
0.75
 49
0.5
 74
     0
 49
-0.25
 74
     0
  0
LTYPE
  5
A9F8
330
A9D9
100
AcDbSymbolTableRecord
100
AcDbLinetypeTableRecord
  2
CENTER
 70
     0
  3
____ _ ____ _ ____ _ ____ _ ____ _ ____ _ ____ 
 72
    65
 73
     4
 40
2.0
 49
1.25
 74
     0
 49
-0.25
 74
     0
 49
0.25
 74
     0
 49
-0.25
 74
     0
  0
LTYPE
  5
A9F9
330
A9D9
100
AcDbSymbolTableRecord
100
AcDbLinetypeTableRecord
  2
PHANTOM
 70
     0
  3
______  __  __  ______  __  __  ______  __  __ 
 72
    65
 73
     6
 40
2.5
 49
1.25
 74
     0
 49
-0.25
 74
     0
 49
0.25
 74
     0
 49
-0.25
 74
     0
 49
0.25
 74
     0
 49
-0.25
 74
     0
  0
ENDTAB
  0
TABLE
  2
LAYER
  5
A9D6
330
0
100
AcDbSymbolTable
 70
     8
  0
LAYER
  5
A9E4
102
{ACAD_XDICTIONARY
360
ACBC
102
}
330
A9D6
100
AcDbSymbolTableRecord
100
AcDbLayerTableRecord
  2
0
 70
     0
 62
     7
  6
CONTINUOUS
370
    -3
390
AC6A
  0
LAYER
  5
A9FA
102
{ACAD_XDICTIONARY
360
ACBE
102
}
330
A9D6
100
AcDbSymbolTableRecord
100
AcDbLayerTableRecord
  2
4
 70
     0
 62
     1
  6
CENTER
370
    -3
390
AC6A
  0
LAYER
  5
A9FB
102
{ACAD_XDICTIONARY
360
ACC0
102
}
330
A9D6
100
AcDbSymbolTableRecord
100
AcDbLayerTableRecord
  2
5
 70
     0
 62
     6
  6
PHANTOM
370
    -3
390
AC6A
  0
LAYER
  5
A9FC
102
{ACAD_XDICTIONARY
360
ACC2
102
}
330
A9D6
100
AcDbSymbolTableRecord
100
AcDbLayerTableRecord
  2
1
 70
     0
 62
     7
  6
CONTINUOUS
370
    -3
390
AC6A
  0
LAYER
  5
A9FD
102
{ACAD_XDICTIONARY
360
ACC4
102
}
330
A9D6
100
AcDbSymbolTableRecord
100
AcDbLayerTableRecord
  2
2
 70
     0
 62
     4
  6
CONTINUOUS
370
    -3
390
AC6A
  0
LAYER
  5
A9FE
102
{ACAD_XDICTIONARY
360
ACC6
102
}
330
A9D6
100
AcDbSymbolTableRecord
100
AcDbLayerTableRecord
  2
3
 70
     0
 62
     2
  6
DASHED
370
    -3
390
AC6A
  0
LAYER
  5
A9FF
102
{ACAD_XDICTIONARY
360
ACC8
102
}
330
A9D6
100
AcDbSymbolTableRecord
100
AcDbLayerTableRecord
  2
6
 70
     0
 62
     5
  6
CONTINUOUS
370
    -3
390
AC6A
  0
LAYER
  5
AA00
102
{ACAD_XDICTIONARY
360
ACCA
102
}
330
A9D6
100
AcDbSymbolTableRecord
100
AcDbLayerTableRecord
  2
7
 70
     0
 62
     3
  6
CONTINUOUS
370
    -3
390
AC6A
  0
ENDTAB
  0
TABLE
  2
STYLE
  5
A9D7
330
0
100
AcDbSymbolTable
 70
     1
  0
STYLE
  5
A9E5
330
A9D7
100
AcDbSymbolTableRecord
100
AcDbTextStyleTableRecord
  2
STANDARD
 70
     0
 40
0.0
 41
1.0
 50
0.0
 71
     0
 42
5.0
  3
txt
  4

  0
ENDTAB
  0
TABLE
  2
VIEW
  5
A9DA
330
0
100
AcDbSymbolTable
 70
     0
  0
ENDTAB
  0
TABLE
  2
UCS
  5
A9DB
330
0
100
AcDbSymbolTable
 70
     0
  0
ENDTAB
  0
TABLE
  2
APPID
  5
A9DD
330
0
100
AcDbSymbolTable
 70
     3
  0
APPID
  5
A9E6
330
A9DD
100
AcDbSymbolTableRecord
100
AcDbRegAppTableRecord
  2
ACAD
 70
     0
  0
APPID
  5
ACD6
330
A9DD
100
AcDbSymbolTableRecord
100
AcDbRegAppTableRecord
  2
ACAD_NAV_VCDISPLAY
 70
     0
  0
APPID
  5
AD0F
330
A9DD
100
AcDbSymbolTableRecord
100
AcDbRegAppTableRecord
  2
ACAD_MLEADERVER
 70
     0
  0
ENDTAB
  0
TABLE
  2
DIMSTYLE
  5
A9DE
330
0
100
AcDbSymbolTable
 70
     1
100
AcDbDimStyleTable
 71
     0
  0
DIMSTYLE
105
AA02
330
A9DE
100
AcDbSymbolTableRecord
100
AcDbDimStyleTableRecord
  2
STANDARD
 70
     0
 41
3.0
 42
1.0
 43
10.0
 44
1.0
 73
     0
 74
     0
 77
     3
 78
     8
140
3.2
141
0.0
147
1.0
172
     1
173
     1
284
     8
285
     8
286
     8
340
A9E5
  0
ENDTAB
  0
TABLE
  2
BLOCK_RECORD
  5
A9D5
330
0
100
AcDbSymbolTable
 70
     1
  0
BLOCK_RECORD
  5
A9F2
102
{ACAD_XDICTIONARY
360
AC64
102
}
330
A9D5
100
AcDbSymbolTableRecord
100
AcDbBlockTableRecord
  2
*MODEL_SPACE
340
ACB8
  0
BLOCK_RECORD
  5
A9EE
102
{ACAD_XDICTIONARY
360
AC62
102
}
330
A9D5
100
AcDbSymbolTableRecord
100
AcDbBlockTableRecord
  2
*PAPER_SPACE
340
ACB9
  0
BLOCK_RECORD
  5
AA0A
330
A9D5
100
AcDbSymbolTableRecord
100
AcDbBlockTableRecord
  2
_OPEN
340
0
  0
ENDTAB
  0
ENDSEC
  0
SECTION
  2
BLOCKS
  0
BLOCK
  5
A9F3
330
A9F2
100
AcDbEntity
  8
0
100
AcDbBlockBegin
  2
*MODEL_SPACE
 70
     0
 10
0.0
 20
0.0
 30
0.0
  3
*MODEL_SPACE
  1

  0
ENDBLK
  5
A9F4
330
A9F2
100
AcDbEntity
  8
0
100
AcDbBlockEnd
  0
BLOCK
  5
A9EF
330
A9EE
100
AcDbEntity
 67
     1
  8
0
100
AcDbBlockBegin
  2
*PAPER_SPACE
 70
     0
 10
0.0
 20
0.0
 30
0.0
  3
*PAPER_SPACE
  1

  0
ENDBLK
  5
A9F0
330
A9EE
100
AcDbEntity
 67
     1
  8
0
100
AcDbBlockEnd
  0
BLOCK
  5
AA0B
330
AA0A
100
AcDbEntity
  8
0
100
AcDbBlockBegin
  2
_OPEN
 70
     0
 10
0.0
 20
0.0
 30
0.0
  3
_OPEN
  1

  0
LINE
  5
AA0C
330
AA0A
100
AcDbEntity
  8
0
  6
ByBlock
 62
     0
100
AcDbLine
 10
-1.0
 20
0.166667
 30
0.0
 11
0.0
 21
0.0
 31
0.0
  0
LINE
  5
AA0D
330
AA0A
100
AcDbEntity
  8
0
  6
ByBlock
 62
     0
100
AcDbLine
 10
0.0
 20
0.0
 30
0.0
 11
-1.0
 21
-0.166667
 31
0.0
  0
LINE
  5
AA0E
330
AA0A
100
AcDbEntity
  8
0
  6
ByBlock
 62
     0
100
AcDbLine
 10
0.0
 20
0.0
 30
0.0
 11
-1.0
 21
0.0
 31
0.0
  0
ENDBLK
  5
AA0F
330
AA0A
100
AcDbEntity
  8
0
100
AcDbBlockEnd
  0
ENDSEC
  0
SECTION
  2
ENTITIES
  0
TEXT
  5
AA10
330
A9F2
100
AcDbEntity
  8
7
  6
Continuous
100
AcDbText
 10
10.0
 20
18.0
 30
0.0
 40
3.0
  1
TYPE No.203 d=19
100
AcDbText
  0
TEXT
  5
AA11
330
A9F2
100
AcDbEntity
  8
7
  6
Continuous
100
AcDbText
 10
10.0
 20
26.0
 30
0.0
 40
3.0
  1
CODE No.9158
100
AcDbText
  0
TEXT
  5
AA12
330
A9F2
100
AcDbEntity
  8
1
  6
Continuous
100
AcDbText
 10
10.0
 20
10.0
 30
0.0
 40
1.399999999999999
  1
LAYER
100
AcDbText
  0
TEXT
  5
AA13
330
A9F2
100
AcDbEntity
  8
1
  6
Continuous
100
AcDbText
 10
17.97951099999998
 20
10.04873699999998
 30
0.0
 40
1.399999999999999
  1
1
100
AcDbText
  0
TEXT
  5
AA14
330
A9F2
100
AcDbEntity
  8
7
  6
Continuous
100
AcDbText
 10
29.97951099999999
 20
10.04873699999998
 30
0.0
 40
1.399999999999999
  1
7
100
AcDbText
  0
TEXT
  5
AA15
330
A9F2
100
AcDbEntity
  8
4
  6
CENTER
100
AcDbText
 10
23.97951099999999
 20
10.04873699999998
 30
0.0
 40
1.399999999999999
  1
4
100
AcDbText
  0
TEXT
  5
AA16
330
A9F2
100
AcDbEntity
  8
3
  6
DASHED
100
AcDbText
 10
21.979511
 20
10.04873699999998
 30
0.0
 40
1.399999999999999
  1
3
100
AcDbText
  0
TEXT
  5
AA17
330
A9F2
100
AcDbEntity
  8
2
  6
Continuous
100
AcDbText
 10
19.97951099999999
 20
10.04873699999998
 30
0.0
 40
1.399999999999999
  1
2
100
AcDbText
  0
TEXT
  5
AA18
330
A9F2
100
AcDbEntity
  8
6
  6
Continuous
100
AcDbText
 10
27.979511
 20
10.04873699999998
 30
0.0
 40
1.399999999999999
  1
6
100
AcDbText
  0
TEXT
  5
AA19
330
A9F2
100
AcDbEntity
  8
5
  6
PHANTOM
100
AcDbText
 10
25.97951099999999
 20
10.04873699999998
 30
0.0
 40
1.399999999999999
  1
5
100
AcDbText
  0
LINE
  5
AA1A
330
A9F2
100
AcDbEntity
  8
1
  6
Continuous
100
AcDbLine
 10
247.213203
 20
187.371179
 30
0.0
 11
247.213203
 21
166.971179
 31
0.0
  0
ARC
  5
AA1B
330
A9F2
100
AcDbEntity
  8
1
  6
Continuous
100
AcDbCircle
 10
212.5132029999998
 20
187.371179
 30
0.0
 40
3.0
100
AcDbArc
 50
90.0
 51
180.0
  0
ARC
  5
AA1C
330
A9F2
100
AcDbEntity
  8
1
  6
Continuous
100
AcDbCircle
 10
244.2132029999999
 20
187.371179
 30
0.0
 40
3.0
100
AcDbArc
 50
0.0
 51
90.0
  0
LINE
  5
AA1D
330
A9F2
100
AcDbEntity
  8
1
  6
Continuous
100
AcDbLine
 10
212.1131039999999
 20
190.371237
 30
0.0
 11
244.613104
 21
190.3710429999999
 31
0.0
  0
LINE
  5
AA1E
330
A9F2
100
AcDbEntity
  8
1
  6
Continuous
100
AcDbLine
 10
215.115879
 20
183.667428
 30
0.0
 11
241.610528
 21
183.667428
 31
0.0
  0
ARC
  5
AA1F
330
A9F2
100
AcDbEntity
  8
1
  6
Continuous
100
AcDbCircle
 10
241.610528
 20
179.718738
 30
0.0
 40
3.94869
100
AcDbArc
 50
33.136856
 51
90.0
  0
ARC
  5
AA20
330
A9F2
100
AcDbEntity
  8
1
  6
Continuous
100
AcDbCircle
 10
233.0944479999998
 20
174.159366
 30
0.0
 40
14.11875499999999
100
AcDbArc
 50
0.0
 51
33.136856
  0
ARC
  5
AA21
330
A9F2
100
AcDbEntity
  8
1
  6
Continuous
100
AcDbCircle
 10
231.953684
 20
174.0758109999999
 30
0.0
 40
13.262575
100
AcDbArc
 50
4.189117999999997
 51
46.32007700000001
  0
ARC
  5
AA22
330
A9F2
100
AcDbEntity
  8
1
  6
Continuous
100
AcDbCircle
 10
215.115879
 20
179.718738
 30
0.0
 40
3.94869
100
AcDbArc
 50
90.0
 51
146.863144
  0
ARC
  5
AA23
330
A9F2
100
AcDbEntity
  8
1
  6
Continuous
100
AcDbCircle
 10
223.6319589999999
 20
174.159366
 30
0.0
 40
14.11875499999999
100
AcDbArc
 50
146.863144
 51
180.0
  0
LINE
  5
AA24
330
A9F2
100
AcDbEntity
  8
1
  6
Continuous
100
AcDbLine
 10
218.3632029999999
 20
180.086741
 30
0.0
 11
218.3632029999999
 21
135.279334
 31
0.0
  0
LINE
  5
AA25
330
A9F2
100
AcDbEntity
  8
1
  6
Continuous
100
AcDbLine
 10
216.8632029999999
 20
166.1830379999998
 30
0.0
 11
216.8632029999999
 21
149.1830379999998
 31
0.0
  0
LINE
  5
AA26
330
A9F2
100
AcDbEntity
  8
1
  6
Continuous
100
AcDbLine
 10
216.8632029999999
 20
166.1830379999998
 30
0.0
 11
218.3632029999999
 21
166.1830379999998
 31
0.0
  0
ARC
  5
AA27
330
A9F2
100
AcDbEntity
  8
1
  6
Continuous
100
AcDbCircle
 10
228.3632029999999
 20
147.6830379999998
 30
0.0
 40
35.0
100
AcDbArc
 50
75.30157599999999
 51
104.698424
  0
ARC
  5
AA28
330
A9F2
100
AcDbEntity
  8
1
  6
Continuous
100
AcDbCircle
 10
219.8632029999999
 20
180.086741
 30
0.0
 40
1.5
100
AcDbArc
 50
104.698424
 51
180.0
  0
LINE
  5
AA29
330
A9F2
100
AcDbEntity
  8
1
  6
Continuous
100
AcDbLine
 10
238.3632029999999
 20
180.086741
 30
0.0
 11
238.3632029999999
 21
135.279334
 31
0.0
  0
LINE
  5
AA2A
330
A9F2
100
AcDbEntity
  8
1
  6
Continuous
100
AcDbLine
 10
239.8632029999999
 20
166.1830379999998
 30
0.0
 11
238.3632029999999
 21
166.1830379999998
 31
0.0
  0
ARC
  5
AA2B
330
A9F2
100
AcDbEntity
  8
1
  6
Continuous
100
AcDbCircle
 10
236.8632029999999
 20
180.086741
 30
0.0
 40
1.5
100
AcDbArc
 50
0.0
 51
75.30157599999999
  0
LINE
  5
AA2C
330
A9F2
100
AcDbEntity
  8
1
  6
Continuous
100
AcDbLine
 10
216.8632029999999
 20
149.1830379999998
 30
0.0
 11
218.3632029999999
 21
149.1830379999998
 31
0.0
  0
ARC
  5
AA2D
330
A9F2
100
AcDbEntity
  8
1
  6
Continuous
100
AcDbCircle
 10
228.3632029999999
 20
167.6830379999999
 30
0.0
 40
35.0
100
AcDbArc
 50
255.301576
 51
284.6984239999999
  0
ARC
  5
AA2E
330
A9F2
100
AcDbEntity
  8
1
  6
Continuous
100
AcDbCircle
 10
219.8632029999999
 20
135.279334
 30
0.0
 40
1.5
100
AcDbArc
 50
180.0
 51
255.301576
  0
LINE
  5
AA2F
330
A9F2
100
AcDbEntity
  8
1
  6
Continuous
100
AcDbLine
 10
239.8632029999999
 20
149.1830379999998
 30
0.0
 11
238.3632029999999
 21
149.1830379999998
 31
0.0
  0
ARC
  5
AA30
330
A9F2
100
AcDbEntity
  8
1
  6
Continuous
100
AcDbCircle
 10
236.8632029999999
 20
135.279334
 30
0.0
 40
1.5
100
AcDbArc
 50
284.6984239999999
 51
0.0
  0
LINE
  5
AA31
330
A9F2
100
AcDbEntity
  8
1
  6
Continuous
100
AcDbLine
 10
239.8632029999999
 20
166.1830379999998
 30
0.0
 11
239.8632029999999
 21
149.1830379999998
 31
0.0
  0
LINE
  5
AA32
330
A9F2
100
AcDbEntity
  8
1
  6
Continuous
100
AcDbLine
 10
215.8632029999999
 20
160.6830379999999
 30
0.0
 11
216.8632029999999
 21
160.6830379999999
 31
0.0
  0
LINE
  5
AA33
330
A9F2
100
AcDbEntity
  8
1
  6
Continuous
100
AcDbLine
 10
239.8632029999999
 20
160.6830379999999
 30
0.0
 11
240.8632029999999
 21
160.6830379999999
 31
0.0
  0
LINE
  5
AA34
330
A9F2
100
AcDbEntity
  8
1
  6
Continuous
100
AcDbLine
 10
215.8632029999999
 20
154.6830379999998
 30
0.0
 11
216.8632029999999
 21
154.6830379999998
 31
0.0
  0
LINE
  5
AA35
330
A9F2
100
AcDbEntity
  8
1
  6
Continuous
100
AcDbLine
 10
239.8632029999999
 20
154.6830379999998
 30
0.0
 11
240.8632029999999
 21
154.6830379999998
 31
0.0
  0
LINE
  5
AA36
330
A9F2
100
AcDbEntity
  8
4
  6
CENTER
100
AcDbLine
 10
176.0146189999999
 20
296.634862
 30
0.0
 11
103.715027
 21
296.634862
 31
0.0
  0
LINE
  5
AA37
330
A9F2
100
AcDbEntity
  8
4
  6
CENTER
100
AcDbLine
 10
152.164619
 20
320.484862
 30
0.0
 11
152.164619
 21
272.7848619999999
 31
0.0
  0
LINE
  5
AA38
330
A9F2
100
AcDbEntity
  8
4
  6
CENTER
100
AcDbLine
 10
228.3632029999999
 20
202.113537
 30
0.0
 11
228.3632029999999
 21
127.6830379999999
 31
0.0
  0
LINE
  5
AA39
330
A9F2
100
AcDbEntity
  8
4
  6
CENTER
100
AcDbLine
 10
206.6129629999998
 20
157.6830379999998
 30
0.0
 11
249.863443
 21
157.6830379999998
 31
0.0
  0
LINE
  5
AA3A
330
A9F2
100
AcDbEntity
  8
4
  6
CENTER
100
AcDbLine
 10
103.164626
 20
157.6822369999999
 30
0.0
 11
163.164626
 21
157.6822369999999
 31
0.0
  0
LINE
  5
AA3B
330
A9F2
100
AcDbEntity
  8
1
  6
Continuous
100
AcDbLine
 10
135.717126
 20
187.550838
 30
0.0
 11
132.0371259999998
 21
187.5070279999999
 31
0.0
  0
ARC
  5
AA3C
330
A9F2
100
AcDbEntity
  8
1
  6
Continuous
100
AcDbCircle
 10
133.5146259999999
 20
156.732237
 30
0.0
 40
7.5
100
AcDbArc
 50
174.673297
 51
295.9209009999998
  0
ARC
  5
AA3D
330
A9F2
100
AcDbEntity
  8
1
  6
Continuous
100
AcDbCircle
 10
133.164626
 20
157.6822369999999
 30
0.0
 40
8.5
100
AcDbArc
 50
139.62305
 51
281.789558
  0
ARC
  5
AA3E
330
A9F2
100
AcDbEntity
  8
1
  6
Continuous
100
AcDbCircle
 10
133.164626
 20
157.6822369999999
 30
0.0
 40
17.5
100
AcDbArc
 50
107.378525
 51
26.47566499999999
  0
ARC
  5
AA3F
330
A9F2
100
AcDbEntity
  8
1
  6
Continuous
100
AcDbCircle
 10
133.164626
 20
157.6822369999999
 30
0.0
 40
25.0
100
AcDbArc
 50
99.78061099999999
 51
35.83806699999998
  0
LINE
  5
AA40
330
A9F2
100
AcDbEntity
  8
1
  6
Continuous
100
AcDbLine
 10
141.0146259999999
 20
186.633782
 30
0.0
 11
141.0146259999999
 21
156.449475
 31
0.0
  0
ARC
  5
AA41
330
A9F2
100
AcDbEntity
  8
1
  6
Continuous
100
AcDbCircle
 10
205.7691629999999
 20
136.558325
 30
0.0
 40
63.35981999999999
100
AcDbArc
 50
134.0470019999999
 51
143.333821
  0
LINE
  5
AA42
330
A9F2
100
AcDbEntity
  8
4
  6
CENTER
100
AcDbLine
 10
152.1646259999999
 20
239.53127
 30
0.0
 11
152.1646259999999
 21
167.1422599999999
 31
0.0
  0
ARC
  5
AA43
330
A9F2
100
AcDbEntity
  8
1
  6
Continuous
100
AcDbCircle
 10
91.122744
 20
192.391394
 30
0.0
 40
63.31738699999998
100
AcDbArc
 50
321.97488
 51
329.982574
  0
ARC
  5
AA44
330
A9F2
100
AcDbEntity
  8
1
  6
Continuous
100
AcDbCircle
 10
268.1828499999999
 20
90.093882
 30
0.0
 40
141.169928
100
AcDbArc
 50
143.333821
 51
149.982574
  0
ARC
  5
AA45
330
A9F2
100
AcDbEntity
  8
1
  6
Continuous
100
AcDbCircle
 10
165.5442449999999
 20
178.144123
 30
0.0
 40
5.502905999999999
100
AcDbArc
 50
90.0
 51
134.0470019999999
  0
LINE
  5
AA46
330
A9F2
100
AcDbEntity
  8
1
  6
Continuous
100
AcDbLine
 10
169.3501259999998
 20
183.5870279999998
 30
0.0
 11
169.127126
 21
183.647028
 31
0.0
  0
LINE
  5
AA47
330
A9F2
100
AcDbEntity
  8
1
  6
Continuous
100
AcDbLine
 10
169.127126
 20
183.647028
 30
0.0
 11
165.5442449999999
 21
183.647028
 31
0.0
  0
LINE
  5
AA48
330
A9F2
100
AcDbEntity
  8
1
  6
Continuous
100
AcDbLine
 10
170.764126
 20
183.6743669999999
 30
0.0
 11
170.015126
 21
183.6320279999999
 31
0.0
  0
ARC
  5
AA49
330
A9F2
100
AcDbEntity
  8
1
  6
Continuous
100
AcDbCircle
 10
167.9451409999998
 20
187.7889979999999
 30
0.0
 40
2.732905
100
AcDbArc
 50
0.0
 51
70.822161
  0
LINE
  5
AA4A
330
A9F2
100
AcDbEntity
  8
1
  6
Continuous
100
AcDbLine
 10
170.015126
 20
183.6320279999999
 30
0.0
 11
169.3501259999998
 21
183.5870279999998
 31
0.0
  0
ARC
  5
AA4B
330
A9F2
100
AcDbEntity
  8
1
  6
Continuous
100
AcDbCircle
 10
136.8794169999999
 20
187.2558689999999
 30
0.0
 40
3.266183999999998
100
AcDbArc
 50
107.537707
 51
141.743298
  0
ARC
  5
AA4C
330
A9F2
100
AcDbEntity
  8
1
  6
Continuous
100
AcDbCircle
 10
137.810311
 20
186.521835
 30
0.0
 40
4.451666999999998
100
AcDbArc
 50
141.743298
 51
156.849068
  0
LINE
  5
AA4D
330
A9F2
100
AcDbEntity
  8
1
  6
Continuous
100
AcDbLine
 10
133.717126
 20
188.272028
 30
0.0
 11
133.5721259999999
 21
187.837028
 31
0.0
  0
LINE
  5
AA4E
330
A9F2
100
AcDbEntity
  8
1
  6
Continuous
100
AcDbLine
 10
133.5721259999999
 20
187.837028
 30
0.0
 11
133.232126
 21
187.6370279999999
 31
0.0
  0
LINE
  5
AA4F
330
A9F2
100
AcDbEntity
  8
1
  6
Continuous
100
AcDbLine
 10
133.232126
 20
187.6370279999999
 30
0.0
 11
133.062126
 21
187.552028
 31
0.0
  0
LINE
  5
AA50
330
A9F2
100
AcDbEntity
  8
1
  6
Continuous
100
AcDbLine
 10
133.062126
 20
187.552028
 30
0.0
 11
132.877126
 21
187.517028
 31
0.0
  0
ARC
  5
AA51
330
A9F2
100
AcDbEntity
  8
1
  6
Continuous
100
AcDbCircle
 10
135.6928139999999
 20
189.593062
 30
0.0
 40
2.042368999999998
100
AcDbArc
 50
270.6820599999999
 51
340.178191
  0
LINE
  5
AA52
330
A9F2
100
AcDbEntity
  8
1
  6
Continuous
100
AcDbLine
 10
130.877126
 20
187.497028
 30
0.0
 11
127.658798
 21
187.5613949999998
 31
0.0
  0
LINE
  5
AA53
330
A9F2
100
AcDbEntity
  8
1
  6
Continuous
100
AcDbLine
 10
132.0371259999998
 20
187.5070279999999
 30
0.0
 11
131.442126
 21
187.487028
 31
0.0
  0
LINE
  5
AA54
330
A9F2
100
AcDbEntity
  8
1
  6
Continuous
100
AcDbLine
 10
131.442126
 20
187.487028
 30
0.0
 11
130.877126
 21
187.497028
 31
0.0
  0
ARC
  5
AA55
330
A9F2
100
AcDbEntity
  8
1
  6
Continuous
100
AcDbCircle
 10
127.631779
 20
186.210488
 30
0.0
 40
1.351175999999999
100
AcDbArc
 50
88.85423700000002
 51
129.236686
  0
LINE
  5
AA56
330
A9F2
100
AcDbEntity
  8
1
  6
Continuous
100
AcDbLine
 10
129.217126
 20
185.5300409999999
 30
0.0
 11
126.9481689999998
 21
185.563798
 31
0.0
  0
LINE
  5
AA57
330
A9F2
100
AcDbEntity
  8
1
  6
Continuous
100
AcDbLine
 10
126.7771259999999
 20
187.2570279999999
 30
0.0
 11
126.717126
 21
186.3420279999999
 31
0.0
  0
LINE
  5
AA58
330
A9F2
100
AcDbEntity
  8
1
  6
Continuous
100
AcDbLine
 10
126.717126
 20
186.3420279999999
 30
0.0
 11
126.717126
 21
185.6570279999999
 31
0.0
  0
ARC
  5
AA59
330
A9F2
100
AcDbEntity
  8
1
  6
Continuous
100
AcDbCircle
 10
126.953311
 20
185.9094419999999
 30
0.0
 40
0.345682
100
AcDbArc
 50
226.9023309999998
 51
269.1476279999998
  0
LINE
  5
AA5A
330
A9F2
100
AcDbEntity
  8
1
  6
Continuous
100
AcDbLine
 10
209.513203
 20
187.371179
 30
0.0
 11
209.513203
 21
166.971179
 31
0.0
  0
ARC
  5
AA5B
330
A9F2
100
AcDbEntity
  8
1
  6
Continuous
100
AcDbCircle
 10
56.366049
 20
135.279334
 30
0.0
 40
1.5
100
AcDbArc
 50
284.6984239999999
 51
0.0
  0
ARC
  5
AA5C
330
A9F2
100
AcDbEntity
  8
1
  6
Continuous
100
AcDbCircle
 10
47.86604899999999
 20
167.6830379999999
 30
0.0
 40
35.0
100
AcDbArc
 50
255.301576
 51
284.6984239999999
  0
ARC
  5
AA5D
330
A9F2
100
AcDbEntity
  8
1
  6
Continuous
100
AcDbCircle
 10
39.36604899999998
 20
135.279334
 30
0.0
 40
1.5
100
AcDbArc
 50
180.0
 51
255.301576
  0
LINE
  5
AA5E
330
A9F2
100
AcDbEntity
  8
4
  6
CENTER
100
AcDbLine
 10
68.822001
 20
157.6830379999998
 30
0.0
 11
26.365809
 21
157.6830379999998
 31
0.0
  0
ARC
  5
AA5F
330
A9F2
100
AcDbEntity
  8
1
  6
Continuous
100
AcDbCircle
 10
56.366049
 20
180.086741
 30
0.0
 40
1.5
100
AcDbArc
 50
0.0
 51
75.30157599999999
  0
LINE
  5
AA60
330
A9F2
100
AcDbEntity
  8
1
  6
Continuous
100
AcDbLine
 10
57.866049
 20
180.086741
 30
0.0
 11
57.866049
 21
135.279334
 31
0.0
  0
LINE
  5
AA61
330
A9F2
100
AcDbEntity
  8
1
  6
Continuous
100
AcDbLine
 10
59.36604899999998
 20
166.1830379999998
 30
0.0
 11
59.36604899999998
 21
149.1830379999998
 31
0.0
  0
LINE
  5
AA62
330
A9F2
100
AcDbEntity
  8
1
  6
Continuous
100
AcDbLine
 10
59.36604899999998
 20
149.1830379999998
 30
0.0
 11
57.866049
 21
149.1830379999998
 31
0.0
  0
LINE
  5
AA63
330
A9F2
100
AcDbEntity
  8
1
  6
Continuous
100
AcDbLine
 10
59.86604899999999
 20
154.6830379999998
 30
0.0
 11
59.36604899999998
 21
154.6830379999998
 31
0.0
  0
LINE
  5
AA64
330
A9F2
100
AcDbEntity
  8
1
  6
Continuous
100
AcDbLine
 10
59.36604899999998
 20
166.1830379999998
 30
0.0
 11
57.866049
 21
166.1830379999998
 31
0.0
  0
LINE
  5
AA65
330
A9F2
100
AcDbEntity
  8
1
  6
Continuous
100
AcDbLine
 10
59.96955299999999
 20
160.6830379999999
 30
0.0
 11
59.36604899999998
 21
160.6830379999999
 31
0.0
  0
ARC
  5
AA66
330
A9F2
100
AcDbEntity
  8
1
  6
Continuous
100
AcDbCircle
 10
39.36604899999998
 20
180.086741
 30
0.0
 40
1.5
100
AcDbArc
 50
104.698424
 51
180.0
  0
LINE
  5
AA67
330
A9F2
100
AcDbEntity
  8
1
  6
Continuous
100
AcDbLine
 10
37.86604899999999
 20
180.086741
 30
0.0
 11
37.86604899999999
 21
135.279334
 31
0.0
  0
LINE
  5
AA68
330
A9F2
100
AcDbEntity
  8
1
  6
Continuous
100
AcDbLine
 10
36.366049
 20
166.1830379999998
 30
0.0
 11
36.366049
 21
149.1830379999998
 31
0.0
  0
LINE
  5
AA69
330
A9F2
100
AcDbEntity
  8
1
  6
Continuous
100
AcDbLine
 10
36.366049
 20
149.1830379999998
 30
0.0
 11
37.86604899999999
 21
149.1830379999998
 31
0.0
  0
LINE
  5
AA6A
330
A9F2
100
AcDbEntity
  8
1
  6
Continuous
100
AcDbLine
 10
36.366049
 20
154.6830379999998
 30
0.0
 11
36.266049
 21
154.6830379999998
 31
0.0
  0
LINE
  5
AA6B
330
A9F2
100
AcDbEntity
  8
1
  6
Continuous
100
AcDbLine
 10
36.366049
 20
166.1830379999998
 30
0.0
 11
37.86604899999999
 21
166.1830379999998
 31
0.0
  0
LINE
  5
AA6C
330
A9F2
100
AcDbEntity
  8
1
  6
Continuous
100
AcDbLine
 10
36.366049
 20
160.6830379999999
 30
0.0
 11
36.162545
 21
160.6830379999999
 31
0.0
  0
ARC
  5
AA6D
330
A9F2
100
AcDbEntity
  8
1
  6
Continuous
100
AcDbCircle
 10
47.86604899999999
 20
147.6830379999998
 30
0.0
 40
35.0
100
AcDbArc
 50
75.30157599999999
 51
104.698424
  0
LINE
  5
AA6E
330
A9F2
100
AcDbEntity
  8
4
  6
CENTER
100
AcDbLine
 10
47.86604899999999
 20
202.113537
 30
0.0
 11
47.86604899999999
 21
127.6830379999999
 31
0.0
  0
LINE
  5
AA6F
330
A9F2
100
AcDbEntity
  8
1
  6
Continuous
100
AcDbLine
 10
31.61595
 20
190.371237
 30
0.0
 11
64.116049
 21
190.3710439999999
 31
0.0
  0
ARC
  5
AA70
330
A9F2
100
AcDbEntity
  8
1
  6
Continuous
100
AcDbCircle
 10
37.11580899999999
 20
183.5820179999998
 30
0.0
 40
3.75
100
AcDbArc
 50
90.0
 51
180.0
  0
LINE
  5
AA71
330
A9F2
100
AcDbEntity
  8
1
  6
Continuous
100
AcDbLine
 10
33.36580899999999
 20
149.2463159999998
 30
0.0
 11
35.36604899999999
 21
149.2463159999998
 31
0.0
  0
ARC
  5
AA72
330
A9F2
100
AcDbEntity
  8
1
  6
Continuous
100
AcDbCircle
 10
55.731462
 20
167.6032299999999
 30
0.0
 40
26.722888
100
AcDbArc
 50
181.355289
 51
204.692905
  0
LINE
  5
AA73
330
A9F2
100
AcDbEntity
  8
1
  6
Continuous
100
AcDbLine
 10
33.36580899999999
 20
183.5820179999998
 30
0.0
 11
33.36580899999999
 21
149.2463159999998
 31
0.0
  0
LINE
  5
AA74
330
A9F2
100
AcDbEntity
  8
1
  6
Continuous
100
AcDbLine
 10
32.432493
 20
161.9330379999999
 30
0.0
 11
32.432493
 21
153.4330379999999
 31
0.0
  0
ARC
  5
AA75
330
A9F2
100
AcDbEntity
  8
1
  6
Continuous
100
AcDbCircle
 10
40.36580899999999
 20
157.6830379999998
 30
0.0
 40
9.0
100
AcDbArc
 50
151.821357
 51
208.178643
  0
LINE
  5
AA76
330
A9F2
100
AcDbEntity
  8
1
  6
Continuous
100
AcDbLine
 10
33.36580899999999
 20
153.4330379999999
 30
0.0
 11
32.432493
 21
153.4330379999999
 31
0.0
  0
LINE
  5
AA77
330
A9F2
100
AcDbEntity
  8
1
  6
Continuous
100
AcDbLine
 10
29.016049
 20
187.371179
 30
0.0
 11
29.016049
 21
166.971179
 31
0.0
  0
LINE
  5
AA78
330
A9F2
100
AcDbEntity
  8
1
  6
Continuous
100
AcDbLine
 10
33.36580899999999
 20
161.9330379999999
 30
0.0
 11
32.432493
 21
161.9330379999999
 31
0.0
  0
ARC
  5
AA79
330
A9F2
100
AcDbEntity
  8
1
  6
Continuous
100
AcDbCircle
 10
32.23066699999999
 20
187.1490939999999
 30
0.0
 40
3.22228
100
AcDbArc
 50
89.37084
 51
176.0479389999999
  0
ARC
  5
AA7A
330
A9F2
100
AcDbEntity
  8
1
  6
Continuous
100
AcDbCircle
 10
40.006289
 20
167.440484
 30
0.0
 40
26.713884
100
AcDbArc
 50
326.8265529999998
 51
358.9933849999999
  0
LINE
  5
AA7B
330
A9F2
100
AcDbEntity
  8
1
  6
Continuous
100
AcDbLine
 10
35.36604899999999
 20
183.5904239999999
 30
0.0
 11
35.36604899999999
 21
149.2463159999998
 31
0.0
  0
LINE
  5
AA7C
330
A9F2
100
AcDbEntity
  8
1
  6
Continuous
100
AcDbLine
 10
60.366049
 20
183.5904239999999
 30
0.0
 11
60.366049
 21
149.2463159999998
 31
0.0
  0
LINE
  5
AA7D
330
A9F2
100
AcDbEntity
  8
1
  6
Continuous
100
AcDbLine
 10
62.366289
 20
183.5820179999998
 30
0.0
 11
62.366289
 21
149.2463159999998
 31
0.0
  0
LINE
  5
AA7E
330
A9F2
100
AcDbEntity
  8
1
  6
Continuous
100
AcDbLine
 10
35.36604899999999
 20
154.6830379999998
 30
0.0
 11
36.366049
 21
154.6830379999998
 31
0.0
  0
LINE
  5
AA7F
330
A9F2
100
AcDbEntity
  8
1
  6
Continuous
100
AcDbLine
 10
60.366049
 20
149.2463159999998
 30
0.0
 11
62.366289
 21
149.2463159999998
 31
0.0
  0
LINE
  5
AA80
330
A9F2
100
AcDbEntity
  8
1
  6
Continuous
100
AcDbLine
 10
60.366049
 20
154.6830379999998
 30
0.0
 11
59.36604899999998
 21
154.6830379999998
 31
0.0
  0
ARC
  5
AA81
330
A9F2
100
AcDbEntity
  8
1
  6
Continuous
100
AcDbCircle
 10
63.50143199999997
 20
187.1490939999999
 30
0.0
 40
3.22228
100
AcDbArc
 50
3.952061
 51
90.62915999999999
  0
LINE
  5
AA82
330
A9F2
100
AcDbEntity
  8
1
  6
Continuous
100
AcDbLine
 10
66.716049
 20
187.371179
 30
0.0
 11
66.716049
 21
166.971179
 31
0.0
  0
LINE
  5
AA83
330
A9F2
100
AcDbEntity
  8
1
  6
Continuous
100
AcDbLine
 10
35.36604899999999
 20
160.6830379999999
 30
0.0
 11
36.366049
 21
160.6830379999999
 31
0.0
  0
LINE
  5
AA84
330
A9F2
100
AcDbEntity
  8
1
  6
Continuous
100
AcDbLine
 10
59.36604899999998
 20
160.6830379999999
 30
0.0
 11
60.366049
 21
160.6830379999999
 31
0.0
  0
LINE
  5
AA85
330
A9F2
100
AcDbEntity
  8
1
  6
Continuous
100
AcDbLine
 10
37.11604899999999
 20
185.340424
 30
0.0
 11
58.61604899999999
 21
185.340424
 31
0.0
  0
LINE
  5
AA86
330
A9F2
100
AcDbEntity
  8
1
  6
Continuous
100
AcDbLine
 10
37.11580899999999
 20
187.332018
 30
0.0
 11
58.616289
 21
187.332018
 31
0.0
  0
ARC
  5
AA87
330
A9F2
100
AcDbEntity
  8
1
  6
Continuous
100
AcDbCircle
 10
37.11604899999999
 20
183.5904239999999
 30
0.0
 40
1.75
100
AcDbArc
 50
90.0
 51
180.0
  0
ARC
  5
AA88
330
A9F2
100
AcDbEntity
  8
1
  6
Continuous
100
AcDbCircle
 10
58.616289
 20
183.5820179999998
 30
0.0
 40
3.75
100
AcDbArc
 50
0.0
 51
90.0
  0
ARC
  5
AA89
330
A9F2
100
AcDbEntity
  8
1
  6
Continuous
100
AcDbCircle
 10
58.61604899999999
 20
183.5904239999999
 30
0.0
 40
1.75
100
AcDbArc
 50
0.0
 51
90.0
  0
LINE
  5
AA8A
330
A9F2
100
AcDbEntity
  8
1
  6
Continuous
100
AcDbLine
 10
240.8632029999999
 20
183.5904239999999
 30
0.0
 11
240.8632029999999
 21
149.2463159999998
 31
0.0
  0
LINE
  5
AA8B
330
A9F2
100
AcDbEntity
  8
1
  6
Continuous
100
AcDbLine
 10
215.8632029999999
 20
183.5904239999999
 30
0.0
 11
215.8632029999999
 21
149.2463159999998
 31
0.0
  0
ARC
  5
AA8C
330
A9F2
100
AcDbEntity
  8
1
  6
Continuous
100
AcDbCircle
 10
236.1134429999999
 20
157.6830379999998
 30
0.0
 40
9.0
100
AcDbArc
 50
331.8213569999999
 51
355.5531859999998
  0
LINE
  5
AA8D
330
A9F2
100
AcDbEntity
  8
1
  6
Continuous
100
AcDbLine
 10
244.0467589999999
 20
154.817337
 30
0.0
 11
244.0467589999999
 21
153.4330379999999
 31
0.0
  0
LINE
  5
AA8E
330
A9F2
100
AcDbEntity
  8
1
  6
Continuous
100
AcDbLine
 10
243.4357299999998
 20
153.4330379999999
 30
0.0
 11
244.0467589999999
 21
153.4330379999999
 31
0.0
  0
LINE
  5
AA8F
330
A9F2
100
AcDbEntity
  8
1
  6
Continuous
100
AcDbLine
 10
129.4032709999999
 20
187.5265049999999
 30
0.0
 11
126.0470149999999
 21
157.4284969999999
 31
0.0
  0
ARC
  5
AA90
330
A9F2
100
AcDbEntity
  8
1
  6
Continuous
100
AcDbCircle
 10
131.547542
 20
160.77953
 30
0.0
 40
12.0
100
AcDbArc
 50
295.9209009999998
 51
321.97488
  0
LINE
  5
AA91
330
A9F2
100
AcDbEntity
  8
4
  6
CENTER
100
AcDbLine
 10
176.0146189999999
 20
70.009612
 30
0.0
 11
103.164626
 21
70.009612
 31
0.0
  0
LINE
  5
AA92
330
A9F2
100
AcDbEntity
  8
4
  6
CENTER
100
AcDbLine
 10
152.164619
 20
46.159612
 30
0.0
 11
152.164619
 21
93.859612
 31
0.0
  0
LINE
  5
AA93
330
A9F2
100
AcDbEntity
  8
1
  6
Continuous
100
AcDbLine
 10
137.8128769999999
 20
57.50961199999998
 30
0.0
 11
126.07531
 21
57.50961199999998
 31
0.0
  0
LINE
  5
AA94
330
A9F2
100
AcDbEntity
  8
1
  6
Continuous
100
AcDbLine
 10
137.8132369999999
 20
55.50937199999999
 30
0.0
 11
126.07531
 21
55.50937199999999
 31
0.0
  0
LINE
  5
AA95
330
A9F2
100
AcDbEntity
  8
1
  6
Continuous
100
AcDbLine
 10
137.8132369999999
 20
84.50985199999998
 30
0.0
 11
126.07531
 21
84.50985199999998
 31
0.0
  0
LINE
  5
AA96
330
A9F2
100
AcDbEntity
  8
1
  6
Continuous
100
AcDbLine
 10
137.8128769999999
 20
82.509612
 30
0.0
 11
126.07531
 21
82.509612
 31
0.0
  0
LINE
  5
AA97
330
A9F2
100
AcDbEntity
  8
1
  6
Continuous
100
AcDbLine
 10
130.164626
 20
81.70961199999998
 30
0.0
 11
130.164626
 21
81.50961200000002
 31
0.0
  0
LINE
  5
AA98
330
A9F2
100
AcDbEntity
  8
4
  6
CENTER
100
AcDbLine
 10
133.164626
 20
127.682237
 30
0.0
 11
133.164626
 21
185.6822369999999
 31
0.0
  0
LINE
  5
AA99
330
A9F2
100
AcDbEntity
  8
1
  6
Continuous
100
AcDbLine
 10
126.07531
 20
55.50937199999999
 30
0.0
 11
126.07531
 21
57.50961199999998
 31
0.0
  0
LINE
  5
AA9A
330
A9F2
100
AcDbEntity
  8
1
  6
Continuous
100
AcDbLine
 10
126.07531
 20
82.509612
 30
0.0
 11
126.07531
 21
84.50985199999998
 31
0.0
  0
ARC
  5
AA9B
330
A9F2
100
AcDbEntity
  8
1
  6
Continuous
100
AcDbCircle
 10
152.164619
 20
70.009612
 30
0.0
 40
13.6
100
AcDbArc
 50
227.332075
 51
132.6679249999999
  0
ARC
  5
AA9C
330
A9F2
100
AcDbEntity
  8
1
  6
Continuous
100
AcDbCircle
 10
152.164619
 20
70.009612
 30
0.0
 40
12.0
100
AcDbArc
 50
236.44269
 51
123.55731
  0
LINE
  5
AA9D
330
A9F2
100
AcDbEntity
  8
1
  6
Continuous
100
AcDbLine
 10
110.760923
 20
80.009612
 30
0.0
 11
155.56833
 21
80.009612
 31
0.0
  0
ARC
  5
AA9E
330
A9F2
100
AcDbEntity
  8
1
  6
Continuous
100
AcDbCircle
 10
123.1646259999999
 20
70.009612
 30
0.0
 40
35.0
100
AcDbArc
 50
345.3015759999999
 51
14.698424
  0
ARC
  5
AA9F
330
A9F2
100
AcDbEntity
  8
1
  6
Continuous
100
AcDbCircle
 10
155.56833
 20
78.509612
 30
0.0
 40
1.5
100
AcDbArc
 50
14.698424
 51
90.0
  0
LINE
  5
AAA0
330
A9F2
100
AcDbEntity
  8
1
  6
Continuous
100
AcDbLine
 10
110.760923
 20
60.00961199999998
 30
0.0
 11
155.56833
 21
60.00961199999998
 31
0.0
  0
ARC
  5
AAA1
330
A9F2
100
AcDbEntity
  8
1
  6
Continuous
100
AcDbCircle
 10
155.56833
 20
61.509612
 30
0.0
 40
1.5
100
AcDbArc
 50
270.0
 51
345.3015759999999
  0
LINE
  5
AAA2
330
A9F2
100
AcDbEntity
  8
4
  6
CENTER
100
AcDbLine
 10
133.164626
 20
90.96532399999999
 30
0.0
 11
133.164626
 21
48.509372
 31
0.0
  0
ARC
  5
AAA3
330
A9F2
100
AcDbEntity
  8
1
  6
Continuous
100
AcDbCircle
 10
133.164626
 20
62.509372
 30
0.0
 40
9.0
100
AcDbArc
 50
241.8213569999999
 51
298.178643
  0
LINE
  5
AAA4
330
A9F2
100
AcDbEntity
  8
1
  6
Continuous
100
AcDbLine
 10
128.914626
 20
54.576056
 30
0.0
 11
137.414626
 21
54.576056
 31
0.0
  0
LINE
  5
AAA5
330
A9F2
100
AcDbEntity
  8
1
  6
Continuous
100
AcDbLine
 10
124.664626
 20
58.509612
 30
0.0
 11
141.664626
 21
58.509612
 31
0.0
  0
LINE
  5
AAA6
330
A9F2
100
AcDbEntity
  8
1
  6
Continuous
100
AcDbLine
 10
124.664626
 20
81.50961200000002
 30
0.0
 11
141.664626
 21
81.50961200000002
 31
0.0
  0
LINE
  5
AAA7
330
A9F2
100
AcDbEntity
  8
1
  6
Continuous
100
AcDbLine
 10
136.164626
 20
57.50961199999998
 30
0.0
 11
136.164626
 21
58.109612
 31
0.0
  0
LINE
  5
AAA8
330
A9F2
100
AcDbEntity
  8
1
  6
Continuous
100
AcDbLine
 10
137.414626
 20
55.50937199999999
 30
0.0
 11
137.414626
 21
54.576056
 31
0.0
  0
LINE
  5
AAA9
330
A9F2
100
AcDbEntity
  8
1
  6
Continuous
100
AcDbLine
 10
136.164626
 20
58.509612
 30
0.0
 11
136.164626
 21
58.00961199999999
 31
0.0
  0
LINE
  5
AAAA
330
A9F2
100
AcDbEntity
  8
1
  6
Continuous
100
AcDbLine
 10
141.664626
 20
58.509612
 30
0.0
 11
141.664626
 21
60.00961199999998
 31
0.0
  0
LINE
  5
AAAB
330
A9F2
100
AcDbEntity
  8
1
  6
Continuous
100
AcDbLine
 10
136.164626
 20
81.70961199999998
 30
0.0
 11
136.164626
 21
81.50961200000002
 31
0.0
  0
LINE
  5
AAAC
330
A9F2
100
AcDbEntity
  8
1
  6
Continuous
100
AcDbLine
 10
136.164626
 20
82.509612
 30
0.0
 11
136.164626
 21
81.50961200000002
 31
0.0
  0
LINE
  5
AAAD
330
A9F2
100
AcDbEntity
  8
1
  6
Continuous
100
AcDbLine
 10
141.664626
 20
81.50961200000002
 30
0.0
 11
141.664626
 21
80.009612
 31
0.0
  0
LINE
  5
AAAE
330
A9F2
100
AcDbEntity
  8
1
  6
Continuous
100
AcDbLine
 10
130.164626
 20
57.50961199999998
 30
0.0
 11
130.164626
 21
58.109612
 31
0.0
  0
LINE
  5
AAAF
330
A9F2
100
AcDbEntity
  8
1
  6
Continuous
100
AcDbLine
 10
128.914626
 20
55.50937199999999
 30
0.0
 11
128.914626
 21
54.576056
 31
0.0
  0
LINE
  5
AAB0
330
A9F2
100
AcDbEntity
  8
1
  6
Continuous
100
AcDbLine
 10
130.164626
 20
58.509612
 30
0.0
 11
130.164626
 21
57.90610799999999
 31
0.0
  0
LINE
  5
AAB1
330
A9F2
100
AcDbEntity
  8
1
  6
Continuous
100
AcDbLine
 10
124.664626
 20
58.509612
 30
0.0
 11
124.664626
 21
60.00961199999998
 31
0.0
  0
LINE
  5
AAB2
330
A9F2
100
AcDbEntity
  8
1
  6
Continuous
100
AcDbLine
 10
130.164626
 20
81.50961200000002
 30
0.0
 11
130.164626
 21
81.70961199999998
 31
0.0
  0
LINE
  5
AAB3
330
A9F2
100
AcDbEntity
  8
1
  6
Continuous
100
AcDbLine
 10
130.164626
 20
82.509612
 30
0.0
 11
130.164626
 21
81.50961200000002
 31
0.0
  0
LINE
  5
AAB4
330
A9F2
100
AcDbEntity
  8
1
  6
Continuous
100
AcDbLine
 10
124.664626
 20
81.50961200000002
 30
0.0
 11
124.664626
 21
80.009612
 31
0.0
  0
ARC
  5
AAB5
330
A9F2
100
AcDbEntity
  8
1
  6
Continuous
100
AcDbCircle
 10
110.760923
 20
78.509612
 30
0.0
 40
1.5
100
AcDbArc
 50
90.0
 51
165.301576
  0
ARC
  5
AAB6
330
A9F2
100
AcDbEntity
  8
1
  6
Continuous
100
AcDbCircle
 10
143.1646259999999
 20
70.009612
 30
0.0
 40
35.0
100
AcDbArc
 50
165.301576
 51
194.698424
  0
ARC
  5
AAB7
330
A9F2
100
AcDbEntity
  8
1
  6
Continuous
100
AcDbCircle
 10
110.760923
 20
61.509612
 30
0.0
 40
1.5
100
AcDbArc
 50
194.698424
 51
270.0
  0
LINE
  5
AAB8
330
A9F2
100
AcDbEntity
  8
1
  6
Continuous
100
AcDbLine
 10
170.764126
 20
183.6743669999999
 30
0.0
 11
171.0146259999999
 21
183.6743669999999
 31
0.0
  0
LINE
  5
AAB9
330
A9F2
100
AcDbEntity
  8
1
  6
Continuous
100
AcDbLine
 10
171.0146259999999
 20
183.6743669999999
 30
0.0
 11
170.6780469999999
 21
187.7889979999999
 31
0.0
  0
ARC
  5
AABA
330
A9F2
100
AcDbEntity
  8
1
  6
Continuous
100
AcDbCircle
 10
152.164619
 20
70.009612
 30
0.0
 40
18.85
100
AcDbArc
 50
236.2769409999999
 51
123.723059
  0
ARC
  5
AABB
330
A9F2
100
AcDbEntity
  8
1
  6
Continuous
100
AcDbCircle
 10
152.164619
 20
70.009612
 30
0.0
 40
16.85
100
AcDbArc
 50
236.2759829999999
 51
123.7240169999999
  0
LINE
  5
AABC
330
A9F2
100
AcDbEntity
  8
1
  6
Continuous
100
AcDbLine
 10
62.666289
 20
161.6830379999998
 30
0.0
 11
62.666289
 21
153.6830379999998
 31
0.0
  0
ARC
  5
AABD
330
A9F2
100
AcDbEntity
  8
1
  6
Continuous
100
AcDbCircle
 10
56.322001
 20
157.6830379999998
 30
0.0
 40
7.5
100
AcDbArc
 50
327.769047
 51
32.230953
  0
LINE
  5
AABE
330
A9F2
100
AcDbEntity
  8
1
  6
Continuous
100
AcDbLine
 10
62.666289
 20
153.6830379999998
 30
0.0
 11
62.366289
 21
153.6830379999998
 31
0.0
  0
LINE
  5
AABF
330
A9F2
100
AcDbEntity
  8
1
  6
Continuous
100
AcDbLine
 10
62.666289
 20
161.6830379999998
 30
0.0
 11
62.366289
 21
161.6830379999998
 31
0.0
  0
CIRCLE
  5
AAC0
330
A9F2
100
AcDbEntity
  8
1
  6
Continuous
100
AcDbCircle
 10
133.164626
 20
157.6822369999999
 30
0.0
 40
4.0
  0
LINE
  5
AAC1
330
A9F2
100
AcDbEntity
  8
1
  6
Continuous
100
AcDbLine
 10
137.164626
 20
84.80961200000001
 30
0.0
 11
137.164626
 21
84.509612
 31
0.0
  0
LINE
  5
AAC2
330
A9F2
100
AcDbEntity
  8
1
  6
Continuous
100
AcDbLine
 10
129.164626
 20
84.80961200000001
 30
0.0
 11
129.164626
 21
84.509612
 31
0.0
  0
LINE
  5
AAC3
330
A9F2
100
AcDbEntity
  8
1
  6
Continuous
100
AcDbLine
 10
137.164626
 20
84.80961200000001
 30
0.0
 11
129.164626
 21
84.80961200000001
 31
0.0
  0
ARC
  5
AAC4
330
A9F2
100
AcDbEntity
  8
1
  6
Continuous
100
AcDbCircle
 10
133.164626
 20
78.46532399999998
 30
0.0
 40
7.5
100
AcDbArc
 50
57.76904700000001
 51
122.230953
  0
ARC
  5
AAC5
330
A9F2
100
AcDbEntity
  8
1
  6
Continuous
100
AcDbCircle
 10
55.731462
 20
167.6032299999999
 30
0.0
 40
26.722888
100
AcDbArc
 50
212.0233099999999
 51
213.180835
  0
LINE
  5
AAC6
330
A9F2
100
AcDbEntity
  8
1
  6
Continuous
100
AcDbLine
 10
242.8634429999999
 20
150.098637
 30
0.0
 11
242.8634429999999
 21
149.2463159999998
 31
0.0
  0
ARC
  5
AAC7
330
A9F2
100
AcDbEntity
  8
1
  6
Continuous
100
AcDbCircle
 10
220.5034429999999
 20
167.440484
 30
0.0
 40
26.713884
100
AcDbArc
 50
331.812974
 51
358.9933849999999
  0
LINE
  5
AAC8
330
A9F2
100
AcDbEntity
  8
1
  6
Continuous
100
AcDbLine
 10
240.8632029999999
 20
149.2463159999998
 30
0.0
 11
242.8634429999999
 21
149.2463159999998
 31
0.0
  0
ARC
  5
AAC9
330
A9F2
100
AcDbEntity
  8
1
  6
Continuous
100
AcDbCircle
 10
252.8634429999999
 20
150.098637
 30
0.0
 40
10.0
100
AcDbArc
 50
151.812974
 51
180.0
  0
LINE
  5
AACA
330
A9F2
100
AcDbEntity
  8
1
  6
Continuous
100
AcDbLine
 10
245.1808269999999
 20
175.044628
 30
0.0
 11
245.1808269999999
 21
167.856439
 31
0.0
  0
ARC
  5
AACB
330
A9F2
100
AcDbEntity
  8
1
  6
Continuous
100
AcDbCircle
 10
218.471067
 20
168.325744
 30
0.0
 40
26.713884
100
AcDbArc
 50
331.812974
 51
358.9933849999999
  0
ARC
  5
AACC
330
A9F2
100
AcDbEntity
  8
1
  6
Continuous
100
AcDbCircle
 10
250.8310669999999
 20
150.983898
 30
0.0
 40
10.0
100
AcDbArc
 50
151.812974
 51
175.405317
  0
ARC
  5
AACD
330
A9F2
100
AcDbEntity
  8
1
  6
Continuous
100
AcDbCircle
 10
236.2229629999999
 20
167.440484
 30
0.0
 40
26.713884
100
AcDbArc
 50
181.006615
 51
208.187026
  0
ARC
  5
AACE
330
A9F2
100
AcDbEntity
  8
1
  6
Continuous
100
AcDbCircle
 10
203.8629629999999
 20
150.098637
 30
0.0
 40
10.0
100
AcDbArc
 50
0.0
 51
28.18702599999999
  0
LINE
  5
AACF
330
A9F2
100
AcDbEntity
  8
1
  6
Continuous
100
AcDbLine
 10
215.8632029999999
 20
149.2463159999998
 30
0.0
 11
213.862963
 21
149.2463159999998
 31
0.0
  0
LINE
  5
AAD0
330
A9F2
100
AcDbEntity
  8
1
  6
Continuous
100
AcDbLine
 10
213.862963
 20
150.098637
 30
0.0
 11
213.862963
 21
149.2463159999998
 31
0.0
  0
ARC
  5
AAD1
330
A9F2
100
AcDbEntity
  8
1
  6
Continuous
100
AcDbCircle
 10
205.89534
 20
150.983898
 30
0.0
 40
10.0
100
AcDbArc
 50
4.594682999999998
 51
28.18702599999999
  0
ARC
  5
AAD2
330
A9F2
100
AcDbEntity
  8
1
  6
Continuous
100
AcDbCircle
 10
238.2553399999999
 20
168.325744
 30
0.0
 40
26.713884
100
AcDbArc
 50
181.006615
 51
208.187026
  0
LINE
  5
AAD3
330
A9F2
100
AcDbEntity
  8
1
  6
Continuous
100
AcDbLine
 10
211.5455799999998
 20
175.044628
 30
0.0
 11
211.5455799999998
 21
167.856439
 31
0.0
  0
ARC
  5
AAD4
330
A9F2
100
AcDbEntity
  8
1
  6
Continuous
100
AcDbCircle
 10
224.7727219999999
 20
174.0758109999999
 30
0.0
 40
13.262575
100
AcDbArc
 50
133.679923
 51
175.810882
  0
LINE
  5
AAD5
330
A9F2
100
AcDbEntity
  8
1
  6
Continuous
100
AcDbLine
 10
135.8952069999999
 20
190.3702369999998
 30
0.0
 11
168.842904
 21
190.3702369999998
 31
0.0
  0
CIRCLE
  5
AAD6
330
A9F2
100
AcDbEntity
  8
1
  6
Continuous
100
AcDbCircle
 10
152.164619
 20
296.634862
 30
0.0
 40
9.5
  0
ARC
  5
AAD7
330
A9F2
100
AcDbEntity
  8
1
  6
Continuous
100
AcDbCircle
 10
152.164619
 20
296.634862
 30
0.0
 40
9.25
100
AcDbArc
 50
116.888048
 51
243.111952
  0
LINE
  5
AAD8
330
A9F2
100
AcDbEntity
  8
1
  6
Continuous
100
AcDbLine
 10
144.834619
 20
309.3307939999998
 30
0.0
 11
137.5046189999999
 21
296.634862
 31
0.0
  0
LINE
  5
AAD9
330
A9F2
100
AcDbEntity
  8
1
  6
Continuous
100
AcDbLine
 10
137.5046189999999
 20
296.634862
 30
0.0
 11
144.834619
 21
283.9389299999999
 31
0.0
  0
CIRCLE
  5
AADA
330
A9F2
100
AcDbEntity
  8
1
  6
Continuous
100
AcDbCircle
 10
152.164619
 20
296.634862
 30
0.0
 40
14.660012
  0
CIRCLE
  5
AADB
330
A9F2
100
AcDbEntity
  8
1
  6
Continuous
100
AcDbCircle
 10
152.164619
 20
296.634862
 30
0.0
 40
16.25
  0
CIRCLE
  5
AADC
330
A9F2
100
AcDbEntity
  8
1
  6
Continuous
100
AcDbCircle
 10
152.164619
 20
296.634862
 30
0.0
 40
16.00018
  0
ARC
  5
AADD
330
A9F2
100
AcDbEntity
  8
1
  6
Continuous
100
AcDbCircle
 10
152.164619
 20
296.634862
 30
0.0
 40
9.25
100
AcDbArc
 50
296.8880480000001
 51
63.111952
  0
LINE
  5
AADE
330
A9F2
100
AcDbEntity
  8
1
  6
Continuous
100
AcDbLine
 10
166.8246189999998
 20
296.634862
 30
0.0
 11
159.4946189999998
 21
309.3307939999998
 31
0.0
  0
LINE
  5
AADF
330
A9F2
100
AcDbEntity
  8
1
  6
Continuous
100
AcDbLine
 10
159.4946189999998
 20
283.9389299999999
 30
0.0
 11
166.8246189999998
 21
296.634862
 31
0.0
  0
LINE
  5
AAE0
330
A9F2
100
AcDbEntity
  8
1
  6
Continuous
100
AcDbLine
 10
156.3479199999999
 20
288.384862
 30
0.0
 11
147.9813189999999
 21
288.384862
 31
0.0
  0
LINE
  5
AAE1
330
A9F2
100
AcDbEntity
  8
1
  6
Continuous
100
AcDbLine
 10
144.834619
 20
283.9389299999999
 30
0.0
 11
159.4946189999998
 21
283.9389299999999
 31
0.0
  0
CIRCLE
  5
AAE2
330
A9F2
100
AcDbEntity
  8
1
  6
Continuous
100
AcDbCircle
 10
152.164619
 20
296.634862
 30
0.0
 40
4.0
  0
LINE
  5
AAE3
330
A9F2
100
AcDbEntity
  8
1
  6
Continuous
100
AcDbLine
 10
147.9813189999999
 20
304.884862
 30
0.0
 11
156.3479199999999
 21
304.884862
 31
0.0
  0
LINE
  5
AAE4
330
A9F2
100
AcDbEntity
  8
1
  6
Continuous
100
AcDbLine
 10
159.4946189999998
 20
309.3307939999998
 30
0.0
 11
144.834619
 21
309.3307939999998
 31
0.0
  0
LINE
  5
AAE5
330
A9F2
100
AcDbEntity
  8
4
  6
CENTER
100
AcDbLine
 10
133.165027
 20
275.634862
 30
0.0
 11
133.165027
 21
318.134902
 31
0.0
  0
ARC
  5
AAE6
330
A9F2
100
AcDbEntity
  8
1
  6
Continuous
100
AcDbCircle
 10
152.572527
 20
296.634862
 30
0.0
 40
19.0
100
AcDbArc
 50
127.799415
 51
180.0
  0
LINE
  5
AAE7
330
A9F2
100
AcDbEntity
  8
1
  6
Continuous
100
AcDbLine
 10
137.8128769999999
 20
282.134862
 30
0.0
 11
126.015027
 21
282.134862
 31
0.0
  0
LINE
  5
AAE8
330
A9F2
100
AcDbEntity
  8
1
  6
Continuous
100
AcDbLine
 10
124.6650269999999
 20
285.1348619999999
 30
0.0
 11
128.4592249999997
 21
285.1348619999999
 31
0.0
  0
LINE
  5
AAE9
330
A9F2
100
AcDbEntity
  8
1
  6
Continuous
100
AcDbLine
 10
127.883256
 20
286.634862
 30
0.0
 11
110.761324
 21
286.634862
 31
0.0
  0
LINE
  5
AAEA
330
A9F2
100
AcDbEntity
  8
1
  6
Continuous
100
AcDbLine
 10
128.8957469999998
 20
284.134862
 30
0.0
 11
126.015027
 21
284.134862
 31
0.0
  0
ARC
  5
AAEB
330
A9F2
100
AcDbEntity
  8
1
  6
Continuous
100
AcDbCircle
 10
156.167527
 20
296.634862
 30
0.0
 40
30.0
100
AcDbArc
 50
154.381133
 51
205.6188689999999
  0
ARC
  5
AAEC
330
A9F2
100
AcDbEntity
  8
1
  6
Continuous
100
AcDbCircle
 10
152.572527
 20
296.634862
 30
0.0
 40
19.0
100
AcDbArc
 50
180.0
 51
232.200585
  0
LINE
  5
AAED
330
A9F2
100
AcDbEntity
  8
1
  6
Continuous
100
AcDbLine
 10
137.415027
 20
312.068218
 30
0.0
 11
128.915027
 21
312.068218
 31
0.0
  0
ARC
  5
AAEE
330
A9F2
100
AcDbEntity
  8
1
  6
Continuous
100
AcDbCircle
 10
133.165027
 20
304.134902
 30
0.0
 40
9.0
100
AcDbArc
 50
61.82135699999999
 51
118.178643
  0
LINE
  5
AAEF
330
A9F2
100
AcDbEntity
  8
1
  6
Continuous
100
AcDbLine
 10
137.415027
 20
311.134862
 30
0.0
 11
137.415027
 21
312.068218
 31
0.0
  0
ARC
  5
AAF0
330
A9F2
100
AcDbEntity
  8
1
  6
Continuous
100
AcDbCircle
 10
127.34396
 20
283.351992
 30
0.0
 40
1.8
100
AcDbArc
 50
317.4539069999998
 51
9.961921999999999
  0
LINE
  5
AAF1
330
A9F2
100
AcDbEntity
  8
1
  6
Continuous
100
AcDbLine
 10
128.915027
 20
311.134862
 30
0.0
 11
128.915027
 21
312.068218
 31
0.0
  0
LINE
  5
AAF2
330
A9F2
100
AcDbEntity
  8
1
  6
Continuous
100
AcDbLine
 10
124.6650269999999
 20
285.1348619999999
 30
0.0
 11
124.6650269999999
 21
286.634862
 31
0.0
  0
LINE
  5
AAF3
330
A9F2
100
AcDbEntity
  8
1
  6
Continuous
100
AcDbLine
 10
126.015027
 20
282.134862
 30
0.0
 11
126.015027
 21
284.134862
 31
0.0
  0
LINE
  5
AAF4
330
A9F2
100
AcDbEntity
  8
1
  6
Continuous
100
AcDbLine
 10
137.8128769999999
 20
311.134862
 30
0.0
 11
126.015027
 21
311.134862
 31
0.0
  0
LINE
  5
AAF5
330
A9F2
100
AcDbEntity
  8
1
  6
Continuous
100
AcDbLine
 10
124.6650269999999
 20
308.1348619999999
 30
0.0
 11
128.4592249999997
 21
308.1348619999999
 31
0.0
  0
LINE
  5
AAF6
330
A9F2
100
AcDbEntity
  8
1
  6
Continuous
100
AcDbLine
 10
127.883256
 20
306.6348619999998
 30
0.0
 11
110.761324
 21
306.6348619999998
 31
0.0
  0
LINE
  5
AAF7
330
A9F2
100
AcDbEntity
  8
1
  6
Continuous
100
AcDbLine
 10
128.8957469999998
 20
309.134862
 30
0.0
 11
126.015027
 21
309.134862
 31
0.0
  0
LINE
  5
AAF8
330
A9F2
100
AcDbEntity
  8
1
  6
Continuous
100
AcDbLine
 10
137.165027
 20
281.790573
 30
0.0
 11
129.165027
 21
281.790573
 31
0.0
  0
ARC
  5
AAF9
330
A9F2
100
AcDbEntity
  8
1
  6
Continuous
100
AcDbCircle
 10
133.165027
 20
288.134862
 30
0.0
 40
7.5
100
AcDbArc
 50
237.769047
 51
302.230953
  0
LINE
  5
AAFA
330
A9F2
100
AcDbEntity
  8
1
  6
Continuous
100
AcDbLine
 10
137.165027
 20
281.790573
 30
0.0
 11
137.165027
 21
282.134862
 31
0.0
  0
LINE
  5
AAFB
330
A9F2
100
AcDbEntity
  8
1
  6
Continuous
100
AcDbLine
 10
129.165027
 20
281.790573
 30
0.0
 11
129.165027
 21
282.134862
 31
0.0
  0
ARC
  5
AAFC
330
A9F2
100
AcDbEntity
  8
1
  6
Continuous
100
AcDbCircle
 10
127.34396
 20
309.9177319999999
 30
0.0
 40
1.8
100
AcDbArc
 50
350.0380779999999
 51
42.546093
  0
LINE
  5
AAFD
330
A9F2
100
AcDbEntity
  8
1
  6
Continuous
100
AcDbLine
 10
124.6650269999999
 20
308.1348619999999
 30
0.0
 11
124.6650269999999
 21
306.6348619999998
 31
0.0
  0
LINE
  5
AAFE
330
A9F2
100
AcDbEntity
  8
1
  6
Continuous
100
AcDbLine
 10
126.015027
 20
309.134862
 30
0.0
 11
126.015027
 21
311.134862
 31
0.0
  0
LINE
  5
AAFF
330
A9F2
100
AcDbEntity
  8
1
  6
Continuous
100
AcDbLine
 10
144.8346259999999
 20
198.6826729999999
 30
0.0
 11
144.8346259999999
 21
195.7826289999999
 31
0.0
  0
ARC
  5
AB00
330
A9F2
100
AcDbEntity
  8
1
  6
Continuous
100
AcDbCircle
 10
136.5228789999999
 20
186.390534
 30
0.0
 40
3.979796999999998
100
AcDbArc
 50
89.99965899999997
 51
101.496245
  0
LINE
  5
AB01
330
A9F2
100
AcDbEntity
  8
1
  6
Continuous
100
AcDbLine
 10
137.5046259999998
 20
195.782555
 30
0.0
 11
137.5046259999998
 21
198.6826729999999
 31
0.0
  0
LINE
  5
AB02
330
A9F2
100
AcDbEntity
  8
1
  6
Continuous
100
AcDbLine
 10
166.824626
 20
195.782555
 30
0.0
 11
166.824626
 21
198.6826729999999
 31
0.0
  0
LINE
  5
AB03
330
A9F2
100
AcDbEntity
  8
1
  6
Continuous
100
AcDbLine
 10
159.494626
 20
198.6826729999999
 30
0.0
 11
159.494626
 21
195.7826289999999
 31
0.0
  0
LINE
  5
AB04
330
A9F2
100
AcDbEntity
  8
1
  6
Continuous
100
AcDbLine
 10
237.863302
 20
229.4825759999999
 30
0.0
 11
237.863302
 21
200.182576
 31
0.0
  0
LINE
  5
AB05
330
A9F2
100
AcDbEntity
  8
1
  6
Continuous
100
AcDbLine
 10
218.863302
 20
229.4825759999999
 30
0.0
 11
218.863302
 21
200.182576
 31
0.0
  0
LINE
  5
AB06
330
A9F2
100
AcDbEntity
  8
1
  6
Continuous
100
AcDbLine
 10
215.66737
 20
198.682576
 30
0.0
 11
241.059234
 21
198.682576
 31
0.0
  0
LINE
  5
AB07
330
A9F2
100
AcDbEntity
  8
1
  6
Continuous
100
AcDbLine
 10
215.66737
 20
195.782476
 30
0.0
 11
241.059234
 21
195.782476
 31
0.0
  0
LINE
  5
AB08
330
A9F2
100
AcDbEntity
  8
1
  6
Continuous
100
AcDbLine
 10
224.4269099999999
 20
191.8012329999999
 30
0.0
 11
222.426914
 21
190.371237
 31
0.0
  0
LINE
  5
AB09
330
A9F2
100
AcDbEntity
  8
1
  6
Continuous
100
AcDbLine
 10
222.426914
 20
191.8012329999999
 30
0.0
 11
224.4269099999999
 21
190.371237
 31
0.0
  0
LINE
  5
AB0A
330
A9F2
100
AcDbEntity
  8
1
  6
Continuous
100
AcDbLine
 10
244.6132029999999
 20
191.8011929999999
 30
0.0
 11
212.1132029999999
 21
191.801273
 31
0.0
  0
LINE
  5
AB0B
330
A9F2
100
AcDbEntity
  8
1
  6
Continuous
100
AcDbLine
 10
212.853735
 20
193.7226369999999
 30
0.0
 11
243.872869
 21
193.7226369999999
 31
0.0
  0
LINE
  5
AB0C
330
A9F2
100
AcDbEntity
  8
1
  6
Continuous
100
AcDbLine
 10
244.363483
 20
193.1469489999998
 30
0.0
 11
212.363122
 21
193.1469489999998
 31
0.0
  0
LINE
  5
AB0D
330
A9F2
100
AcDbEntity
  8
1
  6
Continuous
100
AcDbLine
 10
237.863302
 20
202.582576
 30
0.0
 11
218.863302
 21
202.582576
 31
0.0
  0
LINE
  5
AB0E
330
A9F2
100
AcDbEntity
  8
1
  6
Continuous
100
AcDbLine
 10
215.66737
 20
195.782476
 30
0.0
 11
215.66737
 21
198.682576
 31
0.0
  0
ARC
  5
AB0F
330
A9F2
100
AcDbEntity
  8
1
  6
Continuous
100
AcDbCircle
 10
220.363302
 20
200.182576
 30
0.0
 40
1.5
100
AcDbArc
 50
180.0
 51
270.0
  0
ARC
  5
AB10
330
A9F2
100
AcDbEntity
  8
1
  6
Continuous
100
AcDbCircle
 10
214.711497
 20
193.4778359999999
 30
0.0
 40
2.371570999999998
100
AcDbArc
 50
188.020211
 51
220.040406
  0
ARC
  5
AB11
330
A9F2
100
AcDbEntity
  8
1
  6
Continuous
100
AcDbCircle
 10
213.393633
 20
192.765625
 30
0.0
 40
1.098799999999998
100
AcDbArc
 50
119.429525
 51
159.693839
  0
LINE
  5
AB12
330
A9F2
100
AcDbEntity
  8
1
  6
Continuous
100
AcDbLine
 10
213.1132019999999
 20
191.8012329999999
 30
0.0
 11
212.1132029999999
 21
191.371235
 31
0.0
  0
ARC
  5
AB13
330
A9F2
100
AcDbEntity
  8
1
  6
Continuous
100
AcDbCircle
 10
216.164266
 20
193.2824579999999
 30
0.0
 40
2.5
100
AcDbArc
 50
90.0
 51
169.858981
  0
LINE
  5
AB14
330
A9F2
100
AcDbEntity
  8
1
  6
Continuous
100
AcDbLine
 10
212.1132029999999
 20
191.8012329999999
 30
0.0
 11
212.1132029999999
 21
190.371237
 31
0.0
  0
LINE
  5
AB15
330
A9F2
100
AcDbEntity
  8
1
  6
Continuous
100
AcDbLine
 10
212.1132029999999
 20
191.8012329999999
 30
0.0
 11
212.1132029999999
 21
190.371237
 31
0.0
  0
LINE
  5
AB16
330
A9F2
100
AcDbEntity
  8
1
  6
Continuous
100
AcDbLine
 10
214.527415
 20
191.8012329999999
 30
0.0
 11
212.5274189999999
 21
190.371237
 31
0.0
  0
LINE
  5
AB17
330
A9F2
100
AcDbEntity
  8
1
  6
Continuous
100
AcDbLine
 10
215.941629
 20
191.8012329999999
 30
0.0
 11
213.9416319999999
 21
190.371237
 31
0.0
  0
LINE
  5
AB18
330
A9F2
100
AcDbEntity
  8
1
  6
Continuous
100
AcDbLine
 10
217.3558419999999
 20
191.8012329999999
 30
0.0
 11
215.3558459999999
 21
190.371237
 31
0.0
  0
LINE
  5
AB19
330
A9F2
100
AcDbEntity
  8
1
  6
Continuous
100
AcDbLine
 10
218.770056
 20
191.8012329999999
 30
0.0
 11
216.7700589999999
 21
190.371237
 31
0.0
  0
LINE
  5
AB1A
330
A9F2
100
AcDbEntity
  8
1
  6
Continuous
100
AcDbLine
 10
220.1842689999998
 20
191.8012329999999
 30
0.0
 11
218.184273
 21
190.371237
 31
0.0
  0
LINE
  5
AB1B
330
A9F2
100
AcDbEntity
  8
1
  6
Continuous
100
AcDbLine
 10
221.598483
 20
191.8012329999999
 30
0.0
 11
219.5984859999998
 21
190.371237
 31
0.0
  0
LINE
  5
AB1C
330
A9F2
100
AcDbEntity
  8
1
  6
Continuous
100
AcDbLine
 10
223.012696
 20
191.8012329999999
 30
0.0
 11
221.0126999999999
 21
190.371237
 31
0.0
  0
LINE
  5
AB1D
330
A9F2
100
AcDbEntity
  8
1
  6
Continuous
100
AcDbLine
 10
213.1132019999999
 20
190.371237
 30
0.0
 11
212.1132029999999
 21
191.371235
 31
0.0
  0
LINE
  5
AB1E
330
A9F2
100
AcDbEntity
  8
1
  6
Continuous
100
AcDbLine
 10
213.9416319999999
 20
191.8012329999999
 30
0.0
 11
215.941629
 21
190.371237
 31
0.0
  0
LINE
  5
AB1F
330
A9F2
100
AcDbEntity
  8
1
  6
Continuous
100
AcDbLine
 10
216.7700589999999
 20
191.8012329999999
 30
0.0
 11
218.770056
 21
190.371237
 31
0.0
  0
LINE
  5
AB20
330
A9F2
100
AcDbEntity
  8
1
  6
Continuous
100
AcDbLine
 10
219.5984859999998
 20
191.8012329999999
 30
0.0
 11
221.598483
 21
190.371237
 31
0.0
  0
LINE
  5
AB21
330
A9F2
100
AcDbEntity
  8
1
  6
Continuous
100
AcDbLine
 10
239.9832589999999
 20
191.8012329999999
 30
0.0
 11
237.983263
 21
190.371237
 31
0.0
  0
LINE
  5
AB22
330
A9F2
100
AcDbEntity
  8
1
  6
Continuous
100
AcDbLine
 10
228.3633019999999
 20
195.782476
 30
0.0
 11
228.3633019999999
 21
198.682576
 31
0.0
  0
ARC
  5
AB23
330
A9F2
100
AcDbEntity
  8
1
  6
Continuous
100
AcDbCircle
 10
236.3633019999999
 20
200.182576
 30
0.0
 40
1.5
100
AcDbArc
 50
270.0
 51
0.0
  0
LINE
  5
AB24
330
A9F2
100
AcDbEntity
  8
1
  6
Continuous
100
AcDbLine
 10
230.083764
 20
191.8012329999999
 30
0.0
 11
228.0837679999999
 21
190.371237
 31
0.0
  0
LINE
  5
AB25
330
A9F2
100
AcDbEntity
  8
1
  6
Continuous
100
AcDbLine
 10
231.4979779999999
 20
191.8012329999999
 30
0.0
 11
229.497981
 21
190.371237
 31
0.0
  0
LINE
  5
AB26
330
A9F2
100
AcDbEntity
  8
1
  6
Continuous
100
AcDbLine
 10
232.912191
 20
191.8012329999999
 30
0.0
 11
230.912195
 21
190.371237
 31
0.0
  0
LINE
  5
AB27
330
A9F2
100
AcDbEntity
  8
1
  6
Continuous
100
AcDbLine
 10
234.326405
 20
191.8012329999999
 30
0.0
 11
232.3264089999999
 21
190.371237
 31
0.0
  0
LINE
  5
AB28
330
A9F2
100
AcDbEntity
  8
1
  6
Continuous
100
AcDbLine
 10
235.7406189999999
 20
191.8012329999999
 30
0.0
 11
233.740622
 21
190.371237
 31
0.0
  0
LINE
  5
AB29
330
A9F2
100
AcDbEntity
  8
1
  6
Continuous
100
AcDbLine
 10
237.1548319999999
 20
191.8012329999999
 30
0.0
 11
235.1548359999999
 21
190.371237
 31
0.0
  0
LINE
  5
AB2A
330
A9F2
100
AcDbEntity
  8
1
  6
Continuous
100
AcDbLine
 10
238.5690459999999
 20
191.8012329999999
 30
0.0
 11
236.5690489999999
 21
190.371237
 31
0.0
  0
LINE
  5
AB2B
330
A9F2
100
AcDbEntity
  8
1
  6
Continuous
100
AcDbLine
 10
228.0837679999999
 20
191.8012329999999
 30
0.0
 11
230.083764
 21
190.371237
 31
0.0
  0
LINE
  5
AB2C
330
A9F2
100
AcDbEntity
  8
1
  6
Continuous
100
AcDbLine
 10
230.912195
 20
191.8012329999999
 30
0.0
 11
232.912191
 21
190.371237
 31
0.0
  0
LINE
  5
AB2D
330
A9F2
100
AcDbEntity
  8
1
  6
Continuous
100
AcDbLine
 10
233.740622
 20
191.8012329999999
 30
0.0
 11
235.7406189999999
 21
190.371237
 31
0.0
  0
LINE
  5
AB2E
330
A9F2
100
AcDbEntity
  8
1
  6
Continuous
100
AcDbLine
 10
236.5690489999999
 20
191.8012329999999
 30
0.0
 11
238.5690459999999
 21
190.371237
 31
0.0
  0
LINE
  5
AB2F
330
A9F2
100
AcDbEntity
  8
1
  6
Continuous
100
AcDbLine
 10
225.841124
 20
191.8012329999999
 30
0.0
 11
223.8411269999998
 21
190.371237
 31
0.0
  0
LINE
  5
AB30
330
A9F2
100
AcDbEntity
  8
1
  6
Continuous
100
AcDbLine
 10
227.255337
 20
191.8012329999999
 30
0.0
 11
225.2553409999999
 21
190.371237
 31
0.0
  0
LINE
  5
AB31
330
A9F2
100
AcDbEntity
  8
1
  6
Continuous
100
AcDbLine
 10
228.6695509999999
 20
191.8012329999999
 30
0.0
 11
226.669554
 21
190.371237
 31
0.0
  0
LINE
  5
AB32
330
A9F2
100
AcDbEntity
  8
1
  6
Continuous
100
AcDbLine
 10
225.2553409999999
 20
191.8012329999999
 30
0.0
 11
227.255337
 21
190.371237
 31
0.0
  0
ARC
  5
AB33
330
A9F2
100
AcDbEntity
  8
1
  6
Continuous
100
AcDbCircle
 10
240.5623789999999
 20
193.2824579999999
 30
0.0
 40
2.5
100
AcDbArc
 50
10.141019
 51
90.0
  0
LINE
  5
AB34
330
A9F2
100
AcDbEntity
  8
1
  6
Continuous
100
AcDbLine
 10
241.059234
 20
195.782476
 30
0.0
 11
241.059234
 21
198.682576
 31
0.0
  0
ARC
  5
AB35
330
A9F2
100
AcDbEntity
  8
1
  6
Continuous
100
AcDbCircle
 10
242.015108
 20
193.4778359999999
 30
0.0
 40
2.371570999999998
100
AcDbArc
 50
319.959594
 51
351.9797889999999
  0
ARC
  5
AB36
330
A9F2
100
AcDbEntity
  8
1
  6
Continuous
100
AcDbCircle
 10
243.3329709999999
 20
192.765625
 30
0.0
 40
1.098799999999998
100
AcDbArc
 50
20.306161
 51
60.57047500000001
  0
LINE
  5
AB37
330
A9F2
100
AcDbEntity
  8
1
  6
Continuous
100
AcDbLine
 10
244.6132029999999
 20
191.8012329999999
 30
0.0
 11
244.6132029999999
 21
190.371237
 31
0.0
  0
LINE
  5
AB38
330
A9F2
100
AcDbEntity
  8
1
  6
Continuous
100
AcDbLine
 10
244.6132029999999
 20
191.8012329999999
 30
0.0
 11
244.6132029999999
 21
190.371237
 31
0.0
  0
LINE
  5
AB39
330
A9F2
100
AcDbEntity
  8
1
  6
Continuous
100
AcDbLine
 10
241.397473
 20
191.8012329999999
 30
0.0
 11
239.3974759999999
 21
190.371237
 31
0.0
  0
LINE
  5
AB3A
330
A9F2
100
AcDbEntity
  8
1
  6
Continuous
100
AcDbLine
 10
242.8116859999999
 20
191.8012329999999
 30
0.0
 11
240.81169
 21
190.371237
 31
0.0
  0
LINE
  5
AB3B
330
A9F2
100
AcDbEntity
  8
1
  6
Continuous
100
AcDbLine
 10
244.2258999999999
 20
191.8012329999999
 30
0.0
 11
242.2259029999999
 21
190.371237
 31
0.0
  0
LINE
  5
AB3C
330
A9F2
100
AcDbEntity
  8
1
  6
Continuous
100
AcDbLine
 10
244.6132029999999
 20
191.344323
 30
0.0
 11
243.6401169999999
 21
190.371237
 31
0.0
  0
LINE
  5
AB3D
330
A9F2
100
AcDbEntity
  8
1
  6
Continuous
100
AcDbLine
 10
239.3974759999999
 20
191.8012329999999
 30
0.0
 11
241.397473
 21
190.371237
 31
0.0
  0
LINE
  5
AB3E
330
A9F2
100
AcDbEntity
  8
1
  6
Continuous
100
AcDbLine
 10
242.2259029999999
 20
191.8012329999999
 30
0.0
 11
244.2258999999999
 21
190.371237
 31
0.0
  0
LINE
  5
AB3F
330
A9F2
100
AcDbEntity
  8
1
  6
Continuous
100
AcDbLine
 10
237.863302
 20
229.4825759999999
 30
0.0
 11
218.863302
 21
229.4825759999999
 31
0.0
  0
LINE
  5
AB40
330
A9F2
100
AcDbEntity
  8
1
  6
Continuous
100
AcDbLine
 10
220.1133019999998
 20
232.6825759999999
 30
0.0
 11
236.6133019999999
 21
232.6825759999999
 31
0.0
  0
LINE
  5
AB41
330
A9F2
100
AcDbEntity
  8
1
  6
Continuous
100
AcDbLine
 10
220.1133019999998
 20
229.4825759999999
 30
0.0
 11
220.1133019999998
 21
232.6825759999999
 31
0.0
  0
LINE
  5
AB42
330
A9F2
100
AcDbEntity
  8
2
  6
Continuous
100
AcDbLine
 10
231.686802
 20
233.859057
 30
0.0
 11
231.686802
 21
232.6825759999999
 31
0.0
  0
LINE
  5
AB43
330
A9F2
100
AcDbEntity
  8
2
  6
Continuous
100
AcDbLine
 10
225.0398019999999
 20
233.859056
 30
0.0
 11
225.0398019999999
 21
232.6825759999999
 31
0.0
  0
LINE
  5
AB44
330
A9F2
100
AcDbEntity
  8
1
  6
Continuous
100
AcDbLine
 10
236.6133019999999
 20
229.4825759999999
 30
0.0
 11
236.6133019999999
 21
232.6825759999999
 31
0.0
  0
LINE
  5
AB45
330
A9F2
100
AcDbEntity
  8
1
  6
Continuous
100
AcDbLine
 10
232.363322
 20
232.6825759999999
 30
0.0
 11
232.363322
 21
233.182576
 31
0.0
  0
LINE
  5
AB46
330
A9F2
100
AcDbEntity
  8
1
  6
Continuous
100
AcDbLine
 10
232.363283
 20
233.182576
 30
0.0
 11
230.863283
 21
234.6825759999999
 31
0.0
  0
LINE
  5
AB47
330
A9F2
100
AcDbEntity
  8
1
  6
Continuous
100
AcDbLine
 10
224.3633219999999
 20
232.6825759999999
 30
0.0
 11
224.3633219999999
 21
233.182576
 31
0.0
  0
LINE
  5
AB48
330
A9F2
100
AcDbEntity
  8
1
  6
Continuous
100
AcDbLine
 10
224.3633219999999
 20
233.182576
 30
0.0
 11
225.863322
 21
234.6825759999999
 31
0.0
  0
LINE
  5
AB49
330
A9F2
100
AcDbEntity
  8
1
  6
Continuous
100
AcDbLine
 10
230.863283
 20
234.6825759999999
 30
0.0
 11
225.863322
 21
234.6825759999999
 31
0.0
  0
LINE
  5
AB4A
330
A9F2
100
AcDbEntity
  8
1
  6
Continuous
100
AcDbLine
 10
232.363322
 20
233.182576
 30
0.0
 11
224.3633219999999
 21
233.182576
 31
0.0
  0
LINE
  5
AB4B
330
A9F2
100
AcDbEntity
  8
4
  6
CENTER
100
AcDbLine
 10
228.3633019999999
 20
239.682576
 30
0.0
 11
228.3633019999999
 21
190.3711399999999
 31
0.0
  0
LINE
  5
AB4C
330
A9F2
100
AcDbEntity
  8
1
  6
Continuous
100
AcDbLine
 10
61.728749
 20
191.8012339999999
 30
0.0
 11
63.72874599999999
 21
190.3712379999998
 31
0.0
  0
LINE
  5
AB4D
330
A9F2
100
AcDbEntity
  8
1
  6
Continuous
100
AcDbLine
 10
63.72874599999999
 20
191.8012339999999
 30
0.0
 11
61.728749
 21
190.3712379999998
 31
0.0
  0
LINE
  5
AB4E
330
A9F2
100
AcDbEntity
  8
1
  6
Continuous
100
AcDbLine
 10
62.31453199999999
 20
191.8012339999999
 30
0.0
 11
60.31453599999998
 21
190.3712379999998
 31
0.0
  0
ARC
  5
AB4F
330
A9F2
100
AcDbEntity
  8
1
  6
Continuous
100
AcDbCircle
 10
60.06522499999999
 20
193.2824589999999
 30
0.0
 40
2.5
100
AcDbArc
 50
10.141019
 51
90.0
  0
LINE
  5
AB50
330
A9F2
100
AcDbEntity
  8
1
  6
Continuous
100
AcDbLine
 10
63.866329
 20
193.14695
 30
0.0
 11
31.865968
 21
193.14695
 31
0.0
  0
LINE
  5
AB51
330
A9F2
100
AcDbEntity
  8
1
  6
Continuous
100
AcDbLine
 10
32.356581
 20
193.722638
 30
0.0
 11
63.375715
 21
193.722638
 31
0.0
  0
LINE
  5
AB52
330
A9F2
100
AcDbEntity
  8
1
  6
Continuous
100
AcDbLine
 10
64.116049
 20
191.8011939999999
 30
0.0
 11
31.616049
 21
191.8012739999998
 31
0.0
  0
LINE
  5
AB53
330
A9F2
100
AcDbEntity
  8
4
  6
CENTER
100
AcDbLine
 10
47.86614799999997
 20
239.6825769999999
 30
0.0
 11
47.86614799999997
 21
190.3711409999999
 31
0.0
  0
LINE
  5
AB54
330
A9F2
100
AcDbEntity
  8
1
  6
Continuous
100
AcDbLine
 10
38.36614799999999
 20
229.482577
 30
0.0
 11
38.36614799999999
 21
200.1825769999999
 31
0.0
  0
LINE
  5
AB55
330
A9F2
100
AcDbEntity
  8
1
  6
Continuous
100
AcDbLine
 10
57.36614799999999
 20
229.482577
 30
0.0
 11
57.36614799999999
 21
200.1825769999999
 31
0.0
  0
LINE
  5
AB56
330
A9F2
100
AcDbEntity
  8
1
  6
Continuous
100
AcDbLine
 10
44.758187
 20
191.8012339999999
 30
0.0
 11
46.758183
 21
190.3712379999998
 31
0.0
  0
LINE
  5
AB57
330
A9F2
100
AcDbEntity
  8
1
  6
Continuous
100
AcDbLine
 10
46.758183
 20
191.8012339999999
 30
0.0
 11
44.758187
 21
190.3712379999998
 31
0.0
  0
LINE
  5
AB58
330
A9F2
100
AcDbEntity
  8
1
  6
Continuous
100
AcDbLine
 10
35.17021599999999
 20
195.782477
 30
0.0
 11
60.56208
 21
195.782477
 31
0.0
  0
LINE
  5
AB59
330
A9F2
100
AcDbEntity
  8
1
  6
Continuous
100
AcDbLine
 10
35.17021599999999
 20
198.682577
 30
0.0
 11
60.56208
 21
198.682577
 31
0.0
  0
LINE
  5
AB5A
330
A9F2
100
AcDbEntity
  8
1
  6
Continuous
100
AcDbLine
 10
45.34397
 20
191.8012339999999
 30
0.0
 11
43.343973
 21
190.3712379999998
 31
0.0
  0
LINE
  5
AB5B
330
A9F2
100
AcDbEntity
  8
1
  6
Continuous
100
AcDbLine
 10
39.101332
 20
191.8012339999999
 30
0.0
 11
41.10132899999999
 21
190.3712379999998
 31
0.0
  0
LINE
  5
AB5C
330
A9F2
100
AcDbEntity
  8
1
  6
Continuous
100
AcDbLine
 10
36.272905
 20
191.8012339999999
 30
0.0
 11
38.272902
 21
190.3712379999998
 31
0.0
  0
LINE
  5
AB5D
330
A9F2
100
AcDbEntity
  8
1
  6
Continuous
100
AcDbLine
 10
33.44447799999999
 20
191.8012339999999
 30
0.0
 11
35.44447499999999
 21
190.3712379999998
 31
0.0
  0
LINE
  5
AB5E
330
A9F2
100
AcDbEntity
  8
1
  6
Continuous
100
AcDbLine
 10
32.616048
 20
190.3712379999998
 30
0.0
 11
31.616049
 21
191.371236
 31
0.0
  0
LINE
  5
AB5F
330
A9F2
100
AcDbEntity
  8
1
  6
Continuous
100
AcDbLine
 10
42.515542
 20
191.8012339999999
 30
0.0
 11
40.515546
 21
190.3712379999998
 31
0.0
  0
LINE
  5
AB60
330
A9F2
100
AcDbEntity
  8
1
  6
Continuous
100
AcDbLine
 10
41.10132899999999
 20
191.8012339999999
 30
0.0
 11
39.101332
 21
190.3712379999998
 31
0.0
  0
LINE
  5
AB61
330
A9F2
100
AcDbEntity
  8
1
  6
Continuous
100
AcDbLine
 10
39.68711499999999
 20
191.8012339999999
 30
0.0
 11
37.687119
 21
190.3712379999998
 31
0.0
  0
LINE
  5
AB62
330
A9F2
100
AcDbEntity
  8
1
  6
Continuous
100
AcDbLine
 10
38.272902
 20
191.8012339999999
 30
0.0
 11
36.272905
 21
190.3712379999998
 31
0.0
  0
LINE
  5
AB63
330
A9F2
100
AcDbEntity
  8
1
  6
Continuous
100
AcDbLine
 10
36.858688
 20
191.8012339999999
 30
0.0
 11
34.85869199999999
 21
190.3712379999998
 31
0.0
  0
LINE
  5
AB64
330
A9F2
100
AcDbEntity
  8
1
  6
Continuous
100
AcDbLine
 10
35.44447499999999
 20
191.8012339999999
 30
0.0
 11
33.44447799999999
 21
190.3712379999998
 31
0.0
  0
LINE
  5
AB65
330
A9F2
100
AcDbEntity
  8
1
  6
Continuous
100
AcDbLine
 10
34.03026099999999
 20
191.8012339999999
 30
0.0
 11
32.03026499999999
 21
190.3712379999998
 31
0.0
  0
LINE
  5
AB66
330
A9F2
100
AcDbEntity
  8
1
  6
Continuous
100
AcDbLine
 10
31.616049
 20
191.8012339999999
 30
0.0
 11
31.616049
 21
190.3712379999998
 31
0.0
  0
LINE
  5
AB67
330
A9F2
100
AcDbEntity
  8
1
  6
Continuous
100
AcDbLine
 10
31.616049
 20
191.8012339999999
 30
0.0
 11
31.616049
 21
190.3712379999998
 31
0.0
  0
ARC
  5
AB68
330
A9F2
100
AcDbEntity
  8
1
  6
Continuous
100
AcDbCircle
 10
35.66711200000001
 20
193.2824589999999
 30
0.0
 40
2.5
100
AcDbArc
 50
90.0
 51
169.858981
  0
LINE
  5
AB69
330
A9F2
100
AcDbEntity
  8
1
  6
Continuous
100
AcDbLine
 10
32.616048
 20
191.8012339999999
 30
0.0
 11
31.616049
 21
191.371236
 31
0.0
  0
ARC
  5
AB6A
330
A9F2
100
AcDbEntity
  8
1
  6
Continuous
100
AcDbCircle
 10
32.896479
 20
192.765626
 30
0.0
 40
1.098799999999998
100
AcDbArc
 50
119.429525
 51
159.693839
  0
ARC
  5
AB6B
330
A9F2
100
AcDbEntity
  8
1
  6
Continuous
100
AcDbCircle
 10
34.214343
 20
193.477837
 30
0.0
 40
2.371570999999998
100
AcDbArc
 50
188.020211
 51
220.040406
  0
ARC
  5
AB6C
330
A9F2
100
AcDbEntity
  8
1
  6
Continuous
100
AcDbCircle
 10
39.86614799999999
 20
200.1825769999999
 30
0.0
 40
1.5
100
AcDbArc
 50
180.0
 51
270.0
  0
LINE
  5
AB6D
330
A9F2
100
AcDbEntity
  8
1
  6
Continuous
100
AcDbLine
 10
35.17021599999999
 20
195.782477
 30
0.0
 11
35.17021599999999
 21
198.682577
 31
0.0
  0
LINE
  5
AB6E
330
A9F2
100
AcDbEntity
  8
1
  6
Continuous
100
AcDbLine
 10
41.92975999999997
 20
191.8012339999999
 30
0.0
 11
43.92975599999998
 21
190.3712379999998
 31
0.0
  0
LINE
  5
AB6F
330
A9F2
100
AcDbEntity
  8
1
  6
Continuous
100
AcDbLine
 10
43.92975599999998
 20
191.8012339999999
 30
0.0
 11
41.92975999999997
 21
190.3712379999998
 31
0.0
  0
LINE
  5
AB70
330
A9F2
100
AcDbEntity
  8
1
  6
Continuous
100
AcDbLine
 10
58.900322
 20
191.8012339999999
 30
0.0
 11
60.90031899999999
 21
190.3712379999998
 31
0.0
  0
LINE
  5
AB71
330
A9F2
100
AcDbEntity
  8
1
  6
Continuous
100
AcDbLine
 10
60.90031899999999
 20
191.8012339999999
 30
0.0
 11
58.900322
 21
190.3712379999998
 31
0.0
  0
LINE
  5
AB72
330
A9F2
100
AcDbEntity
  8
1
  6
Continuous
100
AcDbLine
 10
60.56208
 20
195.782477
 30
0.0
 11
60.56208
 21
198.682577
 31
0.0
  0
LINE
  5
AB73
330
A9F2
100
AcDbEntity
  8
1
  6
Continuous
100
AcDbLine
 10
48.172397
 20
191.8012339999999
 30
0.0
 11
46.1724
 21
190.3712379999998
 31
0.0
  0
LINE
  5
AB74
330
A9F2
100
AcDbEntity
  8
1
  6
Continuous
100
AcDbLine
 10
56.071895
 20
191.8012339999999
 30
0.0
 11
58.07189199999999
 21
190.3712379999998
 31
0.0
  0
LINE
  5
AB75
330
A9F2
100
AcDbEntity
  8
1
  6
Continuous
100
AcDbLine
 10
53.243468
 20
191.8012339999999
 30
0.0
 11
55.243465
 21
190.3712379999998
 31
0.0
  0
LINE
  5
AB76
330
A9F2
100
AcDbEntity
  8
1
  6
Continuous
100
AcDbLine
 10
50.415041
 20
191.8012339999999
 30
0.0
 11
52.41503699999999
 21
190.3712379999998
 31
0.0
  0
LINE
  5
AB77
330
A9F2
100
AcDbEntity
  8
1
  6
Continuous
100
AcDbLine
 10
47.586614
 20
191.8012339999999
 30
0.0
 11
49.58661
 21
190.3712379999998
 31
0.0
  0
LINE
  5
AB78
330
A9F2
100
AcDbEntity
  8
1
  6
Continuous
100
AcDbLine
 10
58.07189199999999
 20
191.8012339999999
 30
0.0
 11
56.071895
 21
190.3712379999998
 31
0.0
  0
LINE
  5
AB79
330
A9F2
100
AcDbEntity
  8
1
  6
Continuous
100
AcDbLine
 10
56.65767800000001
 20
191.8012339999999
 30
0.0
 11
54.65768199999999
 21
190.3712379999998
 31
0.0
  0
LINE
  5
AB7A
330
A9F2
100
AcDbEntity
  8
1
  6
Continuous
100
AcDbLine
 10
55.243465
 20
191.8012339999999
 30
0.0
 11
53.243468
 21
190.3712379999998
 31
0.0
  0
LINE
  5
AB7B
330
A9F2
100
AcDbEntity
  8
1
  6
Continuous
100
AcDbLine
 10
53.829251
 20
191.8012339999999
 30
0.0
 11
51.82925499999999
 21
190.3712379999998
 31
0.0
  0
LINE
  5
AB7C
330
A9F2
100
AcDbEntity
  8
1
  6
Continuous
100
AcDbLine
 10
52.41503699999999
 20
191.8012339999999
 30
0.0
 11
50.415041
 21
190.3712379999998
 31
0.0
  0
LINE
  5
AB7D
330
A9F2
100
AcDbEntity
  8
1
  6
Continuous
100
AcDbLine
 10
51.000824
 20
191.8012339999999
 30
0.0
 11
49.000827
 21
190.3712379999998
 31
0.0
  0
LINE
  5
AB7E
330
A9F2
100
AcDbEntity
  8
1
  6
Continuous
100
AcDbLine
 10
49.58661
 20
191.8012339999999
 30
0.0
 11
47.586614
 21
190.3712379999998
 31
0.0
  0
ARC
  5
AB7F
330
A9F2
100
AcDbEntity
  8
1
  6
Continuous
100
AcDbCircle
 10
55.86614799999999
 20
200.1825769999999
 30
0.0
 40
1.5
100
AcDbArc
 50
270.0
 51
0.0
  0
LINE
  5
AB80
330
A9F2
100
AcDbEntity
  8
1
  6
Continuous
100
AcDbLine
 10
47.86614799999997
 20
195.782477
 30
0.0
 11
47.86614799999997
 21
198.682577
 31
0.0
  0
LINE
  5
AB81
330
A9F2
100
AcDbEntity
  8
1
  6
Continuous
100
AcDbLine
 10
59.486105
 20
191.8012339999999
 30
0.0
 11
57.486109
 21
190.3712379999998
 31
0.0
  0
LINE
  5
AB82
330
A9F2
100
AcDbEntity
  8
1
  6
Continuous
100
AcDbLine
 10
57.36614799999999
 20
202.5825769999999
 30
0.0
 11
38.36614799999999
 21
202.5825769999999
 31
0.0
  0
LINE
  5
AB83
330
A9F2
100
AcDbEntity
  8
1
  6
Continuous
100
AcDbLine
 10
51.866168
 20
233.182577
 30
0.0
 11
43.866168
 21
233.182577
 31
0.0
  0
LINE
  5
AB84
330
A9F2
100
AcDbEntity
  8
1
  6
Continuous
100
AcDbLine
 10
50.366129
 20
234.682577
 30
0.0
 11
45.366168
 21
234.682577
 31
0.0
  0
LINE
  5
AB85
330
A9F2
100
AcDbEntity
  8
1
  6
Continuous
100
AcDbLine
 10
39.61614799999999
 20
232.682577
 30
0.0
 11
56.11614799999999
 21
232.682577
 31
0.0
  0
LINE
  5
AB86
330
A9F2
100
AcDbEntity
  8
1
  6
Continuous
100
AcDbLine
 10
57.36614799999999
 20
229.482577
 30
0.0
 11
38.36614799999999
 21
229.482577
 31
0.0
  0
LINE
  5
AB87
330
A9F2
100
AcDbEntity
  8
1
  6
Continuous
100
AcDbLine
 10
43.866168
 20
233.182577
 30
0.0
 11
45.366168
 21
234.682577
 31
0.0
  0
LINE
  5
AB88
330
A9F2
100
AcDbEntity
  8
1
  6
Continuous
100
AcDbLine
 10
43.866168
 20
232.682577
 30
0.0
 11
43.866168
 21
233.182577
 31
0.0
  0
LINE
  5
AB89
330
A9F2
100
AcDbEntity
  8
2
  6
Continuous
100
AcDbLine
 10
44.54264799999999
 20
233.859057
 30
0.0
 11
44.54264799999999
 21
232.682577
 31
0.0
  0
LINE
  5
AB8A
330
A9F2
100
AcDbEntity
  8
1
  6
Continuous
100
AcDbLine
 10
39.61614799999999
 20
229.482577
 30
0.0
 11
39.61614799999999
 21
232.682577
 31
0.0
  0
LINE
  5
AB8B
330
A9F2
100
AcDbEntity
  8
1
  6
Continuous
100
AcDbLine
 10
51.866129
 20
233.182577
 30
0.0
 11
50.366129
 21
234.682577
 31
0.0
  0
LINE
  5
AB8C
330
A9F2
100
AcDbEntity
  8
1
  6
Continuous
100
AcDbLine
 10
51.866168
 20
232.682577
 30
0.0
 11
51.866168
 21
233.182577
 31
0.0
  0
LINE
  5
AB8D
330
A9F2
100
AcDbEntity
  8
1
  6
Continuous
100
AcDbLine
 10
56.11614799999999
 20
229.482577
 30
0.0
 11
56.11614799999999
 21
232.682577
 31
0.0
  0
LINE
  5
AB8E
330
A9F2
100
AcDbEntity
  8
2
  6
Continuous
100
AcDbLine
 10
51.189648
 20
233.8590579999999
 30
0.0
 11
51.189648
 21
232.682577
 31
0.0
  0
LINE
  5
AB8F
330
A9F2
100
AcDbEntity
  8
1
  6
Continuous
100
AcDbLine
 10
64.116049
 20
191.344324
 30
0.0
 11
63.142963
 21
190.3712379999998
 31
0.0
  0
LINE
  5
AB90
330
A9F2
100
AcDbEntity
  8
1
  6
Continuous
100
AcDbLine
 10
64.116049
 20
191.8012339999999
 30
0.0
 11
64.116049
 21
190.3712379999998
 31
0.0
  0
LINE
  5
AB91
330
A9F2
100
AcDbEntity
  8
1
  6
Continuous
100
AcDbLine
 10
64.116049
 20
191.8012339999999
 30
0.0
 11
64.116049
 21
190.3710439999999
 31
0.0
  0
ARC
  5
AB92
330
A9F2
100
AcDbEntity
  8
1
  6
Continuous
100
AcDbCircle
 10
62.835817
 20
192.765626
 30
0.0
 40
1.098799999999998
100
AcDbArc
 50
20.306161
 51
60.57047500000001
  0
ARC
  5
AB93
330
A9F2
100
AcDbEntity
  8
1
  6
Continuous
100
AcDbCircle
 10
61.51795400000001
 20
193.477837
 30
0.0
 40
2.371570999999998
100
AcDbArc
 50
319.959594
 51
351.9797889999999
  0
ARC
  5
AB94
330
A9F2
100
AcDbEntity
  8
1
  6
Continuous
100
AcDbCircle
 10
165.816531
 20
193.4779329999998
 30
0.0
 40
2.371570999999998
100
AcDbArc
 50
319.959594
 51
351.9797889999999
  0
ARC
  5
AB95
330
A9F2
100
AcDbEntity
  8
1
  6
Continuous
100
AcDbCircle
 10
167.1343939999998
 20
192.765722
 30
0.0
 40
1.098799999999998
100
AcDbArc
 50
20.306161
 51
60.57047500000001
  0
LINE
  5
AB96
330
A9F2
100
AcDbEntity
  8
1
  6
Continuous
100
AcDbLine
 10
168.414626
 20
191.34342
 30
0.0
 11
167.4415399999998
 21
190.370334
 31
0.0
  0
LINE
  5
AB97
330
A9F2
100
AcDbEntity
  8
1
  6
Continuous
100
AcDbLine
 10
168.414626
 20
191.8012899999999
 30
0.0
 11
135.9146259999999
 21
191.8013699999999
 31
0.0
  0
LINE
  5
AB98
330
A9F2
100
AcDbEntity
  8
1
  6
Continuous
100
AcDbLine
 10
168.1649059999998
 20
193.1470459999999
 30
0.0
 11
136.164545
 21
193.1470459999999
 31
0.0
  0
LINE
  5
AB99
330
A9F2
100
AcDbEntity
  8
1
  6
Continuous
100
AcDbLine
 10
161.6647249999998
 20
229.482673
 30
0.0
 11
161.6647249999998
 21
200.1826729999999
 31
0.0
  0
LINE
  5
AB9A
330
A9F2
100
AcDbEntity
  8
1
  6
Continuous
100
AcDbLine
 10
142.664725
 20
229.482673
 30
0.0
 11
142.664725
 21
200.1826729999999
 31
0.0
  0
ARC
  5
AB9B
330
A9F2
100
AcDbEntity
  8
1
  6
Continuous
100
AcDbCircle
 10
138.51292
 20
193.4779329999998
 30
0.0
 40
2.371570999999998
100
AcDbArc
 50
188.020211
 51
220.040406
  0
ARC
  5
AB9C
330
A9F2
100
AcDbEntity
  8
1
  6
Continuous
100
AcDbCircle
 10
137.1950559999999
 20
192.765722
 30
0.0
 40
1.098799999999998
100
AcDbArc
 50
119.429525
 51
159.693839
  0
LINE
  5
AB9D
330
A9F2
100
AcDbEntity
  8
1
  6
Continuous
100
AcDbLine
 10
136.914625
 20
191.80133
 30
0.0
 11
135.9146259999999
 21
191.3703319999999
 31
0.0
  0
LINE
  5
AB9E
330
A9F2
100
AcDbEntity
  8
1
  6
Continuous
100
AcDbLine
 10
136.914625
 20
190.370334
 30
0.0
 11
135.9146259999999
 21
191.3703319999999
 31
0.0
  0
LINE
  5
AB9F
330
A9F2
100
AcDbEntity
  8
1
  6
Continuous
100
AcDbLine
 10
135.9146259999999
 20
191.80133
 30
0.0
 11
135.9146259999999
 21
190.370334
 31
0.0
  0
LINE
  5
ABA0
330
A9F2
100
AcDbEntity
  8
1
  6
Continuous
100
AcDbLine
 10
135.9146259999999
 20
191.80133
 30
0.0
 11
135.9146259999999
 21
190.370334
 31
0.0
  0
LINE
  5
ABA1
330
A9F2
100
AcDbEntity
  8
1
  6
Continuous
100
AcDbLine
 10
153.885187
 20
191.80133
 30
0.0
 11
151.8851909999999
 21
190.370334
 31
0.0
  0
LINE
  5
ABA2
330
A9F2
100
AcDbEntity
  8
1
  6
Continuous
100
AcDbLine
 10
151.8851909999999
 20
191.80133
 30
0.0
 11
153.885187
 21
190.370334
 31
0.0
  0
LINE
  5
ABA3
330
A9F2
100
AcDbEntity
  8
1
  6
Continuous
100
AcDbLine
 10
152.470974
 20
191.80133
 30
0.0
 11
150.470977
 21
190.370334
 31
0.0
  0
LINE
  5
ABA4
330
A9F2
100
AcDbEntity
  8
1
  6
Continuous
100
AcDbLine
 10
137.5046259999998
 20
195.7825729999999
 30
0.0
 11
166.824626
 21
195.7825729999999
 31
0.0
  0
LINE
  5
ABA5
330
A9F2
100
AcDbEntity
  8
1
  6
Continuous
100
AcDbLine
 10
136.655158
 20
193.7227339999998
 30
0.0
 11
167.6742919999998
 21
193.7227339999998
 31
0.0
  0
LINE
  5
ABA6
330
A9F2
100
AcDbEntity
  8
1
  6
Continuous
100
AcDbLine
 10
148.228333
 20
191.80133
 30
0.0
 11
146.228337
 21
190.370334
 31
0.0
  0
LINE
  5
ABA7
330
A9F2
100
AcDbEntity
  8
1
  6
Continuous
100
AcDbLine
 10
146.228337
 20
191.80133
 30
0.0
 11
148.228333
 21
190.370334
 31
0.0
  0
ARC
  5
ABA8
330
A9F2
100
AcDbEntity
  8
1
  6
Continuous
100
AcDbCircle
 10
139.9656889999999
 20
193.282555
 30
0.0
 40
2.5
100
AcDbArc
 50
90.0
 51
169.858981
  0
LINE
  5
ABA9
330
A9F2
100
AcDbEntity
  8
1
  6
Continuous
100
AcDbLine
 10
138.3288379999999
 20
191.80133
 30
0.0
 11
136.3288419999999
 21
190.370334
 31
0.0
  0
LINE
  5
ABAA
330
A9F2
100
AcDbEntity
  8
1
  6
Continuous
100
AcDbLine
 10
139.743052
 20
191.80133
 30
0.0
 11
137.7430549999999
 21
190.370334
 31
0.0
  0
LINE
  5
ABAB
330
A9F2
100
AcDbEntity
  8
1
  6
Continuous
100
AcDbLine
 10
141.1572649999999
 20
191.80133
 30
0.0
 11
139.1572689999998
 21
190.370334
 31
0.0
  0
LINE
  5
ABAC
330
A9F2
100
AcDbEntity
  8
1
  6
Continuous
100
AcDbLine
 10
142.571479
 20
191.80133
 30
0.0
 11
140.571482
 21
190.370334
 31
0.0
  0
LINE
  5
ABAD
330
A9F2
100
AcDbEntity
  8
1
  6
Continuous
100
AcDbLine
 10
143.9856919999998
 20
191.80133
 30
0.0
 11
141.9856959999999
 21
190.370334
 31
0.0
  0
LINE
  5
ABAE
330
A9F2
100
AcDbEntity
  8
1
  6
Continuous
100
AcDbLine
 10
145.3999059999999
 20
191.80133
 30
0.0
 11
143.399909
 21
190.370334
 31
0.0
  0
LINE
  5
ABAF
330
A9F2
100
AcDbEntity
  8
1
  6
Continuous
100
AcDbLine
 10
146.814119
 20
191.80133
 30
0.0
 11
144.814123
 21
190.370334
 31
0.0
  0
LINE
  5
ABB0
330
A9F2
100
AcDbEntity
  8
1
  6
Continuous
100
AcDbLine
 10
137.7430549999999
 20
191.80133
 30
0.0
 11
139.743052
 21
190.370334
 31
0.0
  0
LINE
  5
ABB1
330
A9F2
100
AcDbEntity
  8
1
  6
Continuous
100
AcDbLine
 10
140.571482
 20
191.80133
 30
0.0
 11
142.571479
 21
190.370334
 31
0.0
  0
LINE
  5
ABB2
330
A9F2
100
AcDbEntity
  8
1
  6
Continuous
100
AcDbLine
 10
143.399909
 20
191.80133
 30
0.0
 11
145.3999059999999
 21
190.370334
 31
0.0
  0
LINE
  5
ABB3
330
A9F2
100
AcDbEntity
  8
1
  6
Continuous
100
AcDbLine
 10
149.642547
 20
191.80133
 30
0.0
 11
147.6425499999998
 21
190.370334
 31
0.0
  0
LINE
  5
ABB4
330
A9F2
100
AcDbEntity
  8
1
  6
Continuous
100
AcDbLine
 10
151.0567599999999
 20
191.80133
 30
0.0
 11
149.0567639999999
 21
190.370334
 31
0.0
  0
LINE
  5
ABB5
330
A9F2
100
AcDbEntity
  8
1
  6
Continuous
100
AcDbLine
 10
149.0567639999999
 20
191.80133
 30
0.0
 11
151.0567599999999
 21
190.370334
 31
0.0
  0
LINE
  5
ABB6
330
A9F2
100
AcDbEntity
  8
1
  6
Continuous
100
AcDbLine
 10
163.784682
 20
191.80133
 30
0.0
 11
161.784686
 21
190.370334
 31
0.0
  0
LINE
  5
ABB7
330
A9F2
100
AcDbEntity
  8
1
  6
Continuous
100
AcDbLine
 10
155.2994009999999
 20
191.80133
 30
0.0
 11
153.299404
 21
190.370334
 31
0.0
  0
LINE
  5
ABB8
330
A9F2
100
AcDbEntity
  8
1
  6
Continuous
100
AcDbLine
 10
156.7136139999998
 20
191.80133
 30
0.0
 11
154.713618
 21
190.370334
 31
0.0
  0
LINE
  5
ABB9
330
A9F2
100
AcDbEntity
  8
1
  6
Continuous
100
AcDbLine
 10
158.127828
 20
191.80133
 30
0.0
 11
156.127832
 21
190.370334
 31
0.0
  0
LINE
  5
ABBA
330
A9F2
100
AcDbEntity
  8
1
  6
Continuous
100
AcDbLine
 10
159.5420419999999
 20
191.80133
 30
0.0
 11
157.542045
 21
190.370334
 31
0.0
  0
LINE
  5
ABBB
330
A9F2
100
AcDbEntity
  8
1
  6
Continuous
100
AcDbLine
 10
160.9562549999999
 20
191.80133
 30
0.0
 11
158.9562589999999
 21
190.370334
 31
0.0
  0
LINE
  5
ABBC
330
A9F2
100
AcDbEntity
  8
1
  6
Continuous
100
AcDbLine
 10
162.3704689999998
 20
191.80133
 30
0.0
 11
160.370472
 21
190.370334
 31
0.0
  0
LINE
  5
ABBD
330
A9F2
100
AcDbEntity
  8
1
  6
Continuous
100
AcDbLine
 10
154.713618
 20
191.80133
 30
0.0
 11
156.7136139999998
 21
190.370334
 31
0.0
  0
LINE
  5
ABBE
330
A9F2
100
AcDbEntity
  8
1
  6
Continuous
100
AcDbLine
 10
157.542045
 20
191.80133
 30
0.0
 11
159.5420419999999
 21
190.370334
 31
0.0
  0
LINE
  5
ABBF
330
A9F2
100
AcDbEntity
  8
1
  6
Continuous
100
AcDbLine
 10
160.370472
 20
191.80133
 30
0.0
 11
162.3704689999998
 21
190.370334
 31
0.0
  0
LINE
  5
ABC0
330
A9F2
100
AcDbEntity
  8
1
  6
Continuous
100
AcDbLine
 10
165.1988959999999
 20
191.80133
 30
0.0
 11
163.198899
 21
190.370334
 31
0.0
  0
LINE
  5
ABC1
330
A9F2
100
AcDbEntity
  8
1
  6
Continuous
100
AcDbLine
 10
163.198899
 20
191.80133
 30
0.0
 11
165.1988959999999
 21
190.370334
 31
0.0
  0
ARC
  5
ABC2
330
A9F2
100
AcDbEntity
  8
1
  6
Continuous
100
AcDbCircle
 10
164.363802
 20
193.282555
 30
0.0
 40
2.5
100
AcDbArc
 50
10.141019
 51
90.0
  0
LINE
  5
ABC3
330
A9F2
100
AcDbEntity
  8
1
  6
Continuous
100
AcDbLine
 10
166.613109
 20
191.80133
 30
0.0
 11
164.613113
 21
190.370334
 31
0.0
  0
LINE
  5
ABC4
330
A9F2
100
AcDbEntity
  8
1
  6
Continuous
100
AcDbLine
 10
168.027323
 20
191.80133
 30
0.0
 11
166.0273259999998
 21
190.370334
 31
0.0
  0
LINE
  5
ABC5
330
A9F2
100
AcDbEntity
  8
1
  6
Continuous
100
AcDbLine
 10
166.0273259999998
 20
191.80133
 30
0.0
 11
168.027323
 21
190.370334
 31
0.0
  0
LINE
  5
ABC6
330
A9F2
100
AcDbEntity
  8
1
  6
Continuous
100
AcDbLine
 10
161.6647249999998
 20
202.5826729999999
 30
0.0
 11
142.664725
 21
202.5826729999999
 31
0.0
  0
LINE
  5
ABC7
330
A9F2
100
AcDbEntity
  8
1
  6
Continuous
100
AcDbLine
 10
137.5046259999998
 20
198.6826729999999
 30
0.0
 11
166.824626
 21
198.6826729999999
 31
0.0
  0
ARC
  5
ABC8
330
A9F2
100
AcDbEntity
  8
1
  6
Continuous
100
AcDbCircle
 10
144.164725
 20
200.1826729999999
 30
0.0
 40
1.5
100
AcDbArc
 50
180.0
 51
270.0
  0
ARC
  5
ABC9
330
A9F2
100
AcDbEntity
  8
1
  6
Continuous
100
AcDbCircle
 10
160.164725
 20
200.1826729999999
 30
0.0
 40
1.5
100
AcDbArc
 50
270.0
 51
0.0
  0
LINE
  5
ABCA
330
A9F2
100
AcDbEntity
  8
1
  6
Continuous
100
AcDbLine
 10
161.6647249999998
 20
229.482673
 30
0.0
 11
142.664725
 21
229.482673
 31
0.0
  0
LINE
  5
ABCB
330
A9F2
100
AcDbEntity
  8
1
  6
Continuous
100
AcDbLine
 10
142.914626
 20
232.682673
 30
0.0
 11
161.414626
 21
232.682673
 31
0.0
  0
LINE
  5
ABCC
330
A9F2
100
AcDbEntity
  8
1
  6
Continuous
100
AcDbLine
 10
154.6647059999999
 20
234.682673
 30
0.0
 11
149.6647449999999
 21
234.682673
 31
0.0
  0
LINE
  5
ABCD
330
A9F2
100
AcDbEntity
  8
1
  6
Continuous
100
AcDbLine
 10
156.1647449999999
 20
233.1826729999999
 30
0.0
 11
148.1647449999998
 21
233.1826729999999
 31
0.0
  0
LINE
  5
ABCE
330
A9F2
100
AcDbEntity
  8
2
  6
Continuous
100
AcDbLine
 10
148.841225
 20
233.8591529999999
 30
0.0
 11
148.841225
 21
232.682673
 31
0.0
  0
LINE
  5
ABCF
330
A9F2
100
AcDbEntity
  8
1
  6
Continuous
100
AcDbLine
 10
148.1647449999998
 20
232.682673
 30
0.0
 11
148.1647449999998
 21
233.1826729999999
 31
0.0
  0
LINE
  5
ABD0
330
A9F2
100
AcDbEntity
  8
1
  6
Continuous
100
AcDbLine
 10
148.1647449999998
 20
233.1826729999999
 30
0.0
 11
149.6647449999999
 21
234.682673
 31
0.0
  0
LINE
  5
ABD1
330
A9F2
100
AcDbEntity
  8
2
  6
Continuous
100
AcDbLine
 10
155.488225
 20
233.8591539999999
 30
0.0
 11
155.488225
 21
232.682673
 31
0.0
  0
LINE
  5
ABD2
330
A9F2
100
AcDbEntity
  8
1
  6
Continuous
100
AcDbLine
 10
156.1647449999999
 20
232.682673
 30
0.0
 11
156.1647449999999
 21
233.1826729999999
 31
0.0
  0
LINE
  5
ABD3
330
A9F2
100
AcDbEntity
  8
1
  6
Continuous
100
AcDbLine
 10
156.164706
 20
233.1826729999999
 30
0.0
 11
154.6647059999999
 21
234.682673
 31
0.0
  0
LINE
  5
ABD4
330
A9F2
100
AcDbEntity
  8
1
  6
Continuous
100
AcDbLine
 10
168.414626
 20
191.80133
 30
0.0
 11
168.414626
 21
190.370141
 31
0.0
  0
LINE
  5
ABD5
330
A9F2
100
AcDbEntity
  8
1
  6
Continuous
100
AcDbLine
 10
168.414626
 20
191.80133
 30
0.0
 11
168.414626
 21
190.370334
 31
0.0
  0
LINE
  5
ABD6
330
A9F2
100
AcDbEntity
  8
1
  6
Continuous
100
AcDbLine
 10
147.981326
 20
232.682673
 30
0.0
 11
147.981326
 21
229.482673
 31
0.0
  0
LINE
  5
ABD7
330
A9F2
100
AcDbEntity
  8
1
  6
Continuous
100
AcDbLine
 10
142.914626
 20
229.482673
 30
0.0
 11
142.914626
 21
232.682673
 31
0.0
  0
LINE
  5
ABD8
330
A9F2
100
AcDbEntity
  8
1
  6
Continuous
100
AcDbLine
 10
161.414626
 20
229.482673
 30
0.0
 11
161.414626
 21
232.682673
 31
0.0
  0
LINE
  5
ABD9
330
A9F2
100
AcDbEntity
  8
1
  6
Continuous
100
AcDbLine
 10
156.347926
 20
232.682673
 30
0.0
 11
156.347926
 21
229.482673
 31
0.0
  0
ARC
  5
ABDA
330
A9F2
100
AcDbEntity
  8
1
  6
Continuous
100
AcDbCircle
 10
326.5618329999999
 20
157.68204
 30
0.0
 40
25.0
100
AcDbArc
 50
144.161832
 51
80.21928800000003
  0
LINE
  5
ABDB
330
A9F2
100
AcDbEntity
  8
1
  6
Continuous
100
AcDbLine
 10
318.711885
 20
186.6335989999998
 30
0.0
 11
318.711831
 21
156.4492919999999
 31
0.0
  0
ARC
  5
ABDC
330
A9F2
100
AcDbEntity
  8
1
  6
Continuous
100
AcDbCircle
 10
253.957259
 20
136.5582569999999
 30
0.0
 40
63.35981999999999
100
AcDbArc
 50
36.66607799999999
 51
45.95289699999999
  0
LINE
  5
ABDD
330
A9F2
100
AcDbEntity
  8
1
  6
Continuous
100
AcDbLine
 10
330.323241
 20
187.526302
 30
0.0
 11
333.6794449999999
 21
157.4282879999999
 31
0.0
  0
LINE
  5
ABDE
330
A9F2
100
AcDbEntity
  8
4
  6
CENTER
100
AcDbLine
 10
326.56178
 20
127.6820399999998
 30
0.0
 11
326.561883
 21
185.68204
 31
0.0
  0
LINE
  5
ABDF
330
A9F2
100
AcDbEntity
  8
4
  6
CENTER
100
AcDbLine
 10
307.5619779999998
 20
239.5311069999999
 30
0.0
 11
307.56185
 21
167.1420969999998
 31
0.0
  0
LINE
  5
ABE0
330
A9F2
100
AcDbEntity
  8
4
  6
CENTER
100
AcDbLine
 10
356.5618329999999
 20
157.681987
 30
0.0
 11
296.5618329999998
 21
157.6820929999998
 31
0.0
  0
ARC
  5
ABE1
330
A9F2
100
AcDbEntity
  8
1
  6
Continuous
100
AcDbCircle
 10
326.2118319999999
 20
156.7320409999998
 30
0.0
 40
7.5
100
AcDbArc
 50
244.078997
 51
5.326601999999999
  0
ARC
  5
ABE2
330
A9F2
100
AcDbEntity
  8
1
  6
Continuous
100
AcDbCircle
 10
326.5618329999999
 20
157.68204
 30
0.0
 40
8.5
100
AcDbArc
 50
258.210341
 51
40.376848
  0
ARC
  5
ABE3
330
A9F2
100
AcDbEntity
  8
1
  6
Continuous
100
AcDbCircle
 10
326.5618329999999
 20
157.68204
 30
0.0
 40
17.5
100
AcDbArc
 50
153.524234
 51
72.621374
  0
ARC
  5
ABE4
330
A9F2
100
AcDbEntity
  8
1
  6
Continuous
100
AcDbCircle
 10
368.6037769999999
 20
192.391123
 30
0.0
 40
63.31738699999998
100
AcDbArc
 50
210.017325
 51
218.0250179999999
  0
ARC
  5
ABE5
330
A9F2
100
AcDbEntity
  8
1
  6
Continuous
100
AcDbCircle
 10
328.178923
 20
160.7793299999999
 30
0.0
 40
12.0
100
AcDbArc
 50
218.0250179999999
 51
244.078997
  0
ARC
  5
ABE6
330
A9F2
100
AcDbEntity
  8
1
  6
Continuous
100
AcDbCircle
 10
191.5434899999999
 20
90.09392400000001
 30
0.0
 40
141.169928
100
AcDbArc
 50
30.017325
 51
36.66607799999999
  0
ARC
  5
ABE7
330
A9F2
100
AcDbEntity
  8
1
  6
Continuous
100
AcDbCircle
 10
332.094731
 20
186.210282
 30
0.0
 40
1.351175999999999
100
AcDbArc
 50
50.763213
 51
91.145662
  0
LINE
  5
ABE8
330
A9F2
100
AcDbEntity
  8
1
  6
Continuous
100
AcDbLine
 10
330.509383
 20
185.5298369999999
 30
0.0
 11
332.77834
 21
185.5635899999998
 31
0.0
  0
LINE
  5
ABE9
330
A9F2
100
AcDbEntity
  8
1
  6
Continuous
100
AcDbLine
 10
332.9493859999999
 20
187.25682
 30
0.0
 11
333.0093839999999
 21
186.3418199999999
 31
0.0
  0
LINE
  5
ABEA
330
A9F2
100
AcDbEntity
  8
1
  6
Continuous
100
AcDbLine
 10
333.0093839999999
 20
186.3418199999999
 30
0.0
 11
333.009383
 21
185.6568199999999
 31
0.0
  0
ARC
  5
ABEB
330
A9F2
100
AcDbEntity
  8
1
  6
Continuous
100
AcDbCircle
 10
332.7731979999999
 20
185.909234
 30
0.0
 40
0.345682
100
AcDbArc
 50
270.852271
 51
313.097568
  0
LINE
  5
ABEC
330
A9F2
100
AcDbEntity
  8
1
  6
Continuous
100
AcDbLine
 10
317.0618609999999
 20
229.482493
 30
0.0
 11
317.0618099999999
 21
200.182493
 31
0.0
  0
LINE
  5
ABED
330
A9F2
100
AcDbEntity
  8
1
  6
Continuous
100
AcDbLine
 10
298.0618609999999
 20
229.482527
 30
0.0
 11
298.06181
 21
200.1825269999999
 31
0.0
  0
LINE
  5
ABEE
330
A9F2
100
AcDbEntity
  8
1
  6
Continuous
100
AcDbLine
 10
323.8313099999999
 20
190.370045
 30
0.0
 11
290.8836129999999
 21
190.370103
 31
0.0
  0
LINE
  5
ABEF
330
A9F2
100
AcDbEntity
  8
1
  6
Continuous
100
AcDbLine
 10
298.770265
 20
191.801183
 30
0.0
 11
300.770258
 21
190.3701829999999
 31
0.0
  0
LINE
  5
ABF0
330
A9F2
100
AcDbEntity
  8
1
  6
Continuous
100
AcDbLine
 10
322.2219009999998
 20
195.782384
 30
0.0
 11
292.9019009999998
 21
195.782436
 31
0.0
  0
LINE
  5
ABF1
330
A9F2
100
AcDbEntity
  8
1
  6
Continuous
100
AcDbLine
 10
322.221906
 20
198.6824839999999
 30
0.0
 11
292.9019059999999
 21
198.682536
 31
0.0
  0
LINE
  5
ABF2
330
A9F2
100
AcDbEntity
  8
1
  6
Continuous
100
AcDbLine
 10
298.061814
 20
202.5825269999999
 30
0.0
 11
317.0618140000001
 21
202.582493
 31
0.0
  0
LINE
  5
ABF3
330
A9F2
100
AcDbEntity
  8
1
  6
Continuous
100
AcDbLine
 10
323.071365
 20
193.7225439999999
 30
0.0
 11
292.0522309999999
 21
193.722598
 31
0.0
  0
LINE
  5
ABF4
330
A9F2
100
AcDbEntity
  8
1
  6
Continuous
100
AcDbLine
 10
291.561616
 20
193.1469109999999
 30
0.0
 11
323.561977
 21
193.1468549999999
 31
0.0
  0
LINE
  5
ABF5
330
A9F2
100
AcDbEntity
  8
1
  6
Continuous
100
AcDbLine
 10
291.311894
 20
191.801156
 30
0.0
 11
323.811894
 21
191.801178
 31
0.0
  0
LINE
  5
ABF6
330
A9F2
100
AcDbEntity
  8
1
  6
Continuous
100
AcDbLine
 10
322.2219009999998
 20
195.782366
 30
0.0
 11
322.221906
 21
198.6824839999999
 31
0.0
  0
LINE
  5
ABF7
330
A9F2
100
AcDbEntity
  8
1
  6
Continuous
100
AcDbLine
 10
314.891906
 20
198.6824969999999
 30
0.0
 11
314.8919009999999
 21
195.782453
 31
0.0
  0
LINE
  5
ABF8
330
A9F2
100
AcDbEntity
  8
1
  6
Continuous
100
AcDbLine
 10
300.231906
 20
198.6825229999998
 30
0.0
 11
300.2319009999999
 21
195.782479
 31
0.0
  0
LINE
  5
ABF9
330
A9F2
100
AcDbEntity
  8
1
  6
Continuous
100
AcDbLine
 10
315.7408279999998
 20
191.801153
 30
0.0
 11
317.7408209999999
 21
190.370153
 31
0.0
  0
LINE
  5
ABFA
330
A9F2
100
AcDbEntity
  8
1
  6
Continuous
100
AcDbLine
 10
314.326614
 20
191.8011549999999
 30
0.0
 11
316.326608
 21
190.370156
 31
0.0
  0
LINE
  5
ABFB
330
A9F2
100
AcDbEntity
  8
1
  6
Continuous
100
AcDbLine
 10
316.326611
 20
191.801152
 30
0.0
 11
314.326611
 21
190.370159
 31
0.0
  0
LINE
  5
ABFC
330
A9F2
100
AcDbEntity
  8
1
  6
Continuous
100
AcDbLine
 10
324.0093859999999
 20
187.550646
 30
0.0
 11
327.689386
 21
187.506829
 31
0.0
  0
ARC
  5
ABFD
330
A9F2
100
AcDbEntity
  8
1
  6
Continuous
100
AcDbCircle
 10
322.847095
 20
187.2556789999999
 30
0.0
 40
3.266183999999998
100
AcDbArc
 50
38.256601
 51
72.462192
  0
ARC
  5
ABFE
330
A9F2
100
AcDbEntity
  8
1
  6
Continuous
100
AcDbCircle
 10
321.9161989999999
 20
186.521647
 30
0.0
 40
4.451666999999998
100
AcDbArc
 50
23.15083099999998
 51
38.256601
  0
LINE
  5
ABFF
330
A9F2
100
AcDbEntity
  8
1
  6
Continuous
100
AcDbLine
 10
326.0093869999999
 20
188.271832
 30
0.0
 11
326.154387
 21
187.8368319999999
 31
0.0
  0
LINE
  5
AC00
330
A9F2
100
AcDbEntity
  8
1
  6
Continuous
100
AcDbLine
 10
326.154387
 20
187.8368319999999
 30
0.0
 11
326.4943859999998
 21
187.636832
 31
0.0
  0
LINE
  5
AC01
330
A9F2
100
AcDbEntity
  8
1
  6
Continuous
100
AcDbLine
 10
326.4943859999998
 20
187.636832
 30
0.0
 11
326.6643859999998
 21
187.5518309999999
 31
0.0
  0
LINE
  5
AC02
330
A9F2
100
AcDbEntity
  8
1
  6
Continuous
100
AcDbLine
 10
326.6643859999998
 20
187.5518309999999
 30
0.0
 11
326.8493859999999
 21
187.516831
 31
0.0
  0
ARC
  5
AC03
330
A9F2
100
AcDbEntity
  8
1
  6
Continuous
100
AcDbCircle
 10
324.033702
 20
189.5928699999998
 30
0.0
 40
2.042368999999998
100
AcDbArc
 50
199.8217079999998
 51
269.3178389999999
  0
LINE
  5
AC04
330
A9F2
100
AcDbEntity
  8
1
  6
Continuous
100
AcDbLine
 10
328.8493859999999
 20
187.496827
 30
0.0
 11
332.067714
 21
187.5611889999999
 31
0.0
  0
LINE
  5
AC05
330
A9F2
100
AcDbEntity
  8
1
  6
Continuous
100
AcDbLine
 10
327.689386
 20
187.506829
 30
0.0
 11
328.2843859999999
 21
187.486828
 31
0.0
  0
LINE
  5
AC06
330
A9F2
100
AcDbEntity
  8
1
  6
Continuous
100
AcDbLine
 10
328.2843859999999
 20
187.486828
 30
0.0
 11
328.8493859999999
 21
187.496827
 31
0.0
  0
ARC
  5
AC07
330
A9F2
100
AcDbEntity
  8
1
  6
Continuous
100
AcDbCircle
 10
323.2036309999998
 20
186.390343
 30
0.0
 40
3.979796999999998
100
AcDbArc
 50
78.50365399999998
 51
90.00024000000001
  0
LINE
  5
AC08
330
A9F2
100
AcDbEntity
  8
1
  6
Continuous
100
AcDbLine
 10
322.8118949999998
 20
191.80114
 30
0.0
 11
323.811893
 21
191.3701399999999
 31
0.0
  0
LINE
  5
AC09
330
A9F2
100
AcDbEntity
  8
1
  6
Continuous
100
AcDbLine
 10
322.811892
 20
190.3701439999999
 30
0.0
 11
323.811893
 21
191.3701399999999
 31
0.0
  0
LINE
  5
AC0A
330
A9F2
100
AcDbEntity
  8
1
  6
Continuous
100
AcDbLine
 10
323.811894
 20
191.8011379999999
 30
0.0
 11
323.811891
 21
190.3701419999999
 31
0.0
  0
LINE
  5
AC0B
330
A9F2
100
AcDbEntity
  8
1
  6
Continuous
100
AcDbLine
 10
323.811894
 20
191.8011379999999
 30
0.0
 11
323.811891
 21
190.3701419999999
 31
0.0
  0
LINE
  5
AC0C
330
A9F2
100
AcDbEntity
  8
1
  6
Continuous
100
AcDbLine
 10
321.3976819999999
 20
191.8011429999999
 30
0.0
 11
323.397675
 21
190.3701429999999
 31
0.0
  0
LINE
  5
AC0D
330
A9F2
100
AcDbEntity
  8
1
  6
Continuous
100
AcDbLine
 10
319.983468
 20
191.8011449999999
 30
0.0
 11
321.9834619999998
 21
190.370146
 31
0.0
  0
LINE
  5
AC0E
330
A9F2
100
AcDbEntity
  8
1
  6
Continuous
100
AcDbLine
 10
318.569255
 20
191.801148
 30
0.0
 11
320.569248
 21
190.370148
 31
0.0
  0
LINE
  5
AC0F
330
A9F2
100
AcDbEntity
  8
1
  6
Continuous
100
AcDbLine
 10
317.155041
 20
191.80115
 30
0.0
 11
319.1550349999999
 21
190.3701509999999
 31
0.0
  0
LINE
  5
AC10
330
A9F2
100
AcDbEntity
  8
1
  6
Continuous
100
AcDbLine
 10
321.9834649999999
 20
191.801142
 30
0.0
 11
319.9834649999999
 21
190.3701489999999
 31
0.0
  0
LINE
  5
AC11
330
A9F2
100
AcDbEntity
  8
1
  6
Continuous
100
AcDbLine
 10
319.1550379999998
 20
191.8011469999999
 30
0.0
 11
317.1550379999998
 21
190.370154
 31
0.0
  0
ARC
  5
AC12
330
A9F2
100
AcDbEntity
  8
1
  6
Continuous
100
AcDbCircle
 10
319.7608329999998
 20
193.2823699999999
 30
0.0
 40
2.5
100
AcDbArc
 50
10.14091799999998
 51
89.999899
  0
ARC
  5
AC13
330
A9F2
100
AcDbEntity
  8
1
  6
Continuous
100
AcDbCircle
 10
322.5314649999999
 20
192.765533
 30
0.0
 40
1.098799999999998
100
AcDbArc
 50
20.30606
 51
60.570374
  0
ARC
  5
AC14
330
A9F2
100
AcDbEntity
  8
1
  6
Continuous
100
AcDbCircle
 10
321.2136029999999
 20
193.477746
 30
0.0
 40
2.371570999999998
100
AcDbArc
 50
319.9594929999999
 51
351.979688
  0
LINE
  5
AC15
330
A9F2
100
AcDbEntity
  8
1
  6
Continuous
100
AcDbLine
 10
305.841333
 20
191.8011699999999
 30
0.0
 11
307.841326
 21
190.3701709999999
 31
0.0
  0
LINE
  5
AC16
330
A9F2
100
AcDbEntity
  8
1
  6
Continuous
100
AcDbLine
 10
307.8413289999998
 20
191.801167
 30
0.0
 11
305.8413299999999
 21
190.3701739999999
 31
0.0
  0
LINE
  5
AC17
330
A9F2
100
AcDbEntity
  8
1
  6
Continuous
100
AcDbLine
 10
307.2555459999999
 20
191.801168
 30
0.0
 11
309.25554
 21
190.370168
 31
0.0
  0
LINE
  5
AC18
330
A9F2
100
AcDbEntity
  8
1
  6
Continuous
100
AcDbLine
 10
311.4981869999998
 20
191.8011599999999
 30
0.0
 11
313.4981799999998
 21
190.370161
 31
0.0
  0
LINE
  5
AC19
330
A9F2
100
AcDbEntity
  8
1
  6
Continuous
100
AcDbLine
 10
313.498183
 20
191.8011569999999
 30
0.0
 11
311.498184
 21
190.3701639999999
 31
0.0
  0
LINE
  5
AC1A
330
A9F2
100
AcDbEntity
  8
1
  6
Continuous
100
AcDbLine
 10
312.9124009999998
 20
191.8011579999999
 30
0.0
 11
314.9123939999999
 21
190.370158
 31
0.0
  0
LINE
  5
AC1B
330
A9F2
100
AcDbEntity
  8
1
  6
Continuous
100
AcDbLine
 10
310.083973
 20
191.801163
 30
0.0
 11
312.0839669999999
 21
190.370163
 31
0.0
  0
LINE
  5
AC1C
330
A9F2
100
AcDbEntity
  8
1
  6
Continuous
100
AcDbLine
 10
308.6697599999999
 20
191.801165
 30
0.0
 11
310.6697529999999
 21
190.3701659999999
 31
0.0
  0
LINE
  5
AC1D
330
A9F2
100
AcDbEntity
  8
1
  6
Continuous
100
AcDbLine
 10
310.669756
 20
191.801162
 30
0.0
 11
308.669757
 21
190.370169
 31
0.0
  0
LINE
  5
AC1E
330
A9F2
100
AcDbEntity
  8
1
  6
Continuous
100
AcDbLine
 10
304.4271189999999
 20
191.801173
 30
0.0
 11
306.4271129999998
 21
190.3701729999999
 31
0.0
  0
LINE
  5
AC1F
330
A9F2
100
AcDbEntity
  8
1
  6
Continuous
100
AcDbLine
 10
303.012906
 20
191.8011749999998
 30
0.0
 11
305.012899
 21
190.3701759999999
 31
0.0
  0
LINE
  5
AC20
330
A9F2
100
AcDbEntity
  8
1
  6
Continuous
100
AcDbLine
 10
301.5986919999999
 20
191.801178
 30
0.0
 11
303.598685
 21
190.370178
 31
0.0
  0
LINE
  5
AC21
330
A9F2
100
AcDbEntity
  8
1
  6
Continuous
100
AcDbLine
 10
300.1844779999998
 20
191.80118
 30
0.0
 11
302.184472
 21
190.370181
 31
0.0
  0
LINE
  5
AC22
330
A9F2
100
AcDbEntity
  8
1
  6
Continuous
100
AcDbLine
 10
305.0129019999999
 20
191.801172
 30
0.0
 11
303.0129029999999
 21
190.370179
 31
0.0
  0
LINE
  5
AC23
330
A9F2
100
AcDbEntity
  8
1
  6
Continuous
100
AcDbLine
 10
302.184475
 20
191.8011769999999
 30
0.0
 11
300.184475
 21
190.370184
 31
0.0
  0
ARC
  5
AC24
330
A9F2
100
AcDbEntity
  8
1
  6
Continuous
100
AcDbCircle
 10
315.5618099999998
 20
200.1824959999999
 30
0.0
 40
1.5
100
AcDbArc
 50
269.999899
 51
359.999899
  0
LINE
  5
AC25
330
A9F2
100
AcDbEntity
  8
1
  6
Continuous
100
AcDbLine
 10
292.9019009999998
 20
195.782418
 30
0.0
 11
292.9019059999999
 21
198.682536
 31
0.0
  0
ARC
  5
AC26
330
A9F2
100
AcDbEntity
  8
1
  6
Continuous
100
AcDbCircle
 10
294.1822509999998
 20
178.1439839999999
 30
0.0
 40
5.502905999999999
100
AcDbArc
 50
45.95289699999999
 51
89.999899
  0
LINE
  5
AC27
330
A9F2
100
AcDbEntity
  8
1
  6
Continuous
100
AcDbLine
 10
290.3763789999998
 20
183.586895
 30
0.0
 11
290.599379
 21
183.646895
 31
0.0
  0
LINE
  5
AC28
330
A9F2
100
AcDbEntity
  8
1
  6
Continuous
100
AcDbLine
 10
290.599379
 20
183.646895
 30
0.0
 11
294.18226
 21
183.6468889999999
 31
0.0
  0
LINE
  5
AC29
330
A9F2
100
AcDbEntity
  8
1
  6
Continuous
100
AcDbLine
 10
288.9623789999999
 20
183.6742369999998
 30
0.0
 11
289.711379
 21
183.631897
 31
0.0
  0
ARC
  5
AC2A
330
A9F2
100
AcDbEntity
  8
1
  6
Continuous
100
AcDbCircle
 10
291.7813719999998
 20
187.7888629999999
 30
0.0
 40
2.732905
100
AcDbArc
 50
109.1777379999999
 51
179.9998989999999
  0
LINE
  5
AC2B
330
A9F2
100
AcDbEntity
  8
1
  6
Continuous
100
AcDbLine
 10
289.711379
 20
183.631897
 30
0.0
 11
290.3763789999998
 21
183.586895
 31
0.0
  0
LINE
  5
AC2C
330
A9F2
100
AcDbEntity
  8
1
  6
Continuous
100
AcDbLine
 10
288.9623789999999
 20
183.6742369999998
 30
0.0
 11
288.711879
 21
183.6742369999998
 31
0.0
  0
LINE
  5
AC2D
330
A9F2
100
AcDbEntity
  8
1
  6
Continuous
100
AcDbLine
 10
288.711879
 20
183.6742369999998
 30
0.0
 11
289.048466
 21
187.7888679999998
 31
0.0
  0
LINE
  5
AC2E
330
A9F2
100
AcDbEntity
  8
1
  6
Continuous
100
AcDbLine
 10
291.3118929999999
 20
191.343286
 30
0.0
 11
292.284977
 21
190.3701979999999
 31
0.0
  0
LINE
  5
AC2F
330
A9F2
100
AcDbEntity
  8
1
  6
Continuous
100
AcDbLine
 10
295.9418379999998
 20
191.8011879999999
 30
0.0
 11
297.9418309999999
 21
190.3701879999999
 31
0.0
  0
LINE
  5
AC30
330
A9F2
100
AcDbEntity
  8
1
  6
Continuous
100
AcDbLine
 10
297.356051
 20
191.801185
 30
0.0
 11
299.356045
 21
190.3701859999999
 31
0.0
  0
LINE
  5
AC31
330
A9F2
100
AcDbEntity
  8
1
  6
Continuous
100
AcDbLine
 10
299.3560479999998
 20
191.801182
 30
0.0
 11
297.3560479999998
 21
190.3701889999999
 31
0.0
  0
LINE
  5
AC32
330
A9F2
100
AcDbEntity
  8
1
  6
Continuous
100
AcDbLine
 10
294.527624
 20
191.8011899999999
 30
0.0
 11
296.527618
 21
190.370191
 31
0.0
  0
LINE
  5
AC33
330
A9F2
100
AcDbEntity
  8
1
  6
Continuous
100
AcDbLine
 10
296.527621
 20
191.8011869999999
 30
0.0
 11
294.527621
 21
190.3701939999999
 31
0.0
  0
LINE
  5
AC34
330
A9F2
100
AcDbEntity
  8
1
  6
Continuous
100
AcDbLine
 10
293.1134109999998
 20
191.8011929999999
 30
0.0
 11
295.1134039999999
 21
190.370193
 31
0.0
  0
LINE
  5
AC35
330
A9F2
100
AcDbEntity
  8
1
  6
Continuous
100
AcDbLine
 10
291.6991970000001
 20
191.801195
 30
0.0
 11
293.6991909999999
 21
190.370196
 31
0.0
  0
LINE
  5
AC36
330
A9F2
100
AcDbEntity
  8
1
  6
Continuous
100
AcDbLine
 10
293.699194
 20
191.8011919999999
 30
0.0
 11
291.6991939999999
 21
190.3701989999999
 31
0.0
  0
LINE
  5
AC37
330
A9F2
100
AcDbEntity
  8
1
  6
Continuous
100
AcDbLine
 10
291.311894
 20
191.801196
 30
0.0
 11
291.311891
 21
190.370006
 31
0.0
  0
LINE
  5
AC38
330
A9F2
100
AcDbEntity
  8
1
  6
Continuous
100
AcDbLine
 10
291.311894
 20
191.801196
 30
0.0
 11
291.311891
 21
190.3702
 31
0.0
  0
ARC
  5
AC39
330
A9F2
100
AcDbEntity
  8
1
  6
Continuous
100
AcDbCircle
 10
295.36272
 20
193.2824139999999
 30
0.0
 40
2.5
100
AcDbArc
 50
89.999899
 51
169.85888
  0
ARC
  5
AC3A
330
A9F2
100
AcDbEntity
  8
1
  6
Continuous
100
AcDbCircle
 10
292.5921269999999
 20
192.7655849999999
 30
0.0
 40
1.098799999999998
100
AcDbArc
 50
119.4294239999999
 51
159.6937379999999
  0
ARC
  5
AC3B
330
A9F2
100
AcDbEntity
  8
1
  6
Continuous
100
AcDbCircle
 10
293.9099919999998
 20
193.477794
 30
0.0
 40
2.371570999999998
100
AcDbArc
 50
188.0201099999999
 51
220.0403049999999
  0
ARC
  5
AC3C
330
A9F2
100
AcDbEntity
  8
1
  6
Continuous
100
AcDbCircle
 10
299.5618099999999
 20
200.182524
 30
0.0
 40
1.5
100
AcDbArc
 50
179.9998989999999
 51
269.999899
  0
LINE
  5
AC3D
330
A9F2
100
AcDbEntity
  8
1
  6
Continuous
100
AcDbLine
 10
316.8119659999999
 20
232.6824939999999
 30
0.0
 11
298.3119659999999
 21
232.6825259999999
 31
0.0
  0
LINE
  5
AC3E
330
A9F2
100
AcDbEntity
  8
1
  6
Continuous
100
AcDbLine
 10
298.0618609999999
 20
229.482527
 30
0.0
 11
317.0618609999999
 21
229.482493
 31
0.0
  0
LINE
  5
AC3F
330
A9F2
100
AcDbEntity
  8
1
  6
Continuous
100
AcDbLine
 10
316.81196
 20
229.482494
 30
0.0
 11
316.8119659999999
 21
232.6824939999999
 31
0.0
  0
LINE
  5
AC40
330
A9F2
100
AcDbEntity
  8
1
  6
Continuous
100
AcDbLine
 10
303.378666
 20
232.6825169999999
 30
0.0
 11
303.37866
 21
229.482517
 31
0.0
  0
LINE
  5
AC41
330
A9F2
100
AcDbEntity
  8
1
  6
Continuous
100
AcDbLine
 10
311.745266
 20
232.6825029999999
 30
0.0
 11
311.74526
 21
229.4825029999998
 31
0.0
  0
LINE
  5
AC42
330
A9F2
100
AcDbEntity
  8
1
  6
Continuous
100
AcDbLine
 10
303.561887
 20
233.182517
 30
0.0
 11
305.0618899999999
 21
234.682514
 31
0.0
  0
LINE
  5
AC43
330
A9F2
100
AcDbEntity
  8
1
  6
Continuous
100
AcDbLine
 10
303.561847
 20
232.6825169999999
 30
0.0
 11
303.561848
 21
233.182517
 31
0.0
  0
LINE
  5
AC44
330
A9F2
100
AcDbEntity
  8
2
  6
Continuous
100
AcDbLine
 10
304.2383689999998
 20
233.858997
 30
0.0
 11
304.2383669999999
 21
232.6825159999999
 31
0.0
  0
LINE
  5
AC45
330
A9F2
100
AcDbEntity
  8
1
  6
Continuous
100
AcDbLine
 10
311.561848
 20
233.1825029999999
 30
0.0
 11
310.0618509999998
 21
234.682506
 31
0.0
  0
LINE
  5
AC46
330
A9F2
100
AcDbEntity
  8
1
  6
Continuous
100
AcDbLine
 10
311.561847
 20
232.6825029999999
 30
0.0
 11
311.561848
 21
233.1825029999999
 31
0.0
  0
LINE
  5
AC47
330
A9F2
100
AcDbEntity
  8
2
  6
Continuous
100
AcDbLine
 10
310.8853689999999
 20
233.858984
 30
0.0
 11
310.8853669999998
 21
232.682504
 31
0.0
  0
LINE
  5
AC48
330
A9F2
100
AcDbEntity
  8
1
  6
Continuous
100
AcDbLine
 10
303.561848
 20
233.182517
 30
0.0
 11
311.561848
 21
233.1825029999999
 31
0.0
  0
LINE
  5
AC49
330
A9F2
100
AcDbEntity
  8
1
  6
Continuous
100
AcDbLine
 10
305.0618899999999
 20
234.682514
 30
0.0
 11
310.0618509999998
 21
234.682506
 31
0.0
  0
LINE
  5
AC4A
330
A9F2
100
AcDbEntity
  8
1
  6
Continuous
100
AcDbLine
 10
298.31196
 20
229.4825259999999
 30
0.0
 11
298.3119659999999
 21
232.6825259999999
 31
0.0
  0
CIRCLE
  5
AC4B
330
A9F2
100
AcDbEntity
  8
1
  6
Continuous
100
AcDbCircle
 10
326.5618329999999
 20
157.68204
 30
0.0
 40
4.25
  0
ARC
  5
AC4C
330
A9F2
100
AcDbEntity
  8
1
  6
Continuous
100
AcDbCircle
 10
152.164619
 20
296.634862
 30
0.0
 40
18.85
100
AcDbArc
 50
236.2759829999999
 51
123.7240169999999
  0
ARC
  5
AC4D
330
A9F2
100
AcDbEntity
  8
1
  6
Continuous
100
AcDbCircle
 10
143.165027
 20
296.634862
 30
0.0
 40
35.0
100
AcDbArc
 50
165.301576
 51
194.698424
  0
ARC
  5
AC4E
330
A9F2
100
AcDbEntity
  8
1
  6
Continuous
100
AcDbCircle
 10
110.761324
 20
305.134862
 30
0.0
 40
1.5
100
AcDbArc
 50
90.0
 51
165.301576
  0
ARC
  5
AC4F
330
A9F2
100
AcDbEntity
  8
1
  6
Continuous
100
AcDbCircle
 10
110.761324
 20
288.134862
 30
0.0
 40
1.5
100
AcDbArc
 50
194.698424
 51
270.0
  0
CIRCLE
  5
AC50
330
A9F2
100
AcDbEntity
  8
2
  6
Continuous
100
AcDbCircle
 10
152.164619
 20
296.634862
 30
0.0
 40
3.3235
  0
CIRCLE
  5
AC51
330
A9F2
100
AcDbEntity
  8
1
  6
Continuous
100
AcDbCircle
 10
152.164619
 20
296.634862
 30
0.0
 40
2.499874
  0
ARC
  5
AC52
330
A9F2
100
AcDbEntity
  8
1
  6
Continuous
100
AcDbCircle
 10
137.8132369999999
 20
91.50985199999999
 30
0.0
 40
7.0
100
AcDbArc
 50
270.0
 51
303.723059
  0
ARC
  5
AC53
330
A9F2
100
AcDbEntity
  8
1
  6
Continuous
100
AcDbCircle
 10
137.8128769999999
 20
91.50961200000001
 30
0.0
 40
9.0
100
AcDbArc
 50
270.0
 51
303.724017
  0
ARC
  5
AC54
330
A9F2
100
AcDbEntity
  8
1
  6
Continuous
100
AcDbCircle
 10
137.8128769999999
 20
48.509612
 30
0.0
 40
9.0
100
AcDbArc
 50
56.27598299999999
 51
90.0
  0
ARC
  5
AC55
330
A9F2
100
AcDbEntity
  8
1
  6
Continuous
100
AcDbCircle
 10
137.8132369999999
 20
48.509372
 30
0.0
 40
7.0
100
AcDbArc
 50
56.276941
 51
90.0
  0
ARC
  5
AC56
330
A9F2
100
AcDbEntity
  8
1
  6
Continuous
100
AcDbCircle
 10
137.8128769999999
 20
318.134862
 30
0.0
 40
7.0
100
AcDbArc
 50
270.0
 51
303.724017
  0
ARC
  5
AC57
330
A9F2
100
AcDbEntity
  8
1
  6
Continuous
100
AcDbCircle
 10
137.8128769999999
 20
275.1348619999999
 30
0.0
 40
7.0
100
AcDbArc
 50
56.27598299999999
 51
90.0
  0
ARC
  5
AC58
330
A9F2
100
AcDbEntity
  8
1
  6
Continuous
100
AcDbCircle
 10
156.167527
 20
70.009612
 30
0.0
 40
30.0
100
AcDbArc
 50
155.375682
 51
157.4596899999999
  0
ARC
  5
AC59
330
A9F2
100
AcDbEntity
  8
1
  6
Continuous
100
AcDbCircle
 10
156.167527
 20
70.009612
 30
0.0
 40
30.0
100
AcDbArc
 50
202.54031
 51
204.6243179999999
  0
ENDSEC
  0
SECTION
  2
OBJECTS
  0
DICTIONARY
  5
A9E0
330
0
100
AcDbDictionary
281
     1
  3
ACAD_CIP_PREVIOUS_PRODUCT_INFO
350
ACBB
  3
ACAD_COLOR
350
AC9D
  3
ACAD_DETAILVIEWSTYLE
350
ACB6
  3
ACAD_GROUP
350
A9E1
  3
ACAD_LAYOUT
350
A9ED
  3
ACAD_MATERIAL
350
AC6B
  3
ACAD_MLEADERSTYLE
350
ACB2
  3
ACAD_MLINESTYLE
350
A9EA
  3
ACAD_PLOTSETTINGS
350
A9EC
  3
ACAD_PLOTSTYLENAME
350
AC69
  3
ACAD_SCALELIST
350
ACA0
  3
ACAD_SECTIONVIEWSTYLE
350
ACB4
  3
ACAD_TABLESTYLE
350
AC9E
  3
ACAD_VISUALSTYLE
350
AC84
  3
ACDB_RECOMPOSE_DATA
350
ACD9
  3
AcDbVariableDictionary
350
ACCC
  3
DWGPROPS
350
ACDA
  0
DICTIONARY
  5
ACBC
330
A9E4
100
AcDbDictionary
280
     1
281
     1
  3
ADSK_XREC_LAYER_RECONCILED
360
ACBD
  0
DICTIONARY
  5
ACBE
330
A9FA
100
AcDbDictionary
280
     1
281
     1
  3
ADSK_XREC_LAYER_RECONCILED
360
ACBF
  0
DICTIONARY
  5
ACC0
330
A9FB
100
AcDbDictionary
280
     1
281
     1
  3
ADSK_XREC_LAYER_RECONCILED
360
ACC1
  0
DICTIONARY
  5
ACC2
330
A9FC
100
AcDbDictionary
280
     1
281
     1
  3
ADSK_XREC_LAYER_RECONCILED
360
ACC3
  0
DICTIONARY
  5
ACC4
330
A9FD
100
AcDbDictionary
280
     1
281
     1
  3
ADSK_XREC_LAYER_RECONCILED
360
ACC5
  0
DICTIONARY
  5
ACC6
330
A9FE
100
AcDbDictionary
280
     1
281
     1
  3
ADSK_XREC_LAYER_RECONCILED
360
ACC7
  0
DICTIONARY
  5
ACC8
330
A9FF
100
AcDbDictionary
280
     1
281
     1
  3
ADSK_XREC_LAYER_RECONCILED
360
ACC9
  0
DICTIONARY
  5
ACCA
330
AA00
100
AcDbDictionary
280
     1
281
     1
  3
ADSK_XREC_LAYER_RECONCILED
360
ACCB
  0
DICTIONARY
  5
AC64
330
A9F2
100
AcDbDictionary
281
     1
  3
ACAD_LAYOUTSELFREF
350
AC65
  0
DICTIONARY
  5
AC62
330
A9EE
100
AcDbDictionary
281
     1
  3
ACAD_LAYOUTSELFREF
350
AC63
  0
XRECORD
  5
ACBB
102
{ACAD_REACTORS
330
A9E0
102
}
330
A9E0
100
AcDbXrecord
280
     1
300
ACDLT
300
2014
300
ACDLT_F_S
  0
DICTIONARY
  5
AC9D
102
{ACAD_REACTORS
330
A9E0
102
}
330
A9E0
100
AcDbDictionary
281
     1
  0
DICTIONARY
  5
ACB6
102
{ACAD_REACTORS
330
A9E0
102
}
330
A9E0
100
AcDbDictionary
281
     1
  3
Imperial24
350
ACB7
  0
DICTIONARY
  5
A9E1
102
{ACAD_REACTORS
330
A9E0
102
}
330
A9E0
100
AcDbDictionary
281
     1
  0
DICTIONARY
  5
A9ED
102
{ACAD_REACTORS
330
A9E0
102
}
330
A9E0
100
AcDbDictionary
281
     1
  3
Model
350
ACB8
  3
レイアウト1
350
ACB9
  0
DICTIONARY
  5
AC6B
102
{ACAD_REACTORS
330
A9E0
102
}
330
A9E0
100
AcDbDictionary
281
     1
  3
ByBlock
350
AC74
  3
ByLayer
350
AC6C
  3
Global
350
AC7C
  0
DICTIONARY
  5
ACB2
102
{ACAD_REACTORS
330
A9E0
102
}
330
A9E0
100
AcDbDictionary
281
     1
  3
Standard
350
ACB3
  0
DICTIONARY
  5
A9EA
102
{ACAD_REACTORS
330
A9E0
102
}
330
A9E0
100
AcDbDictionary
281
     1
  3
STANDARD
350
A9EB
  0
DICTIONARY
  5
A9EC
102
{ACAD_REACTORS
330
A9E0
102
}
330
A9E0
100
AcDbDictionary
281
     1
  0
ACDBDICTIONARYWDFLT
  5
AC69
102
{ACAD_REACTORS
330
A9E0
102
}
330
A9E0
100
AcDbDictionary
281
     1
  3
Normal
350
AC6A
100
AcDbDictionaryWithDefault
340
AC6A
  0
DICTIONARY
  5
ACA0
102
{ACAD_REACTORS
330
A9E0
102
}
330
A9E0
100
AcDbDictionary
281
     1
  3
A0
350
ACA1
  3
A1
350
ACA2
  3
A2
350
ACA3
  3
A3
350
ACA4
  3
A4
350
ACA5
  3
A5
350
ACA6
  3
A6
350
ACA7
  3
A7
350
ACA8
  3
A8
350
ACA9
  3
A9
350
ACAA
  3
B0
350
ACAB
  3
B1
350
ACAC
  3
B2
350
ACAD
  3
B3
350
ACAE
  3
B4
350
ACAF
  3
B5
350
ACB0
  3
B6
350
ACB1
  0
DICTIONARY
  5
ACB4
102
{ACAD_REACTORS
330
A9E0
102
}
330
A9E0
100
AcDbDictionary
281
     1
  3
Imperial24
350
ACB5
  0
DICTIONARY
  5
AC9E
102
{ACAD_REACTORS
330
A9E0
102
}
330
A9E0
100
AcDbDictionary
281
     1
  3
Standard
350
AC9F
  0
DICTIONARY
  5
AC84
102
{ACAD_REACTORS
330
A9E0
102
}
330
A9E0
100
AcDbDictionary
281
     1
  3
2dWireframe
350
AC8A
  3
Basic
350
AC89
  3
Brighten
350
AC90
  3
ColorChange
350
AC94
  3
Conceptual
350
AC8D
  3
Dim
350
AC8F
  3
EdgeColorOff
350
AC9C
  3
Facepattern
350
AC93
  3
Flat
350
AC85
  3
FlatWithEdges
350
AC86
  3
Gouraud
350
AC87
  3
GouraudWithEdges
350
AC88
  3
Hidden
350
AC8C
  3
JitterOff
350
AC9A
  3
Linepattern
350
AC92
  3
OverhangOff
350
AC9B
  3
Realistic
350
AC8E
  3
Shaded
350
AC99
  3
Shaded with edges
350
AC98
  3
Shades of Gray
350
AC95
  3
Sketchy
350
AC96
  3
Thicken
350
AC91
  3
Wireframe
350
AC8B
  3
X-Ray
350
AC97
  0
XRECORD
  5
ACD9
102
{ACAD_REACTORS
330
A9E0
102
}
330
A9E0
100
AcDbXrecord
280
     1
 90
        1
330
AC9F
  0
DICTIONARY
  5
ACCC
102
{ACAD_REACTORS
330
A9E0
102
}
330
A9E0
100
AcDbDictionary
281
     1
  3
CANNOSCALE
350
ACD1
  3
CMLEADERSTYLE
350
ACCE
  3
CTABLESTYLE
350
ACCD
  3
CVIEWDETAILSTYLE
350
ACCF
  3
CVIEWSECTIONSTYLE
350
ACD0
  3
DIMASSOC
350
ACD4
  3
INDEXCTL
350
ACD3
  3
SORTENTS
350
ACD2
  3
XCLIPFRAME
350
ACD5
  0
XRECORD
  5
ACDA
102
{ACAD_REACTORS
330
A9E0
102
}
330
A9E0
100
AcDbXrecord
280
     1
  1
DWGPROPS COOKIE
  2

  3

  4

  6

  7

  8
Yoshitsune
  9

300
=
301
=
302
=
303
=
304
=
305
=
306
=
307
=
308
=
309
=
 40
0.0000099421296296
 41
2451302.655420602
 42
2457192.68769316
  1

 90
        0
  0
XRECORD
  5
ACBD
102
{ACAD_REACTORS
330
ACBC
102
}
330
ACBC
100
AcDbXrecord
280
     1
290
     1
  0
XRECORD
  5
ACBF
102
{ACAD_REACTORS
330
ACBE
102
}
330
ACBE
100
AcDbXrecord
280
     1
290
     1
  0
XRECORD
  5
ACC1
102
{ACAD_REACTORS
330
ACC0
102
}
330
ACC0
100
AcDbXrecord
280
     1
290
     1
  0
XRECORD
  5
ACC3
102
{ACAD_REACTORS
330
ACC2
102
}
330
ACC2
100
AcDbXrecord
280
     1
290
     1
  0
XRECORD
  5
ACC5
102
{ACAD_REACTORS
330
ACC4
102
}
330
ACC4
100
AcDbXrecord
280
     1
290
     1
  0
XRECORD
  5
ACC7
102
{ACAD_REACTORS
330
ACC6
102
}
330
ACC6
100
AcDbXrecord
280
     1
290
     1
  0
XRECORD
  5
ACC9
102
{ACAD_REACTORS
330
ACC8
102
}
330
ACC8
100
AcDbXrecord
280
     1
290
     1
  0
XRECORD
  5
ACCB
102
{ACAD_REACTORS
330
ACCA
102
}
330
ACCA
100
AcDbXrecord
280
     1
290
     1
  0
XRECORD
  5
AC65
102
{ACAD_REACTORS
330
AC64
102
}
330
AC64
100
AcDbXrecord
280
     1
340
A9F2
  0
XRECORD
  5
AC63
102
{ACAD_REACTORS
330
AC62
102
}
330
AC62
100
AcDbXrecord
280
     1
340
A9EE
  0
ACDBDETAILVIEWSTYLE
  5
ACB7
102
{ACAD_XDICTIONARY
360
AD12
102
}
102
{ACAD_REACTORS
330
ACB6
102
}
330
ACB6
100
AcDbModelDocViewStyle
 70
     0
  3
Imperial24
290
     0
100
AcDbDetailViewStyle
 70
     0
 71
     0
 90
        3
 71
     1
340
A9E5
 40
0.24
340
0
 40
0.24
300

 40
0.36
280
     3
 71
     2
340
A9E9
 90
       25
 71
     3
340
A9E5
 40
0.24
 90
        1
 40
0.75
 90
        1
300
%<\AcVar ViewType \f "%tc1">% %<\AcVar ViewDetailId>%\PSCALE %<\AcVar ViewScale \f "%sn">%
 71
     4
340
A9E9
 90
       25
340
A9E9
 90
       25
280
     0
  0
LAYOUT
  5
ACB8
102
{ACAD_XDICTIONARY
360
AD14
102
}
102
{ACAD_REACTORS
330
A9ED
102
}
330
A9ED
100
AcDbPlotSettings
  1

  2
Canon LBP9100C
  4

  6

 40
0.0
 41
0.0
 42
0.0
 43
0.0
 44
0.0
 45
0.0
 46
0.0
 47
0.0
 48
0.0
 49
0.0
140
0.0
141
0.0
142
1.0
143
1.0
 70
  1712
 72
     0
 73
     0
 74
     0
  7

 75
     0
147
1.0
148
0.0
149
0.0
100
AcDbLayout
  1
Model
 70
     1
 71
     0
 10
0.0
 20
0.0
 11
12.0
 21
9.0
 12
0.0
 22
0.0
 32
0.0
 14
0.0
 24
0.0
 34
0.0
 15
0.0
 25
0.0
 35
0.0
146
0.0
 13
0.0
 23
0.0
 33
0.0
 16
1.0
 26
0.0
 36
0.0
 17
0.0
 27
1.0
 37
0.0
 76
     0
330
A9F2
331
AC61
  0
LAYOUT
  5
ACB9
102
{ACAD_XDICTIONARY
360
AD16
102
}
102
{ACAD_REACTORS
330
A9ED
102
}
330
A9ED
100
AcDbPlotSettings
  1

  2
Canon LBP9100C
  4

  6

 40
0.0
 41
0.0
 42
0.0
 43
0.0
 44
0.0
 45
0.0
 46
0.0
 47
0.0
 48
0.0
 49
0.0
140
0.0
141
0.0
142
1.0
143
1.0
 70
   688
 72
     0
 73
     0
 74
     5
  7

 75
    16
147
1.0
148
0.0
149
0.0
100
AcDbLayout
  1
レイアウト1
 70
     0
 71
     1
 10
0.0
 20
0.0
 11
420.0
 21
297.0
 12
0.0
 22
0.0
 32
0.0
 14
1.000000000000000E+20
 24
1.000000000000000E+20
 34
1.000000000000000E+20
 15
-1.000000000000000E+20
 25
-1.000000000000000E+20
 35
-1.000000000000000E+20
146
0.0
 13
0.0
 23
0.0
 33
0.0
 16
1.0
 26
0.0
 36
0.0
 17
0.0
 27
1.0
 37
0.0
 76
     0
330
A9EE
  0
MATERIAL
  5
AC74
102
{ACAD_XDICTIONARY
360
AC75
102
}
102
{ACAD_REACTORS
330
AC6B
102
}
330
AC6B
100
AcDbMaterial
  1
ByBlock
 72
     0
 43
0.0208333333333333
 43
0.0
 43
0.0
 43
0.0
 43
0.0
 43
0.0208333333333333
 43
0.0
 43
0.0
 43
0.0
 43
0.0
 43
1.0
 43
0.0
 43
0.0
 43
0.0
 43
0.0
 43
1.0
 77
     0
 47
0.0208333333333333
 47
0.0
 47
0.0
 47
0.0
 47
0.0
 47
0.0208333333333333
 47
0.0
 47
0.0
 47
0.0
 47
0.0
 47
1.0
 47
0.0
 47
0.0
 47
0.0
 47
0.0
 47
1.0
171
     0
 49
0.0208333333333333
 49
0.0
 49
0.0
 49
0.0
 49
0.0
 49
0.0208333333333333
 49
0.0
 49
0.0
 49
0.0
 49
0.0
 49
1.0
 49
0.0
 49
0.0
 49
0.0
 49
0.0
 49
1.0
175
     0
142
0.0208333333333333
142
0.0
142
0.0
142
0.0
142
0.0
142
0.0208333333333333
142
0.0
142
0.0
142
0.0
142
0.0
142
1.0
142
0.0
142
0.0
142
0.0
142
0.0
142
1.0
179
     0
144
0.0208333333333333
144
0.0
144
0.0
144
0.0
144
0.0
144
0.0208333333333333
144
0.0
144
0.0
144
0.0
144
0.0
144
1.0
144
0.0
144
0.0
144
0.0
144
0.0
144
1.0
147
0.0208333333333333
147
0.0
147
0.0
147
0.0
147
0.0
147
0.0208333333333333
147
0.0
147
0.0
147
0.0
147
0.0
147
1.0
147
0.0
147
0.0
147
0.0
147
0.0
147
1.0
  0
MATERIAL
  5
AC6C
102
{ACAD_XDICTIONARY
360
AC6D
102
}
102
{ACAD_REACTORS
330
AC6B
102
}
330
AC6B
100
AcDbMaterial
  1
ByLayer
 72
     0
 43
0.0208333333333333
 43
0.0
 43
0.0
 43
0.0
 43
0.0
 43
0.0208333333333333
 43
0.0
 43
0.0
 43
0.0
 43
0.0
 43
1.0
 43
0.0
 43
0.0
 43
0.0
 43
0.0
 43
1.0
 77
     0
 47
0.0208333333333333
 47
0.0
 47
0.0
 47
0.0
 47
0.0
 47
0.0208333333333333
 47
0.0
 47
0.0
 47
0.0
 47
0.0
 47
1.0
 47
0.0
 47
0.0
 47
0.0
 47
0.0
 47
1.0
171
     0
 49
0.0208333333333333
 49
0.0
 49
0.0
 49
0.0
 49
0.0
 49
0.0208333333333333
 49
0.0
 49
0.0
 49
0.0
 49
0.0
 49
1.0
 49
0.0
 49
0.0
 49
0.0
 49
0.0
 49
1.0
175
     0
142
0.0208333333333333
142
0.0
142
0.0
142
0.0
142
0.0
142
0.0208333333333333
142
0.0
142
0.0
142
0.0
142
0.0
142
1.0
142
0.0
142
0.0
142
0.0
142
0.0
142
1.0
179
     0
144
0.0208333333333333
144
0.0
144
0.0
144
0.0
144
0.0
144
0.0208333333333333
144
0.0
144
0.0
144
0.0
144
0.0
144
1.0
144
0.0
144
0.0
144
0.0
144
0.0
144
1.0
147
0.0208333333333333
147
0.0
147
0.0
147
0.0
147
0.0
147
0.0208333333333333
147
0.0
147
0.0
147
0.0
147
0.0
147
1.0
147
0.0
147
0.0
147
0.0
147
0.0
147
1.0
  0
MATERIAL
  5
AC7C
102
{ACAD_XDICTIONARY
360
AC7D
102
}
102
{ACAD_REACTORS
330
AC6B
102
}
330
AC6B
100
AcDbMaterial
  1
Global
 72
     0
 43
0.0208333333333333
 43
0.0
 43
0.0
 43
0.0
 43
0.0
 43
0.0208333333333333
 43
0.0
 43
0.0
 43
0.0
 43
0.0
 43
1.0
 43
0.0
 43
0.0
 43
0.0
 43
0.0
 43
1.0
 77
     0
 47
0.0208333333333333
 47
0.0
 47
0.0
 47
0.0
 47
0.0
 47
0.0208333333333333
 47
0.0
 47
0.0
 47
0.0
 47
0.0
 47
1.0
 47
0.0
 47
0.0
 47
0.0
 47
0.0
 47
1.0
171
     0
 49
0.0208333333333333
 49
0.0
 49
0.0
 49
0.0
 49
0.0
 49
0.0208333333333333
 49
0.0
 49
0.0
 49
0.0
 49
0.0
 49
1.0
 49
0.0
 49
0.0
 49
0.0
 49
0.0
 49
1.0
175
     0
142
0.0208333333333333
142
0.0
142
0.0
142
0.0
142
0.0
142
0.0208333333333333
142
0.0
142
0.0
142
0.0
142
0.0
142
1.0
142
0.0
142
0.0
142
0.0
142
0.0
142
1.0
179
     0
144
0.0208333333333333
144
0.0
144
0.0
144
0.0
144
0.0
144
0.0208333333333333
144
0.0
144
0.0
144
0.0
144
0.0
144
1.0
144
0.0
144
0.0
144
0.0
144
0.0
144
1.0
147
0.0208333333333333
147
0.0
147
0.0
147
0.0
147
0.0
147
0.0208333333333333
147
0.0
147
0.0
147
0.0
147
0.0
147
1.0
147
0.0
147
0.0
147
0.0
147
0.0
147
1.0
  0
MLEADERSTYLE
  5
ACB3
102
{ACAD_REACTORS
330
ACB2
102
}
330
ACB2
100
AcDbMLeaderStyle
170
     2
171
     1
172
     0
 90
        2
 40
0.0
 41
0.0
173
     1
 91
-1056964608
340
A9E7
 92
       -2
290
     1
 42
0.09
291
     1
 43
0.36
  3
Standard
 44
0.18
300

342
A9E5
174
     1
178
     6
175
     1
176
     0
 93
-1056964608
 45
0.18
292
     0
297
     0
 46
0.18
 94
-1056964608
 47
1.0
 49
1.0
140
1.0
293
     1
141
0.0
294
     1
177
     0
142
1.0
295
     0
296
     0
143
0.125
1001
ACAD_MLEADERVER
1070
     2
  0
MLINESTYLE
  5
A9EB
102
{ACAD_REACTORS
330
A9EA
102
}
330
A9EA
100
AcDbMlineStyle
  2
STANDARD
 70
     0
  3

 62
   256
 51
90.0
 52
90.0
 71
     2
 49
0.5
 62
   256
  6
BYLAYER
 49
-0.5
 62
   256
  6
BYLAYER
  0
ACDBPLACEHOLDER
  5
AC6A
102
{ACAD_REACTORS
330
AC69
102
}
330
AC69
  0
SCALE
  5
ACA1
102
{ACAD_REACTORS
330
ACA0
102
}
330
ACA0
100
AcDbScale
 70
     0
300
1:1
140
1.0
141
1.0
290
     1
  0
SCALE
  5
ACA2
102
{ACAD_REACTORS
330
ACA0
102
}
330
ACA0
100
AcDbScale
 70
     0
300
1/128" = 1'-0"
140
0.0078125
141
12.0
290
     0
  0
SCALE
  5
ACA3
102
{ACAD_REACTORS
330
ACA0
102
}
330
ACA0
100
AcDbScale
 70
     0
300
1/64" = 1'-0"
140
0.015625
141
12.0
290
     0
  0
SCALE
  5
ACA4
102
{ACAD_REACTORS
330
ACA0
102
}
330
ACA0
100
AcDbScale
 70
     0
300
1/32" = 1'-0"
140
0.03125
141
12.0
290
     0
  0
SCALE
  5
ACA5
102
{ACAD_REACTORS
330
ACA0
102
}
330
ACA0
100
AcDbScale
 70
     0
300
1/16" = 1'-0"
140
0.0625
141
12.0
290
     0
  0
SCALE
  5
ACA6
102
{ACAD_REACTORS
330
ACA0
102
}
330
ACA0
100
AcDbScale
 70
     0
300
3/32" = 1'-0"
140
0.09375
141
12.0
290
     0
  0
SCALE
  5
ACA7
102
{ACAD_REACTORS
330
ACA0
102
}
330
ACA0
100
AcDbScale
 70
     0
300
1/8" = 1'-0"
140
0.125
141
12.0
290
     0
  0
SCALE
  5
ACA8
102
{ACAD_REACTORS
330
ACA0
102
}
330
ACA0
100
AcDbScale
 70
     0
300
3/16" = 1'-0"
140
0.1875
141
12.0
290
     0
  0
SCALE
  5
ACA9
102
{ACAD_REACTORS
330
ACA0
102
}
330
ACA0
100
AcDbScale
 70
     0
300
1/4" = 1'-0"
140
0.25
141
12.0
290
     0
  0
SCALE
  5
ACAA
102
{ACAD_REACTORS
330
ACA0
102
}
330
ACA0
100
AcDbScale
 70
     0
300
3/8" = 1'-0"
140
0.375
141
12.0
290
     0
  0
SCALE
  5
ACAB
102
{ACAD_REACTORS
330
ACA0
102
}
330
ACA0
100
AcDbScale
 70
     0
300
1/2" = 1'-0"
140
0.5
141
12.0
290
     0
  0
SCALE
  5
ACAC
102
{ACAD_REACTORS
330
ACA0
102
}
330
ACA0
100
AcDbScale
 70
     0
300
3/4" = 1'-0"
140
0.75
141
12.0
290
     0
  0
SCALE
  5
ACAD
102
{ACAD_REACTORS
330
ACA0
102
}
330
ACA0
100
AcDbScale
 70
     0
300
1" = 1'-0"
140
1.0
141
12.0
290
     0
  0
SCALE
  5
ACAE
102
{ACAD_REACTORS
330
ACA0
102
}
330
ACA0
100
AcDbScale
 70
     0
300
1-1/2" = 1'-0"
140
1.5
141
12.0
290
     0
  0
SCALE
  5
ACAF
102
{ACAD_REACTORS
330
ACA0
102
}
330
ACA0
100
AcDbScale
 70
     0
300
3" = 1'-0"
140
3.0
141
12.0
290
     0
  0
SCALE
  5
ACB0
102
{ACAD_REACTORS
330
ACA0
102
}
330
ACA0
100
AcDbScale
 70
     0
300
6" = 1'-0"
140
6.0
141
12.0
290
     0
  0
SCALE
  5
ACB1
102
{ACAD_REACTORS
330
ACA0
102
}
330
ACA0
100
AcDbScale
 70
     0
300
1'-0" = 1'-0"
140
12.0
141
12.0
290
     0
  0
ACDBSECTIONVIEWSTYLE
  5
ACB5
102
{ACAD_XDICTIONARY
360
AD10
102
}
102
{ACAD_REACTORS
330
ACB4
102
}
330
ACB4
100
AcDbModelDocViewStyle
 70
     0
  3
Imperial24
290
     0
100
AcDbSectionViewStyle
 70
     0
 71
     0
 90
       78
 71
     1
340
A9E5
 40
0.24
340
0
340
0
 40
0.24
300
I, O, Q, S, X, Z
 40
0.48
 90
        3
 40
0.18
 90
        1
 71
     2
340
A9E9
 90
       25
340
A9E9
 90
       50
 40
0.24
 40
0.0
 40
0.24
 71
     3
340
A9E5
 40
0.24
 90
        1
 40
0.75
 90
        1
300
%<\AcVar ViewType \f "%tc1">% %<\AcVar ViewSectionStartId>%-%<\AcVar ViewSectionEndId>%\PSCALE %<\AcVar ViewScale \f "%sn">%
 71
     4
300
ANSI31
 40
1.0
 90
        0
290
     0
290
     0
 90
        6
 40
0.0
 40
1.570796326794896
 40
0.2617993877991494
 40
1.308996938995747
 40
-0.2617993877991494
 40
1.832595714594046
  0
TABLESTYLE
  5
AC9F
102
{ACAD_XDICTIONARY
360
ACD7
102
}
102
{ACAD_REACTORS
330
AC9E
102
}
330
AC9E
100
AcDbTableStyle
  3
Standard
 70
     0
 71
     0
 40
0.06
 41
0.06
280
     0
281
     0
  7
STANDARD
140
0.18
170
     2
 62
     0
 63
     7
283
     0
274
    -2
284
     1
 64
     0
275
    -2
285
     1
 65
     0
276
    -2
286
     1
 66
     0
277
    -2
287
     1
 67
     0
278
    -2
288
     1
 68
     0
279
    -2
289
     1
 69
     0
  7
STANDARD
140
0.25
170
     5
 62
     0
 63
     7
283
     0
274
    -2
284
     1
 64
     0
275
    -2
285
     1
 65
     0
276
    -2
286
     1
 66
     0
277
    -2
287
     1
 67
     0
278
    -2
288
     1
 68
     0
279
    -2
289
     1
 69
     0
  7
STANDARD
140
0.18
170
     5
 62
     0
 63
     7
283
     0
274
    -2
284
     1
 64
     0
275
    -2
285
     1
 65
     0
276
    -2
286
     1
 66
     0
277
    -2
287
     1
 67
     0
278
    -2
288
     1
 68
     0
279
    -2
289
     1
 69
     0
  0
VISUALSTYLE
  5
AC8A
102
{ACAD_XDICTIONARY
360
ACE8
102
}
102
{ACAD_REACTORS
330
AC84
102
}
330
AC84
100
AcDbVisualStyle
  2
2dWireframe
 70
     4
 71
     0
 72
     2
 73
     0
 90
        0
 40
-0.6
 41
-30.0
 62
     5
 63
     7
 74
     1
 91
        4
 64
     7
 65
   257
 75
     1
175
     1
 42
1.0
 92
        0
 66
   257
 43
1.0
 76
     1
 77
     6
 78
     2
 67
     7
 79
     5
170
     0
171
     0
290
     0
174
     0
 93
        1
 44
0.0
173
     0
291
     0
 45
0.0
1001
ACAD
1000
AcDbSavedByObjectVersion
1070
     0
  0
VISUALSTYLE
  5
AC89
102
{ACAD_XDICTIONARY
360
ACE6
102
}
102
{ACAD_REACTORS
330
AC84
102
}
330
AC84
100
AcDbVisualStyle
  2
Basic
 70
     7
 71
     1
 72
     0
 73
     1
 90
        0
 40
-0.6
 41
-30.0
 62
     5
 63
     7
 74
     0
 91
        4
 64
     7
 65
   257
 75
     1
175
     1
 42
1.0
 92
        8
 66
     7
 43
1.0
 76
     1
 77
     6
 78
     2
 67
     7
 79
     5
170
     0
171
     0
290
     0
174
     0
 93
        1
 44
0.0
173
     0
291
     1
 45
0.0
1001
ACAD
1000
AcDbSavedByObjectVersion
1070
     0
  0
VISUALSTYLE
  5
AC90
102
{ACAD_XDICTIONARY
360
ACF4
102
}
102
{ACAD_REACTORS
330
AC84
102
}
330
AC84
100
AcDbVisualStyle
  2
Brighten
 70
    12
 71
     2
 72
     2
 73
     0
 90
        0
 40
-0.6
 41
-30.0
 62
     5
 63
     7
 74
     1
 91
        4
 64
     7
 65
   257
 75
     1
175
     1
 42
1.0
 92
        8
 66
     7
 43
1.0
 76
     1
 77
     6
 78
     2
 67
     7
 79
     5
170
     0
171
     0
290
     0
174
     0
 93
        1
 44
50.0
173
     0
291
     1
 45
0.0
1001
ACAD
1000
AcDbSavedByObjectVersion
1070
     0
  0
VISUALSTYLE
  5
AC94
102
{ACAD_XDICTIONARY
360
ACFC
102
}
102
{ACAD_REACTORS
330
AC84
102
}
330
AC84
100
AcDbVisualStyle
  2
ColorChange
 70
    16
 71
     2
 72
     2
 73
     3
 90
        0
 40
-0.6
 41
-30.0
 62
     5
 63
     8
 74
     1
 91
        4
 64
     7
 65
   257
 75
     1
175
     1
 42
1.0
 92
        8
 66
     8
 43
1.0
 76
     1
 77
     6
 78
     2
 67
     7
 79
     5
170
     0
171
     0
290
     0
174
     0
 93
        1
 44
0.0
173
     0
291
     1
 45
0.0
1001
ACAD
1000
AcDbSavedByObjectVersion
1070
     0
  0
VISUALSTYLE
  5
AC8D
102
{ACAD_XDICTIONARY
360
ACEE
102
}
102
{ACAD_REACTORS
330
AC84
102
}
330
AC84
100
AcDbVisualStyle
  2
Conceptual
 70
     9
 71
     3
 72
     2
 73
     0
 90
        0
 40
-0.6
 41
-30.0
 62
     5
 63
     7
 74
     2
 91
        2
 64
     7
 65
   257
 75
     1
175
     1
 42
179.0
 92
        8
 66
     7
 43
1.0
 76
     1
 77
     6
 78
     2
 67
     7
 79
     3
170
     0
171
     0
290
     0
174
     0
 93
        1
 44
0.0
173
     0
291
     0
 45
0.0
1001
ACAD
1000
AcDbSavedByObjectVersion
1070
     0
  0
VISUALSTYLE
  5
AC8F
102
{ACAD_XDICTIONARY
360
ACF2
102
}
102
{ACAD_REACTORS
330
AC84
102
}
330
AC84
100
AcDbVisualStyle
  2
Dim
 70
    11
 71
     2
 72
     2
 73
     0
 90
        0
 40
-0.6
 41
-30.0
 62
     5
 63
     7
 74
     1
 91
        4
 64
     7
 65
   257
 75
     1
175
     1
 42
1.0
 92
        8
 66
     7
 43
1.0
 76
     1
 77
     6
 78
     2
 67
     7
 79
     5
170
     0
171
     0
290
     0
174
     0
 93
        1
 44
-50.0
173
     0
291
     1
 45
0.0
1001
ACAD
1000
AcDbSavedByObjectVersion
1070
     0
  0
VISUALSTYLE
  5
AC9C
102
{ACAD_XDICTIONARY
360
AD0C
102
}
102
{ACAD_REACTORS
330
AC84
102
}
330
AC84
100
AcDbVisualStyle
  2
EdgeColorOff
 70
    22
 71
     2
 72
     2
 73
     0
 90
        0
 40
-0.6
 41
-30.0
 62
     5
 63
     7
 74
     1
 91
        4
 64
     7
 65
   257
 75
     1
175
     1
 42
1.0
 92
        8
 66
     7
 43
1.0
 76
     1
 77
     6
 78
     2
 67
     7
 79
     5
170
     0
171
     0
290
     0
174
     0
 93
        1
 44
0.0
173
     0
291
     1
 45
0.0
1001
ACAD
1000
AcDbSavedByObjectVersion
1070
     0
  0
VISUALSTYLE
  5
AC93
102
{ACAD_XDICTIONARY
360
ACFA
102
}
102
{ACAD_REACTORS
330
AC84
102
}
330
AC84
100
AcDbVisualStyle
  2
Facepattern
 70
    15
 71
     2
 72
     2
 73
     0
 90
        0
 40
-0.6
 41
-30.0
 62
     5
 63
     7
 74
     1
 91
        4
 64
     7
 65
   257
 75
     1
175
     1
 42
1.0
 92
        8
 66
     7
 43
1.0
 76
     1
 77
     6
 78
     2
 67
     7
 79
     5
170
     0
171
     0
290
     0
174
     0
 93
        1
 44
0.0
173
     0
291
     1
 45
0.0
1001
ACAD
1000
AcDbSavedByObjectVersion
1070
     0
  0
VISUALSTYLE
  5
AC85
102
{ACAD_XDICTIONARY
360
ACDE
102
}
102
{ACAD_REACTORS
330
AC84
102
}
330
AC84
100
AcDbVisualStyle
  2
Flat
 70
     0
 71
     2
 72
     1
 73
     1
 90
        2
 40
-0.6
 41
30.0
 62
     5
 63
     7
 74
     0
 91
        0
 64
     7
 65
   257
 75
     1
175
     1
 42
1.0
 92
        8
 66
     7
 43
1.0
 76
     1
 77
     6
 78
     2
 67
     7
 79
     5
170
     0
171
     0
290
     0
174
     0
 93
       13
 44
0.0
173
     0
291
     1
 45
0.0
1001
ACAD
1000
AcDbSavedByObjectVersion
1070
     0
  0
VISUALSTYLE
  5
AC86
102
{ACAD_XDICTIONARY
360
ACE0
102
}
102
{ACAD_REACTORS
330
AC84
102
}
330
AC84
100
AcDbVisualStyle
  2
FlatWithEdges
 70
     1
 71
     2
 72
     1
 73
     1
 90
        2
 40
-0.6
 41
30.0
 62
     5
 63
     7
 74
     1
 91
        0
 64
     7
 65
   257
 75
     1
175
     1
 42
1.0
 92
        0
 66
   257
 43
1.0
 76
     1
 77
     6
 78
     2
 67
     7
 79
     5
170
     0
171
     0
290
     0
174
     0
 93
       13
 44
0.0
173
     0
291
     1
 45
0.0
1001
ACAD
1000
AcDbSavedByObjectVersion
1070
     0
  0
VISUALSTYLE
  5
AC87
102
{ACAD_XDICTIONARY
360
ACE2
102
}
102
{ACAD_REACTORS
330
AC84
102
}
330
AC84
100
AcDbVisualStyle
  2
Gouraud
 70
     2
 71
     2
 72
     2
 73
     1
 90
        2
 40
-0.6
 41
30.0
 62
     5
 63
     7
 74
     0
 91
        0
 64
     7
 65
   257
 75
     1
175
     1
 42
1.0
 92
        0
 66
     7
 43
1.0
 76
     1
 77
     6
 78
     2
 67
     7
 79
     5
170
     0
171
     0
290
     0
174
     0
 93
       13
 44
0.0
173
     0
291
     1
 45
0.0
1001
ACAD
1000
AcDbSavedByObjectVersion
1070
     0
  0
VISUALSTYLE
  5
AC88
102
{ACAD_XDICTIONARY
360
ACE4
102
}
102
{ACAD_REACTORS
330
AC84
102
}
330
AC84
100
AcDbVisualStyle
  2
GouraudWithEdges
 70
     3
 71
     2
 72
     2
 73
     1
 90
        2
 40
-0.6
 41
30.0
 62
     5
 63
     7
 74
     1
 91
        0
 64
     7
 65
   257
 75
     1
175
     1
 42
1.0
 92
        0
 66
   257
 43
1.0
 76
     1
 77
     6
 78
     2
 67
     7
 79
     5
170
     0
171
     0
290
     0
174
     0
 93
       13
 44
0.0
173
     0
291
     1
 45
0.0
1001
ACAD
1000
AcDbSavedByObjectVersion
1070
     0
  0
VISUALSTYLE
  5
AC8C
102
{ACAD_XDICTIONARY
360
ACEC
102
}
102
{ACAD_REACTORS
330
AC84
102
}
330
AC84
100
AcDbVisualStyle
  2
Hidden
 70
     6
 71
     1
 72
     2
 73
     2
 90
        0
 40
-0.6
 41
-30.0
 62
     5
 63
     7
 74
     2
 91
        2
 64
     7
 65
   257
 75
     2
175
     1
 42
40.0
 92
        0
 66
   257
 43
1.0
 76
     1
 77
     6
 78
     2
 67
     7
 79
     3
170
     0
171
     0
290
     0
174
     0
 93
        1
 44
0.0
173
     0
291
     0
 45
0.0
1001
ACAD
1000
AcDbSavedByObjectVersion
1070
     0
  0
VISUALSTYLE
  5
AC9A
102
{ACAD_XDICTIONARY
360
AD08
102
}
102
{ACAD_REACTORS
330
AC84
102
}
330
AC84
100
AcDbVisualStyle
  2
JitterOff
 70
    20
 71
     2
 72
     2
 73
     0
 90
        0
 40
-0.6
 41
-30.0
 62
     5
 63
     7
 74
     1
 91
        4
 64
     7
 65
   257
 75
     1
175
     1
 42
1.0
 92
       10
 66
     7
 43
1.0
 76
     1
 77
     6
 78
     2
 67
     7
 79
     5
170
     0
171
     0
290
     0
174
     0
 93
        1
 44
0.0
173
     0
291
     1
 45
0.0
1001
ACAD
1000
AcDbSavedByObjectVersion
1070
     0
  0
VISUALSTYLE
  5
AC92
102
{ACAD_XDICTIONARY
360
ACF8
102
}
102
{ACAD_REACTORS
330
AC84
102
}
330
AC84
100
AcDbVisualStyle
  2
Linepattern
 70
    14
 71
     2
 72
     2
 73
     0
 90
        0
 40
-0.6
 41
-30.0
 62
     5
 63
     7
 74
     1
 91
        4
 64
     7
 65
   257
 75
     7
175
     7
 42
1.0
 92
        8
 66
     7
 43
1.0
 76
     1
 77
     6
 78
     2
 67
     7
 79
     5
170
     0
171
     0
290
     0
174
     0
 93
        1
 44
0.0
173
     0
291
     1
 45
0.0
1001
ACAD
1000
AcDbSavedByObjectVersion
1070
     0
  0
VISUALSTYLE
  5
AC9B
102
{ACAD_XDICTIONARY
360
AD0A
102
}
102
{ACAD_REACTORS
330
AC84
102
}
330
AC84
100
AcDbVisualStyle
  2
OverhangOff
 70
    21
 71
     2
 72
     2
 73
     0
 90
        0
 40
-0.6
 41
-30.0
 62
     5
 63
     7
 74
     1
 91
        4
 64
     7
 65
   257
 75
     1
175
     1
 42
1.0
 92
        9
 66
     7
 43
1.0
 76
     1
 77
     6
 78
     2
 67
     7
 79
     5
170
     0
171
     0
290
     0
174
     0
 93
        1
 44
0.0
173
     0
291
     1
 45
0.0
1001
ACAD
1000
AcDbSavedByObjectVersion
1070
     0
  0
VISUALSTYLE
  5
AC8E
102
{ACAD_XDICTIONARY
360
ACF0
102
}
102
{ACAD_REACTORS
330
AC84
102
}
330
AC84
100
AcDbVisualStyle
  2
Realistic
 70
     8
 71
     2
 72
     3
 73
     0
 90
        2
 40
-0.6
 41
30.0
 62
     5
 63
     7
 74
     0
 91
        0
 64
     7
 65
   257
 75
     1
175
     1
 42
1.0
 92
        8
 66
   257
 43
1.0
 76
     1
 77
     6
 78
     2
 67
     7
 79
     3
170
     0
171
     0
290
     0
174
     0
 93
       13
 44
0.0
173
     0
291
     0
 45
0.0
1001
ACAD
1000
AcDbSavedByObjectVersion
1070
     0
  0
VISUALSTYLE
  5
AC99
102
{ACAD_XDICTIONARY
360
AD06
102
}
102
{ACAD_REACTORS
330
AC84
102
}
330
AC84
100
AcDbVisualStyle
  2
Shaded
 70
    27
 71
     2
 72
     2
 73
     1
 90
        2
 40
-0.6
 41
30.0
 62
     5
 63
     7
 74
     0
 91
        4
 64
     7
 65
   257
 75
     1
175
     1
 42
1.0
 92
        8
 66
   257
 43
1.0
 76
     1
 77
     6
 78
     2
 67
     8
 79
     3
170
     0
171
     0
290
     0
174
     0
 93
        5
 44
0.0
173
     0
291
     0
 45
0.0
1001
ACAD
1000
AcDbSavedByObjectVersion
1070
     0
  0
VISUALSTYLE
  5
AC98
102
{ACAD_XDICTIONARY
360
AD04
102
}
102
{ACAD_REACTORS
330
AC84
102
}
330
AC84
100
AcDbVisualStyle
  2
Shaded with edges
 70
    26
 71
     2
 72
     2
 73
     1
 90
        2
 40
-0.6
 41
30.0
 62
     5
 63
     7
 74
     1
 91
       10
 64
     7
 65
   257
 75
     2
175
     1
 42
1.0
 92
        8
 66
   257
 43
1.0
 76
     1
 77
     6
 78
     2
 67
     7
 79
     3
170
     0
171
     0
290
     0
174
     0
 93
        5
 44
0.0
173
     0
291
     0
 45
0.0
1001
ACAD
1000
AcDbSavedByObjectVersion
1070
     0
  0
VISUALSTYLE
  5
AC95
102
{ACAD_XDICTIONARY
360
ACFE
102
}
102
{ACAD_REACTORS
330
AC84
102
}
330
AC84
100
AcDbVisualStyle
  2
Shades of Gray
 70
    23
 71
     2
 72
     2
 73
     3
 90
        0
 40
-0.6
 41
-30.0
 62
     5
 63
     7
 74
     2
 91
        2
 64
     7
 65
     7
 75
     1
175
     1
 42
40.0
 92
        8
 66
     7
 43
1.0
 76
     1
 77
     6
 78
     2
 67
     7
 79
     3
170
     0
171
     0
290
     0
174
     0
 93
        1
 44
0.0
173
     0
291
     0
 45
0.0
1001
ACAD
1000
AcDbSavedByObjectVersion
1070
     0
  0
VISUALSTYLE
  5
AC96
102
{ACAD_XDICTIONARY
360
AD00
102
}
102
{ACAD_REACTORS
330
AC84
102
}
330
AC84
100
AcDbVisualStyle
  2
Sketchy
 70
    24
 71
     1
 72
     2
 73
     2
 90
        0
 40
-0.6
 41
-30.0
 62
     5
 63
     7
 74
     2
 91
        2
 64
     7
 65
     7
 75
     1
175
     1
 42
40.0
 92
       11
 66
     7
 43
1.0
 76
     1
 77
     6
 78
     2
 67
     7
 79
     6
170
     0
171
     0
290
     0
174
     0
 93
        1
 44
0.0
173
     0
291
     0
 45
0.0
1001
ACAD
1000
AcDbSavedByObjectVersion
1070
     0
  0
VISUALSTYLE
  5
AC91
102
{ACAD_XDICTIONARY
360
ACF6
102
}
102
{ACAD_REACTORS
330
AC84
102
}
330
AC84
100
AcDbVisualStyle
  2
Thicken
 70
    13
 71
     2
 72
     2
 73
     0
 90
        0
 40
-0.6
 41
-30.0
 62
     5
 63
     7
 74
     1
 91
        4
 64
     7
 65
   257
 75
     1
175
     1
 42
1.0
 92
       12
 66
     7
 43
1.0
 76
     1
 77
     6
 78
     2
 67
     7
 79
     5
170
     0
171
     0
290
     0
174
     0
 93
        1
 44
0.0
173
     0
291
     1
 45
0.0
1001
ACAD
1000
AcDbSavedByObjectVersion
1070
     0
  0
VISUALSTYLE
  5
AC8B
102
{ACAD_XDICTIONARY
360
ACEA
102
}
102
{ACAD_REACTORS
330
AC84
102
}
330
AC84
100
AcDbVisualStyle
  2
Wireframe
 70
     5
 71
     0
 72
     2
 73
     0
 90
        0
 40
-0.6
 41
-30.0
 62
     5
 63
     7
 74
     1
 91
        4
 64
     7
 65
   257
 75
     1
175
     1
 42
1.0
 92
        0
 66
   257
 43
1.0
 76
     1
 77
     6
 78
     2
 67
     7
 79
     3
170
     0
171
     0
290
     0
174
     0
 93
        1
 44
0.0
173
     0
291
     0
 45
0.0
1001
ACAD
1000
AcDbSavedByObjectVersion
1070
     0
  0
VISUALSTYLE
  5
AC97
102
{ACAD_XDICTIONARY
360
AD02
102
}
102
{ACAD_REACTORS
330
AC84
102
}
330
AC84
100
AcDbVisualStyle
  2
X-Ray
 70
    25
 71
     2
 72
     2
 73
     1
 90
        1
 40
0.5
 41
-30.0
 62
     5
 63
     7
 74
     1
 91
        0
 64
     7
 65
   257
 75
     1
175
     1
 42
1.0
 92
        8
 66
     7
 43
1.0
 76
     1
 77
     6
 78
     2
 67
     7
 79
     3
170
     0
171
     0
290
     0
174
     0
 93
       13
 44
0.0
173
     0
291
     0
 45
0.0
1001
ACAD
1000
AcDbSavedByObjectVersion
1070
     0
  0
DICTIONARYVAR
  5
ACD1
102
{ACAD_REACTORS
330
ACCC
102
}
330
ACCC
100
DictionaryVariables
280
     0
  1
1:1
  0
DICTIONARYVAR
  5
ACCE
102
{ACAD_REACTORS
330
ACCC
102
}
330
ACCC
100
DictionaryVariables
280
     0
  1
STANDARD
  0
DICTIONARYVAR
  5
ACCD
102
{ACAD_REACTORS
330
ACCC
102
}
330
ACCC
100
DictionaryVariables
280
     0
  1
STANDARD
  0
DICTIONARYVAR
  5
ACCF
102
{ACAD_REACTORS
330
ACCC
102
}
330
ACCC
100
DictionaryVariables
280
     0
  1
Imperial24
  0
DICTIONARYVAR
  5
ACD0
102
{ACAD_REACTORS
330
ACCC
102
}
330
ACCC
100
DictionaryVariables
280
     0
  1
Imperial24
  0
DICTIONARYVAR
  5
ACD4
102
{ACAD_REACTORS
330
ACCC
102
}
330
ACCC
100
DictionaryVariables
280
     0
  1
1
  0
DICTIONARYVAR
  5
ACD3
102
{ACAD_REACTORS
330
ACCC
102
}
330
ACCC
100
DictionaryVariables
280
     0
  1
0
  0
DICTIONARYVAR
  5
ACD2
102
{ACAD_REACTORS
330
ACCC
102
}
330
ACCC
100
DictionaryVariables
280
     0
  1
127
  0
DICTIONARYVAR
  5
ACD5
102
{ACAD_REACTORS
330
ACCC
102
}
330
ACCC
100
DictionaryVariables
280
     0
  1
2
  0
DICTIONARY
  5
AD12
330
ACB7
100
AcDbDictionary
280
     1
281
     1
  3
ACAD_XREC_ROUNDTRIP
360
AD13
  0
DICTIONARY
  5
AD14
330
ACB8
100
AcDbDictionary
280
     1
281
     1
  3
ACAD_XREC_ROUNDTRIP
360
AD15
  0
DICTIONARY
  5
AD16
330
ACB9
100
AcDbDictionary
280
     1
281
     1
  3
ACAD_XREC_ROUNDTRIP
360
AD17
  0
DICTIONARY
  5
AC75
330
AC74
100
AcDbDictionary
280
     1
281
     1
  3
ACAD_XREC_ROUNDTRIP
360
ACDC
  3
BUMPTILE
360
AC77
  3
DIFFUSETILE
360
AC76
  3
OPACITYTILE
360
AC7A
  3
REFLECTIONTILE
360
AC79
  3
REFRACTIONTILE
360
AC7B
  3
SPECULARTILE
360
AC78
  0
DICTIONARY
  5
AC6D
330
AC6C
100
AcDbDictionary
280
     1
281
     1
  3
ACAD_XREC_ROUNDTRIP
360
ACDB
  3
BUMPTILE
360
AC6F
  3
DIFFUSETILE
360
AC6E
  3
OPACITYTILE
360
AC72
  3
REFLECTIONTILE
360
AC71
  3
REFRACTIONTILE
360
AC73
  3
SPECULARTILE
360
AC70
  0
DICTIONARY
  5
AC7D
330
AC7C
100
AcDbDictionary
280
     1
281
     1
  3
ACAD_XREC_ROUNDTRIP
360
ACDD
  3
BUMPTILE
360
AC7F
  3
DIFFUSETILE
360
AC7E
  3
OPACITYTILE
360
AC82
  3
REFLECTIONTILE
360
AC81
  3
REFRACTIONTILE
360
AC83
  3
SPECULARTILE
360
AC80
  0
DICTIONARY
  5
AD10
330
ACB5
100
AcDbDictionary
280
     1
281
     1
  3
ACAD_XREC_ROUNDTRIP
360
AD11
  0
DICTIONARY
  5
ACD7
330
AC9F
100
AcDbDictionary
280
     1
281
     1
  3
ACAD_ROUNDTRIP_2008_TABLESTYLE_CELLSTYLEMAP
360
ACD8
  3
ACAD_XREC_ROUNDTRIP
360
AD0E
  0
DICTIONARY
  5
ACE8
330
AC8A
100
AcDbDictionary
280
     1
281
     1
  3
ACAD_XREC_ROUNDTRIP
360
ACE9
  0
DICTIONARY
  5
ACE6
330
AC89
100
AcDbDictionary
280
     1
281
     1
  3
ACAD_XREC_ROUNDTRIP
360
ACE7
  0
DICTIONARY
  5
ACF4
330
AC90
100
AcDbDictionary
280
     1
281
     1
  3
ACAD_XREC_ROUNDTRIP
360
ACF5
  0
DICTIONARY
  5
ACFC
330
AC94
100
AcDbDictionary
280
     1
281
     1
  3
ACAD_XREC_ROUNDTRIP
360
ACFD
  0
DICTIONARY
  5
ACEE
330
AC8D
100
AcDbDictionary
280
     1
281
     1
  3
ACAD_XREC_ROUNDTRIP
360
ACEF
  0
DICTIONARY
  5
ACF2
330
AC8F
100
AcDbDictionary
280
     1
281
     1
  3
ACAD_XREC_ROUNDTRIP
360
ACF3
  0
DICTIONARY
  5
AD0C
330
AC9C
100
AcDbDictionary
280
     1
281
     1
  3
ACAD_XREC_ROUNDTRIP
360
AD0D
  0
DICTIONARY
  5
ACFA
330
AC93
100
AcDbDictionary
280
     1
281
     1
  3
ACAD_XREC_ROUNDTRIP
360
ACFB
  0
DICTIONARY
  5
ACDE
330
AC85
100
AcDbDictionary
280
     1
281
     1
  3
ACAD_XREC_ROUNDTRIP
360
ACDF
  0
DICTIONARY
  5
ACE0
330
AC86
100
AcDbDictionary
280
     1
281
     1
  3
ACAD_XREC_ROUNDTRIP
360
ACE1
  0
DICTIONARY
  5
ACE2
330
AC87
100
AcDbDictionary
280
     1
281
     1
  3
ACAD_XREC_ROUNDTRIP
360
ACE3
  0
DICTIONARY
  5
ACE4
330
AC88
100
AcDbDictionary
280
     1
281
     1
  3
ACAD_XREC_ROUNDTRIP
360
ACE5
  0
DICTIONARY
  5
ACEC
330
AC8C
100
AcDbDictionary
280
     1
281
     1
  3
ACAD_XREC_ROUNDTRIP
360
ACED
  0
DICTIONARY
  5
AD08
330
AC9A
100
AcDbDictionary
280
     1
281
     1
  3
ACAD_XREC_ROUNDTRIP
360
AD09
  0
DICTIONARY
  5
ACF8
330
AC92
100
AcDbDictionary
280
     1
281
     1
  3
ACAD_XREC_ROUNDTRIP
360
ACF9
  0
DICTIONARY
  5
AD0A
330
AC9B
100
AcDbDictionary
280
     1
281
     1
  3
ACAD_XREC_ROUNDTRIP
360
AD0B
  0
DICTIONARY
  5
ACF0
330
AC8E
100
AcDbDictionary
280
     1
281
     1
  3
ACAD_XREC_ROUNDTRIP
360
ACF1
  0
DICTIONARY
  5
AD06
330
AC99
100
AcDbDictionary
280
     1
281
     1
  3
ACAD_XREC_ROUNDTRIP
360
AD07
  0
DICTIONARY
  5
AD04
330
AC98
100
AcDbDictionary
280
     1
281
     1
  3
ACAD_XREC_ROUNDTRIP
360
AD05
  0
DICTIONARY
  5
ACFE
330
AC95
100
AcDbDictionary
280
     1
281
     1
  3
ACAD_XREC_ROUNDTRIP
360
ACFF
  0
DICTIONARY
  5
AD00
330
AC96
100
AcDbDictionary
280
     1
281
     1
  3
ACAD_XREC_ROUNDTRIP
360
AD01
  0
DICTIONARY
  5
ACF6
330
AC91
100
AcDbDictionary
280
     1
281
     1
  3
ACAD_XREC_ROUNDTRIP
360
ACF7
  0
DICTIONARY
  5
ACEA
330
AC8B
100
AcDbDictionary
280
     1
281
     1
  3
ACAD_XREC_ROUNDTRIP
360
ACEB
  0
DICTIONARY
  5
AD02
330
AC97
100
AcDbDictionary
280
     1
281
     1
  3
ACAD_XREC_ROUNDTRIP
360
AD03
  0
XRECORD
  5
AD13
102
{ACAD_REACTORS
330
AD12
102
}
330
AD12
100
AcDbXrecord
280
     1
102
DISPLAYNAME
  1
Imperial24
102
FLAGS
 90
        0
  0
XRECORD
  5
AD15
102
{ACAD_REACTORS
330
AD14
102
}
330
AD14
100
AcDbXrecord
280
     1
102
SHADEPLOT
 70
     0
102
SHADEPLOTRESLEVEL
 70
     2
102
SHADEPLOTCUSTOMDPI
 70
   300
  0
XRECORD
  5
AD17
102
{ACAD_REACTORS
330
AD16
102
}
330
AD16
100
AcDbXrecord
280
     1
102
SHADEPLOT
 70
     0
102
SHADEPLOTRESLEVEL
 70
     2
102
SHADEPLOTCUSTOMDPI
 70
   300
  0
XRECORD
  5
ACDC
102
{ACAD_REACTORS
330
AC75
102
}
330
AC75
100
AcDbXrecord
280
     1
102
MATERIAL
148
0.0
149
0.0
149
0.0
 93
        0
 94
      127
282
     0
 72
     0
 77
     0
171
     0
175
     0
179
     0
273
     0
  0
XRECORD
  5
AC77
102
{ACAD_REACTORS
330
AC75
102
}
330
AC75
100
AcDbXrecord
280
     1
270
     1
271
     1
  0
XRECORD
  5
AC76
102
{ACAD_REACTORS
330
AC75
102
}
330
AC75
100
AcDbXrecord
280
     1
270
     1
271
     1
  0
XRECORD
  5
AC7A
102
{ACAD_REACTORS
330
AC75
102
}
330
AC75
100
AcDbXrecord
280
     1
270
     1
271
     1
  0
XRECORD
  5
AC79
102
{ACAD_REACTORS
330
AC75
102
}
330
AC75
100
AcDbXrecord
280
     1
270
     1
271
     1
  0
XRECORD
  5
AC7B
102
{ACAD_REACTORS
330
AC75
102
}
330
AC75
100
AcDbXrecord
280
     1
270
     1
271
     1
  0
XRECORD
  5
AC78
102
{ACAD_REACTORS
330
AC75
102
}
330
AC75
100
AcDbXrecord
280
     1
270
     1
271
     1
  0
XRECORD
  5
ACDB
102
{ACAD_REACTORS
330
AC6D
102
}
330
AC6D
100
AcDbXrecord
280
     1
102
MATERIAL
148
0.0
149
0.0
149
0.0
 93
        0
 94
      127
282
     0
 72
     0
 77
     0
171
     0
175
     0
179
     0
273
     0
  0
XRECORD
  5
AC6F
102
{ACAD_REACTORS
330
AC6D
102
}
330
AC6D
100
AcDbXrecord
280
     1
270
     1
271
     1
  0
XRECORD
  5
AC6E
102
{ACAD_REACTORS
330
AC6D
102
}
330
AC6D
100
AcDbXrecord
280
     1
270
     1
271
     1
  0
XRECORD
  5
AC72
102
{ACAD_REACTORS
330
AC6D
102
}
330
AC6D
100
AcDbXrecord
280
     1
270
     1
271
     1
  0
XRECORD
  5
AC71
102
{ACAD_REACTORS
330
AC6D
102
}
330
AC6D
100
AcDbXrecord
280
     1
270
     1
271
     1
  0
XRECORD
  5
AC73
102
{ACAD_REACTORS
330
AC6D
102
}
330
AC6D
100
AcDbXrecord
280
     1
270
     1
271
     1
  0
XRECORD
  5
AC70
102
{ACAD_REACTORS
330
AC6D
102
}
330
AC6D
100
AcDbXrecord
280
     1
270
     1
271
     1
  0
XRECORD
  5
ACDD
102
{ACAD_REACTORS
330
AC7D
102
}
330
AC7D
100
AcDbXrecord
280
     1
102
MATERIAL
148
0.0
149
0.0
149
0.0
 93
        0
 94
      127
282
     0
 72
     0
 77
     0
171
     0
175
     0
179
     0
273
     0
  0
XRECORD
  5
AC7F
102
{ACAD_REACTORS
330
AC7D
102
}
330
AC7D
100
AcDbXrecord
280
     1
270
     1
271
     1
  0
XRECORD
  5
AC7E
102
{ACAD_REACTORS
330
AC7D
102
}
330
AC7D
100
AcDbXrecord
280
     1
270
     1
271
     1
  0
XRECORD
  5
AC82
102
{ACAD_REACTORS
330
AC7D
102
}
330
AC7D
100
AcDbXrecord
280
     1
270
     1
271
     1
  0
XRECORD
  5
AC81
102
{ACAD_REACTORS
330
AC7D
102
}
330
AC7D
100
AcDbXrecord
280
     1
270
     1
271
     1
  0
XRECORD
  5
AC83
102
{ACAD_REACTORS
330
AC7D
102
}
330
AC7D
100
AcDbXrecord
280
     1
270
     1
271
     1
  0
XRECORD
  5
AC80
102
{ACAD_REACTORS
330
AC7D
102
}
330
AC7D
100
AcDbXrecord
280
     1
270
     1
271
     1
  0
XRECORD
  5
AD11
102
{ACAD_REACTORS
330
AD10
102
}
330
AD10
100
AcDbXrecord
280
     1
102
DISPLAYNAME
  1
Imperial24
102
FLAGS
 90
        0
  0
CELLSTYLEMAP
  5
ACD8
102
{ACAD_REACTORS
330
ACD7
102
}
330
ACD7
100
AcDbCellStyleMap
 90
        3
300
CELLSTYLE
  1
TABLEFORMAT_BEGIN
 90
        5
170
     1
 91
        0
 92
    32768
 62
   257
 93
        1
300
CONTENTFORMAT
  1
CONTENTFORMAT_BEGIN
 90
        0
 91
        0
 92
      512
 93
        0
300

 40
0.0
140
1.0
 94
        5
 62
     0
340
A9E5
144
0.25
309
CONTENTFORMAT_END
171
     0
 94
        0
309
TABLEFORMAT_END
  1
CELLSTYLE_BEGIN
 90
        1
 91
        1
300
_TITLE
309
CELLSTYLE_END
300
CELLSTYLE
  1
TABLEFORMAT_BEGIN
 90
        5
170
     1
 91
        0
 92
        0
 62
   257
 93
        1
300
CONTENTFORMAT
  1
CONTENTFORMAT_BEGIN
 90
        0
 91
        0
 92
      512
 93
        0
300

 40
0.0
140
1.0
 94
        5
 62
     0
340
A9E5
144
0.18
309
CONTENTFORMAT_END
171
     0
 94
        0
309
TABLEFORMAT_END
  1
CELLSTYLE_BEGIN
 90
        2
 91
        1
300
_HEADER
309
CELLSTYLE_END
300
CELLSTYLE
  1
TABLEFORMAT_BEGIN
 90
        5
170
     1
 91
        0
 92
        0
 62
   257
 93
        1
300
CONTENTFORMAT
  1
CONTENTFORMAT_BEGIN
 90
        0
 91
        0
 92
      512
 93
        0
300

 40
0.0
140
1.0
 94
        2
 62
     0
340
A9E5
144
0.18
309
CONTENTFORMAT_END
171
     0
 94
        0
309
TABLEFORMAT_END
  1
CELLSTYLE_BEGIN
 90
        3
 91
        2
300
_DATA
309
CELLSTYLE_END
  0
XRECORD
  5
AD0E
102
{ACAD_REACTORS
330
ACD7
102
}
330
ACD7
100
AcDbXrecord
280
     1
102
ACAD_ROUNDTRIP_PRE2007_TABLESTYLE
 90
      512
 91
        0
  1

 92
      512
 93
        0
  2

 94
      512
 95
        0
  3

  0
XRECORD
  5
ACE9
102
{ACAD_REACTORS
330
ACE8
102
}
330
ACE8
100
AcDbXrecord
280
     1
102
RTVSPost2010Prop28
280
     1
102
RTVSPost2010PropOp28
 70
     1
102
RTVSPost2010Prop29
280
     1
102
RTVSPost2010PropOp29
 70
     1
102
RTVSPost2010Prop30
280
     0
102
RTVSPost2010PropOp30
 70
     1
102
RTVSPost2010Prop31
280
     0
102
RTVSPost2010PropOp31
 70
     1
102
RTVSPost2010Prop32
280
     0
102
RTVSPost2010PropOp32
 70
     1
102
RTVSPost2010Prop33
280
     0
102
RTVSPost2010PropOp33
 70
     1
102
RTVSPost2010Prop34
280
     0
102
RTVSPost2010PropOp34
 70
     1
102
RTVSPost2010Prop35
280
     0
102
RTVSPost2010PropOp35
 70
     1
102
RTVSPost2010Prop36
280
     0
102
RTVSPost2010PropOp36
 70
     1
102
RTVSPost2010Prop37
 90
       50
102
RTVSPost2010PropOp37
 70
     1
102
RTVSPost2010Prop38
140
0.0
102
RTVSPost2010PropOp38
 70
     1
102
RTVSPost2010Prop39
140
1.0
102
RTVSPost2010PropOp39
 70
     1
102
RTVSPost2010Prop40
 90
        0
102
RTVSPost2010PropOp40
 70
     1
102
RTVSPost2010Prop41ColorIndex
 90
       18
102
RTVSPost2010Prop41ColorRGB
 90
        0
102
RTVSPost2010PropOp41
 70
     1
102
RTVSPost2010Prop42
 90
       50
102
RTVSPost2010PropOp42
 70
     1
102
RTVSPost2010Prop43
 90
        3
102
RTVSPost2010PropOp43
 70
     1
102
RTVSPost2010Prop44ColorIndex
 90
        5
102
RTVSPost2010Prop44ColorRGB
 90
      255
102
RTVSPost2010PropOp44
 70
     1
102
RTVSPost2010Prop45
280
     0
102
RTVSPost2010PropOp45
 70
     1
102
RTVSPost2010Prop46
 90
       50
102
RTVSPost2010PropOp46
 70
     1
102
RTVSPost2010Prop47
 90
       50
102
RTVSPost2010PropOp47
 70
     1
102
RTVSPost2010Prop48
 90
       50
102
RTVSPost2010PropOp48
 70
     1
102
RTVSPost2010Prop49
280
     0
102
RTVSPost2010PropOp49
 70
     1
102
RTVSPost2010Prop50
 90
       50
102
RTVSPost2010PropOp50
 70
     1
102
RTVSPost2010Prop51ColorIndex
 90
      256
102
RTVSPost2010Prop51ColorRGB
 90
-16777216
102
RTVSPost2010PropOp51
 70
     0
102
RTVSPost2010Prop52
140
1.0
102
RTVSPost2010PropOp52
 70
     0
102
RTVSPost2010Prop53
 90
        2
102
RTVSPost2010PropOp53
 70
     1
102
RTVSPost2010Prop54
  1
strokes_ogs.tif
102
RTVSPost2010PropOp54
 70
     1
102
RTVSPost2010Prop55
280
     0
102
RTVSPost2010PropOp55
 70
     1
102
RTVSPost2010Prop56
140
1.0
102
RTVSPost2010PropOp56
 70
     1
102
RTVSPost2010Prop57
140
1.0
102
RTVSPost2010PropOp57
 70
     1
102
RTVSPropertyOp0
 70
     1
102
RTVSPropertyOp1
 70
     1
102
RTVSPropertyOp2
 70
     1
102
RTVSPropertyOp3
 70
     1
102
RTVSPropertyOp4
 70
     1
102
RTVSPropertyOp5
 70
     1
102
RTVSPropertyOp6
 70
     1
102
RTVSPropertyOp7
 70
     1
102
RTVSPropertyOp8
 70
     1
102
RTVSPropertyOp9
 70
     1
102
RTVSPropertyOp10
 70
     1
102
RTVSPropertyOp11
 70
     1
102
RTVSPropertyOp12
 70
     1
102
RTVSPropertyOp13
 70
     1
102
RTVSPropertyOp14
 70
     1
102
RTVSPropertyOp15
 70
     1
102
RTVSPropertyOp16
 70
     1
102
RTVSPropertyOp17
 70
     1
102
RTVSPropertyOp18
 70
     1
102
RTVSPropertyOp19
 70
     1
102
RTVSPropertyOp20
 70
     1
102
RTVSPropertyOp21
 70
     1
102
RTVSPropertyOp22
 70
     1
102
RTVSPropertyOp23
 70
     1
102
RTVSPropertyOp24
 70
     1
102
RTVSPropertyOp25
 70
     1
102
RTVSPropertyOp26
 70
     1
102
RTVSPropertyOp27
 70
     1
102
RTVSPropertyOp28
 70
     1
102
RTVSPropertyOp29
 70
     1
102
RTVSPropertyOp30
 70
     1
102
RTVSPropertyOp31
 70
     1
102
RTVSPropertyOp32
 70
     1
102
RTVSPropertyOp33
 70
     1
102
RTVSPropertyOp34
 70
     1
102
RTVSPropertyOp35
 70
     1
102
RTVSPropertyOp36
 70
     1
102
RTVSPropertyOp37
 70
     1
102
RTVSPropertyOp38
 70
     1
102
RTVSPropertyOp39
 70
     1
102
RTVSPropertyOp40
 70
     1
102
RTVSPropertyOp41
 70
     1
102
RTVSPropertyOp42
 70
     1
102
RTVSPropertyOp43
 70
     1
102
RTVSPropertyOp44
 70
     1
102
RTVSPropertyOp45
 70
     1
102
RTVSPropertyOp46
 70
     1
102
RTVSPropertyOp47
 70
     1
102
RTVSPropertyOp48
 70
     1
102
RTVSPropertyOp49
 70
     1
102
RTVSPropertyOp50
 70
     1
102
RTVSPropertyOp51
 70
     0
102
RTVSPropertyOp52
 70
     0
102
RTVSPropertyOp53
 70
     1
102
RTVSPropertyOp54
 70
     1
102
RTVSPropertyOp55
 70
     1
102
RTVSPropertyOp56
 70
     1
102
RTVSPropertyOp57
 70
     1
102
RTVSPropertyOp58
 70
     1
102
RTVSPropertyOp59
 70
     1
102
RTVSPropertyOp60
 70
     1
102
RTVSPropertyOp61
 70
     1
102
RTVSPropertyOp62
 70
     1
  0
XRECORD
  5
ACE7
102
{ACAD_REACTORS
330
ACE6
102
}
330
ACE6
100
AcDbXrecord
280
     1
102
RTVSPost2010Prop28
280
     0
102
RTVSPost2010PropOp28
 70
     1
102
RTVSPost2010Prop29
280
     1
102
RTVSPost2010PropOp29
 70
     1
102
RTVSPost2010Prop30
280
     1
102
RTVSPost2010PropOp30
 70
     1
102
RTVSPost2010Prop31
280
     0
102
RTVSPost2010PropOp31
 70
     1
102
RTVSPost2010Prop32
280
     0
102
RTVSPost2010PropOp32
 70
     1
102
RTVSPost2010Prop33
280
     0
102
RTVSPost2010PropOp33
 70
     1
102
RTVSPost2010Prop34
280
     0
102
RTVSPost2010PropOp34
 70
     1
102
RTVSPost2010Prop35
280
     0
102
RTVSPost2010PropOp35
 70
     1
102
RTVSPost2010Prop36
280
     0
102
RTVSPost2010PropOp36
 70
     1
102
RTVSPost2010Prop37
 90
       50
102
RTVSPost2010PropOp37
 70
     1
102
RTVSPost2010Prop38
140
0.0
102
RTVSPost2010PropOp38
 70
     1
102
RTVSPost2010Prop39
140
1.0
102
RTVSPost2010PropOp39
 70
     1
102
RTVSPost2010Prop40
 90
        0
102
RTVSPost2010PropOp40
 70
     1
102
RTVSPost2010Prop41ColorIndex
 90
       18
102
RTVSPost2010Prop41ColorRGB
 90
        0
102
RTVSPost2010PropOp41
 70
     1
102
RTVSPost2010Prop42
 90
       50
102
RTVSPost2010PropOp42
 70
     1
102
RTVSPost2010Prop43
 90
        3
102
RTVSPost2010PropOp43
 70
     1
102
RTVSPost2010Prop44ColorIndex
 90
        5
102
RTVSPost2010Prop44ColorRGB
 90
      255
102
RTVSPost2010PropOp44
 70
     1
102
RTVSPost2010Prop45
280
     0
102
RTVSPost2010PropOp45
 70
     1
102
RTVSPost2010Prop46
 90
       50
102
RTVSPost2010PropOp46
 70
     1
102
RTVSPost2010Prop47
 90
       50
102
RTVSPost2010PropOp47
 70
     1
102
RTVSPost2010Prop48
 90
       50
102
RTVSPost2010PropOp48
 70
     1
102
RTVSPost2010Prop49
280
     0
102
RTVSPost2010PropOp49
 70
     1
102
RTVSPost2010Prop50
 90
       50
102
RTVSPost2010PropOp50
 70
     1
102
RTVSPost2010Prop51ColorIndex
 90
      256
102
RTVSPost2010Prop51ColorRGB
 90
-16777216
102
RTVSPost2010PropOp51
 70
     0
102
RTVSPost2010Prop52
140
1.0
102
RTVSPost2010PropOp52
 70
     0
102
RTVSPost2010Prop53
 90
        2
102
RTVSPost2010PropOp53
 70
     1
102
RTVSPost2010Prop54
  1
strokes_ogs.tif
102
RTVSPost2010PropOp54
 70
     1
102
RTVSPost2010Prop55
280
     0
102
RTVSPost2010PropOp55
 70
     1
102
RTVSPost2010Prop56
140
1.0
102
RTVSPost2010PropOp56
 70
     1
102
RTVSPost2010Prop57
140
1.0
102
RTVSPost2010PropOp57
 70
     1
102
RTVSPropertyOp0
 70
     1
102
RTVSPropertyOp1
 70
     1
102
RTVSPropertyOp2
 70
     1
102
RTVSPropertyOp3
 70
     1
102
RTVSPropertyOp4
 70
     1
102
RTVSPropertyOp5
 70
     1
102
RTVSPropertyOp6
 70
     1
102
RTVSPropertyOp7
 70
     1
102
RTVSPropertyOp8
 70
     1
102
RTVSPropertyOp9
 70
     1
102
RTVSPropertyOp10
 70
     1
102
RTVSPropertyOp11
 70
     1
102
RTVSPropertyOp12
 70
     1
102
RTVSPropertyOp13
 70
     1
102
RTVSPropertyOp14
 70
     1
102
RTVSPropertyOp15
 70
     1
102
RTVSPropertyOp16
 70
     1
102
RTVSPropertyOp17
 70
     1
102
RTVSPropertyOp18
 70
     1
102
RTVSPropertyOp19
 70
     1
102
RTVSPropertyOp20
 70
     1
102
RTVSPropertyOp21
 70
     1
102
RTVSPropertyOp22
 70
     1
102
RTVSPropertyOp23
 70
     1
102
RTVSPropertyOp24
 70
     1
102
RTVSPropertyOp25
 70
     1
102
RTVSPropertyOp26
 70
     1
102
RTVSPropertyOp27
 70
     1
102
RTVSPropertyOp28
 70
     1
102
RTVSPropertyOp29
 70
     1
102
RTVSPropertyOp30
 70
     1
102
RTVSPropertyOp31
 70
     1
102
RTVSPropertyOp32
 70
     1
102
RTVSPropertyOp33
 70
     1
102
RTVSPropertyOp34
 70
     1
102
RTVSPropertyOp35
 70
     1
102
RTVSPropertyOp36
 70
     1
102
RTVSPropertyOp37
 70
     1
102
RTVSPropertyOp38
 70
     1
102
RTVSPropertyOp39
 70
     1
102
RTVSPropertyOp40
 70
     1
102
RTVSPropertyOp41
 70
     1
102
RTVSPropertyOp42
 70
     1
102
RTVSPropertyOp43
 70
     1
102
RTVSPropertyOp44
 70
     1
102
RTVSPropertyOp45
 70
     1
102
RTVSPropertyOp46
 70
     1
102
RTVSPropertyOp47
 70
     1
102
RTVSPropertyOp48
 70
     1
102
RTVSPropertyOp49
 70
     1
102
RTVSPropertyOp50
 70
     1
102
RTVSPropertyOp51
 70
     0
102
RTVSPropertyOp52
 70
     0
102
RTVSPropertyOp53
 70
     1
102
RTVSPropertyOp54
 70
     1
102
RTVSPropertyOp55
 70
     1
102
RTVSPropertyOp56
 70
     1
102
RTVSPropertyOp57
 70
     1
102
RTVSPropertyOp58
 70
     1
102
RTVSPropertyOp59
 70
     1
102
RTVSPropertyOp60
 70
     1
102
RTVSPropertyOp61
 70
     1
102
RTVSPropertyOp62
 70
     1
  0
XRECORD
  5
ACF5
102
{ACAD_REACTORS
330
ACF4
102
}
330
ACF4
100
AcDbXrecord
280
     1
102
RTVSPost2010Prop28
280
     0
102
RTVSPost2010PropOp28
 70
     1
102
RTVSPost2010Prop29
280
     1
102
RTVSPost2010PropOp29
 70
     1
102
RTVSPost2010Prop30
280
     1
102
RTVSPost2010PropOp30
 70
     1
102
RTVSPost2010Prop31
280
     0
102
RTVSPost2010PropOp31
 70
     1
102
RTVSPost2010Prop32
280
     0
102
RTVSPost2010PropOp32
 70
     1
102
RTVSPost2010Prop33
280
     0
102
RTVSPost2010PropOp33
 70
     1
102
RTVSPost2010Prop34
280
     0
102
RTVSPost2010PropOp34
 70
     1
102
RTVSPost2010Prop35
280
     0
102
RTVSPost2010PropOp35
 70
     1
102
RTVSPost2010Prop36
280
     0
102
RTVSPost2010PropOp36
 70
     1
102
RTVSPost2010Prop37
 90
       50
102
RTVSPost2010PropOp37
 70
     1
102
RTVSPost2010Prop38
140
0.0
102
RTVSPost2010PropOp38
 70
     1
102
RTVSPost2010Prop39
140
1.0
102
RTVSPost2010PropOp39
 70
     1
102
RTVSPost2010Prop40
 90
        0
102
RTVSPost2010PropOp40
 70
     1
102
RTVSPost2010Prop41ColorIndex
 90
       18
102
RTVSPost2010Prop41ColorRGB
 90
        0
102
RTVSPost2010PropOp41
 70
     1
102
RTVSPost2010Prop42
 90
       50
102
RTVSPost2010PropOp42
 70
     1
102
RTVSPost2010Prop43
 90
        3
102
RTVSPost2010PropOp43
 70
     1
102
RTVSPost2010Prop44ColorIndex
 90
        5
102
RTVSPost2010Prop44ColorRGB
 90
      255
102
RTVSPost2010PropOp44
 70
     1
102
RTVSPost2010Prop45
280
     0
102
RTVSPost2010PropOp45
 70
     1
102
RTVSPost2010Prop46
 90
       50
102
RTVSPost2010PropOp46
 70
     1
102
RTVSPost2010Prop47
 90
       50
102
RTVSPost2010PropOp47
 70
     1
102
RTVSPost2010Prop48
 90
       50
102
RTVSPost2010PropOp48
 70
     1
102
RTVSPost2010Prop49
280
     0
102
RTVSPost2010PropOp49
 70
     1
102
RTVSPost2010Prop50
 90
       50
102
RTVSPost2010PropOp50
 70
     1
102
RTVSPost2010Prop51ColorIndex
 90
      256
102
RTVSPost2010Prop51ColorRGB
 90
-16777216
102
RTVSPost2010PropOp51
 70
     0
102
RTVSPost2010Prop52
140
1.0
102
RTVSPost2010PropOp52
 70
     0
102
RTVSPost2010Prop53
 90
        2
102
RTVSPost2010PropOp53
 70
     1
102
RTVSPost2010Prop54
  1
strokes_ogs.tif
102
RTVSPost2010PropOp54
 70
     1
102
RTVSPost2010Prop55
280
     0
102
RTVSPost2010PropOp55
 70
     1
102
RTVSPost2010Prop56
140
1.0
102
RTVSPost2010PropOp56
 70
     1
102
RTVSPost2010Prop57
140
1.0
102
RTVSPost2010PropOp57
 70
     1
102
RTVSPropertyOp0
 70
     1
102
RTVSPropertyOp1
 70
     1
102
RTVSPropertyOp2
 70
     1
102
RTVSPropertyOp3
 70
     1
102
RTVSPropertyOp4
 70
     1
102
RTVSPropertyOp5
 70
     1
102
RTVSPropertyOp6
 70
     1
102
RTVSPropertyOp7
 70
     1
102
RTVSPropertyOp8
 70
     1
102
RTVSPropertyOp9
 70
     1
102
RTVSPropertyOp10
 70
     1
102
RTVSPropertyOp11
 70
     1
102
RTVSPropertyOp12
 70
     1
102
RTVSPropertyOp13
 70
     1
102
RTVSPropertyOp14
 70
     1
102
RTVSPropertyOp15
 70
     1
102
RTVSPropertyOp16
 70
     1
102
RTVSPropertyOp17
 70
     1
102
RTVSPropertyOp18
 70
     1
102
RTVSPropertyOp19
 70
     1
102
RTVSPropertyOp20
 70
     1
102
RTVSPropertyOp21
 70
     1
102
RTVSPropertyOp22
 70
     1
102
RTVSPropertyOp23
 70
     1
102
RTVSPropertyOp24
 70
     1
102
RTVSPropertyOp25
 70
     1
102
RTVSPropertyOp26
 70
     1
102
RTVSPropertyOp27
 70
     1
102
RTVSPropertyOp28
 70
     1
102
RTVSPropertyOp29
 70
     1
102
RTVSPropertyOp30
 70
     1
102
RTVSPropertyOp31
 70
     1
102
RTVSPropertyOp32
 70
     1
102
RTVSPropertyOp33
 70
     1
102
RTVSPropertyOp34
 70
     1
102
RTVSPropertyOp35
 70
     1
102
RTVSPropertyOp36
 70
     1
102
RTVSPropertyOp37
 70
     1
102
RTVSPropertyOp38
 70
     1
102
RTVSPropertyOp39
 70
     1
102
RTVSPropertyOp40
 70
     1
102
RTVSPropertyOp41
 70
     1
102
RTVSPropertyOp42
 70
     1
102
RTVSPropertyOp43
 70
     1
102
RTVSPropertyOp44
 70
     1
102
RTVSPropertyOp45
 70
     1
102
RTVSPropertyOp46
 70
     1
102
RTVSPropertyOp47
 70
     1
102
RTVSPropertyOp48
 70
     1
102
RTVSPropertyOp49
 70
     1
102
RTVSPropertyOp50
 70
     1
102
RTVSPropertyOp51
 70
     0
102
RTVSPropertyOp52
 70
     0
102
RTVSPropertyOp53
 70
     1
102
RTVSPropertyOp54
 70
     1
102
RTVSPropertyOp55
 70
     1
102
RTVSPropertyOp56
 70
     1
102
RTVSPropertyOp57
 70
     1
102
RTVSPropertyOp58
 70
     1
102
RTVSPropertyOp59
 70
     1
102
RTVSPropertyOp60
 70
     1
102
RTVSPropertyOp61
 70
     1
102
RTVSPropertyOp62
 70
     1
  0
XRECORD
  5
ACFD
102
{ACAD_REACTORS
330
ACFC
102
}
330
ACFC
100
AcDbXrecord
280
     1
102
RTVSPost2010Prop28
280
     0
102
RTVSPost2010PropOp28
 70
     1
102
RTVSPost2010Prop29
280
     1
102
RTVSPost2010PropOp29
 70
     1
102
RTVSPost2010Prop30
280
     1
102
RTVSPost2010PropOp30
 70
     1
102
RTVSPost2010Prop31
280
     0
102
RTVSPost2010PropOp31
 70
     1
102
RTVSPost2010Prop32
280
     0
102
RTVSPost2010PropOp32
 70
     1
102
RTVSPost2010Prop33
280
     0
102
RTVSPost2010PropOp33
 70
     1
102
RTVSPost2010Prop34
280
     0
102
RTVSPost2010PropOp34
 70
     1
102
RTVSPost2010Prop35
280
     0
102
RTVSPost2010PropOp35
 70
     1
102
RTVSPost2010Prop36
280
     0
102
RTVSPost2010PropOp36
 70
     1
102
RTVSPost2010Prop37
 90
       50
102
RTVSPost2010PropOp37
 70
     1
102
RTVSPost2010Prop38
140
0.0
102
RTVSPost2010PropOp38
 70
     1
102
RTVSPost2010Prop39
140
1.0
102
RTVSPost2010PropOp39
 70
     1
102
RTVSPost2010Prop40
 90
        0
102
RTVSPost2010PropOp40
 70
     1
102
RTVSPost2010Prop41ColorIndex
 90
       18
102
RTVSPost2010Prop41ColorRGB
 90
        0
102
RTVSPost2010PropOp41
 70
     1
102
RTVSPost2010Prop42
 90
       50
102
RTVSPost2010PropOp42
 70
     1
102
RTVSPost2010Prop43
 90
        3
102
RTVSPost2010PropOp43
 70
     1
102
RTVSPost2010Prop44ColorIndex
 90
        5
102
RTVSPost2010Prop44ColorRGB
 90
      255
102
RTVSPost2010PropOp44
 70
     1
102
RTVSPost2010Prop45
280
     0
102
RTVSPost2010PropOp45
 70
     1
102
RTVSPost2010Prop46
 90
       50
102
RTVSPost2010PropOp46
 70
     1
102
RTVSPost2010Prop47
 90
       50
102
RTVSPost2010PropOp47
 70
     1
102
RTVSPost2010Prop48
 90
       50
102
RTVSPost2010PropOp48
 70
     1
102
RTVSPost2010Prop49
280
     0
102
RTVSPost2010PropOp49
 70
     1
102
RTVSPost2010Prop50
 90
       50
102
RTVSPost2010PropOp50
 70
     1
102
RTVSPost2010Prop51ColorIndex
 90
      256
102
RTVSPost2010Prop51ColorRGB
 90
-16777216
102
RTVSPost2010PropOp51
 70
     0
102
RTVSPost2010Prop52
140
1.0
102
RTVSPost2010PropOp52
 70
     0
102
RTVSPost2010Prop53
 90
        2
102
RTVSPost2010PropOp53
 70
     1
102
RTVSPost2010Prop54
  1
strokes_ogs.tif
102
RTVSPost2010PropOp54
 70
     1
102
RTVSPost2010Prop55
280
     0
102
RTVSPost2010PropOp55
 70
     1
102
RTVSPost2010Prop56
140
1.0
102
RTVSPost2010PropOp56
 70
     1
102
RTVSPost2010Prop57
140
1.0
102
RTVSPost2010PropOp57
 70
     1
102
RTVSPropertyOp0
 70
     1
102
RTVSPropertyOp1
 70
     1
102
RTVSPropertyOp2
 70
     1
102
RTVSPropertyOp3
 70
     1
102
RTVSPropertyOp4
 70
     1
102
RTVSPropertyOp5
 70
     1
102
RTVSPropertyOp6
 70
     1
102
RTVSPropertyOp7
 70
     1
102
RTVSPropertyOp8
 70
     1
102
RTVSPropertyOp9
 70
     1
102
RTVSPropertyOp10
 70
     1
102
RTVSPropertyOp11
 70
     1
102
RTVSPropertyOp12
 70
     1
102
RTVSPropertyOp13
 70
     1
102
RTVSPropertyOp14
 70
     1
102
RTVSPropertyOp15
 70
     1
102
RTVSPropertyOp16
 70
     1
102
RTVSPropertyOp17
 70
     1
102
RTVSPropertyOp18
 70
     1
102
RTVSPropertyOp19
 70
     1
102
RTVSPropertyOp20
 70
     1
102
RTVSPropertyOp21
 70
     1
102
RTVSPropertyOp22
 70
     1
102
RTVSPropertyOp23
 70
     1
102
RTVSPropertyOp24
 70
     1
102
RTVSPropertyOp25
 70
     1
102
RTVSPropertyOp26
 70
     1
102
RTVSPropertyOp27
 70
     1
102
RTVSPropertyOp28
 70
     1
102
RTVSPropertyOp29
 70
     1
102
RTVSPropertyOp30
 70
     1
102
RTVSPropertyOp31
 70
     1
102
RTVSPropertyOp32
 70
     1
102
RTVSPropertyOp33
 70
     1
102
RTVSPropertyOp34
 70
     1
102
RTVSPropertyOp35
 70
     1
102
RTVSPropertyOp36
 70
     1
102
RTVSPropertyOp37
 70
     1
102
RTVSPropertyOp38
 70
     1
102
RTVSPropertyOp39
 70
     1
102
RTVSPropertyOp40
 70
     1
102
RTVSPropertyOp41
 70
     1
102
RTVSPropertyOp42
 70
     1
102
RTVSPropertyOp43
 70
     1
102
RTVSPropertyOp44
 70
     1
102
RTVSPropertyOp45
 70
     1
102
RTVSPropertyOp46
 70
     1
102
RTVSPropertyOp47
 70
     1
102
RTVSPropertyOp48
 70
     1
102
RTVSPropertyOp49
 70
     1
102
RTVSPropertyOp50
 70
     1
102
RTVSPropertyOp51
 70
     0
102
RTVSPropertyOp52
 70
     0
102
RTVSPropertyOp53
 70
     1
102
RTVSPropertyOp54
 70
     1
102
RTVSPropertyOp55
 70
     1
102
RTVSPropertyOp56
 70
     1
102
RTVSPropertyOp57
 70
     1
102
RTVSPropertyOp58
 70
     1
102
RTVSPropertyOp59
 70
     1
102
RTVSPropertyOp60
 70
     1
102
RTVSPropertyOp61
 70
     1
102
RTVSPropertyOp62
 70
     1
  0
XRECORD
  5
ACEF
102
{ACAD_REACTORS
330
ACEE
102
}
330
ACEE
100
AcDbXrecord
280
     1
102
RTVSPost2010Prop28
280
     0
102
RTVSPost2010PropOp28
 70
     1
102
RTVSPost2010Prop29
280
     1
102
RTVSPost2010PropOp29
 70
     1
102
RTVSPost2010Prop30
280
     1
102
RTVSPost2010PropOp30
 70
     1
102
RTVSPost2010Prop31
280
     0
102
RTVSPost2010PropOp31
 70
     1
102
RTVSPost2010Prop32
280
     0
102
RTVSPost2010PropOp32
 70
     1
102
RTVSPost2010Prop33
280
     0
102
RTVSPost2010PropOp33
 70
     1
102
RTVSPost2010Prop34
280
     0
102
RTVSPost2010PropOp34
 70
     1
102
RTVSPost2010Prop35
280
     0
102
RTVSPost2010PropOp35
 70
     1
102
RTVSPost2010Prop36
280
     0
102
RTVSPost2010PropOp36
 70
     1
102
RTVSPost2010Prop37
 90
       50
102
RTVSPost2010PropOp37
 70
     1
102
RTVSPost2010Prop38
140
0.0
102
RTVSPost2010PropOp38
 70
     1
102
RTVSPost2010Prop39
140
1.0
102
RTVSPost2010PropOp39
 70
     1
102
RTVSPost2010Prop40
 90
        0
102
RTVSPost2010PropOp40
 70
     1
102
RTVSPost2010Prop41ColorIndex
 90
       18
102
RTVSPost2010Prop41ColorRGB
 90
        0
102
RTVSPost2010PropOp41
 70
     1
102
RTVSPost2010Prop42
 90
       50
102
RTVSPost2010PropOp42
 70
     1
102
RTVSPost2010Prop43
 90
        3
102
RTVSPost2010PropOp43
 70
     1
102
RTVSPost2010Prop44ColorIndex
 90
        5
102
RTVSPost2010Prop44ColorRGB
 90
      255
102
RTVSPost2010PropOp44
 70
     1
102
RTVSPost2010Prop45
280
     0
102
RTVSPost2010PropOp45
 70
     1
102
RTVSPost2010Prop46
 90
       50
102
RTVSPost2010PropOp46
 70
     1
102
RTVSPost2010Prop47
 90
       50
102
RTVSPost2010PropOp47
 70
     1
102
RTVSPost2010Prop48
 90
       50
102
RTVSPost2010PropOp48
 70
     1
102
RTVSPost2010Prop49
280
     0
102
RTVSPost2010PropOp49
 70
     1
102
RTVSPost2010Prop50
 90
       50
102
RTVSPost2010PropOp50
 70
     1
102
RTVSPost2010Prop51ColorIndex
 90
      256
102
RTVSPost2010Prop51ColorRGB
 90
-16777216
102
RTVSPost2010PropOp51
 70
     0
102
RTVSPost2010Prop52
140
1.0
102
RTVSPost2010PropOp52
 70
     0
102
RTVSPost2010Prop53
 90
        2
102
RTVSPost2010PropOp53
 70
     1
102
RTVSPost2010Prop54
  1
strokes_ogs.tif
102
RTVSPost2010PropOp54
 70
     1
102
RTVSPost2010Prop55
280
     0
102
RTVSPost2010PropOp55
 70
     1
102
RTVSPost2010Prop56
140
1.0
102
RTVSPost2010PropOp56
 70
     1
102
RTVSPost2010Prop57
140
1.0
102
RTVSPost2010PropOp57
 70
     1
102
RTVSPropertyOp0
 70
     1
102
RTVSPropertyOp1
 70
     1
102
RTVSPropertyOp2
 70
     1
102
RTVSPropertyOp3
 70
     1
102
RTVSPropertyOp4
 70
     1
102
RTVSPropertyOp5
 70
     1
102
RTVSPropertyOp6
 70
     1
102
RTVSPropertyOp7
 70
     1
102
RTVSPropertyOp8
 70
     1
102
RTVSPropertyOp9
 70
     1
102
RTVSPropertyOp10
 70
     1
102
RTVSPropertyOp11
 70
     1
102
RTVSPropertyOp12
 70
     1
102
RTVSPropertyOp13
 70
     1
102
RTVSPropertyOp14
 70
     1
102
RTVSPropertyOp15
 70
     1
102
RTVSPropertyOp16
 70
     1
102
RTVSPropertyOp17
 70
     1
102
RTVSPropertyOp18
 70
     1
102
RTVSPropertyOp19
 70
     1
102
RTVSPropertyOp20
 70
     1
102
RTVSPropertyOp21
 70
     1
102
RTVSPropertyOp22
 70
     1
102
RTVSPropertyOp23
 70
     1
102
RTVSPropertyOp24
 70
     1
102
RTVSPropertyOp25
 70
     1
102
RTVSPropertyOp26
 70
     1
102
RTVSPropertyOp27
 70
     1
102
RTVSPropertyOp28
 70
     1
102
RTVSPropertyOp29
 70
     1
102
RTVSPropertyOp30
 70
     1
102
RTVSPropertyOp31
 70
     1
102
RTVSPropertyOp32
 70
     1
102
RTVSPropertyOp33
 70
     1
102
RTVSPropertyOp34
 70
     1
102
RTVSPropertyOp35
 70
     1
102
RTVSPropertyOp36
 70
     1
102
RTVSPropertyOp37
 70
     1
102
RTVSPropertyOp38
 70
     1
102
RTVSPropertyOp39
 70
     1
102
RTVSPropertyOp40
 70
     1
102
RTVSPropertyOp41
 70
     1
102
RTVSPropertyOp42
 70
     1
102
RTVSPropertyOp43
 70
     1
102
RTVSPropertyOp44
 70
     1
102
RTVSPropertyOp45
 70
     1
102
RTVSPropertyOp46
 70
     1
102
RTVSPropertyOp47
 70
     1
102
RTVSPropertyOp48
 70
     1
102
RTVSPropertyOp49
 70
     1
102
RTVSPropertyOp50
 70
     1
102
RTVSPropertyOp51
 70
     0
102
RTVSPropertyOp52
 70
     0
102
RTVSPropertyOp53
 70
     1
102
RTVSPropertyOp54
 70
     1
102
RTVSPropertyOp55
 70
     1
102
RTVSPropertyOp56
 70
     1
102
RTVSPropertyOp57
 70
     1
102
RTVSPropertyOp58
 70
     1
102
RTVSPropertyOp59
 70
     1
102
RTVSPropertyOp60
 70
     1
102
RTVSPropertyOp61
 70
     1
102
RTVSPropertyOp62
 70
     1
  0
XRECORD
  5
ACF3
102
{ACAD_REACTORS
330
ACF2
102
}
330
ACF2
100
AcDbXrecord
280
     1
102
RTVSPost2010Prop28
280
     0
102
RTVSPost2010PropOp28
 70
     1
102
RTVSPost2010Prop29
280
     1
102
RTVSPost2010PropOp29
 70
     1
102
RTVSPost2010Prop30
280
     1
102
RTVSPost2010PropOp30
 70
     1
102
RTVSPost2010Prop31
280
     0
102
RTVSPost2010PropOp31
 70
     1
102
RTVSPost2010Prop32
280
     0
102
RTVSPost2010PropOp32
 70
     1
102
RTVSPost2010Prop33
280
     0
102
RTVSPost2010PropOp33
 70
     1
102
RTVSPost2010Prop34
280
     0
102
RTVSPost2010PropOp34
 70
     1
102
RTVSPost2010Prop35
280
     0
102
RTVSPost2010PropOp35
 70
     1
102
RTVSPost2010Prop36
280
     0
102
RTVSPost2010PropOp36
 70
     1
102
RTVSPost2010Prop37
 90
       50
102
RTVSPost2010PropOp37
 70
     1
102
RTVSPost2010Prop38
140
0.0
102
RTVSPost2010PropOp38
 70
     1
102
RTVSPost2010Prop39
140
1.0
102
RTVSPost2010PropOp39
 70
     1
102
RTVSPost2010Prop40
 90
        0
102
RTVSPost2010PropOp40
 70
     1
102
RTVSPost2010Prop41ColorIndex
 90
       18
102
RTVSPost2010Prop41ColorRGB
 90
        0
102
RTVSPost2010PropOp41
 70
     1
102
RTVSPost2010Prop42
 90
       50
102
RTVSPost2010PropOp42
 70
     1
102
RTVSPost2010Prop43
 90
        3
102
RTVSPost2010PropOp43
 70
     1
102
RTVSPost2010Prop44ColorIndex
 90
        5
102
RTVSPost2010Prop44ColorRGB
 90
      255
102
RTVSPost2010PropOp44
 70
     1
102
RTVSPost2010Prop45
280
     0
102
RTVSPost2010PropOp45
 70
     1
102
RTVSPost2010Prop46
 90
       50
102
RTVSPost2010PropOp46
 70
     1
102
RTVSPost2010Prop47
 90
       50
102
RTVSPost2010PropOp47
 70
     1
102
RTVSPost2010Prop48
 90
       50
102
RTVSPost2010PropOp48
 70
     1
102
RTVSPost2010Prop49
280
     0
102
RTVSPost2010PropOp49
 70
     1
102
RTVSPost2010Prop50
 90
       50
102
RTVSPost2010PropOp50
 70
     1
102
RTVSPost2010Prop51ColorIndex
 90
      256
102
RTVSPost2010Prop51ColorRGB
 90
-16777216
102
RTVSPost2010PropOp51
 70
     0
102
RTVSPost2010Prop52
140
1.0
102
RTVSPost2010PropOp52
 70
     0
102
RTVSPost2010Prop53
 90
        2
102
RTVSPost2010PropOp53
 70
     1
102
RTVSPost2010Prop54
  1
strokes_ogs.tif
102
RTVSPost2010PropOp54
 70
     1
102
RTVSPost2010Prop55
280
     0
102
RTVSPost2010PropOp55
 70
     1
102
RTVSPost2010Prop56
140
1.0
102
RTVSPost2010PropOp56
 70
     1
102
RTVSPost2010Prop57
140
1.0
102
RTVSPost2010PropOp57
 70
     1
102
RTVSPropertyOp0
 70
     1
102
RTVSPropertyOp1
 70
     1
102
RTVSPropertyOp2
 70
     1
102
RTVSPropertyOp3
 70
     1
102
RTVSPropertyOp4
 70
     1
102
RTVSPropertyOp5
 70
     1
102
RTVSPropertyOp6
 70
     1
102
RTVSPropertyOp7
 70
     1
102
RTVSPropertyOp8
 70
     1
102
RTVSPropertyOp9
 70
     1
102
RTVSPropertyOp10
 70
     1
102
RTVSPropertyOp11
 70
     1
102
RTVSPropertyOp12
 70
     1
102
RTVSPropertyOp13
 70
     1
102
RTVSPropertyOp14
 70
     1
102
RTVSPropertyOp15
 70
     1
102
RTVSPropertyOp16
 70
     1
102
RTVSPropertyOp17
 70
     1
102
RTVSPropertyOp18
 70
     1
102
RTVSPropertyOp19
 70
     1
102
RTVSPropertyOp20
 70
     1
102
RTVSPropertyOp21
 70
     1
102
RTVSPropertyOp22
 70
     1
102
RTVSPropertyOp23
 70
     1
102
RTVSPropertyOp24
 70
     1
102
RTVSPropertyOp25
 70
     1
102
RTVSPropertyOp26
 70
     1
102
RTVSPropertyOp27
 70
     1
102
RTVSPropertyOp28
 70
     1
102
RTVSPropertyOp29
 70
     1
102
RTVSPropertyOp30
 70
     1
102
RTVSPropertyOp31
 70
     1
102
RTVSPropertyOp32
 70
     1
102
RTVSPropertyOp33
 70
     1
102
RTVSPropertyOp34
 70
     1
102
RTVSPropertyOp35
 70
     1
102
RTVSPropertyOp36
 70
     1
102
RTVSPropertyOp37
 70
     1
102
RTVSPropertyOp38
 70
     1
102
RTVSPropertyOp39
 70
     1
102
RTVSPropertyOp40
 70
     1
102
RTVSPropertyOp41
 70
     1
102
RTVSPropertyOp42
 70
     1
102
RTVSPropertyOp43
 70
     1
102
RTVSPropertyOp44
 70
     1
102
RTVSPropertyOp45
 70
     1
102
RTVSPropertyOp46
 70
     1
102
RTVSPropertyOp47
 70
     1
102
RTVSPropertyOp48
 70
     1
102
RTVSPropertyOp49
 70
     1
102
RTVSPropertyOp50
 70
     1
102
RTVSPropertyOp51
 70
     0
102
RTVSPropertyOp52
 70
     0
102
RTVSPropertyOp53
 70
     1
102
RTVSPropertyOp54
 70
     1
102
RTVSPropertyOp55
 70
     1
102
RTVSPropertyOp56
 70
     1
102
RTVSPropertyOp57
 70
     1
102
RTVSPropertyOp58
 70
     1
102
RTVSPropertyOp59
 70
     1
102
RTVSPropertyOp60
 70
     1
102
RTVSPropertyOp61
 70
     1
102
RTVSPropertyOp62
 70
     1
  0
XRECORD
  5
AD0D
102
{ACAD_REACTORS
330
AD0C
102
}
330
AD0C
100
AcDbXrecord
280
     1
102
RTVSPost2010Prop28
280
     0
102
RTVSPost2010PropOp28
 70
     1
102
RTVSPost2010Prop29
280
     1
102
RTVSPost2010PropOp29
 70
     1
102
RTVSPost2010Prop30
280
     1
102
RTVSPost2010PropOp30
 70
     1
102
RTVSPost2010Prop31
280
     0
102
RTVSPost2010PropOp31
 70
     1
102
RTVSPost2010Prop32
280
     0
102
RTVSPost2010PropOp32
 70
     1
102
RTVSPost2010Prop33
280
     0
102
RTVSPost2010PropOp33
 70
     1
102
RTVSPost2010Prop34
280
     0
102
RTVSPost2010PropOp34
 70
     1
102
RTVSPost2010Prop35
280
     0
102
RTVSPost2010PropOp35
 70
     1
102
RTVSPost2010Prop36
280
     0
102
RTVSPost2010PropOp36
 70
     1
102
RTVSPost2010Prop37
 90
       50
102
RTVSPost2010PropOp37
 70
     0
102
RTVSPost2010Prop38
140
0.0
102
RTVSPost2010PropOp38
 70
     0
102
RTVSPost2010Prop39
140
1.0
102
RTVSPost2010PropOp39
 70
     0
102
RTVSPost2010Prop40
 90
        0
102
RTVSPost2010PropOp40
 70
     0
102
RTVSPost2010Prop41ColorIndex
 90
       18
102
RTVSPost2010Prop41ColorRGB
 90
        0
102
RTVSPost2010PropOp41
 70
     0
102
RTVSPost2010Prop42
 90
       50
102
RTVSPost2010PropOp42
 70
     0
102
RTVSPost2010Prop43
 90
        3
102
RTVSPost2010PropOp43
 70
     0
102
RTVSPost2010Prop44ColorIndex
 90
        5
102
RTVSPost2010Prop44ColorRGB
 90
      255
102
RTVSPost2010PropOp44
 70
     0
102
RTVSPost2010Prop45
280
     0
102
RTVSPost2010PropOp45
 70
     1
102
RTVSPost2010Prop46
 90
       50
102
RTVSPost2010PropOp46
 70
     0
102
RTVSPost2010Prop47
 90
       50
102
RTVSPost2010PropOp47
 70
     0
102
RTVSPost2010Prop48
 90
       50
102
RTVSPost2010PropOp48
 70
     0
102
RTVSPost2010Prop49
280
     0
102
RTVSPost2010PropOp49
 70
     1
102
RTVSPost2010Prop50
 90
       50
102
RTVSPost2010PropOp50
 70
     0
102
RTVSPost2010Prop51ColorIndex
 90
      256
102
RTVSPost2010Prop51ColorRGB
 90
-16777216
102
RTVSPost2010PropOp51
 70
     0
102
RTVSPost2010Prop52
140
1.0
102
RTVSPost2010PropOp52
 70
     0
102
RTVSPost2010Prop53
 90
        2
102
RTVSPost2010PropOp53
 70
     0
102
RTVSPost2010Prop54
  1
strokes_ogs.tif
102
RTVSPost2010PropOp54
 70
     0
102
RTVSPost2010Prop55
280
     0
102
RTVSPost2010PropOp55
 70
     1
102
RTVSPost2010Prop56
140
1.0
102
RTVSPost2010PropOp56
 70
     0
102
RTVSPost2010Prop57
140
1.0
102
RTVSPost2010PropOp57
 70
     0
102
RTVSPropertyOp0
 70
     0
102
RTVSPropertyOp1
 70
     0
102
RTVSPropertyOp2
 70
     0
102
RTVSPropertyOp3
 70
     0
102
RTVSPropertyOp4
 70
     0
102
RTVSPropertyOp5
 70
     0
102
RTVSPropertyOp6
 70
     0
102
RTVSPropertyOp7
 70
     0
102
RTVSPropertyOp8
 70
     0
102
RTVSPropertyOp9
 70
     0
102
RTVSPropertyOp10
 70
     0
102
RTVSPropertyOp11
 70
     0
102
RTVSPropertyOp12
 70
     0
102
RTVSPropertyOp13
 70
     0
102
RTVSPropertyOp14
 70
     2
102
RTVSPropertyOp15
 70
     0
102
RTVSPropertyOp16
 70
     0
102
RTVSPropertyOp17
 70
     0
102
RTVSPropertyOp18
 70
     0
102
RTVSPropertyOp19
 70
     0
102
RTVSPropertyOp20
 70
     0
102
RTVSPropertyOp21
 70
     0
102
RTVSPropertyOp22
 70
     0
102
RTVSPropertyOp23
 70
     0
102
RTVSPropertyOp24
 70
     0
102
RTVSPropertyOp25
 70
     0
102
RTVSPropertyOp26
 70
     0
102
RTVSPropertyOp27
 70
     0
102
RTVSPropertyOp28
 70
     1
102
RTVSPropertyOp29
 70
     1
102
RTVSPropertyOp30
 70
     1
102
RTVSPropertyOp31
 70
     1
102
RTVSPropertyOp32
 70
     1
102
RTVSPropertyOp33
 70
     1
102
RTVSPropertyOp34
 70
     1
102
RTVSPropertyOp35
 70
     1
102
RTVSPropertyOp36
 70
     1
102
RTVSPropertyOp37
 70
     0
102
RTVSPropertyOp38
 70
     0
102
RTVSPropertyOp39
 70
     0
102
RTVSPropertyOp40
 70
     0
102
RTVSPropertyOp41
 70
     0
102
RTVSPropertyOp42
 70
     0
102
RTVSPropertyOp43
 70
     0
102
RTVSPropertyOp44
 70
     0
102
RTVSPropertyOp45
 70
     1
102
RTVSPropertyOp46
 70
     0
102
RTVSPropertyOp47
 70
     0
102
RTVSPropertyOp48
 70
     0
102
RTVSPropertyOp49
 70
     1
102
RTVSPropertyOp50
 70
     0
102
RTVSPropertyOp51
 70
     0
102
RTVSPropertyOp52
 70
     0
102
RTVSPropertyOp53
 70
     0
102
RTVSPropertyOp54
 70
     0
102
RTVSPropertyOp55
 70
     1
102
RTVSPropertyOp56
 70
     0
102
RTVSPropertyOp57
 70
     0
102
RTVSPropertyOp58
 70
     0
102
RTVSPropertyOp59
 70
     0
102
RTVSPropertyOp60
 70
     0
102
RTVSPropertyOp61
 70
     0
102
RTVSPropertyOp62
 70
     0
  0
XRECORD
  5
ACFB
102
{ACAD_REACTORS
330
ACFA
102
}
330
ACFA
100
AcDbXrecord
280
     1
102
RTVSPost2010Prop28
280
     0
102
RTVSPost2010PropOp28
 70
     1
102
RTVSPost2010Prop29
280
     1
102
RTVSPost2010PropOp29
 70
     1
102
RTVSPost2010Prop30
280
     1
102
RTVSPost2010PropOp30
 70
     1
102
RTVSPost2010Prop31
280
     0
102
RTVSPost2010PropOp31
 70
     1
102
RTVSPost2010Prop32
280
     0
102
RTVSPost2010PropOp32
 70
     1
102
RTVSPost2010Prop33
280
     0
102
RTVSPost2010PropOp33
 70
     1
102
RTVSPost2010Prop34
280
     0
102
RTVSPost2010PropOp34
 70
     1
102
RTVSPost2010Prop35
280
     0
102
RTVSPost2010PropOp35
 70
     1
102
RTVSPost2010Prop36
280
     0
102
RTVSPost2010PropOp36
 70
     1
102
RTVSPost2010Prop37
 90
       50
102
RTVSPost2010PropOp37
 70
     1
102
RTVSPost2010Prop38
140
0.0
102
RTVSPost2010PropOp38
 70
     1
102
RTVSPost2010Prop39
140
1.0
102
RTVSPost2010PropOp39
 70
     1
102
RTVSPost2010Prop40
 90
        0
102
RTVSPost2010PropOp40
 70
     1
102
RTVSPost2010Prop41ColorIndex
 90
       18
102
RTVSPost2010Prop41ColorRGB
 90
        0
102
RTVSPost2010PropOp41
 70
     1
102
RTVSPost2010Prop42
 90
       50
102
RTVSPost2010PropOp42
 70
     1
102
RTVSPost2010Prop43
 90
        3
102
RTVSPost2010PropOp43
 70
     1
102
RTVSPost2010Prop44ColorIndex
 90
        5
102
RTVSPost2010Prop44ColorRGB
 90
      255
102
RTVSPost2010PropOp44
 70
     1
102
RTVSPost2010Prop45
280
     0
102
RTVSPost2010PropOp45
 70
     1
102
RTVSPost2010Prop46
 90
       50
102
RTVSPost2010PropOp46
 70
     1
102
RTVSPost2010Prop47
 90
       50
102
RTVSPost2010PropOp47
 70
     1
102
RTVSPost2010Prop48
 90
       50
102
RTVSPost2010PropOp48
 70
     1
102
RTVSPost2010Prop49
280
     0
102
RTVSPost2010PropOp49
 70
     1
102
RTVSPost2010Prop50
 90
       50
102
RTVSPost2010PropOp50
 70
     1
102
RTVSPost2010Prop51ColorIndex
 90
      256
102
RTVSPost2010Prop51ColorRGB
 90
-16777216
102
RTVSPost2010PropOp51
 70
     0
102
RTVSPost2010Prop52
140
1.0
102
RTVSPost2010PropOp52
 70
     0
102
RTVSPost2010Prop53
 90
        2
102
RTVSPost2010PropOp53
 70
     1
102
RTVSPost2010Prop54
  1
strokes_ogs.tif
102
RTVSPost2010PropOp54
 70
     1
102
RTVSPost2010Prop55
280
     0
102
RTVSPost2010PropOp55
 70
     1
102
RTVSPost2010Prop56
140
1.0
102
RTVSPost2010PropOp56
 70
     1
102
RTVSPost2010Prop57
140
1.0
102
RTVSPost2010PropOp57
 70
     1
102
RTVSPropertyOp0
 70
     1
102
RTVSPropertyOp1
 70
     1
102
RTVSPropertyOp2
 70
     1
102
RTVSPropertyOp3
 70
     1
102
RTVSPropertyOp4
 70
     1
102
RTVSPropertyOp5
 70
     1
102
RTVSPropertyOp6
 70
     1
102
RTVSPropertyOp7
 70
     1
102
RTVSPropertyOp8
 70
     1
102
RTVSPropertyOp9
 70
     1
102
RTVSPropertyOp10
 70
     1
102
RTVSPropertyOp11
 70
     1
102
RTVSPropertyOp12
 70
     1
102
RTVSPropertyOp13
 70
     1
102
RTVSPropertyOp14
 70
     1
102
RTVSPropertyOp15
 70
     1
102
RTVSPropertyOp16
 70
     1
102
RTVSPropertyOp17
 70
     1
102
RTVSPropertyOp18
 70
     1
102
RTVSPropertyOp19
 70
     1
102
RTVSPropertyOp20
 70
     1
102
RTVSPropertyOp21
 70
     1
102
RTVSPropertyOp22
 70
     1
102
RTVSPropertyOp23
 70
     1
102
RTVSPropertyOp24
 70
     1
102
RTVSPropertyOp25
 70
     1
102
RTVSPropertyOp26
 70
     1
102
RTVSPropertyOp27
 70
     1
102
RTVSPropertyOp28
 70
     1
102
RTVSPropertyOp29
 70
     1
102
RTVSPropertyOp30
 70
     1
102
RTVSPropertyOp31
 70
     1
102
RTVSPropertyOp32
 70
     1
102
RTVSPropertyOp33
 70
     1
102
RTVSPropertyOp34
 70
     1
102
RTVSPropertyOp35
 70
     1
102
RTVSPropertyOp36
 70
     1
102
RTVSPropertyOp37
 70
     1
102
RTVSPropertyOp38
 70
     1
102
RTVSPropertyOp39
 70
     1
102
RTVSPropertyOp40
 70
     1
102
RTVSPropertyOp41
 70
     1
102
RTVSPropertyOp42
 70
     1
102
RTVSPropertyOp43
 70
     1
102
RTVSPropertyOp44
 70
     1
102
RTVSPropertyOp45
 70
     1
102
RTVSPropertyOp46
 70
     1
102
RTVSPropertyOp47
 70
     1
102
RTVSPropertyOp48
 70
     1
102
RTVSPropertyOp49
 70
     1
102
RTVSPropertyOp50
 70
     1
102
RTVSPropertyOp51
 70
     0
102
RTVSPropertyOp52
 70
     0
102
RTVSPropertyOp53
 70
     1
102
RTVSPropertyOp54
 70
     1
102
RTVSPropertyOp55
 70
     1
102
RTVSPropertyOp56
 70
     1
102
RTVSPropertyOp57
 70
     1
102
RTVSPropertyOp58
 70
     1
102
RTVSPropertyOp59
 70
     1
102
RTVSPropertyOp60
 70
     1
102
RTVSPropertyOp61
 70
     1
102
RTVSPropertyOp62
 70
     1
  0
XRECORD
  5
ACDF
102
{ACAD_REACTORS
330
ACDE
102
}
330
ACDE
100
AcDbXrecord
280
     1
102
RTVSPost2010Prop28
280
     0
102
RTVSPost2010PropOp28
 70
     1
102
RTVSPost2010Prop29
280
     1
102
RTVSPost2010PropOp29
 70
     1
102
RTVSPost2010Prop30
280
     1
102
RTVSPost2010PropOp30
 70
     1
102
RTVSPost2010Prop31
280
     0
102
RTVSPost2010PropOp31
 70
     1
102
RTVSPost2010Prop32
280
     0
102
RTVSPost2010PropOp32
 70
     1
102
RTVSPost2010Prop33
280
     0
102
RTVSPost2010PropOp33
 70
     1
102
RTVSPost2010Prop34
280
     0
102
RTVSPost2010PropOp34
 70
     1
102
RTVSPost2010Prop35
280
     0
102
RTVSPost2010PropOp35
 70
     1
102
RTVSPost2010Prop36
280
     0
102
RTVSPost2010PropOp36
 70
     1
102
RTVSPost2010Prop37
 90
       50
102
RTVSPost2010PropOp37
 70
     1
102
RTVSPost2010Prop38
140
0.0
102
RTVSPost2010PropOp38
 70
     1
102
RTVSPost2010Prop39
140
1.0
102
RTVSPost2010PropOp39
 70
     1
102
RTVSPost2010Prop40
 90
        0
102
RTVSPost2010PropOp40
 70
     1
102
RTVSPost2010Prop41ColorIndex
 90
       18
102
RTVSPost2010Prop41ColorRGB
 90
        0
102
RTVSPost2010PropOp41
 70
     1
102
RTVSPost2010Prop42
 90
       50
102
RTVSPost2010PropOp42
 70
     1
102
RTVSPost2010Prop43
 90
        3
102
RTVSPost2010PropOp43
 70
     1
102
RTVSPost2010Prop44ColorIndex
 90
        5
102
RTVSPost2010Prop44ColorRGB
 90
      255
102
RTVSPost2010PropOp44
 70
     1
102
RTVSPost2010Prop45
280
     0
102
RTVSPost2010PropOp45
 70
     1
102
RTVSPost2010Prop46
 90
       50
102
RTVSPost2010PropOp46
 70
     1
102
RTVSPost2010Prop47
 90
       50
102
RTVSPost2010PropOp47
 70
     1
102
RTVSPost2010Prop48
 90
       50
102
RTVSPost2010PropOp48
 70
     1
102
RTVSPost2010Prop49
280
     0
102
RTVSPost2010PropOp49
 70
     1
102
RTVSPost2010Prop50
 90
       50
102
RTVSPost2010PropOp50
 70
     1
102
RTVSPost2010Prop51ColorIndex
 90
      256
102
RTVSPost2010Prop51ColorRGB
 90
-16777216
102
RTVSPost2010PropOp51
 70
     0
102
RTVSPost2010Prop52
140
1.0
102
RTVSPost2010PropOp52
 70
     0
102
RTVSPost2010Prop53
 90
        2
102
RTVSPost2010PropOp53
 70
     1
102
RTVSPost2010Prop54
  1
strokes_ogs.tif
102
RTVSPost2010PropOp54
 70
     1
102
RTVSPost2010Prop55
280
     0
102
RTVSPost2010PropOp55
 70
     1
102
RTVSPost2010Prop56
140
1.0
102
RTVSPost2010PropOp56
 70
     1
102
RTVSPost2010Prop57
140
1.0
102
RTVSPost2010PropOp57
 70
     1
102
RTVSPropertyOp0
 70
     1
102
RTVSPropertyOp1
 70
     1
102
RTVSPropertyOp2
 70
     1
102
RTVSPropertyOp3
 70
     1
102
RTVSPropertyOp4
 70
     1
102
RTVSPropertyOp5
 70
     1
102
RTVSPropertyOp6
 70
     1
102
RTVSPropertyOp7
 70
     1
102
RTVSPropertyOp8
 70
     1
102
RTVSPropertyOp9
 70
     1
102
RTVSPropertyOp10
 70
     1
102
RTVSPropertyOp11
 70
     1
102
RTVSPropertyOp12
 70
     1
102
RTVSPropertyOp13
 70
     1
102
RTVSPropertyOp14
 70
     1
102
RTVSPropertyOp15
 70
     1
102
RTVSPropertyOp16
 70
     1
102
RTVSPropertyOp17
 70
     1
102
RTVSPropertyOp18
 70
     1
102
RTVSPropertyOp19
 70
     1
102
RTVSPropertyOp20
 70
     1
102
RTVSPropertyOp21
 70
     1
102
RTVSPropertyOp22
 70
     1
102
RTVSPropertyOp23
 70
     1
102
RTVSPropertyOp24
 70
     1
102
RTVSPropertyOp25
 70
     1
102
RTVSPropertyOp26
 70
     1
102
RTVSPropertyOp27
 70
     1
102
RTVSPropertyOp28
 70
     1
102
RTVSPropertyOp29
 70
     1
102
RTVSPropertyOp30
 70
     1
102
RTVSPropertyOp31
 70
     1
102
RTVSPropertyOp32
 70
     1
102
RTVSPropertyOp33
 70
     1
102
RTVSPropertyOp34
 70
     1
102
RTVSPropertyOp35
 70
     1
102
RTVSPropertyOp36
 70
     1
102
RTVSPropertyOp37
 70
     1
102
RTVSPropertyOp38
 70
     1
102
RTVSPropertyOp39
 70
     1
102
RTVSPropertyOp40
 70
     1
102
RTVSPropertyOp41
 70
     1
102
RTVSPropertyOp42
 70
     1
102
RTVSPropertyOp43
 70
     1
102
RTVSPropertyOp44
 70
     1
102
RTVSPropertyOp45
 70
     1
102
RTVSPropertyOp46
 70
     1
102
RTVSPropertyOp47
 70
     1
102
RTVSPropertyOp48
 70
     1
102
RTVSPropertyOp49
 70
     1
102
RTVSPropertyOp50
 70
     1
102
RTVSPropertyOp51
 70
     0
102
RTVSPropertyOp52
 70
     0
102
RTVSPropertyOp53
 70
     1
102
RTVSPropertyOp54
 70
     1
102
RTVSPropertyOp55
 70
     1
102
RTVSPropertyOp56
 70
     1
102
RTVSPropertyOp57
 70
     1
102
RTVSPropertyOp58
 70
     1
102
RTVSPropertyOp59
 70
     1
102
RTVSPropertyOp60
 70
     1
102
RTVSPropertyOp61
 70
     1
102
RTVSPropertyOp62
 70
     1
  0
XRECORD
  5
ACE1
102
{ACAD_REACTORS
330
ACE0
102
}
330
ACE0
100
AcDbXrecord
280
     1
102
RTVSPost2010Prop28
280
     0
102
RTVSPost2010PropOp28
 70
     1
102
RTVSPost2010Prop29
280
     1
102
RTVSPost2010PropOp29
 70
     1
102
RTVSPost2010Prop30
280
     1
102
RTVSPost2010PropOp30
 70
     1
102
RTVSPost2010Prop31
280
     0
102
RTVSPost2010PropOp31
 70
     1
102
RTVSPost2010Prop32
280
     0
102
RTVSPost2010PropOp32
 70
     1
102
RTVSPost2010Prop33
280
     0
102
RTVSPost2010PropOp33
 70
     1
102
RTVSPost2010Prop34
280
     0
102
RTVSPost2010PropOp34
 70
     1
102
RTVSPost2010Prop35
280
     0
102
RTVSPost2010PropOp35
 70
     1
102
RTVSPost2010Prop36
280
     0
102
RTVSPost2010PropOp36
 70
     1
102
RTVSPost2010Prop37
 90
       50
102
RTVSPost2010PropOp37
 70
     1
102
RTVSPost2010Prop38
140
0.0
102
RTVSPost2010PropOp38
 70
     1
102
RTVSPost2010Prop39
140
1.0
102
RTVSPost2010PropOp39
 70
     1
102
RTVSPost2010Prop40
 90
        0
102
RTVSPost2010PropOp40
 70
     1
102
RTVSPost2010Prop41ColorIndex
 90
       18
102
RTVSPost2010Prop41ColorRGB
 90
        0
102
RTVSPost2010PropOp41
 70
     1
102
RTVSPost2010Prop42
 90
       50
102
RTVSPost2010PropOp42
 70
     1
102
RTVSPost2010Prop43
 90
        3
102
RTVSPost2010PropOp43
 70
     1
102
RTVSPost2010Prop44ColorIndex
 90
        5
102
RTVSPost2010Prop44ColorRGB
 90
      255
102
RTVSPost2010PropOp44
 70
     1
102
RTVSPost2010Prop45
280
     0
102
RTVSPost2010PropOp45
 70
     1
102
RTVSPost2010Prop46
 90
       50
102
RTVSPost2010PropOp46
 70
     1
102
RTVSPost2010Prop47
 90
       50
102
RTVSPost2010PropOp47
 70
     1
102
RTVSPost2010Prop48
 90
       50
102
RTVSPost2010PropOp48
 70
     1
102
RTVSPost2010Prop49
280
     0
102
RTVSPost2010PropOp49
 70
     1
102
RTVSPost2010Prop50
 90
       50
102
RTVSPost2010PropOp50
 70
     1
102
RTVSPost2010Prop51ColorIndex
 90
      256
102
RTVSPost2010Prop51ColorRGB
 90
-16777216
102
RTVSPost2010PropOp51
 70
     0
102
RTVSPost2010Prop52
140
1.0
102
RTVSPost2010PropOp52
 70
     0
102
RTVSPost2010Prop53
 90
        2
102
RTVSPost2010PropOp53
 70
     1
102
RTVSPost2010Prop54
  1
strokes_ogs.tif
102
RTVSPost2010PropOp54
 70
     1
102
RTVSPost2010Prop55
280
     0
102
RTVSPost2010PropOp55
 70
     1
102
RTVSPost2010Prop56
140
1.0
102
RTVSPost2010PropOp56
 70
     1
102
RTVSPost2010Prop57
140
1.0
102
RTVSPost2010PropOp57
 70
     1
102
RTVSPropertyOp0
 70
     1
102
RTVSPropertyOp1
 70
     1
102
RTVSPropertyOp2
 70
     1
102
RTVSPropertyOp3
 70
     1
102
RTVSPropertyOp4
 70
     1
102
RTVSPropertyOp5
 70
     1
102
RTVSPropertyOp6
 70
     1
102
RTVSPropertyOp7
 70
     1
102
RTVSPropertyOp8
 70
     1
102
RTVSPropertyOp9
 70
     1
102
RTVSPropertyOp10
 70
     1
102
RTVSPropertyOp11
 70
     1
102
RTVSPropertyOp12
 70
     1
102
RTVSPropertyOp13
 70
     1
102
RTVSPropertyOp14
 70
     1
102
RTVSPropertyOp15
 70
     1
102
RTVSPropertyOp16
 70
     1
102
RTVSPropertyOp17
 70
     1
102
RTVSPropertyOp18
 70
     1
102
RTVSPropertyOp19
 70
     1
102
RTVSPropertyOp20
 70
     1
102
RTVSPropertyOp21
 70
     1
102
RTVSPropertyOp22
 70
     1
102
RTVSPropertyOp23
 70
     1
102
RTVSPropertyOp24
 70
     1
102
RTVSPropertyOp25
 70
     1
102
RTVSPropertyOp26
 70
     1
102
RTVSPropertyOp27
 70
     1
102
RTVSPropertyOp28
 70
     1
102
RTVSPropertyOp29
 70
     1
102
RTVSPropertyOp30
 70
     1
102
RTVSPropertyOp31
 70
     1
102
RTVSPropertyOp32
 70
     1
102
RTVSPropertyOp33
 70
     1
102
RTVSPropertyOp34
 70
     1
102
RTVSPropertyOp35
 70
     1
102
RTVSPropertyOp36
 70
     1
102
RTVSPropertyOp37
 70
     1
102
RTVSPropertyOp38
 70
     1
102
RTVSPropertyOp39
 70
     1
102
RTVSPropertyOp40
 70
     1
102
RTVSPropertyOp41
 70
     1
102
RTVSPropertyOp42
 70
     1
102
RTVSPropertyOp43
 70
     1
102
RTVSPropertyOp44
 70
     1
102
RTVSPropertyOp45
 70
     1
102
RTVSPropertyOp46
 70
     1
102
RTVSPropertyOp47
 70
     1
102
RTVSPropertyOp48
 70
     1
102
RTVSPropertyOp49
 70
     1
102
RTVSPropertyOp50
 70
     1
102
RTVSPropertyOp51
 70
     0
102
RTVSPropertyOp52
 70
     0
102
RTVSPropertyOp53
 70
     1
102
RTVSPropertyOp54
 70
     1
102
RTVSPropertyOp55
 70
     1
102
RTVSPropertyOp56
 70
     1
102
RTVSPropertyOp57
 70
     1
102
RTVSPropertyOp58
 70
     1
102
RTVSPropertyOp59
 70
     1
102
RTVSPropertyOp60
 70
     1
102
RTVSPropertyOp61
 70
     1
102
RTVSPropertyOp62
 70
     1
  0
XRECORD
  5
ACE3
102
{ACAD_REACTORS
330
ACE2
102
}
330
ACE2
100
AcDbXrecord
280
     1
102
RTVSPost2010Prop28
280
     0
102
RTVSPost2010PropOp28
 70
     1
102
RTVSPost2010Prop29
280
     1
102
RTVSPost2010PropOp29
 70
     1
102
RTVSPost2010Prop30
280
     1
102
RTVSPost2010PropOp30
 70
     1
102
RTVSPost2010Prop31
280
     0
102
RTVSPost2010PropOp31
 70
     1
102
RTVSPost2010Prop32
280
     0
102
RTVSPost2010PropOp32
 70
     1
102
RTVSPost2010Prop33
280
     0
102
RTVSPost2010PropOp33
 70
     1
102
RTVSPost2010Prop34
280
     0
102
RTVSPost2010PropOp34
 70
     1
102
RTVSPost2010Prop35
280
     0
102
RTVSPost2010PropOp35
 70
     1
102
RTVSPost2010Prop36
280
     0
102
RTVSPost2010PropOp36
 70
     1
102
RTVSPost2010Prop37
 90
       50
102
RTVSPost2010PropOp37
 70
     1
102
RTVSPost2010Prop38
140
0.0
102
RTVSPost2010PropOp38
 70
     1
102
RTVSPost2010Prop39
140
1.0
102
RTVSPost2010PropOp39
 70
     1
102
RTVSPost2010Prop40
 90
        0
102
RTVSPost2010PropOp40
 70
     1
102
RTVSPost2010Prop41ColorIndex
 90
       18
102
RTVSPost2010Prop41ColorRGB
 90
        0
102
RTVSPost2010PropOp41
 70
     1
102
RTVSPost2010Prop42
 90
       50
102
RTVSPost2010PropOp42
 70
     1
102
RTVSPost2010Prop43
 90
        3
102
RTVSPost2010PropOp43
 70
     1
102
RTVSPost2010Prop44ColorIndex
 90
        5
102
RTVSPost2010Prop44ColorRGB
 90
      255
102
RTVSPost2010PropOp44
 70
     1
102
RTVSPost2010Prop45
280
     0
102
RTVSPost2010PropOp45
 70
     1
102
RTVSPost2010Prop46
 90
       50
102
RTVSPost2010PropOp46
 70
     1
102
RTVSPost2010Prop47
 90
       50
102
RTVSPost2010PropOp47
 70
     1
102
RTVSPost2010Prop48
 90
       50
102
RTVSPost2010PropOp48
 70
     1
102
RTVSPost2010Prop49
280
     0
102
RTVSPost2010PropOp49
 70
     1
102
RTVSPost2010Prop50
 90
       50
102
RTVSPost2010PropOp50
 70
     1
102
RTVSPost2010Prop51ColorIndex
 90
      256
102
RTVSPost2010Prop51ColorRGB
 90
-16777216
102
RTVSPost2010PropOp51
 70
     0
102
RTVSPost2010Prop52
140
1.0
102
RTVSPost2010PropOp52
 70
     0
102
RTVSPost2010Prop53
 90
        2
102
RTVSPost2010PropOp53
 70
     1
102
RTVSPost2010Prop54
  1
strokes_ogs.tif
102
RTVSPost2010PropOp54
 70
     1
102
RTVSPost2010Prop55
280
     0
102
RTVSPost2010PropOp55
 70
     1
102
RTVSPost2010Prop56
140
1.0
102
RTVSPost2010PropOp56
 70
     1
102
RTVSPost2010Prop57
140
1.0
102
RTVSPost2010PropOp57
 70
     1
102
RTVSPropertyOp0
 70
     1
102
RTVSPropertyOp1
 70
     1
102
RTVSPropertyOp2
 70
     1
102
RTVSPropertyOp3
 70
     1
102
RTVSPropertyOp4
 70
     1
102
RTVSPropertyOp5
 70
     1
102
RTVSPropertyOp6
 70
     1
102
RTVSPropertyOp7
 70
     1
102
RTVSPropertyOp8
 70
     1
102
RTVSPropertyOp9
 70
     1
102
RTVSPropertyOp10
 70
     1
102
RTVSPropertyOp11
 70
     1
102
RTVSPropertyOp12
 70
     1
102
RTVSPropertyOp13
 70
     1
102
RTVSPropertyOp14
 70
     1
102
RTVSPropertyOp15
 70
     1
102
RTVSPropertyOp16
 70
     1
102
RTVSPropertyOp17
 70
     1
102
RTVSPropertyOp18
 70
     1
102
RTVSPropertyOp19
 70
     1
102
RTVSPropertyOp20
 70
     1
102
RTVSPropertyOp21
 70
     1
102
RTVSPropertyOp22
 70
     1
102
RTVSPropertyOp23
 70
     1
102
RTVSPropertyOp24
 70
     1
102
RTVSPropertyOp25
 70
     1
102
RTVSPropertyOp26
 70
     1
102
RTVSPropertyOp27
 70
     1
102
RTVSPropertyOp28
 70
     1
102
RTVSPropertyOp29
 70
     1
102
RTVSPropertyOp30
 70
     1
102
RTVSPropertyOp31
 70
     1
102
RTVSPropertyOp32
 70
     1
102
RTVSPropertyOp33
 70
     1
102
RTVSPropertyOp34
 70
     1
102
RTVSPropertyOp35
 70
     1
102
RTVSPropertyOp36
 70
     1
102
RTVSPropertyOp37
 70
     1
102
RTVSPropertyOp38
 70
     1
102
RTVSPropertyOp39
 70
     1
102
RTVSPropertyOp40
 70
     1
102
RTVSPropertyOp41
 70
     1
102
RTVSPropertyOp42
 70
     1
102
RTVSPropertyOp43
 70
     1
102
RTVSPropertyOp44
 70
     1
102
RTVSPropertyOp45
 70
     1
102
RTVSPropertyOp46
 70
     1
102
RTVSPropertyOp47
 70
     1
102
RTVSPropertyOp48
 70
     1
102
RTVSPropertyOp49
 70
     1
102
RTVSPropertyOp50
 70
     1
102
RTVSPropertyOp51
 70
     0
102
RTVSPropertyOp52
 70
     0
102
RTVSPropertyOp53
 70
     1
102
RTVSPropertyOp54
 70
     1
102
RTVSPropertyOp55
 70
     1
102
RTVSPropertyOp56
 70
     1
102
RTVSPropertyOp57
 70
     1
102
RTVSPropertyOp58
 70
     1
102
RTVSPropertyOp59
 70
     1
102
RTVSPropertyOp60
 70
     1
102
RTVSPropertyOp61
 70
     1
102
RTVSPropertyOp62
 70
     1
  0
XRECORD
  5
ACE5
102
{ACAD_REACTORS
330
ACE4
102
}
330
ACE4
100
AcDbXrecord
280
     1
102
RTVSPost2010Prop28
280
     0
102
RTVSPost2010PropOp28
 70
     1
102
RTVSPost2010Prop29
280
     1
102
RTVSPost2010PropOp29
 70
     1
102
RTVSPost2010Prop30
280
     1
102
RTVSPost2010PropOp30
 70
     1
102
RTVSPost2010Prop31
280
     0
102
RTVSPost2010PropOp31
 70
     1
102
RTVSPost2010Prop32
280
     0
102
RTVSPost2010PropOp32
 70
     1
102
RTVSPost2010Prop33
280
     0
102
RTVSPost2010PropOp33
 70
     1
102
RTVSPost2010Prop34
280
     0
102
RTVSPost2010PropOp34
 70
     1
102
RTVSPost2010Prop35
280
     0
102
RTVSPost2010PropOp35
 70
     1
102
RTVSPost2010Prop36
280
     0
102
RTVSPost2010PropOp36
 70
     1
102
RTVSPost2010Prop37
 90
       50
102
RTVSPost2010PropOp37
 70
     1
102
RTVSPost2010Prop38
140
0.0
102
RTVSPost2010PropOp38
 70
     1
102
RTVSPost2010Prop39
140
1.0
102
RTVSPost2010PropOp39
 70
     1
102
RTVSPost2010Prop40
 90
        0
102
RTVSPost2010PropOp40
 70
     1
102
RTVSPost2010Prop41ColorIndex
 90
       18
102
RTVSPost2010Prop41ColorRGB
 90
        0
102
RTVSPost2010PropOp41
 70
     1
102
RTVSPost2010Prop42
 90
       50
102
RTVSPost2010PropOp42
 70
     1
102
RTVSPost2010Prop43
 90
        3
102
RTVSPost2010PropOp43
 70
     1
102
RTVSPost2010Prop44ColorIndex
 90
        5
102
RTVSPost2010Prop44ColorRGB
 90
      255
102
RTVSPost2010PropOp44
 70
     1
102
RTVSPost2010Prop45
280
     0
102
RTVSPost2010PropOp45
 70
     1
102
RTVSPost2010Prop46
 90
       50
102
RTVSPost2010PropOp46
 70
     1
102
RTVSPost2010Prop47
 90
       50
102
RTVSPost2010PropOp47
 70
     1
102
RTVSPost2010Prop48
 90
       50
102
RTVSPost2010PropOp48
 70
     1
102
RTVSPost2010Prop49
280
     0
102
RTVSPost2010PropOp49
 70
     1
102
RTVSPost2010Prop50
 90
       50
102
RTVSPost2010PropOp50
 70
     1
102
RTVSPost2010Prop51ColorIndex
 90
      256
102
RTVSPost2010Prop51ColorRGB
 90
-16777216
102
RTVSPost2010PropOp51
 70
     0
102
RTVSPost2010Prop52
140
1.0
102
RTVSPost2010PropOp52
 70
     0
102
RTVSPost2010Prop53
 90
        2
102
RTVSPost2010PropOp53
 70
     1
102
RTVSPost2010Prop54
  1
strokes_ogs.tif
102
RTVSPost2010PropOp54
 70
     1
102
RTVSPost2010Prop55
280
     0
102
RTVSPost2010PropOp55
 70
     1
102
RTVSPost2010Prop56
140
1.0
102
RTVSPost2010PropOp56
 70
     1
102
RTVSPost2010Prop57
140
1.0
102
RTVSPost2010PropOp57
 70
     1
102
RTVSPropertyOp0
 70
     1
102
RTVSPropertyOp1
 70
     1
102
RTVSPropertyOp2
 70
     1
102
RTVSPropertyOp3
 70
     1
102
RTVSPropertyOp4
 70
     1
102
RTVSPropertyOp5
 70
     1
102
RTVSPropertyOp6
 70
     1
102
RTVSPropertyOp7
 70
     1
102
RTVSPropertyOp8
 70
     1
102
RTVSPropertyOp9
 70
     1
102
RTVSPropertyOp10
 70
     1
102
RTVSPropertyOp11
 70
     1
102
RTVSPropertyOp12
 70
     1
102
RTVSPropertyOp13
 70
     1
102
RTVSPropertyOp14
 70
     1
102
RTVSPropertyOp15
 70
     1
102
RTVSPropertyOp16
 70
     1
102
RTVSPropertyOp17
 70
     1
102
RTVSPropertyOp18
 70
     1
102
RTVSPropertyOp19
 70
     1
102
RTVSPropertyOp20
 70
     1
102
RTVSPropertyOp21
 70
     1
102
RTVSPropertyOp22
 70
     1
102
RTVSPropertyOp23
 70
     1
102
RTVSPropertyOp24
 70
     1
102
RTVSPropertyOp25
 70
     1
102
RTVSPropertyOp26
 70
     1
102
RTVSPropertyOp27
 70
     1
102
RTVSPropertyOp28
 70
     1
102
RTVSPropertyOp29
 70
     1
102
RTVSPropertyOp30
 70
     1
102
RTVSPropertyOp31
 70
     1
102
RTVSPropertyOp32
 70
     1
102
RTVSPropertyOp33
 70
     1
102
RTVSPropertyOp34
 70
     1
102
RTVSPropertyOp35
 70
     1
102
RTVSPropertyOp36
 70
     1
102
RTVSPropertyOp37
 70
     1
102
RTVSPropertyOp38
 70
     1
102
RTVSPropertyOp39
 70
     1
102
RTVSPropertyOp40
 70
     1
102
RTVSPropertyOp41
 70
     1
102
RTVSPropertyOp42
 70
     1
102
RTVSPropertyOp43
 70
     1
102
RTVSPropertyOp44
 70
     1
102
RTVSPropertyOp45
 70
     1
102
RTVSPropertyOp46
 70
     1
102
RTVSPropertyOp47
 70
     1
102
RTVSPropertyOp48
 70
     1
102
RTVSPropertyOp49
 70
     1
102
RTVSPropertyOp50
 70
     1
102
RTVSPropertyOp51
 70
     0
102
RTVSPropertyOp52
 70
     0
102
RTVSPropertyOp53
 70
     1
102
RTVSPropertyOp54
 70
     1
102
RTVSPropertyOp55
 70
     1
102
RTVSPropertyOp56
 70
     1
102
RTVSPropertyOp57
 70
     1
102
RTVSPropertyOp58
 70
     1
102
RTVSPropertyOp59
 70
     1
102
RTVSPropertyOp60
 70
     1
102
RTVSPropertyOp61
 70
     1
102
RTVSPropertyOp62
 70
     1
  0
XRECORD
  5
ACED
102
{ACAD_REACTORS
330
ACEC
102
}
330
ACEC
100
AcDbXrecord
280
     1
102
RTVSPost2010Prop28
280
     0
102
RTVSPost2010PropOp28
 70
     1
102
RTVSPost2010Prop29
280
     1
102
RTVSPost2010PropOp29
 70
     1
102
RTVSPost2010Prop30
280
     1
102
RTVSPost2010PropOp30
 70
     1
102
RTVSPost2010Prop31
280
     0
102
RTVSPost2010PropOp31
 70
     1
102
RTVSPost2010Prop32
280
     0
102
RTVSPost2010PropOp32
 70
     1
102
RTVSPost2010Prop33
280
     0
102
RTVSPost2010PropOp33
 70
     1
102
RTVSPost2010Prop34
280
     0
102
RTVSPost2010PropOp34
 70
     1
102
RTVSPost2010Prop35
280
     0
102
RTVSPost2010PropOp35
 70
     1
102
RTVSPost2010Prop36
280
     0
102
RTVSPost2010PropOp36
 70
     1
102
RTVSPost2010Prop37
 90
       50
102
RTVSPost2010PropOp37
 70
     1
102
RTVSPost2010Prop38
140
0.0
102
RTVSPost2010PropOp38
 70
     1
102
RTVSPost2010Prop39
140
1.0
102
RTVSPost2010PropOp39
 70
     1
102
RTVSPost2010Prop40
 90
        0
102
RTVSPost2010PropOp40
 70
     1
102
RTVSPost2010Prop41ColorIndex
 90
       18
102
RTVSPost2010Prop41ColorRGB
 90
        0
102
RTVSPost2010PropOp41
 70
     1
102
RTVSPost2010Prop42
 90
       50
102
RTVSPost2010PropOp42
 70
     1
102
RTVSPost2010Prop43
 90
        3
102
RTVSPost2010PropOp43
 70
     1
102
RTVSPost2010Prop44ColorIndex
 90
        5
102
RTVSPost2010Prop44ColorRGB
 90
      255
102
RTVSPost2010PropOp44
 70
     1
102
RTVSPost2010Prop45
280
     0
102
RTVSPost2010PropOp45
 70
     1
102
RTVSPost2010Prop46
 90
       50
102
RTVSPost2010PropOp46
 70
     1
102
RTVSPost2010Prop47
 90
       50
102
RTVSPost2010PropOp47
 70
     1
102
RTVSPost2010Prop48
 90
       50
102
RTVSPost2010PropOp48
 70
     1
102
RTVSPost2010Prop49
280
     0
102
RTVSPost2010PropOp49
 70
     1
102
RTVSPost2010Prop50
 90
       50
102
RTVSPost2010PropOp50
 70
     1
102
RTVSPost2010Prop51ColorIndex
 90
      256
102
RTVSPost2010Prop51ColorRGB
 90
-16777216
102
RTVSPost2010PropOp51
 70
     0
102
RTVSPost2010Prop52
140
1.0
102
RTVSPost2010PropOp52
 70
     0
102
RTVSPost2010Prop53
 90
        2
102
RTVSPost2010PropOp53
 70
     1
102
RTVSPost2010Prop54
  1
strokes_ogs.tif
102
RTVSPost2010PropOp54
 70
     1
102
RTVSPost2010Prop55
280
     0
102
RTVSPost2010PropOp55
 70
     1
102
RTVSPost2010Prop56
140
1.0
102
RTVSPost2010PropOp56
 70
     1
102
RTVSPost2010Prop57
140
1.0
102
RTVSPost2010PropOp57
 70
     1
102
RTVSPropertyOp0
 70
     1
102
RTVSPropertyOp1
 70
     1
102
RTVSPropertyOp2
 70
     1
102
RTVSPropertyOp3
 70
     1
102
RTVSPropertyOp4
 70
     1
102
RTVSPropertyOp5
 70
     1
102
RTVSPropertyOp6
 70
     1
102
RTVSPropertyOp7
 70
     1
102
RTVSPropertyOp8
 70
     1
102
RTVSPropertyOp9
 70
     1
102
RTVSPropertyOp10
 70
     1
102
RTVSPropertyOp11
 70
     1
102
RTVSPropertyOp12
 70
     1
102
RTVSPropertyOp13
 70
     1
102
RTVSPropertyOp14
 70
     1
102
RTVSPropertyOp15
 70
     1
102
RTVSPropertyOp16
 70
     1
102
RTVSPropertyOp17
 70
     1
102
RTVSPropertyOp18
 70
     1
102
RTVSPropertyOp19
 70
     1
102
RTVSPropertyOp20
 70
     1
102
RTVSPropertyOp21
 70
     1
102
RTVSPropertyOp22
 70
     1
102
RTVSPropertyOp23
 70
     1
102
RTVSPropertyOp24
 70
     1
102
RTVSPropertyOp25
 70
     1
102
RTVSPropertyOp26
 70
     1
102
RTVSPropertyOp27
 70
     1
102
RTVSPropertyOp28
 70
     1
102
RTVSPropertyOp29
 70
     1
102
RTVSPropertyOp30
 70
     1
102
RTVSPropertyOp31
 70
     1
102
RTVSPropertyOp32
 70
     1
102
RTVSPropertyOp33
 70
     1
102
RTVSPropertyOp34
 70
     1
102
RTVSPropertyOp35
 70
     1
102
RTVSPropertyOp36
 70
     1
102
RTVSPropertyOp37
 70
     1
102
RTVSPropertyOp38
 70
     1
102
RTVSPropertyOp39
 70
     1
102
RTVSPropertyOp40
 70
     1
102
RTVSPropertyOp41
 70
     1
102
RTVSPropertyOp42
 70
     1
102
RTVSPropertyOp43
 70
     1
102
RTVSPropertyOp44
 70
     1
102
RTVSPropertyOp45
 70
     1
102
RTVSPropertyOp46
 70
     1
102
RTVSPropertyOp47
 70
     1
102
RTVSPropertyOp48
 70
     1
102
RTVSPropertyOp49
 70
     1
102
RTVSPropertyOp50
 70
     1
102
RTVSPropertyOp51
 70
     0
102
RTVSPropertyOp52
 70
     0
102
RTVSPropertyOp53
 70
     1
102
RTVSPropertyOp54
 70
     1
102
RTVSPropertyOp55
 70
     1
102
RTVSPropertyOp56
 70
     1
102
RTVSPropertyOp57
 70
     1
102
RTVSPropertyOp58
 70
     1
102
RTVSPropertyOp59
 70
     1
102
RTVSPropertyOp60
 70
     1
102
RTVSPropertyOp61
 70
     1
102
RTVSPropertyOp62
 70
     1
  0
XRECORD
  5
AD09
102
{ACAD_REACTORS
330
AD08
102
}
330
AD08
100
AcDbXrecord
280
     1
102
RTVSPost2010Prop28
280
     0
102
RTVSPost2010PropOp28
 70
     1
102
RTVSPost2010Prop29
280
     1
102
RTVSPost2010PropOp29
 70
     1
102
RTVSPost2010Prop30
280
     1
102
RTVSPost2010PropOp30
 70
     1
102
RTVSPost2010Prop31
280
     0
102
RTVSPost2010PropOp31
 70
     1
102
RTVSPost2010Prop32
280
     0
102
RTVSPost2010PropOp32
 70
     1
102
RTVSPost2010Prop33
280
     0
102
RTVSPost2010PropOp33
 70
     1
102
RTVSPost2010Prop34
280
     0
102
RTVSPost2010PropOp34
 70
     1
102
RTVSPost2010Prop35
280
     0
102
RTVSPost2010PropOp35
 70
     1
102
RTVSPost2010Prop36
280
     0
102
RTVSPost2010PropOp36
 70
     1
102
RTVSPost2010Prop37
 90
       50
102
RTVSPost2010PropOp37
 70
     0
102
RTVSPost2010Prop38
140
0.0
102
RTVSPost2010PropOp38
 70
     0
102
RTVSPost2010Prop39
140
1.0
102
RTVSPost2010PropOp39
 70
     0
102
RTVSPost2010Prop40
 90
        0
102
RTVSPost2010PropOp40
 70
     0
102
RTVSPost2010Prop41ColorIndex
 90
       18
102
RTVSPost2010Prop41ColorRGB
 90
        0
102
RTVSPost2010PropOp41
 70
     0
102
RTVSPost2010Prop42
 90
       50
102
RTVSPost2010PropOp42
 70
     0
102
RTVSPost2010Prop43
 90
        3
102
RTVSPost2010PropOp43
 70
     0
102
RTVSPost2010Prop44ColorIndex
 90
        5
102
RTVSPost2010Prop44ColorRGB
 90
      255
102
RTVSPost2010PropOp44
 70
     0
102
RTVSPost2010Prop45
280
     0
102
RTVSPost2010PropOp45
 70
     1
102
RTVSPost2010Prop46
 90
       50
102
RTVSPost2010PropOp46
 70
     0
102
RTVSPost2010Prop47
 90
       50
102
RTVSPost2010PropOp47
 70
     0
102
RTVSPost2010Prop48
 90
       50
102
RTVSPost2010PropOp48
 70
     0
102
RTVSPost2010Prop49
280
     0
102
RTVSPost2010PropOp49
 70
     1
102
RTVSPost2010Prop50
 90
       50
102
RTVSPost2010PropOp50
 70
     0
102
RTVSPost2010Prop51ColorIndex
 90
      256
102
RTVSPost2010Prop51ColorRGB
 90
-16777216
102
RTVSPost2010PropOp51
 70
     0
102
RTVSPost2010Prop52
140
1.0
102
RTVSPost2010PropOp52
 70
     0
102
RTVSPost2010Prop53
 90
        2
102
RTVSPost2010PropOp53
 70
     0
102
RTVSPost2010Prop54
  1
strokes_ogs.tif
102
RTVSPost2010PropOp54
 70
     0
102
RTVSPost2010Prop55
280
     0
102
RTVSPost2010PropOp55
 70
     1
102
RTVSPost2010Prop56
140
1.0
102
RTVSPost2010PropOp56
 70
     0
102
RTVSPost2010Prop57
140
1.0
102
RTVSPost2010PropOp57
 70
     0
102
RTVSPropertyOp0
 70
     0
102
RTVSPropertyOp1
 70
     0
102
RTVSPropertyOp2
 70
     0
102
RTVSPropertyOp3
 70
     0
102
RTVSPropertyOp4
 70
     0
102
RTVSPropertyOp5
 70
     0
102
RTVSPropertyOp6
 70
     0
102
RTVSPropertyOp7
 70
     0
102
RTVSPropertyOp8
 70
     0
102
RTVSPropertyOp9
 70
     0
102
RTVSPropertyOp10
 70
     0
102
RTVSPropertyOp11
 70
     0
102
RTVSPropertyOp12
 70
     0
102
RTVSPropertyOp13
 70
     0
102
RTVSPropertyOp14
 70
     2
102
RTVSPropertyOp15
 70
     0
102
RTVSPropertyOp16
 70
     0
102
RTVSPropertyOp17
 70
     0
102
RTVSPropertyOp18
 70
     0
102
RTVSPropertyOp19
 70
     0
102
RTVSPropertyOp20
 70
     0
102
RTVSPropertyOp21
 70
     0
102
RTVSPropertyOp22
 70
     0
102
RTVSPropertyOp23
 70
     0
102
RTVSPropertyOp24
 70
     0
102
RTVSPropertyOp25
 70
     0
102
RTVSPropertyOp26
 70
     0
102
RTVSPropertyOp27
 70
     0
102
RTVSPropertyOp28
 70
     1
102
RTVSPropertyOp29
 70
     1
102
RTVSPropertyOp30
 70
     1
102
RTVSPropertyOp31
 70
     1
102
RTVSPropertyOp32
 70
     1
102
RTVSPropertyOp33
 70
     1
102
RTVSPropertyOp34
 70
     1
102
RTVSPropertyOp35
 70
     1
102
RTVSPropertyOp36
 70
     1
102
RTVSPropertyOp37
 70
     0
102
RTVSPropertyOp38
 70
     0
102
RTVSPropertyOp39
 70
     0
102
RTVSPropertyOp40
 70
     0
102
RTVSPropertyOp41
 70
     0
102
RTVSPropertyOp42
 70
     0
102
RTVSPropertyOp43
 70
     0
102
RTVSPropertyOp44
 70
     0
102
RTVSPropertyOp45
 70
     1
102
RTVSPropertyOp46
 70
     0
102
RTVSPropertyOp47
 70
     0
102
RTVSPropertyOp48
 70
     0
102
RTVSPropertyOp49
 70
     1
102
RTVSPropertyOp50
 70
     0
102
RTVSPropertyOp51
 70
     0
102
RTVSPropertyOp52
 70
     0
102
RTVSPropertyOp53
 70
     0
102
RTVSPropertyOp54
 70
     0
102
RTVSPropertyOp55
 70
     1
102
RTVSPropertyOp56
 70
     0
102
RTVSPropertyOp57
 70
     0
102
RTVSPropertyOp58
 70
     0
102
RTVSPropertyOp59
 70
     0
102
RTVSPropertyOp60
 70
     0
102
RTVSPropertyOp61
 70
     0
102
RTVSPropertyOp62
 70
     0
  0
XRECORD
  5
ACF9
102
{ACAD_REACTORS
330
ACF8
102
}
330
ACF8
100
AcDbXrecord
280
     1
102
RTVSPost2010Prop28
280
     0
102
RTVSPost2010PropOp28
 70
     1
102
RTVSPost2010Prop29
280
     1
102
RTVSPost2010PropOp29
 70
     1
102
RTVSPost2010Prop30
280
     1
102
RTVSPost2010PropOp30
 70
     1
102
RTVSPost2010Prop31
280
     0
102
RTVSPost2010PropOp31
 70
     1
102
RTVSPost2010Prop32
280
     0
102
RTVSPost2010PropOp32
 70
     1
102
RTVSPost2010Prop33
280
     0
102
RTVSPost2010PropOp33
 70
     1
102
RTVSPost2010Prop34
280
     0
102
RTVSPost2010PropOp34
 70
     1
102
RTVSPost2010Prop35
280
     0
102
RTVSPost2010PropOp35
 70
     1
102
RTVSPost2010Prop36
280
     0
102
RTVSPost2010PropOp36
 70
     1
102
RTVSPost2010Prop37
 90
       50
102
RTVSPost2010PropOp37
 70
     1
102
RTVSPost2010Prop38
140
0.0
102
RTVSPost2010PropOp38
 70
     1
102
RTVSPost2010Prop39
140
1.0
102
RTVSPost2010PropOp39
 70
     1
102
RTVSPost2010Prop40
 90
        0
102
RTVSPost2010PropOp40
 70
     1
102
RTVSPost2010Prop41ColorIndex
 90
       18
102
RTVSPost2010Prop41ColorRGB
 90
        0
102
RTVSPost2010PropOp41
 70
     1
102
RTVSPost2010Prop42
 90
       50
102
RTVSPost2010PropOp42
 70
     1
102
RTVSPost2010Prop43
 90
        3
102
RTVSPost2010PropOp43
 70
     1
102
RTVSPost2010Prop44ColorIndex
 90
        5
102
RTVSPost2010Prop44ColorRGB
 90
      255
102
RTVSPost2010PropOp44
 70
     1
102
RTVSPost2010Prop45
280
     0
102
RTVSPost2010PropOp45
 70
     1
102
RTVSPost2010Prop46
 90
       50
102
RTVSPost2010PropOp46
 70
     1
102
RTVSPost2010Prop47
 90
       50
102
RTVSPost2010PropOp47
 70
     1
102
RTVSPost2010Prop48
 90
       50
102
RTVSPost2010PropOp48
 70
     1
102
RTVSPost2010Prop49
280
     0
102
RTVSPost2010PropOp49
 70
     1
102
RTVSPost2010Prop50
 90
       50
102
RTVSPost2010PropOp50
 70
     1
102
RTVSPost2010Prop51ColorIndex
 90
      256
102
RTVSPost2010Prop51ColorRGB
 90
-16777216
102
RTVSPost2010PropOp51
 70
     0
102
RTVSPost2010Prop52
140
1.0
102
RTVSPost2010PropOp52
 70
     0
102
RTVSPost2010Prop53
 90
        2
102
RTVSPost2010PropOp53
 70
     1
102
RTVSPost2010Prop54
  1
strokes_ogs.tif
102
RTVSPost2010PropOp54
 70
     1
102
RTVSPost2010Prop55
280
     0
102
RTVSPost2010PropOp55
 70
     1
102
RTVSPost2010Prop56
140
1.0
102
RTVSPost2010PropOp56
 70
     1
102
RTVSPost2010Prop57
140
1.0
102
RTVSPost2010PropOp57
 70
     1
102
RTVSPropertyOp0
 70
     1
102
RTVSPropertyOp1
 70
     1
102
RTVSPropertyOp2
 70
     1
102
RTVSPropertyOp3
 70
     1
102
RTVSPropertyOp4
 70
     1
102
RTVSPropertyOp5
 70
     1
102
RTVSPropertyOp6
 70
     1
102
RTVSPropertyOp7
 70
     1
102
RTVSPropertyOp8
 70
     1
102
RTVSPropertyOp9
 70
     1
102
RTVSPropertyOp10
 70
     1
102
RTVSPropertyOp11
 70
     1
102
RTVSPropertyOp12
 70
     1
102
RTVSPropertyOp13
 70
     1
102
RTVSPropertyOp14
 70
     1
102
RTVSPropertyOp15
 70
     1
102
RTVSPropertyOp16
 70
     1
102
RTVSPropertyOp17
 70
     1
102
RTVSPropertyOp18
 70
     1
102
RTVSPropertyOp19
 70
     1
102
RTVSPropertyOp20
 70
     1
102
RTVSPropertyOp21
 70
     1
102
RTVSPropertyOp22
 70
     1
102
RTVSPropertyOp23
 70
     1
102
RTVSPropertyOp24
 70
     1
102
RTVSPropertyOp25
 70
     1
102
RTVSPropertyOp26
 70
     1
102
RTVSPropertyOp27
 70
     1
102
RTVSPropertyOp28
 70
     1
102
RTVSPropertyOp29
 70
     1
102
RTVSPropertyOp30
 70
     1
102
RTVSPropertyOp31
 70
     1
102
RTVSPropertyOp32
 70
     1
102
RTVSPropertyOp33
 70
     1
102
RTVSPropertyOp34
 70
     1
102
RTVSPropertyOp35
 70
     1
102
RTVSPropertyOp36
 70
     1
102
RTVSPropertyOp37
 70
     1
102
RTVSPropertyOp38
 70
     1
102
RTVSPropertyOp39
 70
     1
102
RTVSPropertyOp40
 70
     1
102
RTVSPropertyOp41
 70
     1
102
RTVSPropertyOp42
 70
     1
102
RTVSPropertyOp43
 70
     1
102
RTVSPropertyOp44
 70
     1
102
RTVSPropertyOp45
 70
     1
102
RTVSPropertyOp46
 70
     1
102
RTVSPropertyOp47
 70
     1
102
RTVSPropertyOp48
 70
     1
102
RTVSPropertyOp49
 70
     1
102
RTVSPropertyOp50
 70
     1
102
RTVSPropertyOp51
 70
     0
102
RTVSPropertyOp52
 70
     0
102
RTVSPropertyOp53
 70
     1
102
RTVSPropertyOp54
 70
     1
102
RTVSPropertyOp55
 70
     1
102
RTVSPropertyOp56
 70
     1
102
RTVSPropertyOp57
 70
     1
102
RTVSPropertyOp58
 70
     1
102
RTVSPropertyOp59
 70
     1
102
RTVSPropertyOp60
 70
     1
102
RTVSPropertyOp61
 70
     1
102
RTVSPropertyOp62
 70
     1
  0
XRECORD
  5
AD0B
102
{ACAD_REACTORS
330
AD0A
102
}
330
AD0A
100
AcDbXrecord
280
     1
102
RTVSPost2010Prop28
280
     0
102
RTVSPost2010PropOp28
 70
     1
102
RTVSPost2010Prop29
280
     1
102
RTVSPost2010PropOp29
 70
     1
102
RTVSPost2010Prop30
280
     1
102
RTVSPost2010PropOp30
 70
     1
102
RTVSPost2010Prop31
280
     0
102
RTVSPost2010PropOp31
 70
     1
102
RTVSPost2010Prop32
280
     0
102
RTVSPost2010PropOp32
 70
     1
102
RTVSPost2010Prop33
280
     0
102
RTVSPost2010PropOp33
 70
     1
102
RTVSPost2010Prop34
280
     0
102
RTVSPost2010PropOp34
 70
     1
102
RTVSPost2010Prop35
280
     0
102
RTVSPost2010PropOp35
 70
     1
102
RTVSPost2010Prop36
280
     0
102
RTVSPost2010PropOp36
 70
     1
102
RTVSPost2010Prop37
 90
       50
102
RTVSPost2010PropOp37
 70
     0
102
RTVSPost2010Prop38
140
0.0
102
RTVSPost2010PropOp38
 70
     0
102
RTVSPost2010Prop39
140
1.0
102
RTVSPost2010PropOp39
 70
     0
102
RTVSPost2010Prop40
 90
        0
102
RTVSPost2010PropOp40
 70
     0
102
RTVSPost2010Prop41ColorIndex
 90
       18
102
RTVSPost2010Prop41ColorRGB
 90
        0
102
RTVSPost2010PropOp41
 70
     0
102
RTVSPost2010Prop42
 90
       50
102
RTVSPost2010PropOp42
 70
     0
102
RTVSPost2010Prop43
 90
        3
102
RTVSPost2010PropOp43
 70
     0
102
RTVSPost2010Prop44ColorIndex
 90
        5
102
RTVSPost2010Prop44ColorRGB
 90
      255
102
RTVSPost2010PropOp44
 70
     0
102
RTVSPost2010Prop45
280
     0
102
RTVSPost2010PropOp45
 70
     1
102
RTVSPost2010Prop46
 90
       50
102
RTVSPost2010PropOp46
 70
     0
102
RTVSPost2010Prop47
 90
       50
102
RTVSPost2010PropOp47
 70
     0
102
RTVSPost2010Prop48
 90
       50
102
RTVSPost2010PropOp48
 70
     0
102
RTVSPost2010Prop49
280
     0
102
RTVSPost2010PropOp49
 70
     1
102
RTVSPost2010Prop50
 90
       50
102
RTVSPost2010PropOp50
 70
     0
102
RTVSPost2010Prop51ColorIndex
 90
      256
102
RTVSPost2010Prop51ColorRGB
 90
-16777216
102
RTVSPost2010PropOp51
 70
     0
102
RTVSPost2010Prop52
140
1.0
102
RTVSPost2010PropOp52
 70
     0
102
RTVSPost2010Prop53
 90
        2
102
RTVSPost2010PropOp53
 70
     0
102
RTVSPost2010Prop54
  1
strokes_ogs.tif
102
RTVSPost2010PropOp54
 70
     0
102
RTVSPost2010Prop55
280
     0
102
RTVSPost2010PropOp55
 70
     1
102
RTVSPost2010Prop56
140
1.0
102
RTVSPost2010PropOp56
 70
     0
102
RTVSPost2010Prop57
140
1.0
102
RTVSPost2010PropOp57
 70
     0
102
RTVSPropertyOp0
 70
     0
102
RTVSPropertyOp1
 70
     0
102
RTVSPropertyOp2
 70
     0
102
RTVSPropertyOp3
 70
     0
102
RTVSPropertyOp4
 70
     0
102
RTVSPropertyOp5
 70
     0
102
RTVSPropertyOp6
 70
     0
102
RTVSPropertyOp7
 70
     0
102
RTVSPropertyOp8
 70
     0
102
RTVSPropertyOp9
 70
     0
102
RTVSPropertyOp10
 70
     0
102
RTVSPropertyOp11
 70
     0
102
RTVSPropertyOp12
 70
     0
102
RTVSPropertyOp13
 70
     0
102
RTVSPropertyOp14
 70
     2
102
RTVSPropertyOp15
 70
     0
102
RTVSPropertyOp16
 70
     0
102
RTVSPropertyOp17
 70
     0
102
RTVSPropertyOp18
 70
     0
102
RTVSPropertyOp19
 70
     0
102
RTVSPropertyOp20
 70
     0
102
RTVSPropertyOp21
 70
     0
102
RTVSPropertyOp22
 70
     0
102
RTVSPropertyOp23
 70
     0
102
RTVSPropertyOp24
 70
     0
102
RTVSPropertyOp25
 70
     0
102
RTVSPropertyOp26
 70
     0
102
RTVSPropertyOp27
 70
     0
102
RTVSPropertyOp28
 70
     1
102
RTVSPropertyOp29
 70
     1
102
RTVSPropertyOp30
 70
     1
102
RTVSPropertyOp31
 70
     1
102
RTVSPropertyOp32
 70
     1
102
RTVSPropertyOp33
 70
     1
102
RTVSPropertyOp34
 70
     1
102
RTVSPropertyOp35
 70
     1
102
RTVSPropertyOp36
 70
     1
102
RTVSPropertyOp37
 70
     0
102
RTVSPropertyOp38
 70
     0
102
RTVSPropertyOp39
 70
     0
102
RTVSPropertyOp40
 70
     0
102
RTVSPropertyOp41
 70
     0
102
RTVSPropertyOp42
 70
     0
102
RTVSPropertyOp43
 70
     0
102
RTVSPropertyOp44
 70
     0
102
RTVSPropertyOp45
 70
     1
102
RTVSPropertyOp46
 70
     0
102
RTVSPropertyOp47
 70
     0
102
RTVSPropertyOp48
 70
     0
102
RTVSPropertyOp49
 70
     1
102
RTVSPropertyOp50
 70
     0
102
RTVSPropertyOp51
 70
     0
102
RTVSPropertyOp52
 70
     0
102
RTVSPropertyOp53
 70
     0
102
RTVSPropertyOp54
 70
     0
102
RTVSPropertyOp55
 70
     1
102
RTVSPropertyOp56
 70
     0
102
RTVSPropertyOp57
 70
     0
102
RTVSPropertyOp58
 70
     0
102
RTVSPropertyOp59
 70
     0
102
RTVSPropertyOp60
 70
     0
102
RTVSPropertyOp61
 70
     0
102
RTVSPropertyOp62
 70
     0
  0
XRECORD
  5
ACF1
102
{ACAD_REACTORS
330
ACF0
102
}
330
ACF0
100
AcDbXrecord
280
     1
102
RTVSPost2010Prop28
280
     0
102
RTVSPost2010PropOp28
 70
     1
102
RTVSPost2010Prop29
280
     1
102
RTVSPost2010PropOp29
 70
     1
102
RTVSPost2010Prop30
280
     1
102
RTVSPost2010PropOp30
 70
     1
102
RTVSPost2010Prop31
280
     0
102
RTVSPost2010PropOp31
 70
     1
102
RTVSPost2010Prop32
280
     0
102
RTVSPost2010PropOp32
 70
     1
102
RTVSPost2010Prop33
280
     0
102
RTVSPost2010PropOp33
 70
     1
102
RTVSPost2010Prop34
280
     0
102
RTVSPost2010PropOp34
 70
     1
102
RTVSPost2010Prop35
280
     0
102
RTVSPost2010PropOp35
 70
     1
102
RTVSPost2010Prop36
280
     0
102
RTVSPost2010PropOp36
 70
     1
102
RTVSPost2010Prop37
 90
       50
102
RTVSPost2010PropOp37
 70
     1
102
RTVSPost2010Prop38
140
0.0
102
RTVSPost2010PropOp38
 70
     1
102
RTVSPost2010Prop39
140
1.0
102
RTVSPost2010PropOp39
 70
     1
102
RTVSPost2010Prop40
 90
        0
102
RTVSPost2010PropOp40
 70
     1
102
RTVSPost2010Prop41ColorIndex
 90
       18
102
RTVSPost2010Prop41ColorRGB
 90
        0
102
RTVSPost2010PropOp41
 70
     1
102
RTVSPost2010Prop42
 90
       50
102
RTVSPost2010PropOp42
 70
     1
102
RTVSPost2010Prop43
 90
        3
102
RTVSPost2010PropOp43
 70
     1
102
RTVSPost2010Prop44ColorIndex
 90
        5
102
RTVSPost2010Prop44ColorRGB
 90
      255
102
RTVSPost2010PropOp44
 70
     1
102
RTVSPost2010Prop45
280
     0
102
RTVSPost2010PropOp45
 70
     1
102
RTVSPost2010Prop46
 90
       50
102
RTVSPost2010PropOp46
 70
     1
102
RTVSPost2010Prop47
 90
       50
102
RTVSPost2010PropOp47
 70
     1
102
RTVSPost2010Prop48
 90
       50
102
RTVSPost2010PropOp48
 70
     1
102
RTVSPost2010Prop49
280
     0
102
RTVSPost2010PropOp49
 70
     1
102
RTVSPost2010Prop50
 90
       50
102
RTVSPost2010PropOp50
 70
     1
102
RTVSPost2010Prop51ColorIndex
 90
      256
102
RTVSPost2010Prop51ColorRGB
 90
-16777216
102
RTVSPost2010PropOp51
 70
     0
102
RTVSPost2010Prop52
140
1.0
102
RTVSPost2010PropOp52
 70
     0
102
RTVSPost2010Prop53
 90
        2
102
RTVSPost2010PropOp53
 70
     1
102
RTVSPost2010Prop54
  1
strokes_ogs.tif
102
RTVSPost2010PropOp54
 70
     1
102
RTVSPost2010Prop55
280
     0
102
RTVSPost2010PropOp55
 70
     1
102
RTVSPost2010Prop56
140
1.0
102
RTVSPost2010PropOp56
 70
     1
102
RTVSPost2010Prop57
140
1.0
102
RTVSPost2010PropOp57
 70
     1
102
RTVSPropertyOp0
 70
     1
102
RTVSPropertyOp1
 70
     1
102
RTVSPropertyOp2
 70
     1
102
RTVSPropertyOp3
 70
     1
102
RTVSPropertyOp4
 70
     1
102
RTVSPropertyOp5
 70
     1
102
RTVSPropertyOp6
 70
     1
102
RTVSPropertyOp7
 70
     1
102
RTVSPropertyOp8
 70
     1
102
RTVSPropertyOp9
 70
     1
102
RTVSPropertyOp10
 70
     1
102
RTVSPropertyOp11
 70
     1
102
RTVSPropertyOp12
 70
     1
102
RTVSPropertyOp13
 70
     1
102
RTVSPropertyOp14
 70
     1
102
RTVSPropertyOp15
 70
     1
102
RTVSPropertyOp16
 70
     1
102
RTVSPropertyOp17
 70
     1
102
RTVSPropertyOp18
 70
     1
102
RTVSPropertyOp19
 70
     1
102
RTVSPropertyOp20
 70
     1
102
RTVSPropertyOp21
 70
     1
102
RTVSPropertyOp22
 70
     1
102
RTVSPropertyOp23
 70
     1
102
RTVSPropertyOp24
 70
     1
102
RTVSPropertyOp25
 70
     1
102
RTVSPropertyOp26
 70
     1
102
RTVSPropertyOp27
 70
     1
102
RTVSPropertyOp28
 70
     1
102
RTVSPropertyOp29
 70
     1
102
RTVSPropertyOp30
 70
     1
102
RTVSPropertyOp31
 70
     1
102
RTVSPropertyOp32
 70
     1
102
RTVSPropertyOp33
 70
     1
102
RTVSPropertyOp34
 70
     1
102
RTVSPropertyOp35
 70
     1
102
RTVSPropertyOp36
 70
     1
102
RTVSPropertyOp37
 70
     1
102
RTVSPropertyOp38
 70
     1
102
RTVSPropertyOp39
 70
     1
102
RTVSPropertyOp40
 70
     1
102
RTVSPropertyOp41
 70
     1
102
RTVSPropertyOp42
 70
     1
102
RTVSPropertyOp43
 70
     1
102
RTVSPropertyOp44
 70
     1
102
RTVSPropertyOp45
 70
     1
102
RTVSPropertyOp46
 70
     1
102
RTVSPropertyOp47
 70
     1
102
RTVSPropertyOp48
 70
     1
102
RTVSPropertyOp49
 70
     1
102
RTVSPropertyOp50
 70
     1
102
RTVSPropertyOp51
 70
     0
102
RTVSPropertyOp52
 70
     0
102
RTVSPropertyOp53
 70
     1
102
RTVSPropertyOp54
 70
     1
102
RTVSPropertyOp55
 70
     1
102
RTVSPropertyOp56
 70
     1
102
RTVSPropertyOp57
 70
     1
102
RTVSPropertyOp58
 70
     1
102
RTVSPropertyOp59
 70
     1
102
RTVSPropertyOp60
 70
     1
102
RTVSPropertyOp61
 70
     1
102
RTVSPropertyOp62
 70
     1
  0
XRECORD
  5
AD07
102
{ACAD_REACTORS
330
AD06
102
}
330
AD06
100
AcDbXrecord
280
     1
102
RTVSPost2010Prop28
280
     0
102
RTVSPost2010PropOp28
 70
     1
102
RTVSPost2010Prop29
280
     1
102
RTVSPost2010PropOp29
 70
     1
102
RTVSPost2010Prop30
280
     1
102
RTVSPost2010PropOp30
 70
     1
102
RTVSPost2010Prop31
280
     0
102
RTVSPost2010PropOp31
 70
     1
102
RTVSPost2010Prop32
280
     0
102
RTVSPost2010PropOp32
 70
     1
102
RTVSPost2010Prop33
280
     0
102
RTVSPost2010PropOp33
 70
     1
102
RTVSPost2010Prop34
280
     0
102
RTVSPost2010PropOp34
 70
     1
102
RTVSPost2010Prop35
280
     0
102
RTVSPost2010PropOp35
 70
     1
102
RTVSPost2010Prop36
280
     0
102
RTVSPost2010PropOp36
 70
     1
102
RTVSPost2010Prop37
 90
       50
102
RTVSPost2010PropOp37
 70
     1
102
RTVSPost2010Prop38
140
0.0
102
RTVSPost2010PropOp38
 70
     1
102
RTVSPost2010Prop39
140
1.0
102
RTVSPost2010PropOp39
 70
     1
102
RTVSPost2010Prop40
 90
        0
102
RTVSPost2010PropOp40
 70
     1
102
RTVSPost2010Prop41ColorIndex
 90
       18
102
RTVSPost2010Prop41ColorRGB
 90
        0
102
RTVSPost2010PropOp41
 70
     1
102
RTVSPost2010Prop42
 90
       50
102
RTVSPost2010PropOp42
 70
     1
102
RTVSPost2010Prop43
 90
        3
102
RTVSPost2010PropOp43
 70
     1
102
RTVSPost2010Prop44ColorIndex
 90
        5
102
RTVSPost2010Prop44ColorRGB
 90
      255
102
RTVSPost2010PropOp44
 70
     1
102
RTVSPost2010Prop45
280
     0
102
RTVSPost2010PropOp45
 70
     1
102
RTVSPost2010Prop46
 90
       50
102
RTVSPost2010PropOp46
 70
     1
102
RTVSPost2010Prop47
 90
       50
102
RTVSPost2010PropOp47
 70
     1
102
RTVSPost2010Prop48
 90
       50
102
RTVSPost2010PropOp48
 70
     1
102
RTVSPost2010Prop49
280
     0
102
RTVSPost2010PropOp49
 70
     1
102
RTVSPost2010Prop50
 90
       50
102
RTVSPost2010PropOp50
 70
     1
102
RTVSPost2010Prop51ColorIndex
 90
      256
102
RTVSPost2010Prop51ColorRGB
 90
-16777216
102
RTVSPost2010PropOp51
 70
     0
102
RTVSPost2010Prop52
140
1.0
102
RTVSPost2010PropOp52
 70
     0
102
RTVSPost2010Prop53
 90
        2
102
RTVSPost2010PropOp53
 70
     1
102
RTVSPost2010Prop54
  1
strokes_ogs.tif
102
RTVSPost2010PropOp54
 70
     1
102
RTVSPost2010Prop55
280
     0
102
RTVSPost2010PropOp55
 70
     1
102
RTVSPost2010Prop56
140
1.0
102
RTVSPost2010PropOp56
 70
     1
102
RTVSPost2010Prop57
140
1.0
102
RTVSPost2010PropOp57
 70
     1
102
RTVSPropertyOp0
 70
     1
102
RTVSPropertyOp1
 70
     1
102
RTVSPropertyOp2
 70
     1
102
RTVSPropertyOp3
 70
     1
102
RTVSPropertyOp4
 70
     1
102
RTVSPropertyOp5
 70
     1
102
RTVSPropertyOp6
 70
     1
102
RTVSPropertyOp7
 70
     1
102
RTVSPropertyOp8
 70
     1
102
RTVSPropertyOp9
 70
     1
102
RTVSPropertyOp10
 70
     1
102
RTVSPropertyOp11
 70
     1
102
RTVSPropertyOp12
 70
     1
102
RTVSPropertyOp13
 70
     1
102
RTVSPropertyOp14
 70
     1
102
RTVSPropertyOp15
 70
     1
102
RTVSPropertyOp16
 70
     1
102
RTVSPropertyOp17
 70
     1
102
RTVSPropertyOp18
 70
     1
102
RTVSPropertyOp19
 70
     1
102
RTVSPropertyOp20
 70
     1
102
RTVSPropertyOp21
 70
     1
102
RTVSPropertyOp22
 70
     1
102
RTVSPropertyOp23
 70
     1
102
RTVSPropertyOp24
 70
     1
102
RTVSPropertyOp25
 70
     1
102
RTVSPropertyOp26
 70
     1
102
RTVSPropertyOp27
 70
     1
102
RTVSPropertyOp28
 70
     1
102
RTVSPropertyOp29
 70
     1
102
RTVSPropertyOp30
 70
     1
102
RTVSPropertyOp31
 70
     1
102
RTVSPropertyOp32
 70
     1
102
RTVSPropertyOp33
 70
     1
102
RTVSPropertyOp34
 70
     1
102
RTVSPropertyOp35
 70
     1
102
RTVSPropertyOp36
 70
     1
102
RTVSPropertyOp37
 70
     1
102
RTVSPropertyOp38
 70
     1
102
RTVSPropertyOp39
 70
     1
102
RTVSPropertyOp40
 70
     1
102
RTVSPropertyOp41
 70
     1
102
RTVSPropertyOp42
 70
     1
102
RTVSPropertyOp43
 70
     1
102
RTVSPropertyOp44
 70
     1
102
RTVSPropertyOp45
 70
     1
102
RTVSPropertyOp46
 70
     1
102
RTVSPropertyOp47
 70
     1
102
RTVSPropertyOp48
 70
     1
102
RTVSPropertyOp49
 70
     1
102
RTVSPropertyOp50
 70
     1
102
RTVSPropertyOp51
 70
     0
102
RTVSPropertyOp52
 70
     0
102
RTVSPropertyOp53
 70
     1
102
RTVSPropertyOp54
 70
     1
102
RTVSPropertyOp55
 70
     1
102
RTVSPropertyOp56
 70
     1
102
RTVSPropertyOp57
 70
     1
102
RTVSPropertyOp58
 70
     1
102
RTVSPropertyOp59
 70
     1
102
RTVSPropertyOp60
 70
     1
102
RTVSPropertyOp61
 70
     1
102
RTVSPropertyOp62
 70
     1
  0
XRECORD
  5
AD05
102
{ACAD_REACTORS
330
AD04
102
}
330
AD04
100
AcDbXrecord
280
     1
102
RTVSPost2010Prop28
280
     0
102
RTVSPost2010PropOp28
 70
     1
102
RTVSPost2010Prop29
280
     1
102
RTVSPost2010PropOp29
 70
     1
102
RTVSPost2010Prop30
280
     1
102
RTVSPost2010PropOp30
 70
     1
102
RTVSPost2010Prop31
280
     0
102
RTVSPost2010PropOp31
 70
     1
102
RTVSPost2010Prop32
280
     0
102
RTVSPost2010PropOp32
 70
     1
102
RTVSPost2010Prop33
280
     0
102
RTVSPost2010PropOp33
 70
     1
102
RTVSPost2010Prop34
280
     0
102
RTVSPost2010PropOp34
 70
     1
102
RTVSPost2010Prop35
280
     0
102
RTVSPost2010PropOp35
 70
     1
102
RTVSPost2010Prop36
280
     0
102
RTVSPost2010PropOp36
 70
     1
102
RTVSPost2010Prop37
 90
       50
102
RTVSPost2010PropOp37
 70
     1
102
RTVSPost2010Prop38
140
0.0
102
RTVSPost2010PropOp38
 70
     1
102
RTVSPost2010Prop39
140
1.0
102
RTVSPost2010PropOp39
 70
     1
102
RTVSPost2010Prop40
 90
        0
102
RTVSPost2010PropOp40
 70
     1
102
RTVSPost2010Prop41ColorIndex
 90
       18
102
RTVSPost2010Prop41ColorRGB
 90
        0
102
RTVSPost2010PropOp41
 70
     1
102
RTVSPost2010Prop42
 90
       50
102
RTVSPost2010PropOp42
 70
     1
102
RTVSPost2010Prop43
 90
        3
102
RTVSPost2010PropOp43
 70
     1
102
RTVSPost2010Prop44ColorIndex
 90
        5
102
RTVSPost2010Prop44ColorRGB
 90
      255
102
RTVSPost2010PropOp44
 70
     1
102
RTVSPost2010Prop45
280
     0
102
RTVSPost2010PropOp45
 70
     1
102
RTVSPost2010Prop46
 90
       50
102
RTVSPost2010PropOp46
 70
     1
102
RTVSPost2010Prop47
 90
       50
102
RTVSPost2010PropOp47
 70
     1
102
RTVSPost2010Prop48
 90
       50
102
RTVSPost2010PropOp48
 70
     1
102
RTVSPost2010Prop49
280
     0
102
RTVSPost2010PropOp49
 70
     1
102
RTVSPost2010Prop50
 90
       50
102
RTVSPost2010PropOp50
 70
     1
102
RTVSPost2010Prop51ColorIndex
 90
      256
102
RTVSPost2010Prop51ColorRGB
 90
-16777216
102
RTVSPost2010PropOp51
 70
     0
102
RTVSPost2010Prop52
140
1.0
102
RTVSPost2010PropOp52
 70
     0
102
RTVSPost2010Prop53
 90
        2
102
RTVSPost2010PropOp53
 70
     1
102
RTVSPost2010Prop54
  1
strokes_ogs.tif
102
RTVSPost2010PropOp54
 70
     1
102
RTVSPost2010Prop55
280
     0
102
RTVSPost2010PropOp55
 70
     1
102
RTVSPost2010Prop56
140
1.0
102
RTVSPost2010PropOp56
 70
     1
102
RTVSPost2010Prop57
140
1.0
102
RTVSPost2010PropOp57
 70
     1
102
RTVSPropertyOp0
 70
     1
102
RTVSPropertyOp1
 70
     1
102
RTVSPropertyOp2
 70
     1
102
RTVSPropertyOp3
 70
     1
102
RTVSPropertyOp4
 70
     1
102
RTVSPropertyOp5
 70
     1
102
RTVSPropertyOp6
 70
     1
102
RTVSPropertyOp7
 70
     1
102
RTVSPropertyOp8
 70
     1
102
RTVSPropertyOp9
 70
     1
102
RTVSPropertyOp10
 70
     1
102
RTVSPropertyOp11
 70
     1
102
RTVSPropertyOp12
 70
     1
102
RTVSPropertyOp13
 70
     1
102
RTVSPropertyOp14
 70
     1
102
RTVSPropertyOp15
 70
     1
102
RTVSPropertyOp16
 70
     1
102
RTVSPropertyOp17
 70
     1
102
RTVSPropertyOp18
 70
     1
102
RTVSPropertyOp19
 70
     1
102
RTVSPropertyOp20
 70
     1
102
RTVSPropertyOp21
 70
     1
102
RTVSPropertyOp22
 70
     1
102
RTVSPropertyOp23
 70
     1
102
RTVSPropertyOp24
 70
     1
102
RTVSPropertyOp25
 70
     1
102
RTVSPropertyOp26
 70
     1
102
RTVSPropertyOp27
 70
     1
102
RTVSPropertyOp28
 70
     1
102
RTVSPropertyOp29
 70
     1
102
RTVSPropertyOp30
 70
     1
102
RTVSPropertyOp31
 70
     1
102
RTVSPropertyOp32
 70
     1
102
RTVSPropertyOp33
 70
     1
102
RTVSPropertyOp34
 70
     1
102
RTVSPropertyOp35
 70
     1
102
RTVSPropertyOp36
 70
     1
102
RTVSPropertyOp37
 70
     1
102
RTVSPropertyOp38
 70
     1
102
RTVSPropertyOp39
 70
     1
102
RTVSPropertyOp40
 70
     1
102
RTVSPropertyOp41
 70
     1
102
RTVSPropertyOp42
 70
     1
102
RTVSPropertyOp43
 70
     1
102
RTVSPropertyOp44
 70
     1
102
RTVSPropertyOp45
 70
     1
102
RTVSPropertyOp46
 70
     1
102
RTVSPropertyOp47
 70
     1
102
RTVSPropertyOp48
 70
     1
102
RTVSPropertyOp49
 70
     1
102
RTVSPropertyOp50
 70
     1
102
RTVSPropertyOp51
 70
     0
102
RTVSPropertyOp52
 70
     0
102
RTVSPropertyOp53
 70
     1
102
RTVSPropertyOp54
 70
     1
102
RTVSPropertyOp55
 70
     1
102
RTVSPropertyOp56
 70
     1
102
RTVSPropertyOp57
 70
     1
102
RTVSPropertyOp58
 70
     1
102
RTVSPropertyOp59
 70
     1
102
RTVSPropertyOp60
 70
     1
102
RTVSPropertyOp61
 70
     1
102
RTVSPropertyOp62
 70
     1
  0
XRECORD
  5
ACFF
102
{ACAD_REACTORS
330
ACFE
102
}
330
ACFE
100
AcDbXrecord
280
     1
102
RTVSPost2010Prop28
280
     0
102
RTVSPost2010PropOp28
 70
     1
102
RTVSPost2010Prop29
280
     1
102
RTVSPost2010PropOp29
 70
     1
102
RTVSPost2010Prop30
280
     1
102
RTVSPost2010PropOp30
 70
     1
102
RTVSPost2010Prop31
280
     0
102
RTVSPost2010PropOp31
 70
     1
102
RTVSPost2010Prop32
280
     0
102
RTVSPost2010PropOp32
 70
     1
102
RTVSPost2010Prop33
280
     0
102
RTVSPost2010PropOp33
 70
     1
102
RTVSPost2010Prop34
280
     0
102
RTVSPost2010PropOp34
 70
     1
102
RTVSPost2010Prop35
280
     0
102
RTVSPost2010PropOp35
 70
     1
102
RTVSPost2010Prop36
280
     0
102
RTVSPost2010PropOp36
 70
     1
102
RTVSPost2010Prop37
 90
       50
102
RTVSPost2010PropOp37
 70
     1
102
RTVSPost2010Prop38
140
0.0
102
RTVSPost2010PropOp38
 70
     1
102
RTVSPost2010Prop39
140
1.0
102
RTVSPost2010PropOp39
 70
     1
102
RTVSPost2010Prop40
 90
        0
102
RTVSPost2010PropOp40
 70
     1
102
RTVSPost2010Prop41ColorIndex
 90
       18
102
RTVSPost2010Prop41ColorRGB
 90
        0
102
RTVSPost2010PropOp41
 70
     1
102
RTVSPost2010Prop42
 90
       50
102
RTVSPost2010PropOp42
 70
     1
102
RTVSPost2010Prop43
 90
        3
102
RTVSPost2010PropOp43
 70
     1
102
RTVSPost2010Prop44ColorIndex
 90
        5
102
RTVSPost2010Prop44ColorRGB
 90
      255
102
RTVSPost2010PropOp44
 70
     1
102
RTVSPost2010Prop45
280
     0
102
RTVSPost2010PropOp45
 70
     1
102
RTVSPost2010Prop46
 90
       50
102
RTVSPost2010PropOp46
 70
     1
102
RTVSPost2010Prop47
 90
       50
102
RTVSPost2010PropOp47
 70
     1
102
RTVSPost2010Prop48
 90
       50
102
RTVSPost2010PropOp48
 70
     1
102
RTVSPost2010Prop49
280
     0
102
RTVSPost2010PropOp49
 70
     1
102
RTVSPost2010Prop50
 90
       50
102
RTVSPost2010PropOp50
 70
     1
102
RTVSPost2010Prop51ColorIndex
 90
      256
102
RTVSPost2010Prop51ColorRGB
 90
-16777216
102
RTVSPost2010PropOp51
 70
     0
102
RTVSPost2010Prop52
140
1.0
102
RTVSPost2010PropOp52
 70
     0
102
RTVSPost2010Prop53
 90
        2
102
RTVSPost2010PropOp53
 70
     1
102
RTVSPost2010Prop54
  1
strokes_ogs.tif
102
RTVSPost2010PropOp54
 70
     1
102
RTVSPost2010Prop55
280
     0
102
RTVSPost2010PropOp55
 70
     1
102
RTVSPost2010Prop56
140
1.0
102
RTVSPost2010PropOp56
 70
     1
102
RTVSPost2010Prop57
140
1.0
102
RTVSPost2010PropOp57
 70
     1
102
RTVSPropertyOp0
 70
     1
102
RTVSPropertyOp1
 70
     1
102
RTVSPropertyOp2
 70
     1
102
RTVSPropertyOp3
 70
     1
102
RTVSPropertyOp4
 70
     1
102
RTVSPropertyOp5
 70
     1
102
RTVSPropertyOp6
 70
     1
102
RTVSPropertyOp7
 70
     1
102
RTVSPropertyOp8
 70
     1
102
RTVSPropertyOp9
 70
     1
102
RTVSPropertyOp10
 70
     1
102
RTVSPropertyOp11
 70
     1
102
RTVSPropertyOp12
 70
     1
102
RTVSPropertyOp13
 70
     1
102
RTVSPropertyOp14
 70
     1
102
RTVSPropertyOp15
 70
     1
102
RTVSPropertyOp16
 70
     1
102
RTVSPropertyOp17
 70
     1
102
RTVSPropertyOp18
 70
     1
102
RTVSPropertyOp19
 70
     1
102
RTVSPropertyOp20
 70
     1
102
RTVSPropertyOp21
 70
     1
102
RTVSPropertyOp22
 70
     1
102
RTVSPropertyOp23
 70
     1
102
RTVSPropertyOp24
 70
     1
102
RTVSPropertyOp25
 70
     1
102
RTVSPropertyOp26
 70
     1
102
RTVSPropertyOp27
 70
     1
102
RTVSPropertyOp28
 70
     1
102
RTVSPropertyOp29
 70
     1
102
RTVSPropertyOp30
 70
     1
102
RTVSPropertyOp31
 70
     1
102
RTVSPropertyOp32
 70
     1
102
RTVSPropertyOp33
 70
     1
102
RTVSPropertyOp34
 70
     1
102
RTVSPropertyOp35
 70
     1
102
RTVSPropertyOp36
 70
     1
102
RTVSPropertyOp37
 70
     1
102
RTVSPropertyOp38
 70
     1
102
RTVSPropertyOp39
 70
     1
102
RTVSPropertyOp40
 70
     1
102
RTVSPropertyOp41
 70
     1
102
RTVSPropertyOp42
 70
     1
102
RTVSPropertyOp43
 70
     1
102
RTVSPropertyOp44
 70
     1
102
RTVSPropertyOp45
 70
     1
102
RTVSPropertyOp46
 70
     1
102
RTVSPropertyOp47
 70
     1
102
RTVSPropertyOp48
 70
     1
102
RTVSPropertyOp49
 70
     1
102
RTVSPropertyOp50
 70
     1
102
RTVSPropertyOp51
 70
     0
102
RTVSPropertyOp52
 70
     0
102
RTVSPropertyOp53
 70
     1
102
RTVSPropertyOp54
 70
     1
102
RTVSPropertyOp55
 70
     1
102
RTVSPropertyOp56
 70
     1
102
RTVSPropertyOp57
 70
     1
102
RTVSPropertyOp58
 70
     1
102
RTVSPropertyOp59
 70
     1
102
RTVSPropertyOp60
 70
     1
102
RTVSPropertyOp61
 70
     1
102
RTVSPropertyOp62
 70
     1
  0
XRECORD
  5
AD01
102
{ACAD_REACTORS
330
AD00
102
}
330
AD00
100
AcDbXrecord
280
     1
102
RTVSPost2010Prop28
280
     0
102
RTVSPost2010PropOp28
 70
     1
102
RTVSPost2010Prop29
280
     1
102
RTVSPost2010PropOp29
 70
     1
102
RTVSPost2010Prop30
280
     1
102
RTVSPost2010PropOp30
 70
     1
102
RTVSPost2010Prop31
280
     0
102
RTVSPost2010PropOp31
 70
     1
102
RTVSPost2010Prop32
280
     0
102
RTVSPost2010PropOp32
 70
     1
102
RTVSPost2010Prop33
280
     0
102
RTVSPost2010PropOp33
 70
     1
102
RTVSPost2010Prop34
280
     0
102
RTVSPost2010PropOp34
 70
     1
102
RTVSPost2010Prop35
280
     0
102
RTVSPost2010PropOp35
 70
     1
102
RTVSPost2010Prop36
280
     0
102
RTVSPost2010PropOp36
 70
     1
102
RTVSPost2010Prop37
 90
       50
102
RTVSPost2010PropOp37
 70
     1
102
RTVSPost2010Prop38
140
0.0
102
RTVSPost2010PropOp38
 70
     1
102
RTVSPost2010Prop39
140
1.0
102
RTVSPost2010PropOp39
 70
     1
102
RTVSPost2010Prop40
 90
        0
102
RTVSPost2010PropOp40
 70
     1
102
RTVSPost2010Prop41ColorIndex
 90
       18
102
RTVSPost2010Prop41ColorRGB
 90
        0
102
RTVSPost2010PropOp41
 70
     1
102
RTVSPost2010Prop42
 90
       50
102
RTVSPost2010PropOp42
 70
     1
102
RTVSPost2010Prop43
 90
        3
102
RTVSPost2010PropOp43
 70
     1
102
RTVSPost2010Prop44ColorIndex
 90
        5
102
RTVSPost2010Prop44ColorRGB
 90
      255
102
RTVSPost2010PropOp44
 70
     1
102
RTVSPost2010Prop45
280
     0
102
RTVSPost2010PropOp45
 70
     1
102
RTVSPost2010Prop46
 90
       50
102
RTVSPost2010PropOp46
 70
     1
102
RTVSPost2010Prop47
 90
       50
102
RTVSPost2010PropOp47
 70
     1
102
RTVSPost2010Prop48
 90
       50
102
RTVSPost2010PropOp48
 70
     1
102
RTVSPost2010Prop49
280
     0
102
RTVSPost2010PropOp49
 70
     1
102
RTVSPost2010Prop50
 90
       50
102
RTVSPost2010PropOp50
 70
     1
102
RTVSPost2010Prop51ColorIndex
 90
      256
102
RTVSPost2010Prop51ColorRGB
 90
-16777216
102
RTVSPost2010PropOp51
 70
     0
102
RTVSPost2010Prop52
140
1.0
102
RTVSPost2010PropOp52
 70
     0
102
RTVSPost2010Prop53
 90
        2
102
RTVSPost2010PropOp53
 70
     1
102
RTVSPost2010Prop54
  1
strokes_ogs.tif
102
RTVSPost2010PropOp54
 70
     1
102
RTVSPost2010Prop55
280
     0
102
RTVSPost2010PropOp55
 70
     1
102
RTVSPost2010Prop56
140
1.0
102
RTVSPost2010PropOp56
 70
     1
102
RTVSPost2010Prop57
140
1.0
102
RTVSPost2010PropOp57
 70
     1
102
RTVSPropertyOp0
 70
     1
102
RTVSPropertyOp1
 70
     1
102
RTVSPropertyOp2
 70
     1
102
RTVSPropertyOp3
 70
     1
102
RTVSPropertyOp4
 70
     1
102
RTVSPropertyOp5
 70
     1
102
RTVSPropertyOp6
 70
     1
102
RTVSPropertyOp7
 70
     1
102
RTVSPropertyOp8
 70
     1
102
RTVSPropertyOp9
 70
     1
102
RTVSPropertyOp10
 70
     1
102
RTVSPropertyOp11
 70
     1
102
RTVSPropertyOp12
 70
     1
102
RTVSPropertyOp13
 70
     1
102
RTVSPropertyOp14
 70
     1
102
RTVSPropertyOp15
 70
     1
102
RTVSPropertyOp16
 70
     1
102
RTVSPropertyOp17
 70
     1
102
RTVSPropertyOp18
 70
     1
102
RTVSPropertyOp19
 70
     1
102
RTVSPropertyOp20
 70
     1
102
RTVSPropertyOp21
 70
     1
102
RTVSPropertyOp22
 70
     1
102
RTVSPropertyOp23
 70
     1
102
RTVSPropertyOp24
 70
     1
102
RTVSPropertyOp25
 70
     1
102
RTVSPropertyOp26
 70
     1
102
RTVSPropertyOp27
 70
     1
102
RTVSPropertyOp28
 70
     1
102
RTVSPropertyOp29
 70
     1
102
RTVSPropertyOp30
 70
     1
102
RTVSPropertyOp31
 70
     1
102
RTVSPropertyOp32
 70
     1
102
RTVSPropertyOp33
 70
     1
102
RTVSPropertyOp34
 70
     1
102
RTVSPropertyOp35
 70
     1
102
RTVSPropertyOp36
 70
     1
102
RTVSPropertyOp37
 70
     1
102
RTVSPropertyOp38
 70
     1
102
RTVSPropertyOp39
 70
     1
102
RTVSPropertyOp40
 70
     1
102
RTVSPropertyOp41
 70
     1
102
RTVSPropertyOp42
 70
     1
102
RTVSPropertyOp43
 70
     1
102
RTVSPropertyOp44
 70
     1
102
RTVSPropertyOp45
 70
     1
102
RTVSPropertyOp46
 70
     1
102
RTVSPropertyOp47
 70
     1
102
RTVSPropertyOp48
 70
     1
102
RTVSPropertyOp49
 70
     1
102
RTVSPropertyOp50
 70
     1
102
RTVSPropertyOp51
 70
     0
102
RTVSPropertyOp52
 70
     0
102
RTVSPropertyOp53
 70
     1
102
RTVSPropertyOp54
 70
     1
102
RTVSPropertyOp55
 70
     1
102
RTVSPropertyOp56
 70
     1
102
RTVSPropertyOp57
 70
     1
102
RTVSPropertyOp58
 70
     1
102
RTVSPropertyOp59
 70
     1
102
RTVSPropertyOp60
 70
     1
102
RTVSPropertyOp61
 70
     1
102
RTVSPropertyOp62
 70
     1
  0
XRECORD
  5
ACF7
102
{ACAD_REACTORS
330
ACF6
102
}
330
ACF6
100
AcDbXrecord
280
     1
102
RTVSPost2010Prop28
280
     0
102
RTVSPost2010PropOp28
 70
     1
102
RTVSPost2010Prop29
280
     1
102
RTVSPost2010PropOp29
 70
     1
102
RTVSPost2010Prop30
280
     1
102
RTVSPost2010PropOp30
 70
     1
102
RTVSPost2010Prop31
280
     0
102
RTVSPost2010PropOp31
 70
     1
102
RTVSPost2010Prop32
280
     0
102
RTVSPost2010PropOp32
 70
     1
102
RTVSPost2010Prop33
280
     0
102
RTVSPost2010PropOp33
 70
     1
102
RTVSPost2010Prop34
280
     0
102
RTVSPost2010PropOp34
 70
     1
102
RTVSPost2010Prop35
280
     0
102
RTVSPost2010PropOp35
 70
     1
102
RTVSPost2010Prop36
280
     0
102
RTVSPost2010PropOp36
 70
     1
102
RTVSPost2010Prop37
 90
       50
102
RTVSPost2010PropOp37
 70
     1
102
RTVSPost2010Prop38
140
0.0
102
RTVSPost2010PropOp38
 70
     1
102
RTVSPost2010Prop39
140
1.0
102
RTVSPost2010PropOp39
 70
     1
102
RTVSPost2010Prop40
 90
        0
102
RTVSPost2010PropOp40
 70
     1
102
RTVSPost2010Prop41ColorIndex
 90
       18
102
RTVSPost2010Prop41ColorRGB
 90
        0
102
RTVSPost2010PropOp41
 70
     1
102
RTVSPost2010Prop42
 90
       50
102
RTVSPost2010PropOp42
 70
     1
102
RTVSPost2010Prop43
 90
        3
102
RTVSPost2010PropOp43
 70
     1
102
RTVSPost2010Prop44ColorIndex
 90
        5
102
RTVSPost2010Prop44ColorRGB
 90
      255
102
RTVSPost2010PropOp44
 70
     1
102
RTVSPost2010Prop45
280
     0
102
RTVSPost2010PropOp45
 70
     1
102
RTVSPost2010Prop46
 90
       50
102
RTVSPost2010PropOp46
 70
     1
102
RTVSPost2010Prop47
 90
       50
102
RTVSPost2010PropOp47
 70
     1
102
RTVSPost2010Prop48
 90
       50
102
RTVSPost2010PropOp48
 70
     1
102
RTVSPost2010Prop49
280
     0
102
RTVSPost2010PropOp49
 70
     1
102
RTVSPost2010Prop50
 90
       50
102
RTVSPost2010PropOp50
 70
     1
102
RTVSPost2010Prop51ColorIndex
 90
      256
102
RTVSPost2010Prop51ColorRGB
 90
-16777216
102
RTVSPost2010PropOp51
 70
     0
102
RTVSPost2010Prop52
140
1.0
102
RTVSPost2010PropOp52
 70
     0
102
RTVSPost2010Prop53
 90
        2
102
RTVSPost2010PropOp53
 70
     1
102
RTVSPost2010Prop54
  1
strokes_ogs.tif
102
RTVSPost2010PropOp54
 70
     1
102
RTVSPost2010Prop55
280
     0
102
RTVSPost2010PropOp55
 70
     1
102
RTVSPost2010Prop56
140
1.0
102
RTVSPost2010PropOp56
 70
     1
102
RTVSPost2010Prop57
140
1.0
102
RTVSPost2010PropOp57
 70
     1
102
RTVSPropertyOp0
 70
     1
102
RTVSPropertyOp1
 70
     1
102
RTVSPropertyOp2
 70
     1
102
RTVSPropertyOp3
 70
     1
102
RTVSPropertyOp4
 70
     1
102
RTVSPropertyOp5
 70
     1
102
RTVSPropertyOp6
 70
     1
102
RTVSPropertyOp7
 70
     1
102
RTVSPropertyOp8
 70
     1
102
RTVSPropertyOp9
 70
     1
102
RTVSPropertyOp10
 70
     1
102
RTVSPropertyOp11
 70
     1
102
RTVSPropertyOp12
 70
     1
102
RTVSPropertyOp13
 70
     1
102
RTVSPropertyOp14
 70
     1
102
RTVSPropertyOp15
 70
     1
102
RTVSPropertyOp16
 70
     1
102
RTVSPropertyOp17
 70
     1
102
RTVSPropertyOp18
 70
     1
102
RTVSPropertyOp19
 70
     1
102
RTVSPropertyOp20
 70
     1
102
RTVSPropertyOp21
 70
     1
102
RTVSPropertyOp22
 70
     1
102
RTVSPropertyOp23
 70
     1
102
RTVSPropertyOp24
 70
     1
102
RTVSPropertyOp25
 70
     1
102
RTVSPropertyOp26
 70
     1
102
RTVSPropertyOp27
 70
     1
102
RTVSPropertyOp28
 70
     1
102
RTVSPropertyOp29
 70
     1
102
RTVSPropertyOp30
 70
     1
102
RTVSPropertyOp31
 70
     1
102
RTVSPropertyOp32
 70
     1
102
RTVSPropertyOp33
 70
     1
102
RTVSPropertyOp34
 70
     1
102
RTVSPropertyOp35
 70
     1
102
RTVSPropertyOp36
 70
     1
102
RTVSPropertyOp37
 70
     1
102
RTVSPropertyOp38
 70
     1
102
RTVSPropertyOp39
 70
     1
102
RTVSPropertyOp40
 70
     1
102
RTVSPropertyOp41
 70
     1
102
RTVSPropertyOp42
 70
     1
102
RTVSPropertyOp43
 70
     1
102
RTVSPropertyOp44
 70
     1
102
RTVSPropertyOp45
 70
     1
102
RTVSPropertyOp46
 70
     1
102
RTVSPropertyOp47
 70
     1
102
RTVSPropertyOp48
 70
     1
102
RTVSPropertyOp49
 70
     1
102
RTVSPropertyOp50
 70
     1
102
RTVSPropertyOp51
 70
     0
102
RTVSPropertyOp52
 70
     0
102
RTVSPropertyOp53
 70
     1
102
RTVSPropertyOp54
 70
     1
102
RTVSPropertyOp55
 70
     1
102
RTVSPropertyOp56
 70
     1
102
RTVSPropertyOp57
 70
     1
102
RTVSPropertyOp58
 70
     1
102
RTVSPropertyOp59
 70
     1
102
RTVSPropertyOp60
 70
     1
102
RTVSPropertyOp61
 70
     1
102
RTVSPropertyOp62
 70
     1
  0
XRECORD
  5
ACEB
102
{ACAD_REACTORS
330
ACEA
102
}
330
ACEA
100
AcDbXrecord
280
     1
102
RTVSPost2010Prop28
280
     0
102
RTVSPost2010PropOp28
 70
     1
102
RTVSPost2010Prop29
280
     1
102
RTVSPost2010PropOp29
 70
     1
102
RTVSPost2010Prop30
280
     1
102
RTVSPost2010PropOp30
 70
     1
102
RTVSPost2010Prop31
280
     0
102
RTVSPost2010PropOp31
 70
     1
102
RTVSPost2010Prop32
280
     0
102
RTVSPost2010PropOp32
 70
     1
102
RTVSPost2010Prop33
280
     0
102
RTVSPost2010PropOp33
 70
     1
102
RTVSPost2010Prop34
280
     0
102
RTVSPost2010PropOp34
 70
     1
102
RTVSPost2010Prop35
280
     0
102
RTVSPost2010PropOp35
 70
     1
102
RTVSPost2010Prop36
280
     0
102
RTVSPost2010PropOp36
 70
     1
102
RTVSPost2010Prop37
 90
       50
102
RTVSPost2010PropOp37
 70
     1
102
RTVSPost2010Prop38
140
0.0
102
RTVSPost2010PropOp38
 70
     1
102
RTVSPost2010Prop39
140
1.0
102
RTVSPost2010PropOp39
 70
     1
102
RTVSPost2010Prop40
 90
        0
102
RTVSPost2010PropOp40
 70
     1
102
RTVSPost2010Prop41ColorIndex
 90
       18
102
RTVSPost2010Prop41ColorRGB
 90
        0
102
RTVSPost2010PropOp41
 70
     1
102
RTVSPost2010Prop42
 90
       50
102
RTVSPost2010PropOp42
 70
     1
102
RTVSPost2010Prop43
 90
        3
102
RTVSPost2010PropOp43
 70
     1
102
RTVSPost2010Prop44ColorIndex
 90
        5
102
RTVSPost2010Prop44ColorRGB
 90
      255
102
RTVSPost2010PropOp44
 70
     1
102
RTVSPost2010Prop45
280
     0
102
RTVSPost2010PropOp45
 70
     1
102
RTVSPost2010Prop46
 90
       50
102
RTVSPost2010PropOp46
 70
     1
102
RTVSPost2010Prop47
 90
       50
102
RTVSPost2010PropOp47
 70
     1
102
RTVSPost2010Prop48
 90
       50
102
RTVSPost2010PropOp48
 70
     1
102
RTVSPost2010Prop49
280
     0
102
RTVSPost2010PropOp49
 70
     1
102
RTVSPost2010Prop50
 90
       50
102
RTVSPost2010PropOp50
 70
     1
102
RTVSPost2010Prop51ColorIndex
 90
      256
102
RTVSPost2010Prop51ColorRGB
 90
-16777216
102
RTVSPost2010PropOp51
 70
     0
102
RTVSPost2010Prop52
140
1.0
102
RTVSPost2010PropOp52
 70
     0
102
RTVSPost2010Prop53
 90
        2
102
RTVSPost2010PropOp53
 70
     1
102
RTVSPost2010Prop54
  1
strokes_ogs.tif
102
RTVSPost2010PropOp54
 70
     1
102
RTVSPost2010Prop55
280
     0
102
RTVSPost2010PropOp55
 70
     1
102
RTVSPost2010Prop56
140
1.0
102
RTVSPost2010PropOp56
 70
     1
102
RTVSPost2010Prop57
140
1.0
102
RTVSPost2010PropOp57
 70
     1
102
RTVSPropertyOp0
 70
     1
102
RTVSPropertyOp1
 70
     1
102
RTVSPropertyOp2
 70
     1
102
RTVSPropertyOp3
 70
     1
102
RTVSPropertyOp4
 70
     1
102
RTVSPropertyOp5
 70
     1
102
RTVSPropertyOp6
 70
     1
102
RTVSPropertyOp7
 70
     1
102
RTVSPropertyOp8
 70
     1
102
RTVSPropertyOp9
 70
     1
102
RTVSPropertyOp10
 70
     1
102
RTVSPropertyOp11
 70
     1
102
RTVSPropertyOp12
 70
     1
102
RTVSPropertyOp13
 70
     1
102
RTVSPropertyOp14
 70
     1
102
RTVSPropertyOp15
 70
     1
102
RTVSPropertyOp16
 70
     1
102
RTVSPropertyOp17
 70
     1
102
RTVSPropertyOp18
 70
     1
102
RTVSPropertyOp19
 70
     1
102
RTVSPropertyOp20
 70
     1
102
RTVSPropertyOp21
 70
     1
102
RTVSPropertyOp22
 70
     1
102
RTVSPropertyOp23
 70
     1
102
RTVSPropertyOp24
 70
     1
102
RTVSPropertyOp25
 70
     1
102
RTVSPropertyOp26
 70
     1
102
RTVSPropertyOp27
 70
     1
102
RTVSPropertyOp28
 70
     1
102
RTVSPropertyOp29
 70
     1
102
RTVSPropertyOp30
 70
     1
102
RTVSPropertyOp31
 70
     1
102
RTVSPropertyOp32
 70
     1
102
RTVSPropertyOp33
 70
     1
102
RTVSPropertyOp34
 70
     1
102
RTVSPropertyOp35
 70
     1
102
RTVSPropertyOp36
 70
     1
102
RTVSPropertyOp37
 70
     1
102
RTVSPropertyOp38
 70
     1
102
RTVSPropertyOp39
 70
     1
102
RTVSPropertyOp40
 70
     1
102
RTVSPropertyOp41
 70
     1
102
RTVSPropertyOp42
 70
     1
102
RTVSPropertyOp43
 70
     1
102
RTVSPropertyOp44
 70
     1
102
RTVSPropertyOp45
 70
     1
102
RTVSPropertyOp46
 70
     1
102
RTVSPropertyOp47
 70
     1
102
RTVSPropertyOp48
 70
     1
102
RTVSPropertyOp49
 70
     1
102
RTVSPropertyOp50
 70
     1
102
RTVSPropertyOp51
 70
     0
102
RTVSPropertyOp52
 70
     0
102
RTVSPropertyOp53
 70
     1
102
RTVSPropertyOp54
 70
     1
102
RTVSPropertyOp55
 70
     1
102
RTVSPropertyOp56
 70
     1
102
RTVSPropertyOp57
 70
     1
102
RTVSPropertyOp58
 70
     1
102
RTVSPropertyOp59
 70
     1
102
RTVSPropertyOp60
 70
     1
102
RTVSPropertyOp61
 70
     1
102
RTVSPropertyOp62
 70
     1
  0
XRECORD
  5
AD03
102
{ACAD_REACTORS
330
AD02
102
}
330
AD02
100
AcDbXrecord
280
     1
102
RTVSPost2010Prop28
280
     0
102
RTVSPost2010PropOp28
 70
     1
102
RTVSPost2010Prop29
280
     1
102
RTVSPost2010PropOp29
 70
     1
102
RTVSPost2010Prop30
280
     1
102
RTVSPost2010PropOp30
 70
     1
102
RTVSPost2010Prop31
280
     0
102
RTVSPost2010PropOp31
 70
     1
102
RTVSPost2010Prop32
280
     0
102
RTVSPost2010PropOp32
 70
     1
102
RTVSPost2010Prop33
280
     0
102
RTVSPost2010PropOp33
 70
     1
102
RTVSPost2010Prop34
280
     0
102
RTVSPost2010PropOp34
 70
     1
102
RTVSPost2010Prop35
280
     0
102
RTVSPost2010PropOp35
 70
     1
102
RTVSPost2010Prop36
280
     0
102
RTVSPost2010PropOp36
 70
     1
102
RTVSPost2010Prop37
 90
       50
102
RTVSPost2010PropOp37
 70
     1
102
RTVSPost2010Prop38
140
0.0
102
RTVSPost2010PropOp38
 70
     1
102
RTVSPost2010Prop39
140
1.0
102
RTVSPost2010PropOp39
 70
     1
102
RTVSPost2010Prop40
 90
        0
102
RTVSPost2010PropOp40
 70
     1
102
RTVSPost2010Prop41ColorIndex
 90
       18
102
RTVSPost2010Prop41ColorRGB
 90
        0
102
RTVSPost2010PropOp41
 70
     1
102
RTVSPost2010Prop42
 90
       50
102
RTVSPost2010PropOp42
 70
     1
102
RTVSPost2010Prop43
 90
        3
102
RTVSPost2010PropOp43
 70
     1
102
RTVSPost2010Prop44ColorIndex
 90
        5
102
RTVSPost2010Prop44ColorRGB
 90
      255
102
RTVSPost2010PropOp44
 70
     1
102
RTVSPost2010Prop45
280
     0
102
RTVSPost2010PropOp45
 70
     1
102
RTVSPost2010Prop46
 90
       50
102
RTVSPost2010PropOp46
 70
     1
102
RTVSPost2010Prop47
 90
       50
102
RTVSPost2010PropOp47
 70
     1
102
RTVSPost2010Prop48
 90
       50
102
RTVSPost2010PropOp48
 70
     1
102
RTVSPost2010Prop49
280
     0
102
RTVSPost2010PropOp49
 70
     1
102
RTVSPost2010Prop50
 90
       50
102
RTVSPost2010PropOp50
 70
     1
102
RTVSPost2010Prop51ColorIndex
 90
      256
102
RTVSPost2010Prop51ColorRGB
 90
-16777216
102
RTVSPost2010PropOp51
 70
     0
102
RTVSPost2010Prop52
140
1.0
102
RTVSPost2010PropOp52
 70
     0
102
RTVSPost2010Prop53
 90
        2
102
RTVSPost2010PropOp53
 70
     1
102
RTVSPost2010Prop54
  1
strokes_ogs.tif
102
RTVSPost2010PropOp54
 70
     1
102
RTVSPost2010Prop55
280
     0
102
RTVSPost2010PropOp55
 70
     1
102
RTVSPost2010Prop56
140
1.0
102
RTVSPost2010PropOp56
 70
     1
102
RTVSPost2010Prop57
140
1.0
102
RTVSPost2010PropOp57
 70
     1
102
RTVSPropertyOp0
 70
     1
102
RTVSPropertyOp1
 70
     1
102
RTVSPropertyOp2
 70
     1
102
RTVSPropertyOp3
 70
     1
102
RTVSPropertyOp4
 70
     1
102
RTVSPropertyOp5
 70
     1
102
RTVSPropertyOp6
 70
     1
102
RTVSPropertyOp7
 70
     1
102
RTVSPropertyOp8
 70
     1
102
RTVSPropertyOp9
 70
     1
102
RTVSPropertyOp10
 70
     1
102
RTVSPropertyOp11
 70
     1
102
RTVSPropertyOp12
 70
     1
102
RTVSPropertyOp13
 70
     1
102
RTVSPropertyOp14
 70
     1
102
RTVSPropertyOp15
 70
     1
102
RTVSPropertyOp16
 70
     1
102
RTVSPropertyOp17
 70
     1
102
RTVSPropertyOp18
 70
     1
102
RTVSPropertyOp19
 70
     1
102
RTVSPropertyOp20
 70
     1
102
RTVSPropertyOp21
 70
     1
102
RTVSPropertyOp22
 70
     1
102
RTVSPropertyOp23
 70
     1
102
RTVSPropertyOp24
 70
     1
102
RTVSPropertyOp25
 70
     1
102
RTVSPropertyOp26
 70
     1
102
RTVSPropertyOp27
 70
     1
102
RTVSPropertyOp28
 70
     1
102
RTVSPropertyOp29
 70
     1
102
RTVSPropertyOp30
 70
     1
102
RTVSPropertyOp31
 70
     1
102
RTVSPropertyOp32
 70
     1
102
RTVSPropertyOp33
 70
     1
102
RTVSPropertyOp34
 70
     1
102
RTVSPropertyOp35
 70
     1
102
RTVSPropertyOp36
 70
     1
102
RTVSPropertyOp37
 70
     1
102
RTVSPropertyOp38
 70
     1
102
RTVSPropertyOp39
 70
     1
102
RTVSPropertyOp40
 70
     1
102
RTVSPropertyOp41
 70
     1
102
RTVSPropertyOp42
 70
     1
102
RTVSPropertyOp43
 70
     1
102
RTVSPropertyOp44
 70
     1
102
RTVSPropertyOp45
 70
     1
102
RTVSPropertyOp46
 70
     1
102
RTVSPropertyOp47
 70
     1
102
RTVSPropertyOp48
 70
     1
102
RTVSPropertyOp49
 70
     1
102
RTVSPropertyOp50
 70
     1
102
RTVSPropertyOp51
 70
     0
102
RTVSPropertyOp52
 70
     0
102
RTVSPropertyOp53
 70
     1
102
RTVSPropertyOp54
 70
     1
102
RTVSPropertyOp55
 70
     1
102
RTVSPropertyOp56
 70
     1
102
RTVSPropertyOp57
 70
     1
102
RTVSPropertyOp58
 70
     1
102
RTVSPropertyOp59
 70
     1
102
RTVSPropertyOp60
 70
     1
102
RTVSPropertyOp61
 70
     1
102
RTVSPropertyOp62
 70
     1
  0
ENDSEC
  0
EOF
