  0
SECTION
  2
HEADER
  9
$ACADVER
  1
AC1015
  9
$ACADMAINTVER
 70
    20
  9
$DWGCODEPAGE
  3
ANSI_932
  9
$INSBASE
 10
0.0
 20
0.0
 30
0.0
  9
$EXTMIN
 10
10.0
 20
9.999999999999998
 30
0.0
  9
$EXTMAX
 10
439.6375039999998
 20
375.505498
 30
0.0
  9
$LIMMIN
 10
0.0
 20
0.0
  9
$LIMMAX
 10
565.3084730000001
 20
389.720235
  9
$ORTHOMODE
 70
     1
  9
$REGENMODE
 70
     1
  9
$FILLMODE
 70
     1
  9
$QTEXTMODE
 70
     0
  9
$MIRRTEXT
 70
     1
  9
$LTSCALE
 40
20.0
  9
$ATTMODE
 70
     1
  9
$TEXTSIZE
 40
5.0
  9
$TRACEWID
 40
1.0
  9
$TEXTSTYLE
  7
STANDARD
  9
$CLAYER
  8
0
  9
$CELTYPE
  6
BYLAYER
  9
$CECOLOR
 62
   256
  9
$CELTSCALE
 40
1.0
  9
$DISPSILH
 70
     0
  9
$DIMSCALE
 40
1.0
  9
$DIMASZ
 40
3.0
  9
$DIMEXO
 40
1.0
  9
$DIMDLI
 40
10.0
  9
$DIMRND
 40
0.0
  9
$DIMDLE
 40
0.0
  9
$DIMEXE
 40
1.0
  9
$DIMTP
 40
0.0
  9
$DIMTM
 40
0.0
  9
$DIMTXT
 40
3.2
  9
$DIMCEN
 40
0.0
  9
$DIMTSZ
 40
0.0
  9
$DIMTOL
 70
     0
  9
$DIMLIM
 70
     0
  9
$DIMTIH
 70
     0
  9
$DIMTOH
 70
     0
  9
$DIMSE1
 70
     0
  9
$DIMSE2
 70
     0
  9
$DIMTAD
 70
     3
  9
$DIMZIN
 70
     8
  9
$DIMBLK
  1

  9
$DIMASO
 70
     1
  9
$DIMSHO
 70
     1
  9
$DIMPOST
  1

  9
$DIMAPOST
  1

  9
$DIMALT
 70
     0
  9
$DIMALTD
 70
     2
  9
$DIMALTF
 40
25.4
  9
$DIMLFAC
 40
1.0
  9
$DIMTOFL
 70
     1
  9
$DIMTVP
 40
0.0
  9
$DIMTIX
 70
     0
  9
$DIMSOXD
 70
     0
  9
$DIMSAH
 70
     1
  9
$DIMBLK1
  1
OPEN
  9
$DIMBLK2
  1
OPEN
  9
$DIMSTYLE
  2
STANDARD
  9
$DIMCLRD
 70
     0
  9
$DIMCLRE
 70
     0
  9
$DIMCLRT
 70
     0
  9
$DIMTFAC
 40
1.0
  9
$DIMGAP
 40
1.0
  9
$DIMJUST
 70
     0
  9
$DIMSD1
 70
     0
  9
$DIMSD2
 70
     0
  9
$DIMTOLJ
 70
     1
  9
$DIMTZIN
 70
     0
  9
$DIMALTZ
 70
     0
  9
$DIMALTTZ
 70
     0
  9
$DIMUPT
 70
     0
  9
$DIMDEC
 70
     4
  9
$DIMTDEC
 70
     4
  9
$DIMALTU
 70
     2
  9
$DIMALTTD
 70
     2
  9
$DIMTXSTY
  7
STANDARD
  9
$DIMAUNIT
 70
     0
  9
$DIMADEC
 70
     0
  9
$DIMALTRND
 40
0.0
  9
$DIMAZIN
 70
     0
  9
$DIMDSEP
 70
    46
  9
$DIMATFIT
 70
     3
  9
$DIMFRAC
 70
     0
  9
$DIMLDRBLK
  1
OPEN
  9
$DIMLUNIT
 70
     2
  9
$DIMLWD
 70
    -2
  9
$DIMLWE
 70
    -2
  9
$DIMTMOVE
 70
     0
  9
$LUNITS
 70
     2
  9
$LUPREC
 70
     4
  9
$SKETCHINC
 40
1.0
  9
$FILLETRAD
 40
12.0
  9
$AUNITS
 70
     0
  9
$AUPREC
 70
     2
  9
$MENU
  1
.
  9
$ELEVATION
 40
0.0
  9
$PELEVATION
 40
0.0
  9
$THICKNESS
 40
0.0
  9
$LIMCHECK
 70
     0
  9
$CHAMFERA
 40
10.0
  9
$CHAMFERB
 40
10.0
  9
$CHAMFERC
 40
0.0
  9
$CHAMFERD
 40
0.0
  9
$SKPOLY
 70
     0
  9
$TDCREATE
 40
2451302.660466898
  9
$TDUCREATE
 40
2451302.285466898
  9
$TDUPDATE
 40
2457192.687750093
  9
$TDUUPDATE
 40
2457192.312750093
  9
$TDINDWG
 40
0.0000131134
  9
$TDUSRTIMER
 40
0.0000126157
  9
$USRTIMER
 70
     1
  9
$ANGBASE
 50
0.0
  9
$ANGDIR
 70
     0
  9
$PDMODE
 70
     0
  9
$PDSIZE
 40
0.0
  9
$PLINEWID
 40
0.0
  9
$SPLFRAME
 70
     0
  9
$SPLINETYPE
 70
     6
  9
$SPLINESEGS
 70
     8
  9
$HANDSEED
  5
B839
  9
$SURFTAB1
 70
     6
  9
$SURFTAB2
 70
     6
  9
$SURFTYPE
 70
     6
  9
$SURFU
 70
     6
  9
$SURFV
 70
     6
  9
$UCSBASE
  2

  9
$UCSNAME
  2

  9
$UCSORG
 10
0.0
 20
0.0
 30
0.0
  9
$UCSXDIR
 10
1.0
 20
0.0
 30
0.0
  9
$UCSYDIR
 10
0.0
 20
1.0
 30
0.0
  9
$UCSORTHOREF
  2

  9
$UCSORTHOVIEW
 70
     0
  9
$UCSORGTOP
 10
0.0
 20
0.0
 30
0.0
  9
$UCSORGBOTTOM
 10
0.0
 20
0.0
 30
0.0
  9
$UCSORGLEFT
 10
0.0
 20
0.0
 30
0.0
  9
$UCSORGRIGHT
 10
0.0
 20
0.0
 30
0.0
  9
$UCSORGFRONT
 10
0.0
 20
0.0
 30
0.0
  9
$UCSORGBACK
 10
0.0
 20
0.0
 30
0.0
  9
$PUCSBASE
  2

  9
$PUCSNAME
  2

  9
$PUCSORG
 10
0.0
 20
0.0
 30
0.0
  9
$PUCSXDIR
 10
1.0
 20
0.0
 30
0.0
  9
$PUCSYDIR
 10
0.0
 20
1.0
 30
0.0
  9
$PUCSORTHOREF
  2

  9
$PUCSORTHOVIEW
 70
     0
  9
$PUCSORGTOP
 10
0.0
 20
0.0
 30
0.0
  9
$PUCSORGBOTTOM
 10
0.0
 20
0.0
 30
0.0
  9
$PUCSORGLEFT
 10
0.0
 20
0.0
 30
0.0
  9
$PUCSORGRIGHT
 10
0.0
 20
0.0
 30
0.0
  9
$PUCSORGFRONT
 10
0.0
 20
0.0
 30
0.0
  9
$PUCSORGBACK
 10
0.0
 20
0.0
 30
0.0
  9
$USERI1
 70
     0
  9
$USERI2
 70
     0
  9
$USERI3
 70
     0
  9
$USERI4
 70
     0
  9
$USERI5
 70
     0
  9
$USERR1
 40
0.0
  9
$USERR2
 40
0.0
  9
$USERR3
 40
0.0
  9
$USERR4
 40
0.0
  9
$USERR5
 40
0.0
  9
$WORLDVIEW
 70
     1
  9
$SHADEDGE
 70
     3
  9
$SHADEDIF
 70
    70
  9
$TILEMODE
 70
     1
  9
$MAXACTVP
 70
    16
  9
$PINSBASE
 10
0.0
 20
0.0
 30
0.0
  9
$PLIMCHECK
 70
     0
  9
$PEXTMIN
 10
1.000000000000000E+20
 20
1.000000000000000E+20
 30
1.000000000000000E+20
  9
$PEXTMAX
 10
-1.000000000000000E+20
 20
-1.000000000000000E+20
 30
-1.000000000000000E+20
  9
$PLIMMIN
 10
0.0
 20
0.0
  9
$PLIMMAX
 10
420.0
 20
297.0
  9
$UNITMODE
 70
     0
  9
$VISRETAIN
 70
     0
  9
$PLINEGEN
 70
     0
  9
$PSLTSCALE
 70
     0
  9
$TREEDEPTH
 70
  3020
  9
$CMLSTYLE
  2
STANDARD
  9
$CMLJUST
 70
     0
  9
$CMLSCALE
 40
1.0
  9
$PROXYGRAPHICS
 70
     1
  9
$MEASUREMENT
 70
     0
  9
$CELWEIGHT
370
    -1
  9
$ENDCAPS
280
     0
  9
$JOINSTYLE
280
     0
  9
$LWDISPLAY
290
     0
  9
$INSUNITS
 70
     0
  9
$HYPERLINKBASE
  1

  9
$STYLESHEET
  1

  9
$XEDIT
290
     1
  9
$CEPSNTYPE
380
     0
  9
$PSTYLEMODE
290
     1
  9
$FINGERPRINTGUID
  2
{D976CC2F-95A3-4944-A244-3B2B0F787754}
  9
$VERSIONGUID
  2
{1D09CD0D-78AE-4FE3-8FAC-0C41AFA7B94E}
  9
$EXTNAMES
290
     1
  9
$PSVPSCALE
 40
0.0
  9
$OLESTARTUP
290
     0
  0
ENDSEC
  0
SECTION
  2
CLASSES
  0
CLASS
  1
ACDBDICTIONARYWDFLT
  2
AcDbDictionaryWithDefault
  3
ObjectDBX Classes
 90
        0
280
     0
281
     0
  0
CLASS
  1
ACDBPLACEHOLDER
  2
AcDbPlaceHolder
  3
ObjectDBX Classes
 90
        0
280
     0
281
     0
  0
CLASS
  1
LAYOUT
  2
AcDbLayout
  3
ObjectDBX Classes
 90
        0
280
     0
281
     0
  0
CLASS
  1
DICTIONARYVAR
  2
AcDbDictionaryVar
  3
ObjectDBX Classes
 90
        0
280
     0
281
     0
  0
CLASS
  1
MATERIAL
  2
AcDbMaterial
  3
ObjectDBX Classes
 90
     1153
280
     0
281
     0
  0
CLASS
  1
VISUALSTYLE
  2
AcDbVisualStyle
  3
ObjectDBX Classes
 90
     4095
280
     0
281
     0
  0
CLASS
  1
TABLESTYLE
  2
AcDbTableStyle
  3
ObjectDBX Classes
 90
     4095
280
     0
281
     0
  0
CLASS
  1
SCALE
  2
AcDbScale
  3
ObjectDBX Classes
 90
     1153
280
     0
281
     0
  0
CLASS
  1
MLEADERSTYLE
  2
AcDbMLeaderStyle
  3
ACDB_MLEADERSTYLE_CLASS
 90
     4095
280
     0
281
     0
  0
CLASS
  1
ACDBSECTIONVIEWSTYLE
  2
AcDbSectionViewStyle
  3
ObjectDBX Classes
 90
     1025
280
     0
281
     0
  0
CLASS
  1
ACDBDETAILVIEWSTYLE
  2
AcDbDetailViewStyle
  3
ObjectDBX Classes
 90
     1025
280
     0
281
     0
  0
CLASS
  1
CELLSTYLEMAP
  2
AcDbCellStyleMap
  3
ObjectDBX Classes
 90
     1152
280
     0
281
     0
  0
ENDSEC
  0
SECTION
  2
TABLES
  0
TABLE
  2
VPORT
  5
B307
330
0
100
AcDbSymbolTable
 70
     1
  0
VPORT
  5
B782
330
B307
100
AcDbSymbolTableRecord
100
AcDbViewportTableRecord
  2
*ACTIVE
 70
     0
 10
0.0
 20
0.0
 11
1.0
 21
1.0
 12
335.5332351098858
 22
192.7490545098956
 13
0.0
 23
0.0
 14
10.0
 24
10.0
 15
10.0
 25
10.0
 16
0.0
 26
0.0
 36
1.0
 17
0.0
 27
0.0
 37
0.0
 40
369.5802484484733
 41
2.35006605019815
 42
50.0
 43
0.0
 44
0.0
 50
0.0
 51
0.0
 71
     0
 72
   100
 73
     1
 74
     0
 75
     0
 76
     0
 77
     0
 78
     0
281
     0
 65
     1
110
0.0
120
0.0
130
0.0
111
1.0
121
0.0
131
0.0
112
0.0
122
1.0
132
0.0
 79
     0
146
0.0
1001
ACAD_NAV_VCDISPLAY
1070
     3
  0
ENDTAB
  0
TABLE
  2
LTYPE
  5
B304
330
0
100
AcDbSymbolTable
 70
     4
  0
LTYPE
  5
B312
330
B304
100
AcDbSymbolTableRecord
100
AcDbLinetypeTableRecord
  2
BYBLOCK
 70
     0
  3

 72
    65
 73
     0
 40
0.0
  0
LTYPE
  5
B313
330
B304
100
AcDbSymbolTableRecord
100
AcDbLinetypeTableRecord
  2
BYLAYER
 70
     0
  3

 72
    65
 73
     0
 40
0.0
  0
LTYPE
  5
B314
330
B304
100
AcDbSymbolTableRecord
100
AcDbLinetypeTableRecord
  2
CONTINUOUS
 70
     0
  3
Solid line
 72
    65
 73
     0
 40
0.0
  0
LTYPE
  5
B322
330
B304
100
AcDbSymbolTableRecord
100
AcDbLinetypeTableRecord
  2
DASHED
 70
     0
  3
__ __ __ __ __ __ __ __ __ __ __ __ __ __ __ __
 72
    65
 73
     2
 40
0.75
 49
0.5
 74
     0
 49
-0.25
 74
     0
  0
LTYPE
  5
B323
330
B304
100
AcDbSymbolTableRecord
100
AcDbLinetypeTableRecord
  2
CENTER
 70
     0
  3
____ _ ____ _ ____ _ ____ _ ____ _ ____ _ ____ 
 72
    65
 73
     4
 40
2.0
 49
1.25
 74
     0
 49
-0.25
 74
     0
 49
0.25
 74
     0
 49
-0.25
 74
     0
  0
LTYPE
  5
B324
330
B304
100
AcDbSymbolTableRecord
100
AcDbLinetypeTableRecord
  2
PHANTOM
 70
     0
  3
______  __  __  ______  __  __  ______  __  __ 
 72
    65
 73
     6
 40
2.5
 49
1.25
 74
     0
 49
-0.25
 74
     0
 49
0.25
 74
     0
 49
-0.25
 74
     0
 49
0.25
 74
     0
 49
-0.25
 74
     0
  0
ENDTAB
  0
TABLE
  2
LAYER
  5
B301
330
0
100
AcDbSymbolTable
 70
     8
  0
LAYER
  5
B30F
102
{ACAD_XDICTIONARY
360
B7DD
102
}
330
B301
100
AcDbSymbolTableRecord
100
AcDbLayerTableRecord
  2
0
 70
     0
 62
     7
  6
CONTINUOUS
370
    -3
390
B78B
  0
LAYER
  5
B325
102
{ACAD_XDICTIONARY
360
B7DF
102
}
330
B301
100
AcDbSymbolTableRecord
100
AcDbLayerTableRecord
  2
4
 70
     0
 62
     1
  6
CENTER
370
    -3
390
B78B
  0
LAYER
  5
B326
102
{ACAD_XDICTIONARY
360
B7E1
102
}
330
B301
100
AcDbSymbolTableRecord
100
AcDbLayerTableRecord
  2
5
 70
     0
 62
     6
  6
PHANTOM
370
    -3
390
B78B
  0
LAYER
  5
B327
102
{ACAD_XDICTIONARY
360
B7E3
102
}
330
B301
100
AcDbSymbolTableRecord
100
AcDbLayerTableRecord
  2
1
 70
     0
 62
     7
  6
CONTINUOUS
370
    -3
390
B78B
  0
LAYER
  5
B328
102
{ACAD_XDICTIONARY
360
B7E5
102
}
330
B301
100
AcDbSymbolTableRecord
100
AcDbLayerTableRecord
  2
2
 70
     0
 62
     4
  6
CONTINUOUS
370
    -3
390
B78B
  0
LAYER
  5
B329
102
{ACAD_XDICTIONARY
360
B7E7
102
}
330
B301
100
AcDbSymbolTableRecord
100
AcDbLayerTableRecord
  2
3
 70
     0
 62
     2
  6
DASHED
370
    -3
390
B78B
  0
LAYER
  5
B32A
102
{ACAD_XDICTIONARY
360
B7E9
102
}
330
B301
100
AcDbSymbolTableRecord
100
AcDbLayerTableRecord
  2
6
 70
     0
 62
     5
  6
CONTINUOUS
370
    -3
390
B78B
  0
LAYER
  5
B32B
102
{ACAD_XDICTIONARY
360
B7EB
102
}
330
B301
100
AcDbSymbolTableRecord
100
AcDbLayerTableRecord
  2
7
 70
     0
 62
     3
  6
CONTINUOUS
370
    -3
390
B78B
  0
ENDTAB
  0
TABLE
  2
STYLE
  5
B302
330
0
100
AcDbSymbolTable
 70
     1
  0
STYLE
  5
B310
330
B302
100
AcDbSymbolTableRecord
100
AcDbTextStyleTableRecord
  2
STANDARD
 70
     0
 40
0.0
 41
1.0
 50
0.0
 71
     0
 42
5.0
  3
txt
  4

  0
ENDTAB
  0
TABLE
  2
VIEW
  5
B305
330
0
100
AcDbSymbolTable
 70
     0
  0
ENDTAB
  0
TABLE
  2
UCS
  5
B306
330
0
100
AcDbSymbolTable
 70
     0
  0
ENDTAB
  0
TABLE
  2
APPID
  5
B308
330
0
100
AcDbSymbolTable
 70
     3
  0
APPID
  5
B311
330
B308
100
AcDbSymbolTableRecord
100
AcDbRegAppTableRecord
  2
ACAD
 70
     0
  0
APPID
  5
B7F7
330
B308
100
AcDbSymbolTableRecord
100
AcDbRegAppTableRecord
  2
ACAD_NAV_VCDISPLAY
 70
     0
  0
APPID
  5
B830
330
B308
100
AcDbSymbolTableRecord
100
AcDbRegAppTableRecord
  2
ACAD_MLEADERVER
 70
     0
  0
ENDTAB
  0
TABLE
  2
DIMSTYLE
  5
B309
330
0
100
AcDbSymbolTable
 70
     1
100
AcDbDimStyleTable
 71
     0
  0
DIMSTYLE
105
B32D
330
B309
100
AcDbSymbolTableRecord
100
AcDbDimStyleTableRecord
  2
STANDARD
 70
     0
 41
3.0
 42
1.0
 43
10.0
 44
1.0
 73
     0
 74
     0
 77
     3
 78
     8
140
3.2
141
0.0
147
1.0
172
     1
173
     1
284
     8
285
     8
286
     8
340
B310
  0
ENDTAB
  0
TABLE
  2
BLOCK_RECORD
  5
B300
330
0
100
AcDbSymbolTable
 70
     1
  0
BLOCK_RECORD
  5
B31D
102
{ACAD_XDICTIONARY
360
B785
102
}
330
B300
100
AcDbSymbolTableRecord
100
AcDbBlockTableRecord
  2
*MODEL_SPACE
340
B7D9
  0
BLOCK_RECORD
  5
B319
102
{ACAD_XDICTIONARY
360
B783
102
}
330
B300
100
AcDbSymbolTableRecord
100
AcDbBlockTableRecord
  2
*PAPER_SPACE
340
B7DA
  0
BLOCK_RECORD
  5
B335
330
B300
100
AcDbSymbolTableRecord
100
AcDbBlockTableRecord
  2
_OPEN
340
0
  0
ENDTAB
  0
ENDSEC
  0
SECTION
  2
BLOCKS
  0
BLOCK
  5
B31E
330
B31D
100
AcDbEntity
  8
0
100
AcDbBlockBegin
  2
*MODEL_SPACE
 70
     0
 10
0.0
 20
0.0
 30
0.0
  3
*MODEL_SPACE
  1

  0
ENDBLK
  5
B31F
330
B31D
100
AcDbEntity
  8
0
100
AcDbBlockEnd
  0
BLOCK
  5
B31A
330
B319
100
AcDbEntity
 67
     1
  8
0
100
AcDbBlockBegin
  2
*PAPER_SPACE
 70
     0
 10
0.0
 20
0.0
 30
0.0
  3
*PAPER_SPACE
  1

  0
ENDBLK
  5
B31B
330
B319
100
AcDbEntity
 67
     1
  8
0
100
AcDbBlockEnd
  0
BLOCK
  5
B336
330
B335
100
AcDbEntity
  8
0
100
AcDbBlockBegin
  2
_OPEN
 70
     0
 10
0.0
 20
0.0
 30
0.0
  3
_OPEN
  1

  0
LINE
  5
B337
330
B335
100
AcDbEntity
  8
0
  6
ByBlock
 62
     0
100
AcDbLine
 10
-1.0
 20
0.166667
 30
0.0
 11
0.0
 21
0.0
 31
0.0
  0
LINE
  5
B338
330
B335
100
AcDbEntity
  8
0
  6
ByBlock
 62
     0
100
AcDbLine
 10
0.0
 20
0.0
 30
0.0
 11
-1.0
 21
-0.166667
 31
0.0
  0
LINE
  5
B339
330
B335
100
AcDbEntity
  8
0
  6
ByBlock
 62
     0
100
AcDbLine
 10
0.0
 20
0.0
 30
0.0
 11
-1.0
 21
0.0
 31
0.0
  0
ENDBLK
  5
B33A
330
B335
100
AcDbEntity
  8
0
100
AcDbBlockEnd
  0
ENDSEC
  0
SECTION
  2
ENTITIES
  0
TEXT
  5
B33B
330
B31D
100
AcDbEntity
  8
7
  6
Continuous
100
AcDbText
 10
10.0
 20
18.0
 30
0.0
 40
3.0
  1
TYPE No.206S d=19
100
AcDbText
  0
TEXT
  5
B33C
330
B31D
100
AcDbEntity
  8
7
  6
Continuous
100
AcDbText
 10
10.0
 20
26.0
 30
0.0
 40
3.0
  1
CODE No.9179
100
AcDbText
  0
TEXT
  5
B33D
330
B31D
100
AcDbEntity
  8
1
  6
Continuous
100
AcDbText
 10
10.0
 20
10.0
 30
0.0
 40
1.399999999999999
  1
LAYER
100
AcDbText
  0
TEXT
  5
B33E
330
B31D
100
AcDbEntity
  8
1
  6
Continuous
100
AcDbText
 10
17.97951099999998
 20
10.04873699999998
 30
0.0
 40
1.399999999999999
  1
1
100
AcDbText
  0
TEXT
  5
B33F
330
B31D
100
AcDbEntity
  8
7
  6
Continuous
100
AcDbText
 10
29.97951099999999
 20
10.04873699999998
 30
0.0
 40
1.399999999999999
  1
7
100
AcDbText
  0
TEXT
  5
B340
330
B31D
100
AcDbEntity
  8
4
  6
CENTER
100
AcDbText
 10
23.97951099999999
 20
10.04873699999998
 30
0.0
 40
1.399999999999999
  1
4
100
AcDbText
  0
TEXT
  5
B341
330
B31D
100
AcDbEntity
  8
3
  6
DASHED
100
AcDbText
 10
21.979511
 20
10.04873699999998
 30
0.0
 40
1.399999999999999
  1
3
100
AcDbText
  0
TEXT
  5
B342
330
B31D
100
AcDbEntity
  8
2
  6
Continuous
100
AcDbText
 10
19.97951099999999
 20
10.04873699999998
 30
0.0
 40
1.399999999999999
  1
2
100
AcDbText
  0
TEXT
  5
B343
330
B31D
100
AcDbEntity
  8
6
  6
Continuous
100
AcDbText
 10
27.979511
 20
10.04873699999998
 30
0.0
 40
1.399999999999999
  1
6
100
AcDbText
  0
TEXT
  5
B344
330
B31D
100
AcDbEntity
  8
5
  6
PHANTOM
100
AcDbText
 10
25.97951099999999
 20
10.04873699999998
 30
0.0
 40
1.399999999999999
  1
5
100
AcDbText
  0
LINE
  5
B345
330
B31D
100
AcDbEntity
  8
4
  6
CENTER
100
AcDbLine
 10
206.1692469999999
 20
179.0714899999999
 30
0.0
 11
121.169247
 21
179.0714899999999
 31
0.0
  0
LINE
  5
B346
330
B31D
100
AcDbEntity
  8
4
  6
CENTER
100
AcDbLine
 10
163.6692469999998
 20
136.5714899999999
 30
0.0
 11
163.6692469999998
 21
219.57149
 31
0.0
  0
LINE
  5
B347
330
B31D
100
AcDbEntity
  8
1
  6
Continuous
100
AcDbLine
 10
211.669247
 20
225.87149
 30
0.0
 11
165.6692469999998
 21
225.87149
 31
0.0
  0
LINE
  5
B348
330
B31D
100
AcDbEntity
  8
1
  6
Continuous
100
AcDbLine
 10
159.8047719999998
 20
221.2714899999999
 30
0.0
 11
156.6692469999999
 21
221.2714899999999
 31
0.0
  0
LINE
  5
B349
330
B31D
100
AcDbEntity
  8
1
  6
Continuous
100
AcDbLine
 10
170.6692469999999
 20
223.57149
 30
0.0
 11
156.6692469999999
 21
223.57149
 31
0.0
  0
LINE
  5
B34A
330
B31D
100
AcDbEntity
  8
1
  6
Continuous
100
AcDbLine
 10
156.6692469999999
 20
223.57149
 30
0.0
 11
156.6692469999999
 21
221.2714899999999
 31
0.0
  0
LINE
  5
B34B
330
B31D
100
AcDbEntity
  8
4
  6
CENTER
100
AcDbLine
 10
188.6692469999999
 20
281.571816
 30
0.0
 11
188.6692469999999
 21
206.763602
 31
0.0
  0
ARC
  5
B34C
330
B31D
100
AcDbEntity
  8
1
  6
Continuous
100
AcDbCircle
 10
167.3364369999999
 20
222.8714899999999
 30
0.0
 40
3.0
100
AcDbArc
 50
90.0
 51
166.5066009999998
  0
ARC
  5
B34D
330
B31D
100
AcDbEntity
  8
1
  6
Continuous
100
AcDbCircle
 10
209.9878229999999
 20
222.409827
 30
0.0
 40
3.462340999999999
100
AcDbArc
 50
7.662535
 51
91.134876
  0
LINE
  5
B34E
330
B31D
100
AcDbEntity
  8
1
  6
Continuous
100
AcDbLine
 10
213.419247
 20
218.27149
 30
0.0
 11
205.563346
 21
218.27149
 31
0.0
  0
LINE
  5
B34F
330
B31D
100
AcDbEntity
  8
1
  6
Continuous
100
AcDbLine
 10
203.613618
 20
218.079984
 30
0.0
 11
203.5692469999999
 21
218.00899
 31
0.0
  0
LINE
  5
B350
330
B31D
100
AcDbEntity
  8
1
  6
Continuous
100
AcDbLine
 10
213.419247
 20
222.8714899999999
 30
0.0
 11
213.419247
 21
218.27149
 31
0.0
  0
LINE
  5
B351
330
B31D
100
AcDbEntity
  8
4
  6
CENTER
100
AcDbLine
 10
218.419172
 20
343.5054979999998
 30
0.0
 11
121.1692379999998
 21
343.5054979999998
 31
0.0
  0
LINE
  5
B352
330
B31D
100
AcDbEntity
  8
4
  6
CENTER
100
AcDbLine
 10
188.6691719999998
 20
311.505498
 30
0.0
 11
188.6691719999998
 21
375.505498
 31
0.0
  0
LINE
  5
B353
330
B31D
100
AcDbEntity
  8
4
  6
CENTER
100
AcDbLine
 10
280.4033759999999
 20
281.571752
 30
0.0
 11
280.4033759999999
 21
136.5714899999999
 31
0.0
  0
LINE
  5
B354
330
B31D
100
AcDbEntity
  8
4
  6
CENTER
100
AcDbLine
 10
245.9368589999999
 20
179.0714899999999
 30
0.0
 11
309.2118759999999
 21
179.0714899999999
 31
0.0
  0
ARC
  5
B355
330
B31D
100
AcDbEntity
  8
1
  6
Continuous
100
AcDbCircle
 10
209.2048479999998
 20
171.11731
 30
0.0
 40
99.466508
100
AcDbArc
 50
17.154698
 51
25.73159999999998
  0
LINE
  5
B356
330
B31D
100
AcDbEntity
  8
1
  6
Continuous
100
AcDbLine
 10
303.4033759999999
 20
225.87149
 30
0.0
 11
257.4033759999999
 21
225.87149
 31
0.0
  0
LINE
  5
B357
330
B31D
100
AcDbEntity
  8
1
  6
Continuous
100
AcDbLine
 10
263.8948759999999
 20
213.1678829999999
 30
0.0
 11
263.8948759999999
 21
167.5714899999999
 31
0.0
  0
LINE
  5
B358
330
B31D
100
AcDbEntity
  8
1
  6
Continuous
100
AcDbLine
 10
296.9118759999998
 20
167.5714899999999
 30
0.0
 11
299.2118759999998
 21
167.5714899999999
 31
0.0
  0
LINE
  5
B359
330
B31D
100
AcDbEntity
  8
1
  6
Continuous
100
AcDbLine
 10
299.2118759999998
 20
167.5714899999999
 30
0.0
 11
299.2118759999998
 21
167.962959
 31
0.0
  0
LINE
  5
B35A
330
B31D
100
AcDbEntity
  8
1
  6
Continuous
100
AcDbLine
 10
292.0968209999998
 20
218.27149
 30
0.0
 11
268.7778819999999
 21
218.27149
 31
0.0
  0
ARC
  5
B35B
330
B31D
100
AcDbEntity
  8
1
  6
Continuous
100
AcDbCircle
 10
268.743905
 20
210.5566619999999
 30
0.0
 40
7.714902
100
AcDbArc
 50
89.74766999999998
 51
150.9629099999999
  0
ARC
  5
B35C
330
B31D
100
AcDbEntity
  8
1
  6
Continuous
100
AcDbCircle
 10
209.2048479999998
 20
171.11731
 30
0.0
 40
97.26650800000001
100
AcDbArc
 50
18.221623
 51
28.73472400000001
  0
ARC
  5
B35D
330
B31D
100
AcDbEntity
  8
1
  6
Continuous
100
AcDbCircle
 10
292.0628449999999
 20
210.5566619999999
 30
0.0
 40
7.714902
100
AcDbArc
 50
29.03709
 51
90.25233
  0
LINE
  5
B35E
330
B31D
100
AcDbEntity
  8
1
  6
Continuous
100
AcDbLine
 10
263.8948759999999
 20
167.5714899999999
 30
0.0
 11
261.594876
 21
167.5714899999999
 31
0.0
  0
LINE
  5
B35F
330
B31D
100
AcDbEntity
  8
1
  6
Continuous
100
AcDbLine
 10
261.594876
 20
167.5714899999999
 30
0.0
 11
261.594876
 21
167.962959
 31
0.0
  0
LINE
  5
B360
330
B31D
100
AcDbEntity
  8
4
  6
CENTER
100
AcDbLine
 10
59.204661
 20
281.571752
 30
0.0
 11
59.204661
 21
136.571535
 31
0.0
  0
LINE
  5
B361
330
B31D
100
AcDbEntity
  8
1
  6
Continuous
100
AcDbLine
 10
78.01316099999998
 20
219.2715349999998
 30
0.0
 11
78.01316099999998
 21
194.168825
 31
0.0
  0
LINE
  5
B362
330
B31D
100
AcDbEntity
  8
1
  6
Continuous
100
AcDbLine
 10
40.39616099999999
 20
219.2715349999998
 30
0.0
 11
40.39616099999999
 21
167.571535
 31
0.0
  0
LINE
  5
B363
330
B31D
100
AcDbEntity
  8
1
  6
Continuous
100
AcDbLine
 10
75.713161
 20
219.2715349999998
 30
0.0
 11
75.713161
 21
194.168825
 31
0.0
  0
LINE
  5
B364
330
B31D
100
AcDbEntity
  8
1
  6
Continuous
100
AcDbLine
 10
42.69616099999999
 20
219.2715349999998
 30
0.0
 11
42.69616099999999
 21
167.571535
 31
0.0
  0
LINE
  5
B365
330
B31D
100
AcDbEntity
  8
4
  6
CENTER
100
AcDbLine
 10
30.39616099999999
 20
179.071535
 30
0.0
 11
93.671178
 21
179.071535
 31
0.0
  0
LINE
  5
B366
330
B31D
100
AcDbEntity
  8
1
  6
Continuous
100
AcDbLine
 10
40.39616099999999
 20
167.571535
 30
0.0
 11
42.69616099999999
 21
167.571535
 31
0.0
  0
ARC
  5
B367
330
B31D
100
AcDbEntity
  8
1
  6
Continuous
100
AcDbCircle
 10
79.454661
 20
192.8360859999999
 30
0.0
 40
45.0
100
AcDbArc
 50
180.0
 51
194.017084
  0
LINE
  5
B368
330
B31D
100
AcDbEntity
  8
1
  6
Continuous
100
AcDbLine
 10
75.713161
 20
167.571535
 30
0.0
 11
78.01316099999998
 21
167.571535
 31
0.0
  0
LINE
  5
B369
330
B31D
100
AcDbEntity
  8
1
  6
Continuous
100
AcDbLine
 10
61.070588
 20
219.809035
 30
0.0
 11
62.243874
 21
221.2714899999999
 31
0.0
  0
LINE
  5
B36A
330
B31D
100
AcDbEntity
  8
1
  6
Continuous
100
AcDbLine
 10
42.69616099999999
 20
218.309035
 30
0.0
 11
75.713161
 21
218.309035
 31
0.0
  0
LINE
  5
B36B
330
B31D
100
AcDbEntity
  8
1
  6
Continuous
100
AcDbLine
 10
36.20464699999998
 20
225.87149
 30
0.0
 11
82.20464699999999
 21
225.87149
 31
0.0
  0
LINE
  5
B36C
330
B31D
100
AcDbEntity
  8
1
  6
Continuous
100
AcDbLine
 10
42.924457
 20
219.809035
 30
0.0
 11
75.570701
 21
219.809035
 31
0.0
  0
LINE
  5
B36D
330
B31D
100
AcDbEntity
  8
1
  6
Continuous
100
AcDbLine
 10
45.01544699999999
 20
221.2714899999999
 30
0.0
 11
73.81544699999998
 21
221.2714899999999
 31
0.0
  0
LINE
  5
B36E
330
B31D
100
AcDbEntity
  8
1
  6
Continuous
100
AcDbLine
 10
45.01544699999999
 20
223.57149
 30
0.0
 11
73.81544699999998
 21
223.57149
 31
0.0
  0
ARC
  5
B36F
330
B31D
100
AcDbEntity
  8
1
  6
Continuous
100
AcDbCircle
 10
45.374331
 20
218.55481
 30
0.0
 40
5.029499999999998
100
AcDbArc
 50
94.09185900000002
 51
171.807218
  0
LINE
  5
B370
330
B31D
100
AcDbEntity
  8
1
  6
Continuous
100
AcDbLine
 10
44.790304
 20
221.254498
 30
0.0
 11
45.52502599999999
 21
219.809035
 31
0.0
  0
ARC
  5
B371
330
B31D
100
AcDbEntity
  8
1
  6
Continuous
100
AcDbCircle
 10
48.298161
 20
223.4981569999999
 30
0.0
 40
7.487396
100
AcDbArc
 50
233.119947
 51
265.563802
  0
LINE
  5
B372
330
B31D
100
AcDbEntity
  8
1
  6
Continuous
100
AcDbLine
 10
43.668711
 20
220.2511359999999
 30
0.0
 11
44.110812
 21
219.809035
 31
0.0
  0
LINE
  5
B373
330
B31D
100
AcDbEntity
  8
1
  6
Continuous
100
AcDbLine
 10
44.749558
 20
221.247737
 30
0.0
 11
42.991526
 21
219.809035
 31
0.0
  0
LINE
  5
B374
330
B31D
100
AcDbEntity
  8
1
  6
Continuous
100
AcDbLine
 10
42.69616099999999
 20
218.309035
 30
0.0
 11
43.80466099999998
 21
217.509035
 31
0.0
  0
LINE
  5
B375
330
B31D
100
AcDbEntity
  8
1
  6
Continuous
100
AcDbLine
 10
43.904661
 20
219.809035
 30
0.0
 11
42.69616099999999
 21
218.309035
 31
0.0
  0
ARC
  5
B376
330
B31D
100
AcDbEntity
  8
1
  6
Continuous
100
AcDbCircle
 10
45.45498099999998
 20
218.4169959999999
 30
0.0
 40
2.888134999999998
100
AcDbArc
 50
98.75362899999997
 51
162.789725
  0
LINE
  5
B377
330
B31D
100
AcDbEntity
  8
1
  6
Continuous
100
AcDbLine
 10
54.510307
 20
219.809035
 30
0.0
 11
53.75859300000001
 21
221.2714899999999
 31
0.0
  0
LINE
  5
B378
330
B31D
100
AcDbEntity
  8
1
  6
Continuous
100
AcDbLine
 10
50.267666
 20
219.809035
 30
0.0
 11
49.51595199999999
 21
221.2714899999999
 31
0.0
  0
LINE
  5
B379
330
B31D
100
AcDbEntity
  8
1
  6
Continuous
100
AcDbLine
 10
47.439239
 20
219.809035
 30
0.0
 11
46.687525
 21
221.2714899999999
 31
0.0
  0
LINE
  5
B37A
330
B31D
100
AcDbEntity
  8
1
  6
Continuous
100
AcDbLine
 10
48.853453
 20
219.809035
 30
0.0
 11
48.101739
 21
221.2714899999999
 31
0.0
  0
LINE
  5
B37B
330
B31D
100
AcDbEntity
  8
1
  6
Continuous
100
AcDbLine
 10
45.014239
 20
219.809035
 30
0.0
 11
46.687525
 21
221.2714899999999
 31
0.0
  0
LINE
  5
B37C
330
B31D
100
AcDbEntity
  8
1
  6
Continuous
100
AcDbLine
 10
46.928453
 20
219.809035
 30
0.0
 11
48.101739
 21
221.2714899999999
 31
0.0
  0
LINE
  5
B37D
330
B31D
100
AcDbEntity
  8
1
  6
Continuous
100
AcDbLine
 10
48.34266599999999
 20
219.809035
 30
0.0
 11
49.51595199999999
 21
221.2714899999999
 31
0.0
  0
LINE
  5
B37E
330
B31D
100
AcDbEntity
  8
1
  6
Continuous
100
AcDbLine
 10
51.68188
 20
219.809035
 30
0.0
 11
50.930166
 21
221.2714899999999
 31
0.0
  0
LINE
  5
B37F
330
B31D
100
AcDbEntity
  8
1
  6
Continuous
100
AcDbLine
 10
53.09609399999999
 20
219.809035
 30
0.0
 11
52.34438
 21
221.2714899999999
 31
0.0
  0
LINE
  5
B380
330
B31D
100
AcDbEntity
  8
1
  6
Continuous
100
AcDbLine
 10
49.75687999999999
 20
219.809035
 30
0.0
 11
50.930166
 21
221.2714899999999
 31
0.0
  0
LINE
  5
B381
330
B31D
100
AcDbEntity
  8
1
  6
Continuous
100
AcDbLine
 10
51.171094
 20
219.809035
 30
0.0
 11
52.34438
 21
221.2714899999999
 31
0.0
  0
LINE
  5
B382
330
B31D
100
AcDbEntity
  8
1
  6
Continuous
100
AcDbLine
 10
52.58530699999999
 20
219.809035
 30
0.0
 11
53.75859300000001
 21
221.2714899999999
 31
0.0
  0
LINE
  5
B383
330
B31D
100
AcDbEntity
  8
1
  6
Continuous
100
AcDbLine
 10
56.82794799999999
 20
219.809035
 30
0.0
 11
58.001234
 21
221.2714899999999
 31
0.0
  0
LINE
  5
B384
330
B31D
100
AcDbEntity
  8
1
  6
Continuous
100
AcDbLine
 10
55.924521
 20
219.809035
 30
0.0
 11
55.17280699999999
 21
221.2714899999999
 31
0.0
  0
LINE
  5
B385
330
B31D
100
AcDbEntity
  8
1
  6
Continuous
100
AcDbLine
 10
57.338734
 20
219.809035
 30
0.0
 11
56.58701999999999
 21
221.2714899999999
 31
0.0
  0
LINE
  5
B386
330
B31D
100
AcDbEntity
  8
1
  6
Continuous
100
AcDbLine
 10
53.999521
 20
219.809035
 30
0.0
 11
55.17280699999999
 21
221.2714899999999
 31
0.0
  0
LINE
  5
B387
330
B31D
100
AcDbEntity
  8
1
  6
Continuous
100
AcDbLine
 10
55.413734
 20
219.809035
 30
0.0
 11
56.58701999999999
 21
221.2714899999999
 31
0.0
  0
LINE
  5
B388
330
B31D
100
AcDbEntity
  8
1
  6
Continuous
100
AcDbLine
 10
61.581375
 20
219.809035
 30
0.0
 11
60.829661
 21
221.2714899999999
 31
0.0
  0
LINE
  5
B389
330
B31D
100
AcDbEntity
  8
1
  6
Continuous
100
AcDbLine
 10
58.75294799999998
 20
219.809035
 30
0.0
 11
58.001234
 21
221.2714899999999
 31
0.0
  0
LINE
  5
B38A
330
B31D
100
AcDbEntity
  8
1
  6
Continuous
100
AcDbLine
 10
60.167161
 20
219.809035
 30
0.0
 11
59.415447
 21
221.2714899999999
 31
0.0
  0
LINE
  5
B38B
330
B31D
100
AcDbEntity
  8
1
  6
Continuous
100
AcDbLine
 10
59.65637499999999
 20
219.809035
 30
0.0
 11
60.829661
 21
221.2714899999999
 31
0.0
  0
LINE
  5
B38C
330
B31D
100
AcDbEntity
  8
1
  6
Continuous
100
AcDbLine
 10
58.24216100000001
 20
219.809035
 30
0.0
 11
59.415447
 21
221.2714899999999
 31
0.0
  0
ARC
  5
B38D
330
B31D
100
AcDbEntity
  8
1
  6
Continuous
100
AcDbCircle
 10
73.410515
 20
218.977256
 30
0.0
 40
4.612044999999998
100
AcDbArc
 50
3.658345999999998
 51
84.96300599999997
  0
LINE
  5
B38E
330
B31D
100
AcDbEntity
  8
1
  6
Continuous
100
AcDbLine
 10
69.55587
 20
219.809035
 30
0.0
 11
71.229156
 21
221.2714899999999
 31
0.0
  0
LINE
  5
B38F
330
B31D
100
AcDbEntity
  8
1
  6
Continuous
100
AcDbLine
 10
65.31322900000001
 20
219.809035
 30
0.0
 11
66.48651499999998
 21
221.2714899999999
 31
0.0
  0
LINE
  5
B390
330
B31D
100
AcDbEntity
  8
1
  6
Continuous
100
AcDbLine
 10
65.824016
 20
219.809035
 30
0.0
 11
65.07230200000001
 21
221.2714899999999
 31
0.0
  0
LINE
  5
B391
330
B31D
100
AcDbEntity
  8
1
  6
Continuous
100
AcDbLine
 10
64.409802
 20
219.809035
 30
0.0
 11
63.65808799999999
 21
221.2714899999999
 31
0.0
  0
LINE
  5
B392
330
B31D
100
AcDbEntity
  8
1
  6
Continuous
100
AcDbLine
 10
62.99558799999999
 20
219.809035
 30
0.0
 11
62.243874
 21
221.2714899999999
 31
0.0
  0
LINE
  5
B393
330
B31D
100
AcDbEntity
  8
1
  6
Continuous
100
AcDbLine
 10
63.899016
 20
219.809035
 30
0.0
 11
65.07230200000001
 21
221.2714899999999
 31
0.0
  0
LINE
  5
B394
330
B31D
100
AcDbEntity
  8
1
  6
Continuous
100
AcDbLine
 10
62.484802
 20
219.809035
 30
0.0
 11
63.65808799999999
 21
221.2714899999999
 31
0.0
  0
LINE
  5
B395
330
B31D
100
AcDbEntity
  8
1
  6
Continuous
100
AcDbLine
 10
70.56665600000002
 20
219.809035
 30
0.0
 11
69.314942
 21
221.2714899999999
 31
0.0
  0
LINE
  5
B396
330
B31D
100
AcDbEntity
  8
1
  6
Continuous
100
AcDbLine
 10
68.652443
 20
219.809035
 30
0.0
 11
67.900729
 21
221.2714899999999
 31
0.0
  0
LINE
  5
B397
330
B31D
100
AcDbEntity
  8
1
  6
Continuous
100
AcDbLine
 10
67.238229
 20
219.809035
 30
0.0
 11
66.48651499999998
 21
221.2714899999999
 31
0.0
  0
LINE
  5
B398
330
B31D
100
AcDbEntity
  8
1
  6
Continuous
100
AcDbLine
 10
68.14165600000001
 20
219.809035
 30
0.0
 11
69.314942
 21
221.2714899999999
 31
0.0
  0
LINE
  5
B399
330
B31D
100
AcDbEntity
  8
1
  6
Continuous
100
AcDbLine
 10
66.72744300000001
 20
219.809035
 30
0.0
 11
67.900729
 21
221.2714899999999
 31
0.0
  0
ARC
  5
B39A
330
B31D
100
AcDbEntity
  8
1
  6
Continuous
100
AcDbCircle
 10
70.601229
 20
223.8595699999999
 30
0.0
 40
7.848514999999999
100
AcDbArc
 50
270.9161379999998
 51
305.988185
  0
LINE
  5
B39B
330
B31D
100
AcDbEntity
  8
1
  6
Continuous
100
AcDbLine
 10
75.41779699999998
 20
219.809035
 30
0.0
 11
74.14171500000001
 21
221.18274
 31
0.0
  0
LINE
  5
B39C
330
B31D
100
AcDbEntity
  8
1
  6
Continuous
100
AcDbLine
 10
74.298511
 20
219.809035
 30
0.0
 11
75.34200799999998
 21
220.2481469999999
 31
0.0
  0
LINE
  5
B39D
330
B31D
100
AcDbEntity
  8
1
  6
Continuous
100
AcDbLine
 10
75.713161
 20
218.309035
 30
0.0
 11
75.21316099999999
 21
217.509035
 31
0.0
  0
LINE
  5
B39E
330
B31D
100
AcDbEntity
  8
1
  6
Continuous
100
AcDbLine
 10
74.50466099999998
 20
219.809035
 30
0.0
 11
75.713161
 21
218.309035
 31
0.0
  0
ARC
  5
B39F
330
B31D
100
AcDbEntity
  8
1
  6
Continuous
100
AcDbCircle
 10
73.35485
 20
218.9341109999999
 30
0.0
 40
2.382327999999998
100
AcDbArc
 50
8.142542999999998
 51
78.852283
  0
LINE
  5
B3A0
330
B31D
100
AcDbEntity
  8
1
  6
Continuous
100
AcDbLine
 10
73.395083
 20
219.809035
 30
0.0
 11
72.64336899999998
 21
221.2714899999999
 31
0.0
  0
LINE
  5
B3A1
330
B31D
100
AcDbEntity
  8
1
  6
Continuous
100
AcDbLine
 10
71.98087
 20
219.809035
 30
0.0
 11
71.229156
 21
221.2714899999999
 31
0.0
  0
LINE
  5
B3A2
330
B31D
100
AcDbEntity
  8
1
  6
Continuous
100
AcDbLine
 10
72.884297
 20
219.809035
 30
0.0
 11
74.015416
 21
221.2230279999999
 31
0.0
  0
LINE
  5
B3A3
330
B31D
100
AcDbEntity
  8
1
  6
Continuous
100
AcDbLine
 10
71.470083
 20
219.809035
 30
0.0
 11
72.64336899999998
 21
221.2714899999999
 31
0.0
  0
LINE
  5
B3A4
330
B31D
100
AcDbEntity
  8
1
  6
Continuous
100
AcDbLine
 10
255.6533759999998
 20
222.4504899999999
 30
0.0
 11
255.6533759999998
 21
191.219344
 31
0.0
  0
LINE
  5
B3A5
330
B31D
100
AcDbEntity
  8
1
  6
Continuous
100
AcDbLine
 10
305.1533759999998
 20
222.4504899999999
 30
0.0
 11
305.1533759999998
 21
194.737702
 31
0.0
  0
ARC
  5
B3A6
330
B31D
100
AcDbEntity
  8
1
  6
Continuous
100
AcDbCircle
 10
301.732376
 20
222.4504899999999
 30
0.0
 40
3.420999999999998
100
AcDbArc
 50
0.0
 51
90.0
  0
ARC
  5
B3A7
330
B31D
100
AcDbEntity
  8
1
  6
Continuous
100
AcDbCircle
 10
259.0743759999999
 20
222.4504899999999
 30
0.0
 40
3.420999999999998
100
AcDbArc
 50
90.0
 51
180.0
  0
ARC
  5
B3A8
330
B31D
100
AcDbEntity
  8
1
  6
Continuous
100
AcDbCircle
 10
163.6692469999998
 20
178.0714899999999
 30
0.0
 40
10.5
100
AcDbArc
 50
199.475619
 51
311.162895
  0
ARC
  5
B3A9
330
B31D
100
AcDbEntity
  8
1
  6
Continuous
100
AcDbCircle
 10
205.563346
 20
208.27149
 30
0.0
 40
10.0
100
AcDbArc
 50
90.0
 51
148.863801
  0
LINE
  5
B3AA
330
B31D
100
AcDbEntity
  8
1
  6
Continuous
100
AcDbLine
 10
197.003941
 20
213.442232
 30
0.0
 11
183.424779
 21
190.686949
 31
0.0
  0
LINE
  5
B3AB
330
B31D
100
AcDbEntity
  8
1
  6
Continuous
100
AcDbLine
 10
159.9484809999999
 20
223.57149
 30
0.0
 11
154.626125
 21
188.386962
 31
0.0
  0
LINE
  5
B3AC
330
B31D
100
AcDbEntity
  8
1
  6
Continuous
100
AcDbLine
 10
83.954661
 20
222.4094899999998
 30
0.0
 11
83.954661
 21
194.168825
 31
0.0
  0
LINE
  5
B3AD
330
B31D
100
AcDbEntity
  8
1
  6
Continuous
100
AcDbLine
 10
34.454661
 20
222.4094899999998
 30
0.0
 11
34.454661
 21
192.8360859999999
 31
0.0
  0
ARC
  5
B3AE
330
B31D
100
AcDbEntity
  8
1
  6
Continuous
100
AcDbCircle
 10
37.916661
 20
222.4094899999998
 30
0.0
 40
3.461999999999998
100
AcDbArc
 50
90.0
 51
180.0
  0
ARC
  5
B3AF
330
B31D
100
AcDbEntity
  8
1
  6
Continuous
100
AcDbCircle
 10
80.492661
 20
222.4094899999998
 30
0.0
 40
3.461999999999998
100
AcDbArc
 50
0.0
 51
90.0
  0
ARC
  5
B3B0
330
B31D
100
AcDbEntity
  8
1
  6
Continuous
100
AcDbCircle
 10
79.454661
 20
192.8360859999999
 30
0.0
 40
45.0
100
AcDbArc
 50
207.47971
 51
209.776794
  0
LINE
  5
B3B1
330
B31D
100
AcDbEntity
  8
4
  6
CENTER
100
AcDbLine
 10
188.6691719999998
 20
104.3512089999999
 30
0.0
 11
188.6691719999998
 21
44.851209
 31
0.0
  0
LINE
  5
B3B2
330
B31D
100
AcDbEntity
  8
4
  6
CENTER
100
AcDbLine
 10
218.419172
 20
74.60120899999998
 30
0.0
 11
121.1692379999998
 21
74.60120899999998
 31
0.0
  0
LINE
  5
B3B3
330
B31D
100
AcDbEntity
  8
1
  6
Continuous
100
AcDbLine
 10
153.4691719999998
 20
93.409709
 30
0.0
 11
153.4691719999998
 21
91.10970899999999
 31
0.0
  0
LINE
  5
B3B4
330
B31D
100
AcDbEntity
  8
1
  6
Continuous
100
AcDbLine
 10
153.4691719999998
 20
58.092709
 30
0.0
 11
153.4691719999998
 21
55.792709
 31
0.0
  0
LINE
  5
B3B5
330
B31D
100
AcDbEntity
  8
4
  6
CENTER
100
AcDbLine
 10
163.6692469999998
 20
109.092554
 30
0.0
 11
163.6692469999998
 21
45.792709
 31
0.0
  0
LINE
  5
B3B6
330
B31D
100
AcDbEntity
  8
1
  6
Continuous
100
AcDbLine
 10
153.4691719999998
 20
93.409709
 30
0.0
 11
168.634232
 21
93.409709
 31
0.0
  0
LINE
  5
B3B7
330
B31D
100
AcDbEntity
  8
1
  6
Continuous
100
AcDbLine
 10
153.4691719999998
 20
91.10970899999999
 30
0.0
 11
168.634232
 21
91.10970899999999
 31
0.0
  0
LINE
  5
B3B8
330
B31D
100
AcDbEntity
  8
1
  6
Continuous
100
AcDbLine
 10
153.4691719999998
 20
55.792709
 30
0.0
 11
168.634232
 21
55.792709
 31
0.0
  0
LINE
  5
B3B9
330
B31D
100
AcDbEntity
  8
1
  6
Continuous
100
AcDbLine
 10
153.4691719999998
 20
58.092709
 30
0.0
 11
168.634232
 21
58.092709
 31
0.0
  0
ARC
  5
B3BA
330
B31D
100
AcDbEntity
  8
1
  6
Continuous
100
AcDbCircle
 10
188.6691719999998
 20
74.60120899999998
 30
0.0
 40
24.75
100
AcDbArc
 50
236.963825
 51
73.51615099999998
  0
ARC
  5
B3BB
330
B31D
100
AcDbEntity
  8
1
  6
Continuous
100
AcDbCircle
 10
188.6691719999998
 20
74.60120899999998
 30
0.0
 40
22.45
100
AcDbArc
 50
236.963825
 51
72.71909499999998
  0
ARC
  5
B3BC
330
B31D
100
AcDbEntity
  8
1
  6
Continuous
100
AcDbCircle
 10
188.6691719999998
 20
74.60120899999998
 30
0.0
 40
18.44999999999998
100
AcDbArc
 50
225.64192
 51
134.35808
  0
ARC
  5
B3BD
330
B31D
100
AcDbEntity
  8
1
  6
Continuous
100
AcDbCircle
 10
188.6691719999998
 20
74.60120899999998
 30
0.0
 40
20.44999999999999
100
AcDbArc
 50
225.1573849999998
 51
75.27459499999998
  0
ARC
  5
B3BE
330
B31D
100
AcDbEntity
  8
1
  6
Continuous
100
AcDbCircle
 10
212.2482479999999
 20
74.60120899999998
 30
0.0
 40
55.579
100
AcDbArc
 50
162.720836
 51
164.877128
  0
ARC
  5
B3BF
330
B31D
100
AcDbEntity
  8
1
  6
Continuous
100
AcDbCircle
 10
212.2482479999999
 20
74.60120899999998
 30
0.0
 40
55.579
100
AcDbArc
 50
195.1228719999998
 51
197.279164
  0
ARC
  5
B3C0
330
B31D
100
AcDbEntity
  8
1
  6
Continuous
100
AcDbCircle
 10
257.8533489999999
 20
192.8360409999999
 30
0.0
 40
45.0
100
AcDbArc
 50
333.6771109999999
 51
6.077233000000001
  0
ARC
  5
B3C1
330
B31D
100
AcDbEntity
  8
1
  6
Continuous
100
AcDbCircle
 10
260.190847
 20
192.9016589999999
 30
0.0
 40
45.0
100
AcDbArc
 50
333.035978
 51
3.794623999999998
  0
ARC
  5
B3C2
330
B31D
100
AcDbEntity
  8
1
  6
Continuous
100
AcDbCircle
 10
272.969605
 20
192.1087639999998
 30
0.0
 40
30.135401
100
AcDbArc
 50
10.499302
 51
18.221623
  0
ARC
  5
B3C3
330
B31D
100
AcDbEntity
  8
1
  6
Continuous
100
AcDbCircle
 10
351.6019039999998
 20
171.11731
 30
0.0
 40
97.26650800000001
100
AcDbArc
 50
151.2652759999998
 51
161.778377
  0
ARC
  5
B3C4
330
B31D
100
AcDbEntity
  8
1
  6
Continuous
100
AcDbCircle
 10
287.837146
 20
192.1087639999998
 30
0.0
 40
30.135401
100
AcDbArc
 50
161.778377
 51
169.500698
  0
ARC
  5
B3C5
330
B31D
100
AcDbEntity
  8
1
  6
Continuous
100
AcDbCircle
 10
302.9534019999999
 20
192.8360409999999
 30
0.0
 40
45.0
100
AcDbArc
 50
173.922767
 51
194.2381949999999
  0
ARC
  5
B3C6
330
B31D
100
AcDbEntity
  8
1
  6
Continuous
100
AcDbCircle
 10
269.496875
 20
223.498111
 30
0.0
 40
7.487396
100
AcDbArc
 50
240.6184049999999
 51
265.563802
  0
ARC
  5
B3C7
330
B31D
100
AcDbEntity
  8
1
  6
Continuous
100
AcDbCircle
 10
291.799943
 20
223.8595239999999
 30
0.0
 40
7.848514999999999
100
AcDbArc
 50
270.9161379999998
 51
294.920656
  0
ARC
  5
B3C8
330
B31D
100
AcDbEntity
  8
1
  6
Continuous
100
AcDbCircle
 10
163.6692469999998
 20
179.0714899999999
 30
0.0
 40
12.5
100
AcDbArc
 50
197.5517639999999
 51
315.013568
  0
ARC
  5
B3C9
330
B31D
100
AcDbEntity
  8
1
  6
Continuous
100
AcDbCircle
 10
163.6692469999998
 20
179.0714899999999
 30
0.0
 40
28.0
100
AcDbArc
 50
103.0579949999999
 51
152.626986
  0
ARC
  5
B3CA
330
B31D
100
AcDbEntity
  8
1
  6
Continuous
100
AcDbCircle
 10
163.6692469999998
 20
179.0714899999999
 30
0.0
 40
19.5
100
AcDbArc
 50
113.402507
 51
145.315396
  0
ARC
  5
B3CB
330
B31D
100
AcDbEntity
  8
1
  6
Continuous
100
AcDbCircle
 10
163.6692469999998
 20
179.0714899999999
 30
0.0
 40
37.5
100
AcDbArc
 50
97.39539
 51
157.203565
  0
LINE
  5
B3CC
330
B31D
100
AcDbEntity
  8
1
  6
Continuous
100
AcDbLine
 10
47.719019
 20
216.0331919999999
 30
0.0
 11
51.16181199999999
 21
216.0300299999999
 31
0.0
  0
LINE
  5
B3CD
330
B31D
100
AcDbEntity
  8
1
  6
Continuous
100
AcDbLine
 10
67.35673299999999
 20
216.0151529999999
 30
0.0
 11
70.72671899999997
 21
216.012058
 31
0.0
  0
ARC
  5
B3CE
330
B31D
100
AcDbEntity
  8
1
  6
Continuous
100
AcDbCircle
 10
285.1360389999999
 20
194.5561659999999
 30
0.0
 40
20.0
100
AcDbArc
 50
3.794623999999998
 51
17.154698
  0
ARC
  5
B3CF
330
B31D
100
AcDbEntity
  8
1
  6
Continuous
100
AcDbCircle
 10
351.6019039999998
 20
171.11731
 30
0.0
 40
99.466508
100
AcDbArc
 50
154.2684
 51
162.845302
  0
ARC
  5
B3D0
330
B31D
100
AcDbEntity
  8
1
  6
Continuous
100
AcDbCircle
 10
275.6707119999999
 20
194.5561659999999
 30
0.0
 40
20.0
100
AcDbArc
 50
162.845302
 51
176.205376
  0
ARC
  5
B3D1
330
B31D
100
AcDbEntity
  8
1
  6
Continuous
100
AcDbCircle
 10
300.615904
 20
192.9016589999999
 30
0.0
 40
45.0
100
AcDbArc
 50
176.205376
 51
184.233448
  0
ARC
  5
B3D2
330
B31D
100
AcDbEntity
  8
1
  6
Continuous
100
AcDbCircle
 10
309.2118759999999
 20
167.962959
 30
0.0
 40
10.0
100
AcDbArc
 50
153.0359779999998
 51
180.0
  0
ARC
  5
B3D3
330
B31D
100
AcDbEntity
  8
1
  6
Continuous
100
AcDbCircle
 10
309.2118759999999
 20
167.4275419999998
 30
0.0
 40
12.3
100
AcDbArc
 50
153.677111
 51
179.329451
  0
LINE
  5
B3D4
330
B31D
100
AcDbEntity
  8
1
  6
Continuous
100
AcDbLine
 10
296.9118759999998
 20
213.1678829999999
 30
0.0
 11
296.9118759999998
 21
167.5714899999999
 31
0.0
  0
ARC
  5
B3D5
330
B31D
100
AcDbEntity
  8
1
  6
Continuous
100
AcDbCircle
 10
251.5948759999999
 20
167.4275419999998
 30
0.0
 40
12.3
100
AcDbArc
 50
0.670549
 51
26.322889
  0
ARC
  5
B3D6
330
B31D
100
AcDbEntity
  8
1
  6
Continuous
100
AcDbCircle
 10
251.5948759999999
 20
167.962959
 30
0.0
 40
10.0
100
AcDbArc
 50
0.0
 51
10.133137
  0
LINE
  5
B3D7
330
B31D
100
AcDbEntity
  8
1
  6
Continuous
100
AcDbLine
 10
269.1554759999998
 20
216.0028409999999
 30
0.0
 11
291.925433
 21
216.012012
 31
0.0
  0
LINE
  5
B3D8
330
B31D
100
AcDbEntity
  8
1
  6
Continuous
100
AcDbLine
 10
268.917733
 20
216.033147
 30
0.0
 11
269.1554759999998
 21
216.0028409999999
 31
0.0
  0
ARC
  5
B3D9
330
B31D
100
AcDbEntity
  8
1
  6
Continuous
100
AcDbCircle
 10
200.065815
 20
223.8595239999999
 30
0.0
 40
7.848514999999999
100
AcDbArc
 50
270.9161379999998
 51
314.603254
  0
LINE
  5
B3DA
330
B31D
100
AcDbEntity
  8
1
  6
Continuous
100
AcDbLine
 10
199.233205
 20
216.012892
 30
0.0
 11
200.191305
 21
216.012012
 31
0.0
  0
LINE
  5
B3DB
330
B31D
100
AcDbEntity
  8
4
  6
CENTER
100
AcDbLine
 10
163.6691719999998
 20
309.014152
 30
0.0
 11
163.6691719999998
 21
372.313998
 31
0.0
  0
ARC
  5
B3DC
330
B31D
100
AcDbEntity
  8
1
  6
Continuous
100
AcDbCircle
 10
189.2665979999999
 20
343.5054979999998
 30
0.0
 40
32.4135
100
AcDbArc
 50
151.2941149999998
 51
180.0
  0
CIRCLE
  5
B3DD
330
B31D
100
AcDbEntity
  8
1
  6
Continuous
100
AcDbCircle
 10
188.6691719999998
 20
343.5054979999998
 30
0.0
 40
22.1
  0
CIRCLE
  5
B3DE
330
B31D
100
AcDbEntity
  8
1
  6
Continuous
100
AcDbCircle
 10
188.6691719999998
 20
343.5054979999998
 30
0.0
 40
23.54999999999999
  0
ARC
  5
B3DF
330
B31D
100
AcDbEntity
  8
1
  6
Continuous
100
AcDbCircle
 10
188.6691719999998
 20
343.5054979999998
 30
0.0
 40
24.8
100
AcDbArc
 50
139.82223
 51
220.17777
  0
LINE
  5
B3E0
330
B31D
100
AcDbEntity
  8
1
  6
Continuous
100
AcDbLine
 10
196.1747259999999
 20
356.5054979999999
 30
0.0
 11
203.680279
 21
343.5054979999998
 31
0.0
  0
LINE
  5
B3E1
330
B31D
100
AcDbEntity
  8
1
  6
Continuous
100
AcDbLine
 10
173.658065
 20
343.5054979999998
 30
0.0
 11
181.1636189999999
 21
356.5054979999999
 31
0.0
  0
CIRCLE
  5
B3E2
330
B31D
100
AcDbEntity
  8
1
  6
Continuous
100
AcDbCircle
 10
188.6691719999998
 20
343.5054979999998
 30
0.0
 40
9.5
  0
LINE
  5
B3E3
330
B31D
100
AcDbEntity
  8
1
  6
Continuous
100
AcDbLine
 10
173.658065
 20
343.5054979999998
 30
0.0
 11
181.1636189999999
 21
330.5054979999998
 31
0.0
  0
CIRCLE
  5
B3E4
330
B31D
100
AcDbEntity
  8
1
  6
Continuous
100
AcDbCircle
 10
188.6691719999998
 20
343.5054979999998
 30
0.0
 40
6.0
  0
LINE
  5
B3E5
330
B31D
100
AcDbEntity
  8
1
  6
Continuous
100
AcDbLine
 10
181.1636189999999
 20
330.5054979999998
 30
0.0
 11
196.1747259999999
 21
330.5054979999998
 31
0.0
  0
ARC
  5
B3E6
330
B31D
100
AcDbEntity
  8
1
  6
Continuous
100
AcDbCircle
 10
188.6691719999998
 20
343.5054979999998
 30
0.0
 40
9.25
100
AcDbArc
 50
295.484369
 51
64.515631
  0
LINE
  5
B3E7
330
B31D
100
AcDbEntity
  8
1
  6
Continuous
100
AcDbLine
 10
196.1747259999999
 20
330.5054979999998
 30
0.0
 11
203.680279
 21
343.5054979999998
 31
0.0
  0
ARC
  5
B3E8
330
B31D
100
AcDbEntity
  8
1
  6
Continuous
100
AcDbCircle
 10
188.6691719999998
 20
343.5054979999998
 30
0.0
 40
9.25
100
AcDbArc
 50
115.4843689999999
 51
244.515631
  0
LINE
  5
B3E9
330
B31D
100
AcDbEntity
  8
1
  6
Continuous
100
AcDbLine
 10
184.6892219999998
 20
335.155498
 30
0.0
 11
192.649122
 21
335.155498
 31
0.0
  0
LINE
  5
B3EA
330
B31D
100
AcDbEntity
  8
1
  6
Continuous
100
AcDbLine
 10
192.649122
 20
351.855498
 30
0.0
 11
184.6892219999998
 21
351.855498
 31
0.0
  0
LINE
  5
B3EB
330
B31D
100
AcDbEntity
  8
1
  6
Continuous
100
AcDbLine
 10
158.7766819999998
 20
332.5054979999998
 30
0.0
 11
145.035197
 21
332.5054979999998
 31
0.0
  0
LINE
  5
B3EC
330
B31D
100
AcDbEntity
  8
1
  6
Continuous
100
AcDbLine
 10
151.044698
 20
331.035937
 30
0.0
 11
145.035197
 21
332.5054979999998
 31
0.0
  0
LINE
  5
B3ED
330
B31D
100
AcDbEntity
  8
1
  6
Continuous
100
AcDbLine
 10
158.6009009999999
 20
333.0054979999998
 30
0.0
 11
128.3656249999999
 21
333.0054979999998
 31
0.0
  0
LINE
  5
B3EE
330
B31D
100
AcDbEntity
  8
1
  6
Continuous
100
AcDbLine
 10
151.2332429999998
 20
330.8945239999999
 30
0.0
 11
152.3238729999999
 21
329.0054979999998
 31
0.0
  0
ARC
  5
B3EF
330
B31D
100
AcDbEntity
  8
1
  6
Continuous
100
AcDbCircle
 10
158.4654879999999
 20
299.185394
 30
0.0
 40
27.9387
100
AcDbArc
 50
65.52997799999999
 51
84.53278899999999
  0
ARC
  5
B3F0
330
B31D
100
AcDbEntity
  8
1
  6
Continuous
100
AcDbCircle
 10
189.2665979999999
 20
343.5054979999998
 30
0.0
 40
32.4135
100
AcDbArc
 50
180.0
 51
208.705885
  0
LINE
  5
B3F1
330
B31D
100
AcDbEntity
  8
1
  6
Continuous
100
AcDbLine
 10
152.3238729999999
 20
329.0054979999998
 30
0.0
 11
160.277204
 21
329.0054979999998
 31
0.0
  0
ARC
  5
B3F2
330
B31D
100
AcDbEntity
  8
1
  6
Continuous
100
AcDbCircle
 10
158.6778459999998
 20
326.754562
 30
0.0
 40
2.4615
100
AcDbArc
 50
303.2904939999998
 51
28.70588499999999
  0
LINE
  5
B3F3
330
B31D
100
AcDbEntity
  8
1
  6
Continuous
100
AcDbLine
 10
151.121396
 20
331.0054979999998
 30
0.0
 11
159.360328
 21
331.0054979999998
 31
0.0
  0
ARC
  5
B3F4
330
B31D
100
AcDbEntity
  8
1
  6
Continuous
100
AcDbCircle
 10
150.973435
 20
330.744524
 30
0.0
 40
0.3
100
AcDbArc
 50
30.0
 51
76.25858499999998
  0
LINE
  5
B3F5
330
B31D
100
AcDbEntity
  8
1
  6
Continuous
100
AcDbLine
 10
144.7465219999999
 20
333.0054979999998
 30
0.0
 11
145.035197
 21
332.5054979999998
 31
0.0
  0
ARC
  5
B3F6
330
B31D
100
AcDbEntity
  8
1
  6
Continuous
100
AcDbCircle
 10
186.1691719999998
 20
343.5054979999998
 30
0.0
 40
60.0
100
AcDbArc
 50
171.1490689999999
 51
188.8498829999998
  0
ARC
  5
B3F7
330
B31D
100
AcDbEntity
  8
1
  6
Continuous
100
AcDbCircle
 10
128.3656249999999
 20
334.505498
 30
0.0
 40
1.5
100
AcDbArc
 50
188.8498829999998
 51
270.0
  0
LINE
  5
B3F8
330
B31D
100
AcDbEntity
  8
1
  6
Continuous
100
AcDbLine
 10
181.1636189999999
 20
356.5054979999999
 30
0.0
 11
196.1747259999999
 21
356.5054979999999
 31
0.0
  0
LINE
  5
B3F9
330
B31D
100
AcDbEntity
  8
1
  6
Continuous
100
AcDbLine
 10
158.7766819999998
 20
354.5054979999999
 30
0.0
 11
145.035197
 21
354.5054979999999
 31
0.0
  0
LINE
  5
B3FA
330
B31D
100
AcDbEntity
  8
1
  6
Continuous
100
AcDbLine
 10
151.044698
 20
355.975059
 30
0.0
 11
145.035197
 21
354.5054979999999
 31
0.0
  0
LINE
  5
B3FB
330
B31D
100
AcDbEntity
  8
1
  6
Continuous
100
AcDbLine
 10
158.6009009999999
 20
354.0054979999999
 30
0.0
 11
128.3656249999999
 21
354.0054979999999
 31
0.0
  0
ARC
  5
B3FC
330
B31D
100
AcDbEntity
  8
1
  6
Continuous
100
AcDbCircle
 10
158.4654879999999
 20
387.825601
 30
0.0
 40
27.9387
100
AcDbArc
 50
275.4672109999999
 51
294.4700219999999
  0
LINE
  5
B3FD
330
B31D
100
AcDbEntity
  8
1
  6
Continuous
100
AcDbLine
 10
151.121396
 20
356.0054979999999
 30
0.0
 11
159.360328
 21
356.0054979999999
 31
0.0
  0
LINE
  5
B3FE
330
B31D
100
AcDbEntity
  8
1
  6
Continuous
100
AcDbLine
 10
152.3238729999999
 20
358.0054979999999
 30
0.0
 11
160.277204
 21
358.0054979999999
 31
0.0
  0
ARC
  5
B3FF
330
B31D
100
AcDbEntity
  8
1
  6
Continuous
100
AcDbCircle
 10
158.6778459999998
 20
360.256434
 30
0.0
 40
2.4615
100
AcDbArc
 50
331.2941149999999
 51
56.70950600000001
  0
ARC
  5
B400
330
B31D
100
AcDbEntity
  8
1
  6
Continuous
100
AcDbCircle
 10
150.973435
 20
356.266472
 30
0.0
 40
0.3
100
AcDbArc
 50
283.741415
 51
330.0
  0
LINE
  5
B401
330
B31D
100
AcDbEntity
  8
1
  6
Continuous
100
AcDbLine
 10
151.2332429999998
 20
356.1164719999999
 30
0.0
 11
152.3238729999999
 21
358.0054979999999
 31
0.0
  0
LINE
  5
B402
330
B31D
100
AcDbEntity
  8
1
  6
Continuous
100
AcDbLine
 10
144.7465219999999
 20
354.0054979999999
 30
0.0
 11
145.035197
 21
354.5054979999999
 31
0.0
  0
ARC
  5
B403
330
B31D
100
AcDbEntity
  8
1
  6
Continuous
100
AcDbCircle
 10
128.3656249999999
 20
352.505498
 30
0.0
 40
1.5
100
AcDbArc
 50
90.0
 51
171.150117
  0
LINE
  5
B404
330
B31D
100
AcDbEntity
  8
1
  6
Continuous
100
AcDbLine
 10
289.903376
 20
237.571752
 30
0.0
 11
289.903376
 21
270.4717519999999
 31
0.0
  0
LINE
  5
B405
330
B31D
100
AcDbEntity
  8
1
  6
Continuous
100
AcDbLine
 10
270.903376
 20
270.4717519999999
 30
0.0
 11
270.903376
 21
237.571752
 31
0.0
  0
LINE
  5
B406
330
B31D
100
AcDbEntity
  8
1
  6
Continuous
100
AcDbLine
 10
290.9033759999999
 20
214.3750359999999
 30
0.0
 11
290.9033759999999
 21
143.767943
 31
0.0
  0
LINE
  5
B407
330
B31D
100
AcDbEntity
  8
1
  6
Continuous
100
AcDbLine
 10
269.9033759999999
 20
214.3750359999999
 30
0.0
 11
269.9033759999999
 21
143.767943
 31
0.0
  0
ARC
  5
B408
330
B31D
100
AcDbEntity
  8
1
  6
Continuous
100
AcDbCircle
 10
280.4033759999999
 20
201.5714899999999
 30
0.0
 40
60.0
100
AcDbArc
 50
261.1501169999999
 51
278.850931
  0
ARC
  5
B409
330
B31D
100
AcDbEntity
  8
1
  6
Continuous
100
AcDbCircle
 10
271.4033759999999
 20
143.767943
 30
0.0
 40
1.5
100
AcDbArc
 50
180.0
 51
261.1501169999999
  0
ARC
  5
B40A
330
B31D
100
AcDbEntity
  8
1
  6
Continuous
100
AcDbCircle
 10
289.4033759999999
 20
143.767943
 30
0.0
 40
1.5
100
AcDbArc
 50
278.8498829999999
 51
0.0
  0
LINE
  5
B40B
330
B31D
100
AcDbEntity
  8
1
  6
Continuous
100
AcDbLine
 10
281.1788029999998
 20
225.87149
 30
0.0
 11
283.2318029999999
 21
227.58649
 31
0.0
  0
LINE
  5
B40C
330
B31D
100
AcDbEntity
  8
1
  6
Continuous
100
AcDbLine
 10
293.4033759999999
 20
236.571752
 30
0.0
 11
267.4033759999999
 21
236.571752
 31
0.0
  0
LINE
  5
B40D
330
B31D
100
AcDbEntity
  8
1
  6
Continuous
100
AcDbLine
 10
297.0502339999999
 20
232.5717519999999
 30
0.0
 11
263.756528
 21
232.5717519999999
 31
0.0
  0
LINE
  5
B40E
330
B31D
100
AcDbEntity
  8
1
  6
Continuous
100
AcDbLine
 10
257.4033759999999
 20
227.58649
 30
0.0
 11
303.4033759999999
 21
227.58649
 31
0.0
  0
LINE
  5
B40F
330
B31D
100
AcDbEntity
  8
1
  6
Continuous
100
AcDbLine
 10
258.228292
 20
229.068752
 30
0.0
 11
302.57846
 21
229.068752
 31
0.0
  0
LINE
  5
B410
330
B31D
100
AcDbEntity
  8
1
  6
Continuous
100
AcDbLine
 10
289.903376
 20
240.471752
 30
0.0
 11
270.903376
 21
240.471752
 31
0.0
  0
LINE
  5
B411
330
B31D
100
AcDbEntity
  8
1
  6
Continuous
100
AcDbLine
 10
267.9033759999999
 20
166.5237139999999
 30
0.0
 11
267.9033759999999
 21
191.6192649999999
 31
0.0
  0
LINE
  5
B412
330
B31D
100
AcDbEntity
  8
1
  6
Continuous
100
AcDbLine
 10
269.4033759999999
 20
197.7054639999998
 30
0.0
 11
269.4033759999999
 21
160.4375149999999
 31
0.0
  0
LINE
  5
B413
330
B31D
100
AcDbEntity
  8
1
  6
Continuous
100
AcDbLine
 10
267.7924019999999
 20
166.635561
 30
0.0
 11
265.9033759999999
 21
167.7261899999998
 31
0.0
  0
LINE
  5
B414
330
B31D
100
AcDbEntity
  8
1
  6
Continuous
100
AcDbLine
 10
265.9033759999999
 20
167.7261899999998
 30
0.0
 11
265.9033759999999
 21
190.416789
 31
0.0
  0
LINE
  5
B415
330
B31D
100
AcDbEntity
  8
1
  6
Continuous
100
AcDbLine
 10
263.8948759999999
 20
175.07149
 30
0.0
 11
265.9033759999999
 21
175.07149
 31
0.0
  0
LINE
  5
B416
330
B31D
100
AcDbEntity
  8
1
  6
Continuous
100
AcDbLine
 10
267.9338149999999
 20
166.4470149999999
 30
0.0
 11
269.4033759999999
 21
160.4375149999999
 31
0.0
  0
LINE
  5
B417
330
B31D
100
AcDbEntity
  8
1
  6
Continuous
100
AcDbLine
 10
269.9033759999999
 20
160.1488399999998
 30
0.0
 11
269.4033759999999
 21
160.4375149999999
 31
0.0
  0
ARC
  5
B418
330
B31D
100
AcDbEntity
  8
1
  6
Continuous
100
AcDbCircle
 10
267.642402
 20
166.3757529999998
 30
0.0
 40
0.3
100
AcDbArc
 50
13.741415
 51
60.0
  0
LINE
  5
B419
330
B31D
100
AcDbEntity
  8
1
  6
Continuous
100
AcDbLine
 10
267.7924019999999
 20
191.507419
 30
0.0
 11
265.9033759999999
 21
190.416789
 31
0.0
  0
LINE
  5
B41A
330
B31D
100
AcDbEntity
  8
1
  6
Continuous
100
AcDbLine
 10
263.8948759999999
 20
183.0714899999999
 30
0.0
 11
265.9033759999999
 21
183.0714899999999
 31
0.0
  0
LINE
  5
B41B
330
B31D
100
AcDbEntity
  8
1
  6
Continuous
100
AcDbLine
 10
267.9338149999999
 20
191.6959639999998
 30
0.0
 11
269.4033759999999
 21
197.7054639999998
 31
0.0
  0
LINE
  5
B41C
330
B31D
100
AcDbEntity
  8
1
  6
Continuous
100
AcDbLine
 10
269.9033759999999
 20
197.994139
 30
0.0
 11
269.4033759999999
 21
197.7054639999998
 31
0.0
  0
LINE
  5
B41D
330
B31D
100
AcDbEntity
  8
1
  6
Continuous
100
AcDbLine
 10
259.8289589999998
 20
225.87149
 30
0.0
 11
257.7759589999998
 21
227.58649
 31
0.0
  0
LINE
  5
B41E
330
B31D
100
AcDbEntity
  8
1
  6
Continuous
100
AcDbLine
 10
262.6573859999999
 20
225.87149
 30
0.0
 11
260.6043859999999
 21
227.58649
 31
0.0
  0
LINE
  5
B41F
330
B31D
100
AcDbEntity
  8
1
  6
Continuous
100
AcDbLine
 10
265.485813
 20
225.87149
 30
0.0
 11
263.432813
 21
227.58649
 31
0.0
  0
LINE
  5
B420
330
B31D
100
AcDbEntity
  8
1
  6
Continuous
100
AcDbLine
 10
268.3142399999999
 20
225.87149
 30
0.0
 11
266.2612399999998
 21
227.58649
 31
0.0
  0
LINE
  5
B421
330
B31D
100
AcDbEntity
  8
1
  6
Continuous
100
AcDbLine
 10
271.142667
 20
225.87149
 30
0.0
 11
269.089667
 21
227.58649
 31
0.0
  0
LINE
  5
B422
330
B31D
100
AcDbEntity
  8
1
  6
Continuous
100
AcDbLine
 10
273.971095
 20
225.87149
 30
0.0
 11
271.918095
 21
227.58649
 31
0.0
  0
LINE
  5
B423
330
B31D
100
AcDbEntity
  8
1
  6
Continuous
100
AcDbLine
 10
276.799522
 20
225.87149
 30
0.0
 11
274.746522
 21
227.58649
 31
0.0
  0
LINE
  5
B424
330
B31D
100
AcDbEntity
  8
1
  6
Continuous
100
AcDbLine
 10
279.6279489999998
 20
225.87149
 30
0.0
 11
277.5749489999999
 21
227.58649
 31
0.0
  0
LINE
  5
B425
330
B31D
100
AcDbEntity
  8
1
  6
Continuous
100
AcDbLine
 10
282.4563759999999
 20
225.87149
 30
0.0
 11
280.4033759999999
 21
227.58649
 31
0.0
  0
LINE
  5
B426
330
B31D
100
AcDbEntity
  8
1
  6
Continuous
100
AcDbLine
 10
258.5513859999999
 20
225.87149
 30
0.0
 11
260.6043859999999
 21
227.58649
 31
0.0
  0
LINE
  5
B427
330
B31D
100
AcDbEntity
  8
1
  6
Continuous
100
AcDbLine
 10
261.379813
 20
225.87149
 30
0.0
 11
263.432813
 21
227.58649
 31
0.0
  0
LINE
  5
B428
330
B31D
100
AcDbEntity
  8
1
  6
Continuous
100
AcDbLine
 10
264.20824
 20
225.87149
 30
0.0
 11
266.2612399999998
 21
227.58649
 31
0.0
  0
LINE
  5
B429
330
B31D
100
AcDbEntity
  8
1
  6
Continuous
100
AcDbLine
 10
267.0366669999999
 20
225.87149
 30
0.0
 11
269.089667
 21
227.58649
 31
0.0
  0
LINE
  5
B42A
330
B31D
100
AcDbEntity
  8
1
  6
Continuous
100
AcDbLine
 10
269.865095
 20
225.87149
 30
0.0
 11
271.918095
 21
227.58649
 31
0.0
  0
LINE
  5
B42B
330
B31D
100
AcDbEntity
  8
1
  6
Continuous
100
AcDbLine
 10
272.6935219999999
 20
225.87149
 30
0.0
 11
274.746522
 21
227.58649
 31
0.0
  0
LINE
  5
B42C
330
B31D
100
AcDbEntity
  8
1
  6
Continuous
100
AcDbLine
 10
275.5219489999999
 20
225.87149
 30
0.0
 11
277.5749489999999
 21
227.58649
 31
0.0
  0
LINE
  5
B42D
330
B31D
100
AcDbEntity
  8
1
  6
Continuous
100
AcDbLine
 10
278.3503759999999
 20
225.87149
 30
0.0
 11
280.4033759999999
 21
227.58649
 31
0.0
  0
LINE
  5
B42E
330
B31D
100
AcDbEntity
  8
1
  6
Continuous
100
AcDbLine
 10
257.4033759999999
 20
227.58649
 30
0.0
 11
257.4033759999999
 21
225.87149
 31
0.0
  0
ARC
  5
B42F
330
B31D
100
AcDbEntity
  8
1
  6
Continuous
100
AcDbCircle
 10
271.4033759999999
 20
214.3750359999999
 30
0.0
 40
1.5
100
AcDbArc
 50
98.84988300000001
 51
180.0
  0
ARC
  5
B430
330
B31D
100
AcDbEntity
  8
1
  6
Continuous
100
AcDbCircle
 10
263.756528
 20
226.4581339999998
 30
0.0
 40
6.113617999999997
100
AcDbArc
 50
90.0
 51
154.721609
  0
LINE
  5
B431
330
B31D
100
AcDbEntity
  8
1
  6
Continuous
100
AcDbLine
 10
257.4033759999999
 20
227.2139069999998
 30
0.0
 11
257.7759589999998
 21
227.58649
 31
0.0
  0
ARC
  5
B432
330
B31D
100
AcDbEntity
  8
1
  6
Continuous
100
AcDbCircle
 10
261.0147739999999
 20
230.6189789999999
 30
0.0
 40
4.697225
100
AcDbArc
 50
206.286695
 51
220.210037
  0
LINE
  5
B433
330
B31D
100
AcDbEntity
  8
1
  6
Continuous
100
AcDbLine
 10
257.413292
 20
229.068752
 30
0.0
 11
258.228292
 21
229.068752
 31
0.0
  0
ARC
  5
B434
330
B31D
100
AcDbEntity
  8
1
  6
Continuous
100
AcDbCircle
 10
257.6772619999999
 20
228.148899
 30
0.0
 40
0.9569799999999998
100
AcDbArc
 50
106.011913
 51
155.9597349999999
  0
ARC
  5
B435
330
B31D
100
AcDbEntity
  8
1
  6
Continuous
100
AcDbCircle
 10
271.9033759999999
 20
237.571752
 30
0.0
 40
1.0
100
AcDbArc
 50
180.0
 51
270.0
  0
LINE
  5
B436
330
B31D
100
AcDbEntity
  8
1
  6
Continuous
100
AcDbLine
 10
267.4033759999999
 20
236.571752
 30
0.0
 11
267.4033759999999
 21
232.5717519999999
 31
0.0
  0
LINE
  5
B437
330
B31D
100
AcDbEntity
  8
1
  6
Continuous
100
AcDbLine
 10
280.4033759999999
 20
236.571752
 30
0.0
 11
280.4033759999999
 21
232.5717519999999
 31
0.0
  0
LINE
  5
B438
330
B31D
100
AcDbEntity
  8
1
  6
Continuous
100
AcDbLine
 10
292.9033759999999
 20
166.5237139999999
 30
0.0
 11
292.9033759999999
 21
191.6192649999999
 31
0.0
  0
LINE
  5
B439
330
B31D
100
AcDbEntity
  8
1
  6
Continuous
100
AcDbLine
 10
291.4033759999999
 20
197.7054639999998
 30
0.0
 11
291.4033759999999
 21
160.4375149999999
 31
0.0
  0
LINE
  5
B43A
330
B31D
100
AcDbEntity
  8
1
  6
Continuous
100
AcDbLine
 10
294.9033759999998
 20
167.7261899999998
 30
0.0
 11
294.9033759999998
 21
190.416789
 31
0.0
  0
LINE
  5
B43B
330
B31D
100
AcDbEntity
  8
1
  6
Continuous
100
AcDbLine
 10
290.9033759999999
 20
160.1488399999998
 30
0.0
 11
291.4033759999999
 21
160.4375149999999
 31
0.0
  0
LINE
  5
B43C
330
B31D
100
AcDbEntity
  8
1
  6
Continuous
100
AcDbLine
 10
292.8729369999999
 20
166.4470149999999
 30
0.0
 11
291.4033759999999
 21
160.4375149999999
 31
0.0
  0
ARC
  5
B43D
330
B31D
100
AcDbEntity
  8
1
  6
Continuous
100
AcDbCircle
 10
293.16435
 20
166.3757529999998
 30
0.0
 40
0.3
100
AcDbArc
 50
119.9999999999999
 51
166.258585
  0
LINE
  5
B43E
330
B31D
100
AcDbEntity
  8
1
  6
Continuous
100
AcDbLine
 10
293.0143499999999
 20
166.635561
 30
0.0
 11
294.9033759999998
 21
167.7261899999998
 31
0.0
  0
LINE
  5
B43F
330
B31D
100
AcDbEntity
  8
1
  6
Continuous
100
AcDbLine
 10
296.9118759999998
 20
175.07149
 30
0.0
 11
294.9033759999998
 21
175.07149
 31
0.0
  0
LINE
  5
B440
330
B31D
100
AcDbEntity
  8
1
  6
Continuous
100
AcDbLine
 10
293.0143499999999
 20
191.507419
 30
0.0
 11
294.9033759999998
 21
190.416789
 31
0.0
  0
LINE
  5
B441
330
B31D
100
AcDbEntity
  8
1
  6
Continuous
100
AcDbLine
 10
296.9118759999998
 20
183.0714899999999
 30
0.0
 11
294.9033759999998
 21
183.0714899999999
 31
0.0
  0
LINE
  5
B442
330
B31D
100
AcDbEntity
  8
1
  6
Continuous
100
AcDbLine
 10
290.9033759999999
 20
197.994139
 30
0.0
 11
291.4033759999999
 21
197.7054639999998
 31
0.0
  0
LINE
  5
B443
330
B31D
100
AcDbEntity
  8
1
  6
Continuous
100
AcDbLine
 10
292.8729369999999
 20
191.6959639999998
 30
0.0
 11
291.4033759999999
 21
197.7054639999998
 31
0.0
  0
ARC
  5
B444
330
B31D
100
AcDbEntity
  8
1
  6
Continuous
100
AcDbCircle
 10
293.16435
 20
191.7672259999999
 30
0.0
 40
0.3
100
AcDbArc
 50
193.741415
 51
239.9999999999999
  0
LINE
  5
B445
330
B31D
100
AcDbEntity
  8
1
  6
Continuous
100
AcDbLine
 10
302.2553659999999
 20
225.87149
 30
0.0
 11
300.2023659999999
 21
227.58649
 31
0.0
  0
LINE
  5
B446
330
B31D
100
AcDbEntity
  8
1
  6
Continuous
100
AcDbLine
 10
299.4269389999999
 20
225.87149
 30
0.0
 11
297.373939
 21
227.58649
 31
0.0
  0
LINE
  5
B447
330
B31D
100
AcDbEntity
  8
1
  6
Continuous
100
AcDbLine
 10
296.598512
 20
225.87149
 30
0.0
 11
294.5455119999999
 21
227.58649
 31
0.0
  0
LINE
  5
B448
330
B31D
100
AcDbEntity
  8
1
  6
Continuous
100
AcDbLine
 10
293.770084
 20
225.87149
 30
0.0
 11
291.717084
 21
227.58649
 31
0.0
  0
LINE
  5
B449
330
B31D
100
AcDbEntity
  8
1
  6
Continuous
100
AcDbLine
 10
290.9416569999999
 20
225.87149
 30
0.0
 11
288.888657
 21
227.58649
 31
0.0
  0
LINE
  5
B44A
330
B31D
100
AcDbEntity
  8
1
  6
Continuous
100
AcDbLine
 10
288.1132299999998
 20
225.87149
 30
0.0
 11
286.06023
 21
227.58649
 31
0.0
  0
LINE
  5
B44B
330
B31D
100
AcDbEntity
  8
1
  6
Continuous
100
AcDbLine
 10
285.2848029999999
 20
225.87149
 30
0.0
 11
283.2318029999999
 21
227.58649
 31
0.0
  0
LINE
  5
B44C
330
B31D
100
AcDbEntity
  8
1
  6
Continuous
100
AcDbLine
 10
300.977793
 20
225.87149
 30
0.0
 11
303.030793
 21
227.58649
 31
0.0
  0
LINE
  5
B44D
330
B31D
100
AcDbEntity
  8
1
  6
Continuous
100
AcDbLine
 10
298.1493659999999
 20
225.87149
 30
0.0
 11
300.2023659999999
 21
227.58649
 31
0.0
  0
LINE
  5
B44E
330
B31D
100
AcDbEntity
  8
1
  6
Continuous
100
AcDbLine
 10
295.3209389999999
 20
225.87149
 30
0.0
 11
297.373939
 21
227.58649
 31
0.0
  0
LINE
  5
B44F
330
B31D
100
AcDbEntity
  8
1
  6
Continuous
100
AcDbLine
 10
292.4925119999999
 20
225.87149
 30
0.0
 11
294.5455119999999
 21
227.58649
 31
0.0
  0
LINE
  5
B450
330
B31D
100
AcDbEntity
  8
1
  6
Continuous
100
AcDbLine
 10
289.6640839999998
 20
225.87149
 30
0.0
 11
291.717084
 21
227.58649
 31
0.0
  0
LINE
  5
B451
330
B31D
100
AcDbEntity
  8
1
  6
Continuous
100
AcDbLine
 10
286.8356569999999
 20
225.87149
 30
0.0
 11
288.888657
 21
227.58649
 31
0.0
  0
LINE
  5
B452
330
B31D
100
AcDbEntity
  8
1
  6
Continuous
100
AcDbLine
 10
284.00723
 20
225.87149
 30
0.0
 11
286.06023
 21
227.58649
 31
0.0
  0
LINE
  5
B453
330
B31D
100
AcDbEntity
  8
1
  6
Continuous
100
AcDbLine
 10
303.4033759999999
 20
227.58649
 30
0.0
 11
303.4033759999999
 21
225.87149
 31
0.0
  0
ARC
  5
B454
330
B31D
100
AcDbEntity
  8
1
  6
Continuous
100
AcDbCircle
 10
289.4033759999999
 20
214.3750359999999
 30
0.0
 40
1.5
100
AcDbArc
 50
0.0
 51
81.15011700000001
  0
ARC
  5
B455
330
B31D
100
AcDbEntity
  8
1
  6
Continuous
100
AcDbCircle
 10
297.0502339999999
 20
226.4581339999998
 30
0.0
 40
6.113617999999997
100
AcDbArc
 50
25.278391
 51
90.0
  0
ARC
  5
B456
330
B31D
100
AcDbEntity
  8
1
  6
Continuous
100
AcDbCircle
 10
288.9033759999999
 20
237.571752
 30
0.0
 40
1.0
100
AcDbArc
 50
270.0
 51
0.0
  0
LINE
  5
B457
330
B31D
100
AcDbEntity
  8
1
  6
Continuous
100
AcDbLine
 10
293.4033759999999
 20
236.571752
 30
0.0
 11
293.4033759999999
 21
232.5717519999999
 31
0.0
  0
ARC
  5
B458
330
B31D
100
AcDbEntity
  8
1
  6
Continuous
100
AcDbCircle
 10
299.7919779999999
 20
230.6189789999999
 30
0.0
 40
4.697225
100
AcDbArc
 50
319.789963
 51
333.713305
  0
ARC
  5
B459
330
B31D
100
AcDbEntity
  8
1
  6
Continuous
100
AcDbCircle
 10
303.1294899999999
 20
228.148899
 30
0.0
 40
0.9569799999999998
100
AcDbArc
 50
24.04026499999999
 51
73.98808699999998
  0
LINE
  5
B45A
330
B31D
100
AcDbEntity
  8
1
  6
Continuous
100
AcDbLine
 10
303.4033759999999
 20
227.2139069999998
 30
0.0
 11
303.030793
 21
227.58649
 31
0.0
  0
LINE
  5
B45B
330
B31D
100
AcDbEntity
  8
1
  6
Continuous
100
AcDbLine
 10
303.39346
 20
229.068752
 30
0.0
 11
302.57846
 21
229.068752
 31
0.0
  0
LINE
  5
B45C
330
B31D
100
AcDbEntity
  8
1
  6
Continuous
100
AcDbLine
 10
286.4033759999998
 20
275.571752
 30
0.0
 11
274.4033759999999
 21
275.571752
 31
0.0
  0
LINE
  5
B45D
330
B31D
100
AcDbEntity
  8
1
  6
Continuous
100
AcDbLine
 10
271.9033759999999
 20
271.4717519999999
 30
0.0
 11
288.9033759999999
 21
271.4717519999999
 31
0.0
  0
LINE
  5
B45E
330
B31D
100
AcDbEntity
  8
1
  6
Continuous
100
AcDbLine
 10
272.0533759999999
 20
274.671752
 30
0.0
 11
288.753376
 21
274.671752
 31
0.0
  0
LINE
  5
B45F
330
B31D
100
AcDbEntity
  8
1
  6
Continuous
100
AcDbLine
 10
285.403381
 20
276.5717519999999
 30
0.0
 11
275.403381
 21
276.5717519999999
 31
0.0
  0
LINE
  5
B460
330
B31D
100
AcDbEntity
  8
1
  6
Continuous
100
AcDbLine
 10
272.0533759999999
 20
274.671752
 30
0.0
 11
272.0533759999999
 21
271.4717519999999
 31
0.0
  0
ARC
  5
B461
330
B31D
100
AcDbEntity
  8
1
  6
Continuous
100
AcDbCircle
 10
271.9033759999999
 20
270.4717519999999
 30
0.0
 40
1.0
100
AcDbArc
 50
90.0
 51
180.0
  0
LINE
  5
B462
330
B31D
100
AcDbEntity
  8
1
  6
Continuous
100
AcDbLine
 10
274.403381
 20
275.571752
 30
0.0
 11
275.403381
 21
276.5717519999999
 31
0.0
  0
LINE
  5
B463
330
B31D
100
AcDbEntity
  8
1
  6
Continuous
100
AcDbLine
 10
274.4033759999999
 20
275.571752
 30
0.0
 11
274.4033759999999
 21
274.671752
 31
0.0
  0
LINE
  5
B464
330
B31D
100
AcDbEntity
  8
1
  6
Continuous
100
AcDbLine
 10
288.753376
 20
274.671752
 30
0.0
 11
288.753376
 21
271.4717519999999
 31
0.0
  0
ARC
  5
B465
330
B31D
100
AcDbEntity
  8
1
  6
Continuous
100
AcDbCircle
 10
288.9033759999999
 20
270.4717519999999
 30
0.0
 40
1.0
100
AcDbArc
 50
0.0
 51
90.0
  0
LINE
  5
B466
330
B31D
100
AcDbEntity
  8
1
  6
Continuous
100
AcDbLine
 10
286.4033759999998
 20
275.571752
 30
0.0
 11
286.4033759999998
 21
274.671752
 31
0.0
  0
LINE
  5
B467
330
B31D
100
AcDbEntity
  8
1
  6
Continuous
100
AcDbLine
 10
286.403381
 20
275.571752
 30
0.0
 11
285.403381
 21
276.5717519999999
 31
0.0
  0
LINE
  5
B468
330
B31D
100
AcDbEntity
  8
2
  6
Continuous
100
AcDbLine
 10
275.350376
 20
276.518747
 30
0.0
 11
275.350376
 21
274.671752
 31
0.0
  0
LINE
  5
B469
330
B31D
100
AcDbEntity
  8
2
  6
Continuous
100
AcDbLine
 10
285.4563759999999
 20
276.518757
 30
0.0
 11
285.4563759999999
 21
274.671752
 31
0.0
  0
CIRCLE
  5
B46A
330
B31D
100
AcDbEntity
  8
2
  6
Continuous
100
AcDbCircle
 10
188.6691719999998
 20
343.5054979999998
 30
0.0
 40
5.052999999999999
  0
ARC
  5
B46B
330
B31D
100
AcDbEntity
  8
1
  6
Continuous
100
AcDbCircle
 10
78.593249
 20
230.6189789999999
 30
0.0
 40
4.697225
100
AcDbArc
 50
319.789963
 51
333.713305
  0
ARC
  5
B46C
330
B31D
100
AcDbEntity
  8
1
  6
Continuous
100
AcDbCircle
 10
39.816045
 20
230.6189789999999
 30
0.0
 40
4.697225
100
AcDbArc
 50
206.286695
 51
220.210037
  0
LINE
  5
B46D
330
B31D
100
AcDbEntity
  8
1
  6
Continuous
100
AcDbLine
 10
48.66636599999999
 20
225.87149
 30
0.0
 11
50.719366
 21
227.58649
 31
0.0
  0
LINE
  5
B46E
330
B31D
100
AcDbEntity
  8
1
  6
Continuous
100
AcDbLine
 10
49.943938
 20
225.87149
 30
0.0
 11
47.89093799999998
 21
227.58649
 31
0.0
  0
LINE
  5
B46F
330
B31D
100
AcDbEntity
  8
1
  6
Continuous
100
AcDbLine
 10
36.20464699999998
 20
227.58649
 30
0.0
 11
82.20464699999999
 21
227.58649
 31
0.0
  0
LINE
  5
B470
330
B31D
100
AcDbEntity
  8
1
  6
Continuous
100
AcDbLine
 10
36.20464699999998
 20
227.2139069999998
 30
0.0
 11
36.57723
 21
227.58649
 31
0.0
  0
LINE
  5
B471
330
B31D
100
AcDbEntity
  8
1
  6
Continuous
100
AcDbLine
 10
36.20464699999998
 20
227.58649
 30
0.0
 11
36.20464699999998
 21
225.87149
 31
0.0
  0
LINE
  5
B472
330
B31D
100
AcDbEntity
  8
1
  6
Continuous
100
AcDbLine
 10
43.00951099999998
 20
225.87149
 30
0.0
 11
45.062511
 21
227.58649
 31
0.0
  0
LINE
  5
B473
330
B31D
100
AcDbEntity
  8
1
  6
Continuous
100
AcDbLine
 10
40.181084
 20
225.87149
 30
0.0
 11
42.234084
 21
227.58649
 31
0.0
  0
LINE
  5
B474
330
B31D
100
AcDbEntity
  8
1
  6
Continuous
100
AcDbLine
 10
37.352657
 20
225.87149
 30
0.0
 11
39.405657
 21
227.58649
 31
0.0
  0
LINE
  5
B475
330
B31D
100
AcDbEntity
  8
1
  6
Continuous
100
AcDbLine
 10
44.287084
 20
225.87149
 30
0.0
 11
42.234084
 21
227.58649
 31
0.0
  0
LINE
  5
B476
330
B31D
100
AcDbEntity
  8
1
  6
Continuous
100
AcDbLine
 10
41.458657
 20
225.87149
 30
0.0
 11
39.405657
 21
227.58649
 31
0.0
  0
LINE
  5
B477
330
B31D
100
AcDbEntity
  8
1
  6
Continuous
100
AcDbLine
 10
38.63023
 20
225.87149
 30
0.0
 11
36.57723
 21
227.58649
 31
0.0
  0
LINE
  5
B478
330
B31D
100
AcDbEntity
  8
1
  6
Continuous
100
AcDbLine
 10
45.837938
 20
225.87149
 30
0.0
 11
47.89093799999998
 21
227.58649
 31
0.0
  0
LINE
  5
B479
330
B31D
100
AcDbEntity
  8
1
  6
Continuous
100
AcDbLine
 10
47.115511
 20
225.87149
 30
0.0
 11
45.062511
 21
227.58649
 31
0.0
  0
LINE
  5
B47A
330
B31D
100
AcDbEntity
  8
1
  6
Continuous
100
AcDbLine
 10
66.914501
 20
225.87149
 30
0.0
 11
64.861501
 21
227.58649
 31
0.0
  0
LINE
  5
B47B
330
B31D
100
AcDbEntity
  8
1
  6
Continuous
100
AcDbLine
 10
51.494793
 20
225.87149
 30
0.0
 11
53.547793
 21
227.58649
 31
0.0
  0
LINE
  5
B47C
330
B31D
100
AcDbEntity
  8
1
  6
Continuous
100
AcDbLine
 10
55.600793
 20
225.87149
 30
0.0
 11
53.547793
 21
227.58649
 31
0.0
  0
LINE
  5
B47D
330
B31D
100
AcDbEntity
  8
1
  6
Continuous
100
AcDbLine
 10
52.77236600000001
 20
225.87149
 30
0.0
 11
50.719366
 21
227.58649
 31
0.0
  0
LINE
  5
B47E
330
B31D
100
AcDbEntity
  8
1
  6
Continuous
100
AcDbLine
 10
57.15164699999998
 20
225.87149
 30
0.0
 11
59.204647
 21
227.58649
 31
0.0
  0
LINE
  5
B47F
330
B31D
100
AcDbEntity
  8
1
  6
Continuous
100
AcDbLine
 10
54.32321999999999
 20
225.87149
 30
0.0
 11
56.37622
 21
227.58649
 31
0.0
  0
LINE
  5
B480
330
B31D
100
AcDbEntity
  8
1
  6
Continuous
100
AcDbLine
 10
61.257647
 20
225.87149
 30
0.0
 11
59.204647
 21
227.58649
 31
0.0
  0
LINE
  5
B481
330
B31D
100
AcDbEntity
  8
1
  6
Continuous
100
AcDbLine
 10
58.42921999999999
 20
225.87149
 30
0.0
 11
56.37622
 21
227.58649
 31
0.0
  0
LINE
  5
B482
330
B31D
100
AcDbEntity
  8
1
  6
Continuous
100
AcDbLine
 10
59.980074
 20
225.87149
 30
0.0
 11
62.03307399999999
 21
227.58649
 31
0.0
  0
LINE
  5
B483
330
B31D
100
AcDbEntity
  8
1
  6
Continuous
100
AcDbLine
 10
62.808501
 20
225.87149
 30
0.0
 11
64.861501
 21
227.58649
 31
0.0
  0
LINE
  5
B484
330
B31D
100
AcDbEntity
  8
1
  6
Continuous
100
AcDbLine
 10
64.086074
 20
225.87149
 30
0.0
 11
62.03307399999999
 21
227.58649
 31
0.0
  0
LINE
  5
B485
330
B31D
100
AcDbEntity
  8
1
  6
Continuous
100
AcDbLine
 10
82.20464699999999
 20
227.2139069999998
 30
0.0
 11
81.83206400000001
 21
227.58649
 31
0.0
  0
LINE
  5
B486
330
B31D
100
AcDbEntity
  8
1
  6
Continuous
100
AcDbLine
 10
82.20464699999999
 20
227.58649
 30
0.0
 11
82.20464699999999
 21
225.87149
 31
0.0
  0
LINE
  5
B487
330
B31D
100
AcDbEntity
  8
1
  6
Continuous
100
AcDbLine
 10
65.636928
 20
225.87149
 30
0.0
 11
67.68992800000001
 21
227.58649
 31
0.0
  0
LINE
  5
B488
330
B31D
100
AcDbEntity
  8
1
  6
Continuous
100
AcDbLine
 10
68.465355
 20
225.87149
 30
0.0
 11
70.518355
 21
227.58649
 31
0.0
  0
LINE
  5
B489
330
B31D
100
AcDbEntity
  8
1
  6
Continuous
100
AcDbLine
 10
71.29378299999998
 20
225.87149
 30
0.0
 11
73.346783
 21
227.58649
 31
0.0
  0
LINE
  5
B48A
330
B31D
100
AcDbEntity
  8
1
  6
Continuous
100
AcDbLine
 10
74.12220999999998
 20
225.87149
 30
0.0
 11
76.17520999999998
 21
227.58649
 31
0.0
  0
LINE
  5
B48B
330
B31D
100
AcDbEntity
  8
1
  6
Continuous
100
AcDbLine
 10
76.950637
 20
225.87149
 30
0.0
 11
79.00363699999998
 21
227.58649
 31
0.0
  0
LINE
  5
B48C
330
B31D
100
AcDbEntity
  8
1
  6
Continuous
100
AcDbLine
 10
69.742928
 20
225.87149
 30
0.0
 11
67.68992800000001
 21
227.58649
 31
0.0
  0
LINE
  5
B48D
330
B31D
100
AcDbEntity
  8
1
  6
Continuous
100
AcDbLine
 10
72.57135500000003
 20
225.87149
 30
0.0
 11
70.518355
 21
227.58649
 31
0.0
  0
LINE
  5
B48E
330
B31D
100
AcDbEntity
  8
1
  6
Continuous
100
AcDbLine
 10
75.399783
 20
225.87149
 30
0.0
 11
73.346783
 21
227.58649
 31
0.0
  0
LINE
  5
B48F
330
B31D
100
AcDbEntity
  8
1
  6
Continuous
100
AcDbLine
 10
78.22821000000002
 20
225.87149
 30
0.0
 11
76.17520999999998
 21
227.58649
 31
0.0
  0
LINE
  5
B490
330
B31D
100
AcDbEntity
  8
1
  6
Continuous
100
AcDbLine
 10
79.77906400000001
 20
225.87149
 30
0.0
 11
81.83206400000001
 21
227.58649
 31
0.0
  0
LINE
  5
B491
330
B31D
100
AcDbEntity
  8
1
  6
Continuous
100
AcDbLine
 10
81.05663699999999
 20
225.87149
 30
0.0
 11
79.00363699999998
 21
227.58649
 31
0.0
  0
ARC
  5
B492
330
B31D
100
AcDbEntity
  8
1
  6
Continuous
100
AcDbCircle
 10
81.930761
 20
228.148899
 30
0.0
 40
0.9569799999999998
100
AcDbArc
 50
24.04026499999999
 51
73.98808699999998
  0
LINE
  5
B493
330
B31D
100
AcDbEntity
  8
1
  6
Continuous
100
AcDbLine
 10
65.20464699999999
 20
275.571752
 30
0.0
 11
65.20464699999999
 21
274.671752
 31
0.0
  0
LINE
  5
B494
330
B31D
100
AcDbEntity
  8
2
  6
Continuous
100
AcDbLine
 10
64.25764699999999
 20
276.518757
 30
0.0
 11
64.25764699999999
 21
274.671752
 31
0.0
  0
LINE
  5
B495
330
B31D
100
AcDbEntity
  8
1
  6
Continuous
100
AcDbLine
 10
53.20464699999998
 20
275.571752
 30
0.0
 11
53.20464699999998
 21
274.671752
 31
0.0
  0
LINE
  5
B496
330
B31D
100
AcDbEntity
  8
2
  6
Continuous
100
AcDbLine
 10
54.151647
 20
276.518747
 30
0.0
 11
54.151647
 21
274.671752
 31
0.0
  0
LINE
  5
B497
330
B31D
100
AcDbEntity
  8
1
  6
Continuous
100
AcDbLine
 10
75.85150500000001
 20
232.5717519999999
 30
0.0
 11
42.55779899999999
 21
232.5717519999999
 31
0.0
  0
LINE
  5
B498
330
B31D
100
AcDbEntity
  8
1
  6
Continuous
100
AcDbLine
 10
72.20464699999998
 20
236.571752
 30
0.0
 11
46.20464699999998
 21
236.571752
 31
0.0
  0
LINE
  5
B499
330
B31D
100
AcDbEntity
  8
1
  6
Continuous
100
AcDbLine
 10
37.029563
 20
229.068752
 30
0.0
 11
81.37973100000001
 21
229.068752
 31
0.0
  0
ARC
  5
B49A
330
B31D
100
AcDbEntity
  8
1
  6
Continuous
100
AcDbCircle
 10
36.47853299999999
 20
228.148899
 30
0.0
 40
0.9569799999999998
100
AcDbArc
 50
106.011913
 51
155.9597349999999
  0
LINE
  5
B49B
330
B31D
100
AcDbEntity
  8
1
  6
Continuous
100
AcDbLine
 10
36.214563
 20
229.068752
 30
0.0
 11
37.029563
 21
229.068752
 31
0.0
  0
ARC
  5
B49C
330
B31D
100
AcDbEntity
  8
1
  6
Continuous
100
AcDbCircle
 10
42.55779899999999
 20
226.4581339999998
 30
0.0
 40
6.113617999999997
100
AcDbArc
 50
90.0
 51
154.721609
  0
LINE
  5
B49D
330
B31D
100
AcDbEntity
  8
1
  6
Continuous
100
AcDbLine
 10
46.20464699999998
 20
236.571752
 30
0.0
 11
46.20464699999998
 21
232.5717519999999
 31
0.0
  0
LINE
  5
B49E
330
B31D
100
AcDbEntity
  8
1
  6
Continuous
100
AcDbLine
 10
68.70464699999999
 20
237.571752
 30
0.0
 11
68.70464699999999
 21
270.4717519999999
 31
0.0
  0
LINE
  5
B49F
330
B31D
100
AcDbEntity
  8
1
  6
Continuous
100
AcDbLine
 10
49.70464699999999
 20
270.4717519999999
 30
0.0
 11
49.70464699999999
 21
237.571752
 31
0.0
  0
LINE
  5
B4A0
330
B31D
100
AcDbEntity
  8
1
  6
Continuous
100
AcDbLine
 10
68.70464699999999
 20
240.471752
 30
0.0
 11
49.70464699999999
 21
240.471752
 31
0.0
  0
ARC
  5
B4A1
330
B31D
100
AcDbEntity
  8
1
  6
Continuous
100
AcDbCircle
 10
50.70464699999998
 20
237.571752
 30
0.0
 40
1.0
100
AcDbArc
 50
180.0
 51
270.0
  0
LINE
  5
B4A2
330
B31D
100
AcDbEntity
  8
1
  6
Continuous
100
AcDbLine
 10
59.204647
 20
236.571752
 30
0.0
 11
59.204647
 21
232.5717519999999
 31
0.0
  0
LINE
  5
B4A3
330
B31D
100
AcDbEntity
  8
1
  6
Continuous
100
AcDbLine
 10
82.194731
 20
229.068752
 30
0.0
 11
81.37973100000001
 21
229.068752
 31
0.0
  0
ARC
  5
B4A4
330
B31D
100
AcDbEntity
  8
1
  6
Continuous
100
AcDbCircle
 10
67.70464699999999
 20
237.571752
 30
0.0
 40
1.0
100
AcDbArc
 50
270.0
 51
0.0
  0
LINE
  5
B4A5
330
B31D
100
AcDbEntity
  8
1
  6
Continuous
100
AcDbLine
 10
72.20464699999998
 20
236.571752
 30
0.0
 11
72.20464699999998
 21
232.5717519999999
 31
0.0
  0
ARC
  5
B4A6
330
B31D
100
AcDbEntity
  8
1
  6
Continuous
100
AcDbCircle
 10
75.85150500000001
 20
226.4581339999998
 30
0.0
 40
6.113617999999997
100
AcDbArc
 50
25.278391
 51
90.0
  0
LINE
  5
B4A7
330
B31D
100
AcDbEntity
  8
1
  6
Continuous
100
AcDbLine
 10
50.854647
 20
274.671752
 30
0.0
 11
67.554647
 21
274.671752
 31
0.0
  0
LINE
  5
B4A8
330
B31D
100
AcDbEntity
  8
1
  6
Continuous
100
AcDbLine
 10
50.70464699999998
 20
271.4717519999999
 30
0.0
 11
67.70464699999999
 21
271.4717519999999
 31
0.0
  0
ARC
  5
B4A9
330
B31D
100
AcDbEntity
  8
1
  6
Continuous
100
AcDbCircle
 10
50.70464699999998
 20
270.4717519999999
 30
0.0
 40
1.0
100
AcDbArc
 50
90.0
 51
180.0
  0
LINE
  5
B4AA
330
B31D
100
AcDbEntity
  8
1
  6
Continuous
100
AcDbLine
 10
50.854647
 20
274.671752
 30
0.0
 11
50.854647
 21
271.4717519999999
 31
0.0
  0
ARC
  5
B4AB
330
B31D
100
AcDbEntity
  8
1
  6
Continuous
100
AcDbCircle
 10
67.70464699999999
 20
270.4717519999999
 30
0.0
 40
1.0
100
AcDbArc
 50
0.0
 51
90.0
  0
LINE
  5
B4AC
330
B31D
100
AcDbEntity
  8
1
  6
Continuous
100
AcDbLine
 10
67.554647
 20
274.671752
 30
0.0
 11
67.554647
 21
271.4717519999999
 31
0.0
  0
LINE
  5
B4AD
330
B31D
100
AcDbEntity
  8
1
  6
Continuous
100
AcDbLine
 10
65.204652
 20
275.571752
 30
0.0
 11
64.20465199999999
 21
276.5717519999999
 31
0.0
  0
LINE
  5
B4AE
330
B31D
100
AcDbEntity
  8
1
  6
Continuous
100
AcDbLine
 10
53.20465200000001
 20
275.571752
 30
0.0
 11
54.204652
 21
276.5717519999999
 31
0.0
  0
LINE
  5
B4AF
330
B31D
100
AcDbEntity
  8
1
  6
Continuous
100
AcDbLine
 10
64.20465199999999
 20
276.5717519999999
 30
0.0
 11
54.204652
 21
276.5717519999999
 31
0.0
  0
LINE
  5
B4B0
330
B31D
100
AcDbEntity
  8
1
  6
Continuous
100
AcDbLine
 10
65.20464699999999
 20
275.571752
 30
0.0
 11
53.20464699999998
 21
275.571752
 31
0.0
  0
ARC
  5
B4B1
330
B31D
100
AcDbEntity
  8
1
  6
Continuous
100
AcDbCircle
 10
188.6691719999998
 20
343.5054979999998
 30
0.0
 40
24.75
100
AcDbArc
 50
236.963825
 51
123.0361749999999
  0
LINE
  5
B4B2
330
B31D
100
AcDbEntity
  8
1
  6
Continuous
100
AcDbLine
 10
211.669247
 20
227.58649
 30
0.0
 11
211.669247
 21
225.87149
 31
0.0
  0
LINE
  5
B4B3
330
B31D
100
AcDbEntity
  8
1
  6
Continuous
100
AcDbLine
 10
200.758383
 20
225.87149
 30
0.0
 11
202.811383
 21
227.58649
 31
0.0
  0
LINE
  5
B4B4
330
B31D
100
AcDbEntity
  8
1
  6
Continuous
100
AcDbLine
 10
203.58681
 20
225.87149
 30
0.0
 11
205.63981
 21
227.58649
 31
0.0
  0
LINE
  5
B4B5
330
B31D
100
AcDbEntity
  8
1
  6
Continuous
100
AcDbLine
 10
206.4152369999999
 20
225.87149
 30
0.0
 11
208.4682369999999
 21
227.58649
 31
0.0
  0
LINE
  5
B4B6
330
B31D
100
AcDbEntity
  8
1
  6
Continuous
100
AcDbLine
 10
209.2436639999998
 20
225.87149
 30
0.0
 11
211.2966639999999
 21
227.58649
 31
0.0
  0
LINE
  5
B4B7
330
B31D
100
AcDbEntity
  8
1
  6
Continuous
100
AcDbLine
 10
202.035955
 20
225.87149
 30
0.0
 11
199.982955
 21
227.58649
 31
0.0
  0
LINE
  5
B4B8
330
B31D
100
AcDbEntity
  8
1
  6
Continuous
100
AcDbLine
 10
204.864383
 20
225.87149
 30
0.0
 11
202.811383
 21
227.58649
 31
0.0
  0
LINE
  5
B4B9
330
B31D
100
AcDbEntity
  8
1
  6
Continuous
100
AcDbLine
 10
207.6928099999999
 20
225.87149
 30
0.0
 11
205.63981
 21
227.58649
 31
0.0
  0
LINE
  5
B4BA
330
B31D
100
AcDbEntity
  8
1
  6
Continuous
100
AcDbLine
 10
210.521237
 20
225.87149
 30
0.0
 11
208.4682369999999
 21
227.58649
 31
0.0
  0
LINE
  5
B4BB
330
B31D
100
AcDbEntity
  8
1
  6
Continuous
100
AcDbLine
 10
197.929955
 20
225.87149
 30
0.0
 11
199.982955
 21
227.58649
 31
0.0
  0
LINE
  5
B4BC
330
B31D
100
AcDbEntity
  8
1
  6
Continuous
100
AcDbLine
 10
186.6162469999999
 20
225.87149
 30
0.0
 11
188.6692469999999
 21
227.58649
 31
0.0
  0
LINE
  5
B4BD
330
B31D
100
AcDbEntity
  8
1
  6
Continuous
100
AcDbLine
 10
189.444674
 20
225.87149
 30
0.0
 11
191.4976739999999
 21
227.58649
 31
0.0
  0
LINE
  5
B4BE
330
B31D
100
AcDbEntity
  8
1
  6
Continuous
100
AcDbLine
 10
192.2731009999999
 20
225.87149
 30
0.0
 11
194.326101
 21
227.58649
 31
0.0
  0
LINE
  5
B4BF
330
B31D
100
AcDbEntity
  8
1
  6
Continuous
100
AcDbLine
 10
195.101528
 20
225.87149
 30
0.0
 11
197.1545279999999
 21
227.58649
 31
0.0
  0
LINE
  5
B4C0
330
B31D
100
AcDbEntity
  8
1
  6
Continuous
100
AcDbLine
 10
183.7878199999999
 20
225.87149
 30
0.0
 11
185.84082
 21
227.58649
 31
0.0
  0
LINE
  5
B4C1
330
B31D
100
AcDbEntity
  8
1
  6
Continuous
100
AcDbLine
 10
190.722247
 20
225.87149
 30
0.0
 11
188.6692469999999
 21
227.58649
 31
0.0
  0
LINE
  5
B4C2
330
B31D
100
AcDbEntity
  8
1
  6
Continuous
100
AcDbLine
 10
193.5506739999999
 20
225.87149
 30
0.0
 11
191.4976739999999
 21
227.58649
 31
0.0
  0
LINE
  5
B4C3
330
B31D
100
AcDbEntity
  8
1
  6
Continuous
100
AcDbLine
 10
196.3791009999999
 20
225.87149
 30
0.0
 11
194.326101
 21
227.58649
 31
0.0
  0
LINE
  5
B4C4
330
B31D
100
AcDbEntity
  8
1
  6
Continuous
100
AcDbLine
 10
187.89382
 20
225.87149
 30
0.0
 11
185.84082
 21
227.58649
 31
0.0
  0
LINE
  5
B4C5
330
B31D
100
AcDbEntity
  8
1
  6
Continuous
100
AcDbLine
 10
185.065393
 20
225.87149
 30
0.0
 11
183.012393
 21
227.58649
 31
0.0
  0
LINE
  5
B4C6
330
B31D
100
AcDbEntity
  8
1
  6
Continuous
100
AcDbLine
 10
199.207528
 20
225.87149
 30
0.0
 11
197.1545279999999
 21
227.58649
 31
0.0
  0
LINE
  5
B4C7
330
B31D
100
AcDbEntity
  8
1
  6
Continuous
100
AcDbLine
 10
178.1309659999998
 20
225.87149
 30
0.0
 11
180.1839659999999
 21
227.58649
 31
0.0
  0
LINE
  5
B4C8
330
B31D
100
AcDbEntity
  8
1
  6
Continuous
100
AcDbLine
 10
175.3025379999999
 20
225.87149
 30
0.0
 11
177.3555379999999
 21
227.58649
 31
0.0
  0
LINE
  5
B4C9
330
B31D
100
AcDbEntity
  8
1
  6
Continuous
100
AcDbLine
 10
172.474111
 20
225.87149
 30
0.0
 11
174.527111
 21
227.58649
 31
0.0
  0
LINE
  5
B4CA
330
B31D
100
AcDbEntity
  8
1
  6
Continuous
100
AcDbLine
 10
169.6456839999999
 20
225.87149
 30
0.0
 11
171.6986839999999
 21
227.58649
 31
0.0
  0
LINE
  5
B4CB
330
B31D
100
AcDbEntity
  8
1
  6
Continuous
100
AcDbLine
 10
166.817257
 20
225.87149
 30
0.0
 11
168.870257
 21
227.58649
 31
0.0
  0
LINE
  5
B4CC
330
B31D
100
AcDbEntity
  8
1
  6
Continuous
100
AcDbLine
 10
179.408538
 20
225.87149
 30
0.0
 11
177.3555379999999
 21
227.58649
 31
0.0
  0
LINE
  5
B4CD
330
B31D
100
AcDbEntity
  8
1
  6
Continuous
100
AcDbLine
 10
176.5801109999999
 20
225.87149
 30
0.0
 11
174.527111
 21
227.58649
 31
0.0
  0
LINE
  5
B4CE
330
B31D
100
AcDbEntity
  8
1
  6
Continuous
100
AcDbLine
 10
173.751684
 20
225.87149
 30
0.0
 11
171.6986839999999
 21
227.58649
 31
0.0
  0
LINE
  5
B4CF
330
B31D
100
AcDbEntity
  8
1
  6
Continuous
100
AcDbLine
 10
170.923257
 20
225.87149
 30
0.0
 11
168.870257
 21
227.58649
 31
0.0
  0
LINE
  5
B4D0
330
B31D
100
AcDbEntity
  8
1
  6
Continuous
100
AcDbLine
 10
165.6692469999998
 20
227.58649
 30
0.0
 11
165.6692469999998
 21
225.87149
 31
0.0
  0
LINE
  5
B4D1
330
B31D
100
AcDbEntity
  8
1
  6
Continuous
100
AcDbLine
 10
168.09483
 20
225.87149
 30
0.0
 11
166.04183
 21
227.58649
 31
0.0
  0
LINE
  5
B4D2
330
B31D
100
AcDbEntity
  8
1
  6
Continuous
100
AcDbLine
 10
180.959393
 20
225.87149
 30
0.0
 11
183.012393
 21
227.58649
 31
0.0
  0
LINE
  5
B4D3
330
B31D
100
AcDbEntity
  8
1
  6
Continuous
100
AcDbLine
 10
182.2369659999999
 20
225.87149
 30
0.0
 11
180.1839659999999
 21
227.58649
 31
0.0
  0
LINE
  5
B4D4
330
B31D
100
AcDbEntity
  8
1
  6
Continuous
100
AcDbLine
 10
197.9192469999999
 20
271.4718159999998
 30
0.0
 11
197.9192469999999
 21
274.6718159999999
 31
0.0
  0
LINE
  5
B4D5
330
B31D
100
AcDbEntity
  8
1
  6
Continuous
100
AcDbLine
 10
192.6491969999999
 20
274.6718159999999
 30
0.0
 11
192.6491969999999
 21
271.4718159999998
 31
0.0
  0
LINE
  5
B4D6
330
B31D
100
AcDbEntity
  8
1
  6
Continuous
100
AcDbLine
 10
184.689297
 20
274.6718159999999
 30
0.0
 11
184.689297
 21
271.4718159999998
 31
0.0
  0
LINE
  5
B4D7
330
B31D
100
AcDbEntity
  8
1
  6
Continuous
100
AcDbLine
 10
179.4192469999999
 20
274.6718159999999
 30
0.0
 11
179.4192469999999
 21
271.4718159999998
 31
0.0
  0
LINE
  5
B4D8
330
B31D
100
AcDbEntity
  8
1
  6
Continuous
100
AcDbLine
 10
179.4192469999999
 20
271.4718159999998
 30
0.0
 11
197.9192469999999
 21
271.4718159999998
 31
0.0
  0
LINE
  5
B4D9
330
B31D
100
AcDbEntity
  8
1
  6
Continuous
100
AcDbLine
 10
198.169242
 20
240.4718159999999
 30
0.0
 11
179.1692419999999
 21
240.4718159999999
 31
0.0
  0
LINE
  5
B4DA
330
B31D
100
AcDbEntity
  8
1
  6
Continuous
100
AcDbLine
 10
166.4941629999999
 20
229.068751
 30
0.0
 11
210.844331
 21
229.068751
 31
0.0
  0
LINE
  5
B4DB
330
B31D
100
AcDbEntity
  8
1
  6
Continuous
100
AcDbLine
 10
165.6692469999998
 20
227.58649
 30
0.0
 11
211.669247
 21
227.58649
 31
0.0
  0
LINE
  5
B4DC
330
B31D
100
AcDbEntity
  8
1
  6
Continuous
100
AcDbLine
 10
205.3161
 20
232.571816
 30
0.0
 11
172.0223939999999
 21
232.571816
 31
0.0
  0
LINE
  5
B4DD
330
B31D
100
AcDbEntity
  8
1
  6
Continuous
100
AcDbLine
 10
203.680354
 20
236.571816
 30
0.0
 11
173.65814
 21
236.571816
 31
0.0
  0
LINE
  5
B4DE
330
B31D
100
AcDbEntity
  8
1
  6
Continuous
100
AcDbLine
 10
179.1692419999999
 20
270.471816
 30
0.0
 11
179.1692419999999
 21
237.571816
 31
0.0
  0
ARC
  5
B4DF
330
B31D
100
AcDbEntity
  8
1
  6
Continuous
100
AcDbCircle
 10
165.9431329999999
 20
228.148898
 30
0.0
 40
0.9569799999999998
100
AcDbArc
 50
106.011913
 51
155.9597349999999
  0
ARC
  5
B4E0
330
B31D
100
AcDbEntity
  8
1
  6
Continuous
100
AcDbCircle
 10
169.2806449999999
 20
230.6189779999999
 30
0.0
 40
4.697225
100
AcDbArc
 50
206.286695
 51
220.210037
  0
LINE
  5
B4E1
330
B31D
100
AcDbEntity
  8
1
  6
Continuous
100
AcDbLine
 10
181.1636929999998
 20
236.571816
 30
0.0
 11
181.1636929999998
 21
232.571816
 31
0.0
  0
ARC
  5
B4E2
330
B31D
100
AcDbEntity
  8
1
  6
Continuous
100
AcDbCircle
 10
180.169242
 20
237.571816
 30
0.0
 40
1.0
100
AcDbArc
 50
180.0
 51
270.0
  0
LINE
  5
B4E3
330
B31D
100
AcDbEntity
  8
1
  6
Continuous
100
AcDbLine
 10
165.6692469999998
 20
227.2139069999998
 30
0.0
 11
166.04183
 21
227.58649
 31
0.0
  0
LINE
  5
B4E4
330
B31D
100
AcDbEntity
  8
1
  6
Continuous
100
AcDbLine
 10
165.6791629999998
 20
229.068751
 30
0.0
 11
166.4941629999999
 21
229.068751
 31
0.0
  0
ARC
  5
B4E5
330
B31D
100
AcDbEntity
  8
1
  6
Continuous
100
AcDbCircle
 10
172.0223939999999
 20
226.4581979999999
 30
0.0
 40
6.113617999999997
100
AcDbArc
 50
90.0
 51
154.722278
  0
LINE
  5
B4E6
330
B31D
100
AcDbEntity
  8
1
  6
Continuous
100
AcDbLine
 10
173.65814
 20
236.571816
 30
0.0
 11
173.65814
 21
232.571816
 31
0.0
  0
ARC
  5
B4E7
330
B31D
100
AcDbEntity
  8
1
  6
Continuous
100
AcDbCircle
 10
180.169242
 20
270.471816
 30
0.0
 40
1.0
100
AcDbArc
 50
90.0
 51
180.0
  0
LINE
  5
B4E8
330
B31D
100
AcDbEntity
  8
1
  6
Continuous
100
AcDbLine
 10
198.169242
 20
237.571816
 30
0.0
 11
198.169242
 21
270.471816
 31
0.0
  0
ARC
  5
B4E9
330
B31D
100
AcDbEntity
  8
1
  6
Continuous
100
AcDbCircle
 10
197.169242
 20
237.571816
 30
0.0
 40
1.0
100
AcDbArc
 50
270.0
 51
0.0
  0
LINE
  5
B4EA
330
B31D
100
AcDbEntity
  8
1
  6
Continuous
100
AcDbLine
 10
196.1748
 20
236.571816
 30
0.0
 11
196.1748
 21
232.571816
 31
0.0
  0
ARC
  5
B4EB
330
B31D
100
AcDbEntity
  8
1
  6
Continuous
100
AcDbCircle
 10
211.39536
 20
228.148898
 30
0.0
 40
0.9569799999999998
100
AcDbArc
 50
24.04026499999999
 51
73.98808699999998
  0
ARC
  5
B4EC
330
B31D
100
AcDbEntity
  8
1
  6
Continuous
100
AcDbCircle
 10
208.057849
 20
230.6189779999999
 30
0.0
 40
4.697225
100
AcDbArc
 50
319.789963
 51
333.713305
  0
LINE
  5
B4ED
330
B31D
100
AcDbEntity
  8
1
  6
Continuous
100
AcDbLine
 10
211.659331
 20
229.068751
 30
0.0
 11
210.844331
 21
229.068751
 31
0.0
  0
LINE
  5
B4EE
330
B31D
100
AcDbEntity
  8
1
  6
Continuous
100
AcDbLine
 10
211.669247
 20
227.2139069999998
 30
0.0
 11
211.2966639999999
 21
227.58649
 31
0.0
  0
ARC
  5
B4EF
330
B31D
100
AcDbEntity
  8
1
  6
Continuous
100
AcDbCircle
 10
205.3161
 20
226.4581979999999
 30
0.0
 40
6.113617999999997
100
AcDbArc
 50
25.277722
 51
90.0
  0
LINE
  5
B4F0
330
B31D
100
AcDbEntity
  8
1
  6
Continuous
100
AcDbLine
 10
203.680354
 20
236.571816
 30
0.0
 11
203.680354
 21
232.571816
 31
0.0
  0
ARC
  5
B4F1
330
B31D
100
AcDbEntity
  8
1
  6
Continuous
100
AcDbCircle
 10
197.169242
 20
270.471816
 30
0.0
 40
1.0
100
AcDbArc
 50
0.0
 51
90.0
  0
LINE
  5
B4F2
330
B31D
100
AcDbEntity
  8
1
  6
Continuous
100
AcDbLine
 10
179.4192469999999
 20
274.6718159999999
 30
0.0
 11
197.9192469999999
 21
274.6718159999999
 31
0.0
  0
LINE
  5
B4F3
330
B31D
100
AcDbEntity
  8
1
  6
Continuous
100
AcDbLine
 10
194.6692469999999
 20
275.571816
 30
0.0
 11
193.6692469999999
 21
276.571816
 31
0.0
  0
LINE
  5
B4F4
330
B31D
100
AcDbEntity
  8
1
  6
Continuous
100
AcDbLine
 10
194.6692469999999
 20
274.6718159999999
 30
0.0
 11
194.6692469999999
 21
275.571816
 31
0.0
  0
LINE
  5
B4F5
330
B31D
100
AcDbEntity
  8
1
  6
Continuous
100
AcDbLine
 10
193.6692469999999
 20
276.571816
 30
0.0
 11
183.6692469999999
 21
276.571816
 31
0.0
  0
LINE
  5
B4F6
330
B31D
100
AcDbEntity
  8
1
  6
Continuous
100
AcDbLine
 10
182.6692469999999
 20
274.6718159999999
 30
0.0
 11
182.6692469999999
 21
275.571816
 31
0.0
  0
LINE
  5
B4F7
330
B31D
100
AcDbEntity
  8
1
  6
Continuous
100
AcDbLine
 10
182.6692469999999
 20
275.571816
 30
0.0
 11
183.6692469999999
 21
276.571816
 31
0.0
  0
LINE
  5
B4F8
330
B31D
100
AcDbEntity
  8
1
  6
Continuous
100
AcDbLine
 10
194.6692469999999
 20
275.571816
 30
0.0
 11
182.6692469999999
 21
275.571816
 31
0.0
  0
LINE
  5
B4F9
330
B31D
100
AcDbEntity
  8
2
  6
Continuous
100
AcDbLine
 10
193.722247
 20
274.6718159999999
 30
0.0
 11
193.722247
 21
276.518816
 31
0.0
  0
LINE
  5
B4FA
330
B31D
100
AcDbEntity
  8
2
  6
Continuous
100
AcDbLine
 10
183.6162469999999
 20
274.6718159999999
 30
0.0
 11
183.6162469999999
 21
276.518816
 31
0.0
  0
ARC
  5
B4FB
330
B31D
100
AcDbEntity
  8
1
  6
Continuous
100
AcDbCircle
 10
280.4240549999999
 20
156.5511649999999
 30
0.0
 40
60.0
100
AcDbArc
 50
81.20170599999999
 51
82.30327199999997
  0
LINE
  5
B4FC
330
B31D
100
AcDbEntity
  8
1
  6
Continuous
100
AcDbLine
 10
71.674222
 20
166.44706
 30
0.0
 11
70.204661
 21
160.43756
 31
0.0
  0
LINE
  5
B4FD
330
B31D
100
AcDbEntity
  8
1
  6
Continuous
100
AcDbLine
 10
46.7351
 20
166.44706
 30
0.0
 11
48.204661
 21
160.43756
 31
0.0
  0
LINE
  5
B4FE
330
B31D
100
AcDbEntity
  8
1
  6
Continuous
100
AcDbLine
 10
69.704661
 20
214.3750809999999
 30
0.0
 11
69.704661
 21
143.767988
 31
0.0
  0
LINE
  5
B4FF
330
B31D
100
AcDbEntity
  8
1
  6
Continuous
100
AcDbLine
 10
48.704661
 20
214.3750809999999
 30
0.0
 11
48.704661
 21
143.767988
 31
0.0
  0
LINE
  5
B500
330
B31D
100
AcDbEntity
  8
1
  6
Continuous
100
AcDbLine
 10
48.204661
 20
197.705509
 30
0.0
 11
48.204661
 21
160.43756
 31
0.0
  0
LINE
  5
B501
330
B31D
100
AcDbEntity
  8
1
  6
Continuous
100
AcDbLine
 10
70.204661
 20
197.705509
 30
0.0
 11
70.204661
 21
193.530733
 31
0.0
  0
ARC
  5
B502
330
B31D
100
AcDbEntity
  8
1
  6
Continuous
100
AcDbCircle
 10
59.204661
 20
201.571535
 30
0.0
 40
60.0
100
AcDbArc
 50
261.1501169999999
 51
278.850931
  0
ARC
  5
B503
330
B31D
100
AcDbEntity
  8
1
  6
Continuous
100
AcDbCircle
 10
50.204661
 20
143.767988
 30
0.0
 40
1.5
100
AcDbArc
 50
180.0
 51
261.1501169999999
  0
LINE
  5
B504
330
B31D
100
AcDbEntity
  8
1
  6
Continuous
100
AcDbLine
 10
48.704661
 20
160.148885
 30
0.0
 11
48.204661
 21
160.43756
 31
0.0
  0
ARC
  5
B505
330
B31D
100
AcDbEntity
  8
1
  6
Continuous
100
AcDbCircle
 10
68.204661
 20
143.767988
 30
0.0
 40
1.5
100
AcDbArc
 50
278.8498829999999
 51
0.0
  0
LINE
  5
B506
330
B31D
100
AcDbEntity
  8
1
  6
Continuous
100
AcDbLine
 10
69.704661
 20
160.148885
 30
0.0
 11
70.204661
 21
160.43756
 31
0.0
  0
LINE
  5
B507
330
B31D
100
AcDbEntity
  8
1
  6
Continuous
100
AcDbLine
 10
46.704661
 20
166.523759
 30
0.0
 11
46.704661
 21
191.61931
 31
0.0
  0
LINE
  5
B508
330
B31D
100
AcDbEntity
  8
1
  6
Continuous
100
AcDbLine
 10
44.704661
 20
167.726235
 30
0.0
 11
44.704661
 21
190.416834
 31
0.0
  0
LINE
  5
B509
330
B31D
100
AcDbEntity
  8
1
  6
Continuous
100
AcDbLine
 10
42.69616099999999
 20
183.071535
 30
0.0
 11
44.704661
 21
183.071535
 31
0.0
  0
LINE
  5
B50A
330
B31D
100
AcDbEntity
  8
1
  6
Continuous
100
AcDbLine
 10
46.593687
 20
166.635606
 30
0.0
 11
44.704661
 21
167.726235
 31
0.0
  0
LINE
  5
B50B
330
B31D
100
AcDbEntity
  8
1
  6
Continuous
100
AcDbLine
 10
42.69616099999999
 20
175.071535
 30
0.0
 11
44.704661
 21
175.071535
 31
0.0
  0
ARC
  5
B50C
330
B31D
100
AcDbEntity
  8
1
  6
Continuous
100
AcDbCircle
 10
46.443687
 20
166.3757979999998
 30
0.0
 40
0.3
100
AcDbArc
 50
13.741415
 51
60.0
  0
LINE
  5
B50D
330
B31D
100
AcDbEntity
  8
1
  6
Continuous
100
AcDbLine
 10
46.593687
 20
191.507464
 30
0.0
 11
44.704661
 21
190.416834
 31
0.0
  0
LINE
  5
B50E
330
B31D
100
AcDbEntity
  8
1
  6
Continuous
100
AcDbLine
 10
46.7351
 20
191.696009
 30
0.0
 11
48.204661
 21
197.705509
 31
0.0
  0
ARC
  5
B50F
330
B31D
100
AcDbEntity
  8
1
  6
Continuous
100
AcDbCircle
 10
46.443687
 20
191.7672709999999
 30
0.0
 40
0.3
100
AcDbArc
 50
300.0
 51
346.2585849999999
  0
LINE
  5
B510
330
B31D
100
AcDbEntity
  8
1
  6
Continuous
100
AcDbLine
 10
48.704661
 20
197.994184
 30
0.0
 11
48.204661
 21
197.705509
 31
0.0
  0
LINE
  5
B511
330
B31D
100
AcDbEntity
  8
1
  6
Continuous
100
AcDbLine
 10
71.704661
 20
166.523759
 30
0.0
 11
71.704661
 21
177.5017249999999
 31
0.0
  0
LINE
  5
B512
330
B31D
100
AcDbEntity
  8
1
  6
Continuous
100
AcDbLine
 10
73.704661
 20
167.726235
 30
0.0
 11
73.704661
 21
177.282706
 31
0.0
  0
LINE
  5
B513
330
B31D
100
AcDbEntity
  8
1
  6
Continuous
100
AcDbLine
 10
75.713161
 20
175.071535
 30
0.0
 11
73.704661
 21
175.071535
 31
0.0
  0
ARC
  5
B514
330
B31D
100
AcDbEntity
  8
1
  6
Continuous
100
AcDbCircle
 10
71.96563499999998
 20
166.3757979999998
 30
0.0
 40
0.3
100
AcDbArc
 50
119.9999999999999
 51
166.258585
  0
LINE
  5
B515
330
B31D
100
AcDbEntity
  8
1
  6
Continuous
100
AcDbLine
 10
71.815635
 20
166.635606
 30
0.0
 11
73.704661
 21
167.726235
 31
0.0
  0
LINE
  5
B516
330
B31D
100
AcDbEntity
  8
1
  6
Continuous
100
AcDbLine
 10
69.704661
 20
197.994184
 30
0.0
 11
70.204661
 21
197.705509
 31
0.0
  0
LINE
  5
B517
330
B31D
100
AcDbEntity
  8
1
  6
Continuous
100
AcDbLine
 10
71.09045400000002
 20
194.0832239999998
 30
0.0
 11
70.204661
 21
197.705509
 31
0.0
  0
ARC
  5
B518
330
B31D
100
AcDbEntity
  8
1
  6
Continuous
100
AcDbCircle
 10
59.225341
 20
156.551211
 30
0.0
 40
60.0
100
AcDbArc
 50
81.20170599999999
 51
98.902519
  0
ARC
  5
B519
330
B31D
100
AcDbEntity
  8
1
  6
Continuous
100
AcDbCircle
 10
50.204661
 20
214.3750809999999
 30
0.0
 40
1.5
100
AcDbArc
 50
98.84988300000001
 51
180.0
  0
ARC
  5
B51A
330
B31D
100
AcDbEntity
  8
1
  6
Continuous
100
AcDbCircle
 10
68.204661
 20
214.3750809999999
 30
0.0
 40
1.5
100
AcDbArc
 50
0.0
 51
81.15011700000001
  0
ARC
  5
B51B
330
B31D
100
AcDbEntity
  8
1
  6
Continuous
100
AcDbCircle
 10
280.4240549999999
 20
156.5511649999999
 30
0.0
 40
60.0
100
AcDbArc
 50
97.74288099999999
 51
98.902519
  0
ARC
  5
B51C
330
B31D
100
AcDbEntity
  8
1
  6
Continuous
100
AcDbCircle
 10
168.634232
 20
105.409709
 30
0.0
 40
12.0
100
AcDbArc
 50
299.110545
 51
303.036175
  0
ARC
  5
B51D
330
B31D
100
AcDbEntity
  8
1
  6
Continuous
100
AcDbCircle
 10
168.634232
 20
105.409709
 30
0.0
 40
14.3
100
AcDbArc
 50
270.0
 51
303.036175
  0
ARC
  5
B51E
330
B31D
100
AcDbEntity
  8
1
  6
Continuous
100
AcDbCircle
 10
168.634232
 20
43.792709
 30
0.0
 40
14.3
100
AcDbArc
 50
56.963825
 51
90.0
  0
ARC
  5
B51F
330
B31D
100
AcDbEntity
  8
1
  6
Continuous
100
AcDbCircle
 10
168.634232
 20
43.792709
 30
0.0
 40
12.0
100
AcDbArc
 50
56.963825
 51
90.0
  0
LINE
  5
B520
330
B31D
100
AcDbEntity
  8
1
  6
Continuous
100
AcDbLine
 10
128.3657009999998
 20
85.10120899999998
 30
0.0
 11
198.972794
 21
85.10120899999998
 31
0.0
  0
LINE
  5
B521
330
B31D
100
AcDbEntity
  8
1
  6
Continuous
100
AcDbLine
 10
128.3657009999998
 20
64.10120899999999
 30
0.0
 11
198.972794
 21
64.10120899999999
 31
0.0
  0
ARC
  5
B522
330
B31D
100
AcDbEntity
  8
1
  6
Continuous
100
AcDbCircle
 10
141.169247
 20
74.60120899999998
 30
0.0
 40
60.0
100
AcDbArc
 50
351.1501169999998
 51
8.850930999999997
  0
ARC
  5
B523
330
B31D
100
AcDbEntity
  8
1
  6
Continuous
100
AcDbCircle
 10
198.972794
 20
65.601209
 30
0.0
 40
1.5
100
AcDbArc
 50
270.0
 51
351.1501169999998
  0
ARC
  5
B524
330
B31D
100
AcDbEntity
  8
1
  6
Continuous
100
AcDbCircle
 10
198.972794
 20
83.60120899999998
 30
0.0
 40
1.5
100
AcDbArc
 50
8.849883
 51
90.0
  0
LINE
  5
B525
330
B31D
100
AcDbEntity
  8
1
  6
Continuous
100
AcDbLine
 10
176.217023
 20
62.10120899999999
 30
0.0
 11
151.121472
 21
62.10120899999999
 31
0.0
  0
LINE
  5
B526
330
B31D
100
AcDbEntity
  8
1
  6
Continuous
100
AcDbLine
 10
145.0352729999998
 20
63.601209
 30
0.0
 11
182.3032219999998
 21
63.601209
 31
0.0
  0
LINE
  5
B527
330
B31D
100
AcDbEntity
  8
1
  6
Continuous
100
AcDbLine
 10
176.1051759999998
 20
61.990235
 30
0.0
 11
175.0145469999999
 21
60.101209
 31
0.0
  0
LINE
  5
B528
330
B31D
100
AcDbEntity
  8
1
  6
Continuous
100
AcDbLine
 10
175.0145469999999
 20
60.101209
 30
0.0
 11
152.3239479999998
 21
60.101209
 31
0.0
  0
LINE
  5
B529
330
B31D
100
AcDbEntity
  8
1
  6
Continuous
100
AcDbLine
 10
167.6692469999998
 20
58.092709
 30
0.0
 11
167.6692469999998
 21
60.101209
 31
0.0
  0
LINE
  5
B52A
330
B31D
100
AcDbEntity
  8
1
  6
Continuous
100
AcDbLine
 10
176.2937219999998
 20
62.131648
 30
0.0
 11
182.3032219999998
 21
63.601209
 31
0.0
  0
LINE
  5
B52B
330
B31D
100
AcDbEntity
  8
1
  6
Continuous
100
AcDbLine
 10
182.591897
 20
64.10120899999999
 30
0.0
 11
182.3032219999998
 21
63.601209
 31
0.0
  0
ARC
  5
B52C
330
B31D
100
AcDbEntity
  8
1
  6
Continuous
100
AcDbCircle
 10
176.364984
 20
61.840235
 30
0.0
 40
0.3
100
AcDbArc
 50
103.741415
 51
150.0
  0
LINE
  5
B52D
330
B31D
100
AcDbEntity
  8
1
  6
Continuous
100
AcDbLine
 10
151.2333179999999
 20
61.990235
 30
0.0
 11
152.3239479999998
 21
60.101209
 31
0.0
  0
LINE
  5
B52E
330
B31D
100
AcDbEntity
  8
1
  6
Continuous
100
AcDbLine
 10
159.6692469999998
 20
58.092709
 30
0.0
 11
159.6692469999998
 21
60.101209
 31
0.0
  0
LINE
  5
B52F
330
B31D
100
AcDbEntity
  8
1
  6
Continuous
100
AcDbLine
 10
151.0447729999999
 20
62.131648
 30
0.0
 11
145.0352729999998
 21
63.601209
 31
0.0
  0
ARC
  5
B530
330
B31D
100
AcDbEntity
  8
1
  6
Continuous
100
AcDbCircle
 10
150.973511
 20
61.840235
 30
0.0
 40
0.3
100
AcDbArc
 50
30.0
 51
76.25858499999998
  0
LINE
  5
B531
330
B31D
100
AcDbEntity
  8
1
  6
Continuous
100
AcDbLine
 10
144.746598
 20
64.10120899999999
 30
0.0
 11
145.0352729999998
 21
63.601209
 31
0.0
  0
LINE
  5
B532
330
B31D
100
AcDbEntity
  8
1
  6
Continuous
100
AcDbLine
 10
176.217023
 20
87.10120899999997
 30
0.0
 11
151.121472
 21
87.10120899999997
 31
0.0
  0
LINE
  5
B533
330
B31D
100
AcDbEntity
  8
1
  6
Continuous
100
AcDbLine
 10
145.0352729999998
 20
85.60120899999999
 30
0.0
 11
182.3032219999998
 21
85.60120899999999
 31
0.0
  0
LINE
  5
B534
330
B31D
100
AcDbEntity
  8
1
  6
Continuous
100
AcDbLine
 10
175.0145469999999
 20
89.10120899999999
 30
0.0
 11
152.3239479999998
 21
89.10120899999999
 31
0.0
  0
LINE
  5
B535
330
B31D
100
AcDbEntity
  8
1
  6
Continuous
100
AcDbLine
 10
182.591897
 20
85.10120899999998
 30
0.0
 11
182.3032219999998
 21
85.60120899999999
 31
0.0
  0
LINE
  5
B536
330
B31D
100
AcDbEntity
  8
1
  6
Continuous
100
AcDbLine
 10
176.2937219999998
 20
87.07076999999998
 30
0.0
 11
182.3032219999998
 21
85.60120899999999
 31
0.0
  0
ARC
  5
B537
330
B31D
100
AcDbEntity
  8
1
  6
Continuous
100
AcDbCircle
 10
176.364984
 20
87.362183
 30
0.0
 40
0.3
100
AcDbArc
 50
210.0
 51
256.258585
  0
LINE
  5
B538
330
B31D
100
AcDbEntity
  8
1
  6
Continuous
100
AcDbLine
 10
176.1051759999998
 20
87.21218299999998
 30
0.0
 11
175.0145469999999
 21
89.10120899999999
 31
0.0
  0
LINE
  5
B539
330
B31D
100
AcDbEntity
  8
1
  6
Continuous
100
AcDbLine
 10
167.6692469999998
 20
91.10970899999999
 30
0.0
 11
167.6692469999998
 21
89.10120899999999
 31
0.0
  0
LINE
  5
B53A
330
B31D
100
AcDbEntity
  8
1
  6
Continuous
100
AcDbLine
 10
151.2333179999999
 20
87.21218299999998
 30
0.0
 11
152.3239479999998
 21
89.10120899999999
 31
0.0
  0
LINE
  5
B53B
330
B31D
100
AcDbEntity
  8
1
  6
Continuous
100
AcDbLine
 10
159.6692469999998
 20
91.10970899999999
 30
0.0
 11
159.6692469999998
 21
89.10120899999999
 31
0.0
  0
LINE
  5
B53C
330
B31D
100
AcDbEntity
  8
1
  6
Continuous
100
AcDbLine
 10
144.746598
 20
85.10120899999998
 30
0.0
 11
145.0352729999998
 21
85.60120899999999
 31
0.0
  0
LINE
  5
B53D
330
B31D
100
AcDbEntity
  8
1
  6
Continuous
100
AcDbLine
 10
151.0447729999999
 20
87.07076999999998
 30
0.0
 11
145.0352729999998
 21
85.60120899999999
 31
0.0
  0
ARC
  5
B53E
330
B31D
100
AcDbEntity
  8
1
  6
Continuous
100
AcDbCircle
 10
150.973511
 20
87.362183
 30
0.0
 40
0.3
100
AcDbArc
 50
283.741415
 51
330.0
  0
ARC
  5
B53F
330
B31D
100
AcDbEntity
  8
1
  6
Continuous
100
AcDbCircle
 10
186.1692469999999
 20
74.60120899999998
 30
0.0
 40
60.0
100
AcDbArc
 50
171.1490689999999
 51
188.8498829999998
  0
ARC
  5
B540
330
B31D
100
AcDbEntity
  8
1
  6
Continuous
100
AcDbCircle
 10
128.3657
 20
65.601209
 30
0.0
 40
1.5
100
AcDbArc
 50
188.8498829999998
 51
270.0
  0
ARC
  5
B541
330
B31D
100
AcDbEntity
  8
1
  6
Continuous
100
AcDbCircle
 10
128.3657
 20
83.60120899999998
 30
0.0
 40
1.5
100
AcDbArc
 50
90.0
 51
171.150117
  0
LINE
  5
B542
330
B31D
100
AcDbEntity
  8
1
  6
Continuous
100
AcDbLine
 10
154.1529659999999
 20
326.996998
 30
0.0
 11
161.1273779999999
 21
326.996998
 31
0.0
  0
LINE
  5
B543
330
B31D
100
AcDbEntity
  8
1
  6
Continuous
100
AcDbLine
 10
155.6732629999999
 20
324.696998
 30
0.0
 11
168.634232
 21
324.696998
 31
0.0
  0
LINE
  5
B544
330
B31D
100
AcDbEntity
  8
1
  6
Continuous
100
AcDbLine
 10
159.6692469999998
 20
326.996998
 30
0.0
 11
159.6692469999998
 21
329.0054979999998
 31
0.0
  0
LINE
  5
B545
330
B31D
100
AcDbEntity
  8
1
  6
Continuous
100
AcDbLine
 10
153.4691719999998
 20
360.013998
 30
0.0
 11
161.1273779999999
 21
360.013998
 31
0.0
  0
LINE
  5
B546
330
B31D
100
AcDbEntity
  8
1
  6
Continuous
100
AcDbLine
 10
153.4691719999998
 20
362.313998
 30
0.0
 11
168.634232
 21
362.313998
 31
0.0
  0
LINE
  5
B547
330
B31D
100
AcDbEntity
  8
1
  6
Continuous
100
AcDbLine
 10
153.4691719999998
 20
362.313998
 30
0.0
 11
153.4691719999998
 21
360.013998
 31
0.0
  0
LINE
  5
B548
330
B31D
100
AcDbEntity
  8
1
  6
Continuous
100
AcDbLine
 10
159.6692469999998
 20
360.013998
 30
0.0
 11
159.6692469999998
 21
358.0054979999999
 31
0.0
  0
ARC
  5
B549
330
B31D
100
AcDbEntity
  8
1
  6
Continuous
100
AcDbCircle
 10
168.634232
 20
374.313998
 30
0.0
 40
12.0
100
AcDbArc
 50
270.0
 51
303.036175
  0
ARC
  5
B54A
330
B31D
100
AcDbEntity
  8
1
  6
Continuous
100
AcDbCircle
 10
168.634232
 20
312.696998
 30
0.0
 40
12.0
100
AcDbArc
 50
56.963825
 51
90.0
  0
ARC
  5
B54B
330
B31D
100
AcDbEntity
  8
1
  6
Continuous
100
AcDbCircle
 10
254.541998
 20
173.3686199999999
 30
0.0
 40
2.0
100
AcDbArc
 50
0.0
 51
90.00000300000001
  0
LINE
  5
B54C
330
B31D
100
AcDbEntity
  8
1
  6
Continuous
100
AcDbLine
 10
256.5419989999999
 20
167.234854
 30
0.0
 11
256.5419989999999
 21
175.8813899999999
 31
0.0
  0
ARC
  5
B54D
330
B31D
100
AcDbEntity
  8
1
  6
Continuous
100
AcDbCircle
 10
244.316164
 20
173.36838
 30
0.0
 40
2.0
100
AcDbArc
 50
90.00000300000001
 51
153.984946
  0
LINE
  5
B54E
330
B31D
100
AcDbEntity
  8
1
  6
Continuous
100
AcDbLine
 10
176.6529339999999
 20
187.7610559999999
 30
0.0
 11
191.1388609999999
 21
185.1488399999998
 31
0.0
  0
LINE
  5
B54F
330
B31D
100
AcDbEntity
  8
1
  6
Continuous
100
AcDbLine
 10
175.5805709999999
 20
186.3644899999999
 30
0.0
 11
190.895767
 21
183.690277
 31
0.0
  0
LINE
  5
B550
330
B31D
100
AcDbEntity
  8
1
  6
Continuous
100
AcDbLine
 10
148.246847
 20
190.1111649999998
 30
0.0
 11
146.2009159999998
 21
176.8126139999999
 31
0.0
  0
LINE
  5
B551
330
B31D
100
AcDbEntity
  8
1
  6
Continuous
100
AcDbLine
 10
144.2568889999998
 20
190.4823299999999
 30
0.0
 11
142.276979
 21
177.612927
 31
0.0
  0
LINE
  5
B552
330
B31D
100
AcDbEntity
  8
1
  6
Continuous
100
AcDbLine
 10
175.5805699999999
 20
186.3644899999999
 30
0.0
 11
173.3807969999998
 21
170.2306069999999
 31
0.0
  0
LINE
  5
B553
330
B31D
100
AcDbEntity
  8
1
  6
Continuous
100
AcDbLine
 10
172.177532
 20
188.065966
 30
0.0
 11
171.2156629999998
 21
181.0442049999998
 31
0.0
  0
LINE
  5
B554
330
B31D
100
AcDbEntity
  8
1
  6
Continuous
100
AcDbLine
 10
190.6526709999999
 20
181.2593379999999
 30
0.0
 11
191.3888809999999
 21
188.1306329999999
 31
0.0
  0
LINE
  5
B555
330
B31D
100
AcDbEntity
  8
5
  6
PHANTOM
100
AcDbLine
 10
169.4071549999999
 20
191.8050619999999
 30
0.0
 11
176.6728889999999
 21
177.232819
 31
0.0
  0
LINE
  5
B556
330
B31D
100
AcDbEntity
  8
5
  6
PHANTOM
100
AcDbLine
 10
165.636772
 20
191.295252
 30
0.0
 11
173.7173789999999
 21
175.0632009999999
 31
0.0
  0
ARC
  5
B557
330
B31D
100
AcDbEntity
  8
5
  6
PHANTOM
100
AcDbCircle
 10
170.07937
 20
168.6973889999999
 30
0.0
 40
23.117449
100
AcDbArc
 50
91.666292
 51
146.35693
  0
ARC
  5
B558
330
B31D
100
AcDbEntity
  8
1
  6
Continuous
100
AcDbCircle
 10
118.906812
 20
182.3715379999999
 30
0.0
 40
10.0
100
AcDbArc
 50
0.0
 51
54.06608699999999
  0
LINE
  5
B559
330
B31D
100
AcDbEntity
  8
1
  6
Continuous
100
AcDbLine
 10
85.34970300000003
 20
164.996805
 30
0.0
 11
85.34970300000003
 21
172.1433319999999
 31
0.0
  0
LINE
  5
B55A
330
B31D
100
AcDbEntity
  8
1
  6
Continuous
100
AcDbLine
 10
73.23433199999998
 20
190.224345
 30
0.0
 11
73.23433199999998
 21
177.5860749999999
 31
0.0
  0
LINE
  5
B55B
330
B31D
100
AcDbEntity
  8
1
  6
Continuous
100
AcDbLine
 10
80.28833199999999
 20
190.394845
 30
0.0
 11
80.28833199999999
 21
169.722375
 31
0.0
  0
ARC
  5
B55C
330
B31D
100
AcDbEntity
  8
5
  6
PHANTOM
100
AcDbCircle
 10
180.767948
 20
217.874464
 30
0.0
 40
36.516224
100
AcDbArc
 50
282.19776
 51
318.0241899999999
  0
LINE
  5
B55D
330
B31D
100
AcDbEntity
  8
1
  6
Continuous
100
AcDbLine
 10
71.969318
 20
178.769895
 30
0.0
 11
71.969318
 21
191.878855
 31
0.0
  0
ARC
  5
B55E
330
B31D
100
AcDbEntity
  8
1
  6
Continuous
100
AcDbCircle
 10
172.778996
 20
135.2357809999998
 30
0.0
 40
35.0
100
AcDbArc
 50
67.93276099999999
 51
98.30711100000002
  0
ARC
  5
B55F
330
B31D
100
AcDbEntity
  8
5
  6
PHANTOM
100
AcDbCircle
 10
195.8783679999999
 20
147.9727849999999
 30
0.0
 40
35.0
100
AcDbArc
 50
102.1977609999999
 51
132.572111
  0
ARC
  5
B560
330
B31D
100
AcDbEntity
  8
1
  6
Continuous
100
AcDbCircle
 10
174.8861439999998
 20
97.50035799999999
 30
0.0
 40
3.0
100
AcDbArc
 50
90.43150699999999
 51
142.65931
  0
ARC
  5
B561
330
B31D
100
AcDbEntity
  8
1
  6
Continuous
100
AcDbCircle
 10
171.83112
 20
96.40970500000001
 30
0.0
 40
3.0
100
AcDbArc
 50
270.0
 51
322.65931
  0
LINE
  5
B562
330
B31D
100
AcDbEntity
  8
1
  6
Continuous
100
AcDbLine
 10
171.7853499999999
 20
94.59004499999997
 30
0.0
 11
174.537746
 21
98.197761
 31
0.0
  0
LINE
  5
B563
330
B31D
100
AcDbEntity
  8
1
  6
Continuous
100
AcDbLine
 10
122.829476
 20
87.28557099999996
 30
0.0
 11
142.276978
 21
88.31182400000001
 31
0.0
  0
LINE
  5
B564
330
B31D
100
AcDbEntity
  8
1
  6
Continuous
100
AcDbLine
 10
122.950676
 20
84.98876499999999
 30
0.0
 11
144.265427
 21
86.113551
 31
0.0
  0
ARC
  5
B565
330
B31D
100
AcDbEntity
  8
1
  6
Continuous
100
AcDbCircle
 10
131.631604
 20
81.267787
 30
0.0
 40
20.17326399999999
100
AcDbArc
 50
75.699
 51
109.7464399999998
  0
LINE
  5
B566
330
B31D
100
AcDbEntity
  8
1
  6
Continuous
100
AcDbLine
 10
122.8294639999998
 20
97.43121999999999
 30
0.0
 11
122.8294639999998
 21
87.285579
 31
0.0
  0
LINE
  5
B567
330
B31D
100
AcDbEntity
  8
1
  6
Continuous
100
AcDbLine
 10
122.829476
 20
87.28557099999996
 30
0.0
 11
122.950676
 21
84.98876499999999
 31
0.0
  0
ARC
  5
B568
330
B31D
100
AcDbEntity
  8
1
  6
Continuous
100
AcDbCircle
 10
125.8294639999999
 20
97.43121999999999
 30
0.0
 40
3.0
100
AcDbArc
 50
109.7464399999998
 51
180.00001
  0
LINE
  5
B569
330
B31D
100
AcDbEntity
  8
1
  6
Continuous
100
AcDbLine
 10
138.8736689999998
 20
97.90888100000001
 30
0.0
 11
138.8736689999998
 21
88.132228
 31
0.0
  0
ARC
  5
B56A
330
B31D
100
AcDbEntity
  8
1
  6
Continuous
100
AcDbCircle
 10
135.873669
 20
97.90888100000001
 30
0.0
 40
3.0
100
AcDbArc
 50
0.0
 51
75.699
  0
LINE
  5
B56B
330
B31D
100
AcDbEntity
  8
1
  6
Continuous
100
AcDbLine
 10
147.7290459999998
 20
95.70970800000001
 30
0.0
 11
169.7466399999998
 21
95.70970800000001
 31
0.0
  0
LINE
  5
B56C
330
B31D
100
AcDbEntity
  8
1
  6
Continuous
100
AcDbLine
 10
147.609158
 20
93.409709
 30
0.0
 11
171.83112
 21
93.409709
 31
0.0
  0
LINE
  5
B56D
330
B31D
100
AcDbEntity
  8
1
  6
Continuous
100
AcDbLine
 10
147.6091669999999
 20
93.409717
 30
0.0
 11
144.35867
 21
87.327281
 31
0.0
  0
LINE
  5
B56E
330
B31D
100
AcDbEntity
  8
1
  6
Continuous
100
AcDbLine
 10
149.5332379999998
 20
93.409709
 30
0.0
 11
146.338578
 21
87.43176600000003
 31
0.0
  0
LINE
  5
B56F
330
B31D
100
AcDbEntity
  8
1
  6
Continuous
100
AcDbLine
 10
152.9126629999999
 20
89.233188
 30
0.0
 11
154.15304
 21
91.10970899999999
 31
0.0
  0
LINE
  5
B570
330
B31D
100
AcDbEntity
  8
1
  6
Continuous
100
AcDbLine
 10
149.790556
 20
93.409709
 30
0.0
 11
150.307825
 21
89.278361
 31
0.0
  0
ARC
  5
B571
330
B31D
100
AcDbEntity
  8
1
  6
Continuous
100
AcDbCircle
 10
144.133679
 20
88.61007200000001
 30
0.0
 40
2.5
100
AcDbArc
 50
273.02071
 51
331.8796199999999
  0
LINE
  5
B572
330
B31D
100
AcDbEntity
  8
1
  6
Continuous
100
AcDbLine
 10
150.307831
 20
89.278369
 30
0.0
 11
152.912657
 21
89.23319499999998
 31
0.0
  0
ARC
  5
B573
330
B31D
100
AcDbEntity
  8
1
  6
Continuous
100
AcDbCircle
 10
147.7290459999998
 20
93.209712
 30
0.0
 40
2.5
100
AcDbArc
 50
90.00000300000001
 51
151.87961
  0
LINE
  5
B574
330
B31D
100
AcDbEntity
  8
1
  6
Continuous
100
AcDbLine
 10
145.524153
 20
94.388026
 30
0.0
 11
142.2769849999999
 21
88.31182400000001
 31
0.0
  0
ARC
  5
B575
330
B31D
100
AcDbEntity
  8
1
  6
Continuous
100
AcDbCircle
 10
142.153767
 20
88.50559500000001
 30
0.0
 40
2.5
100
AcDbArc
 50
273.02071
 51
331.8796199999999
  0
ARC
  5
B576
330
B31D
100
AcDbEntity
  8
1
  6
Continuous
100
AcDbCircle
 10
169.400227
 20
96.40970500000001
 30
0.0
 40
3.0
100
AcDbArc
 50
270.0
 51
322.65931
  0
LINE
  5
B577
330
B31D
100
AcDbEntity
  8
1
  6
Continuous
100
AcDbLine
 10
169.7466389999999
 20
95.70970800000001
 30
0.0
 11
172.501016
 21
99.32002199999999
 31
0.0
  0
LINE
  5
B578
330
B31D
100
AcDbEntity
  8
1
  6
Continuous
100
AcDbLine
 10
86.78833199999997
 20
173.443645
 30
0.0
 11
95.27554700000001
 21
173.443645
 31
0.0
  0
LINE
  5
B579
330
B31D
100
AcDbEntity
  8
1
  6
Continuous
100
AcDbLine
 10
87.16829
 20
175.3686749999999
 30
0.0
 11
95.27554700000001
 21
175.3686749999999
 31
0.0
  0
LINE
  5
B57A
330
B31D
100
AcDbEntity
  8
1
  6
Continuous
100
AcDbLine
 10
85.34970300000003
 20
165.2349049999999
 30
0.0
 11
97.01344699999999
 21
165.2349049999999
 31
0.0
  0
ARC
  5
B57B
330
B31D
100
AcDbEntity
  8
1
  6
Continuous
100
AcDbCircle
 10
71.18280300000002
 20
178.564845
 30
0.0
 40
1.0
100
AcDbArc
 50
221.38382
 51
263.7504599999999
  0
LINE
  5
B57C
330
B31D
100
AcDbEntity
  8
1
  6
Continuous
100
AcDbLine
 10
69.66931399999999
 20
178.769895
 30
0.0
 11
71.969318
 21
178.769895
 31
0.0
  0
LINE
  5
B57D
330
B31D
100
AcDbEntity
  8
1
  6
Continuous
100
AcDbLine
 10
69.669321
 20
178.7698849999999
 30
0.0
 11
70.432502
 21
177.903735
 31
0.0
  0
LINE
  5
B57E
330
B31D
100
AcDbEntity
  8
1
  6
Continuous
100
AcDbLine
 10
83.0497
 20
164.996805
 30
0.0
 11
83.0497
 21
169.222375
 31
0.0
  0
LINE
  5
B57F
330
B31D
100
AcDbEntity
  8
1
  6
Continuous
100
AcDbLine
 10
77.98833000000001
 20
169.722375
 30
0.0
 11
84.34970300000001
 21
169.722375
 31
0.0
  0
ARC
  5
B580
330
B31D
100
AcDbEntity
  8
1
  6
Continuous
100
AcDbCircle
 10
77.48833000000002
 20
176.365365
 30
0.0
 40
0.5
100
AcDbArc
 50
0.000003
 51
83.75046000000002
  0
ARC
  5
B581
330
B31D
100
AcDbEntity
  8
1
  6
Continuous
100
AcDbCircle
 10
78.28833299999998
 20
175.020655
 30
0.0
 40
2.0
100
AcDbArc
 50
0.000003
 51
83.75046000000002
  0
LINE
  5
B582
330
B31D
100
AcDbEntity
  8
1
  6
Continuous
100
AcDbLine
 10
78.50604099999998
 20
177.008775
 30
0.0
 11
73.23433399999998
 21
177.5860749999999
 31
0.0
  0
LINE
  5
B583
330
B31D
100
AcDbEntity
  8
1
  6
Continuous
100
AcDbLine
 10
77.98833000000001
 20
169.722375
 30
0.0
 11
77.98833000000001
 21
176.365365
 31
0.0
  0
ARC
  5
B584
330
B31D
100
AcDbEntity
  8
1
  6
Continuous
100
AcDbCircle
 10
82.5497
 20
169.222375
 30
0.0
 40
0.5
100
AcDbArc
 50
0.000003
 51
90.00001000000002
  0
ARC
  5
B585
330
B31D
100
AcDbEntity
  8
1
  6
Continuous
100
AcDbCircle
 10
84.34970300000001
 20
168.722375
 30
0.0
 40
1.0
100
AcDbArc
 50
0.000003
 51
90.00001000000002
  0
LINE
  5
B586
330
B31D
100
AcDbEntity
  8
1
  6
Continuous
100
AcDbLine
 10
83.0497
 20
164.996805
 30
0.0
 11
85.34970300000003
 21
164.996805
 31
0.0
  0
LINE
  5
B587
330
B31D
100
AcDbEntity
  8
1
  6
Continuous
100
AcDbLine
 10
71.969326
 20
178.769895
 30
0.0
 11
73.23433799999998
 21
177.5860749999999
 31
0.0
  0
LINE
  5
B588
330
B31D
100
AcDbEntity
  8
1
  6
Continuous
100
AcDbLine
 10
77.54276199999998
 20
176.862395
 30
0.0
 11
71.073942
 21
177.570795
 31
0.0
  0
ARC
  5
B589
330
B31D
100
AcDbEntity
  8
1
  6
Continuous
100
AcDbCircle
 10
97.01344699999999
 20
166.2349049999999
 30
0.0
 40
1.0
100
AcDbArc
 50
270.0000039999998
 51
0.000003
  0
LWPOLYLINE
  5
B58A
330
B31D
100
AcDbEntity
  8
1
  6
Continuous
100
AcDbPolyline
 90
       17
 70
     0
 43
0.0
 10
97.99770700000001
 20
169.778625
 42
0.008513
 10
98.01039900000001
 20
170.0680949999998
 42
0.008476
 10
98.01323199999997
 20
170.3561249999999
 42
0.008462
 10
98.00631500000001
 20
170.6437349999999
 42
0.008423
 10
97.989729
 20
170.9302749999999
 42
0.008368
 10
97.963588
 20
171.215485
 42
0.00832
 10
97.92792900000002
 20
171.4997649999999
 42
0.008256
 10
97.882849
 20
171.782825
 42
0.008179
 10
97.82846800000001
 20
172.064355
 42
0.008088
 10
97.764932
 20
172.344085
 42
0.007986
 10
97.692408
 20
172.6217249999999
 42
0.007873
 10
97.611085
 20
172.897045
 42
0.00775
 10
97.521166
 20
173.1697849999999
 42
0.007619
 10
97.422871
 20
173.439725
 42
0.007481
 10
97.316432
 20
173.7066749999999
 42
0.007337
 10
97.20209199999999
 20
173.9704449999999
 42
0.007189
 10
97.080099
 20
174.2308549999999
  0
LWPOLYLINE
  5
B59D
330
B31D
100
AcDbEntity
  8
1
  6
Continuous
100
AcDbPolyline
 90
       17
 70
     0
 43
0.0
 10
97.99770700000001
 20
167.8535949999998
 42
0.008513
 10
98.01039900000001
 20
168.1430649999998
 42
0.008476
 10
98.01323199999997
 20
168.4310949999999
 42
0.008462
 10
98.00631500000001
 20
168.7187149999998
 42
0.008423
 10
97.989729
 20
169.005255
 42
0.008368
 10
97.963588
 20
169.290455
 42
0.00832
 10
97.92792900000002
 20
169.574745
 42
0.008256
 10
97.882849
 20
169.8577949999998
 42
0.008179
 10
97.82846800000001
 20
170.139335
 42
0.008088
 10
97.764932
 20
170.4190549999999
 42
0.007986
 10
97.692408
 20
170.696705
 42
0.007873
 10
97.611085
 20
170.972015
 42
0.00775
 10
97.521166
 20
171.244755
 42
0.007619
 10
97.422871
 20
171.5147049999998
 42
0.007481
 10
97.316432
 20
171.781655
 42
0.007337
 10
97.20209199999999
 20
172.0454149999999
 42
0.007189
 10
97.080099
 20
172.305825
  0
ARC
  5
B5B0
330
B31D
100
AcDbEntity
  8
1
  6
Continuous
100
AcDbCircle
 10
95.27554700000001
 20
173.368425
 30
0.0
 40
2.0
100
AcDbArc
 50
26.01504999999999
 51
89.99998999999998
  0
ARC
  5
B5B1
330
B31D
100
AcDbEntity
  8
1
  6
Continuous
100
AcDbCircle
 10
95.27554700000001
 20
171.443405
 30
0.0
 40
2.0
100
AcDbArc
 50
26.01504999999999
 51
89.99998999999998
  0
LINE
  5
B5B2
330
B31D
100
AcDbEntity
  8
1
  6
Continuous
100
AcDbLine
 10
98.01344700000001
 20
166.2349049999999
 30
0.0
 11
98.01344700000001
 21
170.2956649999999
 31
0.0
  0
LINE
  5
B5B3
330
B31D
100
AcDbEntity
  8
5
  6
PHANTOM
100
AcDbLine
 10
145.049074
 20
183.3810409999999
 30
0.0
 11
149.260178
 21
184.575049
 31
0.0
  0
LINE
  5
B5B4
330
B31D
100
AcDbEntity
  8
5
  6
PHANTOM
100
AcDbLine
 10
146.810971
 20
165.8217699999999
 30
0.0
 11
136.5983549999999
 21
160.2642089999999
 31
0.0
  0
LINE
  5
B5B5
330
B31D
100
AcDbEntity
  8
5
  6
PHANTOM
100
AcDbLine
 10
141.2015059999999
 20
177.5723209999999
 30
0.0
 11
146.8109719999999
 21
165.8217689999998
 31
0.0
  0
LINE
  5
B5B6
330
B31D
100
AcDbEntity
  8
5
  6
PHANTOM
100
AcDbLine
 10
136.4706399999998
 20
174.9552979999999
 30
0.0
 11
145.6569429999998
 21
180.036969
 31
0.0
  0
ARC
  5
B5B7
330
B31D
100
AcDbEntity
  8
1
  6
Continuous
100
AcDbCircle
 10
136.3005879999998
 20
129.4884439999999
 30
0.0
 40
48.348667
100
AcDbArc
 50
68.021608
 51
82.925914
  0
LINE
  5
B5B8
330
B31D
100
AcDbEntity
  8
5
  6
PHANTOM
100
AcDbLine
 10
144.70795
 20
179.512006
 30
0.0
 11
150.5044739999999
 21
167.3696159999998
 31
0.0
  0
LINE
  5
B5B9
330
B31D
100
AcDbEntity
  8
5
  6
PHANTOM
100
AcDbLine
 10
145.0490719999999
 20
183.3810419999998
 30
0.0
 11
145.6569429999998
 21
180.036969
 31
0.0
  0
ARC
  5
B5BA
330
B31D
100
AcDbEntity
  8
5
  6
PHANTOM
100
AcDbCircle
 10
124.8176759999999
 20
156.5965849999998
 30
0.0
 40
10.0
100
AcDbArc
 50
34.265
 51
88.33108699999998
  0
LINE
  5
B5BB
330
B31D
100
AcDbEntity
  8
5
  6
PHANTOM
100
AcDbLine
 10
133.0821
 20
162.226798
 30
0.0
 11
133.989475
 21
160.8948889999998
 31
0.0
  0
ARC
  5
B5BC
330
B31D
100
AcDbEntity
  8
5
  6
PHANTOM
100
AcDbCircle
 10
135.64236
 20
162.0209309999999
 30
0.0
 40
2.0
100
AcDbArc
 50
214.2649899999999
 51
298.55442
  0
ARC
  5
B5BD
330
B31D
100
AcDbEntity
  8
1
  6
Continuous
100
AcDbCircle
 10
130.906812
 20
180.75992
 30
0.0
 40
2.0
100
AcDbArc
 50
179.9999899999999
 51
264.28942
  0
LINE
  5
B5BE
330
B31D
100
AcDbEntity
  8
5
  6
PHANTOM
100
AcDbLine
 10
122.7067399999999
 20
166.662335
 30
0.0
 11
136.6244479999998
 21
174.348231
 31
0.0
  0
LINE
  5
B5BF
330
B31D
100
AcDbEntity
  8
5
  6
PHANTOM
100
AcDbLine
 10
121.594866
 20
168.6757289999999
 30
0.0
 11
135.512573
 21
176.361624
 31
0.0
  0
LINE
  5
B5C0
330
B31D
100
AcDbEntity
  8
5
  6
PHANTOM
100
AcDbLine
 10
122.706729
 20
166.6623379999998
 30
0.0
 11
125.1089209999999
 21
166.5923459999999
 31
0.0
  0
LINE
  5
B5C1
330
B31D
100
AcDbEntity
  8
5
  6
PHANTOM
100
AcDbLine
 10
121.594866
 20
168.6757289999999
 30
0.0
 11
122.7067399999999
 21
166.662335
 31
0.0
  0
LINE
  5
B5C2
330
B31D
100
AcDbEntity
  8
1
  6
Continuous
100
AcDbLine
 10
128.906812
 20
182.3715379999999
 30
0.0
 11
128.906812
 21
180.75992
 31
0.0
  0
LINE
  5
B5C3
330
B31D
100
AcDbEntity
  8
5
  6
PHANTOM
100
AcDbLine
 10
135.512573
 20
176.361624
 30
0.0
 11
136.6244479999998
 21
174.348231
 31
0.0
  0
LINE
  5
B5C4
330
B31D
100
AcDbEntity
  8
1
  6
Continuous
100
AcDbLine
 10
142.276979
 20
177.612929
 30
0.0
 11
130.7078149999999
 21
178.769845
 31
0.0
  0
ARC
  5
B5C5
330
B31D
100
AcDbEntity
  8
5
  6
PHANTOM
100
AcDbCircle
 10
160.806263
 20
160.1551179999999
 30
0.0
 40
10.0
100
AcDbArc
 50
85.29030400000001
 51
102.286608
  0
ARC
  5
B5C6
330
B31D
100
AcDbEntity
  8
1
  6
Continuous
100
AcDbCircle
 10
165.70863
 20
183.6592729999999
 30
0.0
 40
13.93694899999998
100
AcDbArc
 50
231.02531
 51
278.30711
  0
ARC
  5
B5C7
330
B31D
100
AcDbEntity
  8
1
  6
Continuous
100
AcDbCircle
 10
150.652835
 20
165.0501199999999
 30
0.0
 40
10.0
100
AcDbArc
 50
51.02530399999999
 51
68.021608
  0
ARC
  5
B5C8
330
B31D
100
AcDbEntity
  8
5
  6
PHANTOM
100
AcDbCircle
 10
168.9669389999999
 20
122.6848209999999
 30
0.0
 40
48.348667
100
AcDbArc
 50
102.286608
 51
117.1909139999999
  0
LINE
  5
B5C9
330
B31D
100
AcDbEntity
  8
5
  6
PHANTOM
100
AcDbLine
 10
149.260176
 20
184.5750519999999
 30
0.0
 11
150.8339789999999
 21
181.504858
 31
0.0
  0
ARC
  5
B5CA
330
B31D
100
AcDbEntity
  8
5
  6
PHANTOM
100
AcDbCircle
 10
162.77166
 20
184.011245
 30
0.0
 40
13.93694899999998
100
AcDbArc
 50
265.2903099999999
 51
312.57211
  0
ARC
  5
B5CB
330
B31D
100
AcDbEntity
  8
1
  6
Continuous
100
AcDbCircle
 10
206.03365
 20
93.56341099999999
 30
0.0
 40
19.871416
100
AcDbArc
 50
87.72556999999997
 51
102.7433999999998
  0
ARC
  5
B5CC
330
B31D
100
AcDbEntity
  8
1
  6
Continuous
100
AcDbCircle
 10
205.484219
 20
111.1784729999999
 30
0.0
 40
2.0
100
AcDbArc
 50
10.895189
 51
87.72556999999997
  0
LINE
  5
B5CD
330
B31D
100
AcDbEntity
  8
1
  6
Continuous
100
AcDbLine
 10
209.177838
 20
102.570388
 30
0.0
 11
197.677311
 21
100.672084
 31
0.0
  0
LINE
  5
B5CE
330
B31D
100
AcDbEntity
  8
1
  6
Continuous
100
AcDbLine
 10
174.863552
 20
100.500281
 30
0.0
 11
209.526051
 21
100.761336
 31
0.0
  0
LINE
  5
B5CF
330
B31D
100
AcDbEntity
  8
1
  6
Continuous
100
AcDbLine
 10
174.537744
 20
98.197761
 30
0.0
 11
208.844529
 21
98.456138
 31
0.0
  0
LINE
  5
B5D0
330
B31D
100
AcDbEntity
  8
1
  6
Continuous
100
AcDbLine
 10
197.677311
 20
100.672088
 30
0.0
 11
196.705904
 21
109.49705
 31
0.0
  0
LINE
  5
B5D1
330
B31D
100
AcDbEntity
  8
1
  6
Continuous
100
AcDbLine
 10
174.216249
 20
94.59004499999997
 30
0.0
 11
176.968636
 21
98.19775300000001
 31
0.0
  0
ARC
  5
B5D2
330
B31D
100
AcDbEntity
  8
1
  6
Continuous
100
AcDbCircle
 10
194.22395
 20
95.373496
 30
0.0
 40
1.0
100
AcDbArc
 50
269.00653
 51
351.24136
  0
ARC
  5
B5D3
330
B31D
100
AcDbEntity
  8
1
  6
Continuous
100
AcDbCircle
 10
193.2463419999999
 20
95.390449
 30
0.0
 40
1.0
100
AcDbArc
 50
206.71825
 51
351.24136
  0
LINE
  5
B5D4
330
B31D
100
AcDbEntity
  8
1
  6
Continuous
100
AcDbLine
 10
194.2066059999999
 20
94.37364499999999
 30
0.0
 11
193.229002
 21
94.39060500000001
 31
0.0
  0
LINE
  5
B5D5
330
B31D
100
AcDbEntity
  8
1
  6
Continuous
100
AcDbLine
 10
194.71407
 20
98.34971500000001
 30
0.0
 11
194.234681
 21
95.238185
 31
0.0
  0
LINE
  5
B5D6
330
B31D
100
AcDbEntity
  8
1
  6
Continuous
100
AcDbLine
 10
195.695425
 20
98.35710400000001
 30
0.0
 11
195.212283
 21
95.221225
 31
0.0
  0
LINE
  5
B5D7
330
B31D
100
AcDbEntity
  8
1
  6
Continuous
100
AcDbLine
 10
192.353117
 20
94.940852
 30
0.0
 11
190.652676
 21
98.319121
 31
0.0
  0
ARC
  5
B5D8
330
B31D
100
AcDbEntity
  8
1
  6
Continuous
100
AcDbCircle
 10
204.774975
 20
93.321132
 30
0.0
 40
19.871416
100
AcDbArc
 50
87.72556999999997
 51
108.7507699999999
  0
ARC
  5
B5D9
330
B31D
100
AcDbEntity
  8
1
  6
Continuous
100
AcDbCircle
 10
199.1908989999998
 20
109.770575
 30
0.0
 40
2.5
100
AcDbArc
 50
108.7507699999999
 51
186.2815399999998
  0
LINE
  5
B5DA
330
B31D
100
AcDbEntity
  8
1
  6
Continuous
100
AcDbLine
 10
210.817314
 20
100.8342889999999
 30
0.0
 11
208.7068449999999
 21
111.7987659999998
 31
0.0
  0
LINE
  5
B5DB
330
B31D
100
AcDbEntity
  8
1
  6
Continuous
100
AcDbLine
 10
209.5586359999999
 20
100.592013
 30
0.0
 11
207.448166
 21
111.556491
 31
0.0
  0
ARC
  5
B5DC
330
B31D
100
AcDbEntity
  8
1
  6
Continuous
100
AcDbCircle
 10
208.8294679999999
 20
100.4560769999999
 30
0.0
 40
2.0
100
AcDbArc
 50
270.43151
 51
0.0
  0
LINE
  5
B5DD
330
B31D
100
AcDbEntity
  8
1
  6
Continuous
100
AcDbLine
 10
210.8294679999999
 20
100.77114
 30
0.0
 11
210.8294679999999
 21
100.4560769999999
 31
0.0
  0
ARC
  5
B5DE
330
B31D
100
AcDbEntity
  8
1
  6
Continuous
100
AcDbCircle
 10
206.742894
 20
111.420737
 30
0.0
 40
2.0
100
AcDbArc
 50
10.895189
 51
87.72556999999997
  0
LINE
  5
B5DF
330
B31D
100
AcDbEntity
  8
1
  6
Continuous
100
AcDbLine
 10
197.0162479999999
 20
173.4435949999999
 30
0.0
 11
209.5707909999999
 21
165.234854
 31
0.0
  0
LINE
  5
B5E0
330
B31D
100
AcDbEntity
  8
1
  6
Continuous
100
AcDbLine
 10
198.2749229999998
 20
175.368627
 30
0.0
 11
210.829469
 21
167.159886
 31
0.0
  0
LINE
  5
B5E1
330
B31D
100
AcDbEntity
  8
1
  6
Continuous
100
AcDbLine
 10
190.6526709999999
 20
181.259334
 30
0.0
 11
193.2664289999999
 21
181.7820859999999
 31
0.0
  0
ARC
  5
B5E2
330
B31D
100
AcDbEntity
  8
1
  6
Continuous
100
AcDbCircle
 10
199.6472389999999
 20
201.5129799999999
 30
0.0
 40
36.516224
100
AcDbArc
 50
247.93276
 51
283.7591899999998
  0
LINE
  5
B5E3
330
B31D
100
AcDbEntity
  8
1
  6
Continuous
100
AcDbLine
 10
198.2749229999998
 20
175.368627
 30
0.0
 11
197.0162479999999
 21
173.4435949999999
 31
0.0
  0
LINE
  5
B5E4
330
B31D
100
AcDbEntity
  8
1
  6
Continuous
100
AcDbLine
 10
194.9229689999999
 20
179.0902039999998
 30
0.0
 11
194.0559879999999
 21
175.911272
 31
0.0
  0
LINE
  5
B5E5
330
B31D
100
AcDbEntity
  8
1
  6
Continuous
100
AcDbLine
 10
194.542177
 20
174.938896
 30
0.0
 11
195.025045
 21
174.525009
 31
0.0
  0
LINE
  5
B5E6
330
B31D
100
AcDbEntity
  8
1
  6
Continuous
100
AcDbLine
 10
194.5421749999999
 20
174.938894
 30
0.0
 11
194.021533
 21
175.7849359999999
 31
0.0
  0
LINE
  5
B5E7
330
B31D
100
AcDbEntity
  8
1
  6
Continuous
100
AcDbLine
 10
194.922971
 20
179.090207
 30
0.0
 11
193.2664289999999
 21
181.782087
 31
0.0
  0
ARC
  5
B5E8
330
B31D
100
AcDbEntity
  8
1
  6
Continuous
100
AcDbCircle
 10
196.326625
 20
176.04352
 30
0.0
 40
2.0
100
AcDbArc
 50
229.39871
 51
326.8214899999999
  0
LINE
  5
B5E9
330
B31D
100
AcDbEntity
  8
1
  6
Continuous
100
AcDbLine
 10
210.829469
 20
167.159886
 30
0.0
 11
209.5707909999999
 21
165.234854
 31
0.0
  0
LINE
  5
B5EA
330
B31D
100
AcDbEntity
  8
1
  6
Continuous
100
AcDbLine
 10
254.541998
 20
167.1598799999999
 30
0.0
 11
242.5782569999999
 21
167.1598799999999
 31
0.0
  0
LINE
  5
B5EB
330
B31D
100
AcDbEntity
  8
1
  6
Continuous
100
AcDbLine
 10
254.541998
 20
165.234854
 30
0.0
 11
242.5782569999999
 21
165.234854
 31
0.0
  0
LWPOLYLINE
  5
B5EC
330
B31D
100
AcDbEntity
  8
1
  6
Continuous
100
AcDbPolyline
 90
       17
 70
     0
 43
0.0
 10
242.5184129999999
 20
174.2447799999999
 42
0.007202
 10
242.3956779999998
 20
173.98381
 42
0.007353
 10
242.2805929999999
 20
173.71939
 42
0.0075
 10
242.173416
 20
173.45167
 42
0.007642
 10
242.074397
 20
173.1808299999999
 42
0.007777
 10
241.9837779999999
 20
172.90707
 42
0.007904
 10
241.9017899999999
 20
172.6306199999999
 42
0.008021
 10
241.828649
 20
172.3517
 42
0.008128
 10
241.7645549999999
 20
172.07057
 42
0.008223
 10
241.70969
 20
171.7875
 42
0.008305
 10
241.664211
 20
171.50278
 42
0.008372
 10
241.628254
 20
171.2166999999998
 42
0.008424
 10
241.601927
 20
170.9295799999999
 42
0.008485
 10
241.5852759999999
 20
170.6409199999999
 42
0.008499
 10
241.5784449999999
 20
170.3520799999998
 42
0.008455
 10
241.581394
 20
170.06475
 42
0.008453
 10
241.5940729999999
 20
169.77732
  0
LINE
  5
B5FF
330
B31D
100
AcDbEntity
  8
1
  6
Continuous
100
AcDbLine
 10
241.5782569999998
 20
166.234854
 30
0.0
 11
241.5782569999998
 21
170.29561
 31
0.0
  0
ARC
  5
B600
330
B31D
100
AcDbEntity
  8
1
  6
Continuous
100
AcDbCircle
 10
242.5782569999999
 20
168.1598799999999
 30
0.0
 40
1.0
100
AcDbArc
 50
180.0000029999999
 51
269.9999899999999
  0
ARC
  5
B601
330
B31D
100
AcDbEntity
  8
1
  6
Continuous
100
AcDbCircle
 10
242.5782569999999
 20
166.234854
 30
0.0
 40
1.0
100
AcDbArc
 50
180.0000029999999
 51
269.9999899999999
  0
LINE
  5
B602
330
B31D
100
AcDbEntity
  8
1
  6
Continuous
100
AcDbLine
 10
261.594875
 20
169.7223199999999
 30
0.0
 11
256.5419989999999
 21
169.7223199999999
 31
0.0
  0
ARC
  5
B603
330
B31D
100
AcDbEntity
  8
1
  6
Continuous
100
AcDbCircle
 10
254.541998
 20
167.234854
 30
0.0
 40
2.0
100
AcDbArc
 50
269.9999899999999
 51
0.0
  0
ARC
  5
B604
330
B31D
100
AcDbEntity
  8
1
  6
Continuous
100
AcDbCircle
 10
254.541998
 20
165.1598799999999
 30
0.0
 40
2.0
100
AcDbArc
 50
53.52021999999998
 51
90.00000300000001
  0
LINE
  5
B605
330
B31D
100
AcDbEntity
  8
1
  6
Continuous
100
AcDbLine
 10
174.8634779999999
 20
317.6064289999998
 30
0.0
 11
176.965293
 21
317.590598
 31
0.0
  0
LINE
  5
B606
330
B31D
100
AcDbEntity
  8
1
  6
Continuous
100
AcDbLine
 10
174.472051
 20
323.181265
 30
0.0
 11
176.9826099999999
 21
319.8905369999998
 31
0.0
  0
LINE
  5
B607
330
B31D
100
AcDbEntity
  8
1
  6
Continuous
100
AcDbLine
 10
172.1774579999998
 20
322.396999
 30
0.0
 11
175.094547
 21
318.5734089999999
 31
0.0
  0
LINE
  5
B608
330
B31D
100
AcDbEntity
  8
1
  6
Continuous
100
AcDbLine
 10
175.5805709999999
 20
186.364482
 30
0.0
 11
177.9448399999999
 21
189.443531
 31
0.0
  0
ARC
  5
B609
330
B31D
100
AcDbEntity
  8
1
  6
Continuous
100
AcDbCircle
 10
179.433415
 20
188.708086
 30
0.0
 40
2.5
100
AcDbArc
 50
82.23483599999999
 51
154.97845
  0
LINE
  5
B60A
330
B31D
100
AcDbEntity
  8
5
  6
PHANTOM
100
AcDbLine
 10
169.5071049999999
 20
193.5630079999999
 30
0.0
 11
182.949623
 21
199.560047
 31
0.0
  0
LINE
  5
B60B
330
B31D
100
AcDbEntity
  8
5
  6
PHANTOM
100
AcDbLine
 10
169.4071549999999
 20
191.8050639999999
 30
0.0
 11
183.5699209999999
 21
198.217762
 31
0.0
  0
LINE
  5
B60C
330
B31D
100
AcDbEntity
  8
5
  6
PHANTOM
100
AcDbLine
 10
180.069476
 20
201.7085459999999
 30
0.0
 11
170.4366139999999
 21
196.905813
 31
0.0
  0
LINE
  5
B60D
330
B31D
100
AcDbEntity
  8
5
  6
PHANTOM
100
AcDbLine
 10
179.4855619999999
 20
202.799837
 30
0.0
 11
170.156326
 21
198.1484859999999
 31
0.0
  0
LINE
  5
B60E
330
B31D
100
AcDbEntity
  8
1
  6
Continuous
100
AcDbLine
 10
150.5357419999999
 20
327.634841
 30
0.0
 11
149.6862449999999
 21
323.9479479999999
 31
0.0
  0
LINE
  5
B60F
330
B31D
100
AcDbEntity
  8
1
  6
Continuous
100
AcDbLine
 10
153.3903249999999
 20
328.150768
 30
0.0
 11
156.304031
 21
323.742732
 31
0.0
  0
LINE
  5
B610
330
B31D
100
AcDbEntity
  8
1
  6
Continuous
100
AcDbLine
 10
147.448147
 20
323.718685
 30
0.0
 11
144.2568129999999
 21
329.690406
 31
0.0
  0
LINE
  5
B611
330
B31D
100
AcDbEntity
  8
1
  6
Continuous
100
AcDbLine
 10
145.524074
 20
323.7186879999998
 30
0.0
 11
142.276907
 21
329.794887
 31
0.0
  0
LINE
  5
B612
330
B31D
100
AcDbEntity
  8
1
  6
Continuous
100
AcDbLine
 10
138.8735939999999
 20
320.1978259999999
 30
0.0
 11
138.8735939999999
 21
332.2776789999999
 31
0.0
  0
LINE
  5
B613
330
B31D
100
AcDbEntity
  8
1
  6
Continuous
100
AcDbLine
 10
122.8293889999999
 20
320.675491
 30
0.0
 11
122.8293889999999
 21
330.8211319999998
 31
0.0
  0
ARC
  5
B614
330
B31D
100
AcDbEntity
  8
1
  6
Continuous
100
AcDbCircle
 10
71.669315
 20
192.168825
 30
0.0
 40
2.0
100
AcDbArc
 50
90.00001000000002
 51
180.0
  0
LINE
  5
B615
330
B31D
100
AcDbEntity
  8
1
  6
Continuous
100
AcDbLine
 10
80.28832599999999
 20
188.066025
 30
0.0
 11
85.34971099999998
 21
186.3645449999999
 31
0.0
  0
LINE
  5
B616
330
B31D
100
AcDbEntity
  8
1
  6
Continuous
100
AcDbLine
 10
75.920856
 20
190.394845
 30
0.0
 11
85.35508900000001
 21
190.394845
 31
0.0
  0
LINE
  5
B617
330
B31D
100
AcDbEntity
  8
1
  6
Continuous
100
AcDbLine
 10
77.98833000000001
 20
190.394845
 30
0.0
 11
77.98833000000001
 21
190.260585
 31
0.0
  0
LINE
  5
B618
330
B31D
100
AcDbEntity
  8
1
  6
Continuous
100
AcDbLine
 10
75.920855
 20
190.394845
 30
0.0
 11
80.28833399999998
 21
190.1112149999999
 31
0.0
  0
ARC
  5
B619
330
B31D
100
AcDbEntity
  8
1
  6
Continuous
100
AcDbCircle
 10
85.35508900000001
 20
190.894845
 30
0.0
 40
0.5
100
AcDbArc
 50
270.0
 51
0.000003
  0
ARC
  5
B61A
330
B31D
100
AcDbEntity
  8
1
  6
Continuous
100
AcDbCircle
 10
85.026842
 20
193.6688249999999
 30
0.0
 40
0.5
100
AcDbArc
 50
24.29733999999999
 51
90.00001000000002
  0
ARC
  5
B61B
330
B31D
100
AcDbEntity
  8
1
  6
Continuous
100
AcDbCircle
 10
85.55508600000001
 20
192.984805
 30
0.0
 40
0.3
100
AcDbArc
 50
0.000003
 51
24.29733999999999
  0
ARC
  5
B61C
330
B31D
100
AcDbEntity
  8
1
  6
Continuous
100
AcDbCircle
 10
85.026842
 20
191.3788549999999
 30
0.0
 40
0.5
100
AcDbArc
 50
24.29733999999999
 51
90.00001000000002
  0
LINE
  5
B61D
330
B31D
100
AcDbEntity
  8
1
  6
Continuous
100
AcDbLine
 10
86.16165200000002
 20
190.843105
 30
0.0
 11
85.96739599999997
 21
188.349165
 31
0.0
  0
LINE
  5
B61E
330
B31D
100
AcDbEntity
  8
1
  6
Continuous
100
AcDbLine
 10
83.74288599999998
 20
190.394845
 30
0.0
 11
83.14648100000002
 21
187.105195
 31
0.0
  0
LINE
  5
B61F
330
B31D
100
AcDbEntity
  8
1
  6
Continuous
100
AcDbLine
 10
86.16165200000002
 20
190.843105
 30
0.0
 11
85.349699
 21
186.3645449999999
 31
0.0
  0
LINE
  5
B620
330
B31D
100
AcDbEntity
  8
1
  6
Continuous
100
AcDbLine
 10
85.026842
 20
193.691255
 30
0.0
 11
85.026842
 21
192.2111649999999
 31
0.0
  0
LINE
  5
B621
330
B31D
100
AcDbEntity
  8
1
  6
Continuous
100
AcDbLine
 10
85.48254799999998
 20
193.8745549999999
 30
0.0
 11
85.82850999999998
 21
193.1082449999999
 31
0.0
  0
LINE
  5
B622
330
B31D
100
AcDbEntity
  8
1
  6
Continuous
100
AcDbLine
 10
85.855089
 20
192.984805
 30
0.0
 11
85.855089
 21
190.894845
 31
0.0
  0
LINE
  5
B623
330
B31D
100
AcDbEntity
  8
1
  6
Continuous
100
AcDbLine
 10
85.50081500000002
 20
191.5441549999999
 30
0.0
 11
85.786612
 21
190.9111049999999
 31
0.0
  0
LINE
  5
B624
330
B31D
100
AcDbEntity
  8
1
  6
Continuous
100
AcDbLine
 10
85.85508199999997
 20
190.898695
 30
0.0
 11
86.16165200000002
 21
190.843105
 31
0.0
  0
LINE
  5
B625
330
B31D
100
AcDbEntity
  8
1
  6
Continuous
100
AcDbLine
 10
85.96739799999998
 20
188.349185
 30
0.0
 11
85.541449
 21
185.9997389999998
 31
0.0
  0
LINE
  5
B626
330
B31D
100
AcDbEntity
  8
1
  6
Continuous
100
AcDbLine
 10
71.969318
 20
191.878855
 30
0.0
 11
85.026842
 21
191.878855
 31
0.0
  0
LINE
  5
B627
330
B31D
100
AcDbEntity
  8
1
  6
Continuous
100
AcDbLine
 10
71.669315
 20
194.168825
 30
0.0
 11
85.026842
 21
194.168825
 31
0.0
  0
LINE
  5
B628
330
B31D
100
AcDbEntity
  8
1
  6
Continuous
100
AcDbLine
 10
71.969318
 20
190.394845
 30
0.0
 11
75.920856
 21
190.394845
 31
0.0
  0
LINE
  5
B629
330
B31D
100
AcDbEntity
  8
1
  6
Continuous
100
AcDbLine
 10
138.873662
 20
190.98309
 30
0.0
 11
149.326701
 21
190.0107139999999
 31
0.0
  0
LINE
  5
B62A
330
B31D
100
AcDbEntity
  8
1
  6
Continuous
100
AcDbLine
 10
122.8294769999999
 20
191.8788029999998
 30
0.0
 11
138.658983
 21
190.394787
 31
0.0
  0
LINE
  5
B62B
330
B31D
100
AcDbEntity
  8
1
  6
Continuous
100
AcDbLine
 10
123.04416
 20
194.168766
 30
0.0
 11
138.8736659999999
 21
192.684749
 31
0.0
  0
LINE
  5
B62C
330
B31D
100
AcDbEntity
  8
1
  6
Continuous
100
AcDbLine
 10
122.829469
 20
191.878812
 30
0.0
 11
124.775335
 21
190.4684819999999
 31
0.0
  0
LINE
  5
B62D
330
B31D
100
AcDbEntity
  8
1
  6
Continuous
100
AcDbLine
 10
123.04416
 20
194.168766
 30
0.0
 11
122.8294769999999
 21
191.8788029999998
 31
0.0
  0
LINE
  5
B62E
330
B31D
100
AcDbEntity
  8
1
  6
Continuous
100
AcDbLine
 10
138.8736659999999
 20
192.684749
 30
0.0
 11
138.658983
 21
190.394787
 31
0.0
  0
ARC
  5
B62F
330
B31D
100
AcDbEntity
  8
1
  6
Continuous
100
AcDbCircle
 10
163.1260039999999
 20
166.8888579999999
 30
0.0
 40
23.117449
100
AcDbArc
 50
57.40129200000001
 51
112.09193
  0
LINE
  5
B630
330
B31D
100
AcDbEntity
  8
1
  6
Continuous
100
AcDbLine
 10
150.7071149999999
 20
193.1166419999999
 30
0.0
 11
149.326701
 21
190.0107129999999
 31
0.0
  0
LINE
  5
B631
330
B31D
100
AcDbEntity
  8
1
  6
Continuous
100
AcDbLine
 10
150.7071159999999
 20
193.1166389999999
 30
0.0
 11
154.8596029999998
 21
191.732477
 31
0.0
  0
LINE
  5
B632
330
B31D
100
AcDbEntity
  8
1
  6
Continuous
100
AcDbLine
 10
154.8596029999998
 20
191.732481
 30
0.0
 11
154.431676
 21
188.309058
 31
0.0
  0
LINE
  5
B633
330
B31D
100
AcDbEntity
  8
1
  6
Continuous
100
AcDbLine
 10
177.1680419999999
 20
189.765485
 30
0.0
 11
175.5805729999999
 21
186.3644889999999
 31
0.0
  0
ARC
  5
B634
330
B31D
100
AcDbEntity
  8
5
  6
PHANTOM
100
AcDbCircle
 10
171.2718139999998
 20
195.911144
 30
0.0
 40
2.5
100
AcDbArc
 50
116.499836
 51
189.24345
  0
ARC
  5
B635
330
B31D
100
AcDbEntity
  8
5
  6
PHANTOM
100
AcDbCircle
 10
171.088778
 20
195.597769
 30
0.0
 40
1.463619999999998
100
AcDbArc
 50
117.476027
 51
172.6321699999999
  0
LINE
  5
B636
330
B31D
100
AcDbEntity
  8
5
  6
PHANTOM
100
AcDbLine
 10
169.40716
 20
191.805057
 30
0.0
 11
169.6275219999999
 21
195.680847
 31
0.0
  0
LINE
  5
B637
330
B31D
100
AcDbEntity
  8
5
  6
PHANTOM
100
AcDbLine
 10
168.8042759999999
 20
195.509569
 30
0.0
 11
169.407158
 21
191.8050629999999
 31
0.0
  0
ARC
  5
B638
330
B31D
100
AcDbEntity
  8
1
  6
Continuous
100
AcDbCircle
 10
131.631529
 20
336.8389119999998
 30
0.0
 40
20.17326399999999
100
AcDbArc
 50
250.2535599999999
 51
284.3009999999998
  0
ARC
  5
B639
330
B31D
100
AcDbEntity
  8
1
  6
Continuous
100
AcDbCircle
 10
125.829389
 20
320.675491
 30
0.0
 40
3.0
100
AcDbArc
 50
179.9999899999999
 51
250.25357
  0
ARC
  5
B63A
330
B31D
100
AcDbEntity
  8
1
  6
Continuous
100
AcDbCircle
 10
135.873594
 20
320.1978259999999
 30
0.0
 40
3.0
100
AcDbArc
 50
284.3009999999998
 51
0.0
  0
LINE
  5
B63B
330
B31D
100
AcDbEntity
  8
1
  6
Continuous
100
AcDbLine
 10
147.7289709999998
 20
322.396999
 30
0.0
 11
172.1774579999998
 21
322.396999
 31
0.0
  0
ARC
  5
B63C
330
B31D
100
AcDbEntity
  8
1
  6
Continuous
100
AcDbCircle
 10
147.73731
 20
324.396999
 30
0.0
 40
2.0
100
AcDbArc
 50
296.80124
 51
347.0249299999999
  0
ARC
  5
B63D
330
B31D
100
AcDbEntity
  8
1
  6
Continuous
100
AcDbCircle
 10
158.8067069999999
 20
325.3969989999999
 30
0.0
 40
3.0
100
AcDbArc
 50
213.4646599999999
 51
270.0
  0
ARC
  5
B63E
330
B31D
100
AcDbEntity
  8
1
  6
Continuous
100
AcDbCircle
 10
149.6530429999999
 20
324.8969989999999
 30
0.0
 40
2.5
100
AcDbArc
 50
208.1203899999999
 51
270.0
  0
ARC
  5
B63F
330
B31D
100
AcDbEntity
  8
1
  6
Continuous
100
AcDbCircle
 10
147.7289709999998
 20
324.8969989999999
 30
0.0
 40
2.5
100
AcDbArc
 50
208.1203899999999
 51
270.0
  0
ARC
  5
B640
330
B31D
100
AcDbEntity
  8
1
  6
Continuous
100
AcDbCircle
 10
174.8860689999999
 20
320.6063459999999
 30
0.0
 40
3.0
100
AcDbArc
 50
217.3406899999999
 51
269.5684899999998
  0
LINE
  5
B641
330
B31D
100
AcDbEntity
  8
1
  6
Continuous
100
AcDbLine
 10
170.669172
 20
321.1876839999998
 30
0.0
 11
172.500941
 21
318.7866819999999
 31
0.0
  0
LINE
  5
B642
330
B31D
100
AcDbEntity
  8
1
  6
Continuous
100
AcDbLine
 10
138.8735939999999
 20
329.9744789999999
 30
0.0
 11
144.2568179999998
 21
329.690406
 31
0.0
  0
LINE
  5
B643
330
B31D
100
AcDbEntity
  8
1
  6
Continuous
100
AcDbLine
 10
124.934793
 20
333.013236
 30
0.0
 11
144.2653479999998
 21
331.9931599999998
 31
0.0
  0
ARC
  5
B644
330
B31D
100
AcDbEntity
  8
1
  6
Continuous
100
AcDbCircle
 10
124.829389
 20
331.01601
 30
0.0
 40
2.0
100
AcDbArc
 50
86.97929000000002
 51
180.00001
  0
LINE
  5
B645
330
B31D
100
AcDbEntity
  8
1
  6
Continuous
100
AcDbLine
 10
150.0343169999998
 20
327.6855199999999
 30
0.0
 11
149.402197
 21
324.9420579999999
 31
0.0
  0
LINE
  5
B646
330
B31D
100
AcDbEntity
  8
1
  6
Continuous
100
AcDbLine
 10
149.402199
 20
324.942062
 30
0.0
 11
146.3385029999998
 21
330.6749449999998
 31
0.0
  0
ARC
  5
B647
330
B31D
100
AcDbEntity
  8
1
  6
Continuous
100
AcDbCircle
 10
151.4960229999998
 20
327.3487279999999
 30
0.0
 40
1.5
100
AcDbArc
 50
90.99346699999999
 51
167.02493
  0
ARC
  5
B648
330
B31D
100
AcDbEntity
  8
1
  6
Continuous
100
AcDbCircle
 10
152.0737049999999
 20
327.280479
 30
0.0
 40
1.578255999999999
100
AcDbArc
 50
33.464662
 51
167.02493
  0
LINE
  5
B649
330
B31D
100
AcDbEntity
  8
1
  6
Continuous
100
AcDbLine
 10
151.470009
 20
328.8485059999998
 30
0.0
 11
152.0463389999999
 21
328.8585009999998
 31
0.0
  0
ARC
  5
B64A
330
B31D
100
AcDbEntity
  8
1
  6
Continuous
100
AcDbCircle
 10
144.1336039999999
 20
329.4966269999998
 30
0.0
 40
2.5
100
AcDbArc
 50
28.120384
 51
86.97929000000002
  0
LINE
  5
B64B
330
B31D
100
AcDbEntity
  8
5
  6
PHANTOM
100
AcDbLine
 10
194.397247
 20
193.195431
 30
0.0
 11
209.39455
 21
193.479855
 31
0.0
  0
LINE
  5
B64C
330
B31D
100
AcDbEntity
  8
5
  6
PHANTOM
100
AcDbLine
 10
194.353635
 20
195.4950199999999
 30
0.0
 11
209.3509399999998
 21
195.7794449999999
 31
0.0
  0
ARC
  5
B64D
330
B31D
100
AcDbEntity
  8
5
  6
PHANTOM
100
AcDbCircle
 10
192.3634999999999
 20
194.955847
 30
0.0
 40
2.0
100
AcDbArc
 50
263.6637099999999
 51
1.086489999999999
  0
LINE
  5
B64E
330
B31D
100
AcDbEntity
  8
1
  6
Continuous
100
AcDbLine
 10
189.9682359999999
 20
188.5460349999999
 30
0.0
 11
179.30319
 21
190.000359
 31
0.0
  0
LINE
  5
B64F
330
B31D
100
AcDbEntity
  8
1
  6
Continuous
100
AcDbLine
 10
190.100085
 20
189.77668
 30
0.0
 11
179.7711989999999
 21
191.1851639999999
 31
0.0
  0
ARC
  5
B650
330
B31D
100
AcDbEntity
  8
1
  6
Continuous
100
AcDbCircle
 10
189.7655679999998
 20
187.0597939999999
 30
0.0
 40
1.5
100
AcDbArc
 50
353.8845
 51
82.23483599999999
  0
ARC
  5
B651
330
B31D
100
AcDbEntity
  8
1
  6
Continuous
100
AcDbCircle
 10
189.8974189999999
 20
188.2904299999999
 30
0.0
 40
1.5
100
AcDbArc
 50
353.8845
 51
82.23483599999999
  0
LINE
  5
B652
330
B31D
100
AcDbEntity
  8
5
  6
PHANTOM
100
AcDbLine
 10
184.7376869999999
 20
196.0718629999998
 30
0.0
 11
181.477437
 21
202.1650939999999
 31
0.0
  0
LINE
  5
B653
330
B31D
100
AcDbEntity
  8
5
  6
PHANTOM
100
AcDbLine
 10
189.488111
 20
196.6834669999999
 30
0.0
 11
190.561408
 21
193.568135
 31
0.0
  0
LINE
  5
B654
330
B31D
100
AcDbEntity
  8
5
  6
PHANTOM
100
AcDbLine
 10
191.510683
 20
193.0382569999999
 30
0.0
 11
192.1427729999998
 21
192.9680679999999
 31
0.0
  0
LINE
  5
B655
330
B31D
100
AcDbEntity
  8
5
  6
PHANTOM
100
AcDbLine
 10
191.510683
 20
193.0382529999999
 30
0.0
 11
190.6040619999999
 21
193.4443259999999
 31
0.0
  0
LINE
  5
B656
330
B31D
100
AcDbEntity
  8
5
  6
PHANTOM
100
AcDbLine
 10
184.7376889999999
 20
196.0718599999999
 30
0.0
 11
186.60349
 21
197.9754849999999
 31
0.0
  0
LINE
  5
B657
330
B31D
100
AcDbEntity
  8
5
  6
PHANTOM
100
AcDbLine
 10
189.488111
 20
196.683471
 30
0.0
 11
186.6034889999999
 21
197.9754859999999
 31
0.0
  0
ARC
  5
B658
330
B31D
100
AcDbEntity
  8
5
  6
PHANTOM
100
AcDbCircle
 10
180.7387679999999
 20
200.3661469999999
 30
0.0
 40
1.5
100
AcDbArc
 50
28.14949999999999
 51
116.499836
  0
ARC
  5
B659
330
B31D
100
AcDbEntity
  8
5
  6
PHANTOM
100
AcDbCircle
 10
180.15486
 20
201.457433
 30
0.0
 40
1.5
100
AcDbArc
 50
28.14949999999999
 51
116.499836
  0
ARC
  5
B65A
330
B31D
100
AcDbEntity
  8
1
  6
Continuous
100
AcDbCircle
 10
179.1057099999999
 20
188.552153
 30
0.0
 40
1.463619999999998
100
AcDbArc
 50
83.211027
 51
138.3671699999998
  0
LINE
  5
B65B
330
B31D
100
AcDbEntity
  8
5
  6
PHANTOM
100
AcDbLine
 10
194.353635
 20
195.4950199999999
 30
0.0
 11
194.397247
 21
193.195431
 31
0.0
  0
LINE
  5
B65C
330
B31D
100
AcDbEntity
  8
5
  6
PHANTOM
100
AcDbLine
 10
209.3509399999998
 20
195.7794449999999
 30
0.0
 11
209.39455
 21
193.479855
 31
0.0
  0
LINE
  5
B65D
330
B31D
100
AcDbEntity
  8
1
  6
Continuous
100
AcDbLine
 10
195.6953479999999
 20
319.7496029999999
 30
0.0
 11
208.844454
 21
319.650573
 31
0.0
  0
ARC
  5
B65E
330
B31D
100
AcDbEntity
  8
1
  6
Continuous
100
AcDbCircle
 10
206.742819
 20
306.685962
 30
0.0
 40
2.0
100
AcDbArc
 50
272.27443
 51
349.1048099999999
  0
ARC
  5
B65F
330
B31D
100
AcDbEntity
  8
1
  6
Continuous
100
AcDbCircle
 10
190.138426
 20
317.279807
 30
0.0
 40
0.7
100
AcDbArc
 50
269.5684899999998
 51
359.56849
  0
ARC
  5
B660
330
B31D
100
AcDbEntity
  8
1
  6
Continuous
100
AcDbCircle
 10
189.2528969999999
 20
319.4981149999999
 30
0.0
 40
2.0
100
AcDbArc
 50
322.8040899999998
 51
333.2817499999998
  0
LINE
  5
B661
330
B31D
100
AcDbEntity
  8
1
  6
Continuous
100
AcDbLine
 10
190.839998
 20
317.486106
 30
0.0
 11
197.677236
 21
317.434612
 31
0.0
  0
ARC
  5
B662
330
B31D
100
AcDbEntity
  8
1
  6
Continuous
100
AcDbCircle
 10
178.7361429999999
 20
318.6657169999999
 30
0.0
 40
2.0
100
AcDbArc
 50
226.3771699999999
 51
269.5684899999998
  0
ARC
  5
B663
330
B31D
100
AcDbEntity
  8
1
  6
Continuous
100
AcDbCircle
 10
178.753462
 20
320.9656519999999
 30
0.0
 40
2.0
100
AcDbArc
 50
226.3771699999999
 51
269.5684899999998
  0
LINE
  5
B664
330
B31D
100
AcDbEntity
  8
1
  6
Continuous
100
AcDbLine
 10
176.982607
 20
319.890533
 30
0.0
 11
176.9652859999999
 21
317.5906019999998
 31
0.0
  0
LINE
  5
B665
330
B31D
100
AcDbEntity
  8
1
  6
Continuous
100
AcDbLine
 10
176.9652869999999
 20
317.5906019999998
 30
0.0
 11
177.356325
 21
317.2179249999999
 31
0.0
  0
LINE
  5
B666
330
B31D
100
AcDbEntity
  8
1
  6
Continuous
100
AcDbLine
 10
176.982608
 20
319.8905369999998
 30
0.0
 11
177.373646
 21
319.5178599999999
 31
0.0
  0
LINE
  5
B667
330
B31D
100
AcDbEntity
  8
1
  6
Continuous
100
AcDbLine
 10
190.8502829999999
 20
318.8517909999998
 30
0.0
 11
190.838405
 21
317.2745319999999
 31
0.0
  0
LINE
  5
B668
330
B31D
100
AcDbEntity
  8
1
  6
Continuous
100
AcDbLine
 10
178.738403
 20
318.965709
 30
0.0
 11
185.891707
 21
318.911836
 31
0.0
  0
LINE
  5
B669
330
B31D
100
AcDbEntity
  8
1
  6
Continuous
100
AcDbLine
 10
178.7210809999999
 20
316.6657709999999
 30
0.0
 11
190.1331479999998
 21
316.5798259999998
 31
0.0
  0
LINE
  5
B66A
330
B31D
100
AcDbEntity
  8
1
  6
Continuous
100
AcDbLine
 10
176.9826149999999
 20
319.890533
 30
0.0
 11
181.366045
 21
319.85752
 31
0.0
  0
ARC
  5
B66B
330
B31D
100
AcDbEntity
  8
1
  6
Continuous
100
AcDbCircle
 10
177.0821589999999
 20
320.08979
 30
0.0
 40
2.5
100
AcDbArc
 50
217.3406899999999
 51
269.5684899999998
  0
ARC
  5
B66C
330
B31D
100
AcDbEntity
  8
1
  6
Continuous
100
AcDbCircle
 10
197.0032399999998
 20
317.7396959999999
 30
0.0
 40
2.0
100
AcDbArc
 50
353.7184599999998
 51
89.568492
  0
ARC
  5
B66D
330
B31D
100
AcDbEntity
  8
1
  6
Continuous
100
AcDbCircle
 10
196.908857
 20
318.4404289999998
 30
0.0
 40
1.0
100
AcDbArc
 50
188.75863
 51
269.5684899999998
  0
LINE
  5
B66E
330
B31D
100
AcDbEntity
  8
1
  6
Continuous
100
AcDbLine
 10
197.677232
 20
317.434612
 30
0.0
 11
196.705827
 21
308.609664
 31
0.0
  0
LINE
  5
B66F
330
B31D
100
AcDbEntity
  8
1
  6
Continuous
100
AcDbLine
 10
198.935909
 20
317.192344
 30
0.0
 11
197.964502
 21
308.3673909999999
 31
0.0
  0
ARC
  5
B670
330
B31D
100
AcDbEntity
  8
1
  6
Continuous
100
AcDbCircle
 10
206.033575
 20
324.543296
 30
0.0
 40
19.871416
100
AcDbArc
 50
257.2566
 51
272.27443
  0
ARC
  5
B671
330
B31D
100
AcDbEntity
  8
1
  6
Continuous
100
AcDbCircle
 10
199.1908239999999
 20
308.3361299999999
 30
0.0
 40
2.5
100
AcDbArc
 50
173.7184599999999
 51
251.24922
  0
ARC
  5
B672
330
B31D
100
AcDbEntity
  8
1
  6
Continuous
100
AcDbCircle
 10
200.4494949999999
 20
308.093858
 30
0.0
 40
2.5
100
AcDbArc
 50
173.7184599999999
 51
251.24922
  0
ARC
  5
B673
330
B31D
100
AcDbEntity
  8
1
  6
Continuous
100
AcDbCircle
 10
204.7749
 20
324.785571
 30
0.0
 40
19.871416
100
AcDbArc
 50
251.24923
 51
260.95302
  0
LINE
  5
B674
330
B31D
100
AcDbEntity
  8
1
  6
Continuous
100
AcDbLine
 10
195.920515
 20
318.288158
 30
0.0
 11
195.691792
 21
319.772708
 31
0.0
  0
LINE
  5
B675
330
B31D
100
AcDbEntity
  8
1
  6
Continuous
100
AcDbLine
 10
191.1825819999999
 20
318.883449
 30
0.0
 11
191.0393599999999
 21
318.5989109999998
 31
0.0
  0
ARC
  5
B676
330
B31D
100
AcDbEntity
  8
1
  6
Continuous
100
AcDbCircle
 10
208.8293929999999
 20
317.6506299999999
 30
0.0
 40
2.0
100
AcDbArc
 50
0.0
 51
89.568492
  0
LINE
  5
B677
330
B31D
100
AcDbEntity
  8
1
  6
Continuous
100
AcDbLine
 10
210.817239
 20
317.272422
 30
0.0
 11
208.7067699999999
 21
306.3079329999998
 31
0.0
  0
LINE
  5
B678
330
B31D
100
AcDbEntity
  8
1
  6
Continuous
100
AcDbLine
 10
210.829393
 20
317.3355589999999
 30
0.0
 11
210.829393
 21
317.6506299999999
 31
0.0
  0
LINE
  5
B679
330
B31D
100
AcDbEntity
  8
1
  6
Continuous
100
AcDbLine
 10
254.999131
 20
177.42015
 30
0.0
 11
259.209704
 21
178.47432
 31
0.0
  0
LINE
  5
B67A
330
B31D
100
AcDbEntity
  8
1
  6
Continuous
100
AcDbLine
 10
255.6533759999998
 20
192.6847399999998
 30
0.0
 11
254.03662
 21
192.6847399999998
 31
0.0
  0
LINE
  5
B67B
330
B31D
100
AcDbEntity
  8
1
  6
Continuous
100
AcDbLine
 10
255.685785
 20
190.39479
 30
0.0
 11
255.5909189999999
 21
190.39479
 31
0.0
  0
LINE
  5
B67C
330
B31D
100
AcDbEntity
  8
1
  6
Continuous
100
AcDbLine
 10
259.946723
 20
181.7681289999999
 30
0.0
 11
255.241999
 21
181.7681289999999
 31
0.0
  0
LINE
  5
B67D
330
B31D
100
AcDbEntity
  8
1
  6
Continuous
100
AcDbLine
 10
255.6533759999998
 20
194.16876
 30
0.0
 11
254.564864
 21
194.16876
 31
0.0
  0
LINE
  5
B67E
330
B31D
100
AcDbEntity
  8
1
  6
Continuous
100
AcDbLine
 10
256.421192
 20
175.85115
 30
0.0
 11
259.2097069999999
 21
176.54928
 31
0.0
  0
LINE
  5
B67F
330
B31D
100
AcDbEntity
  8
1
  6
Continuous
100
AcDbLine
 10
255.4434699999999
 20
191.20808
 30
0.0
 11
256.5419989999999
 21
185.1488299999998
 31
0.0
  0
LINE
  5
B680
330
B31D
100
AcDbEntity
  8
1
  6
Continuous
100
AcDbLine
 10
254.1091479999999
 20
193.8744899999998
 30
0.0
 11
253.7631879999999
 21
193.10818
 31
0.0
  0
LINE
  5
B681
330
B31D
100
AcDbEntity
  8
1
  6
Continuous
100
AcDbLine
 10
253.180363
 20
190.7977799999999
 30
0.0
 11
254.2045059999999
 21
185.1488299999998
 31
0.0
  0
ARC
  5
B682
330
B31D
100
AcDbEntity
  8
1
  6
Continuous
100
AcDbCircle
 10
255.241999
 20
176.4500899999999
 30
0.0
 40
1.0
100
AcDbArc
 50
104.055767
 51
180.0000029999999
  0
LINE
  5
B683
330
B31D
100
AcDbEntity
  8
1
  6
Continuous
100
AcDbLine
 10
255.326741
 20
189.5050699999999
 30
0.0
 11
253.825589
 21
189.23292
 31
0.0
  0
LINE
  5
B684
330
B31D
100
AcDbEntity
  8
1
  6
Continuous
100
AcDbLine
 10
253.7366169999998
 20
192.9847399999999
 30
0.0
 11
253.7366169999998
 21
190.89863
 31
0.0
  0
ARC
  5
B685
330
B31D
100
AcDbEntity
  8
1
  6
Continuous
100
AcDbCircle
 10
254.03662
 20
192.9847399999999
 30
0.0
 40
0.3
100
AcDbArc
 50
155.7026559999999
 51
270.00001
  0
LINE
  5
B686
330
B31D
100
AcDbEntity
  8
1
  6
Continuous
100
AcDbLine
 10
255.4434699999999
 20
191.20808
 30
0.0
 11
253.180363
 21
190.7977799999999
 31
0.0
  0
ARC
  5
B687
330
B31D
100
AcDbEntity
  8
1
  6
Continuous
100
AcDbCircle
 10
254.564864
 20
193.6687599999999
 30
0.0
 40
0.5
100
AcDbArc
 50
90.00000300000001
 51
155.7026559999999
  0
LINE
  5
B688
330
B31D
100
AcDbEntity
  8
1
  6
Continuous
100
AcDbLine
 10
256.5419989999999
 20
181.7681289999999
 30
0.0
 11
256.5419989999999
 21
185.1488299999998
 31
0.0
  0
ARC
  5
B689
330
B31D
100
AcDbEntity
  8
1
  6
Continuous
100
AcDbCircle
 10
255.241999
 20
182.7681289999999
 30
0.0
 40
1.0
100
AcDbArc
 50
180.0
 51
270.0
  0
LINE
  5
B68A
330
B31D
100
AcDbEntity
  8
1
  6
Continuous
100
AcDbLine
 10
254.2419989999999
 20
175.3686199999999
 30
0.0
 11
254.2419989999999
 21
185.1488299999998
 31
0.0
  0
LINE
  5
B68B
330
B31D
100
AcDbEntity
  8
1
  6
Continuous
100
AcDbLine
 10
254.541998
 20
175.3686199999999
 30
0.0
 11
244.316164
 21
175.3686199999999
 31
0.0
  0
LINE
  5
B68C
330
B31D
100
AcDbEntity
  8
1
  6
Continuous
100
AcDbLine
 10
254.541998
 20
175.3686199999999
 30
0.0
 11
244.316164
 21
175.3686199999999
 31
0.0
  0
LINE
  5
B68D
330
B31D
100
AcDbEntity
  8
1
  6
Continuous
100
AcDbLine
 10
260.639579
 20
180.3063099999999
 30
0.0
 11
260.639579
 21
178.3812799999998
 31
0.0
  0
ARC
  5
B68E
330
B31D
100
AcDbEntity
  8
1
  6
Continuous
100
AcDbCircle
 10
258.7510449999999
 20
180.3063099999999
 30
0.0
 40
1.888533999999999
100
AcDbArc
 50
284.05577
 51
50.71895000000001
  0
ARC
  5
B68F
330
B31D
100
AcDbEntity
  8
1
  6
Continuous
100
AcDbCircle
 10
258.7510449999999
 20
178.3812799999998
 30
0.0
 40
1.888533999999999
100
AcDbArc
 50
284.05577
 51
0.0
  0
CIRCLE
  5
B690
330
B31D
100
AcDbEntity
  8
2
  6
Continuous
100
AcDbCircle
 10
163.6692469999998
 20
179.0714899999999
 30
0.0
 40
3.3235
  0
CIRCLE
  5
B691
330
B31D
100
AcDbEntity
  8
1
  6
Continuous
100
AcDbCircle
 10
163.6692469999998
 20
179.0714899999999
 30
0.0
 40
4.0
  0
CIRCLE
  5
B692
330
B31D
100
AcDbEntity
  8
1
  6
Continuous
100
AcDbCircle
 10
163.6692469999998
 20
179.0714899999999
 30
0.0
 40
6.0
  0
LINE
  5
B693
330
B31D
100
AcDbEntity
  8
1
  6
Continuous
100
AcDbLine
 10
169.6692469999999
 20
182.5355909999999
 30
0.0
 11
169.6692469999999
 21
175.6073879999999
 31
0.0
  0
LINE
  5
B694
330
B31D
100
AcDbEntity
  8
1
  6
Continuous
100
AcDbLine
 10
157.6692469999999
 20
182.5355909999999
 30
0.0
 11
157.6692469999999
 21
175.6073879999999
 31
0.0
  0
LINE
  5
B695
330
B31D
100
AcDbEntity
  8
1
  6
Continuous
100
AcDbLine
 10
163.6692469999998
 20
172.1432859999999
 30
0.0
 11
169.6692469999999
 21
175.6073879999999
 31
0.0
  0
LINE
  5
B696
330
B31D
100
AcDbEntity
  8
1
  6
Continuous
100
AcDbLine
 10
163.6692469999998
 20
172.1432859999999
 30
0.0
 11
157.6692469999999
 21
175.6073879999999
 31
0.0
  0
LINE
  5
B697
330
B31D
100
AcDbEntity
  8
1
  6
Continuous
100
AcDbLine
 10
169.6692469999999
 20
182.5355909999999
 30
0.0
 11
163.6692469999998
 21
185.9996929999999
 31
0.0
  0
LINE
  5
B698
330
B31D
100
AcDbEntity
  8
1
  6
Continuous
100
AcDbLine
 10
157.6692469999999
 20
182.5355909999999
 30
0.0
 11
163.6692469999998
 21
185.9996929999999
 31
0.0
  0
ARC
  5
B699
330
B31D
100
AcDbEntity
  8
1
  6
Continuous
100
AcDbCircle
 10
302.9534019999999
 20
192.8360409999999
 30
0.0
 40
45.0
100
AcDbArc
 50
199.536031
 51
206.322889
  0
ARC
  5
B69A
330
B31D
100
AcDbEntity
  8
1
  6
Continuous
100
AcDbCircle
 10
300.615904
 20
192.9016589999999
 30
0.0
 40
45.0
100
AcDbArc
 50
201.469657
 51
206.964022
  0
ARC
  5
B69B
330
B31D
100
AcDbEntity
  8
1
  6
Continuous
100
AcDbCircle
 10
251.5948759999999
 20
167.962959
 30
0.0
 40
10.0
100
AcDbArc
 50
0.0
 51
26.96402199999999
  0
ARC
  5
B69C
330
B31D
100
AcDbEntity
  8
1
  6
Continuous
100
AcDbCircle
 10
267.642402
 20
191.7672269999999
 30
0.0
 40
0.3
100
AcDbArc
 50
300.0
 51
346.2585849999999
  0
LINE
  5
B69D
330
B31D
100
AcDbEntity
  8
1
  6
Continuous
100
AcDbLine
 10
78.01316099999998
 20
169.722375
 30
0.0
 11
78.01316099999998
 21
167.571535
 31
0.0
  0
LINE
  5
B69E
330
B31D
100
AcDbEntity
  8
1
  6
Continuous
100
AcDbLine
 10
75.713161
 20
177.062755
 30
0.0
 11
75.713161
 21
167.571535
 31
0.0
  0
LINE
  5
B69F
330
B31D
100
AcDbEntity
  8
1
  6
Continuous
100
AcDbLine
 10
70.204661
 20
178.162316
 30
0.0
 11
70.204661
 21
160.43756
 31
0.0
  0
ARC
  5
B6A0
330
B31D
100
AcDbEntity
  8
1
  6
Continuous
100
AcDbCircle
 10
188.6691719999998
 20
74.60120899999998
 30
0.0
 40
24.75
100
AcDbArc
 50
107.162077
 51
123.0361749999999
  0
ARC
  5
B6A1
330
B31D
100
AcDbEntity
  8
1
  6
Continuous
100
AcDbCircle
 10
188.6691719999998
 20
74.60120899999998
 30
0.0
 40
22.45
100
AcDbArc
 50
83.08227399999998
 51
123.0361749999999
  0
ARC
  5
B6A2
330
B31D
100
AcDbEntity
  8
1
  6
Continuous
100
AcDbCircle
 10
188.6691719999998
 20
74.60120899999998
 30
0.0
 40
20.44999999999999
100
AcDbArc
 50
79.08535
 51
134.8426149999999
  0
LINE
  5
B6A3
330
B31D
100
AcDbEntity
  8
1
  6
Continuous
100
AcDbLine
 10
170.407163
 20
175.142051
 30
0.0
 11
169.716697
 21
170.101558
 31
0.0
  0
LINE
  5
B6A4
330
B31D
100
AcDbEntity
  8
1
  6
Continuous
100
AcDbLine
 10
85.34970300000003
 20
185.9997389999998
 30
0.0
 11
85.34970300000003
 21
186.3645449999999
 31
0.0
  0
LINE
  5
B6A5
330
B31D
100
AcDbEntity
  8
1
  6
Continuous
100
AcDbLine
 10
170.669172
 20
364.6402359999998
 30
0.0
 11
170.669172
 21
362.313998
 31
0.0
  0
LINE
  5
B6A6
330
B31D
100
AcDbEntity
  8
1
  6
Continuous
100
AcDbLine
 10
156.669172
 20
364.6402359999998
 30
0.0
 11
170.669172
 21
364.6402359999998
 31
0.0
  0
ARC
  5
B6A7
330
B31D
100
AcDbEntity
  8
1
  6
Continuous
100
AcDbCircle
 10
163.6691719999998
 20
356.8139980000001
 30
0.0
 40
10.5
100
AcDbArc
 50
48.189685
 51
131.810315
  0
LINE
  5
B6A8
330
B31D
100
AcDbEntity
  8
1
  6
Continuous
100
AcDbLine
 10
156.669172
 20
364.6402359999998
 30
0.0
 11
156.669172
 21
362.313998
 31
0.0
  0
LINE
  5
B6A9
330
B31D
100
AcDbEntity
  8
1
  6
Continuous
100
AcDbLine
 10
38.06992299999999
 20
186.071535
 30
0.0
 11
38.06992299999999
 21
172.071535
 31
0.0
  0
ARC
  5
B6AA
330
B31D
100
AcDbEntity
  8
1
  6
Continuous
100
AcDbCircle
 10
45.89616099999999
 20
179.071535
 30
0.0
 40
10.5
100
AcDbArc
 50
138.1896849999999
 51
221.810315
  0
LINE
  5
B6AB
330
B31D
100
AcDbEntity
  8
1
  6
Continuous
100
AcDbLine
 10
38.06992299999999
 20
172.071535
 30
0.0
 11
40.39616099999999
 21
172.071535
 31
0.0
  0
LINE
  5
B6AC
330
B31D
100
AcDbEntity
  8
1
  6
Continuous
100
AcDbLine
 10
38.06992299999999
 20
186.071535
 30
0.0
 11
40.39616099999999
 21
186.071535
 31
0.0
  0
LINE
  5
B6AD
330
B31D
100
AcDbEntity
  8
1
  6
Continuous
100
AcDbLine
 10
156.6692469999999
 20
53.466471
 30
0.0
 11
156.6692469999999
 21
55.792709
 31
0.0
  0
ARC
  5
B6AE
330
B31D
100
AcDbEntity
  8
1
  6
Continuous
100
AcDbCircle
 10
163.6692469999998
 20
61.29270899999998
 30
0.0
 40
10.5
100
AcDbArc
 50
228.1896849999998
 51
311.810315
  0
LINE
  5
B6AF
330
B31D
100
AcDbEntity
  8
1
  6
Continuous
100
AcDbLine
 10
156.6692469999999
 20
53.466471
 30
0.0
 11
170.6692469999999
 21
53.466471
 31
0.0
  0
LINE
  5
B6B0
330
B31D
100
AcDbEntity
  8
1
  6
Continuous
100
AcDbLine
 10
170.6692469999999
 20
53.466471
 30
0.0
 11
170.6692469999999
 21
55.618896
 31
0.0
  0
ARC
  5
B6B1
330
B31D
100
AcDbEntity
  8
1
  6
Continuous
100
AcDbCircle
 10
293.7118759999999
 20
179.0714899999999
 30
0.0
 40
10.5
100
AcDbArc
 50
318.189685
 51
15.61096599999999
  0
LINE
  5
B6B2
330
B31D
100
AcDbEntity
  8
1
  6
Continuous
100
AcDbLine
 10
301.538114
 20
175.1420539999998
 30
0.0
 11
301.538114
 21
172.0714899999999
 31
0.0
  0
LINE
  5
B6B3
330
B31D
100
AcDbEntity
  8
1
  6
Continuous
100
AcDbLine
 10
301.538114
 20
172.0714899999999
 30
0.0
 11
300.09486
 21
172.0714899999999
 31
0.0
  0
LINE
  5
B6B4
330
B31D
100
AcDbEntity
  8
5
  6
PHANTOM
100
AcDbLine
 10
439.2118849999998
 20
168.6757289999999
 30
0.0
 11
433.8887759999998
 21
171.615355
 31
0.0
  0
ARC
  5
B6B5
330
B31D
100
AcDbEntity
  8
1
  6
Continuous
100
AcDbCircle
 10
397.1375039999998
 20
179.0714899999999
 30
0.0
 40
37.5
100
AcDbArc
 50
137.903804
 51
82.60460999999997
  0
ARC
  5
B6B6
330
B31D
100
AcDbEntity
  8
1
  6
Continuous
100
AcDbCircle
 10
397.1375039999998
 20
179.0714899999999
 30
0.0
 40
19.5
100
AcDbArc
 50
155.210272
 51
66.597493
  0
ARC
  5
B6B7
330
B31D
100
AcDbEntity
  8
1
  6
Continuous
100
AcDbCircle
 10
397.1375039999998
 20
179.0714899999999
 30
0.0
 40
28.0
100
AcDbArc
 50
143.9862819999999
 51
76.94200499999998
  0
ARC
  5
B6B8
330
B31D
100
AcDbEntity
  8
1
  6
Continuous
100
AcDbCircle
 10
397.1375039999998
 20
179.0714899999999
 30
0.0
 40
12.5
100
AcDbArc
 50
182.5877099999999
 51
42.83294699999999
  0
LINE
  5
B6B9
330
B31D
100
AcDbEntity
  8
1
  6
Continuous
100
AcDbLine
 10
363.80281
 20
213.442232
 30
0.0
 11
388.150128
 21
172.64221
 31
0.0
  0
ARC
  5
B6BA
330
B31D
100
AcDbEntity
  8
1
  6
Continuous
100
AcDbCircle
 10
397.1375039999998
 20
178.0714899999999
 30
0.0
 40
10.5
100
AcDbArc
 50
211.136199
 51
9.004619999999997
  0
LINE
  5
B6BB
330
B31D
100
AcDbEntity
  8
4
  6
CENTER
100
AcDbLine
 10
397.1375039999998
 20
136.5714899999999
 30
0.0
 11
397.1375039999998
 21
219.57149
 31
0.0
  0
ARC
  5
B6BC
330
B31D
100
AcDbEntity
  8
5
  6
PHANTOM
100
AcDbCircle
 10
435.9890749999998
 20
156.5965849999998
 30
0.0
 40
10.0
100
AcDbArc
 50
91.66891300000001
 51
112.0485399999999
  0
LINE
  5
B6BD
330
B31D
100
AcDbEntity
  8
5
  6
PHANTOM
100
AcDbLine
 10
438.1000219999998
 20
166.6623379999998
 30
0.0
 11
435.6978299999998
 21
166.5923459999999
 31
0.0
  0
LINE
  5
B6BE
330
B31D
100
AcDbEntity
  8
5
  6
PHANTOM
100
AcDbLine
 10
439.2118849999998
 20
168.6757289999999
 30
0.0
 11
438.100011
 21
166.662335
 31
0.0
  0
ARC
  5
B6BF
330
B31D
100
AcDbEntity
  8
1
  6
Continuous
100
AcDbCircle
 10
361.159512
 20
201.5129799999999
 30
0.0
 40
36.516224
100
AcDbArc
 50
256.24081
 51
271.901066
  0
LINE
  5
B6C0
330
B31D
100
AcDbEntity
  8
1
  6
Continuous
100
AcDbLine
 10
352.4744359999999
 20
166.044626
 30
0.0
 11
351.2359599999999
 21
165.234854
 31
0.0
  0
LINE
  5
B6C1
330
B31D
100
AcDbEntity
  8
1
  6
Continuous
100
AcDbLine
 10
360.0203739999998
 20
173.726523
 30
0.0
 11
349.977282
 21
167.159886
 31
0.0
  0
LINE
  5
B6C2
330
B31D
100
AcDbEntity
  8
1
  6
Continuous
100
AcDbLine
 10
349.977282
 20
167.159886
 30
0.0
 11
351.2359599999999
 21
165.234854
 31
0.0
  0
ARC
  5
B6C3
330
B31D
100
AcDbEntity
  8
1
  6
Continuous
100
AcDbCircle
 10
441.8999389999998
 20
182.3715379999999
 30
0.0
 40
10.0
100
AcDbArc
 50
125.9339129999998
 51
146.3135399999998
  0
LINE
  5
B6C4
330
B31D
100
AcDbEntity
  8
1
  6
Continuous
100
AcDbLine
 10
437.7625909999999
 20
194.168766
 30
0.0
 11
431.7082759999998
 21
193.6011729999999
 31
0.0
  0
LINE
  5
B6C5
330
B31D
100
AcDbEntity
  8
4
  6
CENTER
100
AcDbLine
 10
354.637504
 20
179.0714899999999
 30
0.0
 11
439.6375039999998
 21
179.0714899999999
 31
0.0
  0
LINE
  5
B6C6
330
B31D
100
AcDbEntity
  8
1
  6
Continuous
100
AcDbLine
 10
437.7625909999999
 20
194.168766
 30
0.0
 11
437.9772739999999
 21
191.8788029999998
 31
0.0
  0
LINE
  5
B6C7
330
B31D
100
AcDbEntity
  8
1
  6
Continuous
100
AcDbLine
 10
437.977282
 20
191.878812
 30
0.0
 11
436.0314159999998
 21
190.4684819999999
 31
0.0
  0
LINE
  5
B6C8
330
B31D
100
AcDbEntity
  8
1
  6
Continuous
100
AcDbLine
 10
362.6375089999998
 20
237.571816
 30
0.0
 11
362.6375089999998
 21
270.471816
 31
0.0
  0
LINE
  5
B6C9
330
B31D
100
AcDbEntity
  8
1
  6
Continuous
100
AcDbLine
 10
381.6375089999998
 20
270.471816
 30
0.0
 11
381.6375089999998
 21
237.571816
 31
0.0
  0
LINE
  5
B6CA
330
B31D
100
AcDbEntity
  8
4
  6
CENTER
100
AcDbLine
 10
372.1375039999998
 20
281.571816
 30
0.0
 11
372.1375039999998
 21
206.763602
 31
0.0
  0
ARC
  5
B6CB
330
B31D
100
AcDbEntity
  8
5
  6
PHANTOM
100
AcDbCircle
 10
380.0388029999999
 20
217.874464
 30
0.0
 40
36.516224
100
AcDbArc
 50
221.9758099999999
 51
237.636066
  0
LINE
  5
B6CC
330
B31D
100
AcDbEntity
  8
1
  6
Continuous
100
AcDbLine
 10
357.1263969999998
 20
236.571816
 30
0.0
 11
387.1486109999998
 21
236.571816
 31
0.0
  0
LINE
  5
B6CD
330
B31D
100
AcDbEntity
  8
1
  6
Continuous
100
AcDbLine
 10
355.4906509999999
 20
232.571816
 30
0.0
 11
388.784357
 21
232.571816
 31
0.0
  0
LINE
  5
B6CE
330
B31D
100
AcDbEntity
  8
1
  6
Continuous
100
AcDbLine
 10
395.1375039999999
 20
227.58649
 30
0.0
 11
349.1375039999998
 21
227.58649
 31
0.0
  0
LINE
  5
B6CF
330
B31D
100
AcDbEntity
  8
1
  6
Continuous
100
AcDbLine
 10
394.312588
 20
229.068751
 30
0.0
 11
349.9624199999999
 21
229.068751
 31
0.0
  0
LINE
  5
B6D0
330
B31D
100
AcDbEntity
  8
1
  6
Continuous
100
AcDbLine
 10
362.6375089999998
 20
240.4718159999999
 30
0.0
 11
381.6375089999998
 21
240.4718159999999
 31
0.0
  0
LINE
  5
B6D1
330
B31D
100
AcDbEntity
  8
1
  6
Continuous
100
AcDbLine
 10
371.3620769999999
 20
225.87149
 30
0.0
 11
369.3090769999998
 21
227.58649
 31
0.0
  0
LINE
  5
B6D2
330
B31D
100
AcDbEntity
  8
1
  6
Continuous
100
AcDbLine
 10
349.1375039999998
 20
225.87149
 30
0.0
 11
395.1375039999999
 21
225.87149
 31
0.0
  0
LINE
  5
B6D3
330
B31D
100
AcDbEntity
  8
1
  6
Continuous
100
AcDbLine
 10
400.8582699999998
 20
223.57149
 30
0.0
 11
407.589776
 21
179.0714899999999
 31
0.0
  0
LINE
  5
B6D4
330
B31D
100
AcDbEntity
  8
1
  6
Continuous
100
AcDbLine
 10
390.1375039999999
 20
223.57149
 30
0.0
 11
404.137504
 21
223.57149
 31
0.0
  0
LINE
  5
B6D5
330
B31D
100
AcDbEntity
  8
1
  6
Continuous
100
AcDbLine
 10
401.001979
 20
221.2714899999999
 30
0.0
 11
404.137504
 21
221.2714899999999
 31
0.0
  0
LINE
  5
B6D6
330
B31D
100
AcDbEntity
  8
1
  6
Continuous
100
AcDbLine
 10
404.137504
 20
223.57149
 30
0.0
 11
404.137504
 21
221.2714899999999
 31
0.0
  0
LINE
  5
B6D7
330
B31D
100
AcDbEntity
  8
1
  6
Continuous
100
AcDbLine
 10
384.2266399999999
 20
225.87149
 30
0.0
 11
386.2796399999999
 21
227.58649
 31
0.0
  0
LINE
  5
B6D8
330
B31D
100
AcDbEntity
  8
1
  6
Continuous
100
AcDbLine
 10
385.504213
 20
225.87149
 30
0.0
 11
383.451213
 21
227.58649
 31
0.0
  0
LINE
  5
B6D9
330
B31D
100
AcDbEntity
  8
1
  6
Continuous
100
AcDbLine
 10
387.1486109999998
 20
236.571816
 30
0.0
 11
387.1486109999998
 21
232.571816
 31
0.0
  0
ARC
  5
B6DA
330
B31D
100
AcDbEntity
  8
1
  6
Continuous
100
AcDbCircle
 10
388.784357
 20
226.4581979999999
 30
0.0
 40
6.113617999999997
100
AcDbArc
 50
25.277722
 51
90.0
  0
LINE
  5
B6DB
330
B31D
100
AcDbEntity
  8
1
  6
Continuous
100
AcDbLine
 10
395.127588
 20
229.068751
 30
0.0
 11
394.312588
 21
229.068751
 31
0.0
  0
LINE
  5
B6DC
330
B31D
100
AcDbEntity
  8
1
  6
Continuous
100
AcDbLine
 10
395.1375039999999
 20
227.2139069999998
 30
0.0
 11
394.764921
 21
227.58649
 31
0.0
  0
ARC
  5
B6DD
330
B31D
100
AcDbEntity
  8
1
  6
Continuous
100
AcDbCircle
 10
391.526106
 20
230.6189779999999
 30
0.0
 40
4.697225
100
AcDbArc
 50
319.789963
 51
333.713305
  0
ARC
  5
B6DE
330
B31D
100
AcDbEntity
  8
1
  6
Continuous
100
AcDbCircle
 10
394.8636179999999
 20
228.148898
 30
0.0
 40
0.9569799999999998
100
AcDbArc
 50
24.04026499999999
 51
73.98808699999998
  0
LINE
  5
B6DF
330
B31D
100
AcDbEntity
  8
1
  6
Continuous
100
AcDbLine
 10
392.711921
 20
225.87149
 30
0.0
 11
394.764921
 21
227.58649
 31
0.0
  0
LINE
  5
B6E0
330
B31D
100
AcDbEntity
  8
1
  6
Continuous
100
AcDbLine
 10
395.1375039999999
 20
227.58649
 30
0.0
 11
395.1375039999999
 21
225.87149
 31
0.0
  0
LINE
  5
B6E1
330
B31D
100
AcDbEntity
  8
1
  6
Continuous
100
AcDbLine
 10
389.883494
 20
225.87149
 30
0.0
 11
391.9364939999999
 21
227.58649
 31
0.0
  0
LINE
  5
B6E2
330
B31D
100
AcDbEntity
  8
1
  6
Continuous
100
AcDbLine
 10
387.055067
 20
225.87149
 30
0.0
 11
389.108067
 21
227.58649
 31
0.0
  0
LINE
  5
B6E3
330
B31D
100
AcDbEntity
  8
1
  6
Continuous
100
AcDbLine
 10
393.9894939999999
 20
225.87149
 30
0.0
 11
391.9364939999999
 21
227.58649
 31
0.0
  0
LINE
  5
B6E4
330
B31D
100
AcDbEntity
  8
1
  6
Continuous
100
AcDbLine
 10
391.1610669999999
 20
225.87149
 30
0.0
 11
389.108067
 21
227.58649
 31
0.0
  0
LINE
  5
B6E5
330
B31D
100
AcDbEntity
  8
1
  6
Continuous
100
AcDbLine
 10
388.3326399999999
 20
225.87149
 30
0.0
 11
386.2796399999999
 21
227.58649
 31
0.0
  0
ARC
  5
B6E6
330
B31D
100
AcDbEntity
  8
1
  6
Continuous
100
AcDbCircle
 10
393.4703139999998
 20
222.8714899999999
 30
0.0
 40
3.0
100
AcDbArc
 50
13.49339899999998
 51
90.0
  0
ARC
  5
B6E7
330
B31D
100
AcDbEntity
  8
1
  6
Continuous
100
AcDbCircle
 10
380.6375089999999
 20
237.571816
 30
0.0
 40
1.0
100
AcDbArc
 50
270.0
 51
0.0
  0
LINE
  5
B6E8
330
B31D
100
AcDbEntity
  8
1
  6
Continuous
100
AcDbLine
 10
379.6430579999998
 20
236.571816
 30
0.0
 11
379.6430579999998
 21
232.571816
 31
0.0
  0
LINE
  5
B6E9
330
B31D
100
AcDbEntity
  8
1
  6
Continuous
100
AcDbLine
 10
378.569785
 20
225.87149
 30
0.0
 11
380.622785
 21
227.58649
 31
0.0
  0
LINE
  5
B6EA
330
B31D
100
AcDbEntity
  8
1
  6
Continuous
100
AcDbLine
 10
379.847358
 20
225.87149
 30
0.0
 11
377.794358
 21
227.58649
 31
0.0
  0
LINE
  5
B6EB
330
B31D
100
AcDbEntity
  8
1
  6
Continuous
100
AcDbLine
 10
381.3982129999999
 20
225.87149
 30
0.0
 11
383.451213
 21
227.58649
 31
0.0
  0
LINE
  5
B6EC
330
B31D
100
AcDbEntity
  8
1
  6
Continuous
100
AcDbLine
 10
382.675785
 20
225.87149
 30
0.0
 11
380.622785
 21
227.58649
 31
0.0
  0
LINE
  5
B6ED
330
B31D
100
AcDbEntity
  8
1
  6
Continuous
100
AcDbLine
 10
375.741358
 20
225.87149
 30
0.0
 11
377.794358
 21
227.58649
 31
0.0
  0
LINE
  5
B6EE
330
B31D
100
AcDbEntity
  8
1
  6
Continuous
100
AcDbLine
 10
372.912931
 20
225.87149
 30
0.0
 11
374.965931
 21
227.58649
 31
0.0
  0
LINE
  5
B6EF
330
B31D
100
AcDbEntity
  8
1
  6
Continuous
100
AcDbLine
 10
370.0845039999999
 20
225.87149
 30
0.0
 11
372.1375039999998
 21
227.58649
 31
0.0
  0
LINE
  5
B6F0
330
B31D
100
AcDbEntity
  8
1
  6
Continuous
100
AcDbLine
 10
377.018931
 20
225.87149
 30
0.0
 11
374.965931
 21
227.58649
 31
0.0
  0
LINE
  5
B6F1
330
B31D
100
AcDbEntity
  8
1
  6
Continuous
100
AcDbLine
 10
374.1905039999999
 20
225.87149
 30
0.0
 11
372.1375039999998
 21
227.58649
 31
0.0
  0
LINE
  5
B6F2
330
B31D
100
AcDbEntity
  8
1
  6
Continuous
100
AcDbLine
 10
347.3875039999999
 20
222.8714899999999
 30
0.0
 11
347.3875039999999
 21
218.27149
 31
0.0
  0
LINE
  5
B6F3
330
B31D
100
AcDbEntity
  8
5
  6
PHANTOM
100
AcDbLine
 10
352.8916500000002
 20
193.451797
 30
0.0
 11
351.4122009999999
 21
193.479855
 31
0.0
  0
LINE
  5
B6F4
330
B31D
100
AcDbEntity
  8
5
  6
PHANTOM
100
AcDbLine
 10
363.453004
 20
195.551917
 30
0.0
 11
351.4558109999999
 21
195.7794449999999
 31
0.0
  0
LINE
  5
B6F5
330
B31D
100
AcDbEntity
  8
5
  6
PHANTOM
100
AcDbLine
 10
351.4558109999999
 20
195.7794449999999
 30
0.0
 11
351.4122009999999
 21
193.479855
 31
0.0
  0
LINE
  5
B6F6
330
B31D
100
AcDbEntity
  8
1
  6
Continuous
100
AcDbLine
 10
347.3875039999999
 20
218.27149
 30
0.0
 11
355.243405
 21
218.27149
 31
0.0
  0
LINE
  5
B6F7
330
B31D
100
AcDbEntity
  8
1
  6
Continuous
100
AcDbLine
 10
361.573546
 20
216.012892
 30
0.0
 11
360.615446
 21
216.012012
 31
0.0
  0
ARC
  5
B6F8
330
B31D
100
AcDbEntity
  8
1
  6
Continuous
100
AcDbCircle
 10
360.7409359999999
 20
223.8595239999999
 30
0.0
 40
7.848514999999999
100
AcDbArc
 50
225.396746
 51
269.083862
  0
ARC
  5
B6F9
330
B31D
100
AcDbEntity
  8
1
  6
Continuous
100
AcDbCircle
 10
355.243405
 20
208.27149
 30
0.0
 40
10.0
100
AcDbArc
 50
31.136199
 51
90.0
  0
LINE
  5
B6FA
330
B31D
100
AcDbEntity
  8
1
  6
Continuous
100
AcDbLine
 10
357.1931329999999
 20
218.079984
 30
0.0
 11
357.237504
 21
218.00899
 31
0.0
  0
ARC
  5
B6FB
330
B31D
100
AcDbEntity
  8
1
  6
Continuous
100
AcDbCircle
 10
355.4906509999999
 20
226.4581979999999
 30
0.0
 40
6.113617999999997
100
AcDbArc
 50
90.0
 51
154.722278
  0
LINE
  5
B6FC
330
B31D
100
AcDbEntity
  8
1
  6
Continuous
100
AcDbLine
 10
353.113941
 20
225.87149
 30
0.0
 11
355.166941
 21
227.58649
 31
0.0
  0
LINE
  5
B6FD
330
B31D
100
AcDbEntity
  8
1
  6
Continuous
100
AcDbLine
 10
354.3915139999999
 20
225.87149
 30
0.0
 11
352.3385139999998
 21
227.58649
 31
0.0
  0
LINE
  5
B6FE
330
B31D
100
AcDbEntity
  8
1
  6
Continuous
100
AcDbLine
 10
357.1263969999998
 20
236.571816
 30
0.0
 11
357.1263969999998
 21
232.571816
 31
0.0
  0
LINE
  5
B6FF
330
B31D
100
AcDbEntity
  8
1
  6
Continuous
100
AcDbLine
 10
364.6319509999998
 20
236.571816
 30
0.0
 11
364.6319509999998
 21
232.571816
 31
0.0
  0
ARC
  5
B700
330
B31D
100
AcDbEntity
  8
1
  6
Continuous
100
AcDbCircle
 10
363.6375089999999
 20
237.571816
 30
0.0
 40
1.0
100
AcDbArc
 50
180.0
 51
270.0
  0
LINE
  5
B701
330
B31D
100
AcDbEntity
  8
1
  6
Continuous
100
AcDbLine
 10
361.5992229999998
 20
225.87149
 30
0.0
 11
363.652223
 21
227.58649
 31
0.0
  0
LINE
  5
B702
330
B31D
100
AcDbEntity
  8
1
  6
Continuous
100
AcDbLine
 10
364.42765
 20
225.87149
 30
0.0
 11
366.48065
 21
227.58649
 31
0.0
  0
LINE
  5
B703
330
B31D
100
AcDbEntity
  8
1
  6
Continuous
100
AcDbLine
 10
367.256077
 20
225.87149
 30
0.0
 11
369.3090769999998
 21
227.58649
 31
0.0
  0
LINE
  5
B704
330
B31D
100
AcDbEntity
  8
1
  6
Continuous
100
AcDbLine
 10
365.705223
 20
225.87149
 30
0.0
 11
363.652223
 21
227.58649
 31
0.0
  0
LINE
  5
B705
330
B31D
100
AcDbEntity
  8
1
  6
Continuous
100
AcDbLine
 10
368.53365
 20
225.87149
 30
0.0
 11
366.48065
 21
227.58649
 31
0.0
  0
LINE
  5
B706
330
B31D
100
AcDbEntity
  8
1
  6
Continuous
100
AcDbLine
 10
362.876796
 20
225.87149
 30
0.0
 11
360.823796
 21
227.58649
 31
0.0
  0
LINE
  5
B707
330
B31D
100
AcDbEntity
  8
1
  6
Continuous
100
AcDbLine
 10
355.942368
 20
225.87149
 30
0.0
 11
357.995368
 21
227.58649
 31
0.0
  0
LINE
  5
B708
330
B31D
100
AcDbEntity
  8
1
  6
Continuous
100
AcDbLine
 10
358.770796
 20
225.87149
 30
0.0
 11
360.823796
 21
227.58649
 31
0.0
  0
LINE
  5
B709
330
B31D
100
AcDbEntity
  8
1
  6
Continuous
100
AcDbLine
 10
357.219941
 20
225.87149
 30
0.0
 11
355.166941
 21
227.58649
 31
0.0
  0
LINE
  5
B70A
330
B31D
100
AcDbEntity
  8
1
  6
Continuous
100
AcDbLine
 10
360.0483679999999
 20
225.87149
 30
0.0
 11
357.995368
 21
227.58649
 31
0.0
  0
LINE
  5
B70B
330
B31D
100
AcDbEntity
  8
1
  6
Continuous
100
AcDbLine
 10
349.1375039999998
 20
227.2139069999998
 30
0.0
 11
349.5100869999998
 21
227.58649
 31
0.0
  0
LINE
  5
B70C
330
B31D
100
AcDbEntity
  8
1
  6
Continuous
100
AcDbLine
 10
349.14742
 20
229.068751
 30
0.0
 11
349.9624199999999
 21
229.068751
 31
0.0
  0
ARC
  5
B70D
330
B31D
100
AcDbEntity
  8
1
  6
Continuous
100
AcDbCircle
 10
352.7489019999999
 20
230.6189779999999
 30
0.0
 40
4.697225
100
AcDbArc
 50
206.286695
 51
220.210037
  0
ARC
  5
B70E
330
B31D
100
AcDbEntity
  8
1
  6
Continuous
100
AcDbCircle
 10
349.4113909999999
 20
228.148898
 30
0.0
 40
0.9569799999999998
100
AcDbArc
 50
106.011913
 51
155.9597349999999
  0
LINE
  5
B70F
330
B31D
100
AcDbEntity
  8
1
  6
Continuous
100
AcDbLine
 10
350.2855139999998
 20
225.87149
 30
0.0
 11
352.3385139999998
 21
227.58649
 31
0.0
  0
LINE
  5
B710
330
B31D
100
AcDbEntity
  8
1
  6
Continuous
100
AcDbLine
 10
351.5630869999998
 20
225.87149
 30
0.0
 11
349.5100869999998
 21
227.58649
 31
0.0
  0
LINE
  5
B711
330
B31D
100
AcDbEntity
  8
1
  6
Continuous
100
AcDbLine
 10
349.1375039999998
 20
227.58649
 30
0.0
 11
349.1375039999998
 21
225.87149
 31
0.0
  0
ARC
  5
B712
330
B31D
100
AcDbEntity
  8
1
  6
Continuous
100
AcDbCircle
 10
350.8189279999998
 20
222.409827
 30
0.0
 40
3.462340999999999
100
AcDbArc
 50
88.86512399999999
 51
172.3374649999999
  0
LINE
  5
B713
330
B31D
100
AcDbEntity
  8
1
  6
Continuous
100
AcDbLine
 10
366.1375039999999
 20
275.571816
 30
0.0
 11
378.1375039999999
 21
275.571816
 31
0.0
  0
LINE
  5
B714
330
B31D
100
AcDbEntity
  8
1
  6
Continuous
100
AcDbLine
 10
367.137504
 20
276.571816
 30
0.0
 11
377.1375039999999
 21
276.571816
 31
0.0
  0
LINE
  5
B715
330
B31D
100
AcDbEntity
  8
1
  6
Continuous
100
AcDbLine
 10
381.3875039999999
 20
274.6718159999999
 30
0.0
 11
362.887504
 21
274.6718159999999
 31
0.0
  0
LINE
  5
B716
330
B31D
100
AcDbEntity
  8
1
  6
Continuous
100
AcDbLine
 10
381.3875039999999
 20
271.4718159999998
 30
0.0
 11
362.887504
 21
271.4718159999998
 31
0.0
  0
LINE
  5
B717
330
B31D
100
AcDbEntity
  8
2
  6
Continuous
100
AcDbLine
 10
377.190504
 20
274.6718159999999
 30
0.0
 11
377.190504
 21
276.518816
 31
0.0
  0
LINE
  5
B718
330
B31D
100
AcDbEntity
  8
1
  6
Continuous
100
AcDbLine
 10
378.1375039999999
 20
275.571816
 30
0.0
 11
377.1375039999999
 21
276.571816
 31
0.0
  0
LINE
  5
B719
330
B31D
100
AcDbEntity
  8
1
  6
Continuous
100
AcDbLine
 10
378.1375039999999
 20
274.6718159999999
 30
0.0
 11
378.1375039999999
 21
275.571816
 31
0.0
  0
ARC
  5
B71A
330
B31D
100
AcDbEntity
  8
1
  6
Continuous
100
AcDbCircle
 10
380.6375089999999
 20
270.471816
 30
0.0
 40
1.0
100
AcDbArc
 50
0.0
 51
90.0
  0
LINE
  5
B71B
330
B31D
100
AcDbEntity
  8
1
  6
Continuous
100
AcDbLine
 10
381.3875039999999
 20
274.6718159999999
 30
0.0
 11
381.3875039999999
 21
271.4718159999998
 31
0.0
  0
LINE
  5
B71C
330
B31D
100
AcDbEntity
  8
1
  6
Continuous
100
AcDbLine
 10
376.117454
 20
274.6718159999999
 30
0.0
 11
376.117454
 21
271.4718159999998
 31
0.0
  0
LINE
  5
B71D
330
B31D
100
AcDbEntity
  8
2
  6
Continuous
100
AcDbLine
 10
367.0845039999999
 20
274.6718159999999
 30
0.0
 11
367.0845039999999
 21
276.518816
 31
0.0
  0
LINE
  5
B71E
330
B31D
100
AcDbEntity
  8
1
  6
Continuous
100
AcDbLine
 10
366.1375039999999
 20
274.6718159999999
 30
0.0
 11
366.1375039999999
 21
275.571816
 31
0.0
  0
LINE
  5
B71F
330
B31D
100
AcDbEntity
  8
1
  6
Continuous
100
AcDbLine
 10
366.1375039999999
 20
275.571816
 30
0.0
 11
367.137504
 21
276.571816
 31
0.0
  0
ARC
  5
B720
330
B31D
100
AcDbEntity
  8
1
  6
Continuous
100
AcDbCircle
 10
363.6375089999999
 20
270.471816
 30
0.0
 40
1.0
100
AcDbArc
 50
90.0
 51
180.0
  0
LINE
  5
B721
330
B31D
100
AcDbEntity
  8
1
  6
Continuous
100
AcDbLine
 10
368.157554
 20
274.6718159999999
 30
0.0
 11
368.157554
 21
271.4718159999998
 31
0.0
  0
LINE
  5
B722
330
B31D
100
AcDbEntity
  8
1
  6
Continuous
100
AcDbLine
 10
362.887504
 20
271.4718159999998
 30
0.0
 11
362.887504
 21
274.6718159999999
 31
0.0
  0
ARC
  5
B723
330
B31D
100
AcDbEntity
  8
1
  6
Continuous
100
AcDbCircle
 10
163.6692469999998
 20
179.0714899999999
 30
0.0
 40
28.0
100
AcDbArc
 50
4.857635
 51
12.100412
  0
ARC
  5
B724
330
B31D
100
AcDbEntity
  8
1
  6
Continuous
100
AcDbCircle
 10
163.6692469999998
 20
179.0714899999999
 30
0.0
 40
28.0
100
AcDbArc
 50
22.65674699999999
 51
36.01371799999999
  0
ARC
  5
B725
330
B31D
100
AcDbEntity
  8
1
  6
Continuous
100
AcDbCircle
 10
163.6692469999998
 20
179.0714899999999
 30
0.0
 40
37.5
100
AcDbArc
 50
351.805585
 51
42.09619599999999
  0
ARC
  5
B726
330
B31D
100
AcDbEntity
  8
1
  6
Continuous
100
AcDbCircle
 10
163.6692469999998
 20
179.0714899999999
 30
0.0
 40
37.5
100
AcDbArc
 50
166.3548839999999
 51
337.988649
  0
ARC
  5
B727
330
B31D
100
AcDbEntity
  8
1
  6
Continuous
100
AcDbCircle
 10
163.6692469999998
 20
179.0714899999999
 30
0.0
 40
19.5
100
AcDbArc
 50
185.5746659999999
 51
330.1173549999999
  0
ARC
  5
B728
330
B31D
100
AcDbEntity
  8
1
  6
Continuous
100
AcDbCircle
 10
163.6692469999998
 20
179.0714899999999
 30
0.0
 40
28.0
100
AcDbArc
 50
181.63505
 51
333.6775289999998
  0
CIRCLE
  5
B729
330
B31D
100
AcDbEntity
  8
1
  6
Continuous
100
AcDbCircle
 10
397.1375039999998
 20
179.0714899999999
 30
0.0
 40
7.0
  0
LINE
  5
B72A
330
B31D
100
AcDbEntity
  8
1
  6
Continuous
100
AcDbLine
 10
170.669172
 20
320.8969989999999
 30
0.0
 11
170.669172
 21
322.396999
 31
0.0
  0
LINE
  5
B72B
330
B31D
100
AcDbEntity
  8
1
  6
Continuous
100
AcDbLine
 10
156.669172
 20
320.8969989999999
 30
0.0
 11
156.669172
 21
322.396999
 31
0.0
  0
LINE
  5
B72C
330
B31D
100
AcDbEntity
  8
1
  6
Continuous
100
AcDbLine
 10
170.669172
 20
320.8969989999999
 30
0.0
 11
156.669172
 21
320.8969989999999
 31
0.0
  0
LINE
  5
B72D
330
B31D
100
AcDbEntity
  8
1
  6
Continuous
100
AcDbLine
 10
87.67114999999998
 20
182.271535
 30
0.0
 11
86.87115
 21
183.071535
 31
0.0
  0
LINE
  5
B72E
330
B31D
100
AcDbEntity
  8
2
  6
Continuous
100
AcDbLine
 10
87.54765
 20
182.395035
 30
0.0
 11
86.78833199999997
 21
182.395035
 31
0.0
  0
ARC
  5
B72F
330
B31D
100
AcDbEntity
  8
1
  6
Continuous
100
AcDbCircle
 10
166.669172
 20
324.562062
 30
0.0
 40
8.665063999999999
100
AcDbArc
 50
249.7438419999999
 51
290.256158
  0
LINE
  5
B730
330
B31D
100
AcDbEntity
  8
1
  6
Continuous
100
AcDbLine
 10
159.669172
 20
315.814181
 30
0.0
 11
167.6691719999998
 21
315.814181
 31
0.0
  0
LINE
  5
B731
330
B31D
100
AcDbEntity
  8
1
  6
Continuous
100
AcDbLine
 10
166.8691719999999
 20
315.014181
 30
0.0
 11
160.4691719999999
 21
315.014181
 31
0.0
  0
LINE
  5
B732
330
B31D
100
AcDbEntity
  8
1
  6
Continuous
100
AcDbLine
 10
157.669172
 20
315.8969990000001
 30
0.0
 11
169.669172
 21
315.8969990000001
 31
0.0
  0
LINE
  5
B733
330
B31D
100
AcDbEntity
  8
1
  6
Continuous
100
AcDbLine
 10
87.67114999999998
 20
175.8715349999999
 30
0.0
 11
86.87115
 21
175.071535
 31
0.0
  0
LINE
  5
B734
330
B31D
100
AcDbEntity
  8
2
  6
Continuous
100
AcDbLine
 10
87.54765
 20
175.7480349999999
 30
0.0
 11
86.78833199999997
 21
175.7480349999999
 31
0.0
  0
ARC
  5
B735
330
B31D
100
AcDbEntity
  8
1
  6
Continuous
100
AcDbCircle
 10
166.669172
 20
312.231935
 30
0.0
 40
8.665063999999999
100
AcDbArc
 50
69.743842
 51
110.256158
  0
LINE
  5
B736
330
B31D
100
AcDbEntity
  8
1
  6
Continuous
100
AcDbLine
 10
81.78833199999997
 20
172.071535
 30
0.0
 11
81.78833199999997
 21
186.071535
 31
0.0
  0
LINE
  5
B737
330
B31D
100
AcDbEntity
  8
1
  6
Continuous
100
AcDbLine
 10
86.87115
 20
183.071535
 30
0.0
 11
86.87115
 21
175.071535
 31
0.0
  0
ARC
  5
B738
330
B31D
100
AcDbEntity
  8
1
  6
Continuous
100
AcDbCircle
 10
93.25243399999999
 20
179.071535
 30
0.0
 40
11.464102
100
AcDbArc
 50
162.412046
 51
197.5879539999999
  0
ARC
  5
B739
330
B31D
100
AcDbEntity
  8
1
  6
Continuous
100
AcDbCircle
 10
75.32423
 20
179.071535
 30
0.0
 40
11.464102
100
AcDbArc
 50
342.4120459999999
 51
17.587954
  0
LINE
  5
B73A
330
B31D
100
AcDbEntity
  8
1
  6
Continuous
100
AcDbLine
 10
86.78833199999997
 20
185.071535
 30
0.0
 11
86.78833199999997
 21
173.071535
 31
0.0
  0
LINE
  5
B73B
330
B31D
100
AcDbEntity
  8
1
  6
Continuous
100
AcDbLine
 10
81.78833199999997
 20
172.071535
 30
0.0
 11
80.28833199999999
 21
172.071535
 31
0.0
  0
LINE
  5
B73C
330
B31D
100
AcDbEntity
  8
2
  6
Continuous
100
AcDbLine
 10
160.345672
 20
315.1376809999998
 30
0.0
 11
160.345672
 21
315.8969990000001
 31
0.0
  0
LINE
  5
B73D
330
B31D
100
AcDbEntity
  8
1
  6
Continuous
100
AcDbLine
 10
160.4691719999999
 20
315.014181
 30
0.0
 11
159.669172
 21
315.814181
 31
0.0
  0
LINE
  5
B73E
330
B31D
100
AcDbEntity
  8
1
  6
Continuous
100
AcDbLine
 10
159.669172
 20
315.8969990000001
 30
0.0
 11
159.669172
 21
315.814181
 31
0.0
  0
ARC
  5
B73F
330
B31D
100
AcDbEntity
  8
1
  6
Continuous
100
AcDbCircle
 10
160.669172
 20
324.562062
 30
0.0
 40
8.665063999999999
100
AcDbArc
 50
249.7438419999999
 51
290.256158
  0
LINE
  5
B740
330
B31D
100
AcDbEntity
  8
1
  6
Continuous
100
AcDbLine
 10
163.6691719999998
 20
320.3611
 30
0.0
 11
163.6691719999998
 21
316.4328970000001
 31
0.0
  0
LINE
  5
B741
330
B31D
100
AcDbEntity
  8
1
  6
Continuous
100
AcDbLine
 10
86.78833199999997
 20
175.071535
 30
0.0
 11
86.87115
 21
175.071535
 31
0.0
  0
ARC
  5
B742
330
B31D
100
AcDbEntity
  8
1
  6
Continuous
100
AcDbCircle
 10
83.72134499999999
 20
173.875383
 30
0.0
 40
3.066986999999998
100
AcDbArc
 50
334.384247
 51
34.38424699999998
  0
ARC
  5
B743
330
B31D
100
AcDbEntity
  8
1
  6
Continuous
100
AcDbCircle
 10
84.85531899999998
 20
173.875383
 30
0.0
 40
3.066986999999998
100
AcDbArc
 50
145.615753
 51
205.615753
  0
LINE
  5
B744
330
B31D
100
AcDbEntity
  8
1
  6
Continuous
100
AcDbLine
 10
82.32423
 20
175.607434
 30
0.0
 11
86.25243399999998
 21
175.607434
 31
0.0
  0
LINE
  5
B745
330
B31D
100
AcDbEntity
  8
1
  6
Continuous
100
AcDbLine
 10
82.32423
 20
172.1433319999999
 30
0.0
 11
86.25243399999998
 21
172.1433319999999
 31
0.0
  0
LINE
  5
B746
330
B31D
100
AcDbEntity
  8
1
  6
Continuous
100
AcDbLine
 10
82.32423
 20
172.1433319999999
 30
0.0
 11
81.78833199999997
 21
173.071535
 31
0.0
  0
LINE
  5
B747
330
B31D
100
AcDbEntity
  8
1
  6
Continuous
100
AcDbLine
 10
86.25243399999998
 20
172.1433319999999
 30
0.0
 11
86.78833199999997
 21
173.071535
 31
0.0
  0
ARC
  5
B748
330
B31D
100
AcDbEntity
  8
1
  6
Continuous
100
AcDbCircle
 10
160.669172
 20
312.231935
 30
0.0
 40
8.665063999999999
100
AcDbArc
 50
69.743842
 51
110.256158
  0
LINE
  5
B749
330
B31D
100
AcDbEntity
  8
1
  6
Continuous
100
AcDbLine
 10
157.669172
 20
315.8969990000001
 30
0.0
 11
157.669172
 21
320.8969989999999
 31
0.0
  0
LINE
  5
B74A
330
B31D
100
AcDbEntity
  8
1
  6
Continuous
100
AcDbLine
 10
81.78833199999997
 20
186.071535
 30
0.0
 11
80.28833199999999
 21
186.071535
 31
0.0
  0
LINE
  5
B74B
330
B31D
100
AcDbEntity
  8
1
  6
Continuous
100
AcDbLine
 10
86.78833199999997
 20
183.071535
 30
0.0
 11
86.87115
 21
183.071535
 31
0.0
  0
LINE
  5
B74C
330
B31D
100
AcDbEntity
  8
1
  6
Continuous
100
AcDbLine
 10
86.25243399999998
 20
185.9997389999998
 30
0.0
 11
86.78833199999997
 21
185.071535
 31
0.0
  0
LINE
  5
B74D
330
B31D
100
AcDbEntity
  8
1
  6
Continuous
100
AcDbLine
 10
82.32423
 20
185.9997389999998
 30
0.0
 11
81.78833199999997
 21
185.071535
 31
0.0
  0
LINE
  5
B74E
330
B31D
100
AcDbEntity
  8
1
  6
Continuous
100
AcDbLine
 10
82.32423
 20
185.9997389999998
 30
0.0
 11
86.25243399999998
 21
185.9997389999998
 31
0.0
  0
LINE
  5
B74F
330
B31D
100
AcDbEntity
  8
1
  6
Continuous
100
AcDbLine
 10
82.32423
 20
182.535637
 30
0.0
 11
86.25243399999998
 21
182.535637
 31
0.0
  0
ARC
  5
B750
330
B31D
100
AcDbEntity
  8
1
  6
Continuous
100
AcDbCircle
 10
84.85531899999998
 20
184.2676879999999
 30
0.0
 40
3.066986999999998
100
AcDbArc
 50
154.3842469999999
 51
214.384247
  0
ARC
  5
B751
330
B31D
100
AcDbEntity
  8
1
  6
Continuous
100
AcDbCircle
 10
83.72134499999999
 20
184.2676879999999
 30
0.0
 40
3.066986999999998
100
AcDbArc
 50
325.6157529999999
 51
25.615753
  0
LINE
  5
B752
330
B31D
100
AcDbEntity
  8
1
  6
Continuous
100
AcDbLine
 10
87.67114999999998
 20
175.8715349999999
 30
0.0
 11
87.67114999999998
 21
182.271535
 31
0.0
  0
LINE
  5
B753
330
B31D
100
AcDbEntity
  8
2
  6
Continuous
100
AcDbLine
 10
166.992672
 20
315.1376809999998
 30
0.0
 11
166.992672
 21
315.8969990000001
 31
0.0
  0
LINE
  5
B754
330
B31D
100
AcDbEntity
  8
1
  6
Continuous
100
AcDbLine
 10
166.8691719999999
 20
315.014181
 30
0.0
 11
167.6691719999998
 21
315.814181
 31
0.0
  0
LINE
  5
B755
330
B31D
100
AcDbEntity
  8
1
  6
Continuous
100
AcDbLine
 10
167.6691719999998
 20
315.8969990000001
 30
0.0
 11
167.6691719999998
 21
315.814181
 31
0.0
  0
LINE
  5
B756
330
B31D
100
AcDbEntity
  8
1
  6
Continuous
100
AcDbLine
 10
169.669172
 20
315.8969990000001
 30
0.0
 11
169.669172
 21
320.8969989999999
 31
0.0
  0
CIRCLE
  5
B757
330
B31D
100
AcDbEntity
  8
1
  6
Continuous
100
AcDbCircle
 10
163.6692469999998
 20
179.0714899999999
 30
0.0
 40
7.0
  0
LINE
  5
B758
330
B31D
100
AcDbEntity
  8
1
  6
Continuous
100
AcDbLine
 10
252.8197049999999
 20
185.0714899999999
 30
0.0
 11
252.8197049999999
 21
175.3686199999999
 31
0.0
  0
LINE
  5
B759
330
B31D
100
AcDbEntity
  8
1
  6
Continuous
100
AcDbLine
 10
251.936887
 20
175.87149
 30
0.0
 11
251.936887
 21
182.27149
 31
0.0
  0
ARC
  5
B75A
330
B31D
100
AcDbEntity
  8
1
  6
Continuous
100
AcDbCircle
 10
264.2838069999999
 20
179.0714899999999
 30
0.0
 40
11.464102
100
AcDbArc
 50
162.412046
 51
197.5879539999999
  0
LINE
  5
B75B
330
B31D
100
AcDbEntity
  8
1
  6
Continuous
100
AcDbLine
 10
252.736887
 20
183.0714899999999
 30
0.0
 11
252.736887
 21
175.3686199999999
 31
0.0
  0
ARC
  5
B75C
330
B31D
100
AcDbEntity
  8
1
  6
Continuous
100
AcDbCircle
 10
255.8866919999999
 20
173.8753369999998
 30
0.0
 40
3.066986999999998
100
AcDbArc
 50
145.615753
 51
150.8636899999999
  0
LINE
  5
B75D
330
B31D
100
AcDbEntity
  8
2
  6
Continuous
100
AcDbLine
 10
252.0603869999999
 20
175.7479899999999
 30
0.0
 11
252.8197049999999
 21
175.7479899999999
 31
0.0
  0
LINE
  5
B75E
330
B31D
100
AcDbEntity
  8
1
  6
Continuous
100
AcDbLine
 10
251.936887
 20
175.87149
 30
0.0
 11
252.439757
 21
175.3686199999999
 31
0.0
  0
LINE
  5
B75F
330
B31D
100
AcDbEntity
  8
1
  6
Continuous
100
AcDbLine
 10
254.2419989999999
 20
175.6073879999999
 30
0.0
 11
253.3556029999998
 21
175.6073879999999
 31
0.0
  0
ARC
  5
B760
330
B31D
100
AcDbEntity
  8
1
  6
Continuous
100
AcDbCircle
 10
255.8866919999999
 20
184.267642
 30
0.0
 40
3.066986999999998
100
AcDbArc
 50
154.3842469999999
 51
214.384247
  0
LINE
  5
B761
330
B31D
100
AcDbEntity
  8
1
  6
Continuous
100
AcDbLine
 10
253.3556029999998
 20
185.9996929999999
 30
0.0
 11
252.8197049999999
 21
185.0714899999999
 31
0.0
  0
LINE
  5
B762
330
B31D
100
AcDbEntity
  8
1
  6
Continuous
100
AcDbLine
 10
252.8197049999999
 20
183.0714899999999
 30
0.0
 11
252.736887
 21
183.0714899999999
 31
0.0
  0
LINE
  5
B763
330
B31D
100
AcDbEntity
  8
2
  6
Continuous
100
AcDbLine
 10
252.0603869999999
 20
182.3949899999998
 30
0.0
 11
252.8197049999999
 21
182.3949899999998
 31
0.0
  0
LINE
  5
B764
330
B31D
100
AcDbEntity
  8
1
  6
Continuous
100
AcDbLine
 10
251.936887
 20
182.27149
 30
0.0
 11
252.736887
 21
183.0714899999999
 31
0.0
  0
LINE
  5
B765
330
B31D
100
AcDbEntity
  8
1
  6
Continuous
100
AcDbLine
 10
254.2419989999999
 20
182.5355909999999
 30
0.0
 11
253.3556029999998
 21
182.5355909999999
 31
0.0
  0
LINE
  5
B766
330
B31D
100
AcDbEntity
  8
1
  6
Continuous
100
AcDbLine
 10
254.0502459999999
 20
185.9996929999999
 30
0.0
 11
253.3556029999998
 21
185.9996929999999
 31
0.0
  0
ARC
  5
B767
330
B31D
100
AcDbEntity
  8
1
  6
Continuous
100
AcDbCircle
 10
166.6692469999999
 20
105.874771
 30
0.0
 40
8.665063999999999
100
AcDbArc
 50
249.7438419999999
 51
290.256158
  0
LINE
  5
B768
330
B31D
100
AcDbEntity
  8
1
  6
Continuous
100
AcDbLine
 10
157.6692469999999
 20
102.2097079999999
 30
0.0
 11
169.6692469999999
 21
102.2097079999999
 31
0.0
  0
ARC
  5
B769
330
B31D
100
AcDbEntity
  8
1
  6
Continuous
100
AcDbCircle
 10
166.6692469999999
 20
93.54464400000001
 30
0.0
 40
8.665063999999999
100
AcDbArc
 50
69.743842
 51
110.256158
  0
LINE
  5
B76A
330
B31D
100
AcDbEntity
  8
1
  6
Continuous
100
AcDbLine
 10
170.6692469999999
 20
97.20970800000001
 30
0.0
 11
156.6692469999999
 21
97.20970800000001
 31
0.0
  0
LINE
  5
B76B
330
B31D
100
AcDbEntity
  8
1
  6
Continuous
100
AcDbLine
 10
167.6692469999998
 20
102.2097079999999
 30
0.0
 11
167.6692469999998
 21
102.292526
 31
0.0
  0
LINE
  5
B76C
330
B31D
100
AcDbEntity
  8
1
  6
Continuous
100
AcDbLine
 10
166.869247
 20
103.092526
 30
0.0
 11
167.6692469999998
 21
102.292526
 31
0.0
  0
LINE
  5
B76D
330
B31D
100
AcDbEntity
  8
2
  6
Continuous
100
AcDbLine
 10
166.992747
 20
102.9690259999999
 30
0.0
 11
166.992747
 21
102.2097079999999
 31
0.0
  0
LINE
  5
B76E
330
B31D
100
AcDbEntity
  8
1
  6
Continuous
100
AcDbLine
 10
157.6692469999999
 20
102.2097079999999
 30
0.0
 11
157.6692469999999
 21
97.20970800000001
 31
0.0
  0
ARC
  5
B76F
330
B31D
100
AcDbEntity
  8
1
  6
Continuous
100
AcDbCircle
 10
160.6692469999998
 20
105.874771
 30
0.0
 40
8.665063999999999
100
AcDbArc
 50
249.7438419999999
 51
290.256158
  0
LINE
  5
B770
330
B31D
100
AcDbEntity
  8
1
  6
Continuous
100
AcDbLine
 10
163.6692469999998
 20
97.745606
 30
0.0
 11
163.6692469999998
 21
101.673809
 31
0.0
  0
ARC
  5
B771
330
B31D
100
AcDbEntity
  8
1
  6
Continuous
100
AcDbCircle
 10
160.6692469999998
 20
93.54464400000001
 30
0.0
 40
8.665063999999999
100
AcDbArc
 50
69.743842
 51
110.256158
  0
LINE
  5
B772
330
B31D
100
AcDbEntity
  8
1
  6
Continuous
100
AcDbLine
 10
159.6692469999998
 20
102.2097079999999
 30
0.0
 11
159.6692469999998
 21
102.292526
 31
0.0
  0
LINE
  5
B773
330
B31D
100
AcDbEntity
  8
1
  6
Continuous
100
AcDbLine
 10
160.4692469999999
 20
103.092526
 30
0.0
 11
159.6692469999998
 21
102.292526
 31
0.0
  0
LINE
  5
B774
330
B31D
100
AcDbEntity
  8
2
  6
Continuous
100
AcDbLine
 10
160.3457469999999
 20
102.9690259999999
 30
0.0
 11
160.3457469999999
 21
102.2097079999999
 31
0.0
  0
LINE
  5
B775
330
B31D
100
AcDbEntity
  8
1
  6
Continuous
100
AcDbLine
 10
166.869247
 20
103.092526
 30
0.0
 11
160.4692469999999
 21
103.092526
 31
0.0
  0
LINE
  5
B776
330
B31D
100
AcDbEntity
  8
1
  6
Continuous
100
AcDbLine
 10
159.6692469999998
 20
102.292526
 30
0.0
 11
167.6692469999998
 21
102.292526
 31
0.0
  0
LINE
  5
B777
330
B31D
100
AcDbEntity
  8
1
  6
Continuous
100
AcDbLine
 10
156.6692469999999
 20
97.20970800000001
 30
0.0
 11
156.6692469999999
 21
95.70970800000001
 31
0.0
  0
LINE
  5
B778
330
B31D
100
AcDbEntity
  8
1
  6
Continuous
100
AcDbLine
 10
169.6692469999999
 20
102.2097079999999
 30
0.0
 11
169.6692469999999
 21
97.20970800000001
 31
0.0
  0
LINE
  5
B779
330
B31D
100
AcDbEntity
  8
1
  6
Continuous
100
AcDbLine
 10
170.6692469999999
 20
97.20970800000001
 30
0.0
 11
170.6692469999999
 21
96.919021
 31
0.0
  0
ARC
  5
B77A
330
B31D
100
AcDbEntity
  8
1
  6
Continuous
100
AcDbCircle
 10
300.615904
 20
192.9016589999999
 30
0.0
 40
45.0
100
AcDbArc
 50
191.644122
 51
194.324408
  0
ENDSEC
  0
SECTION
  2
OBJECTS
  0
DICTIONARY
  5
B30B
330
0
100
AcDbDictionary
281
     1
  3
ACAD_CIP_PREVIOUS_PRODUCT_INFO
350
B7DC
  3
ACAD_COLOR
350
B7BE
  3
ACAD_DETAILVIEWSTYLE
350
B7D7
  3
ACAD_GROUP
350
B30C
  3
ACAD_LAYOUT
350
B318
  3
ACAD_MATERIAL
350
B78C
  3
ACAD_MLEADERSTYLE
350
B7D3
  3
ACAD_MLINESTYLE
350
B315
  3
ACAD_PLOTSETTINGS
350
B317
  3
ACAD_PLOTSTYLENAME
350
B78A
  3
ACAD_SCALELIST
350
B7C1
  3
ACAD_SECTIONVIEWSTYLE
350
B7D5
  3
ACAD_TABLESTYLE
350
B7BF
  3
ACAD_VISUALSTYLE
350
B7A5
  3
ACDB_RECOMPOSE_DATA
350
B7FA
  3
AcDbVariableDictionary
350
B7ED
  3
DWGPROPS
350
B7FB
  0
DICTIONARY
  5
B7DD
330
B30F
100
AcDbDictionary
280
     1
281
     1
  3
ADSK_XREC_LAYER_RECONCILED
360
B7DE
  0
DICTIONARY
  5
B7DF
330
B325
100
AcDbDictionary
280
     1
281
     1
  3
ADSK_XREC_LAYER_RECONCILED
360
B7E0
  0
DICTIONARY
  5
B7E1
330
B326
100
AcDbDictionary
280
     1
281
     1
  3
ADSK_XREC_LAYER_RECONCILED
360
B7E2
  0
DICTIONARY
  5
B7E3
330
B327
100
AcDbDictionary
280
     1
281
     1
  3
ADSK_XREC_LAYER_RECONCILED
360
B7E4
  0
DICTIONARY
  5
B7E5
330
B328
100
AcDbDictionary
280
     1
281
     1
  3
ADSK_XREC_LAYER_RECONCILED
360
B7E6
  0
DICTIONARY
  5
B7E7
330
B329
100
AcDbDictionary
280
     1
281
     1
  3
ADSK_XREC_LAYER_RECONCILED
360
B7E8
  0
DICTIONARY
  5
B7E9
330
B32A
100
AcDbDictionary
280
     1
281
     1
  3
ADSK_XREC_LAYER_RECONCILED
360
B7EA
  0
DICTIONARY
  5
B7EB
330
B32B
100
AcDbDictionary
280
     1
281
     1
  3
ADSK_XREC_LAYER_RECONCILED
360
B7EC
  0
DICTIONARY
  5
B785
330
B31D
100
AcDbDictionary
281
     1
  3
ACAD_LAYOUTSELFREF
350
B786
  0
DICTIONARY
  5
B783
330
B319
100
AcDbDictionary
281
     1
  3
ACAD_LAYOUTSELFREF
350
B784
  0
XRECORD
  5
B7DC
102
{ACAD_REACTORS
330
B30B
102
}
330
B30B
100
AcDbXrecord
280
     1
300
ACDLT
300
2014
300
ACDLT_F_S
  0
DICTIONARY
  5
B7BE
102
{ACAD_REACTORS
330
B30B
102
}
330
B30B
100
AcDbDictionary
281
     1
  0
DICTIONARY
  5
B7D7
102
{ACAD_REACTORS
330
B30B
102
}
330
B30B
100
AcDbDictionary
281
     1
  3
Imperial24
350
B7D8
  0
DICTIONARY
  5
B30C
102
{ACAD_REACTORS
330
B30B
102
}
330
B30B
100
AcDbDictionary
281
     1
  0
DICTIONARY
  5
B318
102
{ACAD_REACTORS
330
B30B
102
}
330
B30B
100
AcDbDictionary
281
     1
  3
Model
350
B7D9
  3
レイアウト1
350
B7DA
  0
DICTIONARY
  5
B78C
102
{ACAD_REACTORS
330
B30B
102
}
330
B30B
100
AcDbDictionary
281
     1
  3
ByBlock
350
B795
  3
ByLayer
350
B78D
  3
Global
350
B79D
  0
DICTIONARY
  5
B7D3
102
{ACAD_REACTORS
330
B30B
102
}
330
B30B
100
AcDbDictionary
281
     1
  3
Standard
350
B7D4
  0
DICTIONARY
  5
B315
102
{ACAD_REACTORS
330
B30B
102
}
330
B30B
100
AcDbDictionary
281
     1
  3
STANDARD
350
B316
  0
DICTIONARY
  5
B317
102
{ACAD_REACTORS
330
B30B
102
}
330
B30B
100
AcDbDictionary
281
     1
  0
ACDBDICTIONARYWDFLT
  5
B78A
102
{ACAD_REACTORS
330
B30B
102
}
330
B30B
100
AcDbDictionary
281
     1
  3
Normal
350
B78B
100
AcDbDictionaryWithDefault
340
B78B
  0
DICTIONARY
  5
B7C1
102
{ACAD_REACTORS
330
B30B
102
}
330
B30B
100
AcDbDictionary
281
     1
  3
A0
350
B7C2
  3
A1
350
B7C3
  3
A2
350
B7C4
  3
A3
350
B7C5
  3
A4
350
B7C6
  3
A5
350
B7C7
  3
A6
350
B7C8
  3
A7
350
B7C9
  3
A8
350
B7CA
  3
A9
350
B7CB
  3
B0
350
B7CC
  3
B1
350
B7CD
  3
B2
350
B7CE
  3
B3
350
B7CF
  3
B4
350
B7D0
  3
B5
350
B7D1
  3
B6
350
B7D2
  0
DICTIONARY
  5
B7D5
102
{ACAD_REACTORS
330
B30B
102
}
330
B30B
100
AcDbDictionary
281
     1
  3
Imperial24
350
B7D6
  0
DICTIONARY
  5
B7BF
102
{ACAD_REACTORS
330
B30B
102
}
330
B30B
100
AcDbDictionary
281
     1
  3
Standard
350
B7C0
  0
DICTIONARY
  5
B7A5
102
{ACAD_REACTORS
330
B30B
102
}
330
B30B
100
AcDbDictionary
281
     1
  3
2dWireframe
350
B7AB
  3
Basic
350
B7AA
  3
Brighten
350
B7B1
  3
ColorChange
350
B7B5
  3
Conceptual
350
B7AE
  3
Dim
350
B7B0
  3
EdgeColorOff
350
B7BD
  3
Facepattern
350
B7B4
  3
Flat
350
B7A6
  3
FlatWithEdges
350
B7A7
  3
Gouraud
350
B7A8
  3
GouraudWithEdges
350
B7A9
  3
Hidden
350
B7AD
  3
JitterOff
350
B7BB
  3
Linepattern
350
B7B3
  3
OverhangOff
350
B7BC
  3
Realistic
350
B7AF
  3
Shaded
350
B7BA
  3
Shaded with edges
350
B7B9
  3
Shades of Gray
350
B7B6
  3
Sketchy
350
B7B7
  3
Thicken
350
B7B2
  3
Wireframe
350
B7AC
  3
X-Ray
350
B7B8
  0
XRECORD
  5
B7FA
102
{ACAD_REACTORS
330
B30B
102
}
330
B30B
100
AcDbXrecord
280
     1
 90
        1
330
B7C0
  0
DICTIONARY
  5
B7ED
102
{ACAD_REACTORS
330
B30B
102
}
330
B30B
100
AcDbDictionary
281
     1
  3
CANNOSCALE
350
B7F2
  3
CMLEADERSTYLE
350
B7EF
  3
CTABLESTYLE
350
B7EE
  3
CVIEWDETAILSTYLE
350
B7F0
  3
CVIEWSECTIONSTYLE
350
B7F1
  3
DIMASSOC
350
B7F5
  3
INDEXCTL
350
B7F4
  3
SORTENTS
350
B7F3
  3
XCLIPFRAME
350
B7F6
  0
XRECORD
  5
B7FB
102
{ACAD_REACTORS
330
B30B
102
}
330
B30B
100
AcDbXrecord
280
     1
  1
DWGPROPS COOKIE
  2

  3

  4

  6

  7

  8
Yoshitsune
  9

300
=
301
=
302
=
303
=
304
=
305
=
306
=
307
=
308
=
309
=
 40
0.0000124305555556
 41
2451302.660466898
 42
2457192.687750093
  1

 90
        0
  0
XRECORD
  5
B7DE
102
{ACAD_REACTORS
330
B7DD
102
}
330
B7DD
100
AcDbXrecord
280
     1
290
     1
  0
XRECORD
  5
B7E0
102
{ACAD_REACTORS
330
B7DF
102
}
330
B7DF
100
AcDbXrecord
280
     1
290
     1
  0
XRECORD
  5
B7E2
102
{ACAD_REACTORS
330
B7E1
102
}
330
B7E1
100
AcDbXrecord
280
     1
290
     1
  0
XRECORD
  5
B7E4
102
{ACAD_REACTORS
330
B7E3
102
}
330
B7E3
100
AcDbXrecord
280
     1
290
     1
  0
XRECORD
  5
B7E6
102
{ACAD_REACTORS
330
B7E5
102
}
330
B7E5
100
AcDbXrecord
280
     1
290
     1
  0
XRECORD
  5
B7E8
102
{ACAD_REACTORS
330
B7E7
102
}
330
B7E7
100
AcDbXrecord
280
     1
290
     1
  0
XRECORD
  5
B7EA
102
{ACAD_REACTORS
330
B7E9
102
}
330
B7E9
100
AcDbXrecord
280
     1
290
     1
  0
XRECORD
  5
B7EC
102
{ACAD_REACTORS
330
B7EB
102
}
330
B7EB
100
AcDbXrecord
280
     1
290
     1
  0
XRECORD
  5
B786
102
{ACAD_REACTORS
330
B785
102
}
330
B785
100
AcDbXrecord
280
     1
340
B31D
  0
XRECORD
  5
B784
102
{ACAD_REACTORS
330
B783
102
}
330
B783
100
AcDbXrecord
280
     1
340
B319
  0
ACDBDETAILVIEWSTYLE
  5
B7D8
102
{ACAD_XDICTIONARY
360
B833
102
}
102
{ACAD_REACTORS
330
B7D7
102
}
330
B7D7
100
AcDbModelDocViewStyle
 70
     0
  3
Imperial24
290
     0
100
AcDbDetailViewStyle
 70
     0
 71
     0
 90
        3
 71
     1
340
B310
 40
0.24
340
0
 40
0.24
300

 40
0.36
280
     3
 71
     2
340
B314
 90
       25
 71
     3
340
B310
 40
0.24
 90
        1
 40
0.75
 90
        1
300
%<\AcVar ViewType \f "%tc1">% %<\AcVar ViewDetailId>%\PSCALE %<\AcVar ViewScale \f "%sn">%
 71
     4
340
B314
 90
       25
340
B314
 90
       25
280
     0
  0
LAYOUT
  5
B7D9
102
{ACAD_XDICTIONARY
360
B835
102
}
102
{ACAD_REACTORS
330
B318
102
}
330
B318
100
AcDbPlotSettings
  1

  2
Canon LBP9100C
  4

  6

 40
0.0
 41
0.0
 42
0.0
 43
0.0
 44
0.0
 45
0.0
 46
0.0
 47
0.0
 48
0.0
 49
0.0
140
0.0
141
0.0
142
1.0
143
1.0
 70
  1712
 72
     0
 73
     0
 74
     0
  7

 75
     0
147
1.0
148
0.0
149
0.0
100
AcDbLayout
  1
Model
 70
     1
 71
     0
 10
0.0
 20
0.0
 11
12.0
 21
9.0
 12
0.0
 22
0.0
 32
0.0
 14
0.0
 24
0.0
 34
0.0
 15
0.0
 25
0.0
 35
0.0
146
0.0
 13
0.0
 23
0.0
 33
0.0
 16
1.0
 26
0.0
 36
0.0
 17
0.0
 27
1.0
 37
0.0
 76
     0
330
B31D
331
B782
  0
LAYOUT
  5
B7DA
102
{ACAD_XDICTIONARY
360
B837
102
}
102
{ACAD_REACTORS
330
B318
102
}
330
B318
100
AcDbPlotSettings
  1

  2
Canon LBP9100C
  4

  6

 40
0.0
 41
0.0
 42
0.0
 43
0.0
 44
0.0
 45
0.0
 46
0.0
 47
0.0
 48
0.0
 49
0.0
140
0.0
141
0.0
142
1.0
143
1.0
 70
   688
 72
     0
 73
     0
 74
     5
  7

 75
    16
147
1.0
148
0.0
149
0.0
100
AcDbLayout
  1
レイアウト1
 70
     0
 71
     1
 10
0.0
 20
0.0
 11
420.0
 21
297.0
 12
0.0
 22
0.0
 32
0.0
 14
1.000000000000000E+20
 24
1.000000000000000E+20
 34
1.000000000000000E+20
 15
-1.000000000000000E+20
 25
-1.000000000000000E+20
 35
-1.000000000000000E+20
146
0.0
 13
0.0
 23
0.0
 33
0.0
 16
1.0
 26
0.0
 36
0.0
 17
0.0
 27
1.0
 37
0.0
 76
     0
330
B319
  0
MATERIAL
  5
B795
102
{ACAD_XDICTIONARY
360
B796
102
}
102
{ACAD_REACTORS
330
B78C
102
}
330
B78C
100
AcDbMaterial
  1
ByBlock
 72
     0
 43
0.0208333333333333
 43
0.0
 43
0.0
 43
0.0
 43
0.0
 43
0.0208333333333333
 43
0.0
 43
0.0
 43
0.0
 43
0.0
 43
1.0
 43
0.0
 43
0.0
 43
0.0
 43
0.0
 43
1.0
 77
     0
 47
0.0208333333333333
 47
0.0
 47
0.0
 47
0.0
 47
0.0
 47
0.0208333333333333
 47
0.0
 47
0.0
 47
0.0
 47
0.0
 47
1.0
 47
0.0
 47
0.0
 47
0.0
 47
0.0
 47
1.0
171
     0
 49
0.0208333333333333
 49
0.0
 49
0.0
 49
0.0
 49
0.0
 49
0.0208333333333333
 49
0.0
 49
0.0
 49
0.0
 49
0.0
 49
1.0
 49
0.0
 49
0.0
 49
0.0
 49
0.0
 49
1.0
175
     0
142
0.0208333333333333
142
0.0
142
0.0
142
0.0
142
0.0
142
0.0208333333333333
142
0.0
142
0.0
142
0.0
142
0.0
142
1.0
142
0.0
142
0.0
142
0.0
142
0.0
142
1.0
179
     0
144
0.0208333333333333
144
0.0
144
0.0
144
0.0
144
0.0
144
0.0208333333333333
144
0.0
144
0.0
144
0.0
144
0.0
144
1.0
144
0.0
144
0.0
144
0.0
144
0.0
144
1.0
147
0.0208333333333333
147
0.0
147
0.0
147
0.0
147
0.0
147
0.0208333333333333
147
0.0
147
0.0
147
0.0
147
0.0
147
1.0
147
0.0
147
0.0
147
0.0
147
0.0
147
1.0
  0
MATERIAL
  5
B78D
102
{ACAD_XDICTIONARY
360
B78E
102
}
102
{ACAD_REACTORS
330
B78C
102
}
330
B78C
100
AcDbMaterial
  1
ByLayer
 72
     0
 43
0.0208333333333333
 43
0.0
 43
0.0
 43
0.0
 43
0.0
 43
0.0208333333333333
 43
0.0
 43
0.0
 43
0.0
 43
0.0
 43
1.0
 43
0.0
 43
0.0
 43
0.0
 43
0.0
 43
1.0
 77
     0
 47
0.0208333333333333
 47
0.0
 47
0.0
 47
0.0
 47
0.0
 47
0.0208333333333333
 47
0.0
 47
0.0
 47
0.0
 47
0.0
 47
1.0
 47
0.0
 47
0.0
 47
0.0
 47
0.0
 47
1.0
171
     0
 49
0.0208333333333333
 49
0.0
 49
0.0
 49
0.0
 49
0.0
 49
0.0208333333333333
 49
0.0
 49
0.0
 49
0.0
 49
0.0
 49
1.0
 49
0.0
 49
0.0
 49
0.0
 49
0.0
 49
1.0
175
     0
142
0.0208333333333333
142
0.0
142
0.0
142
0.0
142
0.0
142
0.0208333333333333
142
0.0
142
0.0
142
0.0
142
0.0
142
1.0
142
0.0
142
0.0
142
0.0
142
0.0
142
1.0
179
     0
144
0.0208333333333333
144
0.0
144
0.0
144
0.0
144
0.0
144
0.0208333333333333
144
0.0
144
0.0
144
0.0
144
0.0
144
1.0
144
0.0
144
0.0
144
0.0
144
0.0
144
1.0
147
0.0208333333333333
147
0.0
147
0.0
147
0.0
147
0.0
147
0.0208333333333333
147
0.0
147
0.0
147
0.0
147
0.0
147
1.0
147
0.0
147
0.0
147
0.0
147
0.0
147
1.0
  0
MATERIAL
  5
B79D
102
{ACAD_XDICTIONARY
360
B79E
102
}
102
{ACAD_REACTORS
330
B78C
102
}
330
B78C
100
AcDbMaterial
  1
Global
 72
     0
 43
0.0208333333333333
 43
0.0
 43
0.0
 43
0.0
 43
0.0
 43
0.0208333333333333
 43
0.0
 43
0.0
 43
0.0
 43
0.0
 43
1.0
 43
0.0
 43
0.0
 43
0.0
 43
0.0
 43
1.0
 77
     0
 47
0.0208333333333333
 47
0.0
 47
0.0
 47
0.0
 47
0.0
 47
0.0208333333333333
 47
0.0
 47
0.0
 47
0.0
 47
0.0
 47
1.0
 47
0.0
 47
0.0
 47
0.0
 47
0.0
 47
1.0
171
     0
 49
0.0208333333333333
 49
0.0
 49
0.0
 49
0.0
 49
0.0
 49
0.0208333333333333
 49
0.0
 49
0.0
 49
0.0
 49
0.0
 49
1.0
 49
0.0
 49
0.0
 49
0.0
 49
0.0
 49
1.0
175
     0
142
0.0208333333333333
142
0.0
142
0.0
142
0.0
142
0.0
142
0.0208333333333333
142
0.0
142
0.0
142
0.0
142
0.0
142
1.0
142
0.0
142
0.0
142
0.0
142
0.0
142
1.0
179
     0
144
0.0208333333333333
144
0.0
144
0.0
144
0.0
144
0.0
144
0.0208333333333333
144
0.0
144
0.0
144
0.0
144
0.0
144
1.0
144
0.0
144
0.0
144
0.0
144
0.0
144
1.0
147
0.0208333333333333
147
0.0
147
0.0
147
0.0
147
0.0
147
0.0208333333333333
147
0.0
147
0.0
147
0.0
147
0.0
147
1.0
147
0.0
147
0.0
147
0.0
147
0.0
147
1.0
  0
MLEADERSTYLE
  5
B7D4
102
{ACAD_REACTORS
330
B7D3
102
}
330
B7D3
100
AcDbMLeaderStyle
170
     2
171
     1
172
     0
 90
        2
 40
0.0
 41
0.0
173
     1
 91
-1056964608
340
B312
 92
       -2
290
     1
 42
0.09
291
     1
 43
0.36
  3
Standard
 44
0.18
300

342
B310
174
     1
178
     6
175
     1
176
     0
 93
-1056964608
 45
0.18
292
     0
297
     0
 46
0.18
 94
-1056964608
 47
1.0
 49
1.0
140
1.0
293
     1
141
0.0
294
     1
177
     0
142
1.0
295
     0
296
     0
143
0.125
1001
ACAD_MLEADERVER
1070
     2
  0
MLINESTYLE
  5
B316
102
{ACAD_REACTORS
330
B315
102
}
330
B315
100
AcDbMlineStyle
  2
STANDARD
 70
     0
  3

 62
   256
 51
90.0
 52
90.0
 71
     2
 49
0.5
 62
   256
  6
BYLAYER
 49
-0.5
 62
   256
  6
BYLAYER
  0
ACDBPLACEHOLDER
  5
B78B
102
{ACAD_REACTORS
330
B78A
102
}
330
B78A
  0
SCALE
  5
B7C2
102
{ACAD_REACTORS
330
B7C1
102
}
330
B7C1
100
AcDbScale
 70
     0
300
1:1
140
1.0
141
1.0
290
     1
  0
SCALE
  5
B7C3
102
{ACAD_REACTORS
330
B7C1
102
}
330
B7C1
100
AcDbScale
 70
     0
300
1/128" = 1'-0"
140
0.0078125
141
12.0
290
     0
  0
SCALE
  5
B7C4
102
{ACAD_REACTORS
330
B7C1
102
}
330
B7C1
100
AcDbScale
 70
     0
300
1/64" = 1'-0"
140
0.015625
141
12.0
290
     0
  0
SCALE
  5
B7C5
102
{ACAD_REACTORS
330
B7C1
102
}
330
B7C1
100
AcDbScale
 70
     0
300
1/32" = 1'-0"
140
0.03125
141
12.0
290
     0
  0
SCALE
  5
B7C6
102
{ACAD_REACTORS
330
B7C1
102
}
330
B7C1
100
AcDbScale
 70
     0
300
1/16" = 1'-0"
140
0.0625
141
12.0
290
     0
  0
SCALE
  5
B7C7
102
{ACAD_REACTORS
330
B7C1
102
}
330
B7C1
100
AcDbScale
 70
     0
300
3/32" = 1'-0"
140
0.09375
141
12.0
290
     0
  0
SCALE
  5
B7C8
102
{ACAD_REACTORS
330
B7C1
102
}
330
B7C1
100
AcDbScale
 70
     0
300
1/8" = 1'-0"
140
0.125
141
12.0
290
     0
  0
SCALE
  5
B7C9
102
{ACAD_REACTORS
330
B7C1
102
}
330
B7C1
100
AcDbScale
 70
     0
300
3/16" = 1'-0"
140
0.1875
141
12.0
290
     0
  0
SCALE
  5
B7CA
102
{ACAD_REACTORS
330
B7C1
102
}
330
B7C1
100
AcDbScale
 70
     0
300
1/4" = 1'-0"
140
0.25
141
12.0
290
     0
  0
SCALE
  5
B7CB
102
{ACAD_REACTORS
330
B7C1
102
}
330
B7C1
100
AcDbScale
 70
     0
300
3/8" = 1'-0"
140
0.375
141
12.0
290
     0
  0
SCALE
  5
B7CC
102
{ACAD_REACTORS
330
B7C1
102
}
330
B7C1
100
AcDbScale
 70
     0
300
1/2" = 1'-0"
140
0.5
141
12.0
290
     0
  0
SCALE
  5
B7CD
102
{ACAD_REACTORS
330
B7C1
102
}
330
B7C1
100
AcDbScale
 70
     0
300
3/4" = 1'-0"
140
0.75
141
12.0
290
     0
  0
SCALE
  5
B7CE
102
{ACAD_REACTORS
330
B7C1
102
}
330
B7C1
100
AcDbScale
 70
     0
300
1" = 1'-0"
140
1.0
141
12.0
290
     0
  0
SCALE
  5
B7CF
102
{ACAD_REACTORS
330
B7C1
102
}
330
B7C1
100
AcDbScale
 70
     0
300
1-1/2" = 1'-0"
140
1.5
141
12.0
290
     0
  0
SCALE
  5
B7D0
102
{ACAD_REACTORS
330
B7C1
102
}
330
B7C1
100
AcDbScale
 70
     0
300
3" = 1'-0"
140
3.0
141
12.0
290
     0
  0
SCALE
  5
B7D1
102
{ACAD_REACTORS
330
B7C1
102
}
330
B7C1
100
AcDbScale
 70
     0
300
6" = 1'-0"
140
6.0
141
12.0
290
     0
  0
SCALE
  5
B7D2
102
{ACAD_REACTORS
330
B7C1
102
}
330
B7C1
100
AcDbScale
 70
     0
300
1'-0" = 1'-0"
140
12.0
141
12.0
290
     0
  0
ACDBSECTIONVIEWSTYLE
  5
B7D6
102
{ACAD_XDICTIONARY
360
B831
102
}
102
{ACAD_REACTORS
330
B7D5
102
}
330
B7D5
100
AcDbModelDocViewStyle
 70
     0
  3
Imperial24
290
     0
100
AcDbSectionViewStyle
 70
     0
 71
     0
 90
       78
 71
     1
340
B310
 40
0.24
340
0
340
0
 40
0.24
300
I, O, Q, S, X, Z
 40
0.48
 90
        3
 40
0.18
 90
        1
 71
     2
340
B314
 90
       25
340
B314
 90
       50
 40
0.24
 40
0.0
 40
0.24
 71
     3
340
B310
 40
0.24
 90
        1
 40
0.75
 90
        1
300
%<\AcVar ViewType \f "%tc1">% %<\AcVar ViewSectionStartId>%-%<\AcVar ViewSectionEndId>%\PSCALE %<\AcVar ViewScale \f "%sn">%
 71
     4
300
ANSI31
 40
1.0
 90
        0
290
     0
290
     0
 90
        6
 40
0.0
 40
1.570796326794896
 40
0.2617993877991494
 40
1.308996938995747
 40
-0.2617993877991494
 40
1.832595714594046
  0
TABLESTYLE
  5
B7C0
102
{ACAD_XDICTIONARY
360
B7F8
102
}
102
{ACAD_REACTORS
330
B7BF
102
}
330
B7BF
100
AcDbTableStyle
  3
Standard
 70
     0
 71
     0
 40
0.06
 41
0.06
280
     0
281
     0
  7
STANDARD
140
0.18
170
     2
 62
     0
 63
     7
283
     0
274
    -2
284
     1
 64
     0
275
    -2
285
     1
 65
     0
276
    -2
286
     1
 66
     0
277
    -2
287
     1
 67
     0
278
    -2
288
     1
 68
     0
279
    -2
289
     1
 69
     0
  7
STANDARD
140
0.25
170
     5
 62
     0
 63
     7
283
     0
274
    -2
284
     1
 64
     0
275
    -2
285
     1
 65
     0
276
    -2
286
     1
 66
     0
277
    -2
287
     1
 67
     0
278
    -2
288
     1
 68
     0
279
    -2
289
     1
 69
     0
  7
STANDARD
140
0.18
170
     5
 62
     0
 63
     7
283
     0
274
    -2
284
     1
 64
     0
275
    -2
285
     1
 65
     0
276
    -2
286
     1
 66
     0
277
    -2
287
     1
 67
     0
278
    -2
288
     1
 68
     0
279
    -2
289
     1
 69
     0
  0
VISUALSTYLE
  5
B7AB
102
{ACAD_XDICTIONARY
360
B809
102
}
102
{ACAD_REACTORS
330
B7A5
102
}
330
B7A5
100
AcDbVisualStyle
  2
2dWireframe
 70
     4
 71
     0
 72
     2
 73
     0
 90
        0
 40
-0.6
 41
-30.0
 62
     5
 63
     7
 74
     1
 91
        4
 64
     7
 65
   257
 75
     1
175
     1
 42
1.0
 92
        0
 66
   257
 43
1.0
 76
     1
 77
     6
 78
     2
 67
     7
 79
     5
170
     0
171
     0
290
     0
174
     0
 93
        1
 44
0.0
173
     0
291
     0
 45
0.0
1001
ACAD
1000
AcDbSavedByObjectVersion
1070
     0
  0
VISUALSTYLE
  5
B7AA
102
{ACAD_XDICTIONARY
360
B807
102
}
102
{ACAD_REACTORS
330
B7A5
102
}
330
B7A5
100
AcDbVisualStyle
  2
Basic
 70
     7
 71
     1
 72
     0
 73
     1
 90
        0
 40
-0.6
 41
-30.0
 62
     5
 63
     7
 74
     0
 91
        4
 64
     7
 65
   257
 75
     1
175
     1
 42
1.0
 92
        8
 66
     7
 43
1.0
 76
     1
 77
     6
 78
     2
 67
     7
 79
     5
170
     0
171
     0
290
     0
174
     0
 93
        1
 44
0.0
173
     0
291
     1
 45
0.0
1001
ACAD
1000
AcDbSavedByObjectVersion
1070
     0
  0
VISUALSTYLE
  5
B7B1
102
{ACAD_XDICTIONARY
360
B815
102
}
102
{ACAD_REACTORS
330
B7A5
102
}
330
B7A5
100
AcDbVisualStyle
  2
Brighten
 70
    12
 71
     2
 72
     2
 73
     0
 90
        0
 40
-0.6
 41
-30.0
 62
     5
 63
     7
 74
     1
 91
        4
 64
     7
 65
   257
 75
     1
175
     1
 42
1.0
 92
        8
 66
     7
 43
1.0
 76
     1
 77
     6
 78
     2
 67
     7
 79
     5
170
     0
171
     0
290
     0
174
     0
 93
        1
 44
50.0
173
     0
291
     1
 45
0.0
1001
ACAD
1000
AcDbSavedByObjectVersion
1070
     0
  0
VISUALSTYLE
  5
B7B5
102
{ACAD_XDICTIONARY
360
B81D
102
}
102
{ACAD_REACTORS
330
B7A5
102
}
330
B7A5
100
AcDbVisualStyle
  2
ColorChange
 70
    16
 71
     2
 72
     2
 73
     3
 90
        0
 40
-0.6
 41
-30.0
 62
     5
 63
     8
 74
     1
 91
        4
 64
     7
 65
   257
 75
     1
175
     1
 42
1.0
 92
        8
 66
     8
 43
1.0
 76
     1
 77
     6
 78
     2
 67
     7
 79
     5
170
     0
171
     0
290
     0
174
     0
 93
        1
 44
0.0
173
     0
291
     1
 45
0.0
1001
ACAD
1000
AcDbSavedByObjectVersion
1070
     0
  0
VISUALSTYLE
  5
B7AE
102
{ACAD_XDICTIONARY
360
B80F
102
}
102
{ACAD_REACTORS
330
B7A5
102
}
330
B7A5
100
AcDbVisualStyle
  2
Conceptual
 70
     9
 71
     3
 72
     2
 73
     0
 90
        0
 40
-0.6
 41
-30.0
 62
     5
 63
     7
 74
     2
 91
        2
 64
     7
 65
   257
 75
     1
175
     1
 42
179.0
 92
        8
 66
     7
 43
1.0
 76
     1
 77
     6
 78
     2
 67
     7
 79
     3
170
     0
171
     0
290
     0
174
     0
 93
        1
 44
0.0
173
     0
291
     0
 45
0.0
1001
ACAD
1000
AcDbSavedByObjectVersion
1070
     0
  0
VISUALSTYLE
  5
B7B0
102
{ACAD_XDICTIONARY
360
B813
102
}
102
{ACAD_REACTORS
330
B7A5
102
}
330
B7A5
100
AcDbVisualStyle
  2
Dim
 70
    11
 71
     2
 72
     2
 73
     0
 90
        0
 40
-0.6
 41
-30.0
 62
     5
 63
     7
 74
     1
 91
        4
 64
     7
 65
   257
 75
     1
175
     1
 42
1.0
 92
        8
 66
     7
 43
1.0
 76
     1
 77
     6
 78
     2
 67
     7
 79
     5
170
     0
171
     0
290
     0
174
     0
 93
        1
 44
-50.0
173
     0
291
     1
 45
0.0
1001
ACAD
1000
AcDbSavedByObjectVersion
1070
     0
  0
VISUALSTYLE
  5
B7BD
102
{ACAD_XDICTIONARY
360
B82D
102
}
102
{ACAD_REACTORS
330
B7A5
102
}
330
B7A5
100
AcDbVisualStyle
  2
EdgeColorOff
 70
    22
 71
     2
 72
     2
 73
     0
 90
        0
 40
-0.6
 41
-30.0
 62
     5
 63
     7
 74
     1
 91
        4
 64
     7
 65
   257
 75
     1
175
     1
 42
1.0
 92
        8
 66
     7
 43
1.0
 76
     1
 77
     6
 78
     2
 67
     7
 79
     5
170
     0
171
     0
290
     0
174
     0
 93
        1
 44
0.0
173
     0
291
     1
 45
0.0
1001
ACAD
1000
AcDbSavedByObjectVersion
1070
     0
  0
VISUALSTYLE
  5
B7B4
102
{ACAD_XDICTIONARY
360
B81B
102
}
102
{ACAD_REACTORS
330
B7A5
102
}
330
B7A5
100
AcDbVisualStyle
  2
Facepattern
 70
    15
 71
     2
 72
     2
 73
     0
 90
        0
 40
-0.6
 41
-30.0
 62
     5
 63
     7
 74
     1
 91
        4
 64
     7
 65
   257
 75
     1
175
     1
 42
1.0
 92
        8
 66
     7
 43
1.0
 76
     1
 77
     6
 78
     2
 67
     7
 79
     5
170
     0
171
     0
290
     0
174
     0
 93
        1
 44
0.0
173
     0
291
     1
 45
0.0
1001
ACAD
1000
AcDbSavedByObjectVersion
1070
     0
  0
VISUALSTYLE
  5
B7A6
102
{ACAD_XDICTIONARY
360
B7FF
102
}
102
{ACAD_REACTORS
330
B7A5
102
}
330
B7A5
100
AcDbVisualStyle
  2
Flat
 70
     0
 71
     2
 72
     1
 73
     1
 90
        2
 40
-0.6
 41
30.0
 62
     5
 63
     7
 74
     0
 91
        0
 64
     7
 65
   257
 75
     1
175
     1
 42
1.0
 92
        8
 66
     7
 43
1.0
 76
     1
 77
     6
 78
     2
 67
     7
 79
     5
170
     0
171
     0
290
     0
174
     0
 93
       13
 44
0.0
173
     0
291
     1
 45
0.0
1001
ACAD
1000
AcDbSavedByObjectVersion
1070
     0
  0
VISUALSTYLE
  5
B7A7
102
{ACAD_XDICTIONARY
360
B801
102
}
102
{ACAD_REACTORS
330
B7A5
102
}
330
B7A5
100
AcDbVisualStyle
  2
FlatWithEdges
 70
     1
 71
     2
 72
     1
 73
     1
 90
        2
 40
-0.6
 41
30.0
 62
     5
 63
     7
 74
     1
 91
        0
 64
     7
 65
   257
 75
     1
175
     1
 42
1.0
 92
        0
 66
   257
 43
1.0
 76
     1
 77
     6
 78
     2
 67
     7
 79
     5
170
     0
171
     0
290
     0
174
     0
 93
       13
 44
0.0
173
     0
291
     1
 45
0.0
1001
ACAD
1000
AcDbSavedByObjectVersion
1070
     0
  0
VISUALSTYLE
  5
B7A8
102
{ACAD_XDICTIONARY
360
B803
102
}
102
{ACAD_REACTORS
330
B7A5
102
}
330
B7A5
100
AcDbVisualStyle
  2
Gouraud
 70
     2
 71
     2
 72
     2
 73
     1
 90
        2
 40
-0.6
 41
30.0
 62
     5
 63
     7
 74
     0
 91
        0
 64
     7
 65
   257
 75
     1
175
     1
 42
1.0
 92
        0
 66
     7
 43
1.0
 76
     1
 77
     6
 78
     2
 67
     7
 79
     5
170
     0
171
     0
290
     0
174
     0
 93
       13
 44
0.0
173
     0
291
     1
 45
0.0
1001
ACAD
1000
AcDbSavedByObjectVersion
1070
     0
  0
VISUALSTYLE
  5
B7A9
102
{ACAD_XDICTIONARY
360
B805
102
}
102
{ACAD_REACTORS
330
B7A5
102
}
330
B7A5
100
AcDbVisualStyle
  2
GouraudWithEdges
 70
     3
 71
     2
 72
     2
 73
     1
 90
        2
 40
-0.6
 41
30.0
 62
     5
 63
     7
 74
     1
 91
        0
 64
     7
 65
   257
 75
     1
175
     1
 42
1.0
 92
        0
 66
   257
 43
1.0
 76
     1
 77
     6
 78
     2
 67
     7
 79
     5
170
     0
171
     0
290
     0
174
     0
 93
       13
 44
0.0
173
     0
291
     1
 45
0.0
1001
ACAD
1000
AcDbSavedByObjectVersion
1070
     0
  0
VISUALSTYLE
  5
B7AD
102
{ACAD_XDICTIONARY
360
B80D
102
}
102
{ACAD_REACTORS
330
B7A5
102
}
330
B7A5
100
AcDbVisualStyle
  2
Hidden
 70
     6
 71
     1
 72
     2
 73
     2
 90
        0
 40
-0.6
 41
-30.0
 62
     5
 63
     7
 74
     2
 91
        2
 64
     7
 65
   257
 75
     2
175
     1
 42
40.0
 92
        0
 66
   257
 43
1.0
 76
     1
 77
     6
 78
     2
 67
     7
 79
     3
170
     0
171
     0
290
     0
174
     0
 93
        1
 44
0.0
173
     0
291
     0
 45
0.0
1001
ACAD
1000
AcDbSavedByObjectVersion
1070
     0
  0
VISUALSTYLE
  5
B7BB
102
{ACAD_XDICTIONARY
360
B829
102
}
102
{ACAD_REACTORS
330
B7A5
102
}
330
B7A5
100
AcDbVisualStyle
  2
JitterOff
 70
    20
 71
     2
 72
     2
 73
     0
 90
        0
 40
-0.6
 41
-30.0
 62
     5
 63
     7
 74
     1
 91
        4
 64
     7
 65
   257
 75
     1
175
     1
 42
1.0
 92
       10
 66
     7
 43
1.0
 76
     1
 77
     6
 78
     2
 67
     7
 79
     5
170
     0
171
     0
290
     0
174
     0
 93
        1
 44
0.0
173
     0
291
     1
 45
0.0
1001
ACAD
1000
AcDbSavedByObjectVersion
1070
     0
  0
VISUALSTYLE
  5
B7B3
102
{ACAD_XDICTIONARY
360
B819
102
}
102
{ACAD_REACTORS
330
B7A5
102
}
330
B7A5
100
AcDbVisualStyle
  2
Linepattern
 70
    14
 71
     2
 72
     2
 73
     0
 90
        0
 40
-0.6
 41
-30.0
 62
     5
 63
     7
 74
     1
 91
        4
 64
     7
 65
   257
 75
     7
175
     7
 42
1.0
 92
        8
 66
     7
 43
1.0
 76
     1
 77
     6
 78
     2
 67
     7
 79
     5
170
     0
171
     0
290
     0
174
     0
 93
        1
 44
0.0
173
     0
291
     1
 45
0.0
1001
ACAD
1000
AcDbSavedByObjectVersion
1070
     0
  0
VISUALSTYLE
  5
B7BC
102
{ACAD_XDICTIONARY
360
B82B
102
}
102
{ACAD_REACTORS
330
B7A5
102
}
330
B7A5
100
AcDbVisualStyle
  2
OverhangOff
 70
    21
 71
     2
 72
     2
 73
     0
 90
        0
 40
-0.6
 41
-30.0
 62
     5
 63
     7
 74
     1
 91
        4
 64
     7
 65
   257
 75
     1
175
     1
 42
1.0
 92
        9
 66
     7
 43
1.0
 76
     1
 77
     6
 78
     2
 67
     7
 79
     5
170
     0
171
     0
290
     0
174
     0
 93
        1
 44
0.0
173
     0
291
     1
 45
0.0
1001
ACAD
1000
AcDbSavedByObjectVersion
1070
     0
  0
VISUALSTYLE
  5
B7AF
102
{ACAD_XDICTIONARY
360
B811
102
}
102
{ACAD_REACTORS
330
B7A5
102
}
330
B7A5
100
AcDbVisualStyle
  2
Realistic
 70
     8
 71
     2
 72
     3
 73
     0
 90
        2
 40
-0.6
 41
30.0
 62
     5
 63
     7
 74
     0
 91
        0
 64
     7
 65
   257
 75
     1
175
     1
 42
1.0
 92
        8
 66
   257
 43
1.0
 76
     1
 77
     6
 78
     2
 67
     7
 79
     3
170
     0
171
     0
290
     0
174
     0
 93
       13
 44
0.0
173
     0
291
     0
 45
0.0
1001
ACAD
1000
AcDbSavedByObjectVersion
1070
     0
  0
VISUALSTYLE
  5
B7BA
102
{ACAD_XDICTIONARY
360
B827
102
}
102
{ACAD_REACTORS
330
B7A5
102
}
330
B7A5
100
AcDbVisualStyle
  2
Shaded
 70
    27
 71
     2
 72
     2
 73
     1
 90
        2
 40
-0.6
 41
30.0
 62
     5
 63
     7
 74
     0
 91
        4
 64
     7
 65
   257
 75
     1
175
     1
 42
1.0
 92
        8
 66
   257
 43
1.0
 76
     1
 77
     6
 78
     2
 67
     8
 79
     3
170
     0
171
     0
290
     0
174
     0
 93
        5
 44
0.0
173
     0
291
     0
 45
0.0
1001
ACAD
1000
AcDbSavedByObjectVersion
1070
     0
  0
VISUALSTYLE
  5
B7B9
102
{ACAD_XDICTIONARY
360
B825
102
}
102
{ACAD_REACTORS
330
B7A5
102
}
330
B7A5
100
AcDbVisualStyle
  2
Shaded with edges
 70
    26
 71
     2
 72
     2
 73
     1
 90
        2
 40
-0.6
 41
30.0
 62
     5
 63
     7
 74
     1
 91
       10
 64
     7
 65
   257
 75
     2
175
     1
 42
1.0
 92
        8
 66
   257
 43
1.0
 76
     1
 77
     6
 78
     2
 67
     7
 79
     3
170
     0
171
     0
290
     0
174
     0
 93
        5
 44
0.0
173
     0
291
     0
 45
0.0
1001
ACAD
1000
AcDbSavedByObjectVersion
1070
     0
  0
VISUALSTYLE
  5
B7B6
102
{ACAD_XDICTIONARY
360
B81F
102
}
102
{ACAD_REACTORS
330
B7A5
102
}
330
B7A5
100
AcDbVisualStyle
  2
Shades of Gray
 70
    23
 71
     2
 72
     2
 73
     3
 90
        0
 40
-0.6
 41
-30.0
 62
     5
 63
     7
 74
     2
 91
        2
 64
     7
 65
     7
 75
     1
175
     1
 42
40.0
 92
        8
 66
     7
 43
1.0
 76
     1
 77
     6
 78
     2
 67
     7
 79
     3
170
     0
171
     0
290
     0
174
     0
 93
        1
 44
0.0
173
     0
291
     0
 45
0.0
1001
ACAD
1000
AcDbSavedByObjectVersion
1070
     0
  0
VISUALSTYLE
  5
B7B7
102
{ACAD_XDICTIONARY
360
B821
102
}
102
{ACAD_REACTORS
330
B7A5
102
}
330
B7A5
100
AcDbVisualStyle
  2
Sketchy
 70
    24
 71
     1
 72
     2
 73
     2
 90
        0
 40
-0.6
 41
-30.0
 62
     5
 63
     7
 74
     2
 91
        2
 64
     7
 65
     7
 75
     1
175
     1
 42
40.0
 92
       11
 66
     7
 43
1.0
 76
     1
 77
     6
 78
     2
 67
     7
 79
     6
170
     0
171
     0
290
     0
174
     0
 93
        1
 44
0.0
173
     0
291
     0
 45
0.0
1001
ACAD
1000
AcDbSavedByObjectVersion
1070
     0
  0
VISUALSTYLE
  5
B7B2
102
{ACAD_XDICTIONARY
360
B817
102
}
102
{ACAD_REACTORS
330
B7A5
102
}
330
B7A5
100
AcDbVisualStyle
  2
Thicken
 70
    13
 71
     2
 72
     2
 73
     0
 90
        0
 40
-0.6
 41
-30.0
 62
     5
 63
     7
 74
     1
 91
        4
 64
     7
 65
   257
 75
     1
175
     1
 42
1.0
 92
       12
 66
     7
 43
1.0
 76
     1
 77
     6
 78
     2
 67
     7
 79
     5
170
     0
171
     0
290
     0
174
     0
 93
        1
 44
0.0
173
     0
291
     1
 45
0.0
1001
ACAD
1000
AcDbSavedByObjectVersion
1070
     0
  0
VISUALSTYLE
  5
B7AC
102
{ACAD_XDICTIONARY
360
B80B
102
}
102
{ACAD_REACTORS
330
B7A5
102
}
330
B7A5
100
AcDbVisualStyle
  2
Wireframe
 70
     5
 71
     0
 72
     2
 73
     0
 90
        0
 40
-0.6
 41
-30.0
 62
     5
 63
     7
 74
     1
 91
        4
 64
     7
 65
   257
 75
     1
175
     1
 42
1.0
 92
        0
 66
   257
 43
1.0
 76
     1
 77
     6
 78
     2
 67
     7
 79
     3
170
     0
171
     0
290
     0
174
     0
 93
        1
 44
0.0
173
     0
291
     0
 45
0.0
1001
ACAD
1000
AcDbSavedByObjectVersion
1070
     0
  0
VISUALSTYLE
  5
B7B8
102
{ACAD_XDICTIONARY
360
B823
102
}
102
{ACAD_REACTORS
330
B7A5
102
}
330
B7A5
100
AcDbVisualStyle
  2
X-Ray
 70
    25
 71
     2
 72
     2
 73
     1
 90
        1
 40
0.5
 41
-30.0
 62
     5
 63
     7
 74
     1
 91
        0
 64
     7
 65
   257
 75
     1
175
     1
 42
1.0
 92
        8
 66
     7
 43
1.0
 76
     1
 77
     6
 78
     2
 67
     7
 79
     3
170
     0
171
     0
290
     0
174
     0
 93
       13
 44
0.0
173
     0
291
     0
 45
0.0
1001
ACAD
1000
AcDbSavedByObjectVersion
1070
     0
  0
DICTIONARYVAR
  5
B7F2
102
{ACAD_REACTORS
330
B7ED
102
}
330
B7ED
100
DictionaryVariables
280
     0
  1
1:1
  0
DICTIONARYVAR
  5
B7EF
102
{ACAD_REACTORS
330
B7ED
102
}
330
B7ED
100
DictionaryVariables
280
     0
  1
STANDARD
  0
DICTIONARYVAR
  5
B7EE
102
{ACAD_REACTORS
330
B7ED
102
}
330
B7ED
100
DictionaryVariables
280
     0
  1
STANDARD
  0
DICTIONARYVAR
  5
B7F0
102
{ACAD_REACTORS
330
B7ED
102
}
330
B7ED
100
DictionaryVariables
280
     0
  1
Imperial24
  0
DICTIONARYVAR
  5
B7F1
102
{ACAD_REACTORS
330
B7ED
102
}
330
B7ED
100
DictionaryVariables
280
     0
  1
Imperial24
  0
DICTIONARYVAR
  5
B7F5
102
{ACAD_REACTORS
330
B7ED
102
}
330
B7ED
100
DictionaryVariables
280
     0
  1
1
  0
DICTIONARYVAR
  5
B7F4
102
{ACAD_REACTORS
330
B7ED
102
}
330
B7ED
100
DictionaryVariables
280
     0
  1
0
  0
DICTIONARYVAR
  5
B7F3
102
{ACAD_REACTORS
330
B7ED
102
}
330
B7ED
100
DictionaryVariables
280
     0
  1
127
  0
DICTIONARYVAR
  5
B7F6
102
{ACAD_REACTORS
330
B7ED
102
}
330
B7ED
100
DictionaryVariables
280
     0
  1
2
  0
DICTIONARY
  5
B833
330
B7D8
100
AcDbDictionary
280
     1
281
     1
  3
ACAD_XREC_ROUNDTRIP
360
B834
  0
DICTIONARY
  5
B835
330
B7D9
100
AcDbDictionary
280
     1
281
     1
  3
ACAD_XREC_ROUNDTRIP
360
B836
  0
DICTIONARY
  5
B837
330
B7DA
100
AcDbDictionary
280
     1
281
     1
  3
ACAD_XREC_ROUNDTRIP
360
B838
  0
DICTIONARY
  5
B796
330
B795
100
AcDbDictionary
280
     1
281
     1
  3
ACAD_XREC_ROUNDTRIP
360
B7FD
  3
BUMPTILE
360
B798
  3
DIFFUSETILE
360
B797
  3
OPACITYTILE
360
B79B
  3
REFLECTIONTILE
360
B79A
  3
REFRACTIONTILE
360
B79C
  3
SPECULARTILE
360
B799
  0
DICTIONARY
  5
B78E
330
B78D
100
AcDbDictionary
280
     1
281
     1
  3
ACAD_XREC_ROUNDTRIP
360
B7FC
  3
BUMPTILE
360
B790
  3
DIFFUSETILE
360
B78F
  3
OPACITYTILE
360
B793
  3
REFLECTIONTILE
360
B792
  3
REFRACTIONTILE
360
B794
  3
SPECULARTILE
360
B791
  0
DICTIONARY
  5
B79E
330
B79D
100
AcDbDictionary
280
     1
281
     1
  3
ACAD_XREC_ROUNDTRIP
360
B7FE
  3
BUMPTILE
360
B7A0
  3
DIFFUSETILE
360
B79F
  3
OPACITYTILE
360
B7A3
  3
REFLECTIONTILE
360
B7A2
  3
REFRACTIONTILE
360
B7A4
  3
SPECULARTILE
360
B7A1
  0
DICTIONARY
  5
B831
330
B7D6
100
AcDbDictionary
280
     1
281
     1
  3
ACAD_XREC_ROUNDTRIP
360
B832
  0
DICTIONARY
  5
B7F8
330
B7C0
100
AcDbDictionary
280
     1
281
     1
  3
ACAD_ROUNDTRIP_2008_TABLESTYLE_CELLSTYLEMAP
360
B7F9
  3
ACAD_XREC_ROUNDTRIP
360
B82F
  0
DICTIONARY
  5
B809
330
B7AB
100
AcDbDictionary
280
     1
281
     1
  3
ACAD_XREC_ROUNDTRIP
360
B80A
  0
DICTIONARY
  5
B807
330
B7AA
100
AcDbDictionary
280
     1
281
     1
  3
ACAD_XREC_ROUNDTRIP
360
B808
  0
DICTIONARY
  5
B815
330
B7B1
100
AcDbDictionary
280
     1
281
     1
  3
ACAD_XREC_ROUNDTRIP
360
B816
  0
DICTIONARY
  5
B81D
330
B7B5
100
AcDbDictionary
280
     1
281
     1
  3
ACAD_XREC_ROUNDTRIP
360
B81E
  0
DICTIONARY
  5
B80F
330
B7AE
100
AcDbDictionary
280
     1
281
     1
  3
ACAD_XREC_ROUNDTRIP
360
B810
  0
DICTIONARY
  5
B813
330
B7B0
100
AcDbDictionary
280
     1
281
     1
  3
ACAD_XREC_ROUNDTRIP
360
B814
  0
DICTIONARY
  5
B82D
330
B7BD
100
AcDbDictionary
280
     1
281
     1
  3
ACAD_XREC_ROUNDTRIP
360
B82E
  0
DICTIONARY
  5
B81B
330
B7B4
100
AcDbDictionary
280
     1
281
     1
  3
ACAD_XREC_ROUNDTRIP
360
B81C
  0
DICTIONARY
  5
B7FF
330
B7A6
100
AcDbDictionary
280
     1
281
     1
  3
ACAD_XREC_ROUNDTRIP
360
B800
  0
DICTIONARY
  5
B801
330
B7A7
100
AcDbDictionary
280
     1
281
     1
  3
ACAD_XREC_ROUNDTRIP
360
B802
  0
DICTIONARY
  5
B803
330
B7A8
100
AcDbDictionary
280
     1
281
     1
  3
ACAD_XREC_ROUNDTRIP
360
B804
  0
DICTIONARY
  5
B805
330
B7A9
100
AcDbDictionary
280
     1
281
     1
  3
ACAD_XREC_ROUNDTRIP
360
B806
  0
DICTIONARY
  5
B80D
330
B7AD
100
AcDbDictionary
280
     1
281
     1
  3
ACAD_XREC_ROUNDTRIP
360
B80E
  0
DICTIONARY
  5
B829
330
B7BB
100
AcDbDictionary
280
     1
281
     1
  3
ACAD_XREC_ROUNDTRIP
360
B82A
  0
DICTIONARY
  5
B819
330
B7B3
100
AcDbDictionary
280
     1
281
     1
  3
ACAD_XREC_ROUNDTRIP
360
B81A
  0
DICTIONARY
  5
B82B
330
B7BC
100
AcDbDictionary
280
     1
281
     1
  3
ACAD_XREC_ROUNDTRIP
360
B82C
  0
DICTIONARY
  5
B811
330
B7AF
100
AcDbDictionary
280
     1
281
     1
  3
ACAD_XREC_ROUNDTRIP
360
B812
  0
DICTIONARY
  5
B827
330
B7BA
100
AcDbDictionary
280
     1
281
     1
  3
ACAD_XREC_ROUNDTRIP
360
B828
  0
DICTIONARY
  5
B825
330
B7B9
100
AcDbDictionary
280
     1
281
     1
  3
ACAD_XREC_ROUNDTRIP
360
B826
  0
DICTIONARY
  5
B81F
330
B7B6
100
AcDbDictionary
280
     1
281
     1
  3
ACAD_XREC_ROUNDTRIP
360
B820
  0
DICTIONARY
  5
B821
330
B7B7
100
AcDbDictionary
280
     1
281
     1
  3
ACAD_XREC_ROUNDTRIP
360
B822
  0
DICTIONARY
  5
B817
330
B7B2
100
AcDbDictionary
280
     1
281
     1
  3
ACAD_XREC_ROUNDTRIP
360
B818
  0
DICTIONARY
  5
B80B
330
B7AC
100
AcDbDictionary
280
     1
281
     1
  3
ACAD_XREC_ROUNDTRIP
360
B80C
  0
DICTIONARY
  5
B823
330
B7B8
100
AcDbDictionary
280
     1
281
     1
  3
ACAD_XREC_ROUNDTRIP
360
B824
  0
XRECORD
  5
B834
102
{ACAD_REACTORS
330
B833
102
}
330
B833
100
AcDbXrecord
280
     1
102
DISPLAYNAME
  1
Imperial24
102
FLAGS
 90
        0
  0
XRECORD
  5
B836
102
{ACAD_REACTORS
330
B835
102
}
330
B835
100
AcDbXrecord
280
     1
102
SHADEPLOT
 70
     0
102
SHADEPLOTRESLEVEL
 70
     2
102
SHADEPLOTCUSTOMDPI
 70
   300
  0
XRECORD
  5
B838
102
{ACAD_REACTORS
330
B837
102
}
330
B837
100
AcDbXrecord
280
     1
102
SHADEPLOT
 70
     0
102
SHADEPLOTRESLEVEL
 70
     2
102
SHADEPLOTCUSTOMDPI
 70
   300
  0
XRECORD
  5
B7FD
102
{ACAD_REACTORS
330
B796
102
}
330
B796
100
AcDbXrecord
280
     1
102
MATERIAL
148
0.0
149
0.0
149
0.0
 93
        0
 94
      127
282
     0
 72
     0
 77
     0
171
     0
175
     0
179
     0
273
     0
  0
XRECORD
  5
B798
102
{ACAD_REACTORS
330
B796
102
}
330
B796
100
AcDbXrecord
280
     1
270
     1
271
     1
  0
XRECORD
  5
B797
102
{ACAD_REACTORS
330
B796
102
}
330
B796
100
AcDbXrecord
280
     1
270
     1
271
     1
  0
XRECORD
  5
B79B
102
{ACAD_REACTORS
330
B796
102
}
330
B796
100
AcDbXrecord
280
     1
270
     1
271
     1
  0
XRECORD
  5
B79A
102
{ACAD_REACTORS
330
B796
102
}
330
B796
100
AcDbXrecord
280
     1
270
     1
271
     1
  0
XRECORD
  5
B79C
102
{ACAD_REACTORS
330
B796
102
}
330
B796
100
AcDbXrecord
280
     1
270
     1
271
     1
  0
XRECORD
  5
B799
102
{ACAD_REACTORS
330
B796
102
}
330
B796
100
AcDbXrecord
280
     1
270
     1
271
     1
  0
XRECORD
  5
B7FC
102
{ACAD_REACTORS
330
B78E
102
}
330
B78E
100
AcDbXrecord
280
     1
102
MATERIAL
148
0.0
149
0.0
149
0.0
 93
        0
 94
      127
282
     0
 72
     0
 77
     0
171
     0
175
     0
179
     0
273
     0
  0
XRECORD
  5
B790
102
{ACAD_REACTORS
330
B78E
102
}
330
B78E
100
AcDbXrecord
280
     1
270
     1
271
     1
  0
XRECORD
  5
B78F
102
{ACAD_REACTORS
330
B78E
102
}
330
B78E
100
AcDbXrecord
280
     1
270
     1
271
     1
  0
XRECORD
  5
B793
102
{ACAD_REACTORS
330
B78E
102
}
330
B78E
100
AcDbXrecord
280
     1
270
     1
271
     1
  0
XRECORD
  5
B792
102
{ACAD_REACTORS
330
B78E
102
}
330
B78E
100
AcDbXrecord
280
     1
270
     1
271
     1
  0
XRECORD
  5
B794
102
{ACAD_REACTORS
330
B78E
102
}
330
B78E
100
AcDbXrecord
280
     1
270
     1
271
     1
  0
XRECORD
  5
B791
102
{ACAD_REACTORS
330
B78E
102
}
330
B78E
100
AcDbXrecord
280
     1
270
     1
271
     1
  0
XRECORD
  5
B7FE
102
{ACAD_REACTORS
330
B79E
102
}
330
B79E
100
AcDbXrecord
280
     1
102
MATERIAL
148
0.0
149
0.0
149
0.0
 93
        0
 94
      127
282
     0
 72
     0
 77
     0
171
     0
175
     0
179
     0
273
     0
  0
XRECORD
  5
B7A0
102
{ACAD_REACTORS
330
B79E
102
}
330
B79E
100
AcDbXrecord
280
     1
270
     1
271
     1
  0
XRECORD
  5
B79F
102
{ACAD_REACTORS
330
B79E
102
}
330
B79E
100
AcDbXrecord
280
     1
270
     1
271
     1
  0
XRECORD
  5
B7A3
102
{ACAD_REACTORS
330
B79E
102
}
330
B79E
100
AcDbXrecord
280
     1
270
     1
271
     1
  0
XRECORD
  5
B7A2
102
{ACAD_REACTORS
330
B79E
102
}
330
B79E
100
AcDbXrecord
280
     1
270
     1
271
     1
  0
XRECORD
  5
B7A4
102
{ACAD_REACTORS
330
B79E
102
}
330
B79E
100
AcDbXrecord
280
     1
270
     1
271
     1
  0
XRECORD
  5
B7A1
102
{ACAD_REACTORS
330
B79E
102
}
330
B79E
100
AcDbXrecord
280
     1
270
     1
271
     1
  0
XRECORD
  5
B832
102
{ACAD_REACTORS
330
B831
102
}
330
B831
100
AcDbXrecord
280
     1
102
DISPLAYNAME
  1
Imperial24
102
FLAGS
 90
        0
  0
CELLSTYLEMAP
  5
B7F9
102
{ACAD_REACTORS
330
B7F8
102
}
330
B7F8
100
AcDbCellStyleMap
 90
        3
300
CELLSTYLE
  1
TABLEFORMAT_BEGIN
 90
        5
170
     1
 91
        0
 92
    32768
 62
   257
 93
        1
300
CONTENTFORMAT
  1
CONTENTFORMAT_BEGIN
 90
        0
 91
        0
 92
      512
 93
        0
300

 40
0.0
140
1.0
 94
        5
 62
     0
340
B310
144
0.25
309
CONTENTFORMAT_END
171
     0
 94
        0
309
TABLEFORMAT_END
  1
CELLSTYLE_BEGIN
 90
        1
 91
        1
300
_TITLE
309
CELLSTYLE_END
300
CELLSTYLE
  1
TABLEFORMAT_BEGIN
 90
        5
170
     1
 91
        0
 92
        0
 62
   257
 93
        1
300
CONTENTFORMAT
  1
CONTENTFORMAT_BEGIN
 90
        0
 91
        0
 92
      512
 93
        0
300

 40
0.0
140
1.0
 94
        5
 62
     0
340
B310
144
0.18
309
CONTENTFORMAT_END
171
     0
 94
        0
309
TABLEFORMAT_END
  1
CELLSTYLE_BEGIN
 90
        2
 91
        1
300
_HEADER
309
CELLSTYLE_END
300
CELLSTYLE
  1
TABLEFORMAT_BEGIN
 90
        5
170
     1
 91
        0
 92
        0
 62
   257
 93
        1
300
CONTENTFORMAT
  1
CONTENTFORMAT_BEGIN
 90
        0
 91
        0
 92
      512
 93
        0
300

 40
0.0
140
1.0
 94
        2
 62
     0
340
B310
144
0.18
309
CONTENTFORMAT_END
171
     0
 94
        0
309
TABLEFORMAT_END
  1
CELLSTYLE_BEGIN
 90
        3
 91
        2
300
_DATA
309
CELLSTYLE_END
  0
XRECORD
  5
B82F
102
{ACAD_REACTORS
330
B7F8
102
}
330
B7F8
100
AcDbXrecord
280
     1
102
ACAD_ROUNDTRIP_PRE2007_TABLESTYLE
 90
      512
 91
        0
  1

 92
      512
 93
        0
  2

 94
      512
 95
        0
  3

  0
XRECORD
  5
B80A
102
{ACAD_REACTORS
330
B809
102
}
330
B809
100
AcDbXrecord
280
     1
102
RTVSPost2010Prop28
280
     1
102
RTVSPost2010PropOp28
 70
     1
102
RTVSPost2010Prop29
280
     1
102
RTVSPost2010PropOp29
 70
     1
102
RTVSPost2010Prop30
280
     0
102
RTVSPost2010PropOp30
 70
     1
102
RTVSPost2010Prop31
280
     0
102
RTVSPost2010PropOp31
 70
     1
102
RTVSPost2010Prop32
280
     0
102
RTVSPost2010PropOp32
 70
     1
102
RTVSPost2010Prop33
280
     0
102
RTVSPost2010PropOp33
 70
     1
102
RTVSPost2010Prop34
280
     0
102
RTVSPost2010PropOp34
 70
     1
102
RTVSPost2010Prop35
280
     0
102
RTVSPost2010PropOp35
 70
     1
102
RTVSPost2010Prop36
280
     0
102
RTVSPost2010PropOp36
 70
     1
102
RTVSPost2010Prop37
 90
       50
102
RTVSPost2010PropOp37
 70
     1
102
RTVSPost2010Prop38
140
0.0
102
RTVSPost2010PropOp38
 70
     1
102
RTVSPost2010Prop39
140
1.0
102
RTVSPost2010PropOp39
 70
     1
102
RTVSPost2010Prop40
 90
        0
102
RTVSPost2010PropOp40
 70
     1
102
RTVSPost2010Prop41ColorIndex
 90
       18
102
RTVSPost2010Prop41ColorRGB
 90
        0
102
RTVSPost2010PropOp41
 70
     1
102
RTVSPost2010Prop42
 90
       50
102
RTVSPost2010PropOp42
 70
     1
102
RTVSPost2010Prop43
 90
        3
102
RTVSPost2010PropOp43
 70
     1
102
RTVSPost2010Prop44ColorIndex
 90
        5
102
RTVSPost2010Prop44ColorRGB
 90
      255
102
RTVSPost2010PropOp44
 70
     1
102
RTVSPost2010Prop45
280
     0
102
RTVSPost2010PropOp45
 70
     1
102
RTVSPost2010Prop46
 90
       50
102
RTVSPost2010PropOp46
 70
     1
102
RTVSPost2010Prop47
 90
       50
102
RTVSPost2010PropOp47
 70
     1
102
RTVSPost2010Prop48
 90
       50
102
RTVSPost2010PropOp48
 70
     1
102
RTVSPost2010Prop49
280
     0
102
RTVSPost2010PropOp49
 70
     1
102
RTVSPost2010Prop50
 90
       50
102
RTVSPost2010PropOp50
 70
     1
102
RTVSPost2010Prop51ColorIndex
 90
      256
102
RTVSPost2010Prop51ColorRGB
 90
-16777216
102
RTVSPost2010PropOp51
 70
     0
102
RTVSPost2010Prop52
140
1.0
102
RTVSPost2010PropOp52
 70
     0
102
RTVSPost2010Prop53
 90
        2
102
RTVSPost2010PropOp53
 70
     1
102
RTVSPost2010Prop54
  1
strokes_ogs.tif
102
RTVSPost2010PropOp54
 70
     1
102
RTVSPost2010Prop55
280
     0
102
RTVSPost2010PropOp55
 70
     1
102
RTVSPost2010Prop56
140
1.0
102
RTVSPost2010PropOp56
 70
     1
102
RTVSPost2010Prop57
140
1.0
102
RTVSPost2010PropOp57
 70
     1
102
RTVSPropertyOp0
 70
     1
102
RTVSPropertyOp1
 70
     1
102
RTVSPropertyOp2
 70
     1
102
RTVSPropertyOp3
 70
     1
102
RTVSPropertyOp4
 70
     1
102
RTVSPropertyOp5
 70
     1
102
RTVSPropertyOp6
 70
     1
102
RTVSPropertyOp7
 70
     1
102
RTVSPropertyOp8
 70
     1
102
RTVSPropertyOp9
 70
     1
102
RTVSPropertyOp10
 70
     1
102
RTVSPropertyOp11
 70
     1
102
RTVSPropertyOp12
 70
     1
102
RTVSPropertyOp13
 70
     1
102
RTVSPropertyOp14
 70
     1
102
RTVSPropertyOp15
 70
     1
102
RTVSPropertyOp16
 70
     1
102
RTVSPropertyOp17
 70
     1
102
RTVSPropertyOp18
 70
     1
102
RTVSPropertyOp19
 70
     1
102
RTVSPropertyOp20
 70
     1
102
RTVSPropertyOp21
 70
     1
102
RTVSPropertyOp22
 70
     1
102
RTVSPropertyOp23
 70
     1
102
RTVSPropertyOp24
 70
     1
102
RTVSPropertyOp25
 70
     1
102
RTVSPropertyOp26
 70
     1
102
RTVSPropertyOp27
 70
     1
102
RTVSPropertyOp28
 70
     1
102
RTVSPropertyOp29
 70
     1
102
RTVSPropertyOp30
 70
     1
102
RTVSPropertyOp31
 70
     1
102
RTVSPropertyOp32
 70
     1
102
RTVSPropertyOp33
 70
     1
102
RTVSPropertyOp34
 70
     1
102
RTVSPropertyOp35
 70
     1
102
RTVSPropertyOp36
 70
     1
102
RTVSPropertyOp37
 70
     1
102
RTVSPropertyOp38
 70
     1
102
RTVSPropertyOp39
 70
     1
102
RTVSPropertyOp40
 70
     1
102
RTVSPropertyOp41
 70
     1
102
RTVSPropertyOp42
 70
     1
102
RTVSPropertyOp43
 70
     1
102
RTVSPropertyOp44
 70
     1
102
RTVSPropertyOp45
 70
     1
102
RTVSPropertyOp46
 70
     1
102
RTVSPropertyOp47
 70
     1
102
RTVSPropertyOp48
 70
     1
102
RTVSPropertyOp49
 70
     1
102
RTVSPropertyOp50
 70
     1
102
RTVSPropertyOp51
 70
     0
102
RTVSPropertyOp52
 70
     0
102
RTVSPropertyOp53
 70
     1
102
RTVSPropertyOp54
 70
     1
102
RTVSPropertyOp55
 70
     1
102
RTVSPropertyOp56
 70
     1
102
RTVSPropertyOp57
 70
     1
102
RTVSPropertyOp58
 70
     1
102
RTVSPropertyOp59
 70
     1
102
RTVSPropertyOp60
 70
     1
102
RTVSPropertyOp61
 70
     1
102
RTVSPropertyOp62
 70
     1
  0
XRECORD
  5
B808
102
{ACAD_REACTORS
330
B807
102
}
330
B807
100
AcDbXrecord
280
     1
102
RTVSPost2010Prop28
280
     0
102
RTVSPost2010PropOp28
 70
     1
102
RTVSPost2010Prop29
280
     1
102
RTVSPost2010PropOp29
 70
     1
102
RTVSPost2010Prop30
280
     1
102
RTVSPost2010PropOp30
 70
     1
102
RTVSPost2010Prop31
280
     0
102
RTVSPost2010PropOp31
 70
     1
102
RTVSPost2010Prop32
280
     0
102
RTVSPost2010PropOp32
 70
     1
102
RTVSPost2010Prop33
280
     0
102
RTVSPost2010PropOp33
 70
     1
102
RTVSPost2010Prop34
280
     0
102
RTVSPost2010PropOp34
 70
     1
102
RTVSPost2010Prop35
280
     0
102
RTVSPost2010PropOp35
 70
     1
102
RTVSPost2010Prop36
280
     0
102
RTVSPost2010PropOp36
 70
     1
102
RTVSPost2010Prop37
 90
       50
102
RTVSPost2010PropOp37
 70
     1
102
RTVSPost2010Prop38
140
0.0
102
RTVSPost2010PropOp38
 70
     1
102
RTVSPost2010Prop39
140
1.0
102
RTVSPost2010PropOp39
 70
     1
102
RTVSPost2010Prop40
 90
        0
102
RTVSPost2010PropOp40
 70
     1
102
RTVSPost2010Prop41ColorIndex
 90
       18
102
RTVSPost2010Prop41ColorRGB
 90
        0
102
RTVSPost2010PropOp41
 70
     1
102
RTVSPost2010Prop42
 90
       50
102
RTVSPost2010PropOp42
 70
     1
102
RTVSPost2010Prop43
 90
        3
102
RTVSPost2010PropOp43
 70
     1
102
RTVSPost2010Prop44ColorIndex
 90
        5
102
RTVSPost2010Prop44ColorRGB
 90
      255
102
RTVSPost2010PropOp44
 70
     1
102
RTVSPost2010Prop45
280
     0
102
RTVSPost2010PropOp45
 70
     1
102
RTVSPost2010Prop46
 90
       50
102
RTVSPost2010PropOp46
 70
     1
102
RTVSPost2010Prop47
 90
       50
102
RTVSPost2010PropOp47
 70
     1
102
RTVSPost2010Prop48
 90
       50
102
RTVSPost2010PropOp48
 70
     1
102
RTVSPost2010Prop49
280
     0
102
RTVSPost2010PropOp49
 70
     1
102
RTVSPost2010Prop50
 90
       50
102
RTVSPost2010PropOp50
 70
     1
102
RTVSPost2010Prop51ColorIndex
 90
      256
102
RTVSPost2010Prop51ColorRGB
 90
-16777216
102
RTVSPost2010PropOp51
 70
     0
102
RTVSPost2010Prop52
140
1.0
102
RTVSPost2010PropOp52
 70
     0
102
RTVSPost2010Prop53
 90
        2
102
RTVSPost2010PropOp53
 70
     1
102
RTVSPost2010Prop54
  1
strokes_ogs.tif
102
RTVSPost2010PropOp54
 70
     1
102
RTVSPost2010Prop55
280
     0
102
RTVSPost2010PropOp55
 70
     1
102
RTVSPost2010Prop56
140
1.0
102
RTVSPost2010PropOp56
 70
     1
102
RTVSPost2010Prop57
140
1.0
102
RTVSPost2010PropOp57
 70
     1
102
RTVSPropertyOp0
 70
     1
102
RTVSPropertyOp1
 70
     1
102
RTVSPropertyOp2
 70
     1
102
RTVSPropertyOp3
 70
     1
102
RTVSPropertyOp4
 70
     1
102
RTVSPropertyOp5
 70
     1
102
RTVSPropertyOp6
 70
     1
102
RTVSPropertyOp7
 70
     1
102
RTVSPropertyOp8
 70
     1
102
RTVSPropertyOp9
 70
     1
102
RTVSPropertyOp10
 70
     1
102
RTVSPropertyOp11
 70
     1
102
RTVSPropertyOp12
 70
     1
102
RTVSPropertyOp13
 70
     1
102
RTVSPropertyOp14
 70
     1
102
RTVSPropertyOp15
 70
     1
102
RTVSPropertyOp16
 70
     1
102
RTVSPropertyOp17
 70
     1
102
RTVSPropertyOp18
 70
     1
102
RTVSPropertyOp19
 70
     1
102
RTVSPropertyOp20
 70
     1
102
RTVSPropertyOp21
 70
     1
102
RTVSPropertyOp22
 70
     1
102
RTVSPropertyOp23
 70
     1
102
RTVSPropertyOp24
 70
     1
102
RTVSPropertyOp25
 70
     1
102
RTVSPropertyOp26
 70
     1
102
RTVSPropertyOp27
 70
     1
102
RTVSPropertyOp28
 70
     1
102
RTVSPropertyOp29
 70
     1
102
RTVSPropertyOp30
 70
     1
102
RTVSPropertyOp31
 70
     1
102
RTVSPropertyOp32
 70
     1
102
RTVSPropertyOp33
 70
     1
102
RTVSPropertyOp34
 70
     1
102
RTVSPropertyOp35
 70
     1
102
RTVSPropertyOp36
 70
     1
102
RTVSPropertyOp37
 70
     1
102
RTVSPropertyOp38
 70
     1
102
RTVSPropertyOp39
 70
     1
102
RTVSPropertyOp40
 70
     1
102
RTVSPropertyOp41
 70
     1
102
RTVSPropertyOp42
 70
     1
102
RTVSPropertyOp43
 70
     1
102
RTVSPropertyOp44
 70
     1
102
RTVSPropertyOp45
 70
     1
102
RTVSPropertyOp46
 70
     1
102
RTVSPropertyOp47
 70
     1
102
RTVSPropertyOp48
 70
     1
102
RTVSPropertyOp49
 70
     1
102
RTVSPropertyOp50
 70
     1
102
RTVSPropertyOp51
 70
     0
102
RTVSPropertyOp52
 70
     0
102
RTVSPropertyOp53
 70
     1
102
RTVSPropertyOp54
 70
     1
102
RTVSPropertyOp55
 70
     1
102
RTVSPropertyOp56
 70
     1
102
RTVSPropertyOp57
 70
     1
102
RTVSPropertyOp58
 70
     1
102
RTVSPropertyOp59
 70
     1
102
RTVSPropertyOp60
 70
     1
102
RTVSPropertyOp61
 70
     1
102
RTVSPropertyOp62
 70
     1
  0
XRECORD
  5
B816
102
{ACAD_REACTORS
330
B815
102
}
330
B815
100
AcDbXrecord
280
     1
102
RTVSPost2010Prop28
280
     0
102
RTVSPost2010PropOp28
 70
     1
102
RTVSPost2010Prop29
280
     1
102
RTVSPost2010PropOp29
 70
     1
102
RTVSPost2010Prop30
280
     1
102
RTVSPost2010PropOp30
 70
     1
102
RTVSPost2010Prop31
280
     0
102
RTVSPost2010PropOp31
 70
     1
102
RTVSPost2010Prop32
280
     0
102
RTVSPost2010PropOp32
 70
     1
102
RTVSPost2010Prop33
280
     0
102
RTVSPost2010PropOp33
 70
     1
102
RTVSPost2010Prop34
280
     0
102
RTVSPost2010PropOp34
 70
     1
102
RTVSPost2010Prop35
280
     0
102
RTVSPost2010PropOp35
 70
     1
102
RTVSPost2010Prop36
280
     0
102
RTVSPost2010PropOp36
 70
     1
102
RTVSPost2010Prop37
 90
       50
102
RTVSPost2010PropOp37
 70
     1
102
RTVSPost2010Prop38
140
0.0
102
RTVSPost2010PropOp38
 70
     1
102
RTVSPost2010Prop39
140
1.0
102
RTVSPost2010PropOp39
 70
     1
102
RTVSPost2010Prop40
 90
        0
102
RTVSPost2010PropOp40
 70
     1
102
RTVSPost2010Prop41ColorIndex
 90
       18
102
RTVSPost2010Prop41ColorRGB
 90
        0
102
RTVSPost2010PropOp41
 70
     1
102
RTVSPost2010Prop42
 90
       50
102
RTVSPost2010PropOp42
 70
     1
102
RTVSPost2010Prop43
 90
        3
102
RTVSPost2010PropOp43
 70
     1
102
RTVSPost2010Prop44ColorIndex
 90
        5
102
RTVSPost2010Prop44ColorRGB
 90
      255
102
RTVSPost2010PropOp44
 70
     1
102
RTVSPost2010Prop45
280
     0
102
RTVSPost2010PropOp45
 70
     1
102
RTVSPost2010Prop46
 90
       50
102
RTVSPost2010PropOp46
 70
     1
102
RTVSPost2010Prop47
 90
       50
102
RTVSPost2010PropOp47
 70
     1
102
RTVSPost2010Prop48
 90
       50
102
RTVSPost2010PropOp48
 70
     1
102
RTVSPost2010Prop49
280
     0
102
RTVSPost2010PropOp49
 70
     1
102
RTVSPost2010Prop50
 90
       50
102
RTVSPost2010PropOp50
 70
     1
102
RTVSPost2010Prop51ColorIndex
 90
      256
102
RTVSPost2010Prop51ColorRGB
 90
-16777216
102
RTVSPost2010PropOp51
 70
     0
102
RTVSPost2010Prop52
140
1.0
102
RTVSPost2010PropOp52
 70
     0
102
RTVSPost2010Prop53
 90
        2
102
RTVSPost2010PropOp53
 70
     1
102
RTVSPost2010Prop54
  1
strokes_ogs.tif
102
RTVSPost2010PropOp54
 70
     1
102
RTVSPost2010Prop55
280
     0
102
RTVSPost2010PropOp55
 70
     1
102
RTVSPost2010Prop56
140
1.0
102
RTVSPost2010PropOp56
 70
     1
102
RTVSPost2010Prop57
140
1.0
102
RTVSPost2010PropOp57
 70
     1
102
RTVSPropertyOp0
 70
     1
102
RTVSPropertyOp1
 70
     1
102
RTVSPropertyOp2
 70
     1
102
RTVSPropertyOp3
 70
     1
102
RTVSPropertyOp4
 70
     1
102
RTVSPropertyOp5
 70
     1
102
RTVSPropertyOp6
 70
     1
102
RTVSPropertyOp7
 70
     1
102
RTVSPropertyOp8
 70
     1
102
RTVSPropertyOp9
 70
     1
102
RTVSPropertyOp10
 70
     1
102
RTVSPropertyOp11
 70
     1
102
RTVSPropertyOp12
 70
     1
102
RTVSPropertyOp13
 70
     1
102
RTVSPropertyOp14
 70
     1
102
RTVSPropertyOp15
 70
     1
102
RTVSPropertyOp16
 70
     1
102
RTVSPropertyOp17
 70
     1
102
RTVSPropertyOp18
 70
     1
102
RTVSPropertyOp19
 70
     1
102
RTVSPropertyOp20
 70
     1
102
RTVSPropertyOp21
 70
     1
102
RTVSPropertyOp22
 70
     1
102
RTVSPropertyOp23
 70
     1
102
RTVSPropertyOp24
 70
     1
102
RTVSPropertyOp25
 70
     1
102
RTVSPropertyOp26
 70
     1
102
RTVSPropertyOp27
 70
     1
102
RTVSPropertyOp28
 70
     1
102
RTVSPropertyOp29
 70
     1
102
RTVSPropertyOp30
 70
     1
102
RTVSPropertyOp31
 70
     1
102
RTVSPropertyOp32
 70
     1
102
RTVSPropertyOp33
 70
     1
102
RTVSPropertyOp34
 70
     1
102
RTVSPropertyOp35
 70
     1
102
RTVSPropertyOp36
 70
     1
102
RTVSPropertyOp37
 70
     1
102
RTVSPropertyOp38
 70
     1
102
RTVSPropertyOp39
 70
     1
102
RTVSPropertyOp40
 70
     1
102
RTVSPropertyOp41
 70
     1
102
RTVSPropertyOp42
 70
     1
102
RTVSPropertyOp43
 70
     1
102
RTVSPropertyOp44
 70
     1
102
RTVSPropertyOp45
 70
     1
102
RTVSPropertyOp46
 70
     1
102
RTVSPropertyOp47
 70
     1
102
RTVSPropertyOp48
 70
     1
102
RTVSPropertyOp49
 70
     1
102
RTVSPropertyOp50
 70
     1
102
RTVSPropertyOp51
 70
     0
102
RTVSPropertyOp52
 70
     0
102
RTVSPropertyOp53
 70
     1
102
RTVSPropertyOp54
 70
     1
102
RTVSPropertyOp55
 70
     1
102
RTVSPropertyOp56
 70
     1
102
RTVSPropertyOp57
 70
     1
102
RTVSPropertyOp58
 70
     1
102
RTVSPropertyOp59
 70
     1
102
RTVSPropertyOp60
 70
     1
102
RTVSPropertyOp61
 70
     1
102
RTVSPropertyOp62
 70
     1
  0
XRECORD
  5
B81E
102
{ACAD_REACTORS
330
B81D
102
}
330
B81D
100
AcDbXrecord
280
     1
102
RTVSPost2010Prop28
280
     0
102
RTVSPost2010PropOp28
 70
     1
102
RTVSPost2010Prop29
280
     1
102
RTVSPost2010PropOp29
 70
     1
102
RTVSPost2010Prop30
280
     1
102
RTVSPost2010PropOp30
 70
     1
102
RTVSPost2010Prop31
280
     0
102
RTVSPost2010PropOp31
 70
     1
102
RTVSPost2010Prop32
280
     0
102
RTVSPost2010PropOp32
 70
     1
102
RTVSPost2010Prop33
280
     0
102
RTVSPost2010PropOp33
 70
     1
102
RTVSPost2010Prop34
280
     0
102
RTVSPost2010PropOp34
 70
     1
102
RTVSPost2010Prop35
280
     0
102
RTVSPost2010PropOp35
 70
     1
102
RTVSPost2010Prop36
280
     0
102
RTVSPost2010PropOp36
 70
     1
102
RTVSPost2010Prop37
 90
       50
102
RTVSPost2010PropOp37
 70
     1
102
RTVSPost2010Prop38
140
0.0
102
RTVSPost2010PropOp38
 70
     1
102
RTVSPost2010Prop39
140
1.0
102
RTVSPost2010PropOp39
 70
     1
102
RTVSPost2010Prop40
 90
        0
102
RTVSPost2010PropOp40
 70
     1
102
RTVSPost2010Prop41ColorIndex
 90
       18
102
RTVSPost2010Prop41ColorRGB
 90
        0
102
RTVSPost2010PropOp41
 70
     1
102
RTVSPost2010Prop42
 90
       50
102
RTVSPost2010PropOp42
 70
     1
102
RTVSPost2010Prop43
 90
        3
102
RTVSPost2010PropOp43
 70
     1
102
RTVSPost2010Prop44ColorIndex
 90
        5
102
RTVSPost2010Prop44ColorRGB
 90
      255
102
RTVSPost2010PropOp44
 70
     1
102
RTVSPost2010Prop45
280
     0
102
RTVSPost2010PropOp45
 70
     1
102
RTVSPost2010Prop46
 90
       50
102
RTVSPost2010PropOp46
 70
     1
102
RTVSPost2010Prop47
 90
       50
102
RTVSPost2010PropOp47
 70
     1
102
RTVSPost2010Prop48
 90
       50
102
RTVSPost2010PropOp48
 70
     1
102
RTVSPost2010Prop49
280
     0
102
RTVSPost2010PropOp49
 70
     1
102
RTVSPost2010Prop50
 90
       50
102
RTVSPost2010PropOp50
 70
     1
102
RTVSPost2010Prop51ColorIndex
 90
      256
102
RTVSPost2010Prop51ColorRGB
 90
-16777216
102
RTVSPost2010PropOp51
 70
     0
102
RTVSPost2010Prop52
140
1.0
102
RTVSPost2010PropOp52
 70
     0
102
RTVSPost2010Prop53
 90
        2
102
RTVSPost2010PropOp53
 70
     1
102
RTVSPost2010Prop54
  1
strokes_ogs.tif
102
RTVSPost2010PropOp54
 70
     1
102
RTVSPost2010Prop55
280
     0
102
RTVSPost2010PropOp55
 70
     1
102
RTVSPost2010Prop56
140
1.0
102
RTVSPost2010PropOp56
 70
     1
102
RTVSPost2010Prop57
140
1.0
102
RTVSPost2010PropOp57
 70
     1
102
RTVSPropertyOp0
 70
     1
102
RTVSPropertyOp1
 70
     1
102
RTVSPropertyOp2
 70
     1
102
RTVSPropertyOp3
 70
     1
102
RTVSPropertyOp4
 70
     1
102
RTVSPropertyOp5
 70
     1
102
RTVSPropertyOp6
 70
     1
102
RTVSPropertyOp7
 70
     1
102
RTVSPropertyOp8
 70
     1
102
RTVSPropertyOp9
 70
     1
102
RTVSPropertyOp10
 70
     1
102
RTVSPropertyOp11
 70
     1
102
RTVSPropertyOp12
 70
     1
102
RTVSPropertyOp13
 70
     1
102
RTVSPropertyOp14
 70
     1
102
RTVSPropertyOp15
 70
     1
102
RTVSPropertyOp16
 70
     1
102
RTVSPropertyOp17
 70
     1
102
RTVSPropertyOp18
 70
     1
102
RTVSPropertyOp19
 70
     1
102
RTVSPropertyOp20
 70
     1
102
RTVSPropertyOp21
 70
     1
102
RTVSPropertyOp22
 70
     1
102
RTVSPropertyOp23
 70
     1
102
RTVSPropertyOp24
 70
     1
102
RTVSPropertyOp25
 70
     1
102
RTVSPropertyOp26
 70
     1
102
RTVSPropertyOp27
 70
     1
102
RTVSPropertyOp28
 70
     1
102
RTVSPropertyOp29
 70
     1
102
RTVSPropertyOp30
 70
     1
102
RTVSPropertyOp31
 70
     1
102
RTVSPropertyOp32
 70
     1
102
RTVSPropertyOp33
 70
     1
102
RTVSPropertyOp34
 70
     1
102
RTVSPropertyOp35
 70
     1
102
RTVSPropertyOp36
 70
     1
102
RTVSPropertyOp37
 70
     1
102
RTVSPropertyOp38
 70
     1
102
RTVSPropertyOp39
 70
     1
102
RTVSPropertyOp40
 70
     1
102
RTVSPropertyOp41
 70
     1
102
RTVSPropertyOp42
 70
     1
102
RTVSPropertyOp43
 70
     1
102
RTVSPropertyOp44
 70
     1
102
RTVSPropertyOp45
 70
     1
102
RTVSPropertyOp46
 70
     1
102
RTVSPropertyOp47
 70
     1
102
RTVSPropertyOp48
 70
     1
102
RTVSPropertyOp49
 70
     1
102
RTVSPropertyOp50
 70
     1
102
RTVSPropertyOp51
 70
     0
102
RTVSPropertyOp52
 70
     0
102
RTVSPropertyOp53
 70
     1
102
RTVSPropertyOp54
 70
     1
102
RTVSPropertyOp55
 70
     1
102
RTVSPropertyOp56
 70
     1
102
RTVSPropertyOp57
 70
     1
102
RTVSPropertyOp58
 70
     1
102
RTVSPropertyOp59
 70
     1
102
RTVSPropertyOp60
 70
     1
102
RTVSPropertyOp61
 70
     1
102
RTVSPropertyOp62
 70
     1
  0
XRECORD
  5
B810
102
{ACAD_REACTORS
330
B80F
102
}
330
B80F
100
AcDbXrecord
280
     1
102
RTVSPost2010Prop28
280
     0
102
RTVSPost2010PropOp28
 70
     1
102
RTVSPost2010Prop29
280
     1
102
RTVSPost2010PropOp29
 70
     1
102
RTVSPost2010Prop30
280
     1
102
RTVSPost2010PropOp30
 70
     1
102
RTVSPost2010Prop31
280
     0
102
RTVSPost2010PropOp31
 70
     1
102
RTVSPost2010Prop32
280
     0
102
RTVSPost2010PropOp32
 70
     1
102
RTVSPost2010Prop33
280
     0
102
RTVSPost2010PropOp33
 70
     1
102
RTVSPost2010Prop34
280
     0
102
RTVSPost2010PropOp34
 70
     1
102
RTVSPost2010Prop35
280
     0
102
RTVSPost2010PropOp35
 70
     1
102
RTVSPost2010Prop36
280
     0
102
RTVSPost2010PropOp36
 70
     1
102
RTVSPost2010Prop37
 90
       50
102
RTVSPost2010PropOp37
 70
     1
102
RTVSPost2010Prop38
140
0.0
102
RTVSPost2010PropOp38
 70
     1
102
RTVSPost2010Prop39
140
1.0
102
RTVSPost2010PropOp39
 70
     1
102
RTVSPost2010Prop40
 90
        0
102
RTVSPost2010PropOp40
 70
     1
102
RTVSPost2010Prop41ColorIndex
 90
       18
102
RTVSPost2010Prop41ColorRGB
 90
        0
102
RTVSPost2010PropOp41
 70
     1
102
RTVSPost2010Prop42
 90
       50
102
RTVSPost2010PropOp42
 70
     1
102
RTVSPost2010Prop43
 90
        3
102
RTVSPost2010PropOp43
 70
     1
102
RTVSPost2010Prop44ColorIndex
 90
        5
102
RTVSPost2010Prop44ColorRGB
 90
      255
102
RTVSPost2010PropOp44
 70
     1
102
RTVSPost2010Prop45
280
     0
102
RTVSPost2010PropOp45
 70
     1
102
RTVSPost2010Prop46
 90
       50
102
RTVSPost2010PropOp46
 70
     1
102
RTVSPost2010Prop47
 90
       50
102
RTVSPost2010PropOp47
 70
     1
102
RTVSPost2010Prop48
 90
       50
102
RTVSPost2010PropOp48
 70
     1
102
RTVSPost2010Prop49
280
     0
102
RTVSPost2010PropOp49
 70
     1
102
RTVSPost2010Prop50
 90
       50
102
RTVSPost2010PropOp50
 70
     1
102
RTVSPost2010Prop51ColorIndex
 90
      256
102
RTVSPost2010Prop51ColorRGB
 90
-16777216
102
RTVSPost2010PropOp51
 70
     0
102
RTVSPost2010Prop52
140
1.0
102
RTVSPost2010PropOp52
 70
     0
102
RTVSPost2010Prop53
 90
        2
102
RTVSPost2010PropOp53
 70
     1
102
RTVSPost2010Prop54
  1
strokes_ogs.tif
102
RTVSPost2010PropOp54
 70
     1
102
RTVSPost2010Prop55
280
     0
102
RTVSPost2010PropOp55
 70
     1
102
RTVSPost2010Prop56
140
1.0
102
RTVSPost2010PropOp56
 70
     1
102
RTVSPost2010Prop57
140
1.0
102
RTVSPost2010PropOp57
 70
     1
102
RTVSPropertyOp0
 70
     1
102
RTVSPropertyOp1
 70
     1
102
RTVSPropertyOp2
 70
     1
102
RTVSPropertyOp3
 70
     1
102
RTVSPropertyOp4
 70
     1
102
RTVSPropertyOp5
 70
     1
102
RTVSPropertyOp6
 70
     1
102
RTVSPropertyOp7
 70
     1
102
RTVSPropertyOp8
 70
     1
102
RTVSPropertyOp9
 70
     1
102
RTVSPropertyOp10
 70
     1
102
RTVSPropertyOp11
 70
     1
102
RTVSPropertyOp12
 70
     1
102
RTVSPropertyOp13
 70
     1
102
RTVSPropertyOp14
 70
     1
102
RTVSPropertyOp15
 70
     1
102
RTVSPropertyOp16
 70
     1
102
RTVSPropertyOp17
 70
     1
102
RTVSPropertyOp18
 70
     1
102
RTVSPropertyOp19
 70
     1
102
RTVSPropertyOp20
 70
     1
102
RTVSPropertyOp21
 70
     1
102
RTVSPropertyOp22
 70
     1
102
RTVSPropertyOp23
 70
     1
102
RTVSPropertyOp24
 70
     1
102
RTVSPropertyOp25
 70
     1
102
RTVSPropertyOp26
 70
     1
102
RTVSPropertyOp27
 70
     1
102
RTVSPropertyOp28
 70
     1
102
RTVSPropertyOp29
 70
     1
102
RTVSPropertyOp30
 70
     1
102
RTVSPropertyOp31
 70
     1
102
RTVSPropertyOp32
 70
     1
102
RTVSPropertyOp33
 70
     1
102
RTVSPropertyOp34
 70
     1
102
RTVSPropertyOp35
 70
     1
102
RTVSPropertyOp36
 70
     1
102
RTVSPropertyOp37
 70
     1
102
RTVSPropertyOp38
 70
     1
102
RTVSPropertyOp39
 70
     1
102
RTVSPropertyOp40
 70
     1
102
RTVSPropertyOp41
 70
     1
102
RTVSPropertyOp42
 70
     1
102
RTVSPropertyOp43
 70
     1
102
RTVSPropertyOp44
 70
     1
102
RTVSPropertyOp45
 70
     1
102
RTVSPropertyOp46
 70
     1
102
RTVSPropertyOp47
 70
     1
102
RTVSPropertyOp48
 70
     1
102
RTVSPropertyOp49
 70
     1
102
RTVSPropertyOp50
 70
     1
102
RTVSPropertyOp51
 70
     0
102
RTVSPropertyOp52
 70
     0
102
RTVSPropertyOp53
 70
     1
102
RTVSPropertyOp54
 70
     1
102
RTVSPropertyOp55
 70
     1
102
RTVSPropertyOp56
 70
     1
102
RTVSPropertyOp57
 70
     1
102
RTVSPropertyOp58
 70
     1
102
RTVSPropertyOp59
 70
     1
102
RTVSPropertyOp60
 70
     1
102
RTVSPropertyOp61
 70
     1
102
RTVSPropertyOp62
 70
     1
  0
XRECORD
  5
B814
102
{ACAD_REACTORS
330
B813
102
}
330
B813
100
AcDbXrecord
280
     1
102
RTVSPost2010Prop28
280
     0
102
RTVSPost2010PropOp28
 70
     1
102
RTVSPost2010Prop29
280
     1
102
RTVSPost2010PropOp29
 70
     1
102
RTVSPost2010Prop30
280
     1
102
RTVSPost2010PropOp30
 70
     1
102
RTVSPost2010Prop31
280
     0
102
RTVSPost2010PropOp31
 70
     1
102
RTVSPost2010Prop32
280
     0
102
RTVSPost2010PropOp32
 70
     1
102
RTVSPost2010Prop33
280
     0
102
RTVSPost2010PropOp33
 70
     1
102
RTVSPost2010Prop34
280
     0
102
RTVSPost2010PropOp34
 70
     1
102
RTVSPost2010Prop35
280
     0
102
RTVSPost2010PropOp35
 70
     1
102
RTVSPost2010Prop36
280
     0
102
RTVSPost2010PropOp36
 70
     1
102
RTVSPost2010Prop37
 90
       50
102
RTVSPost2010PropOp37
 70
     1
102
RTVSPost2010Prop38
140
0.0
102
RTVSPost2010PropOp38
 70
     1
102
RTVSPost2010Prop39
140
1.0
102
RTVSPost2010PropOp39
 70
     1
102
RTVSPost2010Prop40
 90
        0
102
RTVSPost2010PropOp40
 70
     1
102
RTVSPost2010Prop41ColorIndex
 90
       18
102
RTVSPost2010Prop41ColorRGB
 90
        0
102
RTVSPost2010PropOp41
 70
     1
102
RTVSPost2010Prop42
 90
       50
102
RTVSPost2010PropOp42
 70
     1
102
RTVSPost2010Prop43
 90
        3
102
RTVSPost2010PropOp43
 70
     1
102
RTVSPost2010Prop44ColorIndex
 90
        5
102
RTVSPost2010Prop44ColorRGB
 90
      255
102
RTVSPost2010PropOp44
 70
     1
102
RTVSPost2010Prop45
280
     0
102
RTVSPost2010PropOp45
 70
     1
102
RTVSPost2010Prop46
 90
       50
102
RTVSPost2010PropOp46
 70
     1
102
RTVSPost2010Prop47
 90
       50
102
RTVSPost2010PropOp47
 70
     1
102
RTVSPost2010Prop48
 90
       50
102
RTVSPost2010PropOp48
 70
     1
102
RTVSPost2010Prop49
280
     0
102
RTVSPost2010PropOp49
 70
     1
102
RTVSPost2010Prop50
 90
       50
102
RTVSPost2010PropOp50
 70
     1
102
RTVSPost2010Prop51ColorIndex
 90
      256
102
RTVSPost2010Prop51ColorRGB
 90
-16777216
102
RTVSPost2010PropOp51
 70
     0
102
RTVSPost2010Prop52
140
1.0
102
RTVSPost2010PropOp52
 70
     0
102
RTVSPost2010Prop53
 90
        2
102
RTVSPost2010PropOp53
 70
     1
102
RTVSPost2010Prop54
  1
strokes_ogs.tif
102
RTVSPost2010PropOp54
 70
     1
102
RTVSPost2010Prop55
280
     0
102
RTVSPost2010PropOp55
 70
     1
102
RTVSPost2010Prop56
140
1.0
102
RTVSPost2010PropOp56
 70
     1
102
RTVSPost2010Prop57
140
1.0
102
RTVSPost2010PropOp57
 70
     1
102
RTVSPropertyOp0
 70
     1
102
RTVSPropertyOp1
 70
     1
102
RTVSPropertyOp2
 70
     1
102
RTVSPropertyOp3
 70
     1
102
RTVSPropertyOp4
 70
     1
102
RTVSPropertyOp5
 70
     1
102
RTVSPropertyOp6
 70
     1
102
RTVSPropertyOp7
 70
     1
102
RTVSPropertyOp8
 70
     1
102
RTVSPropertyOp9
 70
     1
102
RTVSPropertyOp10
 70
     1
102
RTVSPropertyOp11
 70
     1
102
RTVSPropertyOp12
 70
     1
102
RTVSPropertyOp13
 70
     1
102
RTVSPropertyOp14
 70
     1
102
RTVSPropertyOp15
 70
     1
102
RTVSPropertyOp16
 70
     1
102
RTVSPropertyOp17
 70
     1
102
RTVSPropertyOp18
 70
     1
102
RTVSPropertyOp19
 70
     1
102
RTVSPropertyOp20
 70
     1
102
RTVSPropertyOp21
 70
     1
102
RTVSPropertyOp22
 70
     1
102
RTVSPropertyOp23
 70
     1
102
RTVSPropertyOp24
 70
     1
102
RTVSPropertyOp25
 70
     1
102
RTVSPropertyOp26
 70
     1
102
RTVSPropertyOp27
 70
     1
102
RTVSPropertyOp28
 70
     1
102
RTVSPropertyOp29
 70
     1
102
RTVSPropertyOp30
 70
     1
102
RTVSPropertyOp31
 70
     1
102
RTVSPropertyOp32
 70
     1
102
RTVSPropertyOp33
 70
     1
102
RTVSPropertyOp34
 70
     1
102
RTVSPropertyOp35
 70
     1
102
RTVSPropertyOp36
 70
     1
102
RTVSPropertyOp37
 70
     1
102
RTVSPropertyOp38
 70
     1
102
RTVSPropertyOp39
 70
     1
102
RTVSPropertyOp40
 70
     1
102
RTVSPropertyOp41
 70
     1
102
RTVSPropertyOp42
 70
     1
102
RTVSPropertyOp43
 70
     1
102
RTVSPropertyOp44
 70
     1
102
RTVSPropertyOp45
 70
     1
102
RTVSPropertyOp46
 70
     1
102
RTVSPropertyOp47
 70
     1
102
RTVSPropertyOp48
 70
     1
102
RTVSPropertyOp49
 70
     1
102
RTVSPropertyOp50
 70
     1
102
RTVSPropertyOp51
 70
     0
102
RTVSPropertyOp52
 70
     0
102
RTVSPropertyOp53
 70
     1
102
RTVSPropertyOp54
 70
     1
102
RTVSPropertyOp55
 70
     1
102
RTVSPropertyOp56
 70
     1
102
RTVSPropertyOp57
 70
     1
102
RTVSPropertyOp58
 70
     1
102
RTVSPropertyOp59
 70
     1
102
RTVSPropertyOp60
 70
     1
102
RTVSPropertyOp61
 70
     1
102
RTVSPropertyOp62
 70
     1
  0
XRECORD
  5
B82E
102
{ACAD_REACTORS
330
B82D
102
}
330
B82D
100
AcDbXrecord
280
     1
102
RTVSPost2010Prop28
280
     0
102
RTVSPost2010PropOp28
 70
     1
102
RTVSPost2010Prop29
280
     1
102
RTVSPost2010PropOp29
 70
     1
102
RTVSPost2010Prop30
280
     1
102
RTVSPost2010PropOp30
 70
     1
102
RTVSPost2010Prop31
280
     0
102
RTVSPost2010PropOp31
 70
     1
102
RTVSPost2010Prop32
280
     0
102
RTVSPost2010PropOp32
 70
     1
102
RTVSPost2010Prop33
280
     0
102
RTVSPost2010PropOp33
 70
     1
102
RTVSPost2010Prop34
280
     0
102
RTVSPost2010PropOp34
 70
     1
102
RTVSPost2010Prop35
280
     0
102
RTVSPost2010PropOp35
 70
     1
102
RTVSPost2010Prop36
280
     0
102
RTVSPost2010PropOp36
 70
     1
102
RTVSPost2010Prop37
 90
       50
102
RTVSPost2010PropOp37
 70
     0
102
RTVSPost2010Prop38
140
0.0
102
RTVSPost2010PropOp38
 70
     0
102
RTVSPost2010Prop39
140
1.0
102
RTVSPost2010PropOp39
 70
     0
102
RTVSPost2010Prop40
 90
        0
102
RTVSPost2010PropOp40
 70
     0
102
RTVSPost2010Prop41ColorIndex
 90
       18
102
RTVSPost2010Prop41ColorRGB
 90
        0
102
RTVSPost2010PropOp41
 70
     0
102
RTVSPost2010Prop42
 90
       50
102
RTVSPost2010PropOp42
 70
     0
102
RTVSPost2010Prop43
 90
        3
102
RTVSPost2010PropOp43
 70
     0
102
RTVSPost2010Prop44ColorIndex
 90
        5
102
RTVSPost2010Prop44ColorRGB
 90
      255
102
RTVSPost2010PropOp44
 70
     0
102
RTVSPost2010Prop45
280
     0
102
RTVSPost2010PropOp45
 70
     1
102
RTVSPost2010Prop46
 90
       50
102
RTVSPost2010PropOp46
 70
     0
102
RTVSPost2010Prop47
 90
       50
102
RTVSPost2010PropOp47
 70
     0
102
RTVSPost2010Prop48
 90
       50
102
RTVSPost2010PropOp48
 70
     0
102
RTVSPost2010Prop49
280
     0
102
RTVSPost2010PropOp49
 70
     1
102
RTVSPost2010Prop50
 90
       50
102
RTVSPost2010PropOp50
 70
     0
102
RTVSPost2010Prop51ColorIndex
 90
      256
102
RTVSPost2010Prop51ColorRGB
 90
-16777216
102
RTVSPost2010PropOp51
 70
     0
102
RTVSPost2010Prop52
140
1.0
102
RTVSPost2010PropOp52
 70
     0
102
RTVSPost2010Prop53
 90
        2
102
RTVSPost2010PropOp53
 70
     0
102
RTVSPost2010Prop54
  1
strokes_ogs.tif
102
RTVSPost2010PropOp54
 70
     0
102
RTVSPost2010Prop55
280
     0
102
RTVSPost2010PropOp55
 70
     1
102
RTVSPost2010Prop56
140
1.0
102
RTVSPost2010PropOp56
 70
     0
102
RTVSPost2010Prop57
140
1.0
102
RTVSPost2010PropOp57
 70
     0
102
RTVSPropertyOp0
 70
     0
102
RTVSPropertyOp1
 70
     0
102
RTVSPropertyOp2
 70
     0
102
RTVSPropertyOp3
 70
     0
102
RTVSPropertyOp4
 70
     0
102
RTVSPropertyOp5
 70
     0
102
RTVSPropertyOp6
 70
     0
102
RTVSPropertyOp7
 70
     0
102
RTVSPropertyOp8
 70
     0
102
RTVSPropertyOp9
 70
     0
102
RTVSPropertyOp10
 70
     0
102
RTVSPropertyOp11
 70
     0
102
RTVSPropertyOp12
 70
     0
102
RTVSPropertyOp13
 70
     0
102
RTVSPropertyOp14
 70
     2
102
RTVSPropertyOp15
 70
     0
102
RTVSPropertyOp16
 70
     0
102
RTVSPropertyOp17
 70
     0
102
RTVSPropertyOp18
 70
     0
102
RTVSPropertyOp19
 70
     0
102
RTVSPropertyOp20
 70
     0
102
RTVSPropertyOp21
 70
     0
102
RTVSPropertyOp22
 70
     0
102
RTVSPropertyOp23
 70
     0
102
RTVSPropertyOp24
 70
     0
102
RTVSPropertyOp25
 70
     0
102
RTVSPropertyOp26
 70
     0
102
RTVSPropertyOp27
 70
     0
102
RTVSPropertyOp28
 70
     1
102
RTVSPropertyOp29
 70
     1
102
RTVSPropertyOp30
 70
     1
102
RTVSPropertyOp31
 70
     1
102
RTVSPropertyOp32
 70
     1
102
RTVSPropertyOp33
 70
     1
102
RTVSPropertyOp34
 70
     1
102
RTVSPropertyOp35
 70
     1
102
RTVSPropertyOp36
 70
     1
102
RTVSPropertyOp37
 70
     0
102
RTVSPropertyOp38
 70
     0
102
RTVSPropertyOp39
 70
     0
102
RTVSPropertyOp40
 70
     0
102
RTVSPropertyOp41
 70
     0
102
RTVSPropertyOp42
 70
     0
102
RTVSPropertyOp43
 70
     0
102
RTVSPropertyOp44
 70
     0
102
RTVSPropertyOp45
 70
     1
102
RTVSPropertyOp46
 70
     0
102
RTVSPropertyOp47
 70
     0
102
RTVSPropertyOp48
 70
     0
102
RTVSPropertyOp49
 70
     1
102
RTVSPropertyOp50
 70
     0
102
RTVSPropertyOp51
 70
     0
102
RTVSPropertyOp52
 70
     0
102
RTVSPropertyOp53
 70
     0
102
RTVSPropertyOp54
 70
     0
102
RTVSPropertyOp55
 70
     1
102
RTVSPropertyOp56
 70
     0
102
RTVSPropertyOp57
 70
     0
102
RTVSPropertyOp58
 70
     0
102
RTVSPropertyOp59
 70
     0
102
RTVSPropertyOp60
 70
     0
102
RTVSPropertyOp61
 70
     0
102
RTVSPropertyOp62
 70
     0
  0
XRECORD
  5
B81C
102
{ACAD_REACTORS
330
B81B
102
}
330
B81B
100
AcDbXrecord
280
     1
102
RTVSPost2010Prop28
280
     0
102
RTVSPost2010PropOp28
 70
     1
102
RTVSPost2010Prop29
280
     1
102
RTVSPost2010PropOp29
 70
     1
102
RTVSPost2010Prop30
280
     1
102
RTVSPost2010PropOp30
 70
     1
102
RTVSPost2010Prop31
280
     0
102
RTVSPost2010PropOp31
 70
     1
102
RTVSPost2010Prop32
280
     0
102
RTVSPost2010PropOp32
 70
     1
102
RTVSPost2010Prop33
280
     0
102
RTVSPost2010PropOp33
 70
     1
102
RTVSPost2010Prop34
280
     0
102
RTVSPost2010PropOp34
 70
     1
102
RTVSPost2010Prop35
280
     0
102
RTVSPost2010PropOp35
 70
     1
102
RTVSPost2010Prop36
280
     0
102
RTVSPost2010PropOp36
 70
     1
102
RTVSPost2010Prop37
 90
       50
102
RTVSPost2010PropOp37
 70
     1
102
RTVSPost2010Prop38
140
0.0
102
RTVSPost2010PropOp38
 70
     1
102
RTVSPost2010Prop39
140
1.0
102
RTVSPost2010PropOp39
 70
     1
102
RTVSPost2010Prop40
 90
        0
102
RTVSPost2010PropOp40
 70
     1
102
RTVSPost2010Prop41ColorIndex
 90
       18
102
RTVSPost2010Prop41ColorRGB
 90
        0
102
RTVSPost2010PropOp41
 70
     1
102
RTVSPost2010Prop42
 90
       50
102
RTVSPost2010PropOp42
 70
     1
102
RTVSPost2010Prop43
 90
        3
102
RTVSPost2010PropOp43
 70
     1
102
RTVSPost2010Prop44ColorIndex
 90
        5
102
RTVSPost2010Prop44ColorRGB
 90
      255
102
RTVSPost2010PropOp44
 70
     1
102
RTVSPost2010Prop45
280
     0
102
RTVSPost2010PropOp45
 70
     1
102
RTVSPost2010Prop46
 90
       50
102
RTVSPost2010PropOp46
 70
     1
102
RTVSPost2010Prop47
 90
       50
102
RTVSPost2010PropOp47
 70
     1
102
RTVSPost2010Prop48
 90
       50
102
RTVSPost2010PropOp48
 70
     1
102
RTVSPost2010Prop49
280
     0
102
RTVSPost2010PropOp49
 70
     1
102
RTVSPost2010Prop50
 90
       50
102
RTVSPost2010PropOp50
 70
     1
102
RTVSPost2010Prop51ColorIndex
 90
      256
102
RTVSPost2010Prop51ColorRGB
 90
-16777216
102
RTVSPost2010PropOp51
 70
     0
102
RTVSPost2010Prop52
140
1.0
102
RTVSPost2010PropOp52
 70
     0
102
RTVSPost2010Prop53
 90
        2
102
RTVSPost2010PropOp53
 70
     1
102
RTVSPost2010Prop54
  1
strokes_ogs.tif
102
RTVSPost2010PropOp54
 70
     1
102
RTVSPost2010Prop55
280
     0
102
RTVSPost2010PropOp55
 70
     1
102
RTVSPost2010Prop56
140
1.0
102
RTVSPost2010PropOp56
 70
     1
102
RTVSPost2010Prop57
140
1.0
102
RTVSPost2010PropOp57
 70
     1
102
RTVSPropertyOp0
 70
     1
102
RTVSPropertyOp1
 70
     1
102
RTVSPropertyOp2
 70
     1
102
RTVSPropertyOp3
 70
     1
102
RTVSPropertyOp4
 70
     1
102
RTVSPropertyOp5
 70
     1
102
RTVSPropertyOp6
 70
     1
102
RTVSPropertyOp7
 70
     1
102
RTVSPropertyOp8
 70
     1
102
RTVSPropertyOp9
 70
     1
102
RTVSPropertyOp10
 70
     1
102
RTVSPropertyOp11
 70
     1
102
RTVSPropertyOp12
 70
     1
102
RTVSPropertyOp13
 70
     1
102
RTVSPropertyOp14
 70
     1
102
RTVSPropertyOp15
 70
     1
102
RTVSPropertyOp16
 70
     1
102
RTVSPropertyOp17
 70
     1
102
RTVSPropertyOp18
 70
     1
102
RTVSPropertyOp19
 70
     1
102
RTVSPropertyOp20
 70
     1
102
RTVSPropertyOp21
 70
     1
102
RTVSPropertyOp22
 70
     1
102
RTVSPropertyOp23
 70
     1
102
RTVSPropertyOp24
 70
     1
102
RTVSPropertyOp25
 70
     1
102
RTVSPropertyOp26
 70
     1
102
RTVSPropertyOp27
 70
     1
102
RTVSPropertyOp28
 70
     1
102
RTVSPropertyOp29
 70
     1
102
RTVSPropertyOp30
 70
     1
102
RTVSPropertyOp31
 70
     1
102
RTVSPropertyOp32
 70
     1
102
RTVSPropertyOp33
 70
     1
102
RTVSPropertyOp34
 70
     1
102
RTVSPropertyOp35
 70
     1
102
RTVSPropertyOp36
 70
     1
102
RTVSPropertyOp37
 70
     1
102
RTVSPropertyOp38
 70
     1
102
RTVSPropertyOp39
 70
     1
102
RTVSPropertyOp40
 70
     1
102
RTVSPropertyOp41
 70
     1
102
RTVSPropertyOp42
 70
     1
102
RTVSPropertyOp43
 70
     1
102
RTVSPropertyOp44
 70
     1
102
RTVSPropertyOp45
 70
     1
102
RTVSPropertyOp46
 70
     1
102
RTVSPropertyOp47
 70
     1
102
RTVSPropertyOp48
 70
     1
102
RTVSPropertyOp49
 70
     1
102
RTVSPropertyOp50
 70
     1
102
RTVSPropertyOp51
 70
     0
102
RTVSPropertyOp52
 70
     0
102
RTVSPropertyOp53
 70
     1
102
RTVSPropertyOp54
 70
     1
102
RTVSPropertyOp55
 70
     1
102
RTVSPropertyOp56
 70
     1
102
RTVSPropertyOp57
 70
     1
102
RTVSPropertyOp58
 70
     1
102
RTVSPropertyOp59
 70
     1
102
RTVSPropertyOp60
 70
     1
102
RTVSPropertyOp61
 70
     1
102
RTVSPropertyOp62
 70
     1
  0
XRECORD
  5
B800
102
{ACAD_REACTORS
330
B7FF
102
}
330
B7FF
100
AcDbXrecord
280
     1
102
RTVSPost2010Prop28
280
     0
102
RTVSPost2010PropOp28
 70
     1
102
RTVSPost2010Prop29
280
     1
102
RTVSPost2010PropOp29
 70
     1
102
RTVSPost2010Prop30
280
     1
102
RTVSPost2010PropOp30
 70
     1
102
RTVSPost2010Prop31
280
     0
102
RTVSPost2010PropOp31
 70
     1
102
RTVSPost2010Prop32
280
     0
102
RTVSPost2010PropOp32
 70
     1
102
RTVSPost2010Prop33
280
     0
102
RTVSPost2010PropOp33
 70
     1
102
RTVSPost2010Prop34
280
     0
102
RTVSPost2010PropOp34
 70
     1
102
RTVSPost2010Prop35
280
     0
102
RTVSPost2010PropOp35
 70
     1
102
RTVSPost2010Prop36
280
     0
102
RTVSPost2010PropOp36
 70
     1
102
RTVSPost2010Prop37
 90
       50
102
RTVSPost2010PropOp37
 70
     1
102
RTVSPost2010Prop38
140
0.0
102
RTVSPost2010PropOp38
 70
     1
102
RTVSPost2010Prop39
140
1.0
102
RTVSPost2010PropOp39
 70
     1
102
RTVSPost2010Prop40
 90
        0
102
RTVSPost2010PropOp40
 70
     1
102
RTVSPost2010Prop41ColorIndex
 90
       18
102
RTVSPost2010Prop41ColorRGB
 90
        0
102
RTVSPost2010PropOp41
 70
     1
102
RTVSPost2010Prop42
 90
       50
102
RTVSPost2010PropOp42
 70
     1
102
RTVSPost2010Prop43
 90
        3
102
RTVSPost2010PropOp43
 70
     1
102
RTVSPost2010Prop44ColorIndex
 90
        5
102
RTVSPost2010Prop44ColorRGB
 90
      255
102
RTVSPost2010PropOp44
 70
     1
102
RTVSPost2010Prop45
280
     0
102
RTVSPost2010PropOp45
 70
     1
102
RTVSPost2010Prop46
 90
       50
102
RTVSPost2010PropOp46
 70
     1
102
RTVSPost2010Prop47
 90
       50
102
RTVSPost2010PropOp47
 70
     1
102
RTVSPost2010Prop48
 90
       50
102
RTVSPost2010PropOp48
 70
     1
102
RTVSPost2010Prop49
280
     0
102
RTVSPost2010PropOp49
 70
     1
102
RTVSPost2010Prop50
 90
       50
102
RTVSPost2010PropOp50
 70
     1
102
RTVSPost2010Prop51ColorIndex
 90
      256
102
RTVSPost2010Prop51ColorRGB
 90
-16777216
102
RTVSPost2010PropOp51
 70
     0
102
RTVSPost2010Prop52
140
1.0
102
RTVSPost2010PropOp52
 70
     0
102
RTVSPost2010Prop53
 90
        2
102
RTVSPost2010PropOp53
 70
     1
102
RTVSPost2010Prop54
  1
strokes_ogs.tif
102
RTVSPost2010PropOp54
 70
     1
102
RTVSPost2010Prop55
280
     0
102
RTVSPost2010PropOp55
 70
     1
102
RTVSPost2010Prop56
140
1.0
102
RTVSPost2010PropOp56
 70
     1
102
RTVSPost2010Prop57
140
1.0
102
RTVSPost2010PropOp57
 70
     1
102
RTVSPropertyOp0
 70
     1
102
RTVSPropertyOp1
 70
     1
102
RTVSPropertyOp2
 70
     1
102
RTVSPropertyOp3
 70
     1
102
RTVSPropertyOp4
 70
     1
102
RTVSPropertyOp5
 70
     1
102
RTVSPropertyOp6
 70
     1
102
RTVSPropertyOp7
 70
     1
102
RTVSPropertyOp8
 70
     1
102
RTVSPropertyOp9
 70
     1
102
RTVSPropertyOp10
 70
     1
102
RTVSPropertyOp11
 70
     1
102
RTVSPropertyOp12
 70
     1
102
RTVSPropertyOp13
 70
     1
102
RTVSPropertyOp14
 70
     1
102
RTVSPropertyOp15
 70
     1
102
RTVSPropertyOp16
 70
     1
102
RTVSPropertyOp17
 70
     1
102
RTVSPropertyOp18
 70
     1
102
RTVSPropertyOp19
 70
     1
102
RTVSPropertyOp20
 70
     1
102
RTVSPropertyOp21
 70
     1
102
RTVSPropertyOp22
 70
     1
102
RTVSPropertyOp23
 70
     1
102
RTVSPropertyOp24
 70
     1
102
RTVSPropertyOp25
 70
     1
102
RTVSPropertyOp26
 70
     1
102
RTVSPropertyOp27
 70
     1
102
RTVSPropertyOp28
 70
     1
102
RTVSPropertyOp29
 70
     1
102
RTVSPropertyOp30
 70
     1
102
RTVSPropertyOp31
 70
     1
102
RTVSPropertyOp32
 70
     1
102
RTVSPropertyOp33
 70
     1
102
RTVSPropertyOp34
 70
     1
102
RTVSPropertyOp35
 70
     1
102
RTVSPropertyOp36
 70
     1
102
RTVSPropertyOp37
 70
     1
102
RTVSPropertyOp38
 70
     1
102
RTVSPropertyOp39
 70
     1
102
RTVSPropertyOp40
 70
     1
102
RTVSPropertyOp41
 70
     1
102
RTVSPropertyOp42
 70
     1
102
RTVSPropertyOp43
 70
     1
102
RTVSPropertyOp44
 70
     1
102
RTVSPropertyOp45
 70
     1
102
RTVSPropertyOp46
 70
     1
102
RTVSPropertyOp47
 70
     1
102
RTVSPropertyOp48
 70
     1
102
RTVSPropertyOp49
 70
     1
102
RTVSPropertyOp50
 70
     1
102
RTVSPropertyOp51
 70
     0
102
RTVSPropertyOp52
 70
     0
102
RTVSPropertyOp53
 70
     1
102
RTVSPropertyOp54
 70
     1
102
RTVSPropertyOp55
 70
     1
102
RTVSPropertyOp56
 70
     1
102
RTVSPropertyOp57
 70
     1
102
RTVSPropertyOp58
 70
     1
102
RTVSPropertyOp59
 70
     1
102
RTVSPropertyOp60
 70
     1
102
RTVSPropertyOp61
 70
     1
102
RTVSPropertyOp62
 70
     1
  0
XRECORD
  5
B802
102
{ACAD_REACTORS
330
B801
102
}
330
B801
100
AcDbXrecord
280
     1
102
RTVSPost2010Prop28
280
     0
102
RTVSPost2010PropOp28
 70
     1
102
RTVSPost2010Prop29
280
     1
102
RTVSPost2010PropOp29
 70
     1
102
RTVSPost2010Prop30
280
     1
102
RTVSPost2010PropOp30
 70
     1
102
RTVSPost2010Prop31
280
     0
102
RTVSPost2010PropOp31
 70
     1
102
RTVSPost2010Prop32
280
     0
102
RTVSPost2010PropOp32
 70
     1
102
RTVSPost2010Prop33
280
     0
102
RTVSPost2010PropOp33
 70
     1
102
RTVSPost2010Prop34
280
     0
102
RTVSPost2010PropOp34
 70
     1
102
RTVSPost2010Prop35
280
     0
102
RTVSPost2010PropOp35
 70
     1
102
RTVSPost2010Prop36
280
     0
102
RTVSPost2010PropOp36
 70
     1
102
RTVSPost2010Prop37
 90
       50
102
RTVSPost2010PropOp37
 70
     1
102
RTVSPost2010Prop38
140
0.0
102
RTVSPost2010PropOp38
 70
     1
102
RTVSPost2010Prop39
140
1.0
102
RTVSPost2010PropOp39
 70
     1
102
RTVSPost2010Prop40
 90
        0
102
RTVSPost2010PropOp40
 70
     1
102
RTVSPost2010Prop41ColorIndex
 90
       18
102
RTVSPost2010Prop41ColorRGB
 90
        0
102
RTVSPost2010PropOp41
 70
     1
102
RTVSPost2010Prop42
 90
       50
102
RTVSPost2010PropOp42
 70
     1
102
RTVSPost2010Prop43
 90
        3
102
RTVSPost2010PropOp43
 70
     1
102
RTVSPost2010Prop44ColorIndex
 90
        5
102
RTVSPost2010Prop44ColorRGB
 90
      255
102
RTVSPost2010PropOp44
 70
     1
102
RTVSPost2010Prop45
280
     0
102
RTVSPost2010PropOp45
 70
     1
102
RTVSPost2010Prop46
 90
       50
102
RTVSPost2010PropOp46
 70
     1
102
RTVSPost2010Prop47
 90
       50
102
RTVSPost2010PropOp47
 70
     1
102
RTVSPost2010Prop48
 90
       50
102
RTVSPost2010PropOp48
 70
     1
102
RTVSPost2010Prop49
280
     0
102
RTVSPost2010PropOp49
 70
     1
102
RTVSPost2010Prop50
 90
       50
102
RTVSPost2010PropOp50
 70
     1
102
RTVSPost2010Prop51ColorIndex
 90
      256
102
RTVSPost2010Prop51ColorRGB
 90
-16777216
102
RTVSPost2010PropOp51
 70
     0
102
RTVSPost2010Prop52
140
1.0
102
RTVSPost2010PropOp52
 70
     0
102
RTVSPost2010Prop53
 90
        2
102
RTVSPost2010PropOp53
 70
     1
102
RTVSPost2010Prop54
  1
strokes_ogs.tif
102
RTVSPost2010PropOp54
 70
     1
102
RTVSPost2010Prop55
280
     0
102
RTVSPost2010PropOp55
 70
     1
102
RTVSPost2010Prop56
140
1.0
102
RTVSPost2010PropOp56
 70
     1
102
RTVSPost2010Prop57
140
1.0
102
RTVSPost2010PropOp57
 70
     1
102
RTVSPropertyOp0
 70
     1
102
RTVSPropertyOp1
 70
     1
102
RTVSPropertyOp2
 70
     1
102
RTVSPropertyOp3
 70
     1
102
RTVSPropertyOp4
 70
     1
102
RTVSPropertyOp5
 70
     1
102
RTVSPropertyOp6
 70
     1
102
RTVSPropertyOp7
 70
     1
102
RTVSPropertyOp8
 70
     1
102
RTVSPropertyOp9
 70
     1
102
RTVSPropertyOp10
 70
     1
102
RTVSPropertyOp11
 70
     1
102
RTVSPropertyOp12
 70
     1
102
RTVSPropertyOp13
 70
     1
102
RTVSPropertyOp14
 70
     1
102
RTVSPropertyOp15
 70
     1
102
RTVSPropertyOp16
 70
     1
102
RTVSPropertyOp17
 70
     1
102
RTVSPropertyOp18
 70
     1
102
RTVSPropertyOp19
 70
     1
102
RTVSPropertyOp20
 70
     1
102
RTVSPropertyOp21
 70
     1
102
RTVSPropertyOp22
 70
     1
102
RTVSPropertyOp23
 70
     1
102
RTVSPropertyOp24
 70
     1
102
RTVSPropertyOp25
 70
     1
102
RTVSPropertyOp26
 70
     1
102
RTVSPropertyOp27
 70
     1
102
RTVSPropertyOp28
 70
     1
102
RTVSPropertyOp29
 70
     1
102
RTVSPropertyOp30
 70
     1
102
RTVSPropertyOp31
 70
     1
102
RTVSPropertyOp32
 70
     1
102
RTVSPropertyOp33
 70
     1
102
RTVSPropertyOp34
 70
     1
102
RTVSPropertyOp35
 70
     1
102
RTVSPropertyOp36
 70
     1
102
RTVSPropertyOp37
 70
     1
102
RTVSPropertyOp38
 70
     1
102
RTVSPropertyOp39
 70
     1
102
RTVSPropertyOp40
 70
     1
102
RTVSPropertyOp41
 70
     1
102
RTVSPropertyOp42
 70
     1
102
RTVSPropertyOp43
 70
     1
102
RTVSPropertyOp44
 70
     1
102
RTVSPropertyOp45
 70
     1
102
RTVSPropertyOp46
 70
     1
102
RTVSPropertyOp47
 70
     1
102
RTVSPropertyOp48
 70
     1
102
RTVSPropertyOp49
 70
     1
102
RTVSPropertyOp50
 70
     1
102
RTVSPropertyOp51
 70
     0
102
RTVSPropertyOp52
 70
     0
102
RTVSPropertyOp53
 70
     1
102
RTVSPropertyOp54
 70
     1
102
RTVSPropertyOp55
 70
     1
102
RTVSPropertyOp56
 70
     1
102
RTVSPropertyOp57
 70
     1
102
RTVSPropertyOp58
 70
     1
102
RTVSPropertyOp59
 70
     1
102
RTVSPropertyOp60
 70
     1
102
RTVSPropertyOp61
 70
     1
102
RTVSPropertyOp62
 70
     1
  0
XRECORD
  5
B804
102
{ACAD_REACTORS
330
B803
102
}
330
B803
100
AcDbXrecord
280
     1
102
RTVSPost2010Prop28
280
     0
102
RTVSPost2010PropOp28
 70
     1
102
RTVSPost2010Prop29
280
     1
102
RTVSPost2010PropOp29
 70
     1
102
RTVSPost2010Prop30
280
     1
102
RTVSPost2010PropOp30
 70
     1
102
RTVSPost2010Prop31
280
     0
102
RTVSPost2010PropOp31
 70
     1
102
RTVSPost2010Prop32
280
     0
102
RTVSPost2010PropOp32
 70
     1
102
RTVSPost2010Prop33
280
     0
102
RTVSPost2010PropOp33
 70
     1
102
RTVSPost2010Prop34
280
     0
102
RTVSPost2010PropOp34
 70
     1
102
RTVSPost2010Prop35
280
     0
102
RTVSPost2010PropOp35
 70
     1
102
RTVSPost2010Prop36
280
     0
102
RTVSPost2010PropOp36
 70
     1
102
RTVSPost2010Prop37
 90
       50
102
RTVSPost2010PropOp37
 70
     1
102
RTVSPost2010Prop38
140
0.0
102
RTVSPost2010PropOp38
 70
     1
102
RTVSPost2010Prop39
140
1.0
102
RTVSPost2010PropOp39
 70
     1
102
RTVSPost2010Prop40
 90
        0
102
RTVSPost2010PropOp40
 70
     1
102
RTVSPost2010Prop41ColorIndex
 90
       18
102
RTVSPost2010Prop41ColorRGB
 90
        0
102
RTVSPost2010PropOp41
 70
     1
102
RTVSPost2010Prop42
 90
       50
102
RTVSPost2010PropOp42
 70
     1
102
RTVSPost2010Prop43
 90
        3
102
RTVSPost2010PropOp43
 70
     1
102
RTVSPost2010Prop44ColorIndex
 90
        5
102
RTVSPost2010Prop44ColorRGB
 90
      255
102
RTVSPost2010PropOp44
 70
     1
102
RTVSPost2010Prop45
280
     0
102
RTVSPost2010PropOp45
 70
     1
102
RTVSPost2010Prop46
 90
       50
102
RTVSPost2010PropOp46
 70
     1
102
RTVSPost2010Prop47
 90
       50
102
RTVSPost2010PropOp47
 70
     1
102
RTVSPost2010Prop48
 90
       50
102
RTVSPost2010PropOp48
 70
     1
102
RTVSPost2010Prop49
280
     0
102
RTVSPost2010PropOp49
 70
     1
102
RTVSPost2010Prop50
 90
       50
102
RTVSPost2010PropOp50
 70
     1
102
RTVSPost2010Prop51ColorIndex
 90
      256
102
RTVSPost2010Prop51ColorRGB
 90
-16777216
102
RTVSPost2010PropOp51
 70
     0
102
RTVSPost2010Prop52
140
1.0
102
RTVSPost2010PropOp52
 70
     0
102
RTVSPost2010Prop53
 90
        2
102
RTVSPost2010PropOp53
 70
     1
102
RTVSPost2010Prop54
  1
strokes_ogs.tif
102
RTVSPost2010PropOp54
 70
     1
102
RTVSPost2010Prop55
280
     0
102
RTVSPost2010PropOp55
 70
     1
102
RTVSPost2010Prop56
140
1.0
102
RTVSPost2010PropOp56
 70
     1
102
RTVSPost2010Prop57
140
1.0
102
RTVSPost2010PropOp57
 70
     1
102
RTVSPropertyOp0
 70
     1
102
RTVSPropertyOp1
 70
     1
102
RTVSPropertyOp2
 70
     1
102
RTVSPropertyOp3
 70
     1
102
RTVSPropertyOp4
 70
     1
102
RTVSPropertyOp5
 70
     1
102
RTVSPropertyOp6
 70
     1
102
RTVSPropertyOp7
 70
     1
102
RTVSPropertyOp8
 70
     1
102
RTVSPropertyOp9
 70
     1
102
RTVSPropertyOp10
 70
     1
102
RTVSPropertyOp11
 70
     1
102
RTVSPropertyOp12
 70
     1
102
RTVSPropertyOp13
 70
     1
102
RTVSPropertyOp14
 70
     1
102
RTVSPropertyOp15
 70
     1
102
RTVSPropertyOp16
 70
     1
102
RTVSPropertyOp17
 70
     1
102
RTVSPropertyOp18
 70
     1
102
RTVSPropertyOp19
 70
     1
102
RTVSPropertyOp20
 70
     1
102
RTVSPropertyOp21
 70
     1
102
RTVSPropertyOp22
 70
     1
102
RTVSPropertyOp23
 70
     1
102
RTVSPropertyOp24
 70
     1
102
RTVSPropertyOp25
 70
     1
102
RTVSPropertyOp26
 70
     1
102
RTVSPropertyOp27
 70
     1
102
RTVSPropertyOp28
 70
     1
102
RTVSPropertyOp29
 70
     1
102
RTVSPropertyOp30
 70
     1
102
RTVSPropertyOp31
 70
     1
102
RTVSPropertyOp32
 70
     1
102
RTVSPropertyOp33
 70
     1
102
RTVSPropertyOp34
 70
     1
102
RTVSPropertyOp35
 70
     1
102
RTVSPropertyOp36
 70
     1
102
RTVSPropertyOp37
 70
     1
102
RTVSPropertyOp38
 70
     1
102
RTVSPropertyOp39
 70
     1
102
RTVSPropertyOp40
 70
     1
102
RTVSPropertyOp41
 70
     1
102
RTVSPropertyOp42
 70
     1
102
RTVSPropertyOp43
 70
     1
102
RTVSPropertyOp44
 70
     1
102
RTVSPropertyOp45
 70
     1
102
RTVSPropertyOp46
 70
     1
102
RTVSPropertyOp47
 70
     1
102
RTVSPropertyOp48
 70
     1
102
RTVSPropertyOp49
 70
     1
102
RTVSPropertyOp50
 70
     1
102
RTVSPropertyOp51
 70
     0
102
RTVSPropertyOp52
 70
     0
102
RTVSPropertyOp53
 70
     1
102
RTVSPropertyOp54
 70
     1
102
RTVSPropertyOp55
 70
     1
102
RTVSPropertyOp56
 70
     1
102
RTVSPropertyOp57
 70
     1
102
RTVSPropertyOp58
 70
     1
102
RTVSPropertyOp59
 70
     1
102
RTVSPropertyOp60
 70
     1
102
RTVSPropertyOp61
 70
     1
102
RTVSPropertyOp62
 70
     1
  0
XRECORD
  5
B806
102
{ACAD_REACTORS
330
B805
102
}
330
B805
100
AcDbXrecord
280
     1
102
RTVSPost2010Prop28
280
     0
102
RTVSPost2010PropOp28
 70
     1
102
RTVSPost2010Prop29
280
     1
102
RTVSPost2010PropOp29
 70
     1
102
RTVSPost2010Prop30
280
     1
102
RTVSPost2010PropOp30
 70
     1
102
RTVSPost2010Prop31
280
     0
102
RTVSPost2010PropOp31
 70
     1
102
RTVSPost2010Prop32
280
     0
102
RTVSPost2010PropOp32
 70
     1
102
RTVSPost2010Prop33
280
     0
102
RTVSPost2010PropOp33
 70
     1
102
RTVSPost2010Prop34
280
     0
102
RTVSPost2010PropOp34
 70
     1
102
RTVSPost2010Prop35
280
     0
102
RTVSPost2010PropOp35
 70
     1
102
RTVSPost2010Prop36
280
     0
102
RTVSPost2010PropOp36
 70
     1
102
RTVSPost2010Prop37
 90
       50
102
RTVSPost2010PropOp37
 70
     1
102
RTVSPost2010Prop38
140
0.0
102
RTVSPost2010PropOp38
 70
     1
102
RTVSPost2010Prop39
140
1.0
102
RTVSPost2010PropOp39
 70
     1
102
RTVSPost2010Prop40
 90
        0
102
RTVSPost2010PropOp40
 70
     1
102
RTVSPost2010Prop41ColorIndex
 90
       18
102
RTVSPost2010Prop41ColorRGB
 90
        0
102
RTVSPost2010PropOp41
 70
     1
102
RTVSPost2010Prop42
 90
       50
102
RTVSPost2010PropOp42
 70
     1
102
RTVSPost2010Prop43
 90
        3
102
RTVSPost2010PropOp43
 70
     1
102
RTVSPost2010Prop44ColorIndex
 90
        5
102
RTVSPost2010Prop44ColorRGB
 90
      255
102
RTVSPost2010PropOp44
 70
     1
102
RTVSPost2010Prop45
280
     0
102
RTVSPost2010PropOp45
 70
     1
102
RTVSPost2010Prop46
 90
       50
102
RTVSPost2010PropOp46
 70
     1
102
RTVSPost2010Prop47
 90
       50
102
RTVSPost2010PropOp47
 70
     1
102
RTVSPost2010Prop48
 90
       50
102
RTVSPost2010PropOp48
 70
     1
102
RTVSPost2010Prop49
280
     0
102
RTVSPost2010PropOp49
 70
     1
102
RTVSPost2010Prop50
 90
       50
102
RTVSPost2010PropOp50
 70
     1
102
RTVSPost2010Prop51ColorIndex
 90
      256
102
RTVSPost2010Prop51ColorRGB
 90
-16777216
102
RTVSPost2010PropOp51
 70
     0
102
RTVSPost2010Prop52
140
1.0
102
RTVSPost2010PropOp52
 70
     0
102
RTVSPost2010Prop53
 90
        2
102
RTVSPost2010PropOp53
 70
     1
102
RTVSPost2010Prop54
  1
strokes_ogs.tif
102
RTVSPost2010PropOp54
 70
     1
102
RTVSPost2010Prop55
280
     0
102
RTVSPost2010PropOp55
 70
     1
102
RTVSPost2010Prop56
140
1.0
102
RTVSPost2010PropOp56
 70
     1
102
RTVSPost2010Prop57
140
1.0
102
RTVSPost2010PropOp57
 70
     1
102
RTVSPropertyOp0
 70
     1
102
RTVSPropertyOp1
 70
     1
102
RTVSPropertyOp2
 70
     1
102
RTVSPropertyOp3
 70
     1
102
RTVSPropertyOp4
 70
     1
102
RTVSPropertyOp5
 70
     1
102
RTVSPropertyOp6
 70
     1
102
RTVSPropertyOp7
 70
     1
102
RTVSPropertyOp8
 70
     1
102
RTVSPropertyOp9
 70
     1
102
RTVSPropertyOp10
 70
     1
102
RTVSPropertyOp11
 70
     1
102
RTVSPropertyOp12
 70
     1
102
RTVSPropertyOp13
 70
     1
102
RTVSPropertyOp14
 70
     1
102
RTVSPropertyOp15
 70
     1
102
RTVSPropertyOp16
 70
     1
102
RTVSPropertyOp17
 70
     1
102
RTVSPropertyOp18
 70
     1
102
RTVSPropertyOp19
 70
     1
102
RTVSPropertyOp20
 70
     1
102
RTVSPropertyOp21
 70
     1
102
RTVSPropertyOp22
 70
     1
102
RTVSPropertyOp23
 70
     1
102
RTVSPropertyOp24
 70
     1
102
RTVSPropertyOp25
 70
     1
102
RTVSPropertyOp26
 70
     1
102
RTVSPropertyOp27
 70
     1
102
RTVSPropertyOp28
 70
     1
102
RTVSPropertyOp29
 70
     1
102
RTVSPropertyOp30
 70
     1
102
RTVSPropertyOp31
 70
     1
102
RTVSPropertyOp32
 70
     1
102
RTVSPropertyOp33
 70
     1
102
RTVSPropertyOp34
 70
     1
102
RTVSPropertyOp35
 70
     1
102
RTVSPropertyOp36
 70
     1
102
RTVSPropertyOp37
 70
     1
102
RTVSPropertyOp38
 70
     1
102
RTVSPropertyOp39
 70
     1
102
RTVSPropertyOp40
 70
     1
102
RTVSPropertyOp41
 70
     1
102
RTVSPropertyOp42
 70
     1
102
RTVSPropertyOp43
 70
     1
102
RTVSPropertyOp44
 70
     1
102
RTVSPropertyOp45
 70
     1
102
RTVSPropertyOp46
 70
     1
102
RTVSPropertyOp47
 70
     1
102
RTVSPropertyOp48
 70
     1
102
RTVSPropertyOp49
 70
     1
102
RTVSPropertyOp50
 70
     1
102
RTVSPropertyOp51
 70
     0
102
RTVSPropertyOp52
 70
     0
102
RTVSPropertyOp53
 70
     1
102
RTVSPropertyOp54
 70
     1
102
RTVSPropertyOp55
 70
     1
102
RTVSPropertyOp56
 70
     1
102
RTVSPropertyOp57
 70
     1
102
RTVSPropertyOp58
 70
     1
102
RTVSPropertyOp59
 70
     1
102
RTVSPropertyOp60
 70
     1
102
RTVSPropertyOp61
 70
     1
102
RTVSPropertyOp62
 70
     1
  0
XRECORD
  5
B80E
102
{ACAD_REACTORS
330
B80D
102
}
330
B80D
100
AcDbXrecord
280
     1
102
RTVSPost2010Prop28
280
     0
102
RTVSPost2010PropOp28
 70
     1
102
RTVSPost2010Prop29
280
     1
102
RTVSPost2010PropOp29
 70
     1
102
RTVSPost2010Prop30
280
     1
102
RTVSPost2010PropOp30
 70
     1
102
RTVSPost2010Prop31
280
     0
102
RTVSPost2010PropOp31
 70
     1
102
RTVSPost2010Prop32
280
     0
102
RTVSPost2010PropOp32
 70
     1
102
RTVSPost2010Prop33
280
     0
102
RTVSPost2010PropOp33
 70
     1
102
RTVSPost2010Prop34
280
     0
102
RTVSPost2010PropOp34
 70
     1
102
RTVSPost2010Prop35
280
     0
102
RTVSPost2010PropOp35
 70
     1
102
RTVSPost2010Prop36
280
     0
102
RTVSPost2010PropOp36
 70
     1
102
RTVSPost2010Prop37
 90
       50
102
RTVSPost2010PropOp37
 70
     1
102
RTVSPost2010Prop38
140
0.0
102
RTVSPost2010PropOp38
 70
     1
102
RTVSPost2010Prop39
140
1.0
102
RTVSPost2010PropOp39
 70
     1
102
RTVSPost2010Prop40
 90
        0
102
RTVSPost2010PropOp40
 70
     1
102
RTVSPost2010Prop41ColorIndex
 90
       18
102
RTVSPost2010Prop41ColorRGB
 90
        0
102
RTVSPost2010PropOp41
 70
     1
102
RTVSPost2010Prop42
 90
       50
102
RTVSPost2010PropOp42
 70
     1
102
RTVSPost2010Prop43
 90
        3
102
RTVSPost2010PropOp43
 70
     1
102
RTVSPost2010Prop44ColorIndex
 90
        5
102
RTVSPost2010Prop44ColorRGB
 90
      255
102
RTVSPost2010PropOp44
 70
     1
102
RTVSPost2010Prop45
280
     0
102
RTVSPost2010PropOp45
 70
     1
102
RTVSPost2010Prop46
 90
       50
102
RTVSPost2010PropOp46
 70
     1
102
RTVSPost2010Prop47
 90
       50
102
RTVSPost2010PropOp47
 70
     1
102
RTVSPost2010Prop48
 90
       50
102
RTVSPost2010PropOp48
 70
     1
102
RTVSPost2010Prop49
280
     0
102
RTVSPost2010PropOp49
 70
     1
102
RTVSPost2010Prop50
 90
       50
102
RTVSPost2010PropOp50
 70
     1
102
RTVSPost2010Prop51ColorIndex
 90
      256
102
RTVSPost2010Prop51ColorRGB
 90
-16777216
102
RTVSPost2010PropOp51
 70
     0
102
RTVSPost2010Prop52
140
1.0
102
RTVSPost2010PropOp52
 70
     0
102
RTVSPost2010Prop53
 90
        2
102
RTVSPost2010PropOp53
 70
     1
102
RTVSPost2010Prop54
  1
strokes_ogs.tif
102
RTVSPost2010PropOp54
 70
     1
102
RTVSPost2010Prop55
280
     0
102
RTVSPost2010PropOp55
 70
     1
102
RTVSPost2010Prop56
140
1.0
102
RTVSPost2010PropOp56
 70
     1
102
RTVSPost2010Prop57
140
1.0
102
RTVSPost2010PropOp57
 70
     1
102
RTVSPropertyOp0
 70
     1
102
RTVSPropertyOp1
 70
     1
102
RTVSPropertyOp2
 70
     1
102
RTVSPropertyOp3
 70
     1
102
RTVSPropertyOp4
 70
     1
102
RTVSPropertyOp5
 70
     1
102
RTVSPropertyOp6
 70
     1
102
RTVSPropertyOp7
 70
     1
102
RTVSPropertyOp8
 70
     1
102
RTVSPropertyOp9
 70
     1
102
RTVSPropertyOp10
 70
     1
102
RTVSPropertyOp11
 70
     1
102
RTVSPropertyOp12
 70
     1
102
RTVSPropertyOp13
 70
     1
102
RTVSPropertyOp14
 70
     1
102
RTVSPropertyOp15
 70
     1
102
RTVSPropertyOp16
 70
     1
102
RTVSPropertyOp17
 70
     1
102
RTVSPropertyOp18
 70
     1
102
RTVSPropertyOp19
 70
     1
102
RTVSPropertyOp20
 70
     1
102
RTVSPropertyOp21
 70
     1
102
RTVSPropertyOp22
 70
     1
102
RTVSPropertyOp23
 70
     1
102
RTVSPropertyOp24
 70
     1
102
RTVSPropertyOp25
 70
     1
102
RTVSPropertyOp26
 70
     1
102
RTVSPropertyOp27
 70
     1
102
RTVSPropertyOp28
 70
     1
102
RTVSPropertyOp29
 70
     1
102
RTVSPropertyOp30
 70
     1
102
RTVSPropertyOp31
 70
     1
102
RTVSPropertyOp32
 70
     1
102
RTVSPropertyOp33
 70
     1
102
RTVSPropertyOp34
 70
     1
102
RTVSPropertyOp35
 70
     1
102
RTVSPropertyOp36
 70
     1
102
RTVSPropertyOp37
 70
     1
102
RTVSPropertyOp38
 70
     1
102
RTVSPropertyOp39
 70
     1
102
RTVSPropertyOp40
 70
     1
102
RTVSPropertyOp41
 70
     1
102
RTVSPropertyOp42
 70
     1
102
RTVSPropertyOp43
 70
     1
102
RTVSPropertyOp44
 70
     1
102
RTVSPropertyOp45
 70
     1
102
RTVSPropertyOp46
 70
     1
102
RTVSPropertyOp47
 70
     1
102
RTVSPropertyOp48
 70
     1
102
RTVSPropertyOp49
 70
     1
102
RTVSPropertyOp50
 70
     1
102
RTVSPropertyOp51
 70
     0
102
RTVSPropertyOp52
 70
     0
102
RTVSPropertyOp53
 70
     1
102
RTVSPropertyOp54
 70
     1
102
RTVSPropertyOp55
 70
     1
102
RTVSPropertyOp56
 70
     1
102
RTVSPropertyOp57
 70
     1
102
RTVSPropertyOp58
 70
     1
102
RTVSPropertyOp59
 70
     1
102
RTVSPropertyOp60
 70
     1
102
RTVSPropertyOp61
 70
     1
102
RTVSPropertyOp62
 70
     1
  0
XRECORD
  5
B82A
102
{ACAD_REACTORS
330
B829
102
}
330
B829
100
AcDbXrecord
280
     1
102
RTVSPost2010Prop28
280
     0
102
RTVSPost2010PropOp28
 70
     1
102
RTVSPost2010Prop29
280
     1
102
RTVSPost2010PropOp29
 70
     1
102
RTVSPost2010Prop30
280
     1
102
RTVSPost2010PropOp30
 70
     1
102
RTVSPost2010Prop31
280
     0
102
RTVSPost2010PropOp31
 70
     1
102
RTVSPost2010Prop32
280
     0
102
RTVSPost2010PropOp32
 70
     1
102
RTVSPost2010Prop33
280
     0
102
RTVSPost2010PropOp33
 70
     1
102
RTVSPost2010Prop34
280
     0
102
RTVSPost2010PropOp34
 70
     1
102
RTVSPost2010Prop35
280
     0
102
RTVSPost2010PropOp35
 70
     1
102
RTVSPost2010Prop36
280
     0
102
RTVSPost2010PropOp36
 70
     1
102
RTVSPost2010Prop37
 90
       50
102
RTVSPost2010PropOp37
 70
     0
102
RTVSPost2010Prop38
140
0.0
102
RTVSPost2010PropOp38
 70
     0
102
RTVSPost2010Prop39
140
1.0
102
RTVSPost2010PropOp39
 70
     0
102
RTVSPost2010Prop40
 90
        0
102
RTVSPost2010PropOp40
 70
     0
102
RTVSPost2010Prop41ColorIndex
 90
       18
102
RTVSPost2010Prop41ColorRGB
 90
        0
102
RTVSPost2010PropOp41
 70
     0
102
RTVSPost2010Prop42
 90
       50
102
RTVSPost2010PropOp42
 70
     0
102
RTVSPost2010Prop43
 90
        3
102
RTVSPost2010PropOp43
 70
     0
102
RTVSPost2010Prop44ColorIndex
 90
        5
102
RTVSPost2010Prop44ColorRGB
 90
      255
102
RTVSPost2010PropOp44
 70
     0
102
RTVSPost2010Prop45
280
     0
102
RTVSPost2010PropOp45
 70
     1
102
RTVSPost2010Prop46
 90
       50
102
RTVSPost2010PropOp46
 70
     0
102
RTVSPost2010Prop47
 90
       50
102
RTVSPost2010PropOp47
 70
     0
102
RTVSPost2010Prop48
 90
       50
102
RTVSPost2010PropOp48
 70
     0
102
RTVSPost2010Prop49
280
     0
102
RTVSPost2010PropOp49
 70
     1
102
RTVSPost2010Prop50
 90
       50
102
RTVSPost2010PropOp50
 70
     0
102
RTVSPost2010Prop51ColorIndex
 90
      256
102
RTVSPost2010Prop51ColorRGB
 90
-16777216
102
RTVSPost2010PropOp51
 70
     0
102
RTVSPost2010Prop52
140
1.0
102
RTVSPost2010PropOp52
 70
     0
102
RTVSPost2010Prop53
 90
        2
102
RTVSPost2010PropOp53
 70
     0
102
RTVSPost2010Prop54
  1
strokes_ogs.tif
102
RTVSPost2010PropOp54
 70
     0
102
RTVSPost2010Prop55
280
     0
102
RTVSPost2010PropOp55
 70
     1
102
RTVSPost2010Prop56
140
1.0
102
RTVSPost2010PropOp56
 70
     0
102
RTVSPost2010Prop57
140
1.0
102
RTVSPost2010PropOp57
 70
     0
102
RTVSPropertyOp0
 70
     0
102
RTVSPropertyOp1
 70
     0
102
RTVSPropertyOp2
 70
     0
102
RTVSPropertyOp3
 70
     0
102
RTVSPropertyOp4
 70
     0
102
RTVSPropertyOp5
 70
     0
102
RTVSPropertyOp6
 70
     0
102
RTVSPropertyOp7
 70
     0
102
RTVSPropertyOp8
 70
     0
102
RTVSPropertyOp9
 70
     0
102
RTVSPropertyOp10
 70
     0
102
RTVSPropertyOp11
 70
     0
102
RTVSPropertyOp12
 70
     0
102
RTVSPropertyOp13
 70
     0
102
RTVSPropertyOp14
 70
     2
102
RTVSPropertyOp15
 70
     0
102
RTVSPropertyOp16
 70
     0
102
RTVSPropertyOp17
 70
     0
102
RTVSPropertyOp18
 70
     0
102
RTVSPropertyOp19
 70
     0
102
RTVSPropertyOp20
 70
     0
102
RTVSPropertyOp21
 70
     0
102
RTVSPropertyOp22
 70
     0
102
RTVSPropertyOp23
 70
     0
102
RTVSPropertyOp24
 70
     0
102
RTVSPropertyOp25
 70
     0
102
RTVSPropertyOp26
 70
     0
102
RTVSPropertyOp27
 70
     0
102
RTVSPropertyOp28
 70
     1
102
RTVSPropertyOp29
 70
     1
102
RTVSPropertyOp30
 70
     1
102
RTVSPropertyOp31
 70
     1
102
RTVSPropertyOp32
 70
     1
102
RTVSPropertyOp33
 70
     1
102
RTVSPropertyOp34
 70
     1
102
RTVSPropertyOp35
 70
     1
102
RTVSPropertyOp36
 70
     1
102
RTVSPropertyOp37
 70
     0
102
RTVSPropertyOp38
 70
     0
102
RTVSPropertyOp39
 70
     0
102
RTVSPropertyOp40
 70
     0
102
RTVSPropertyOp41
 70
     0
102
RTVSPropertyOp42
 70
     0
102
RTVSPropertyOp43
 70
     0
102
RTVSPropertyOp44
 70
     0
102
RTVSPropertyOp45
 70
     1
102
RTVSPropertyOp46
 70
     0
102
RTVSPropertyOp47
 70
     0
102
RTVSPropertyOp48
 70
     0
102
RTVSPropertyOp49
 70
     1
102
RTVSPropertyOp50
 70
     0
102
RTVSPropertyOp51
 70
     0
102
RTVSPropertyOp52
 70
     0
102
RTVSPropertyOp53
 70
     0
102
RTVSPropertyOp54
 70
     0
102
RTVSPropertyOp55
 70
     1
102
RTVSPropertyOp56
 70
     0
102
RTVSPropertyOp57
 70
     0
102
RTVSPropertyOp58
 70
     0
102
RTVSPropertyOp59
 70
     0
102
RTVSPropertyOp60
 70
     0
102
RTVSPropertyOp61
 70
     0
102
RTVSPropertyOp62
 70
     0
  0
XRECORD
  5
B81A
102
{ACAD_REACTORS
330
B819
102
}
330
B819
100
AcDbXrecord
280
     1
102
RTVSPost2010Prop28
280
     0
102
RTVSPost2010PropOp28
 70
     1
102
RTVSPost2010Prop29
280
     1
102
RTVSPost2010PropOp29
 70
     1
102
RTVSPost2010Prop30
280
     1
102
RTVSPost2010PropOp30
 70
     1
102
RTVSPost2010Prop31
280
     0
102
RTVSPost2010PropOp31
 70
     1
102
RTVSPost2010Prop32
280
     0
102
RTVSPost2010PropOp32
 70
     1
102
RTVSPost2010Prop33
280
     0
102
RTVSPost2010PropOp33
 70
     1
102
RTVSPost2010Prop34
280
     0
102
RTVSPost2010PropOp34
 70
     1
102
RTVSPost2010Prop35
280
     0
102
RTVSPost2010PropOp35
 70
     1
102
RTVSPost2010Prop36
280
     0
102
RTVSPost2010PropOp36
 70
     1
102
RTVSPost2010Prop37
 90
       50
102
RTVSPost2010PropOp37
 70
     1
102
RTVSPost2010Prop38
140
0.0
102
RTVSPost2010PropOp38
 70
     1
102
RTVSPost2010Prop39
140
1.0
102
RTVSPost2010PropOp39
 70
     1
102
RTVSPost2010Prop40
 90
        0
102
RTVSPost2010PropOp40
 70
     1
102
RTVSPost2010Prop41ColorIndex
 90
       18
102
RTVSPost2010Prop41ColorRGB
 90
        0
102
RTVSPost2010PropOp41
 70
     1
102
RTVSPost2010Prop42
 90
       50
102
RTVSPost2010PropOp42
 70
     1
102
RTVSPost2010Prop43
 90
        3
102
RTVSPost2010PropOp43
 70
     1
102
RTVSPost2010Prop44ColorIndex
 90
        5
102
RTVSPost2010Prop44ColorRGB
 90
      255
102
RTVSPost2010PropOp44
 70
     1
102
RTVSPost2010Prop45
280
     0
102
RTVSPost2010PropOp45
 70
     1
102
RTVSPost2010Prop46
 90
       50
102
RTVSPost2010PropOp46
 70
     1
102
RTVSPost2010Prop47
 90
       50
102
RTVSPost2010PropOp47
 70
     1
102
RTVSPost2010Prop48
 90
       50
102
RTVSPost2010PropOp48
 70
     1
102
RTVSPost2010Prop49
280
     0
102
RTVSPost2010PropOp49
 70
     1
102
RTVSPost2010Prop50
 90
       50
102
RTVSPost2010PropOp50
 70
     1
102
RTVSPost2010Prop51ColorIndex
 90
      256
102
RTVSPost2010Prop51ColorRGB
 90
-16777216
102
RTVSPost2010PropOp51
 70
     0
102
RTVSPost2010Prop52
140
1.0
102
RTVSPost2010PropOp52
 70
     0
102
RTVSPost2010Prop53
 90
        2
102
RTVSPost2010PropOp53
 70
     1
102
RTVSPost2010Prop54
  1
strokes_ogs.tif
102
RTVSPost2010PropOp54
 70
     1
102
RTVSPost2010Prop55
280
     0
102
RTVSPost2010PropOp55
 70
     1
102
RTVSPost2010Prop56
140
1.0
102
RTVSPost2010PropOp56
 70
     1
102
RTVSPost2010Prop57
140
1.0
102
RTVSPost2010PropOp57
 70
     1
102
RTVSPropertyOp0
 70
     1
102
RTVSPropertyOp1
 70
     1
102
RTVSPropertyOp2
 70
     1
102
RTVSPropertyOp3
 70
     1
102
RTVSPropertyOp4
 70
     1
102
RTVSPropertyOp5
 70
     1
102
RTVSPropertyOp6
 70
     1
102
RTVSPropertyOp7
 70
     1
102
RTVSPropertyOp8
 70
     1
102
RTVSPropertyOp9
 70
     1
102
RTVSPropertyOp10
 70
     1
102
RTVSPropertyOp11
 70
     1
102
RTVSPropertyOp12
 70
     1
102
RTVSPropertyOp13
 70
     1
102
RTVSPropertyOp14
 70
     1
102
RTVSPropertyOp15
 70
     1
102
RTVSPropertyOp16
 70
     1
102
RTVSPropertyOp17
 70
     1
102
RTVSPropertyOp18
 70
     1
102
RTVSPropertyOp19
 70
     1
102
RTVSPropertyOp20
 70
     1
102
RTVSPropertyOp21
 70
     1
102
RTVSPropertyOp22
 70
     1
102
RTVSPropertyOp23
 70
     1
102
RTVSPropertyOp24
 70
     1
102
RTVSPropertyOp25
 70
     1
102
RTVSPropertyOp26
 70
     1
102
RTVSPropertyOp27
 70
     1
102
RTVSPropertyOp28
 70
     1
102
RTVSPropertyOp29
 70
     1
102
RTVSPropertyOp30
 70
     1
102
RTVSPropertyOp31
 70
     1
102
RTVSPropertyOp32
 70
     1
102
RTVSPropertyOp33
 70
     1
102
RTVSPropertyOp34
 70
     1
102
RTVSPropertyOp35
 70
     1
102
RTVSPropertyOp36
 70
     1
102
RTVSPropertyOp37
 70
     1
102
RTVSPropertyOp38
 70
     1
102
RTVSPropertyOp39
 70
     1
102
RTVSPropertyOp40
 70
     1
102
RTVSPropertyOp41
 70
     1
102
RTVSPropertyOp42
 70
     1
102
RTVSPropertyOp43
 70
     1
102
RTVSPropertyOp44
 70
     1
102
RTVSPropertyOp45
 70
     1
102
RTVSPropertyOp46
 70
     1
102
RTVSPropertyOp47
 70
     1
102
RTVSPropertyOp48
 70
     1
102
RTVSPropertyOp49
 70
     1
102
RTVSPropertyOp50
 70
     1
102
RTVSPropertyOp51
 70
     0
102
RTVSPropertyOp52
 70
     0
102
RTVSPropertyOp53
 70
     1
102
RTVSPropertyOp54
 70
     1
102
RTVSPropertyOp55
 70
     1
102
RTVSPropertyOp56
 70
     1
102
RTVSPropertyOp57
 70
     1
102
RTVSPropertyOp58
 70
     1
102
RTVSPropertyOp59
 70
     1
102
RTVSPropertyOp60
 70
     1
102
RTVSPropertyOp61
 70
     1
102
RTVSPropertyOp62
 70
     1
  0
XRECORD
  5
B82C
102
{ACAD_REACTORS
330
B82B
102
}
330
B82B
100
AcDbXrecord
280
     1
102
RTVSPost2010Prop28
280
     0
102
RTVSPost2010PropOp28
 70
     1
102
RTVSPost2010Prop29
280
     1
102
RTVSPost2010PropOp29
 70
     1
102
RTVSPost2010Prop30
280
     1
102
RTVSPost2010PropOp30
 70
     1
102
RTVSPost2010Prop31
280
     0
102
RTVSPost2010PropOp31
 70
     1
102
RTVSPost2010Prop32
280
     0
102
RTVSPost2010PropOp32
 70
     1
102
RTVSPost2010Prop33
280
     0
102
RTVSPost2010PropOp33
 70
     1
102
RTVSPost2010Prop34
280
     0
102
RTVSPost2010PropOp34
 70
     1
102
RTVSPost2010Prop35
280
     0
102
RTVSPost2010PropOp35
 70
     1
102
RTVSPost2010Prop36
280
     0
102
RTVSPost2010PropOp36
 70
     1
102
RTVSPost2010Prop37
 90
       50
102
RTVSPost2010PropOp37
 70
     0
102
RTVSPost2010Prop38
140
0.0
102
RTVSPost2010PropOp38
 70
     0
102
RTVSPost2010Prop39
140
1.0
102
RTVSPost2010PropOp39
 70
     0
102
RTVSPost2010Prop40
 90
        0
102
RTVSPost2010PropOp40
 70
     0
102
RTVSPost2010Prop41ColorIndex
 90
       18
102
RTVSPost2010Prop41ColorRGB
 90
        0
102
RTVSPost2010PropOp41
 70
     0
102
RTVSPost2010Prop42
 90
       50
102
RTVSPost2010PropOp42
 70
     0
102
RTVSPost2010Prop43
 90
        3
102
RTVSPost2010PropOp43
 70
     0
102
RTVSPost2010Prop44ColorIndex
 90
        5
102
RTVSPost2010Prop44ColorRGB
 90
      255
102
RTVSPost2010PropOp44
 70
     0
102
RTVSPost2010Prop45
280
     0
102
RTVSPost2010PropOp45
 70
     1
102
RTVSPost2010Prop46
 90
       50
102
RTVSPost2010PropOp46
 70
     0
102
RTVSPost2010Prop47
 90
       50
102
RTVSPost2010PropOp47
 70
     0
102
RTVSPost2010Prop48
 90
       50
102
RTVSPost2010PropOp48
 70
     0
102
RTVSPost2010Prop49
280
     0
102
RTVSPost2010PropOp49
 70
     1
102
RTVSPost2010Prop50
 90
       50
102
RTVSPost2010PropOp50
 70
     0
102
RTVSPost2010Prop51ColorIndex
 90
      256
102
RTVSPost2010Prop51ColorRGB
 90
-16777216
102
RTVSPost2010PropOp51
 70
     0
102
RTVSPost2010Prop52
140
1.0
102
RTVSPost2010PropOp52
 70
     0
102
RTVSPost2010Prop53
 90
        2
102
RTVSPost2010PropOp53
 70
     0
102
RTVSPost2010Prop54
  1
strokes_ogs.tif
102
RTVSPost2010PropOp54
 70
     0
102
RTVSPost2010Prop55
280
     0
102
RTVSPost2010PropOp55
 70
     1
102
RTVSPost2010Prop56
140
1.0
102
RTVSPost2010PropOp56
 70
     0
102
RTVSPost2010Prop57
140
1.0
102
RTVSPost2010PropOp57
 70
     0
102
RTVSPropertyOp0
 70
     0
102
RTVSPropertyOp1
 70
     0
102
RTVSPropertyOp2
 70
     0
102
RTVSPropertyOp3
 70
     0
102
RTVSPropertyOp4
 70
     0
102
RTVSPropertyOp5
 70
     0
102
RTVSPropertyOp6
 70
     0
102
RTVSPropertyOp7
 70
     0
102
RTVSPropertyOp8
 70
     0
102
RTVSPropertyOp9
 70
     0
102
RTVSPropertyOp10
 70
     0
102
RTVSPropertyOp11
 70
     0
102
RTVSPropertyOp12
 70
     0
102
RTVSPropertyOp13
 70
     0
102
RTVSPropertyOp14
 70
     2
102
RTVSPropertyOp15
 70
     0
102
RTVSPropertyOp16
 70
     0
102
RTVSPropertyOp17
 70
     0
102
RTVSPropertyOp18
 70
     0
102
RTVSPropertyOp19
 70
     0
102
RTVSPropertyOp20
 70
     0
102
RTVSPropertyOp21
 70
     0
102
RTVSPropertyOp22
 70
     0
102
RTVSPropertyOp23
 70
     0
102
RTVSPropertyOp24
 70
     0
102
RTVSPropertyOp25
 70
     0
102
RTVSPropertyOp26
 70
     0
102
RTVSPropertyOp27
 70
     0
102
RTVSPropertyOp28
 70
     1
102
RTVSPropertyOp29
 70
     1
102
RTVSPropertyOp30
 70
     1
102
RTVSPropertyOp31
 70
     1
102
RTVSPropertyOp32
 70
     1
102
RTVSPropertyOp33
 70
     1
102
RTVSPropertyOp34
 70
     1
102
RTVSPropertyOp35
 70
     1
102
RTVSPropertyOp36
 70
     1
102
RTVSPropertyOp37
 70
     0
102
RTVSPropertyOp38
 70
     0
102
RTVSPropertyOp39
 70
     0
102
RTVSPropertyOp40
 70
     0
102
RTVSPropertyOp41
 70
     0
102
RTVSPropertyOp42
 70
     0
102
RTVSPropertyOp43
 70
     0
102
RTVSPropertyOp44
 70
     0
102
RTVSPropertyOp45
 70
     1
102
RTVSPropertyOp46
 70
     0
102
RTVSPropertyOp47
 70
     0
102
RTVSPropertyOp48
 70
     0
102
RTVSPropertyOp49
 70
     1
102
RTVSPropertyOp50
 70
     0
102
RTVSPropertyOp51
 70
     0
102
RTVSPropertyOp52
 70
     0
102
RTVSPropertyOp53
 70
     0
102
RTVSPropertyOp54
 70
     0
102
RTVSPropertyOp55
 70
     1
102
RTVSPropertyOp56
 70
     0
102
RTVSPropertyOp57
 70
     0
102
RTVSPropertyOp58
 70
     0
102
RTVSPropertyOp59
 70
     0
102
RTVSPropertyOp60
 70
     0
102
RTVSPropertyOp61
 70
     0
102
RTVSPropertyOp62
 70
     0
  0
XRECORD
  5
B812
102
{ACAD_REACTORS
330
B811
102
}
330
B811
100
AcDbXrecord
280
     1
102
RTVSPost2010Prop28
280
     0
102
RTVSPost2010PropOp28
 70
     1
102
RTVSPost2010Prop29
280
     1
102
RTVSPost2010PropOp29
 70
     1
102
RTVSPost2010Prop30
280
     1
102
RTVSPost2010PropOp30
 70
     1
102
RTVSPost2010Prop31
280
     0
102
RTVSPost2010PropOp31
 70
     1
102
RTVSPost2010Prop32
280
     0
102
RTVSPost2010PropOp32
 70
     1
102
RTVSPost2010Prop33
280
     0
102
RTVSPost2010PropOp33
 70
     1
102
RTVSPost2010Prop34
280
     0
102
RTVSPost2010PropOp34
 70
     1
102
RTVSPost2010Prop35
280
     0
102
RTVSPost2010PropOp35
 70
     1
102
RTVSPost2010Prop36
280
     0
102
RTVSPost2010PropOp36
 70
     1
102
RTVSPost2010Prop37
 90
       50
102
RTVSPost2010PropOp37
 70
     1
102
RTVSPost2010Prop38
140
0.0
102
RTVSPost2010PropOp38
 70
     1
102
RTVSPost2010Prop39
140
1.0
102
RTVSPost2010PropOp39
 70
     1
102
RTVSPost2010Prop40
 90
        0
102
RTVSPost2010PropOp40
 70
     1
102
RTVSPost2010Prop41ColorIndex
 90
       18
102
RTVSPost2010Prop41ColorRGB
 90
        0
102
RTVSPost2010PropOp41
 70
     1
102
RTVSPost2010Prop42
 90
       50
102
RTVSPost2010PropOp42
 70
     1
102
RTVSPost2010Prop43
 90
        3
102
RTVSPost2010PropOp43
 70
     1
102
RTVSPost2010Prop44ColorIndex
 90
        5
102
RTVSPost2010Prop44ColorRGB
 90
      255
102
RTVSPost2010PropOp44
 70
     1
102
RTVSPost2010Prop45
280
     0
102
RTVSPost2010PropOp45
 70
     1
102
RTVSPost2010Prop46
 90
       50
102
RTVSPost2010PropOp46
 70
     1
102
RTVSPost2010Prop47
 90
       50
102
RTVSPost2010PropOp47
 70
     1
102
RTVSPost2010Prop48
 90
       50
102
RTVSPost2010PropOp48
 70
     1
102
RTVSPost2010Prop49
280
     0
102
RTVSPost2010PropOp49
 70
     1
102
RTVSPost2010Prop50
 90
       50
102
RTVSPost2010PropOp50
 70
     1
102
RTVSPost2010Prop51ColorIndex
 90
      256
102
RTVSPost2010Prop51ColorRGB
 90
-16777216
102
RTVSPost2010PropOp51
 70
     0
102
RTVSPost2010Prop52
140
1.0
102
RTVSPost2010PropOp52
 70
     0
102
RTVSPost2010Prop53
 90
        2
102
RTVSPost2010PropOp53
 70
     1
102
RTVSPost2010Prop54
  1
strokes_ogs.tif
102
RTVSPost2010PropOp54
 70
     1
102
RTVSPost2010Prop55
280
     0
102
RTVSPost2010PropOp55
 70
     1
102
RTVSPost2010Prop56
140
1.0
102
RTVSPost2010PropOp56
 70
     1
102
RTVSPost2010Prop57
140
1.0
102
RTVSPost2010PropOp57
 70
     1
102
RTVSPropertyOp0
 70
     1
102
RTVSPropertyOp1
 70
     1
102
RTVSPropertyOp2
 70
     1
102
RTVSPropertyOp3
 70
     1
102
RTVSPropertyOp4
 70
     1
102
RTVSPropertyOp5
 70
     1
102
RTVSPropertyOp6
 70
     1
102
RTVSPropertyOp7
 70
     1
102
RTVSPropertyOp8
 70
     1
102
RTVSPropertyOp9
 70
     1
102
RTVSPropertyOp10
 70
     1
102
RTVSPropertyOp11
 70
     1
102
RTVSPropertyOp12
 70
     1
102
RTVSPropertyOp13
 70
     1
102
RTVSPropertyOp14
 70
     1
102
RTVSPropertyOp15
 70
     1
102
RTVSPropertyOp16
 70
     1
102
RTVSPropertyOp17
 70
     1
102
RTVSPropertyOp18
 70
     1
102
RTVSPropertyOp19
 70
     1
102
RTVSPropertyOp20
 70
     1
102
RTVSPropertyOp21
 70
     1
102
RTVSPropertyOp22
 70
     1
102
RTVSPropertyOp23
 70
     1
102
RTVSPropertyOp24
 70
     1
102
RTVSPropertyOp25
 70
     1
102
RTVSPropertyOp26
 70
     1
102
RTVSPropertyOp27
 70
     1
102
RTVSPropertyOp28
 70
     1
102
RTVSPropertyOp29
 70
     1
102
RTVSPropertyOp30
 70
     1
102
RTVSPropertyOp31
 70
     1
102
RTVSPropertyOp32
 70
     1
102
RTVSPropertyOp33
 70
     1
102
RTVSPropertyOp34
 70
     1
102
RTVSPropertyOp35
 70
     1
102
RTVSPropertyOp36
 70
     1
102
RTVSPropertyOp37
 70
     1
102
RTVSPropertyOp38
 70
     1
102
RTVSPropertyOp39
 70
     1
102
RTVSPropertyOp40
 70
     1
102
RTVSPropertyOp41
 70
     1
102
RTVSPropertyOp42
 70
     1
102
RTVSPropertyOp43
 70
     1
102
RTVSPropertyOp44
 70
     1
102
RTVSPropertyOp45
 70
     1
102
RTVSPropertyOp46
 70
     1
102
RTVSPropertyOp47
 70
     1
102
RTVSPropertyOp48
 70
     1
102
RTVSPropertyOp49
 70
     1
102
RTVSPropertyOp50
 70
     1
102
RTVSPropertyOp51
 70
     0
102
RTVSPropertyOp52
 70
     0
102
RTVSPropertyOp53
 70
     1
102
RTVSPropertyOp54
 70
     1
102
RTVSPropertyOp55
 70
     1
102
RTVSPropertyOp56
 70
     1
102
RTVSPropertyOp57
 70
     1
102
RTVSPropertyOp58
 70
     1
102
RTVSPropertyOp59
 70
     1
102
RTVSPropertyOp60
 70
     1
102
RTVSPropertyOp61
 70
     1
102
RTVSPropertyOp62
 70
     1
  0
XRECORD
  5
B828
102
{ACAD_REACTORS
330
B827
102
}
330
B827
100
AcDbXrecord
280
     1
102
RTVSPost2010Prop28
280
     0
102
RTVSPost2010PropOp28
 70
     1
102
RTVSPost2010Prop29
280
     1
102
RTVSPost2010PropOp29
 70
     1
102
RTVSPost2010Prop30
280
     1
102
RTVSPost2010PropOp30
 70
     1
102
RTVSPost2010Prop31
280
     0
102
RTVSPost2010PropOp31
 70
     1
102
RTVSPost2010Prop32
280
     0
102
RTVSPost2010PropOp32
 70
     1
102
RTVSPost2010Prop33
280
     0
102
RTVSPost2010PropOp33
 70
     1
102
RTVSPost2010Prop34
280
     0
102
RTVSPost2010PropOp34
 70
     1
102
RTVSPost2010Prop35
280
     0
102
RTVSPost2010PropOp35
 70
     1
102
RTVSPost2010Prop36
280
     0
102
RTVSPost2010PropOp36
 70
     1
102
RTVSPost2010Prop37
 90
       50
102
RTVSPost2010PropOp37
 70
     1
102
RTVSPost2010Prop38
140
0.0
102
RTVSPost2010PropOp38
 70
     1
102
RTVSPost2010Prop39
140
1.0
102
RTVSPost2010PropOp39
 70
     1
102
RTVSPost2010Prop40
 90
        0
102
RTVSPost2010PropOp40
 70
     1
102
RTVSPost2010Prop41ColorIndex
 90
       18
102
RTVSPost2010Prop41ColorRGB
 90
        0
102
RTVSPost2010PropOp41
 70
     1
102
RTVSPost2010Prop42
 90
       50
102
RTVSPost2010PropOp42
 70
     1
102
RTVSPost2010Prop43
 90
        3
102
RTVSPost2010PropOp43
 70
     1
102
RTVSPost2010Prop44ColorIndex
 90
        5
102
RTVSPost2010Prop44ColorRGB
 90
      255
102
RTVSPost2010PropOp44
 70
     1
102
RTVSPost2010Prop45
280
     0
102
RTVSPost2010PropOp45
 70
     1
102
RTVSPost2010Prop46
 90
       50
102
RTVSPost2010PropOp46
 70
     1
102
RTVSPost2010Prop47
 90
       50
102
RTVSPost2010PropOp47
 70
     1
102
RTVSPost2010Prop48
 90
       50
102
RTVSPost2010PropOp48
 70
     1
102
RTVSPost2010Prop49
280
     0
102
RTVSPost2010PropOp49
 70
     1
102
RTVSPost2010Prop50
 90
       50
102
RTVSPost2010PropOp50
 70
     1
102
RTVSPost2010Prop51ColorIndex
 90
      256
102
RTVSPost2010Prop51ColorRGB
 90
-16777216
102
RTVSPost2010PropOp51
 70
     0
102
RTVSPost2010Prop52
140
1.0
102
RTVSPost2010PropOp52
 70
     0
102
RTVSPost2010Prop53
 90
        2
102
RTVSPost2010PropOp53
 70
     1
102
RTVSPost2010Prop54
  1
strokes_ogs.tif
102
RTVSPost2010PropOp54
 70
     1
102
RTVSPost2010Prop55
280
     0
102
RTVSPost2010PropOp55
 70
     1
102
RTVSPost2010Prop56
140
1.0
102
RTVSPost2010PropOp56
 70
     1
102
RTVSPost2010Prop57
140
1.0
102
RTVSPost2010PropOp57
 70
     1
102
RTVSPropertyOp0
 70
     1
102
RTVSPropertyOp1
 70
     1
102
RTVSPropertyOp2
 70
     1
102
RTVSPropertyOp3
 70
     1
102
RTVSPropertyOp4
 70
     1
102
RTVSPropertyOp5
 70
     1
102
RTVSPropertyOp6
 70
     1
102
RTVSPropertyOp7
 70
     1
102
RTVSPropertyOp8
 70
     1
102
RTVSPropertyOp9
 70
     1
102
RTVSPropertyOp10
 70
     1
102
RTVSPropertyOp11
 70
     1
102
RTVSPropertyOp12
 70
     1
102
RTVSPropertyOp13
 70
     1
102
RTVSPropertyOp14
 70
     1
102
RTVSPropertyOp15
 70
     1
102
RTVSPropertyOp16
 70
     1
102
RTVSPropertyOp17
 70
     1
102
RTVSPropertyOp18
 70
     1
102
RTVSPropertyOp19
 70
     1
102
RTVSPropertyOp20
 70
     1
102
RTVSPropertyOp21
 70
     1
102
RTVSPropertyOp22
 70
     1
102
RTVSPropertyOp23
 70
     1
102
RTVSPropertyOp24
 70
     1
102
RTVSPropertyOp25
 70
     1
102
RTVSPropertyOp26
 70
     1
102
RTVSPropertyOp27
 70
     1
102
RTVSPropertyOp28
 70
     1
102
RTVSPropertyOp29
 70
     1
102
RTVSPropertyOp30
 70
     1
102
RTVSPropertyOp31
 70
     1
102
RTVSPropertyOp32
 70
     1
102
RTVSPropertyOp33
 70
     1
102
RTVSPropertyOp34
 70
     1
102
RTVSPropertyOp35
 70
     1
102
RTVSPropertyOp36
 70
     1
102
RTVSPropertyOp37
 70
     1
102
RTVSPropertyOp38
 70
     1
102
RTVSPropertyOp39
 70
     1
102
RTVSPropertyOp40
 70
     1
102
RTVSPropertyOp41
 70
     1
102
RTVSPropertyOp42
 70
     1
102
RTVSPropertyOp43
 70
     1
102
RTVSPropertyOp44
 70
     1
102
RTVSPropertyOp45
 70
     1
102
RTVSPropertyOp46
 70
     1
102
RTVSPropertyOp47
 70
     1
102
RTVSPropertyOp48
 70
     1
102
RTVSPropertyOp49
 70
     1
102
RTVSPropertyOp50
 70
     1
102
RTVSPropertyOp51
 70
     0
102
RTVSPropertyOp52
 70
     0
102
RTVSPropertyOp53
 70
     1
102
RTVSPropertyOp54
 70
     1
102
RTVSPropertyOp55
 70
     1
102
RTVSPropertyOp56
 70
     1
102
RTVSPropertyOp57
 70
     1
102
RTVSPropertyOp58
 70
     1
102
RTVSPropertyOp59
 70
     1
102
RTVSPropertyOp60
 70
     1
102
RTVSPropertyOp61
 70
     1
102
RTVSPropertyOp62
 70
     1
  0
XRECORD
  5
B826
102
{ACAD_REACTORS
330
B825
102
}
330
B825
100
AcDbXrecord
280
     1
102
RTVSPost2010Prop28
280
     0
102
RTVSPost2010PropOp28
 70
     1
102
RTVSPost2010Prop29
280
     1
102
RTVSPost2010PropOp29
 70
     1
102
RTVSPost2010Prop30
280
     1
102
RTVSPost2010PropOp30
 70
     1
102
RTVSPost2010Prop31
280
     0
102
RTVSPost2010PropOp31
 70
     1
102
RTVSPost2010Prop32
280
     0
102
RTVSPost2010PropOp32
 70
     1
102
RTVSPost2010Prop33
280
     0
102
RTVSPost2010PropOp33
 70
     1
102
RTVSPost2010Prop34
280
     0
102
RTVSPost2010PropOp34
 70
     1
102
RTVSPost2010Prop35
280
     0
102
RTVSPost2010PropOp35
 70
     1
102
RTVSPost2010Prop36
280
     0
102
RTVSPost2010PropOp36
 70
     1
102
RTVSPost2010Prop37
 90
       50
102
RTVSPost2010PropOp37
 70
     1
102
RTVSPost2010Prop38
140
0.0
102
RTVSPost2010PropOp38
 70
     1
102
RTVSPost2010Prop39
140
1.0
102
RTVSPost2010PropOp39
 70
     1
102
RTVSPost2010Prop40
 90
        0
102
RTVSPost2010PropOp40
 70
     1
102
RTVSPost2010Prop41ColorIndex
 90
       18
102
RTVSPost2010Prop41ColorRGB
 90
        0
102
RTVSPost2010PropOp41
 70
     1
102
RTVSPost2010Prop42
 90
       50
102
RTVSPost2010PropOp42
 70
     1
102
RTVSPost2010Prop43
 90
        3
102
RTVSPost2010PropOp43
 70
     1
102
RTVSPost2010Prop44ColorIndex
 90
        5
102
RTVSPost2010Prop44ColorRGB
 90
      255
102
RTVSPost2010PropOp44
 70
     1
102
RTVSPost2010Prop45
280
     0
102
RTVSPost2010PropOp45
 70
     1
102
RTVSPost2010Prop46
 90
       50
102
RTVSPost2010PropOp46
 70
     1
102
RTVSPost2010Prop47
 90
       50
102
RTVSPost2010PropOp47
 70
     1
102
RTVSPost2010Prop48
 90
       50
102
RTVSPost2010PropOp48
 70
     1
102
RTVSPost2010Prop49
280
     0
102
RTVSPost2010PropOp49
 70
     1
102
RTVSPost2010Prop50
 90
       50
102
RTVSPost2010PropOp50
 70
     1
102
RTVSPost2010Prop51ColorIndex
 90
      256
102
RTVSPost2010Prop51ColorRGB
 90
-16777216
102
RTVSPost2010PropOp51
 70
     0
102
RTVSPost2010Prop52
140
1.0
102
RTVSPost2010PropOp52
 70
     0
102
RTVSPost2010Prop53
 90
        2
102
RTVSPost2010PropOp53
 70
     1
102
RTVSPost2010Prop54
  1
strokes_ogs.tif
102
RTVSPost2010PropOp54
 70
     1
102
RTVSPost2010Prop55
280
     0
102
RTVSPost2010PropOp55
 70
     1
102
RTVSPost2010Prop56
140
1.0
102
RTVSPost2010PropOp56
 70
     1
102
RTVSPost2010Prop57
140
1.0
102
RTVSPost2010PropOp57
 70
     1
102
RTVSPropertyOp0
 70
     1
102
RTVSPropertyOp1
 70
     1
102
RTVSPropertyOp2
 70
     1
102
RTVSPropertyOp3
 70
     1
102
RTVSPropertyOp4
 70
     1
102
RTVSPropertyOp5
 70
     1
102
RTVSPropertyOp6
 70
     1
102
RTVSPropertyOp7
 70
     1
102
RTVSPropertyOp8
 70
     1
102
RTVSPropertyOp9
 70
     1
102
RTVSPropertyOp10
 70
     1
102
RTVSPropertyOp11
 70
     1
102
RTVSPropertyOp12
 70
     1
102
RTVSPropertyOp13
 70
     1
102
RTVSPropertyOp14
 70
     1
102
RTVSPropertyOp15
 70
     1
102
RTVSPropertyOp16
 70
     1
102
RTVSPropertyOp17
 70
     1
102
RTVSPropertyOp18
 70
     1
102
RTVSPropertyOp19
 70
     1
102
RTVSPropertyOp20
 70
     1
102
RTVSPropertyOp21
 70
     1
102
RTVSPropertyOp22
 70
     1
102
RTVSPropertyOp23
 70
     1
102
RTVSPropertyOp24
 70
     1
102
RTVSPropertyOp25
 70
     1
102
RTVSPropertyOp26
 70
     1
102
RTVSPropertyOp27
 70
     1
102
RTVSPropertyOp28
 70
     1
102
RTVSPropertyOp29
 70
     1
102
RTVSPropertyOp30
 70
     1
102
RTVSPropertyOp31
 70
     1
102
RTVSPropertyOp32
 70
     1
102
RTVSPropertyOp33
 70
     1
102
RTVSPropertyOp34
 70
     1
102
RTVSPropertyOp35
 70
     1
102
RTVSPropertyOp36
 70
     1
102
RTVSPropertyOp37
 70
     1
102
RTVSPropertyOp38
 70
     1
102
RTVSPropertyOp39
 70
     1
102
RTVSPropertyOp40
 70
     1
102
RTVSPropertyOp41
 70
     1
102
RTVSPropertyOp42
 70
     1
102
RTVSPropertyOp43
 70
     1
102
RTVSPropertyOp44
 70
     1
102
RTVSPropertyOp45
 70
     1
102
RTVSPropertyOp46
 70
     1
102
RTVSPropertyOp47
 70
     1
102
RTVSPropertyOp48
 70
     1
102
RTVSPropertyOp49
 70
     1
102
RTVSPropertyOp50
 70
     1
102
RTVSPropertyOp51
 70
     0
102
RTVSPropertyOp52
 70
     0
102
RTVSPropertyOp53
 70
     1
102
RTVSPropertyOp54
 70
     1
102
RTVSPropertyOp55
 70
     1
102
RTVSPropertyOp56
 70
     1
102
RTVSPropertyOp57
 70
     1
102
RTVSPropertyOp58
 70
     1
102
RTVSPropertyOp59
 70
     1
102
RTVSPropertyOp60
 70
     1
102
RTVSPropertyOp61
 70
     1
102
RTVSPropertyOp62
 70
     1
  0
XRECORD
  5
B820
102
{ACAD_REACTORS
330
B81F
102
}
330
B81F
100
AcDbXrecord
280
     1
102
RTVSPost2010Prop28
280
     0
102
RTVSPost2010PropOp28
 70
     1
102
RTVSPost2010Prop29
280
     1
102
RTVSPost2010PropOp29
 70
     1
102
RTVSPost2010Prop30
280
     1
102
RTVSPost2010PropOp30
 70
     1
102
RTVSPost2010Prop31
280
     0
102
RTVSPost2010PropOp31
 70
     1
102
RTVSPost2010Prop32
280
     0
102
RTVSPost2010PropOp32
 70
     1
102
RTVSPost2010Prop33
280
     0
102
RTVSPost2010PropOp33
 70
     1
102
RTVSPost2010Prop34
280
     0
102
RTVSPost2010PropOp34
 70
     1
102
RTVSPost2010Prop35
280
     0
102
RTVSPost2010PropOp35
 70
     1
102
RTVSPost2010Prop36
280
     0
102
RTVSPost2010PropOp36
 70
     1
102
RTVSPost2010Prop37
 90
       50
102
RTVSPost2010PropOp37
 70
     1
102
RTVSPost2010Prop38
140
0.0
102
RTVSPost2010PropOp38
 70
     1
102
RTVSPost2010Prop39
140
1.0
102
RTVSPost2010PropOp39
 70
     1
102
RTVSPost2010Prop40
 90
        0
102
RTVSPost2010PropOp40
 70
     1
102
RTVSPost2010Prop41ColorIndex
 90
       18
102
RTVSPost2010Prop41ColorRGB
 90
        0
102
RTVSPost2010PropOp41
 70
     1
102
RTVSPost2010Prop42
 90
       50
102
RTVSPost2010PropOp42
 70
     1
102
RTVSPost2010Prop43
 90
        3
102
RTVSPost2010PropOp43
 70
     1
102
RTVSPost2010Prop44ColorIndex
 90
        5
102
RTVSPost2010Prop44ColorRGB
 90
      255
102
RTVSPost2010PropOp44
 70
     1
102
RTVSPost2010Prop45
280
     0
102
RTVSPost2010PropOp45
 70
     1
102
RTVSPost2010Prop46
 90
       50
102
RTVSPost2010PropOp46
 70
     1
102
RTVSPost2010Prop47
 90
       50
102
RTVSPost2010PropOp47
 70
     1
102
RTVSPost2010Prop48
 90
       50
102
RTVSPost2010PropOp48
 70
     1
102
RTVSPost2010Prop49
280
     0
102
RTVSPost2010PropOp49
 70
     1
102
RTVSPost2010Prop50
 90
       50
102
RTVSPost2010PropOp50
 70
     1
102
RTVSPost2010Prop51ColorIndex
 90
      256
102
RTVSPost2010Prop51ColorRGB
 90
-16777216
102
RTVSPost2010PropOp51
 70
     0
102
RTVSPost2010Prop52
140
1.0
102
RTVSPost2010PropOp52
 70
     0
102
RTVSPost2010Prop53
 90
        2
102
RTVSPost2010PropOp53
 70
     1
102
RTVSPost2010Prop54
  1
strokes_ogs.tif
102
RTVSPost2010PropOp54
 70
     1
102
RTVSPost2010Prop55
280
     0
102
RTVSPost2010PropOp55
 70
     1
102
RTVSPost2010Prop56
140
1.0
102
RTVSPost2010PropOp56
 70
     1
102
RTVSPost2010Prop57
140
1.0
102
RTVSPost2010PropOp57
 70
     1
102
RTVSPropertyOp0
 70
     1
102
RTVSPropertyOp1
 70
     1
102
RTVSPropertyOp2
 70
     1
102
RTVSPropertyOp3
 70
     1
102
RTVSPropertyOp4
 70
     1
102
RTVSPropertyOp5
 70
     1
102
RTVSPropertyOp6
 70
     1
102
RTVSPropertyOp7
 70
     1
102
RTVSPropertyOp8
 70
     1
102
RTVSPropertyOp9
 70
     1
102
RTVSPropertyOp10
 70
     1
102
RTVSPropertyOp11
 70
     1
102
RTVSPropertyOp12
 70
     1
102
RTVSPropertyOp13
 70
     1
102
RTVSPropertyOp14
 70
     1
102
RTVSPropertyOp15
 70
     1
102
RTVSPropertyOp16
 70
     1
102
RTVSPropertyOp17
 70
     1
102
RTVSPropertyOp18
 70
     1
102
RTVSPropertyOp19
 70
     1
102
RTVSPropertyOp20
 70
     1
102
RTVSPropertyOp21
 70
     1
102
RTVSPropertyOp22
 70
     1
102
RTVSPropertyOp23
 70
     1
102
RTVSPropertyOp24
 70
     1
102
RTVSPropertyOp25
 70
     1
102
RTVSPropertyOp26
 70
     1
102
RTVSPropertyOp27
 70
     1
102
RTVSPropertyOp28
 70
     1
102
RTVSPropertyOp29
 70
     1
102
RTVSPropertyOp30
 70
     1
102
RTVSPropertyOp31
 70
     1
102
RTVSPropertyOp32
 70
     1
102
RTVSPropertyOp33
 70
     1
102
RTVSPropertyOp34
 70
     1
102
RTVSPropertyOp35
 70
     1
102
RTVSPropertyOp36
 70
     1
102
RTVSPropertyOp37
 70
     1
102
RTVSPropertyOp38
 70
     1
102
RTVSPropertyOp39
 70
     1
102
RTVSPropertyOp40
 70
     1
102
RTVSPropertyOp41
 70
     1
102
RTVSPropertyOp42
 70
     1
102
RTVSPropertyOp43
 70
     1
102
RTVSPropertyOp44
 70
     1
102
RTVSPropertyOp45
 70
     1
102
RTVSPropertyOp46
 70
     1
102
RTVSPropertyOp47
 70
     1
102
RTVSPropertyOp48
 70
     1
102
RTVSPropertyOp49
 70
     1
102
RTVSPropertyOp50
 70
     1
102
RTVSPropertyOp51
 70
     0
102
RTVSPropertyOp52
 70
     0
102
RTVSPropertyOp53
 70
     1
102
RTVSPropertyOp54
 70
     1
102
RTVSPropertyOp55
 70
     1
102
RTVSPropertyOp56
 70
     1
102
RTVSPropertyOp57
 70
     1
102
RTVSPropertyOp58
 70
     1
102
RTVSPropertyOp59
 70
     1
102
RTVSPropertyOp60
 70
     1
102
RTVSPropertyOp61
 70
     1
102
RTVSPropertyOp62
 70
     1
  0
XRECORD
  5
B822
102
{ACAD_REACTORS
330
B821
102
}
330
B821
100
AcDbXrecord
280
     1
102
RTVSPost2010Prop28
280
     0
102
RTVSPost2010PropOp28
 70
     1
102
RTVSPost2010Prop29
280
     1
102
RTVSPost2010PropOp29
 70
     1
102
RTVSPost2010Prop30
280
     1
102
RTVSPost2010PropOp30
 70
     1
102
RTVSPost2010Prop31
280
     0
102
RTVSPost2010PropOp31
 70
     1
102
RTVSPost2010Prop32
280
     0
102
RTVSPost2010PropOp32
 70
     1
102
RTVSPost2010Prop33
280
     0
102
RTVSPost2010PropOp33
 70
     1
102
RTVSPost2010Prop34
280
     0
102
RTVSPost2010PropOp34
 70
     1
102
RTVSPost2010Prop35
280
     0
102
RTVSPost2010PropOp35
 70
     1
102
RTVSPost2010Prop36
280
     0
102
RTVSPost2010PropOp36
 70
     1
102
RTVSPost2010Prop37
 90
       50
102
RTVSPost2010PropOp37
 70
     1
102
RTVSPost2010Prop38
140
0.0
102
RTVSPost2010PropOp38
 70
     1
102
RTVSPost2010Prop39
140
1.0
102
RTVSPost2010PropOp39
 70
     1
102
RTVSPost2010Prop40
 90
        0
102
RTVSPost2010PropOp40
 70
     1
102
RTVSPost2010Prop41ColorIndex
 90
       18
102
RTVSPost2010Prop41ColorRGB
 90
        0
102
RTVSPost2010PropOp41
 70
     1
102
RTVSPost2010Prop42
 90
       50
102
RTVSPost2010PropOp42
 70
     1
102
RTVSPost2010Prop43
 90
        3
102
RTVSPost2010PropOp43
 70
     1
102
RTVSPost2010Prop44ColorIndex
 90
        5
102
RTVSPost2010Prop44ColorRGB
 90
      255
102
RTVSPost2010PropOp44
 70
     1
102
RTVSPost2010Prop45
280
     0
102
RTVSPost2010PropOp45
 70
     1
102
RTVSPost2010Prop46
 90
       50
102
RTVSPost2010PropOp46
 70
     1
102
RTVSPost2010Prop47
 90
       50
102
RTVSPost2010PropOp47
 70
     1
102
RTVSPost2010Prop48
 90
       50
102
RTVSPost2010PropOp48
 70
     1
102
RTVSPost2010Prop49
280
     0
102
RTVSPost2010PropOp49
 70
     1
102
RTVSPost2010Prop50
 90
       50
102
RTVSPost2010PropOp50
 70
     1
102
RTVSPost2010Prop51ColorIndex
 90
      256
102
RTVSPost2010Prop51ColorRGB
 90
-16777216
102
RTVSPost2010PropOp51
 70
     0
102
RTVSPost2010Prop52
140
1.0
102
RTVSPost2010PropOp52
 70
     0
102
RTVSPost2010Prop53
 90
        2
102
RTVSPost2010PropOp53
 70
     1
102
RTVSPost2010Prop54
  1
strokes_ogs.tif
102
RTVSPost2010PropOp54
 70
     1
102
RTVSPost2010Prop55
280
     0
102
RTVSPost2010PropOp55
 70
     1
102
RTVSPost2010Prop56
140
1.0
102
RTVSPost2010PropOp56
 70
     1
102
RTVSPost2010Prop57
140
1.0
102
RTVSPost2010PropOp57
 70
     1
102
RTVSPropertyOp0
 70
     1
102
RTVSPropertyOp1
 70
     1
102
RTVSPropertyOp2
 70
     1
102
RTVSPropertyOp3
 70
     1
102
RTVSPropertyOp4
 70
     1
102
RTVSPropertyOp5
 70
     1
102
RTVSPropertyOp6
 70
     1
102
RTVSPropertyOp7
 70
     1
102
RTVSPropertyOp8
 70
     1
102
RTVSPropertyOp9
 70
     1
102
RTVSPropertyOp10
 70
     1
102
RTVSPropertyOp11
 70
     1
102
RTVSPropertyOp12
 70
     1
102
RTVSPropertyOp13
 70
     1
102
RTVSPropertyOp14
 70
     1
102
RTVSPropertyOp15
 70
     1
102
RTVSPropertyOp16
 70
     1
102
RTVSPropertyOp17
 70
     1
102
RTVSPropertyOp18
 70
     1
102
RTVSPropertyOp19
 70
     1
102
RTVSPropertyOp20
 70
     1
102
RTVSPropertyOp21
 70
     1
102
RTVSPropertyOp22
 70
     1
102
RTVSPropertyOp23
 70
     1
102
RTVSPropertyOp24
 70
     1
102
RTVSPropertyOp25
 70
     1
102
RTVSPropertyOp26
 70
     1
102
RTVSPropertyOp27
 70
     1
102
RTVSPropertyOp28
 70
     1
102
RTVSPropertyOp29
 70
     1
102
RTVSPropertyOp30
 70
     1
102
RTVSPropertyOp31
 70
     1
102
RTVSPropertyOp32
 70
     1
102
RTVSPropertyOp33
 70
     1
102
RTVSPropertyOp34
 70
     1
102
RTVSPropertyOp35
 70
     1
102
RTVSPropertyOp36
 70
     1
102
RTVSPropertyOp37
 70
     1
102
RTVSPropertyOp38
 70
     1
102
RTVSPropertyOp39
 70
     1
102
RTVSPropertyOp40
 70
     1
102
RTVSPropertyOp41
 70
     1
102
RTVSPropertyOp42
 70
     1
102
RTVSPropertyOp43
 70
     1
102
RTVSPropertyOp44
 70
     1
102
RTVSPropertyOp45
 70
     1
102
RTVSPropertyOp46
 70
     1
102
RTVSPropertyOp47
 70
     1
102
RTVSPropertyOp48
 70
     1
102
RTVSPropertyOp49
 70
     1
102
RTVSPropertyOp50
 70
     1
102
RTVSPropertyOp51
 70
     0
102
RTVSPropertyOp52
 70
     0
102
RTVSPropertyOp53
 70
     1
102
RTVSPropertyOp54
 70
     1
102
RTVSPropertyOp55
 70
     1
102
RTVSPropertyOp56
 70
     1
102
RTVSPropertyOp57
 70
     1
102
RTVSPropertyOp58
 70
     1
102
RTVSPropertyOp59
 70
     1
102
RTVSPropertyOp60
 70
     1
102
RTVSPropertyOp61
 70
     1
102
RTVSPropertyOp62
 70
     1
  0
XRECORD
  5
B818
102
{ACAD_REACTORS
330
B817
102
}
330
B817
100
AcDbXrecord
280
     1
102
RTVSPost2010Prop28
280
     0
102
RTVSPost2010PropOp28
 70
     1
102
RTVSPost2010Prop29
280
     1
102
RTVSPost2010PropOp29
 70
     1
102
RTVSPost2010Prop30
280
     1
102
RTVSPost2010PropOp30
 70
     1
102
RTVSPost2010Prop31
280
     0
102
RTVSPost2010PropOp31
 70
     1
102
RTVSPost2010Prop32
280
     0
102
RTVSPost2010PropOp32
 70
     1
102
RTVSPost2010Prop33
280
     0
102
RTVSPost2010PropOp33
 70
     1
102
RTVSPost2010Prop34
280
     0
102
RTVSPost2010PropOp34
 70
     1
102
RTVSPost2010Prop35
280
     0
102
RTVSPost2010PropOp35
 70
     1
102
RTVSPost2010Prop36
280
     0
102
RTVSPost2010PropOp36
 70
     1
102
RTVSPost2010Prop37
 90
       50
102
RTVSPost2010PropOp37
 70
     1
102
RTVSPost2010Prop38
140
0.0
102
RTVSPost2010PropOp38
 70
     1
102
RTVSPost2010Prop39
140
1.0
102
RTVSPost2010PropOp39
 70
     1
102
RTVSPost2010Prop40
 90
        0
102
RTVSPost2010PropOp40
 70
     1
102
RTVSPost2010Prop41ColorIndex
 90
       18
102
RTVSPost2010Prop41ColorRGB
 90
        0
102
RTVSPost2010PropOp41
 70
     1
102
RTVSPost2010Prop42
 90
       50
102
RTVSPost2010PropOp42
 70
     1
102
RTVSPost2010Prop43
 90
        3
102
RTVSPost2010PropOp43
 70
     1
102
RTVSPost2010Prop44ColorIndex
 90
        5
102
RTVSPost2010Prop44ColorRGB
 90
      255
102
RTVSPost2010PropOp44
 70
     1
102
RTVSPost2010Prop45
280
     0
102
RTVSPost2010PropOp45
 70
     1
102
RTVSPost2010Prop46
 90
       50
102
RTVSPost2010PropOp46
 70
     1
102
RTVSPost2010Prop47
 90
       50
102
RTVSPost2010PropOp47
 70
     1
102
RTVSPost2010Prop48
 90
       50
102
RTVSPost2010PropOp48
 70
     1
102
RTVSPost2010Prop49
280
     0
102
RTVSPost2010PropOp49
 70
     1
102
RTVSPost2010Prop50
 90
       50
102
RTVSPost2010PropOp50
 70
     1
102
RTVSPost2010Prop51ColorIndex
 90
      256
102
RTVSPost2010Prop51ColorRGB
 90
-16777216
102
RTVSPost2010PropOp51
 70
     0
102
RTVSPost2010Prop52
140
1.0
102
RTVSPost2010PropOp52
 70
     0
102
RTVSPost2010Prop53
 90
        2
102
RTVSPost2010PropOp53
 70
     1
102
RTVSPost2010Prop54
  1
strokes_ogs.tif
102
RTVSPost2010PropOp54
 70
     1
102
RTVSPost2010Prop55
280
     0
102
RTVSPost2010PropOp55
 70
     1
102
RTVSPost2010Prop56
140
1.0
102
RTVSPost2010PropOp56
 70
     1
102
RTVSPost2010Prop57
140
1.0
102
RTVSPost2010PropOp57
 70
     1
102
RTVSPropertyOp0
 70
     1
102
RTVSPropertyOp1
 70
     1
102
RTVSPropertyOp2
 70
     1
102
RTVSPropertyOp3
 70
     1
102
RTVSPropertyOp4
 70
     1
102
RTVSPropertyOp5
 70
     1
102
RTVSPropertyOp6
 70
     1
102
RTVSPropertyOp7
 70
     1
102
RTVSPropertyOp8
 70
     1
102
RTVSPropertyOp9
 70
     1
102
RTVSPropertyOp10
 70
     1
102
RTVSPropertyOp11
 70
     1
102
RTVSPropertyOp12
 70
     1
102
RTVSPropertyOp13
 70
     1
102
RTVSPropertyOp14
 70
     1
102
RTVSPropertyOp15
 70
     1
102
RTVSPropertyOp16
 70
     1
102
RTVSPropertyOp17
 70
     1
102
RTVSPropertyOp18
 70
     1
102
RTVSPropertyOp19
 70
     1
102
RTVSPropertyOp20
 70
     1
102
RTVSPropertyOp21
 70
     1
102
RTVSPropertyOp22
 70
     1
102
RTVSPropertyOp23
 70
     1
102
RTVSPropertyOp24
 70
     1
102
RTVSPropertyOp25
 70
     1
102
RTVSPropertyOp26
 70
     1
102
RTVSPropertyOp27
 70
     1
102
RTVSPropertyOp28
 70
     1
102
RTVSPropertyOp29
 70
     1
102
RTVSPropertyOp30
 70
     1
102
RTVSPropertyOp31
 70
     1
102
RTVSPropertyOp32
 70
     1
102
RTVSPropertyOp33
 70
     1
102
RTVSPropertyOp34
 70
     1
102
RTVSPropertyOp35
 70
     1
102
RTVSPropertyOp36
 70
     1
102
RTVSPropertyOp37
 70
     1
102
RTVSPropertyOp38
 70
     1
102
RTVSPropertyOp39
 70
     1
102
RTVSPropertyOp40
 70
     1
102
RTVSPropertyOp41
 70
     1
102
RTVSPropertyOp42
 70
     1
102
RTVSPropertyOp43
 70
     1
102
RTVSPropertyOp44
 70
     1
102
RTVSPropertyOp45
 70
     1
102
RTVSPropertyOp46
 70
     1
102
RTVSPropertyOp47
 70
     1
102
RTVSPropertyOp48
 70
     1
102
RTVSPropertyOp49
 70
     1
102
RTVSPropertyOp50
 70
     1
102
RTVSPropertyOp51
 70
     0
102
RTVSPropertyOp52
 70
     0
102
RTVSPropertyOp53
 70
     1
102
RTVSPropertyOp54
 70
     1
102
RTVSPropertyOp55
 70
     1
102
RTVSPropertyOp56
 70
     1
102
RTVSPropertyOp57
 70
     1
102
RTVSPropertyOp58
 70
     1
102
RTVSPropertyOp59
 70
     1
102
RTVSPropertyOp60
 70
     1
102
RTVSPropertyOp61
 70
     1
102
RTVSPropertyOp62
 70
     1
  0
XRECORD
  5
B80C
102
{ACAD_REACTORS
330
B80B
102
}
330
B80B
100
AcDbXrecord
280
     1
102
RTVSPost2010Prop28
280
     0
102
RTVSPost2010PropOp28
 70
     1
102
RTVSPost2010Prop29
280
     1
102
RTVSPost2010PropOp29
 70
     1
102
RTVSPost2010Prop30
280
     1
102
RTVSPost2010PropOp30
 70
     1
102
RTVSPost2010Prop31
280
     0
102
RTVSPost2010PropOp31
 70
     1
102
RTVSPost2010Prop32
280
     0
102
RTVSPost2010PropOp32
 70
     1
102
RTVSPost2010Prop33
280
     0
102
RTVSPost2010PropOp33
 70
     1
102
RTVSPost2010Prop34
280
     0
102
RTVSPost2010PropOp34
 70
     1
102
RTVSPost2010Prop35
280
     0
102
RTVSPost2010PropOp35
 70
     1
102
RTVSPost2010Prop36
280
     0
102
RTVSPost2010PropOp36
 70
     1
102
RTVSPost2010Prop37
 90
       50
102
RTVSPost2010PropOp37
 70
     1
102
RTVSPost2010Prop38
140
0.0
102
RTVSPost2010PropOp38
 70
     1
102
RTVSPost2010Prop39
140
1.0
102
RTVSPost2010PropOp39
 70
     1
102
RTVSPost2010Prop40
 90
        0
102
RTVSPost2010PropOp40
 70
     1
102
RTVSPost2010Prop41ColorIndex
 90
       18
102
RTVSPost2010Prop41ColorRGB
 90
        0
102
RTVSPost2010PropOp41
 70
     1
102
RTVSPost2010Prop42
 90
       50
102
RTVSPost2010PropOp42
 70
     1
102
RTVSPost2010Prop43
 90
        3
102
RTVSPost2010PropOp43
 70
     1
102
RTVSPost2010Prop44ColorIndex
 90
        5
102
RTVSPost2010Prop44ColorRGB
 90
      255
102
RTVSPost2010PropOp44
 70
     1
102
RTVSPost2010Prop45
280
     0
102
RTVSPost2010PropOp45
 70
     1
102
RTVSPost2010Prop46
 90
       50
102
RTVSPost2010PropOp46
 70
     1
102
RTVSPost2010Prop47
 90
       50
102
RTVSPost2010PropOp47
 70
     1
102
RTVSPost2010Prop48
 90
       50
102
RTVSPost2010PropOp48
 70
     1
102
RTVSPost2010Prop49
280
     0
102
RTVSPost2010PropOp49
 70
     1
102
RTVSPost2010Prop50
 90
       50
102
RTVSPost2010PropOp50
 70
     1
102
RTVSPost2010Prop51ColorIndex
 90
      256
102
RTVSPost2010Prop51ColorRGB
 90
-16777216
102
RTVSPost2010PropOp51
 70
     0
102
RTVSPost2010Prop52
140
1.0
102
RTVSPost2010PropOp52
 70
     0
102
RTVSPost2010Prop53
 90
        2
102
RTVSPost2010PropOp53
 70
     1
102
RTVSPost2010Prop54
  1
strokes_ogs.tif
102
RTVSPost2010PropOp54
 70
     1
102
RTVSPost2010Prop55
280
     0
102
RTVSPost2010PropOp55
 70
     1
102
RTVSPost2010Prop56
140
1.0
102
RTVSPost2010PropOp56
 70
     1
102
RTVSPost2010Prop57
140
1.0
102
RTVSPost2010PropOp57
 70
     1
102
RTVSPropertyOp0
 70
     1
102
RTVSPropertyOp1
 70
     1
102
RTVSPropertyOp2
 70
     1
102
RTVSPropertyOp3
 70
     1
102
RTVSPropertyOp4
 70
     1
102
RTVSPropertyOp5
 70
     1
102
RTVSPropertyOp6
 70
     1
102
RTVSPropertyOp7
 70
     1
102
RTVSPropertyOp8
 70
     1
102
RTVSPropertyOp9
 70
     1
102
RTVSPropertyOp10
 70
     1
102
RTVSPropertyOp11
 70
     1
102
RTVSPropertyOp12
 70
     1
102
RTVSPropertyOp13
 70
     1
102
RTVSPropertyOp14
 70
     1
102
RTVSPropertyOp15
 70
     1
102
RTVSPropertyOp16
 70
     1
102
RTVSPropertyOp17
 70
     1
102
RTVSPropertyOp18
 70
     1
102
RTVSPropertyOp19
 70
     1
102
RTVSPropertyOp20
 70
     1
102
RTVSPropertyOp21
 70
     1
102
RTVSPropertyOp22
 70
     1
102
RTVSPropertyOp23
 70
     1
102
RTVSPropertyOp24
 70
     1
102
RTVSPropertyOp25
 70
     1
102
RTVSPropertyOp26
 70
     1
102
RTVSPropertyOp27
 70
     1
102
RTVSPropertyOp28
 70
     1
102
RTVSPropertyOp29
 70
     1
102
RTVSPropertyOp30
 70
     1
102
RTVSPropertyOp31
 70
     1
102
RTVSPropertyOp32
 70
     1
102
RTVSPropertyOp33
 70
     1
102
RTVSPropertyOp34
 70
     1
102
RTVSPropertyOp35
 70
     1
102
RTVSPropertyOp36
 70
     1
102
RTVSPropertyOp37
 70
     1
102
RTVSPropertyOp38
 70
     1
102
RTVSPropertyOp39
 70
     1
102
RTVSPropertyOp40
 70
     1
102
RTVSPropertyOp41
 70
     1
102
RTVSPropertyOp42
 70
     1
102
RTVSPropertyOp43
 70
     1
102
RTVSPropertyOp44
 70
     1
102
RTVSPropertyOp45
 70
     1
102
RTVSPropertyOp46
 70
     1
102
RTVSPropertyOp47
 70
     1
102
RTVSPropertyOp48
 70
     1
102
RTVSPropertyOp49
 70
     1
102
RTVSPropertyOp50
 70
     1
102
RTVSPropertyOp51
 70
     0
102
RTVSPropertyOp52
 70
     0
102
RTVSPropertyOp53
 70
     1
102
RTVSPropertyOp54
 70
     1
102
RTVSPropertyOp55
 70
     1
102
RTVSPropertyOp56
 70
     1
102
RTVSPropertyOp57
 70
     1
102
RTVSPropertyOp58
 70
     1
102
RTVSPropertyOp59
 70
     1
102
RTVSPropertyOp60
 70
     1
102
RTVSPropertyOp61
 70
     1
102
RTVSPropertyOp62
 70
     1
  0
XRECORD
  5
B824
102
{ACAD_REACTORS
330
B823
102
}
330
B823
100
AcDbXrecord
280
     1
102
RTVSPost2010Prop28
280
     0
102
RTVSPost2010PropOp28
 70
     1
102
RTVSPost2010Prop29
280
     1
102
RTVSPost2010PropOp29
 70
     1
102
RTVSPost2010Prop30
280
     1
102
RTVSPost2010PropOp30
 70
     1
102
RTVSPost2010Prop31
280
     0
102
RTVSPost2010PropOp31
 70
     1
102
RTVSPost2010Prop32
280
     0
102
RTVSPost2010PropOp32
 70
     1
102
RTVSPost2010Prop33
280
     0
102
RTVSPost2010PropOp33
 70
     1
102
RTVSPost2010Prop34
280
     0
102
RTVSPost2010PropOp34
 70
     1
102
RTVSPost2010Prop35
280
     0
102
RTVSPost2010PropOp35
 70
     1
102
RTVSPost2010Prop36
280
     0
102
RTVSPost2010PropOp36
 70
     1
102
RTVSPost2010Prop37
 90
       50
102
RTVSPost2010PropOp37
 70
     1
102
RTVSPost2010Prop38
140
0.0
102
RTVSPost2010PropOp38
 70
     1
102
RTVSPost2010Prop39
140
1.0
102
RTVSPost2010PropOp39
 70
     1
102
RTVSPost2010Prop40
 90
        0
102
RTVSPost2010PropOp40
 70
     1
102
RTVSPost2010Prop41ColorIndex
 90
       18
102
RTVSPost2010Prop41ColorRGB
 90
        0
102
RTVSPost2010PropOp41
 70
     1
102
RTVSPost2010Prop42
 90
       50
102
RTVSPost2010PropOp42
 70
     1
102
RTVSPost2010Prop43
 90
        3
102
RTVSPost2010PropOp43
 70
     1
102
RTVSPost2010Prop44ColorIndex
 90
        5
102
RTVSPost2010Prop44ColorRGB
 90
      255
102
RTVSPost2010PropOp44
 70
     1
102
RTVSPost2010Prop45
280
     0
102
RTVSPost2010PropOp45
 70
     1
102
RTVSPost2010Prop46
 90
       50
102
RTVSPost2010PropOp46
 70
     1
102
RTVSPost2010Prop47
 90
       50
102
RTVSPost2010PropOp47
 70
     1
102
RTVSPost2010Prop48
 90
       50
102
RTVSPost2010PropOp48
 70
     1
102
RTVSPost2010Prop49
280
     0
102
RTVSPost2010PropOp49
 70
     1
102
RTVSPost2010Prop50
 90
       50
102
RTVSPost2010PropOp50
 70
     1
102
RTVSPost2010Prop51ColorIndex
 90
      256
102
RTVSPost2010Prop51ColorRGB
 90
-16777216
102
RTVSPost2010PropOp51
 70
     0
102
RTVSPost2010Prop52
140
1.0
102
RTVSPost2010PropOp52
 70
     0
102
RTVSPost2010Prop53
 90
        2
102
RTVSPost2010PropOp53
 70
     1
102
RTVSPost2010Prop54
  1
strokes_ogs.tif
102
RTVSPost2010PropOp54
 70
     1
102
RTVSPost2010Prop55
280
     0
102
RTVSPost2010PropOp55
 70
     1
102
RTVSPost2010Prop56
140
1.0
102
RTVSPost2010PropOp56
 70
     1
102
RTVSPost2010Prop57
140
1.0
102
RTVSPost2010PropOp57
 70
     1
102
RTVSPropertyOp0
 70
     1
102
RTVSPropertyOp1
 70
     1
102
RTVSPropertyOp2
 70
     1
102
RTVSPropertyOp3
 70
     1
102
RTVSPropertyOp4
 70
     1
102
RTVSPropertyOp5
 70
     1
102
RTVSPropertyOp6
 70
     1
102
RTVSPropertyOp7
 70
     1
102
RTVSPropertyOp8
 70
     1
102
RTVSPropertyOp9
 70
     1
102
RTVSPropertyOp10
 70
     1
102
RTVSPropertyOp11
 70
     1
102
RTVSPropertyOp12
 70
     1
102
RTVSPropertyOp13
 70
     1
102
RTVSPropertyOp14
 70
     1
102
RTVSPropertyOp15
 70
     1
102
RTVSPropertyOp16
 70
     1
102
RTVSPropertyOp17
 70
     1
102
RTVSPropertyOp18
 70
     1
102
RTVSPropertyOp19
 70
     1
102
RTVSPropertyOp20
 70
     1
102
RTVSPropertyOp21
 70
     1
102
RTVSPropertyOp22
 70
     1
102
RTVSPropertyOp23
 70
     1
102
RTVSPropertyOp24
 70
     1
102
RTVSPropertyOp25
 70
     1
102
RTVSPropertyOp26
 70
     1
102
RTVSPropertyOp27
 70
     1
102
RTVSPropertyOp28
 70
     1
102
RTVSPropertyOp29
 70
     1
102
RTVSPropertyOp30
 70
     1
102
RTVSPropertyOp31
 70
     1
102
RTVSPropertyOp32
 70
     1
102
RTVSPropertyOp33
 70
     1
102
RTVSPropertyOp34
 70
     1
102
RTVSPropertyOp35
 70
     1
102
RTVSPropertyOp36
 70
     1
102
RTVSPropertyOp37
 70
     1
102
RTVSPropertyOp38
 70
     1
102
RTVSPropertyOp39
 70
     1
102
RTVSPropertyOp40
 70
     1
102
RTVSPropertyOp41
 70
     1
102
RTVSPropertyOp42
 70
     1
102
RTVSPropertyOp43
 70
     1
102
RTVSPropertyOp44
 70
     1
102
RTVSPropertyOp45
 70
     1
102
RTVSPropertyOp46
 70
     1
102
RTVSPropertyOp47
 70
     1
102
RTVSPropertyOp48
 70
     1
102
RTVSPropertyOp49
 70
     1
102
RTVSPropertyOp50
 70
     1
102
RTVSPropertyOp51
 70
     0
102
RTVSPropertyOp52
 70
     0
102
RTVSPropertyOp53
 70
     1
102
RTVSPropertyOp54
 70
     1
102
RTVSPropertyOp55
 70
     1
102
RTVSPropertyOp56
 70
     1
102
RTVSPropertyOp57
 70
     1
102
RTVSPropertyOp58
 70
     1
102
RTVSPropertyOp59
 70
     1
102
RTVSPropertyOp60
 70
     1
102
RTVSPropertyOp61
 70
     1
102
RTVSPropertyOp62
 70
     1
  0
ENDSEC
  0
EOF
