  0
SECTION
  2
HEADER
  9
$ACADVER
  1
AC1015
  9
$ACADMAINTVER
 70
    20
  9
$DWGCODEPAGE
  3
ANSI_932
  9
$INSBASE
 10
0.0
 20
0.0
 30
0.0
  9
$EXTMIN
 10
10.0
 20
9.999999999999998
 30
0.0
  9
$EXTMAX
 10
439.6375039999998
 20
375.505498
 30
0.0
  9
$LIMMIN
 10
0.0
 20
0.0
  9
$LIMMAX
 10
565.3084730000001
 20
389.720235
  9
$ORTHOMODE
 70
     0
  9
$REGENMODE
 70
     1
  9
$FILLMODE
 70
     1
  9
$QTEXTMODE
 70
     0
  9
$MIRRTEXT
 70
     1
  9
$LTSCALE
 40
20.0
  9
$ATTMODE
 70
     1
  9
$TEXTSIZE
 40
5.0
  9
$TRACEWID
 40
1.0
  9
$TEXTSTYLE
  7
STANDARD
  9
$CLAYER
  8
0
  9
$CELTYPE
  6
BYLAYER
  9
$CECOLOR
 62
   256
  9
$CELTSCALE
 40
1.0
  9
$DISPSILH
 70
     0
  9
$DIMSCALE
 40
1.0
  9
$DIMASZ
 40
3.0
  9
$DIMEXO
 40
1.0
  9
$DIMDLI
 40
10.0
  9
$DIMRND
 40
0.0
  9
$DIMDLE
 40
0.0
  9
$DIMEXE
 40
1.0
  9
$DIMTP
 40
0.0
  9
$DIMTM
 40
0.0
  9
$DIMTXT
 40
3.2
  9
$DIMCEN
 40
0.0
  9
$DIMTSZ
 40
0.0
  9
$DIMTOL
 70
     0
  9
$DIMLIM
 70
     0
  9
$DIMTIH
 70
     0
  9
$DIMTOH
 70
     0
  9
$DIMSE1
 70
     0
  9
$DIMSE2
 70
     0
  9
$DIMTAD
 70
     3
  9
$DIMZIN
 70
     8
  9
$DIMBLK
  1

  9
$DIMASO
 70
     1
  9
$DIMSHO
 70
     1
  9
$DIMPOST
  1

  9
$DIMAPOST
  1

  9
$DIMALT
 70
     0
  9
$DIMALTD
 70
     2
  9
$DIMALTF
 40
25.4
  9
$DIMLFAC
 40
1.0
  9
$DIMTOFL
 70
     1
  9
$DIMTVP
 40
0.0
  9
$DIMTIX
 70
     0
  9
$DIMSOXD
 70
     0
  9
$DIMSAH
 70
     1
  9
$DIMBLK1
  1
OPEN
  9
$DIMBLK2
  1
OPEN
  9
$DIMSTYLE
  2
STANDARD
  9
$DIMCLRD
 70
     0
  9
$DIMCLRE
 70
     0
  9
$DIMCLRT
 70
     0
  9
$DIMTFAC
 40
1.0
  9
$DIMGAP
 40
1.0
  9
$DIMJUST
 70
     0
  9
$DIMSD1
 70
     0
  9
$DIMSD2
 70
     0
  9
$DIMTOLJ
 70
     1
  9
$DIMTZIN
 70
     0
  9
$DIMALTZ
 70
     0
  9
$DIMALTTZ
 70
     0
  9
$DIMUPT
 70
     0
  9
$DIMDEC
 70
     4
  9
$DIMTDEC
 70
     4
  9
$DIMALTU
 70
     2
  9
$DIMALTTD
 70
     2
  9
$DIMTXSTY
  7
STANDARD
  9
$DIMAUNIT
 70
     0
  9
$DIMADEC
 70
     0
  9
$DIMALTRND
 40
0.0
  9
$DIMAZIN
 70
     0
  9
$DIMDSEP
 70
    46
  9
$DIMATFIT
 70
     3
  9
$DIMFRAC
 70
     0
  9
$DIMLDRBLK
  1
OPEN
  9
$DIMLUNIT
 70
     2
  9
$DIMLWD
 70
    -2
  9
$DIMLWE
 70
    -2
  9
$DIMTMOVE
 70
     0
  9
$LUNITS
 70
     2
  9
$LUPREC
 70
     4
  9
$SKETCHINC
 40
1.0
  9
$FILLETRAD
 40
12.0
  9
$AUNITS
 70
     0
  9
$AUPREC
 70
     2
  9
$MENU
  1
.
  9
$ELEVATION
 40
0.0
  9
$PELEVATION
 40
0.0
  9
$THICKNESS
 40
0.0
  9
$LIMCHECK
 70
     0
  9
$CHAMFERA
 40
10.0
  9
$CHAMFERB
 40
10.0
  9
$CHAMFERC
 40
0.0
  9
$CHAMFERD
 40
0.0
  9
$SKPOLY
 70
     0
  9
$TDCREATE
 40
2451302.657053125
  9
$TDUCREATE
 40
2451302.282053125
  9
$TDUPDATE
 40
2457192.687775301
  9
$TDUUPDATE
 40
2457192.312775301
  9
$TDINDWG
 40
0.0000109722
  9
$TDUSRTIMER
 40
0.0000106481
  9
$USRTIMER
 70
     1
  9
$ANGBASE
 50
0.0
  9
$ANGDIR
 70
     0
  9
$PDMODE
 70
     0
  9
$PDSIZE
 40
0.0
  9
$PLINEWID
 40
0.0
  9
$SPLFRAME
 70
     0
  9
$SPLINETYPE
 70
     6
  9
$SPLINESEGS
 70
     8
  9
$HANDSEED
  5
AEEF
  9
$SURFTAB1
 70
     6
  9
$SURFTAB2
 70
     6
  9
$SURFTYPE
 70
     6
  9
$SURFU
 70
     6
  9
$SURFV
 70
     6
  9
$UCSBASE
  2

  9
$UCSNAME
  2

  9
$UCSORG
 10
0.0
 20
0.0
 30
0.0
  9
$UCSXDIR
 10
1.0
 20
0.0
 30
0.0
  9
$UCSYDIR
 10
0.0
 20
1.0
 30
0.0
  9
$UCSORTHOREF
  2

  9
$UCSORTHOVIEW
 70
     0
  9
$UCSORGTOP
 10
0.0
 20
0.0
 30
0.0
  9
$UCSORGBOTTOM
 10
0.0
 20
0.0
 30
0.0
  9
$UCSORGLEFT
 10
0.0
 20
0.0
 30
0.0
  9
$UCSORGRIGHT
 10
0.0
 20
0.0
 30
0.0
  9
$UCSORGFRONT
 10
0.0
 20
0.0
 30
0.0
  9
$UCSORGBACK
 10
0.0
 20
0.0
 30
0.0
  9
$PUCSBASE
  2

  9
$PUCSNAME
  2

  9
$PUCSORG
 10
0.0
 20
0.0
 30
0.0
  9
$PUCSXDIR
 10
1.0
 20
0.0
 30
0.0
  9
$PUCSYDIR
 10
0.0
 20
1.0
 30
0.0
  9
$PUCSORTHOREF
  2

  9
$PUCSORTHOVIEW
 70
     0
  9
$PUCSORGTOP
 10
0.0
 20
0.0
 30
0.0
  9
$PUCSORGBOTTOM
 10
0.0
 20
0.0
 30
0.0
  9
$PUCSORGLEFT
 10
0.0
 20
0.0
 30
0.0
  9
$PUCSORGRIGHT
 10
0.0
 20
0.0
 30
0.0
  9
$PUCSORGFRONT
 10
0.0
 20
0.0
 30
0.0
  9
$PUCSORGBACK
 10
0.0
 20
0.0
 30
0.0
  9
$USERI1
 70
     0
  9
$USERI2
 70
     0
  9
$USERI3
 70
     0
  9
$USERI4
 70
     0
  9
$USERI5
 70
     0
  9
$USERR1
 40
0.0
  9
$USERR2
 40
0.0
  9
$USERR3
 40
0.0
  9
$USERR4
 40
0.0
  9
$USERR5
 40
0.0
  9
$WORLDVIEW
 70
     1
  9
$SHADEDGE
 70
     3
  9
$SHADEDIF
 70
    70
  9
$TILEMODE
 70
     1
  9
$MAXACTVP
 70
    16
  9
$PINSBASE
 10
0.0
 20
0.0
 30
0.0
  9
$PLIMCHECK
 70
     0
  9
$PEXTMIN
 10
1.000000000000000E+20
 20
1.000000000000000E+20
 30
1.000000000000000E+20
  9
$PEXTMAX
 10
-1.000000000000000E+20
 20
-1.000000000000000E+20
 30
-1.000000000000000E+20
  9
$PLIMMIN
 10
0.0
 20
0.0
  9
$PLIMMAX
 10
420.0
 20
297.0
  9
$UNITMODE
 70
     0
  9
$VISRETAIN
 70
     0
  9
$PLINEGEN
 70
     0
  9
$PSLTSCALE
 70
     0
  9
$TREEDEPTH
 70
  3020
  9
$CMLSTYLE
  2
STANDARD
  9
$CMLJUST
 70
     0
  9
$CMLSCALE
 40
1.0
  9
$PROXYGRAPHICS
 70
     1
  9
$MEASUREMENT
 70
     0
  9
$CELWEIGHT
370
    -1
  9
$ENDCAPS
280
     0
  9
$JOINSTYLE
280
     0
  9
$LWDISPLAY
290
     0
  9
$INSUNITS
 70
     0
  9
$HYPERLINKBASE
  1

  9
$STYLESHEET
  1

  9
$XEDIT
290
     1
  9
$CEPSNTYPE
380
     0
  9
$PSTYLEMODE
290
     1
  9
$FINGERPRINTGUID
  2
{6D0923FF-6E02-44D2-BE82-9F7E64E3891E}
  9
$VERSIONGUID
  2
{DB6BEF95-E936-4359-A763-55EC7E4A3FAA}
  9
$EXTNAMES
290
     1
  9
$PSVPSCALE
 40
0.0
  9
$OLESTARTUP
290
     0
  0
ENDSEC
  0
SECTION
  2
CLASSES
  0
CLASS
  1
ACDBDICTIONARYWDFLT
  2
AcDbDictionaryWithDefault
  3
ObjectDBX Classes
 90
        0
280
     0
281
     0
  0
CLASS
  1
ACDBPLACEHOLDER
  2
AcDbPlaceHolder
  3
ObjectDBX Classes
 90
        0
280
     0
281
     0
  0
CLASS
  1
LAYOUT
  2
AcDbLayout
  3
ObjectDBX Classes
 90
        0
280
     0
281
     0
  0
CLASS
  1
DICTIONARYVAR
  2
AcDbDictionaryVar
  3
ObjectDBX Classes
 90
        0
280
     0
281
     0
  0
CLASS
  1
MATERIAL
  2
AcDbMaterial
  3
ObjectDBX Classes
 90
     1153
280
     0
281
     0
  0
CLASS
  1
VISUALSTYLE
  2
AcDbVisualStyle
  3
ObjectDBX Classes
 90
     4095
280
     0
281
     0
  0
CLASS
  1
TABLESTYLE
  2
AcDbTableStyle
  3
ObjectDBX Classes
 90
     4095
280
     0
281
     0
  0
CLASS
  1
SCALE
  2
AcDbScale
  3
ObjectDBX Classes
 90
     1153
280
     0
281
     0
  0
CLASS
  1
MLEADERSTYLE
  2
AcDbMLeaderStyle
  3
ACDB_MLEADERSTYLE_CLASS
 90
     4095
280
     0
281
     0
  0
CLASS
  1
ACDBSECTIONVIEWSTYLE
  2
AcDbSectionViewStyle
  3
ObjectDBX Classes
 90
     1025
280
     0
281
     0
  0
CLASS
  1
ACDBDETAILVIEWSTYLE
  2
AcDbDetailViewStyle
  3
ObjectDBX Classes
 90
     1025
280
     0
281
     0
  0
CLASS
  1
CELLSTYLEMAP
  2
AcDbCellStyleMap
  3
ObjectDBX Classes
 90
     1152
280
     0
281
     0
  0
ENDSEC
  0
SECTION
  2
TABLES
  0
TABLE
  2
VPORT
  5
AB6A
330
0
100
AcDbSymbolTable
 70
     1
  0
VPORT
  5
AE38
330
AB6A
100
AcDbSymbolTableRecord
100
AcDbViewportTableRecord
  2
*ACTIVE
 70
     0
 10
0.0
 20
0.0
 11
1.0
 21
1.0
 12
335.5332351098858
 22
192.7490545098956
 13
0.0
 23
0.0
 14
10.0
 24
10.0
 15
10.0
 25
10.0
 16
0.0
 26
0.0
 36
1.0
 17
0.0
 27
0.0
 37
0.0
 40
369.5802484484733
 41
2.35006605019815
 42
50.0
 43
0.0
 44
0.0
 50
0.0
 51
0.0
 71
     0
 72
   100
 73
     1
 74
     0
 75
     0
 76
     0
 77
     0
 78
     0
281
     0
 65
     1
110
0.0
120
0.0
130
0.0
111
1.0
121
0.0
131
0.0
112
0.0
122
1.0
132
0.0
 79
     0
146
0.0
1001
ACAD_NAV_VCDISPLAY
1070
     3
  0
ENDTAB
  0
TABLE
  2
LTYPE
  5
AB67
330
0
100
AcDbSymbolTable
 70
     4
  0
LTYPE
  5
AB75
330
AB67
100
AcDbSymbolTableRecord
100
AcDbLinetypeTableRecord
  2
BYBLOCK
 70
     0
  3

 72
    65
 73
     0
 40
0.0
  0
LTYPE
  5
AB76
330
AB67
100
AcDbSymbolTableRecord
100
AcDbLinetypeTableRecord
  2
BYLAYER
 70
     0
  3

 72
    65
 73
     0
 40
0.0
  0
LTYPE
  5
AB77
330
AB67
100
AcDbSymbolTableRecord
100
AcDbLinetypeTableRecord
  2
CONTINUOUS
 70
     0
  3
Solid line
 72
    65
 73
     0
 40
0.0
  0
LTYPE
  5
AB85
330
AB67
100
AcDbSymbolTableRecord
100
AcDbLinetypeTableRecord
  2
DASHED
 70
     0
  3
__ __ __ __ __ __ __ __ __ __ __ __ __ __ __ __
 72
    65
 73
     2
 40
0.75
 49
0.5
 74
     0
 49
-0.25
 74
     0
  0
LTYPE
  5
AB86
330
AB67
100
AcDbSymbolTableRecord
100
AcDbLinetypeTableRecord
  2
CENTER
 70
     0
  3
____ _ ____ _ ____ _ ____ _ ____ _ ____ _ ____ 
 72
    65
 73
     4
 40
2.0
 49
1.25
 74
     0
 49
-0.25
 74
     0
 49
0.25
 74
     0
 49
-0.25
 74
     0
  0
LTYPE
  5
AB87
330
AB67
100
AcDbSymbolTableRecord
100
AcDbLinetypeTableRecord
  2
PHANTOM
 70
     0
  3
______  __  __  ______  __  __  ______  __  __ 
 72
    65
 73
     6
 40
2.5
 49
1.25
 74
     0
 49
-0.25
 74
     0
 49
0.25
 74
     0
 49
-0.25
 74
     0
 49
0.25
 74
     0
 49
-0.25
 74
     0
  0
ENDTAB
  0
TABLE
  2
LAYER
  5
AB64
330
0
100
AcDbSymbolTable
 70
     8
  0
LAYER
  5
AB72
102
{ACAD_XDICTIONARY
360
AE93
102
}
330
AB64
100
AcDbSymbolTableRecord
100
AcDbLayerTableRecord
  2
0
 70
     0
 62
     7
  6
CONTINUOUS
370
    -3
390
AE41
  0
LAYER
  5
AB88
102
{ACAD_XDICTIONARY
360
AE95
102
}
330
AB64
100
AcDbSymbolTableRecord
100
AcDbLayerTableRecord
  2
4
 70
     0
 62
     1
  6
CENTER
370
    -3
390
AE41
  0
LAYER
  5
AB89
102
{ACAD_XDICTIONARY
360
AE97
102
}
330
AB64
100
AcDbSymbolTableRecord
100
AcDbLayerTableRecord
  2
5
 70
     0
 62
     6
  6
PHANTOM
370
    -3
390
AE41
  0
LAYER
  5
AB8A
102
{ACAD_XDICTIONARY
360
AE99
102
}
330
AB64
100
AcDbSymbolTableRecord
100
AcDbLayerTableRecord
  2
1
 70
     0
 62
     7
  6
CONTINUOUS
370
    -3
390
AE41
  0
LAYER
  5
AB8B
102
{ACAD_XDICTIONARY
360
AE9B
102
}
330
AB64
100
AcDbSymbolTableRecord
100
AcDbLayerTableRecord
  2
2
 70
     0
 62
     4
  6
CONTINUOUS
370
    -3
390
AE41
  0
LAYER
  5
AB8C
102
{ACAD_XDICTIONARY
360
AE9D
102
}
330
AB64
100
AcDbSymbolTableRecord
100
AcDbLayerTableRecord
  2
3
 70
     0
 62
     2
  6
DASHED
370
    -3
390
AE41
  0
LAYER
  5
AB8D
102
{ACAD_XDICTIONARY
360
AE9F
102
}
330
AB64
100
AcDbSymbolTableRecord
100
AcDbLayerTableRecord
  2
6
 70
     0
 62
     5
  6
CONTINUOUS
370
    -3
390
AE41
  0
LAYER
  5
AB8E
102
{ACAD_XDICTIONARY
360
AEA1
102
}
330
AB64
100
AcDbSymbolTableRecord
100
AcDbLayerTableRecord
  2
7
 70
     0
 62
     3
  6
CONTINUOUS
370
    -3
390
AE41
  0
ENDTAB
  0
TABLE
  2
STYLE
  5
AB65
330
0
100
AcDbSymbolTable
 70
     1
  0
STYLE
  5
AB73
330
AB65
100
AcDbSymbolTableRecord
100
AcDbTextStyleTableRecord
  2
STANDARD
 70
     0
 40
0.0
 41
1.0
 50
0.0
 71
     0
 42
5.0
  3
txt
  4

  0
ENDTAB
  0
TABLE
  2
VIEW
  5
AB68
330
0
100
AcDbSymbolTable
 70
     0
  0
ENDTAB
  0
TABLE
  2
UCS
  5
AB69
330
0
100
AcDbSymbolTable
 70
     0
  0
ENDTAB
  0
TABLE
  2
APPID
  5
AB6B
330
0
100
AcDbSymbolTable
 70
     3
  0
APPID
  5
AB74
330
AB6B
100
AcDbSymbolTableRecord
100
AcDbRegAppTableRecord
  2
ACAD
 70
     0
  0
APPID
  5
AEAD
330
AB6B
100
AcDbSymbolTableRecord
100
AcDbRegAppTableRecord
  2
ACAD_NAV_VCDISPLAY
 70
     0
  0
APPID
  5
AEE6
330
AB6B
100
AcDbSymbolTableRecord
100
AcDbRegAppTableRecord
  2
ACAD_MLEADERVER
 70
     0
  0
ENDTAB
  0
TABLE
  2
DIMSTYLE
  5
AB6C
330
0
100
AcDbSymbolTable
 70
     1
100
AcDbDimStyleTable
 71
     0
  0
DIMSTYLE
105
AB90
330
AB6C
100
AcDbSymbolTableRecord
100
AcDbDimStyleTableRecord
  2
STANDARD
 70
     0
 41
3.0
 42
1.0
 43
10.0
 44
1.0
 73
     0
 74
     0
 77
     3
 78
     8
140
3.2
141
0.0
147
1.0
172
     1
173
     1
284
     8
285
     8
286
     8
340
AB73
  0
ENDTAB
  0
TABLE
  2
BLOCK_RECORD
  5
AB63
330
0
100
AcDbSymbolTable
 70
     1
  0
BLOCK_RECORD
  5
AB80
102
{ACAD_XDICTIONARY
360
AE3B
102
}
330
AB63
100
AcDbSymbolTableRecord
100
AcDbBlockTableRecord
  2
*MODEL_SPACE
340
AE8F
  0
BLOCK_RECORD
  5
AB7C
102
{ACAD_XDICTIONARY
360
AE39
102
}
330
AB63
100
AcDbSymbolTableRecord
100
AcDbBlockTableRecord
  2
*PAPER_SPACE
340
AE90
  0
BLOCK_RECORD
  5
AB98
330
AB63
100
AcDbSymbolTableRecord
100
AcDbBlockTableRecord
  2
_OPEN
340
0
  0
ENDTAB
  0
ENDSEC
  0
SECTION
  2
BLOCKS
  0
BLOCK
  5
AB81
330
AB80
100
AcDbEntity
  8
0
100
AcDbBlockBegin
  2
*MODEL_SPACE
 70
     0
 10
0.0
 20
0.0
 30
0.0
  3
*MODEL_SPACE
  1

  0
ENDBLK
  5
AB82
330
AB80
100
AcDbEntity
  8
0
100
AcDbBlockEnd
  0
BLOCK
  5
AB7D
330
AB7C
100
AcDbEntity
 67
     1
  8
0
100
AcDbBlockBegin
  2
*PAPER_SPACE
 70
     0
 10
0.0
 20
0.0
 30
0.0
  3
*PAPER_SPACE
  1

  0
ENDBLK
  5
AB7E
330
AB7C
100
AcDbEntity
 67
     1
  8
0
100
AcDbBlockEnd
  0
BLOCK
  5
AB99
330
AB98
100
AcDbEntity
  8
0
100
AcDbBlockBegin
  2
_OPEN
 70
     0
 10
0.0
 20
0.0
 30
0.0
  3
_OPEN
  1

  0
LINE
  5
AB9A
330
AB98
100
AcDbEntity
  8
0
  6
ByBlock
 62
     0
100
AcDbLine
 10
-1.0
 20
0.166667
 30
0.0
 11
0.0
 21
0.0
 31
0.0
  0
LINE
  5
AB9B
330
AB98
100
AcDbEntity
  8
0
  6
ByBlock
 62
     0
100
AcDbLine
 10
0.0
 20
0.0
 30
0.0
 11
-1.0
 21
-0.166667
 31
0.0
  0
LINE
  5
AB9C
330
AB98
100
AcDbEntity
  8
0
  6
ByBlock
 62
     0
100
AcDbLine
 10
0.0
 20
0.0
 30
0.0
 11
-1.0
 21
0.0
 31
0.0
  0
ENDBLK
  5
AB9D
330
AB98
100
AcDbEntity
  8
0
100
AcDbBlockEnd
  0
ENDSEC
  0
SECTION
  2
ENTITIES
  0
TEXT
  5
AB9E
330
AB80
100
AcDbEntity
  8
7
  6
Continuous
100
AcDbText
 10
10.0
 20
18.0
 30
0.0
 40
3.0
  1
TYPE No.206 d=21
100
AcDbText
  0
TEXT
  5
AB9F
330
AB80
100
AcDbEntity
  8
7
  6
Continuous
100
AcDbText
 10
10.0
 20
26.0
 30
0.0
 40
3.0
  1
CODE No.9166
100
AcDbText
  0
TEXT
  5
ABA0
330
AB80
100
AcDbEntity
  8
1
  6
Continuous
100
AcDbText
 10
10.0
 20
10.0
 30
0.0
 40
1.399999999999999
  1
LAYER
100
AcDbText
  0
TEXT
  5
ABA1
330
AB80
100
AcDbEntity
  8
1
  6
Continuous
100
AcDbText
 10
17.97951099999998
 20
10.04873699999998
 30
0.0
 40
1.399999999999999
  1
1
100
AcDbText
  0
TEXT
  5
ABA2
330
AB80
100
AcDbEntity
  8
7
  6
Continuous
100
AcDbText
 10
29.97951099999999
 20
10.04873699999998
 30
0.0
 40
1.399999999999999
  1
7
100
AcDbText
  0
TEXT
  5
ABA3
330
AB80
100
AcDbEntity
  8
4
  6
CENTER
100
AcDbText
 10
23.97951099999999
 20
10.04873699999998
 30
0.0
 40
1.399999999999999
  1
4
100
AcDbText
  0
TEXT
  5
ABA4
330
AB80
100
AcDbEntity
  8
3
  6
DASHED
100
AcDbText
 10
21.979511
 20
10.04873699999998
 30
0.0
 40
1.399999999999999
  1
3
100
AcDbText
  0
TEXT
  5
ABA5
330
AB80
100
AcDbEntity
  8
2
  6
Continuous
100
AcDbText
 10
19.97951099999999
 20
10.04873699999998
 30
0.0
 40
1.399999999999999
  1
2
100
AcDbText
  0
TEXT
  5
ABA6
330
AB80
100
AcDbEntity
  8
6
  6
Continuous
100
AcDbText
 10
27.979511
 20
10.04873699999998
 30
0.0
 40
1.399999999999999
  1
6
100
AcDbText
  0
TEXT
  5
ABA7
330
AB80
100
AcDbEntity
  8
5
  6
PHANTOM
100
AcDbText
 10
25.97951099999999
 20
10.04873699999998
 30
0.0
 40
1.399999999999999
  1
5
100
AcDbText
  0
LINE
  5
ABA8
330
AB80
100
AcDbEntity
  8
4
  6
CENTER
100
AcDbLine
 10
206.1692469999999
 20
179.0714899999999
 30
0.0
 11
121.169247
 21
179.0714899999999
 31
0.0
  0
LINE
  5
ABA9
330
AB80
100
AcDbEntity
  8
4
  6
CENTER
100
AcDbLine
 10
163.6692469999998
 20
136.5714899999999
 30
0.0
 11
163.6692469999998
 21
219.57149
 31
0.0
  0
LINE
  5
ABAA
330
AB80
100
AcDbEntity
  8
1
  6
Continuous
100
AcDbLine
 10
211.669247
 20
225.87149
 30
0.0
 11
165.6692469999998
 21
225.87149
 31
0.0
  0
LINE
  5
ABAB
330
AB80
100
AcDbEntity
  8
1
  6
Continuous
100
AcDbLine
 10
159.8047719999998
 20
221.2714899999999
 30
0.0
 11
156.6692469999999
 21
221.2714899999999
 31
0.0
  0
LINE
  5
ABAC
330
AB80
100
AcDbEntity
  8
1
  6
Continuous
100
AcDbLine
 10
170.6692469999999
 20
223.57149
 30
0.0
 11
156.6692469999999
 21
223.57149
 31
0.0
  0
LINE
  5
ABAD
330
AB80
100
AcDbEntity
  8
1
  6
Continuous
100
AcDbLine
 10
156.6692469999999
 20
223.57149
 30
0.0
 11
156.6692469999999
 21
221.2714899999999
 31
0.0
  0
LINE
  5
ABAE
330
AB80
100
AcDbEntity
  8
4
  6
CENTER
100
AcDbLine
 10
188.6692469999999
 20
281.571816
 30
0.0
 11
188.6692469999999
 21
206.763602
 31
0.0
  0
ARC
  5
ABAF
330
AB80
100
AcDbEntity
  8
1
  6
Continuous
100
AcDbCircle
 10
167.3364369999999
 20
222.8714899999999
 30
0.0
 40
3.0
100
AcDbArc
 50
90.0
 51
166.5066009999998
  0
ARC
  5
ABB0
330
AB80
100
AcDbEntity
  8
1
  6
Continuous
100
AcDbCircle
 10
209.9878229999999
 20
222.409827
 30
0.0
 40
3.462340999999999
100
AcDbArc
 50
7.662535
 51
91.134876
  0
LINE
  5
ABB1
330
AB80
100
AcDbEntity
  8
1
  6
Continuous
100
AcDbLine
 10
213.419247
 20
218.27149
 30
0.0
 11
205.563346
 21
218.27149
 31
0.0
  0
LINE
  5
ABB2
330
AB80
100
AcDbEntity
  8
1
  6
Continuous
100
AcDbLine
 10
203.613618
 20
218.079984
 30
0.0
 11
203.5692469999999
 21
218.00899
 31
0.0
  0
LINE
  5
ABB3
330
AB80
100
AcDbEntity
  8
1
  6
Continuous
100
AcDbLine
 10
213.419247
 20
222.8714899999999
 30
0.0
 11
213.419247
 21
218.27149
 31
0.0
  0
LINE
  5
ABB4
330
AB80
100
AcDbEntity
  8
4
  6
CENTER
100
AcDbLine
 10
218.419172
 20
343.5054979999998
 30
0.0
 11
121.1692379999998
 21
343.5054979999998
 31
0.0
  0
LINE
  5
ABB5
330
AB80
100
AcDbEntity
  8
4
  6
CENTER
100
AcDbLine
 10
188.6691719999998
 20
311.505498
 30
0.0
 11
188.6691719999998
 21
375.505498
 31
0.0
  0
LINE
  5
ABB6
330
AB80
100
AcDbEntity
  8
4
  6
CENTER
100
AcDbLine
 10
280.4033759999999
 20
281.571752
 30
0.0
 11
280.4033759999999
 21
136.5714899999999
 31
0.0
  0
LINE
  5
ABB7
330
AB80
100
AcDbEntity
  8
4
  6
CENTER
100
AcDbLine
 10
252.566696
 20
179.0714899999999
 30
0.0
 11
309.2118759999999
 21
179.0714899999999
 31
0.0
  0
ARC
  5
ABB8
330
AB80
100
AcDbEntity
  8
1
  6
Continuous
100
AcDbCircle
 10
209.2048479999998
 20
171.11731
 30
0.0
 40
99.466508
100
AcDbArc
 50
17.154698
 51
25.73159999999998
  0
LINE
  5
ABB9
330
AB80
100
AcDbEntity
  8
1
  6
Continuous
100
AcDbLine
 10
303.4033759999999
 20
225.87149
 30
0.0
 11
257.4033759999999
 21
225.87149
 31
0.0
  0
LINE
  5
ABBA
330
AB80
100
AcDbEntity
  8
1
  6
Continuous
100
AcDbLine
 10
263.8948759999999
 20
213.1678829999999
 30
0.0
 11
263.8948759999999
 21
167.5714899999999
 31
0.0
  0
LINE
  5
ABBB
330
AB80
100
AcDbEntity
  8
1
  6
Continuous
100
AcDbLine
 10
296.9118759999998
 20
167.5714899999999
 30
0.0
 11
299.2118759999998
 21
167.5714899999999
 31
0.0
  0
LINE
  5
ABBC
330
AB80
100
AcDbEntity
  8
1
  6
Continuous
100
AcDbLine
 10
299.2118759999998
 20
167.5714899999999
 30
0.0
 11
299.2118759999998
 21
167.962959
 31
0.0
  0
LINE
  5
ABBD
330
AB80
100
AcDbEntity
  8
1
  6
Continuous
100
AcDbLine
 10
292.0968209999998
 20
218.27149
 30
0.0
 11
268.7778819999999
 21
218.27149
 31
0.0
  0
ARC
  5
ABBE
330
AB80
100
AcDbEntity
  8
1
  6
Continuous
100
AcDbCircle
 10
268.743905
 20
210.5566619999999
 30
0.0
 40
7.714902
100
AcDbArc
 50
89.74766999999998
 51
150.9629099999999
  0
ARC
  5
ABBF
330
AB80
100
AcDbEntity
  8
1
  6
Continuous
100
AcDbCircle
 10
209.2048479999998
 20
171.11731
 30
0.0
 40
97.26650800000001
100
AcDbArc
 50
18.221623
 51
28.73472400000001
  0
ARC
  5
ABC0
330
AB80
100
AcDbEntity
  8
1
  6
Continuous
100
AcDbCircle
 10
292.0628449999999
 20
210.5566619999999
 30
0.0
 40
7.714902
100
AcDbArc
 50
29.03709
 51
90.25233
  0
LINE
  5
ABC1
330
AB80
100
AcDbEntity
  8
1
  6
Continuous
100
AcDbLine
 10
263.8948759999999
 20
167.5714899999999
 30
0.0
 11
261.594876
 21
167.5714899999999
 31
0.0
  0
LINE
  5
ABC2
330
AB80
100
AcDbEntity
  8
1
  6
Continuous
100
AcDbLine
 10
261.594876
 20
167.5714899999999
 30
0.0
 11
261.594876
 21
167.962959
 31
0.0
  0
LINE
  5
ABC3
330
AB80
100
AcDbEntity
  8
4
  6
CENTER
100
AcDbLine
 10
59.204661
 20
281.571752
 30
0.0
 11
59.204661
 21
136.571535
 31
0.0
  0
LINE
  5
ABC4
330
AB80
100
AcDbEntity
  8
1
  6
Continuous
100
AcDbLine
 10
78.01316099999998
 20
219.2715349999998
 30
0.0
 11
78.01316099999998
 21
167.571535
 31
0.0
  0
LINE
  5
ABC5
330
AB80
100
AcDbEntity
  8
1
  6
Continuous
100
AcDbLine
 10
40.39616099999999
 20
219.2715349999998
 30
0.0
 11
40.39616099999999
 21
167.571535
 31
0.0
  0
LINE
  5
ABC6
330
AB80
100
AcDbEntity
  8
1
  6
Continuous
100
AcDbLine
 10
75.713161
 20
219.2715349999998
 30
0.0
 11
75.713161
 21
167.571535
 31
0.0
  0
LINE
  5
ABC7
330
AB80
100
AcDbEntity
  8
1
  6
Continuous
100
AcDbLine
 10
42.69616099999999
 20
219.2715349999998
 30
0.0
 11
42.69616099999999
 21
167.571535
 31
0.0
  0
LINE
  5
ABC8
330
AB80
100
AcDbEntity
  8
4
  6
CENTER
100
AcDbLine
 10
30.39616099999999
 20
179.071535
 30
0.0
 11
85.51291999999998
 21
179.071535
 31
0.0
  0
LINE
  5
ABC9
330
AB80
100
AcDbEntity
  8
1
  6
Continuous
100
AcDbLine
 10
40.39616099999999
 20
167.571535
 30
0.0
 11
42.69616099999999
 21
167.571535
 31
0.0
  0
ARC
  5
ABCA
330
AB80
100
AcDbEntity
  8
1
  6
Continuous
100
AcDbCircle
 10
79.454661
 20
192.8360859999999
 30
0.0
 40
45.0
100
AcDbArc
 50
180.0
 51
198.1290549999999
  0
ARC
  5
ABCB
330
AB80
100
AcDbEntity
  8
1
  6
Continuous
100
AcDbCircle
 10
38.954661
 20
192.8360859999999
 30
0.0
 40
45.0
100
AcDbArc
 50
330.223206
 51
0.0
  0
LINE
  5
ABCC
330
AB80
100
AcDbEntity
  8
1
  6
Continuous
100
AcDbLine
 10
75.713161
 20
167.571535
 30
0.0
 11
78.01316099999998
 21
167.571535
 31
0.0
  0
LINE
  5
ABCD
330
AB80
100
AcDbEntity
  8
1
  6
Continuous
100
AcDbLine
 10
61.070588
 20
219.809035
 30
0.0
 11
62.243874
 21
221.2714899999999
 31
0.0
  0
LINE
  5
ABCE
330
AB80
100
AcDbEntity
  8
1
  6
Continuous
100
AcDbLine
 10
42.69616099999999
 20
218.309035
 30
0.0
 11
75.713161
 21
218.309035
 31
0.0
  0
LINE
  5
ABCF
330
AB80
100
AcDbEntity
  8
1
  6
Continuous
100
AcDbLine
 10
36.20464699999998
 20
225.87149
 30
0.0
 11
82.20464699999999
 21
225.87149
 31
0.0
  0
LINE
  5
ABD0
330
AB80
100
AcDbEntity
  8
1
  6
Continuous
100
AcDbLine
 10
42.924457
 20
219.809035
 30
0.0
 11
75.570701
 21
219.809035
 31
0.0
  0
LINE
  5
ABD1
330
AB80
100
AcDbEntity
  8
1
  6
Continuous
100
AcDbLine
 10
45.01544699999999
 20
221.2714899999999
 30
0.0
 11
73.81544699999998
 21
221.2714899999999
 31
0.0
  0
LINE
  5
ABD2
330
AB80
100
AcDbEntity
  8
1
  6
Continuous
100
AcDbLine
 10
45.01544699999999
 20
223.57149
 30
0.0
 11
73.81544699999998
 21
223.57149
 31
0.0
  0
ARC
  5
ABD3
330
AB80
100
AcDbEntity
  8
1
  6
Continuous
100
AcDbCircle
 10
45.374331
 20
218.55481
 30
0.0
 40
5.029499999999998
100
AcDbArc
 50
94.09185900000002
 51
171.807218
  0
LINE
  5
ABD4
330
AB80
100
AcDbEntity
  8
1
  6
Continuous
100
AcDbLine
 10
44.790304
 20
221.254498
 30
0.0
 11
45.52502599999999
 21
219.809035
 31
0.0
  0
ARC
  5
ABD5
330
AB80
100
AcDbEntity
  8
1
  6
Continuous
100
AcDbCircle
 10
48.298161
 20
223.4981569999999
 30
0.0
 40
7.487396
100
AcDbArc
 50
233.119947
 51
265.563802
  0
LINE
  5
ABD6
330
AB80
100
AcDbEntity
  8
1
  6
Continuous
100
AcDbLine
 10
43.668711
 20
220.2511359999999
 30
0.0
 11
44.110812
 21
219.809035
 31
0.0
  0
LINE
  5
ABD7
330
AB80
100
AcDbEntity
  8
1
  6
Continuous
100
AcDbLine
 10
44.749558
 20
221.247737
 30
0.0
 11
42.991526
 21
219.809035
 31
0.0
  0
LINE
  5
ABD8
330
AB80
100
AcDbEntity
  8
1
  6
Continuous
100
AcDbLine
 10
42.69616099999999
 20
218.309035
 30
0.0
 11
43.80466099999998
 21
217.509035
 31
0.0
  0
LINE
  5
ABD9
330
AB80
100
AcDbEntity
  8
1
  6
Continuous
100
AcDbLine
 10
43.904661
 20
219.809035
 30
0.0
 11
42.69616099999999
 21
218.309035
 31
0.0
  0
ARC
  5
ABDA
330
AB80
100
AcDbEntity
  8
1
  6
Continuous
100
AcDbCircle
 10
45.45498099999998
 20
218.4169959999999
 30
0.0
 40
2.888134999999998
100
AcDbArc
 50
98.75362899999997
 51
162.789725
  0
LINE
  5
ABDB
330
AB80
100
AcDbEntity
  8
1
  6
Continuous
100
AcDbLine
 10
54.510307
 20
219.809035
 30
0.0
 11
53.75859300000001
 21
221.2714899999999
 31
0.0
  0
LINE
  5
ABDC
330
AB80
100
AcDbEntity
  8
1
  6
Continuous
100
AcDbLine
 10
50.267666
 20
219.809035
 30
0.0
 11
49.51595199999999
 21
221.2714899999999
 31
0.0
  0
LINE
  5
ABDD
330
AB80
100
AcDbEntity
  8
1
  6
Continuous
100
AcDbLine
 10
47.439239
 20
219.809035
 30
0.0
 11
46.687525
 21
221.2714899999999
 31
0.0
  0
LINE
  5
ABDE
330
AB80
100
AcDbEntity
  8
1
  6
Continuous
100
AcDbLine
 10
48.853453
 20
219.809035
 30
0.0
 11
48.101739
 21
221.2714899999999
 31
0.0
  0
LINE
  5
ABDF
330
AB80
100
AcDbEntity
  8
1
  6
Continuous
100
AcDbLine
 10
45.014239
 20
219.809035
 30
0.0
 11
46.687525
 21
221.2714899999999
 31
0.0
  0
LINE
  5
ABE0
330
AB80
100
AcDbEntity
  8
1
  6
Continuous
100
AcDbLine
 10
46.928453
 20
219.809035
 30
0.0
 11
48.101739
 21
221.2714899999999
 31
0.0
  0
LINE
  5
ABE1
330
AB80
100
AcDbEntity
  8
1
  6
Continuous
100
AcDbLine
 10
48.34266599999999
 20
219.809035
 30
0.0
 11
49.51595199999999
 21
221.2714899999999
 31
0.0
  0
LINE
  5
ABE2
330
AB80
100
AcDbEntity
  8
1
  6
Continuous
100
AcDbLine
 10
51.68188
 20
219.809035
 30
0.0
 11
50.930166
 21
221.2714899999999
 31
0.0
  0
LINE
  5
ABE3
330
AB80
100
AcDbEntity
  8
1
  6
Continuous
100
AcDbLine
 10
53.09609399999999
 20
219.809035
 30
0.0
 11
52.34438
 21
221.2714899999999
 31
0.0
  0
LINE
  5
ABE4
330
AB80
100
AcDbEntity
  8
1
  6
Continuous
100
AcDbLine
 10
49.75687999999999
 20
219.809035
 30
0.0
 11
50.930166
 21
221.2714899999999
 31
0.0
  0
LINE
  5
ABE5
330
AB80
100
AcDbEntity
  8
1
  6
Continuous
100
AcDbLine
 10
51.171094
 20
219.809035
 30
0.0
 11
52.34438
 21
221.2714899999999
 31
0.0
  0
LINE
  5
ABE6
330
AB80
100
AcDbEntity
  8
1
  6
Continuous
100
AcDbLine
 10
52.58530699999999
 20
219.809035
 30
0.0
 11
53.75859300000001
 21
221.2714899999999
 31
0.0
  0
LINE
  5
ABE7
330
AB80
100
AcDbEntity
  8
1
  6
Continuous
100
AcDbLine
 10
56.82794799999999
 20
219.809035
 30
0.0
 11
58.001234
 21
221.2714899999999
 31
0.0
  0
LINE
  5
ABE8
330
AB80
100
AcDbEntity
  8
1
  6
Continuous
100
AcDbLine
 10
55.924521
 20
219.809035
 30
0.0
 11
55.17280699999999
 21
221.2714899999999
 31
0.0
  0
LINE
  5
ABE9
330
AB80
100
AcDbEntity
  8
1
  6
Continuous
100
AcDbLine
 10
57.338734
 20
219.809035
 30
0.0
 11
56.58701999999999
 21
221.2714899999999
 31
0.0
  0
LINE
  5
ABEA
330
AB80
100
AcDbEntity
  8
1
  6
Continuous
100
AcDbLine
 10
53.999521
 20
219.809035
 30
0.0
 11
55.17280699999999
 21
221.2714899999999
 31
0.0
  0
LINE
  5
ABEB
330
AB80
100
AcDbEntity
  8
1
  6
Continuous
100
AcDbLine
 10
55.413734
 20
219.809035
 30
0.0
 11
56.58701999999999
 21
221.2714899999999
 31
0.0
  0
LINE
  5
ABEC
330
AB80
100
AcDbEntity
  8
1
  6
Continuous
100
AcDbLine
 10
61.581375
 20
219.809035
 30
0.0
 11
60.829661
 21
221.2714899999999
 31
0.0
  0
LINE
  5
ABED
330
AB80
100
AcDbEntity
  8
1
  6
Continuous
100
AcDbLine
 10
58.75294799999998
 20
219.809035
 30
0.0
 11
58.001234
 21
221.2714899999999
 31
0.0
  0
LINE
  5
ABEE
330
AB80
100
AcDbEntity
  8
1
  6
Continuous
100
AcDbLine
 10
60.167161
 20
219.809035
 30
0.0
 11
59.415447
 21
221.2714899999999
 31
0.0
  0
LINE
  5
ABEF
330
AB80
100
AcDbEntity
  8
1
  6
Continuous
100
AcDbLine
 10
59.65637499999999
 20
219.809035
 30
0.0
 11
60.829661
 21
221.2714899999999
 31
0.0
  0
LINE
  5
ABF0
330
AB80
100
AcDbEntity
  8
1
  6
Continuous
100
AcDbLine
 10
58.24216100000001
 20
219.809035
 30
0.0
 11
59.415447
 21
221.2714899999999
 31
0.0
  0
ARC
  5
ABF1
330
AB80
100
AcDbEntity
  8
1
  6
Continuous
100
AcDbCircle
 10
73.410515
 20
218.977256
 30
0.0
 40
4.612044999999998
100
AcDbArc
 50
3.658345999999998
 51
84.96300599999997
  0
LINE
  5
ABF2
330
AB80
100
AcDbEntity
  8
1
  6
Continuous
100
AcDbLine
 10
69.55587
 20
219.809035
 30
0.0
 11
71.229156
 21
221.2714899999999
 31
0.0
  0
LINE
  5
ABF3
330
AB80
100
AcDbEntity
  8
1
  6
Continuous
100
AcDbLine
 10
65.31322900000001
 20
219.809035
 30
0.0
 11
66.48651499999998
 21
221.2714899999999
 31
0.0
  0
LINE
  5
ABF4
330
AB80
100
AcDbEntity
  8
1
  6
Continuous
100
AcDbLine
 10
65.824016
 20
219.809035
 30
0.0
 11
65.07230200000001
 21
221.2714899999999
 31
0.0
  0
LINE
  5
ABF5
330
AB80
100
AcDbEntity
  8
1
  6
Continuous
100
AcDbLine
 10
64.409802
 20
219.809035
 30
0.0
 11
63.65808799999999
 21
221.2714899999999
 31
0.0
  0
LINE
  5
ABF6
330
AB80
100
AcDbEntity
  8
1
  6
Continuous
100
AcDbLine
 10
62.99558799999999
 20
219.809035
 30
0.0
 11
62.243874
 21
221.2714899999999
 31
0.0
  0
LINE
  5
ABF7
330
AB80
100
AcDbEntity
  8
1
  6
Continuous
100
AcDbLine
 10
63.899016
 20
219.809035
 30
0.0
 11
65.07230200000001
 21
221.2714899999999
 31
0.0
  0
LINE
  5
ABF8
330
AB80
100
AcDbEntity
  8
1
  6
Continuous
100
AcDbLine
 10
62.484802
 20
219.809035
 30
0.0
 11
63.65808799999999
 21
221.2714899999999
 31
0.0
  0
LINE
  5
ABF9
330
AB80
100
AcDbEntity
  8
1
  6
Continuous
100
AcDbLine
 10
70.56665600000002
 20
219.809035
 30
0.0
 11
69.314942
 21
221.2714899999999
 31
0.0
  0
LINE
  5
ABFA
330
AB80
100
AcDbEntity
  8
1
  6
Continuous
100
AcDbLine
 10
68.652443
 20
219.809035
 30
0.0
 11
67.900729
 21
221.2714899999999
 31
0.0
  0
LINE
  5
ABFB
330
AB80
100
AcDbEntity
  8
1
  6
Continuous
100
AcDbLine
 10
67.238229
 20
219.809035
 30
0.0
 11
66.48651499999998
 21
221.2714899999999
 31
0.0
  0
LINE
  5
ABFC
330
AB80
100
AcDbEntity
  8
1
  6
Continuous
100
AcDbLine
 10
68.14165600000001
 20
219.809035
 30
0.0
 11
69.314942
 21
221.2714899999999
 31
0.0
  0
LINE
  5
ABFD
330
AB80
100
AcDbEntity
  8
1
  6
Continuous
100
AcDbLine
 10
66.72744300000001
 20
219.809035
 30
0.0
 11
67.900729
 21
221.2714899999999
 31
0.0
  0
ARC
  5
ABFE
330
AB80
100
AcDbEntity
  8
1
  6
Continuous
100
AcDbCircle
 10
70.601229
 20
223.8595699999999
 30
0.0
 40
7.848514999999999
100
AcDbArc
 50
270.9161379999998
 51
305.988185
  0
LINE
  5
ABFF
330
AB80
100
AcDbEntity
  8
1
  6
Continuous
100
AcDbLine
 10
75.41779699999998
 20
219.809035
 30
0.0
 11
74.14171500000001
 21
221.18274
 31
0.0
  0
LINE
  5
AC00
330
AB80
100
AcDbEntity
  8
1
  6
Continuous
100
AcDbLine
 10
74.298511
 20
219.809035
 30
0.0
 11
75.34200799999998
 21
220.2481469999999
 31
0.0
  0
LINE
  5
AC01
330
AB80
100
AcDbEntity
  8
1
  6
Continuous
100
AcDbLine
 10
75.713161
 20
218.309035
 30
0.0
 11
75.21316099999999
 21
217.509035
 31
0.0
  0
LINE
  5
AC02
330
AB80
100
AcDbEntity
  8
1
  6
Continuous
100
AcDbLine
 10
74.50466099999998
 20
219.809035
 30
0.0
 11
75.713161
 21
218.309035
 31
0.0
  0
ARC
  5
AC03
330
AB80
100
AcDbEntity
  8
1
  6
Continuous
100
AcDbCircle
 10
73.35485
 20
218.9341109999999
 30
0.0
 40
2.382327999999998
100
AcDbArc
 50
8.142542999999998
 51
78.852283
  0
LINE
  5
AC04
330
AB80
100
AcDbEntity
  8
1
  6
Continuous
100
AcDbLine
 10
73.395083
 20
219.809035
 30
0.0
 11
72.64336899999998
 21
221.2714899999999
 31
0.0
  0
LINE
  5
AC05
330
AB80
100
AcDbEntity
  8
1
  6
Continuous
100
AcDbLine
 10
71.98087
 20
219.809035
 30
0.0
 11
71.229156
 21
221.2714899999999
 31
0.0
  0
LINE
  5
AC06
330
AB80
100
AcDbEntity
  8
1
  6
Continuous
100
AcDbLine
 10
72.884297
 20
219.809035
 30
0.0
 11
74.015416
 21
221.2230279999999
 31
0.0
  0
LINE
  5
AC07
330
AB80
100
AcDbEntity
  8
1
  6
Continuous
100
AcDbLine
 10
71.470083
 20
219.809035
 30
0.0
 11
72.64336899999998
 21
221.2714899999999
 31
0.0
  0
LINE
  5
AC08
330
AB80
100
AcDbEntity
  8
1
  6
Continuous
100
AcDbLine
 10
255.6533759999998
 20
222.4504899999999
 30
0.0
 11
255.6533759999998
 21
191.219344
 31
0.0
  0
LINE
  5
AC09
330
AB80
100
AcDbEntity
  8
1
  6
Continuous
100
AcDbLine
 10
305.1533759999998
 20
222.4504899999999
 30
0.0
 11
305.1533759999998
 21
194.737702
 31
0.0
  0
ARC
  5
AC0A
330
AB80
100
AcDbEntity
  8
1
  6
Continuous
100
AcDbCircle
 10
301.732376
 20
222.4504899999999
 30
0.0
 40
3.420999999999998
100
AcDbArc
 50
0.0
 51
90.0
  0
ARC
  5
AC0B
330
AB80
100
AcDbEntity
  8
1
  6
Continuous
100
AcDbCircle
 10
259.0743759999999
 20
222.4504899999999
 30
0.0
 40
3.420999999999998
100
AcDbArc
 50
90.0
 51
180.0
  0
ARC
  5
AC0C
330
AB80
100
AcDbEntity
  8
1
  6
Continuous
100
AcDbCircle
 10
163.6692469999998
 20
178.0714899999999
 30
0.0
 40
10.5
100
AcDbArc
 50
170.99538
 51
328.8638009999999
  0
ARC
  5
AC0D
330
AB80
100
AcDbEntity
  8
1
  6
Continuous
100
AcDbCircle
 10
205.563346
 20
208.27149
 30
0.0
 40
10.0
100
AcDbArc
 50
90.0
 51
148.863801
  0
CIRCLE
  5
AC0E
330
AB80
100
AcDbEntity
  8
1
  6
Continuous
100
AcDbCircle
 10
163.6692469999998
 20
179.0714899999999
 30
0.0
 40
5.0
  0
LINE
  5
AC0F
330
AB80
100
AcDbEntity
  8
1
  6
Continuous
100
AcDbLine
 10
197.003941
 20
213.442232
 30
0.0
 11
172.6566229999999
 21
172.64221
 31
0.0
  0
LINE
  5
AC10
330
AB80
100
AcDbEntity
  8
1
  6
Continuous
100
AcDbLine
 10
159.9484809999999
 20
223.57149
 30
0.0
 11
153.2169749999999
 21
179.0714899999999
 31
0.0
  0
LINE
  5
AC11
330
AB80
100
AcDbEntity
  8
1
  6
Continuous
100
AcDbLine
 10
83.954661
 20
222.4094899999998
 30
0.0
 11
83.954661
 21
192.8360859999999
 31
0.0
  0
LINE
  5
AC12
330
AB80
100
AcDbEntity
  8
1
  6
Continuous
100
AcDbLine
 10
34.454661
 20
222.4094899999998
 30
0.0
 11
34.454661
 21
192.8360859999999
 31
0.0
  0
ARC
  5
AC13
330
AB80
100
AcDbEntity
  8
1
  6
Continuous
100
AcDbCircle
 10
37.916661
 20
222.4094899999998
 30
0.0
 40
3.461999999999998
100
AcDbArc
 50
90.0
 51
180.0
  0
ARC
  5
AC14
330
AB80
100
AcDbEntity
  8
1
  6
Continuous
100
AcDbCircle
 10
80.492661
 20
222.4094899999998
 30
0.0
 40
3.461999999999998
100
AcDbArc
 50
0.0
 51
90.0
  0
ARC
  5
AC15
330
AB80
100
AcDbEntity
  8
1
  6
Continuous
100
AcDbCircle
 10
79.454661
 20
192.8360859999999
 30
0.0
 40
45.0
100
AcDbArc
 50
205.699848
 51
209.776794
  0
LINE
  5
AC16
330
AB80
100
AcDbEntity
  8
4
  6
CENTER
100
AcDbLine
 10
188.6691719999998
 20
104.3512089999999
 30
0.0
 11
188.6691719999998
 21
44.851209
 31
0.0
  0
LINE
  5
AC17
330
AB80
100
AcDbEntity
  8
4
  6
CENTER
100
AcDbLine
 10
218.419172
 20
74.60120899999998
 30
0.0
 11
121.1692379999998
 21
74.60120899999998
 31
0.0
  0
LINE
  5
AC18
330
AB80
100
AcDbEntity
  8
1
  6
Continuous
100
AcDbLine
 10
153.4691719999998
 20
93.409709
 30
0.0
 11
153.4691719999998
 21
91.10970899999999
 31
0.0
  0
LINE
  5
AC19
330
AB80
100
AcDbEntity
  8
1
  6
Continuous
100
AcDbLine
 10
153.4691719999998
 20
58.092709
 30
0.0
 11
153.4691719999998
 21
55.792709
 31
0.0
  0
LINE
  5
AC1A
330
AB80
100
AcDbEntity
  8
4
  6
CENTER
100
AcDbLine
 10
163.6692469999998
 20
100.35301
 30
0.0
 11
163.6692469999998
 21
47.082408
 31
0.0
  0
LINE
  5
AC1B
330
AB80
100
AcDbEntity
  8
1
  6
Continuous
100
AcDbLine
 10
153.4691719999998
 20
93.409709
 30
0.0
 11
168.634232
 21
93.409709
 31
0.0
  0
LINE
  5
AC1C
330
AB80
100
AcDbEntity
  8
1
  6
Continuous
100
AcDbLine
 10
153.4691719999998
 20
91.10970899999999
 30
0.0
 11
168.634232
 21
91.10970899999999
 31
0.0
  0
LINE
  5
AC1D
330
AB80
100
AcDbEntity
  8
1
  6
Continuous
100
AcDbLine
 10
153.4691719999998
 20
55.792709
 30
0.0
 11
168.634232
 21
55.792709
 31
0.0
  0
LINE
  5
AC1E
330
AB80
100
AcDbEntity
  8
1
  6
Continuous
100
AcDbLine
 10
153.4691719999998
 20
58.092709
 30
0.0
 11
168.634232
 21
58.092709
 31
0.0
  0
ARC
  5
AC1F
330
AB80
100
AcDbEntity
  8
1
  6
Continuous
100
AcDbCircle
 10
188.6691719999998
 20
74.60120899999998
 30
0.0
 40
24.75
100
AcDbArc
 50
236.963825
 51
123.0361749999999
  0
ARC
  5
AC20
330
AB80
100
AcDbEntity
  8
1
  6
Continuous
100
AcDbCircle
 10
188.6691719999998
 20
74.60120899999998
 30
0.0
 40
22.45
100
AcDbArc
 50
236.963825
 51
123.0361749999999
  0
ARC
  5
AC21
330
AB80
100
AcDbEntity
  8
1
  6
Continuous
100
AcDbCircle
 10
188.6691719999998
 20
74.60120899999998
 30
0.0
 40
18.44999999999998
100
AcDbArc
 50
225.64192
 51
134.35808
  0
ARC
  5
AC22
330
AB80
100
AcDbEntity
  8
1
  6
Continuous
100
AcDbCircle
 10
188.6691719999998
 20
74.60120899999998
 30
0.0
 40
20.44999999999999
100
AcDbArc
 50
225.1573849999998
 51
134.8426149999999
  0
ARC
  5
AC23
330
AB80
100
AcDbEntity
  8
1
  6
Continuous
100
AcDbCircle
 10
212.2482479999999
 20
74.60120899999998
 30
0.0
 40
55.579
100
AcDbArc
 50
162.720836
 51
164.877128
  0
ARC
  5
AC24
330
AB80
100
AcDbEntity
  8
1
  6
Continuous
100
AcDbCircle
 10
212.2482479999999
 20
74.60120899999998
 30
0.0
 40
55.579
100
AcDbArc
 50
195.1228719999998
 51
197.279164
  0
ARC
  5
AC25
330
AB80
100
AcDbEntity
  8
1
  6
Continuous
100
AcDbCircle
 10
257.8533489999999
 20
192.8360409999999
 30
0.0
 40
45.0
100
AcDbArc
 50
333.6771109999999
 51
6.077233000000001
  0
ARC
  5
AC26
330
AB80
100
AcDbEntity
  8
1
  6
Continuous
100
AcDbCircle
 10
260.190847
 20
192.9016589999999
 30
0.0
 40
45.0
100
AcDbArc
 50
333.035978
 51
3.794623999999998
  0
ARC
  5
AC27
330
AB80
100
AcDbEntity
  8
1
  6
Continuous
100
AcDbCircle
 10
272.969605
 20
192.1087639999998
 30
0.0
 40
30.135401
100
AcDbArc
 50
10.499302
 51
18.221623
  0
ARC
  5
AC28
330
AB80
100
AcDbEntity
  8
1
  6
Continuous
100
AcDbCircle
 10
351.6019039999998
 20
171.11731
 30
0.0
 40
97.26650800000001
100
AcDbArc
 50
151.2652759999998
 51
161.778377
  0
ARC
  5
AC29
330
AB80
100
AcDbEntity
  8
1
  6
Continuous
100
AcDbCircle
 10
287.837146
 20
192.1087639999998
 30
0.0
 40
30.135401
100
AcDbArc
 50
161.778377
 51
169.500698
  0
ARC
  5
AC2A
330
AB80
100
AcDbEntity
  8
1
  6
Continuous
100
AcDbCircle
 10
302.9534019999999
 20
192.8360409999999
 30
0.0
 40
45.0
100
AcDbArc
 50
173.922767
 51
206.322889
  0
ARC
  5
AC2B
330
AB80
100
AcDbEntity
  8
1
  6
Continuous
100
AcDbCircle
 10
269.496875
 20
223.498111
 30
0.0
 40
7.487396
100
AcDbArc
 50
240.6184049999999
 51
265.563802
  0
ARC
  5
AC2C
330
AB80
100
AcDbEntity
  8
1
  6
Continuous
100
AcDbCircle
 10
291.799943
 20
223.8595239999999
 30
0.0
 40
7.848514999999999
100
AcDbArc
 50
270.9161379999998
 51
294.920656
  0
ARC
  5
AC2D
330
AB80
100
AcDbEntity
  8
1
  6
Continuous
100
AcDbCircle
 10
163.6692469999998
 20
179.0714899999999
 30
0.0
 40
12.5
100
AcDbArc
 50
137.167053
 51
357.4122899999999
  0
ARC
  5
AC2E
330
AB80
100
AcDbEntity
  8
1
  6
Continuous
100
AcDbCircle
 10
163.6692469999998
 20
179.0714899999999
 30
0.0
 40
28.0
100
AcDbArc
 50
103.0579949999999
 51
36.01371799999999
  0
ARC
  5
AC2F
330
AB80
100
AcDbEntity
  8
1
  6
Continuous
100
AcDbCircle
 10
163.6692469999998
 20
179.0714899999999
 30
0.0
 40
19.5
100
AcDbArc
 50
113.402507
 51
24.789728
  0
ARC
  5
AC30
330
AB80
100
AcDbEntity
  8
1
  6
Continuous
100
AcDbCircle
 10
163.6692469999998
 20
179.0714899999999
 30
0.0
 40
37.5
100
AcDbArc
 50
97.39539
 51
42.09619599999999
  0
ARC
  5
AC31
330
AB80
100
AcDbEntity
  8
1
  6
Continuous
100
AcDbCircle
 10
163.6692469999998
 20
62.58240799999999
 30
0.0
 40
10.5
100
AcDbArc
 50
236.7961769999999
 51
303.2038229999999
  0
LINE
  5
AC32
330
AB80
100
AcDbEntity
  8
1
  6
Continuous
100
AcDbLine
 10
157.9192469999999
 20
53.79676599999999
 30
0.0
 11
169.4192469999999
 21
53.79676599999999
 31
0.0
  0
LINE
  5
AC33
330
AB80
100
AcDbEntity
  8
1
  6
Continuous
100
AcDbLine
 10
169.4192469999999
 20
53.79676599999999
 30
0.0
 11
169.4192469999999
 21
55.792709
 31
0.0
  0
LINE
  5
AC34
330
AB80
100
AcDbEntity
  8
1
  6
Continuous
100
AcDbLine
 10
158.6692469999999
 20
93.409709
 30
0.0
 11
158.6692469999999
 21
94.35310300000001
 31
0.0
  0
LINE
  5
AC35
330
AB80
100
AcDbEntity
  8
1
  6
Continuous
100
AcDbLine
 10
168.6692469999998
 20
93.409709
 30
0.0
 11
168.6692469999998
 21
94.35310300000001
 31
0.0
  0
LINE
  5
AC36
330
AB80
100
AcDbEntity
  8
1
  6
Continuous
100
AcDbLine
 10
158.6692469999999
 20
94.35310300000001
 30
0.0
 11
168.6692469999998
 21
94.35310300000001
 31
0.0
  0
ARC
  5
AC37
330
AB80
100
AcDbEntity
  8
1
  6
Continuous
100
AcDbCircle
 10
163.6692469999998
 20
82.35300999999997
 30
0.0
 40
13.0
100
AcDbArc
 50
67.380135
 51
112.6198649999998
  0
LINE
  5
AC38
330
AB80
100
AcDbEntity
  8
1
  6
Continuous
100
AcDbLine
 10
157.9192469999999
 20
53.79676599999999
 30
0.0
 11
157.9192469999999
 21
55.792709
 31
0.0
  0
ARC
  5
AC39
330
AB80
100
AcDbEntity
  8
1
  6
Continuous
100
AcDbCircle
 10
66.956462
 20
179.071535
 30
0.0
 40
13.0
100
AcDbArc
 50
337.3801349999999
 51
22.619865
  0
LINE
  5
AC3A
330
AB80
100
AcDbEntity
  8
1
  6
Continuous
100
AcDbLine
 10
78.95655500000002
 20
184.071535
 30
0.0
 11
78.95655500000002
 21
174.071535
 31
0.0
  0
LINE
  5
AC3B
330
AB80
100
AcDbEntity
  8
1
  6
Continuous
100
AcDbLine
 10
38.400218
 20
184.821535
 30
0.0
 11
38.400218
 21
173.321535
 31
0.0
  0
ARC
  5
AC3C
330
AB80
100
AcDbEntity
  8
1
  6
Continuous
100
AcDbCircle
 10
47.18586
 20
179.071535
 30
0.0
 40
10.5
100
AcDbArc
 50
146.796177
 51
213.203823
  0
LINE
  5
AC3D
330
AB80
100
AcDbEntity
  8
1
  6
Continuous
100
AcDbLine
 10
38.400218
 20
173.321535
 30
0.0
 11
40.39616099999999
 21
173.321535
 31
0.0
  0
LINE
  5
AC3E
330
AB80
100
AcDbEntity
  8
1
  6
Continuous
100
AcDbLine
 10
78.01316099999998
 20
174.071535
 30
0.0
 11
78.95655500000002
 21
174.071535
 31
0.0
  0
LINE
  5
AC3F
330
AB80
100
AcDbEntity
  8
1
  6
Continuous
100
AcDbLine
 10
38.400218
 20
184.821535
 30
0.0
 11
40.39616099999999
 21
184.821535
 31
0.0
  0
LINE
  5
AC40
330
AB80
100
AcDbEntity
  8
1
  6
Continuous
100
AcDbLine
 10
78.01316099999998
 20
184.071535
 30
0.0
 11
78.95655500000002
 21
184.071535
 31
0.0
  0
LINE
  5
AC41
330
AB80
100
AcDbEntity
  8
1
  6
Continuous
100
AcDbLine
 10
47.719019
 20
216.0331919999999
 30
0.0
 11
51.16181199999999
 21
216.0300299999999
 31
0.0
  0
LINE
  5
AC42
330
AB80
100
AcDbEntity
  8
1
  6
Continuous
100
AcDbLine
 10
67.35673299999999
 20
216.0151529999999
 30
0.0
 11
70.72671899999997
 21
216.012058
 31
0.0
  0
LINE
  5
AC43
330
AB80
100
AcDbEntity
  8
1
  6
Continuous
100
AcDbLine
 10
301.2078189999999
 20
174.391984
 30
0.0
 11
301.2078189999999
 21
173.3214899999999
 31
0.0
  0
ARC
  5
AC44
330
AB80
100
AcDbEntity
  8
1
  6
Continuous
100
AcDbCircle
 10
292.4221769999999
 20
179.0714899999999
 30
0.0
 40
10.5
100
AcDbArc
 50
326.7961769999998
 51
358.4180579999999
  0
LINE
  5
AC45
330
AB80
100
AcDbEntity
  8
1
  6
Continuous
100
AcDbLine
 10
301.2078189999999
 20
173.3214899999999
 30
0.0
 11
300.7077199999999
 21
173.3214899999999
 31
0.0
  0
ARC
  5
AC46
330
AB80
100
AcDbEntity
  8
1
  6
Continuous
100
AcDbCircle
 10
285.1360389999999
 20
194.5561659999999
 30
0.0
 40
20.0
100
AcDbArc
 50
3.794623999999998
 51
17.154698
  0
ARC
  5
AC47
330
AB80
100
AcDbEntity
  8
1
  6
Continuous
100
AcDbCircle
 10
351.6019039999998
 20
171.11731
 30
0.0
 40
99.466508
100
AcDbArc
 50
154.2684
 51
162.845302
  0
ARC
  5
AC48
330
AB80
100
AcDbEntity
  8
1
  6
Continuous
100
AcDbCircle
 10
275.6707119999999
 20
194.5561659999999
 30
0.0
 40
20.0
100
AcDbArc
 50
162.845302
 51
176.205376
  0
ARC
  5
AC49
330
AB80
100
AcDbEntity
  8
1
  6
Continuous
100
AcDbCircle
 10
300.615904
 20
192.9016589999999
 30
0.0
 40
45.0
100
AcDbArc
 50
176.205376
 51
206.964022
  0
ARC
  5
AC4A
330
AB80
100
AcDbEntity
  8
1
  6
Continuous
100
AcDbCircle
 10
309.2118759999999
 20
167.962959
 30
0.0
 40
10.0
100
AcDbArc
 50
153.0359779999998
 51
180.0
  0
ARC
  5
AC4B
330
AB80
100
AcDbEntity
  8
1
  6
Continuous
100
AcDbCircle
 10
309.2118759999999
 20
167.4275419999998
 30
0.0
 40
12.3
100
AcDbArc
 50
153.677111
 51
179.329451
  0
LINE
  5
AC4C
330
AB80
100
AcDbEntity
  8
1
  6
Continuous
100
AcDbLine
 10
296.9118759999998
 20
213.1678829999999
 30
0.0
 11
296.9118759999998
 21
167.5714899999999
 31
0.0
  0
ARC
  5
AC4D
330
AB80
100
AcDbEntity
  8
1
  6
Continuous
100
AcDbCircle
 10
251.5948759999999
 20
167.4275419999998
 30
0.0
 40
12.3
100
AcDbArc
 50
0.670549
 51
26.322889
  0
ARC
  5
AC4E
330
AB80
100
AcDbEntity
  8
1
  6
Continuous
100
AcDbCircle
 10
251.5948759999999
 20
167.962959
 30
0.0
 40
10.0
100
AcDbArc
 50
0.0
 51
26.96402199999999
  0
LINE
  5
AC4F
330
AB80
100
AcDbEntity
  8
1
  6
Continuous
100
AcDbLine
 10
269.1554759999998
 20
216.0028409999999
 30
0.0
 11
291.925433
 21
216.012012
 31
0.0
  0
LINE
  5
AC50
330
AB80
100
AcDbEntity
  8
1
  6
Continuous
100
AcDbLine
 10
268.917733
 20
216.033147
 30
0.0
 11
269.1554759999998
 21
216.0028409999999
 31
0.0
  0
ARC
  5
AC51
330
AB80
100
AcDbEntity
  8
1
  6
Continuous
100
AcDbCircle
 10
200.065815
 20
223.8595239999999
 30
0.0
 40
7.848514999999999
100
AcDbArc
 50
270.9161379999998
 51
314.603254
  0
LINE
  5
AC52
330
AB80
100
AcDbEntity
  8
1
  6
Continuous
100
AcDbLine
 10
199.233205
 20
216.012892
 30
0.0
 11
200.191305
 21
216.012012
 31
0.0
  0
LINE
  5
AC53
330
AB80
100
AcDbEntity
  8
4
  6
CENTER
100
AcDbLine
 10
163.6691719999998
 20
319.0504159999999
 30
0.0
 11
163.6691719999998
 21
371.0242989999999
 31
0.0
  0
ARC
  5
AC54
330
AB80
100
AcDbEntity
  8
1
  6
Continuous
100
AcDbCircle
 10
189.2665979999999
 20
343.5054979999998
 30
0.0
 40
32.4135
100
AcDbArc
 50
151.2941149999998
 51
180.0
  0
CIRCLE
  5
AC55
330
AB80
100
AcDbEntity
  8
1
  6
Continuous
100
AcDbCircle
 10
188.6691719999998
 20
343.5054979999998
 30
0.0
 40
22.1
  0
CIRCLE
  5
AC56
330
AB80
100
AcDbEntity
  8
1
  6
Continuous
100
AcDbCircle
 10
188.6691719999998
 20
343.5054979999998
 30
0.0
 40
23.54999999999999
  0
ARC
  5
AC57
330
AB80
100
AcDbEntity
  8
1
  6
Continuous
100
AcDbCircle
 10
188.6691719999998
 20
343.5054979999998
 30
0.0
 40
24.8
100
AcDbArc
 50
139.82223
 51
220.17777
  0
LINE
  5
AC58
330
AB80
100
AcDbEntity
  8
1
  6
Continuous
100
AcDbLine
 10
196.1747259999999
 20
356.5054979999999
 30
0.0
 11
203.680279
 21
343.5054979999998
 31
0.0
  0
LINE
  5
AC59
330
AB80
100
AcDbEntity
  8
1
  6
Continuous
100
AcDbLine
 10
173.658065
 20
343.5054979999998
 30
0.0
 11
181.1636189999999
 21
356.5054979999999
 31
0.0
  0
LINE
  5
AC5A
330
AB80
100
AcDbEntity
  8
1
  6
Continuous
100
AcDbLine
 10
173.658065
 20
343.5054979999998
 30
0.0
 11
181.1636189999999
 21
330.5054979999998
 31
0.0
  0
LINE
  5
AC5B
330
AB80
100
AcDbEntity
  8
1
  6
Continuous
100
AcDbLine
 10
181.1636189999999
 20
330.5054979999998
 30
0.0
 11
196.1747259999999
 21
330.5054979999998
 31
0.0
  0
LINE
  5
AC5C
330
AB80
100
AcDbEntity
  8
1
  6
Continuous
100
AcDbLine
 10
196.1747259999999
 20
330.5054979999998
 30
0.0
 11
203.680279
 21
343.5054979999998
 31
0.0
  0
LINE
  5
AC5D
330
AB80
100
AcDbEntity
  8
1
  6
Continuous
100
AcDbLine
 10
158.7766819999998
 20
332.5054979999998
 30
0.0
 11
145.035197
 21
332.5054979999998
 31
0.0
  0
LINE
  5
AC5E
330
AB80
100
AcDbEntity
  8
1
  6
Continuous
100
AcDbLine
 10
151.044698
 20
331.035937
 30
0.0
 11
145.035197
 21
332.5054979999998
 31
0.0
  0
LINE
  5
AC5F
330
AB80
100
AcDbEntity
  8
1
  6
Continuous
100
AcDbLine
 10
158.6009009999999
 20
333.0054979999998
 30
0.0
 11
128.3656249999999
 21
333.0054979999998
 31
0.0
  0
LINE
  5
AC60
330
AB80
100
AcDbEntity
  8
1
  6
Continuous
100
AcDbLine
 10
151.2332429999998
 20
330.8945239999999
 30
0.0
 11
152.3238729999999
 21
329.0054979999998
 31
0.0
  0
ARC
  5
AC61
330
AB80
100
AcDbEntity
  8
1
  6
Continuous
100
AcDbCircle
 10
158.4654879999999
 20
299.185394
 30
0.0
 40
27.9387
100
AcDbArc
 50
65.52997799999999
 51
84.53278899999999
  0
ARC
  5
AC62
330
AB80
100
AcDbEntity
  8
1
  6
Continuous
100
AcDbCircle
 10
189.2665979999999
 20
343.5054979999998
 30
0.0
 40
32.4135
100
AcDbArc
 50
180.0
 51
208.705885
  0
LINE
  5
AC63
330
AB80
100
AcDbEntity
  8
1
  6
Continuous
100
AcDbLine
 10
152.3238729999999
 20
329.0054979999998
 30
0.0
 11
160.277204
 21
329.0054979999998
 31
0.0
  0
ARC
  5
AC64
330
AB80
100
AcDbEntity
  8
1
  6
Continuous
100
AcDbCircle
 10
158.6778459999998
 20
326.754562
 30
0.0
 40
2.4615
100
AcDbArc
 50
303.2904939999998
 51
28.70588499999999
  0
LINE
  5
AC65
330
AB80
100
AcDbEntity
  8
1
  6
Continuous
100
AcDbLine
 10
151.121396
 20
331.0054979999998
 30
0.0
 11
159.360328
 21
331.0054979999998
 31
0.0
  0
ARC
  5
AC66
330
AB80
100
AcDbEntity
  8
1
  6
Continuous
100
AcDbCircle
 10
150.973435
 20
330.744524
 30
0.0
 40
0.3
100
AcDbArc
 50
30.0
 51
76.25858499999998
  0
LINE
  5
AC67
330
AB80
100
AcDbEntity
  8
1
  6
Continuous
100
AcDbLine
 10
144.7465219999999
 20
333.0054979999998
 30
0.0
 11
145.035197
 21
332.5054979999998
 31
0.0
  0
ARC
  5
AC68
330
AB80
100
AcDbEntity
  8
1
  6
Continuous
100
AcDbCircle
 10
186.1691719999998
 20
343.5054979999998
 30
0.0
 40
60.0
100
AcDbArc
 50
171.1490689999999
 51
188.8498829999998
  0
ARC
  5
AC69
330
AB80
100
AcDbEntity
  8
1
  6
Continuous
100
AcDbCircle
 10
128.3656249999999
 20
334.505498
 30
0.0
 40
1.5
100
AcDbArc
 50
188.8498829999998
 51
270.0
  0
LINE
  5
AC6A
330
AB80
100
AcDbEntity
  8
1
  6
Continuous
100
AcDbLine
 10
181.1636189999999
 20
356.5054979999999
 30
0.0
 11
196.1747259999999
 21
356.5054979999999
 31
0.0
  0
LINE
  5
AC6B
330
AB80
100
AcDbEntity
  8
1
  6
Continuous
100
AcDbLine
 10
158.7766819999998
 20
354.5054979999999
 30
0.0
 11
145.035197
 21
354.5054979999999
 31
0.0
  0
LINE
  5
AC6C
330
AB80
100
AcDbEntity
  8
1
  6
Continuous
100
AcDbLine
 10
151.044698
 20
355.975059
 30
0.0
 11
145.035197
 21
354.5054979999999
 31
0.0
  0
LINE
  5
AC6D
330
AB80
100
AcDbEntity
  8
1
  6
Continuous
100
AcDbLine
 10
158.6009009999999
 20
354.0054979999999
 30
0.0
 11
128.3656249999999
 21
354.0054979999999
 31
0.0
  0
ARC
  5
AC6E
330
AB80
100
AcDbEntity
  8
1
  6
Continuous
100
AcDbCircle
 10
158.4654879999999
 20
387.825601
 30
0.0
 40
27.9387
100
AcDbArc
 50
275.4672109999999
 51
294.4700219999999
  0
LINE
  5
AC6F
330
AB80
100
AcDbEntity
  8
1
  6
Continuous
100
AcDbLine
 10
151.121396
 20
356.0054979999999
 30
0.0
 11
159.360328
 21
356.0054979999999
 31
0.0
  0
LINE
  5
AC70
330
AB80
100
AcDbEntity
  8
1
  6
Continuous
100
AcDbLine
 10
152.3238729999999
 20
358.0054979999999
 30
0.0
 11
160.277204
 21
358.0054979999999
 31
0.0
  0
ARC
  5
AC71
330
AB80
100
AcDbEntity
  8
1
  6
Continuous
100
AcDbCircle
 10
158.6778459999998
 20
360.256434
 30
0.0
 40
2.4615
100
AcDbArc
 50
331.2941149999999
 51
56.70950600000001
  0
ARC
  5
AC72
330
AB80
100
AcDbEntity
  8
1
  6
Continuous
100
AcDbCircle
 10
150.973435
 20
356.266472
 30
0.0
 40
0.3
100
AcDbArc
 50
283.741415
 51
330.0
  0
LINE
  5
AC73
330
AB80
100
AcDbEntity
  8
1
  6
Continuous
100
AcDbLine
 10
151.2332429999998
 20
356.1164719999999
 30
0.0
 11
152.3238729999999
 21
358.0054979999999
 31
0.0
  0
LINE
  5
AC74
330
AB80
100
AcDbEntity
  8
1
  6
Continuous
100
AcDbLine
 10
144.7465219999999
 20
354.0054979999999
 30
0.0
 11
145.035197
 21
354.5054979999999
 31
0.0
  0
ARC
  5
AC75
330
AB80
100
AcDbEntity
  8
1
  6
Continuous
100
AcDbCircle
 10
128.3656249999999
 20
352.505498
 30
0.0
 40
1.5
100
AcDbArc
 50
90.0
 51
171.150117
  0
LINE
  5
AC76
330
AB80
100
AcDbEntity
  8
1
  6
Continuous
100
AcDbLine
 10
290.9033759999999
 20
214.3750359999999
 30
0.0
 11
290.9033759999999
 21
143.767943
 31
0.0
  0
LINE
  5
AC77
330
AB80
100
AcDbEntity
  8
1
  6
Continuous
100
AcDbLine
 10
269.9033759999999
 20
214.3750359999999
 30
0.0
 11
269.9033759999999
 21
143.767943
 31
0.0
  0
ARC
  5
AC78
330
AB80
100
AcDbEntity
  8
1
  6
Continuous
100
AcDbCircle
 10
280.4033759999999
 20
201.5714899999999
 30
0.0
 40
60.0
100
AcDbArc
 50
261.1501169999999
 51
278.850931
  0
ARC
  5
AC79
330
AB80
100
AcDbEntity
  8
1
  6
Continuous
100
AcDbCircle
 10
271.4033759999999
 20
143.767943
 30
0.0
 40
1.5
100
AcDbArc
 50
180.0
 51
261.1501169999999
  0
ARC
  5
AC7A
330
AB80
100
AcDbEntity
  8
1
  6
Continuous
100
AcDbCircle
 10
289.4033759999999
 20
143.767943
 30
0.0
 40
1.5
100
AcDbArc
 50
278.8498829999999
 51
0.0
  0
LINE
  5
AC7B
330
AB80
100
AcDbEntity
  8
1
  6
Continuous
100
AcDbLine
 10
281.1788029999998
 20
225.87149
 30
0.0
 11
283.2318029999999
 21
227.58649
 31
0.0
  0
LINE
  5
AC7C
330
AB80
100
AcDbEntity
  8
1
  6
Continuous
100
AcDbLine
 10
293.4033759999999
 20
236.571752
 30
0.0
 11
267.4033759999999
 21
236.571752
 31
0.0
  0
LINE
  5
AC7D
330
AB80
100
AcDbEntity
  8
1
  6
Continuous
100
AcDbLine
 10
297.0502339999999
 20
232.5717519999999
 30
0.0
 11
263.756528
 21
232.5717519999999
 31
0.0
  0
LINE
  5
AC7E
330
AB80
100
AcDbEntity
  8
1
  6
Continuous
100
AcDbLine
 10
257.4033759999999
 20
227.58649
 30
0.0
 11
303.4033759999999
 21
227.58649
 31
0.0
  0
LINE
  5
AC7F
330
AB80
100
AcDbEntity
  8
1
  6
Continuous
100
AcDbLine
 10
258.228292
 20
229.068752
 30
0.0
 11
302.57846
 21
229.068752
 31
0.0
  0
LINE
  5
AC80
330
AB80
100
AcDbEntity
  8
1
  6
Continuous
100
AcDbLine
 10
267.9033759999999
 20
166.5237139999999
 30
0.0
 11
267.9033759999999
 21
191.6192649999999
 31
0.0
  0
LINE
  5
AC81
330
AB80
100
AcDbEntity
  8
1
  6
Continuous
100
AcDbLine
 10
269.4033759999999
 20
197.7054639999998
 30
0.0
 11
269.4033759999999
 21
160.4375149999999
 31
0.0
  0
LINE
  5
AC82
330
AB80
100
AcDbEntity
  8
1
  6
Continuous
100
AcDbLine
 10
267.7924019999999
 20
166.635561
 30
0.0
 11
265.9033759999999
 21
167.7261899999998
 31
0.0
  0
LINE
  5
AC83
330
AB80
100
AcDbEntity
  8
1
  6
Continuous
100
AcDbLine
 10
265.9033759999999
 20
167.7261899999998
 30
0.0
 11
265.9033759999999
 21
190.416789
 31
0.0
  0
LINE
  5
AC84
330
AB80
100
AcDbEntity
  8
1
  6
Continuous
100
AcDbLine
 10
263.8948759999999
 20
175.07149
 30
0.0
 11
265.9033759999999
 21
175.07149
 31
0.0
  0
LINE
  5
AC85
330
AB80
100
AcDbEntity
  8
1
  6
Continuous
100
AcDbLine
 10
267.9338149999999
 20
166.4470149999999
 30
0.0
 11
269.4033759999999
 21
160.4375149999999
 31
0.0
  0
LINE
  5
AC86
330
AB80
100
AcDbEntity
  8
1
  6
Continuous
100
AcDbLine
 10
269.9033759999999
 20
160.1488399999998
 30
0.0
 11
269.4033759999999
 21
160.4375149999999
 31
0.0
  0
ARC
  5
AC87
330
AB80
100
AcDbEntity
  8
1
  6
Continuous
100
AcDbCircle
 10
267.642402
 20
166.3757529999998
 30
0.0
 40
0.3
100
AcDbArc
 50
13.741415
 51
60.0
  0
LINE
  5
AC88
330
AB80
100
AcDbEntity
  8
1
  6
Continuous
100
AcDbLine
 10
267.7924019999999
 20
191.507419
 30
0.0
 11
265.9033759999999
 21
190.416789
 31
0.0
  0
LINE
  5
AC89
330
AB80
100
AcDbEntity
  8
1
  6
Continuous
100
AcDbLine
 10
263.8948759999999
 20
183.0714899999999
 30
0.0
 11
265.9033759999999
 21
183.0714899999999
 31
0.0
  0
LINE
  5
AC8A
330
AB80
100
AcDbEntity
  8
1
  6
Continuous
100
AcDbLine
 10
267.9338149999999
 20
191.6959639999998
 30
0.0
 11
269.4033759999999
 21
197.7054639999998
 31
0.0
  0
ARC
  5
AC8B
330
AB80
100
AcDbEntity
  8
1
  6
Continuous
100
AcDbCircle
 10
267.642402
 20
191.7672259999999
 30
0.0
 40
0.3
100
AcDbArc
 50
300.0
 51
346.2585849999999
  0
LINE
  5
AC8C
330
AB80
100
AcDbEntity
  8
1
  6
Continuous
100
AcDbLine
 10
269.9033759999999
 20
197.994139
 30
0.0
 11
269.4033759999999
 21
197.7054639999998
 31
0.0
  0
LINE
  5
AC8D
330
AB80
100
AcDbEntity
  8
1
  6
Continuous
100
AcDbLine
 10
259.8289589999998
 20
225.87149
 30
0.0
 11
257.7759589999998
 21
227.58649
 31
0.0
  0
LINE
  5
AC8E
330
AB80
100
AcDbEntity
  8
1
  6
Continuous
100
AcDbLine
 10
262.6573859999999
 20
225.87149
 30
0.0
 11
260.6043859999999
 21
227.58649
 31
0.0
  0
LINE
  5
AC8F
330
AB80
100
AcDbEntity
  8
1
  6
Continuous
100
AcDbLine
 10
265.485813
 20
225.87149
 30
0.0
 11
263.432813
 21
227.58649
 31
0.0
  0
LINE
  5
AC90
330
AB80
100
AcDbEntity
  8
1
  6
Continuous
100
AcDbLine
 10
268.3142399999999
 20
225.87149
 30
0.0
 11
266.2612399999998
 21
227.58649
 31
0.0
  0
LINE
  5
AC91
330
AB80
100
AcDbEntity
  8
1
  6
Continuous
100
AcDbLine
 10
271.142667
 20
225.87149
 30
0.0
 11
269.089667
 21
227.58649
 31
0.0
  0
LINE
  5
AC92
330
AB80
100
AcDbEntity
  8
1
  6
Continuous
100
AcDbLine
 10
273.971095
 20
225.87149
 30
0.0
 11
271.918095
 21
227.58649
 31
0.0
  0
LINE
  5
AC93
330
AB80
100
AcDbEntity
  8
1
  6
Continuous
100
AcDbLine
 10
276.799522
 20
225.87149
 30
0.0
 11
274.746522
 21
227.58649
 31
0.0
  0
LINE
  5
AC94
330
AB80
100
AcDbEntity
  8
1
  6
Continuous
100
AcDbLine
 10
279.6279489999998
 20
225.87149
 30
0.0
 11
277.5749489999999
 21
227.58649
 31
0.0
  0
LINE
  5
AC95
330
AB80
100
AcDbEntity
  8
1
  6
Continuous
100
AcDbLine
 10
282.4563759999999
 20
225.87149
 30
0.0
 11
280.4033759999999
 21
227.58649
 31
0.0
  0
LINE
  5
AC96
330
AB80
100
AcDbEntity
  8
1
  6
Continuous
100
AcDbLine
 10
258.5513859999999
 20
225.87149
 30
0.0
 11
260.6043859999999
 21
227.58649
 31
0.0
  0
LINE
  5
AC97
330
AB80
100
AcDbEntity
  8
1
  6
Continuous
100
AcDbLine
 10
261.379813
 20
225.87149
 30
0.0
 11
263.432813
 21
227.58649
 31
0.0
  0
LINE
  5
AC98
330
AB80
100
AcDbEntity
  8
1
  6
Continuous
100
AcDbLine
 10
264.20824
 20
225.87149
 30
0.0
 11
266.2612399999998
 21
227.58649
 31
0.0
  0
LINE
  5
AC99
330
AB80
100
AcDbEntity
  8
1
  6
Continuous
100
AcDbLine
 10
267.0366669999999
 20
225.87149
 30
0.0
 11
269.089667
 21
227.58649
 31
0.0
  0
LINE
  5
AC9A
330
AB80
100
AcDbEntity
  8
1
  6
Continuous
100
AcDbLine
 10
269.865095
 20
225.87149
 30
0.0
 11
271.918095
 21
227.58649
 31
0.0
  0
LINE
  5
AC9B
330
AB80
100
AcDbEntity
  8
1
  6
Continuous
100
AcDbLine
 10
272.6935219999999
 20
225.87149
 30
0.0
 11
274.746522
 21
227.58649
 31
0.0
  0
LINE
  5
AC9C
330
AB80
100
AcDbEntity
  8
1
  6
Continuous
100
AcDbLine
 10
275.5219489999999
 20
225.87149
 30
0.0
 11
277.5749489999999
 21
227.58649
 31
0.0
  0
LINE
  5
AC9D
330
AB80
100
AcDbEntity
  8
1
  6
Continuous
100
AcDbLine
 10
278.3503759999999
 20
225.87149
 30
0.0
 11
280.4033759999999
 21
227.58649
 31
0.0
  0
LINE
  5
AC9E
330
AB80
100
AcDbEntity
  8
1
  6
Continuous
100
AcDbLine
 10
257.4033759999999
 20
227.58649
 30
0.0
 11
257.4033759999999
 21
225.87149
 31
0.0
  0
ARC
  5
AC9F
330
AB80
100
AcDbEntity
  8
1
  6
Continuous
100
AcDbCircle
 10
271.4033759999999
 20
214.3750359999999
 30
0.0
 40
1.5
100
AcDbArc
 50
98.84988300000001
 51
180.0
  0
ARC
  5
ACA0
330
AB80
100
AcDbEntity
  8
1
  6
Continuous
100
AcDbCircle
 10
263.756528
 20
226.4581339999998
 30
0.0
 40
6.113617999999997
100
AcDbArc
 50
90.0
 51
154.721609
  0
LINE
  5
ACA1
330
AB80
100
AcDbEntity
  8
1
  6
Continuous
100
AcDbLine
 10
257.4033759999999
 20
227.2139069999998
 30
0.0
 11
257.7759589999998
 21
227.58649
 31
0.0
  0
ARC
  5
ACA2
330
AB80
100
AcDbEntity
  8
1
  6
Continuous
100
AcDbCircle
 10
261.0147739999999
 20
230.6189789999999
 30
0.0
 40
4.697225
100
AcDbArc
 50
206.286695
 51
220.210037
  0
LINE
  5
ACA3
330
AB80
100
AcDbEntity
  8
1
  6
Continuous
100
AcDbLine
 10
257.413292
 20
229.068752
 30
0.0
 11
258.228292
 21
229.068752
 31
0.0
  0
ARC
  5
ACA4
330
AB80
100
AcDbEntity
  8
1
  6
Continuous
100
AcDbCircle
 10
257.6772619999999
 20
228.148899
 30
0.0
 40
0.9569799999999998
100
AcDbArc
 50
106.011913
 51
155.9597349999999
  0
LINE
  5
ACA5
330
AB80
100
AcDbEntity
  8
1
  6
Continuous
100
AcDbLine
 10
267.4033759999999
 20
236.571752
 30
0.0
 11
267.4033759999999
 21
232.5717519999999
 31
0.0
  0
LINE
  5
ACA6
330
AB80
100
AcDbEntity
  8
1
  6
Continuous
100
AcDbLine
 10
280.4033759999999
 20
236.571752
 30
0.0
 11
280.4033759999999
 21
232.5717519999999
 31
0.0
  0
LINE
  5
ACA7
330
AB80
100
AcDbEntity
  8
1
  6
Continuous
100
AcDbLine
 10
292.9033759999999
 20
166.5237139999999
 30
0.0
 11
292.9033759999999
 21
191.6192649999999
 31
0.0
  0
LINE
  5
ACA8
330
AB80
100
AcDbEntity
  8
1
  6
Continuous
100
AcDbLine
 10
291.4033759999999
 20
197.7054639999998
 30
0.0
 11
291.4033759999999
 21
160.4375149999999
 31
0.0
  0
LINE
  5
ACA9
330
AB80
100
AcDbEntity
  8
1
  6
Continuous
100
AcDbLine
 10
294.9033759999998
 20
167.7261899999998
 30
0.0
 11
294.9033759999998
 21
190.416789
 31
0.0
  0
LINE
  5
ACAA
330
AB80
100
AcDbEntity
  8
1
  6
Continuous
100
AcDbLine
 10
290.9033759999999
 20
160.1488399999998
 30
0.0
 11
291.4033759999999
 21
160.4375149999999
 31
0.0
  0
LINE
  5
ACAB
330
AB80
100
AcDbEntity
  8
1
  6
Continuous
100
AcDbLine
 10
292.8729369999999
 20
166.4470149999999
 30
0.0
 11
291.4033759999999
 21
160.4375149999999
 31
0.0
  0
ARC
  5
ACAC
330
AB80
100
AcDbEntity
  8
1
  6
Continuous
100
AcDbCircle
 10
293.16435
 20
166.3757529999998
 30
0.0
 40
0.3
100
AcDbArc
 50
119.9999999999999
 51
166.258585
  0
LINE
  5
ACAD
330
AB80
100
AcDbEntity
  8
1
  6
Continuous
100
AcDbLine
 10
293.0143499999999
 20
166.635561
 30
0.0
 11
294.9033759999998
 21
167.7261899999998
 31
0.0
  0
LINE
  5
ACAE
330
AB80
100
AcDbEntity
  8
1
  6
Continuous
100
AcDbLine
 10
296.9118759999998
 20
175.07149
 30
0.0
 11
294.9033759999998
 21
175.07149
 31
0.0
  0
LINE
  5
ACAF
330
AB80
100
AcDbEntity
  8
1
  6
Continuous
100
AcDbLine
 10
293.0143499999999
 20
191.507419
 30
0.0
 11
294.9033759999998
 21
190.416789
 31
0.0
  0
LINE
  5
ACB0
330
AB80
100
AcDbEntity
  8
1
  6
Continuous
100
AcDbLine
 10
296.9118759999998
 20
183.0714899999999
 30
0.0
 11
294.9033759999998
 21
183.0714899999999
 31
0.0
  0
LINE
  5
ACB1
330
AB80
100
AcDbEntity
  8
1
  6
Continuous
100
AcDbLine
 10
290.9033759999999
 20
197.994139
 30
0.0
 11
291.4033759999999
 21
197.7054639999998
 31
0.0
  0
LINE
  5
ACB2
330
AB80
100
AcDbEntity
  8
1
  6
Continuous
100
AcDbLine
 10
292.8729369999999
 20
191.6959639999998
 30
0.0
 11
291.4033759999999
 21
197.7054639999998
 31
0.0
  0
ARC
  5
ACB3
330
AB80
100
AcDbEntity
  8
1
  6
Continuous
100
AcDbCircle
 10
293.16435
 20
191.7672259999999
 30
0.0
 40
0.3
100
AcDbArc
 50
193.741415
 51
239.9999999999999
  0
LINE
  5
ACB4
330
AB80
100
AcDbEntity
  8
1
  6
Continuous
100
AcDbLine
 10
302.2553659999999
 20
225.87149
 30
0.0
 11
300.2023659999999
 21
227.58649
 31
0.0
  0
LINE
  5
ACB5
330
AB80
100
AcDbEntity
  8
1
  6
Continuous
100
AcDbLine
 10
299.4269389999999
 20
225.87149
 30
0.0
 11
297.373939
 21
227.58649
 31
0.0
  0
LINE
  5
ACB6
330
AB80
100
AcDbEntity
  8
1
  6
Continuous
100
AcDbLine
 10
296.598512
 20
225.87149
 30
0.0
 11
294.5455119999999
 21
227.58649
 31
0.0
  0
LINE
  5
ACB7
330
AB80
100
AcDbEntity
  8
1
  6
Continuous
100
AcDbLine
 10
293.770084
 20
225.87149
 30
0.0
 11
291.717084
 21
227.58649
 31
0.0
  0
LINE
  5
ACB8
330
AB80
100
AcDbEntity
  8
1
  6
Continuous
100
AcDbLine
 10
290.9416569999999
 20
225.87149
 30
0.0
 11
288.888657
 21
227.58649
 31
0.0
  0
LINE
  5
ACB9
330
AB80
100
AcDbEntity
  8
1
  6
Continuous
100
AcDbLine
 10
288.1132299999998
 20
225.87149
 30
0.0
 11
286.06023
 21
227.58649
 31
0.0
  0
LINE
  5
ACBA
330
AB80
100
AcDbEntity
  8
1
  6
Continuous
100
AcDbLine
 10
285.2848029999999
 20
225.87149
 30
0.0
 11
283.2318029999999
 21
227.58649
 31
0.0
  0
LINE
  5
ACBB
330
AB80
100
AcDbEntity
  8
1
  6
Continuous
100
AcDbLine
 10
300.977793
 20
225.87149
 30
0.0
 11
303.030793
 21
227.58649
 31
0.0
  0
LINE
  5
ACBC
330
AB80
100
AcDbEntity
  8
1
  6
Continuous
100
AcDbLine
 10
298.1493659999999
 20
225.87149
 30
0.0
 11
300.2023659999999
 21
227.58649
 31
0.0
  0
LINE
  5
ACBD
330
AB80
100
AcDbEntity
  8
1
  6
Continuous
100
AcDbLine
 10
295.3209389999999
 20
225.87149
 30
0.0
 11
297.373939
 21
227.58649
 31
0.0
  0
LINE
  5
ACBE
330
AB80
100
AcDbEntity
  8
1
  6
Continuous
100
AcDbLine
 10
292.4925119999999
 20
225.87149
 30
0.0
 11
294.5455119999999
 21
227.58649
 31
0.0
  0
LINE
  5
ACBF
330
AB80
100
AcDbEntity
  8
1
  6
Continuous
100
AcDbLine
 10
289.6640839999998
 20
225.87149
 30
0.0
 11
291.717084
 21
227.58649
 31
0.0
  0
LINE
  5
ACC0
330
AB80
100
AcDbEntity
  8
1
  6
Continuous
100
AcDbLine
 10
286.8356569999999
 20
225.87149
 30
0.0
 11
288.888657
 21
227.58649
 31
0.0
  0
LINE
  5
ACC1
330
AB80
100
AcDbEntity
  8
1
  6
Continuous
100
AcDbLine
 10
284.00723
 20
225.87149
 30
0.0
 11
286.06023
 21
227.58649
 31
0.0
  0
LINE
  5
ACC2
330
AB80
100
AcDbEntity
  8
1
  6
Continuous
100
AcDbLine
 10
303.4033759999999
 20
227.58649
 30
0.0
 11
303.4033759999999
 21
225.87149
 31
0.0
  0
ARC
  5
ACC3
330
AB80
100
AcDbEntity
  8
1
  6
Continuous
100
AcDbCircle
 10
289.4033759999999
 20
214.3750359999999
 30
0.0
 40
1.5
100
AcDbArc
 50
0.0
 51
81.15011700000001
  0
ARC
  5
ACC4
330
AB80
100
AcDbEntity
  8
1
  6
Continuous
100
AcDbCircle
 10
297.0502339999999
 20
226.4581339999998
 30
0.0
 40
6.113617999999997
100
AcDbArc
 50
25.278391
 51
90.0
  0
LINE
  5
ACC5
330
AB80
100
AcDbEntity
  8
1
  6
Continuous
100
AcDbLine
 10
293.4033759999999
 20
236.571752
 30
0.0
 11
293.4033759999999
 21
232.5717519999999
 31
0.0
  0
ARC
  5
ACC6
330
AB80
100
AcDbEntity
  8
1
  6
Continuous
100
AcDbCircle
 10
299.7919779999999
 20
230.6189789999999
 30
0.0
 40
4.697225
100
AcDbArc
 50
319.789963
 51
333.713305
  0
ARC
  5
ACC7
330
AB80
100
AcDbEntity
  8
1
  6
Continuous
100
AcDbCircle
 10
303.1294899999999
 20
228.148899
 30
0.0
 40
0.9569799999999998
100
AcDbArc
 50
24.04026499999999
 51
73.98808699999998
  0
LINE
  5
ACC8
330
AB80
100
AcDbEntity
  8
1
  6
Continuous
100
AcDbLine
 10
303.4033759999999
 20
227.2139069999998
 30
0.0
 11
303.030793
 21
227.58649
 31
0.0
  0
LINE
  5
ACC9
330
AB80
100
AcDbEntity
  8
1
  6
Continuous
100
AcDbLine
 10
303.39346
 20
229.068752
 30
0.0
 11
302.57846
 21
229.068752
 31
0.0
  0
LINE
  5
ACCA
330
AB80
100
AcDbEntity
  8
1
  6
Continuous
100
AcDbLine
 10
286.4033759999998
 20
275.571752
 30
0.0
 11
274.4033759999999
 21
275.571752
 31
0.0
  0
LINE
  5
ACCB
330
AB80
100
AcDbEntity
  8
1
  6
Continuous
100
AcDbLine
 10
270.6533759999999
 20
274.671752
 30
0.0
 11
290.1533759999999
 21
274.671752
 31
0.0
  0
LINE
  5
ACCC
330
AB80
100
AcDbEntity
  8
1
  6
Continuous
100
AcDbLine
 10
285.403381
 20
276.5717519999999
 30
0.0
 11
275.403381
 21
276.5717519999999
 31
0.0
  0
LINE
  5
ACCD
330
AB80
100
AcDbEntity
  8
1
  6
Continuous
100
AcDbLine
 10
274.403381
 20
275.571752
 30
0.0
 11
275.403381
 21
276.5717519999999
 31
0.0
  0
LINE
  5
ACCE
330
AB80
100
AcDbEntity
  8
1
  6
Continuous
100
AcDbLine
 10
274.4033759999999
 20
275.571752
 30
0.0
 11
274.4033759999999
 21
274.671752
 31
0.0
  0
LINE
  5
ACCF
330
AB80
100
AcDbEntity
  8
1
  6
Continuous
100
AcDbLine
 10
286.4033759999998
 20
275.571752
 30
0.0
 11
286.4033759999998
 21
274.671752
 31
0.0
  0
LINE
  5
ACD0
330
AB80
100
AcDbEntity
  8
1
  6
Continuous
100
AcDbLine
 10
286.403381
 20
275.571752
 30
0.0
 11
285.403381
 21
276.5717519999999
 31
0.0
  0
LINE
  5
ACD1
330
AB80
100
AcDbEntity
  8
2
  6
Continuous
100
AcDbLine
 10
275.350376
 20
276.518747
 30
0.0
 11
275.350376
 21
274.671752
 31
0.0
  0
LINE
  5
ACD2
330
AB80
100
AcDbEntity
  8
2
  6
Continuous
100
AcDbLine
 10
285.4563759999999
 20
276.518757
 30
0.0
 11
285.4563759999999
 21
274.671752
 31
0.0
  0
ARC
  5
ACD3
330
AB80
100
AcDbEntity
  8
1
  6
Continuous
100
AcDbCircle
 10
78.593249
 20
230.6189789999999
 30
0.0
 40
4.697225
100
AcDbArc
 50
319.789963
 51
333.713305
  0
ARC
  5
ACD4
330
AB80
100
AcDbEntity
  8
1
  6
Continuous
100
AcDbCircle
 10
39.816045
 20
230.6189789999999
 30
0.0
 40
4.697225
100
AcDbArc
 50
206.286695
 51
220.210037
  0
LINE
  5
ACD5
330
AB80
100
AcDbEntity
  8
1
  6
Continuous
100
AcDbLine
 10
48.66636599999999
 20
225.87149
 30
0.0
 11
50.719366
 21
227.58649
 31
0.0
  0
LINE
  5
ACD6
330
AB80
100
AcDbEntity
  8
1
  6
Continuous
100
AcDbLine
 10
49.943938
 20
225.87149
 30
0.0
 11
47.89093799999998
 21
227.58649
 31
0.0
  0
LINE
  5
ACD7
330
AB80
100
AcDbEntity
  8
1
  6
Continuous
100
AcDbLine
 10
36.20464699999998
 20
227.58649
 30
0.0
 11
82.20464699999999
 21
227.58649
 31
0.0
  0
LINE
  5
ACD8
330
AB80
100
AcDbEntity
  8
1
  6
Continuous
100
AcDbLine
 10
36.20464699999998
 20
227.2139069999998
 30
0.0
 11
36.57723
 21
227.58649
 31
0.0
  0
LINE
  5
ACD9
330
AB80
100
AcDbEntity
  8
1
  6
Continuous
100
AcDbLine
 10
36.20464699999998
 20
227.58649
 30
0.0
 11
36.20464699999998
 21
225.87149
 31
0.0
  0
LINE
  5
ACDA
330
AB80
100
AcDbEntity
  8
1
  6
Continuous
100
AcDbLine
 10
43.00951099999998
 20
225.87149
 30
0.0
 11
45.062511
 21
227.58649
 31
0.0
  0
LINE
  5
ACDB
330
AB80
100
AcDbEntity
  8
1
  6
Continuous
100
AcDbLine
 10
40.181084
 20
225.87149
 30
0.0
 11
42.234084
 21
227.58649
 31
0.0
  0
LINE
  5
ACDC
330
AB80
100
AcDbEntity
  8
1
  6
Continuous
100
AcDbLine
 10
37.352657
 20
225.87149
 30
0.0
 11
39.405657
 21
227.58649
 31
0.0
  0
LINE
  5
ACDD
330
AB80
100
AcDbEntity
  8
1
  6
Continuous
100
AcDbLine
 10
44.287084
 20
225.87149
 30
0.0
 11
42.234084
 21
227.58649
 31
0.0
  0
LINE
  5
ACDE
330
AB80
100
AcDbEntity
  8
1
  6
Continuous
100
AcDbLine
 10
41.458657
 20
225.87149
 30
0.0
 11
39.405657
 21
227.58649
 31
0.0
  0
LINE
  5
ACDF
330
AB80
100
AcDbEntity
  8
1
  6
Continuous
100
AcDbLine
 10
38.63023
 20
225.87149
 30
0.0
 11
36.57723
 21
227.58649
 31
0.0
  0
LINE
  5
ACE0
330
AB80
100
AcDbEntity
  8
1
  6
Continuous
100
AcDbLine
 10
45.837938
 20
225.87149
 30
0.0
 11
47.89093799999998
 21
227.58649
 31
0.0
  0
LINE
  5
ACE1
330
AB80
100
AcDbEntity
  8
1
  6
Continuous
100
AcDbLine
 10
47.115511
 20
225.87149
 30
0.0
 11
45.062511
 21
227.58649
 31
0.0
  0
LINE
  5
ACE2
330
AB80
100
AcDbEntity
  8
1
  6
Continuous
100
AcDbLine
 10
66.914501
 20
225.87149
 30
0.0
 11
64.861501
 21
227.58649
 31
0.0
  0
LINE
  5
ACE3
330
AB80
100
AcDbEntity
  8
1
  6
Continuous
100
AcDbLine
 10
51.494793
 20
225.87149
 30
0.0
 11
53.547793
 21
227.58649
 31
0.0
  0
LINE
  5
ACE4
330
AB80
100
AcDbEntity
  8
1
  6
Continuous
100
AcDbLine
 10
55.600793
 20
225.87149
 30
0.0
 11
53.547793
 21
227.58649
 31
0.0
  0
LINE
  5
ACE5
330
AB80
100
AcDbEntity
  8
1
  6
Continuous
100
AcDbLine
 10
52.77236600000001
 20
225.87149
 30
0.0
 11
50.719366
 21
227.58649
 31
0.0
  0
LINE
  5
ACE6
330
AB80
100
AcDbEntity
  8
1
  6
Continuous
100
AcDbLine
 10
57.15164699999998
 20
225.87149
 30
0.0
 11
59.204647
 21
227.58649
 31
0.0
  0
LINE
  5
ACE7
330
AB80
100
AcDbEntity
  8
1
  6
Continuous
100
AcDbLine
 10
54.32321999999999
 20
225.87149
 30
0.0
 11
56.37622
 21
227.58649
 31
0.0
  0
LINE
  5
ACE8
330
AB80
100
AcDbEntity
  8
1
  6
Continuous
100
AcDbLine
 10
61.257647
 20
225.87149
 30
0.0
 11
59.204647
 21
227.58649
 31
0.0
  0
LINE
  5
ACE9
330
AB80
100
AcDbEntity
  8
1
  6
Continuous
100
AcDbLine
 10
58.42921999999999
 20
225.87149
 30
0.0
 11
56.37622
 21
227.58649
 31
0.0
  0
LINE
  5
ACEA
330
AB80
100
AcDbEntity
  8
1
  6
Continuous
100
AcDbLine
 10
59.980074
 20
225.87149
 30
0.0
 11
62.03307399999999
 21
227.58649
 31
0.0
  0
LINE
  5
ACEB
330
AB80
100
AcDbEntity
  8
1
  6
Continuous
100
AcDbLine
 10
62.808501
 20
225.87149
 30
0.0
 11
64.861501
 21
227.58649
 31
0.0
  0
LINE
  5
ACEC
330
AB80
100
AcDbEntity
  8
1
  6
Continuous
100
AcDbLine
 10
64.086074
 20
225.87149
 30
0.0
 11
62.03307399999999
 21
227.58649
 31
0.0
  0
LINE
  5
ACED
330
AB80
100
AcDbEntity
  8
1
  6
Continuous
100
AcDbLine
 10
82.20464699999999
 20
227.2139069999998
 30
0.0
 11
81.83206400000001
 21
227.58649
 31
0.0
  0
LINE
  5
ACEE
330
AB80
100
AcDbEntity
  8
1
  6
Continuous
100
AcDbLine
 10
82.20464699999999
 20
227.58649
 30
0.0
 11
82.20464699999999
 21
225.87149
 31
0.0
  0
LINE
  5
ACEF
330
AB80
100
AcDbEntity
  8
1
  6
Continuous
100
AcDbLine
 10
65.636928
 20
225.87149
 30
0.0
 11
67.68992800000001
 21
227.58649
 31
0.0
  0
LINE
  5
ACF0
330
AB80
100
AcDbEntity
  8
1
  6
Continuous
100
AcDbLine
 10
68.465355
 20
225.87149
 30
0.0
 11
70.518355
 21
227.58649
 31
0.0
  0
LINE
  5
ACF1
330
AB80
100
AcDbEntity
  8
1
  6
Continuous
100
AcDbLine
 10
71.29378299999998
 20
225.87149
 30
0.0
 11
73.346783
 21
227.58649
 31
0.0
  0
LINE
  5
ACF2
330
AB80
100
AcDbEntity
  8
1
  6
Continuous
100
AcDbLine
 10
74.12220999999998
 20
225.87149
 30
0.0
 11
76.17520999999998
 21
227.58649
 31
0.0
  0
LINE
  5
ACF3
330
AB80
100
AcDbEntity
  8
1
  6
Continuous
100
AcDbLine
 10
76.950637
 20
225.87149
 30
0.0
 11
79.00363699999998
 21
227.58649
 31
0.0
  0
LINE
  5
ACF4
330
AB80
100
AcDbEntity
  8
1
  6
Continuous
100
AcDbLine
 10
69.742928
 20
225.87149
 30
0.0
 11
67.68992800000001
 21
227.58649
 31
0.0
  0
LINE
  5
ACF5
330
AB80
100
AcDbEntity
  8
1
  6
Continuous
100
AcDbLine
 10
72.57135500000003
 20
225.87149
 30
0.0
 11
70.518355
 21
227.58649
 31
0.0
  0
LINE
  5
ACF6
330
AB80
100
AcDbEntity
  8
1
  6
Continuous
100
AcDbLine
 10
75.399783
 20
225.87149
 30
0.0
 11
73.346783
 21
227.58649
 31
0.0
  0
LINE
  5
ACF7
330
AB80
100
AcDbEntity
  8
1
  6
Continuous
100
AcDbLine
 10
78.22821000000002
 20
225.87149
 30
0.0
 11
76.17520999999998
 21
227.58649
 31
0.0
  0
LINE
  5
ACF8
330
AB80
100
AcDbEntity
  8
1
  6
Continuous
100
AcDbLine
 10
79.77906400000001
 20
225.87149
 30
0.0
 11
81.83206400000001
 21
227.58649
 31
0.0
  0
LINE
  5
ACF9
330
AB80
100
AcDbEntity
  8
1
  6
Continuous
100
AcDbLine
 10
81.05663699999999
 20
225.87149
 30
0.0
 11
79.00363699999998
 21
227.58649
 31
0.0
  0
ARC
  5
ACFA
330
AB80
100
AcDbEntity
  8
1
  6
Continuous
100
AcDbCircle
 10
81.930761
 20
228.148899
 30
0.0
 40
0.9569799999999998
100
AcDbArc
 50
24.04026499999999
 51
73.98808699999998
  0
LINE
  5
ACFB
330
AB80
100
AcDbEntity
  8
1
  6
Continuous
100
AcDbLine
 10
65.20464699999999
 20
275.571752
 30
0.0
 11
65.20464699999999
 21
274.671752
 31
0.0
  0
LINE
  5
ACFC
330
AB80
100
AcDbEntity
  8
2
  6
Continuous
100
AcDbLine
 10
64.25764699999999
 20
276.518757
 30
0.0
 11
64.25764699999999
 21
274.671752
 31
0.0
  0
LINE
  5
ACFD
330
AB80
100
AcDbEntity
  8
1
  6
Continuous
100
AcDbLine
 10
53.20464699999998
 20
275.571752
 30
0.0
 11
53.20464699999998
 21
274.671752
 31
0.0
  0
LINE
  5
ACFE
330
AB80
100
AcDbEntity
  8
2
  6
Continuous
100
AcDbLine
 10
54.151647
 20
276.518747
 30
0.0
 11
54.151647
 21
274.671752
 31
0.0
  0
LINE
  5
ACFF
330
AB80
100
AcDbEntity
  8
1
  6
Continuous
100
AcDbLine
 10
75.85150500000001
 20
232.5717519999999
 30
0.0
 11
42.55779899999999
 21
232.5717519999999
 31
0.0
  0
LINE
  5
AD00
330
AB80
100
AcDbEntity
  8
1
  6
Continuous
100
AcDbLine
 10
72.20464699999998
 20
236.571752
 30
0.0
 11
46.20464699999998
 21
236.571752
 31
0.0
  0
LINE
  5
AD01
330
AB80
100
AcDbEntity
  8
1
  6
Continuous
100
AcDbLine
 10
37.029563
 20
229.068752
 30
0.0
 11
81.37973100000001
 21
229.068752
 31
0.0
  0
ARC
  5
AD02
330
AB80
100
AcDbEntity
  8
1
  6
Continuous
100
AcDbCircle
 10
36.47853299999999
 20
228.148899
 30
0.0
 40
0.9569799999999998
100
AcDbArc
 50
106.011913
 51
155.9597349999999
  0
LINE
  5
AD03
330
AB80
100
AcDbEntity
  8
1
  6
Continuous
100
AcDbLine
 10
36.214563
 20
229.068752
 30
0.0
 11
37.029563
 21
229.068752
 31
0.0
  0
ARC
  5
AD04
330
AB80
100
AcDbEntity
  8
1
  6
Continuous
100
AcDbCircle
 10
42.55779899999999
 20
226.4581339999998
 30
0.0
 40
6.113617999999997
100
AcDbArc
 50
90.0
 51
154.721609
  0
LINE
  5
AD05
330
AB80
100
AcDbEntity
  8
1
  6
Continuous
100
AcDbLine
 10
46.20464699999998
 20
236.571752
 30
0.0
 11
46.20464699999998
 21
232.5717519999999
 31
0.0
  0
LINE
  5
AD06
330
AB80
100
AcDbEntity
  8
1
  6
Continuous
100
AcDbLine
 10
59.204647
 20
236.571752
 30
0.0
 11
59.204647
 21
232.5717519999999
 31
0.0
  0
LINE
  5
AD07
330
AB80
100
AcDbEntity
  8
1
  6
Continuous
100
AcDbLine
 10
82.194731
 20
229.068752
 30
0.0
 11
81.37973100000001
 21
229.068752
 31
0.0
  0
LINE
  5
AD08
330
AB80
100
AcDbEntity
  8
1
  6
Continuous
100
AcDbLine
 10
72.20464699999998
 20
236.571752
 30
0.0
 11
72.20464699999998
 21
232.5717519999999
 31
0.0
  0
ARC
  5
AD09
330
AB80
100
AcDbEntity
  8
1
  6
Continuous
100
AcDbCircle
 10
75.85150500000001
 20
226.4581339999998
 30
0.0
 40
6.113617999999997
100
AcDbArc
 50
25.278391
 51
90.0
  0
LINE
  5
AD0A
330
AB80
100
AcDbEntity
  8
1
  6
Continuous
100
AcDbLine
 10
49.45464699999998
 20
274.671752
 30
0.0
 11
68.95464699999999
 21
274.671752
 31
0.0
  0
LINE
  5
AD0B
330
AB80
100
AcDbEntity
  8
1
  6
Continuous
100
AcDbLine
 10
65.204652
 20
275.571752
 30
0.0
 11
64.20465199999999
 21
276.5717519999999
 31
0.0
  0
LINE
  5
AD0C
330
AB80
100
AcDbEntity
  8
1
  6
Continuous
100
AcDbLine
 10
53.20465200000001
 20
275.571752
 30
0.0
 11
54.204652
 21
276.5717519999999
 31
0.0
  0
LINE
  5
AD0D
330
AB80
100
AcDbEntity
  8
1
  6
Continuous
100
AcDbLine
 10
64.20465199999999
 20
276.5717519999999
 30
0.0
 11
54.204652
 21
276.5717519999999
 31
0.0
  0
LINE
  5
AD0E
330
AB80
100
AcDbEntity
  8
1
  6
Continuous
100
AcDbLine
 10
65.20464699999999
 20
275.571752
 30
0.0
 11
53.20464699999998
 21
275.571752
 31
0.0
  0
ARC
  5
AD0F
330
AB80
100
AcDbEntity
  8
1
  6
Continuous
100
AcDbCircle
 10
188.6691719999998
 20
343.5054979999998
 30
0.0
 40
24.75
100
AcDbArc
 50
236.963825
 51
123.0361749999999
  0
LINE
  5
AD10
330
AB80
100
AcDbEntity
  8
1
  6
Continuous
100
AcDbLine
 10
211.669247
 20
227.58649
 30
0.0
 11
211.669247
 21
225.87149
 31
0.0
  0
LINE
  5
AD11
330
AB80
100
AcDbEntity
  8
1
  6
Continuous
100
AcDbLine
 10
200.758383
 20
225.87149
 30
0.0
 11
202.811383
 21
227.58649
 31
0.0
  0
LINE
  5
AD12
330
AB80
100
AcDbEntity
  8
1
  6
Continuous
100
AcDbLine
 10
203.58681
 20
225.87149
 30
0.0
 11
205.63981
 21
227.58649
 31
0.0
  0
LINE
  5
AD13
330
AB80
100
AcDbEntity
  8
1
  6
Continuous
100
AcDbLine
 10
206.4152369999999
 20
225.87149
 30
0.0
 11
208.4682369999999
 21
227.58649
 31
0.0
  0
LINE
  5
AD14
330
AB80
100
AcDbEntity
  8
1
  6
Continuous
100
AcDbLine
 10
209.2436639999998
 20
225.87149
 30
0.0
 11
211.2966639999999
 21
227.58649
 31
0.0
  0
LINE
  5
AD15
330
AB80
100
AcDbEntity
  8
1
  6
Continuous
100
AcDbLine
 10
202.035955
 20
225.87149
 30
0.0
 11
199.982955
 21
227.58649
 31
0.0
  0
LINE
  5
AD16
330
AB80
100
AcDbEntity
  8
1
  6
Continuous
100
AcDbLine
 10
204.864383
 20
225.87149
 30
0.0
 11
202.811383
 21
227.58649
 31
0.0
  0
LINE
  5
AD17
330
AB80
100
AcDbEntity
  8
1
  6
Continuous
100
AcDbLine
 10
207.6928099999999
 20
225.87149
 30
0.0
 11
205.63981
 21
227.58649
 31
0.0
  0
LINE
  5
AD18
330
AB80
100
AcDbEntity
  8
1
  6
Continuous
100
AcDbLine
 10
210.521237
 20
225.87149
 30
0.0
 11
208.4682369999999
 21
227.58649
 31
0.0
  0
LINE
  5
AD19
330
AB80
100
AcDbEntity
  8
1
  6
Continuous
100
AcDbLine
 10
197.929955
 20
225.87149
 30
0.0
 11
199.982955
 21
227.58649
 31
0.0
  0
LINE
  5
AD1A
330
AB80
100
AcDbEntity
  8
1
  6
Continuous
100
AcDbLine
 10
186.6162469999999
 20
225.87149
 30
0.0
 11
188.6692469999999
 21
227.58649
 31
0.0
  0
LINE
  5
AD1B
330
AB80
100
AcDbEntity
  8
1
  6
Continuous
100
AcDbLine
 10
189.444674
 20
225.87149
 30
0.0
 11
191.4976739999999
 21
227.58649
 31
0.0
  0
LINE
  5
AD1C
330
AB80
100
AcDbEntity
  8
1
  6
Continuous
100
AcDbLine
 10
192.2731009999999
 20
225.87149
 30
0.0
 11
194.326101
 21
227.58649
 31
0.0
  0
LINE
  5
AD1D
330
AB80
100
AcDbEntity
  8
1
  6
Continuous
100
AcDbLine
 10
195.101528
 20
225.87149
 30
0.0
 11
197.1545279999999
 21
227.58649
 31
0.0
  0
LINE
  5
AD1E
330
AB80
100
AcDbEntity
  8
1
  6
Continuous
100
AcDbLine
 10
183.7878199999999
 20
225.87149
 30
0.0
 11
185.84082
 21
227.58649
 31
0.0
  0
LINE
  5
AD1F
330
AB80
100
AcDbEntity
  8
1
  6
Continuous
100
AcDbLine
 10
190.722247
 20
225.87149
 30
0.0
 11
188.6692469999999
 21
227.58649
 31
0.0
  0
LINE
  5
AD20
330
AB80
100
AcDbEntity
  8
1
  6
Continuous
100
AcDbLine
 10
193.5506739999999
 20
225.87149
 30
0.0
 11
191.4976739999999
 21
227.58649
 31
0.0
  0
LINE
  5
AD21
330
AB80
100
AcDbEntity
  8
1
  6
Continuous
100
AcDbLine
 10
196.3791009999999
 20
225.87149
 30
0.0
 11
194.326101
 21
227.58649
 31
0.0
  0
LINE
  5
AD22
330
AB80
100
AcDbEntity
  8
1
  6
Continuous
100
AcDbLine
 10
187.89382
 20
225.87149
 30
0.0
 11
185.84082
 21
227.58649
 31
0.0
  0
LINE
  5
AD23
330
AB80
100
AcDbEntity
  8
1
  6
Continuous
100
AcDbLine
 10
185.065393
 20
225.87149
 30
0.0
 11
183.012393
 21
227.58649
 31
0.0
  0
LINE
  5
AD24
330
AB80
100
AcDbEntity
  8
1
  6
Continuous
100
AcDbLine
 10
199.207528
 20
225.87149
 30
0.0
 11
197.1545279999999
 21
227.58649
 31
0.0
  0
LINE
  5
AD25
330
AB80
100
AcDbEntity
  8
1
  6
Continuous
100
AcDbLine
 10
178.1309659999998
 20
225.87149
 30
0.0
 11
180.1839659999999
 21
227.58649
 31
0.0
  0
LINE
  5
AD26
330
AB80
100
AcDbEntity
  8
1
  6
Continuous
100
AcDbLine
 10
175.3025379999999
 20
225.87149
 30
0.0
 11
177.3555379999999
 21
227.58649
 31
0.0
  0
LINE
  5
AD27
330
AB80
100
AcDbEntity
  8
1
  6
Continuous
100
AcDbLine
 10
172.474111
 20
225.87149
 30
0.0
 11
174.527111
 21
227.58649
 31
0.0
  0
LINE
  5
AD28
330
AB80
100
AcDbEntity
  8
1
  6
Continuous
100
AcDbLine
 10
169.6456839999999
 20
225.87149
 30
0.0
 11
171.6986839999999
 21
227.58649
 31
0.0
  0
LINE
  5
AD29
330
AB80
100
AcDbEntity
  8
1
  6
Continuous
100
AcDbLine
 10
166.817257
 20
225.87149
 30
0.0
 11
168.870257
 21
227.58649
 31
0.0
  0
LINE
  5
AD2A
330
AB80
100
AcDbEntity
  8
1
  6
Continuous
100
AcDbLine
 10
179.408538
 20
225.87149
 30
0.0
 11
177.3555379999999
 21
227.58649
 31
0.0
  0
LINE
  5
AD2B
330
AB80
100
AcDbEntity
  8
1
  6
Continuous
100
AcDbLine
 10
176.5801109999999
 20
225.87149
 30
0.0
 11
174.527111
 21
227.58649
 31
0.0
  0
LINE
  5
AD2C
330
AB80
100
AcDbEntity
  8
1
  6
Continuous
100
AcDbLine
 10
173.751684
 20
225.87149
 30
0.0
 11
171.6986839999999
 21
227.58649
 31
0.0
  0
LINE
  5
AD2D
330
AB80
100
AcDbEntity
  8
1
  6
Continuous
100
AcDbLine
 10
170.923257
 20
225.87149
 30
0.0
 11
168.870257
 21
227.58649
 31
0.0
  0
LINE
  5
AD2E
330
AB80
100
AcDbEntity
  8
1
  6
Continuous
100
AcDbLine
 10
165.6692469999998
 20
227.58649
 30
0.0
 11
165.6692469999998
 21
225.87149
 31
0.0
  0
LINE
  5
AD2F
330
AB80
100
AcDbEntity
  8
1
  6
Continuous
100
AcDbLine
 10
168.09483
 20
225.87149
 30
0.0
 11
166.04183
 21
227.58649
 31
0.0
  0
LINE
  5
AD30
330
AB80
100
AcDbEntity
  8
1
  6
Continuous
100
AcDbLine
 10
180.959393
 20
225.87149
 30
0.0
 11
183.012393
 21
227.58649
 31
0.0
  0
LINE
  5
AD31
330
AB80
100
AcDbEntity
  8
1
  6
Continuous
100
AcDbLine
 10
182.2369659999999
 20
225.87149
 30
0.0
 11
180.1839659999999
 21
227.58649
 31
0.0
  0
LINE
  5
AD32
330
AB80
100
AcDbEntity
  8
1
  6
Continuous
100
AcDbLine
 10
166.4941629999999
 20
229.068751
 30
0.0
 11
210.844331
 21
229.068751
 31
0.0
  0
LINE
  5
AD33
330
AB80
100
AcDbEntity
  8
1
  6
Continuous
100
AcDbLine
 10
165.6692469999998
 20
227.58649
 30
0.0
 11
211.669247
 21
227.58649
 31
0.0
  0
LINE
  5
AD34
330
AB80
100
AcDbEntity
  8
1
  6
Continuous
100
AcDbLine
 10
205.3161
 20
232.571816
 30
0.0
 11
172.0223939999999
 21
232.571816
 31
0.0
  0
LINE
  5
AD35
330
AB80
100
AcDbEntity
  8
1
  6
Continuous
100
AcDbLine
 10
203.680354
 20
236.571816
 30
0.0
 11
173.65814
 21
236.571816
 31
0.0
  0
ARC
  5
AD36
330
AB80
100
AcDbEntity
  8
1
  6
Continuous
100
AcDbCircle
 10
165.9431329999999
 20
228.148898
 30
0.0
 40
0.9569799999999998
100
AcDbArc
 50
106.011913
 51
155.9597349999999
  0
ARC
  5
AD37
330
AB80
100
AcDbEntity
  8
1
  6
Continuous
100
AcDbCircle
 10
169.2806449999999
 20
230.6189779999999
 30
0.0
 40
4.697225
100
AcDbArc
 50
206.286695
 51
220.210037
  0
LINE
  5
AD38
330
AB80
100
AcDbEntity
  8
1
  6
Continuous
100
AcDbLine
 10
181.1636929999998
 20
236.571816
 30
0.0
 11
181.1636929999998
 21
232.571816
 31
0.0
  0
LINE
  5
AD39
330
AB80
100
AcDbEntity
  8
1
  6
Continuous
100
AcDbLine
 10
165.6692469999998
 20
227.2139069999998
 30
0.0
 11
166.04183
 21
227.58649
 31
0.0
  0
LINE
  5
AD3A
330
AB80
100
AcDbEntity
  8
1
  6
Continuous
100
AcDbLine
 10
165.6791629999998
 20
229.068751
 30
0.0
 11
166.4941629999999
 21
229.068751
 31
0.0
  0
ARC
  5
AD3B
330
AB80
100
AcDbEntity
  8
1
  6
Continuous
100
AcDbCircle
 10
172.0223939999999
 20
226.4581979999999
 30
0.0
 40
6.113617999999997
100
AcDbArc
 50
90.0
 51
154.722278
  0
LINE
  5
AD3C
330
AB80
100
AcDbEntity
  8
1
  6
Continuous
100
AcDbLine
 10
173.65814
 20
236.571816
 30
0.0
 11
173.65814
 21
232.571816
 31
0.0
  0
LINE
  5
AD3D
330
AB80
100
AcDbEntity
  8
1
  6
Continuous
100
AcDbLine
 10
196.1748
 20
236.571816
 30
0.0
 11
196.1748
 21
232.571816
 31
0.0
  0
ARC
  5
AD3E
330
AB80
100
AcDbEntity
  8
1
  6
Continuous
100
AcDbCircle
 10
211.39536
 20
228.148898
 30
0.0
 40
0.9569799999999998
100
AcDbArc
 50
24.04026499999999
 51
73.98808699999998
  0
ARC
  5
AD3F
330
AB80
100
AcDbEntity
  8
1
  6
Continuous
100
AcDbCircle
 10
208.057849
 20
230.6189779999999
 30
0.0
 40
4.697225
100
AcDbArc
 50
319.789963
 51
333.713305
  0
LINE
  5
AD40
330
AB80
100
AcDbEntity
  8
1
  6
Continuous
100
AcDbLine
 10
211.659331
 20
229.068751
 30
0.0
 11
210.844331
 21
229.068751
 31
0.0
  0
LINE
  5
AD41
330
AB80
100
AcDbEntity
  8
1
  6
Continuous
100
AcDbLine
 10
211.669247
 20
227.2139069999998
 30
0.0
 11
211.2966639999999
 21
227.58649
 31
0.0
  0
ARC
  5
AD42
330
AB80
100
AcDbEntity
  8
1
  6
Continuous
100
AcDbCircle
 10
205.3161
 20
226.4581979999999
 30
0.0
 40
6.113617999999997
100
AcDbArc
 50
25.277722
 51
90.0
  0
LINE
  5
AD43
330
AB80
100
AcDbEntity
  8
1
  6
Continuous
100
AcDbLine
 10
203.680354
 20
236.571816
 30
0.0
 11
203.680354
 21
232.571816
 31
0.0
  0
LINE
  5
AD44
330
AB80
100
AcDbEntity
  8
1
  6
Continuous
100
AcDbLine
 10
177.969247
 20
274.6718159999999
 30
0.0
 11
199.369247
 21
274.6718159999999
 31
0.0
  0
LINE
  5
AD45
330
AB80
100
AcDbEntity
  8
1
  6
Continuous
100
AcDbLine
 10
194.6692469999999
 20
275.571816
 30
0.0
 11
193.6692469999999
 21
276.571816
 31
0.0
  0
LINE
  5
AD46
330
AB80
100
AcDbEntity
  8
1
  6
Continuous
100
AcDbLine
 10
194.6692469999999
 20
274.6718159999999
 30
0.0
 11
194.6692469999999
 21
275.571816
 31
0.0
  0
LINE
  5
AD47
330
AB80
100
AcDbEntity
  8
1
  6
Continuous
100
AcDbLine
 10
193.6692469999999
 20
276.571816
 30
0.0
 11
183.6692469999999
 21
276.571816
 31
0.0
  0
LINE
  5
AD48
330
AB80
100
AcDbEntity
  8
1
  6
Continuous
100
AcDbLine
 10
182.6692469999999
 20
274.6718159999999
 30
0.0
 11
182.6692469999999
 21
275.571816
 31
0.0
  0
LINE
  5
AD49
330
AB80
100
AcDbEntity
  8
1
  6
Continuous
100
AcDbLine
 10
182.6692469999999
 20
275.571816
 30
0.0
 11
183.6692469999999
 21
276.571816
 31
0.0
  0
LINE
  5
AD4A
330
AB80
100
AcDbEntity
  8
1
  6
Continuous
100
AcDbLine
 10
194.6692469999999
 20
275.571816
 30
0.0
 11
182.6692469999999
 21
275.571816
 31
0.0
  0
LINE
  5
AD4B
330
AB80
100
AcDbEntity
  8
2
  6
Continuous
100
AcDbLine
 10
193.722247
 20
274.6718159999999
 30
0.0
 11
193.722247
 21
276.518816
 31
0.0
  0
LINE
  5
AD4C
330
AB80
100
AcDbEntity
  8
2
  6
Continuous
100
AcDbLine
 10
183.6162469999999
 20
274.6718159999999
 30
0.0
 11
183.6162469999999
 21
276.518816
 31
0.0
  0
ARC
  5
AD4D
330
AB80
100
AcDbEntity
  8
1
  6
Continuous
100
AcDbCircle
 10
280.4240549999999
 20
156.5511649999999
 30
0.0
 40
60.0
100
AcDbArc
 50
81.20170599999999
 51
82.30327199999997
  0
LINE
  5
AD4E
330
AB80
100
AcDbEntity
  8
1
  6
Continuous
100
AcDbLine
 10
71.674222
 20
166.44706
 30
0.0
 11
70.204661
 21
160.43756
 31
0.0
  0
LINE
  5
AD4F
330
AB80
100
AcDbEntity
  8
1
  6
Continuous
100
AcDbLine
 10
46.7351
 20
166.44706
 30
0.0
 11
48.204661
 21
160.43756
 31
0.0
  0
LINE
  5
AD50
330
AB80
100
AcDbEntity
  8
1
  6
Continuous
100
AcDbLine
 10
69.704661
 20
214.3750809999999
 30
0.0
 11
69.704661
 21
143.767988
 31
0.0
  0
LINE
  5
AD51
330
AB80
100
AcDbEntity
  8
1
  6
Continuous
100
AcDbLine
 10
48.704661
 20
214.3750809999999
 30
0.0
 11
48.704661
 21
143.767988
 31
0.0
  0
LINE
  5
AD52
330
AB80
100
AcDbEntity
  8
1
  6
Continuous
100
AcDbLine
 10
48.204661
 20
197.705509
 30
0.0
 11
48.204661
 21
160.43756
 31
0.0
  0
LINE
  5
AD53
330
AB80
100
AcDbEntity
  8
1
  6
Continuous
100
AcDbLine
 10
70.204661
 20
197.705509
 30
0.0
 11
70.204661
 21
160.43756
 31
0.0
  0
ARC
  5
AD54
330
AB80
100
AcDbEntity
  8
1
  6
Continuous
100
AcDbCircle
 10
59.204661
 20
201.571535
 30
0.0
 40
60.0
100
AcDbArc
 50
261.1501169999999
 51
278.850931
  0
ARC
  5
AD55
330
AB80
100
AcDbEntity
  8
1
  6
Continuous
100
AcDbCircle
 10
50.204661
 20
143.767988
 30
0.0
 40
1.5
100
AcDbArc
 50
180.0
 51
261.1501169999999
  0
LINE
  5
AD56
330
AB80
100
AcDbEntity
  8
1
  6
Continuous
100
AcDbLine
 10
48.704661
 20
160.148885
 30
0.0
 11
48.204661
 21
160.43756
 31
0.0
  0
ARC
  5
AD57
330
AB80
100
AcDbEntity
  8
1
  6
Continuous
100
AcDbCircle
 10
68.204661
 20
143.767988
 30
0.0
 40
1.5
100
AcDbArc
 50
278.8498829999999
 51
0.0
  0
LINE
  5
AD58
330
AB80
100
AcDbEntity
  8
1
  6
Continuous
100
AcDbLine
 10
69.704661
 20
160.148885
 30
0.0
 11
70.204661
 21
160.43756
 31
0.0
  0
LINE
  5
AD59
330
AB80
100
AcDbEntity
  8
1
  6
Continuous
100
AcDbLine
 10
46.704661
 20
166.523759
 30
0.0
 11
46.704661
 21
191.61931
 31
0.0
  0
LINE
  5
AD5A
330
AB80
100
AcDbEntity
  8
1
  6
Continuous
100
AcDbLine
 10
44.704661
 20
167.726235
 30
0.0
 11
44.704661
 21
190.416834
 31
0.0
  0
LINE
  5
AD5B
330
AB80
100
AcDbEntity
  8
1
  6
Continuous
100
AcDbLine
 10
42.69616099999999
 20
183.071535
 30
0.0
 11
44.704661
 21
183.071535
 31
0.0
  0
LINE
  5
AD5C
330
AB80
100
AcDbEntity
  8
1
  6
Continuous
100
AcDbLine
 10
46.593687
 20
166.635606
 30
0.0
 11
44.704661
 21
167.726235
 31
0.0
  0
LINE
  5
AD5D
330
AB80
100
AcDbEntity
  8
1
  6
Continuous
100
AcDbLine
 10
42.69616099999999
 20
175.071535
 30
0.0
 11
44.704661
 21
175.071535
 31
0.0
  0
ARC
  5
AD5E
330
AB80
100
AcDbEntity
  8
1
  6
Continuous
100
AcDbCircle
 10
46.443687
 20
166.3757979999998
 30
0.0
 40
0.3
100
AcDbArc
 50
13.741415
 51
60.0
  0
LINE
  5
AD5F
330
AB80
100
AcDbEntity
  8
1
  6
Continuous
100
AcDbLine
 10
46.593687
 20
191.507464
 30
0.0
 11
44.704661
 21
190.416834
 31
0.0
  0
LINE
  5
AD60
330
AB80
100
AcDbEntity
  8
1
  6
Continuous
100
AcDbLine
 10
46.7351
 20
191.696009
 30
0.0
 11
48.204661
 21
197.705509
 31
0.0
  0
ARC
  5
AD61
330
AB80
100
AcDbEntity
  8
1
  6
Continuous
100
AcDbCircle
 10
46.443687
 20
191.7672709999999
 30
0.0
 40
0.3
100
AcDbArc
 50
300.0
 51
346.2585849999999
  0
LINE
  5
AD62
330
AB80
100
AcDbEntity
  8
1
  6
Continuous
100
AcDbLine
 10
48.704661
 20
197.994184
 30
0.0
 11
48.204661
 21
197.705509
 31
0.0
  0
LINE
  5
AD63
330
AB80
100
AcDbEntity
  8
1
  6
Continuous
100
AcDbLine
 10
71.704661
 20
166.523759
 30
0.0
 11
71.704661
 21
191.61931
 31
0.0
  0
LINE
  5
AD64
330
AB80
100
AcDbEntity
  8
1
  6
Continuous
100
AcDbLine
 10
73.704661
 20
167.726235
 30
0.0
 11
73.704661
 21
190.416834
 31
0.0
  0
LINE
  5
AD65
330
AB80
100
AcDbEntity
  8
1
  6
Continuous
100
AcDbLine
 10
75.713161
 20
183.071535
 30
0.0
 11
73.704661
 21
183.071535
 31
0.0
  0
LINE
  5
AD66
330
AB80
100
AcDbEntity
  8
1
  6
Continuous
100
AcDbLine
 10
75.713161
 20
175.071535
 30
0.0
 11
73.704661
 21
175.071535
 31
0.0
  0
ARC
  5
AD67
330
AB80
100
AcDbEntity
  8
1
  6
Continuous
100
AcDbCircle
 10
71.96563499999998
 20
166.3757979999998
 30
0.0
 40
0.3
100
AcDbArc
 50
119.9999999999999
 51
166.258585
  0
LINE
  5
AD68
330
AB80
100
AcDbEntity
  8
1
  6
Continuous
100
AcDbLine
 10
71.815635
 20
166.635606
 30
0.0
 11
73.704661
 21
167.726235
 31
0.0
  0
LINE
  5
AD69
330
AB80
100
AcDbEntity
  8
1
  6
Continuous
100
AcDbLine
 10
69.704661
 20
197.994184
 30
0.0
 11
70.204661
 21
197.705509
 31
0.0
  0
LINE
  5
AD6A
330
AB80
100
AcDbEntity
  8
1
  6
Continuous
100
AcDbLine
 10
71.674222
 20
191.696009
 30
0.0
 11
70.204661
 21
197.705509
 31
0.0
  0
ARC
  5
AD6B
330
AB80
100
AcDbEntity
  8
1
  6
Continuous
100
AcDbCircle
 10
71.96563499999998
 20
191.7672709999999
 30
0.0
 40
0.3
100
AcDbArc
 50
193.741415
 51
239.9999999999999
  0
LINE
  5
AD6C
330
AB80
100
AcDbEntity
  8
1
  6
Continuous
100
AcDbLine
 10
71.815635
 20
191.507464
 30
0.0
 11
73.704661
 21
190.416834
 31
0.0
  0
ARC
  5
AD6D
330
AB80
100
AcDbEntity
  8
1
  6
Continuous
100
AcDbCircle
 10
59.225341
 20
156.551211
 30
0.0
 40
60.0
100
AcDbArc
 50
81.20170599999999
 51
98.902519
  0
ARC
  5
AD6E
330
AB80
100
AcDbEntity
  8
1
  6
Continuous
100
AcDbCircle
 10
50.204661
 20
214.3750809999999
 30
0.0
 40
1.5
100
AcDbArc
 50
98.84988300000001
 51
180.0
  0
ARC
  5
AD6F
330
AB80
100
AcDbEntity
  8
1
  6
Continuous
100
AcDbCircle
 10
68.204661
 20
214.3750809999999
 30
0.0
 40
1.5
100
AcDbArc
 50
0.0
 51
81.15011700000001
  0
ARC
  5
AD70
330
AB80
100
AcDbEntity
  8
1
  6
Continuous
100
AcDbCircle
 10
280.4240549999999
 20
156.5511649999999
 30
0.0
 40
60.0
100
AcDbArc
 50
97.74288099999999
 51
98.902519
  0
LINE
  5
AD71
330
AB80
100
AcDbEntity
  8
4
  6
CENTER
100
AcDbLine
 10
397.1375039999998
 20
136.5714899999999
 30
0.0
 11
397.1375039999998
 21
219.57149
 31
0.0
  0
ARC
  5
AD72
330
AB80
100
AcDbEntity
  8
1
  6
Continuous
100
AcDbCircle
 10
397.1375039999998
 20
178.0714899999999
 30
0.0
 40
10.5
100
AcDbArc
 50
211.136199
 51
9.004619999999997
  0
LINE
  5
AD73
330
AB80
100
AcDbEntity
  8
1
  6
Continuous
100
AcDbLine
 10
363.80281
 20
213.442232
 30
0.0
 11
388.150128
 21
172.64221
 31
0.0
  0
ARC
  5
AD74
330
AB80
100
AcDbEntity
  8
1
  6
Continuous
100
AcDbCircle
 10
397.1375039999998
 20
179.0714899999999
 30
0.0
 40
12.5
100
AcDbArc
 50
182.5877099999999
 51
42.83294699999999
  0
ARC
  5
AD75
330
AB80
100
AcDbEntity
  8
1
  6
Continuous
100
AcDbCircle
 10
397.1375039999998
 20
179.0714899999999
 30
0.0
 40
28.0
100
AcDbArc
 50
143.9862819999999
 51
76.94200499999998
  0
ARC
  5
AD76
330
AB80
100
AcDbEntity
  8
1
  6
Continuous
100
AcDbCircle
 10
397.1375039999998
 20
179.0714899999999
 30
0.0
 40
19.5
100
AcDbArc
 50
155.210272
 51
66.597493
  0
ARC
  5
AD77
330
AB80
100
AcDbEntity
  8
1
  6
Continuous
100
AcDbCircle
 10
397.1375039999998
 20
179.0714899999999
 30
0.0
 40
37.5
100
AcDbArc
 50
137.903804
 51
82.60460999999997
  0
LINE
  5
AD78
330
AB80
100
AcDbEntity
  8
4
  6
CENTER
100
AcDbLine
 10
354.637504
 20
179.0714899999999
 30
0.0
 11
439.6375039999998
 21
179.0714899999999
 31
0.0
  0
LINE
  5
AD79
330
AB80
100
AcDbEntity
  8
1
  6
Continuous
100
AcDbLine
 10
390.1375039999999
 20
223.57149
 30
0.0
 11
404.137504
 21
223.57149
 31
0.0
  0
ARC
  5
AD7A
330
AB80
100
AcDbEntity
  8
1
  6
Continuous
100
AcDbCircle
 10
393.4703139999998
 20
222.8714899999999
 30
0.0
 40
3.0
100
AcDbArc
 50
13.49339899999998
 51
90.0
  0
LINE
  5
AD7B
330
AB80
100
AcDbEntity
  8
1
  6
Continuous
100
AcDbLine
 10
400.8582699999998
 20
223.57149
 30
0.0
 11
407.589776
 21
179.0714899999999
 31
0.0
  0
LINE
  5
AD7C
330
AB80
100
AcDbEntity
  8
1
  6
Continuous
100
AcDbLine
 10
401.001979
 20
221.2714899999999
 30
0.0
 11
404.137504
 21
221.2714899999999
 31
0.0
  0
LINE
  5
AD7D
330
AB80
100
AcDbEntity
  8
1
  6
Continuous
100
AcDbLine
 10
404.137504
 20
223.57149
 30
0.0
 11
404.137504
 21
221.2714899999999
 31
0.0
  0
LINE
  5
AD7E
330
AB80
100
AcDbEntity
  8
4
  6
CENTER
100
AcDbLine
 10
372.1375039999998
 20
281.571816
 30
0.0
 11
372.1375039999998
 21
206.763602
 31
0.0
  0
LINE
  5
AD7F
330
AB80
100
AcDbEntity
  8
1
  6
Continuous
100
AcDbLine
 10
347.3875039999999
 20
222.8714899999999
 30
0.0
 11
347.3875039999999
 21
218.27149
 31
0.0
  0
ARC
  5
AD80
330
AB80
100
AcDbEntity
  8
1
  6
Continuous
100
AcDbCircle
 10
355.243405
 20
208.27149
 30
0.0
 40
10.0
100
AcDbArc
 50
31.136199
 51
90.0
  0
LINE
  5
AD81
330
AB80
100
AcDbEntity
  8
1
  6
Continuous
100
AcDbLine
 10
347.3875039999999
 20
218.27149
 30
0.0
 11
355.243405
 21
218.27149
 31
0.0
  0
LINE
  5
AD82
330
AB80
100
AcDbEntity
  8
1
  6
Continuous
100
AcDbLine
 10
357.1931329999999
 20
218.079984
 30
0.0
 11
357.237504
 21
218.00899
 31
0.0
  0
ARC
  5
AD83
330
AB80
100
AcDbEntity
  8
1
  6
Continuous
100
AcDbCircle
 10
360.7409359999999
 20
223.8595239999999
 30
0.0
 40
7.848514999999999
100
AcDbArc
 50
225.396746
 51
269.083862
  0
LINE
  5
AD84
330
AB80
100
AcDbEntity
  8
1
  6
Continuous
100
AcDbLine
 10
361.573546
 20
216.012892
 30
0.0
 11
360.615446
 21
216.012012
 31
0.0
  0
LINE
  5
AD85
330
AB80
100
AcDbEntity
  8
1
  6
Continuous
100
AcDbLine
 10
349.1375039999998
 20
225.87149
 30
0.0
 11
395.1375039999999
 21
225.87149
 31
0.0
  0
LINE
  5
AD86
330
AB80
100
AcDbEntity
  8
1
  6
Continuous
100
AcDbLine
 10
362.876796
 20
225.87149
 30
0.0
 11
360.823796
 21
227.58649
 31
0.0
  0
LINE
  5
AD87
330
AB80
100
AcDbEntity
  8
1
  6
Continuous
100
AcDbLine
 10
361.5992229999998
 20
225.87149
 30
0.0
 11
363.652223
 21
227.58649
 31
0.0
  0
LINE
  5
AD88
330
AB80
100
AcDbEntity
  8
1
  6
Continuous
100
AcDbLine
 10
357.1263969999998
 20
236.571816
 30
0.0
 11
387.1486109999998
 21
236.571816
 31
0.0
  0
LINE
  5
AD89
330
AB80
100
AcDbEntity
  8
1
  6
Continuous
100
AcDbLine
 10
355.4906509999999
 20
232.571816
 30
0.0
 11
388.784357
 21
232.571816
 31
0.0
  0
LINE
  5
AD8A
330
AB80
100
AcDbEntity
  8
1
  6
Continuous
100
AcDbLine
 10
395.1375039999999
 20
227.58649
 30
0.0
 11
349.1375039999998
 21
227.58649
 31
0.0
  0
LINE
  5
AD8B
330
AB80
100
AcDbEntity
  8
1
  6
Continuous
100
AcDbLine
 10
394.312588
 20
229.068751
 30
0.0
 11
349.9624199999999
 21
229.068751
 31
0.0
  0
LINE
  5
AD8C
330
AB80
100
AcDbEntity
  8
1
  6
Continuous
100
AcDbLine
 10
379.847358
 20
225.87149
 30
0.0
 11
377.794358
 21
227.58649
 31
0.0
  0
LINE
  5
AD8D
330
AB80
100
AcDbEntity
  8
1
  6
Continuous
100
AcDbLine
 10
378.569785
 20
225.87149
 30
0.0
 11
380.622785
 21
227.58649
 31
0.0
  0
LINE
  5
AD8E
330
AB80
100
AcDbEntity
  8
1
  6
Continuous
100
AcDbLine
 10
382.675785
 20
225.87149
 30
0.0
 11
380.622785
 21
227.58649
 31
0.0
  0
LINE
  5
AD8F
330
AB80
100
AcDbEntity
  8
1
  6
Continuous
100
AcDbLine
 10
385.504213
 20
225.87149
 30
0.0
 11
383.451213
 21
227.58649
 31
0.0
  0
LINE
  5
AD90
330
AB80
100
AcDbEntity
  8
1
  6
Continuous
100
AcDbLine
 10
388.3326399999999
 20
225.87149
 30
0.0
 11
386.2796399999999
 21
227.58649
 31
0.0
  0
LINE
  5
AD91
330
AB80
100
AcDbEntity
  8
1
  6
Continuous
100
AcDbLine
 10
391.1610669999999
 20
225.87149
 30
0.0
 11
389.108067
 21
227.58649
 31
0.0
  0
LINE
  5
AD92
330
AB80
100
AcDbEntity
  8
1
  6
Continuous
100
AcDbLine
 10
393.9894939999999
 20
225.87149
 30
0.0
 11
391.9364939999999
 21
227.58649
 31
0.0
  0
LINE
  5
AD93
330
AB80
100
AcDbEntity
  8
1
  6
Continuous
100
AcDbLine
 10
381.3982129999999
 20
225.87149
 30
0.0
 11
383.451213
 21
227.58649
 31
0.0
  0
LINE
  5
AD94
330
AB80
100
AcDbEntity
  8
1
  6
Continuous
100
AcDbLine
 10
384.2266399999999
 20
225.87149
 30
0.0
 11
386.2796399999999
 21
227.58649
 31
0.0
  0
LINE
  5
AD95
330
AB80
100
AcDbEntity
  8
1
  6
Continuous
100
AcDbLine
 10
387.055067
 20
225.87149
 30
0.0
 11
389.108067
 21
227.58649
 31
0.0
  0
LINE
  5
AD96
330
AB80
100
AcDbEntity
  8
1
  6
Continuous
100
AcDbLine
 10
389.883494
 20
225.87149
 30
0.0
 11
391.9364939999999
 21
227.58649
 31
0.0
  0
LINE
  5
AD97
330
AB80
100
AcDbEntity
  8
1
  6
Continuous
100
AcDbLine
 10
395.1375039999999
 20
227.58649
 30
0.0
 11
395.1375039999999
 21
225.87149
 31
0.0
  0
LINE
  5
AD98
330
AB80
100
AcDbEntity
  8
1
  6
Continuous
100
AcDbLine
 10
392.711921
 20
225.87149
 30
0.0
 11
394.764921
 21
227.58649
 31
0.0
  0
LINE
  5
AD99
330
AB80
100
AcDbEntity
  8
1
  6
Continuous
100
AcDbLine
 10
387.1486109999998
 20
236.571816
 30
0.0
 11
387.1486109999998
 21
232.571816
 31
0.0
  0
ARC
  5
AD9A
330
AB80
100
AcDbEntity
  8
1
  6
Continuous
100
AcDbCircle
 10
388.784357
 20
226.4581979999999
 30
0.0
 40
6.113617999999997
100
AcDbArc
 50
25.277722
 51
90.0
  0
LINE
  5
AD9B
330
AB80
100
AcDbEntity
  8
1
  6
Continuous
100
AcDbLine
 10
395.127588
 20
229.068751
 30
0.0
 11
394.312588
 21
229.068751
 31
0.0
  0
LINE
  5
AD9C
330
AB80
100
AcDbEntity
  8
1
  6
Continuous
100
AcDbLine
 10
395.1375039999999
 20
227.2139069999998
 30
0.0
 11
394.764921
 21
227.58649
 31
0.0
  0
LINE
  5
AD9D
330
AB80
100
AcDbEntity
  8
1
  6
Continuous
100
AcDbLine
 10
379.6430579999998
 20
236.571816
 30
0.0
 11
379.6430579999998
 21
232.571816
 31
0.0
  0
ARC
  5
AD9E
330
AB80
100
AcDbEntity
  8
1
  6
Continuous
100
AcDbCircle
 10
391.526106
 20
230.6189779999999
 30
0.0
 40
4.697225
100
AcDbArc
 50
319.789963
 51
333.713305
  0
ARC
  5
AD9F
330
AB80
100
AcDbEntity
  8
1
  6
Continuous
100
AcDbCircle
 10
394.8636179999999
 20
228.148898
 30
0.0
 40
0.9569799999999998
100
AcDbArc
 50
24.04026499999999
 51
73.98808699999998
  0
LINE
  5
ADA0
330
AB80
100
AcDbEntity
  8
1
  6
Continuous
100
AcDbLine
 10
374.1905039999999
 20
225.87149
 30
0.0
 11
372.1375039999998
 21
227.58649
 31
0.0
  0
LINE
  5
ADA1
330
AB80
100
AcDbEntity
  8
1
  6
Continuous
100
AcDbLine
 10
371.3620769999999
 20
225.87149
 30
0.0
 11
369.3090769999998
 21
227.58649
 31
0.0
  0
LINE
  5
ADA2
330
AB80
100
AcDbEntity
  8
1
  6
Continuous
100
AcDbLine
 10
368.53365
 20
225.87149
 30
0.0
 11
366.48065
 21
227.58649
 31
0.0
  0
LINE
  5
ADA3
330
AB80
100
AcDbEntity
  8
1
  6
Continuous
100
AcDbLine
 10
365.705223
 20
225.87149
 30
0.0
 11
363.652223
 21
227.58649
 31
0.0
  0
LINE
  5
ADA4
330
AB80
100
AcDbEntity
  8
1
  6
Continuous
100
AcDbLine
 10
377.018931
 20
225.87149
 30
0.0
 11
374.965931
 21
227.58649
 31
0.0
  0
LINE
  5
ADA5
330
AB80
100
AcDbEntity
  8
1
  6
Continuous
100
AcDbLine
 10
370.0845039999999
 20
225.87149
 30
0.0
 11
372.1375039999998
 21
227.58649
 31
0.0
  0
LINE
  5
ADA6
330
AB80
100
AcDbEntity
  8
1
  6
Continuous
100
AcDbLine
 10
367.256077
 20
225.87149
 30
0.0
 11
369.3090769999998
 21
227.58649
 31
0.0
  0
LINE
  5
ADA7
330
AB80
100
AcDbEntity
  8
1
  6
Continuous
100
AcDbLine
 10
364.42765
 20
225.87149
 30
0.0
 11
366.48065
 21
227.58649
 31
0.0
  0
LINE
  5
ADA8
330
AB80
100
AcDbEntity
  8
1
  6
Continuous
100
AcDbLine
 10
372.912931
 20
225.87149
 30
0.0
 11
374.965931
 21
227.58649
 31
0.0
  0
LINE
  5
ADA9
330
AB80
100
AcDbEntity
  8
1
  6
Continuous
100
AcDbLine
 10
375.741358
 20
225.87149
 30
0.0
 11
377.794358
 21
227.58649
 31
0.0
  0
LINE
  5
ADAA
330
AB80
100
AcDbEntity
  8
1
  6
Continuous
100
AcDbLine
 10
364.6319509999998
 20
236.571816
 30
0.0
 11
364.6319509999998
 21
232.571816
 31
0.0
  0
ARC
  5
ADAB
330
AB80
100
AcDbEntity
  8
1
  6
Continuous
100
AcDbCircle
 10
350.8189279999998
 20
222.409827
 30
0.0
 40
3.462340999999999
100
AcDbArc
 50
88.86512399999999
 51
172.3374649999999
  0
LINE
  5
ADAC
330
AB80
100
AcDbEntity
  8
1
  6
Continuous
100
AcDbLine
 10
349.1375039999998
 20
227.58649
 30
0.0
 11
349.1375039999998
 21
225.87149
 31
0.0
  0
LINE
  5
ADAD
330
AB80
100
AcDbEntity
  8
1
  6
Continuous
100
AcDbLine
 10
360.0483679999999
 20
225.87149
 30
0.0
 11
357.995368
 21
227.58649
 31
0.0
  0
LINE
  5
ADAE
330
AB80
100
AcDbEntity
  8
1
  6
Continuous
100
AcDbLine
 10
357.219941
 20
225.87149
 30
0.0
 11
355.166941
 21
227.58649
 31
0.0
  0
LINE
  5
ADAF
330
AB80
100
AcDbEntity
  8
1
  6
Continuous
100
AcDbLine
 10
354.3915139999999
 20
225.87149
 30
0.0
 11
352.3385139999998
 21
227.58649
 31
0.0
  0
LINE
  5
ADB0
330
AB80
100
AcDbEntity
  8
1
  6
Continuous
100
AcDbLine
 10
351.5630869999998
 20
225.87149
 30
0.0
 11
349.5100869999998
 21
227.58649
 31
0.0
  0
LINE
  5
ADB1
330
AB80
100
AcDbEntity
  8
1
  6
Continuous
100
AcDbLine
 10
358.770796
 20
225.87149
 30
0.0
 11
360.823796
 21
227.58649
 31
0.0
  0
LINE
  5
ADB2
330
AB80
100
AcDbEntity
  8
1
  6
Continuous
100
AcDbLine
 10
355.942368
 20
225.87149
 30
0.0
 11
357.995368
 21
227.58649
 31
0.0
  0
LINE
  5
ADB3
330
AB80
100
AcDbEntity
  8
1
  6
Continuous
100
AcDbLine
 10
353.113941
 20
225.87149
 30
0.0
 11
355.166941
 21
227.58649
 31
0.0
  0
LINE
  5
ADB4
330
AB80
100
AcDbEntity
  8
1
  6
Continuous
100
AcDbLine
 10
350.2855139999998
 20
225.87149
 30
0.0
 11
352.3385139999998
 21
227.58649
 31
0.0
  0
LINE
  5
ADB5
330
AB80
100
AcDbEntity
  8
1
  6
Continuous
100
AcDbLine
 10
357.1263969999998
 20
236.571816
 30
0.0
 11
357.1263969999998
 21
232.571816
 31
0.0
  0
ARC
  5
ADB6
330
AB80
100
AcDbEntity
  8
1
  6
Continuous
100
AcDbCircle
 10
355.4906509999999
 20
226.4581979999999
 30
0.0
 40
6.113617999999997
100
AcDbArc
 50
90.0
 51
154.722278
  0
LINE
  5
ADB7
330
AB80
100
AcDbEntity
  8
1
  6
Continuous
100
AcDbLine
 10
349.1375039999998
 20
227.2139069999998
 30
0.0
 11
349.5100869999998
 21
227.58649
 31
0.0
  0
LINE
  5
ADB8
330
AB80
100
AcDbEntity
  8
1
  6
Continuous
100
AcDbLine
 10
349.14742
 20
229.068751
 30
0.0
 11
349.9624199999999
 21
229.068751
 31
0.0
  0
ARC
  5
ADB9
330
AB80
100
AcDbEntity
  8
1
  6
Continuous
100
AcDbCircle
 10
352.7489019999999
 20
230.6189779999999
 30
0.0
 40
4.697225
100
AcDbArc
 50
206.286695
 51
220.210037
  0
ARC
  5
ADBA
330
AB80
100
AcDbEntity
  8
1
  6
Continuous
100
AcDbCircle
 10
349.4113909999999
 20
228.148898
 30
0.0
 40
0.9569799999999998
100
AcDbArc
 50
106.011913
 51
155.9597349999999
  0
LINE
  5
ADBB
330
AB80
100
AcDbEntity
  8
1
  6
Continuous
100
AcDbLine
 10
382.837504
 20
274.6718159999999
 30
0.0
 11
361.437504
 21
274.6718159999999
 31
0.0
  0
LINE
  5
ADBC
330
AB80
100
AcDbEntity
  8
2
  6
Continuous
100
AcDbLine
 10
377.190504
 20
274.6718159999999
 30
0.0
 11
377.190504
 21
276.518816
 31
0.0
  0
LINE
  5
ADBD
330
AB80
100
AcDbEntity
  8
2
  6
Continuous
100
AcDbLine
 10
367.0845039999999
 20
274.6718159999999
 30
0.0
 11
367.0845039999999
 21
276.518816
 31
0.0
  0
LINE
  5
ADBE
330
AB80
100
AcDbEntity
  8
1
  6
Continuous
100
AcDbLine
 10
366.1375039999999
 20
275.571816
 30
0.0
 11
378.1375039999999
 21
275.571816
 31
0.0
  0
LINE
  5
ADBF
330
AB80
100
AcDbEntity
  8
1
  6
Continuous
100
AcDbLine
 10
378.1375039999999
 20
275.571816
 30
0.0
 11
377.1375039999999
 21
276.571816
 31
0.0
  0
LINE
  5
ADC0
330
AB80
100
AcDbEntity
  8
1
  6
Continuous
100
AcDbLine
 10
378.1375039999999
 20
274.6718159999999
 30
0.0
 11
378.1375039999999
 21
275.571816
 31
0.0
  0
LINE
  5
ADC1
330
AB80
100
AcDbEntity
  8
1
  6
Continuous
100
AcDbLine
 10
367.137504
 20
276.571816
 30
0.0
 11
377.1375039999999
 21
276.571816
 31
0.0
  0
LINE
  5
ADC2
330
AB80
100
AcDbEntity
  8
1
  6
Continuous
100
AcDbLine
 10
366.1375039999999
 20
274.6718159999999
 30
0.0
 11
366.1375039999999
 21
275.571816
 31
0.0
  0
LINE
  5
ADC3
330
AB80
100
AcDbEntity
  8
1
  6
Continuous
100
AcDbLine
 10
366.1375039999999
 20
275.571816
 30
0.0
 11
367.137504
 21
276.571816
 31
0.0
  0
CIRCLE
  5
ADC4
330
AB80
100
AcDbEntity
  8
1
  6
Continuous
100
AcDbCircle
 10
397.1375039999998
 20
179.0714899999999
 30
0.0
 40
5.75
  0
ARC
  5
ADC5
330
AB80
100
AcDbEntity
  8
1
  6
Continuous
100
AcDbCircle
 10
168.634232
 20
105.409709
 30
0.0
 40
12.0
100
AcDbArc
 50
270.0
 51
303.036175
  0
ARC
  5
ADC6
330
AB80
100
AcDbEntity
  8
1
  6
Continuous
100
AcDbCircle
 10
168.634232
 20
105.409709
 30
0.0
 40
14.3
100
AcDbArc
 50
270.0
 51
303.036175
  0
ARC
  5
ADC7
330
AB80
100
AcDbEntity
  8
1
  6
Continuous
100
AcDbCircle
 10
168.634232
 20
43.792709
 30
0.0
 40
14.3
100
AcDbArc
 50
56.963825
 51
90.0
  0
ARC
  5
ADC8
330
AB80
100
AcDbEntity
  8
1
  6
Continuous
100
AcDbCircle
 10
168.634232
 20
43.792709
 30
0.0
 40
12.0
100
AcDbArc
 50
56.963825
 51
90.0
  0
LINE
  5
ADC9
330
AB80
100
AcDbEntity
  8
1
  6
Continuous
100
AcDbLine
 10
128.3657009999998
 20
85.10120899999998
 30
0.0
 11
198.972794
 21
85.10120899999998
 31
0.0
  0
LINE
  5
ADCA
330
AB80
100
AcDbEntity
  8
1
  6
Continuous
100
AcDbLine
 10
128.3657009999998
 20
64.10120899999999
 30
0.0
 11
198.972794
 21
64.10120899999999
 31
0.0
  0
ARC
  5
ADCB
330
AB80
100
AcDbEntity
  8
1
  6
Continuous
100
AcDbCircle
 10
141.169247
 20
74.60120899999998
 30
0.0
 40
60.0
100
AcDbArc
 50
351.1501169999998
 51
8.850930999999997
  0
ARC
  5
ADCC
330
AB80
100
AcDbEntity
  8
1
  6
Continuous
100
AcDbCircle
 10
198.972794
 20
65.601209
 30
0.0
 40
1.5
100
AcDbArc
 50
270.0
 51
351.1501169999998
  0
ARC
  5
ADCD
330
AB80
100
AcDbEntity
  8
1
  6
Continuous
100
AcDbCircle
 10
198.972794
 20
83.60120899999998
 30
0.0
 40
1.5
100
AcDbArc
 50
8.849883
 51
90.0
  0
LINE
  5
ADCE
330
AB80
100
AcDbEntity
  8
1
  6
Continuous
100
AcDbLine
 10
176.217023
 20
62.10120899999999
 30
0.0
 11
151.121472
 21
62.10120899999999
 31
0.0
  0
LINE
  5
ADCF
330
AB80
100
AcDbEntity
  8
1
  6
Continuous
100
AcDbLine
 10
145.0352729999998
 20
63.601209
 30
0.0
 11
182.3032219999998
 21
63.601209
 31
0.0
  0
LINE
  5
ADD0
330
AB80
100
AcDbEntity
  8
1
  6
Continuous
100
AcDbLine
 10
176.1051759999998
 20
61.990235
 30
0.0
 11
175.0145469999999
 21
60.101209
 31
0.0
  0
LINE
  5
ADD1
330
AB80
100
AcDbEntity
  8
1
  6
Continuous
100
AcDbLine
 10
175.0145469999999
 20
60.101209
 30
0.0
 11
152.3239479999998
 21
60.101209
 31
0.0
  0
LINE
  5
ADD2
330
AB80
100
AcDbEntity
  8
1
  6
Continuous
100
AcDbLine
 10
167.6692469999998
 20
58.092709
 30
0.0
 11
167.6692469999998
 21
60.101209
 31
0.0
  0
LINE
  5
ADD3
330
AB80
100
AcDbEntity
  8
1
  6
Continuous
100
AcDbLine
 10
176.2937219999998
 20
62.131648
 30
0.0
 11
182.3032219999998
 21
63.601209
 31
0.0
  0
LINE
  5
ADD4
330
AB80
100
AcDbEntity
  8
1
  6
Continuous
100
AcDbLine
 10
182.591897
 20
64.10120899999999
 30
0.0
 11
182.3032219999998
 21
63.601209
 31
0.0
  0
ARC
  5
ADD5
330
AB80
100
AcDbEntity
  8
1
  6
Continuous
100
AcDbCircle
 10
176.364984
 20
61.840235
 30
0.0
 40
0.3
100
AcDbArc
 50
103.741415
 51
150.0
  0
LINE
  5
ADD6
330
AB80
100
AcDbEntity
  8
1
  6
Continuous
100
AcDbLine
 10
151.2333179999999
 20
61.990235
 30
0.0
 11
152.3239479999998
 21
60.101209
 31
0.0
  0
LINE
  5
ADD7
330
AB80
100
AcDbEntity
  8
1
  6
Continuous
100
AcDbLine
 10
159.6692469999998
 20
58.092709
 30
0.0
 11
159.6692469999998
 21
60.101209
 31
0.0
  0
LINE
  5
ADD8
330
AB80
100
AcDbEntity
  8
1
  6
Continuous
100
AcDbLine
 10
151.0447729999999
 20
62.131648
 30
0.0
 11
145.0352729999998
 21
63.601209
 31
0.0
  0
ARC
  5
ADD9
330
AB80
100
AcDbEntity
  8
1
  6
Continuous
100
AcDbCircle
 10
150.973511
 20
61.840235
 30
0.0
 40
0.3
100
AcDbArc
 50
30.0
 51
76.25858499999998
  0
LINE
  5
ADDA
330
AB80
100
AcDbEntity
  8
1
  6
Continuous
100
AcDbLine
 10
144.746598
 20
64.10120899999999
 30
0.0
 11
145.0352729999998
 21
63.601209
 31
0.0
  0
LINE
  5
ADDB
330
AB80
100
AcDbEntity
  8
1
  6
Continuous
100
AcDbLine
 10
176.217023
 20
87.10120899999997
 30
0.0
 11
151.121472
 21
87.10120899999997
 31
0.0
  0
LINE
  5
ADDC
330
AB80
100
AcDbEntity
  8
1
  6
Continuous
100
AcDbLine
 10
145.0352729999998
 20
85.60120899999999
 30
0.0
 11
182.3032219999998
 21
85.60120899999999
 31
0.0
  0
LINE
  5
ADDD
330
AB80
100
AcDbEntity
  8
1
  6
Continuous
100
AcDbLine
 10
175.0145469999999
 20
89.10120899999999
 30
0.0
 11
152.3239479999998
 21
89.10120899999999
 31
0.0
  0
LINE
  5
ADDE
330
AB80
100
AcDbEntity
  8
1
  6
Continuous
100
AcDbLine
 10
182.591897
 20
85.10120899999998
 30
0.0
 11
182.3032219999998
 21
85.60120899999999
 31
0.0
  0
LINE
  5
ADDF
330
AB80
100
AcDbEntity
  8
1
  6
Continuous
100
AcDbLine
 10
176.2937219999998
 20
87.07076999999998
 30
0.0
 11
182.3032219999998
 21
85.60120899999999
 31
0.0
  0
ARC
  5
ADE0
330
AB80
100
AcDbEntity
  8
1
  6
Continuous
100
AcDbCircle
 10
176.364984
 20
87.362183
 30
0.0
 40
0.3
100
AcDbArc
 50
210.0
 51
256.258585
  0
LINE
  5
ADE1
330
AB80
100
AcDbEntity
  8
1
  6
Continuous
100
AcDbLine
 10
176.1051759999998
 20
87.21218299999998
 30
0.0
 11
175.0145469999999
 21
89.10120899999999
 31
0.0
  0
LINE
  5
ADE2
330
AB80
100
AcDbEntity
  8
1
  6
Continuous
100
AcDbLine
 10
167.6692469999998
 20
91.10970899999999
 30
0.0
 11
167.6692469999998
 21
89.10120899999999
 31
0.0
  0
LINE
  5
ADE3
330
AB80
100
AcDbEntity
  8
1
  6
Continuous
100
AcDbLine
 10
151.2333179999999
 20
87.21218299999998
 30
0.0
 11
152.3239479999998
 21
89.10120899999999
 31
0.0
  0
LINE
  5
ADE4
330
AB80
100
AcDbEntity
  8
1
  6
Continuous
100
AcDbLine
 10
159.6692469999998
 20
91.10970899999999
 30
0.0
 11
159.6692469999998
 21
89.10120899999999
 31
0.0
  0
LINE
  5
ADE5
330
AB80
100
AcDbEntity
  8
1
  6
Continuous
100
AcDbLine
 10
144.746598
 20
85.10120899999998
 30
0.0
 11
145.0352729999998
 21
85.60120899999999
 31
0.0
  0
LINE
  5
ADE6
330
AB80
100
AcDbEntity
  8
1
  6
Continuous
100
AcDbLine
 10
151.0447729999999
 20
87.07076999999998
 30
0.0
 11
145.0352729999998
 21
85.60120899999999
 31
0.0
  0
ARC
  5
ADE7
330
AB80
100
AcDbEntity
  8
1
  6
Continuous
100
AcDbCircle
 10
150.973511
 20
87.362183
 30
0.0
 40
0.3
100
AcDbArc
 50
283.741415
 51
330.0
  0
ARC
  5
ADE8
330
AB80
100
AcDbEntity
  8
1
  6
Continuous
100
AcDbCircle
 10
186.1692469999999
 20
74.60120899999998
 30
0.0
 40
60.0
100
AcDbArc
 50
171.1490689999999
 51
188.8498829999998
  0
ARC
  5
ADE9
330
AB80
100
AcDbEntity
  8
1
  6
Continuous
100
AcDbCircle
 10
128.3657
 20
65.601209
 30
0.0
 40
1.5
100
AcDbArc
 50
188.8498829999998
 51
270.0
  0
ARC
  5
ADEA
330
AB80
100
AcDbEntity
  8
1
  6
Continuous
100
AcDbCircle
 10
128.3657
 20
83.60120899999998
 30
0.0
 40
1.5
100
AcDbArc
 50
90.0
 51
171.150117
  0
ARC
  5
ADEB
330
AB80
100
AcDbEntity
  8
1
  6
Continuous
100
AcDbCircle
 10
188.6691719999998
 20
343.5054979999998
 30
0.0
 40
10.7
100
AcDbArc
 50
294.326207
 51
65.673793
  0
ARC
  5
ADEC
330
AB80
100
AcDbEntity
  8
1
  6
Continuous
100
AcDbCircle
 10
188.6691719999998
 20
343.5054979999998
 30
0.0
 40
10.7
100
AcDbArc
 50
114.326207
 51
245.673793
  0
LINE
  5
ADED
330
AB80
100
AcDbEntity
  8
1
  6
Continuous
100
AcDbLine
 10
382.837504
 20
270.6718159999999
 30
0.0
 11
361.437504
 21
270.6718159999999
 31
0.0
  0
LINE
  5
ADEE
330
AB80
100
AcDbEntity
  8
1
  6
Continuous
100
AcDbLine
 10
367.7298399999998
 20
274.6718159999999
 30
0.0
 11
367.7298399999998
 21
270.6718159999999
 31
0.0
  0
LINE
  5
ADEF
330
AB80
100
AcDbEntity
  8
1
  6
Continuous
100
AcDbLine
 10
376.5451679999998
 20
274.6718159999999
 30
0.0
 11
376.5451679999998
 21
270.6718159999999
 31
0.0
  0
LINE
  5
ADF0
330
AB80
100
AcDbEntity
  8
1
  6
Continuous
100
AcDbLine
 10
361.437504
 20
270.6718159999999
 30
0.0
 11
361.437504
 21
274.6718159999999
 31
0.0
  0
CIRCLE
  5
ADF1
330
AB80
100
AcDbEntity
  8
1
  6
Continuous
100
AcDbCircle
 10
188.6691719999998
 20
343.5054979999998
 30
0.0
 40
6.0
  0
LINE
  5
ADF2
330
AB80
100
AcDbEntity
  8
1
  6
Continuous
100
AcDbLine
 10
193.0768359999999
 20
333.755498
 30
0.0
 11
184.2615079999999
 21
333.755498
 31
0.0
  0
LINE
  5
ADF3
330
AB80
100
AcDbEntity
  8
1
  6
Continuous
100
AcDbLine
 10
382.837504
 20
270.6718159999999
 30
0.0
 11
382.837504
 21
274.6718159999999
 31
0.0
  0
LINE
  5
ADF4
330
AB80
100
AcDbEntity
  8
1
  6
Continuous
100
AcDbLine
 10
184.2615079999999
 20
353.255498
 30
0.0
 11
193.0768359999999
 21
353.255498
 31
0.0
  0
LINE
  5
ADF5
330
AB80
100
AcDbEntity
  8
1
  6
Continuous
100
AcDbLine
 10
361.6375039999998
 20
240.971816
 30
0.0
 11
382.6375039999998
 21
240.971816
 31
0.0
  0
LINE
  5
ADF6
330
AB80
100
AcDbEntity
  8
1
  6
Continuous
100
AcDbLine
 10
382.6375039999998
 20
269.6718159999999
 30
0.0
 11
382.6375039999998
 21
237.571816
 31
0.0
  0
LINE
  5
ADF7
330
AB80
100
AcDbEntity
  8
1
  6
Continuous
100
AcDbLine
 10
361.6375039999998
 20
269.6718159999999
 30
0.0
 11
361.6375039999998
 21
237.571816
 31
0.0
  0
ARC
  5
ADF8
330
AB80
100
AcDbEntity
  8
1
  6
Continuous
100
AcDbCircle
 10
381.637504
 20
269.6718159999999
 30
0.0
 40
1.0
100
AcDbArc
 50
0.0
 51
90.0
  0
ARC
  5
ADF9
330
AB80
100
AcDbEntity
  8
1
  6
Continuous
100
AcDbCircle
 10
362.6375039999999
 20
269.6718159999999
 30
0.0
 40
1.0
100
AcDbArc
 50
90.0
 51
180.0
  0
CIRCLE
  5
ADFA
330
AB80
100
AcDbEntity
  8
2
  6
Continuous
100
AcDbCircle
 10
188.6691719999998
 20
343.5054979999998
 30
0.0
 40
5.052999999999999
  0
LINE
  5
ADFB
330
AB80
100
AcDbEntity
  8
1
  6
Continuous
100
AcDbLine
 10
69.70464699999999
 20
269.671752
 30
0.0
 11
69.70464699999999
 21
237.571752
 31
0.0
  0
LINE
  5
ADFC
330
AB80
100
AcDbEntity
  8
1
  6
Continuous
100
AcDbLine
 10
48.70464699999999
 20
269.671752
 30
0.0
 11
48.70464699999999
 21
237.571752
 31
0.0
  0
LINE
  5
ADFD
330
AB80
100
AcDbEntity
  8
1
  6
Continuous
100
AcDbLine
 10
48.70464699999999
 20
240.971752
 30
0.0
 11
69.70464699999999
 21
240.971752
 31
0.0
  0
LINE
  5
ADFE
330
AB80
100
AcDbEntity
  8
1
  6
Continuous
100
AcDbLine
 10
49.45464699999998
 20
270.671752
 30
0.0
 11
68.95464699999999
 21
270.671752
 31
0.0
  0
LINE
  5
ADFF
330
AB80
100
AcDbEntity
  8
1
  6
Continuous
100
AcDbLine
 10
49.45464699999998
 20
270.671752
 30
0.0
 11
49.45464699999998
 21
274.671752
 31
0.0
  0
ARC
  5
AE00
330
AB80
100
AcDbEntity
  8
1
  6
Continuous
100
AcDbCircle
 10
49.70464699999999
 20
269.671752
 30
0.0
 40
1.0
100
AcDbArc
 50
90.0
 51
180.0
  0
LINE
  5
AE01
330
AB80
100
AcDbEntity
  8
1
  6
Continuous
100
AcDbLine
 10
68.95464699999999
 20
270.671752
 30
0.0
 11
68.95464699999999
 21
274.671752
 31
0.0
  0
ARC
  5
AE02
330
AB80
100
AcDbEntity
  8
1
  6
Continuous
100
AcDbCircle
 10
68.70464699999999
 20
269.671752
 30
0.0
 40
1.0
100
AcDbArc
 50
0.0
 51
90.0
  0
ARC
  5
AE03
330
AB80
100
AcDbEntity
  8
1
  6
Continuous
100
AcDbCircle
 10
49.70464699999999
 20
237.571752
 30
0.0
 40
1.0
100
AcDbArc
 50
180.0
 51
270.0
  0
ARC
  5
AE04
330
AB80
100
AcDbEntity
  8
1
  6
Continuous
100
AcDbCircle
 10
68.70464699999999
 20
237.571752
 30
0.0
 40
1.0
100
AcDbArc
 50
270.0
 51
0.0
  0
LINE
  5
AE05
330
AB80
100
AcDbEntity
  8
1
  6
Continuous
100
AcDbLine
 10
199.369247
 20
270.6718159999999
 30
0.0
 11
177.969247
 21
270.6718159999999
 31
0.0
  0
LINE
  5
AE06
330
AB80
100
AcDbEntity
  8
1
  6
Continuous
100
AcDbLine
 10
177.969247
 20
270.6718159999999
 30
0.0
 11
177.969247
 21
274.6718159999999
 31
0.0
  0
LINE
  5
AE07
330
AB80
100
AcDbEntity
  8
1
  6
Continuous
100
AcDbLine
 10
184.2615829999998
 20
274.6718159999999
 30
0.0
 11
184.2615829999998
 21
270.6718159999999
 31
0.0
  0
LINE
  5
AE08
330
AB80
100
AcDbEntity
  8
1
  6
Continuous
100
AcDbLine
 10
193.076911
 20
274.6718159999999
 30
0.0
 11
193.076911
 21
270.6718159999999
 31
0.0
  0
LINE
  5
AE09
330
AB80
100
AcDbEntity
  8
1
  6
Continuous
100
AcDbLine
 10
199.369247
 20
270.6718159999999
 30
0.0
 11
199.369247
 21
274.6718159999999
 31
0.0
  0
ARC
  5
AE0A
330
AB80
100
AcDbEntity
  8
1
  6
Continuous
100
AcDbCircle
 10
179.1692469999999
 20
269.6718159999999
 30
0.0
 40
1.0
100
AcDbArc
 50
90.0
 51
180.0
  0
ARC
  5
AE0B
330
AB80
100
AcDbEntity
  8
1
  6
Continuous
100
AcDbCircle
 10
198.1692469999999
 20
269.6718159999999
 30
0.0
 40
1.0
100
AcDbArc
 50
0.0
 51
90.0
  0
LINE
  5
AE0C
330
AB80
100
AcDbEntity
  8
1
  6
Continuous
100
AcDbLine
 10
178.1692469999999
 20
269.6718159999999
 30
0.0
 11
178.1692469999999
 21
237.571816
 31
0.0
  0
LINE
  5
AE0D
330
AB80
100
AcDbEntity
  8
1
  6
Continuous
100
AcDbLine
 10
178.1692469999999
 20
240.971816
 30
0.0
 11
199.1692469999999
 21
240.971816
 31
0.0
  0
LINE
  5
AE0E
330
AB80
100
AcDbEntity
  8
1
  6
Continuous
100
AcDbLine
 10
199.1692469999999
 20
269.6718159999999
 30
0.0
 11
199.1692469999999
 21
237.571816
 31
0.0
  0
ARC
  5
AE0F
330
AB80
100
AcDbEntity
  8
1
  6
Continuous
100
AcDbCircle
 10
179.1692469999999
 20
237.571816
 30
0.0
 40
1.0
100
AcDbArc
 50
180.0
 51
270.0
  0
ARC
  5
AE10
330
AB80
100
AcDbEntity
  8
1
  6
Continuous
100
AcDbCircle
 10
198.1692469999999
 20
237.571816
 30
0.0
 40
1.0
100
AcDbArc
 50
270.0
 51
0.0
  0
LINE
  5
AE11
330
AB80
100
AcDbEntity
  8
1
  6
Continuous
100
AcDbLine
 10
290.9033759999999
 20
269.671752
 30
0.0
 11
290.9033759999999
 21
237.571752
 31
0.0
  0
LINE
  5
AE12
330
AB80
100
AcDbEntity
  8
1
  6
Continuous
100
AcDbLine
 10
269.9033759999999
 20
269.671752
 30
0.0
 11
269.9033759999999
 21
237.571752
 31
0.0
  0
LINE
  5
AE13
330
AB80
100
AcDbEntity
  8
1
  6
Continuous
100
AcDbLine
 10
269.9033759999999
 20
240.971752
 30
0.0
 11
290.9033759999999
 21
240.971752
 31
0.0
  0
LINE
  5
AE14
330
AB80
100
AcDbEntity
  8
1
  6
Continuous
100
AcDbLine
 10
270.6533759999999
 20
270.671752
 30
0.0
 11
290.1533759999999
 21
270.671752
 31
0.0
  0
LINE
  5
AE15
330
AB80
100
AcDbEntity
  8
1
  6
Continuous
100
AcDbLine
 10
270.6533759999999
 20
270.671752
 30
0.0
 11
270.6533759999999
 21
274.671752
 31
0.0
  0
ARC
  5
AE16
330
AB80
100
AcDbEntity
  8
1
  6
Continuous
100
AcDbCircle
 10
270.903376
 20
269.671752
 30
0.0
 40
1.0
100
AcDbArc
 50
90.0
 51
180.0
  0
LINE
  5
AE17
330
AB80
100
AcDbEntity
  8
1
  6
Continuous
100
AcDbLine
 10
290.1533759999999
 20
270.671752
 30
0.0
 11
290.1533759999999
 21
274.671752
 31
0.0
  0
ARC
  5
AE18
330
AB80
100
AcDbEntity
  8
1
  6
Continuous
100
AcDbCircle
 10
289.903376
 20
269.671752
 30
0.0
 40
1.0
100
AcDbArc
 50
0.0
 51
90.0
  0
ARC
  5
AE19
330
AB80
100
AcDbEntity
  8
1
  6
Continuous
100
AcDbCircle
 10
270.903376
 20
237.571752
 30
0.0
 40
1.0
100
AcDbArc
 50
180.0
 51
270.0
  0
ARC
  5
AE1A
330
AB80
100
AcDbEntity
  8
1
  6
Continuous
100
AcDbCircle
 10
289.903376
 20
237.571752
 30
0.0
 40
1.0
100
AcDbArc
 50
270.0
 51
0.0
  0
ARC
  5
AE1B
330
AB80
100
AcDbEntity
  8
1
  6
Continuous
100
AcDbCircle
 10
362.6375039999999
 20
237.571816
 30
0.0
 40
1.0
100
AcDbArc
 50
180.0
 51
270.0
  0
ARC
  5
AE1C
330
AB80
100
AcDbEntity
  8
1
  6
Continuous
100
AcDbCircle
 10
381.637504
 20
237.571816
 30
0.0
 40
1.0
100
AcDbArc
 50
270.0
 51
0.0
  0
ARC
  5
AE1D
330
AB80
100
AcDbEntity
  8
1
  6
Continuous
100
AcDbCircle
 10
188.6691719999998
 20
343.5054979999998
 30
0.0
 40
10.5
100
AcDbArc
 50
68.213211
 51
111.7867889999999
  0
ARC
  5
AE1E
330
AB80
100
AcDbEntity
  8
1
  6
Continuous
100
AcDbCircle
 10
188.6691719999998
 20
343.5054979999998
 30
0.0
 40
10.5
100
AcDbArc
 50
248.213211
 51
291.786789
  0
LINE
  5
AE1F
330
AB80
100
AcDbEntity
  8
1
  6
Continuous
100
AcDbLine
 10
157.9192469999999
 20
364.309941
 30
0.0
 11
169.4192469999999
 21
364.309941
 31
0.0
  0
ARC
  5
AE20
330
AB80
100
AcDbEntity
  8
1
  6
Continuous
100
AcDbCircle
 10
163.6692469999998
 20
355.5242989999999
 30
0.0
 40
10.5
100
AcDbArc
 50
56.79617700000001
 51
123.203823
  0
LINE
  5
AE21
330
AB80
100
AcDbEntity
  8
1
  6
Continuous
100
AcDbLine
 10
153.4691719999998
 20
326.996998
 30
0.0
 11
161.1273779999999
 21
326.996998
 31
0.0
  0
LINE
  5
AE22
330
AB80
100
AcDbEntity
  8
1
  6
Continuous
100
AcDbLine
 10
153.4691719999998
 20
324.696998
 30
0.0
 11
168.634232
 21
324.696998
 31
0.0
  0
LINE
  5
AE23
330
AB80
100
AcDbEntity
  8
1
  6
Continuous
100
AcDbLine
 10
157.9192469999999
 20
364.309941
 30
0.0
 11
157.9192469999999
 21
362.313998
 31
0.0
  0
LINE
  5
AE24
330
AB80
100
AcDbEntity
  8
1
  6
Continuous
100
AcDbLine
 10
153.4691719999998
 20
326.996998
 30
0.0
 11
153.4691719999998
 21
324.696998
 31
0.0
  0
LINE
  5
AE25
330
AB80
100
AcDbEntity
  8
1
  6
Continuous
100
AcDbLine
 10
159.6692469999998
 20
326.996998
 30
0.0
 11
159.6692469999998
 21
329.0054979999998
 31
0.0
  0
LINE
  5
AE26
330
AB80
100
AcDbEntity
  8
1
  6
Continuous
100
AcDbLine
 10
169.4192469999999
 20
364.309941
 30
0.0
 11
169.4192469999999
 21
362.313998
 31
0.0
  0
ARC
  5
AE27
330
AB80
100
AcDbEntity
  8
1
  6
Continuous
100
AcDbCircle
 10
163.6692469999998
 20
335.7536969999999
 30
0.0
 40
13.0
100
AcDbArc
 50
247.380135
 51
292.6198649999999
  0
LINE
  5
AE28
330
AB80
100
AcDbEntity
  8
1
  6
Continuous
100
AcDbLine
 10
158.6692469999999
 20
323.753604
 30
0.0
 11
168.6692469999998
 21
323.753604
 31
0.0
  0
LINE
  5
AE29
330
AB80
100
AcDbEntity
  8
1
  6
Continuous
100
AcDbLine
 10
153.4691719999998
 20
360.013998
 30
0.0
 11
161.1273779999999
 21
360.013998
 31
0.0
  0
LINE
  5
AE2A
330
AB80
100
AcDbEntity
  8
1
  6
Continuous
100
AcDbLine
 10
153.4691719999998
 20
362.313998
 30
0.0
 11
168.634232
 21
362.313998
 31
0.0
  0
LINE
  5
AE2B
330
AB80
100
AcDbEntity
  8
1
  6
Continuous
100
AcDbLine
 10
158.6692469999999
 20
324.696998
 30
0.0
 11
158.6692469999999
 21
323.753604
 31
0.0
  0
LINE
  5
AE2C
330
AB80
100
AcDbEntity
  8
1
  6
Continuous
100
AcDbLine
 10
153.4691719999998
 20
362.313998
 30
0.0
 11
153.4691719999998
 21
360.013998
 31
0.0
  0
LINE
  5
AE2D
330
AB80
100
AcDbEntity
  8
1
  6
Continuous
100
AcDbLine
 10
159.6692469999998
 20
360.013998
 30
0.0
 11
159.6692469999998
 21
358.0054979999999
 31
0.0
  0
LINE
  5
AE2E
330
AB80
100
AcDbEntity
  8
1
  6
Continuous
100
AcDbLine
 10
168.6692469999998
 20
324.696998
 30
0.0
 11
168.6692469999998
 21
323.753604
 31
0.0
  0
ARC
  5
AE2F
330
AB80
100
AcDbEntity
  8
1
  6
Continuous
100
AcDbCircle
 10
168.634232
 20
374.313998
 30
0.0
 40
12.0
100
AcDbArc
 50
270.0
 51
303.036175
  0
ARC
  5
AE30
330
AB80
100
AcDbEntity
  8
1
  6
Continuous
100
AcDbCircle
 10
168.634232
 20
312.696998
 30
0.0
 40
12.0
100
AcDbArc
 50
56.963825
 51
90.0
  0
ENDSEC
  0
SECTION
  2
OBJECTS
  0
DICTIONARY
  5
AB6E
330
0
100
AcDbDictionary
281
     1
  3
ACAD_CIP_PREVIOUS_PRODUCT_INFO
350
AE92
  3
ACAD_COLOR
350
AE74
  3
ACAD_DETAILVIEWSTYLE
350
AE8D
  3
ACAD_GROUP
350
AB6F
  3
ACAD_LAYOUT
350
AB7B
  3
ACAD_MATERIAL
350
AE42
  3
ACAD_MLEADERSTYLE
350
AE89
  3
ACAD_MLINESTYLE
350
AB78
  3
ACAD_PLOTSETTINGS
350
AB7A
  3
ACAD_PLOTSTYLENAME
350
AE40
  3
ACAD_SCALELIST
350
AE77
  3
ACAD_SECTIONVIEWSTYLE
350
AE8B
  3
ACAD_TABLESTYLE
350
AE75
  3
ACAD_VISUALSTYLE
350
AE5B
  3
ACDB_RECOMPOSE_DATA
350
AEB0
  3
AcDbVariableDictionary
350
AEA3
  3
DWGPROPS
350
AEB1
  0
DICTIONARY
  5
AE93
330
AB72
100
AcDbDictionary
280
     1
281
     1
  3
ADSK_XREC_LAYER_RECONCILED
360
AE94
  0
DICTIONARY
  5
AE95
330
AB88
100
AcDbDictionary
280
     1
281
     1
  3
ADSK_XREC_LAYER_RECONCILED
360
AE96
  0
DICTIONARY
  5
AE97
330
AB89
100
AcDbDictionary
280
     1
281
     1
  3
ADSK_XREC_LAYER_RECONCILED
360
AE98
  0
DICTIONARY
  5
AE99
330
AB8A
100
AcDbDictionary
280
     1
281
     1
  3
ADSK_XREC_LAYER_RECONCILED
360
AE9A
  0
DICTIONARY
  5
AE9B
330
AB8B
100
AcDbDictionary
280
     1
281
     1
  3
ADSK_XREC_LAYER_RECONCILED
360
AE9C
  0
DICTIONARY
  5
AE9D
330
AB8C
100
AcDbDictionary
280
     1
281
     1
  3
ADSK_XREC_LAYER_RECONCILED
360
AE9E
  0
DICTIONARY
  5
AE9F
330
AB8D
100
AcDbDictionary
280
     1
281
     1
  3
ADSK_XREC_LAYER_RECONCILED
360
AEA0
  0
DICTIONARY
  5
AEA1
330
AB8E
100
AcDbDictionary
280
     1
281
     1
  3
ADSK_XREC_LAYER_RECONCILED
360
AEA2
  0
DICTIONARY
  5
AE3B
330
AB80
100
AcDbDictionary
281
     1
  3
ACAD_LAYOUTSELFREF
350
AE3C
  0
DICTIONARY
  5
AE39
330
AB7C
100
AcDbDictionary
281
     1
  3
ACAD_LAYOUTSELFREF
350
AE3A
  0
XRECORD
  5
AE92
102
{ACAD_REACTORS
330
AB6E
102
}
330
AB6E
100
AcDbXrecord
280
     1
300
ACDLT
300
2014
300
ACDLT_F_S
  0
DICTIONARY
  5
AE74
102
{ACAD_REACTORS
330
AB6E
102
}
330
AB6E
100
AcDbDictionary
281
     1
  0
DICTIONARY
  5
AE8D
102
{ACAD_REACTORS
330
AB6E
102
}
330
AB6E
100
AcDbDictionary
281
     1
  3
Imperial24
350
AE8E
  0
DICTIONARY
  5
AB6F
102
{ACAD_REACTORS
330
AB6E
102
}
330
AB6E
100
AcDbDictionary
281
     1
  0
DICTIONARY
  5
AB7B
102
{ACAD_REACTORS
330
AB6E
102
}
330
AB6E
100
AcDbDictionary
281
     1
  3
Model
350
AE8F
  3
レイアウト1
350
AE90
  0
DICTIONARY
  5
AE42
102
{ACAD_REACTORS
330
AB6E
102
}
330
AB6E
100
AcDbDictionary
281
     1
  3
ByBlock
350
AE4B
  3
ByLayer
350
AE43
  3
Global
350
AE53
  0
DICTIONARY
  5
AE89
102
{ACAD_REACTORS
330
AB6E
102
}
330
AB6E
100
AcDbDictionary
281
     1
  3
Standard
350
AE8A
  0
DICTIONARY
  5
AB78
102
{ACAD_REACTORS
330
AB6E
102
}
330
AB6E
100
AcDbDictionary
281
     1
  3
STANDARD
350
AB79
  0
DICTIONARY
  5
AB7A
102
{ACAD_REACTORS
330
AB6E
102
}
330
AB6E
100
AcDbDictionary
281
     1
  0
ACDBDICTIONARYWDFLT
  5
AE40
102
{ACAD_REACTORS
330
AB6E
102
}
330
AB6E
100
AcDbDictionary
281
     1
  3
Normal
350
AE41
100
AcDbDictionaryWithDefault
340
AE41
  0
DICTIONARY
  5
AE77
102
{ACAD_REACTORS
330
AB6E
102
}
330
AB6E
100
AcDbDictionary
281
     1
  3
A0
350
AE78
  3
A1
350
AE79
  3
A2
350
AE7A
  3
A3
350
AE7B
  3
A4
350
AE7C
  3
A5
350
AE7D
  3
A6
350
AE7E
  3
A7
350
AE7F
  3
A8
350
AE80
  3
A9
350
AE81
  3
B0
350
AE82
  3
B1
350
AE83
  3
B2
350
AE84
  3
B3
350
AE85
  3
B4
350
AE86
  3
B5
350
AE87
  3
B6
350
AE88
  0
DICTIONARY
  5
AE8B
102
{ACAD_REACTORS
330
AB6E
102
}
330
AB6E
100
AcDbDictionary
281
     1
  3
Imperial24
350
AE8C
  0
DICTIONARY
  5
AE75
102
{ACAD_REACTORS
330
AB6E
102
}
330
AB6E
100
AcDbDictionary
281
     1
  3
Standard
350
AE76
  0
DICTIONARY
  5
AE5B
102
{ACAD_REACTORS
330
AB6E
102
}
330
AB6E
100
AcDbDictionary
281
     1
  3
2dWireframe
350
AE61
  3
Basic
350
AE60
  3
Brighten
350
AE67
  3
ColorChange
350
AE6B
  3
Conceptual
350
AE64
  3
Dim
350
AE66
  3
EdgeColorOff
350
AE73
  3
Facepattern
350
AE6A
  3
Flat
350
AE5C
  3
FlatWithEdges
350
AE5D
  3
Gouraud
350
AE5E
  3
GouraudWithEdges
350
AE5F
  3
Hidden
350
AE63
  3
JitterOff
350
AE71
  3
Linepattern
350
AE69
  3
OverhangOff
350
AE72
  3
Realistic
350
AE65
  3
Shaded
350
AE70
  3
Shaded with edges
350
AE6F
  3
Shades of Gray
350
AE6C
  3
Sketchy
350
AE6D
  3
Thicken
350
AE68
  3
Wireframe
350
AE62
  3
X-Ray
350
AE6E
  0
XRECORD
  5
AEB0
102
{ACAD_REACTORS
330
AB6E
102
}
330
AB6E
100
AcDbXrecord
280
     1
 90
        1
330
AE76
  0
DICTIONARY
  5
AEA3
102
{ACAD_REACTORS
330
AB6E
102
}
330
AB6E
100
AcDbDictionary
281
     1
  3
CANNOSCALE
350
AEA8
  3
CMLEADERSTYLE
350
AEA5
  3
CTABLESTYLE
350
AEA4
  3
CVIEWDETAILSTYLE
350
AEA6
  3
CVIEWSECTIONSTYLE
350
AEA7
  3
DIMASSOC
350
AEAB
  3
INDEXCTL
350
AEAA
  3
SORTENTS
350
AEA9
  3
XCLIPFRAME
350
AEAC
  0
XRECORD
  5
AEB1
102
{ACAD_REACTORS
330
AB6E
102
}
330
AB6E
100
AcDbXrecord
280
     1
  1
DWGPROPS COOKIE
  2

  3

  4

  6

  7

  8
Yoshitsune
  9

300
=
301
=
302
=
303
=
304
=
305
=
306
=
307
=
308
=
309
=
 40
0.0000103009259259
 41
2451302.657053125
 42
2457192.687775301
  1

 90
        0
  0
XRECORD
  5
AE94
102
{ACAD_REACTORS
330
AE93
102
}
330
AE93
100
AcDbXrecord
280
     1
290
     1
  0
XRECORD
  5
AE96
102
{ACAD_REACTORS
330
AE95
102
}
330
AE95
100
AcDbXrecord
280
     1
290
     1
  0
XRECORD
  5
AE98
102
{ACAD_REACTORS
330
AE97
102
}
330
AE97
100
AcDbXrecord
280
     1
290
     1
  0
XRECORD
  5
AE9A
102
{ACAD_REACTORS
330
AE99
102
}
330
AE99
100
AcDbXrecord
280
     1
290
     1
  0
XRECORD
  5
AE9C
102
{ACAD_REACTORS
330
AE9B
102
}
330
AE9B
100
AcDbXrecord
280
     1
290
     1
  0
XRECORD
  5
AE9E
102
{ACAD_REACTORS
330
AE9D
102
}
330
AE9D
100
AcDbXrecord
280
     1
290
     1
  0
XRECORD
  5
AEA0
102
{ACAD_REACTORS
330
AE9F
102
}
330
AE9F
100
AcDbXrecord
280
     1
290
     1
  0
XRECORD
  5
AEA2
102
{ACAD_REACTORS
330
AEA1
102
}
330
AEA1
100
AcDbXrecord
280
     1
290
     1
  0
XRECORD
  5
AE3C
102
{ACAD_REACTORS
330
AE3B
102
}
330
AE3B
100
AcDbXrecord
280
     1
340
AB80
  0
XRECORD
  5
AE3A
102
{ACAD_REACTORS
330
AE39
102
}
330
AE39
100
AcDbXrecord
280
     1
340
AB7C
  0
ACDBDETAILVIEWSTYLE
  5
AE8E
102
{ACAD_XDICTIONARY
360
AEE9
102
}
102
{ACAD_REACTORS
330
AE8D
102
}
330
AE8D
100
AcDbModelDocViewStyle
 70
     0
  3
Imperial24
290
     0
100
AcDbDetailViewStyle
 70
     0
 71
     0
 90
        3
 71
     1
340
AB73
 40
0.24
340
0
 40
0.24
300

 40
0.36
280
     3
 71
     2
340
AB77
 90
       25
 71
     3
340
AB73
 40
0.24
 90
        1
 40
0.75
 90
        1
300
%<\AcVar ViewType \f "%tc1">% %<\AcVar ViewDetailId>%\PSCALE %<\AcVar ViewScale \f "%sn">%
 71
     4
340
AB77
 90
       25
340
AB77
 90
       25
280
     0
  0
LAYOUT
  5
AE8F
102
{ACAD_XDICTIONARY
360
AEEB
102
}
102
{ACAD_REACTORS
330
AB7B
102
}
330
AB7B
100
AcDbPlotSettings
  1

  2
Canon LBP9100C
  4

  6

 40
0.0
 41
0.0
 42
0.0
 43
0.0
 44
0.0
 45
0.0
 46
0.0
 47
0.0
 48
0.0
 49
0.0
140
0.0
141
0.0
142
1.0
143
1.0
 70
  1712
 72
     0
 73
     0
 74
     0
  7

 75
     0
147
1.0
148
0.0
149
0.0
100
AcDbLayout
  1
Model
 70
     1
 71
     0
 10
0.0
 20
0.0
 11
12.0
 21
9.0
 12
0.0
 22
0.0
 32
0.0
 14
0.0
 24
0.0
 34
0.0
 15
0.0
 25
0.0
 35
0.0
146
0.0
 13
0.0
 23
0.0
 33
0.0
 16
1.0
 26
0.0
 36
0.0
 17
0.0
 27
1.0
 37
0.0
 76
     0
330
AB80
331
AE38
  0
LAYOUT
  5
AE90
102
{ACAD_XDICTIONARY
360
AEED
102
}
102
{ACAD_REACTORS
330
AB7B
102
}
330
AB7B
100
AcDbPlotSettings
  1

  2
Canon LBP9100C
  4

  6

 40
0.0
 41
0.0
 42
0.0
 43
0.0
 44
0.0
 45
0.0
 46
0.0
 47
0.0
 48
0.0
 49
0.0
140
0.0
141
0.0
142
1.0
143
1.0
 70
   688
 72
     0
 73
     0
 74
     5
  7

 75
    16
147
1.0
148
0.0
149
0.0
100
AcDbLayout
  1
レイアウト1
 70
     0
 71
     1
 10
0.0
 20
0.0
 11
420.0
 21
297.0
 12
0.0
 22
0.0
 32
0.0
 14
1.000000000000000E+20
 24
1.000000000000000E+20
 34
1.000000000000000E+20
 15
-1.000000000000000E+20
 25
-1.000000000000000E+20
 35
-1.000000000000000E+20
146
0.0
 13
0.0
 23
0.0
 33
0.0
 16
1.0
 26
0.0
 36
0.0
 17
0.0
 27
1.0
 37
0.0
 76
     0
330
AB7C
  0
MATERIAL
  5
AE4B
102
{ACAD_XDICTIONARY
360
AE4C
102
}
102
{ACAD_REACTORS
330
AE42
102
}
330
AE42
100
AcDbMaterial
  1
ByBlock
 72
     0
 43
0.0208333333333333
 43
0.0
 43
0.0
 43
0.0
 43
0.0
 43
0.0208333333333333
 43
0.0
 43
0.0
 43
0.0
 43
0.0
 43
1.0
 43
0.0
 43
0.0
 43
0.0
 43
0.0
 43
1.0
 77
     0
 47
0.0208333333333333
 47
0.0
 47
0.0
 47
0.0
 47
0.0
 47
0.0208333333333333
 47
0.0
 47
0.0
 47
0.0
 47
0.0
 47
1.0
 47
0.0
 47
0.0
 47
0.0
 47
0.0
 47
1.0
171
     0
 49
0.0208333333333333
 49
0.0
 49
0.0
 49
0.0
 49
0.0
 49
0.0208333333333333
 49
0.0
 49
0.0
 49
0.0
 49
0.0
 49
1.0
 49
0.0
 49
0.0
 49
0.0
 49
0.0
 49
1.0
175
     0
142
0.0208333333333333
142
0.0
142
0.0
142
0.0
142
0.0
142
0.0208333333333333
142
0.0
142
0.0
142
0.0
142
0.0
142
1.0
142
0.0
142
0.0
142
0.0
142
0.0
142
1.0
179
     0
144
0.0208333333333333
144
0.0
144
0.0
144
0.0
144
0.0
144
0.0208333333333333
144
0.0
144
0.0
144
0.0
144
0.0
144
1.0
144
0.0
144
0.0
144
0.0
144
0.0
144
1.0
147
0.0208333333333333
147
0.0
147
0.0
147
0.0
147
0.0
147
0.0208333333333333
147
0.0
147
0.0
147
0.0
147
0.0
147
1.0
147
0.0
147
0.0
147
0.0
147
0.0
147
1.0
  0
MATERIAL
  5
AE43
102
{ACAD_XDICTIONARY
360
AE44
102
}
102
{ACAD_REACTORS
330
AE42
102
}
330
AE42
100
AcDbMaterial
  1
ByLayer
 72
     0
 43
0.0208333333333333
 43
0.0
 43
0.0
 43
0.0
 43
0.0
 43
0.0208333333333333
 43
0.0
 43
0.0
 43
0.0
 43
0.0
 43
1.0
 43
0.0
 43
0.0
 43
0.0
 43
0.0
 43
1.0
 77
     0
 47
0.0208333333333333
 47
0.0
 47
0.0
 47
0.0
 47
0.0
 47
0.0208333333333333
 47
0.0
 47
0.0
 47
0.0
 47
0.0
 47
1.0
 47
0.0
 47
0.0
 47
0.0
 47
0.0
 47
1.0
171
     0
 49
0.0208333333333333
 49
0.0
 49
0.0
 49
0.0
 49
0.0
 49
0.0208333333333333
 49
0.0
 49
0.0
 49
0.0
 49
0.0
 49
1.0
 49
0.0
 49
0.0
 49
0.0
 49
0.0
 49
1.0
175
     0
142
0.0208333333333333
142
0.0
142
0.0
142
0.0
142
0.0
142
0.0208333333333333
142
0.0
142
0.0
142
0.0
142
0.0
142
1.0
142
0.0
142
0.0
142
0.0
142
0.0
142
1.0
179
     0
144
0.0208333333333333
144
0.0
144
0.0
144
0.0
144
0.0
144
0.0208333333333333
144
0.0
144
0.0
144
0.0
144
0.0
144
1.0
144
0.0
144
0.0
144
0.0
144
0.0
144
1.0
147
0.0208333333333333
147
0.0
147
0.0
147
0.0
147
0.0
147
0.0208333333333333
147
0.0
147
0.0
147
0.0
147
0.0
147
1.0
147
0.0
147
0.0
147
0.0
147
0.0
147
1.0
  0
MATERIAL
  5
AE53
102
{ACAD_XDICTIONARY
360
AE54
102
}
102
{ACAD_REACTORS
330
AE42
102
}
330
AE42
100
AcDbMaterial
  1
Global
 72
     0
 43
0.0208333333333333
 43
0.0
 43
0.0
 43
0.0
 43
0.0
 43
0.0208333333333333
 43
0.0
 43
0.0
 43
0.0
 43
0.0
 43
1.0
 43
0.0
 43
0.0
 43
0.0
 43
0.0
 43
1.0
 77
     0
 47
0.0208333333333333
 47
0.0
 47
0.0
 47
0.0
 47
0.0
 47
0.0208333333333333
 47
0.0
 47
0.0
 47
0.0
 47
0.0
 47
1.0
 47
0.0
 47
0.0
 47
0.0
 47
0.0
 47
1.0
171
     0
 49
0.0208333333333333
 49
0.0
 49
0.0
 49
0.0
 49
0.0
 49
0.0208333333333333
 49
0.0
 49
0.0
 49
0.0
 49
0.0
 49
1.0
 49
0.0
 49
0.0
 49
0.0
 49
0.0
 49
1.0
175
     0
142
0.0208333333333333
142
0.0
142
0.0
142
0.0
142
0.0
142
0.0208333333333333
142
0.0
142
0.0
142
0.0
142
0.0
142
1.0
142
0.0
142
0.0
142
0.0
142
0.0
142
1.0
179
     0
144
0.0208333333333333
144
0.0
144
0.0
144
0.0
144
0.0
144
0.0208333333333333
144
0.0
144
0.0
144
0.0
144
0.0
144
1.0
144
0.0
144
0.0
144
0.0
144
0.0
144
1.0
147
0.0208333333333333
147
0.0
147
0.0
147
0.0
147
0.0
147
0.0208333333333333
147
0.0
147
0.0
147
0.0
147
0.0
147
1.0
147
0.0
147
0.0
147
0.0
147
0.0
147
1.0
  0
MLEADERSTYLE
  5
AE8A
102
{ACAD_REACTORS
330
AE89
102
}
330
AE89
100
AcDbMLeaderStyle
170
     2
171
     1
172
     0
 90
        2
 40
0.0
 41
0.0
173
     1
 91
-1056964608
340
AB75
 92
       -2
290
     1
 42
0.09
291
     1
 43
0.36
  3
Standard
 44
0.18
300

342
AB73
174
     1
178
     6
175
     1
176
     0
 93
-1056964608
 45
0.18
292
     0
297
     0
 46
0.18
 94
-1056964608
 47
1.0
 49
1.0
140
1.0
293
     1
141
0.0
294
     1
177
     0
142
1.0
295
     0
296
     0
143
0.125
1001
ACAD_MLEADERVER
1070
     2
  0
MLINESTYLE
  5
AB79
102
{ACAD_REACTORS
330
AB78
102
}
330
AB78
100
AcDbMlineStyle
  2
STANDARD
 70
     0
  3

 62
   256
 51
90.0
 52
90.0
 71
     2
 49
0.5
 62
   256
  6
BYLAYER
 49
-0.5
 62
   256
  6
BYLAYER
  0
ACDBPLACEHOLDER
  5
AE41
102
{ACAD_REACTORS
330
AE40
102
}
330
AE40
  0
SCALE
  5
AE78
102
{ACAD_REACTORS
330
AE77
102
}
330
AE77
100
AcDbScale
 70
     0
300
1:1
140
1.0
141
1.0
290
     1
  0
SCALE
  5
AE79
102
{ACAD_REACTORS
330
AE77
102
}
330
AE77
100
AcDbScale
 70
     0
300
1/128" = 1'-0"
140
0.0078125
141
12.0
290
     0
  0
SCALE
  5
AE7A
102
{ACAD_REACTORS
330
AE77
102
}
330
AE77
100
AcDbScale
 70
     0
300
1/64" = 1'-0"
140
0.015625
141
12.0
290
     0
  0
SCALE
  5
AE7B
102
{ACAD_REACTORS
330
AE77
102
}
330
AE77
100
AcDbScale
 70
     0
300
1/32" = 1'-0"
140
0.03125
141
12.0
290
     0
  0
SCALE
  5
AE7C
102
{ACAD_REACTORS
330
AE77
102
}
330
AE77
100
AcDbScale
 70
     0
300
1/16" = 1'-0"
140
0.0625
141
12.0
290
     0
  0
SCALE
  5
AE7D
102
{ACAD_REACTORS
330
AE77
102
}
330
AE77
100
AcDbScale
 70
     0
300
3/32" = 1'-0"
140
0.09375
141
12.0
290
     0
  0
SCALE
  5
AE7E
102
{ACAD_REACTORS
330
AE77
102
}
330
AE77
100
AcDbScale
 70
     0
300
1/8" = 1'-0"
140
0.125
141
12.0
290
     0
  0
SCALE
  5
AE7F
102
{ACAD_REACTORS
330
AE77
102
}
330
AE77
100
AcDbScale
 70
     0
300
3/16" = 1'-0"
140
0.1875
141
12.0
290
     0
  0
SCALE
  5
AE80
102
{ACAD_REACTORS
330
AE77
102
}
330
AE77
100
AcDbScale
 70
     0
300
1/4" = 1'-0"
140
0.25
141
12.0
290
     0
  0
SCALE
  5
AE81
102
{ACAD_REACTORS
330
AE77
102
}
330
AE77
100
AcDbScale
 70
     0
300
3/8" = 1'-0"
140
0.375
141
12.0
290
     0
  0
SCALE
  5
AE82
102
{ACAD_REACTORS
330
AE77
102
}
330
AE77
100
AcDbScale
 70
     0
300
1/2" = 1'-0"
140
0.5
141
12.0
290
     0
  0
SCALE
  5
AE83
102
{ACAD_REACTORS
330
AE77
102
}
330
AE77
100
AcDbScale
 70
     0
300
3/4" = 1'-0"
140
0.75
141
12.0
290
     0
  0
SCALE
  5
AE84
102
{ACAD_REACTORS
330
AE77
102
}
330
AE77
100
AcDbScale
 70
     0
300
1" = 1'-0"
140
1.0
141
12.0
290
     0
  0
SCALE
  5
AE85
102
{ACAD_REACTORS
330
AE77
102
}
330
AE77
100
AcDbScale
 70
     0
300
1-1/2" = 1'-0"
140
1.5
141
12.0
290
     0
  0
SCALE
  5
AE86
102
{ACAD_REACTORS
330
AE77
102
}
330
AE77
100
AcDbScale
 70
     0
300
3" = 1'-0"
140
3.0
141
12.0
290
     0
  0
SCALE
  5
AE87
102
{ACAD_REACTORS
330
AE77
102
}
330
AE77
100
AcDbScale
 70
     0
300
6" = 1'-0"
140
6.0
141
12.0
290
     0
  0
SCALE
  5
AE88
102
{ACAD_REACTORS
330
AE77
102
}
330
AE77
100
AcDbScale
 70
     0
300
1'-0" = 1'-0"
140
12.0
141
12.0
290
     0
  0
ACDBSECTIONVIEWSTYLE
  5
AE8C
102
{ACAD_XDICTIONARY
360
AEE7
102
}
102
{ACAD_REACTORS
330
AE8B
102
}
330
AE8B
100
AcDbModelDocViewStyle
 70
     0
  3
Imperial24
290
     0
100
AcDbSectionViewStyle
 70
     0
 71
     0
 90
       78
 71
     1
340
AB73
 40
0.24
340
0
340
0
 40
0.24
300
I, O, Q, S, X, Z
 40
0.48
 90
        3
 40
0.18
 90
        1
 71
     2
340
AB77
 90
       25
340
AB77
 90
       50
 40
0.24
 40
0.0
 40
0.24
 71
     3
340
AB73
 40
0.24
 90
        1
 40
0.75
 90
        1
300
%<\AcVar ViewType \f "%tc1">% %<\AcVar ViewSectionStartId>%-%<\AcVar ViewSectionEndId>%\PSCALE %<\AcVar ViewScale \f "%sn">%
 71
     4
300
ANSI31
 40
1.0
 90
        0
290
     0
290
     0
 90
        6
 40
0.0
 40
1.570796326794896
 40
0.2617993877991494
 40
1.308996938995747
 40
-0.2617993877991494
 40
1.832595714594046
  0
TABLESTYLE
  5
AE76
102
{ACAD_XDICTIONARY
360
AEAE
102
}
102
{ACAD_REACTORS
330
AE75
102
}
330
AE75
100
AcDbTableStyle
  3
Standard
 70
     0
 71
     0
 40
0.06
 41
0.06
280
     0
281
     0
  7
STANDARD
140
0.18
170
     2
 62
     0
 63
     7
283
     0
274
    -2
284
     1
 64
     0
275
    -2
285
     1
 65
     0
276
    -2
286
     1
 66
     0
277
    -2
287
     1
 67
     0
278
    -2
288
     1
 68
     0
279
    -2
289
     1
 69
     0
  7
STANDARD
140
0.25
170
     5
 62
     0
 63
     7
283
     0
274
    -2
284
     1
 64
     0
275
    -2
285
     1
 65
     0
276
    -2
286
     1
 66
     0
277
    -2
287
     1
 67
     0
278
    -2
288
     1
 68
     0
279
    -2
289
     1
 69
     0
  7
STANDARD
140
0.18
170
     5
 62
     0
 63
     7
283
     0
274
    -2
284
     1
 64
     0
275
    -2
285
     1
 65
     0
276
    -2
286
     1
 66
     0
277
    -2
287
     1
 67
     0
278
    -2
288
     1
 68
     0
279
    -2
289
     1
 69
     0
  0
VISUALSTYLE
  5
AE61
102
{ACAD_XDICTIONARY
360
AEBF
102
}
102
{ACAD_REACTORS
330
AE5B
102
}
330
AE5B
100
AcDbVisualStyle
  2
2dWireframe
 70
     4
 71
     0
 72
     2
 73
     0
 90
        0
 40
-0.6
 41
-30.0
 62
     5
 63
     7
 74
     1
 91
        4
 64
     7
 65
   257
 75
     1
175
     1
 42
1.0
 92
        0
 66
   257
 43
1.0
 76
     1
 77
     6
 78
     2
 67
     7
 79
     5
170
     0
171
     0
290
     0
174
     0
 93
        1
 44
0.0
173
     0
291
     0
 45
0.0
1001
ACAD
1000
AcDbSavedByObjectVersion
1070
     0
  0
VISUALSTYLE
  5
AE60
102
{ACAD_XDICTIONARY
360
AEBD
102
}
102
{ACAD_REACTORS
330
AE5B
102
}
330
AE5B
100
AcDbVisualStyle
  2
Basic
 70
     7
 71
     1
 72
     0
 73
     1
 90
        0
 40
-0.6
 41
-30.0
 62
     5
 63
     7
 74
     0
 91
        4
 64
     7
 65
   257
 75
     1
175
     1
 42
1.0
 92
        8
 66
     7
 43
1.0
 76
     1
 77
     6
 78
     2
 67
     7
 79
     5
170
     0
171
     0
290
     0
174
     0
 93
        1
 44
0.0
173
     0
291
     1
 45
0.0
1001
ACAD
1000
AcDbSavedByObjectVersion
1070
     0
  0
VISUALSTYLE
  5
AE67
102
{ACAD_XDICTIONARY
360
AECB
102
}
102
{ACAD_REACTORS
330
AE5B
102
}
330
AE5B
100
AcDbVisualStyle
  2
Brighten
 70
    12
 71
     2
 72
     2
 73
     0
 90
        0
 40
-0.6
 41
-30.0
 62
     5
 63
     7
 74
     1
 91
        4
 64
     7
 65
   257
 75
     1
175
     1
 42
1.0
 92
        8
 66
     7
 43
1.0
 76
     1
 77
     6
 78
     2
 67
     7
 79
     5
170
     0
171
     0
290
     0
174
     0
 93
        1
 44
50.0
173
     0
291
     1
 45
0.0
1001
ACAD
1000
AcDbSavedByObjectVersion
1070
     0
  0
VISUALSTYLE
  5
AE6B
102
{ACAD_XDICTIONARY
360
AED3
102
}
102
{ACAD_REACTORS
330
AE5B
102
}
330
AE5B
100
AcDbVisualStyle
  2
ColorChange
 70
    16
 71
     2
 72
     2
 73
     3
 90
        0
 40
-0.6
 41
-30.0
 62
     5
 63
     8
 74
     1
 91
        4
 64
     7
 65
   257
 75
     1
175
     1
 42
1.0
 92
        8
 66
     8
 43
1.0
 76
     1
 77
     6
 78
     2
 67
     7
 79
     5
170
     0
171
     0
290
     0
174
     0
 93
        1
 44
0.0
173
     0
291
     1
 45
0.0
1001
ACAD
1000
AcDbSavedByObjectVersion
1070
     0
  0
VISUALSTYLE
  5
AE64
102
{ACAD_XDICTIONARY
360
AEC5
102
}
102
{ACAD_REACTORS
330
AE5B
102
}
330
AE5B
100
AcDbVisualStyle
  2
Conceptual
 70
     9
 71
     3
 72
     2
 73
     0
 90
        0
 40
-0.6
 41
-30.0
 62
     5
 63
     7
 74
     2
 91
        2
 64
     7
 65
   257
 75
     1
175
     1
 42
179.0
 92
        8
 66
     7
 43
1.0
 76
     1
 77
     6
 78
     2
 67
     7
 79
     3
170
     0
171
     0
290
     0
174
     0
 93
        1
 44
0.0
173
     0
291
     0
 45
0.0
1001
ACAD
1000
AcDbSavedByObjectVersion
1070
     0
  0
VISUALSTYLE
  5
AE66
102
{ACAD_XDICTIONARY
360
AEC9
102
}
102
{ACAD_REACTORS
330
AE5B
102
}
330
AE5B
100
AcDbVisualStyle
  2
Dim
 70
    11
 71
     2
 72
     2
 73
     0
 90
        0
 40
-0.6
 41
-30.0
 62
     5
 63
     7
 74
     1
 91
        4
 64
     7
 65
   257
 75
     1
175
     1
 42
1.0
 92
        8
 66
     7
 43
1.0
 76
     1
 77
     6
 78
     2
 67
     7
 79
     5
170
     0
171
     0
290
     0
174
     0
 93
        1
 44
-50.0
173
     0
291
     1
 45
0.0
1001
ACAD
1000
AcDbSavedByObjectVersion
1070
     0
  0
VISUALSTYLE
  5
AE73
102
{ACAD_XDICTIONARY
360
AEE3
102
}
102
{ACAD_REACTORS
330
AE5B
102
}
330
AE5B
100
AcDbVisualStyle
  2
EdgeColorOff
 70
    22
 71
     2
 72
     2
 73
     0
 90
        0
 40
-0.6
 41
-30.0
 62
     5
 63
     7
 74
     1
 91
        4
 64
     7
 65
   257
 75
     1
175
     1
 42
1.0
 92
        8
 66
     7
 43
1.0
 76
     1
 77
     6
 78
     2
 67
     7
 79
     5
170
     0
171
     0
290
     0
174
     0
 93
        1
 44
0.0
173
     0
291
     1
 45
0.0
1001
ACAD
1000
AcDbSavedByObjectVersion
1070
     0
  0
VISUALSTYLE
  5
AE6A
102
{ACAD_XDICTIONARY
360
AED1
102
}
102
{ACAD_REACTORS
330
AE5B
102
}
330
AE5B
100
AcDbVisualStyle
  2
Facepattern
 70
    15
 71
     2
 72
     2
 73
     0
 90
        0
 40
-0.6
 41
-30.0
 62
     5
 63
     7
 74
     1
 91
        4
 64
     7
 65
   257
 75
     1
175
     1
 42
1.0
 92
        8
 66
     7
 43
1.0
 76
     1
 77
     6
 78
     2
 67
     7
 79
     5
170
     0
171
     0
290
     0
174
     0
 93
        1
 44
0.0
173
     0
291
     1
 45
0.0
1001
ACAD
1000
AcDbSavedByObjectVersion
1070
     0
  0
VISUALSTYLE
  5
AE5C
102
{ACAD_XDICTIONARY
360
AEB5
102
}
102
{ACAD_REACTORS
330
AE5B
102
}
330
AE5B
100
AcDbVisualStyle
  2
Flat
 70
     0
 71
     2
 72
     1
 73
     1
 90
        2
 40
-0.6
 41
30.0
 62
     5
 63
     7
 74
     0
 91
        0
 64
     7
 65
   257
 75
     1
175
     1
 42
1.0
 92
        8
 66
     7
 43
1.0
 76
     1
 77
     6
 78
     2
 67
     7
 79
     5
170
     0
171
     0
290
     0
174
     0
 93
       13
 44
0.0
173
     0
291
     1
 45
0.0
1001
ACAD
1000
AcDbSavedByObjectVersion
1070
     0
  0
VISUALSTYLE
  5
AE5D
102
{ACAD_XDICTIONARY
360
AEB7
102
}
102
{ACAD_REACTORS
330
AE5B
102
}
330
AE5B
100
AcDbVisualStyle
  2
FlatWithEdges
 70
     1
 71
     2
 72
     1
 73
     1
 90
        2
 40
-0.6
 41
30.0
 62
     5
 63
     7
 74
     1
 91
        0
 64
     7
 65
   257
 75
     1
175
     1
 42
1.0
 92
        0
 66
   257
 43
1.0
 76
     1
 77
     6
 78
     2
 67
     7
 79
     5
170
     0
171
     0
290
     0
174
     0
 93
       13
 44
0.0
173
     0
291
     1
 45
0.0
1001
ACAD
1000
AcDbSavedByObjectVersion
1070
     0
  0
VISUALSTYLE
  5
AE5E
102
{ACAD_XDICTIONARY
360
AEB9
102
}
102
{ACAD_REACTORS
330
AE5B
102
}
330
AE5B
100
AcDbVisualStyle
  2
Gouraud
 70
     2
 71
     2
 72
     2
 73
     1
 90
        2
 40
-0.6
 41
30.0
 62
     5
 63
     7
 74
     0
 91
        0
 64
     7
 65
   257
 75
     1
175
     1
 42
1.0
 92
        0
 66
     7
 43
1.0
 76
     1
 77
     6
 78
     2
 67
     7
 79
     5
170
     0
171
     0
290
     0
174
     0
 93
       13
 44
0.0
173
     0
291
     1
 45
0.0
1001
ACAD
1000
AcDbSavedByObjectVersion
1070
     0
  0
VISUALSTYLE
  5
AE5F
102
{ACAD_XDICTIONARY
360
AEBB
102
}
102
{ACAD_REACTORS
330
AE5B
102
}
330
AE5B
100
AcDbVisualStyle
  2
GouraudWithEdges
 70
     3
 71
     2
 72
     2
 73
     1
 90
        2
 40
-0.6
 41
30.0
 62
     5
 63
     7
 74
     1
 91
        0
 64
     7
 65
   257
 75
     1
175
     1
 42
1.0
 92
        0
 66
   257
 43
1.0
 76
     1
 77
     6
 78
     2
 67
     7
 79
     5
170
     0
171
     0
290
     0
174
     0
 93
       13
 44
0.0
173
     0
291
     1
 45
0.0
1001
ACAD
1000
AcDbSavedByObjectVersion
1070
     0
  0
VISUALSTYLE
  5
AE63
102
{ACAD_XDICTIONARY
360
AEC3
102
}
102
{ACAD_REACTORS
330
AE5B
102
}
330
AE5B
100
AcDbVisualStyle
  2
Hidden
 70
     6
 71
     1
 72
     2
 73
     2
 90
        0
 40
-0.6
 41
-30.0
 62
     5
 63
     7
 74
     2
 91
        2
 64
     7
 65
   257
 75
     2
175
     1
 42
40.0
 92
        0
 66
   257
 43
1.0
 76
     1
 77
     6
 78
     2
 67
     7
 79
     3
170
     0
171
     0
290
     0
174
     0
 93
        1
 44
0.0
173
     0
291
     0
 45
0.0
1001
ACAD
1000
AcDbSavedByObjectVersion
1070
     0
  0
VISUALSTYLE
  5
AE71
102
{ACAD_XDICTIONARY
360
AEDF
102
}
102
{ACAD_REACTORS
330
AE5B
102
}
330
AE5B
100
AcDbVisualStyle
  2
JitterOff
 70
    20
 71
     2
 72
     2
 73
     0
 90
        0
 40
-0.6
 41
-30.0
 62
     5
 63
     7
 74
     1
 91
        4
 64
     7
 65
   257
 75
     1
175
     1
 42
1.0
 92
       10
 66
     7
 43
1.0
 76
     1
 77
     6
 78
     2
 67
     7
 79
     5
170
     0
171
     0
290
     0
174
     0
 93
        1
 44
0.0
173
     0
291
     1
 45
0.0
1001
ACAD
1000
AcDbSavedByObjectVersion
1070
     0
  0
VISUALSTYLE
  5
AE69
102
{ACAD_XDICTIONARY
360
AECF
102
}
102
{ACAD_REACTORS
330
AE5B
102
}
330
AE5B
100
AcDbVisualStyle
  2
Linepattern
 70
    14
 71
     2
 72
     2
 73
     0
 90
        0
 40
-0.6
 41
-30.0
 62
     5
 63
     7
 74
     1
 91
        4
 64
     7
 65
   257
 75
     7
175
     7
 42
1.0
 92
        8
 66
     7
 43
1.0
 76
     1
 77
     6
 78
     2
 67
     7
 79
     5
170
     0
171
     0
290
     0
174
     0
 93
        1
 44
0.0
173
     0
291
     1
 45
0.0
1001
ACAD
1000
AcDbSavedByObjectVersion
1070
     0
  0
VISUALSTYLE
  5
AE72
102
{ACAD_XDICTIONARY
360
AEE1
102
}
102
{ACAD_REACTORS
330
AE5B
102
}
330
AE5B
100
AcDbVisualStyle
  2
OverhangOff
 70
    21
 71
     2
 72
     2
 73
     0
 90
        0
 40
-0.6
 41
-30.0
 62
     5
 63
     7
 74
     1
 91
        4
 64
     7
 65
   257
 75
     1
175
     1
 42
1.0
 92
        9
 66
     7
 43
1.0
 76
     1
 77
     6
 78
     2
 67
     7
 79
     5
170
     0
171
     0
290
     0
174
     0
 93
        1
 44
0.0
173
     0
291
     1
 45
0.0
1001
ACAD
1000
AcDbSavedByObjectVersion
1070
     0
  0
VISUALSTYLE
  5
AE65
102
{ACAD_XDICTIONARY
360
AEC7
102
}
102
{ACAD_REACTORS
330
AE5B
102
}
330
AE5B
100
AcDbVisualStyle
  2
Realistic
 70
     8
 71
     2
 72
     3
 73
     0
 90
        2
 40
-0.6
 41
30.0
 62
     5
 63
     7
 74
     0
 91
        0
 64
     7
 65
   257
 75
     1
175
     1
 42
1.0
 92
        8
 66
   257
 43
1.0
 76
     1
 77
     6
 78
     2
 67
     7
 79
     3
170
     0
171
     0
290
     0
174
     0
 93
       13
 44
0.0
173
     0
291
     0
 45
0.0
1001
ACAD
1000
AcDbSavedByObjectVersion
1070
     0
  0
VISUALSTYLE
  5
AE70
102
{ACAD_XDICTIONARY
360
AEDD
102
}
102
{ACAD_REACTORS
330
AE5B
102
}
330
AE5B
100
AcDbVisualStyle
  2
Shaded
 70
    27
 71
     2
 72
     2
 73
     1
 90
        2
 40
-0.6
 41
30.0
 62
     5
 63
     7
 74
     0
 91
        4
 64
     7
 65
   257
 75
     1
175
     1
 42
1.0
 92
        8
 66
   257
 43
1.0
 76
     1
 77
     6
 78
     2
 67
     8
 79
     3
170
     0
171
     0
290
     0
174
     0
 93
        5
 44
0.0
173
     0
291
     0
 45
0.0
1001
ACAD
1000
AcDbSavedByObjectVersion
1070
     0
  0
VISUALSTYLE
  5
AE6F
102
{ACAD_XDICTIONARY
360
AEDB
102
}
102
{ACAD_REACTORS
330
AE5B
102
}
330
AE5B
100
AcDbVisualStyle
  2
Shaded with edges
 70
    26
 71
     2
 72
     2
 73
     1
 90
        2
 40
-0.6
 41
30.0
 62
     5
 63
     7
 74
     1
 91
       10
 64
     7
 65
   257
 75
     2
175
     1
 42
1.0
 92
        8
 66
   257
 43
1.0
 76
     1
 77
     6
 78
     2
 67
     7
 79
     3
170
     0
171
     0
290
     0
174
     0
 93
        5
 44
0.0
173
     0
291
     0
 45
0.0
1001
ACAD
1000
AcDbSavedByObjectVersion
1070
     0
  0
VISUALSTYLE
  5
AE6C
102
{ACAD_XDICTIONARY
360
AED5
102
}
102
{ACAD_REACTORS
330
AE5B
102
}
330
AE5B
100
AcDbVisualStyle
  2
Shades of Gray
 70
    23
 71
     2
 72
     2
 73
     3
 90
        0
 40
-0.6
 41
-30.0
 62
     5
 63
     7
 74
     2
 91
        2
 64
     7
 65
     7
 75
     1
175
     1
 42
40.0
 92
        8
 66
     7
 43
1.0
 76
     1
 77
     6
 78
     2
 67
     7
 79
     3
170
     0
171
     0
290
     0
174
     0
 93
        1
 44
0.0
173
     0
291
     0
 45
0.0
1001
ACAD
1000
AcDbSavedByObjectVersion
1070
     0
  0
VISUALSTYLE
  5
AE6D
102
{ACAD_XDICTIONARY
360
AED7
102
}
102
{ACAD_REACTORS
330
AE5B
102
}
330
AE5B
100
AcDbVisualStyle
  2
Sketchy
 70
    24
 71
     1
 72
     2
 73
     2
 90
        0
 40
-0.6
 41
-30.0
 62
     5
 63
     7
 74
     2
 91
        2
 64
     7
 65
     7
 75
     1
175
     1
 42
40.0
 92
       11
 66
     7
 43
1.0
 76
     1
 77
     6
 78
     2
 67
     7
 79
     6
170
     0
171
     0
290
     0
174
     0
 93
        1
 44
0.0
173
     0
291
     0
 45
0.0
1001
ACAD
1000
AcDbSavedByObjectVersion
1070
     0
  0
VISUALSTYLE
  5
AE68
102
{ACAD_XDICTIONARY
360
AECD
102
}
102
{ACAD_REACTORS
330
AE5B
102
}
330
AE5B
100
AcDbVisualStyle
  2
Thicken
 70
    13
 71
     2
 72
     2
 73
     0
 90
        0
 40
-0.6
 41
-30.0
 62
     5
 63
     7
 74
     1
 91
        4
 64
     7
 65
   257
 75
     1
175
     1
 42
1.0
 92
       12
 66
     7
 43
1.0
 76
     1
 77
     6
 78
     2
 67
     7
 79
     5
170
     0
171
     0
290
     0
174
     0
 93
        1
 44
0.0
173
     0
291
     1
 45
0.0
1001
ACAD
1000
AcDbSavedByObjectVersion
1070
     0
  0
VISUALSTYLE
  5
AE62
102
{ACAD_XDICTIONARY
360
AEC1
102
}
102
{ACAD_REACTORS
330
AE5B
102
}
330
AE5B
100
AcDbVisualStyle
  2
Wireframe
 70
     5
 71
     0
 72
     2
 73
     0
 90
        0
 40
-0.6
 41
-30.0
 62
     5
 63
     7
 74
     1
 91
        4
 64
     7
 65
   257
 75
     1
175
     1
 42
1.0
 92
        0
 66
   257
 43
1.0
 76
     1
 77
     6
 78
     2
 67
     7
 79
     3
170
     0
171
     0
290
     0
174
     0
 93
        1
 44
0.0
173
     0
291
     0
 45
0.0
1001
ACAD
1000
AcDbSavedByObjectVersion
1070
     0
  0
VISUALSTYLE
  5
AE6E
102
{ACAD_XDICTIONARY
360
AED9
102
}
102
{ACAD_REACTORS
330
AE5B
102
}
330
AE5B
100
AcDbVisualStyle
  2
X-Ray
 70
    25
 71
     2
 72
     2
 73
     1
 90
        1
 40
0.5
 41
-30.0
 62
     5
 63
     7
 74
     1
 91
        0
 64
     7
 65
   257
 75
     1
175
     1
 42
1.0
 92
        8
 66
     7
 43
1.0
 76
     1
 77
     6
 78
     2
 67
     7
 79
     3
170
     0
171
     0
290
     0
174
     0
 93
       13
 44
0.0
173
     0
291
     0
 45
0.0
1001
ACAD
1000
AcDbSavedByObjectVersion
1070
     0
  0
DICTIONARYVAR
  5
AEA8
102
{ACAD_REACTORS
330
AEA3
102
}
330
AEA3
100
DictionaryVariables
280
     0
  1
1:1
  0
DICTIONARYVAR
  5
AEA5
102
{ACAD_REACTORS
330
AEA3
102
}
330
AEA3
100
DictionaryVariables
280
     0
  1
STANDARD
  0
DICTIONARYVAR
  5
AEA4
102
{ACAD_REACTORS
330
AEA3
102
}
330
AEA3
100
DictionaryVariables
280
     0
  1
STANDARD
  0
DICTIONARYVAR
  5
AEA6
102
{ACAD_REACTORS
330
AEA3
102
}
330
AEA3
100
DictionaryVariables
280
     0
  1
Imperial24
  0
DICTIONARYVAR
  5
AEA7
102
{ACAD_REACTORS
330
AEA3
102
}
330
AEA3
100
DictionaryVariables
280
     0
  1
Imperial24
  0
DICTIONARYVAR
  5
AEAB
102
{ACAD_REACTORS
330
AEA3
102
}
330
AEA3
100
DictionaryVariables
280
     0
  1
1
  0
DICTIONARYVAR
  5
AEAA
102
{ACAD_REACTORS
330
AEA3
102
}
330
AEA3
100
DictionaryVariables
280
     0
  1
0
  0
DICTIONARYVAR
  5
AEA9
102
{ACAD_REACTORS
330
AEA3
102
}
330
AEA3
100
DictionaryVariables
280
     0
  1
127
  0
DICTIONARYVAR
  5
AEAC
102
{ACAD_REACTORS
330
AEA3
102
}
330
AEA3
100
DictionaryVariables
280
     0
  1
2
  0
DICTIONARY
  5
AEE9
330
AE8E
100
AcDbDictionary
280
     1
281
     1
  3
ACAD_XREC_ROUNDTRIP
360
AEEA
  0
DICTIONARY
  5
AEEB
330
AE8F
100
AcDbDictionary
280
     1
281
     1
  3
ACAD_XREC_ROUNDTRIP
360
AEEC
  0
DICTIONARY
  5
AEED
330
AE90
100
AcDbDictionary
280
     1
281
     1
  3
ACAD_XREC_ROUNDTRIP
360
AEEE
  0
DICTIONARY
  5
AE4C
330
AE4B
100
AcDbDictionary
280
     1
281
     1
  3
ACAD_XREC_ROUNDTRIP
360
AEB3
  3
BUMPTILE
360
AE4E
  3
DIFFUSETILE
360
AE4D
  3
OPACITYTILE
360
AE51
  3
REFLECTIONTILE
360
AE50
  3
REFRACTIONTILE
360
AE52
  3
SPECULARTILE
360
AE4F
  0
DICTIONARY
  5
AE44
330
AE43
100
AcDbDictionary
280
     1
281
     1
  3
ACAD_XREC_ROUNDTRIP
360
AEB2
  3
BUMPTILE
360
AE46
  3
DIFFUSETILE
360
AE45
  3
OPACITYTILE
360
AE49
  3
REFLECTIONTILE
360
AE48
  3
REFRACTIONTILE
360
AE4A
  3
SPECULARTILE
360
AE47
  0
DICTIONARY
  5
AE54
330
AE53
100
AcDbDictionary
280
     1
281
     1
  3
ACAD_XREC_ROUNDTRIP
360
AEB4
  3
BUMPTILE
360
AE56
  3
DIFFUSETILE
360
AE55
  3
OPACITYTILE
360
AE59
  3
REFLECTIONTILE
360
AE58
  3
REFRACTIONTILE
360
AE5A
  3
SPECULARTILE
360
AE57
  0
DICTIONARY
  5
AEE7
330
AE8C
100
AcDbDictionary
280
     1
281
     1
  3
ACAD_XREC_ROUNDTRIP
360
AEE8
  0
DICTIONARY
  5
AEAE
330
AE76
100
AcDbDictionary
280
     1
281
     1
  3
ACAD_ROUNDTRIP_2008_TABLESTYLE_CELLSTYLEMAP
360
AEAF
  3
ACAD_XREC_ROUNDTRIP
360
AEE5
  0
DICTIONARY
  5
AEBF
330
AE61
100
AcDbDictionary
280
     1
281
     1
  3
ACAD_XREC_ROUNDTRIP
360
AEC0
  0
DICTIONARY
  5
AEBD
330
AE60
100
AcDbDictionary
280
     1
281
     1
  3
ACAD_XREC_ROUNDTRIP
360
AEBE
  0
DICTIONARY
  5
AECB
330
AE67
100
AcDbDictionary
280
     1
281
     1
  3
ACAD_XREC_ROUNDTRIP
360
AECC
  0
DICTIONARY
  5
AED3
330
AE6B
100
AcDbDictionary
280
     1
281
     1
  3
ACAD_XREC_ROUNDTRIP
360
AED4
  0
DICTIONARY
  5
AEC5
330
AE64
100
AcDbDictionary
280
     1
281
     1
  3
ACAD_XREC_ROUNDTRIP
360
AEC6
  0
DICTIONARY
  5
AEC9
330
AE66
100
AcDbDictionary
280
     1
281
     1
  3
ACAD_XREC_ROUNDTRIP
360
AECA
  0
DICTIONARY
  5
AEE3
330
AE73
100
AcDbDictionary
280
     1
281
     1
  3
ACAD_XREC_ROUNDTRIP
360
AEE4
  0
DICTIONARY
  5
AED1
330
AE6A
100
AcDbDictionary
280
     1
281
     1
  3
ACAD_XREC_ROUNDTRIP
360
AED2
  0
DICTIONARY
  5
AEB5
330
AE5C
100
AcDbDictionary
280
     1
281
     1
  3
ACAD_XREC_ROUNDTRIP
360
AEB6
  0
DICTIONARY
  5
AEB7
330
AE5D
100
AcDbDictionary
280
     1
281
     1
  3
ACAD_XREC_ROUNDTRIP
360
AEB8
  0
DICTIONARY
  5
AEB9
330
AE5E
100
AcDbDictionary
280
     1
281
     1
  3
ACAD_XREC_ROUNDTRIP
360
AEBA
  0
DICTIONARY
  5
AEBB
330
AE5F
100
AcDbDictionary
280
     1
281
     1
  3
ACAD_XREC_ROUNDTRIP
360
AEBC
  0
DICTIONARY
  5
AEC3
330
AE63
100
AcDbDictionary
280
     1
281
     1
  3
ACAD_XREC_ROUNDTRIP
360
AEC4
  0
DICTIONARY
  5
AEDF
330
AE71
100
AcDbDictionary
280
     1
281
     1
  3
ACAD_XREC_ROUNDTRIP
360
AEE0
  0
DICTIONARY
  5
AECF
330
AE69
100
AcDbDictionary
280
     1
281
     1
  3
ACAD_XREC_ROUNDTRIP
360
AED0
  0
DICTIONARY
  5
AEE1
330
AE72
100
AcDbDictionary
280
     1
281
     1
  3
ACAD_XREC_ROUNDTRIP
360
AEE2
  0
DICTIONARY
  5
AEC7
330
AE65
100
AcDbDictionary
280
     1
281
     1
  3
ACAD_XREC_ROUNDTRIP
360
AEC8
  0
DICTIONARY
  5
AEDD
330
AE70
100
AcDbDictionary
280
     1
281
     1
  3
ACAD_XREC_ROUNDTRIP
360
AEDE
  0
DICTIONARY
  5
AEDB
330
AE6F
100
AcDbDictionary
280
     1
281
     1
  3
ACAD_XREC_ROUNDTRIP
360
AEDC
  0
DICTIONARY
  5
AED5
330
AE6C
100
AcDbDictionary
280
     1
281
     1
  3
ACAD_XREC_ROUNDTRIP
360
AED6
  0
DICTIONARY
  5
AED7
330
AE6D
100
AcDbDictionary
280
     1
281
     1
  3
ACAD_XREC_ROUNDTRIP
360
AED8
  0
DICTIONARY
  5
AECD
330
AE68
100
AcDbDictionary
280
     1
281
     1
  3
ACAD_XREC_ROUNDTRIP
360
AECE
  0
DICTIONARY
  5
AEC1
330
AE62
100
AcDbDictionary
280
     1
281
     1
  3
ACAD_XREC_ROUNDTRIP
360
AEC2
  0
DICTIONARY
  5
AED9
330
AE6E
100
AcDbDictionary
280
     1
281
     1
  3
ACAD_XREC_ROUNDTRIP
360
AEDA
  0
XRECORD
  5
AEEA
102
{ACAD_REACTORS
330
AEE9
102
}
330
AEE9
100
AcDbXrecord
280
     1
102
DISPLAYNAME
  1
Imperial24
102
FLAGS
 90
        0
  0
XRECORD
  5
AEEC
102
{ACAD_REACTORS
330
AEEB
102
}
330
AEEB
100
AcDbXrecord
280
     1
102
SHADEPLOT
 70
     0
102
SHADEPLOTRESLEVEL
 70
     2
102
SHADEPLOTCUSTOMDPI
 70
   300
  0
XRECORD
  5
AEEE
102
{ACAD_REACTORS
330
AEED
102
}
330
AEED
100
AcDbXrecord
280
     1
102
SHADEPLOT
 70
     0
102
SHADEPLOTRESLEVEL
 70
     2
102
SHADEPLOTCUSTOMDPI
 70
   300
  0
XRECORD
  5
AEB3
102
{ACAD_REACTORS
330
AE4C
102
}
330
AE4C
100
AcDbXrecord
280
     1
102
MATERIAL
148
0.0
149
0.0
149
0.0
 93
        0
 94
      127
282
     0
 72
     0
 77
     0
171
     0
175
     0
179
     0
273
     0
  0
XRECORD
  5
AE4E
102
{ACAD_REACTORS
330
AE4C
102
}
330
AE4C
100
AcDbXrecord
280
     1
270
     1
271
     1
  0
XRECORD
  5
AE4D
102
{ACAD_REACTORS
330
AE4C
102
}
330
AE4C
100
AcDbXrecord
280
     1
270
     1
271
     1
  0
XRECORD
  5
AE51
102
{ACAD_REACTORS
330
AE4C
102
}
330
AE4C
100
AcDbXrecord
280
     1
270
     1
271
     1
  0
XRECORD
  5
AE50
102
{ACAD_REACTORS
330
AE4C
102
}
330
AE4C
100
AcDbXrecord
280
     1
270
     1
271
     1
  0
XRECORD
  5
AE52
102
{ACAD_REACTORS
330
AE4C
102
}
330
AE4C
100
AcDbXrecord
280
     1
270
     1
271
     1
  0
XRECORD
  5
AE4F
102
{ACAD_REACTORS
330
AE4C
102
}
330
AE4C
100
AcDbXrecord
280
     1
270
     1
271
     1
  0
XRECORD
  5
AEB2
102
{ACAD_REACTORS
330
AE44
102
}
330
AE44
100
AcDbXrecord
280
     1
102
MATERIAL
148
0.0
149
0.0
149
0.0
 93
        0
 94
      127
282
     0
 72
     0
 77
     0
171
     0
175
     0
179
     0
273
     0
  0
XRECORD
  5
AE46
102
{ACAD_REACTORS
330
AE44
102
}
330
AE44
100
AcDbXrecord
280
     1
270
     1
271
     1
  0
XRECORD
  5
AE45
102
{ACAD_REACTORS
330
AE44
102
}
330
AE44
100
AcDbXrecord
280
     1
270
     1
271
     1
  0
XRECORD
  5
AE49
102
{ACAD_REACTORS
330
AE44
102
}
330
AE44
100
AcDbXrecord
280
     1
270
     1
271
     1
  0
XRECORD
  5
AE48
102
{ACAD_REACTORS
330
AE44
102
}
330
AE44
100
AcDbXrecord
280
     1
270
     1
271
     1
  0
XRECORD
  5
AE4A
102
{ACAD_REACTORS
330
AE44
102
}
330
AE44
100
AcDbXrecord
280
     1
270
     1
271
     1
  0
XRECORD
  5
AE47
102
{ACAD_REACTORS
330
AE44
102
}
330
AE44
100
AcDbXrecord
280
     1
270
     1
271
     1
  0
XRECORD
  5
AEB4
102
{ACAD_REACTORS
330
AE54
102
}
330
AE54
100
AcDbXrecord
280
     1
102
MATERIAL
148
0.0
149
0.0
149
0.0
 93
        0
 94
      127
282
     0
 72
     0
 77
     0
171
     0
175
     0
179
     0
273
     0
  0
XRECORD
  5
AE56
102
{ACAD_REACTORS
330
AE54
102
}
330
AE54
100
AcDbXrecord
280
     1
270
     1
271
     1
  0
XRECORD
  5
AE55
102
{ACAD_REACTORS
330
AE54
102
}
330
AE54
100
AcDbXrecord
280
     1
270
     1
271
     1
  0
XRECORD
  5
AE59
102
{ACAD_REACTORS
330
AE54
102
}
330
AE54
100
AcDbXrecord
280
     1
270
     1
271
     1
  0
XRECORD
  5
AE58
102
{ACAD_REACTORS
330
AE54
102
}
330
AE54
100
AcDbXrecord
280
     1
270
     1
271
     1
  0
XRECORD
  5
AE5A
102
{ACAD_REACTORS
330
AE54
102
}
330
AE54
100
AcDbXrecord
280
     1
270
     1
271
     1
  0
XRECORD
  5
AE57
102
{ACAD_REACTORS
330
AE54
102
}
330
AE54
100
AcDbXrecord
280
     1
270
     1
271
     1
  0
XRECORD
  5
AEE8
102
{ACAD_REACTORS
330
AEE7
102
}
330
AEE7
100
AcDbXrecord
280
     1
102
DISPLAYNAME
  1
Imperial24
102
FLAGS
 90
        0
  0
CELLSTYLEMAP
  5
AEAF
102
{ACAD_REACTORS
330
AEAE
102
}
330
AEAE
100
AcDbCellStyleMap
 90
        3
300
CELLSTYLE
  1
TABLEFORMAT_BEGIN
 90
        5
170
     1
 91
        0
 92
    32768
 62
   257
 93
        1
300
CONTENTFORMAT
  1
CONTENTFORMAT_BEGIN
 90
        0
 91
        0
 92
      512
 93
        0
300

 40
0.0
140
1.0
 94
        5
 62
     0
340
AB73
144
0.25
309
CONTENTFORMAT_END
171
     0
 94
        0
309
TABLEFORMAT_END
  1
CELLSTYLE_BEGIN
 90
        1
 91
        1
300
_TITLE
309
CELLSTYLE_END
300
CELLSTYLE
  1
TABLEFORMAT_BEGIN
 90
        5
170
     1
 91
        0
 92
        0
 62
   257
 93
        1
300
CONTENTFORMAT
  1
CONTENTFORMAT_BEGIN
 90
        0
 91
        0
 92
      512
 93
        0
300

 40
0.0
140
1.0
 94
        5
 62
     0
340
AB73
144
0.18
309
CONTENTFORMAT_END
171
     0
 94
        0
309
TABLEFORMAT_END
  1
CELLSTYLE_BEGIN
 90
        2
 91
        1
300
_HEADER
309
CELLSTYLE_END
300
CELLSTYLE
  1
TABLEFORMAT_BEGIN
 90
        5
170
     1
 91
        0
 92
        0
 62
   257
 93
        1
300
CONTENTFORMAT
  1
CONTENTFORMAT_BEGIN
 90
        0
 91
        0
 92
      512
 93
        0
300

 40
0.0
140
1.0
 94
        2
 62
     0
340
AB73
144
0.18
309
CONTENTFORMAT_END
171
     0
 94
        0
309
TABLEFORMAT_END
  1
CELLSTYLE_BEGIN
 90
        3
 91
        2
300
_DATA
309
CELLSTYLE_END
  0
XRECORD
  5
AEE5
102
{ACAD_REACTORS
330
AEAE
102
}
330
AEAE
100
AcDbXrecord
280
     1
102
ACAD_ROUNDTRIP_PRE2007_TABLESTYLE
 90
      512
 91
        0
  1

 92
      512
 93
        0
  2

 94
      512
 95
        0
  3

  0
XRECORD
  5
AEC0
102
{ACAD_REACTORS
330
AEBF
102
}
330
AEBF
100
AcDbXrecord
280
     1
102
RTVSPost2010Prop28
280
     1
102
RTVSPost2010PropOp28
 70
     1
102
RTVSPost2010Prop29
280
     1
102
RTVSPost2010PropOp29
 70
     1
102
RTVSPost2010Prop30
280
     0
102
RTVSPost2010PropOp30
 70
     1
102
RTVSPost2010Prop31
280
     0
102
RTVSPost2010PropOp31
 70
     1
102
RTVSPost2010Prop32
280
     0
102
RTVSPost2010PropOp32
 70
     1
102
RTVSPost2010Prop33
280
     0
102
RTVSPost2010PropOp33
 70
     1
102
RTVSPost2010Prop34
280
     0
102
RTVSPost2010PropOp34
 70
     1
102
RTVSPost2010Prop35
280
     0
102
RTVSPost2010PropOp35
 70
     1
102
RTVSPost2010Prop36
280
     0
102
RTVSPost2010PropOp36
 70
     1
102
RTVSPost2010Prop37
 90
       50
102
RTVSPost2010PropOp37
 70
     1
102
RTVSPost2010Prop38
140
0.0
102
RTVSPost2010PropOp38
 70
     1
102
RTVSPost2010Prop39
140
1.0
102
RTVSPost2010PropOp39
 70
     1
102
RTVSPost2010Prop40
 90
        0
102
RTVSPost2010PropOp40
 70
     1
102
RTVSPost2010Prop41ColorIndex
 90
       18
102
RTVSPost2010Prop41ColorRGB
 90
        0
102
RTVSPost2010PropOp41
 70
     1
102
RTVSPost2010Prop42
 90
       50
102
RTVSPost2010PropOp42
 70
     1
102
RTVSPost2010Prop43
 90
        3
102
RTVSPost2010PropOp43
 70
     1
102
RTVSPost2010Prop44ColorIndex
 90
        5
102
RTVSPost2010Prop44ColorRGB
 90
      255
102
RTVSPost2010PropOp44
 70
     1
102
RTVSPost2010Prop45
280
     0
102
RTVSPost2010PropOp45
 70
     1
102
RTVSPost2010Prop46
 90
       50
102
RTVSPost2010PropOp46
 70
     1
102
RTVSPost2010Prop47
 90
       50
102
RTVSPost2010PropOp47
 70
     1
102
RTVSPost2010Prop48
 90
       50
102
RTVSPost2010PropOp48
 70
     1
102
RTVSPost2010Prop49
280
     0
102
RTVSPost2010PropOp49
 70
     1
102
RTVSPost2010Prop50
 90
       50
102
RTVSPost2010PropOp50
 70
     1
102
RTVSPost2010Prop51ColorIndex
 90
      256
102
RTVSPost2010Prop51ColorRGB
 90
-16777216
102
RTVSPost2010PropOp51
 70
     0
102
RTVSPost2010Prop52
140
1.0
102
RTVSPost2010PropOp52
 70
     0
102
RTVSPost2010Prop53
 90
        2
102
RTVSPost2010PropOp53
 70
     1
102
RTVSPost2010Prop54
  1
strokes_ogs.tif
102
RTVSPost2010PropOp54
 70
     1
102
RTVSPost2010Prop55
280
     0
102
RTVSPost2010PropOp55
 70
     1
102
RTVSPost2010Prop56
140
1.0
102
RTVSPost2010PropOp56
 70
     1
102
RTVSPost2010Prop57
140
1.0
102
RTVSPost2010PropOp57
 70
     1
102
RTVSPropertyOp0
 70
     1
102
RTVSPropertyOp1
 70
     1
102
RTVSPropertyOp2
 70
     1
102
RTVSPropertyOp3
 70
     1
102
RTVSPropertyOp4
 70
     1
102
RTVSPropertyOp5
 70
     1
102
RTVSPropertyOp6
 70
     1
102
RTVSPropertyOp7
 70
     1
102
RTVSPropertyOp8
 70
     1
102
RTVSPropertyOp9
 70
     1
102
RTVSPropertyOp10
 70
     1
102
RTVSPropertyOp11
 70
     1
102
RTVSPropertyOp12
 70
     1
102
RTVSPropertyOp13
 70
     1
102
RTVSPropertyOp14
 70
     1
102
RTVSPropertyOp15
 70
     1
102
RTVSPropertyOp16
 70
     1
102
RTVSPropertyOp17
 70
     1
102
RTVSPropertyOp18
 70
     1
102
RTVSPropertyOp19
 70
     1
102
RTVSPropertyOp20
 70
     1
102
RTVSPropertyOp21
 70
     1
102
RTVSPropertyOp22
 70
     1
102
RTVSPropertyOp23
 70
     1
102
RTVSPropertyOp24
 70
     1
102
RTVSPropertyOp25
 70
     1
102
RTVSPropertyOp26
 70
     1
102
RTVSPropertyOp27
 70
     1
102
RTVSPropertyOp28
 70
     1
102
RTVSPropertyOp29
 70
     1
102
RTVSPropertyOp30
 70
     1
102
RTVSPropertyOp31
 70
     1
102
RTVSPropertyOp32
 70
     1
102
RTVSPropertyOp33
 70
     1
102
RTVSPropertyOp34
 70
     1
102
RTVSPropertyOp35
 70
     1
102
RTVSPropertyOp36
 70
     1
102
RTVSPropertyOp37
 70
     1
102
RTVSPropertyOp38
 70
     1
102
RTVSPropertyOp39
 70
     1
102
RTVSPropertyOp40
 70
     1
102
RTVSPropertyOp41
 70
     1
102
RTVSPropertyOp42
 70
     1
102
RTVSPropertyOp43
 70
     1
102
RTVSPropertyOp44
 70
     1
102
RTVSPropertyOp45
 70
     1
102
RTVSPropertyOp46
 70
     1
102
RTVSPropertyOp47
 70
     1
102
RTVSPropertyOp48
 70
     1
102
RTVSPropertyOp49
 70
     1
102
RTVSPropertyOp50
 70
     1
102
RTVSPropertyOp51
 70
     0
102
RTVSPropertyOp52
 70
     0
102
RTVSPropertyOp53
 70
     1
102
RTVSPropertyOp54
 70
     1
102
RTVSPropertyOp55
 70
     1
102
RTVSPropertyOp56
 70
     1
102
RTVSPropertyOp57
 70
     1
102
RTVSPropertyOp58
 70
     1
102
RTVSPropertyOp59
 70
     1
102
RTVSPropertyOp60
 70
     1
102
RTVSPropertyOp61
 70
     1
102
RTVSPropertyOp62
 70
     1
  0
XRECORD
  5
AEBE
102
{ACAD_REACTORS
330
AEBD
102
}
330
AEBD
100
AcDbXrecord
280
     1
102
RTVSPost2010Prop28
280
     0
102
RTVSPost2010PropOp28
 70
     1
102
RTVSPost2010Prop29
280
     1
102
RTVSPost2010PropOp29
 70
     1
102
RTVSPost2010Prop30
280
     1
102
RTVSPost2010PropOp30
 70
     1
102
RTVSPost2010Prop31
280
     0
102
RTVSPost2010PropOp31
 70
     1
102
RTVSPost2010Prop32
280
     0
102
RTVSPost2010PropOp32
 70
     1
102
RTVSPost2010Prop33
280
     0
102
RTVSPost2010PropOp33
 70
     1
102
RTVSPost2010Prop34
280
     0
102
RTVSPost2010PropOp34
 70
     1
102
RTVSPost2010Prop35
280
     0
102
RTVSPost2010PropOp35
 70
     1
102
RTVSPost2010Prop36
280
     0
102
RTVSPost2010PropOp36
 70
     1
102
RTVSPost2010Prop37
 90
       50
102
RTVSPost2010PropOp37
 70
     1
102
RTVSPost2010Prop38
140
0.0
102
RTVSPost2010PropOp38
 70
     1
102
RTVSPost2010Prop39
140
1.0
102
RTVSPost2010PropOp39
 70
     1
102
RTVSPost2010Prop40
 90
        0
102
RTVSPost2010PropOp40
 70
     1
102
RTVSPost2010Prop41ColorIndex
 90
       18
102
RTVSPost2010Prop41ColorRGB
 90
        0
102
RTVSPost2010PropOp41
 70
     1
102
RTVSPost2010Prop42
 90
       50
102
RTVSPost2010PropOp42
 70
     1
102
RTVSPost2010Prop43
 90
        3
102
RTVSPost2010PropOp43
 70
     1
102
RTVSPost2010Prop44ColorIndex
 90
        5
102
RTVSPost2010Prop44ColorRGB
 90
      255
102
RTVSPost2010PropOp44
 70
     1
102
RTVSPost2010Prop45
280
     0
102
RTVSPost2010PropOp45
 70
     1
102
RTVSPost2010Prop46
 90
       50
102
RTVSPost2010PropOp46
 70
     1
102
RTVSPost2010Prop47
 90
       50
102
RTVSPost2010PropOp47
 70
     1
102
RTVSPost2010Prop48
 90
       50
102
RTVSPost2010PropOp48
 70
     1
102
RTVSPost2010Prop49
280
     0
102
RTVSPost2010PropOp49
 70
     1
102
RTVSPost2010Prop50
 90
       50
102
RTVSPost2010PropOp50
 70
     1
102
RTVSPost2010Prop51ColorIndex
 90
      256
102
RTVSPost2010Prop51ColorRGB
 90
-16777216
102
RTVSPost2010PropOp51
 70
     0
102
RTVSPost2010Prop52
140
1.0
102
RTVSPost2010PropOp52
 70
     0
102
RTVSPost2010Prop53
 90
        2
102
RTVSPost2010PropOp53
 70
     1
102
RTVSPost2010Prop54
  1
strokes_ogs.tif
102
RTVSPost2010PropOp54
 70
     1
102
RTVSPost2010Prop55
280
     0
102
RTVSPost2010PropOp55
 70
     1
102
RTVSPost2010Prop56
140
1.0
102
RTVSPost2010PropOp56
 70
     1
102
RTVSPost2010Prop57
140
1.0
102
RTVSPost2010PropOp57
 70
     1
102
RTVSPropertyOp0
 70
     1
102
RTVSPropertyOp1
 70
     1
102
RTVSPropertyOp2
 70
     1
102
RTVSPropertyOp3
 70
     1
102
RTVSPropertyOp4
 70
     1
102
RTVSPropertyOp5
 70
     1
102
RTVSPropertyOp6
 70
     1
102
RTVSPropertyOp7
 70
     1
102
RTVSPropertyOp8
 70
     1
102
RTVSPropertyOp9
 70
     1
102
RTVSPropertyOp10
 70
     1
102
RTVSPropertyOp11
 70
     1
102
RTVSPropertyOp12
 70
     1
102
RTVSPropertyOp13
 70
     1
102
RTVSPropertyOp14
 70
     1
102
RTVSPropertyOp15
 70
     1
102
RTVSPropertyOp16
 70
     1
102
RTVSPropertyOp17
 70
     1
102
RTVSPropertyOp18
 70
     1
102
RTVSPropertyOp19
 70
     1
102
RTVSPropertyOp20
 70
     1
102
RTVSPropertyOp21
 70
     1
102
RTVSPropertyOp22
 70
     1
102
RTVSPropertyOp23
 70
     1
102
RTVSPropertyOp24
 70
     1
102
RTVSPropertyOp25
 70
     1
102
RTVSPropertyOp26
 70
     1
102
RTVSPropertyOp27
 70
     1
102
RTVSPropertyOp28
 70
     1
102
RTVSPropertyOp29
 70
     1
102
RTVSPropertyOp30
 70
     1
102
RTVSPropertyOp31
 70
     1
102
RTVSPropertyOp32
 70
     1
102
RTVSPropertyOp33
 70
     1
102
RTVSPropertyOp34
 70
     1
102
RTVSPropertyOp35
 70
     1
102
RTVSPropertyOp36
 70
     1
102
RTVSPropertyOp37
 70
     1
102
RTVSPropertyOp38
 70
     1
102
RTVSPropertyOp39
 70
     1
102
RTVSPropertyOp40
 70
     1
102
RTVSPropertyOp41
 70
     1
102
RTVSPropertyOp42
 70
     1
102
RTVSPropertyOp43
 70
     1
102
RTVSPropertyOp44
 70
     1
102
RTVSPropertyOp45
 70
     1
102
RTVSPropertyOp46
 70
     1
102
RTVSPropertyOp47
 70
     1
102
RTVSPropertyOp48
 70
     1
102
RTVSPropertyOp49
 70
     1
102
RTVSPropertyOp50
 70
     1
102
RTVSPropertyOp51
 70
     0
102
RTVSPropertyOp52
 70
     0
102
RTVSPropertyOp53
 70
     1
102
RTVSPropertyOp54
 70
     1
102
RTVSPropertyOp55
 70
     1
102
RTVSPropertyOp56
 70
     1
102
RTVSPropertyOp57
 70
     1
102
RTVSPropertyOp58
 70
     1
102
RTVSPropertyOp59
 70
     1
102
RTVSPropertyOp60
 70
     1
102
RTVSPropertyOp61
 70
     1
102
RTVSPropertyOp62
 70
     1
  0
XRECORD
  5
AECC
102
{ACAD_REACTORS
330
AECB
102
}
330
AECB
100
AcDbXrecord
280
     1
102
RTVSPost2010Prop28
280
     0
102
RTVSPost2010PropOp28
 70
     1
102
RTVSPost2010Prop29
280
     1
102
RTVSPost2010PropOp29
 70
     1
102
RTVSPost2010Prop30
280
     1
102
RTVSPost2010PropOp30
 70
     1
102
RTVSPost2010Prop31
280
     0
102
RTVSPost2010PropOp31
 70
     1
102
RTVSPost2010Prop32
280
     0
102
RTVSPost2010PropOp32
 70
     1
102
RTVSPost2010Prop33
280
     0
102
RTVSPost2010PropOp33
 70
     1
102
RTVSPost2010Prop34
280
     0
102
RTVSPost2010PropOp34
 70
     1
102
RTVSPost2010Prop35
280
     0
102
RTVSPost2010PropOp35
 70
     1
102
RTVSPost2010Prop36
280
     0
102
RTVSPost2010PropOp36
 70
     1
102
RTVSPost2010Prop37
 90
       50
102
RTVSPost2010PropOp37
 70
     1
102
RTVSPost2010Prop38
140
0.0
102
RTVSPost2010PropOp38
 70
     1
102
RTVSPost2010Prop39
140
1.0
102
RTVSPost2010PropOp39
 70
     1
102
RTVSPost2010Prop40
 90
        0
102
RTVSPost2010PropOp40
 70
     1
102
RTVSPost2010Prop41ColorIndex
 90
       18
102
RTVSPost2010Prop41ColorRGB
 90
        0
102
RTVSPost2010PropOp41
 70
     1
102
RTVSPost2010Prop42
 90
       50
102
RTVSPost2010PropOp42
 70
     1
102
RTVSPost2010Prop43
 90
        3
102
RTVSPost2010PropOp43
 70
     1
102
RTVSPost2010Prop44ColorIndex
 90
        5
102
RTVSPost2010Prop44ColorRGB
 90
      255
102
RTVSPost2010PropOp44
 70
     1
102
RTVSPost2010Prop45
280
     0
102
RTVSPost2010PropOp45
 70
     1
102
RTVSPost2010Prop46
 90
       50
102
RTVSPost2010PropOp46
 70
     1
102
RTVSPost2010Prop47
 90
       50
102
RTVSPost2010PropOp47
 70
     1
102
RTVSPost2010Prop48
 90
       50
102
RTVSPost2010PropOp48
 70
     1
102
RTVSPost2010Prop49
280
     0
102
RTVSPost2010PropOp49
 70
     1
102
RTVSPost2010Prop50
 90
       50
102
RTVSPost2010PropOp50
 70
     1
102
RTVSPost2010Prop51ColorIndex
 90
      256
102
RTVSPost2010Prop51ColorRGB
 90
-16777216
102
RTVSPost2010PropOp51
 70
     0
102
RTVSPost2010Prop52
140
1.0
102
RTVSPost2010PropOp52
 70
     0
102
RTVSPost2010Prop53
 90
        2
102
RTVSPost2010PropOp53
 70
     1
102
RTVSPost2010Prop54
  1
strokes_ogs.tif
102
RTVSPost2010PropOp54
 70
     1
102
RTVSPost2010Prop55
280
     0
102
RTVSPost2010PropOp55
 70
     1
102
RTVSPost2010Prop56
140
1.0
102
RTVSPost2010PropOp56
 70
     1
102
RTVSPost2010Prop57
140
1.0
102
RTVSPost2010PropOp57
 70
     1
102
RTVSPropertyOp0
 70
     1
102
RTVSPropertyOp1
 70
     1
102
RTVSPropertyOp2
 70
     1
102
RTVSPropertyOp3
 70
     1
102
RTVSPropertyOp4
 70
     1
102
RTVSPropertyOp5
 70
     1
102
RTVSPropertyOp6
 70
     1
102
RTVSPropertyOp7
 70
     1
102
RTVSPropertyOp8
 70
     1
102
RTVSPropertyOp9
 70
     1
102
RTVSPropertyOp10
 70
     1
102
RTVSPropertyOp11
 70
     1
102
RTVSPropertyOp12
 70
     1
102
RTVSPropertyOp13
 70
     1
102
RTVSPropertyOp14
 70
     1
102
RTVSPropertyOp15
 70
     1
102
RTVSPropertyOp16
 70
     1
102
RTVSPropertyOp17
 70
     1
102
RTVSPropertyOp18
 70
     1
102
RTVSPropertyOp19
 70
     1
102
RTVSPropertyOp20
 70
     1
102
RTVSPropertyOp21
 70
     1
102
RTVSPropertyOp22
 70
     1
102
RTVSPropertyOp23
 70
     1
102
RTVSPropertyOp24
 70
     1
102
RTVSPropertyOp25
 70
     1
102
RTVSPropertyOp26
 70
     1
102
RTVSPropertyOp27
 70
     1
102
RTVSPropertyOp28
 70
     1
102
RTVSPropertyOp29
 70
     1
102
RTVSPropertyOp30
 70
     1
102
RTVSPropertyOp31
 70
     1
102
RTVSPropertyOp32
 70
     1
102
RTVSPropertyOp33
 70
     1
102
RTVSPropertyOp34
 70
     1
102
RTVSPropertyOp35
 70
     1
102
RTVSPropertyOp36
 70
     1
102
RTVSPropertyOp37
 70
     1
102
RTVSPropertyOp38
 70
     1
102
RTVSPropertyOp39
 70
     1
102
RTVSPropertyOp40
 70
     1
102
RTVSPropertyOp41
 70
     1
102
RTVSPropertyOp42
 70
     1
102
RTVSPropertyOp43
 70
     1
102
RTVSPropertyOp44
 70
     1
102
RTVSPropertyOp45
 70
     1
102
RTVSPropertyOp46
 70
     1
102
RTVSPropertyOp47
 70
     1
102
RTVSPropertyOp48
 70
     1
102
RTVSPropertyOp49
 70
     1
102
RTVSPropertyOp50
 70
     1
102
RTVSPropertyOp51
 70
     0
102
RTVSPropertyOp52
 70
     0
102
RTVSPropertyOp53
 70
     1
102
RTVSPropertyOp54
 70
     1
102
RTVSPropertyOp55
 70
     1
102
RTVSPropertyOp56
 70
     1
102
RTVSPropertyOp57
 70
     1
102
RTVSPropertyOp58
 70
     1
102
RTVSPropertyOp59
 70
     1
102
RTVSPropertyOp60
 70
     1
102
RTVSPropertyOp61
 70
     1
102
RTVSPropertyOp62
 70
     1
  0
XRECORD
  5
AED4
102
{ACAD_REACTORS
330
AED3
102
}
330
AED3
100
AcDbXrecord
280
     1
102
RTVSPost2010Prop28
280
     0
102
RTVSPost2010PropOp28
 70
     1
102
RTVSPost2010Prop29
280
     1
102
RTVSPost2010PropOp29
 70
     1
102
RTVSPost2010Prop30
280
     1
102
RTVSPost2010PropOp30
 70
     1
102
RTVSPost2010Prop31
280
     0
102
RTVSPost2010PropOp31
 70
     1
102
RTVSPost2010Prop32
280
     0
102
RTVSPost2010PropOp32
 70
     1
102
RTVSPost2010Prop33
280
     0
102
RTVSPost2010PropOp33
 70
     1
102
RTVSPost2010Prop34
280
     0
102
RTVSPost2010PropOp34
 70
     1
102
RTVSPost2010Prop35
280
     0
102
RTVSPost2010PropOp35
 70
     1
102
RTVSPost2010Prop36
280
     0
102
RTVSPost2010PropOp36
 70
     1
102
RTVSPost2010Prop37
 90
       50
102
RTVSPost2010PropOp37
 70
     1
102
RTVSPost2010Prop38
140
0.0
102
RTVSPost2010PropOp38
 70
     1
102
RTVSPost2010Prop39
140
1.0
102
RTVSPost2010PropOp39
 70
     1
102
RTVSPost2010Prop40
 90
        0
102
RTVSPost2010PropOp40
 70
     1
102
RTVSPost2010Prop41ColorIndex
 90
       18
102
RTVSPost2010Prop41ColorRGB
 90
        0
102
RTVSPost2010PropOp41
 70
     1
102
RTVSPost2010Prop42
 90
       50
102
RTVSPost2010PropOp42
 70
     1
102
RTVSPost2010Prop43
 90
        3
102
RTVSPost2010PropOp43
 70
     1
102
RTVSPost2010Prop44ColorIndex
 90
        5
102
RTVSPost2010Prop44ColorRGB
 90
      255
102
RTVSPost2010PropOp44
 70
     1
102
RTVSPost2010Prop45
280
     0
102
RTVSPost2010PropOp45
 70
     1
102
RTVSPost2010Prop46
 90
       50
102
RTVSPost2010PropOp46
 70
     1
102
RTVSPost2010Prop47
 90
       50
102
RTVSPost2010PropOp47
 70
     1
102
RTVSPost2010Prop48
 90
       50
102
RTVSPost2010PropOp48
 70
     1
102
RTVSPost2010Prop49
280
     0
102
RTVSPost2010PropOp49
 70
     1
102
RTVSPost2010Prop50
 90
       50
102
RTVSPost2010PropOp50
 70
     1
102
RTVSPost2010Prop51ColorIndex
 90
      256
102
RTVSPost2010Prop51ColorRGB
 90
-16777216
102
RTVSPost2010PropOp51
 70
     0
102
RTVSPost2010Prop52
140
1.0
102
RTVSPost2010PropOp52
 70
     0
102
RTVSPost2010Prop53
 90
        2
102
RTVSPost2010PropOp53
 70
     1
102
RTVSPost2010Prop54
  1
strokes_ogs.tif
102
RTVSPost2010PropOp54
 70
     1
102
RTVSPost2010Prop55
280
     0
102
RTVSPost2010PropOp55
 70
     1
102
RTVSPost2010Prop56
140
1.0
102
RTVSPost2010PropOp56
 70
     1
102
RTVSPost2010Prop57
140
1.0
102
RTVSPost2010PropOp57
 70
     1
102
RTVSPropertyOp0
 70
     1
102
RTVSPropertyOp1
 70
     1
102
RTVSPropertyOp2
 70
     1
102
RTVSPropertyOp3
 70
     1
102
RTVSPropertyOp4
 70
     1
102
RTVSPropertyOp5
 70
     1
102
RTVSPropertyOp6
 70
     1
102
RTVSPropertyOp7
 70
     1
102
RTVSPropertyOp8
 70
     1
102
RTVSPropertyOp9
 70
     1
102
RTVSPropertyOp10
 70
     1
102
RTVSPropertyOp11
 70
     1
102
RTVSPropertyOp12
 70
     1
102
RTVSPropertyOp13
 70
     1
102
RTVSPropertyOp14
 70
     1
102
RTVSPropertyOp15
 70
     1
102
RTVSPropertyOp16
 70
     1
102
RTVSPropertyOp17
 70
     1
102
RTVSPropertyOp18
 70
     1
102
RTVSPropertyOp19
 70
     1
102
RTVSPropertyOp20
 70
     1
102
RTVSPropertyOp21
 70
     1
102
RTVSPropertyOp22
 70
     1
102
RTVSPropertyOp23
 70
     1
102
RTVSPropertyOp24
 70
     1
102
RTVSPropertyOp25
 70
     1
102
RTVSPropertyOp26
 70
     1
102
RTVSPropertyOp27
 70
     1
102
RTVSPropertyOp28
 70
     1
102
RTVSPropertyOp29
 70
     1
102
RTVSPropertyOp30
 70
     1
102
RTVSPropertyOp31
 70
     1
102
RTVSPropertyOp32
 70
     1
102
RTVSPropertyOp33
 70
     1
102
RTVSPropertyOp34
 70
     1
102
RTVSPropertyOp35
 70
     1
102
RTVSPropertyOp36
 70
     1
102
RTVSPropertyOp37
 70
     1
102
RTVSPropertyOp38
 70
     1
102
RTVSPropertyOp39
 70
     1
102
RTVSPropertyOp40
 70
     1
102
RTVSPropertyOp41
 70
     1
102
RTVSPropertyOp42
 70
     1
102
RTVSPropertyOp43
 70
     1
102
RTVSPropertyOp44
 70
     1
102
RTVSPropertyOp45
 70
     1
102
RTVSPropertyOp46
 70
     1
102
RTVSPropertyOp47
 70
     1
102
RTVSPropertyOp48
 70
     1
102
RTVSPropertyOp49
 70
     1
102
RTVSPropertyOp50
 70
     1
102
RTVSPropertyOp51
 70
     0
102
RTVSPropertyOp52
 70
     0
102
RTVSPropertyOp53
 70
     1
102
RTVSPropertyOp54
 70
     1
102
RTVSPropertyOp55
 70
     1
102
RTVSPropertyOp56
 70
     1
102
RTVSPropertyOp57
 70
     1
102
RTVSPropertyOp58
 70
     1
102
RTVSPropertyOp59
 70
     1
102
RTVSPropertyOp60
 70
     1
102
RTVSPropertyOp61
 70
     1
102
RTVSPropertyOp62
 70
     1
  0
XRECORD
  5
AEC6
102
{ACAD_REACTORS
330
AEC5
102
}
330
AEC5
100
AcDbXrecord
280
     1
102
RTVSPost2010Prop28
280
     0
102
RTVSPost2010PropOp28
 70
     1
102
RTVSPost2010Prop29
280
     1
102
RTVSPost2010PropOp29
 70
     1
102
RTVSPost2010Prop30
280
     1
102
RTVSPost2010PropOp30
 70
     1
102
RTVSPost2010Prop31
280
     0
102
RTVSPost2010PropOp31
 70
     1
102
RTVSPost2010Prop32
280
     0
102
RTVSPost2010PropOp32
 70
     1
102
RTVSPost2010Prop33
280
     0
102
RTVSPost2010PropOp33
 70
     1
102
RTVSPost2010Prop34
280
     0
102
RTVSPost2010PropOp34
 70
     1
102
RTVSPost2010Prop35
280
     0
102
RTVSPost2010PropOp35
 70
     1
102
RTVSPost2010Prop36
280
     0
102
RTVSPost2010PropOp36
 70
     1
102
RTVSPost2010Prop37
 90
       50
102
RTVSPost2010PropOp37
 70
     1
102
RTVSPost2010Prop38
140
0.0
102
RTVSPost2010PropOp38
 70
     1
102
RTVSPost2010Prop39
140
1.0
102
RTVSPost2010PropOp39
 70
     1
102
RTVSPost2010Prop40
 90
        0
102
RTVSPost2010PropOp40
 70
     1
102
RTVSPost2010Prop41ColorIndex
 90
       18
102
RTVSPost2010Prop41ColorRGB
 90
        0
102
RTVSPost2010PropOp41
 70
     1
102
RTVSPost2010Prop42
 90
       50
102
RTVSPost2010PropOp42
 70
     1
102
RTVSPost2010Prop43
 90
        3
102
RTVSPost2010PropOp43
 70
     1
102
RTVSPost2010Prop44ColorIndex
 90
        5
102
RTVSPost2010Prop44ColorRGB
 90
      255
102
RTVSPost2010PropOp44
 70
     1
102
RTVSPost2010Prop45
280
     0
102
RTVSPost2010PropOp45
 70
     1
102
RTVSPost2010Prop46
 90
       50
102
RTVSPost2010PropOp46
 70
     1
102
RTVSPost2010Prop47
 90
       50
102
RTVSPost2010PropOp47
 70
     1
102
RTVSPost2010Prop48
 90
       50
102
RTVSPost2010PropOp48
 70
     1
102
RTVSPost2010Prop49
280
     0
102
RTVSPost2010PropOp49
 70
     1
102
RTVSPost2010Prop50
 90
       50
102
RTVSPost2010PropOp50
 70
     1
102
RTVSPost2010Prop51ColorIndex
 90
      256
102
RTVSPost2010Prop51ColorRGB
 90
-16777216
102
RTVSPost2010PropOp51
 70
     0
102
RTVSPost2010Prop52
140
1.0
102
RTVSPost2010PropOp52
 70
     0
102
RTVSPost2010Prop53
 90
        2
102
RTVSPost2010PropOp53
 70
     1
102
RTVSPost2010Prop54
  1
strokes_ogs.tif
102
RTVSPost2010PropOp54
 70
     1
102
RTVSPost2010Prop55
280
     0
102
RTVSPost2010PropOp55
 70
     1
102
RTVSPost2010Prop56
140
1.0
102
RTVSPost2010PropOp56
 70
     1
102
RTVSPost2010Prop57
140
1.0
102
RTVSPost2010PropOp57
 70
     1
102
RTVSPropertyOp0
 70
     1
102
RTVSPropertyOp1
 70
     1
102
RTVSPropertyOp2
 70
     1
102
RTVSPropertyOp3
 70
     1
102
RTVSPropertyOp4
 70
     1
102
RTVSPropertyOp5
 70
     1
102
RTVSPropertyOp6
 70
     1
102
RTVSPropertyOp7
 70
     1
102
RTVSPropertyOp8
 70
     1
102
RTVSPropertyOp9
 70
     1
102
RTVSPropertyOp10
 70
     1
102
RTVSPropertyOp11
 70
     1
102
RTVSPropertyOp12
 70
     1
102
RTVSPropertyOp13
 70
     1
102
RTVSPropertyOp14
 70
     1
102
RTVSPropertyOp15
 70
     1
102
RTVSPropertyOp16
 70
     1
102
RTVSPropertyOp17
 70
     1
102
RTVSPropertyOp18
 70
     1
102
RTVSPropertyOp19
 70
     1
102
RTVSPropertyOp20
 70
     1
102
RTVSPropertyOp21
 70
     1
102
RTVSPropertyOp22
 70
     1
102
RTVSPropertyOp23
 70
     1
102
RTVSPropertyOp24
 70
     1
102
RTVSPropertyOp25
 70
     1
102
RTVSPropertyOp26
 70
     1
102
RTVSPropertyOp27
 70
     1
102
RTVSPropertyOp28
 70
     1
102
RTVSPropertyOp29
 70
     1
102
RTVSPropertyOp30
 70
     1
102
RTVSPropertyOp31
 70
     1
102
RTVSPropertyOp32
 70
     1
102
RTVSPropertyOp33
 70
     1
102
RTVSPropertyOp34
 70
     1
102
RTVSPropertyOp35
 70
     1
102
RTVSPropertyOp36
 70
     1
102
RTVSPropertyOp37
 70
     1
102
RTVSPropertyOp38
 70
     1
102
RTVSPropertyOp39
 70
     1
102
RTVSPropertyOp40
 70
     1
102
RTVSPropertyOp41
 70
     1
102
RTVSPropertyOp42
 70
     1
102
RTVSPropertyOp43
 70
     1
102
RTVSPropertyOp44
 70
     1
102
RTVSPropertyOp45
 70
     1
102
RTVSPropertyOp46
 70
     1
102
RTVSPropertyOp47
 70
     1
102
RTVSPropertyOp48
 70
     1
102
RTVSPropertyOp49
 70
     1
102
RTVSPropertyOp50
 70
     1
102
RTVSPropertyOp51
 70
     0
102
RTVSPropertyOp52
 70
     0
102
RTVSPropertyOp53
 70
     1
102
RTVSPropertyOp54
 70
     1
102
RTVSPropertyOp55
 70
     1
102
RTVSPropertyOp56
 70
     1
102
RTVSPropertyOp57
 70
     1
102
RTVSPropertyOp58
 70
     1
102
RTVSPropertyOp59
 70
     1
102
RTVSPropertyOp60
 70
     1
102
RTVSPropertyOp61
 70
     1
102
RTVSPropertyOp62
 70
     1
  0
XRECORD
  5
AECA
102
{ACAD_REACTORS
330
AEC9
102
}
330
AEC9
100
AcDbXrecord
280
     1
102
RTVSPost2010Prop28
280
     0
102
RTVSPost2010PropOp28
 70
     1
102
RTVSPost2010Prop29
280
     1
102
RTVSPost2010PropOp29
 70
     1
102
RTVSPost2010Prop30
280
     1
102
RTVSPost2010PropOp30
 70
     1
102
RTVSPost2010Prop31
280
     0
102
RTVSPost2010PropOp31
 70
     1
102
RTVSPost2010Prop32
280
     0
102
RTVSPost2010PropOp32
 70
     1
102
RTVSPost2010Prop33
280
     0
102
RTVSPost2010PropOp33
 70
     1
102
RTVSPost2010Prop34
280
     0
102
RTVSPost2010PropOp34
 70
     1
102
RTVSPost2010Prop35
280
     0
102
RTVSPost2010PropOp35
 70
     1
102
RTVSPost2010Prop36
280
     0
102
RTVSPost2010PropOp36
 70
     1
102
RTVSPost2010Prop37
 90
       50
102
RTVSPost2010PropOp37
 70
     1
102
RTVSPost2010Prop38
140
0.0
102
RTVSPost2010PropOp38
 70
     1
102
RTVSPost2010Prop39
140
1.0
102
RTVSPost2010PropOp39
 70
     1
102
RTVSPost2010Prop40
 90
        0
102
RTVSPost2010PropOp40
 70
     1
102
RTVSPost2010Prop41ColorIndex
 90
       18
102
RTVSPost2010Prop41ColorRGB
 90
        0
102
RTVSPost2010PropOp41
 70
     1
102
RTVSPost2010Prop42
 90
       50
102
RTVSPost2010PropOp42
 70
     1
102
RTVSPost2010Prop43
 90
        3
102
RTVSPost2010PropOp43
 70
     1
102
RTVSPost2010Prop44ColorIndex
 90
        5
102
RTVSPost2010Prop44ColorRGB
 90
      255
102
RTVSPost2010PropOp44
 70
     1
102
RTVSPost2010Prop45
280
     0
102
RTVSPost2010PropOp45
 70
     1
102
RTVSPost2010Prop46
 90
       50
102
RTVSPost2010PropOp46
 70
     1
102
RTVSPost2010Prop47
 90
       50
102
RTVSPost2010PropOp47
 70
     1
102
RTVSPost2010Prop48
 90
       50
102
RTVSPost2010PropOp48
 70
     1
102
RTVSPost2010Prop49
280
     0
102
RTVSPost2010PropOp49
 70
     1
102
RTVSPost2010Prop50
 90
       50
102
RTVSPost2010PropOp50
 70
     1
102
RTVSPost2010Prop51ColorIndex
 90
      256
102
RTVSPost2010Prop51ColorRGB
 90
-16777216
102
RTVSPost2010PropOp51
 70
     0
102
RTVSPost2010Prop52
140
1.0
102
RTVSPost2010PropOp52
 70
     0
102
RTVSPost2010Prop53
 90
        2
102
RTVSPost2010PropOp53
 70
     1
102
RTVSPost2010Prop54
  1
strokes_ogs.tif
102
RTVSPost2010PropOp54
 70
     1
102
RTVSPost2010Prop55
280
     0
102
RTVSPost2010PropOp55
 70
     1
102
RTVSPost2010Prop56
140
1.0
102
RTVSPost2010PropOp56
 70
     1
102
RTVSPost2010Prop57
140
1.0
102
RTVSPost2010PropOp57
 70
     1
102
RTVSPropertyOp0
 70
     1
102
RTVSPropertyOp1
 70
     1
102
RTVSPropertyOp2
 70
     1
102
RTVSPropertyOp3
 70
     1
102
RTVSPropertyOp4
 70
     1
102
RTVSPropertyOp5
 70
     1
102
RTVSPropertyOp6
 70
     1
102
RTVSPropertyOp7
 70
     1
102
RTVSPropertyOp8
 70
     1
102
RTVSPropertyOp9
 70
     1
102
RTVSPropertyOp10
 70
     1
102
RTVSPropertyOp11
 70
     1
102
RTVSPropertyOp12
 70
     1
102
RTVSPropertyOp13
 70
     1
102
RTVSPropertyOp14
 70
     1
102
RTVSPropertyOp15
 70
     1
102
RTVSPropertyOp16
 70
     1
102
RTVSPropertyOp17
 70
     1
102
RTVSPropertyOp18
 70
     1
102
RTVSPropertyOp19
 70
     1
102
RTVSPropertyOp20
 70
     1
102
RTVSPropertyOp21
 70
     1
102
RTVSPropertyOp22
 70
     1
102
RTVSPropertyOp23
 70
     1
102
RTVSPropertyOp24
 70
     1
102
RTVSPropertyOp25
 70
     1
102
RTVSPropertyOp26
 70
     1
102
RTVSPropertyOp27
 70
     1
102
RTVSPropertyOp28
 70
     1
102
RTVSPropertyOp29
 70
     1
102
RTVSPropertyOp30
 70
     1
102
RTVSPropertyOp31
 70
     1
102
RTVSPropertyOp32
 70
     1
102
RTVSPropertyOp33
 70
     1
102
RTVSPropertyOp34
 70
     1
102
RTVSPropertyOp35
 70
     1
102
RTVSPropertyOp36
 70
     1
102
RTVSPropertyOp37
 70
     1
102
RTVSPropertyOp38
 70
     1
102
RTVSPropertyOp39
 70
     1
102
RTVSPropertyOp40
 70
     1
102
RTVSPropertyOp41
 70
     1
102
RTVSPropertyOp42
 70
     1
102
RTVSPropertyOp43
 70
     1
102
RTVSPropertyOp44
 70
     1
102
RTVSPropertyOp45
 70
     1
102
RTVSPropertyOp46
 70
     1
102
RTVSPropertyOp47
 70
     1
102
RTVSPropertyOp48
 70
     1
102
RTVSPropertyOp49
 70
     1
102
RTVSPropertyOp50
 70
     1
102
RTVSPropertyOp51
 70
     0
102
RTVSPropertyOp52
 70
     0
102
RTVSPropertyOp53
 70
     1
102
RTVSPropertyOp54
 70
     1
102
RTVSPropertyOp55
 70
     1
102
RTVSPropertyOp56
 70
     1
102
RTVSPropertyOp57
 70
     1
102
RTVSPropertyOp58
 70
     1
102
RTVSPropertyOp59
 70
     1
102
RTVSPropertyOp60
 70
     1
102
RTVSPropertyOp61
 70
     1
102
RTVSPropertyOp62
 70
     1
  0
XRECORD
  5
AEE4
102
{ACAD_REACTORS
330
AEE3
102
}
330
AEE3
100
AcDbXrecord
280
     1
102
RTVSPost2010Prop28
280
     0
102
RTVSPost2010PropOp28
 70
     1
102
RTVSPost2010Prop29
280
     1
102
RTVSPost2010PropOp29
 70
     1
102
RTVSPost2010Prop30
280
     1
102
RTVSPost2010PropOp30
 70
     1
102
RTVSPost2010Prop31
280
     0
102
RTVSPost2010PropOp31
 70
     1
102
RTVSPost2010Prop32
280
     0
102
RTVSPost2010PropOp32
 70
     1
102
RTVSPost2010Prop33
280
     0
102
RTVSPost2010PropOp33
 70
     1
102
RTVSPost2010Prop34
280
     0
102
RTVSPost2010PropOp34
 70
     1
102
RTVSPost2010Prop35
280
     0
102
RTVSPost2010PropOp35
 70
     1
102
RTVSPost2010Prop36
280
     0
102
RTVSPost2010PropOp36
 70
     1
102
RTVSPost2010Prop37
 90
       50
102
RTVSPost2010PropOp37
 70
     0
102
RTVSPost2010Prop38
140
0.0
102
RTVSPost2010PropOp38
 70
     0
102
RTVSPost2010Prop39
140
1.0
102
RTVSPost2010PropOp39
 70
     0
102
RTVSPost2010Prop40
 90
        0
102
RTVSPost2010PropOp40
 70
     0
102
RTVSPost2010Prop41ColorIndex
 90
       18
102
RTVSPost2010Prop41ColorRGB
 90
        0
102
RTVSPost2010PropOp41
 70
     0
102
RTVSPost2010Prop42
 90
       50
102
RTVSPost2010PropOp42
 70
     0
102
RTVSPost2010Prop43
 90
        3
102
RTVSPost2010PropOp43
 70
     0
102
RTVSPost2010Prop44ColorIndex
 90
        5
102
RTVSPost2010Prop44ColorRGB
 90
      255
102
RTVSPost2010PropOp44
 70
     0
102
RTVSPost2010Prop45
280
     0
102
RTVSPost2010PropOp45
 70
     1
102
RTVSPost2010Prop46
 90
       50
102
RTVSPost2010PropOp46
 70
     0
102
RTVSPost2010Prop47
 90
       50
102
RTVSPost2010PropOp47
 70
     0
102
RTVSPost2010Prop48
 90
       50
102
RTVSPost2010PropOp48
 70
     0
102
RTVSPost2010Prop49
280
     0
102
RTVSPost2010PropOp49
 70
     1
102
RTVSPost2010Prop50
 90
       50
102
RTVSPost2010PropOp50
 70
     0
102
RTVSPost2010Prop51ColorIndex
 90
      256
102
RTVSPost2010Prop51ColorRGB
 90
-16777216
102
RTVSPost2010PropOp51
 70
     0
102
RTVSPost2010Prop52
140
1.0
102
RTVSPost2010PropOp52
 70
     0
102
RTVSPost2010Prop53
 90
        2
102
RTVSPost2010PropOp53
 70
     0
102
RTVSPost2010Prop54
  1
strokes_ogs.tif
102
RTVSPost2010PropOp54
 70
     0
102
RTVSPost2010Prop55
280
     0
102
RTVSPost2010PropOp55
 70
     1
102
RTVSPost2010Prop56
140
1.0
102
RTVSPost2010PropOp56
 70
     0
102
RTVSPost2010Prop57
140
1.0
102
RTVSPost2010PropOp57
 70
     0
102
RTVSPropertyOp0
 70
     0
102
RTVSPropertyOp1
 70
     0
102
RTVSPropertyOp2
 70
     0
102
RTVSPropertyOp3
 70
     0
102
RTVSPropertyOp4
 70
     0
102
RTVSPropertyOp5
 70
     0
102
RTVSPropertyOp6
 70
     0
102
RTVSPropertyOp7
 70
     0
102
RTVSPropertyOp8
 70
     0
102
RTVSPropertyOp9
 70
     0
102
RTVSPropertyOp10
 70
     0
102
RTVSPropertyOp11
 70
     0
102
RTVSPropertyOp12
 70
     0
102
RTVSPropertyOp13
 70
     0
102
RTVSPropertyOp14
 70
     2
102
RTVSPropertyOp15
 70
     0
102
RTVSPropertyOp16
 70
     0
102
RTVSPropertyOp17
 70
     0
102
RTVSPropertyOp18
 70
     0
102
RTVSPropertyOp19
 70
     0
102
RTVSPropertyOp20
 70
     0
102
RTVSPropertyOp21
 70
     0
102
RTVSPropertyOp22
 70
     0
102
RTVSPropertyOp23
 70
     0
102
RTVSPropertyOp24
 70
     0
102
RTVSPropertyOp25
 70
     0
102
RTVSPropertyOp26
 70
     0
102
RTVSPropertyOp27
 70
     0
102
RTVSPropertyOp28
 70
     1
102
RTVSPropertyOp29
 70
     1
102
RTVSPropertyOp30
 70
     1
102
RTVSPropertyOp31
 70
     1
102
RTVSPropertyOp32
 70
     1
102
RTVSPropertyOp33
 70
     1
102
RTVSPropertyOp34
 70
     1
102
RTVSPropertyOp35
 70
     1
102
RTVSPropertyOp36
 70
     1
102
RTVSPropertyOp37
 70
     0
102
RTVSPropertyOp38
 70
     0
102
RTVSPropertyOp39
 70
     0
102
RTVSPropertyOp40
 70
     0
102
RTVSPropertyOp41
 70
     0
102
RTVSPropertyOp42
 70
     0
102
RTVSPropertyOp43
 70
     0
102
RTVSPropertyOp44
 70
     0
102
RTVSPropertyOp45
 70
     1
102
RTVSPropertyOp46
 70
     0
102
RTVSPropertyOp47
 70
     0
102
RTVSPropertyOp48
 70
     0
102
RTVSPropertyOp49
 70
     1
102
RTVSPropertyOp50
 70
     0
102
RTVSPropertyOp51
 70
     0
102
RTVSPropertyOp52
 70
     0
102
RTVSPropertyOp53
 70
     0
102
RTVSPropertyOp54
 70
     0
102
RTVSPropertyOp55
 70
     1
102
RTVSPropertyOp56
 70
     0
102
RTVSPropertyOp57
 70
     0
102
RTVSPropertyOp58
 70
     0
102
RTVSPropertyOp59
 70
     0
102
RTVSPropertyOp60
 70
     0
102
RTVSPropertyOp61
 70
     0
102
RTVSPropertyOp62
 70
     0
  0
XRECORD
  5
AED2
102
{ACAD_REACTORS
330
AED1
102
}
330
AED1
100
AcDbXrecord
280
     1
102
RTVSPost2010Prop28
280
     0
102
RTVSPost2010PropOp28
 70
     1
102
RTVSPost2010Prop29
280
     1
102
RTVSPost2010PropOp29
 70
     1
102
RTVSPost2010Prop30
280
     1
102
RTVSPost2010PropOp30
 70
     1
102
RTVSPost2010Prop31
280
     0
102
RTVSPost2010PropOp31
 70
     1
102
RTVSPost2010Prop32
280
     0
102
RTVSPost2010PropOp32
 70
     1
102
RTVSPost2010Prop33
280
     0
102
RTVSPost2010PropOp33
 70
     1
102
RTVSPost2010Prop34
280
     0
102
RTVSPost2010PropOp34
 70
     1
102
RTVSPost2010Prop35
280
     0
102
RTVSPost2010PropOp35
 70
     1
102
RTVSPost2010Prop36
280
     0
102
RTVSPost2010PropOp36
 70
     1
102
RTVSPost2010Prop37
 90
       50
102
RTVSPost2010PropOp37
 70
     1
102
RTVSPost2010Prop38
140
0.0
102
RTVSPost2010PropOp38
 70
     1
102
RTVSPost2010Prop39
140
1.0
102
RTVSPost2010PropOp39
 70
     1
102
RTVSPost2010Prop40
 90
        0
102
RTVSPost2010PropOp40
 70
     1
102
RTVSPost2010Prop41ColorIndex
 90
       18
102
RTVSPost2010Prop41ColorRGB
 90
        0
102
RTVSPost2010PropOp41
 70
     1
102
RTVSPost2010Prop42
 90
       50
102
RTVSPost2010PropOp42
 70
     1
102
RTVSPost2010Prop43
 90
        3
102
RTVSPost2010PropOp43
 70
     1
102
RTVSPost2010Prop44ColorIndex
 90
        5
102
RTVSPost2010Prop44ColorRGB
 90
      255
102
RTVSPost2010PropOp44
 70
     1
102
RTVSPost2010Prop45
280
     0
102
RTVSPost2010PropOp45
 70
     1
102
RTVSPost2010Prop46
 90
       50
102
RTVSPost2010PropOp46
 70
     1
102
RTVSPost2010Prop47
 90
       50
102
RTVSPost2010PropOp47
 70
     1
102
RTVSPost2010Prop48
 90
       50
102
RTVSPost2010PropOp48
 70
     1
102
RTVSPost2010Prop49
280
     0
102
RTVSPost2010PropOp49
 70
     1
102
RTVSPost2010Prop50
 90
       50
102
RTVSPost2010PropOp50
 70
     1
102
RTVSPost2010Prop51ColorIndex
 90
      256
102
RTVSPost2010Prop51ColorRGB
 90
-16777216
102
RTVSPost2010PropOp51
 70
     0
102
RTVSPost2010Prop52
140
1.0
102
RTVSPost2010PropOp52
 70
     0
102
RTVSPost2010Prop53
 90
        2
102
RTVSPost2010PropOp53
 70
     1
102
RTVSPost2010Prop54
  1
strokes_ogs.tif
102
RTVSPost2010PropOp54
 70
     1
102
RTVSPost2010Prop55
280
     0
102
RTVSPost2010PropOp55
 70
     1
102
RTVSPost2010Prop56
140
1.0
102
RTVSPost2010PropOp56
 70
     1
102
RTVSPost2010Prop57
140
1.0
102
RTVSPost2010PropOp57
 70
     1
102
RTVSPropertyOp0
 70
     1
102
RTVSPropertyOp1
 70
     1
102
RTVSPropertyOp2
 70
     1
102
RTVSPropertyOp3
 70
     1
102
RTVSPropertyOp4
 70
     1
102
RTVSPropertyOp5
 70
     1
102
RTVSPropertyOp6
 70
     1
102
RTVSPropertyOp7
 70
     1
102
RTVSPropertyOp8
 70
     1
102
RTVSPropertyOp9
 70
     1
102
RTVSPropertyOp10
 70
     1
102
RTVSPropertyOp11
 70
     1
102
RTVSPropertyOp12
 70
     1
102
RTVSPropertyOp13
 70
     1
102
RTVSPropertyOp14
 70
     1
102
RTVSPropertyOp15
 70
     1
102
RTVSPropertyOp16
 70
     1
102
RTVSPropertyOp17
 70
     1
102
RTVSPropertyOp18
 70
     1
102
RTVSPropertyOp19
 70
     1
102
RTVSPropertyOp20
 70
     1
102
RTVSPropertyOp21
 70
     1
102
RTVSPropertyOp22
 70
     1
102
RTVSPropertyOp23
 70
     1
102
RTVSPropertyOp24
 70
     1
102
RTVSPropertyOp25
 70
     1
102
RTVSPropertyOp26
 70
     1
102
RTVSPropertyOp27
 70
     1
102
RTVSPropertyOp28
 70
     1
102
RTVSPropertyOp29
 70
     1
102
RTVSPropertyOp30
 70
     1
102
RTVSPropertyOp31
 70
     1
102
RTVSPropertyOp32
 70
     1
102
RTVSPropertyOp33
 70
     1
102
RTVSPropertyOp34
 70
     1
102
RTVSPropertyOp35
 70
     1
102
RTVSPropertyOp36
 70
     1
102
RTVSPropertyOp37
 70
     1
102
RTVSPropertyOp38
 70
     1
102
RTVSPropertyOp39
 70
     1
102
RTVSPropertyOp40
 70
     1
102
RTVSPropertyOp41
 70
     1
102
RTVSPropertyOp42
 70
     1
102
RTVSPropertyOp43
 70
     1
102
RTVSPropertyOp44
 70
     1
102
RTVSPropertyOp45
 70
     1
102
RTVSPropertyOp46
 70
     1
102
RTVSPropertyOp47
 70
     1
102
RTVSPropertyOp48
 70
     1
102
RTVSPropertyOp49
 70
     1
102
RTVSPropertyOp50
 70
     1
102
RTVSPropertyOp51
 70
     0
102
RTVSPropertyOp52
 70
     0
102
RTVSPropertyOp53
 70
     1
102
RTVSPropertyOp54
 70
     1
102
RTVSPropertyOp55
 70
     1
102
RTVSPropertyOp56
 70
     1
102
RTVSPropertyOp57
 70
     1
102
RTVSPropertyOp58
 70
     1
102
RTVSPropertyOp59
 70
     1
102
RTVSPropertyOp60
 70
     1
102
RTVSPropertyOp61
 70
     1
102
RTVSPropertyOp62
 70
     1
  0
XRECORD
  5
AEB6
102
{ACAD_REACTORS
330
AEB5
102
}
330
AEB5
100
AcDbXrecord
280
     1
102
RTVSPost2010Prop28
280
     0
102
RTVSPost2010PropOp28
 70
     1
102
RTVSPost2010Prop29
280
     1
102
RTVSPost2010PropOp29
 70
     1
102
RTVSPost2010Prop30
280
     1
102
RTVSPost2010PropOp30
 70
     1
102
RTVSPost2010Prop31
280
     0
102
RTVSPost2010PropOp31
 70
     1
102
RTVSPost2010Prop32
280
     0
102
RTVSPost2010PropOp32
 70
     1
102
RTVSPost2010Prop33
280
     0
102
RTVSPost2010PropOp33
 70
     1
102
RTVSPost2010Prop34
280
     0
102
RTVSPost2010PropOp34
 70
     1
102
RTVSPost2010Prop35
280
     0
102
RTVSPost2010PropOp35
 70
     1
102
RTVSPost2010Prop36
280
     0
102
RTVSPost2010PropOp36
 70
     1
102
RTVSPost2010Prop37
 90
       50
102
RTVSPost2010PropOp37
 70
     1
102
RTVSPost2010Prop38
140
0.0
102
RTVSPost2010PropOp38
 70
     1
102
RTVSPost2010Prop39
140
1.0
102
RTVSPost2010PropOp39
 70
     1
102
RTVSPost2010Prop40
 90
        0
102
RTVSPost2010PropOp40
 70
     1
102
RTVSPost2010Prop41ColorIndex
 90
       18
102
RTVSPost2010Prop41ColorRGB
 90
        0
102
RTVSPost2010PropOp41
 70
     1
102
RTVSPost2010Prop42
 90
       50
102
RTVSPost2010PropOp42
 70
     1
102
RTVSPost2010Prop43
 90
        3
102
RTVSPost2010PropOp43
 70
     1
102
RTVSPost2010Prop44ColorIndex
 90
        5
102
RTVSPost2010Prop44ColorRGB
 90
      255
102
RTVSPost2010PropOp44
 70
     1
102
RTVSPost2010Prop45
280
     0
102
RTVSPost2010PropOp45
 70
     1
102
RTVSPost2010Prop46
 90
       50
102
RTVSPost2010PropOp46
 70
     1
102
RTVSPost2010Prop47
 90
       50
102
RTVSPost2010PropOp47
 70
     1
102
RTVSPost2010Prop48
 90
       50
102
RTVSPost2010PropOp48
 70
     1
102
RTVSPost2010Prop49
280
     0
102
RTVSPost2010PropOp49
 70
     1
102
RTVSPost2010Prop50
 90
       50
102
RTVSPost2010PropOp50
 70
     1
102
RTVSPost2010Prop51ColorIndex
 90
      256
102
RTVSPost2010Prop51ColorRGB
 90
-16777216
102
RTVSPost2010PropOp51
 70
     0
102
RTVSPost2010Prop52
140
1.0
102
RTVSPost2010PropOp52
 70
     0
102
RTVSPost2010Prop53
 90
        2
102
RTVSPost2010PropOp53
 70
     1
102
RTVSPost2010Prop54
  1
strokes_ogs.tif
102
RTVSPost2010PropOp54
 70
     1
102
RTVSPost2010Prop55
280
     0
102
RTVSPost2010PropOp55
 70
     1
102
RTVSPost2010Prop56
140
1.0
102
RTVSPost2010PropOp56
 70
     1
102
RTVSPost2010Prop57
140
1.0
102
RTVSPost2010PropOp57
 70
     1
102
RTVSPropertyOp0
 70
     1
102
RTVSPropertyOp1
 70
     1
102
RTVSPropertyOp2
 70
     1
102
RTVSPropertyOp3
 70
     1
102
RTVSPropertyOp4
 70
     1
102
RTVSPropertyOp5
 70
     1
102
RTVSPropertyOp6
 70
     1
102
RTVSPropertyOp7
 70
     1
102
RTVSPropertyOp8
 70
     1
102
RTVSPropertyOp9
 70
     1
102
RTVSPropertyOp10
 70
     1
102
RTVSPropertyOp11
 70
     1
102
RTVSPropertyOp12
 70
     1
102
RTVSPropertyOp13
 70
     1
102
RTVSPropertyOp14
 70
     1
102
RTVSPropertyOp15
 70
     1
102
RTVSPropertyOp16
 70
     1
102
RTVSPropertyOp17
 70
     1
102
RTVSPropertyOp18
 70
     1
102
RTVSPropertyOp19
 70
     1
102
RTVSPropertyOp20
 70
     1
102
RTVSPropertyOp21
 70
     1
102
RTVSPropertyOp22
 70
     1
102
RTVSPropertyOp23
 70
     1
102
RTVSPropertyOp24
 70
     1
102
RTVSPropertyOp25
 70
     1
102
RTVSPropertyOp26
 70
     1
102
RTVSPropertyOp27
 70
     1
102
RTVSPropertyOp28
 70
     1
102
RTVSPropertyOp29
 70
     1
102
RTVSPropertyOp30
 70
     1
102
RTVSPropertyOp31
 70
     1
102
RTVSPropertyOp32
 70
     1
102
RTVSPropertyOp33
 70
     1
102
RTVSPropertyOp34
 70
     1
102
RTVSPropertyOp35
 70
     1
102
RTVSPropertyOp36
 70
     1
102
RTVSPropertyOp37
 70
     1
102
RTVSPropertyOp38
 70
     1
102
RTVSPropertyOp39
 70
     1
102
RTVSPropertyOp40
 70
     1
102
RTVSPropertyOp41
 70
     1
102
RTVSPropertyOp42
 70
     1
102
RTVSPropertyOp43
 70
     1
102
RTVSPropertyOp44
 70
     1
102
RTVSPropertyOp45
 70
     1
102
RTVSPropertyOp46
 70
     1
102
RTVSPropertyOp47
 70
     1
102
RTVSPropertyOp48
 70
     1
102
RTVSPropertyOp49
 70
     1
102
RTVSPropertyOp50
 70
     1
102
RTVSPropertyOp51
 70
     0
102
RTVSPropertyOp52
 70
     0
102
RTVSPropertyOp53
 70
     1
102
RTVSPropertyOp54
 70
     1
102
RTVSPropertyOp55
 70
     1
102
RTVSPropertyOp56
 70
     1
102
RTVSPropertyOp57
 70
     1
102
RTVSPropertyOp58
 70
     1
102
RTVSPropertyOp59
 70
     1
102
RTVSPropertyOp60
 70
     1
102
RTVSPropertyOp61
 70
     1
102
RTVSPropertyOp62
 70
     1
  0
XRECORD
  5
AEB8
102
{ACAD_REACTORS
330
AEB7
102
}
330
AEB7
100
AcDbXrecord
280
     1
102
RTVSPost2010Prop28
280
     0
102
RTVSPost2010PropOp28
 70
     1
102
RTVSPost2010Prop29
280
     1
102
RTVSPost2010PropOp29
 70
     1
102
RTVSPost2010Prop30
280
     1
102
RTVSPost2010PropOp30
 70
     1
102
RTVSPost2010Prop31
280
     0
102
RTVSPost2010PropOp31
 70
     1
102
RTVSPost2010Prop32
280
     0
102
RTVSPost2010PropOp32
 70
     1
102
RTVSPost2010Prop33
280
     0
102
RTVSPost2010PropOp33
 70
     1
102
RTVSPost2010Prop34
280
     0
102
RTVSPost2010PropOp34
 70
     1
102
RTVSPost2010Prop35
280
     0
102
RTVSPost2010PropOp35
 70
     1
102
RTVSPost2010Prop36
280
     0
102
RTVSPost2010PropOp36
 70
     1
102
RTVSPost2010Prop37
 90
       50
102
RTVSPost2010PropOp37
 70
     1
102
RTVSPost2010Prop38
140
0.0
102
RTVSPost2010PropOp38
 70
     1
102
RTVSPost2010Prop39
140
1.0
102
RTVSPost2010PropOp39
 70
     1
102
RTVSPost2010Prop40
 90
        0
102
RTVSPost2010PropOp40
 70
     1
102
RTVSPost2010Prop41ColorIndex
 90
       18
102
RTVSPost2010Prop41ColorRGB
 90
        0
102
RTVSPost2010PropOp41
 70
     1
102
RTVSPost2010Prop42
 90
       50
102
RTVSPost2010PropOp42
 70
     1
102
RTVSPost2010Prop43
 90
        3
102
RTVSPost2010PropOp43
 70
     1
102
RTVSPost2010Prop44ColorIndex
 90
        5
102
RTVSPost2010Prop44ColorRGB
 90
      255
102
RTVSPost2010PropOp44
 70
     1
102
RTVSPost2010Prop45
280
     0
102
RTVSPost2010PropOp45
 70
     1
102
RTVSPost2010Prop46
 90
       50
102
RTVSPost2010PropOp46
 70
     1
102
RTVSPost2010Prop47
 90
       50
102
RTVSPost2010PropOp47
 70
     1
102
RTVSPost2010Prop48
 90
       50
102
RTVSPost2010PropOp48
 70
     1
102
RTVSPost2010Prop49
280
     0
102
RTVSPost2010PropOp49
 70
     1
102
RTVSPost2010Prop50
 90
       50
102
RTVSPost2010PropOp50
 70
     1
102
RTVSPost2010Prop51ColorIndex
 90
      256
102
RTVSPost2010Prop51ColorRGB
 90
-16777216
102
RTVSPost2010PropOp51
 70
     0
102
RTVSPost2010Prop52
140
1.0
102
RTVSPost2010PropOp52
 70
     0
102
RTVSPost2010Prop53
 90
        2
102
RTVSPost2010PropOp53
 70
     1
102
RTVSPost2010Prop54
  1
strokes_ogs.tif
102
RTVSPost2010PropOp54
 70
     1
102
RTVSPost2010Prop55
280
     0
102
RTVSPost2010PropOp55
 70
     1
102
RTVSPost2010Prop56
140
1.0
102
RTVSPost2010PropOp56
 70
     1
102
RTVSPost2010Prop57
140
1.0
102
RTVSPost2010PropOp57
 70
     1
102
RTVSPropertyOp0
 70
     1
102
RTVSPropertyOp1
 70
     1
102
RTVSPropertyOp2
 70
     1
102
RTVSPropertyOp3
 70
     1
102
RTVSPropertyOp4
 70
     1
102
RTVSPropertyOp5
 70
     1
102
RTVSPropertyOp6
 70
     1
102
RTVSPropertyOp7
 70
     1
102
RTVSPropertyOp8
 70
     1
102
RTVSPropertyOp9
 70
     1
102
RTVSPropertyOp10
 70
     1
102
RTVSPropertyOp11
 70
     1
102
RTVSPropertyOp12
 70
     1
102
RTVSPropertyOp13
 70
     1
102
RTVSPropertyOp14
 70
     1
102
RTVSPropertyOp15
 70
     1
102
RTVSPropertyOp16
 70
     1
102
RTVSPropertyOp17
 70
     1
102
RTVSPropertyOp18
 70
     1
102
RTVSPropertyOp19
 70
     1
102
RTVSPropertyOp20
 70
     1
102
RTVSPropertyOp21
 70
     1
102
RTVSPropertyOp22
 70
     1
102
RTVSPropertyOp23
 70
     1
102
RTVSPropertyOp24
 70
     1
102
RTVSPropertyOp25
 70
     1
102
RTVSPropertyOp26
 70
     1
102
RTVSPropertyOp27
 70
     1
102
RTVSPropertyOp28
 70
     1
102
RTVSPropertyOp29
 70
     1
102
RTVSPropertyOp30
 70
     1
102
RTVSPropertyOp31
 70
     1
102
RTVSPropertyOp32
 70
     1
102
RTVSPropertyOp33
 70
     1
102
RTVSPropertyOp34
 70
     1
102
RTVSPropertyOp35
 70
     1
102
RTVSPropertyOp36
 70
     1
102
RTVSPropertyOp37
 70
     1
102
RTVSPropertyOp38
 70
     1
102
RTVSPropertyOp39
 70
     1
102
RTVSPropertyOp40
 70
     1
102
RTVSPropertyOp41
 70
     1
102
RTVSPropertyOp42
 70
     1
102
RTVSPropertyOp43
 70
     1
102
RTVSPropertyOp44
 70
     1
102
RTVSPropertyOp45
 70
     1
102
RTVSPropertyOp46
 70
     1
102
RTVSPropertyOp47
 70
     1
102
RTVSPropertyOp48
 70
     1
102
RTVSPropertyOp49
 70
     1
102
RTVSPropertyOp50
 70
     1
102
RTVSPropertyOp51
 70
     0
102
RTVSPropertyOp52
 70
     0
102
RTVSPropertyOp53
 70
     1
102
RTVSPropertyOp54
 70
     1
102
RTVSPropertyOp55
 70
     1
102
RTVSPropertyOp56
 70
     1
102
RTVSPropertyOp57
 70
     1
102
RTVSPropertyOp58
 70
     1
102
RTVSPropertyOp59
 70
     1
102
RTVSPropertyOp60
 70
     1
102
RTVSPropertyOp61
 70
     1
102
RTVSPropertyOp62
 70
     1
  0
XRECORD
  5
AEBA
102
{ACAD_REACTORS
330
AEB9
102
}
330
AEB9
100
AcDbXrecord
280
     1
102
RTVSPost2010Prop28
280
     0
102
RTVSPost2010PropOp28
 70
     1
102
RTVSPost2010Prop29
280
     1
102
RTVSPost2010PropOp29
 70
     1
102
RTVSPost2010Prop30
280
     1
102
RTVSPost2010PropOp30
 70
     1
102
RTVSPost2010Prop31
280
     0
102
RTVSPost2010PropOp31
 70
     1
102
RTVSPost2010Prop32
280
     0
102
RTVSPost2010PropOp32
 70
     1
102
RTVSPost2010Prop33
280
     0
102
RTVSPost2010PropOp33
 70
     1
102
RTVSPost2010Prop34
280
     0
102
RTVSPost2010PropOp34
 70
     1
102
RTVSPost2010Prop35
280
     0
102
RTVSPost2010PropOp35
 70
     1
102
RTVSPost2010Prop36
280
     0
102
RTVSPost2010PropOp36
 70
     1
102
RTVSPost2010Prop37
 90
       50
102
RTVSPost2010PropOp37
 70
     1
102
RTVSPost2010Prop38
140
0.0
102
RTVSPost2010PropOp38
 70
     1
102
RTVSPost2010Prop39
140
1.0
102
RTVSPost2010PropOp39
 70
     1
102
RTVSPost2010Prop40
 90
        0
102
RTVSPost2010PropOp40
 70
     1
102
RTVSPost2010Prop41ColorIndex
 90
       18
102
RTVSPost2010Prop41ColorRGB
 90
        0
102
RTVSPost2010PropOp41
 70
     1
102
RTVSPost2010Prop42
 90
       50
102
RTVSPost2010PropOp42
 70
     1
102
RTVSPost2010Prop43
 90
        3
102
RTVSPost2010PropOp43
 70
     1
102
RTVSPost2010Prop44ColorIndex
 90
        5
102
RTVSPost2010Prop44ColorRGB
 90
      255
102
RTVSPost2010PropOp44
 70
     1
102
RTVSPost2010Prop45
280
     0
102
RTVSPost2010PropOp45
 70
     1
102
RTVSPost2010Prop46
 90
       50
102
RTVSPost2010PropOp46
 70
     1
102
RTVSPost2010Prop47
 90
       50
102
RTVSPost2010PropOp47
 70
     1
102
RTVSPost2010Prop48
 90
       50
102
RTVSPost2010PropOp48
 70
     1
102
RTVSPost2010Prop49
280
     0
102
RTVSPost2010PropOp49
 70
     1
102
RTVSPost2010Prop50
 90
       50
102
RTVSPost2010PropOp50
 70
     1
102
RTVSPost2010Prop51ColorIndex
 90
      256
102
RTVSPost2010Prop51ColorRGB
 90
-16777216
102
RTVSPost2010PropOp51
 70
     0
102
RTVSPost2010Prop52
140
1.0
102
RTVSPost2010PropOp52
 70
     0
102
RTVSPost2010Prop53
 90
        2
102
RTVSPost2010PropOp53
 70
     1
102
RTVSPost2010Prop54
  1
strokes_ogs.tif
102
RTVSPost2010PropOp54
 70
     1
102
RTVSPost2010Prop55
280
     0
102
RTVSPost2010PropOp55
 70
     1
102
RTVSPost2010Prop56
140
1.0
102
RTVSPost2010PropOp56
 70
     1
102
RTVSPost2010Prop57
140
1.0
102
RTVSPost2010PropOp57
 70
     1
102
RTVSPropertyOp0
 70
     1
102
RTVSPropertyOp1
 70
     1
102
RTVSPropertyOp2
 70
     1
102
RTVSPropertyOp3
 70
     1
102
RTVSPropertyOp4
 70
     1
102
RTVSPropertyOp5
 70
     1
102
RTVSPropertyOp6
 70
     1
102
RTVSPropertyOp7
 70
     1
102
RTVSPropertyOp8
 70
     1
102
RTVSPropertyOp9
 70
     1
102
RTVSPropertyOp10
 70
     1
102
RTVSPropertyOp11
 70
     1
102
RTVSPropertyOp12
 70
     1
102
RTVSPropertyOp13
 70
     1
102
RTVSPropertyOp14
 70
     1
102
RTVSPropertyOp15
 70
     1
102
RTVSPropertyOp16
 70
     1
102
RTVSPropertyOp17
 70
     1
102
RTVSPropertyOp18
 70
     1
102
RTVSPropertyOp19
 70
     1
102
RTVSPropertyOp20
 70
     1
102
RTVSPropertyOp21
 70
     1
102
RTVSPropertyOp22
 70
     1
102
RTVSPropertyOp23
 70
     1
102
RTVSPropertyOp24
 70
     1
102
RTVSPropertyOp25
 70
     1
102
RTVSPropertyOp26
 70
     1
102
RTVSPropertyOp27
 70
     1
102
RTVSPropertyOp28
 70
     1
102
RTVSPropertyOp29
 70
     1
102
RTVSPropertyOp30
 70
     1
102
RTVSPropertyOp31
 70
     1
102
RTVSPropertyOp32
 70
     1
102
RTVSPropertyOp33
 70
     1
102
RTVSPropertyOp34
 70
     1
102
RTVSPropertyOp35
 70
     1
102
RTVSPropertyOp36
 70
     1
102
RTVSPropertyOp37
 70
     1
102
RTVSPropertyOp38
 70
     1
102
RTVSPropertyOp39
 70
     1
102
RTVSPropertyOp40
 70
     1
102
RTVSPropertyOp41
 70
     1
102
RTVSPropertyOp42
 70
     1
102
RTVSPropertyOp43
 70
     1
102
RTVSPropertyOp44
 70
     1
102
RTVSPropertyOp45
 70
     1
102
RTVSPropertyOp46
 70
     1
102
RTVSPropertyOp47
 70
     1
102
RTVSPropertyOp48
 70
     1
102
RTVSPropertyOp49
 70
     1
102
RTVSPropertyOp50
 70
     1
102
RTVSPropertyOp51
 70
     0
102
RTVSPropertyOp52
 70
     0
102
RTVSPropertyOp53
 70
     1
102
RTVSPropertyOp54
 70
     1
102
RTVSPropertyOp55
 70
     1
102
RTVSPropertyOp56
 70
     1
102
RTVSPropertyOp57
 70
     1
102
RTVSPropertyOp58
 70
     1
102
RTVSPropertyOp59
 70
     1
102
RTVSPropertyOp60
 70
     1
102
RTVSPropertyOp61
 70
     1
102
RTVSPropertyOp62
 70
     1
  0
XRECORD
  5
AEBC
102
{ACAD_REACTORS
330
AEBB
102
}
330
AEBB
100
AcDbXrecord
280
     1
102
RTVSPost2010Prop28
280
     0
102
RTVSPost2010PropOp28
 70
     1
102
RTVSPost2010Prop29
280
     1
102
RTVSPost2010PropOp29
 70
     1
102
RTVSPost2010Prop30
280
     1
102
RTVSPost2010PropOp30
 70
     1
102
RTVSPost2010Prop31
280
     0
102
RTVSPost2010PropOp31
 70
     1
102
RTVSPost2010Prop32
280
     0
102
RTVSPost2010PropOp32
 70
     1
102
RTVSPost2010Prop33
280
     0
102
RTVSPost2010PropOp33
 70
     1
102
RTVSPost2010Prop34
280
     0
102
RTVSPost2010PropOp34
 70
     1
102
RTVSPost2010Prop35
280
     0
102
RTVSPost2010PropOp35
 70
     1
102
RTVSPost2010Prop36
280
     0
102
RTVSPost2010PropOp36
 70
     1
102
RTVSPost2010Prop37
 90
       50
102
RTVSPost2010PropOp37
 70
     1
102
RTVSPost2010Prop38
140
0.0
102
RTVSPost2010PropOp38
 70
     1
102
RTVSPost2010Prop39
140
1.0
102
RTVSPost2010PropOp39
 70
     1
102
RTVSPost2010Prop40
 90
        0
102
RTVSPost2010PropOp40
 70
     1
102
RTVSPost2010Prop41ColorIndex
 90
       18
102
RTVSPost2010Prop41ColorRGB
 90
        0
102
RTVSPost2010PropOp41
 70
     1
102
RTVSPost2010Prop42
 90
       50
102
RTVSPost2010PropOp42
 70
     1
102
RTVSPost2010Prop43
 90
        3
102
RTVSPost2010PropOp43
 70
     1
102
RTVSPost2010Prop44ColorIndex
 90
        5
102
RTVSPost2010Prop44ColorRGB
 90
      255
102
RTVSPost2010PropOp44
 70
     1
102
RTVSPost2010Prop45
280
     0
102
RTVSPost2010PropOp45
 70
     1
102
RTVSPost2010Prop46
 90
       50
102
RTVSPost2010PropOp46
 70
     1
102
RTVSPost2010Prop47
 90
       50
102
RTVSPost2010PropOp47
 70
     1
102
RTVSPost2010Prop48
 90
       50
102
RTVSPost2010PropOp48
 70
     1
102
RTVSPost2010Prop49
280
     0
102
RTVSPost2010PropOp49
 70
     1
102
RTVSPost2010Prop50
 90
       50
102
RTVSPost2010PropOp50
 70
     1
102
RTVSPost2010Prop51ColorIndex
 90
      256
102
RTVSPost2010Prop51ColorRGB
 90
-16777216
102
RTVSPost2010PropOp51
 70
     0
102
RTVSPost2010Prop52
140
1.0
102
RTVSPost2010PropOp52
 70
     0
102
RTVSPost2010Prop53
 90
        2
102
RTVSPost2010PropOp53
 70
     1
102
RTVSPost2010Prop54
  1
strokes_ogs.tif
102
RTVSPost2010PropOp54
 70
     1
102
RTVSPost2010Prop55
280
     0
102
RTVSPost2010PropOp55
 70
     1
102
RTVSPost2010Prop56
140
1.0
102
RTVSPost2010PropOp56
 70
     1
102
RTVSPost2010Prop57
140
1.0
102
RTVSPost2010PropOp57
 70
     1
102
RTVSPropertyOp0
 70
     1
102
RTVSPropertyOp1
 70
     1
102
RTVSPropertyOp2
 70
     1
102
RTVSPropertyOp3
 70
     1
102
RTVSPropertyOp4
 70
     1
102
RTVSPropertyOp5
 70
     1
102
RTVSPropertyOp6
 70
     1
102
RTVSPropertyOp7
 70
     1
102
RTVSPropertyOp8
 70
     1
102
RTVSPropertyOp9
 70
     1
102
RTVSPropertyOp10
 70
     1
102
RTVSPropertyOp11
 70
     1
102
RTVSPropertyOp12
 70
     1
102
RTVSPropertyOp13
 70
     1
102
RTVSPropertyOp14
 70
     1
102
RTVSPropertyOp15
 70
     1
102
RTVSPropertyOp16
 70
     1
102
RTVSPropertyOp17
 70
     1
102
RTVSPropertyOp18
 70
     1
102
RTVSPropertyOp19
 70
     1
102
RTVSPropertyOp20
 70
     1
102
RTVSPropertyOp21
 70
     1
102
RTVSPropertyOp22
 70
     1
102
RTVSPropertyOp23
 70
     1
102
RTVSPropertyOp24
 70
     1
102
RTVSPropertyOp25
 70
     1
102
RTVSPropertyOp26
 70
     1
102
RTVSPropertyOp27
 70
     1
102
RTVSPropertyOp28
 70
     1
102
RTVSPropertyOp29
 70
     1
102
RTVSPropertyOp30
 70
     1
102
RTVSPropertyOp31
 70
     1
102
RTVSPropertyOp32
 70
     1
102
RTVSPropertyOp33
 70
     1
102
RTVSPropertyOp34
 70
     1
102
RTVSPropertyOp35
 70
     1
102
RTVSPropertyOp36
 70
     1
102
RTVSPropertyOp37
 70
     1
102
RTVSPropertyOp38
 70
     1
102
RTVSPropertyOp39
 70
     1
102
RTVSPropertyOp40
 70
     1
102
RTVSPropertyOp41
 70
     1
102
RTVSPropertyOp42
 70
     1
102
RTVSPropertyOp43
 70
     1
102
RTVSPropertyOp44
 70
     1
102
RTVSPropertyOp45
 70
     1
102
RTVSPropertyOp46
 70
     1
102
RTVSPropertyOp47
 70
     1
102
RTVSPropertyOp48
 70
     1
102
RTVSPropertyOp49
 70
     1
102
RTVSPropertyOp50
 70
     1
102
RTVSPropertyOp51
 70
     0
102
RTVSPropertyOp52
 70
     0
102
RTVSPropertyOp53
 70
     1
102
RTVSPropertyOp54
 70
     1
102
RTVSPropertyOp55
 70
     1
102
RTVSPropertyOp56
 70
     1
102
RTVSPropertyOp57
 70
     1
102
RTVSPropertyOp58
 70
     1
102
RTVSPropertyOp59
 70
     1
102
RTVSPropertyOp60
 70
     1
102
RTVSPropertyOp61
 70
     1
102
RTVSPropertyOp62
 70
     1
  0
XRECORD
  5
AEC4
102
{ACAD_REACTORS
330
AEC3
102
}
330
AEC3
100
AcDbXrecord
280
     1
102
RTVSPost2010Prop28
280
     0
102
RTVSPost2010PropOp28
 70
     1
102
RTVSPost2010Prop29
280
     1
102
RTVSPost2010PropOp29
 70
     1
102
RTVSPost2010Prop30
280
     1
102
RTVSPost2010PropOp30
 70
     1
102
RTVSPost2010Prop31
280
     0
102
RTVSPost2010PropOp31
 70
     1
102
RTVSPost2010Prop32
280
     0
102
RTVSPost2010PropOp32
 70
     1
102
RTVSPost2010Prop33
280
     0
102
RTVSPost2010PropOp33
 70
     1
102
RTVSPost2010Prop34
280
     0
102
RTVSPost2010PropOp34
 70
     1
102
RTVSPost2010Prop35
280
     0
102
RTVSPost2010PropOp35
 70
     1
102
RTVSPost2010Prop36
280
     0
102
RTVSPost2010PropOp36
 70
     1
102
RTVSPost2010Prop37
 90
       50
102
RTVSPost2010PropOp37
 70
     1
102
RTVSPost2010Prop38
140
0.0
102
RTVSPost2010PropOp38
 70
     1
102
RTVSPost2010Prop39
140
1.0
102
RTVSPost2010PropOp39
 70
     1
102
RTVSPost2010Prop40
 90
        0
102
RTVSPost2010PropOp40
 70
     1
102
RTVSPost2010Prop41ColorIndex
 90
       18
102
RTVSPost2010Prop41ColorRGB
 90
        0
102
RTVSPost2010PropOp41
 70
     1
102
RTVSPost2010Prop42
 90
       50
102
RTVSPost2010PropOp42
 70
     1
102
RTVSPost2010Prop43
 90
        3
102
RTVSPost2010PropOp43
 70
     1
102
RTVSPost2010Prop44ColorIndex
 90
        5
102
RTVSPost2010Prop44ColorRGB
 90
      255
102
RTVSPost2010PropOp44
 70
     1
102
RTVSPost2010Prop45
280
     0
102
RTVSPost2010PropOp45
 70
     1
102
RTVSPost2010Prop46
 90
       50
102
RTVSPost2010PropOp46
 70
     1
102
RTVSPost2010Prop47
 90
       50
102
RTVSPost2010PropOp47
 70
     1
102
RTVSPost2010Prop48
 90
       50
102
RTVSPost2010PropOp48
 70
     1
102
RTVSPost2010Prop49
280
     0
102
RTVSPost2010PropOp49
 70
     1
102
RTVSPost2010Prop50
 90
       50
102
RTVSPost2010PropOp50
 70
     1
102
RTVSPost2010Prop51ColorIndex
 90
      256
102
RTVSPost2010Prop51ColorRGB
 90
-16777216
102
RTVSPost2010PropOp51
 70
     0
102
RTVSPost2010Prop52
140
1.0
102
RTVSPost2010PropOp52
 70
     0
102
RTVSPost2010Prop53
 90
        2
102
RTVSPost2010PropOp53
 70
     1
102
RTVSPost2010Prop54
  1
strokes_ogs.tif
102
RTVSPost2010PropOp54
 70
     1
102
RTVSPost2010Prop55
280
     0
102
RTVSPost2010PropOp55
 70
     1
102
RTVSPost2010Prop56
140
1.0
102
RTVSPost2010PropOp56
 70
     1
102
RTVSPost2010Prop57
140
1.0
102
RTVSPost2010PropOp57
 70
     1
102
RTVSPropertyOp0
 70
     1
102
RTVSPropertyOp1
 70
     1
102
RTVSPropertyOp2
 70
     1
102
RTVSPropertyOp3
 70
     1
102
RTVSPropertyOp4
 70
     1
102
RTVSPropertyOp5
 70
     1
102
RTVSPropertyOp6
 70
     1
102
RTVSPropertyOp7
 70
     1
102
RTVSPropertyOp8
 70
     1
102
RTVSPropertyOp9
 70
     1
102
RTVSPropertyOp10
 70
     1
102
RTVSPropertyOp11
 70
     1
102
RTVSPropertyOp12
 70
     1
102
RTVSPropertyOp13
 70
     1
102
RTVSPropertyOp14
 70
     1
102
RTVSPropertyOp15
 70
     1
102
RTVSPropertyOp16
 70
     1
102
RTVSPropertyOp17
 70
     1
102
RTVSPropertyOp18
 70
     1
102
RTVSPropertyOp19
 70
     1
102
RTVSPropertyOp20
 70
     1
102
RTVSPropertyOp21
 70
     1
102
RTVSPropertyOp22
 70
     1
102
RTVSPropertyOp23
 70
     1
102
RTVSPropertyOp24
 70
     1
102
RTVSPropertyOp25
 70
     1
102
RTVSPropertyOp26
 70
     1
102
RTVSPropertyOp27
 70
     1
102
RTVSPropertyOp28
 70
     1
102
RTVSPropertyOp29
 70
     1
102
RTVSPropertyOp30
 70
     1
102
RTVSPropertyOp31
 70
     1
102
RTVSPropertyOp32
 70
     1
102
RTVSPropertyOp33
 70
     1
102
RTVSPropertyOp34
 70
     1
102
RTVSPropertyOp35
 70
     1
102
RTVSPropertyOp36
 70
     1
102
RTVSPropertyOp37
 70
     1
102
RTVSPropertyOp38
 70
     1
102
RTVSPropertyOp39
 70
     1
102
RTVSPropertyOp40
 70
     1
102
RTVSPropertyOp41
 70
     1
102
RTVSPropertyOp42
 70
     1
102
RTVSPropertyOp43
 70
     1
102
RTVSPropertyOp44
 70
     1
102
RTVSPropertyOp45
 70
     1
102
RTVSPropertyOp46
 70
     1
102
RTVSPropertyOp47
 70
     1
102
RTVSPropertyOp48
 70
     1
102
RTVSPropertyOp49
 70
     1
102
RTVSPropertyOp50
 70
     1
102
RTVSPropertyOp51
 70
     0
102
RTVSPropertyOp52
 70
     0
102
RTVSPropertyOp53
 70
     1
102
RTVSPropertyOp54
 70
     1
102
RTVSPropertyOp55
 70
     1
102
RTVSPropertyOp56
 70
     1
102
RTVSPropertyOp57
 70
     1
102
RTVSPropertyOp58
 70
     1
102
RTVSPropertyOp59
 70
     1
102
RTVSPropertyOp60
 70
     1
102
RTVSPropertyOp61
 70
     1
102
RTVSPropertyOp62
 70
     1
  0
XRECORD
  5
AEE0
102
{ACAD_REACTORS
330
AEDF
102
}
330
AEDF
100
AcDbXrecord
280
     1
102
RTVSPost2010Prop28
280
     0
102
RTVSPost2010PropOp28
 70
     1
102
RTVSPost2010Prop29
280
     1
102
RTVSPost2010PropOp29
 70
     1
102
RTVSPost2010Prop30
280
     1
102
RTVSPost2010PropOp30
 70
     1
102
RTVSPost2010Prop31
280
     0
102
RTVSPost2010PropOp31
 70
     1
102
RTVSPost2010Prop32
280
     0
102
RTVSPost2010PropOp32
 70
     1
102
RTVSPost2010Prop33
280
     0
102
RTVSPost2010PropOp33
 70
     1
102
RTVSPost2010Prop34
280
     0
102
RTVSPost2010PropOp34
 70
     1
102
RTVSPost2010Prop35
280
     0
102
RTVSPost2010PropOp35
 70
     1
102
RTVSPost2010Prop36
280
     0
102
RTVSPost2010PropOp36
 70
     1
102
RTVSPost2010Prop37
 90
       50
102
RTVSPost2010PropOp37
 70
     0
102
RTVSPost2010Prop38
140
0.0
102
RTVSPost2010PropOp38
 70
     0
102
RTVSPost2010Prop39
140
1.0
102
RTVSPost2010PropOp39
 70
     0
102
RTVSPost2010Prop40
 90
        0
102
RTVSPost2010PropOp40
 70
     0
102
RTVSPost2010Prop41ColorIndex
 90
       18
102
RTVSPost2010Prop41ColorRGB
 90
        0
102
RTVSPost2010PropOp41
 70
     0
102
RTVSPost2010Prop42
 90
       50
102
RTVSPost2010PropOp42
 70
     0
102
RTVSPost2010Prop43
 90
        3
102
RTVSPost2010PropOp43
 70
     0
102
RTVSPost2010Prop44ColorIndex
 90
        5
102
RTVSPost2010Prop44ColorRGB
 90
      255
102
RTVSPost2010PropOp44
 70
     0
102
RTVSPost2010Prop45
280
     0
102
RTVSPost2010PropOp45
 70
     1
102
RTVSPost2010Prop46
 90
       50
102
RTVSPost2010PropOp46
 70
     0
102
RTVSPost2010Prop47
 90
       50
102
RTVSPost2010PropOp47
 70
     0
102
RTVSPost2010Prop48
 90
       50
102
RTVSPost2010PropOp48
 70
     0
102
RTVSPost2010Prop49
280
     0
102
RTVSPost2010PropOp49
 70
     1
102
RTVSPost2010Prop50
 90
       50
102
RTVSPost2010PropOp50
 70
     0
102
RTVSPost2010Prop51ColorIndex
 90
      256
102
RTVSPost2010Prop51ColorRGB
 90
-16777216
102
RTVSPost2010PropOp51
 70
     0
102
RTVSPost2010Prop52
140
1.0
102
RTVSPost2010PropOp52
 70
     0
102
RTVSPost2010Prop53
 90
        2
102
RTVSPost2010PropOp53
 70
     0
102
RTVSPost2010Prop54
  1
strokes_ogs.tif
102
RTVSPost2010PropOp54
 70
     0
102
RTVSPost2010Prop55
280
     0
102
RTVSPost2010PropOp55
 70
     1
102
RTVSPost2010Prop56
140
1.0
102
RTVSPost2010PropOp56
 70
     0
102
RTVSPost2010Prop57
140
1.0
102
RTVSPost2010PropOp57
 70
     0
102
RTVSPropertyOp0
 70
     0
102
RTVSPropertyOp1
 70
     0
102
RTVSPropertyOp2
 70
     0
102
RTVSPropertyOp3
 70
     0
102
RTVSPropertyOp4
 70
     0
102
RTVSPropertyOp5
 70
     0
102
RTVSPropertyOp6
 70
     0
102
RTVSPropertyOp7
 70
     0
102
RTVSPropertyOp8
 70
     0
102
RTVSPropertyOp9
 70
     0
102
RTVSPropertyOp10
 70
     0
102
RTVSPropertyOp11
 70
     0
102
RTVSPropertyOp12
 70
     0
102
RTVSPropertyOp13
 70
     0
102
RTVSPropertyOp14
 70
     2
102
RTVSPropertyOp15
 70
     0
102
RTVSPropertyOp16
 70
     0
102
RTVSPropertyOp17
 70
     0
102
RTVSPropertyOp18
 70
     0
102
RTVSPropertyOp19
 70
     0
102
RTVSPropertyOp20
 70
     0
102
RTVSPropertyOp21
 70
     0
102
RTVSPropertyOp22
 70
     0
102
RTVSPropertyOp23
 70
     0
102
RTVSPropertyOp24
 70
     0
102
RTVSPropertyOp25
 70
     0
102
RTVSPropertyOp26
 70
     0
102
RTVSPropertyOp27
 70
     0
102
RTVSPropertyOp28
 70
     1
102
RTVSPropertyOp29
 70
     1
102
RTVSPropertyOp30
 70
     1
102
RTVSPropertyOp31
 70
     1
102
RTVSPropertyOp32
 70
     1
102
RTVSPropertyOp33
 70
     1
102
RTVSPropertyOp34
 70
     1
102
RTVSPropertyOp35
 70
     1
102
RTVSPropertyOp36
 70
     1
102
RTVSPropertyOp37
 70
     0
102
RTVSPropertyOp38
 70
     0
102
RTVSPropertyOp39
 70
     0
102
RTVSPropertyOp40
 70
     0
102
RTVSPropertyOp41
 70
     0
102
RTVSPropertyOp42
 70
     0
102
RTVSPropertyOp43
 70
     0
102
RTVSPropertyOp44
 70
     0
102
RTVSPropertyOp45
 70
     1
102
RTVSPropertyOp46
 70
     0
102
RTVSPropertyOp47
 70
     0
102
RTVSPropertyOp48
 70
     0
102
RTVSPropertyOp49
 70
     1
102
RTVSPropertyOp50
 70
     0
102
RTVSPropertyOp51
 70
     0
102
RTVSPropertyOp52
 70
     0
102
RTVSPropertyOp53
 70
     0
102
RTVSPropertyOp54
 70
     0
102
RTVSPropertyOp55
 70
     1
102
RTVSPropertyOp56
 70
     0
102
RTVSPropertyOp57
 70
     0
102
RTVSPropertyOp58
 70
     0
102
RTVSPropertyOp59
 70
     0
102
RTVSPropertyOp60
 70
     0
102
RTVSPropertyOp61
 70
     0
102
RTVSPropertyOp62
 70
     0
  0
XRECORD
  5
AED0
102
{ACAD_REACTORS
330
AECF
102
}
330
AECF
100
AcDbXrecord
280
     1
102
RTVSPost2010Prop28
280
     0
102
RTVSPost2010PropOp28
 70
     1
102
RTVSPost2010Prop29
280
     1
102
RTVSPost2010PropOp29
 70
     1
102
RTVSPost2010Prop30
280
     1
102
RTVSPost2010PropOp30
 70
     1
102
RTVSPost2010Prop31
280
     0
102
RTVSPost2010PropOp31
 70
     1
102
RTVSPost2010Prop32
280
     0
102
RTVSPost2010PropOp32
 70
     1
102
RTVSPost2010Prop33
280
     0
102
RTVSPost2010PropOp33
 70
     1
102
RTVSPost2010Prop34
280
     0
102
RTVSPost2010PropOp34
 70
     1
102
RTVSPost2010Prop35
280
     0
102
RTVSPost2010PropOp35
 70
     1
102
RTVSPost2010Prop36
280
     0
102
RTVSPost2010PropOp36
 70
     1
102
RTVSPost2010Prop37
 90
       50
102
RTVSPost2010PropOp37
 70
     1
102
RTVSPost2010Prop38
140
0.0
102
RTVSPost2010PropOp38
 70
     1
102
RTVSPost2010Prop39
140
1.0
102
RTVSPost2010PropOp39
 70
     1
102
RTVSPost2010Prop40
 90
        0
102
RTVSPost2010PropOp40
 70
     1
102
RTVSPost2010Prop41ColorIndex
 90
       18
102
RTVSPost2010Prop41ColorRGB
 90
        0
102
RTVSPost2010PropOp41
 70
     1
102
RTVSPost2010Prop42
 90
       50
102
RTVSPost2010PropOp42
 70
     1
102
RTVSPost2010Prop43
 90
        3
102
RTVSPost2010PropOp43
 70
     1
102
RTVSPost2010Prop44ColorIndex
 90
        5
102
RTVSPost2010Prop44ColorRGB
 90
      255
102
RTVSPost2010PropOp44
 70
     1
102
RTVSPost2010Prop45
280
     0
102
RTVSPost2010PropOp45
 70
     1
102
RTVSPost2010Prop46
 90
       50
102
RTVSPost2010PropOp46
 70
     1
102
RTVSPost2010Prop47
 90
       50
102
RTVSPost2010PropOp47
 70
     1
102
RTVSPost2010Prop48
 90
       50
102
RTVSPost2010PropOp48
 70
     1
102
RTVSPost2010Prop49
280
     0
102
RTVSPost2010PropOp49
 70
     1
102
RTVSPost2010Prop50
 90
       50
102
RTVSPost2010PropOp50
 70
     1
102
RTVSPost2010Prop51ColorIndex
 90
      256
102
RTVSPost2010Prop51ColorRGB
 90
-16777216
102
RTVSPost2010PropOp51
 70
     0
102
RTVSPost2010Prop52
140
1.0
102
RTVSPost2010PropOp52
 70
     0
102
RTVSPost2010Prop53
 90
        2
102
RTVSPost2010PropOp53
 70
     1
102
RTVSPost2010Prop54
  1
strokes_ogs.tif
102
RTVSPost2010PropOp54
 70
     1
102
RTVSPost2010Prop55
280
     0
102
RTVSPost2010PropOp55
 70
     1
102
RTVSPost2010Prop56
140
1.0
102
RTVSPost2010PropOp56
 70
     1
102
RTVSPost2010Prop57
140
1.0
102
RTVSPost2010PropOp57
 70
     1
102
RTVSPropertyOp0
 70
     1
102
RTVSPropertyOp1
 70
     1
102
RTVSPropertyOp2
 70
     1
102
RTVSPropertyOp3
 70
     1
102
RTVSPropertyOp4
 70
     1
102
RTVSPropertyOp5
 70
     1
102
RTVSPropertyOp6
 70
     1
102
RTVSPropertyOp7
 70
     1
102
RTVSPropertyOp8
 70
     1
102
RTVSPropertyOp9
 70
     1
102
RTVSPropertyOp10
 70
     1
102
RTVSPropertyOp11
 70
     1
102
RTVSPropertyOp12
 70
     1
102
RTVSPropertyOp13
 70
     1
102
RTVSPropertyOp14
 70
     1
102
RTVSPropertyOp15
 70
     1
102
RTVSPropertyOp16
 70
     1
102
RTVSPropertyOp17
 70
     1
102
RTVSPropertyOp18
 70
     1
102
RTVSPropertyOp19
 70
     1
102
RTVSPropertyOp20
 70
     1
102
RTVSPropertyOp21
 70
     1
102
RTVSPropertyOp22
 70
     1
102
RTVSPropertyOp23
 70
     1
102
RTVSPropertyOp24
 70
     1
102
RTVSPropertyOp25
 70
     1
102
RTVSPropertyOp26
 70
     1
102
RTVSPropertyOp27
 70
     1
102
RTVSPropertyOp28
 70
     1
102
RTVSPropertyOp29
 70
     1
102
RTVSPropertyOp30
 70
     1
102
RTVSPropertyOp31
 70
     1
102
RTVSPropertyOp32
 70
     1
102
RTVSPropertyOp33
 70
     1
102
RTVSPropertyOp34
 70
     1
102
RTVSPropertyOp35
 70
     1
102
RTVSPropertyOp36
 70
     1
102
RTVSPropertyOp37
 70
     1
102
RTVSPropertyOp38
 70
     1
102
RTVSPropertyOp39
 70
     1
102
RTVSPropertyOp40
 70
     1
102
RTVSPropertyOp41
 70
     1
102
RTVSPropertyOp42
 70
     1
102
RTVSPropertyOp43
 70
     1
102
RTVSPropertyOp44
 70
     1
102
RTVSPropertyOp45
 70
     1
102
RTVSPropertyOp46
 70
     1
102
RTVSPropertyOp47
 70
     1
102
RTVSPropertyOp48
 70
     1
102
RTVSPropertyOp49
 70
     1
102
RTVSPropertyOp50
 70
     1
102
RTVSPropertyOp51
 70
     0
102
RTVSPropertyOp52
 70
     0
102
RTVSPropertyOp53
 70
     1
102
RTVSPropertyOp54
 70
     1
102
RTVSPropertyOp55
 70
     1
102
RTVSPropertyOp56
 70
     1
102
RTVSPropertyOp57
 70
     1
102
RTVSPropertyOp58
 70
     1
102
RTVSPropertyOp59
 70
     1
102
RTVSPropertyOp60
 70
     1
102
RTVSPropertyOp61
 70
     1
102
RTVSPropertyOp62
 70
     1
  0
XRECORD
  5
AEE2
102
{ACAD_REACTORS
330
AEE1
102
}
330
AEE1
100
AcDbXrecord
280
     1
102
RTVSPost2010Prop28
280
     0
102
RTVSPost2010PropOp28
 70
     1
102
RTVSPost2010Prop29
280
     1
102
RTVSPost2010PropOp29
 70
     1
102
RTVSPost2010Prop30
280
     1
102
RTVSPost2010PropOp30
 70
     1
102
RTVSPost2010Prop31
280
     0
102
RTVSPost2010PropOp31
 70
     1
102
RTVSPost2010Prop32
280
     0
102
RTVSPost2010PropOp32
 70
     1
102
RTVSPost2010Prop33
280
     0
102
RTVSPost2010PropOp33
 70
     1
102
RTVSPost2010Prop34
280
     0
102
RTVSPost2010PropOp34
 70
     1
102
RTVSPost2010Prop35
280
     0
102
RTVSPost2010PropOp35
 70
     1
102
RTVSPost2010Prop36
280
     0
102
RTVSPost2010PropOp36
 70
     1
102
RTVSPost2010Prop37
 90
       50
102
RTVSPost2010PropOp37
 70
     0
102
RTVSPost2010Prop38
140
0.0
102
RTVSPost2010PropOp38
 70
     0
102
RTVSPost2010Prop39
140
1.0
102
RTVSPost2010PropOp39
 70
     0
102
RTVSPost2010Prop40
 90
        0
102
RTVSPost2010PropOp40
 70
     0
102
RTVSPost2010Prop41ColorIndex
 90
       18
102
RTVSPost2010Prop41ColorRGB
 90
        0
102
RTVSPost2010PropOp41
 70
     0
102
RTVSPost2010Prop42
 90
       50
102
RTVSPost2010PropOp42
 70
     0
102
RTVSPost2010Prop43
 90
        3
102
RTVSPost2010PropOp43
 70
     0
102
RTVSPost2010Prop44ColorIndex
 90
        5
102
RTVSPost2010Prop44ColorRGB
 90
      255
102
RTVSPost2010PropOp44
 70
     0
102
RTVSPost2010Prop45
280
     0
102
RTVSPost2010PropOp45
 70
     1
102
RTVSPost2010Prop46
 90
       50
102
RTVSPost2010PropOp46
 70
     0
102
RTVSPost2010Prop47
 90
       50
102
RTVSPost2010PropOp47
 70
     0
102
RTVSPost2010Prop48
 90
       50
102
RTVSPost2010PropOp48
 70
     0
102
RTVSPost2010Prop49
280
     0
102
RTVSPost2010PropOp49
 70
     1
102
RTVSPost2010Prop50
 90
       50
102
RTVSPost2010PropOp50
 70
     0
102
RTVSPost2010Prop51ColorIndex
 90
      256
102
RTVSPost2010Prop51ColorRGB
 90
-16777216
102
RTVSPost2010PropOp51
 70
     0
102
RTVSPost2010Prop52
140
1.0
102
RTVSPost2010PropOp52
 70
     0
102
RTVSPost2010Prop53
 90
        2
102
RTVSPost2010PropOp53
 70
     0
102
RTVSPost2010Prop54
  1
strokes_ogs.tif
102
RTVSPost2010PropOp54
 70
     0
102
RTVSPost2010Prop55
280
     0
102
RTVSPost2010PropOp55
 70
     1
102
RTVSPost2010Prop56
140
1.0
102
RTVSPost2010PropOp56
 70
     0
102
RTVSPost2010Prop57
140
1.0
102
RTVSPost2010PropOp57
 70
     0
102
RTVSPropertyOp0
 70
     0
102
RTVSPropertyOp1
 70
     0
102
RTVSPropertyOp2
 70
     0
102
RTVSPropertyOp3
 70
     0
102
RTVSPropertyOp4
 70
     0
102
RTVSPropertyOp5
 70
     0
102
RTVSPropertyOp6
 70
     0
102
RTVSPropertyOp7
 70
     0
102
RTVSPropertyOp8
 70
     0
102
RTVSPropertyOp9
 70
     0
102
RTVSPropertyOp10
 70
     0
102
RTVSPropertyOp11
 70
     0
102
RTVSPropertyOp12
 70
     0
102
RTVSPropertyOp13
 70
     0
102
RTVSPropertyOp14
 70
     2
102
RTVSPropertyOp15
 70
     0
102
RTVSPropertyOp16
 70
     0
102
RTVSPropertyOp17
 70
     0
102
RTVSPropertyOp18
 70
     0
102
RTVSPropertyOp19
 70
     0
102
RTVSPropertyOp20
 70
     0
102
RTVSPropertyOp21
 70
     0
102
RTVSPropertyOp22
 70
     0
102
RTVSPropertyOp23
 70
     0
102
RTVSPropertyOp24
 70
     0
102
RTVSPropertyOp25
 70
     0
102
RTVSPropertyOp26
 70
     0
102
RTVSPropertyOp27
 70
     0
102
RTVSPropertyOp28
 70
     1
102
RTVSPropertyOp29
 70
     1
102
RTVSPropertyOp30
 70
     1
102
RTVSPropertyOp31
 70
     1
102
RTVSPropertyOp32
 70
     1
102
RTVSPropertyOp33
 70
     1
102
RTVSPropertyOp34
 70
     1
102
RTVSPropertyOp35
 70
     1
102
RTVSPropertyOp36
 70
     1
102
RTVSPropertyOp37
 70
     0
102
RTVSPropertyOp38
 70
     0
102
RTVSPropertyOp39
 70
     0
102
RTVSPropertyOp40
 70
     0
102
RTVSPropertyOp41
 70
     0
102
RTVSPropertyOp42
 70
     0
102
RTVSPropertyOp43
 70
     0
102
RTVSPropertyOp44
 70
     0
102
RTVSPropertyOp45
 70
     1
102
RTVSPropertyOp46
 70
     0
102
RTVSPropertyOp47
 70
     0
102
RTVSPropertyOp48
 70
     0
102
RTVSPropertyOp49
 70
     1
102
RTVSPropertyOp50
 70
     0
102
RTVSPropertyOp51
 70
     0
102
RTVSPropertyOp52
 70
     0
102
RTVSPropertyOp53
 70
     0
102
RTVSPropertyOp54
 70
     0
102
RTVSPropertyOp55
 70
     1
102
RTVSPropertyOp56
 70
     0
102
RTVSPropertyOp57
 70
     0
102
RTVSPropertyOp58
 70
     0
102
RTVSPropertyOp59
 70
     0
102
RTVSPropertyOp60
 70
     0
102
RTVSPropertyOp61
 70
     0
102
RTVSPropertyOp62
 70
     0
  0
XRECORD
  5
AEC8
102
{ACAD_REACTORS
330
AEC7
102
}
330
AEC7
100
AcDbXrecord
280
     1
102
RTVSPost2010Prop28
280
     0
102
RTVSPost2010PropOp28
 70
     1
102
RTVSPost2010Prop29
280
     1
102
RTVSPost2010PropOp29
 70
     1
102
RTVSPost2010Prop30
280
     1
102
RTVSPost2010PropOp30
 70
     1
102
RTVSPost2010Prop31
280
     0
102
RTVSPost2010PropOp31
 70
     1
102
RTVSPost2010Prop32
280
     0
102
RTVSPost2010PropOp32
 70
     1
102
RTVSPost2010Prop33
280
     0
102
RTVSPost2010PropOp33
 70
     1
102
RTVSPost2010Prop34
280
     0
102
RTVSPost2010PropOp34
 70
     1
102
RTVSPost2010Prop35
280
     0
102
RTVSPost2010PropOp35
 70
     1
102
RTVSPost2010Prop36
280
     0
102
RTVSPost2010PropOp36
 70
     1
102
RTVSPost2010Prop37
 90
       50
102
RTVSPost2010PropOp37
 70
     1
102
RTVSPost2010Prop38
140
0.0
102
RTVSPost2010PropOp38
 70
     1
102
RTVSPost2010Prop39
140
1.0
102
RTVSPost2010PropOp39
 70
     1
102
RTVSPost2010Prop40
 90
        0
102
RTVSPost2010PropOp40
 70
     1
102
RTVSPost2010Prop41ColorIndex
 90
       18
102
RTVSPost2010Prop41ColorRGB
 90
        0
102
RTVSPost2010PropOp41
 70
     1
102
RTVSPost2010Prop42
 90
       50
102
RTVSPost2010PropOp42
 70
     1
102
RTVSPost2010Prop43
 90
        3
102
RTVSPost2010PropOp43
 70
     1
102
RTVSPost2010Prop44ColorIndex
 90
        5
102
RTVSPost2010Prop44ColorRGB
 90
      255
102
RTVSPost2010PropOp44
 70
     1
102
RTVSPost2010Prop45
280
     0
102
RTVSPost2010PropOp45
 70
     1
102
RTVSPost2010Prop46
 90
       50
102
RTVSPost2010PropOp46
 70
     1
102
RTVSPost2010Prop47
 90
       50
102
RTVSPost2010PropOp47
 70
     1
102
RTVSPost2010Prop48
 90
       50
102
RTVSPost2010PropOp48
 70
     1
102
RTVSPost2010Prop49
280
     0
102
RTVSPost2010PropOp49
 70
     1
102
RTVSPost2010Prop50
 90
       50
102
RTVSPost2010PropOp50
 70
     1
102
RTVSPost2010Prop51ColorIndex
 90
      256
102
RTVSPost2010Prop51ColorRGB
 90
-16777216
102
RTVSPost2010PropOp51
 70
     0
102
RTVSPost2010Prop52
140
1.0
102
RTVSPost2010PropOp52
 70
     0
102
RTVSPost2010Prop53
 90
        2
102
RTVSPost2010PropOp53
 70
     1
102
RTVSPost2010Prop54
  1
strokes_ogs.tif
102
RTVSPost2010PropOp54
 70
     1
102
RTVSPost2010Prop55
280
     0
102
RTVSPost2010PropOp55
 70
     1
102
RTVSPost2010Prop56
140
1.0
102
RTVSPost2010PropOp56
 70
     1
102
RTVSPost2010Prop57
140
1.0
102
RTVSPost2010PropOp57
 70
     1
102
RTVSPropertyOp0
 70
     1
102
RTVSPropertyOp1
 70
     1
102
RTVSPropertyOp2
 70
     1
102
RTVSPropertyOp3
 70
     1
102
RTVSPropertyOp4
 70
     1
102
RTVSPropertyOp5
 70
     1
102
RTVSPropertyOp6
 70
     1
102
RTVSPropertyOp7
 70
     1
102
RTVSPropertyOp8
 70
     1
102
RTVSPropertyOp9
 70
     1
102
RTVSPropertyOp10
 70
     1
102
RTVSPropertyOp11
 70
     1
102
RTVSPropertyOp12
 70
     1
102
RTVSPropertyOp13
 70
     1
102
RTVSPropertyOp14
 70
     1
102
RTVSPropertyOp15
 70
     1
102
RTVSPropertyOp16
 70
     1
102
RTVSPropertyOp17
 70
     1
102
RTVSPropertyOp18
 70
     1
102
RTVSPropertyOp19
 70
     1
102
RTVSPropertyOp20
 70
     1
102
RTVSPropertyOp21
 70
     1
102
RTVSPropertyOp22
 70
     1
102
RTVSPropertyOp23
 70
     1
102
RTVSPropertyOp24
 70
     1
102
RTVSPropertyOp25
 70
     1
102
RTVSPropertyOp26
 70
     1
102
RTVSPropertyOp27
 70
     1
102
RTVSPropertyOp28
 70
     1
102
RTVSPropertyOp29
 70
     1
102
RTVSPropertyOp30
 70
     1
102
RTVSPropertyOp31
 70
     1
102
RTVSPropertyOp32
 70
     1
102
RTVSPropertyOp33
 70
     1
102
RTVSPropertyOp34
 70
     1
102
RTVSPropertyOp35
 70
     1
102
RTVSPropertyOp36
 70
     1
102
RTVSPropertyOp37
 70
     1
102
RTVSPropertyOp38
 70
     1
102
RTVSPropertyOp39
 70
     1
102
RTVSPropertyOp40
 70
     1
102
RTVSPropertyOp41
 70
     1
102
RTVSPropertyOp42
 70
     1
102
RTVSPropertyOp43
 70
     1
102
RTVSPropertyOp44
 70
     1
102
RTVSPropertyOp45
 70
     1
102
RTVSPropertyOp46
 70
     1
102
RTVSPropertyOp47
 70
     1
102
RTVSPropertyOp48
 70
     1
102
RTVSPropertyOp49
 70
     1
102
RTVSPropertyOp50
 70
     1
102
RTVSPropertyOp51
 70
     0
102
RTVSPropertyOp52
 70
     0
102
RTVSPropertyOp53
 70
     1
102
RTVSPropertyOp54
 70
     1
102
RTVSPropertyOp55
 70
     1
102
RTVSPropertyOp56
 70
     1
102
RTVSPropertyOp57
 70
     1
102
RTVSPropertyOp58
 70
     1
102
RTVSPropertyOp59
 70
     1
102
RTVSPropertyOp60
 70
     1
102
RTVSPropertyOp61
 70
     1
102
RTVSPropertyOp62
 70
     1
  0
XRECORD
  5
AEDE
102
{ACAD_REACTORS
330
AEDD
102
}
330
AEDD
100
AcDbXrecord
280
     1
102
RTVSPost2010Prop28
280
     0
102
RTVSPost2010PropOp28
 70
     1
102
RTVSPost2010Prop29
280
     1
102
RTVSPost2010PropOp29
 70
     1
102
RTVSPost2010Prop30
280
     1
102
RTVSPost2010PropOp30
 70
     1
102
RTVSPost2010Prop31
280
     0
102
RTVSPost2010PropOp31
 70
     1
102
RTVSPost2010Prop32
280
     0
102
RTVSPost2010PropOp32
 70
     1
102
RTVSPost2010Prop33
280
     0
102
RTVSPost2010PropOp33
 70
     1
102
RTVSPost2010Prop34
280
     0
102
RTVSPost2010PropOp34
 70
     1
102
RTVSPost2010Prop35
280
     0
102
RTVSPost2010PropOp35
 70
     1
102
RTVSPost2010Prop36
280
     0
102
RTVSPost2010PropOp36
 70
     1
102
RTVSPost2010Prop37
 90
       50
102
RTVSPost2010PropOp37
 70
     1
102
RTVSPost2010Prop38
140
0.0
102
RTVSPost2010PropOp38
 70
     1
102
RTVSPost2010Prop39
140
1.0
102
RTVSPost2010PropOp39
 70
     1
102
RTVSPost2010Prop40
 90
        0
102
RTVSPost2010PropOp40
 70
     1
102
RTVSPost2010Prop41ColorIndex
 90
       18
102
RTVSPost2010Prop41ColorRGB
 90
        0
102
RTVSPost2010PropOp41
 70
     1
102
RTVSPost2010Prop42
 90
       50
102
RTVSPost2010PropOp42
 70
     1
102
RTVSPost2010Prop43
 90
        3
102
RTVSPost2010PropOp43
 70
     1
102
RTVSPost2010Prop44ColorIndex
 90
        5
102
RTVSPost2010Prop44ColorRGB
 90
      255
102
RTVSPost2010PropOp44
 70
     1
102
RTVSPost2010Prop45
280
     0
102
RTVSPost2010PropOp45
 70
     1
102
RTVSPost2010Prop46
 90
       50
102
RTVSPost2010PropOp46
 70
     1
102
RTVSPost2010Prop47
 90
       50
102
RTVSPost2010PropOp47
 70
     1
102
RTVSPost2010Prop48
 90
       50
102
RTVSPost2010PropOp48
 70
     1
102
RTVSPost2010Prop49
280
     0
102
RTVSPost2010PropOp49
 70
     1
102
RTVSPost2010Prop50
 90
       50
102
RTVSPost2010PropOp50
 70
     1
102
RTVSPost2010Prop51ColorIndex
 90
      256
102
RTVSPost2010Prop51ColorRGB
 90
-16777216
102
RTVSPost2010PropOp51
 70
     0
102
RTVSPost2010Prop52
140
1.0
102
RTVSPost2010PropOp52
 70
     0
102
RTVSPost2010Prop53
 90
        2
102
RTVSPost2010PropOp53
 70
     1
102
RTVSPost2010Prop54
  1
strokes_ogs.tif
102
RTVSPost2010PropOp54
 70
     1
102
RTVSPost2010Prop55
280
     0
102
RTVSPost2010PropOp55
 70
     1
102
RTVSPost2010Prop56
140
1.0
102
RTVSPost2010PropOp56
 70
     1
102
RTVSPost2010Prop57
140
1.0
102
RTVSPost2010PropOp57
 70
     1
102
RTVSPropertyOp0
 70
     1
102
RTVSPropertyOp1
 70
     1
102
RTVSPropertyOp2
 70
     1
102
RTVSPropertyOp3
 70
     1
102
RTVSPropertyOp4
 70
     1
102
RTVSPropertyOp5
 70
     1
102
RTVSPropertyOp6
 70
     1
102
RTVSPropertyOp7
 70
     1
102
RTVSPropertyOp8
 70
     1
102
RTVSPropertyOp9
 70
     1
102
RTVSPropertyOp10
 70
     1
102
RTVSPropertyOp11
 70
     1
102
RTVSPropertyOp12
 70
     1
102
RTVSPropertyOp13
 70
     1
102
RTVSPropertyOp14
 70
     1
102
RTVSPropertyOp15
 70
     1
102
RTVSPropertyOp16
 70
     1
102
RTVSPropertyOp17
 70
     1
102
RTVSPropertyOp18
 70
     1
102
RTVSPropertyOp19
 70
     1
102
RTVSPropertyOp20
 70
     1
102
RTVSPropertyOp21
 70
     1
102
RTVSPropertyOp22
 70
     1
102
RTVSPropertyOp23
 70
     1
102
RTVSPropertyOp24
 70
     1
102
RTVSPropertyOp25
 70
     1
102
RTVSPropertyOp26
 70
     1
102
RTVSPropertyOp27
 70
     1
102
RTVSPropertyOp28
 70
     1
102
RTVSPropertyOp29
 70
     1
102
RTVSPropertyOp30
 70
     1
102
RTVSPropertyOp31
 70
     1
102
RTVSPropertyOp32
 70
     1
102
RTVSPropertyOp33
 70
     1
102
RTVSPropertyOp34
 70
     1
102
RTVSPropertyOp35
 70
     1
102
RTVSPropertyOp36
 70
     1
102
RTVSPropertyOp37
 70
     1
102
RTVSPropertyOp38
 70
     1
102
RTVSPropertyOp39
 70
     1
102
RTVSPropertyOp40
 70
     1
102
RTVSPropertyOp41
 70
     1
102
RTVSPropertyOp42
 70
     1
102
RTVSPropertyOp43
 70
     1
102
RTVSPropertyOp44
 70
     1
102
RTVSPropertyOp45
 70
     1
102
RTVSPropertyOp46
 70
     1
102
RTVSPropertyOp47
 70
     1
102
RTVSPropertyOp48
 70
     1
102
RTVSPropertyOp49
 70
     1
102
RTVSPropertyOp50
 70
     1
102
RTVSPropertyOp51
 70
     0
102
RTVSPropertyOp52
 70
     0
102
RTVSPropertyOp53
 70
     1
102
RTVSPropertyOp54
 70
     1
102
RTVSPropertyOp55
 70
     1
102
RTVSPropertyOp56
 70
     1
102
RTVSPropertyOp57
 70
     1
102
RTVSPropertyOp58
 70
     1
102
RTVSPropertyOp59
 70
     1
102
RTVSPropertyOp60
 70
     1
102
RTVSPropertyOp61
 70
     1
102
RTVSPropertyOp62
 70
     1
  0
XRECORD
  5
AEDC
102
{ACAD_REACTORS
330
AEDB
102
}
330
AEDB
100
AcDbXrecord
280
     1
102
RTVSPost2010Prop28
280
     0
102
RTVSPost2010PropOp28
 70
     1
102
RTVSPost2010Prop29
280
     1
102
RTVSPost2010PropOp29
 70
     1
102
RTVSPost2010Prop30
280
     1
102
RTVSPost2010PropOp30
 70
     1
102
RTVSPost2010Prop31
280
     0
102
RTVSPost2010PropOp31
 70
     1
102
RTVSPost2010Prop32
280
     0
102
RTVSPost2010PropOp32
 70
     1
102
RTVSPost2010Prop33
280
     0
102
RTVSPost2010PropOp33
 70
     1
102
RTVSPost2010Prop34
280
     0
102
RTVSPost2010PropOp34
 70
     1
102
RTVSPost2010Prop35
280
     0
102
RTVSPost2010PropOp35
 70
     1
102
RTVSPost2010Prop36
280
     0
102
RTVSPost2010PropOp36
 70
     1
102
RTVSPost2010Prop37
 90
       50
102
RTVSPost2010PropOp37
 70
     1
102
RTVSPost2010Prop38
140
0.0
102
RTVSPost2010PropOp38
 70
     1
102
RTVSPost2010Prop39
140
1.0
102
RTVSPost2010PropOp39
 70
     1
102
RTVSPost2010Prop40
 90
        0
102
RTVSPost2010PropOp40
 70
     1
102
RTVSPost2010Prop41ColorIndex
 90
       18
102
RTVSPost2010Prop41ColorRGB
 90
        0
102
RTVSPost2010PropOp41
 70
     1
102
RTVSPost2010Prop42
 90
       50
102
RTVSPost2010PropOp42
 70
     1
102
RTVSPost2010Prop43
 90
        3
102
RTVSPost2010PropOp43
 70
     1
102
RTVSPost2010Prop44ColorIndex
 90
        5
102
RTVSPost2010Prop44ColorRGB
 90
      255
102
RTVSPost2010PropOp44
 70
     1
102
RTVSPost2010Prop45
280
     0
102
RTVSPost2010PropOp45
 70
     1
102
RTVSPost2010Prop46
 90
       50
102
RTVSPost2010PropOp46
 70
     1
102
RTVSPost2010Prop47
 90
       50
102
RTVSPost2010PropOp47
 70
     1
102
RTVSPost2010Prop48
 90
       50
102
RTVSPost2010PropOp48
 70
     1
102
RTVSPost2010Prop49
280
     0
102
RTVSPost2010PropOp49
 70
     1
102
RTVSPost2010Prop50
 90
       50
102
RTVSPost2010PropOp50
 70
     1
102
RTVSPost2010Prop51ColorIndex
 90
      256
102
RTVSPost2010Prop51ColorRGB
 90
-16777216
102
RTVSPost2010PropOp51
 70
     0
102
RTVSPost2010Prop52
140
1.0
102
RTVSPost2010PropOp52
 70
     0
102
RTVSPost2010Prop53
 90
        2
102
RTVSPost2010PropOp53
 70
     1
102
RTVSPost2010Prop54
  1
strokes_ogs.tif
102
RTVSPost2010PropOp54
 70
     1
102
RTVSPost2010Prop55
280
     0
102
RTVSPost2010PropOp55
 70
     1
102
RTVSPost2010Prop56
140
1.0
102
RTVSPost2010PropOp56
 70
     1
102
RTVSPost2010Prop57
140
1.0
102
RTVSPost2010PropOp57
 70
     1
102
RTVSPropertyOp0
 70
     1
102
RTVSPropertyOp1
 70
     1
102
RTVSPropertyOp2
 70
     1
102
RTVSPropertyOp3
 70
     1
102
RTVSPropertyOp4
 70
     1
102
RTVSPropertyOp5
 70
     1
102
RTVSPropertyOp6
 70
     1
102
RTVSPropertyOp7
 70
     1
102
RTVSPropertyOp8
 70
     1
102
RTVSPropertyOp9
 70
     1
102
RTVSPropertyOp10
 70
     1
102
RTVSPropertyOp11
 70
     1
102
RTVSPropertyOp12
 70
     1
102
RTVSPropertyOp13
 70
     1
102
RTVSPropertyOp14
 70
     1
102
RTVSPropertyOp15
 70
     1
102
RTVSPropertyOp16
 70
     1
102
RTVSPropertyOp17
 70
     1
102
RTVSPropertyOp18
 70
     1
102
RTVSPropertyOp19
 70
     1
102
RTVSPropertyOp20
 70
     1
102
RTVSPropertyOp21
 70
     1
102
RTVSPropertyOp22
 70
     1
102
RTVSPropertyOp23
 70
     1
102
RTVSPropertyOp24
 70
     1
102
RTVSPropertyOp25
 70
     1
102
RTVSPropertyOp26
 70
     1
102
RTVSPropertyOp27
 70
     1
102
RTVSPropertyOp28
 70
     1
102
RTVSPropertyOp29
 70
     1
102
RTVSPropertyOp30
 70
     1
102
RTVSPropertyOp31
 70
     1
102
RTVSPropertyOp32
 70
     1
102
RTVSPropertyOp33
 70
     1
102
RTVSPropertyOp34
 70
     1
102
RTVSPropertyOp35
 70
     1
102
RTVSPropertyOp36
 70
     1
102
RTVSPropertyOp37
 70
     1
102
RTVSPropertyOp38
 70
     1
102
RTVSPropertyOp39
 70
     1
102
RTVSPropertyOp40
 70
     1
102
RTVSPropertyOp41
 70
     1
102
RTVSPropertyOp42
 70
     1
102
RTVSPropertyOp43
 70
     1
102
RTVSPropertyOp44
 70
     1
102
RTVSPropertyOp45
 70
     1
102
RTVSPropertyOp46
 70
     1
102
RTVSPropertyOp47
 70
     1
102
RTVSPropertyOp48
 70
     1
102
RTVSPropertyOp49
 70
     1
102
RTVSPropertyOp50
 70
     1
102
RTVSPropertyOp51
 70
     0
102
RTVSPropertyOp52
 70
     0
102
RTVSPropertyOp53
 70
     1
102
RTVSPropertyOp54
 70
     1
102
RTVSPropertyOp55
 70
     1
102
RTVSPropertyOp56
 70
     1
102
RTVSPropertyOp57
 70
     1
102
RTVSPropertyOp58
 70
     1
102
RTVSPropertyOp59
 70
     1
102
RTVSPropertyOp60
 70
     1
102
RTVSPropertyOp61
 70
     1
102
RTVSPropertyOp62
 70
     1
  0
XRECORD
  5
AED6
102
{ACAD_REACTORS
330
AED5
102
}
330
AED5
100
AcDbXrecord
280
     1
102
RTVSPost2010Prop28
280
     0
102
RTVSPost2010PropOp28
 70
     1
102
RTVSPost2010Prop29
280
     1
102
RTVSPost2010PropOp29
 70
     1
102
RTVSPost2010Prop30
280
     1
102
RTVSPost2010PropOp30
 70
     1
102
RTVSPost2010Prop31
280
     0
102
RTVSPost2010PropOp31
 70
     1
102
RTVSPost2010Prop32
280
     0
102
RTVSPost2010PropOp32
 70
     1
102
RTVSPost2010Prop33
280
     0
102
RTVSPost2010PropOp33
 70
     1
102
RTVSPost2010Prop34
280
     0
102
RTVSPost2010PropOp34
 70
     1
102
RTVSPost2010Prop35
280
     0
102
RTVSPost2010PropOp35
 70
     1
102
RTVSPost2010Prop36
280
     0
102
RTVSPost2010PropOp36
 70
     1
102
RTVSPost2010Prop37
 90
       50
102
RTVSPost2010PropOp37
 70
     1
102
RTVSPost2010Prop38
140
0.0
102
RTVSPost2010PropOp38
 70
     1
102
RTVSPost2010Prop39
140
1.0
102
RTVSPost2010PropOp39
 70
     1
102
RTVSPost2010Prop40
 90
        0
102
RTVSPost2010PropOp40
 70
     1
102
RTVSPost2010Prop41ColorIndex
 90
       18
102
RTVSPost2010Prop41ColorRGB
 90
        0
102
RTVSPost2010PropOp41
 70
     1
102
RTVSPost2010Prop42
 90
       50
102
RTVSPost2010PropOp42
 70
     1
102
RTVSPost2010Prop43
 90
        3
102
RTVSPost2010PropOp43
 70
     1
102
RTVSPost2010Prop44ColorIndex
 90
        5
102
RTVSPost2010Prop44ColorRGB
 90
      255
102
RTVSPost2010PropOp44
 70
     1
102
RTVSPost2010Prop45
280
     0
102
RTVSPost2010PropOp45
 70
     1
102
RTVSPost2010Prop46
 90
       50
102
RTVSPost2010PropOp46
 70
     1
102
RTVSPost2010Prop47
 90
       50
102
RTVSPost2010PropOp47
 70
     1
102
RTVSPost2010Prop48
 90
       50
102
RTVSPost2010PropOp48
 70
     1
102
RTVSPost2010Prop49
280
     0
102
RTVSPost2010PropOp49
 70
     1
102
RTVSPost2010Prop50
 90
       50
102
RTVSPost2010PropOp50
 70
     1
102
RTVSPost2010Prop51ColorIndex
 90
      256
102
RTVSPost2010Prop51ColorRGB
 90
-16777216
102
RTVSPost2010PropOp51
 70
     0
102
RTVSPost2010Prop52
140
1.0
102
RTVSPost2010PropOp52
 70
     0
102
RTVSPost2010Prop53
 90
        2
102
RTVSPost2010PropOp53
 70
     1
102
RTVSPost2010Prop54
  1
strokes_ogs.tif
102
RTVSPost2010PropOp54
 70
     1
102
RTVSPost2010Prop55
280
     0
102
RTVSPost2010PropOp55
 70
     1
102
RTVSPost2010Prop56
140
1.0
102
RTVSPost2010PropOp56
 70
     1
102
RTVSPost2010Prop57
140
1.0
102
RTVSPost2010PropOp57
 70
     1
102
RTVSPropertyOp0
 70
     1
102
RTVSPropertyOp1
 70
     1
102
RTVSPropertyOp2
 70
     1
102
RTVSPropertyOp3
 70
     1
102
RTVSPropertyOp4
 70
     1
102
RTVSPropertyOp5
 70
     1
102
RTVSPropertyOp6
 70
     1
102
RTVSPropertyOp7
 70
     1
102
RTVSPropertyOp8
 70
     1
102
RTVSPropertyOp9
 70
     1
102
RTVSPropertyOp10
 70
     1
102
RTVSPropertyOp11
 70
     1
102
RTVSPropertyOp12
 70
     1
102
RTVSPropertyOp13
 70
     1
102
RTVSPropertyOp14
 70
     1
102
RTVSPropertyOp15
 70
     1
102
RTVSPropertyOp16
 70
     1
102
RTVSPropertyOp17
 70
     1
102
RTVSPropertyOp18
 70
     1
102
RTVSPropertyOp19
 70
     1
102
RTVSPropertyOp20
 70
     1
102
RTVSPropertyOp21
 70
     1
102
RTVSPropertyOp22
 70
     1
102
RTVSPropertyOp23
 70
     1
102
RTVSPropertyOp24
 70
     1
102
RTVSPropertyOp25
 70
     1
102
RTVSPropertyOp26
 70
     1
102
RTVSPropertyOp27
 70
     1
102
RTVSPropertyOp28
 70
     1
102
RTVSPropertyOp29
 70
     1
102
RTVSPropertyOp30
 70
     1
102
RTVSPropertyOp31
 70
     1
102
RTVSPropertyOp32
 70
     1
102
RTVSPropertyOp33
 70
     1
102
RTVSPropertyOp34
 70
     1
102
RTVSPropertyOp35
 70
     1
102
RTVSPropertyOp36
 70
     1
102
RTVSPropertyOp37
 70
     1
102
RTVSPropertyOp38
 70
     1
102
RTVSPropertyOp39
 70
     1
102
RTVSPropertyOp40
 70
     1
102
RTVSPropertyOp41
 70
     1
102
RTVSPropertyOp42
 70
     1
102
RTVSPropertyOp43
 70
     1
102
RTVSPropertyOp44
 70
     1
102
RTVSPropertyOp45
 70
     1
102
RTVSPropertyOp46
 70
     1
102
RTVSPropertyOp47
 70
     1
102
RTVSPropertyOp48
 70
     1
102
RTVSPropertyOp49
 70
     1
102
RTVSPropertyOp50
 70
     1
102
RTVSPropertyOp51
 70
     0
102
RTVSPropertyOp52
 70
     0
102
RTVSPropertyOp53
 70
     1
102
RTVSPropertyOp54
 70
     1
102
RTVSPropertyOp55
 70
     1
102
RTVSPropertyOp56
 70
     1
102
RTVSPropertyOp57
 70
     1
102
RTVSPropertyOp58
 70
     1
102
RTVSPropertyOp59
 70
     1
102
RTVSPropertyOp60
 70
     1
102
RTVSPropertyOp61
 70
     1
102
RTVSPropertyOp62
 70
     1
  0
XRECORD
  5
AED8
102
{ACAD_REACTORS
330
AED7
102
}
330
AED7
100
AcDbXrecord
280
     1
102
RTVSPost2010Prop28
280
     0
102
RTVSPost2010PropOp28
 70
     1
102
RTVSPost2010Prop29
280
     1
102
RTVSPost2010PropOp29
 70
     1
102
RTVSPost2010Prop30
280
     1
102
RTVSPost2010PropOp30
 70
     1
102
RTVSPost2010Prop31
280
     0
102
RTVSPost2010PropOp31
 70
     1
102
RTVSPost2010Prop32
280
     0
102
RTVSPost2010PropOp32
 70
     1
102
RTVSPost2010Prop33
280
     0
102
RTVSPost2010PropOp33
 70
     1
102
RTVSPost2010Prop34
280
     0
102
RTVSPost2010PropOp34
 70
     1
102
RTVSPost2010Prop35
280
     0
102
RTVSPost2010PropOp35
 70
     1
102
RTVSPost2010Prop36
280
     0
102
RTVSPost2010PropOp36
 70
     1
102
RTVSPost2010Prop37
 90
       50
102
RTVSPost2010PropOp37
 70
     1
102
RTVSPost2010Prop38
140
0.0
102
RTVSPost2010PropOp38
 70
     1
102
RTVSPost2010Prop39
140
1.0
102
RTVSPost2010PropOp39
 70
     1
102
RTVSPost2010Prop40
 90
        0
102
RTVSPost2010PropOp40
 70
     1
102
RTVSPost2010Prop41ColorIndex
 90
       18
102
RTVSPost2010Prop41ColorRGB
 90
        0
102
RTVSPost2010PropOp41
 70
     1
102
RTVSPost2010Prop42
 90
       50
102
RTVSPost2010PropOp42
 70
     1
102
RTVSPost2010Prop43
 90
        3
102
RTVSPost2010PropOp43
 70
     1
102
RTVSPost2010Prop44ColorIndex
 90
        5
102
RTVSPost2010Prop44ColorRGB
 90
      255
102
RTVSPost2010PropOp44
 70
     1
102
RTVSPost2010Prop45
280
     0
102
RTVSPost2010PropOp45
 70
     1
102
RTVSPost2010Prop46
 90
       50
102
RTVSPost2010PropOp46
 70
     1
102
RTVSPost2010Prop47
 90
       50
102
RTVSPost2010PropOp47
 70
     1
102
RTVSPost2010Prop48
 90
       50
102
RTVSPost2010PropOp48
 70
     1
102
RTVSPost2010Prop49
280
     0
102
RTVSPost2010PropOp49
 70
     1
102
RTVSPost2010Prop50
 90
       50
102
RTVSPost2010PropOp50
 70
     1
102
RTVSPost2010Prop51ColorIndex
 90
      256
102
RTVSPost2010Prop51ColorRGB
 90
-16777216
102
RTVSPost2010PropOp51
 70
     0
102
RTVSPost2010Prop52
140
1.0
102
RTVSPost2010PropOp52
 70
     0
102
RTVSPost2010Prop53
 90
        2
102
RTVSPost2010PropOp53
 70
     1
102
RTVSPost2010Prop54
  1
strokes_ogs.tif
102
RTVSPost2010PropOp54
 70
     1
102
RTVSPost2010Prop55
280
     0
102
RTVSPost2010PropOp55
 70
     1
102
RTVSPost2010Prop56
140
1.0
102
RTVSPost2010PropOp56
 70
     1
102
RTVSPost2010Prop57
140
1.0
102
RTVSPost2010PropOp57
 70
     1
102
RTVSPropertyOp0
 70
     1
102
RTVSPropertyOp1
 70
     1
102
RTVSPropertyOp2
 70
     1
102
RTVSPropertyOp3
 70
     1
102
RTVSPropertyOp4
 70
     1
102
RTVSPropertyOp5
 70
     1
102
RTVSPropertyOp6
 70
     1
102
RTVSPropertyOp7
 70
     1
102
RTVSPropertyOp8
 70
     1
102
RTVSPropertyOp9
 70
     1
102
RTVSPropertyOp10
 70
     1
102
RTVSPropertyOp11
 70
     1
102
RTVSPropertyOp12
 70
     1
102
RTVSPropertyOp13
 70
     1
102
RTVSPropertyOp14
 70
     1
102
RTVSPropertyOp15
 70
     1
102
RTVSPropertyOp16
 70
     1
102
RTVSPropertyOp17
 70
     1
102
RTVSPropertyOp18
 70
     1
102
RTVSPropertyOp19
 70
     1
102
RTVSPropertyOp20
 70
     1
102
RTVSPropertyOp21
 70
     1
102
RTVSPropertyOp22
 70
     1
102
RTVSPropertyOp23
 70
     1
102
RTVSPropertyOp24
 70
     1
102
RTVSPropertyOp25
 70
     1
102
RTVSPropertyOp26
 70
     1
102
RTVSPropertyOp27
 70
     1
102
RTVSPropertyOp28
 70
     1
102
RTVSPropertyOp29
 70
     1
102
RTVSPropertyOp30
 70
     1
102
RTVSPropertyOp31
 70
     1
102
RTVSPropertyOp32
 70
     1
102
RTVSPropertyOp33
 70
     1
102
RTVSPropertyOp34
 70
     1
102
RTVSPropertyOp35
 70
     1
102
RTVSPropertyOp36
 70
     1
102
RTVSPropertyOp37
 70
     1
102
RTVSPropertyOp38
 70
     1
102
RTVSPropertyOp39
 70
     1
102
RTVSPropertyOp40
 70
     1
102
RTVSPropertyOp41
 70
     1
102
RTVSPropertyOp42
 70
     1
102
RTVSPropertyOp43
 70
     1
102
RTVSPropertyOp44
 70
     1
102
RTVSPropertyOp45
 70
     1
102
RTVSPropertyOp46
 70
     1
102
RTVSPropertyOp47
 70
     1
102
RTVSPropertyOp48
 70
     1
102
RTVSPropertyOp49
 70
     1
102
RTVSPropertyOp50
 70
     1
102
RTVSPropertyOp51
 70
     0
102
RTVSPropertyOp52
 70
     0
102
RTVSPropertyOp53
 70
     1
102
RTVSPropertyOp54
 70
     1
102
RTVSPropertyOp55
 70
     1
102
RTVSPropertyOp56
 70
     1
102
RTVSPropertyOp57
 70
     1
102
RTVSPropertyOp58
 70
     1
102
RTVSPropertyOp59
 70
     1
102
RTVSPropertyOp60
 70
     1
102
RTVSPropertyOp61
 70
     1
102
RTVSPropertyOp62
 70
     1
  0
XRECORD
  5
AECE
102
{ACAD_REACTORS
330
AECD
102
}
330
AECD
100
AcDbXrecord
280
     1
102
RTVSPost2010Prop28
280
     0
102
RTVSPost2010PropOp28
 70
     1
102
RTVSPost2010Prop29
280
     1
102
RTVSPost2010PropOp29
 70
     1
102
RTVSPost2010Prop30
280
     1
102
RTVSPost2010PropOp30
 70
     1
102
RTVSPost2010Prop31
280
     0
102
RTVSPost2010PropOp31
 70
     1
102
RTVSPost2010Prop32
280
     0
102
RTVSPost2010PropOp32
 70
     1
102
RTVSPost2010Prop33
280
     0
102
RTVSPost2010PropOp33
 70
     1
102
RTVSPost2010Prop34
280
     0
102
RTVSPost2010PropOp34
 70
     1
102
RTVSPost2010Prop35
280
     0
102
RTVSPost2010PropOp35
 70
     1
102
RTVSPost2010Prop36
280
     0
102
RTVSPost2010PropOp36
 70
     1
102
RTVSPost2010Prop37
 90
       50
102
RTVSPost2010PropOp37
 70
     1
102
RTVSPost2010Prop38
140
0.0
102
RTVSPost2010PropOp38
 70
     1
102
RTVSPost2010Prop39
140
1.0
102
RTVSPost2010PropOp39
 70
     1
102
RTVSPost2010Prop40
 90
        0
102
RTVSPost2010PropOp40
 70
     1
102
RTVSPost2010Prop41ColorIndex
 90
       18
102
RTVSPost2010Prop41ColorRGB
 90
        0
102
RTVSPost2010PropOp41
 70
     1
102
RTVSPost2010Prop42
 90
       50
102
RTVSPost2010PropOp42
 70
     1
102
RTVSPost2010Prop43
 90
        3
102
RTVSPost2010PropOp43
 70
     1
102
RTVSPost2010Prop44ColorIndex
 90
        5
102
RTVSPost2010Prop44ColorRGB
 90
      255
102
RTVSPost2010PropOp44
 70
     1
102
RTVSPost2010Prop45
280
     0
102
RTVSPost2010PropOp45
 70
     1
102
RTVSPost2010Prop46
 90
       50
102
RTVSPost2010PropOp46
 70
     1
102
RTVSPost2010Prop47
 90
       50
102
RTVSPost2010PropOp47
 70
     1
102
RTVSPost2010Prop48
 90
       50
102
RTVSPost2010PropOp48
 70
     1
102
RTVSPost2010Prop49
280
     0
102
RTVSPost2010PropOp49
 70
     1
102
RTVSPost2010Prop50
 90
       50
102
RTVSPost2010PropOp50
 70
     1
102
RTVSPost2010Prop51ColorIndex
 90
      256
102
RTVSPost2010Prop51ColorRGB
 90
-16777216
102
RTVSPost2010PropOp51
 70
     0
102
RTVSPost2010Prop52
140
1.0
102
RTVSPost2010PropOp52
 70
     0
102
RTVSPost2010Prop53
 90
        2
102
RTVSPost2010PropOp53
 70
     1
102
RTVSPost2010Prop54
  1
strokes_ogs.tif
102
RTVSPost2010PropOp54
 70
     1
102
RTVSPost2010Prop55
280
     0
102
RTVSPost2010PropOp55
 70
     1
102
RTVSPost2010Prop56
140
1.0
102
RTVSPost2010PropOp56
 70
     1
102
RTVSPost2010Prop57
140
1.0
102
RTVSPost2010PropOp57
 70
     1
102
RTVSPropertyOp0
 70
     1
102
RTVSPropertyOp1
 70
     1
102
RTVSPropertyOp2
 70
     1
102
RTVSPropertyOp3
 70
     1
102
RTVSPropertyOp4
 70
     1
102
RTVSPropertyOp5
 70
     1
102
RTVSPropertyOp6
 70
     1
102
RTVSPropertyOp7
 70
     1
102
RTVSPropertyOp8
 70
     1
102
RTVSPropertyOp9
 70
     1
102
RTVSPropertyOp10
 70
     1
102
RTVSPropertyOp11
 70
     1
102
RTVSPropertyOp12
 70
     1
102
RTVSPropertyOp13
 70
     1
102
RTVSPropertyOp14
 70
     1
102
RTVSPropertyOp15
 70
     1
102
RTVSPropertyOp16
 70
     1
102
RTVSPropertyOp17
 70
     1
102
RTVSPropertyOp18
 70
     1
102
RTVSPropertyOp19
 70
     1
102
RTVSPropertyOp20
 70
     1
102
RTVSPropertyOp21
 70
     1
102
RTVSPropertyOp22
 70
     1
102
RTVSPropertyOp23
 70
     1
102
RTVSPropertyOp24
 70
     1
102
RTVSPropertyOp25
 70
     1
102
RTVSPropertyOp26
 70
     1
102
RTVSPropertyOp27
 70
     1
102
RTVSPropertyOp28
 70
     1
102
RTVSPropertyOp29
 70
     1
102
RTVSPropertyOp30
 70
     1
102
RTVSPropertyOp31
 70
     1
102
RTVSPropertyOp32
 70
     1
102
RTVSPropertyOp33
 70
     1
102
RTVSPropertyOp34
 70
     1
102
RTVSPropertyOp35
 70
     1
102
RTVSPropertyOp36
 70
     1
102
RTVSPropertyOp37
 70
     1
102
RTVSPropertyOp38
 70
     1
102
RTVSPropertyOp39
 70
     1
102
RTVSPropertyOp40
 70
     1
102
RTVSPropertyOp41
 70
     1
102
RTVSPropertyOp42
 70
     1
102
RTVSPropertyOp43
 70
     1
102
RTVSPropertyOp44
 70
     1
102
RTVSPropertyOp45
 70
     1
102
RTVSPropertyOp46
 70
     1
102
RTVSPropertyOp47
 70
     1
102
RTVSPropertyOp48
 70
     1
102
RTVSPropertyOp49
 70
     1
102
RTVSPropertyOp50
 70
     1
102
RTVSPropertyOp51
 70
     0
102
RTVSPropertyOp52
 70
     0
102
RTVSPropertyOp53
 70
     1
102
RTVSPropertyOp54
 70
     1
102
RTVSPropertyOp55
 70
     1
102
RTVSPropertyOp56
 70
     1
102
RTVSPropertyOp57
 70
     1
102
RTVSPropertyOp58
 70
     1
102
RTVSPropertyOp59
 70
     1
102
RTVSPropertyOp60
 70
     1
102
RTVSPropertyOp61
 70
     1
102
RTVSPropertyOp62
 70
     1
  0
XRECORD
  5
AEC2
102
{ACAD_REACTORS
330
AEC1
102
}
330
AEC1
100
AcDbXrecord
280
     1
102
RTVSPost2010Prop28
280
     0
102
RTVSPost2010PropOp28
 70
     1
102
RTVSPost2010Prop29
280
     1
102
RTVSPost2010PropOp29
 70
     1
102
RTVSPost2010Prop30
280
     1
102
RTVSPost2010PropOp30
 70
     1
102
RTVSPost2010Prop31
280
     0
102
RTVSPost2010PropOp31
 70
     1
102
RTVSPost2010Prop32
280
     0
102
RTVSPost2010PropOp32
 70
     1
102
RTVSPost2010Prop33
280
     0
102
RTVSPost2010PropOp33
 70
     1
102
RTVSPost2010Prop34
280
     0
102
RTVSPost2010PropOp34
 70
     1
102
RTVSPost2010Prop35
280
     0
102
RTVSPost2010PropOp35
 70
     1
102
RTVSPost2010Prop36
280
     0
102
RTVSPost2010PropOp36
 70
     1
102
RTVSPost2010Prop37
 90
       50
102
RTVSPost2010PropOp37
 70
     1
102
RTVSPost2010Prop38
140
0.0
102
RTVSPost2010PropOp38
 70
     1
102
RTVSPost2010Prop39
140
1.0
102
RTVSPost2010PropOp39
 70
     1
102
RTVSPost2010Prop40
 90
        0
102
RTVSPost2010PropOp40
 70
     1
102
RTVSPost2010Prop41ColorIndex
 90
       18
102
RTVSPost2010Prop41ColorRGB
 90
        0
102
RTVSPost2010PropOp41
 70
     1
102
RTVSPost2010Prop42
 90
       50
102
RTVSPost2010PropOp42
 70
     1
102
RTVSPost2010Prop43
 90
        3
102
RTVSPost2010PropOp43
 70
     1
102
RTVSPost2010Prop44ColorIndex
 90
        5
102
RTVSPost2010Prop44ColorRGB
 90
      255
102
RTVSPost2010PropOp44
 70
     1
102
RTVSPost2010Prop45
280
     0
102
RTVSPost2010PropOp45
 70
     1
102
RTVSPost2010Prop46
 90
       50
102
RTVSPost2010PropOp46
 70
     1
102
RTVSPost2010Prop47
 90
       50
102
RTVSPost2010PropOp47
 70
     1
102
RTVSPost2010Prop48
 90
       50
102
RTVSPost2010PropOp48
 70
     1
102
RTVSPost2010Prop49
280
     0
102
RTVSPost2010PropOp49
 70
     1
102
RTVSPost2010Prop50
 90
       50
102
RTVSPost2010PropOp50
 70
     1
102
RTVSPost2010Prop51ColorIndex
 90
      256
102
RTVSPost2010Prop51ColorRGB
 90
-16777216
102
RTVSPost2010PropOp51
 70
     0
102
RTVSPost2010Prop52
140
1.0
102
RTVSPost2010PropOp52
 70
     0
102
RTVSPost2010Prop53
 90
        2
102
RTVSPost2010PropOp53
 70
     1
102
RTVSPost2010Prop54
  1
strokes_ogs.tif
102
RTVSPost2010PropOp54
 70
     1
102
RTVSPost2010Prop55
280
     0
102
RTVSPost2010PropOp55
 70
     1
102
RTVSPost2010Prop56
140
1.0
102
RTVSPost2010PropOp56
 70
     1
102
RTVSPost2010Prop57
140
1.0
102
RTVSPost2010PropOp57
 70
     1
102
RTVSPropertyOp0
 70
     1
102
RTVSPropertyOp1
 70
     1
102
RTVSPropertyOp2
 70
     1
102
RTVSPropertyOp3
 70
     1
102
RTVSPropertyOp4
 70
     1
102
RTVSPropertyOp5
 70
     1
102
RTVSPropertyOp6
 70
     1
102
RTVSPropertyOp7
 70
     1
102
RTVSPropertyOp8
 70
     1
102
RTVSPropertyOp9
 70
     1
102
RTVSPropertyOp10
 70
     1
102
RTVSPropertyOp11
 70
     1
102
RTVSPropertyOp12
 70
     1
102
RTVSPropertyOp13
 70
     1
102
RTVSPropertyOp14
 70
     1
102
RTVSPropertyOp15
 70
     1
102
RTVSPropertyOp16
 70
     1
102
RTVSPropertyOp17
 70
     1
102
RTVSPropertyOp18
 70
     1
102
RTVSPropertyOp19
 70
     1
102
RTVSPropertyOp20
 70
     1
102
RTVSPropertyOp21
 70
     1
102
RTVSPropertyOp22
 70
     1
102
RTVSPropertyOp23
 70
     1
102
RTVSPropertyOp24
 70
     1
102
RTVSPropertyOp25
 70
     1
102
RTVSPropertyOp26
 70
     1
102
RTVSPropertyOp27
 70
     1
102
RTVSPropertyOp28
 70
     1
102
RTVSPropertyOp29
 70
     1
102
RTVSPropertyOp30
 70
     1
102
RTVSPropertyOp31
 70
     1
102
RTVSPropertyOp32
 70
     1
102
RTVSPropertyOp33
 70
     1
102
RTVSPropertyOp34
 70
     1
102
RTVSPropertyOp35
 70
     1
102
RTVSPropertyOp36
 70
     1
102
RTVSPropertyOp37
 70
     1
102
RTVSPropertyOp38
 70
     1
102
RTVSPropertyOp39
 70
     1
102
RTVSPropertyOp40
 70
     1
102
RTVSPropertyOp41
 70
     1
102
RTVSPropertyOp42
 70
     1
102
RTVSPropertyOp43
 70
     1
102
RTVSPropertyOp44
 70
     1
102
RTVSPropertyOp45
 70
     1
102
RTVSPropertyOp46
 70
     1
102
RTVSPropertyOp47
 70
     1
102
RTVSPropertyOp48
 70
     1
102
RTVSPropertyOp49
 70
     1
102
RTVSPropertyOp50
 70
     1
102
RTVSPropertyOp51
 70
     0
102
RTVSPropertyOp52
 70
     0
102
RTVSPropertyOp53
 70
     1
102
RTVSPropertyOp54
 70
     1
102
RTVSPropertyOp55
 70
     1
102
RTVSPropertyOp56
 70
     1
102
RTVSPropertyOp57
 70
     1
102
RTVSPropertyOp58
 70
     1
102
RTVSPropertyOp59
 70
     1
102
RTVSPropertyOp60
 70
     1
102
RTVSPropertyOp61
 70
     1
102
RTVSPropertyOp62
 70
     1
  0
XRECORD
  5
AEDA
102
{ACAD_REACTORS
330
AED9
102
}
330
AED9
100
AcDbXrecord
280
     1
102
RTVSPost2010Prop28
280
     0
102
RTVSPost2010PropOp28
 70
     1
102
RTVSPost2010Prop29
280
     1
102
RTVSPost2010PropOp29
 70
     1
102
RTVSPost2010Prop30
280
     1
102
RTVSPost2010PropOp30
 70
     1
102
RTVSPost2010Prop31
280
     0
102
RTVSPost2010PropOp31
 70
     1
102
RTVSPost2010Prop32
280
     0
102
RTVSPost2010PropOp32
 70
     1
102
RTVSPost2010Prop33
280
     0
102
RTVSPost2010PropOp33
 70
     1
102
RTVSPost2010Prop34
280
     0
102
RTVSPost2010PropOp34
 70
     1
102
RTVSPost2010Prop35
280
     0
102
RTVSPost2010PropOp35
 70
     1
102
RTVSPost2010Prop36
280
     0
102
RTVSPost2010PropOp36
 70
     1
102
RTVSPost2010Prop37
 90
       50
102
RTVSPost2010PropOp37
 70
     1
102
RTVSPost2010Prop38
140
0.0
102
RTVSPost2010PropOp38
 70
     1
102
RTVSPost2010Prop39
140
1.0
102
RTVSPost2010PropOp39
 70
     1
102
RTVSPost2010Prop40
 90
        0
102
RTVSPost2010PropOp40
 70
     1
102
RTVSPost2010Prop41ColorIndex
 90
       18
102
RTVSPost2010Prop41ColorRGB
 90
        0
102
RTVSPost2010PropOp41
 70
     1
102
RTVSPost2010Prop42
 90
       50
102
RTVSPost2010PropOp42
 70
     1
102
RTVSPost2010Prop43
 90
        3
102
RTVSPost2010PropOp43
 70
     1
102
RTVSPost2010Prop44ColorIndex
 90
        5
102
RTVSPost2010Prop44ColorRGB
 90
      255
102
RTVSPost2010PropOp44
 70
     1
102
RTVSPost2010Prop45
280
     0
102
RTVSPost2010PropOp45
 70
     1
102
RTVSPost2010Prop46
 90
       50
102
RTVSPost2010PropOp46
 70
     1
102
RTVSPost2010Prop47
 90
       50
102
RTVSPost2010PropOp47
 70
     1
102
RTVSPost2010Prop48
 90
       50
102
RTVSPost2010PropOp48
 70
     1
102
RTVSPost2010Prop49
280
     0
102
RTVSPost2010PropOp49
 70
     1
102
RTVSPost2010Prop50
 90
       50
102
RTVSPost2010PropOp50
 70
     1
102
RTVSPost2010Prop51ColorIndex
 90
      256
102
RTVSPost2010Prop51ColorRGB
 90
-16777216
102
RTVSPost2010PropOp51
 70
     0
102
RTVSPost2010Prop52
140
1.0
102
RTVSPost2010PropOp52
 70
     0
102
RTVSPost2010Prop53
 90
        2
102
RTVSPost2010PropOp53
 70
     1
102
RTVSPost2010Prop54
  1
strokes_ogs.tif
102
RTVSPost2010PropOp54
 70
     1
102
RTVSPost2010Prop55
280
     0
102
RTVSPost2010PropOp55
 70
     1
102
RTVSPost2010Prop56
140
1.0
102
RTVSPost2010PropOp56
 70
     1
102
RTVSPost2010Prop57
140
1.0
102
RTVSPost2010PropOp57
 70
     1
102
RTVSPropertyOp0
 70
     1
102
RTVSPropertyOp1
 70
     1
102
RTVSPropertyOp2
 70
     1
102
RTVSPropertyOp3
 70
     1
102
RTVSPropertyOp4
 70
     1
102
RTVSPropertyOp5
 70
     1
102
RTVSPropertyOp6
 70
     1
102
RTVSPropertyOp7
 70
     1
102
RTVSPropertyOp8
 70
     1
102
RTVSPropertyOp9
 70
     1
102
RTVSPropertyOp10
 70
     1
102
RTVSPropertyOp11
 70
     1
102
RTVSPropertyOp12
 70
     1
102
RTVSPropertyOp13
 70
     1
102
RTVSPropertyOp14
 70
     1
102
RTVSPropertyOp15
 70
     1
102
RTVSPropertyOp16
 70
     1
102
RTVSPropertyOp17
 70
     1
102
RTVSPropertyOp18
 70
     1
102
RTVSPropertyOp19
 70
     1
102
RTVSPropertyOp20
 70
     1
102
RTVSPropertyOp21
 70
     1
102
RTVSPropertyOp22
 70
     1
102
RTVSPropertyOp23
 70
     1
102
RTVSPropertyOp24
 70
     1
102
RTVSPropertyOp25
 70
     1
102
RTVSPropertyOp26
 70
     1
102
RTVSPropertyOp27
 70
     1
102
RTVSPropertyOp28
 70
     1
102
RTVSPropertyOp29
 70
     1
102
RTVSPropertyOp30
 70
     1
102
RTVSPropertyOp31
 70
     1
102
RTVSPropertyOp32
 70
     1
102
RTVSPropertyOp33
 70
     1
102
RTVSPropertyOp34
 70
     1
102
RTVSPropertyOp35
 70
     1
102
RTVSPropertyOp36
 70
     1
102
RTVSPropertyOp37
 70
     1
102
RTVSPropertyOp38
 70
     1
102
RTVSPropertyOp39
 70
     1
102
RTVSPropertyOp40
 70
     1
102
RTVSPropertyOp41
 70
     1
102
RTVSPropertyOp42
 70
     1
102
RTVSPropertyOp43
 70
     1
102
RTVSPropertyOp44
 70
     1
102
RTVSPropertyOp45
 70
     1
102
RTVSPropertyOp46
 70
     1
102
RTVSPropertyOp47
 70
     1
102
RTVSPropertyOp48
 70
     1
102
RTVSPropertyOp49
 70
     1
102
RTVSPropertyOp50
 70
     1
102
RTVSPropertyOp51
 70
     0
102
RTVSPropertyOp52
 70
     0
102
RTVSPropertyOp53
 70
     1
102
RTVSPropertyOp54
 70
     1
102
RTVSPropertyOp55
 70
     1
102
RTVSPropertyOp56
 70
     1
102
RTVSPropertyOp57
 70
     1
102
RTVSPropertyOp58
 70
     1
102
RTVSPropertyOp59
 70
     1
102
RTVSPropertyOp60
 70
     1
102
RTVSPropertyOp61
 70
     1
102
RTVSPropertyOp62
 70
     1
  0
ENDSEC
  0
EOF
