  0
SECTION
  2
HEADER
  9
$ACADVER
  1
AC1015
  9
$ACADMAINTVER
 70
    20
  9
$DWGCODEPAGE
  3
ANSI_932
  9
$INSBASE
 10
0.0
 20
0.0
 30
0.0
  9
$EXTMIN
 10
10.0
 20
9.999999999999998
 30
0.0
  9
$EXTMAX
 10
539.4316719999998
 20
447.3034489999998
 30
0.0
  9
$LIMMIN
 10
0.0
 20
0.0
  9
$LIMMAX
 10
663.7395339999999
 20
457.578012
  9
$ORTHOMODE
 70
     0
  9
$REGENMODE
 70
     1
  9
$FILLMODE
 70
     1
  9
$QTEXTMODE
 70
     0
  9
$MIRRTEXT
 70
     1
  9
$LTSCALE
 40
20.0
  9
$ATTMODE
 70
     1
  9
$TEXTSIZE
 40
5.0
  9
$TRACEWID
 40
1.0
  9
$TEXTSTYLE
  7
STANDARD
  9
$CLAYER
  8
0
  9
$CELTYPE
  6
BYLAYER
  9
$CECOLOR
 62
   256
  9
$CELTSCALE
 40
1.0
  9
$DISPSILH
 70
     0
  9
$DIMSCALE
 40
1.0
  9
$DIMASZ
 40
3.0
  9
$DIMEXO
 40
1.0
  9
$DIMDLI
 40
10.0
  9
$DIMRND
 40
0.0
  9
$DIMDLE
 40
0.0
  9
$DIMEXE
 40
1.0
  9
$DIMTP
 40
0.0
  9
$DIMTM
 40
0.0
  9
$DIMTXT
 40
3.2
  9
$DIMCEN
 40
0.0
  9
$DIMTSZ
 40
0.0
  9
$DIMTOL
 70
     0
  9
$DIMLIM
 70
     0
  9
$DIMTIH
 70
     0
  9
$DIMTOH
 70
     0
  9
$DIMSE1
 70
     0
  9
$DIMSE2
 70
     0
  9
$DIMTAD
 70
     3
  9
$DIMZIN
 70
     8
  9
$DIMBLK
  1

  9
$DIMASO
 70
     1
  9
$DIMSHO
 70
     1
  9
$DIMPOST
  1

  9
$DIMAPOST
  1

  9
$DIMALT
 70
     0
  9
$DIMALTD
 70
     2
  9
$DIMALTF
 40
25.4
  9
$DIMLFAC
 40
1.0
  9
$DIMTOFL
 70
     1
  9
$DIMTVP
 40
0.0
  9
$DIMTIX
 70
     0
  9
$DIMSOXD
 70
     0
  9
$DIMSAH
 70
     1
  9
$DIMBLK1
  1
OPEN
  9
$DIMBLK2
  1
OPEN
  9
$DIMSTYLE
  2
STANDARD
  9
$DIMCLRD
 70
     0
  9
$DIMCLRE
 70
     0
  9
$DIMCLRT
 70
     0
  9
$DIMTFAC
 40
1.0
  9
$DIMGAP
 40
1.0
  9
$DIMJUST
 70
     0
  9
$DIMSD1
 70
     0
  9
$DIMSD2
 70
     0
  9
$DIMTOLJ
 70
     1
  9
$DIMTZIN
 70
     0
  9
$DIMALTZ
 70
     0
  9
$DIMALTTZ
 70
     0
  9
$DIMUPT
 70
     0
  9
$DIMDEC
 70
     4
  9
$DIMTDEC
 70
     4
  9
$DIMALTU
 70
     2
  9
$DIMALTTD
 70
     2
  9
$DIMTXSTY
  7
STANDARD
  9
$DIMAUNIT
 70
     0
  9
$DIMADEC
 70
     0
  9
$DIMALTRND
 40
0.0
  9
$DIMAZIN
 70
     0
  9
$DIMDSEP
 70
    46
  9
$DIMATFIT
 70
     3
  9
$DIMFRAC
 70
     0
  9
$DIMLDRBLK
  1
OPEN
  9
$DIMLUNIT
 70
     2
  9
$DIMLWD
 70
    -2
  9
$DIMLWE
 70
    -2
  9
$DIMTMOVE
 70
     0
  9
$LUNITS
 70
     2
  9
$LUPREC
 70
     4
  9
$SKETCHINC
 40
1.0
  9
$FILLETRAD
 40
9.0
  9
$AUNITS
 70
     0
  9
$AUPREC
 70
     2
  9
$MENU
  1
.
  9
$ELEVATION
 40
0.0
  9
$PELEVATION
 40
0.0
  9
$THICKNESS
 40
0.0
  9
$LIMCHECK
 70
     0
  9
$CHAMFERA
 40
10.0
  9
$CHAMFERB
 40
10.0
  9
$CHAMFERC
 40
0.0
  9
$CHAMFERD
 40
0.0
  9
$SKPOLY
 70
     0
  9
$TDCREATE
 40
2451301.576695370
  9
$TDUCREATE
 40
2451301.201695371
  9
$TDUPDATE
 40
2457192.687783484
  9
$TDUUPDATE
 40
2457192.312783484
  9
$TDINDWG
 40
0.0000204051
  9
$TDUSRTIMER
 40
0.0000200926
  9
$USRTIMER
 70
     1
  9
$ANGBASE
 50
0.0
  9
$ANGDIR
 70
     0
  9
$PDMODE
 70
     0
  9
$PDSIZE
 40
0.0
  9
$PLINEWID
 40
0.0
  9
$SPLFRAME
 70
     0
  9
$SPLINETYPE
 70
     6
  9
$SPLINESEGS
 70
     8
  9
$HANDSEED
  5
CD88
  9
$SURFTAB1
 70
     6
  9
$SURFTAB2
 70
     6
  9
$SURFTYPE
 70
     6
  9
$SURFU
 70
     6
  9
$SURFV
 70
     6
  9
$UCSBASE
  2

  9
$UCSNAME
  2

  9
$UCSORG
 10
0.0
 20
0.0
 30
0.0
  9
$UCSXDIR
 10
1.0
 20
0.0
 30
0.0
  9
$UCSYDIR
 10
0.0
 20
1.0
 30
0.0
  9
$UCSORTHOREF
  2

  9
$UCSORTHOVIEW
 70
     0
  9
$UCSORGTOP
 10
0.0
 20
0.0
 30
0.0
  9
$UCSORGBOTTOM
 10
0.0
 20
0.0
 30
0.0
  9
$UCSORGLEFT
 10
0.0
 20
0.0
 30
0.0
  9
$UCSORGRIGHT
 10
0.0
 20
0.0
 30
0.0
  9
$UCSORGFRONT
 10
0.0
 20
0.0
 30
0.0
  9
$UCSORGBACK
 10
0.0
 20
0.0
 30
0.0
  9
$PUCSBASE
  2

  9
$PUCSNAME
  2

  9
$PUCSORG
 10
0.0
 20
0.0
 30
0.0
  9
$PUCSXDIR
 10
1.0
 20
0.0
 30
0.0
  9
$PUCSYDIR
 10
0.0
 20
1.0
 30
0.0
  9
$PUCSORTHOREF
  2

  9
$PUCSORTHOVIEW
 70
     0
  9
$PUCSORGTOP
 10
0.0
 20
0.0
 30
0.0
  9
$PUCSORGBOTTOM
 10
0.0
 20
0.0
 30
0.0
  9
$PUCSORGLEFT
 10
0.0
 20
0.0
 30
0.0
  9
$PUCSORGRIGHT
 10
0.0
 20
0.0
 30
0.0
  9
$PUCSORGFRONT
 10
0.0
 20
0.0
 30
0.0
  9
$PUCSORGBACK
 10
0.0
 20
0.0
 30
0.0
  9
$USERI1
 70
     0
  9
$USERI2
 70
     0
  9
$USERI3
 70
     0
  9
$USERI4
 70
     0
  9
$USERI5
 70
     0
  9
$USERR1
 40
0.0
  9
$USERR2
 40
0.0
  9
$USERR3
 40
0.0
  9
$USERR4
 40
0.0
  9
$USERR5
 40
0.0
  9
$WORLDVIEW
 70
     1
  9
$SHADEDGE
 70
     3
  9
$SHADEDIF
 70
    70
  9
$TILEMODE
 70
     1
  9
$MAXACTVP
 70
    16
  9
$PINSBASE
 10
0.0
 20
0.0
 30
0.0
  9
$PLIMCHECK
 70
     0
  9
$PEXTMIN
 10
1.000000000000000E+20
 20
1.000000000000000E+20
 30
1.000000000000000E+20
  9
$PEXTMAX
 10
-1.000000000000000E+20
 20
-1.000000000000000E+20
 30
-1.000000000000000E+20
  9
$PLIMMIN
 10
0.0
 20
0.0
  9
$PLIMMAX
 10
420.0
 20
297.0
  9
$UNITMODE
 70
     0
  9
$VISRETAIN
 70
     0
  9
$PLINEGEN
 70
     0
  9
$PSLTSCALE
 70
     0
  9
$TREEDEPTH
 70
  3020
  9
$CMLSTYLE
  2
STANDARD
  9
$CMLJUST
 70
     0
  9
$CMLSCALE
 40
1.0
  9
$PROXYGRAPHICS
 70
     1
  9
$MEASUREMENT
 70
     0
  9
$CELWEIGHT
370
    -1
  9
$ENDCAPS
280
     0
  9
$JOINSTYLE
280
     0
  9
$LWDISPLAY
290
     0
  9
$INSUNITS
 70
     0
  9
$HYPERLINKBASE
  1

  9
$STYLESHEET
  1

  9
$XEDIT
290
     1
  9
$CEPSNTYPE
380
     0
  9
$PSTYLEMODE
290
     1
  9
$FINGERPRINTGUID
  2
{540B9B54-C510-4409-B5FB-3CE7E312CC53}
  9
$VERSIONGUID
  2
{8D5175D7-94D6-49BC-BEB1-C15D924B7AA3}
  9
$EXTNAMES
290
     1
  9
$PSVPSCALE
 40
0.0
  9
$OLESTARTUP
290
     0
  0
ENDSEC
  0
SECTION
  2
CLASSES
  0
CLASS
  1
ACDBDICTIONARYWDFLT
  2
AcDbDictionaryWithDefault
  3
ObjectDBX Classes
 90
        0
280
     0
281
     0
  0
CLASS
  1
ACDBPLACEHOLDER
  2
AcDbPlaceHolder
  3
ObjectDBX Classes
 90
        0
280
     0
281
     0
  0
CLASS
  1
LAYOUT
  2
AcDbLayout
  3
ObjectDBX Classes
 90
        0
280
     0
281
     0
  0
CLASS
  1
DICTIONARYVAR
  2
AcDbDictionaryVar
  3
ObjectDBX Classes
 90
        0
280
     0
281
     0
  0
CLASS
  1
MATERIAL
  2
AcDbMaterial
  3
ObjectDBX Classes
 90
     1153
280
     0
281
     0
  0
CLASS
  1
VISUALSTYLE
  2
AcDbVisualStyle
  3
ObjectDBX Classes
 90
     4095
280
     0
281
     0
  0
CLASS
  1
TABLESTYLE
  2
AcDbTableStyle
  3
ObjectDBX Classes
 90
     4095
280
     0
281
     0
  0
CLASS
  1
SCALE
  2
AcDbScale
  3
ObjectDBX Classes
 90
     1153
280
     0
281
     0
  0
CLASS
  1
MLEADERSTYLE
  2
AcDbMLeaderStyle
  3
ACDB_MLEADERSTYLE_CLASS
 90
     4095
280
     0
281
     0
  0
CLASS
  1
ACDBSECTIONVIEWSTYLE
  2
AcDbSectionViewStyle
  3
ObjectDBX Classes
 90
     1025
280
     0
281
     0
  0
CLASS
  1
ACDBDETAILVIEWSTYLE
  2
AcDbDetailViewStyle
  3
ObjectDBX Classes
 90
     1025
280
     0
281
     0
  0
CLASS
  1
CELLSTYLEMAP
  2
AcDbCellStyleMap
  3
ObjectDBX Classes
 90
     1152
280
     0
281
     0
  0
ENDSEC
  0
SECTION
  2
TABLES
  0
TABLE
  2
VPORT
  5
C822
330
0
100
AcDbSymbolTable
 70
     1
  0
VPORT
  5
CCD1
330
C822
100
AcDbSymbolTableRecord
100
AcDbViewportTableRecord
  2
*ACTIVE
 70
     0
 10
0.0
 20
0.0
 11
1.0
 21
1.0
 12
407.1658031404324
 22
228.6493653379245
 13
0.0
 23
0.0
 14
10.0
 24
10.0
 15
10.0
 25
10.0
 16
0.0
 26
0.0
 36
1.0
 17
0.0
 27
0.0
 37
0.0
 40
442.1905737300583
 41
2.35006605019815
 42
50.0
 43
0.0
 44
0.0
 50
0.0
 51
0.0
 71
     0
 72
   100
 73
     1
 74
     0
 75
     0
 76
     0
 77
     0
 78
     0
281
     0
 65
     1
110
0.0
120
0.0
130
0.0
111
1.0
121
0.0
131
0.0
112
0.0
122
1.0
132
0.0
 79
     0
146
0.0
1001
ACAD_NAV_VCDISPLAY
1070
     3
  0
ENDTAB
  0
TABLE
  2
LTYPE
  5
C81F
330
0
100
AcDbSymbolTable
 70
     4
  0
LTYPE
  5
C82D
330
C81F
100
AcDbSymbolTableRecord
100
AcDbLinetypeTableRecord
  2
BYBLOCK
 70
     0
  3

 72
    65
 73
     0
 40
0.0
  0
LTYPE
  5
C82E
330
C81F
100
AcDbSymbolTableRecord
100
AcDbLinetypeTableRecord
  2
BYLAYER
 70
     0
  3

 72
    65
 73
     0
 40
0.0
  0
LTYPE
  5
C82F
330
C81F
100
AcDbSymbolTableRecord
100
AcDbLinetypeTableRecord
  2
CONTINUOUS
 70
     0
  3
Solid line
 72
    65
 73
     0
 40
0.0
  0
LTYPE
  5
C83D
330
C81F
100
AcDbSymbolTableRecord
100
AcDbLinetypeTableRecord
  2
DASHED
 70
     0
  3
__ __ __ __ __ __ __ __ __ __ __ __ __ __ __ __
 72
    65
 73
     2
 40
0.75
 49
0.5
 74
     0
 49
-0.25
 74
     0
  0
LTYPE
  5
C83E
330
C81F
100
AcDbSymbolTableRecord
100
AcDbLinetypeTableRecord
  2
CENTER
 70
     0
  3
____ _ ____ _ ____ _ ____ _ ____ _ ____ _ ____ 
 72
    65
 73
     4
 40
2.0
 49
1.25
 74
     0
 49
-0.25
 74
     0
 49
0.25
 74
     0
 49
-0.25
 74
     0
  0
LTYPE
  5
C83F
330
C81F
100
AcDbSymbolTableRecord
100
AcDbLinetypeTableRecord
  2
PHANTOM
 70
     0
  3
______  __  __  ______  __  __  ______  __  __ 
 72
    65
 73
     6
 40
2.5
 49
1.25
 74
     0
 49
-0.25
 74
     0
 49
0.25
 74
     0
 49
-0.25
 74
     0
 49
0.25
 74
     0
 49
-0.25
 74
     0
  0
ENDTAB
  0
TABLE
  2
LAYER
  5
C81C
330
0
100
AcDbSymbolTable
 70
     8
  0
LAYER
  5
C82A
102
{ACAD_XDICTIONARY
360
CD2C
102
}
330
C81C
100
AcDbSymbolTableRecord
100
AcDbLayerTableRecord
  2
0
 70
     0
 62
     7
  6
CONTINUOUS
370
    -3
390
CCDA
  0
LAYER
  5
C840
102
{ACAD_XDICTIONARY
360
CD2E
102
}
330
C81C
100
AcDbSymbolTableRecord
100
AcDbLayerTableRecord
  2
4
 70
     0
 62
     1
  6
CENTER
370
    -3
390
CCDA
  0
LAYER
  5
C841
102
{ACAD_XDICTIONARY
360
CD30
102
}
330
C81C
100
AcDbSymbolTableRecord
100
AcDbLayerTableRecord
  2
5
 70
     0
 62
     6
  6
PHANTOM
370
    -3
390
CCDA
  0
LAYER
  5
C842
102
{ACAD_XDICTIONARY
360
CD32
102
}
330
C81C
100
AcDbSymbolTableRecord
100
AcDbLayerTableRecord
  2
1
 70
     0
 62
     7
  6
CONTINUOUS
370
    -3
390
CCDA
  0
LAYER
  5
C843
102
{ACAD_XDICTIONARY
360
CD34
102
}
330
C81C
100
AcDbSymbolTableRecord
100
AcDbLayerTableRecord
  2
2
 70
     0
 62
     4
  6
CONTINUOUS
370
    -3
390
CCDA
  0
LAYER
  5
C844
102
{ACAD_XDICTIONARY
360
CD36
102
}
330
C81C
100
AcDbSymbolTableRecord
100
AcDbLayerTableRecord
  2
3
 70
     0
 62
     2
  6
DASHED
370
    -3
390
CCDA
  0
LAYER
  5
C845
102
{ACAD_XDICTIONARY
360
CD38
102
}
330
C81C
100
AcDbSymbolTableRecord
100
AcDbLayerTableRecord
  2
6
 70
     0
 62
     5
  6
CONTINUOUS
370
    -3
390
CCDA
  0
LAYER
  5
C846
102
{ACAD_XDICTIONARY
360
CD3A
102
}
330
C81C
100
AcDbSymbolTableRecord
100
AcDbLayerTableRecord
  2
7
 70
     0
 62
     3
  6
CONTINUOUS
370
    -3
390
CCDA
  0
ENDTAB
  0
TABLE
  2
STYLE
  5
C81D
330
0
100
AcDbSymbolTable
 70
     1
  0
STYLE
  5
C82B
330
C81D
100
AcDbSymbolTableRecord
100
AcDbTextStyleTableRecord
  2
STANDARD
 70
     0
 40
0.0
 41
1.0
 50
0.0
 71
     0
 42
5.0
  3
txt
  4

  0
ENDTAB
  0
TABLE
  2
VIEW
  5
C820
330
0
100
AcDbSymbolTable
 70
     0
  0
ENDTAB
  0
TABLE
  2
UCS
  5
C821
330
0
100
AcDbSymbolTable
 70
     0
  0
ENDTAB
  0
TABLE
  2
APPID
  5
C823
330
0
100
AcDbSymbolTable
 70
     3
  0
APPID
  5
C82C
330
C823
100
AcDbSymbolTableRecord
100
AcDbRegAppTableRecord
  2
ACAD
 70
     0
  0
APPID
  5
CD46
330
C823
100
AcDbSymbolTableRecord
100
AcDbRegAppTableRecord
  2
ACAD_NAV_VCDISPLAY
 70
     0
  0
APPID
  5
CD7F
330
C823
100
AcDbSymbolTableRecord
100
AcDbRegAppTableRecord
  2
ACAD_MLEADERVER
 70
     0
  0
ENDTAB
  0
TABLE
  2
DIMSTYLE
  5
C824
330
0
100
AcDbSymbolTable
 70
     1
100
AcDbDimStyleTable
 71
     0
  0
DIMSTYLE
105
C848
330
C824
100
AcDbSymbolTableRecord
100
AcDbDimStyleTableRecord
  2
STANDARD
 70
     0
 41
3.0
 42
1.0
 43
10.0
 44
1.0
 73
     0
 74
     0
 77
     3
 78
     8
140
3.2
141
0.0
147
1.0
172
     1
173
     1
284
     8
285
     8
286
     8
340
C82B
  0
ENDTAB
  0
TABLE
  2
BLOCK_RECORD
  5
C81B
330
0
100
AcDbSymbolTable
 70
     1
  0
BLOCK_RECORD
  5
C838
102
{ACAD_XDICTIONARY
360
CCD4
102
}
330
C81B
100
AcDbSymbolTableRecord
100
AcDbBlockTableRecord
  2
*MODEL_SPACE
340
CD28
  0
BLOCK_RECORD
  5
C834
102
{ACAD_XDICTIONARY
360
CCD2
102
}
330
C81B
100
AcDbSymbolTableRecord
100
AcDbBlockTableRecord
  2
*PAPER_SPACE
340
CD29
  0
BLOCK_RECORD
  5
C850
330
C81B
100
AcDbSymbolTableRecord
100
AcDbBlockTableRecord
  2
_OPEN
340
0
  0
ENDTAB
  0
ENDSEC
  0
SECTION
  2
BLOCKS
  0
BLOCK
  5
C839
330
C838
100
AcDbEntity
  8
0
100
AcDbBlockBegin
  2
*MODEL_SPACE
 70
     0
 10
0.0
 20
0.0
 30
0.0
  3
*MODEL_SPACE
  1

  0
ENDBLK
  5
C83A
330
C838
100
AcDbEntity
  8
0
100
AcDbBlockEnd
  0
BLOCK
  5
C835
330
C834
100
AcDbEntity
 67
     1
  8
0
100
AcDbBlockBegin
  2
*PAPER_SPACE
 70
     0
 10
0.0
 20
0.0
 30
0.0
  3
*PAPER_SPACE
  1

  0
ENDBLK
  5
C836
330
C834
100
AcDbEntity
 67
     1
  8
0
100
AcDbBlockEnd
  0
BLOCK
  5
C851
330
C850
100
AcDbEntity
  8
0
100
AcDbBlockBegin
  2
_OPEN
 70
     0
 10
0.0
 20
0.0
 30
0.0
  3
_OPEN
  1

  0
LINE
  5
C852
330
C850
100
AcDbEntity
  8
0
  6
ByBlock
 62
     0
100
AcDbLine
 10
-1.0
 20
0.166667
 30
0.0
 11
0.0
 21
0.0
 31
0.0
  0
LINE
  5
C853
330
C850
100
AcDbEntity
  8
0
  6
ByBlock
 62
     0
100
AcDbLine
 10
0.0
 20
0.0
 30
0.0
 11
-1.0
 21
-0.166667
 31
0.0
  0
LINE
  5
C854
330
C850
100
AcDbEntity
  8
0
  6
ByBlock
 62
     0
100
AcDbLine
 10
0.0
 20
0.0
 30
0.0
 11
-1.0
 21
0.0
 31
0.0
  0
ENDBLK
  5
C855
330
C850
100
AcDbEntity
  8
0
100
AcDbBlockEnd
  0
ENDSEC
  0
SECTION
  2
ENTITIES
  0
TEXT
  5
C856
330
C838
100
AcDbEntity
  8
7
  6
Continuous
100
AcDbText
 10
10.0
 20
18.0
 30
0.0
 40
3.0
  1
TYPE No.207S d=19
100
AcDbText
  0
TEXT
  5
C857
330
C838
100
AcDbEntity
  8
7
  6
Continuous
100
AcDbText
 10
10.0
 20
26.0
 30
0.0
 40
3.0
  1
CODE No.9181
100
AcDbText
  0
TEXT
  5
C858
330
C838
100
AcDbEntity
  8
1
  6
Continuous
100
AcDbText
 10
10.0
 20
10.0
 30
0.0
 40
1.399999999999999
  1
LAYER
100
AcDbText
  0
TEXT
  5
C859
330
C838
100
AcDbEntity
  8
1
  6
Continuous
100
AcDbText
 10
17.97951099999998
 20
10.04873699999998
 30
0.0
 40
1.399999999999999
  1
1
100
AcDbText
  0
TEXT
  5
C85A
330
C838
100
AcDbEntity
  8
7
  6
Continuous
100
AcDbText
 10
29.97951099999999
 20
10.04873699999998
 30
0.0
 40
1.399999999999999
  1
7
100
AcDbText
  0
TEXT
  5
C85B
330
C838
100
AcDbEntity
  8
4
  6
CENTER
100
AcDbText
 10
23.97951099999999
 20
10.04873699999998
 30
0.0
 40
1.399999999999999
  1
4
100
AcDbText
  0
TEXT
  5
C85C
330
C838
100
AcDbEntity
  8
3
  6
DASHED
100
AcDbText
 10
21.979511
 20
10.04873699999998
 30
0.0
 40
1.399999999999999
  1
3
100
AcDbText
  0
TEXT
  5
C85D
330
C838
100
AcDbEntity
  8
2
  6
Continuous
100
AcDbText
 10
19.97951099999999
 20
10.04873699999998
 30
0.0
 40
1.399999999999999
  1
2
100
AcDbText
  0
TEXT
  5
C85E
330
C838
100
AcDbEntity
  8
6
  6
Continuous
100
AcDbText
 10
27.979511
 20
10.04873699999998
 30
0.0
 40
1.399999999999999
  1
6
100
AcDbText
  0
TEXT
  5
C85F
330
C838
100
AcDbEntity
  8
5
  6
PHANTOM
100
AcDbText
 10
25.97951099999999
 20
10.04873699999998
 30
0.0
 40
1.399999999999999
  1
5
100
AcDbText
  0
LINE
  5
C860
330
C838
100
AcDbEntity
  8
1
  6
Continuous
100
AcDbLine
 10
250.507768
 20
259.144544
 30
0.0
 11
244.853411
 21
258.6456549999999
 31
0.0
  0
ARC
  5
C861
330
C838
100
AcDbEntity
  8
1
  6
Continuous
100
AcDbCircle
 10
245.117864
 20
264.464311
 30
0.0
 40
7.172999999999999
100
AcDbArc
 50
16.056676
 51
21.632539
  0
LINE
  5
C862
330
C838
100
AcDbEntity
  8
1
  6
Continuous
100
AcDbLine
 10
309.82296
 20
269.127968
 30
0.0
 11
363.1951599999999
 21
269.127968
 31
0.0
  0
LINE
  5
C863
330
C838
100
AcDbEntity
  8
1
  6
Continuous
100
AcDbLine
 10
248.8110349999999
 20
269.1289680000001
 30
0.0
 11
200.3610349999999
 21
269.1289680000001
 31
0.0
  0
ARC
  5
C864
330
C838
100
AcDbEntity
  8
1
  6
Continuous
100
AcDbCircle
 10
248.8110349999999
 20
265.928968
 30
0.0
 40
3.2
100
AcDbArc
 50
21.59414599999999
 51
90.0
  0
LINE
  5
C865
330
C838
100
AcDbEntity
  8
1
  6
Continuous
100
AcDbLine
 10
251.272135
 20
269.1289569999999
 30
0.0
 11
197.899935
 21
269.1289569999999
 31
0.0
  0
LINE
  5
C866
330
C838
100
AcDbEntity
  8
1
  6
Continuous
100
AcDbLine
 10
309.08406
 20
265.927968
 30
0.0
 11
309.08406
 21
228.525321
 31
0.0
  0
LINE
  5
C867
330
C838
100
AcDbEntity
  8
1
  6
Continuous
100
AcDbLine
 10
363.93406
 20
265.927968
 30
0.0
 11
363.93406
 21
226.04733
 31
0.0
  0
ARC
  5
C868
330
C838
100
AcDbEntity
  8
1
  6
Continuous
100
AcDbCircle
 10
312.2840599999999
 20
265.927968
 30
0.0
 40
3.2
100
AcDbArc
 50
90.0
 51
180.0
  0
ARC
  5
C869
330
C838
100
AcDbEntity
  8
1
  6
Continuous
100
AcDbCircle
 10
360.73406
 20
265.927968
 30
0.0
 40
3.2
100
AcDbArc
 50
0.0
 51
90.0
  0
LINE
  5
C86A
330
C838
100
AcDbEntity
  8
1
  6
Continuous
100
AcDbLine
 10
352.3262599999998
 20
194.9438629999999
 30
0.0
 11
354.9262689999998
 21
194.9438629999999
 31
0.0
  0
LINE
  5
C86B
330
C838
100
AcDbEntity
  8
1
  6
Continuous
100
AcDbLine
 10
327.962153
 20
259.24496
 30
0.0
 11
345.055966
 21
259.24496
 31
0.0
  0
ARC
  5
C86C
330
C838
100
AcDbEntity
  8
1
  6
Continuous
100
AcDbCircle
 10
349.6692009999999
 20
226.04733
 30
0.0
 40
40.585141
100
AcDbArc
 50
127.58973
 51
178.2037629999999
  0
ARC
  5
C86D
330
C838
100
AcDbEntity
  8
1
  6
Continuous
100
AcDbCircle
 10
327.962153
 20
254.2449599999999
 30
0.0
 40
5.0
100
AcDbArc
 50
90.0
 51
127.58973
  0
ARC
  5
C86E
330
C838
100
AcDbEntity
  8
1
  6
Continuous
100
AcDbCircle
 10
350.9088929999998
 20
227.915635
 30
0.0
 40
39.224834
100
AcDbArc
 50
127.1210199999998
 51
179.538277
  0
ARC
  5
C86F
330
C838
100
AcDbEntity
  8
1
  6
Continuous
100
AcDbCircle
 10
323.3489189999999
 20
226.04733
 30
0.0
 40
40.585141
100
AcDbArc
 50
4.655269999999998
 51
52.41027
  0
ARC
  5
C870
330
C838
100
AcDbEntity
  8
1
  6
Continuous
100
AcDbCircle
 10
345.055966
 20
254.2449599999999
 30
0.0
 40
5.0
100
AcDbArc
 50
52.41027
 51
90.0
  0
ARC
  5
C871
330
C838
100
AcDbEntity
  8
1
  6
Continuous
100
AcDbCircle
 10
322.1092259999999
 20
227.915635
 30
0.0
 40
39.224834
100
AcDbArc
 50
0.4616360000000002
 51
52.87898000000001
  0
ARC
  5
C872
330
C838
100
AcDbEntity
  8
1
  6
Continuous
100
AcDbCircle
 10
191.5864479999999
 20
206.4441629999998
 30
0.0
 40
50.0
100
AcDbArc
 50
85.14298000000001
 51
154.501583
  0
ARC
  5
C873
330
C838
100
AcDbEntity
  8
1
  6
Continuous
100
AcDbCircle
 10
191.5864479999999
 20
206.4441629999998
 30
0.0
 40
41.0
100
AcDbArc
 50
84.369753
 51
152.057098
  0
ARC
  5
C874
330
C838
100
AcDbEntity
  8
1
  6
Continuous
100
AcDbCircle
 10
336.509069
 20
186.443867
 30
0.0
 40
30.0
100
AcDbArc
 50
256.1134599999999
 51
283.8865399999999
  0
LINE
  5
C875
330
C838
100
AcDbEntity
  8
1
  6
Continuous
100
AcDbLine
 10
325.509069
 20
250.713189
 30
0.0
 11
325.509069
 21
162.1745449999998
 31
0.0
  0
ARC
  5
C876
330
C838
100
AcDbEntity
  8
1
  6
Continuous
100
AcDbCircle
 10
336.509069
 20
226.443867
 30
0.0
 40
30.0
100
AcDbArc
 50
76.11346000000001
 51
83.12595700000001
  0
LINE
  5
C877
330
C838
100
AcDbEntity
  8
1
  6
Continuous
100
AcDbLine
 10
347.509069
 20
250.713189
 30
0.0
 11
347.509069
 21
162.1745449999998
 31
0.0
  0
LINE
  5
C878
330
C838
100
AcDbEntity
  8
1
  6
Continuous
100
AcDbLine
 10
203.380718
 20
264.8758149999998
 30
0.0
 11
203.380718
 21
220.880896
 31
0.0
  0
LINE
  5
C879
330
C838
100
AcDbEntity
  8
4
  6
CENTER
100
AcDbLine
 10
133.5864479999999
 20
206.4271629999999
 30
0.0
 11
248.816658
 21
206.4441629999998
 31
0.0
  0
LINE
  5
C87A
330
C838
100
AcDbEntity
  8
4
  6
CENTER
100
AcDbLine
 10
191.5864479999999
 20
148.3371629999998
 30
0.0
 11
191.5864479999999
 21
264.444163
 31
0.0
  0
LINE
  5
C87B
330
C838
100
AcDbEntity
  8
4
  6
CENTER
100
AcDbLine
 10
224.586035
 20
235.4709539999999
 30
0.0
 11
224.586035
 21
335.4446299999999
 31
0.0
  0
LINE
  5
C87C
330
C838
100
AcDbEntity
  8
4
  6
CENTER
100
AcDbLine
 10
257.0110349999998
 20
414.8784489999998
 30
0.0
 11
136.586035
 21
414.8784489999998
 31
0.0
  0
LINE
  5
C87D
330
C838
100
AcDbEntity
  8
4
  6
CENTER
100
AcDbLine
 10
224.586035
 20
382.4534489999999
 30
0.0
 11
224.586035
 21
447.3034489999998
 31
0.0
  0
LINE
  5
C87E
330
C838
100
AcDbEntity
  8
4
  6
CENTER
100
AcDbLine
 10
336.5090599999998
 20
335.4436299999999
 30
0.0
 11
336.5090599999998
 21
148.4438669999998
 31
0.0
  0
LINE
  5
C87F
330
C838
100
AcDbEntity
  8
1
  6
Continuous
100
AcDbLine
 10
320.69186
 20
252.9260029999999
 30
0.0
 11
320.69186
 21
219.4458259999999
 31
0.0
  0
LINE
  5
C880
330
C838
100
AcDbEntity
  8
1
  6
Continuous
100
AcDbLine
 10
352.3262599999998
 20
252.926002
 30
0.0
 11
352.3262599999998
 21
194.9438629999999
 31
0.0
  0
ARC
  5
C881
330
C838
100
AcDbEntity
  8
1
  6
Continuous
100
AcDbCircle
 10
181.4622139999999
 20
254.0366169999999
 30
0.0
 40
14.529548
100
AcDbArc
 50
359.3096679999999
 51
41.61228499999999
  0
LINE
  5
C882
330
C838
100
AcDbEntity
  8
1
  6
Continuous
100
AcDbLine
 10
192.3253129999999
 20
263.685495
 30
0.0
 11
191.5883819999999
 21
266.204001
 31
0.0
  0
ARC
  5
C883
330
C838
100
AcDbEntity
  8
1
  6
Continuous
100
AcDbCircle
 10
183.746176
 20
263.5999749999999
 30
0.0
 40
5.267126
100
AcDbArc
 50
2.768558
 51
15.576486
  0
ARC
  5
C884
330
C838
100
AcDbEntity
  8
1
  6
Continuous
100
AcDbCircle
 10
192.5528429999999
 20
534.547265
 30
0.0
 40
270.861866
100
AcDbArc
 50
269.329835
 51
269.95187
  0
ARC
  5
C885
330
C838
100
AcDbEntity
  8
1
  6
Continuous
100
AcDbCircle
 10
189.391374
 20
264.2695939999999
 30
0.0
 40
0.565705
100
AcDbArc
 50
227.219834
 51
269.329835
  0
ARC
  5
C886
330
C838
100
AcDbEntity
  8
1
  6
Continuous
100
AcDbCircle
 10
194.983895
 20
265.1756279999998
 30
0.0
 40
6.166148999999997
100
AcDbArc
 50
174.1216709999999
 51
181.498972
  0
ARC
  5
C887
330
C838
100
AcDbEntity
  8
1
  6
Continuous
100
AcDbCircle
 10
189.104413
 20
265.6806889999999
 30
0.0
 40
0.283955
100
AcDbArc
 50
112.4266129999999
 51
153.555477
  0
ARC
  5
C888
330
C838
100
AcDbEntity
  8
1
  6
Continuous
100
AcDbCircle
 10
190.4158669999999
 20
262.503052
 30
0.0
 40
3.721582999999998
100
AcDbArc
 50
88.727417
 51
112.4266129999999
  0
ARC
  5
C889
330
C838
100
AcDbEntity
  8
1
  6
Continuous
100
AcDbCircle
 10
245.057491
 20
256.332641
 30
0.0
 40
2.322
100
AcDbArc
 50
95.042199
 51
166.6951479999999
  0
ARC
  5
C88A
330
C838
100
AcDbEntity
  8
1
  6
Continuous
100
AcDbCircle
 10
196.1450389999999
 20
267.4081259999999
 30
0.0
 40
1.189
100
AcDbArc
 50
271.184952
 51
5.074886
  0
ARC
  5
C88B
330
C838
100
AcDbEntity
  8
1
  6
Continuous
100
AcDbCircle
 10
193.4351679999998
 20
398.419323
 30
0.0
 40
132.2282199999999
100
AcDbArc
 50
268.727417
 51
273.9593529999999
  0
LINE
  5
C88C
330
C838
100
AcDbEntity
  8
1
  6
Continuous
100
AcDbLine
 10
192.3253129999999
 20
263.685495
 30
0.0
 11
191.5883819999999
 21
266.204001
 31
0.0
  0
ARC
  5
C88D
330
C838
100
AcDbEntity
  8
1
  6
Continuous
100
AcDbCircle
 10
183.746176
 20
263.5999749999999
 30
0.0
 40
5.267126
100
AcDbArc
 50
2.768558
 51
15.576486
  0
ARC
  5
C88E
330
C838
100
AcDbEntity
  8
1
  6
Continuous
100
AcDbCircle
 10
192.5528429999999
 20
534.547265
 30
0.0
 40
270.861866
100
AcDbArc
 50
269.329835
 51
269.95187
  0
ARC
  5
C88F
330
C838
100
AcDbEntity
  8
1
  6
Continuous
100
AcDbCircle
 10
189.391374
 20
264.2695939999999
 30
0.0
 40
0.565705
100
AcDbArc
 50
227.219834
 51
269.329835
  0
ARC
  5
C890
330
C838
100
AcDbEntity
  8
1
  6
Continuous
100
AcDbCircle
 10
194.983895
 20
265.1756279999998
 30
0.0
 40
6.166148999999997
100
AcDbArc
 50
174.1216709999999
 51
181.498972
  0
ARC
  5
C891
330
C838
100
AcDbEntity
  8
1
  6
Continuous
100
AcDbCircle
 10
189.104413
 20
265.6806889999999
 30
0.0
 40
0.283955
100
AcDbArc
 50
112.4266129999999
 51
153.555477
  0
ARC
  5
C892
330
C838
100
AcDbEntity
  8
1
  6
Continuous
100
AcDbCircle
 10
190.4158669999999
 20
262.503052
 30
0.0
 40
3.721582999999998
100
AcDbArc
 50
88.727417
 51
112.4266129999999
  0
ARC
  5
C893
330
C838
100
AcDbEntity
  8
1
  6
Continuous
100
AcDbCircle
 10
200.1180199999998
 20
265.9437549999998
 30
0.0
 40
3.2
100
AcDbArc
 50
90.23407699999998
 51
150.627636
  0
ARC
  5
C894
330
C838
100
AcDbEntity
  8
1
  6
Continuous
100
AcDbCircle
 10
200.1948669999999
 20
266.7600759999999
 30
0.0
 40
2.383999999999999
100
AcDbArc
 50
353.8988339999999
 51
90.23407699999998
  0
ARC
  5
C895
330
C838
100
AcDbEntity
  8
1
  6
Continuous
100
AcDbCircle
 10
342.509069
 20
250.713189
 30
0.0
 40
5.0
100
AcDbArc
 50
0.0
 51
76.11346000000001
  0
ARC
  5
C896
330
C838
100
AcDbEntity
  8
1
  6
Continuous
100
AcDbCircle
 10
330.509069
 20
250.713189
 30
0.0
 40
5.0
100
AcDbArc
 50
103.8865399999999
 51
180.0
  0
ARC
  5
C897
330
C838
100
AcDbEntity
  8
1
  6
Continuous
100
AcDbCircle
 10
342.509069
 20
162.1745449999998
 30
0.0
 40
5.0
100
AcDbArc
 50
283.8865399999999
 51
0.0
  0
ARC
  5
C898
330
C838
100
AcDbEntity
  8
1
  6
Continuous
100
AcDbCircle
 10
330.509069
 20
162.1745449999998
 30
0.0
 40
5.0
100
AcDbArc
 50
180.0
 51
256.1134599999999
  0
LINE
  5
C899
330
C838
100
AcDbEntity
  8
4
  6
CENTER
100
AcDbLine
 10
57.121566
 20
335.4266509999998
 30
0.0
 11
57.121566
 21
148.426377
 31
0.0
  0
LINE
  5
C89A
330
C838
100
AcDbEntity
  8
1
  6
Continuous
100
AcDbLine
 10
68.121566
 20
162.157055
 30
0.0
 11
68.121566
 21
250.6956989999999
 31
0.0
  0
LINE
  5
C89B
330
C838
100
AcDbEntity
  8
1
  6
Continuous
100
AcDbLine
 10
46.12156599999997
 20
162.157055
 30
0.0
 11
46.12156599999997
 21
250.6956989999999
 31
0.0
  0
LINE
  5
C89C
330
C838
100
AcDbEntity
  8
4
  6
CENTER
100
AcDbLine
 10
29.971999
 20
206.426377
 30
0.0
 11
91.80438700000001
 21
206.426377
 31
0.0
  0
ARC
  5
C89D
330
C838
100
AcDbEntity
  8
1
  6
Continuous
100
AcDbCircle
 10
61.25942099999999
 20
210.4439839999999
 30
0.0
 40
19.0
100
AcDbArc
 50
142.818892
 51
165.4165309999999
  0
ARC
  5
C89E
330
C838
100
AcDbEntity
  8
1
  6
Continuous
100
AcDbCircle
 10
61.25942099999999
 20
202.4087689999999
 30
0.0
 40
19.0
100
AcDbArc
 50
194.583469
 51
217.1811079999999
  0
LINE
  5
C89F
330
C838
100
AcDbEntity
  8
1
  6
Continuous
100
AcDbLine
 10
42.20434
 20
266.2639919999999
 30
0.0
 11
72.038775
 21
266.2639919999999
 31
0.0
  0
LINE
  5
C8A0
330
C838
100
AcDbEntity
  8
1
  6
Continuous
100
AcDbLine
 10
30.43546599999999
 20
269.0929779999998
 30
0.0
 11
83.80766599999999
 21
269.0929779999998
 31
0.0
  0
LINE
  5
C8A1
330
C838
100
AcDbEntity
  8
1
  6
Continuous
100
AcDbLine
 10
42.20434
 20
263.6639919999999
 30
0.0
 11
72.038775
 21
263.6639919999999
 31
0.0
  0
LINE
  5
C8A2
330
C838
100
AcDbEntity
  8
1
  6
Continuous
100
AcDbLine
 10
38.70434
 20
262.7639919999999
 30
0.0
 11
38.70434
 21
194.926373
 31
0.0
  0
LINE
  5
C8A3
330
C838
100
AcDbEntity
  8
1
  6
Continuous
100
AcDbLine
 10
41.30434
 20
262.7639919999999
 30
0.0
 11
41.30434
 21
194.926373
 31
0.0
  0
LINE
  5
C8A4
330
C838
100
AcDbEntity
  8
1
  6
Continuous
100
AcDbLine
 10
29.696566
 20
265.8929779999999
 30
0.0
 11
29.696566
 21
228.506141
 31
0.0
  0
ARC
  5
C8A5
330
C838
100
AcDbEntity
  8
1
  6
Continuous
100
AcDbCircle
 10
66.162603
 20
228.506141
 30
0.0
 40
36.466037
100
AcDbArc
 50
180.0
 51
209.7374579999999
  0
LINE
  5
C8A6
330
C838
100
AcDbEntity
  8
1
  6
Continuous
100
AcDbLine
 10
42.87156599999997
 20
215.2279969999999
 30
0.0
 11
42.87156599999997
 21
197.624756
 31
0.0
  0
LINE
  5
C8A7
330
C838
100
AcDbEntity
  8
1
  6
Continuous
100
AcDbLine
 10
41.87156599999997
 20
213.9263759999999
 30
0.0
 11
41.87156599999997
 21
198.9263769999998
 31
0.0
  0
LINE
  5
C8A8
330
C838
100
AcDbEntity
  8
1
  6
Continuous
100
AcDbLine
 10
38.70434
 20
194.926373
 30
0.0
 11
41.30434
 21
194.926373
 31
0.0
  0
ARC
  5
C8A9
330
C838
100
AcDbEntity
  8
1
  6
Continuous
100
AcDbCircle
 10
43.81786599999998
 20
199.38672
 30
0.0
 40
2.0
100
AcDbArc
 50
193.3071809999999
 51
241.761033
  0
LINE
  5
C8AA
330
C838
100
AcDbEntity
  8
1
  6
Continuous
100
AcDbLine
 10
41.62156599999997
 20
200.926377
 30
0.0
 11
41.62156599999997
 21
211.9263769999998
 31
0.0
  0
LINE
  5
C8AB
330
C838
100
AcDbEntity
  8
1
  6
Continuous
100
AcDbLine
 10
41.30434
 20
202.426377
 30
0.0
 11
41.62156599999997
 21
202.426377
 31
0.0
  0
LINE
  5
C8AC
330
C838
100
AcDbEntity
  8
1
  6
Continuous
100
AcDbLine
 10
41.62156599999997
 20
200.926377
 30
0.0
 11
41.87156599999997
 21
200.926377
 31
0.0
  0
LINE
  5
C8AD
330
C838
100
AcDbEntity
  8
1
  6
Continuous
100
AcDbLine
 10
41.30434
 20
210.426377
 30
0.0
 11
41.62156599999997
 21
210.426377
 31
0.0
  0
LINE
  5
C8AE
330
C838
100
AcDbEntity
  8
1
  6
Continuous
100
AcDbLine
 10
41.62156599999997
 20
211.9263769999998
 30
0.0
 11
41.87156599999997
 21
211.9263769999998
 31
0.0
  0
ARC
  5
C8AF
330
C838
100
AcDbEntity
  8
1
  6
Continuous
100
AcDbCircle
 10
43.81786599999998
 20
213.4660329999999
 30
0.0
 40
2.0
100
AcDbArc
 50
118.2389669999998
 51
166.6928189999999
  0
ARC
  5
C8B0
330
C838
100
AcDbEntity
  8
1
  6
Continuous
100
AcDbCircle
 10
32.896566
 20
265.8929779999999
 30
0.0
 40
3.2
100
AcDbArc
 50
90.0
 51
180.0
  0
ARC
  5
C8B1
330
C838
100
AcDbEntity
  8
1
  6
Continuous
100
AcDbCircle
 10
42.20434
 20
262.7639919999999
 30
0.0
 40
3.5
100
AcDbArc
 50
90.0
 51
178.892845
  0
ARC
  5
C8B2
330
C838
100
AcDbEntity
  8
1
  6
Continuous
100
AcDbCircle
 10
42.20434
 20
262.7639919999999
 30
0.0
 40
0.9
100
AcDbArc
 50
90.0
 51
180.0
  0
LINE
  5
C8B3
330
C838
100
AcDbEntity
  8
1
  6
Continuous
100
AcDbLine
 10
75.538775
 20
262.7639919999999
 30
0.0
 11
75.538775
 21
228.728187
 31
0.0
  0
LINE
  5
C8B4
330
C838
100
AcDbEntity
  8
1
  6
Continuous
100
AcDbLine
 10
72.938775
 20
262.7639919999999
 30
0.0
 11
72.938775
 21
219.427972
 31
0.0
  0
LINE
  5
C8B5
330
C838
100
AcDbEntity
  8
1
  6
Continuous
100
AcDbLine
 10
84.54656599999998
 20
265.8929779999999
 30
0.0
 11
84.54656599999998
 21
228.9812069999999
 31
0.0
  0
LINE
  5
C8B6
330
C838
100
AcDbEntity
  8
1
  6
Continuous
100
AcDbLine
 10
71.371566
 20
215.2279969999999
 30
0.0
 11
71.371566
 21
197.624756
 31
0.0
  0
LINE
  5
C8B7
330
C838
100
AcDbEntity
  8
1
  6
Continuous
100
AcDbLine
 10
72.371566
 20
213.9263759999999
 30
0.0
 11
72.371566
 21
198.9263769999998
 31
0.0
  0
ARC
  5
C8B8
330
C838
100
AcDbEntity
  8
1
  6
Continuous
100
AcDbCircle
 10
52.98370999999999
 20
202.4087689999999
 30
0.0
 40
19.0
100
AcDbArc
 50
322.818892
 51
345.416531
  0
ARC
  5
C8B9
330
C838
100
AcDbEntity
  8
1
  6
Continuous
100
AcDbCircle
 10
70.42526600000002
 20
199.38672
 30
0.0
 40
2.0
100
AcDbArc
 50
298.2389669999998
 51
346.6928189999999
  0
ARC
  5
C8BA
330
C838
100
AcDbEntity
  8
1
  6
Continuous
100
AcDbCircle
 10
52.98370999999999
 20
210.4439839999999
 30
0.0
 40
19.0
100
AcDbArc
 50
14.583469
 51
37.181108
  0
ARC
  5
C8BB
330
C838
100
AcDbEntity
  8
1
  6
Continuous
100
AcDbCircle
 10
70.42526600000002
 20
213.4660329999999
 30
0.0
 40
2.0
100
AcDbArc
 50
13.30718099999998
 51
61.761033
  0
ARC
  5
C8BC
330
C838
100
AcDbEntity
  8
1
  6
Continuous
100
AcDbCircle
 10
48.080566
 20
228.507535
 30
0.0
 40
36.466
100
AcDbArc
 50
337.0208149999999
 51
348.863824
  0
ARC
  5
C8BD
330
C838
100
AcDbEntity
  8
1
  6
Continuous
100
AcDbCircle
 10
72.038775
 20
262.7639919999999
 30
0.0
 40
3.5
100
AcDbArc
 50
0.0
 51
90.0
  0
ARC
  5
C8BE
330
C838
100
AcDbEntity
  8
1
  6
Continuous
100
AcDbCircle
 10
72.038775
 20
262.7639919999999
 30
0.0
 40
0.9
100
AcDbArc
 50
0.0
 51
90.0
  0
ARC
  5
C8BF
330
C838
100
AcDbEntity
  8
1
  6
Continuous
100
AcDbCircle
 10
81.34656600000003
 20
265.8929779999999
 30
0.0
 40
3.2
100
AcDbArc
 50
0.0
 51
90.0
  0
LINE
  5
C8C0
330
C838
100
AcDbEntity
  8
1
  6
Continuous
100
AcDbLine
 10
47.521566
 20
256.210227
 30
0.0
 11
53.526809
 21
256.210227
 31
0.0
  0
LINE
  5
C8C1
330
C838
100
AcDbEntity
  8
1
  6
Continuous
100
AcDbLine
 10
47.521566
 20
256.210227
 30
0.0
 11
47.521566
 21
258.2102269999999
 31
0.0
  0
LINE
  5
C8C2
330
C838
100
AcDbEntity
  8
1
  6
Continuous
100
AcDbLine
 10
66.721566
 20
256.210227
 30
0.0
 11
60.716323
 21
256.210227
 31
0.0
  0
LINE
  5
C8C3
330
C838
100
AcDbEntity
  8
1
  6
Continuous
100
AcDbLine
 10
61.221566
 20
257.810227
 30
0.0
 11
63.83974699999999
 21
256.210227
 31
0.0
  0
LINE
  5
C8C4
330
C838
100
AcDbEntity
  8
1
  6
Continuous
100
AcDbLine
 10
61.221566
 20
257.810227
 30
0.0
 11
60.458024
 21
256.760357
 31
0.0
  0
LINE
  5
C8C5
330
C838
100
AcDbEntity
  8
1
  6
Continuous
100
AcDbLine
 10
66.721566
 20
256.210227
 30
0.0
 11
66.721566
 21
258.2102269999999
 31
0.0
  0
LINE
  5
C8C6
330
C838
100
AcDbEntity
  8
1
  6
Continuous
100
AcDbLine
 10
53.02156599999999
 20
257.810227
 30
0.0
 11
50.403384
 21
256.210227
 31
0.0
  0
LINE
  5
C8C7
330
C838
100
AcDbEntity
  8
1
  6
Continuous
100
AcDbLine
 10
53.02156599999999
 20
257.810227
 30
0.0
 11
53.78510699999999
 21
256.760357
 31
0.0
  0
LINE
  5
C8C8
330
C838
100
AcDbEntity
  8
1
  6
Continuous
100
AcDbLine
 10
71.316565
 20
258.2102269999999
 30
0.0
 11
42.92656599999999
 21
258.2102269999999
 31
0.0
  0
ARC
  5
C8C9
330
C838
100
AcDbEntity
  8
1
  6
Continuous
100
AcDbCircle
 10
71.641402
 20
262.264833
 30
0.0
 40
4.031502999999998
100
AcDbArc
 50
278.1363819999999
 51
287.7668209999999
  0
ARC
  5
C8CA
330
C838
100
AcDbEntity
  8
1
  6
Continuous
100
AcDbCircle
 10
71.316565
 20
264.536916
 30
0.0
 40
6.326689
100
AcDbArc
 50
270.0
 51
278.1363819999999
  0
LINE
  5
C8CB
330
C838
100
AcDbEntity
  8
1
  6
Continuous
100
AcDbLine
 10
72.938775
 20
261.450284
 30
0.0
 11
41.30434
 21
261.450284
 31
0.0
  0
LINE
  5
C8CC
330
C838
100
AcDbEntity
  8
1
  6
Continuous
100
AcDbLine
 10
72.938775
 20
262.659718
 30
0.0
 11
41.30434
 21
262.659718
 31
0.0
  0
ARC
  5
C8CD
330
C838
100
AcDbEntity
  8
1
  6
Continuous
100
AcDbCircle
 10
42.60172899999999
 20
262.264833
 30
0.0
 40
4.031502999999998
100
AcDbArc
 50
252.2331789999999
 51
261.8636179999999
  0
ARC
  5
C8CE
330
C838
100
AcDbEntity
  8
1
  6
Continuous
100
AcDbCircle
 10
42.92656599999999
 20
264.536916
 30
0.0
 40
6.326689
100
AcDbArc
 50
261.8636179999999
 51
270.0
  0
LINE
  5
C8CF
330
C838
100
AcDbEntity
  8
1
  6
Continuous
100
AcDbLine
 10
71.91403000000002
 20
262.659718
 30
0.0
 11
70.909756
 21
263.6639919999999
 31
0.0
  0
LINE
  5
C8D0
330
C838
100
AcDbEntity
  8
1
  6
Continuous
100
AcDbLine
 10
49.286613
 20
262.659718
 30
0.0
 11
48.282339
 21
263.6639919999999
 31
0.0
  0
LINE
  5
C8D1
330
C838
100
AcDbEntity
  8
1
  6
Continuous
100
AcDbLine
 10
48.69227999999999
 20
262.659718
 30
0.0
 11
49.696553
 21
263.6639919999999
 31
0.0
  0
LINE
  5
C8D2
330
C838
100
AcDbEntity
  8
1
  6
Continuous
100
AcDbLine
 10
43.03542499999998
 20
262.659718
 30
0.0
 11
44.03969899999998
 21
263.6639919999999
 31
0.0
  0
LINE
  5
C8D3
330
C838
100
AcDbEntity
  8
1
  6
Continuous
100
AcDbLine
 10
41.560075
 20
263.3151879999999
 30
0.0
 11
42.21554499999998
 21
262.659718
 31
0.0
  0
LINE
  5
C8D4
330
C838
100
AcDbEntity
  8
1
  6
Continuous
100
AcDbLine
 10
43.629758
 20
262.659718
 30
0.0
 11
42.625485
 21
263.6639919999999
 31
0.0
  0
LINE
  5
C8D5
330
C838
100
AcDbEntity
  8
1
  6
Continuous
100
AcDbLine
 10
41.621212
 20
262.659718
 30
0.0
 11
42.625485
 21
263.6639919999999
 31
0.0
  0
LINE
  5
C8D6
330
C838
100
AcDbEntity
  8
1
  6
Continuous
100
AcDbLine
 10
47.278066
 20
262.659718
 30
0.0
 11
48.282339
 21
263.6639919999999
 31
0.0
  0
LINE
  5
C8D7
330
C838
100
AcDbEntity
  8
1
  6
Continuous
100
AcDbLine
 10
45.04397199999998
 20
262.659718
 30
0.0
 11
44.03969899999998
 21
263.6639919999999
 31
0.0
  0
LINE
  5
C8D8
330
C838
100
AcDbEntity
  8
1
  6
Continuous
100
AcDbLine
 10
46.458186
 20
262.659718
 30
0.0
 11
45.453912
 21
263.6639919999999
 31
0.0
  0
LINE
  5
C8D9
330
C838
100
AcDbEntity
  8
1
  6
Continuous
100
AcDbLine
 10
47.872399
 20
262.659718
 30
0.0
 11
46.86812599999998
 21
263.6639919999999
 31
0.0
  0
LINE
  5
C8DA
330
C838
100
AcDbEntity
  8
1
  6
Continuous
100
AcDbLine
 10
44.449639
 20
262.659718
 30
0.0
 11
45.453912
 21
263.6639919999999
 31
0.0
  0
LINE
  5
C8DB
330
C838
100
AcDbEntity
  8
1
  6
Continuous
100
AcDbLine
 10
45.86385299999998
 20
262.659718
 30
0.0
 11
46.86812599999998
 21
263.6639919999999
 31
0.0
  0
LINE
  5
C8DC
330
C838
100
AcDbEntity
  8
1
  6
Continuous
100
AcDbLine
 10
69.08560300000001
 20
262.659718
 30
0.0
 11
68.081329
 21
263.6639919999999
 31
0.0
  0
LINE
  5
C8DD
330
C838
100
AcDbEntity
  8
1
  6
Continuous
100
AcDbLine
 10
68.49127
 20
262.659718
 30
0.0
 11
69.49554300000001
 21
263.6639919999999
 31
0.0
  0
LINE
  5
C8DE
330
C838
100
AcDbEntity
  8
1
  6
Continuous
100
AcDbLine
 10
60.60032099999999
 20
262.659718
 30
0.0
 11
59.59604800000001
 21
263.6639919999999
 31
0.0
  0
LINE
  5
C8DF
330
C838
100
AcDbEntity
  8
1
  6
Continuous
100
AcDbLine
 10
60.005988
 20
262.659718
 30
0.0
 11
61.010261
 21
263.6639919999999
 31
0.0
  0
LINE
  5
C8E0
330
C838
100
AcDbEntity
  8
1
  6
Continuous
100
AcDbLine
 10
59.18610799999999
 20
262.659718
 30
0.0
 11
58.18183399999998
 21
263.6639919999999
 31
0.0
  0
LINE
  5
C8E1
330
C838
100
AcDbEntity
  8
1
  6
Continuous
100
AcDbLine
 10
58.591775
 20
262.659718
 30
0.0
 11
59.59604800000001
 21
263.6639919999999
 31
0.0
  0
LINE
  5
C8E2
330
C838
100
AcDbEntity
  8
1
  6
Continuous
100
AcDbLine
 10
64.842962
 20
262.659718
 30
0.0
 11
63.838689
 21
263.6639919999999
 31
0.0
  0
LINE
  5
C8E3
330
C838
100
AcDbEntity
  8
1
  6
Continuous
100
AcDbLine
 10
64.24862899999999
 20
262.659718
 30
0.0
 11
65.252902
 21
263.6639919999999
 31
0.0
  0
LINE
  5
C8E4
330
C838
100
AcDbEntity
  8
1
  6
Continuous
100
AcDbLine
 10
63.428748
 20
262.659718
 30
0.0
 11
62.424475
 21
263.6639919999999
 31
0.0
  0
LINE
  5
C8E5
330
C838
100
AcDbEntity
  8
1
  6
Continuous
100
AcDbLine
 10
62.01453499999999
 20
262.659718
 30
0.0
 11
61.010261
 21
263.6639919999999
 31
0.0
  0
LINE
  5
C8E6
330
C838
100
AcDbEntity
  8
1
  6
Continuous
100
AcDbLine
 10
62.834415
 20
262.659718
 30
0.0
 11
63.838689
 21
263.6639919999999
 31
0.0
  0
LINE
  5
C8E7
330
C838
100
AcDbEntity
  8
1
  6
Continuous
100
AcDbLine
 10
61.42020200000001
 20
262.659718
 30
0.0
 11
62.424475
 21
263.6639919999999
 31
0.0
  0
LINE
  5
C8E8
330
C838
100
AcDbEntity
  8
1
  6
Continuous
100
AcDbLine
 10
67.671389
 20
262.659718
 30
0.0
 11
66.66711600000001
 21
263.6639919999999
 31
0.0
  0
LINE
  5
C8E9
330
C838
100
AcDbEntity
  8
1
  6
Continuous
100
AcDbLine
 10
66.257175
 20
262.659718
 30
0.0
 11
65.252902
 21
263.6639919999999
 31
0.0
  0
LINE
  5
C8EA
330
C838
100
AcDbEntity
  8
1
  6
Continuous
100
AcDbLine
 10
67.077056
 20
262.659718
 30
0.0
 11
68.081329
 21
263.6639919999999
 31
0.0
  0
LINE
  5
C8EB
330
C838
100
AcDbEntity
  8
1
  6
Continuous
100
AcDbLine
 10
65.662842
 20
262.659718
 30
0.0
 11
66.66711600000001
 21
263.6639919999999
 31
0.0
  0
LINE
  5
C8EC
330
C838
100
AcDbEntity
  8
1
  6
Continuous
100
AcDbLine
 10
70.49981600000002
 20
262.659718
 30
0.0
 11
69.49554300000001
 21
263.6639919999999
 31
0.0
  0
LINE
  5
C8ED
330
C838
100
AcDbEntity
  8
1
  6
Continuous
100
AcDbLine
 10
69.90548299999999
 20
262.659718
 30
0.0
 11
70.909756
 21
263.6639919999999
 31
0.0
  0
LINE
  5
C8EE
330
C838
100
AcDbEntity
  8
1
  6
Continuous
100
AcDbLine
 10
52.11504
 20
262.659718
 30
0.0
 11
51.11076699999999
 21
263.6639919999999
 31
0.0
  0
LINE
  5
C8EF
330
C838
100
AcDbEntity
  8
1
  6
Continuous
100
AcDbLine
 10
51.520707
 20
262.659718
 30
0.0
 11
52.52498
 21
263.6639919999999
 31
0.0
  0
LINE
  5
C8F0
330
C838
100
AcDbEntity
  8
1
  6
Continuous
100
AcDbLine
 10
50.700826
 20
262.659718
 30
0.0
 11
49.696553
 21
263.6639919999999
 31
0.0
  0
LINE
  5
C8F1
330
C838
100
AcDbEntity
  8
1
  6
Continuous
100
AcDbLine
 10
50.106493
 20
262.659718
 30
0.0
 11
51.11076699999999
 21
263.6639919999999
 31
0.0
  0
LINE
  5
C8F2
330
C838
100
AcDbEntity
  8
1
  6
Continuous
100
AcDbLine
 10
56.35768
 20
262.659718
 30
0.0
 11
55.35340699999999
 21
263.6639919999999
 31
0.0
  0
LINE
  5
C8F3
330
C838
100
AcDbEntity
  8
1
  6
Continuous
100
AcDbLine
 10
55.763347
 20
262.659718
 30
0.0
 11
56.767621
 21
263.6639919999999
 31
0.0
  0
LINE
  5
C8F4
330
C838
100
AcDbEntity
  8
1
  6
Continuous
100
AcDbLine
 10
54.94346700000001
 20
262.659718
 30
0.0
 11
53.93919399999999
 21
263.6639919999999
 31
0.0
  0
LINE
  5
C8F5
330
C838
100
AcDbEntity
  8
1
  6
Continuous
100
AcDbLine
 10
53.52925299999998
 20
262.659718
 30
0.0
 11
52.52498
 21
263.6639919999999
 31
0.0
  0
LINE
  5
C8F6
330
C838
100
AcDbEntity
  8
1
  6
Continuous
100
AcDbLine
 10
54.349134
 20
262.659718
 30
0.0
 11
55.35340699999999
 21
263.6639919999999
 31
0.0
  0
LINE
  5
C8F7
330
C838
100
AcDbEntity
  8
1
  6
Continuous
100
AcDbLine
 10
52.93492
 20
262.659718
 30
0.0
 11
53.93919399999999
 21
263.6639919999999
 31
0.0
  0
LINE
  5
C8F8
330
C838
100
AcDbEntity
  8
1
  6
Continuous
100
AcDbLine
 10
57.77189400000001
 20
262.659718
 30
0.0
 11
56.767621
 21
263.6639919999999
 31
0.0
  0
LINE
  5
C8F9
330
C838
100
AcDbEntity
  8
1
  6
Continuous
100
AcDbLine
 10
57.17756099999999
 20
262.659718
 30
0.0
 11
58.18183399999998
 21
263.6639919999999
 31
0.0
  0
LINE
  5
C8FA
330
C838
100
AcDbEntity
  8
1
  6
Continuous
100
AcDbLine
 10
72.484261
 20
263.5037
 30
0.0
 11
72.71129999999998
 21
263.2766619999998
 31
0.0
  0
LINE
  5
C8FB
330
C838
100
AcDbEntity
  8
1
  6
Continuous
100
AcDbLine
 10
71.31969699999998
 20
262.659718
 30
0.0
 11
72.272261
 21
263.612282
 31
0.0
  0
LINE
  5
C8FC
330
C838
100
AcDbEntity
  8
1
  6
Continuous
100
AcDbLine
 10
72.73390999999998
 20
262.659718
 30
0.0
 11
72.870993
 21
262.7968009999999
 31
0.0
  0
ARC
  5
C8FD
330
C838
100
AcDbEntity
  8
1
  6
Continuous
100
AcDbCircle
 10
57.121566
 20
186.4263769999998
 30
0.0
 40
30.0
100
AcDbArc
 50
256.1134599999999
 51
283.8865399999999
  0
ARC
  5
C8FE
330
C838
100
AcDbEntity
  8
1
  6
Continuous
100
AcDbCircle
 10
63.121566
 20
162.157055
 30
0.0
 40
5.0
100
AcDbArc
 50
283.8865399999999
 51
0.0
  0
ARC
  5
C8FF
330
C838
100
AcDbEntity
  8
1
  6
Continuous
100
AcDbCircle
 10
51.12156599999998
 20
162.157055
 30
0.0
 40
5.0
100
AcDbArc
 50
180.0
 51
256.1134599999999
  0
ARC
  5
C900
330
C838
100
AcDbEntity
  8
1
  6
Continuous
100
AcDbCircle
 10
57.121566
 20
226.4263769999999
 30
0.0
 40
30.0
100
AcDbArc
 50
76.11346000000001
 51
103.8865399999999
  0
ARC
  5
C901
330
C838
100
AcDbEntity
  8
1
  6
Continuous
100
AcDbCircle
 10
51.12156599999998
 20
250.6956989999999
 30
0.0
 40
5.0
100
AcDbArc
 50
103.8865399999999
 51
180.0
  0
ARC
  5
C902
330
C838
100
AcDbEntity
  8
1
  6
Continuous
100
AcDbCircle
 10
63.121566
 20
250.6956989999999
 30
0.0
 40
5.0
100
AcDbArc
 50
0.0
 51
76.11346000000001
  0
ARC
  5
C903
330
C838
100
AcDbEntity
  8
1
  6
Continuous
100
AcDbCircle
 10
150.31378
 20
279.2626349999998
 30
0.0
 40
95.157
100
AcDbArc
 50
312.234302
 51
346.3948139999998
  0
ARC
  5
C904
330
C838
100
AcDbEntity
  8
1
  6
Continuous
100
AcDbCircle
 10
123.324982
 20
254.737122
 30
0.0
 40
72.67100000000002
100
AcDbArc
 50
332.9616279999999
 51
359.3096679999999
  0
LINE
  5
C905
330
C838
100
AcDbEntity
  8
1
  6
Continuous
100
AcDbLine
 10
252.0110349999999
 20
259.24496
 30
0.0
 11
252.0110349999999
 21
266.448277
 31
0.0
  0
LINE
  5
C906
330
C838
100
AcDbEntity
  8
1
  6
Continuous
100
AcDbLine
 10
250.507768
 20
259.144544
 30
0.0
 11
252.0110349999999
 21
259.24496
 31
0.0
  0
LINE
  5
C907
330
C838
100
AcDbEntity
  8
1
  6
Continuous
100
AcDbLine
 10
185.5864479999999
 20
209.908265
 30
0.0
 11
185.5864479999999
 21
202.980061
 31
0.0
  0
LINE
  5
C908
330
C838
100
AcDbEntity
  8
1
  6
Continuous
100
AcDbLine
 10
197.586448
 20
209.908265
 30
0.0
 11
197.586448
 21
202.980061
 31
0.0
  0
CIRCLE
  5
C909
330
C838
100
AcDbEntity
  8
1
  6
Continuous
100
AcDbCircle
 10
191.5864479999999
 20
206.4441629999998
 30
0.0
 40
6.0
  0
LINE
  5
C90A
330
C838
100
AcDbEntity
  8
1
  6
Continuous
100
AcDbLine
 10
191.5864479999999
 20
199.51596
 30
0.0
 11
197.586448
 21
202.980061
 31
0.0
  0
LINE
  5
C90B
330
C838
100
AcDbEntity
  8
1
  6
Continuous
100
AcDbLine
 10
191.5864479999999
 20
199.51596
 30
0.0
 11
185.5864479999999
 21
202.980061
 31
0.0
  0
LINE
  5
C90C
330
C838
100
AcDbEntity
  8
1
  6
Continuous
100
AcDbLine
 10
197.586448
 20
209.908265
 30
0.0
 11
191.5864479999999
 21
213.372366
 31
0.0
  0
LINE
  5
C90D
330
C838
100
AcDbEntity
  8
1
  6
Continuous
100
AcDbLine
 10
185.5864479999999
 20
209.908265
 30
0.0
 11
191.5864479999999
 21
213.372366
 31
0.0
  0
CIRCLE
  5
C90E
330
C838
100
AcDbEntity
  8
1
  6
Continuous
100
AcDbCircle
 10
191.5864479999999
 20
206.4441629999998
 30
0.0
 40
4.0
  0
CIRCLE
  5
C90F
330
C838
100
AcDbEntity
  8
2
  6
Continuous
100
AcDbCircle
 10
191.5864479999999
 20
206.4441629999998
 30
0.0
 40
3.3235
  0
LINE
  5
C910
330
C838
100
AcDbEntity
  8
4
  6
CENTER
100
AcDbLine
 10
257.0110349999998
 20
71.975465
 30
0.0
 11
136.586035
 21
71.975465
 31
0.0
  0
LINE
  5
C911
330
C838
100
AcDbEntity
  8
4
  6
CENTER
100
AcDbLine
 10
224.586035
 20
104.4004649999999
 30
0.0
 11
224.586035
 21
39.550465
 31
0.0
  0
LINE
  5
C912
330
C838
100
AcDbEntity
  8
1
  6
Continuous
100
AcDbLine
 10
340.609061
 20
257.828217
 30
0.0
 11
343.2272419999998
 21
256.2282169999999
 31
0.0
  0
LINE
  5
C913
330
C838
100
AcDbEntity
  8
1
  6
Continuous
100
AcDbLine
 10
340.609061
 20
257.828217
 30
0.0
 11
339.8455189999999
 21
256.778347
 31
0.0
  0
LINE
  5
C914
330
C838
100
AcDbEntity
  8
1
  6
Continuous
100
AcDbLine
 10
346.1090609999998
 20
256.2282169999999
 30
0.0
 11
346.1090609999998
 21
258.2282169999999
 31
0.0
  0
LINE
  5
C915
330
C838
100
AcDbEntity
  8
1
  6
Continuous
100
AcDbLine
 10
326.909061
 20
256.2282169999999
 30
0.0
 11
326.909061
 21
258.2282169999999
 31
0.0
  0
LINE
  5
C916
330
C838
100
AcDbEntity
  8
1
  6
Continuous
100
AcDbLine
 10
332.409061
 20
257.828217
 30
0.0
 11
329.790879
 21
256.2282169999999
 31
0.0
  0
LINE
  5
C917
330
C838
100
AcDbEntity
  8
1
  6
Continuous
100
AcDbLine
 10
332.409061
 20
257.828217
 30
0.0
 11
333.172602
 21
256.778347
 31
0.0
  0
LINE
  5
C918
330
C838
100
AcDbEntity
  8
1
  6
Continuous
100
AcDbLine
 10
326.909061
 20
256.2282169999999
 30
0.0
 11
346.1090609999998
 21
256.2282169999999
 31
0.0
  0
LINE
  5
C919
330
C838
100
AcDbEntity
  8
1
  6
Continuous
100
AcDbLine
 10
347.0037029999998
 20
258.2282169999999
 30
0.0
 11
326.0144159999999
 21
258.2282169999999
 31
0.0
  0
ARC
  5
C91A
330
C838
100
AcDbEntity
  8
1
  6
Continuous
100
AcDbCircle
 10
336.509069
 20
226.443867
 30
0.0
 40
30.0
100
AcDbArc
 50
96.87404299999998
 51
103.8865399999999
  0
LINE
  5
C91B
330
C838
100
AcDbEntity
  8
1
  6
Continuous
100
AcDbLine
 10
235.8553569999999
 20
60.97546499999999
 30
0.0
 11
147.316713
 21
60.97546499999999
 31
0.0
  0
LINE
  5
C91C
330
C838
100
AcDbEntity
  8
1
  6
Continuous
100
AcDbLine
 10
235.8553569999999
 20
82.97546500000001
 30
0.0
 11
147.316713
 21
82.97546500000001
 31
0.0
  0
ARC
  5
C91D
330
C838
100
AcDbEntity
  8
1
  6
Continuous
100
AcDbCircle
 10
211.586035
 20
71.975465
 30
0.0
 40
30.0
100
AcDbArc
 50
346.1134599999998
 51
13.88654
  0
ARC
  5
C91E
330
C838
100
AcDbEntity
  8
1
  6
Continuous
100
AcDbCircle
 10
235.8553569999999
 20
65.97546499999999
 30
0.0
 40
5.0
100
AcDbArc
 50
270.0
 51
346.1134599999998
  0
LINE
  5
C91F
330
C838
100
AcDbEntity
  8
1
  6
Continuous
100
AcDbLine
 10
197.086035
 20
56.475465
 30
0.0
 11
186.086035
 21
56.475465
 31
0.0
  0
LINE
  5
C920
330
C838
100
AcDbEntity
  8
1
  6
Continuous
100
AcDbLine
 10
184.0860349999999
 20
56.725465
 30
0.0
 11
199.086035
 21
56.725465
 31
0.0
  0
LINE
  5
C921
330
C838
100
AcDbEntity
  8
1
  6
Continuous
100
AcDbLine
 10
182.7844149999999
 20
57.725465
 30
0.0
 11
200.387656
 21
57.725465
 31
0.0
  0
LINE
  5
C922
330
C838
100
AcDbEntity
  8
1
  6
Continuous
100
AcDbLine
 10
197.086035
 20
56.475465
 30
0.0
 11
197.086035
 21
56.725465
 31
0.0
  0
LINE
  5
C923
330
C838
100
AcDbEntity
  8
1
  6
Continuous
100
AcDbLine
 10
195.586035
 20
56.158239
 30
0.0
 11
195.586035
 21
56.475465
 31
0.0
  0
ARC
  5
C924
330
C838
100
AcDbEntity
  8
1
  6
Continuous
100
AcDbCircle
 10
198.6256919999999
 20
58.671765
 30
0.0
 40
2.0
100
AcDbArc
 50
283.307181
 51
331.7610329999999
  0
ARC
  5
C925
330
C838
100
AcDbEntity
  8
1
  6
Continuous
100
AcDbCircle
 10
195.603643
 20
76.11332
 30
0.0
 40
19.0
100
AcDbArc
 50
284.583469
 51
307.1811079999998
  0
ARC
  5
C926
330
C838
100
AcDbEntity
  8
1
  6
Continuous
100
AcDbCircle
 10
184.546379
 20
58.671765
 30
0.0
 40
2.0
100
AcDbArc
 50
208.2389669999999
 51
256.692819
  0
LINE
  5
C927
330
C838
100
AcDbEntity
  8
1
  6
Continuous
100
AcDbLine
 10
186.086035
 20
56.475465
 30
0.0
 11
186.086035
 21
56.725465
 31
0.0
  0
LINE
  5
C928
330
C838
100
AcDbEntity
  8
1
  6
Continuous
100
AcDbLine
 10
187.586035
 20
56.158239
 30
0.0
 11
187.586035
 21
56.475465
 31
0.0
  0
ARC
  5
C929
330
C838
100
AcDbEntity
  8
1
  6
Continuous
100
AcDbCircle
 10
187.568428
 20
76.11332
 30
0.0
 40
19.0
100
AcDbArc
 50
232.818892
 51
255.416531
  0
ARC
  5
C92A
330
C838
100
AcDbEntity
  8
1
  6
Continuous
100
AcDbCircle
 10
235.8553569999999
 20
77.975465
 30
0.0
 40
5.0
100
AcDbArc
 50
13.88654
 51
90.0
  0
LINE
  5
C92B
330
C838
100
AcDbEntity
  8
1
  6
Continuous
100
AcDbLine
 10
184.0860349999999
 20
87.22546499999998
 30
0.0
 11
199.086035
 21
87.22546499999998
 31
0.0
  0
LINE
  5
C92C
330
C838
100
AcDbEntity
  8
1
  6
Continuous
100
AcDbLine
 10
182.7844149999999
 20
86.225465
 30
0.0
 11
200.387656
 21
86.225465
 31
0.0
  0
ARC
  5
C92D
330
C838
100
AcDbEntity
  8
1
  6
Continuous
100
AcDbCircle
 10
198.6256919999999
 20
85.27916500000001
 30
0.0
 40
2.0
100
AcDbArc
 50
28.238967
 51
76.692819
  0
ARC
  5
C92E
330
C838
100
AcDbEntity
  8
1
  6
Continuous
100
AcDbCircle
 10
195.603643
 20
67.837609
 30
0.0
 40
19.0
100
AcDbArc
 50
52.81889200000001
 51
75.41653100000002
  0
ARC
  5
C92F
330
C838
100
AcDbEntity
  8
1
  6
Continuous
100
AcDbCircle
 10
184.546379
 20
85.27916500000001
 30
0.0
 40
2.0
100
AcDbArc
 50
103.307181
 51
151.761033
  0
ARC
  5
C930
330
C838
100
AcDbEntity
  8
1
  6
Continuous
100
AcDbCircle
 10
187.568428
 20
67.837609
 30
0.0
 40
19.0
100
AcDbArc
 50
104.5834689999998
 51
127.181108
  0
ARC
  5
C931
330
C838
100
AcDbEntity
  8
1
  6
Continuous
100
AcDbCircle
 10
171.5860349999998
 20
71.975465
 30
0.0
 40
30.0
100
AcDbArc
 50
166.11346
 51
193.88654
  0
ARC
  5
C932
330
C838
100
AcDbEntity
  8
1
  6
Continuous
100
AcDbCircle
 10
147.316713
 20
65.97546499999999
 30
0.0
 40
5.0
100
AcDbArc
 50
193.88654
 51
270.0
  0
ARC
  5
C933
330
C838
100
AcDbEntity
  8
1
  6
Continuous
100
AcDbCircle
 10
147.316713
 20
77.975465
 30
0.0
 40
5.0
100
AcDbArc
 50
90.0
 51
166.11346
  0
LINE
  5
C934
330
C838
100
AcDbEntity
  8
4
  6
CENTER
100
AcDbLine
 10
191.586035
 20
106.658283
 30
0.0
 11
191.586035
 21
43.55823899999999
 31
0.0
  0
LINE
  5
C935
330
C838
100
AcDbEntity
  8
1
  6
Continuous
100
AcDbLine
 10
180.437878
 20
53.558239
 30
0.0
 11
200.605285
 21
53.558239
 31
0.0
  0
LINE
  5
C936
330
C838
100
AcDbEntity
  8
1
  6
Continuous
100
AcDbLine
 10
180.437878
 20
56.158239
 30
0.0
 11
200.605285
 21
56.158239
 31
0.0
  0
LINE
  5
C937
330
C838
100
AcDbEntity
  8
1
  6
Continuous
100
AcDbLine
 10
180.437878
 20
56.158239
 30
0.0
 11
180.437878
 21
53.558239
 31
0.0
  0
ARC
  5
C938
330
C838
100
AcDbEntity
  8
1
  6
Continuous
100
AcDbCircle
 10
224.586035
 20
71.975465
 30
0.0
 40
27.425
100
AcDbArc
 50
228.8251119999999
 51
49.975741
  0
ARC
  5
C939
330
C838
100
AcDbEntity
  8
1
  6
Continuous
100
AcDbCircle
 10
224.586035
 20
71.975465
 30
0.0
 40
24.82499999999999
100
AcDbArc
 50
228.8251119999999
 51
38.04747499999999
  0
ARC
  5
C93A
330
C838
100
AcDbEntity
  8
1
  6
Continuous
100
AcDbCircle
 10
224.586035
 20
71.975465
 30
0.0
 40
19.82499999999999
100
AcDbArc
 50
213.700727
 51
50.51155399999998
  0
ARC
  5
C93B
330
C838
100
AcDbEntity
  8
1
  6
Continuous
100
AcDbCircle
 10
224.586035
 20
71.975465
 30
0.0
 40
11.82499999999999
100
AcDbArc
 50
248.4710959999999
 51
291.528904
  0
ARC
  5
C93C
330
C838
100
AcDbEntity
  8
1
  6
Continuous
100
AcDbCircle
 10
224.586035
 20
71.975465
 30
0.0
 40
11.82499999999999
100
AcDbArc
 50
68.471096
 51
111.5289039999999
  0
LINE
  5
C93D
330
C838
100
AcDbEntity
  8
4
  6
CENTER
100
AcDbLine
 10
304.626286
 20
206.4441629999998
 30
0.0
 11
364.926286
 21
206.4441629999998
 31
0.0
  0
LINE
  5
C93E
330
C838
100
AcDbEntity
  8
1
  6
Continuous
100
AcDbLine
 10
352.0090599999999
 20
200.9441629999999
 30
0.0
 11
352.0090599999999
 21
211.9441629999998
 31
0.0
  0
LINE
  5
C93F
330
C838
100
AcDbEntity
  8
1
  6
Continuous
100
AcDbLine
 10
351.7590599999999
 20
213.9441629999998
 30
0.0
 11
351.7590599999999
 21
198.9441629999998
 31
0.0
  0
LINE
  5
C940
330
C838
100
AcDbEntity
  8
1
  6
Continuous
100
AcDbLine
 10
350.7590599999999
 20
215.2457829999999
 30
0.0
 11
350.7590599999999
 21
197.6425419999999
 31
0.0
  0
LINE
  5
C941
330
C838
100
AcDbEntity
  8
1
  6
Continuous
100
AcDbLine
 10
352.0090599999999
 20
200.9441629999999
 30
0.0
 11
351.7590599999999
 21
200.9441629999999
 31
0.0
  0
LINE
  5
C942
330
C838
100
AcDbEntity
  8
1
  6
Continuous
100
AcDbLine
 10
352.0090599999999
 20
202.4441629999998
 30
0.0
 11
352.3262689999999
 21
202.4441629999998
 31
0.0
  0
ARC
  5
C943
330
C838
100
AcDbEntity
  8
1
  6
Continuous
100
AcDbCircle
 10
349.8127600000001
 20
199.4045059999999
 30
0.0
 40
2.0
100
AcDbArc
 50
298.2389669999998
 51
346.6928189999999
  0
ARC
  5
C944
330
C838
100
AcDbEntity
  8
1
  6
Continuous
100
AcDbCircle
 10
332.3712039999999
 20
202.4265549999999
 30
0.0
 40
19.0
100
AcDbArc
 50
322.818892
 51
345.416531
  0
ARC
  5
C945
330
C838
100
AcDbEntity
  8
1
  6
Continuous
100
AcDbCircle
 10
349.8127600000001
 20
213.4838189999999
 30
0.0
 40
2.0
100
AcDbArc
 50
13.30718099999998
 51
61.761033
  0
ARC
  5
C946
330
C838
100
AcDbEntity
  8
1
  6
Continuous
100
AcDbCircle
 10
332.3712039999999
 20
210.46177
 30
0.0
 40
19.0
100
AcDbArc
 50
14.583469
 51
37.181108
  0
LINE
  5
C947
330
C838
100
AcDbEntity
  8
1
  6
Continuous
100
AcDbLine
 10
352.0090599999999
 20
211.9441629999998
 30
0.0
 11
351.7590599999999
 21
211.9441629999998
 31
0.0
  0
LINE
  5
C948
330
C838
100
AcDbEntity
  8
1
  6
Continuous
100
AcDbLine
 10
352.3262689999999
 20
210.4441629999998
 30
0.0
 11
352.0090599999999
 21
210.4441629999998
 31
0.0
  0
LINE
  5
C949
330
C838
100
AcDbEntity
  8
1
  6
Continuous
100
AcDbLine
 10
321.2590599999999
 20
213.9441629999998
 30
0.0
 11
321.2590599999999
 21
198.9441629999998
 31
0.0
  0
LINE
  5
C94A
330
C838
100
AcDbEntity
  8
1
  6
Continuous
100
AcDbLine
 10
322.2590599999999
 20
215.2457829999999
 30
0.0
 11
322.2590599999999
 21
197.6425419999999
 31
0.0
  0
ARC
  5
C94B
330
C838
100
AcDbEntity
  8
1
  6
Continuous
100
AcDbCircle
 10
323.2053599999999
 20
199.4045059999999
 30
0.0
 40
2.0
100
AcDbArc
 50
193.3071809999999
 51
241.761033
  0
ARC
  5
C94C
330
C838
100
AcDbEntity
  8
1
  6
Continuous
100
AcDbCircle
 10
340.6469149999999
 20
202.4265549999999
 30
0.0
 40
19.0
100
AcDbArc
 50
194.583469
 51
217.1811079999999
  0
ARC
  5
C94D
330
C838
100
AcDbEntity
  8
1
  6
Continuous
100
AcDbCircle
 10
323.2053599999999
 20
213.4838189999999
 30
0.0
 40
2.0
100
AcDbArc
 50
118.2389669999998
 51
166.6928189999999
  0
ARC
  5
C94E
330
C838
100
AcDbEntity
  8
1
  6
Continuous
100
AcDbCircle
 10
340.6469149999999
 20
210.46177
 30
0.0
 40
19.0
100
AcDbArc
 50
142.818892
 51
165.4165309999999
  0
ARC
  5
C94F
330
C838
100
AcDbEntity
  8
1
  6
Continuous
100
AcDbCircle
 10
327.4680599999999
 20
228.525321
 30
0.0
 40
36.466
100
AcDbArc
 50
323.7207199999998
 51
0.0
  0
LINE
  5
C950
330
C838
100
AcDbEntity
  8
1
  6
Continuous
100
AcDbLine
 10
354.9262689999998
 20
201.0303809999999
 30
0.0
 11
354.9262689999998
 21
194.9438629999999
 31
0.0
  0
ARC
  5
C951
330
C838
100
AcDbEntity
  8
1
  6
Continuous
100
AcDbCircle
 10
364.926269
 20
201.0303809999999
 30
0.0
 40
10.0
100
AcDbArc
 50
143.72072
 51
180.0
  0
ARC
  5
C952
330
C838
100
AcDbEntity
  8
1
  6
Continuous
100
AcDbCircle
 10
327.4680599999999
 20
228.525321
 30
0.0
 40
33.866
100
AcDbArc
 50
323.7207009999999
 51
0.0
  0
ARC
  5
C953
330
C838
100
AcDbEntity
  8
1
  6
Continuous
100
AcDbCircle
 10
364.92626
 20
201.030369
 30
0.0
 40
12.6
100
AcDbArc
 50
143.7207009999999
 51
180.0
  0
ARC
  5
C954
330
C838
100
AcDbEntity
  8
1
  6
Continuous
100
AcDbCircle
 10
345.5500599999999
 20
228.525321
 30
0.0
 40
33.866
100
AcDbArc
 50
180.0
 51
202.5370109999999
  0
ARC
  5
C955
330
C838
100
AcDbEntity
  8
1
  6
Continuous
100
AcDbCircle
 10
345.5500599999999
 20
228.525321
 30
0.0
 40
36.466
100
AcDbArc
 50
180.0
 51
205.3019139999999
  0
LINE
  5
C956
330
C838
100
AcDbEntity
  8
1
  6
Continuous
100
AcDbLine
 10
190.2046699999999
 20
403.878449
 30
0.0
 11
147.3167259999998
 21
403.878449
 31
0.0
  0
LINE
  5
C957
330
C838
100
AcDbEntity
  8
1
  6
Continuous
100
AcDbLine
 10
190.204674
 20
425.878449
 30
0.0
 11
147.3167259999998
 21
425.878449
 31
0.0
  0
LINE
  5
C958
330
C838
100
AcDbEntity
  8
4
  6
CENTER
100
AcDbLine
 10
191.586048
 20
443.295674
 30
0.0
 11
191.586048
 21
380.1956309999998
 31
0.0
  0
CIRCLE
  5
C959
330
C838
100
AcDbEntity
  8
1
  6
Continuous
100
AcDbCircle
 10
224.586035
 20
414.8784489999998
 30
0.0
 40
4.499976
  0
ARC
  5
C95A
330
C838
100
AcDbEntity
  8
1
  6
Continuous
100
AcDbCircle
 10
224.586035
 20
414.8784489999998
 30
0.0
 40
9.25
100
AcDbArc
 50
295.484369
 51
64.515631
  0
ARC
  5
C95B
330
C838
100
AcDbEntity
  8
1
  6
Continuous
100
AcDbCircle
 10
224.586035
 20
414.8784489999998
 30
0.0
 40
9.25
100
AcDbArc
 50
115.4843689999999
 51
244.515631
  0
CIRCLE
  5
C95C
330
C838
100
AcDbEntity
  8
1
  6
Continuous
100
AcDbCircle
 10
224.586035
 20
414.8784489999998
 30
0.0
 40
9.5
  0
LINE
  5
C95D
330
C838
100
AcDbEntity
  8
1
  6
Continuous
100
AcDbLine
 10
240.751843
 20
414.8784489999998
 30
0.0
 11
232.6689389999999
 21
428.878449
 31
0.0
  0
LINE
  5
C95E
330
C838
100
AcDbEntity
  8
1
  6
Continuous
100
AcDbLine
 10
216.503132
 20
428.878449
 30
0.0
 11
208.4202279999999
 21
414.8784489999998
 31
0.0
  0
ARC
  5
C95F
330
C838
100
AcDbEntity
  8
1
  6
Continuous
100
AcDbCircle
 10
242.4471089999999
 20
414.878441
 30
0.0
 40
53.38794100000001
100
AcDbArc
 50
159.8200589999999
 51
200.1799409999999
  0
CIRCLE
  5
C960
330
C838
100
AcDbEntity
  8
1
  6
Continuous
100
AcDbCircle
 10
224.586035
 20
414.8784489999998
 30
0.0
 40
6.0
  0
ARC
  5
C961
330
C838
100
AcDbEntity
  8
1
  6
Continuous
100
AcDbCircle
 10
225.279254
 20
414.8784489999998
 30
0.0
 40
28.865452
100
AcDbArc
 50
139.0925329999998
 51
220.5077509999999
  0
CIRCLE
  5
C962
330
C838
100
AcDbEntity
  8
1
  6
Continuous
100
AcDbCircle
 10
224.586035
 20
414.8784489999998
 30
0.0
 40
25.0
  0
CIRCLE
  5
C963
330
C838
100
AcDbEntity
  8
1
  6
Continuous
100
AcDbCircle
 10
224.586035
 20
414.8784489999998
 30
0.0
 40
26.6861
  0
LINE
  5
C964
330
C838
100
AcDbEntity
  8
1
  6
Continuous
100
AcDbLine
 10
232.6689389999999
 20
400.878449
 30
0.0
 11
216.503132
 21
400.878449
 31
0.0
  0
LINE
  5
C965
330
C838
100
AcDbEntity
  8
1
  6
Continuous
100
AcDbLine
 10
240.751843
 20
414.8784489999998
 30
0.0
 11
232.6689389999999
 21
400.878449
 31
0.0
  0
LINE
  5
C966
330
C838
100
AcDbEntity
  8
1
  6
Continuous
100
AcDbLine
 10
228.565985
 20
406.528449
 30
0.0
 11
220.606086
 21
406.528449
 31
0.0
  0
LINE
  5
C967
330
C838
100
AcDbEntity
  8
1
  6
Continuous
100
AcDbLine
 10
200.605284
 20
396.461224
 30
0.0
 11
188.6021149999999
 21
396.461224
 31
0.0
  0
LINE
  5
C968
330
C838
100
AcDbEntity
  8
1
  6
Continuous
100
AcDbLine
 10
191.456052
 20
399.0612239999999
 30
0.0
 11
180.836444
 21
399.0612239999999
 31
0.0
  0
LINE
  5
C969
330
C838
100
AcDbEntity
  8
1
  6
Continuous
100
AcDbLine
 10
190.996065
 20
400.6284489999998
 30
0.0
 11
182.7844279999999
 21
400.6284489999998
 31
0.0
  0
LINE
  5
C96A
330
C838
100
AcDbEntity
  8
1
  6
Continuous
100
AcDbLine
 10
191.283548
 20
399.6284489999999
 30
0.0
 11
184.086048
 21
399.6284489999999
 31
0.0
  0
LINE
  5
C96B
330
C838
100
AcDbEntity
  8
1
  6
Continuous
100
AcDbLine
 10
216.503132
 20
400.878449
 30
0.0
 11
208.4202279999999
 21
414.8784489999998
 31
0.0
  0
ARC
  5
C96C
330
C838
100
AcDbEntity
  8
1
  6
Continuous
100
AcDbCircle
 10
187.5684409999998
 20
419.0163039999998
 30
0.0
 40
19.0
100
AcDbArc
 50
232.818892
 51
255.416531
  0
ARC
  5
C96D
330
C838
100
AcDbEntity
  8
1
  6
Continuous
100
AcDbCircle
 10
184.546392
 20
401.5747489999998
 30
0.0
 40
2.0
100
AcDbArc
 50
208.2389669999999
 51
256.692819
  0
LINE
  5
C96E
330
C838
100
AcDbEntity
  8
1
  6
Continuous
100
AcDbLine
 10
232.6689389999999
 20
428.878449
 30
0.0
 11
216.503132
 21
428.878449
 31
0.0
  0
LINE
  5
C96F
330
C838
100
AcDbEntity
  8
1
  6
Continuous
100
AcDbLine
 10
228.565985
 20
423.228449
 30
0.0
 11
220.606086
 21
423.228449
 31
0.0
  0
LINE
  5
C970
330
C838
100
AcDbEntity
  8
1
  6
Continuous
100
AcDbLine
 10
224.586035
 20
428.878449
 30
0.0
 11
228.8067739999999
 21
428.878449
 31
0.0
  0
LINE
  5
C971
330
C838
100
AcDbEntity
  8
1
  6
Continuous
100
AcDbLine
 10
200.6052659999999
 20
433.295658
 30
0.0
 11
180.8364479999999
 21
433.295658
 31
0.0
  0
LINE
  5
C972
330
C838
100
AcDbEntity
  8
1
  6
Continuous
100
AcDbLine
 10
191.456052
 20
430.6956579999998
 30
0.0
 11
180.8364479999999
 21
430.6956579999998
 31
0.0
  0
LINE
  5
C973
330
C838
100
AcDbEntity
  8
1
  6
Continuous
100
AcDbLine
 10
190.996069
 20
429.1284489999998
 30
0.0
 11
182.7844279999999
 21
429.1284489999998
 31
0.0
  0
LINE
  5
C974
330
C838
100
AcDbEntity
  8
1
  6
Continuous
100
AcDbLine
 10
191.283553
 20
430.1284489999998
 30
0.0
 11
184.086048
 21
430.1284489999998
 31
0.0
  0
LINE
  5
C975
330
C838
100
AcDbEntity
  8
1
  6
Continuous
100
AcDbLine
 10
186.086048
 20
430.3784489999999
 30
0.0
 11
191.358735
 21
430.3784489999999
 31
0.0
  0
LINE
  5
C976
330
C838
100
AcDbEntity
  8
1
  6
Continuous
100
AcDbLine
 10
187.586048
 20
430.3784489999999
 30
0.0
 11
187.586048
 21
430.6956579999998
 31
0.0
  0
LINE
  5
C977
330
C838
100
AcDbEntity
  8
1
  6
Continuous
100
AcDbLine
 10
186.086048
 20
430.3784489999999
 30
0.0
 11
186.086048
 21
430.1284489999998
 31
0.0
  0
ARC
  5
C978
330
C838
100
AcDbEntity
  8
1
  6
Continuous
100
AcDbCircle
 10
184.546392
 20
428.1821489999998
 30
0.0
 40
2.0
100
AcDbArc
 50
103.307181
 51
151.761033
  0
ARC
  5
C979
330
C838
100
AcDbEntity
  8
1
  6
Continuous
100
AcDbCircle
 10
187.5684409999998
 20
410.7405939999998
 30
0.0
 40
19.0
100
AcDbArc
 50
104.5834689999998
 51
127.181108
  0
LINE
  5
C97A
330
C838
100
AcDbEntity
  8
1
  6
Continuous
100
AcDbLine
 10
180.836444
 20
430.6956579999998
 30
0.0
 11
180.836444
 21
433.295658
 31
0.0
  0
LINE
  5
C97B
330
C838
100
AcDbEntity
  8
1
  6
Continuous
100
AcDbLine
 10
322.5090359999999
 20
280.4436299999999
 30
0.0
 11
322.5090359999999
 21
276.9436519999998
 31
0.0
  0
LINE
  5
C97C
330
C838
100
AcDbEntity
  8
1
  6
Continuous
100
AcDbLine
 10
336.5090359999999
 20
280.4436299999999
 30
0.0
 11
336.5090359999999
 21
276.9436519999998
 31
0.0
  0
LINE
  5
C97D
330
C838
100
AcDbEntity
  8
1
  6
Continuous
100
AcDbLine
 10
350.509036
 20
280.4436299999999
 30
0.0
 11
350.509036
 21
276.9436519999998
 31
0.0
  0
ARC
  5
C97E
330
C838
100
AcDbEntity
  8
1
  6
Continuous
100
AcDbCircle
 10
171.586048
 20
414.8784489999998
 30
0.0
 40
30.0
100
AcDbArc
 50
166.11346
 51
193.88654
  0
LINE
  5
C97F
330
C838
100
AcDbEntity
  8
1
  6
Continuous
100
AcDbLine
 10
328.15906
 20
329.5436299999999
 30
0.0
 11
328.15906
 21
326.3436299999999
 31
0.0
  0
ARC
  5
C980
330
C838
100
AcDbEntity
  8
1
  6
Continuous
100
AcDbCircle
 10
147.3167259999998
 20
408.878449
 30
0.0
 40
5.0
100
AcDbArc
 50
193.88654
 51
270.0
  0
LINE
  5
C981
330
C838
100
AcDbEntity
  8
1
  6
Continuous
100
AcDbLine
 10
344.85906
 20
329.5436299999999
 30
0.0
 11
344.85906
 21
326.3436299999999
 31
0.0
  0
ARC
  5
C982
330
C838
100
AcDbEntity
  8
1
  6
Continuous
100
AcDbCircle
 10
147.3167259999998
 20
420.878449
 30
0.0
 40
5.0
100
AcDbArc
 50
90.0
 51
166.11346
  0
CIRCLE
  5
C983
330
C838
100
AcDbEntity
  8
2
  6
Continuous
100
AcDbCircle
 10
224.586035
 20
414.8784489999998
 30
0.0
 40
5.052999999999999
  0
ARC
  5
C984
330
C838
100
AcDbEntity
  8
1
  6
Continuous
100
AcDbCircle
 10
36.12156599999997
 20
272.9266729999998
 30
0.0
 40
4.0
100
AcDbArc
 50
90.0
 51
180.0
  0
LINE
  5
C985
330
C838
100
AcDbEntity
  8
1
  6
Continuous
100
AcDbLine
 10
30.43546599999999
 20
270.4012109999998
 30
0.0
 11
31.665722
 21
271.632467
 31
0.0
  0
LINE
  5
C986
330
C838
100
AcDbEntity
  8
1
  6
Continuous
100
AcDbLine
 10
30.43546599999999
 20
271.632467
 30
0.0
 11
83.80766599999999
 21
271.632467
 31
0.0
  0
LINE
  5
C987
330
C838
100
AcDbEntity
  8
1
  6
Continuous
100
AcDbLine
 10
83.80766599999999
 20
272.9266729999998
 30
0.0
 11
30.43546599999999
 21
272.9266729999998
 31
0.0
  0
LINE
  5
C988
330
C838
100
AcDbEntity
  8
1
  6
Continuous
100
AcDbLine
 10
30.43546599999999
 20
269.0929779999998
 30
0.0
 11
30.43546599999999
 21
272.9266729999998
 31
0.0
  0
LINE
  5
C989
330
C838
100
AcDbEntity
  8
1
  6
Continuous
100
AcDbLine
 10
31.37578299999999
 20
269.0929779999998
 30
0.0
 11
30.43546599999999
 21
270.0332949999999
 31
0.0
  0
LINE
  5
C98A
330
C838
100
AcDbEntity
  8
1
  6
Continuous
100
AcDbLine
 10
47.62156599999999
 20
281.9266509999998
 30
0.0
 11
47.62156599999999
 21
325.3266509999999
 31
0.0
  0
LINE
  5
C98B
330
C838
100
AcDbEntity
  8
1
  6
Continuous
100
AcDbLine
 10
66.621566
 20
325.3266509999999
 30
0.0
 11
66.621566
 21
281.9266509999998
 31
0.0
  0
LINE
  5
C98C
330
C838
100
AcDbEntity
  8
1
  6
Continuous
100
AcDbLine
 10
63.06835799999999
 20
269.0929779999998
 30
0.0
 11
65.606847
 21
271.632467
 31
0.0
  0
LINE
  5
C98D
330
C838
100
AcDbEntity
  8
1
  6
Continuous
100
AcDbLine
 10
65.316909
 20
269.0929779999998
 30
0.0
 11
62.77841999999999
 21
271.632467
 31
0.0
  0
LINE
  5
C98E
330
C838
100
AcDbEntity
  8
1
  6
Continuous
100
AcDbLine
 10
36.12156599999997
 20
276.926673
 30
0.0
 11
78.121566
 21
276.926673
 31
0.0
  0
LINE
  5
C98F
330
C838
100
AcDbEntity
  8
1
  6
Continuous
100
AcDbLine
 10
47.62156599999999
 20
284.3266509999999
 30
0.0
 11
66.621566
 21
284.3266509999999
 31
0.0
  0
LINE
  5
C990
330
C838
100
AcDbEntity
  8
1
  6
Continuous
100
AcDbLine
 10
71.12154100000002
 20
280.426651
 30
0.0
 11
43.12154099999999
 21
280.426651
 31
0.0
  0
ARC
  5
C991
330
C838
100
AcDbEntity
  8
1
  6
Continuous
100
AcDbCircle
 10
49.12156599999999
 20
281.9266509999998
 30
0.0
 40
1.5
100
AcDbArc
 50
180.0
 51
270.0
  0
LINE
  5
C992
330
C838
100
AcDbEntity
  8
1
  6
Continuous
100
AcDbLine
 10
46.097795
 20
269.0929779999998
 30
0.0
 11
48.636284
 21
271.632467
 31
0.0
  0
LINE
  5
C993
330
C838
100
AcDbEntity
  8
1
  6
Continuous
100
AcDbLine
 10
48.34634600000001
 20
269.0929779999998
 30
0.0
 11
45.80785699999998
 21
271.632467
 31
0.0
  0
LINE
  5
C994
330
C838
100
AcDbEntity
  8
1
  6
Continuous
100
AcDbLine
 10
40.44094099999997
 20
269.0929779999998
 30
0.0
 11
42.97943
 21
271.632467
 31
0.0
  0
LINE
  5
C995
330
C838
100
AcDbEntity
  8
1
  6
Continuous
100
AcDbLine
 10
42.689492
 20
269.0929779999998
 30
0.0
 11
40.151003
 21
271.632467
 31
0.0
  0
LINE
  5
C996
330
C838
100
AcDbEntity
  8
1
  6
Continuous
100
AcDbLine
 10
31.95565999999999
 20
269.0929779999998
 30
0.0
 11
34.494149
 21
271.632467
 31
0.0
  0
LINE
  5
C997
330
C838
100
AcDbEntity
  8
1
  6
Continuous
100
AcDbLine
 10
34.20420999999999
 20
269.0929779999998
 30
0.0
 11
31.665722
 21
271.632467
 31
0.0
  0
LINE
  5
C998
330
C838
100
AcDbEntity
  8
1
  6
Continuous
100
AcDbLine
 10
34.784087
 20
269.0929779999998
 30
0.0
 11
37.322576
 21
271.632467
 31
0.0
  0
LINE
  5
C999
330
C838
100
AcDbEntity
  8
1
  6
Continuous
100
AcDbLine
 10
37.032638
 20
269.0929779999998
 30
0.0
 11
34.494149
 21
271.632467
 31
0.0
  0
LINE
  5
C99A
330
C838
100
AcDbEntity
  8
1
  6
Continuous
100
AcDbLine
 10
37.61251399999999
 20
269.0929779999998
 30
0.0
 11
40.151003
 21
271.632467
 31
0.0
  0
LINE
  5
C99B
330
C838
100
AcDbEntity
  8
1
  6
Continuous
100
AcDbLine
 10
39.861065
 20
269.0929779999998
 30
0.0
 11
37.322576
 21
271.632467
 31
0.0
  0
LINE
  5
C99C
330
C838
100
AcDbEntity
  8
1
  6
Continuous
100
AcDbLine
 10
43.269368
 20
269.0929779999998
 30
0.0
 11
45.80785699999998
 21
271.632467
 31
0.0
  0
LINE
  5
C99D
330
C838
100
AcDbEntity
  8
1
  6
Continuous
100
AcDbLine
 10
45.517919
 20
269.0929779999998
 30
0.0
 11
42.97943
 21
271.632467
 31
0.0
  0
LINE
  5
C99E
330
C838
100
AcDbEntity
  8
1
  6
Continuous
100
AcDbLine
 10
57.411504
 20
269.0929779999998
 30
0.0
 11
59.94999299999999
 21
271.632467
 31
0.0
  0
LINE
  5
C99F
330
C838
100
AcDbEntity
  8
1
  6
Continuous
100
AcDbLine
 10
59.66005500000001
 20
269.0929779999998
 30
0.0
 11
57.121566
 21
271.632467
 31
0.0
  0
LINE
  5
C9A0
330
C838
100
AcDbEntity
  8
1
  6
Continuous
100
AcDbLine
 10
48.926223
 20
269.0929779999998
 30
0.0
 11
51.464711
 21
271.632467
 31
0.0
  0
LINE
  5
C9A1
330
C838
100
AcDbEntity
  8
1
  6
Continuous
100
AcDbLine
 10
51.174773
 20
269.0929779999998
 30
0.0
 11
48.636284
 21
271.632467
 31
0.0
  0
LINE
  5
C9A2
330
C838
100
AcDbEntity
  8
1
  6
Continuous
100
AcDbLine
 10
51.75464999999999
 20
269.0929779999998
 30
0.0
 11
54.293139
 21
271.632467
 31
0.0
  0
LINE
  5
C9A3
330
C838
100
AcDbEntity
  8
1
  6
Continuous
100
AcDbLine
 10
54.0032
 20
269.0929779999998
 30
0.0
 11
51.464711
 21
271.632467
 31
0.0
  0
LINE
  5
C9A4
330
C838
100
AcDbEntity
  8
1
  6
Continuous
100
AcDbLine
 10
54.583077
 20
269.0929779999998
 30
0.0
 11
57.121566
 21
271.632467
 31
0.0
  0
LINE
  5
C9A5
330
C838
100
AcDbEntity
  8
1
  6
Continuous
100
AcDbLine
 10
56.831627
 20
269.0929779999998
 30
0.0
 11
54.293139
 21
271.632467
 31
0.0
  0
LINE
  5
C9A6
330
C838
100
AcDbEntity
  8
1
  6
Continuous
100
AcDbLine
 10
60.23993100000001
 20
269.0929779999998
 30
0.0
 11
62.77841999999999
 21
271.632467
 31
0.0
  0
LINE
  5
C9A7
330
C838
100
AcDbEntity
  8
1
  6
Continuous
100
AcDbLine
 10
62.488482
 20
269.0929779999998
 30
0.0
 11
59.94999299999999
 21
271.632467
 31
0.0
  0
ARC
  5
C9A8
330
C838
100
AcDbEntity
  8
1
  6
Continuous
100
AcDbCircle
 10
65.121566
 20
281.9266509999998
 30
0.0
 40
1.5
100
AcDbArc
 50
270.0
 51
0.0
  0
LINE
  5
C9A9
330
C838
100
AcDbEntity
  8
1
  6
Continuous
100
AcDbLine
 10
77.21049399999998
 20
269.0929779999998
 30
0.0
 11
79.74898299999998
 21
271.632467
 31
0.0
  0
ARC
  5
C9AA
330
C838
100
AcDbEntity
  8
1
  6
Continuous
100
AcDbCircle
 10
78.121566
 20
272.9266729999998
 30
0.0
 40
4.0
100
AcDbArc
 50
0.0
 51
90.0
  0
LINE
  5
C9AB
330
C838
100
AcDbEntity
  8
1
  6
Continuous
100
AcDbLine
 10
79.45904399999998
 20
269.0929779999998
 30
0.0
 11
76.920556
 21
271.632467
 31
0.0
  0
LINE
  5
C9AC
330
C838
100
AcDbEntity
  8
1
  6
Continuous
100
AcDbLine
 10
76.630617
 20
269.0929779999998
 30
0.0
 11
74.092128
 21
271.632467
 31
0.0
  0
LINE
  5
C9AD
330
C838
100
AcDbEntity
  8
1
  6
Continuous
100
AcDbLine
 10
68.725212
 20
269.0929779999998
 30
0.0
 11
71.26370099999999
 21
271.632467
 31
0.0
  0
LINE
  5
C9AE
330
C838
100
AcDbEntity
  8
1
  6
Continuous
100
AcDbLine
 10
70.97376300000002
 20
269.0929779999998
 30
0.0
 11
68.43527399999999
 21
271.632467
 31
0.0
  0
LINE
  5
C9AF
330
C838
100
AcDbEntity
  8
1
  6
Continuous
100
AcDbLine
 10
68.145336
 20
269.0929779999998
 30
0.0
 11
65.606847
 21
271.632467
 31
0.0
  0
LINE
  5
C9B0
330
C838
100
AcDbEntity
  8
1
  6
Continuous
100
AcDbLine
 10
65.89678499999999
 20
269.0929779999998
 30
0.0
 11
68.43527399999999
 21
271.632467
 31
0.0
  0
LINE
  5
C9B1
330
C838
100
AcDbEntity
  8
1
  6
Continuous
100
AcDbLine
 10
71.55364
 20
269.0929779999998
 30
0.0
 11
74.092128
 21
271.632467
 31
0.0
  0
LINE
  5
C9B2
330
C838
100
AcDbEntity
  8
1
  6
Continuous
100
AcDbLine
 10
73.80218999999998
 20
269.0929779999998
 30
0.0
 11
71.26370099999999
 21
271.632467
 31
0.0
  0
LINE
  5
C9B3
330
C838
100
AcDbEntity
  8
1
  6
Continuous
100
AcDbLine
 10
74.38206700000002
 20
269.0929779999998
 30
0.0
 11
76.920556
 21
271.632467
 31
0.0
  0
LINE
  5
C9B4
330
C838
100
AcDbEntity
  8
1
  6
Continuous
100
AcDbLine
 10
83.80766599999999
 20
270.0332949999999
 30
0.0
 11
82.86734799999997
 21
269.0929779999998
 31
0.0
  0
LINE
  5
C9B5
330
C838
100
AcDbEntity
  8
1
  6
Continuous
100
AcDbLine
 10
83.80766599999999
 20
270.4012109999998
 30
0.0
 11
82.57741000000001
 21
271.632467
 31
0.0
  0
LINE
  5
C9B6
330
C838
100
AcDbEntity
  8
1
  6
Continuous
100
AcDbLine
 10
83.80766599999999
 20
272.9266729999998
 30
0.0
 11
83.80766599999999
 21
269.0929779999998
 31
0.0
  0
LINE
  5
C9B7
330
C838
100
AcDbEntity
  8
1
  6
Continuous
100
AcDbLine
 10
80.03892099999999
 20
269.0929779999998
 30
0.0
 11
82.57741000000001
 21
271.632467
 31
0.0
  0
LINE
  5
C9B8
330
C838
100
AcDbEntity
  8
1
  6
Continuous
100
AcDbLine
 10
82.28747199999999
 20
269.0929779999998
 30
0.0
 11
79.74898299999998
 21
271.632467
 31
0.0
  0
LINE
  5
C9B9
330
C838
100
AcDbEntity
  8
1
  6
Continuous
100
AcDbLine
 10
48.62156599999998
 20
326.3266509999999
 30
0.0
 11
65.621566
 21
326.3266509999999
 31
0.0
  0
LINE
  5
C9BA
330
C838
100
AcDbEntity
  8
1
  6
Continuous
100
AcDbLine
 10
48.771566
 20
329.5266509999998
 30
0.0
 11
65.471566
 21
329.5266509999998
 31
0.0
  0
ARC
  5
C9BB
330
C838
100
AcDbEntity
  8
1
  6
Continuous
100
AcDbCircle
 10
48.62156599999998
 20
325.3266509999999
 30
0.0
 40
1.0
100
AcDbArc
 50
90.0
 51
180.0
  0
LINE
  5
C9BC
330
C838
100
AcDbEntity
  8
2
  6
Continuous
100
AcDbLine
 10
62.17456600000001
 20
329.5266509999998
 30
0.0
 11
62.17456600000001
 21
329.873627
 31
0.0
  0
LINE
  5
C9BD
330
C838
100
AcDbEntity
  8
1
  6
Continuous
100
AcDbLine
 10
61.62154199999999
 20
330.426651
 30
0.0
 11
62.52154199999999
 21
329.5266509999998
 31
0.0
  0
LINE
  5
C9BE
330
C838
100
AcDbEntity
  8
2
  6
Continuous
100
AcDbLine
 10
52.068566
 20
329.5266509999998
 30
0.0
 11
52.068566
 21
329.8736749999998
 31
0.0
  0
LINE
  5
C9BF
330
C838
100
AcDbEntity
  8
1
  6
Continuous
100
AcDbLine
 10
52.62154200000001
 20
330.426651
 30
0.0
 11
51.721542
 21
329.5266509999998
 31
0.0
  0
LINE
  5
C9C0
330
C838
100
AcDbEntity
  8
1
  6
Continuous
100
AcDbLine
 10
52.62154200000001
 20
330.426651
 30
0.0
 11
61.62154199999999
 21
330.426651
 31
0.0
  0
ARC
  5
C9C1
330
C838
100
AcDbEntity
  8
1
  6
Continuous
100
AcDbCircle
 10
65.621566
 20
325.3266509999999
 30
0.0
 40
1.0
100
AcDbArc
 50
0.0
 51
90.0
  0
LINE
  5
C9C2
330
C838
100
AcDbEntity
  8
1
  6
Continuous
100
AcDbLine
 10
65.471566
 20
329.5266509999998
 30
0.0
 11
65.471566
 21
326.3266509999999
 31
0.0
  0
LINE
  5
C9C3
330
C838
100
AcDbEntity
  8
1
  6
Continuous
100
AcDbLine
 10
48.771566
 20
329.5266509999998
 30
0.0
 11
48.771566
 21
326.3266509999999
 31
0.0
  0
LINE
  5
C9C4
330
C838
100
AcDbEntity
  8
1
  6
Continuous
100
AcDbLine
 10
43.12154099999999
 20
280.426651
 30
0.0
 11
43.12154099999999
 21
276.926673
 31
0.0
  0
LINE
  5
C9C5
330
C838
100
AcDbEntity
  8
1
  6
Continuous
100
AcDbLine
 10
57.121541
 20
280.426651
 30
0.0
 11
57.121541
 21
276.926673
 31
0.0
  0
LINE
  5
C9C6
330
C838
100
AcDbEntity
  8
1
  6
Continuous
100
AcDbLine
 10
71.12154100000002
 20
280.426651
 30
0.0
 11
71.12154100000002
 21
276.926673
 31
0.0
  0
ARC
  5
C9C7
330
C838
100
AcDbEntity
  8
1
  6
Continuous
100
AcDbCircle
 10
224.586035
 20
414.8784489999998
 30
0.0
 40
27.425
100
AcDbArc
 50
228.825109
 51
131.1749289999999
  0
ARC
  5
C9C8
330
C838
100
AcDbEntity
  8
1
  6
Continuous
100
AcDbCircle
 10
200.6052659999999
 20
442.295658
 30
0.0
 40
9.0
100
AcDbArc
 50
270.0
 51
311.174929
  0
ARC
  5
C9C9
330
C838
100
AcDbEntity
  8
1
  6
Continuous
100
AcDbCircle
 10
200.605284
 20
387.461224
 30
0.0
 40
9.0
100
AcDbArc
 50
48.82510899999999
 51
90.0
  0
ARC
  5
C9CA
330
C838
100
AcDbEntity
  8
1
  6
Continuous
100
AcDbCircle
 10
203.586035
 20
272.944652
 30
0.0
 40
4.0
100
AcDbArc
 50
90.0
 51
180.0
  0
LINE
  5
C9CB
330
C838
100
AcDbEntity
  8
1
  6
Continuous
100
AcDbLine
 10
197.899935
 20
270.4371899999998
 30
0.0
 11
199.1301909999999
 21
271.6504459999999
 31
0.0
  0
LINE
  5
C9CC
330
C838
100
AcDbEntity
  8
1
  6
Continuous
100
AcDbLine
 10
197.899935
 20
271.6504459999999
 30
0.0
 11
251.272135
 21
271.6504459999999
 31
0.0
  0
LINE
  5
C9CD
330
C838
100
AcDbEntity
  8
1
  6
Continuous
100
AcDbLine
 10
251.272135
 20
272.944652
 30
0.0
 11
197.899935
 21
272.944652
 31
0.0
  0
LINE
  5
C9CE
330
C838
100
AcDbEntity
  8
1
  6
Continuous
100
AcDbLine
 10
197.899935
 20
269.1289569999999
 30
0.0
 11
197.899935
 21
272.944652
 31
0.0
  0
LINE
  5
C9CF
330
C838
100
AcDbEntity
  8
1
  6
Continuous
100
AcDbLine
 10
198.8402519999999
 20
269.1289569999999
 30
0.0
 11
197.899935
 21
270.069274
 31
0.0
  0
LINE
  5
C9D0
330
C838
100
AcDbEntity
  8
1
  6
Continuous
100
AcDbLine
 10
215.086035
 20
281.9446299999999
 30
0.0
 11
215.086035
 21
325.34463
 31
0.0
  0
LINE
  5
C9D1
330
C838
100
AcDbEntity
  8
1
  6
Continuous
100
AcDbLine
 10
234.086035
 20
325.34463
 30
0.0
 11
234.086035
 21
281.9446299999999
 31
0.0
  0
LINE
  5
C9D2
330
C838
100
AcDbEntity
  8
1
  6
Continuous
100
AcDbLine
 10
230.5328269999999
 20
269.1289569999999
 30
0.0
 11
233.071316
 21
271.6504459999999
 31
0.0
  0
LINE
  5
C9D3
330
C838
100
AcDbEntity
  8
1
  6
Continuous
100
AcDbLine
 10
232.781378
 20
269.1289569999999
 30
0.0
 11
230.2428889999999
 21
271.6504459999999
 31
0.0
  0
LINE
  5
C9D4
330
C838
100
AcDbEntity
  8
1
  6
Continuous
100
AcDbLine
 10
203.586035
 20
276.944652
 30
0.0
 11
245.586035
 21
276.944652
 31
0.0
  0
LINE
  5
C9D5
330
C838
100
AcDbEntity
  8
1
  6
Continuous
100
AcDbLine
 10
215.086035
 20
284.34463
 30
0.0
 11
234.086035
 21
284.34463
 31
0.0
  0
LINE
  5
C9D6
330
C838
100
AcDbEntity
  8
1
  6
Continuous
100
AcDbLine
 10
240.7518179999999
 20
280.4446299999998
 30
0.0
 11
208.4202029999999
 21
280.4446299999998
 31
0.0
  0
ARC
  5
C9D7
330
C838
100
AcDbEntity
  8
1
  6
Continuous
100
AcDbCircle
 10
216.5860349999999
 20
281.9446299999999
 30
0.0
 40
1.5
100
AcDbArc
 50
180.0
 51
270.0
  0
LINE
  5
C9D8
330
C838
100
AcDbEntity
  8
1
  6
Continuous
100
AcDbLine
 10
213.562264
 20
269.1289569999999
 30
0.0
 11
216.1007529999999
 21
271.6504459999999
 31
0.0
  0
LINE
  5
C9D9
330
C838
100
AcDbEntity
  8
1
  6
Continuous
100
AcDbLine
 10
215.8108149999999
 20
269.1289569999999
 30
0.0
 11
213.2723259999999
 21
271.6504459999999
 31
0.0
  0
LINE
  5
C9DA
330
C838
100
AcDbEntity
  8
1
  6
Continuous
100
AcDbLine
 10
208.4202029999999
 20
276.944652
 30
0.0
 11
208.4202029999999
 21
280.4446299999998
 31
0.0
  0
LINE
  5
C9DB
330
C838
100
AcDbEntity
  8
1
  6
Continuous
100
AcDbLine
 10
207.90541
 20
269.1289569999999
 30
0.0
 11
210.4438989999999
 21
271.6504459999999
 31
0.0
  0
LINE
  5
C9DC
330
C838
100
AcDbEntity
  8
1
  6
Continuous
100
AcDbLine
 10
210.1539609999999
 20
269.1289569999999
 30
0.0
 11
207.615472
 21
271.6504459999999
 31
0.0
  0
LINE
  5
C9DD
330
C838
100
AcDbEntity
  8
1
  6
Continuous
100
AcDbLine
 10
199.420129
 20
269.1289569999999
 30
0.0
 11
201.958618
 21
271.6504459999999
 31
0.0
  0
LINE
  5
C9DE
330
C838
100
AcDbEntity
  8
1
  6
Continuous
100
AcDbLine
 10
201.668679
 20
269.1289569999999
 30
0.0
 11
199.1301909999999
 21
271.6504459999999
 31
0.0
  0
LINE
  5
C9DF
330
C838
100
AcDbEntity
  8
1
  6
Continuous
100
AcDbLine
 10
202.248556
 20
269.1289569999999
 30
0.0
 11
204.787045
 21
271.6504459999999
 31
0.0
  0
LINE
  5
C9E0
330
C838
100
AcDbEntity
  8
1
  6
Continuous
100
AcDbLine
 10
204.4971069999999
 20
269.1289569999999
 30
0.0
 11
201.958618
 21
271.6504459999999
 31
0.0
  0
LINE
  5
C9E1
330
C838
100
AcDbEntity
  8
1
  6
Continuous
100
AcDbLine
 10
205.076983
 20
269.1289569999999
 30
0.0
 11
207.615472
 21
271.6504459999999
 31
0.0
  0
LINE
  5
C9E2
330
C838
100
AcDbEntity
  8
1
  6
Continuous
100
AcDbLine
 10
207.325534
 20
269.1289569999999
 30
0.0
 11
204.787045
 21
271.6504459999999
 31
0.0
  0
LINE
  5
C9E3
330
C838
100
AcDbEntity
  8
1
  6
Continuous
100
AcDbLine
 10
210.7338369999999
 20
269.1289569999999
 30
0.0
 11
213.2723259999999
 21
271.6504459999999
 31
0.0
  0
LINE
  5
C9E4
330
C838
100
AcDbEntity
  8
1
  6
Continuous
100
AcDbLine
 10
212.982388
 20
269.1289569999999
 30
0.0
 11
210.4438989999999
 21
271.6504459999999
 31
0.0
  0
LINE
  5
C9E5
330
C838
100
AcDbEntity
  8
1
  6
Continuous
100
AcDbLine
 10
216.5031069999999
 20
276.944652
 30
0.0
 11
216.5031069999999
 21
280.4446299999998
 31
0.0
  0
LINE
  5
C9E6
330
C838
100
AcDbEntity
  8
1
  6
Continuous
100
AcDbLine
 10
224.8759729999999
 20
269.1289569999999
 30
0.0
 11
227.4144619999999
 21
271.6504459999999
 31
0.0
  0
LINE
  5
C9E7
330
C838
100
AcDbEntity
  8
1
  6
Continuous
100
AcDbLine
 10
227.124524
 20
269.1289569999999
 30
0.0
 11
224.586035
 21
271.6504459999999
 31
0.0
  0
LINE
  5
C9E8
330
C838
100
AcDbEntity
  8
1
  6
Continuous
100
AcDbLine
 10
216.390692
 20
269.1289569999999
 30
0.0
 11
218.9291799999999
 21
271.6504459999999
 31
0.0
  0
LINE
  5
C9E9
330
C838
100
AcDbEntity
  8
1
  6
Continuous
100
AcDbLine
 10
218.639242
 20
269.1289569999999
 30
0.0
 11
216.1007529999999
 21
271.6504459999999
 31
0.0
  0
LINE
  5
C9EA
330
C838
100
AcDbEntity
  8
1
  6
Continuous
100
AcDbLine
 10
219.2191189999999
 20
269.1289569999999
 30
0.0
 11
221.757608
 21
271.6504459999999
 31
0.0
  0
LINE
  5
C9EB
330
C838
100
AcDbEntity
  8
1
  6
Continuous
100
AcDbLine
 10
221.467669
 20
269.1289569999999
 30
0.0
 11
218.9291799999999
 21
271.6504459999999
 31
0.0
  0
LINE
  5
C9EC
330
C838
100
AcDbEntity
  8
1
  6
Continuous
100
AcDbLine
 10
222.0475459999999
 20
269.1289569999999
 30
0.0
 11
224.586035
 21
271.6504459999999
 31
0.0
  0
LINE
  5
C9ED
330
C838
100
AcDbEntity
  8
1
  6
Continuous
100
AcDbLine
 10
224.296096
 20
269.1289569999999
 30
0.0
 11
221.757608
 21
271.6504459999999
 31
0.0
  0
LINE
  5
C9EE
330
C838
100
AcDbEntity
  8
1
  6
Continuous
100
AcDbLine
 10
227.7044
 20
269.1289569999999
 30
0.0
 11
230.2428889999999
 21
271.6504459999999
 31
0.0
  0
LINE
  5
C9EF
330
C838
100
AcDbEntity
  8
1
  6
Continuous
100
AcDbLine
 10
229.9529509999999
 20
269.1289569999999
 30
0.0
 11
227.4144619999999
 21
271.6504459999999
 31
0.0
  0
ARC
  5
C9F0
330
C838
100
AcDbEntity
  8
1
  6
Continuous
100
AcDbCircle
 10
232.586035
 20
281.9446299999999
 30
0.0
 40
1.5
100
AcDbArc
 50
270.0
 51
0.0
  0
LINE
  5
C9F1
330
C838
100
AcDbEntity
  8
1
  6
Continuous
100
AcDbLine
 10
244.6749629999999
 20
269.1289569999999
 30
0.0
 11
247.213452
 21
271.6504459999999
 31
0.0
  0
ARC
  5
C9F2
330
C838
100
AcDbEntity
  8
1
  6
Continuous
100
AcDbCircle
 10
245.586035
 20
272.944652
 30
0.0
 40
4.0
100
AcDbArc
 50
0.0
 51
90.0
  0
LINE
  5
C9F3
330
C838
100
AcDbEntity
  8
1
  6
Continuous
100
AcDbLine
 10
246.9235129999999
 20
269.1289569999999
 30
0.0
 11
244.385025
 21
271.6504459999999
 31
0.0
  0
LINE
  5
C9F4
330
C838
100
AcDbEntity
  8
1
  6
Continuous
100
AcDbLine
 10
240.7518179999999
 20
276.944652
 30
0.0
 11
240.7518179999999
 21
280.4446299999998
 31
0.0
  0
LINE
  5
C9F5
330
C838
100
AcDbEntity
  8
1
  6
Continuous
100
AcDbLine
 10
232.6689149999999
 20
276.944652
 30
0.0
 11
232.6689149999999
 21
280.4446299999998
 31
0.0
  0
LINE
  5
C9F6
330
C838
100
AcDbEntity
  8
1
  6
Continuous
100
AcDbLine
 10
244.095086
 20
269.1289569999999
 30
0.0
 11
241.556597
 21
271.6504459999999
 31
0.0
  0
LINE
  5
C9F7
330
C838
100
AcDbEntity
  8
1
  6
Continuous
100
AcDbLine
 10
236.189681
 20
269.1289569999999
 30
0.0
 11
238.7281699999999
 21
271.6504459999999
 31
0.0
  0
LINE
  5
C9F8
330
C838
100
AcDbEntity
  8
1
  6
Continuous
100
AcDbLine
 10
238.4382319999999
 20
269.1289569999999
 30
0.0
 11
235.899743
 21
271.6504459999999
 31
0.0
  0
LINE
  5
C9F9
330
C838
100
AcDbEntity
  8
1
  6
Continuous
100
AcDbLine
 10
235.6098049999999
 20
269.1289569999999
 30
0.0
 11
233.071316
 21
271.6504459999999
 31
0.0
  0
LINE
  5
C9FA
330
C838
100
AcDbEntity
  8
1
  6
Continuous
100
AcDbLine
 10
233.361254
 20
269.1289569999999
 30
0.0
 11
235.899743
 21
271.6504459999999
 31
0.0
  0
LINE
  5
C9FB
330
C838
100
AcDbEntity
  8
1
  6
Continuous
100
AcDbLine
 10
239.018109
 20
269.1289569999999
 30
0.0
 11
241.556597
 21
271.6504459999999
 31
0.0
  0
LINE
  5
C9FC
330
C838
100
AcDbEntity
  8
1
  6
Continuous
100
AcDbLine
 10
241.2666589999998
 20
269.1289569999999
 30
0.0
 11
238.7281699999999
 21
271.6504459999999
 31
0.0
  0
LINE
  5
C9FD
330
C838
100
AcDbEntity
  8
1
  6
Continuous
100
AcDbLine
 10
241.8465359999999
 20
269.1289569999999
 30
0.0
 11
244.385025
 21
271.6504459999999
 31
0.0
  0
LINE
  5
C9FE
330
C838
100
AcDbEntity
  8
1
  6
Continuous
100
AcDbLine
 10
251.272135
 20
270.069274
 30
0.0
 11
250.331817
 21
269.1289569999999
 31
0.0
  0
LINE
  5
C9FF
330
C838
100
AcDbEntity
  8
1
  6
Continuous
100
AcDbLine
 10
251.272135
 20
270.4371899999998
 30
0.0
 11
250.0418789999999
 21
271.6504459999999
 31
0.0
  0
LINE
  5
CA00
330
C838
100
AcDbEntity
  8
1
  6
Continuous
100
AcDbLine
 10
251.272135
 20
272.944652
 30
0.0
 11
251.272135
 21
269.1289569999999
 31
0.0
  0
LINE
  5
CA01
330
C838
100
AcDbEntity
  8
1
  6
Continuous
100
AcDbLine
 10
247.50339
 20
269.1289569999999
 30
0.0
 11
250.0418789999999
 21
271.6504459999999
 31
0.0
  0
LINE
  5
CA02
330
C838
100
AcDbEntity
  8
1
  6
Continuous
100
AcDbLine
 10
249.7519409999999
 20
269.1289569999999
 30
0.0
 11
247.213452
 21
271.6504459999999
 31
0.0
  0
LINE
  5
CA03
330
C838
100
AcDbEntity
  8
1
  6
Continuous
100
AcDbLine
 10
215.336035
 20
326.34463
 30
0.0
 11
233.836035
 21
326.34463
 31
0.0
  0
LINE
  5
CA04
330
C838
100
AcDbEntity
  8
1
  6
Continuous
100
AcDbLine
 10
215.336035
 20
329.54463
 30
0.0
 11
233.836035
 21
329.54463
 31
0.0
  0
ARC
  5
CA05
330
C838
100
AcDbEntity
  8
1
  6
Continuous
100
AcDbCircle
 10
216.086035
 20
325.34463
 30
0.0
 40
1.0
100
AcDbArc
 50
90.0
 51
180.0
  0
LINE
  5
CA06
330
C838
100
AcDbEntity
  8
2
  6
Continuous
100
AcDbLine
 10
229.639035
 20
329.54463
 30
0.0
 11
229.639035
 21
329.891606
 31
0.0
  0
LINE
  5
CA07
330
C838
100
AcDbEntity
  8
1
  6
Continuous
100
AcDbLine
 10
229.086011
 20
330.4446299999999
 30
0.0
 11
229.986011
 21
329.54463
 31
0.0
  0
LINE
  5
CA08
330
C838
100
AcDbEntity
  8
1
  6
Continuous
100
AcDbLine
 10
228.565984
 20
329.54463
 30
0.0
 11
228.565984
 21
326.34463
 31
0.0
  0
LINE
  5
CA09
330
C838
100
AcDbEntity
  8
2
  6
Continuous
100
AcDbLine
 10
219.533035
 20
329.54463
 30
0.0
 11
219.533035
 21
329.891654
 31
0.0
  0
LINE
  5
CA0A
330
C838
100
AcDbEntity
  8
1
  6
Continuous
100
AcDbLine
 10
220.606085
 20
329.54463
 30
0.0
 11
220.606085
 21
326.34463
 31
0.0
  0
LINE
  5
CA0B
330
C838
100
AcDbEntity
  8
1
  6
Continuous
100
AcDbLine
 10
215.336035
 20
329.54463
 30
0.0
 11
215.336035
 21
326.34463
 31
0.0
  0
LINE
  5
CA0C
330
C838
100
AcDbEntity
  8
1
  6
Continuous
100
AcDbLine
 10
220.0860109999999
 20
330.4446299999999
 30
0.0
 11
219.1860109999999
 21
329.54463
 31
0.0
  0
LINE
  5
CA0D
330
C838
100
AcDbEntity
  8
1
  6
Continuous
100
AcDbLine
 10
220.0860109999999
 20
330.4446299999999
 30
0.0
 11
229.086011
 21
330.4446299999999
 31
0.0
  0
ARC
  5
CA0E
330
C838
100
AcDbEntity
  8
1
  6
Continuous
100
AcDbCircle
 10
233.086035
 20
325.34463
 30
0.0
 40
1.0
100
AcDbArc
 50
0.0
 51
90.0
  0
LINE
  5
CA0F
330
C838
100
AcDbEntity
  8
1
  6
Continuous
100
AcDbLine
 10
233.836035
 20
329.54463
 30
0.0
 11
233.836035
 21
326.34463
 31
0.0
  0
ARC
  5
CA10
330
C838
100
AcDbEntity
  8
1
  6
Continuous
100
AcDbCircle
 10
315.5090599999998
 20
272.9436519999998
 30
0.0
 40
4.0
100
AcDbArc
 50
90.0
 51
180.0
  0
LINE
  5
CA11
330
C838
100
AcDbEntity
  8
1
  6
Continuous
100
AcDbLine
 10
309.82296
 20
270.43619
 30
0.0
 11
311.053216
 21
271.649446
 31
0.0
  0
LINE
  5
CA12
330
C838
100
AcDbEntity
  8
1
  6
Continuous
100
AcDbLine
 10
309.82296
 20
271.649446
 30
0.0
 11
363.1951599999999
 21
271.649446
 31
0.0
  0
LINE
  5
CA13
330
C838
100
AcDbEntity
  8
1
  6
Continuous
100
AcDbLine
 10
363.1951599999999
 20
272.9436519999998
 30
0.0
 11
309.82296
 21
272.9436519999998
 31
0.0
  0
LINE
  5
CA14
330
C838
100
AcDbEntity
  8
1
  6
Continuous
100
AcDbLine
 10
309.82296
 20
269.1279569999999
 30
0.0
 11
309.82296
 21
272.9436519999998
 31
0.0
  0
LINE
  5
CA15
330
C838
100
AcDbEntity
  8
1
  6
Continuous
100
AcDbLine
 10
310.763277
 20
269.1279569999999
 30
0.0
 11
309.82296
 21
270.0682739999999
 31
0.0
  0
LINE
  5
CA16
330
C838
100
AcDbEntity
  8
1
  6
Continuous
100
AcDbLine
 10
327.0090599999999
 20
281.9436299999999
 30
0.0
 11
327.0090599999999
 21
325.3436299999999
 31
0.0
  0
LINE
  5
CA17
330
C838
100
AcDbEntity
  8
1
  6
Continuous
100
AcDbLine
 10
346.00906
 20
325.3436299999999
 30
0.0
 11
346.00906
 21
281.9436299999999
 31
0.0
  0
LINE
  5
CA18
330
C838
100
AcDbEntity
  8
1
  6
Continuous
100
AcDbLine
 10
342.455852
 20
269.1279569999999
 30
0.0
 11
344.994341
 21
271.649446
 31
0.0
  0
LINE
  5
CA19
330
C838
100
AcDbEntity
  8
1
  6
Continuous
100
AcDbLine
 10
344.7044029999998
 20
269.1279569999999
 30
0.0
 11
342.165914
 21
271.649446
 31
0.0
  0
LINE
  5
CA1A
330
C838
100
AcDbEntity
  8
1
  6
Continuous
100
AcDbLine
 10
315.5090599999998
 20
276.9436519999998
 30
0.0
 11
357.5090599999999
 21
276.9436519999998
 31
0.0
  0
LINE
  5
CA1B
330
C838
100
AcDbEntity
  8
1
  6
Continuous
100
AcDbLine
 10
327.0090599999999
 20
284.3436299999999
 30
0.0
 11
346.00906
 21
284.3436299999999
 31
0.0
  0
LINE
  5
CA1C
330
C838
100
AcDbEntity
  8
1
  6
Continuous
100
AcDbLine
 10
350.509036
 20
280.4436299999999
 30
0.0
 11
322.5090359999999
 21
280.4436299999999
 31
0.0
  0
ARC
  5
CA1D
330
C838
100
AcDbEntity
  8
1
  6
Continuous
100
AcDbCircle
 10
328.5090599999999
 20
281.9436299999999
 30
0.0
 40
1.5
100
AcDbArc
 50
180.0
 51
270.0
  0
LINE
  5
CA1E
330
C838
100
AcDbEntity
  8
1
  6
Continuous
100
AcDbLine
 10
325.485289
 20
269.1279569999999
 30
0.0
 11
328.023778
 21
271.649446
 31
0.0
  0
LINE
  5
CA1F
330
C838
100
AcDbEntity
  8
1
  6
Continuous
100
AcDbLine
 10
327.73384
 20
269.1279569999999
 30
0.0
 11
325.1953509999998
 21
271.649446
 31
0.0
  0
LINE
  5
CA20
330
C838
100
AcDbEntity
  8
1
  6
Continuous
100
AcDbLine
 10
319.828435
 20
269.1279569999999
 30
0.0
 11
322.3669239999999
 21
271.649446
 31
0.0
  0
LINE
  5
CA21
330
C838
100
AcDbEntity
  8
1
  6
Continuous
100
AcDbLine
 10
322.0769859999998
 20
269.1279569999999
 30
0.0
 11
319.538497
 21
271.649446
 31
0.0
  0
LINE
  5
CA22
330
C838
100
AcDbEntity
  8
1
  6
Continuous
100
AcDbLine
 10
311.343154
 20
269.1279569999999
 30
0.0
 11
313.8816429999998
 21
271.649446
 31
0.0
  0
LINE
  5
CA23
330
C838
100
AcDbEntity
  8
1
  6
Continuous
100
AcDbLine
 10
313.5917039999998
 20
269.1279569999999
 30
0.0
 11
311.053216
 21
271.649446
 31
0.0
  0
LINE
  5
CA24
330
C838
100
AcDbEntity
  8
1
  6
Continuous
100
AcDbLine
 10
314.1715809999999
 20
269.1279569999999
 30
0.0
 11
316.7100699999999
 21
271.649446
 31
0.0
  0
LINE
  5
CA25
330
C838
100
AcDbEntity
  8
1
  6
Continuous
100
AcDbLine
 10
316.4201319999999
 20
269.1279569999999
 30
0.0
 11
313.8816429999998
 21
271.649446
 31
0.0
  0
LINE
  5
CA26
330
C838
100
AcDbEntity
  8
1
  6
Continuous
100
AcDbLine
 10
317.0000079999998
 20
269.1279569999999
 30
0.0
 11
319.538497
 21
271.649446
 31
0.0
  0
LINE
  5
CA27
330
C838
100
AcDbEntity
  8
1
  6
Continuous
100
AcDbLine
 10
319.2485589999999
 20
269.1279569999999
 30
0.0
 11
316.7100699999999
 21
271.649446
 31
0.0
  0
LINE
  5
CA28
330
C838
100
AcDbEntity
  8
1
  6
Continuous
100
AcDbLine
 10
322.656862
 20
269.1279569999999
 30
0.0
 11
325.1953509999998
 21
271.649446
 31
0.0
  0
LINE
  5
CA29
330
C838
100
AcDbEntity
  8
1
  6
Continuous
100
AcDbLine
 10
324.905413
 20
269.1279569999999
 30
0.0
 11
322.3669239999999
 21
271.649446
 31
0.0
  0
LINE
  5
CA2A
330
C838
100
AcDbEntity
  8
1
  6
Continuous
100
AcDbLine
 10
336.7989979999999
 20
269.1279569999999
 30
0.0
 11
339.337487
 21
271.649446
 31
0.0
  0
LINE
  5
CA2B
330
C838
100
AcDbEntity
  8
1
  6
Continuous
100
AcDbLine
 10
339.047549
 20
269.1279569999999
 30
0.0
 11
336.5090599999998
 21
271.649446
 31
0.0
  0
LINE
  5
CA2C
330
C838
100
AcDbEntity
  8
1
  6
Continuous
100
AcDbLine
 10
328.3137169999998
 20
269.1279569999999
 30
0.0
 11
330.8522049999999
 21
271.649446
 31
0.0
  0
LINE
  5
CA2D
330
C838
100
AcDbEntity
  8
1
  6
Continuous
100
AcDbLine
 10
330.562267
 20
269.1279569999999
 30
0.0
 11
328.023778
 21
271.649446
 31
0.0
  0
LINE
  5
CA2E
330
C838
100
AcDbEntity
  8
1
  6
Continuous
100
AcDbLine
 10
331.1421439999999
 20
269.1279569999999
 30
0.0
 11
333.6806329999999
 21
271.649446
 31
0.0
  0
LINE
  5
CA2F
330
C838
100
AcDbEntity
  8
1
  6
Continuous
100
AcDbLine
 10
333.3906939999998
 20
269.1279569999999
 30
0.0
 11
330.8522049999999
 21
271.649446
 31
0.0
  0
LINE
  5
CA30
330
C838
100
AcDbEntity
  8
1
  6
Continuous
100
AcDbLine
 10
333.970571
 20
269.1279569999999
 30
0.0
 11
336.5090599999998
 21
271.649446
 31
0.0
  0
LINE
  5
CA31
330
C838
100
AcDbEntity
  8
1
  6
Continuous
100
AcDbLine
 10
336.2191209999999
 20
269.1279569999999
 30
0.0
 11
333.6806329999999
 21
271.649446
 31
0.0
  0
LINE
  5
CA32
330
C838
100
AcDbEntity
  8
1
  6
Continuous
100
AcDbLine
 10
339.627425
 20
269.1279569999999
 30
0.0
 11
342.165914
 21
271.649446
 31
0.0
  0
LINE
  5
CA33
330
C838
100
AcDbEntity
  8
1
  6
Continuous
100
AcDbLine
 10
341.8759759999999
 20
269.1279569999999
 30
0.0
 11
339.337487
 21
271.649446
 31
0.0
  0
ARC
  5
CA34
330
C838
100
AcDbEntity
  8
1
  6
Continuous
100
AcDbCircle
 10
344.5090599999999
 20
281.9436299999999
 30
0.0
 40
1.5
100
AcDbArc
 50
270.0
 51
0.0
  0
LINE
  5
CA35
330
C838
100
AcDbEntity
  8
1
  6
Continuous
100
AcDbLine
 10
356.5979879999999
 20
269.1279569999999
 30
0.0
 11
359.136477
 21
271.649446
 31
0.0
  0
ARC
  5
CA36
330
C838
100
AcDbEntity
  8
1
  6
Continuous
100
AcDbCircle
 10
357.5090599999999
 20
272.9436519999998
 30
0.0
 40
4.0
100
AcDbArc
 50
0.0
 51
90.0
  0
LINE
  5
CA37
330
C838
100
AcDbEntity
  8
1
  6
Continuous
100
AcDbLine
 10
358.846538
 20
269.1279569999999
 30
0.0
 11
356.3080499999998
 21
271.649446
 31
0.0
  0
LINE
  5
CA38
330
C838
100
AcDbEntity
  8
1
  6
Continuous
100
AcDbLine
 10
356.0181109999998
 20
269.1279569999999
 30
0.0
 11
353.479622
 21
271.649446
 31
0.0
  0
LINE
  5
CA39
330
C838
100
AcDbEntity
  8
1
  6
Continuous
100
AcDbLine
 10
348.1127059999999
 20
269.1279569999999
 30
0.0
 11
350.6511949999999
 21
271.649446
 31
0.0
  0
LINE
  5
CA3A
330
C838
100
AcDbEntity
  8
1
  6
Continuous
100
AcDbLine
 10
350.3612569999999
 20
269.1279569999999
 30
0.0
 11
347.8227679999998
 21
271.649446
 31
0.0
  0
LINE
  5
CA3B
330
C838
100
AcDbEntity
  8
1
  6
Continuous
100
AcDbLine
 10
347.53283
 20
269.1279569999999
 30
0.0
 11
344.994341
 21
271.649446
 31
0.0
  0
LINE
  5
CA3C
330
C838
100
AcDbEntity
  8
1
  6
Continuous
100
AcDbLine
 10
345.284279
 20
269.1279569999999
 30
0.0
 11
347.8227679999998
 21
271.649446
 31
0.0
  0
LINE
  5
CA3D
330
C838
100
AcDbEntity
  8
1
  6
Continuous
100
AcDbLine
 10
350.9411339999999
 20
269.1279569999999
 30
0.0
 11
353.479622
 21
271.649446
 31
0.0
  0
LINE
  5
CA3E
330
C838
100
AcDbEntity
  8
1
  6
Continuous
100
AcDbLine
 10
353.1896839999998
 20
269.1279569999999
 30
0.0
 11
350.6511949999999
 21
271.649446
 31
0.0
  0
LINE
  5
CA3F
330
C838
100
AcDbEntity
  8
1
  6
Continuous
100
AcDbLine
 10
353.769561
 20
269.1279569999999
 30
0.0
 11
356.3080499999998
 21
271.649446
 31
0.0
  0
LINE
  5
CA40
330
C838
100
AcDbEntity
  8
1
  6
Continuous
100
AcDbLine
 10
363.1951599999999
 20
270.0682739999999
 30
0.0
 11
362.254842
 21
269.1279569999999
 31
0.0
  0
LINE
  5
CA41
330
C838
100
AcDbEntity
  8
1
  6
Continuous
100
AcDbLine
 10
363.1951599999999
 20
270.43619
 30
0.0
 11
361.964904
 21
271.649446
 31
0.0
  0
LINE
  5
CA42
330
C838
100
AcDbEntity
  8
1
  6
Continuous
100
AcDbLine
 10
363.1951599999999
 20
272.9436519999998
 30
0.0
 11
363.1951599999999
 21
269.1279569999999
 31
0.0
  0
LINE
  5
CA43
330
C838
100
AcDbEntity
  8
1
  6
Continuous
100
AcDbLine
 10
359.4264149999998
 20
269.1279569999999
 30
0.0
 11
361.964904
 21
271.649446
 31
0.0
  0
LINE
  5
CA44
330
C838
100
AcDbEntity
  8
1
  6
Continuous
100
AcDbLine
 10
361.6749659999999
 20
269.1279569999999
 30
0.0
 11
359.136477
 21
271.649446
 31
0.0
  0
LINE
  5
CA45
330
C838
100
AcDbEntity
  8
1
  6
Continuous
100
AcDbLine
 10
328.0090599999998
 20
326.3436299999999
 30
0.0
 11
345.0090599999999
 21
326.3436299999999
 31
0.0
  0
LINE
  5
CA46
330
C838
100
AcDbEntity
  8
1
  6
Continuous
100
AcDbLine
 10
328.15906
 20
329.5436299999999
 30
0.0
 11
344.85906
 21
329.5436299999999
 31
0.0
  0
ARC
  5
CA47
330
C838
100
AcDbEntity
  8
1
  6
Continuous
100
AcDbCircle
 10
328.0090599999998
 20
325.3436299999999
 30
0.0
 40
1.0
100
AcDbArc
 50
90.0
 51
180.0
  0
LINE
  5
CA48
330
C838
100
AcDbEntity
  8
2
  6
Continuous
100
AcDbLine
 10
341.56206
 20
329.5436299999999
 30
0.0
 11
341.56206
 21
329.890606
 31
0.0
  0
LINE
  5
CA49
330
C838
100
AcDbEntity
  8
1
  6
Continuous
100
AcDbLine
 10
341.0090359999998
 20
330.4436299999999
 30
0.0
 11
341.909036
 21
329.5436299999999
 31
0.0
  0
LINE
  5
CA4A
330
C838
100
AcDbEntity
  8
2
  6
Continuous
100
AcDbLine
 10
331.45606
 20
329.5436299999999
 30
0.0
 11
331.45606
 21
329.8906539999999
 31
0.0
  0
LINE
  5
CA4B
330
C838
100
AcDbEntity
  8
1
  6
Continuous
100
AcDbLine
 10
332.009036
 20
330.4436299999999
 30
0.0
 11
331.109036
 21
329.5436299999999
 31
0.0
  0
LINE
  5
CA4C
330
C838
100
AcDbEntity
  8
1
  6
Continuous
100
AcDbLine
 10
332.009036
 20
330.4436299999999
 30
0.0
 11
341.0090359999998
 21
330.4436299999999
 31
0.0
  0
ARC
  5
CA4D
330
C838
100
AcDbEntity
  8
1
  6
Continuous
100
AcDbCircle
 10
345.0090599999999
 20
325.3436299999999
 30
0.0
 40
1.0
100
AcDbArc
 50
0.0
 51
90.0
  0
ARC
  5
CA4E
330
C838
100
AcDbEntity
  8
1
  6
Continuous
100
AcDbCircle
 10
200.605285
 20
44.558239
 30
0.0
 40
11.59999999999999
100
AcDbArc
 50
48.82511199999999
 51
90.0
  0
ARC
  5
CA4F
330
C838
100
AcDbEntity
  8
1
  6
Continuous
100
AcDbCircle
 10
200.605285
 20
44.558239
 30
0.0
 40
9.0
100
AcDbArc
 50
48.82511199999999
 51
90.0
  0
LINE
  5
CA50
330
C838
100
AcDbEntity
  8
1
  6
Continuous
100
AcDbLine
 10
184.5860479999998
 20
435.6218959999998
 30
0.0
 11
184.5860479999998
 21
433.295658
 31
0.0
  0
LINE
  5
CA51
330
C838
100
AcDbEntity
  8
1
  6
Continuous
100
AcDbLine
 10
198.586048
 20
435.6218959999998
 30
0.0
 11
184.5860479999998
 21
435.6218959999998
 31
0.0
  0
ARC
  5
CA52
330
C838
100
AcDbEntity
  8
1
  6
Continuous
100
AcDbCircle
 10
191.586048
 20
427.795658
 30
0.0
 40
10.5
100
AcDbArc
 50
48.189685
 51
131.810315
  0
LINE
  5
CA53
330
C838
100
AcDbEntity
  8
1
  6
Continuous
100
AcDbLine
 10
198.586048
 20
435.6218959999998
 30
0.0
 11
198.586048
 21
433.295658
 31
0.0
  0
LINE
  5
CA54
330
C838
100
AcDbEntity
  8
1
  6
Continuous
100
AcDbLine
 10
36.378102
 20
199.426377
 30
0.0
 11
38.70434
 21
199.426377
 31
0.0
  0
LINE
  5
CA55
330
C838
100
AcDbEntity
  8
1
  6
Continuous
100
AcDbLine
 10
36.378102
 20
213.426377
 30
0.0
 11
38.70434
 21
213.426377
 31
0.0
  0
LINE
  5
CA56
330
C838
100
AcDbEntity
  8
1
  6
Continuous
100
AcDbLine
 10
36.378102
 20
213.426377
 30
0.0
 11
36.378102
 21
199.426377
 31
0.0
  0
ARC
  5
CA57
330
C838
100
AcDbEntity
  8
1
  6
Continuous
100
AcDbCircle
 10
44.20434
 20
206.426377
 30
0.0
 40
10.5
100
AcDbArc
 50
138.1896849999999
 51
221.810315
  0
LINE
  5
CA58
330
C838
100
AcDbEntity
  8
1
  6
Continuous
100
AcDbLine
 10
357.2525069999999
 20
199.4441629999998
 30
0.0
 11
354.9262689999998
 21
199.4441629999998
 31
0.0
  0
LINE
  5
CA59
330
C838
100
AcDbEntity
  8
1
  6
Continuous
100
AcDbLine
 10
357.2525069999999
 20
207.4859319999999
 30
0.0
 11
357.2525069999999
 21
199.4441629999998
 31
0.0
  0
ARC
  5
CA5A
330
C838
100
AcDbEntity
  8
1
  6
Continuous
100
AcDbCircle
 10
349.4262689999998
 20
206.4441629999998
 30
0.0
 40
10.5
100
AcDbArc
 50
318.189685
 51
22.38542199999999
  0
LINE
  5
CA5B
330
C838
100
AcDbEntity
  8
1
  6
Continuous
100
AcDbLine
 10
198.586035
 20
51.232001
 30
0.0
 11
198.586035
 21
53.558239
 31
0.0
  0
LINE
  5
CA5C
330
C838
100
AcDbEntity
  8
1
  6
Continuous
100
AcDbLine
 10
184.586035
 20
51.232001
 30
0.0
 11
184.586035
 21
53.558239
 31
0.0
  0
LINE
  5
CA5D
330
C838
100
AcDbEntity
  8
1
  6
Continuous
100
AcDbLine
 10
198.586035
 20
51.232001
 30
0.0
 11
184.586035
 21
51.232001
 31
0.0
  0
ARC
  5
CA5E
330
C838
100
AcDbEntity
  8
1
  6
Continuous
100
AcDbCircle
 10
191.586035
 20
59.058239
 30
0.0
 40
10.5
100
AcDbArc
 50
228.1896849999998
 51
311.810315
  0
ARC
  5
CA5F
330
C838
100
AcDbEntity
  8
1
  6
Continuous
100
AcDbCircle
 10
200.1175179999999
 20
389.878449
 30
0.0
 40
5.0
100
AcDbArc
 50
39.75275299999999
 51
90.00000300000001
  0
ARC
  5
CA60
330
C838
100
AcDbEntity
  8
1
  6
Continuous
100
AcDbCircle
 10
200.117511
 20
389.878439
 30
0.0
 40
2.7
100
AcDbArc
 50
39.752743
 51
90.00000300000001
  0
ARC
  5
CA61
330
C838
100
AcDbEntity
  8
1
  6
Continuous
100
AcDbCircle
 10
216.7937959999999
 20
407.7837689999998
 30
0.0
 40
25.29999899999999
100
AcDbArc
 50
221.321944
 51
265.0416799999998
  0
LINE
  5
CA62
330
C838
100
AcDbEntity
  8
1
  6
Continuous
100
AcDbLine
 10
200.6220349999999
 20
394.8784489999999
 30
0.0
 11
188.6021149999999
 21
394.8784489999999
 31
0.0
  0
LINE
  5
CA63
330
C838
100
AcDbEntity
  8
1
  6
Continuous
100
AcDbLine
 10
191.450712
 20
399.0784489999999
 30
0.0
 11
137.2977349999999
 21
399.0784489999999
 31
0.0
  0
LINE
  5
CA64
330
C838
100
AcDbEntity
  8
1
  6
Continuous
100
AcDbLine
 10
191.2984769999999
 20
399.5784489999999
 30
0.0
 11
137.2977349999999
 21
399.5784489999999
 31
0.0
  0
ARC
  5
CA65
330
C838
100
AcDbEntity
  8
1
  6
Continuous
100
AcDbCircle
 10
195.267074
 20
96.97546500000001
 30
0.0
 40
5.0
100
AcDbArc
 50
270.0
 51
320.24725
  0
ARC
  5
CA66
330
C838
100
AcDbEntity
  8
1
  6
Continuous
100
AcDbCircle
 10
195.267074
 20
96.97546500000001
 30
0.0
 40
2.7
100
AcDbArc
 50
270.0
 51
320.24725
  0
ARC
  5
CA67
330
C838
100
AcDbEntity
  8
1
  6
Continuous
100
AcDbCircle
 10
216.793784
 20
79.07014499999998
 30
0.0
 40
25.29999899999999
100
AcDbArc
 50
92.15195600000004
 51
139.9947899999999
  0
LINE
  5
CA68
330
C838
100
AcDbEntity
  8
1
  6
Continuous
100
AcDbLine
 10
180.828673
 20
90.89266499999999
 30
0.0
 11
199.960982
 21
90.89266499999999
 31
0.0
  0
LINE
  5
CA69
330
C838
100
AcDbEntity
  8
1
  6
Continuous
100
AcDbLine
 10
245.562241
 20
87.77546499999997
 30
0.0
 11
137.297718
 21
87.77546499999997
 31
0.0
  0
LINE
  5
CA6A
330
C838
100
AcDbEntity
  8
1
  6
Continuous
100
AcDbLine
 10
245.562241
 20
87.27546499999998
 30
0.0
 11
137.297718
 21
87.27546499999998
 31
0.0
  0
LINE
  5
CA6B
330
C838
100
AcDbEntity
  8
1
  6
Continuous
100
AcDbLine
 10
200.6220229999999
 20
91.97546499999999
 30
0.0
 11
156.3299639999998
 21
91.97546499999999
 31
0.0
  0
LINE
  5
CA6C
330
C838
100
AcDbEntity
  8
1
  6
Continuous
100
AcDbLine
 10
89.51624800000002
 20
184.3296569999999
 30
0.0
 11
89.51624800000002
 21
203.968477
 31
0.0
  0
ARC
  5
CA6D
330
C838
100
AcDbEntity
  8
1
  6
Continuous
100
AcDbCircle
 10
74.056853
 20
198.3331969999999
 30
0.0
 40
7.487911
100
AcDbArc
 50
275.229115
 51
84.77087
  0
LINE
  5
CA6E
330
C838
100
AcDbEntity
  8
1
  6
Continuous
100
AcDbLine
 10
72.42156899999997
 20
185.8209869999998
 30
0.0
 11
72.42156899999997
 21
222.991117
 31
0.0
  0
LINE
  5
CA6F
330
C838
100
AcDbEntity
  8
1
  6
Continuous
100
AcDbLine
 10
72.92156899999998
 20
185.8209869999998
 30
0.0
 11
72.92156899999998
 21
222.991117
 31
0.0
  0
LINE
  5
CA70
330
C838
100
AcDbEntity
  8
1
  6
Continuous
100
AcDbLine
 10
72.42156899999997
 20
185.8209869999998
 30
0.0
 11
72.92156899999998
 21
185.8209869999998
 31
0.0
  0
ARC
  5
CA71
330
C838
100
AcDbEntity
  8
1
  6
Continuous
100
AcDbCircle
 10
74.92156899999997
 20
188.8847669999999
 30
0.0
 40
2.0
100
AcDbArc
 50
95.22910999999997
 51
180.00001
  0
ARC
  5
CA72
330
C838
100
AcDbEntity
  8
1
  6
Continuous
100
AcDbCircle
 10
69.562011
 20
137.9998669999999
 30
0.0
 40
51.62864299999998
100
AcDbArc
 50
68.44682
 51
77.22386
  0
LINE
  5
CA73
330
C838
100
AcDbEntity
  8
1
  6
Continuous
100
AcDbLine
 10
77.121566
 20
184.3296569999999
 30
0.0
 11
77.121566
 21
191.5011969999999
 31
0.0
  0
ARC
  5
CA74
330
C838
100
AcDbEntity
  8
1
  6
Continuous
100
AcDbCircle
 10
81.42156899999998
 20
190.3007569999998
 30
0.0
 40
2.0
100
AcDbArc
 50
180.0
 51
257.2238599999999
  0
ARC
  5
CA75
330
C838
100
AcDbEntity
  8
1
  6
Continuous
100
AcDbCircle
 10
82.12156400000003
 20
192.533057
 30
0.0
 40
5.0
100
AcDbArc
 50
191.3836599999999
 51
254.6875700000001
  0
LINE
  5
CA76
330
C838
100
AcDbEntity
  8
1
  6
Continuous
100
AcDbLine
 10
79.42156899999997
 20
190.3007569999998
 30
0.0
 11
79.42156899999997
 21
193.109347
 31
0.0
  0
ARC
  5
CA77
330
C838
100
AcDbEntity
  8
1
  6
Continuous
100
AcDbCircle
 10
85.98565399999998
 20
184.566397
 30
0.0
 40
1.230588
100
AcDbArc
 50
348.908329
 51
66.19688
  0
ARC
  5
CA78
330
C838
100
AcDbEntity
  8
1
  6
Continuous
100
AcDbCircle
 10
70.047332
 20
148.434707
 30
0.0
 40
40.721458
100
AcDbArc
 50
66.19688
 51
74.68756999999998
  0
LINE
  5
CA79
330
C838
100
AcDbEntity
  8
1
  6
Continuous
100
AcDbLine
 10
77.121566
 20
184.3296569999999
 30
0.0
 11
89.49819699999997
 21
184.3296569999999
 31
0.0
  0
ARC
  5
CA7A
330
C838
100
AcDbEntity
  8
1
  6
Continuous
100
AcDbCircle
 10
87.95498399999997
 20
184.566397
 30
0.0
 40
1.561261999999999
100
AcDbArc
 50
351.278397
 51
68.44682
  0
ARC
  5
CA7B
330
C838
100
AcDbEntity
  8
1
  6
Continuous
100
AcDbCircle
 10
173.216225
 20
101.975475
 30
0.0
 40
10.0
100
AcDbArc
 50
243.7583499999998
 51
270.0
  0
LINE
  5
CA7C
330
C838
100
AcDbEntity
  8
1
  6
Continuous
100
AcDbLine
 10
140.741398
 20
91.97546499999999
 30
0.0
 11
140.741398
 21
94.275465
 31
0.0
  0
ARC
  5
CA7D
330
C838
100
AcDbEntity
  8
1
  6
Continuous
100
AcDbCircle
 10
151.624169
 20
86.581095
 30
0.0
 40
10.484208
100
AcDbArc
 50
79.970054
 51
149.0344399999998
  0
ARC
  5
CA7E
330
C838
100
AcDbEntity
  8
1
  6
Continuous
100
AcDbCircle
 10
149.497963
 20
88.91075500000004
 30
0.0
 40
7.487911
100
AcDbArc
 50
5.229133
 51
174.77087
  0
LINE
  5
CA7F
330
C838
100
AcDbEntity
  8
1
  6
Continuous
100
AcDbLine
 10
142.6659589999999
 20
91.97546499999999
 30
0.0
 11
140.741398
 21
91.97546499999999
 31
0.0
  0
ARC
  5
CA80
330
C838
100
AcDbEntity
  8
1
  6
Continuous
100
AcDbCircle
 10
140.0495339999999
 20
89.77546499999998
 30
0.0
 40
2.0
100
AcDbArc
 50
270.0
 51
354.77087
  0
LINE
  5
CA81
330
C838
100
AcDbEntity
  8
1
  6
Continuous
100
AcDbLine
 10
137.297718
 20
87.27546499999998
 30
0.0
 11
137.297718
 21
87.77546499999997
 31
0.0
  0
ARC
  5
CA82
330
C838
100
AcDbEntity
  8
1
  6
Continuous
100
AcDbCircle
 10
158.9463889999999
 20
89.77546499999998
 30
0.0
 40
2.0
100
AcDbArc
 50
185.22913
 51
270.0
  0
ARC
  5
CA83
330
C838
100
AcDbEntity
  8
1
  6
Continuous
100
AcDbCircle
 10
180.828673
 20
87.89266500000001
 30
0.0
 40
3.0
100
AcDbArc
 50
90.00000300000001
 51
135.0
  0
ARC
  5
CA84
330
C838
100
AcDbEntity
  8
1
  6
Continuous
100
AcDbCircle
 10
174.3977659999999
 20
92.77546499999999
 30
0.0
 40
5.0
100
AcDbArc
 50
270.0
 51
315.0
  0
LINE
  5
CA85
330
C838
100
AcDbEntity
  8
1
  6
Continuous
100
AcDbLine
 10
177.933298
 20
89.23994499999997
 30
0.0
 11
178.707354
 21
90.01400499999999
 31
0.0
  0
ARC
  5
CA86
330
C838
100
AcDbEntity
  8
1
  6
Continuous
100
AcDbCircle
 10
153.450386
 20
55.256535
 30
0.0
 40
42.67852
100
AcDbArc
 50
66.09976999999999
 51
90.00000300000001
  0
ARC
  5
CA87
330
C838
100
AcDbEntity
  8
1
  6
Continuous
100
AcDbCircle
 10
151.9386979999999
 20
58.81304499999998
 30
0.0
 40
38.122002
100
AcDbArc
 50
63.75835400000001
 51
87.72739399999997
  0
ARC
  5
CA88
330
C838
100
AcDbEntity
  8
1
  6
Continuous
100
AcDbCircle
 10
152.1335829999999
 20
108.881625
 30
0.0
 40
10.19384799999998
100
AcDbArc
 50
0.0
 51
180.00001
  0
ARC
  5
CA89
330
C838
100
AcDbEntity
  8
1
  6
Continuous
100
AcDbCircle
 10
152.1335829999999
 20
108.881625
 30
0.0
 40
10.19384799999998
100
AcDbArc
 50
0.0
 51
180.00001
  0
ARC
  5
CA8A
330
C838
100
AcDbEntity
  8
1
  6
Continuous
100
AcDbCircle
 10
152.6533589999999
 20
108.881625
 30
0.0
 40
10.19384799999998
100
AcDbArc
 50
0.0
 51
91.46089100000001
  0
ARC
  5
CA8B
330
C838
100
AcDbEntity
  8
1
  6
Continuous
100
AcDbCircle
 10
153.450386
 20
80.12121500000002
 30
0.0
 40
17.81383299999999
100
AcDbArc
 50
90.00000300000001
 51
127.3858
  0
LINE
  5
CA8C
330
C838
100
AcDbEntity
  8
1
  6
Continuous
100
AcDbLine
 10
141.9397319999999
 20
94.275465
 30
0.0
 11
141.9397319999999
 21
108.881625
 31
0.0
  0
LINE
  5
CA8D
330
C838
100
AcDbEntity
  8
1
  6
Continuous
100
AcDbLine
 10
142.634205
 20
94.275465
 30
0.0
 11
140.741398
 21
94.275465
 31
0.0
  0
LINE
  5
CA8E
330
C838
100
AcDbEntity
  8
1
  6
Continuous
100
AcDbLine
 10
162.327431
 20
97.00164499999999
 30
0.0
 11
162.327431
 21
108.881625
 31
0.0
  0
LINE
  5
CA8F
330
C838
100
AcDbEntity
  8
1
  6
Continuous
100
AcDbLine
 10
162.8472059999998
 20
96.887725
 30
0.0
 11
162.8472059999998
 21
108.881625
 31
0.0
  0
LINE
  5
CA90
330
C838
100
AcDbEntity
  8
1
  6
Continuous
100
AcDbLine
 10
195.267074
 20
94.275465
 30
0.0
 11
170.7413939999999
 21
94.275465
 31
0.0
  0
LINE
  5
CA91
330
C838
100
AcDbEntity
  8
1
  6
Continuous
100
AcDbLine
 10
82.12156400000003
 20
228.9812069999999
 30
0.0
 11
93.72156999999999
 21
228.9812069999999
 31
0.0
  0
LINE
  5
CA92
330
C838
100
AcDbEntity
  8
1
  6
Continuous
100
AcDbLine
 10
81.42156899999998
 20
226.754947
 30
0.0
 11
93.72156999999999
 21
226.754947
 31
0.0
  0
LINE
  5
CA93
330
C838
100
AcDbEntity
  8
1
  6
Continuous
100
AcDbLine
 10
81.42156899999998
 20
221.464437
 30
0.0
 11
93.72156999999999
 21
221.464437
 31
0.0
  0
LINE
  5
CA94
330
C838
100
AcDbEntity
  8
1
  6
Continuous
100
AcDbLine
 10
89.51624800000002
 20
200.649677
 30
0.0
 11
95.63200100000001
 21
200.649677
 31
0.0
  0
LINE
  5
CA95
330
C838
100
AcDbEntity
  8
1
  6
Continuous
100
AcDbLine
 10
87.417966
 20
208.176847
 30
0.0
 11
95.63200100000001
 21
208.176847
 31
0.0
  0
LINE
  5
CA96
330
C838
100
AcDbEntity
  8
1
  6
Continuous
100
AcDbLine
 10
89.103086
 20
205.958677
 30
0.0
 11
95.63200100000001
 21
205.958677
 31
0.0
  0
ARC
  5
CA97
330
C838
100
AcDbEntity
  8
1
  6
Continuous
100
AcDbCircle
 10
81.42156899999998
 20
217.426197
 30
0.0
 40
2.0
100
AcDbArc
 50
180.0
 51
223.40908
  0
ARC
  5
CA98
330
C838
100
AcDbEntity
  8
1
  6
Continuous
100
AcDbCircle
 10
74.056853
 20
210.2413169999999
 30
0.0
 40
7.487911
100
AcDbArc
 50
65.83988000000001
 51
84.77087
  0
ARC
  5
CA99
330
C838
100
AcDbEntity
  8
1
  6
Continuous
100
AcDbCircle
 10
74.92156899999997
 20
219.689747
 30
0.0
 40
2.0
100
AcDbArc
 50
180.00001
 51
264.7708699999999
  0
LINE
  5
CA9A
330
C838
100
AcDbEntity
  8
1
  6
Continuous
100
AcDbLine
 10
77.121566
 20
205.165207
 30
0.0
 11
77.121566
 21
226.728187
 31
0.0
  0
LINE
  5
CA9B
330
C838
100
AcDbEntity
  8
1
  6
Continuous
100
AcDbLine
 10
79.42156899999997
 20
209.2742669999999
 30
0.0
 11
79.42156899999997
 21
224.7549269999999
 31
0.0
  0
ARC
  5
CA9C
330
C838
100
AcDbEntity
  8
1
  6
Continuous
100
AcDbCircle
 10
74.92156899999997
 20
207.7816169999999
 30
0.0
 40
2.0
100
AcDbArc
 50
180.00001
 51
264.7708699999999
  0
LINE
  5
CA9D
330
C838
100
AcDbEntity
  8
1
  6
Continuous
100
AcDbLine
 10
89.42156700000003
 20
205.958677
 30
0.0
 11
89.42156700000003
 21
208.176847
 31
0.0
  0
ARC
  5
CA9E
330
C838
100
AcDbEntity
  8
1
  6
Continuous
100
AcDbCircle
 10
79.08607399999998
 20
204.758757
 30
0.0
 40
2.0
100
AcDbArc
 50
0.000003
 51
52.70184
  0
ARC
  5
CA9F
330
C838
100
AcDbEntity
  8
1
  6
Continuous
100
AcDbCircle
 10
81.041976
 20
205.7381969999999
 30
0.0
 40
2.0
100
AcDbArc
 50
6.111539999999997
 51
48.45631
  0
LINE
  5
CAA0
330
C838
100
AcDbEntity
  8
1
  6
Continuous
100
AcDbLine
 10
77.121566
 20
214.786687
 30
0.0
 11
79.42156899999997
 21
214.786687
 31
0.0
  0
LINE
  5
CAA1
330
C838
100
AcDbEntity
  8
1
  6
Continuous
100
AcDbLine
 10
77.121566
 20
214.786687
 30
0.0
 11
79.42156899999997
 21
214.786687
 31
0.0
  0
ARC
  5
CAA2
330
C838
100
AcDbEntity
  8
1
  6
Continuous
100
AcDbCircle
 10
72.42048599999998
 20
196.008337
 30
0.0
 40
15.0
100
AcDbArc
 50
48.45631
 51
62.17719999999999
  0
ARC
  5
CAA3
330
C838
100
AcDbEntity
  8
1
  6
Continuous
100
AcDbCircle
 10
72.42048599999998
 20
196.008337
 30
0.0
 40
13.0
100
AcDbArc
 50
52.70184
 51
68.8002
  0
ARC
  5
CAA4
330
C838
100
AcDbEntity
  8
1
  6
Continuous
100
AcDbCircle
 10
73.08744699999998
 20
204.886477
 30
0.0
 40
10.0
100
AcDbArc
 50
326.90039
 51
6.111539999999997
  0
ARC
  5
CAA5
330
C838
100
AcDbEntity
  8
1
  6
Continuous
100
AcDbCircle
 10
73.08744699999998
 20
204.886477
 30
0.0
 40
8.0
100
AcDbArc
 50
339.1486919999999
 51
358.7803149999999
  0
ARC
  5
CAA6
330
C838
100
AcDbEntity
  8
1
  6
Continuous
100
AcDbCircle
 10
84.51624800000002
 20
203.968477
 30
0.0
 40
5.0
100
AcDbArc
 50
0.000003
 51
43.40908999999999
  0
LINE
  5
CAA7
330
C838
100
AcDbEntity
  8
1
  6
Continuous
100
AcDbLine
 10
79.96863999999998
 20
216.051787
 30
0.0
 11
82.52007199999999
 21
213.3545799999999
 31
0.0
  0
LINE
  5
CAA8
330
C838
100
AcDbEntity
  8
1
  6
Continuous
100
AcDbLine
 10
74.52155999999998
 20
228.728187
 30
0.0
 11
77.42156899999997
 21
228.728187
 31
0.0
  0
LINE
  5
CAA9
330
C838
100
AcDbEntity
  8
1
  6
Continuous
100
AcDbLine
 10
74.52155999999998
 20
226.728187
 30
0.0
 11
77.121566
 21
226.728187
 31
0.0
  0
ARC
  5
CAAA
330
C838
100
AcDbEntity
  8
1
  6
Continuous
100
AcDbCircle
 10
82.12156400000003
 20
223.9812069999999
 30
0.0
 40
5.0
100
AcDbArc
 50
90.00001000000002
 51
180.0
  0
LINE
  5
CAAB
330
C838
100
AcDbEntity
  8
1
  6
Continuous
100
AcDbLine
 10
74.52155999999998
 20
226.728187
 30
0.0
 11
74.52155999999998
 21
228.728187
 31
0.0
  0
LINE
  5
CAAC
330
C838
100
AcDbEntity
  8
1
  6
Continuous
100
AcDbLine
 10
72.42156899999997
 20
222.991117
 30
0.0
 11
72.92156899999998
 21
222.991117
 31
0.0
  0
ARC
  5
CAAD
330
C838
100
AcDbEntity
  8
1
  6
Continuous
100
AcDbCircle
 10
81.42156899999998
 20
224.7549269999999
 30
0.0
 40
2.0
100
AcDbArc
 50
90.00001000000002
 51
180.0
  0
ARC
  5
CAAE
330
C838
100
AcDbEntity
  8
1
  6
Continuous
100
AcDbCircle
 10
77.42156899999997
 20
226.728187
 30
0.0
 40
2.0
100
AcDbArc
 50
36.33068999999999
 51
90.00001000000002
  0
ARC
  5
CAAF
330
C838
100
AcDbEntity
  8
1
  6
Continuous
100
AcDbCircle
 10
81.42156899999998
 20
219.464437
 30
0.0
 40
2.0
100
AcDbArc
 50
90.00001000000002
 51
180.0
  0
LINE
  5
CAB0
330
C838
100
AcDbEntity
  8
1
  6
Continuous
100
AcDbLine
 10
106.1320009999999
 20
205.5222969999999
 30
0.0
 11
106.1320009999999
 21
203.304187
 31
0.0
  0
ARC
  5
CAB1
330
C838
100
AcDbEntity
  8
1
  6
Continuous
100
AcDbCircle
 10
95.63200100000001
 20
167.8608069999999
 30
0.0
 40
38.097919
100
AcDbArc
 50
75.81209
 51
90.00001000000002
  0
ARC
  5
CAB2
330
C838
100
AcDbEntity
  8
1
  6
Continuous
100
AcDbCircle
 10
95.63200100000001
 20
170.078937
 30
0.0
 40
38.097919
100
AcDbArc
 50
75.81209
 51
90.00001000000002
  0
ARC
  5
CAB3
330
C838
100
AcDbEntity
  8
1
  6
Continuous
100
AcDbCircle
 10
95.63200100000001
 20
238.7475269999999
 30
0.0
 40
38.097919
100
AcDbArc
 50
270.0
 51
284.187905
  0
ARC
  5
CAB4
330
C838
100
AcDbEntity
  8
1
  6
Continuous
100
AcDbCircle
 10
104.5925879999999
 20
205.5222969999999
 30
0.0
 40
1.539409999999999
100
AcDbArc
 50
0.000003
 51
75.81209
  0
ARC
  5
CAB5
330
C838
100
AcDbEntity
  8
1
  6
Continuous
100
AcDbCircle
 10
104.5925879999999
 20
203.304187
 30
0.0
 40
1.539409999999999
100
AcDbArc
 50
284.187905
 51
75.81209
  0
ARC
  5
CAB6
330
C838
100
AcDbEntity
  8
1
  6
Continuous
100
AcDbCircle
 10
93.72156999999999
 20
259.702637
 30
0.0
 40
38.238205
100
AcDbArc
 50
270.0
 51
284.140197
  0
LINE
  5
CAB7
330
C838
100
AcDbEntity
  8
1
  6
Continuous
100
AcDbLine
 10
104.22157
 20
226.3359369999998
 30
0.0
 11
104.22157
 21
224.109687
 31
0.0
  0
LINE
  5
CAB8
330
C838
100
AcDbEntity
  8
1
  6
Continuous
100
AcDbLine
 10
104.22157
 20
226.3359369999998
 30
0.0
 11
104.22157
 21
224.109687
 31
0.0
  0
ARC
  5
CAB9
330
C838
100
AcDbEntity
  8
1
  6
Continuous
100
AcDbCircle
 10
102.6884589999999
 20
226.3359369999998
 30
0.0
 40
1.533117999999999
100
AcDbArc
 50
0.000003
 51
75.85980999999998
  0
ARC
  5
CABA
330
C838
100
AcDbEntity
  8
1
  6
Continuous
100
AcDbCircle
 10
102.6884589999999
 20
224.109687
 30
0.0
 40
1.533117999999999
100
AcDbArc
 50
284.140197
 51
75.85980999999998
  0
ARC
  5
CABB
330
C838
100
AcDbEntity
  8
1
  6
Continuous
100
AcDbCircle
 10
93.72156999999999
 20
190.742997
 30
0.0
 40
38.238205
100
AcDbArc
 50
75.85980999999998
 51
90.00001000000002
  0
ARC
  5
CABC
330
C838
100
AcDbEntity
  8
1
  6
Continuous
100
AcDbCircle
 10
93.72156999999999
 20
188.516727
 30
0.0
 40
38.238205
100
AcDbArc
 50
75.85980999999998
 51
90.00001000000002
  0
LINE
  5
CABD
330
C838
100
AcDbEntity
  8
1
  6
Continuous
100
AcDbLine
 10
141.939749
 20
392.5784489999998
 30
0.0
 11
141.939749
 21
377.9722889999999
 31
0.0
  0
LINE
  5
CABE
330
C838
100
AcDbEntity
  8
1
  6
Continuous
100
AcDbLine
 10
142.4595239999999
 20
391.0784489999999
 30
0.0
 11
142.4595239999999
 21
377.9722889999999
 31
0.0
  0
LINE
  5
CABF
330
C838
100
AcDbEntity
  8
1
  6
Continuous
100
AcDbLine
 10
162.8472149999998
 20
390.5784489999999
 30
0.0
 11
162.8472149999998
 21
377.9722889999999
 31
0.0
  0
ARC
  5
CAC0
330
C838
100
AcDbEntity
  8
1
  6
Continuous
100
AcDbCircle
 10
152.653368
 20
377.9722889999999
 30
0.0
 40
10.19384799999998
100
AcDbArc
 50
268.5391099999999
 51
0.0
  0
ARC
  5
CAC1
330
C838
100
AcDbEntity
  8
1
  6
Continuous
100
AcDbCircle
 10
152.133592
 20
377.9722889999999
 30
0.0
 40
10.19384799999998
100
AcDbArc
 50
179.9999899999999
 51
271.4608999999999
  0
ARC
  5
CAC2
330
C838
100
AcDbEntity
  8
1
  6
Continuous
100
AcDbCircle
 10
152.653368
 20
377.9722889999999
 30
0.0
 40
10.19384799999998
100
AcDbArc
 50
179.9999899999999
 51
0.00001
  0
LINE
  5
CAC3
330
C838
100
AcDbEntity
  8
1
  6
Continuous
100
AcDbLine
 10
200.117511
 20
392.5784489999998
 30
0.0
 11
164.8472149999998
 21
392.5784489999998
 31
0.0
  0
LINE
  5
CAC4
330
C838
100
AcDbEntity
  8
1
  6
Continuous
100
AcDbLine
 10
183.0514329999998
 20
394.8784489999999
 30
0.0
 11
140.7414149999999
 21
394.8784489999999
 31
0.0
  0
ARC
  5
CAC5
330
C838
100
AcDbEntity
  8
1
  6
Continuous
100
AcDbCircle
 10
153.4503949999999
 20
431.597379
 30
0.0
 40
42.67852
100
AcDbArc
 50
282.7194099999999
 51
293.9002299999998
  0
ARC
  5
CAC6
330
C838
100
AcDbEntity
  8
1
  6
Continuous
100
AcDbCircle
 10
149.497972
 20
397.9431589999999
 30
0.0
 40
7.487911
100
AcDbArc
 50
185.22913
 51
204.16012
  0
ARC
  5
CAC7
330
C838
100
AcDbEntity
  8
1
  6
Continuous
100
AcDbCircle
 10
140.9595239999999
 20
391.0784489999999
 30
0.0
 40
1.5
100
AcDbArc
 50
0.0
 51
90.00000300000001
  0
LINE
  5
CAC8
330
C838
100
AcDbEntity
  8
1
  6
Continuous
100
AcDbLine
 10
140.9595239999999
 20
392.5784489999998
 30
0.0
 11
140.7414149999999
 21
392.5784489999998
 31
0.0
  0
LINE
  5
CAC9
330
C838
100
AcDbEntity
  8
1
  6
Continuous
100
AcDbLine
 10
140.7414149999999
 20
394.8784489999999
 30
0.0
 11
140.7414149999999
 21
392.5784489999998
 31
0.0
  0
ARC
  5
CACA
330
C838
100
AcDbEntity
  8
1
  6
Continuous
100
AcDbCircle
 10
140.049551
 20
397.0784489999999
 30
0.0
 40
2.0
100
AcDbArc
 50
5.229133
 51
90.00000300000001
  0
LINE
  5
CACB
330
C838
100
AcDbEntity
  8
1
  6
Continuous
100
AcDbLine
 10
137.2977349999999
 20
399.5784489999999
 30
0.0
 11
137.2977349999999
 21
399.0784489999999
 31
0.0
  0
ARC
  5
CACC
330
C838
100
AcDbEntity
  8
1
  6
Continuous
100
AcDbCircle
 10
149.497972
 20
397.9431589999999
 30
0.0
 40
7.487911
100
AcDbArc
 50
335.8398799999998
 51
354.77087
  0
ARC
  5
CACD
330
C838
100
AcDbEntity
  8
1
  6
Continuous
100
AcDbCircle
 10
164.8472149999998
 20
390.5784489999999
 30
0.0
 40
2.0
100
AcDbArc
 50
90.00000300000001
 51
180.00001
  0
ARC
  5
CACE
330
C838
100
AcDbEntity
  8
1
  6
Continuous
100
AcDbCircle
 10
158.9463979999998
 20
397.0784489999999
 30
0.0
 40
2.0
100
AcDbArc
 50
90.00000300000001
 51
174.77087
  0
LINE
  5
CACF
330
C838
100
AcDbEntity
  8
1
  6
Continuous
100
AcDbLine
 10
183.05143
 20
394.8784489999999
 30
0.0
 11
184.9444939999999
 21
397.1231389999999
 31
0.0
  0
LINE
  5
CAD0
330
C838
100
AcDbEntity
  8
1
  6
Continuous
100
AcDbLine
 10
185.3219219999998
 20
396.9401889999998
 30
0.0
 11
183.6118139999999
 21
393.654969
 31
0.0
  0
ARC
  5
CAD1
330
C838
100
AcDbEntity
  8
1
  6
Continuous
100
AcDbCircle
 10
181.83778
 20
394.5784489999999
 30
0.0
 40
2.0
100
AcDbArc
 50
270.0
 51
332.5008899999999
  0
LINE
  5
CAD2
330
C838
100
AcDbEntity
  8
1
  6
Continuous
100
AcDbLine
 10
177.9333059999999
 20
397.613989
 30
0.0
 11
178.7073689999998
 21
396.8399189999999
 31
0.0
  0
ARC
  5
CAD3
330
C838
100
AcDbEntity
  8
1
  6
Continuous
100
AcDbCircle
 10
180.828686
 20
398.961229
 30
0.0
 40
3.0
100
AcDbArc
 50
225.0
 51
270.0
  0
ARC
  5
CAD4
330
C838
100
AcDbEntity
  8
1
  6
Continuous
100
AcDbCircle
 10
174.3977749999999
 20
394.078449
 30
0.0
 40
5.0
100
AcDbArc
 50
45.00000099999999
 51
90.00000300000001
  0
LINE
  5
CAD5
330
C838
100
AcDbEntity
  8
1
  6
Continuous
100
AcDbLine
 10
180.828686
 20
395.9612289999999
 30
0.0
 11
183.9646109999999
 21
395.9612289999999
 31
0.0
  0
ARC
  5
CAD6
330
C838
100
AcDbEntity
  8
1
  6
Continuous
100
AcDbCircle
 10
187.6021149999999
 20
396.4784389999999
 30
0.0
 40
1.0
100
AcDbArc
 50
0.0
 51
90.00000300000001
  0
ARC
  5
CAD7
330
C838
100
AcDbEntity
  8
1
  6
Continuous
100
AcDbCircle
 10
186.2089419999998
 20
396.4784389999999
 30
0.0
 40
1.0
100
AcDbArc
 50
90.00000300000001
 51
152.5009
  0
ARC
  5
CAD8
330
C838
100
AcDbEntity
  8
1
  6
Continuous
100
AcDbCircle
 10
185.7089419999999
 20
396.4784389999999
 30
0.0
 40
1.0
100
AcDbArc
 50
90.00000300000001
 51
152.5009
  0
LINE
  5
CAD9
330
C838
100
AcDbEntity
  8
1
  6
Continuous
100
AcDbLine
 10
187.6021149999999
 20
397.4784389999999
 30
0.0
 11
185.7089419999999
 21
397.4784389999999
 31
0.0
  0
ARC
  5
CADA
330
C838
100
AcDbEntity
  8
1
  6
Continuous
100
AcDbCircle
 10
189.6021149999999
 20
393.5784489999999
 30
0.0
 40
1.0
100
AcDbArc
 50
179.9999899999999
 51
270.0
  0
LINE
  5
CADB
330
C838
100
AcDbEntity
  8
1
  6
Continuous
100
AcDbLine
 10
188.6021149999999
 20
396.4784389999999
 30
0.0
 11
188.6021149999999
 21
393.5784489999999
 31
0.0
  0
LINE
  5
CADC
330
C838
100
AcDbEntity
  8
1
  6
Continuous
100
AcDbLine
 10
316.5090599999999
 20
188.957043
 30
0.0
 11
316.5090599999999
 21
203.4271029999999
 31
0.0
  0
LINE
  5
CADD
330
C838
100
AcDbEntity
  8
1
  6
Continuous
100
AcDbLine
 10
315.5416389999999
 20
184.347443
 30
0.0
 11
315.5416389999999
 21
203.949533
 31
0.0
  0
LINE
  5
CADE
330
C838
100
AcDbEntity
  8
1
  6
Continuous
100
AcDbLine
 10
315.5416389999999
 20
184.347443
 30
0.0
 11
315.5416389999999
 21
197.8856129999998
 31
0.0
  0
LINE
  5
CADF
330
C838
100
AcDbEntity
  8
1
  6
Continuous
100
AcDbLine
 10
321.2090569999999
 20
185.838773
 30
0.0
 11
321.2090569999999
 21
223.0089029999998
 31
0.0
  0
LINE
  5
CAE0
330
C838
100
AcDbEntity
  8
1
  6
Continuous
100
AcDbLine
 10
320.7090569999999
 20
185.838773
 30
0.0
 11
320.7090569999999
 21
223.0089029999998
 31
0.0
  0
LINE
  5
CAE1
330
C838
100
AcDbEntity
  8
1
  6
Continuous
100
AcDbLine
 10
304.114378
 20
184.347443
 30
0.0
 11
304.114378
 21
200.667463
 31
0.0
  0
LINE
  5
CAE2
330
C838
100
AcDbEntity
  8
1
  6
Continuous
100
AcDbLine
 10
313.2416359999999
 20
184.347443
 30
0.0
 11
313.2416359999999
 21
198.6674629999999
 31
0.0
  0
ARC
  5
CAE3
330
C838
100
AcDbEntity
  8
1
  6
Continuous
100
AcDbCircle
 10
241.9506
 20
93.938845
 30
0.0
 40
1.0
100
AcDbArc
 50
275.14987
 51
5.149873
  0
ARC
  5
CAE4
330
C838
100
AcDbEntity
  8
1
  6
Continuous
100
AcDbCircle
 10
200.1175069999999
 20
96.97546500000001
 30
0.0
 40
5.0
100
AcDbArc
 50
270.0
 51
320.24725
  0
LINE
  5
CAE5
330
C838
100
AcDbEntity
  8
1
  6
Continuous
100
AcDbLine
 10
211.3277389999999
 20
96.54974500000001
 30
0.0
 11
202.4122869999999
 21
91.534805
 31
0.0
  0
LINE
  5
CAE6
330
C838
100
AcDbEntity
  8
1
  6
Continuous
100
AcDbLine
 10
212.922673
 20
89.018005
 30
0.0
 11
214.2485509999999
 21
94.32151500000001
 31
0.0
  0
ARC
  5
CAE7
330
C838
100
AcDbEntity
  8
1
  6
Continuous
100
AcDbCircle
 10
223.478156
 20
95.587385
 30
0.0
 40
4.299999999999998
100
AcDbArc
 50
192.7747199999999
 51
276.32929
  0
LINE
  5
CAE8
330
C838
100
AcDbEntity
  8
1
  6
Continuous
100
AcDbLine
 10
242.040356
 20
92.942885
 30
0.0
 11
223.8641259999999
 21
91.304745
 31
0.0
  0
ARC
  5
CAE9
330
C838
100
AcDbEntity
  8
1
  6
Continuous
100
AcDbCircle
 10
213.892813
 20
88.77546499999999
 30
0.0
 40
1.0
100
AcDbArc
 50
165.96376
 51
270.0
  0
ARC
  5
CAEA
330
C838
100
AcDbEntity
  8
1
  6
Continuous
100
AcDbCircle
 10
199.960982
 20
95.89266499999999
 30
0.0
 40
5.0
100
AcDbArc
 50
270.0
 51
299.35776
  0
ARC
  5
CAEB
330
C838
100
AcDbEntity
  8
1
  6
Continuous
100
AcDbCircle
 10
233.0520609999999
 20
88.91075500000004
 30
0.0
 40
7.487911
100
AcDbArc
 50
159.77338
 51
174.77087
  0
ARC
  5
CAEC
330
C838
100
AcDbEntity
  8
1
  6
Continuous
100
AcDbCircle
 10
223.6036369999999
 20
89.77546499999998
 30
0.0
 40
2.0
100
AcDbArc
 50
270.0
 51
354.77087
  0
ARC
  5
CAED
330
C838
100
AcDbEntity
  8
1
  6
Continuous
100
AcDbCircle
 10
242.5004889999999
 20
89.77546499999998
 30
0.0
 40
2.0
100
AcDbArc
 50
185.22913
 51
270.0
  0
ARC
  5
CAEE
330
C838
100
AcDbEntity
  8
1
  6
Continuous
100
AcDbCircle
 10
233.0520609999999
 20
88.91075500000004
 30
0.0
 40
7.487911
100
AcDbArc
 50
5.229133
 51
30.526359
  0
LINE
  5
CAEF
330
C838
100
AcDbEntity
  8
1
  6
Continuous
100
AcDbLine
 10
245.562241
 20
87.27546499999998
 30
0.0
 11
245.562241
 21
87.77546499999997
 31
0.0
  0
LINE
  5
CAF0
330
C838
100
AcDbEntity
  8
1
  6
Continuous
100
AcDbLine
 10
242.202164
 20
95.266785
 30
0.0
 11
223.657675
 21
93.59545500000001
 31
0.0
  0
ARC
  5
CAF1
330
C838
100
AcDbEntity
  8
1
  6
Continuous
100
AcDbCircle
 10
230.575987
 20
110.801035
 30
0.0
 40
10.184876
100
AcDbArc
 50
5.149873
 51
185.14987
  0
ARC
  5
CAF2
330
C838
100
AcDbEntity
  8
1
  6
Continuous
100
AcDbCircle
 10
212.308264
 20
94.80657499999999
 30
0.0
 40
2.0
100
AcDbArc
 50
353.1028449999998
 51
119.3577499999999
  0
ARC
  5
CAF3
330
C838
100
AcDbEntity
  8
1
  6
Continuous
100
AcDbCircle
 10
221.644218
 20
79.07014499999998
 30
0.0
 40
23.0
100
AcDbArc
 50
101.08106
 51
139.9947899999999
  0
ARC
  5
CAF4
330
C838
100
AcDbEntity
  8
1
  6
Continuous
100
AcDbCircle
 10
216.793784
 20
79.07014499999998
 30
0.0
 40
23.0
100
AcDbArc
 50
92.15195600000004
 51
139.9947899999999
  0
ARC
  5
CAF5
330
C838
100
AcDbEntity
  8
1
  6
Continuous
100
AcDbCircle
 10
228.2314589999999
 20
96.01577500000001
 30
0.0
 40
2.0
100
AcDbArc
 50
192.7747199999999
 51
275.14987
  0
ARC
  5
CAF6
330
C838
100
AcDbEntity
  8
1
  6
Continuous
100
AcDbCircle
 10
216.00524
 20
100.055325
 30
0.0
 40
4.299999999999998
100
AcDbArc
 50
12.774711
 51
92.15195600000004
  0
ARC
  5
CAF7
330
C838
100
AcDbEntity
  8
1
  6
Continuous
100
AcDbCircle
 10
216.00524
 20
100.055325
 30
0.0
 40
2.0
100
AcDbArc
 50
12.774711
 51
92.15195600000004
  0
LINE
  5
CAF8
330
C838
100
AcDbEntity
  8
1
  6
Continuous
100
AcDbLine
 10
214.607115
 20
104.275475
 30
0.0
 11
221.680564
 21
104.275475
 31
0.0
  0
ARC
  5
CAF9
330
C838
100
AcDbEntity
  8
1
  6
Continuous
100
AcDbCircle
 10
220.855666
 20
100.055325
 30
0.0
 40
4.299999999999998
100
AcDbArc
 50
12.774711
 51
92.15195600000004
  0
LINE
  5
CAFA
330
C838
100
AcDbEntity
  8
1
  6
Continuous
100
AcDbLine
 10
225.049225
 20
101.0061349999999
 30
0.0
 11
224.806446
 21
103.699925
 31
0.0
  0
ARC
  5
CAFB
330
C838
100
AcDbEntity
  8
1
  6
Continuous
100
AcDbCircle
 10
223.478156
 20
95.587385
 30
0.0
 40
2.0
100
AcDbArc
 50
192.7747199999999
 51
275.14987
  0
LINE
  5
CAFC
330
C838
100
AcDbEntity
  8
1
  6
Continuous
100
AcDbLine
 10
221.5276639999999
 20
95.14515499999999
 30
0.0
 11
220.1988029999998
 21
101.0061449999999
 31
0.0
  0
LINE
  5
CAFD
330
C838
100
AcDbEntity
  8
1
  6
Continuous
100
AcDbLine
 10
219.284593
 20
94.636595
 30
0.0
 11
217.955733
 21
100.497575
 31
0.0
  0
ARC
  5
CAFE
330
C838
100
AcDbEntity
  8
1
  6
Continuous
100
AcDbCircle
 10
223.8104929999999
 20
103.6101649999999
 30
0.0
 40
1.0
100
AcDbArc
 50
5.149873
 51
95.14987600000001
  0
ARC
  5
CAFF
330
C838
100
AcDbEntity
  8
1
  6
Continuous
100
AcDbCircle
 10
221.8370129999999
 20
105.440405
 30
0.0
 40
1.0
100
AcDbArc
 50
185.1498799999999
 51
275.14987
  0
LINE
  5
CB00
330
C838
100
AcDbEntity
  8
1
  6
Continuous
100
AcDbLine
 10
220.841046
 20
105.3506449999999
 30
0.0
 11
220.4322209999999
 21
109.8868449999998
 31
0.0
  0
LINE
  5
CB01
330
C838
100
AcDbEntity
  8
1
  6
Continuous
100
AcDbLine
 10
223.720722
 20
104.606125
 30
0.0
 11
221.92677
 21
104.444445
 31
0.0
  0
LINE
  5
CB02
330
C838
100
AcDbEntity
  8
1
  6
Continuous
100
AcDbLine
 10
226.280968
 20
95.573545
 30
0.0
 11
225.0492329999999
 21
101.0061449999999
 31
0.0
  0
ARC
  5
CB03
330
C838
100
AcDbEntity
  8
1
  6
Continuous
100
AcDbCircle
 10
231.2036879999999
 20
110.8576149999999
 30
0.0
 40
10.184876
100
AcDbArc
 50
5.149873
 51
96.922905
  0
LINE
  5
CB04
330
C838
100
AcDbEntity
  8
1
  6
Continuous
100
AcDbLine
 10
242.202164
 20
95.266785
 30
0.0
 11
240.7197459999999
 21
111.7152549999999
 31
0.0
  0
LINE
  5
CB05
330
C838
100
AcDbEntity
  8
1
  6
Continuous
100
AcDbLine
 10
242.9465599999999
 20
94.028605
 30
0.0
 11
241.3474509999999
 21
111.771825
 31
0.0
  0
ARC
  5
CB06
330
C838
100
AcDbEntity
  8
1
  6
Continuous
100
AcDbCircle
 10
319.573773
 20
198.350983
 30
0.0
 40
7.487911
100
AcDbArc
 50
245.83988
 51
264.7708799999999
  0
LINE
  5
CB07
330
C838
100
AcDbEntity
  8
1
  6
Continuous
100
AcDbLine
 10
316.5090599999999
 20
188.957043
 30
0.0
 11
315.5416389999999
 21
188.957043
 31
0.0
  0
LINE
  5
CB08
330
C838
100
AcDbEntity
  8
1
  6
Continuous
100
AcDbLine
 10
315.5416389999999
 20
184.347443
 30
0.0
 11
304.132433
 21
184.347443
 31
0.0
  0
LINE
  5
CB09
330
C838
100
AcDbEntity
  8
1
  6
Continuous
100
AcDbLine
 10
321.2090569999999
 20
185.838773
 30
0.0
 11
320.7090569999999
 21
185.838773
 31
0.0
  0
ARC
  5
CB0A
330
C838
100
AcDbEntity
  8
1
  6
Continuous
100
AcDbCircle
 10
318.7090569999999
 20
188.9025529999999
 30
0.0
 40
2.0
100
AcDbArc
 50
0.0
 51
84.77088
  0
LINE
  5
CB0B
330
C838
100
AcDbEntity
  8
1
  6
Continuous
100
AcDbLine
 10
242.9465729999999
 20
392.825309
 30
0.0
 11
241.3474649999999
 21
375.0820889999998
 31
0.0
  0
ARC
  5
CB0C
330
C838
100
AcDbEntity
  8
1
  6
Continuous
100
AcDbCircle
 10
221.6442289999999
 20
407.7837689999998
 30
0.0
 40
25.29999899999999
100
AcDbArc
 50
219.75275
 51
267.8480299999999
  0
ARC
  5
CB0D
330
C838
100
AcDbEntity
  8
1
  6
Continuous
100
AcDbCircle
 10
221.6442289999999
 20
407.7837689999998
 30
0.0
 40
23.0
100
AcDbArc
 50
220.00521
 51
267.8480399999999
  0
LINE
  5
CB0E
330
C838
100
AcDbEntity
  8
1
  6
Continuous
100
AcDbLine
 10
218.366498
 20
388.168002
 30
0.0
 11
217.955741
 21
386.356349
 31
0.0
  0
LINE
  5
CB0F
330
C838
100
AcDbEntity
  8
1
  6
Continuous
100
AcDbLine
 10
225.1945629999999
 20
387.4602009999999
 30
0.0
 11
224.8064649999998
 21
383.153989
 31
0.0
  0
LINE
  5
CB10
330
C838
100
AcDbEntity
  8
1
  6
Continuous
100
AcDbLine
 10
223.064504
 20
387.4956879999999
 30
0.0
 11
222.8061789999999
 21
386.3563389999998
 31
0.0
  0
LINE
  5
CB11
330
C838
100
AcDbEntity
  8
1
  6
Continuous
100
AcDbLine
 10
225.829299
 20
387.481644
 30
0.0
 11
225.4341709999999
 21
383.097419
 31
0.0
  0
ARC
  5
CB12
330
C838
100
AcDbEntity
  8
1
  6
Continuous
100
AcDbCircle
 10
231.2037049999999
 20
375.9963089999998
 30
0.0
 40
10.184876
100
AcDbArc
 50
174.8501199999998
 51
354.8501299999998
  0
ARC
  5
CB13
330
C838
100
AcDbEntity
  8
1
  6
Continuous
100
AcDbCircle
 10
230.5759999999999
 20
376.052879
 30
0.0
 40
10.184876
100
AcDbArc
 50
174.8501199999998
 51
266.6231599999999
  0
LINE
  5
CB14
330
C838
100
AcDbEntity
  8
1
  6
Continuous
100
AcDbLine
 10
214.607089
 20
382.5784389999999
 30
0.0
 11
220.7169819999998
 21
382.5784389999999
 31
0.0
  0
ARC
  5
CB15
330
C838
100
AcDbEntity
  8
1
  6
Continuous
100
AcDbCircle
 10
216.005252
 20
386.798579
 30
0.0
 40
2.0
100
AcDbArc
 50
307.53279
 51
347.2252899999999
  0
ARC
  5
CB16
330
C838
100
AcDbEntity
  8
1
  6
Continuous
100
AcDbCircle
 10
221.837024
 20
381.4135089999999
 30
0.0
 40
1.0
100
AcDbArc
 50
84.85012899999999
 51
174.8501199999998
  0
ARC
  5
CB17
330
C838
100
AcDbEntity
  8
1
  6
Continuous
100
AcDbCircle
 10
223.810504
 20
383.2437489999999
 30
0.0
 40
1.0
100
AcDbArc
 50
264.85012
 51
354.8501299999998
  0
ARC
  5
CB18
330
C838
100
AcDbEntity
  8
1
  6
Continuous
100
AcDbCircle
 10
220.8556849999999
 20
386.7985689999999
 30
0.0
 40
2.0
100
AcDbArc
 50
267.8480399999999
 51
347.2252899999999
  0
ARC
  5
CB19
330
C838
100
AcDbEntity
  8
1
  6
Continuous
100
AcDbCircle
 10
220.873789
 20
386.878439
 30
0.0
 40
4.299999999999998
100
AcDbArc
 50
270.0
 51
346.2016799999998
  0
ARC
  5
CB1A
330
C838
100
AcDbEntity
  8
1
  6
Continuous
100
AcDbCircle
 10
224.438212
 20
383.187179
 30
0.0
 40
1.0
100
AcDbArc
 50
264.85012
 51
354.8501299999998
  0
ARC
  5
CB1B
330
C838
100
AcDbEntity
  8
1
  6
Continuous
100
AcDbCircle
 10
222.4647319999998
 20
381.3569389999998
 30
0.0
 40
1.0
100
AcDbArc
 50
84.85012899999999
 51
174.8501199999998
  0
LINE
  5
CB1C
330
C838
100
AcDbEntity
  8
1
  6
Continuous
100
AcDbLine
 10
220.8410629999999
 20
381.5032689999999
 30
0.0
 11
220.4322379999999
 21
376.9670689999998
 31
0.0
  0
LINE
  5
CB1D
330
C838
100
AcDbEntity
  8
1
  6
Continuous
100
AcDbLine
 10
223.7207409999999
 20
382.247789
 30
0.0
 11
221.9267879999999
 21
382.4094689999999
 31
0.0
  0
LINE
  5
CB1E
330
C838
100
AcDbEntity
  8
1
  6
Continuous
100
AcDbLine
 10
221.468768
 20
381.446699
 30
0.0
 11
221.059943
 21
376.910499
 31
0.0
  0
LINE
  5
CB1F
330
C838
100
AcDbEntity
  8
1
  6
Continuous
100
AcDbLine
 10
224.3484459999999
 20
382.1912189999998
 30
0.0
 11
222.554493
 21
382.3528989999999
 31
0.0
  0
ARC
  5
CB20
330
C838
100
AcDbEntity
  8
1
  6
Continuous
100
AcDbCircle
 10
241.9506109999999
 20
392.915069
 30
0.0
 40
1.0
100
AcDbArc
 50
354.8501299999998
 51
74.170812
  0
ARC
  5
CB21
330
C838
100
AcDbEntity
  8
1
  6
Continuous
100
AcDbCircle
 10
319.573773
 20
210.2591029999999
 30
0.0
 40
7.487911
100
AcDbArc
 50
95.229134
 51
264.77089
  0
LINE
  5
CB22
330
C838
100
AcDbEntity
  8
1
  6
Continuous
100
AcDbLine
 10
304.2090549999999
 20
208.194633
 30
0.0
 11
297.998621
 21
208.194633
 31
0.0
  0
LINE
  5
CB23
330
C838
100
AcDbEntity
  8
1
  6
Continuous
100
AcDbLine
 10
310.5416410000001
 20
202.8856129999998
 30
0.0
 11
297.998621
 21
202.8856129999998
 31
0.0
  0
LINE
  5
CB24
330
C838
100
AcDbEntity
  8
1
  6
Continuous
100
AcDbLine
 10
311.2416379999999
 20
200.667463
 30
0.0
 11
297.998621
 21
200.667463
 31
0.0
  0
LINE
  5
CB25
330
C838
100
AcDbEntity
  8
1
  6
Continuous
100
AcDbLine
 10
287.498621
 20
205.5400829999999
 30
0.0
 11
287.498621
 21
203.3219729999999
 31
0.0
  0
ARC
  5
CB26
330
C838
100
AcDbEntity
  8
1
  6
Continuous
100
AcDbCircle
 10
289.0380309999999
 20
205.540123
 30
0.0
 40
1.539409999999999
100
AcDbArc
 50
104.1879039999998
 51
255.81209
  0
ARC
  5
CB27
330
C838
100
AcDbEntity
  8
1
  6
Continuous
100
AcDbCircle
 10
289.0380309999999
 20
203.3219729999999
 30
0.0
 40
1.539409999999999
100
AcDbArc
 50
180.0000029999999
 51
255.81209
  0
ARC
  5
CB28
330
C838
100
AcDbEntity
  8
1
  6
Continuous
100
AcDbCircle
 10
297.998621
 20
240.983483
 30
0.0
 40
38.097919
100
AcDbArc
 50
255.81209
 51
269.9999899999999
  0
ARC
  5
CB29
330
C838
100
AcDbEntity
  8
1
  6
Continuous
100
AcDbCircle
 10
297.998621
 20
238.765333
 30
0.0
 40
38.097919
100
AcDbArc
 50
255.81209
 51
269.9999899999999
  0
ARC
  5
CB2A
330
C838
100
AcDbEntity
  8
1
  6
Continuous
100
AcDbCircle
 10
297.998621
 20
170.096723
 30
0.0
 40
38.097919
100
AcDbArc
 50
90.00000300000001
 51
104.1879039999998
  0
ARC
  5
CB2B
330
C838
100
AcDbEntity
  8
1
  6
Continuous
100
AcDbCircle
 10
289.0380309999999
 20
205.5400829999999
 30
0.0
 40
1.539409999999999
100
AcDbArc
 50
104.1879039999998
 51
180.0000029999999
  0
ARC
  5
CB2C
330
C838
100
AcDbEntity
  8
1
  6
Continuous
100
AcDbCircle
 10
311.2416379999999
 20
198.6674629999999
 30
0.0
 40
2.0
100
AcDbArc
 50
0.0
 51
90.00000300000001
  0
LINE
  5
CB2D
330
C838
100
AcDbEntity
  8
1
  6
Continuous
100
AcDbLine
 10
304.2090549999999
 20
206.4441629999998
 30
0.0
 11
313.130562
 21
206.4441629999998
 31
0.0
  0
LINE
  5
CB2E
330
C838
100
AcDbEntity
  8
1
  6
Continuous
100
AcDbLine
 10
304.2090549999999
 20
206.4441629999998
 30
0.0
 11
304.2090549999999
 21
208.194633
 31
0.0
  0
LWPOLYLINE
  5
CB2F
330
C838
100
AcDbEntity
  8
1
  6
Continuous
100
AcDbPolyline
 90
       17
 70
     0
 43
0.0
 10
306.4304499999999
 20
207.2787329999999
 42
0.035213
 10
306.4305109999999
 20
207.205443
 42
0.034371
 10
306.440736
 20
207.1330429999999
 42
0.032439
 10
306.4606089999998
 20
207.062383
 42
0.029676
 10
306.489221
 20
206.9944229999999
 42
0.02657
 10
306.525441
 20
206.9298129999999
 42
0.023288
 10
306.5676649999999
 20
206.869483
 42
0.020411
 10
306.6148379999999
 20
206.813233
 42
0.01808
 10
306.6665069999999
 20
206.7604629999999
 42
0.016058
 10
306.7219149999999
 20
206.711093
 42
0.014332
 10
306.780423
 20
206.6650129999999
 42
0.012734
 10
306.840822
 20
206.622523
 42
0.01145
 10
306.902885
 20
206.5831929999999
 42
0.010486
 10
306.9669989999999
 20
206.546413
 42
0.009655
 10
307.032848
 20
206.5120729999999
 42
0.008937
 10
307.100162
 20
206.4800929999999
 42
0.008317
 10
307.1687129999999
 20
206.4503729999999
  0
ARC
  5
CB42
330
C838
100
AcDbEntity
  8
1
  6
Continuous
100
AcDbCircle
 10
310.5416410000001
 20
197.8856129999998
 30
0.0
 40
5.0
100
AcDbArc
 50
0.0
 51
90.00000300000001
  0
LINE
  5
CB43
330
C838
100
AcDbEntity
  8
1
  6
Continuous
100
AcDbLine
 10
309.08406
 20
228.998993
 30
0.0
 11
299.9090519999999
 21
228.998993
 31
0.0
  0
LINE
  5
CB44
330
C838
100
AcDbEntity
  8
1
  6
Continuous
100
AcDbLine
 10
309.40359
 20
223.7084929999999
 30
0.0
 11
299.909056
 21
223.7084929999999
 31
0.0
  0
LINE
  5
CB45
330
C838
100
AcDbEntity
  8
1
  6
Continuous
100
AcDbLine
 10
309.7706819999999
 20
221.482223
 30
0.0
 11
299.909056
 21
221.482223
 31
0.0
  0
LINE
  5
CB46
330
C838
100
AcDbEntity
  8
1
  6
Continuous
100
AcDbLine
 10
289.4090519999998
 20
226.3537429999999
 30
0.0
 11
289.4090519999998
 21
224.127473
 31
0.0
  0
LINE
  5
CB47
330
C838
100
AcDbEntity
  8
1
  6
Continuous
100
AcDbLine
 10
289.4090519999998
 20
226.3537429999999
 30
0.0
 11
289.4090519999998
 21
224.127473
 31
0.0
  0
ARC
  5
CB48
330
C838
100
AcDbEntity
  8
1
  6
Continuous
100
AcDbCircle
 10
290.9421709999999
 20
226.3537429999999
 30
0.0
 40
1.533117999999999
100
AcDbArc
 50
104.140195
 51
180.0000029999999
  0
ARC
  5
CB49
330
C838
100
AcDbEntity
  8
1
  6
Continuous
100
AcDbCircle
 10
290.9421709999999
 20
226.3537429999999
 30
0.0
 40
1.533117999999999
100
AcDbArc
 50
104.140195
 51
255.85982
  0
ARC
  5
CB4A
330
C838
100
AcDbEntity
  8
1
  6
Continuous
100
AcDbCircle
 10
290.9421709999999
 20
224.127473
 30
0.0
 40
1.533117999999999
100
AcDbArc
 50
180.0000029999999
 51
255.8598100000001
  0
ARC
  5
CB4B
330
C838
100
AcDbEntity
  8
1
  6
Continuous
100
AcDbCircle
 10
299.909056
 20
261.9466929999999
 30
0.0
 40
38.238205
100
AcDbArc
 50
255.8598100000001
 51
269.9999899999999
  0
ARC
  5
CB4C
330
C838
100
AcDbEntity
  8
1
  6
Continuous
100
AcDbCircle
 10
299.9090519999999
 20
190.760783
 30
0.0
 40
38.238205
100
AcDbArc
 50
90.00000300000001
 51
104.140195
  0
ARC
  5
CB4D
330
C838
100
AcDbEntity
  8
1
  6
Continuous
100
AcDbCircle
 10
299.909056
 20
259.720423
 30
0.0
 40
38.238205
100
AcDbArc
 50
255.8598100000001
 51
269.9999899999999
  0
ARC
  5
CB4E
330
C838
100
AcDbEntity
  8
1
  6
Continuous
100
AcDbCircle
 10
318.7090569999999
 20
219.707533
 30
0.0
 40
2.0
100
AcDbArc
 50
275.2291299999999
 51
0.0
  0
ARC
  5
CB4F
330
C838
100
AcDbEntity
  8
1
  6
Continuous
100
AcDbCircle
 10
318.7090569999999
 20
200.810683
 30
0.0
 40
2.0
100
AcDbArc
 50
0.0
 51
84.77085999999998
  0
LINE
  5
CB50
330
C838
100
AcDbEntity
  8
1
  6
Continuous
100
AcDbLine
 10
321.2090569999999
 20
223.0089029999998
 30
0.0
 11
320.7090569999999
 21
223.0089029999998
 31
0.0
  0
CIRCLE
  5
CB51
330
C838
100
AcDbEntity
  8
1
  6
Continuous
100
AcDbCircle
 10
191.5864479999999
 20
180.33572
 30
0.0
 40
2.6
  0
LINE
  5
CB52
330
C838
100
AcDbEntity
  8
1
  6
Continuous
100
AcDbLine
 10
198.586048
 20
391.0784489999999
 30
0.0
 11
198.586048
 21
392.5784489999998
 31
0.0
  0
LINE
  5
CB53
330
C838
100
AcDbEntity
  8
1
  6
Continuous
100
AcDbLine
 10
184.5860479999998
 20
391.0784489999999
 30
0.0
 11
184.5860479999998
 21
392.5784489999998
 31
0.0
  0
LINE
  5
CB54
330
C838
100
AcDbEntity
  8
1
  6
Continuous
100
AcDbLine
 10
198.586048
 20
391.0784489999999
 30
0.0
 11
184.5860479999998
 21
391.0784489999999
 31
0.0
  0
LINE
  5
CB55
330
C838
100
AcDbEntity
  8
1
  6
Continuous
100
AcDbLine
 10
86.80438700000001
 20
209.6263769999999
 30
0.0
 11
86.00438699999996
 21
210.426377
 31
0.0
  0
LINE
  5
CB56
330
C838
100
AcDbEntity
  8
2
  6
Continuous
100
AcDbLine
 10
86.680887
 20
209.749877
 30
0.0
 11
85.92156899999997
 21
209.749877
 31
0.0
  0
ARC
  5
CB57
330
C838
100
AcDbEntity
  8
1
  6
Continuous
100
AcDbCircle
 10
194.586048
 20
394.743512
 30
0.0
 40
8.665063999999999
100
AcDbArc
 50
249.7438419999999
 51
290.256158
  0
LINE
  5
CB58
330
C838
100
AcDbEntity
  8
1
  6
Continuous
100
AcDbLine
 10
187.586048
 20
385.995631
 30
0.0
 11
195.586048
 21
385.995631
 31
0.0
  0
LINE
  5
CB59
330
C838
100
AcDbEntity
  8
1
  6
Continuous
100
AcDbLine
 10
194.7860479999999
 20
385.1956309999998
 30
0.0
 11
188.3860479999999
 21
385.1956309999998
 31
0.0
  0
LINE
  5
CB5A
330
C838
100
AcDbEntity
  8
1
  6
Continuous
100
AcDbLine
 10
185.586048
 20
386.0784489999998
 30
0.0
 11
197.586048
 21
386.0784489999998
 31
0.0
  0
LINE
  5
CB5B
330
C838
100
AcDbEntity
  8
1
  6
Continuous
100
AcDbLine
 10
86.80438700000001
 20
203.226377
 30
0.0
 11
86.00438699999996
 21
202.426377
 31
0.0
  0
LINE
  5
CB5C
330
C838
100
AcDbEntity
  8
2
  6
Continuous
100
AcDbLine
 10
86.680887
 20
203.102877
 30
0.0
 11
85.92156899999997
 21
203.102877
 31
0.0
  0
ARC
  5
CB5D
330
C838
100
AcDbEntity
  8
1
  6
Continuous
100
AcDbCircle
 10
194.586048
 20
382.4133849999999
 30
0.0
 40
8.665063999999999
100
AcDbArc
 50
69.743842
 51
110.256158
  0
LINE
  5
CB5E
330
C838
100
AcDbEntity
  8
1
  6
Continuous
100
AcDbLine
 10
80.92156899999997
 20
208.3667989999999
 30
0.0
 11
80.92156899999997
 21
213.426377
 31
0.0
  0
LINE
  5
CB5F
330
C838
100
AcDbEntity
  8
1
  6
Continuous
100
AcDbLine
 10
86.00438699999996
 20
210.426377
 30
0.0
 11
86.00438699999996
 21
202.426377
 31
0.0
  0
ARC
  5
CB60
330
C838
100
AcDbEntity
  8
1
  6
Continuous
100
AcDbCircle
 10
92.385671
 20
206.426377
 30
0.0
 40
11.464102
100
AcDbArc
 50
162.412046
 51
170.778287
  0
ARC
  5
CB61
330
C838
100
AcDbEntity
  8
1
  6
Continuous
100
AcDbCircle
 10
74.45746800000001
 20
206.426377
 30
0.0
 40
11.464102
100
AcDbArc
 50
342.4120459999999
 51
17.587954
  0
LINE
  5
CB62
330
C838
100
AcDbEntity
  8
1
  6
Continuous
100
AcDbLine
 10
85.92156899999997
 20
212.426377
 30
0.0
 11
85.92156899999997
 21
200.426377
 31
0.0
  0
LINE
  5
CB63
330
C838
100
AcDbEntity
  8
2
  6
Continuous
100
AcDbLine
 10
188.262548
 20
385.319131
 30
0.0
 11
188.262548
 21
386.0784489999998
 31
0.0
  0
LINE
  5
CB64
330
C838
100
AcDbEntity
  8
1
  6
Continuous
100
AcDbLine
 10
188.3860479999999
 20
385.1956309999998
 30
0.0
 11
187.586048
 21
385.995631
 31
0.0
  0
LINE
  5
CB65
330
C838
100
AcDbEntity
  8
1
  6
Continuous
100
AcDbLine
 10
187.586048
 20
386.0784489999998
 30
0.0
 11
187.586048
 21
385.995631
 31
0.0
  0
ARC
  5
CB66
330
C838
100
AcDbEntity
  8
1
  6
Continuous
100
AcDbCircle
 10
188.586048
 20
394.743512
 30
0.0
 40
8.665063999999999
100
AcDbArc
 50
249.7438419999999
 51
290.256158
  0
LINE
  5
CB67
330
C838
100
AcDbEntity
  8
1
  6
Continuous
100
AcDbLine
 10
191.586048
 20
390.54255
 30
0.0
 11
191.586048
 21
386.614347
 31
0.0
  0
LINE
  5
CB68
330
C838
100
AcDbEntity
  8
1
  6
Continuous
100
AcDbLine
 10
85.92156899999997
 20
202.426377
 30
0.0
 11
86.00438699999996
 21
202.426377
 31
0.0
  0
ARC
  5
CB69
330
C838
100
AcDbEntity
  8
1
  6
Continuous
100
AcDbCircle
 10
82.85458199999998
 20
201.2302239999999
 30
0.0
 40
3.066986999999998
100
AcDbArc
 50
334.384247
 51
34.38424699999998
  0
LINE
  5
CB6A
330
C838
100
AcDbEntity
  8
1
  6
Continuous
100
AcDbLine
 10
82.900574
 20
202.962275
 30
0.0
 11
85.38567099999999
 21
202.962275
 31
0.0
  0
LINE
  5
CB6B
330
C838
100
AcDbEntity
  8
1
  6
Continuous
100
AcDbLine
 10
81.45746800000003
 20
199.498174
 30
0.0
 11
85.38567099999999
 21
199.498174
 31
0.0
  0
LINE
  5
CB6C
330
C838
100
AcDbEntity
  8
1
  6
Continuous
100
AcDbLine
 10
85.38567099999999
 20
199.498174
 30
0.0
 11
85.92156899999997
 21
200.426377
 31
0.0
  0
ARC
  5
CB6D
330
C838
100
AcDbEntity
  8
1
  6
Continuous
100
AcDbCircle
 10
188.586048
 20
382.4133849999999
 30
0.0
 40
8.665063999999999
100
AcDbArc
 50
69.743842
 51
110.256158
  0
LINE
  5
CB6E
330
C838
100
AcDbEntity
  8
1
  6
Continuous
100
AcDbLine
 10
185.586048
 20
386.0784489999998
 30
0.0
 11
185.586048
 21
391.0784489999999
 31
0.0
  0
LINE
  5
CB6F
330
C838
100
AcDbEntity
  8
1
  6
Continuous
100
AcDbLine
 10
80.92156899999997
 20
213.426377
 30
0.0
 11
79.42156899999997
 21
213.426377
 31
0.0
  0
LINE
  5
CB70
330
C838
100
AcDbEntity
  8
1
  6
Continuous
100
AcDbLine
 10
85.92156899999997
 20
210.426377
 30
0.0
 11
86.00438699999996
 21
210.426377
 31
0.0
  0
LINE
  5
CB71
330
C838
100
AcDbEntity
  8
1
  6
Continuous
100
AcDbLine
 10
85.38567099999999
 20
213.3545799999999
 30
0.0
 11
85.92156899999997
 21
212.426377
 31
0.0
  0
LINE
  5
CB72
330
C838
100
AcDbEntity
  8
1
  6
Continuous
100
AcDbLine
 10
81.45746800000003
 20
213.3545799999999
 30
0.0
 11
80.92156899999997
 21
212.426377
 31
0.0
  0
LINE
  5
CB73
330
C838
100
AcDbEntity
  8
1
  6
Continuous
100
AcDbLine
 10
81.45746800000003
 20
213.3545799999999
 30
0.0
 11
85.38567099999999
 21
213.3545799999999
 31
0.0
  0
LINE
  5
CB74
330
C838
100
AcDbEntity
  8
1
  6
Continuous
100
AcDbLine
 10
81.45746800000003
 20
209.8904779999998
 30
0.0
 11
85.38567099999999
 21
209.8904779999998
 31
0.0
  0
ARC
  5
CB75
330
C838
100
AcDbEntity
  8
1
  6
Continuous
100
AcDbCircle
 10
83.988557
 20
211.622529
 30
0.0
 40
3.066986999999998
100
AcDbArc
 50
154.3842469999999
 51
214.384247
  0
ARC
  5
CB76
330
C838
100
AcDbEntity
  8
1
  6
Continuous
100
AcDbCircle
 10
82.85458199999998
 20
211.622529
 30
0.0
 40
3.066986999999998
100
AcDbArc
 50
325.6157529999999
 51
25.615753
  0
LINE
  5
CB77
330
C838
100
AcDbEntity
  8
1
  6
Continuous
100
AcDbLine
 10
86.80438700000001
 20
203.226377
 30
0.0
 11
86.80438700000001
 21
209.6263769999999
 31
0.0
  0
LINE
  5
CB78
330
C838
100
AcDbEntity
  8
2
  6
Continuous
100
AcDbLine
 10
194.909548
 20
385.319131
 30
0.0
 11
194.909548
 21
386.0784489999998
 31
0.0
  0
LINE
  5
CB79
330
C838
100
AcDbEntity
  8
1
  6
Continuous
100
AcDbLine
 10
194.7860479999999
 20
385.1956309999998
 30
0.0
 11
195.586048
 21
385.995631
 31
0.0
  0
LINE
  5
CB7A
330
C838
100
AcDbEntity
  8
1
  6
Continuous
100
AcDbLine
 10
195.586048
 20
386.0784489999998
 30
0.0
 11
195.586048
 21
385.995631
 31
0.0
  0
LINE
  5
CB7B
330
C838
100
AcDbEntity
  8
1
  6
Continuous
100
AcDbLine
 10
197.586048
 20
386.0784489999998
 30
0.0
 11
197.586048
 21
391.0784489999999
 31
0.0
  0
CIRCLE
  5
CB7C
330
C838
100
AcDbEntity
  8
1
  6
Continuous
100
AcDbCircle
 10
191.5864479999999
 20
206.4357199999999
 30
0.0
 40
7.0
  0
LWPOLYLINE
  5
CB7D
330
C838
100
AcDbEntity
  8
1
  6
Continuous
100
AcDbPolyline
 90
       14
 70
     0
 43
0.0
 10
311.348335
 20
215.8757679999999
 42
0.005919
 10
310.8447229999999
 20
215.606023
 42
0.010459
 10
310.043586
 20
215.142573
 42
0.011488
 10
309.2635419999999
 20
214.6444529999999
 42
0.012711
 10
308.5084929999999
 20
214.1092329999999
 42
0.014169
 10
307.783273
 20
213.5342829999999
 42
0.015907
 10
307.093902
 20
212.916843
 42
0.017971
 10
306.447884
 20
212.2542329999999
 42
0.020397
 10
305.854527
 20
211.5441629999998
 42
0.023231
 10
305.3242629999999
 20
210.7837529999999
 42
0.026306
 10
304.8720149999998
 20
209.9751229999998
 42
0.029458
 10
304.512792
 20
209.121723
 42
0.032314
 10
304.2617009999998
 20
208.2310629999998
 42
0.034363
 10
304.13152
 20
207.315283
  0
LWPOLYLINE
  5
CB8D
330
C838
100
AcDbEntity
  8
1
  6
Continuous
100
AcDbPolyline
 90
       13
 70
     0
 43
0.0
 10
311.909538
 20
214.4510729999999
 42
0.002011
 10
311.771658
 20
214.3677929999999
 42
0.011492
 10
311.066243
 20
213.915323
 42
0.012714
 10
310.383535
 20
213.429293
 42
0.01417
 10
309.7279139999999
 20
212.907343
 42
0.015904
 10
309.10483
 20
212.3469829999999
 42
0.017963
 10
308.521073
 20
211.7458229999999
 42
0.020402
 10
307.984494
 20
211.1010729999999
 42
0.023201
 10
307.5057
 20
210.411593
 42
0.026255
 10
307.097517
 20
209.678653
 42
0.029382
 10
306.7734429999999
 20
208.905413
 42
0.03221
 10
306.5470409999999
 20
208.098653
 42
0.034235
 10
306.429761
 20
207.269323
  0
ARC
  5
CB9C
330
C838
100
AcDbEntity
  8
1
  6
Continuous
100
AcDbCircle
 10
224.586035
 20
71.975465
 30
0.0
 40
27.425
100
AcDbArc
 50
103.1077889999999
 51
115.4316709999998
  0
ARC
  5
CB9D
330
C838
100
AcDbEntity
  8
1
  6
Continuous
100
AcDbCircle
 10
224.586035
 20
71.975465
 30
0.0
 40
24.82499999999999
100
AcDbArc
 50
103.1426759999998
 51
114.4936189999999
  0
LINE
  5
CB9E
330
C838
100
AcDbEntity
  8
1
  6
Continuous
100
AcDbLine
 10
187.586035
 20
91.97546499999999
 30
0.0
 11
187.586035
 21
90.89266499999999
 31
0.0
  0
LINE
  5
CB9F
330
C838
100
AcDbEntity
  8
1
  6
Continuous
100
AcDbLine
 10
195.586035
 20
91.97546499999999
 30
0.0
 11
195.586035
 21
90.89266499999999
 31
0.0
  0
ARC
  5
CBA0
330
C838
100
AcDbEntity
  8
1
  6
Continuous
100
AcDbCircle
 10
224.586035
 20
71.975465
 30
0.0
 40
24.82499999999999
100
AcDbArc
 50
39.52799699999999
 51
51.20219399999999
  0
ARC
  5
CBA1
330
C838
100
AcDbEntity
  8
1
  6
Continuous
100
AcDbCircle
 10
224.586035
 20
71.975465
 30
0.0
 40
19.82499999999999
100
AcDbArc
 50
97.949725
 51
125.349129
  0
ARC
  5
CBA2
330
C838
100
AcDbEntity
  8
1
  6
Continuous
100
AcDbCircle
 10
191.5864479999999
 20
206.4357199999999
 30
0.0
 40
30.0
100
AcDbArc
 50
86.083619
 51
150.6515409999998
  0
ARC
  5
CBA3
330
C838
100
AcDbEntity
  8
1
  6
Continuous
100
AcDbCircle
 10
191.5864479999999
 20
232.53572
 30
0.0
 40
2.6
100
AcDbArc
 50
52.940803
 51
271.025935
  0
ARC
  5
CBA4
330
C838
100
AcDbEntity
  8
1
  6
Continuous
100
AcDbCircle
 10
481.4316719999998
 20
232.53572
 30
0.0
 40
2.6
100
AcDbArc
 50
268.974065
 51
127.0591969999998
  0
ARC
  5
CBA5
330
C838
100
AcDbEntity
  8
1
  6
Continuous
100
AcDbCircle
 10
481.4316719999998
 20
206.4357199999999
 30
0.0
 40
30.0
100
AcDbArc
 50
163.667702
 51
93.91638099999999
  0
ARC
  5
CBA6
330
C838
100
AcDbEntity
  8
1
  6
Continuous
100
AcDbCircle
 10
522.704341
 20
279.2626349999998
 30
0.0
 40
95.157
100
AcDbArc
 50
193.605186
 51
240.5727950000001
  0
ARC
  5
CBA7
330
C838
100
AcDbEntity
  8
1
  6
Continuous
100
AcDbCircle
 10
549.6931379999998
 20
254.737122
 30
0.0
 40
72.67100000000002
100
AcDbArc
 50
180.690332
 51
215.473014
  0
LINE
  5
CBA8
330
C838
100
AcDbEntity
  8
1
  6
Continuous
100
AcDbLine
 10
469.6374019999998
 20
264.8758149999998
 30
0.0
 11
469.6374019999998
 21
220.880896
 31
0.0
  0
LINE
  5
CBA9
330
C838
100
AcDbEntity
  8
4
  6
CENTER
100
AcDbLine
 10
481.4316719999998
 20
148.3371629999998
 30
0.0
 11
481.4316719999998
 21
264.444163
 31
0.0
  0
ARC
  5
CBAA
330
C838
100
AcDbEntity
  8
1
  6
Continuous
100
AcDbCircle
 10
481.4316719999998
 20
206.4441629999998
 30
0.0
 40
41.0
100
AcDbArc
 50
153.825966
 51
95.63024699999997
  0
ARC
  5
CBAB
330
C838
100
AcDbEntity
  8
1
  6
Continuous
100
AcDbCircle
 10
481.4316719999998
 20
206.4441629999998
 30
0.0
 40
50.0
100
AcDbArc
 50
147.541952
 51
94.85701999999996
  0
ARC
  5
CBAC
330
C838
100
AcDbEntity
  8
1
  6
Continuous
100
AcDbCircle
 10
481.4316719999998
 20
206.4357199999999
 30
0.0
 40
21.49999999999999
100
AcDbArc
 50
176.591708
 51
88.08615999999997
  0
ARC
  5
CBAD
330
C838
100
AcDbEntity
  8
1
  6
Continuous
100
AcDbCircle
 10
481.4302429999998
 20
206.094166
 30
0.0
 40
11.14999999999999
100
AcDbArc
 50
239.8900379999998
 51
35.473014
  0
LINE
  5
CBAE
330
C838
100
AcDbEntity
  8
4
  6
CENTER
100
AcDbLine
 10
539.4316719999998
 20
206.4271629999999
 30
0.0
 11
423.4316719999998
 21
206.4442769999998
 31
0.0
  0
ARC
  5
CBAF
330
C838
100
AcDbEntity
  8
1
  6
Continuous
100
AcDbCircle
 10
523.2199869999998
 20
198.3303349999999
 30
0.0
 40
12.5
100
AcDbArc
 50
288.983499
 51
49.040276
  0
LINE
  5
CBB0
330
C838
100
AcDbEntity
  8
1
  6
Continuous
100
AcDbLine
 10
530.5002599999998
 20
228.990551
 30
0.0
 11
526.5615309999998
 21
227.968471
 31
0.0
  0
LINE
  5
CBB1
330
C838
100
AcDbEntity
  8
1
  6
Continuous
100
AcDbLine
 10
531.0779659999998
 20
226.7642839999998
 30
0.0
 11
530.312401
 21
226.5656229999999
 31
0.0
  0
LINE
  5
CBB2
330
C838
100
AcDbEntity
  8
5
  6
PHANTOM
100
AcDbLine
 10
535.079392
 20
212.6299879999999
 30
0.0
 11
531.0154419999999
 21
212.882316
 31
0.0
  0
LINE
  5
CBB3
330
C838
100
AcDbEntity
  8
5
  6
PHANTOM
100
AcDbLine
 10
534.9368619999998
 20
210.3344059999999
 30
0.0
 11
534.1474599999997
 21
210.38342
 31
0.0
  0
ARC
  5
CBB4
330
C838
100
AcDbEntity
  8
5
  6
PHANTOM
100
AcDbCircle
 10
525.1627549999998
 20
201.344942
 30
0.0
 40
7.64465
100
AcDbArc
 50
311.719786
 51
335.95288
  0
ARC
  5
CBB5
330
C838
100
AcDbEntity
  8
1
  6
Continuous
100
AcDbCircle
 10
523.5197460000001
 20
198.3425419999999
 30
0.0
 40
9.0
100
AcDbArc
 50
308.070844
 51
30.13772599999999
  0
LINE
  5
CBB6
330
C838
100
AcDbEntity
  8
5
  6
PHANTOM
100
AcDbLine
 10
533.9861959999998
 20
209.739246
 30
0.0
 11
533.594422
 21
204.0503209999999
 31
0.0
  0
ARC
  5
CBB7
330
C838
100
AcDbEntity
  8
5
  6
PHANTOM
100
AcDbCircle
 10
516.4545289999998
 20
205.23068
 30
0.0
 40
17.180489
100
AcDbArc
 50
335.95288
 51
356.06049
  0
ARC
  5
CBB8
330
C838
100
AcDbEntity
  8
5
  6
PHANTOM
100
AcDbCircle
 10
512.4938409999998
 20
207.1278759999999
 30
0.0
 40
21.571022
100
AcDbArc
 50
324.1804849999998
 51
335.4648899999999
  0
ARC
  5
CBB9
330
C838
100
AcDbEntity
  8
5
  6
PHANTOM
100
AcDbCircle
 10
512.4938429999998
 20
207.127884
 30
0.0
 40
21.571022
100
AcDbArc
 50
324.180481
 51
335.4648899999999
  0
LINE
  5
CBBA
330
C838
100
AcDbEntity
  8
1
  6
Continuous
100
AcDbLine
 10
531.040574
 20
226.754577
 30
0.0
 11
530.5002599999998
 21
228.990552
 31
0.0
  0
ARC
  5
CBBB
330
C838
100
AcDbEntity
  8
1
  6
Continuous
100
AcDbCircle
 10
532.1922009999998
 20
226.3656899999999
 30
0.0
 40
1.890402999999997
100
AcDbArc
 50
173.9289149999999
 51
194.1604899999999
  0
ARC
  5
CBBC
330
C838
100
AcDbEntity
  8
1
  6
Continuous
100
AcDbCircle
 10
532.1922009999998
 20
226.3657009999998
 30
0.0
 40
1.890402999999997
100
AcDbArc
 50
173.928921
 51
194.1605
  0
LINE
  5
CBBD
330
C838
100
AcDbEntity
  8
1
  6
Continuous
100
AcDbLine
 10
530.3592459999999
 20
225.903226
 30
0.0
 11
531.754273
 21
220.3740970000001
 31
0.0
  0
ARC
  5
CBBE
330
C838
100
AcDbEntity
  8
5
  6
PHANTOM
100
AcDbCircle
 10
535.872126
 20
209.6093699999999
 30
0.0
 40
1.890402999999997
100
AcDbArc
 50
155.828915
 51
176.0604899999999
  0
ARC
  5
CBBF
330
C838
100
AcDbEntity
  8
5
  6
PHANTOM
100
AcDbCircle
 10
535.872129
 20
209.6093799999999
 30
0.0
 40
1.890402999999997
100
AcDbArc
 50
155.828921
 51
176.0604999999999
  0
ARC
  5
CBC0
330
C838
100
AcDbEntity
  8
1
  6
Continuous
100
AcDbCircle
 10
510.741715
 20
216.7439089999998
 30
0.0
 40
21.571022
100
AcDbArc
 50
342.299256
 51
353.5648899999998
  0
ARC
  5
CBC1
330
C838
100
AcDbEntity
  8
1
  6
Continuous
100
AcDbCircle
 10
510.741715
 20
216.7439169999999
 30
0.0
 40
21.571022
100
AcDbArc
 50
342.299252
 51
353.5648899999998
  0
ARC
  5
CBC2
330
C838
100
AcDbEntity
  8
1
  6
Continuous
100
AcDbCircle
 10
524.5803379999999
 20
215.1830719999999
 30
0.0
 40
7.64465
100
AcDbArc
 50
329.85377
 51
354.0528799999998
  0
LINE
  5
CBC3
330
C838
100
AcDbEntity
  8
5
  6
PHANTOM
100
AcDbLine
 10
534.898304
 20
210.3367959999999
 30
0.0
 11
535.079392
 21
212.6299889999999
 31
0.0
  0
ARC
  5
CBC4
330
C838
100
AcDbEntity
  8
1
  6
Continuous
100
AcDbCircle
 10
515.095826
 20
216.1710869999998
 30
0.0
 40
17.180489
100
AcDbArc
 50
354.0528799999998
 51
14.16049
  0
CIRCLE
  5
CBC5
330
C838
100
AcDbEntity
  8
1
  6
Continuous
100
AcDbCircle
 10
507.531672
 20
206.4357199999999
 30
0.0
 40
2.6
  0
ARC
  5
CBC6
330
C838
100
AcDbEntity
  8
1
  6
Continuous
100
AcDbCircle
 10
454.543573
 20
213.9914719999999
 30
0.0
 40
27.5
100
AcDbArc
 50
193.4580699999998
 51
203.71391
  0
ARC
  5
CBC7
330
C838
100
AcDbEntity
  8
1
  6
Continuous
100
AcDbCircle
 10
439.955468
 20
210.5004629999998
 30
0.0
 40
12.5
100
AcDbArc
 50
120.050525
 51
193.4580699999998
  0
CIRCLE
  5
CBC8
330
C838
100
AcDbEntity
  8
1
  6
Continuous
100
AcDbCircle
 10
481.4316719999998
 20
180.33572
 30
0.0
 40
2.6
  0
CIRCLE
  5
CBC9
330
C838
100
AcDbEntity
  8
1
  6
Continuous
100
AcDbCircle
 10
455.3316719999998
 20
206.4357199999999
 30
0.0
 40
2.6
  0
ARC
  5
CBCA
330
C838
100
AcDbEntity
  8
5
  6
PHANTOM
100
AcDbCircle
 10
462.9994619999997
 20
210.2447569999999
 30
0.0
 40
31.351715
100
AcDbArc
 50
174.02583
 51
178.142766
  0
ARC
  5
CBCB
330
C838
100
AcDbEntity
  8
5
  6
PHANTOM
100
AcDbCircle
 10
462.9994619999997
 20
210.2447569999999
 30
0.0
 40
31.351715
100
AcDbArc
 50
174.02584
 51
178.142766
  0
ARC
  5
CBCC
330
C838
100
AcDbEntity
  8
1
  6
Continuous
100
AcDbCircle
 10
439.965646
 20
210.2506689999999
 30
0.0
 40
9.0
100
AcDbArc
 50
150.821378
 51
198.688725
  0
LINE
  5
CBCD
330
C838
100
AcDbEntity
  8
1
  6
Continuous
100
AcDbLine
 10
431.535436
 20
203.224593
 30
0.0
 11
430.1878369999998
 21
202.872216
 31
0.0
  0
ARC
  5
CBCE
330
C838
100
AcDbEntity
  8
1
  6
Continuous
100
AcDbCircle
 10
461.901445
 20
217.2234809999999
 30
0.0
 40
35.53642700000001
100
AcDbArc
 50
203.71391
 51
212.434095
  0
ARC
  5
CBCF
330
C838
100
AcDbEntity
  8
1
  6
Continuous
100
AcDbCircle
 10
608.9415719999998
 20
253.844041
 30
0.0
 40
185.8965599999999
100
AcDbArc
 50
195.9154399999999
 51
196.7298
  0
ARC
  5
CBD0
330
C838
100
AcDbEntity
  8
1
  6
Continuous
100
AcDbCircle
 10
462.7281889999999
 20
204.3298159999999
 30
0.0
 40
31.351715
100
AcDbArc
 50
192.12583
 51
196.318148
  0
ARC
  5
CBD1
330
C838
100
AcDbEntity
  8
1
  6
Continuous
100
AcDbCircle
 10
462.7281889999999
 20
204.3298159999999
 30
0.0
 40
31.351715
100
AcDbArc
 50
192.12584
 51
196.318148
  0
ARC
  5
CBD2
330
C838
100
AcDbEntity
  8
1
  6
Continuous
100
AcDbCircle
 10
406.0136499999998
 20
187.592405
 30
0.0
 40
27.96965
100
AcDbArc
 50
19.938237
 51
27.09602
  0
LINE
  5
CBD3
330
C838
100
AcDbEntity
  8
5
  6
PHANTOM
100
AcDbLine
 10
433.0042049999998
 20
218.885239
 30
0.0
 11
431.6165049999998
 21
218.9688049999999
 31
0.0
  0
ARC
  5
CBD4
330
C838
100
AcDbEntity
  8
5
  6
PHANTOM
100
AcDbCircle
 10
403.891482
 20
211.955454
 30
0.0
 40
27.96965
100
AcDbArc
 50
1.402439999999999
 51
8.996019999999997
  0
ARC
  5
CBD5
330
C838
100
AcDbEntity
  8
5
  6
PHANTOM
100
AcDbCircle
 10
617.360486
 20
211.883754
 30
0.0
 40
185.8965599999999
100
AcDbArc
 50
177.81544
 51
178.6297999999999
  0
LINE
  5
CBD6
330
C838
100
AcDbEntity
  8
1
  6
Continuous
100
AcDbLine
 10
439.182085
 20
329.54463
 30
0.0
 11
439.182085
 21
326.34463
 31
0.0
  0
LINE
  5
CBD7
330
C838
100
AcDbEntity
  8
1
  6
Continuous
100
AcDbLine
 10
444.452136
 20
329.54463
 30
0.0
 11
444.452136
 21
326.34463
 31
0.0
  0
LINE
  5
CBD8
330
C838
100
AcDbEntity
  8
1
  6
Continuous
100
AcDbLine
 10
457.6820849999998
 20
329.54463
 30
0.0
 11
457.6820849999998
 21
326.34463
 31
0.0
  0
LINE
  5
CBD9
330
C838
100
AcDbEntity
  8
1
  6
Continuous
100
AcDbLine
 10
452.4120349999998
 20
329.54463
 30
0.0
 11
452.4120349999998
 21
326.34463
 31
0.0
  0
LINE
  5
CBDA
330
C838
100
AcDbEntity
  8
4
  6
CENTER
100
AcDbLine
 10
448.4320849999998
 20
235.4709539999999
 30
0.0
 11
448.4320849999998
 21
335.4446299999999
 31
0.0
  0
LINE
  5
CBDB
330
C838
100
AcDbEntity
  8
1
  6
Continuous
100
AcDbLine
 10
426.0946070000001
 20
269.1289569999999
 30
0.0
 11
428.6330949999999
 21
271.6504459999999
 31
0.0
  0
LINE
  5
CBDC
330
C838
100
AcDbEntity
  8
1
  6
Continuous
100
AcDbLine
 10
428.343157
 20
269.1289569999999
 30
0.0
 11
425.8046679999997
 21
271.6504459999999
 31
0.0
  0
LINE
  5
CBDD
330
C838
100
AcDbEntity
  8
1
  6
Continuous
100
AcDbLine
 10
469.4320849999998
 20
276.944652
 30
0.0
 11
427.4320849999998
 21
276.944652
 31
0.0
  0
LINE
  5
CBDE
330
C838
100
AcDbEntity
  8
1
  6
Continuous
100
AcDbLine
 10
421.745985
 20
272.944652
 30
0.0
 11
475.118185
 21
272.944652
 31
0.0
  0
LINE
  5
CBDF
330
C838
100
AcDbEntity
  8
1
  6
Continuous
100
AcDbLine
 10
475.118185
 20
271.6504459999999
 30
0.0
 11
421.745985
 21
271.6504459999999
 31
0.0
  0
LINE
  5
CBE0
330
C838
100
AcDbEntity
  8
1
  6
Continuous
100
AcDbLine
 10
421.745985
 20
269.1289569999999
 30
0.0
 11
475.118185
 21
269.1289569999999
 31
0.0
  0
LINE
  5
CBE1
330
C838
100
AcDbEntity
  8
1
  6
Continuous
100
AcDbLine
 10
424.2070849999998
 20
269.1289680000001
 30
0.0
 11
472.6570849999998
 21
269.1289680000001
 31
0.0
  0
LINE
  5
CBE2
330
C838
100
AcDbEntity
  8
1
  6
Continuous
100
AcDbLine
 10
422.5103519999998
 20
259.144544
 30
0.0
 11
428.1647089999998
 21
258.6456549999999
 31
0.0
  0
LINE
  5
CBE3
330
C838
100
AcDbEntity
  8
1
  6
Continuous
100
AcDbLine
 10
432.2663019999998
 20
276.944652
 30
0.0
 11
432.2663019999998
 21
280.4446299999998
 31
0.0
  0
LINE
  5
CBE4
330
C838
100
AcDbEntity
  8
1
  6
Continuous
100
AcDbLine
 10
440.3492049999998
 20
276.944652
 30
0.0
 11
440.3492049999998
 21
280.4446299999998
 31
0.0
  0
LINE
  5
CBE5
330
C838
100
AcDbEntity
  8
1
  6
Continuous
100
AcDbLine
 10
456.515013
 20
276.944652
 30
0.0
 11
456.515013
 21
280.4446299999998
 31
0.0
  0
LINE
  5
CBE6
330
C838
100
AcDbEntity
  8
1
  6
Continuous
100
AcDbLine
 10
464.597917
 20
276.944652
 30
0.0
 11
464.597917
 21
280.4446299999998
 31
0.0
  0
LINE
  5
CBE7
330
C838
100
AcDbEntity
  8
1
  6
Continuous
100
AcDbLine
 10
460.035732
 20
269.1289569999999
 30
0.0
 11
462.574221
 21
271.6504459999999
 31
0.0
  0
LINE
  5
CBE8
330
C838
100
AcDbEntity
  8
1
  6
Continuous
100
AcDbLine
 10
462.284283
 20
269.1289569999999
 30
0.0
 11
459.7457939999999
 21
271.6504459999999
 31
0.0
  0
ARC
  5
CBE9
330
C838
100
AcDbEntity
  8
1
  6
Continuous
100
AcDbCircle
 10
491.5559059999998
 20
254.0366169999999
 30
0.0
 40
14.529548
100
AcDbArc
 50
138.3877149999999
 51
180.690332
  0
ARC
  5
CBEA
330
C838
100
AcDbEntity
  8
1
  6
Continuous
100
AcDbCircle
 10
479.5829519999998
 20
398.419323
 30
0.0
 40
132.2282199999999
100
AcDbArc
 50
266.0406469999999
 51
271.272583
  0
ARC
  5
CBEB
330
C838
100
AcDbEntity
  8
1
  6
Continuous
100
AcDbCircle
 10
482.602253
 20
262.503052
 30
0.0
 40
3.721582999999998
100
AcDbArc
 50
67.573387
 51
91.27258299999999
  0
ARC
  5
CBEC
330
C838
100
AcDbEntity
  8
1
  6
Continuous
100
AcDbCircle
 10
483.9137069999998
 20
265.6806889999999
 30
0.0
 40
0.283955
100
AcDbArc
 50
26.44452299999999
 51
67.573387
  0
ARC
  5
CBED
330
C838
100
AcDbEntity
  8
1
  6
Continuous
100
AcDbCircle
 10
478.034225
 20
265.1756279999998
 30
0.0
 40
6.166148999999997
100
AcDbArc
 50
358.5010279999999
 51
5.878328999999997
  0
ARC
  5
CBEE
330
C838
100
AcDbEntity
  8
1
  6
Continuous
100
AcDbCircle
 10
482.602253
 20
262.503052
 30
0.0
 40
3.721582999999998
100
AcDbArc
 50
67.573387
 51
91.27258299999999
  0
ARC
  5
CBEF
330
C838
100
AcDbEntity
  8
1
  6
Continuous
100
AcDbCircle
 10
483.9137069999998
 20
265.6806889999999
 30
0.0
 40
0.283955
100
AcDbArc
 50
26.44452299999999
 51
67.573387
  0
ARC
  5
CBF0
330
C838
100
AcDbEntity
  8
1
  6
Continuous
100
AcDbCircle
 10
478.034225
 20
265.1756279999998
 30
0.0
 40
6.166148999999997
100
AcDbArc
 50
358.5010279999999
 51
5.878328999999997
  0
ARC
  5
CBF1
330
C838
100
AcDbEntity
  8
1
  6
Continuous
100
AcDbCircle
 10
483.626747
 20
264.2695939999999
 30
0.0
 40
0.565705
100
AcDbArc
 50
270.6701649999998
 51
312.780166
  0
ARC
  5
CBF2
330
C838
100
AcDbEntity
  8
1
  6
Continuous
100
AcDbCircle
 10
483.626747
 20
264.2695939999999
 30
0.0
 40
0.565705
100
AcDbArc
 50
270.6701649999998
 51
312.780166
  0
ARC
  5
CBF3
330
C838
100
AcDbEntity
  8
1
  6
Continuous
100
AcDbCircle
 10
480.4652769999998
 20
534.547265
 30
0.0
 40
270.861866
100
AcDbArc
 50
270.0481299999999
 51
270.6701649999998
  0
ARC
  5
CBF4
330
C838
100
AcDbEntity
  8
1
  6
Continuous
100
AcDbCircle
 10
480.4652769999998
 20
534.547265
 30
0.0
 40
270.861866
100
AcDbArc
 50
270.0481299999999
 51
270.6701649999998
  0
ARC
  5
CBF5
330
C838
100
AcDbEntity
  8
1
  6
Continuous
100
AcDbCircle
 10
489.271944
 20
263.5999749999999
 30
0.0
 40
5.267126
100
AcDbArc
 50
164.4235139999999
 51
177.2314419999999
  0
LINE
  5
CBF6
330
C838
100
AcDbEntity
  8
1
  6
Continuous
100
AcDbLine
 10
480.692807
 20
263.685495
 30
0.0
 11
481.429738
 21
266.204001
 31
0.0
  0
ARC
  5
CBF7
330
C838
100
AcDbEntity
  8
1
  6
Continuous
100
AcDbCircle
 10
489.271944
 20
263.5999749999999
 30
0.0
 40
5.267126
100
AcDbArc
 50
164.4235139999999
 51
177.2314419999999
  0
LINE
  5
CBF8
330
C838
100
AcDbEntity
  8
1
  6
Continuous
100
AcDbLine
 10
480.692807
 20
263.685495
 30
0.0
 11
481.429738
 21
266.204001
 31
0.0
  0
LINE
  5
CBF9
330
C838
100
AcDbEntity
  8
1
  6
Continuous
100
AcDbLine
 10
462.8641589999999
 20
269.1289569999999
 30
0.0
 11
465.402648
 21
271.6504459999999
 31
0.0
  0
LINE
  5
CBFA
330
C838
100
AcDbEntity
  8
1
  6
Continuous
100
AcDbLine
 10
465.1127099999998
 20
269.1289569999999
 30
0.0
 11
462.574221
 21
271.6504459999999
 31
0.0
  0
LINE
  5
CBFB
330
C838
100
AcDbEntity
  8
1
  6
Continuous
100
AcDbLine
 10
465.692586
 20
269.1289569999999
 30
0.0
 11
468.231075
 21
271.6504459999999
 31
0.0
  0
LINE
  5
CBFC
330
C838
100
AcDbEntity
  8
1
  6
Continuous
100
AcDbLine
 10
468.5210129999998
 20
269.1289569999999
 30
0.0
 11
471.0595019999998
 21
271.6504459999999
 31
0.0
  0
LINE
  5
CBFD
330
C838
100
AcDbEntity
  8
1
  6
Continuous
100
AcDbLine
 10
470.7695639999998
 20
269.1289569999999
 30
0.0
 11
468.231075
 21
271.6504459999999
 31
0.0
  0
LINE
  5
CBFE
330
C838
100
AcDbEntity
  8
1
  6
Continuous
100
AcDbLine
 10
471.349441
 20
269.1289569999999
 30
0.0
 11
473.8879289999998
 21
271.6504459999999
 31
0.0
  0
LINE
  5
CBFF
330
C838
100
AcDbEntity
  8
1
  6
Continuous
100
AcDbLine
 10
473.597991
 20
269.1289569999999
 30
0.0
 11
471.0595019999998
 21
271.6504459999999
 31
0.0
  0
LINE
  5
CC00
330
C838
100
AcDbEntity
  8
1
  6
Continuous
100
AcDbLine
 10
474.177868
 20
269.1289569999999
 30
0.0
 11
475.118185
 21
270.069274
 31
0.0
  0
LINE
  5
CC01
330
C838
100
AcDbEntity
  8
1
  6
Continuous
100
AcDbLine
 10
475.118185
 20
269.1289569999999
 30
0.0
 11
475.118185
 21
272.944652
 31
0.0
  0
LINE
  5
CC02
330
C838
100
AcDbEntity
  8
1
  6
Continuous
100
AcDbLine
 10
475.118185
 20
270.4371899999998
 30
0.0
 11
473.8879289999998
 21
271.6504459999999
 31
0.0
  0
ARC
  5
CC03
330
C838
100
AcDbEntity
  8
1
  6
Continuous
100
AcDbCircle
 10
469.4320849999998
 20
272.944652
 30
0.0
 40
4.0
100
AcDbArc
 50
0.0
 51
90.0
  0
ARC
  5
CC04
330
C838
100
AcDbEntity
  8
1
  6
Continuous
100
AcDbCircle
 10
472.823253
 20
266.7600759999999
 30
0.0
 40
2.383999999999999
100
AcDbArc
 50
89.765923
 51
186.1011659999999
  0
ARC
  5
CC05
330
C838
100
AcDbEntity
  8
1
  6
Continuous
100
AcDbCircle
 10
472.9001009999998
 20
265.9437549999998
 30
0.0
 40
3.2
100
AcDbArc
 50
29.372364
 51
89.765923
  0
ARC
  5
CC06
330
C838
100
AcDbEntity
  8
1
  6
Continuous
100
AcDbCircle
 10
476.873081
 20
267.4081259999999
 30
0.0
 40
1.189
100
AcDbArc
 50
174.9251139999999
 51
268.815048
  0
LINE
  5
CC07
330
C838
100
AcDbEntity
  8
1
  6
Continuous
100
AcDbLine
 10
467.941137
 20
269.1289569999999
 30
0.0
 11
465.402648
 21
271.6504459999999
 31
0.0
  0
LINE
  5
CC08
330
C838
100
AcDbEntity
  8
1
  6
Continuous
100
AcDbLine
 10
443.065169
 20
269.1289569999999
 30
0.0
 11
445.603658
 21
271.6504459999999
 31
0.0
  0
LINE
  5
CC09
330
C838
100
AcDbEntity
  8
1
  6
Continuous
100
AcDbLine
 10
445.3137199999998
 20
269.1289569999999
 30
0.0
 11
442.7752309999998
 21
271.6504459999999
 31
0.0
  0
LINE
  5
CC0A
330
C838
100
AcDbEntity
  8
1
  6
Continuous
100
AcDbLine
 10
445.8935959999998
 20
269.1289569999999
 30
0.0
 11
448.4320849999998
 21
271.6504459999999
 31
0.0
  0
LINE
  5
CC0B
330
C838
100
AcDbEntity
  8
1
  6
Continuous
100
AcDbLine
 10
448.1421469999999
 20
269.1289569999999
 30
0.0
 11
445.603658
 21
271.6504459999999
 31
0.0
  0
LINE
  5
CC0C
330
C838
100
AcDbEntity
  8
1
  6
Continuous
100
AcDbLine
 10
451.5504509999998
 20
269.1289569999999
 30
0.0
 11
454.08894
 21
271.6504459999999
 31
0.0
  0
LINE
  5
CC0D
330
C838
100
AcDbEntity
  8
1
  6
Continuous
100
AcDbLine
 10
453.7990009999998
 20
269.1289569999999
 30
0.0
 11
451.2605119999998
 21
271.6504459999999
 31
0.0
  0
LINE
  5
CC0E
330
C838
100
AcDbEntity
  8
1
  6
Continuous
100
AcDbLine
 10
454.3788779999998
 20
269.1289569999999
 30
0.0
 11
456.917367
 21
271.6504459999999
 31
0.0
  0
LINE
  5
CC0F
330
C838
100
AcDbEntity
  8
1
  6
Continuous
100
AcDbLine
 10
456.627428
 20
269.1289569999999
 30
0.0
 11
454.08894
 21
271.6504459999999
 31
0.0
  0
LINE
  5
CC10
330
C838
100
AcDbEntity
  8
1
  6
Continuous
100
AcDbLine
 10
457.2073049999998
 20
269.1289569999999
 30
0.0
 11
459.7457939999999
 21
271.6504459999999
 31
0.0
  0
LINE
  5
CC11
330
C838
100
AcDbEntity
  8
1
  6
Continuous
100
AcDbLine
 10
459.455856
 20
269.1289569999999
 30
0.0
 11
456.917367
 21
271.6504459999999
 31
0.0
  0
LINE
  5
CC12
330
C838
100
AcDbEntity
  8
1
  6
Continuous
100
AcDbLine
 10
448.722024
 20
269.1289569999999
 30
0.0
 11
451.2605119999998
 21
271.6504459999999
 31
0.0
  0
LINE
  5
CC13
330
C838
100
AcDbEntity
  8
1
  6
Continuous
100
AcDbLine
 10
450.970574
 20
269.1289569999999
 30
0.0
 11
448.4320849999998
 21
271.6504459999999
 31
0.0
  0
LINE
  5
CC14
330
C838
100
AcDbEntity
  8
1
  6
Continuous
100
AcDbLine
 10
431.1715839999997
 20
269.1289569999999
 30
0.0
 11
428.6330949999999
 21
271.6504459999999
 31
0.0
  0
LINE
  5
CC15
330
C838
100
AcDbEntity
  8
1
  6
Continuous
100
AcDbLine
 10
428.9230339999998
 20
269.1289569999999
 30
0.0
 11
431.461523
 21
271.6504459999999
 31
0.0
  0
LINE
  5
CC16
330
C838
100
AcDbEntity
  8
1
  6
Continuous
100
AcDbLine
 10
439.6568659999998
 20
269.1289569999999
 30
0.0
 11
437.118377
 21
271.6504459999999
 31
0.0
  0
LINE
  5
CC17
330
C838
100
AcDbEntity
  8
1
  6
Continuous
100
AcDbLine
 10
437.408315
 20
269.1289569999999
 30
0.0
 11
439.946804
 21
271.6504459999999
 31
0.0
  0
LINE
  5
CC18
330
C838
100
AcDbEntity
  8
1
  6
Continuous
100
AcDbLine
 10
434.579888
 20
269.1289569999999
 30
0.0
 11
437.118377
 21
271.6504459999999
 31
0.0
  0
LINE
  5
CC19
330
C838
100
AcDbEntity
  8
1
  6
Continuous
100
AcDbLine
 10
436.8284389999998
 20
269.1289569999999
 30
0.0
 11
434.2899499999998
 21
271.6504459999999
 31
0.0
  0
LINE
  5
CC1A
330
C838
100
AcDbEntity
  8
1
  6
Continuous
100
AcDbLine
 10
440.236742
 20
269.1289569999999
 30
0.0
 11
442.7752309999998
 21
271.6504459999999
 31
0.0
  0
LINE
  5
CC1B
330
C838
100
AcDbEntity
  8
1
  6
Continuous
100
AcDbLine
 10
442.4852929999998
 20
269.1289569999999
 30
0.0
 11
439.946804
 21
271.6504459999999
 31
0.0
  0
LINE
  5
CC1C
330
C838
100
AcDbEntity
  8
1
  6
Continuous
100
AcDbLine
 10
431.7514609999998
 20
269.1289569999999
 30
0.0
 11
434.2899499999998
 21
271.6504459999999
 31
0.0
  0
LINE
  5
CC1D
330
C838
100
AcDbEntity
  8
1
  6
Continuous
100
AcDbLine
 10
434.000011
 20
269.1289569999999
 30
0.0
 11
431.461523
 21
271.6504459999999
 31
0.0
  0
ARC
  5
CC1E
330
C838
100
AcDbEntity
  8
1
  6
Continuous
100
AcDbCircle
 10
427.96063
 20
256.332641
 30
0.0
 40
2.322
100
AcDbArc
 50
13.304852
 51
84.95780100000002
  0
LINE
  5
CC1F
330
C838
100
AcDbEntity
  8
1
  6
Continuous
100
AcDbLine
 10
432.2663019999998
 20
280.4446299999998
 30
0.0
 11
464.597917
 21
280.4446299999998
 31
0.0
  0
LINE
  5
CC20
330
C838
100
AcDbEntity
  8
1
  6
Continuous
100
AcDbLine
 10
438.9320849999998
 20
325.34463
 30
0.0
 11
438.9320849999998
 21
281.9446299999999
 31
0.0
  0
LINE
  5
CC21
330
C838
100
AcDbEntity
  8
1
  6
Continuous
100
AcDbLine
 10
457.932085
 20
281.9446299999999
 30
0.0
 11
457.932085
 21
325.34463
 31
0.0
  0
LINE
  5
CC22
330
C838
100
AcDbEntity
  8
1
  6
Continuous
100
AcDbLine
 10
457.932085
 20
284.34463
 30
0.0
 11
438.9320849999998
 21
284.34463
 31
0.0
  0
ARC
  5
CC23
330
C838
100
AcDbEntity
  8
1
  6
Continuous
100
AcDbCircle
 10
456.4320849999998
 20
281.9446299999999
 30
0.0
 40
1.5
100
AcDbArc
 50
270.0
 51
0.0
  0
ARC
  5
CC24
330
C838
100
AcDbEntity
  8
1
  6
Continuous
100
AcDbCircle
 10
440.4320849999998
 20
281.9446299999999
 30
0.0
 40
1.5
100
AcDbArc
 50
180.0
 51
270.0
  0
LINE
  5
CC25
330
C838
100
AcDbEntity
  8
1
  6
Continuous
100
AcDbLine
 10
457.6820849999998
 20
326.34463
 30
0.0
 11
439.182085
 21
326.34463
 31
0.0
  0
ARC
  5
CC26
330
C838
100
AcDbEntity
  8
1
  6
Continuous
100
AcDbCircle
 10
456.9320849999998
 20
325.34463
 30
0.0
 40
1.0
100
AcDbArc
 50
0.0
 51
90.0
  0
ARC
  5
CC27
330
C838
100
AcDbEntity
  8
1
  6
Continuous
100
AcDbCircle
 10
439.9320849999998
 20
325.34463
 30
0.0
 40
1.0
100
AcDbArc
 50
90.0
 51
180.0
  0
LINE
  5
CC28
330
C838
100
AcDbEntity
  8
1
  6
Continuous
100
AcDbLine
 10
423.2661789999998
 20
269.1289569999999
 30
0.0
 11
425.8046679999997
 21
271.6504459999999
 31
0.0
  0
LINE
  5
CC29
330
C838
100
AcDbEntity
  8
1
  6
Continuous
100
AcDbLine
 10
425.5147299999999
 20
269.1289569999999
 30
0.0
 11
422.976241
 21
271.6504459999999
 31
0.0
  0
LINE
  5
CC2A
330
C838
100
AcDbEntity
  8
1
  6
Continuous
100
AcDbLine
 10
421.745985
 20
272.944652
 30
0.0
 11
421.745985
 21
269.1289569999999
 31
0.0
  0
LINE
  5
CC2B
330
C838
100
AcDbEntity
  8
1
  6
Continuous
100
AcDbLine
 10
421.745985
 20
270.4371899999998
 30
0.0
 11
422.976241
 21
271.6504459999999
 31
0.0
  0
LINE
  5
CC2C
330
C838
100
AcDbEntity
  8
1
  6
Continuous
100
AcDbLine
 10
421.745985
 20
270.069274
 30
0.0
 11
422.686303
 21
269.1289569999999
 31
0.0
  0
ARC
  5
CC2D
330
C838
100
AcDbEntity
  8
1
  6
Continuous
100
AcDbCircle
 10
427.4320849999998
 20
272.944652
 30
0.0
 40
4.0
100
AcDbArc
 50
90.0
 51
180.0
  0
ARC
  5
CC2E
330
C838
100
AcDbEntity
  8
1
  6
Continuous
100
AcDbCircle
 10
424.2070849999998
 20
265.928968
 30
0.0
 40
3.2
100
AcDbArc
 50
90.0
 51
158.405854
  0
ARC
  5
CC2F
330
C838
100
AcDbEntity
  8
1
  6
Continuous
100
AcDbCircle
 10
427.9002559999998
 20
264.464311
 30
0.0
 40
7.172999999999999
100
AcDbArc
 50
158.3674609999999
 51
163.9433239999999
  0
LINE
  5
CC30
330
C838
100
AcDbEntity
  8
1
  6
Continuous
100
AcDbLine
 10
422.5103519999998
 20
259.144544
 30
0.0
 11
421.0070849999998
 21
259.24496
 31
0.0
  0
LINE
  5
CC31
330
C838
100
AcDbEntity
  8
1
  6
Continuous
100
AcDbLine
 10
421.0070849999998
 20
259.24496
 30
0.0
 11
421.0070849999998
 21
266.448277
 31
0.0
  0
LINE
  5
CC32
330
C838
100
AcDbEntity
  8
1
  6
Continuous
100
AcDbLine
 10
452.9321089999998
 20
330.4446299999999
 30
0.0
 11
443.9321089999999
 21
330.4446299999999
 31
0.0
  0
LINE
  5
CC33
330
C838
100
AcDbEntity
  8
1
  6
Continuous
100
AcDbLine
 10
457.6820849999998
 20
329.54463
 30
0.0
 11
439.182085
 21
329.54463
 31
0.0
  0
LINE
  5
CC34
330
C838
100
AcDbEntity
  8
2
  6
Continuous
100
AcDbLine
 10
453.4850849999998
 20
329.54463
 30
0.0
 11
453.4850849999998
 21
329.891654
 31
0.0
  0
LINE
  5
CC35
330
C838
100
AcDbEntity
  8
1
  6
Continuous
100
AcDbLine
 10
452.9321089999998
 20
330.4446299999999
 30
0.0
 11
453.832109
 21
329.54463
 31
0.0
  0
LINE
  5
CC36
330
C838
100
AcDbEntity
  8
2
  6
Continuous
100
AcDbLine
 10
443.379085
 20
329.54463
 30
0.0
 11
443.379085
 21
329.891606
 31
0.0
  0
LINE
  5
CC37
330
C838
100
AcDbEntity
  8
1
  6
Continuous
100
AcDbLine
 10
443.9321089999999
 20
330.4446299999999
 30
0.0
 11
443.0321089999998
 21
329.54463
 31
0.0
  0
LINE
  5
CC38
330
C838
100
AcDbEntity
  8
1
  6
Continuous
100
AcDbLine
 10
187.586035
 20
100.8582829999999
 30
0.0
 11
195.586035
 21
100.8582829999999
 31
0.0
  0
LINE
  5
CC39
330
C838
100
AcDbEntity
  8
1
  6
Continuous
100
AcDbLine
 10
194.786035
 20
101.6582829999999
 30
0.0
 11
188.3860349999999
 21
101.6582829999999
 31
0.0
  0
LINE
  5
CC3A
330
C838
100
AcDbEntity
  8
2
  6
Continuous
100
AcDbLine
 10
188.2625349999999
 20
101.5347829999999
 30
0.0
 11
188.2625349999999
 21
100.775465
 31
0.0
  0
LINE
  5
CC3B
330
C838
100
AcDbEntity
  8
1
  6
Continuous
100
AcDbLine
 10
188.3860349999999
 20
101.6582829999999
 30
0.0
 11
187.586035
 21
100.8582829999999
 31
0.0
  0
LINE
  5
CC3C
330
C838
100
AcDbEntity
  8
1
  6
Continuous
100
AcDbLine
 10
187.586035
 20
100.775465
 30
0.0
 11
187.586035
 21
100.8582829999999
 31
0.0
  0
ARC
  5
CC3D
330
C838
100
AcDbEntity
  8
1
  6
Continuous
100
AcDbCircle
 10
194.586035
 20
92.11040199999999
 30
0.0
 40
8.665063999999999
100
AcDbArc
 50
69.743842
 51
110.256158
  0
ARC
  5
CC3E
330
C838
100
AcDbEntity
  8
1
  6
Continuous
100
AcDbCircle
 10
194.586035
 20
104.440529
 30
0.0
 40
8.665063999999999
100
AcDbArc
 50
249.7438419999999
 51
290.256158
  0
LINE
  5
CC3F
330
C838
100
AcDbEntity
  8
1
  6
Continuous
100
AcDbLine
 10
191.586035
 20
96.31136300000001
 30
0.0
 11
191.586035
 21
100.2395669999999
 31
0.0
  0
LINE
  5
CC40
330
C838
100
AcDbEntity
  8
2
  6
Continuous
100
AcDbLine
 10
194.909535
 20
101.5347829999999
 30
0.0
 11
194.909535
 21
100.775465
 31
0.0
  0
LINE
  5
CC41
330
C838
100
AcDbEntity
  8
1
  6
Continuous
100
AcDbLine
 10
194.786035
 20
101.6582829999999
 30
0.0
 11
195.586035
 21
100.8582829999999
 31
0.0
  0
LINE
  5
CC42
330
C838
100
AcDbEntity
  8
1
  6
Continuous
100
AcDbLine
 10
195.586035
 20
100.775465
 30
0.0
 11
195.586035
 21
100.8582829999999
 31
0.0
  0
LINE
  5
CC43
330
C838
100
AcDbEntity
  8
1
  6
Continuous
100
AcDbLine
 10
197.5860349999999
 20
100.775465
 30
0.0
 11
197.5860349999999
 21
95.775465
 31
0.0
  0
LINE
  5
CC44
330
C838
100
AcDbEntity
  8
1
  6
Continuous
100
AcDbLine
 10
184.586035
 20
95.775465
 30
0.0
 11
184.586035
 21
94.275465
 31
0.0
  0
LINE
  5
CC45
330
C838
100
AcDbEntity
  8
1
  6
Continuous
100
AcDbLine
 10
185.586035
 20
100.775465
 30
0.0
 11
185.586035
 21
95.775465
 31
0.0
  0
LINE
  5
CC46
330
C838
100
AcDbEntity
  8
1
  6
Continuous
100
AcDbLine
 10
197.7931989999999
 20
95.775465
 30
0.0
 11
184.586035
 21
95.775465
 31
0.0
  0
LINE
  5
CC47
330
C838
100
AcDbEntity
  8
1
  6
Continuous
100
AcDbLine
 10
185.586035
 20
100.775465
 30
0.0
 11
197.5860349999999
 21
100.775465
 31
0.0
  0
ARC
  5
CC48
330
C838
100
AcDbEntity
  8
1
  6
Continuous
100
AcDbCircle
 10
188.586035
 20
92.11040199999999
 30
0.0
 40
8.665063999999999
100
AcDbArc
 50
69.743842
 51
110.256158
  0
ARC
  5
CC49
330
C838
100
AcDbEntity
  8
1
  6
Continuous
100
AcDbCircle
 10
188.586035
 20
104.440529
 30
0.0
 40
8.665063999999999
100
AcDbArc
 50
249.7438419999999
 51
290.256158
  0
LINE
  5
CC4A
330
C838
100
AcDbEntity
  8
1
  6
Continuous
100
AcDbLine
 10
86.80438700000001
 20
208.825481
 30
0.0
 11
88.148572
 21
207.404497
 31
0.0
  0
ARC
  5
CC4B
330
C838
100
AcDbEntity
  8
1
  6
Continuous
100
AcDbCircle
 10
191.5864479999999
 20
206.4441629999998
 30
0.0
 40
50.0
100
AcDbArc
 50
175.7089179999999
 51
178.480563
  0
ARC
  5
CC4C
330
C838
100
AcDbEntity
  8
1
  6
Continuous
100
AcDbCircle
 10
191.5864479999999
 20
206.4441629999998
 30
0.0
 40
50.0
100
AcDbArc
 50
203.4956619999999
 51
347.381097
  0
ARC
  5
CC4D
330
C838
100
AcDbEntity
  8
1
  6
Continuous
100
AcDbCircle
 10
191.5864479999999
 20
206.4441629999998
 30
0.0
 40
41.0
100
AcDbArc
 50
208.4296689999999
 51
327.528715
  0
ARC
  5
CC4E
330
C838
100
AcDbEntity
  8
1
  6
Continuous
100
AcDbCircle
 10
191.5864479999999
 20
206.4357199999999
 30
0.0
 40
30.0
100
AcDbArc
 50
208.444112
 51
310.856402
  0
ARC
  5
CC4F
330
C838
100
AcDbEntity
  8
1
  6
Continuous
100
AcDbCircle
 10
191.5864479999999
 20
206.4357199999999
 30
0.0
 40
21.49999999999999
100
AcDbArc
 50
212.5276819999999
 51
297.2053809999998
  0
ARC
  5
CC50
330
C838
100
AcDbEntity
  8
1
  6
Continuous
100
AcDbCircle
 10
191.5864479999999
 20
206.4441629999998
 30
0.0
 40
41.0
100
AcDbArc
 50
22.95324099999999
 51
26.174034
  0
ARC
  5
CC51
330
C838
100
AcDbEntity
  8
1
  6
Continuous
100
AcDbCircle
 10
191.5864479999999
 20
206.4441629999998
 30
0.0
 40
50.0
100
AcDbArc
 50
17.308831
 51
32.458048
  0
ARC
  5
CC52
330
C838
100
AcDbEntity
  8
1
  6
Continuous
100
AcDbCircle
 10
191.5864479999999
 20
206.4357199999999
 30
0.0
 40
30.0
100
AcDbArc
 50
358.782944
 51
16.332298
  0
CIRCLE
  5
CC53
330
C838
100
AcDbEntity
  8
1
  6
Continuous
100
AcDbCircle
 10
481.4316719999998
 20
206.4357199999999
 30
0.0
 40
7.0
  0
ARC
  5
CC54
330
C838
100
AcDbEntity
  8
5
  6
PHANTOM
100
AcDbCircle
 10
-9687.434933
 20
5890.282213999999
 30
0.0
 40
11374.978
100
AcDbArc
 50
330.09334
 51
330.11903
  0
ARC
  5
CC55
330
C838
100
AcDbEntity
  8
1
  6
Continuous
100
AcDbCircle
 10
168.409927
 20
234.2923669999999
 30
0.0
 40
13.76769
100
AcDbArc
 50
272.3706399999999
 51
311.9933399999998
  0
ARC
  5
CC56
330
C838
100
AcDbEntity
  8
5
  6
PHANTOM
100
AcDbCircle
 10
160.902396
 20
225.713502
 30
0.0
 40
13.76769
100
AcDbArc
 50
290.47064
 51
330.09334
  0
ARC
  5
CC57
330
C838
100
AcDbEntity
  8
5
  6
PHANTOM
100
AcDbCircle
 10
183.2407199999999
 20
441.3406889999998
 30
0.0
 40
251.42841
100
AcDbArc
 50
263.55972
 51
269.2761499999999
  0
ARC
  5
CC58
330
C838
100
AcDbEntity
  8
1
  6
Continuous
100
AcDbCircle
 10
268.1267689999998
 20
396.44135
 30
0.0
 40
221.83052
100
AcDbArc
 50
235.88754
 51
245.06386
  0
ARC
  5
CC59
330
C838
100
AcDbEntity
  8
1
  6
Continuous
100
AcDbCircle
 10
256.6331399999999
 20
432.3094099999998
 30
0.0
 40
251.42841
100
AcDbArc
 50
245.45972
 51
251.1761499999999
  0
LINE
  5
CC5A
330
C838
100
AcDbEntity
  8
5
  6
PHANTOM
100
AcDbLine
 10
144.646381
 20
194.4064179999998
 30
0.0
 11
175.0133079999999
 21
190.0469219999999
 31
0.0
  0
ARC
  5
CC5B
330
C838
100
AcDbEntity
  8
5
  6
PHANTOM
100
AcDbCircle
 10
205.308956
 20
410.818334
 30
0.0
 40
221.83052
100
AcDbArc
 50
253.98754
 51
263.16386
  0
ARC
  5
CC5C
330
C838
100
AcDbEntity
  8
1
  6
Continuous
100
AcDbCircle
 10
-603.906292
 20
-2723.682179999999
 30
0.0
 40
3020.3101
100
AcDbArc
 50
74.61067799999998
 51
75.198368
  0
ARC
  5
CC5D
330
C838
100
AcDbEntity
  8
5
  6
PHANTOM
100
AcDbCircle
 10
345.776652
 20
-2825.828284
 30
0.0
 40
3020.3101
100
AcDbArc
 50
92.710678
 51
93.29836800000002
  0
ARC
  5
CC5E
330
C838
100
AcDbEntity
  8
1
  6
Continuous
100
AcDbCircle
 10
149.7981329999998
 20
198.3303349999999
 30
0.0
 40
12.5
100
AcDbArc
 50
125.51238
 51
281.3157899999998
  0
LINE
  5
CC5F
330
C838
100
AcDbEntity
  8
1
  6
Continuous
100
AcDbLine
 10
141.9775459999998
 20
226.754577
 30
0.0
 11
142.51786
 21
228.990552
 31
0.0
  0
LINE
  5
CC60
330
C838
100
AcDbEntity
  8
1
  6
Continuous
100
AcDbLine
 10
142.51786
 20
228.990551
 30
0.0
 11
162.8476169999999
 21
223.715083
 31
0.0
  0
ARC
  5
CC61
330
C838
100
AcDbEntity
  8
1
  6
Continuous
100
AcDbCircle
 10
162.276405
 20
216.7439089999998
 30
0.0
 40
21.571022
100
AcDbArc
 50
186.43511
 51
198.90187
  0
ARC
  5
CC62
330
C838
100
AcDbEntity
  8
1
  6
Continuous
100
AcDbCircle
 10
148.4377819999999
 20
215.1830719999999
 30
0.0
 40
7.64465
100
AcDbArc
 50
185.9471199999999
 51
227.08005
  0
ARC
  5
CC63
330
C838
100
AcDbEntity
  8
5
  6
PHANTOM
100
AcDbCircle
 10
160.524279
 20
207.1278759999999
 30
0.0
 40
21.571022
100
AcDbArc
 50
204.5351099999999
 51
217.00187
  0
ARC
  5
CC64
330
C838
100
AcDbEntity
  8
5
  6
PHANTOM
100
AcDbCircle
 10
147.855366
 20
201.344942
 30
0.0
 40
7.64465
100
AcDbArc
 50
204.0471199999998
 51
245.18005
  0
ARC
  5
CC65
330
C838
100
AcDbEntity
  8
1
  6
Continuous
100
AcDbCircle
 10
149.498374
 20
198.3425419999999
 30
0.0
 40
9.0
100
AcDbArc
 50
119.9597899999997
 51
6.175894
  0
LINE
  5
CC66
330
C838
100
AcDbEntity
  8
5
  6
PHANTOM
100
AcDbLine
 10
138.0812589999999
 20
210.3344059999999
 30
0.0
 11
159.103715
 21
211.639674
 31
0.0
  0
LINE
  5
CC67
330
C838
100
AcDbEntity
  8
5
  6
PHANTOM
100
AcDbLine
 10
137.9387289999999
 20
212.6299879999999
 30
0.0
 11
158.901446
 21
213.9315489999999
 31
0.0
  0
LINE
  5
CC68
330
C838
100
AcDbEntity
  8
1
  6
Continuous
100
AcDbLine
 10
142.6588739999999
 20
225.903226
 30
0.0
 11
141.263847
 21
220.3740970000001
 31
0.0
  0
LINE
  5
CC69
330
C838
100
AcDbEntity
  8
5
  6
PHANTOM
100
AcDbLine
 10
139.0319239999997
 20
209.739246
 30
0.0
 11
139.423699
 21
204.0503209999999
 31
0.0
  0
ARC
  5
CC6A
330
C838
100
AcDbEntity
  8
5
  6
PHANTOM
100
AcDbCircle
 10
156.563591
 20
205.23068
 30
0.0
 40
17.180489
100
AcDbArc
 50
183.93951
 51
204.0471199999998
  0
ARC
  5
CC6B
330
C838
100
AcDbEntity
  8
1
  6
Continuous
100
AcDbCircle
 10
157.922294
 20
216.1710869999998
 30
0.0
 40
17.180489
100
AcDbArc
 50
165.8395099999999
 51
185.9471199999999
  0
ARC
  5
CC6C
330
C838
100
AcDbEntity
  8
5
  6
PHANTOM
100
AcDbCircle
 10
137.145994
 20
209.6093699999999
 30
0.0
 40
1.890402999999997
100
AcDbArc
 50
3.93951
 51
24.171085
  0
LINE
  5
CC6D
330
C838
100
AcDbEntity
  8
5
  6
PHANTOM
100
AcDbLine
 10
138.1198159999998
 20
210.3367959999999
 30
0.0
 11
137.9387279999999
 21
212.6299889999999
 31
0.0
  0
ARC
  5
CC6E
330
C838
100
AcDbEntity
  8
1
  6
Continuous
100
AcDbCircle
 10
166.238609
 20
234.325674
 30
0.0
 40
33.784821
100
AcDbArc
 50
227.08005
 51
245.45972
  0
ARC
  5
CC6F
330
C838
100
AcDbEntity
  8
1
  6
Continuous
100
AcDbCircle
 10
162.299674
 20
226.9414569999999
 30
0.0
 40
27.052713
100
AcDbArc
 50
224.11755
 51
245.60599
  0
LINE
  5
CC70
330
C838
100
AcDbEntity
  8
1
  6
Continuous
100
AcDbLine
 10
143.231956
 20
209.5848509999999
 30
0.0
 11
170.741805
 21
196.0067939999999
 31
0.0
  0
ARC
  5
CC71
330
C838
100
AcDbEntity
  8
5
  6
PHANTOM
100
AcDbCircle
 10
165.9475079999999
 20
294.5217839999999
 30
0.0
 40
105.21761
100
AcDbArc
 50
263.70599
 51
273.2983699999999
  0
ARC
  5
CC72
330
C838
100
AcDbEntity
  8
1
  6
Continuous
100
AcDbCircle
 10
146.3643409999999
 20
215.4901399999999
 30
0.0
 40
30.0
100
AcDbArc
 50
281.3157899999998
 51
319.51122
  0
ARC
  5
CC73
330
C838
100
AcDbEntity
  8
1
  6
Continuous
100
AcDbCircle
 10
194.5824959999999
 20
298.128324
 30
0.0
 40
105.21761
100
AcDbArc
 50
245.60599
 51
255.19837
  0
ARC
  5
CC74
330
C838
100
AcDbEntity
  8
5
  6
PHANTOM
100
AcDbCircle
 10
146.831026
 20
196.8085649999999
 30
0.0
 40
4.424784999999999
100
AcDbArc
 50
217.00187
 51
242.2175499999999
  0
ARC
  5
CC75
330
C838
100
AcDbEntity
  8
5
  6
PHANTOM
100
AcDbCircle
 10
158.828177
 20
225.070584
 30
0.0
 40
33.784821
100
AcDbArc
 50
245.18005
 51
263.55972
  0
ARC
  5
CC76
330
C838
100
AcDbEntity
  8
5
  6
PHANTOM
100
AcDbCircle
 10
157.378259
 20
216.8280349999998
 30
0.0
 40
27.052713
100
AcDbArc
 50
242.2175499999999
 51
263.70599
  0
LINE
  5
CC77
330
C838
100
AcDbEntity
  8
1
  6
Continuous
100
AcDbLine
 10
141.940154
 20
226.7642839999998
 30
0.0
 11
162.3278459999999
 21
221.4737799999999
 31
0.0
  0
ARC
  5
CC78
330
C838
100
AcDbEntity
  8
1
  6
Continuous
100
AcDbCircle
 10
140.825919
 20
226.3656899999999
 30
0.0
 40
1.890402999999997
100
AcDbArc
 50
345.83951
 51
6.071085
  0
ARC
  5
CC79
330
C838
100
AcDbEntity
  8
1
  6
Continuous
100
AcDbCircle
 10
146.054786
 20
211.189412
 30
0.0
 40
4.424784999999999
100
AcDbArc
 50
198.90187
 51
224.11755
  0
ARC
  5
CC7A
330
C838
100
AcDbEntity
  8
1
  6
Continuous
100
AcDbCircle
 10
168.6227719999999
 20
229.151037
 30
0.0
 40
8.621955999999999
100
AcDbArc
 50
239.4631599999999
 51
272.3706399999999
  0
ARC
  5
CC7B
330
C838
100
AcDbEntity
  8
1
  6
Continuous
100
AcDbCircle
 10
168.3037099999999
 20
226.5338609999998
 30
0.0
 40
6.294694999999999
100
AcDbArc
 50
208.9382899999999
 51
229.8151199999999
  0
LINE
  5
CC7C
330
C838
100
AcDbEntity
  8
1
  6
Continuous
100
AcDbLine
 10
162.847614
 20
223.715083
 30
0.0
 11
162.3278459999999
 21
221.4737809999999
 31
0.0
  0
ARC
  5
CC7D
330
C838
100
AcDbEntity
  8
5
  6
PHANTOM
100
AcDbCircle
 10
163.2118199999998
 20
218.3059209999999
 30
0.0
 40
6.294694999999999
100
AcDbArc
 50
227.0382899999999
 51
247.91512
  0
LINE
  5
CC7E
330
C838
100
AcDbEntity
  8
5
  6
PHANTOM
100
AcDbLine
 10
158.9014429999998
 20
213.931548
 30
0.0
 11
159.103715
 21
211.639675
 31
0.0
  0
ARC
  5
CC7F
330
C838
100
AcDbEntity
  8
5
  6
PHANTOM
100
AcDbCircle
 10
162.7019989999998
 20
220.8927129999999
 30
0.0
 40
8.621955999999999
100
AcDbArc
 50
257.5631599999999
 51
290.47064
  0
ARC
  5
CC80
330
C838
100
AcDbEntity
  8
1
  6
Continuous
100
AcDbCircle
 10
216.6758179999999
 20
207.11482
 30
0.0
 40
24.0
100
AcDbArc
 50
238.7675429999999
 51
289.3325429999999
  0
LINE
  5
CC81
330
C838
100
AcDbEntity
  8
1
  6
Continuous
100
AcDbLine
 10
222.50402
 20
208.187217
 30
0.0
 11
242.830283
 21
202.872216
 31
0.0
  0
LINE
  5
CC82
330
C838
100
AcDbEntity
  8
5
  6
PHANTOM
100
AcDbLine
 10
220.429937
 20
217.7059069999998
 30
0.0
 11
241.401616
 21
218.9688049999999
 31
0.0
  0
LINE
  5
CC83
330
C838
100
AcDbEntity
  8
5
  6
PHANTOM
100
AcDbLine
 10
220.5445069999999
 20
215.4086379999998
 30
0.0
 11
241.492561
 21
216.6701129999999
 31
0.0
  0
ARC
  5
CC84
330
C838
100
AcDbEntity
  8
1
  6
Continuous
100
AcDbCircle
 10
229.0825109999999
 20
195.530897
 30
0.0
 40
10.601247
100
AcDbArc
 50
287.7560199999999
 51
334.9104299999999
  0
LINE
  5
CC85
330
C838
100
AcDbEntity
  8
1
  6
Continuous
100
AcDbLine
 10
221.8992129999998
 20
205.9680329999999
 30
0.0
 11
242.2025789999999
 21
200.6590189999998
 31
0.0
  0
ARC
  5
CC86
330
C838
100
AcDbEntity
  8
1
  6
Continuous
100
AcDbCircle
 10
233.0524739999999
 20
210.2506689999999
 30
0.0
 40
9.0
100
AcDbArc
 50
314.1266219999998
 51
196.56567
  0
ARC
  5
CC87
330
C838
100
AcDbEntity
  8
5
  6
PHANTOM
100
AcDbCircle
 10
230.6149169999999
 20
207.719657
 30
0.0
 40
10.601247
100
AcDbArc
 50
305.85602
 51
353.01043
  0
ARC
  5
CC88
330
C838
100
AcDbEntity
  8
1
  6
Continuous
100
AcDbCircle
 10
233.062652
 20
210.5004629999998
 30
0.0
 40
12.5
100
AcDbArc
 50
346.5419299999999
 51
137.36829
  0
ARC
  5
CC89
330
C838
100
AcDbEntity
  8
1
  6
Continuous
100
AcDbCircle
 10
162.1391519999999
 20
131.4866309999999
 30
0.0
 40
99.473991
100
AcDbArc
 50
74.571657
 51
77.864013
  0
ARC
  5
CC8A
330
C838
100
AcDbEntity
  8
1
  6
Continuous
100
AcDbCircle
 10
-7432.741651999998
 20
8678.20032
 30
0.0
 40
11374.978
100
AcDbArc
 50
311.9933399999998
 51
312.0190299999998
  0
ARC
  5
CC8B
330
C838
100
AcDbEntity
  8
5
  6
PHANTOM
100
AcDbCircle
 10
222.126302
 20
266.211681
 30
0.0
 40
51.39790699999998
100
AcDbArc
 50
248.9194399999999
 51
262.3748799999999
  0
ARC
  5
CC8C
330
C838
100
AcDbEntity
  8
1
  6
Continuous
100
AcDbCircle
 10
193.317489
 20
197.486303
 30
0.0
 40
21.205776
100
AcDbArc
 50
50.81944899999999
 51
70.74897800000002
  0
ARC
  5
CC8D
330
C838
100
AcDbEntity
  8
1
  6
Continuous
100
AcDbCircle
 10
249.074615
 20
364.49306
 30
0.0
 40
183.4644199999999
100
AcDbArc
 50
256.00583
 51
259.3515299999999
  0
ARC
  5
CC8E
330
C838
100
AcDbEntity
  8
5
  6
PHANTOM
100
AcDbCircle
 10
188.6909409999999
 20
492.027747
 30
0.0
 40
301.26257
100
AcDbArc
 50
272.7106699999998
 51
274.10583
  0
LINE
  5
CC8F
330
C838
100
AcDbEntity
  8
1
  6
Continuous
100
AcDbLine
 10
202.4192129999999
 20
216.639462
 30
0.0
 11
195.5520709999999
 21
189.636291
 31
0.0
  0
LINE
  5
CC90
330
C838
100
AcDbEntity
  8
5
  6
PHANTOM
100
AcDbLine
 10
198.7130989999998
 20
219.500022
 30
0.0
 11
200.5750209999999
 21
191.6996239999998
 31
0.0
  0
ARC
  5
CC91
330
C838
100
AcDbEntity
  8
1
  6
Continuous
100
AcDbCircle
 10
190.595092
 20
208.4777729999999
 30
0.0
 40
19.0
100
AcDbArc
 50
232.638976
 51
273.0885699999999
  0
LINE
  5
CC92
330
C838
100
AcDbEntity
  8
1
  6
Continuous
100
AcDbLine
 10
193.0619439999999
 20
189.5832419999999
 30
0.0
 11
191.6188059999998
 21
189.5053729999999
 31
0.0
  0
ARC
  5
CC93
330
C838
100
AcDbEntity
  8
1
  6
Continuous
100
AcDbCircle
 10
277.5609349999999
 20
478.795
 30
0.0
 40
301.26257
100
AcDbArc
 50
254.6106700000001
 51
256.00583
  0
ARC
  5
CC94
330
C838
100
AcDbEntity
  8
1
  6
Continuous
100
AcDbCircle
 10
191.575668
 20
225.7147349999999
 30
0.0
 40
5.454352
100
AcDbArc
 50
237.3122899999999
 51
256.85837
  0
ARC
  5
CC95
330
C838
100
AcDbEntity
  8
5
  6
PHANTOM
100
AcDbCircle
 10
194.480669
 20
122.240436
 30
0.0
 40
97.44767799999999
100
AcDbArc
 50
88.848978
 51
94.958363
  0
LINE
  5
CC96
330
C838
100
AcDbEntity
  8
1
  6
Continuous
100
AcDbLine
 10
188.602517
 20
227.375967
 30
0.0
 11
188.603183
 21
226.0969479999999
 31
0.0
  0
LINE
  5
CC97
330
C838
100
AcDbEntity
  8
1
  6
Continuous
100
AcDbLine
 10
188.6025099999999
 20
227.37597
 30
0.0
 11
187.911611
 21
225.4834529999999
 31
0.0
  0
ARC
  5
CC98
330
C838
100
AcDbEntity
  8
5
  6
PHANTOM
100
AcDbCircle
 10
186.881245
 20
126.046851
 30
0.0
 40
99.473991
100
AcDbArc
 50
92.67165699999999
 51
95.964013
  0
ARC
  5
CC99
330
C838
100
AcDbEntity
  8
1
  6
Continuous
100
AcDbCircle
 10
189.66027
 20
222.729787
 30
0.0
 40
1.907709
100
AcDbArc
 50
189.7576899999999
 51
237.3122899999999
  0
ARC
  5
CC9A
330
C838
100
AcDbEntity
  8
5
  6
PHANTOM
100
AcDbCircle
 10
189.447101
 20
223.837529
 30
0.0
 40
7.284514999999997
100
AcDbArc
 50
183.4496599999999
 51
207.85768
  0
ARC
  5
CC9B
330
C838
100
AcDbEntity
  8
5
  6
PHANTOM
100
AcDbCircle
 10
164.837172
 20
221.4654439999999
 30
0.0
 40
18.013693
100
AcDbArc
 50
357.80338
 51
8.722469999999997
  0
ARC
  5
CC9C
330
C838
100
AcDbEntity
  8
5
  6
PHANTOM
100
AcDbCircle
 10
184.6934029999999
 20
221.3250689999999
 30
0.0
 40
1.907709
100
AcDbArc
 50
207.8576899999999
 51
255.4122899999999
  0
ARC
  5
CC9D
330
C838
100
AcDbEntity
  8
5
  6
PHANTOM
100
AcDbCircle
 10
185.5866659999998
 20
224.7573779999999
 30
0.0
 40
5.454352
100
AcDbArc
 50
255.4122899999999
 51
274.95837
  0
ARC
  5
CC9E
330
C838
100
AcDbEntity
  8
1
  6
Continuous
100
AcDbCircle
 10
194.9592969999999
 20
223.6410579999999
 30
0.0
 40
7.284514999999997
100
AcDbArc
 50
165.3496599999998
 51
189.7576799999999
  0
ARC
  5
CC9F
330
C838
100
AcDbEntity
  8
1
  6
Continuous
100
AcDbCircle
 10
170.830222
 20
229.0320789999999
 30
0.0
 40
18.013693
100
AcDbArc
 50
339.7033799999999
 51
350.62247
  0
ARC
  5
CCA0
330
C838
100
AcDbEntity
  8
5
  6
PHANTOM
100
AcDbCircle
 10
187.0894739999999
 20
216.541248
 30
0.0
 40
13.50661099999999
100
AcDbArc
 50
141.3203
 51
150.11903
  0
LINE
  5
CCA1
330
C838
100
AcDbEntity
  8
5
  6
PHANTOM
100
AcDbLine
 10
182.2445329999999
 20
225.4127169999999
 30
0.0
 11
182.642527
 21
224.1971959999999
 31
0.0
  0
LINE
  5
CCA2
330
C838
100
AcDbEntity
  8
5
  6
PHANTOM
100
AcDbLine
 10
182.244526
 20
225.412718
 30
0.0
 11
182.175776
 21
223.3992039999999
 31
0.0
  0
ARC
  5
CCA3
330
C838
100
AcDbEntity
  8
1
  6
Continuous
100
AcDbCircle
 10
168.1799609999999
 20
125.507612
 30
0.0
 40
97.44767799999999
100
AcDbArc
 50
70.74897800000002
 51
76.85836299999998
  0
ARC
  5
CCA4
330
C838
100
AcDbEntity
  8
5
  6
PHANTOM
100
AcDbCircle
 10
196.012202
 20
198.4669519999999
 30
0.0
 40
21.205776
100
AcDbArc
 50
68.919449
 51
88.848978
  0
ARC
  5
CCA5
330
C838
100
AcDbEntity
  8
1
  6
Continuous
100
AcDbCircle
 10
226.918525
 20
217.695359
 30
0.0
 40
13.023892
100
AcDbArc
 50
246.1973299999999
 51
259.33839
  0
LINE
  5
CCA6
330
C838
100
AcDbEntity
  8
5
  6
PHANTOM
100
AcDbLine
 10
225.0546579999999
 20
215.680234
 30
0.0
 11
226.6456479999999
 21
194.64774
 31
0.0
  0
LINE
  5
CCA7
330
C838
100
AcDbEntity
  8
5
  6
PHANTOM
100
AcDbLine
 10
223.4052619999999
 20
215.208193
 30
0.0
 11
224.6599119999999
 21
193.7559029999999
 31
0.0
  0
ARC
  5
CCA8
330
C838
100
AcDbEntity
  8
1
  6
Continuous
100
AcDbCircle
 10
221.4883799999999
 20
171.81204
 30
0.0
 40
12.529045
100
AcDbArc
 50
90.80717400000001
 51
102.47269
  0
ARC
  5
CCA9
330
C838
100
AcDbEntity
  8
5
  6
PHANTOM
100
AcDbCircle
 10
220.0046089999999
 20
199.601994
 30
0.0
 40
7.044608999999998
100
AcDbArc
 50
277.45153
 51
294.1476399999999
  0
LINE
  5
CCAA
330
C838
100
AcDbEntity
  8
1
  6
Continuous
100
AcDbLine
 10
224.5561319999999
 20
204.888738
 30
0.0
 11
219.0839759999998
 21
184.108209
 31
0.0
  0
ARC
  5
CCAB
330
C838
100
AcDbEntity
  8
1
  6
Continuous
100
AcDbCircle
 10
216.4752799999999
 20
191.1113029999999
 30
0.0
 40
7.044608999999998
100
AcDbArc
 50
259.3515299999999
 51
276.0476399999999
  0
ARC
  5
CCAC
330
C838
100
AcDbEntity
  8
1
  6
Continuous
100
AcDbCircle
 10
217.791572
 20
178.687032
 30
0.0
 40
5.449194
100
AcDbArc
 50
79.52325
 51
96.047636
  0
ARC
  5
CCAD
330
C838
100
AcDbEntity
  8
5
  6
PHANTOM
100
AcDbCircle
 10
197.1251649999999
 20
374.531926
 30
0.0
 40
183.4644199999999
100
AcDbArc
 50
274.10583
 51
277.45153
  0
LINE
  5
CCAE
330
C838
100
AcDbEntity
  8
1
  6
Continuous
100
AcDbLine
 10
224.5089899999999
 20
204.896297
 30
0.0
 11
225.711004
 21
204.7035569999999
 31
0.0
  0
LINE
  5
CCAF
330
C838
100
AcDbEntity
  8
1
  6
Continuous
100
AcDbLine
 10
225.7883119999999
 20
204.9508129999999
 30
0.0
 11
225.7110089999999
 21
204.703559
 31
0.0
  0
ARC
  5
CCB0
330
C838
100
AcDbEntity
  8
1
  6
Continuous
100
AcDbCircle
 10
225.8850009999999
 20
205.516286
 30
0.0
 40
21.08608999999999
100
AcDbArc
 50
265.6994
 51
287.7560199999999
  0
ARC
  5
CCB1
330
C838
100
AcDbEntity
  8
1
  6
Continuous
100
AcDbCircle
 10
220.72422
 20
226.050771
 30
0.0
 40
41.71508
100
AcDbArc
 50
270.80717
 51
274.922624
  0
ARC
  5
CCB2
330
C838
100
AcDbEntity
  8
1
  6
Continuous
100
AcDbCircle
 10
220.72422
 20
226.050779
 30
0.0
 40
41.71508
100
AcDbArc
 50
270.8071799999999
 51
274.9225549999998
  0
ARC
  5
CCB3
330
C838
100
AcDbEntity
  8
5
  6
PHANTOM
100
AcDbCircle
 10
213.188422
 20
234.1325609999999
 30
0.0
 40
41.71508
100
AcDbArc
 50
288.9071799999999
 51
293.0225549999999
  0
ARC
  5
CCB4
330
C838
100
AcDbEntity
  8
5
  6
PHANTOM
100
AcDbCircle
 10
230.765466
 20
182.8151929999999
 30
0.0
 40
12.529045
100
AcDbArc
 50
108.907174
 51
120.57269
  0
ARC
  5
CCB5
330
C838
100
AcDbEntity
  8
5
  6
PHANTOM
100
AcDbCircle
 10
230.765468
 20
182.815185
 30
0.0
 40
12.529045
100
AcDbArc
 50
108.9071669999998
 51
120.57268
  0
ARC
  5
CCB6
330
C838
100
AcDbEntity
  8
5
  6
PHANTOM
100
AcDbCircle
 10
225.1156939999999
 20
188.20147
 30
0.0
 40
5.449194
100
AcDbArc
 50
97.62325
 51
114.147636
  0
ARC
  5
CCB7
330
C838
100
AcDbEntity
  8
5
  6
PHANTOM
100
AcDbCircle
 10
224.473408
 20
216.2175359999999
 30
0.0
 40
21.08608999999999
100
AcDbArc
 50
283.7994
 51
305.85602
  0
LINE
  5
CCB8
330
C838
100
AcDbEntity
  8
1
  6
Continuous
100
AcDbLine
 10
226.2705609999999
 20
204.8249919999999
 30
0.0
 11
221.248522
 21
184.3389929999999
 31
0.0
  0
ARC
  5
CCB9
330
C838
100
AcDbEntity
  8
5
  6
PHANTOM
100
AcDbCircle
 10
221.6720379999999
 20
228.1150279999998
 30
0.0
 40
13.023892
100
AcDbArc
 50
264.2973299999998
 51
277.4383899999999
  0
ARC
  5
CCBA
330
C838
100
AcDbEntity
  8
1
  6
Continuous
100
AcDbCircle
 10
226.8269339999999
 20
228.114156
 30
0.0
 40
22.92425199999999
100
AcDbArc
 50
244.2748799999999
 51
256.9798299999998
  0
LINE
  5
CCBB
330
C838
100
AcDbEntity
  8
5
  6
PHANTOM
100
AcDbLine
 10
220.4339739999999
 20
217.706146
 30
0.0
 11
220.541644
 21
215.468188
 31
0.0
  0
ARC
  5
CCBC
330
C838
100
AcDbEntity
  8
1
  6
Continuous
100
AcDbCircle
 10
239.1860419999999
 20
253.765699
 30
0.0
 40
51.39790699999998
100
AcDbArc
 50
230.8194399999999
 51
244.2748799999999
  0
ARC
  5
CCBD
330
C838
100
AcDbEntity
  8
5
  6
PHANTOM
100
AcDbCircle
 10
218.3481049999998
 20
237.9898029999999
 30
0.0
 40
22.92425199999999
100
AcDbArc
 50
262.3748799999999
 51
275.0798299999999
  0
LINE
  5
CCBE
330
C838
100
AcDbEntity
  8
1
  6
Continuous
100
AcDbLine
 10
222.507931
 20
208.1861909999998
 30
0.0
 11
221.9149929999999
 21
206.025526
 31
0.0
  0
LINE
  5
CCBF
330
C838
100
AcDbEntity
  8
5
  6
PHANTOM
100
AcDbLine
 10
223.358104
 20
215.200732
 30
0.0
 11
224.560517
 21
215.3909669999999
 31
0.0
  0
LINE
  5
CCC0
330
C838
100
AcDbEntity
  8
5
  6
PHANTOM
100
AcDbLine
 10
224.557183
 20
215.650005
 30
0.0
 11
224.5605209999999
 21
215.39097
 31
0.0
  0
ARC
  5
CCC1
330
C838
100
AcDbEntity
  8
1
  6
Continuous
100
AcDbCircle
 10
190.4515529999999
 20
217.438287
 30
0.0
 40
13.50661099999999
100
AcDbArc
 50
123.2202999999999
 51
132.0190299999999
  0
ARC
  5
CCC2
330
C838
100
AcDbEntity
  8
1
  6
Continuous
100
AcDbCircle
 10
218.474547
 20
213.9914719999999
 30
0.0
 40
27.5
100
AcDbArc
 50
336.28609
 51
346.5419299999999
  0
ARC
  5
CCC3
330
C838
100
AcDbEntity
  8
1
  6
Continuous
100
AcDbCircle
 10
267.00447
 20
187.592405
 30
0.0
 40
27.96965
100
AcDbArc
 50
152.9039799999999
 51
158.718333
  0
ARC
  5
CCC4
330
C838
100
AcDbEntity
  8
1
  6
Continuous
100
AcDbCircle
 10
210.289931
 20
204.3298159999999
 30
0.0
 40
31.351715
100
AcDbArc
 50
334.9104299999999
 51
347.87417
  0
ARC
  5
CCC5
330
C838
100
AcDbEntity
  8
1
  6
Continuous
100
AcDbCircle
 10
64.076548
 20
253.844041
 30
0.0
 40
185.8965599999999
100
AcDbArc
 50
343.2701999999999
 51
344.08456
  0
ARC
  5
CCC6
330
C838
100
AcDbEntity
  8
1
  6
Continuous
100
AcDbCircle
 10
211.1166749999999
 20
217.2234809999999
 30
0.0
 40
35.53642700000001
100
AcDbArc
 50
327.5659319999999
 51
336.28609
  0
ARC
  5
CCC7
330
C838
100
AcDbEntity
  8
5
  6
PHANTOM
100
AcDbCircle
 10
55.65763399999998
 20
211.883754
 30
0.0
 40
185.8965599999999
100
AcDbArc
 50
1.3702
 51
2.184559999999999
  0
ARC
  5
CCC8
330
C838
100
AcDbEntity
  8
5
  6
PHANTOM
100
AcDbCircle
 10
269.126638
 20
211.955454
 30
0.0
 40
27.96965
100
AcDbArc
 50
171.00398
 51
176.818333
  0
ARC
  5
CCC9
330
C838
100
AcDbEntity
  8
5
  6
PHANTOM
100
AcDbCircle
 10
210.0186579999999
 20
210.2447569999999
 30
0.0
 40
31.351715
100
AcDbArc
 50
353.01043
 51
5.974169999999999
  0
ENDSEC
  0
SECTION
  2
OBJECTS
  0
DICTIONARY
  5
C826
330
0
100
AcDbDictionary
281
     1
  3
ACAD_CIP_PREVIOUS_PRODUCT_INFO
350
CD2B
  3
ACAD_COLOR
350
CD0D
  3
ACAD_DETAILVIEWSTYLE
350
CD26
  3
ACAD_GROUP
350
C827
  3
ACAD_LAYOUT
350
C833
  3
ACAD_MATERIAL
350
CCDB
  3
ACAD_MLEADERSTYLE
350
CD22
  3
ACAD_MLINESTYLE
350
C830
  3
ACAD_PLOTSETTINGS
350
C832
  3
ACAD_PLOTSTYLENAME
350
CCD9
  3
ACAD_SCALELIST
350
CD10
  3
ACAD_SECTIONVIEWSTYLE
350
CD24
  3
ACAD_TABLESTYLE
350
CD0E
  3
ACAD_VISUALSTYLE
350
CCF4
  3
ACDB_RECOMPOSE_DATA
350
CD49
  3
AcDbVariableDictionary
350
CD3C
  3
DWGPROPS
350
CD4A
  0
DICTIONARY
  5
CD2C
330
C82A
100
AcDbDictionary
280
     1
281
     1
  3
ADSK_XREC_LAYER_RECONCILED
360
CD2D
  0
DICTIONARY
  5
CD2E
330
C840
100
AcDbDictionary
280
     1
281
     1
  3
ADSK_XREC_LAYER_RECONCILED
360
CD2F
  0
DICTIONARY
  5
CD30
330
C841
100
AcDbDictionary
280
     1
281
     1
  3
ADSK_XREC_LAYER_RECONCILED
360
CD31
  0
DICTIONARY
  5
CD32
330
C842
100
AcDbDictionary
280
     1
281
     1
  3
ADSK_XREC_LAYER_RECONCILED
360
CD33
  0
DICTIONARY
  5
CD34
330
C843
100
AcDbDictionary
280
     1
281
     1
  3
ADSK_XREC_LAYER_RECONCILED
360
CD35
  0
DICTIONARY
  5
CD36
330
C844
100
AcDbDictionary
280
     1
281
     1
  3
ADSK_XREC_LAYER_RECONCILED
360
CD37
  0
DICTIONARY
  5
CD38
330
C845
100
AcDbDictionary
280
     1
281
     1
  3
ADSK_XREC_LAYER_RECONCILED
360
CD39
  0
DICTIONARY
  5
CD3A
330
C846
100
AcDbDictionary
280
     1
281
     1
  3
ADSK_XREC_LAYER_RECONCILED
360
CD3B
  0
DICTIONARY
  5
CCD4
330
C838
100
AcDbDictionary
281
     1
  3
ACAD_LAYOUTSELFREF
350
CCD5
  0
DICTIONARY
  5
CCD2
330
C834
100
AcDbDictionary
281
     1
  3
ACAD_LAYOUTSELFREF
350
CCD3
  0
XRECORD
  5
CD2B
102
{ACAD_REACTORS
330
C826
102
}
330
C826
100
AcDbXrecord
280
     1
300
ACDLT
300
2014
300
ACDLT_F_S
  0
DICTIONARY
  5
CD0D
102
{ACAD_REACTORS
330
C826
102
}
330
C826
100
AcDbDictionary
281
     1
  0
DICTIONARY
  5
CD26
102
{ACAD_REACTORS
330
C826
102
}
330
C826
100
AcDbDictionary
281
     1
  3
Imperial24
350
CD27
  0
DICTIONARY
  5
C827
102
{ACAD_REACTORS
330
C826
102
}
330
C826
100
AcDbDictionary
281
     1
  0
DICTIONARY
  5
C833
102
{ACAD_REACTORS
330
C826
102
}
330
C826
100
AcDbDictionary
281
     1
  3
Model
350
CD28
  3
レイアウト1
350
CD29
  0
DICTIONARY
  5
CCDB
102
{ACAD_REACTORS
330
C826
102
}
330
C826
100
AcDbDictionary
281
     1
  3
ByBlock
350
CCE4
  3
ByLayer
350
CCDC
  3
Global
350
CCEC
  0
DICTIONARY
  5
CD22
102
{ACAD_REACTORS
330
C826
102
}
330
C826
100
AcDbDictionary
281
     1
  3
Standard
350
CD23
  0
DICTIONARY
  5
C830
102
{ACAD_REACTORS
330
C826
102
}
330
C826
100
AcDbDictionary
281
     1
  3
STANDARD
350
C831
  0
DICTIONARY
  5
C832
102
{ACAD_REACTORS
330
C826
102
}
330
C826
100
AcDbDictionary
281
     1
  0
ACDBDICTIONARYWDFLT
  5
CCD9
102
{ACAD_REACTORS
330
C826
102
}
330
C826
100
AcDbDictionary
281
     1
  3
Normal
350
CCDA
100
AcDbDictionaryWithDefault
340
CCDA
  0
DICTIONARY
  5
CD10
102
{ACAD_REACTORS
330
C826
102
}
330
C826
100
AcDbDictionary
281
     1
  3
A0
350
CD11
  3
A1
350
CD12
  3
A2
350
CD13
  3
A3
350
CD14
  3
A4
350
CD15
  3
A5
350
CD16
  3
A6
350
CD17
  3
A7
350
CD18
  3
A8
350
CD19
  3
A9
350
CD1A
  3
B0
350
CD1B
  3
B1
350
CD1C
  3
B2
350
CD1D
  3
B3
350
CD1E
  3
B4
350
CD1F
  3
B5
350
CD20
  3
B6
350
CD21
  0
DICTIONARY
  5
CD24
102
{ACAD_REACTORS
330
C826
102
}
330
C826
100
AcDbDictionary
281
     1
  3
Imperial24
350
CD25
  0
DICTIONARY
  5
CD0E
102
{ACAD_REACTORS
330
C826
102
}
330
C826
100
AcDbDictionary
281
     1
  3
Standard
350
CD0F
  0
DICTIONARY
  5
CCF4
102
{ACAD_REACTORS
330
C826
102
}
330
C826
100
AcDbDictionary
281
     1
  3
2dWireframe
350
CCFA
  3
Basic
350
CCF9
  3
Brighten
350
CD00
  3
ColorChange
350
CD04
  3
Conceptual
350
CCFD
  3
Dim
350
CCFF
  3
EdgeColorOff
350
CD0C
  3
Facepattern
350
CD03
  3
Flat
350
CCF5
  3
FlatWithEdges
350
CCF6
  3
Gouraud
350
CCF7
  3
GouraudWithEdges
350
CCF8
  3
Hidden
350
CCFC
  3
JitterOff
350
CD0A
  3
Linepattern
350
CD02
  3
OverhangOff
350
CD0B
  3
Realistic
350
CCFE
  3
Shaded
350
CD09
  3
Shaded with edges
350
CD08
  3
Shades of Gray
350
CD05
  3
Sketchy
350
CD06
  3
Thicken
350
CD01
  3
Wireframe
350
CCFB
  3
X-Ray
350
CD07
  0
XRECORD
  5
CD49
102
{ACAD_REACTORS
330
C826
102
}
330
C826
100
AcDbXrecord
280
     1
 90
        1
330
CD0F
  0
DICTIONARY
  5
CD3C
102
{ACAD_REACTORS
330
C826
102
}
330
C826
100
AcDbDictionary
281
     1
  3
CANNOSCALE
350
CD41
  3
CMLEADERSTYLE
350
CD3E
  3
CTABLESTYLE
350
CD3D
  3
CVIEWDETAILSTYLE
350
CD3F
  3
CVIEWSECTIONSTYLE
350
CD40
  3
DIMASSOC
350
CD44
  3
INDEXCTL
350
CD43
  3
SORTENTS
350
CD42
  3
XCLIPFRAME
350
CD45
  0
XRECORD
  5
CD4A
102
{ACAD_REACTORS
330
C826
102
}
330
C826
100
AcDbXrecord
280
     1
  1
DWGPROPS COOKIE
  2

  3

  4

  6

  7

  8
Yoshitsune
  9

300
=
301
=
302
=
303
=
304
=
305
=
306
=
307
=
308
=
309
=
 40
0.0000197453703704
 41
2451301.57669537
 42
2457192.687783484
  1

 90
        0
  0
XRECORD
  5
CD2D
102
{ACAD_REACTORS
330
CD2C
102
}
330
CD2C
100
AcDbXrecord
280
     1
290
     1
  0
XRECORD
  5
CD2F
102
{ACAD_REACTORS
330
CD2E
102
}
330
CD2E
100
AcDbXrecord
280
     1
290
     1
  0
XRECORD
  5
CD31
102
{ACAD_REACTORS
330
CD30
102
}
330
CD30
100
AcDbXrecord
280
     1
290
     1
  0
XRECORD
  5
CD33
102
{ACAD_REACTORS
330
CD32
102
}
330
CD32
100
AcDbXrecord
280
     1
290
     1
  0
XRECORD
  5
CD35
102
{ACAD_REACTORS
330
CD34
102
}
330
CD34
100
AcDbXrecord
280
     1
290
     1
  0
XRECORD
  5
CD37
102
{ACAD_REACTORS
330
CD36
102
}
330
CD36
100
AcDbXrecord
280
     1
290
     1
  0
XRECORD
  5
CD39
102
{ACAD_REACTORS
330
CD38
102
}
330
CD38
100
AcDbXrecord
280
     1
290
     1
  0
XRECORD
  5
CD3B
102
{ACAD_REACTORS
330
CD3A
102
}
330
CD3A
100
AcDbXrecord
280
     1
290
     1
  0
XRECORD
  5
CCD5
102
{ACAD_REACTORS
330
CCD4
102
}
330
CCD4
100
AcDbXrecord
280
     1
340
C838
  0
XRECORD
  5
CCD3
102
{ACAD_REACTORS
330
CCD2
102
}
330
CCD2
100
AcDbXrecord
280
     1
340
C834
  0
ACDBDETAILVIEWSTYLE
  5
CD27
102
{ACAD_XDICTIONARY
360
CD82
102
}
102
{ACAD_REACTORS
330
CD26
102
}
330
CD26
100
AcDbModelDocViewStyle
 70
     0
  3
Imperial24
290
     0
100
AcDbDetailViewStyle
 70
     0
 71
     0
 90
        3
 71
     1
340
C82B
 40
0.24
340
0
 40
0.24
300

 40
0.36
280
     3
 71
     2
340
C82F
 90
       25
 71
     3
340
C82B
 40
0.24
 90
        1
 40
0.75
 90
        1
300
%<\AcVar ViewType \f "%tc1">% %<\AcVar ViewDetailId>%\PSCALE %<\AcVar ViewScale \f "%sn">%
 71
     4
340
C82F
 90
       25
340
C82F
 90
       25
280
     0
  0
LAYOUT
  5
CD28
102
{ACAD_XDICTIONARY
360
CD84
102
}
102
{ACAD_REACTORS
330
C833
102
}
330
C833
100
AcDbPlotSettings
  1

  2
Canon LBP9100C
  4

  6

 40
0.0
 41
0.0
 42
0.0
 43
0.0
 44
0.0
 45
0.0
 46
0.0
 47
0.0
 48
0.0
 49
0.0
140
0.0
141
0.0
142
1.0
143
1.0
 70
  1712
 72
     0
 73
     0
 74
     0
  7

 75
     0
147
1.0
148
0.0
149
0.0
100
AcDbLayout
  1
Model
 70
     1
 71
     0
 10
0.0
 20
0.0
 11
12.0
 21
9.0
 12
0.0
 22
0.0
 32
0.0
 14
0.0
 24
0.0
 34
0.0
 15
0.0
 25
0.0
 35
0.0
146
0.0
 13
0.0
 23
0.0
 33
0.0
 16
1.0
 26
0.0
 36
0.0
 17
0.0
 27
1.0
 37
0.0
 76
     0
330
C838
331
CCD1
  0
LAYOUT
  5
CD29
102
{ACAD_XDICTIONARY
360
CD86
102
}
102
{ACAD_REACTORS
330
C833
102
}
330
C833
100
AcDbPlotSettings
  1

  2
Canon LBP9100C
  4

  6

 40
0.0
 41
0.0
 42
0.0
 43
0.0
 44
0.0
 45
0.0
 46
0.0
 47
0.0
 48
0.0
 49
0.0
140
0.0
141
0.0
142
1.0
143
1.0
 70
   688
 72
     0
 73
     0
 74
     5
  7

 75
    16
147
1.0
148
0.0
149
0.0
100
AcDbLayout
  1
レイアウト1
 70
     0
 71
     1
 10
0.0
 20
0.0
 11
420.0
 21
297.0
 12
0.0
 22
0.0
 32
0.0
 14
1.000000000000000E+20
 24
1.000000000000000E+20
 34
1.000000000000000E+20
 15
-1.000000000000000E+20
 25
-1.000000000000000E+20
 35
-1.000000000000000E+20
146
0.0
 13
0.0
 23
0.0
 33
0.0
 16
1.0
 26
0.0
 36
0.0
 17
0.0
 27
1.0
 37
0.0
 76
     0
330
C834
  0
MATERIAL
  5
CCE4
102
{ACAD_XDICTIONARY
360
CCE5
102
}
102
{ACAD_REACTORS
330
CCDB
102
}
330
CCDB
100
AcDbMaterial
  1
ByBlock
 72
     0
 43
0.0208333333333333
 43
0.0
 43
0.0
 43
0.0
 43
0.0
 43
0.0208333333333333
 43
0.0
 43
0.0
 43
0.0
 43
0.0
 43
1.0
 43
0.0
 43
0.0
 43
0.0
 43
0.0
 43
1.0
 77
     0
 47
0.0208333333333333
 47
0.0
 47
0.0
 47
0.0
 47
0.0
 47
0.0208333333333333
 47
0.0
 47
0.0
 47
0.0
 47
0.0
 47
1.0
 47
0.0
 47
0.0
 47
0.0
 47
0.0
 47
1.0
171
     0
 49
0.0208333333333333
 49
0.0
 49
0.0
 49
0.0
 49
0.0
 49
0.0208333333333333
 49
0.0
 49
0.0
 49
0.0
 49
0.0
 49
1.0
 49
0.0
 49
0.0
 49
0.0
 49
0.0
 49
1.0
175
     0
142
0.0208333333333333
142
0.0
142
0.0
142
0.0
142
0.0
142
0.0208333333333333
142
0.0
142
0.0
142
0.0
142
0.0
142
1.0
142
0.0
142
0.0
142
0.0
142
0.0
142
1.0
179
     0
144
0.0208333333333333
144
0.0
144
0.0
144
0.0
144
0.0
144
0.0208333333333333
144
0.0
144
0.0
144
0.0
144
0.0
144
1.0
144
0.0
144
0.0
144
0.0
144
0.0
144
1.0
147
0.0208333333333333
147
0.0
147
0.0
147
0.0
147
0.0
147
0.0208333333333333
147
0.0
147
0.0
147
0.0
147
0.0
147
1.0
147
0.0
147
0.0
147
0.0
147
0.0
147
1.0
  0
MATERIAL
  5
CCDC
102
{ACAD_XDICTIONARY
360
CCDD
102
}
102
{ACAD_REACTORS
330
CCDB
102
}
330
CCDB
100
AcDbMaterial
  1
ByLayer
 72
     0
 43
0.0208333333333333
 43
0.0
 43
0.0
 43
0.0
 43
0.0
 43
0.0208333333333333
 43
0.0
 43
0.0
 43
0.0
 43
0.0
 43
1.0
 43
0.0
 43
0.0
 43
0.0
 43
0.0
 43
1.0
 77
     0
 47
0.0208333333333333
 47
0.0
 47
0.0
 47
0.0
 47
0.0
 47
0.0208333333333333
 47
0.0
 47
0.0
 47
0.0
 47
0.0
 47
1.0
 47
0.0
 47
0.0
 47
0.0
 47
0.0
 47
1.0
171
     0
 49
0.0208333333333333
 49
0.0
 49
0.0
 49
0.0
 49
0.0
 49
0.0208333333333333
 49
0.0
 49
0.0
 49
0.0
 49
0.0
 49
1.0
 49
0.0
 49
0.0
 49
0.0
 49
0.0
 49
1.0
175
     0
142
0.0208333333333333
142
0.0
142
0.0
142
0.0
142
0.0
142
0.0208333333333333
142
0.0
142
0.0
142
0.0
142
0.0
142
1.0
142
0.0
142
0.0
142
0.0
142
0.0
142
1.0
179
     0
144
0.0208333333333333
144
0.0
144
0.0
144
0.0
144
0.0
144
0.0208333333333333
144
0.0
144
0.0
144
0.0
144
0.0
144
1.0
144
0.0
144
0.0
144
0.0
144
0.0
144
1.0
147
0.0208333333333333
147
0.0
147
0.0
147
0.0
147
0.0
147
0.0208333333333333
147
0.0
147
0.0
147
0.0
147
0.0
147
1.0
147
0.0
147
0.0
147
0.0
147
0.0
147
1.0
  0
MATERIAL
  5
CCEC
102
{ACAD_XDICTIONARY
360
CCED
102
}
102
{ACAD_REACTORS
330
CCDB
102
}
330
CCDB
100
AcDbMaterial
  1
Global
 72
     0
 43
0.0208333333333333
 43
0.0
 43
0.0
 43
0.0
 43
0.0
 43
0.0208333333333333
 43
0.0
 43
0.0
 43
0.0
 43
0.0
 43
1.0
 43
0.0
 43
0.0
 43
0.0
 43
0.0
 43
1.0
 77
     0
 47
0.0208333333333333
 47
0.0
 47
0.0
 47
0.0
 47
0.0
 47
0.0208333333333333
 47
0.0
 47
0.0
 47
0.0
 47
0.0
 47
1.0
 47
0.0
 47
0.0
 47
0.0
 47
0.0
 47
1.0
171
     0
 49
0.0208333333333333
 49
0.0
 49
0.0
 49
0.0
 49
0.0
 49
0.0208333333333333
 49
0.0
 49
0.0
 49
0.0
 49
0.0
 49
1.0
 49
0.0
 49
0.0
 49
0.0
 49
0.0
 49
1.0
175
     0
142
0.0208333333333333
142
0.0
142
0.0
142
0.0
142
0.0
142
0.0208333333333333
142
0.0
142
0.0
142
0.0
142
0.0
142
1.0
142
0.0
142
0.0
142
0.0
142
0.0
142
1.0
179
     0
144
0.0208333333333333
144
0.0
144
0.0
144
0.0
144
0.0
144
0.0208333333333333
144
0.0
144
0.0
144
0.0
144
0.0
144
1.0
144
0.0
144
0.0
144
0.0
144
0.0
144
1.0
147
0.0208333333333333
147
0.0
147
0.0
147
0.0
147
0.0
147
0.0208333333333333
147
0.0
147
0.0
147
0.0
147
0.0
147
1.0
147
0.0
147
0.0
147
0.0
147
0.0
147
1.0
  0
MLEADERSTYLE
  5
CD23
102
{ACAD_REACTORS
330
CD22
102
}
330
CD22
100
AcDbMLeaderStyle
170
     2
171
     1
172
     0
 90
        2
 40
0.0
 41
0.0
173
     1
 91
-1056964608
340
C82D
 92
       -2
290
     1
 42
0.09
291
     1
 43
0.36
  3
Standard
 44
0.18
300

342
C82B
174
     1
178
     6
175
     1
176
     0
 93
-1056964608
 45
0.18
292
     0
297
     0
 46
0.18
 94
-1056964608
 47
1.0
 49
1.0
140
1.0
293
     1
141
0.0
294
     1
177
     0
142
1.0
295
     0
296
     0
143
0.125
1001
ACAD_MLEADERVER
1070
     2
  0
MLINESTYLE
  5
C831
102
{ACAD_REACTORS
330
C830
102
}
330
C830
100
AcDbMlineStyle
  2
STANDARD
 70
     0
  3

 62
   256
 51
90.0
 52
90.0
 71
     2
 49
0.5
 62
   256
  6
BYLAYER
 49
-0.5
 62
   256
  6
BYLAYER
  0
ACDBPLACEHOLDER
  5
CCDA
102
{ACAD_REACTORS
330
CCD9
102
}
330
CCD9
  0
SCALE
  5
CD11
102
{ACAD_REACTORS
330
CD10
102
}
330
CD10
100
AcDbScale
 70
     0
300
1:1
140
1.0
141
1.0
290
     1
  0
SCALE
  5
CD12
102
{ACAD_REACTORS
330
CD10
102
}
330
CD10
100
AcDbScale
 70
     0
300
1/128" = 1'-0"
140
0.0078125
141
12.0
290
     0
  0
SCALE
  5
CD13
102
{ACAD_REACTORS
330
CD10
102
}
330
CD10
100
AcDbScale
 70
     0
300
1/64" = 1'-0"
140
0.015625
141
12.0
290
     0
  0
SCALE
  5
CD14
102
{ACAD_REACTORS
330
CD10
102
}
330
CD10
100
AcDbScale
 70
     0
300
1/32" = 1'-0"
140
0.03125
141
12.0
290
     0
  0
SCALE
  5
CD15
102
{ACAD_REACTORS
330
CD10
102
}
330
CD10
100
AcDbScale
 70
     0
300
1/16" = 1'-0"
140
0.0625
141
12.0
290
     0
  0
SCALE
  5
CD16
102
{ACAD_REACTORS
330
CD10
102
}
330
CD10
100
AcDbScale
 70
     0
300
3/32" = 1'-0"
140
0.09375
141
12.0
290
     0
  0
SCALE
  5
CD17
102
{ACAD_REACTORS
330
CD10
102
}
330
CD10
100
AcDbScale
 70
     0
300
1/8" = 1'-0"
140
0.125
141
12.0
290
     0
  0
SCALE
  5
CD18
102
{ACAD_REACTORS
330
CD10
102
}
330
CD10
100
AcDbScale
 70
     0
300
3/16" = 1'-0"
140
0.1875
141
12.0
290
     0
  0
SCALE
  5
CD19
102
{ACAD_REACTORS
330
CD10
102
}
330
CD10
100
AcDbScale
 70
     0
300
1/4" = 1'-0"
140
0.25
141
12.0
290
     0
  0
SCALE
  5
CD1A
102
{ACAD_REACTORS
330
CD10
102
}
330
CD10
100
AcDbScale
 70
     0
300
3/8" = 1'-0"
140
0.375
141
12.0
290
     0
  0
SCALE
  5
CD1B
102
{ACAD_REACTORS
330
CD10
102
}
330
CD10
100
AcDbScale
 70
     0
300
1/2" = 1'-0"
140
0.5
141
12.0
290
     0
  0
SCALE
  5
CD1C
102
{ACAD_REACTORS
330
CD10
102
}
330
CD10
100
AcDbScale
 70
     0
300
3/4" = 1'-0"
140
0.75
141
12.0
290
     0
  0
SCALE
  5
CD1D
102
{ACAD_REACTORS
330
CD10
102
}
330
CD10
100
AcDbScale
 70
     0
300
1" = 1'-0"
140
1.0
141
12.0
290
     0
  0
SCALE
  5
CD1E
102
{ACAD_REACTORS
330
CD10
102
}
330
CD10
100
AcDbScale
 70
     0
300
1-1/2" = 1'-0"
140
1.5
141
12.0
290
     0
  0
SCALE
  5
CD1F
102
{ACAD_REACTORS
330
CD10
102
}
330
CD10
100
AcDbScale
 70
     0
300
3" = 1'-0"
140
3.0
141
12.0
290
     0
  0
SCALE
  5
CD20
102
{ACAD_REACTORS
330
CD10
102
}
330
CD10
100
AcDbScale
 70
     0
300
6" = 1'-0"
140
6.0
141
12.0
290
     0
  0
SCALE
  5
CD21
102
{ACAD_REACTORS
330
CD10
102
}
330
CD10
100
AcDbScale
 70
     0
300
1'-0" = 1'-0"
140
12.0
141
12.0
290
     0
  0
ACDBSECTIONVIEWSTYLE
  5
CD25
102
{ACAD_XDICTIONARY
360
CD80
102
}
102
{ACAD_REACTORS
330
CD24
102
}
330
CD24
100
AcDbModelDocViewStyle
 70
     0
  3
Imperial24
290
     0
100
AcDbSectionViewStyle
 70
     0
 71
     0
 90
       78
 71
     1
340
C82B
 40
0.24
340
0
340
0
 40
0.24
300
I, O, Q, S, X, Z
 40
0.48
 90
        3
 40
0.18
 90
        1
 71
     2
340
C82F
 90
       25
340
C82F
 90
       50
 40
0.24
 40
0.0
 40
0.24
 71
     3
340
C82B
 40
0.24
 90
        1
 40
0.75
 90
        1
300
%<\AcVar ViewType \f "%tc1">% %<\AcVar ViewSectionStartId>%-%<\AcVar ViewSectionEndId>%\PSCALE %<\AcVar ViewScale \f "%sn">%
 71
     4
300
ANSI31
 40
1.0
 90
        0
290
     0
290
     0
 90
        6
 40
0.0
 40
1.570796326794896
 40
0.2617993877991494
 40
1.308996938995747
 40
-0.2617993877991494
 40
1.832595714594046
  0
TABLESTYLE
  5
CD0F
102
{ACAD_XDICTIONARY
360
CD47
102
}
102
{ACAD_REACTORS
330
CD0E
102
}
330
CD0E
100
AcDbTableStyle
  3
Standard
 70
     0
 71
     0
 40
0.06
 41
0.06
280
     0
281
     0
  7
STANDARD
140
0.18
170
     2
 62
     0
 63
     7
283
     0
274
    -2
284
     1
 64
     0
275
    -2
285
     1
 65
     0
276
    -2
286
     1
 66
     0
277
    -2
287
     1
 67
     0
278
    -2
288
     1
 68
     0
279
    -2
289
     1
 69
     0
  7
STANDARD
140
0.25
170
     5
 62
     0
 63
     7
283
     0
274
    -2
284
     1
 64
     0
275
    -2
285
     1
 65
     0
276
    -2
286
     1
 66
     0
277
    -2
287
     1
 67
     0
278
    -2
288
     1
 68
     0
279
    -2
289
     1
 69
     0
  7
STANDARD
140
0.18
170
     5
 62
     0
 63
     7
283
     0
274
    -2
284
     1
 64
     0
275
    -2
285
     1
 65
     0
276
    -2
286
     1
 66
     0
277
    -2
287
     1
 67
     0
278
    -2
288
     1
 68
     0
279
    -2
289
     1
 69
     0
  0
VISUALSTYLE
  5
CCFA
102
{ACAD_XDICTIONARY
360
CD58
102
}
102
{ACAD_REACTORS
330
CCF4
102
}
330
CCF4
100
AcDbVisualStyle
  2
2dWireframe
 70
     4
 71
     0
 72
     2
 73
     0
 90
        0
 40
-0.6
 41
-30.0
 62
     5
 63
     7
 74
     1
 91
        4
 64
     7
 65
   257
 75
     1
175
     1
 42
1.0
 92
        0
 66
   257
 43
1.0
 76
     1
 77
     6
 78
     2
 67
     7
 79
     5
170
     0
171
     0
290
     0
174
     0
 93
        1
 44
0.0
173
     0
291
     0
 45
0.0
1001
ACAD
1000
AcDbSavedByObjectVersion
1070
     0
  0
VISUALSTYLE
  5
CCF9
102
{ACAD_XDICTIONARY
360
CD56
102
}
102
{ACAD_REACTORS
330
CCF4
102
}
330
CCF4
100
AcDbVisualStyle
  2
Basic
 70
     7
 71
     1
 72
     0
 73
     1
 90
        0
 40
-0.6
 41
-30.0
 62
     5
 63
     7
 74
     0
 91
        4
 64
     7
 65
   257
 75
     1
175
     1
 42
1.0
 92
        8
 66
     7
 43
1.0
 76
     1
 77
     6
 78
     2
 67
     7
 79
     5
170
     0
171
     0
290
     0
174
     0
 93
        1
 44
0.0
173
     0
291
     1
 45
0.0
1001
ACAD
1000
AcDbSavedByObjectVersion
1070
     0
  0
VISUALSTYLE
  5
CD00
102
{ACAD_XDICTIONARY
360
CD64
102
}
102
{ACAD_REACTORS
330
CCF4
102
}
330
CCF4
100
AcDbVisualStyle
  2
Brighten
 70
    12
 71
     2
 72
     2
 73
     0
 90
        0
 40
-0.6
 41
-30.0
 62
     5
 63
     7
 74
     1
 91
        4
 64
     7
 65
   257
 75
     1
175
     1
 42
1.0
 92
        8
 66
     7
 43
1.0
 76
     1
 77
     6
 78
     2
 67
     7
 79
     5
170
     0
171
     0
290
     0
174
     0
 93
        1
 44
50.0
173
     0
291
     1
 45
0.0
1001
ACAD
1000
AcDbSavedByObjectVersion
1070
     0
  0
VISUALSTYLE
  5
CD04
102
{ACAD_XDICTIONARY
360
CD6C
102
}
102
{ACAD_REACTORS
330
CCF4
102
}
330
CCF4
100
AcDbVisualStyle
  2
ColorChange
 70
    16
 71
     2
 72
     2
 73
     3
 90
        0
 40
-0.6
 41
-30.0
 62
     5
 63
     8
 74
     1
 91
        4
 64
     7
 65
   257
 75
     1
175
     1
 42
1.0
 92
        8
 66
     8
 43
1.0
 76
     1
 77
     6
 78
     2
 67
     7
 79
     5
170
     0
171
     0
290
     0
174
     0
 93
        1
 44
0.0
173
     0
291
     1
 45
0.0
1001
ACAD
1000
AcDbSavedByObjectVersion
1070
     0
  0
VISUALSTYLE
  5
CCFD
102
{ACAD_XDICTIONARY
360
CD5E
102
}
102
{ACAD_REACTORS
330
CCF4
102
}
330
CCF4
100
AcDbVisualStyle
  2
Conceptual
 70
     9
 71
     3
 72
     2
 73
     0
 90
        0
 40
-0.6
 41
-30.0
 62
     5
 63
     7
 74
     2
 91
        2
 64
     7
 65
   257
 75
     1
175
     1
 42
179.0
 92
        8
 66
     7
 43
1.0
 76
     1
 77
     6
 78
     2
 67
     7
 79
     3
170
     0
171
     0
290
     0
174
     0
 93
        1
 44
0.0
173
     0
291
     0
 45
0.0
1001
ACAD
1000
AcDbSavedByObjectVersion
1070
     0
  0
VISUALSTYLE
  5
CCFF
102
{ACAD_XDICTIONARY
360
CD62
102
}
102
{ACAD_REACTORS
330
CCF4
102
}
330
CCF4
100
AcDbVisualStyle
  2
Dim
 70
    11
 71
     2
 72
     2
 73
     0
 90
        0
 40
-0.6
 41
-30.0
 62
     5
 63
     7
 74
     1
 91
        4
 64
     7
 65
   257
 75
     1
175
     1
 42
1.0
 92
        8
 66
     7
 43
1.0
 76
     1
 77
     6
 78
     2
 67
     7
 79
     5
170
     0
171
     0
290
     0
174
     0
 93
        1
 44
-50.0
173
     0
291
     1
 45
0.0
1001
ACAD
1000
AcDbSavedByObjectVersion
1070
     0
  0
VISUALSTYLE
  5
CD0C
102
{ACAD_XDICTIONARY
360
CD7C
102
}
102
{ACAD_REACTORS
330
CCF4
102
}
330
CCF4
100
AcDbVisualStyle
  2
EdgeColorOff
 70
    22
 71
     2
 72
     2
 73
     0
 90
        0
 40
-0.6
 41
-30.0
 62
     5
 63
     7
 74
     1
 91
        4
 64
     7
 65
   257
 75
     1
175
     1
 42
1.0
 92
        8
 66
     7
 43
1.0
 76
     1
 77
     6
 78
     2
 67
     7
 79
     5
170
     0
171
     0
290
     0
174
     0
 93
        1
 44
0.0
173
     0
291
     1
 45
0.0
1001
ACAD
1000
AcDbSavedByObjectVersion
1070
     0
  0
VISUALSTYLE
  5
CD03
102
{ACAD_XDICTIONARY
360
CD6A
102
}
102
{ACAD_REACTORS
330
CCF4
102
}
330
CCF4
100
AcDbVisualStyle
  2
Facepattern
 70
    15
 71
     2
 72
     2
 73
     0
 90
        0
 40
-0.6
 41
-30.0
 62
     5
 63
     7
 74
     1
 91
        4
 64
     7
 65
   257
 75
     1
175
     1
 42
1.0
 92
        8
 66
     7
 43
1.0
 76
     1
 77
     6
 78
     2
 67
     7
 79
     5
170
     0
171
     0
290
     0
174
     0
 93
        1
 44
0.0
173
     0
291
     1
 45
0.0
1001
ACAD
1000
AcDbSavedByObjectVersion
1070
     0
  0
VISUALSTYLE
  5
CCF5
102
{ACAD_XDICTIONARY
360
CD4E
102
}
102
{ACAD_REACTORS
330
CCF4
102
}
330
CCF4
100
AcDbVisualStyle
  2
Flat
 70
     0
 71
     2
 72
     1
 73
     1
 90
        2
 40
-0.6
 41
30.0
 62
     5
 63
     7
 74
     0
 91
        0
 64
     7
 65
   257
 75
     1
175
     1
 42
1.0
 92
        8
 66
     7
 43
1.0
 76
     1
 77
     6
 78
     2
 67
     7
 79
     5
170
     0
171
     0
290
     0
174
     0
 93
       13
 44
0.0
173
     0
291
     1
 45
0.0
1001
ACAD
1000
AcDbSavedByObjectVersion
1070
     0
  0
VISUALSTYLE
  5
CCF6
102
{ACAD_XDICTIONARY
360
CD50
102
}
102
{ACAD_REACTORS
330
CCF4
102
}
330
CCF4
100
AcDbVisualStyle
  2
FlatWithEdges
 70
     1
 71
     2
 72
     1
 73
     1
 90
        2
 40
-0.6
 41
30.0
 62
     5
 63
     7
 74
     1
 91
        0
 64
     7
 65
   257
 75
     1
175
     1
 42
1.0
 92
        0
 66
   257
 43
1.0
 76
     1
 77
     6
 78
     2
 67
     7
 79
     5
170
     0
171
     0
290
     0
174
     0
 93
       13
 44
0.0
173
     0
291
     1
 45
0.0
1001
ACAD
1000
AcDbSavedByObjectVersion
1070
     0
  0
VISUALSTYLE
  5
CCF7
102
{ACAD_XDICTIONARY
360
CD52
102
}
102
{ACAD_REACTORS
330
CCF4
102
}
330
CCF4
100
AcDbVisualStyle
  2
Gouraud
 70
     2
 71
     2
 72
     2
 73
     1
 90
        2
 40
-0.6
 41
30.0
 62
     5
 63
     7
 74
     0
 91
        0
 64
     7
 65
   257
 75
     1
175
     1
 42
1.0
 92
        0
 66
     7
 43
1.0
 76
     1
 77
     6
 78
     2
 67
     7
 79
     5
170
     0
171
     0
290
     0
174
     0
 93
       13
 44
0.0
173
     0
291
     1
 45
0.0
1001
ACAD
1000
AcDbSavedByObjectVersion
1070
     0
  0
VISUALSTYLE
  5
CCF8
102
{ACAD_XDICTIONARY
360
CD54
102
}
102
{ACAD_REACTORS
330
CCF4
102
}
330
CCF4
100
AcDbVisualStyle
  2
GouraudWithEdges
 70
     3
 71
     2
 72
     2
 73
     1
 90
        2
 40
-0.6
 41
30.0
 62
     5
 63
     7
 74
     1
 91
        0
 64
     7
 65
   257
 75
     1
175
     1
 42
1.0
 92
        0
 66
   257
 43
1.0
 76
     1
 77
     6
 78
     2
 67
     7
 79
     5
170
     0
171
     0
290
     0
174
     0
 93
       13
 44
0.0
173
     0
291
     1
 45
0.0
1001
ACAD
1000
AcDbSavedByObjectVersion
1070
     0
  0
VISUALSTYLE
  5
CCFC
102
{ACAD_XDICTIONARY
360
CD5C
102
}
102
{ACAD_REACTORS
330
CCF4
102
}
330
CCF4
100
AcDbVisualStyle
  2
Hidden
 70
     6
 71
     1
 72
     2
 73
     2
 90
        0
 40
-0.6
 41
-30.0
 62
     5
 63
     7
 74
     2
 91
        2
 64
     7
 65
   257
 75
     2
175
     1
 42
40.0
 92
        0
 66
   257
 43
1.0
 76
     1
 77
     6
 78
     2
 67
     7
 79
     3
170
     0
171
     0
290
     0
174
     0
 93
        1
 44
0.0
173
     0
291
     0
 45
0.0
1001
ACAD
1000
AcDbSavedByObjectVersion
1070
     0
  0
VISUALSTYLE
  5
CD0A
102
{ACAD_XDICTIONARY
360
CD78
102
}
102
{ACAD_REACTORS
330
CCF4
102
}
330
CCF4
100
AcDbVisualStyle
  2
JitterOff
 70
    20
 71
     2
 72
     2
 73
     0
 90
        0
 40
-0.6
 41
-30.0
 62
     5
 63
     7
 74
     1
 91
        4
 64
     7
 65
   257
 75
     1
175
     1
 42
1.0
 92
       10
 66
     7
 43
1.0
 76
     1
 77
     6
 78
     2
 67
     7
 79
     5
170
     0
171
     0
290
     0
174
     0
 93
        1
 44
0.0
173
     0
291
     1
 45
0.0
1001
ACAD
1000
AcDbSavedByObjectVersion
1070
     0
  0
VISUALSTYLE
  5
CD02
102
{ACAD_XDICTIONARY
360
CD68
102
}
102
{ACAD_REACTORS
330
CCF4
102
}
330
CCF4
100
AcDbVisualStyle
  2
Linepattern
 70
    14
 71
     2
 72
     2
 73
     0
 90
        0
 40
-0.6
 41
-30.0
 62
     5
 63
     7
 74
     1
 91
        4
 64
     7
 65
   257
 75
     7
175
     7
 42
1.0
 92
        8
 66
     7
 43
1.0
 76
     1
 77
     6
 78
     2
 67
     7
 79
     5
170
     0
171
     0
290
     0
174
     0
 93
        1
 44
0.0
173
     0
291
     1
 45
0.0
1001
ACAD
1000
AcDbSavedByObjectVersion
1070
     0
  0
VISUALSTYLE
  5
CD0B
102
{ACAD_XDICTIONARY
360
CD7A
102
}
102
{ACAD_REACTORS
330
CCF4
102
}
330
CCF4
100
AcDbVisualStyle
  2
OverhangOff
 70
    21
 71
     2
 72
     2
 73
     0
 90
        0
 40
-0.6
 41
-30.0
 62
     5
 63
     7
 74
     1
 91
        4
 64
     7
 65
   257
 75
     1
175
     1
 42
1.0
 92
        9
 66
     7
 43
1.0
 76
     1
 77
     6
 78
     2
 67
     7
 79
     5
170
     0
171
     0
290
     0
174
     0
 93
        1
 44
0.0
173
     0
291
     1
 45
0.0
1001
ACAD
1000
AcDbSavedByObjectVersion
1070
     0
  0
VISUALSTYLE
  5
CCFE
102
{ACAD_XDICTIONARY
360
CD60
102
}
102
{ACAD_REACTORS
330
CCF4
102
}
330
CCF4
100
AcDbVisualStyle
  2
Realistic
 70
     8
 71
     2
 72
     3
 73
     0
 90
        2
 40
-0.6
 41
30.0
 62
     5
 63
     7
 74
     0
 91
        0
 64
     7
 65
   257
 75
     1
175
     1
 42
1.0
 92
        8
 66
   257
 43
1.0
 76
     1
 77
     6
 78
     2
 67
     7
 79
     3
170
     0
171
     0
290
     0
174
     0
 93
       13
 44
0.0
173
     0
291
     0
 45
0.0
1001
ACAD
1000
AcDbSavedByObjectVersion
1070
     0
  0
VISUALSTYLE
  5
CD09
102
{ACAD_XDICTIONARY
360
CD76
102
}
102
{ACAD_REACTORS
330
CCF4
102
}
330
CCF4
100
AcDbVisualStyle
  2
Shaded
 70
    27
 71
     2
 72
     2
 73
     1
 90
        2
 40
-0.6
 41
30.0
 62
     5
 63
     7
 74
     0
 91
        4
 64
     7
 65
   257
 75
     1
175
     1
 42
1.0
 92
        8
 66
   257
 43
1.0
 76
     1
 77
     6
 78
     2
 67
     8
 79
     3
170
     0
171
     0
290
     0
174
     0
 93
        5
 44
0.0
173
     0
291
     0
 45
0.0
1001
ACAD
1000
AcDbSavedByObjectVersion
1070
     0
  0
VISUALSTYLE
  5
CD08
102
{ACAD_XDICTIONARY
360
CD74
102
}
102
{ACAD_REACTORS
330
CCF4
102
}
330
CCF4
100
AcDbVisualStyle
  2
Shaded with edges
 70
    26
 71
     2
 72
     2
 73
     1
 90
        2
 40
-0.6
 41
30.0
 62
     5
 63
     7
 74
     1
 91
       10
 64
     7
 65
   257
 75
     2
175
     1
 42
1.0
 92
        8
 66
   257
 43
1.0
 76
     1
 77
     6
 78
     2
 67
     7
 79
     3
170
     0
171
     0
290
     0
174
     0
 93
        5
 44
0.0
173
     0
291
     0
 45
0.0
1001
ACAD
1000
AcDbSavedByObjectVersion
1070
     0
  0
VISUALSTYLE
  5
CD05
102
{ACAD_XDICTIONARY
360
CD6E
102
}
102
{ACAD_REACTORS
330
CCF4
102
}
330
CCF4
100
AcDbVisualStyle
  2
Shades of Gray
 70
    23
 71
     2
 72
     2
 73
     3
 90
        0
 40
-0.6
 41
-30.0
 62
     5
 63
     7
 74
     2
 91
        2
 64
     7
 65
     7
 75
     1
175
     1
 42
40.0
 92
        8
 66
     7
 43
1.0
 76
     1
 77
     6
 78
     2
 67
     7
 79
     3
170
     0
171
     0
290
     0
174
     0
 93
        1
 44
0.0
173
     0
291
     0
 45
0.0
1001
ACAD
1000
AcDbSavedByObjectVersion
1070
     0
  0
VISUALSTYLE
  5
CD06
102
{ACAD_XDICTIONARY
360
CD70
102
}
102
{ACAD_REACTORS
330
CCF4
102
}
330
CCF4
100
AcDbVisualStyle
  2
Sketchy
 70
    24
 71
     1
 72
     2
 73
     2
 90
        0
 40
-0.6
 41
-30.0
 62
     5
 63
     7
 74
     2
 91
        2
 64
     7
 65
     7
 75
     1
175
     1
 42
40.0
 92
       11
 66
     7
 43
1.0
 76
     1
 77
     6
 78
     2
 67
     7
 79
     6
170
     0
171
     0
290
     0
174
     0
 93
        1
 44
0.0
173
     0
291
     0
 45
0.0
1001
ACAD
1000
AcDbSavedByObjectVersion
1070
     0
  0
VISUALSTYLE
  5
CD01
102
{ACAD_XDICTIONARY
360
CD66
102
}
102
{ACAD_REACTORS
330
CCF4
102
}
330
CCF4
100
AcDbVisualStyle
  2
Thicken
 70
    13
 71
     2
 72
     2
 73
     0
 90
        0
 40
-0.6
 41
-30.0
 62
     5
 63
     7
 74
     1
 91
        4
 64
     7
 65
   257
 75
     1
175
     1
 42
1.0
 92
       12
 66
     7
 43
1.0
 76
     1
 77
     6
 78
     2
 67
     7
 79
     5
170
     0
171
     0
290
     0
174
     0
 93
        1
 44
0.0
173
     0
291
     1
 45
0.0
1001
ACAD
1000
AcDbSavedByObjectVersion
1070
     0
  0
VISUALSTYLE
  5
CCFB
102
{ACAD_XDICTIONARY
360
CD5A
102
}
102
{ACAD_REACTORS
330
CCF4
102
}
330
CCF4
100
AcDbVisualStyle
  2
Wireframe
 70
     5
 71
     0
 72
     2
 73
     0
 90
        0
 40
-0.6
 41
-30.0
 62
     5
 63
     7
 74
     1
 91
        4
 64
     7
 65
   257
 75
     1
175
     1
 42
1.0
 92
        0
 66
   257
 43
1.0
 76
     1
 77
     6
 78
     2
 67
     7
 79
     3
170
     0
171
     0
290
     0
174
     0
 93
        1
 44
0.0
173
     0
291
     0
 45
0.0
1001
ACAD
1000
AcDbSavedByObjectVersion
1070
     0
  0
VISUALSTYLE
  5
CD07
102
{ACAD_XDICTIONARY
360
CD72
102
}
102
{ACAD_REACTORS
330
CCF4
102
}
330
CCF4
100
AcDbVisualStyle
  2
X-Ray
 70
    25
 71
     2
 72
     2
 73
     1
 90
        1
 40
0.5
 41
-30.0
 62
     5
 63
     7
 74
     1
 91
        0
 64
     7
 65
   257
 75
     1
175
     1
 42
1.0
 92
        8
 66
     7
 43
1.0
 76
     1
 77
     6
 78
     2
 67
     7
 79
     3
170
     0
171
     0
290
     0
174
     0
 93
       13
 44
0.0
173
     0
291
     0
 45
0.0
1001
ACAD
1000
AcDbSavedByObjectVersion
1070
     0
  0
DICTIONARYVAR
  5
CD41
102
{ACAD_REACTORS
330
CD3C
102
}
330
CD3C
100
DictionaryVariables
280
     0
  1
1:1
  0
DICTIONARYVAR
  5
CD3E
102
{ACAD_REACTORS
330
CD3C
102
}
330
CD3C
100
DictionaryVariables
280
     0
  1
STANDARD
  0
DICTIONARYVAR
  5
CD3D
102
{ACAD_REACTORS
330
CD3C
102
}
330
CD3C
100
DictionaryVariables
280
     0
  1
STANDARD
  0
DICTIONARYVAR
  5
CD3F
102
{ACAD_REACTORS
330
CD3C
102
}
330
CD3C
100
DictionaryVariables
280
     0
  1
Imperial24
  0
DICTIONARYVAR
  5
CD40
102
{ACAD_REACTORS
330
CD3C
102
}
330
CD3C
100
DictionaryVariables
280
     0
  1
Imperial24
  0
DICTIONARYVAR
  5
CD44
102
{ACAD_REACTORS
330
CD3C
102
}
330
CD3C
100
DictionaryVariables
280
     0
  1
1
  0
DICTIONARYVAR
  5
CD43
102
{ACAD_REACTORS
330
CD3C
102
}
330
CD3C
100
DictionaryVariables
280
     0
  1
0
  0
DICTIONARYVAR
  5
CD42
102
{ACAD_REACTORS
330
CD3C
102
}
330
CD3C
100
DictionaryVariables
280
     0
  1
127
  0
DICTIONARYVAR
  5
CD45
102
{ACAD_REACTORS
330
CD3C
102
}
330
CD3C
100
DictionaryVariables
280
     0
  1
2
  0
DICTIONARY
  5
CD82
330
CD27
100
AcDbDictionary
280
     1
281
     1
  3
ACAD_XREC_ROUNDTRIP
360
CD83
  0
DICTIONARY
  5
CD84
330
CD28
100
AcDbDictionary
280
     1
281
     1
  3
ACAD_XREC_ROUNDTRIP
360
CD85
  0
DICTIONARY
  5
CD86
330
CD29
100
AcDbDictionary
280
     1
281
     1
  3
ACAD_XREC_ROUNDTRIP
360
CD87
  0
DICTIONARY
  5
CCE5
330
CCE4
100
AcDbDictionary
280
     1
281
     1
  3
ACAD_XREC_ROUNDTRIP
360
CD4C
  3
BUMPTILE
360
CCE7
  3
DIFFUSETILE
360
CCE6
  3
OPACITYTILE
360
CCEA
  3
REFLECTIONTILE
360
CCE9
  3
REFRACTIONTILE
360
CCEB
  3
SPECULARTILE
360
CCE8
  0
DICTIONARY
  5
CCDD
330
CCDC
100
AcDbDictionary
280
     1
281
     1
  3
ACAD_XREC_ROUNDTRIP
360
CD4B
  3
BUMPTILE
360
CCDF
  3
DIFFUSETILE
360
CCDE
  3
OPACITYTILE
360
CCE2
  3
REFLECTIONTILE
360
CCE1
  3
REFRACTIONTILE
360
CCE3
  3
SPECULARTILE
360
CCE0
  0
DICTIONARY
  5
CCED
330
CCEC
100
AcDbDictionary
280
     1
281
     1
  3
ACAD_XREC_ROUNDTRIP
360
CD4D
  3
BUMPTILE
360
CCEF
  3
DIFFUSETILE
360
CCEE
  3
OPACITYTILE
360
CCF2
  3
REFLECTIONTILE
360
CCF1
  3
REFRACTIONTILE
360
CCF3
  3
SPECULARTILE
360
CCF0
  0
DICTIONARY
  5
CD80
330
CD25
100
AcDbDictionary
280
     1
281
     1
  3
ACAD_XREC_ROUNDTRIP
360
CD81
  0
DICTIONARY
  5
CD47
330
CD0F
100
AcDbDictionary
280
     1
281
     1
  3
ACAD_ROUNDTRIP_2008_TABLESTYLE_CELLSTYLEMAP
360
CD48
  3
ACAD_XREC_ROUNDTRIP
360
CD7E
  0
DICTIONARY
  5
CD58
330
CCFA
100
AcDbDictionary
280
     1
281
     1
  3
ACAD_XREC_ROUNDTRIP
360
CD59
  0
DICTIONARY
  5
CD56
330
CCF9
100
AcDbDictionary
280
     1
281
     1
  3
ACAD_XREC_ROUNDTRIP
360
CD57
  0
DICTIONARY
  5
CD64
330
CD00
100
AcDbDictionary
280
     1
281
     1
  3
ACAD_XREC_ROUNDTRIP
360
CD65
  0
DICTIONARY
  5
CD6C
330
CD04
100
AcDbDictionary
280
     1
281
     1
  3
ACAD_XREC_ROUNDTRIP
360
CD6D
  0
DICTIONARY
  5
CD5E
330
CCFD
100
AcDbDictionary
280
     1
281
     1
  3
ACAD_XREC_ROUNDTRIP
360
CD5F
  0
DICTIONARY
  5
CD62
330
CCFF
100
AcDbDictionary
280
     1
281
     1
  3
ACAD_XREC_ROUNDTRIP
360
CD63
  0
DICTIONARY
  5
CD7C
330
CD0C
100
AcDbDictionary
280
     1
281
     1
  3
ACAD_XREC_ROUNDTRIP
360
CD7D
  0
DICTIONARY
  5
CD6A
330
CD03
100
AcDbDictionary
280
     1
281
     1
  3
ACAD_XREC_ROUNDTRIP
360
CD6B
  0
DICTIONARY
  5
CD4E
330
CCF5
100
AcDbDictionary
280
     1
281
     1
  3
ACAD_XREC_ROUNDTRIP
360
CD4F
  0
DICTIONARY
  5
CD50
330
CCF6
100
AcDbDictionary
280
     1
281
     1
  3
ACAD_XREC_ROUNDTRIP
360
CD51
  0
DICTIONARY
  5
CD52
330
CCF7
100
AcDbDictionary
280
     1
281
     1
  3
ACAD_XREC_ROUNDTRIP
360
CD53
  0
DICTIONARY
  5
CD54
330
CCF8
100
AcDbDictionary
280
     1
281
     1
  3
ACAD_XREC_ROUNDTRIP
360
CD55
  0
DICTIONARY
  5
CD5C
330
CCFC
100
AcDbDictionary
280
     1
281
     1
  3
ACAD_XREC_ROUNDTRIP
360
CD5D
  0
DICTIONARY
  5
CD78
330
CD0A
100
AcDbDictionary
280
     1
281
     1
  3
ACAD_XREC_ROUNDTRIP
360
CD79
  0
DICTIONARY
  5
CD68
330
CD02
100
AcDbDictionary
280
     1
281
     1
  3
ACAD_XREC_ROUNDTRIP
360
CD69
  0
DICTIONARY
  5
CD7A
330
CD0B
100
AcDbDictionary
280
     1
281
     1
  3
ACAD_XREC_ROUNDTRIP
360
CD7B
  0
DICTIONARY
  5
CD60
330
CCFE
100
AcDbDictionary
280
     1
281
     1
  3
ACAD_XREC_ROUNDTRIP
360
CD61
  0
DICTIONARY
  5
CD76
330
CD09
100
AcDbDictionary
280
     1
281
     1
  3
ACAD_XREC_ROUNDTRIP
360
CD77
  0
DICTIONARY
  5
CD74
330
CD08
100
AcDbDictionary
280
     1
281
     1
  3
ACAD_XREC_ROUNDTRIP
360
CD75
  0
DICTIONARY
  5
CD6E
330
CD05
100
AcDbDictionary
280
     1
281
     1
  3
ACAD_XREC_ROUNDTRIP
360
CD6F
  0
DICTIONARY
  5
CD70
330
CD06
100
AcDbDictionary
280
     1
281
     1
  3
ACAD_XREC_ROUNDTRIP
360
CD71
  0
DICTIONARY
  5
CD66
330
CD01
100
AcDbDictionary
280
     1
281
     1
  3
ACAD_XREC_ROUNDTRIP
360
CD67
  0
DICTIONARY
  5
CD5A
330
CCFB
100
AcDbDictionary
280
     1
281
     1
  3
ACAD_XREC_ROUNDTRIP
360
CD5B
  0
DICTIONARY
  5
CD72
330
CD07
100
AcDbDictionary
280
     1
281
     1
  3
ACAD_XREC_ROUNDTRIP
360
CD73
  0
XRECORD
  5
CD83
102
{ACAD_REACTORS
330
CD82
102
}
330
CD82
100
AcDbXrecord
280
     1
102
DISPLAYNAME
  1
Imperial24
102
FLAGS
 90
        0
  0
XRECORD
  5
CD85
102
{ACAD_REACTORS
330
CD84
102
}
330
CD84
100
AcDbXrecord
280
     1
102
SHADEPLOT
 70
     0
102
SHADEPLOTRESLEVEL
 70
     2
102
SHADEPLOTCUSTOMDPI
 70
   300
  0
XRECORD
  5
CD87
102
{ACAD_REACTORS
330
CD86
102
}
330
CD86
100
AcDbXrecord
280
     1
102
SHADEPLOT
 70
     0
102
SHADEPLOTRESLEVEL
 70
     2
102
SHADEPLOTCUSTOMDPI
 70
   300
  0
XRECORD
  5
CD4C
102
{ACAD_REACTORS
330
CCE5
102
}
330
CCE5
100
AcDbXrecord
280
     1
102
MATERIAL
148
0.0
149
0.0
149
0.0
 93
        0
 94
      127
282
     0
 72
     0
 77
     0
171
     0
175
     0
179
     0
273
     0
  0
XRECORD
  5
CCE7
102
{ACAD_REACTORS
330
CCE5
102
}
330
CCE5
100
AcDbXrecord
280
     1
270
     1
271
     1
  0
XRECORD
  5
CCE6
102
{ACAD_REACTORS
330
CCE5
102
}
330
CCE5
100
AcDbXrecord
280
     1
270
     1
271
     1
  0
XRECORD
  5
CCEA
102
{ACAD_REACTORS
330
CCE5
102
}
330
CCE5
100
AcDbXrecord
280
     1
270
     1
271
     1
  0
XRECORD
  5
CCE9
102
{ACAD_REACTORS
330
CCE5
102
}
330
CCE5
100
AcDbXrecord
280
     1
270
     1
271
     1
  0
XRECORD
  5
CCEB
102
{ACAD_REACTORS
330
CCE5
102
}
330
CCE5
100
AcDbXrecord
280
     1
270
     1
271
     1
  0
XRECORD
  5
CCE8
102
{ACAD_REACTORS
330
CCE5
102
}
330
CCE5
100
AcDbXrecord
280
     1
270
     1
271
     1
  0
XRECORD
  5
CD4B
102
{ACAD_REACTORS
330
CCDD
102
}
330
CCDD
100
AcDbXrecord
280
     1
102
MATERIAL
148
0.0
149
0.0
149
0.0
 93
        0
 94
      127
282
     0
 72
     0
 77
     0
171
     0
175
     0
179
     0
273
     0
  0
XRECORD
  5
CCDF
102
{ACAD_REACTORS
330
CCDD
102
}
330
CCDD
100
AcDbXrecord
280
     1
270
     1
271
     1
  0
XRECORD
  5
CCDE
102
{ACAD_REACTORS
330
CCDD
102
}
330
CCDD
100
AcDbXrecord
280
     1
270
     1
271
     1
  0
XRECORD
  5
CCE2
102
{ACAD_REACTORS
330
CCDD
102
}
330
CCDD
100
AcDbXrecord
280
     1
270
     1
271
     1
  0
XRECORD
  5
CCE1
102
{ACAD_REACTORS
330
CCDD
102
}
330
CCDD
100
AcDbXrecord
280
     1
270
     1
271
     1
  0
XRECORD
  5
CCE3
102
{ACAD_REACTORS
330
CCDD
102
}
330
CCDD
100
AcDbXrecord
280
     1
270
     1
271
     1
  0
XRECORD
  5
CCE0
102
{ACAD_REACTORS
330
CCDD
102
}
330
CCDD
100
AcDbXrecord
280
     1
270
     1
271
     1
  0
XRECORD
  5
CD4D
102
{ACAD_REACTORS
330
CCED
102
}
330
CCED
100
AcDbXrecord
280
     1
102
MATERIAL
148
0.0
149
0.0
149
0.0
 93
        0
 94
      127
282
     0
 72
     0
 77
     0
171
     0
175
     0
179
     0
273
     0
  0
XRECORD
  5
CCEF
102
{ACAD_REACTORS
330
CCED
102
}
330
CCED
100
AcDbXrecord
280
     1
270
     1
271
     1
  0
XRECORD
  5
CCEE
102
{ACAD_REACTORS
330
CCED
102
}
330
CCED
100
AcDbXrecord
280
     1
270
     1
271
     1
  0
XRECORD
  5
CCF2
102
{ACAD_REACTORS
330
CCED
102
}
330
CCED
100
AcDbXrecord
280
     1
270
     1
271
     1
  0
XRECORD
  5
CCF1
102
{ACAD_REACTORS
330
CCED
102
}
330
CCED
100
AcDbXrecord
280
     1
270
     1
271
     1
  0
XRECORD
  5
CCF3
102
{ACAD_REACTORS
330
CCED
102
}
330
CCED
100
AcDbXrecord
280
     1
270
     1
271
     1
  0
XRECORD
  5
CCF0
102
{ACAD_REACTORS
330
CCED
102
}
330
CCED
100
AcDbXrecord
280
     1
270
     1
271
     1
  0
XRECORD
  5
CD81
102
{ACAD_REACTORS
330
CD80
102
}
330
CD80
100
AcDbXrecord
280
     1
102
DISPLAYNAME
  1
Imperial24
102
FLAGS
 90
        0
  0
CELLSTYLEMAP
  5
CD48
102
{ACAD_REACTORS
330
CD47
102
}
330
CD47
100
AcDbCellStyleMap
 90
        3
300
CELLSTYLE
  1
TABLEFORMAT_BEGIN
 90
        5
170
     1
 91
        0
 92
    32768
 62
   257
 93
        1
300
CONTENTFORMAT
  1
CONTENTFORMAT_BEGIN
 90
        0
 91
        0
 92
      512
 93
        0
300

 40
0.0
140
1.0
 94
        5
 62
     0
340
C82B
144
0.25
309
CONTENTFORMAT_END
171
     0
 94
        0
309
TABLEFORMAT_END
  1
CELLSTYLE_BEGIN
 90
        1
 91
        1
300
_TITLE
309
CELLSTYLE_END
300
CELLSTYLE
  1
TABLEFORMAT_BEGIN
 90
        5
170
     1
 91
        0
 92
        0
 62
   257
 93
        1
300
CONTENTFORMAT
  1
CONTENTFORMAT_BEGIN
 90
        0
 91
        0
 92
      512
 93
        0
300

 40
0.0
140
1.0
 94
        5
 62
     0
340
C82B
144
0.18
309
CONTENTFORMAT_END
171
     0
 94
        0
309
TABLEFORMAT_END
  1
CELLSTYLE_BEGIN
 90
        2
 91
        1
300
_HEADER
309
CELLSTYLE_END
300
CELLSTYLE
  1
TABLEFORMAT_BEGIN
 90
        5
170
     1
 91
        0
 92
        0
 62
   257
 93
        1
300
CONTENTFORMAT
  1
CONTENTFORMAT_BEGIN
 90
        0
 91
        0
 92
      512
 93
        0
300

 40
0.0
140
1.0
 94
        2
 62
     0
340
C82B
144
0.18
309
CONTENTFORMAT_END
171
     0
 94
        0
309
TABLEFORMAT_END
  1
CELLSTYLE_BEGIN
 90
        3
 91
        2
300
_DATA
309
CELLSTYLE_END
  0
XRECORD
  5
CD7E
102
{ACAD_REACTORS
330
CD47
102
}
330
CD47
100
AcDbXrecord
280
     1
102
ACAD_ROUNDTRIP_PRE2007_TABLESTYLE
 90
      512
 91
        0
  1

 92
      512
 93
        0
  2

 94
      512
 95
        0
  3

  0
XRECORD
  5
CD59
102
{ACAD_REACTORS
330
CD58
102
}
330
CD58
100
AcDbXrecord
280
     1
102
RTVSPost2010Prop28
280
     1
102
RTVSPost2010PropOp28
 70
     1
102
RTVSPost2010Prop29
280
     1
102
RTVSPost2010PropOp29
 70
     1
102
RTVSPost2010Prop30
280
     0
102
RTVSPost2010PropOp30
 70
     1
102
RTVSPost2010Prop31
280
     0
102
RTVSPost2010PropOp31
 70
     1
102
RTVSPost2010Prop32
280
     0
102
RTVSPost2010PropOp32
 70
     1
102
RTVSPost2010Prop33
280
     0
102
RTVSPost2010PropOp33
 70
     1
102
RTVSPost2010Prop34
280
     0
102
RTVSPost2010PropOp34
 70
     1
102
RTVSPost2010Prop35
280
     0
102
RTVSPost2010PropOp35
 70
     1
102
RTVSPost2010Prop36
280
     0
102
RTVSPost2010PropOp36
 70
     1
102
RTVSPost2010Prop37
 90
       50
102
RTVSPost2010PropOp37
 70
     1
102
RTVSPost2010Prop38
140
0.0
102
RTVSPost2010PropOp38
 70
     1
102
RTVSPost2010Prop39
140
1.0
102
RTVSPost2010PropOp39
 70
     1
102
RTVSPost2010Prop40
 90
        0
102
RTVSPost2010PropOp40
 70
     1
102
RTVSPost2010Prop41ColorIndex
 90
       18
102
RTVSPost2010Prop41ColorRGB
 90
        0
102
RTVSPost2010PropOp41
 70
     1
102
RTVSPost2010Prop42
 90
       50
102
RTVSPost2010PropOp42
 70
     1
102
RTVSPost2010Prop43
 90
        3
102
RTVSPost2010PropOp43
 70
     1
102
RTVSPost2010Prop44ColorIndex
 90
        5
102
RTVSPost2010Prop44ColorRGB
 90
      255
102
RTVSPost2010PropOp44
 70
     1
102
RTVSPost2010Prop45
280
     0
102
RTVSPost2010PropOp45
 70
     1
102
RTVSPost2010Prop46
 90
       50
102
RTVSPost2010PropOp46
 70
     1
102
RTVSPost2010Prop47
 90
       50
102
RTVSPost2010PropOp47
 70
     1
102
RTVSPost2010Prop48
 90
       50
102
RTVSPost2010PropOp48
 70
     1
102
RTVSPost2010Prop49
280
     0
102
RTVSPost2010PropOp49
 70
     1
102
RTVSPost2010Prop50
 90
       50
102
RTVSPost2010PropOp50
 70
     1
102
RTVSPost2010Prop51ColorIndex
 90
      256
102
RTVSPost2010Prop51ColorRGB
 90
-16777216
102
RTVSPost2010PropOp51
 70
     0
102
RTVSPost2010Prop52
140
1.0
102
RTVSPost2010PropOp52
 70
     0
102
RTVSPost2010Prop53
 90
        2
102
RTVSPost2010PropOp53
 70
     1
102
RTVSPost2010Prop54
  1
strokes_ogs.tif
102
RTVSPost2010PropOp54
 70
     1
102
RTVSPost2010Prop55
280
     0
102
RTVSPost2010PropOp55
 70
     1
102
RTVSPost2010Prop56
140
1.0
102
RTVSPost2010PropOp56
 70
     1
102
RTVSPost2010Prop57
140
1.0
102
RTVSPost2010PropOp57
 70
     1
102
RTVSPropertyOp0
 70
     1
102
RTVSPropertyOp1
 70
     1
102
RTVSPropertyOp2
 70
     1
102
RTVSPropertyOp3
 70
     1
102
RTVSPropertyOp4
 70
     1
102
RTVSPropertyOp5
 70
     1
102
RTVSPropertyOp6
 70
     1
102
RTVSPropertyOp7
 70
     1
102
RTVSPropertyOp8
 70
     1
102
RTVSPropertyOp9
 70
     1
102
RTVSPropertyOp10
 70
     1
102
RTVSPropertyOp11
 70
     1
102
RTVSPropertyOp12
 70
     1
102
RTVSPropertyOp13
 70
     1
102
RTVSPropertyOp14
 70
     1
102
RTVSPropertyOp15
 70
     1
102
RTVSPropertyOp16
 70
     1
102
RTVSPropertyOp17
 70
     1
102
RTVSPropertyOp18
 70
     1
102
RTVSPropertyOp19
 70
     1
102
RTVSPropertyOp20
 70
     1
102
RTVSPropertyOp21
 70
     1
102
RTVSPropertyOp22
 70
     1
102
RTVSPropertyOp23
 70
     1
102
RTVSPropertyOp24
 70
     1
102
RTVSPropertyOp25
 70
     1
102
RTVSPropertyOp26
 70
     1
102
RTVSPropertyOp27
 70
     1
102
RTVSPropertyOp28
 70
     1
102
RTVSPropertyOp29
 70
     1
102
RTVSPropertyOp30
 70
     1
102
RTVSPropertyOp31
 70
     1
102
RTVSPropertyOp32
 70
     1
102
RTVSPropertyOp33
 70
     1
102
RTVSPropertyOp34
 70
     1
102
RTVSPropertyOp35
 70
     1
102
RTVSPropertyOp36
 70
     1
102
RTVSPropertyOp37
 70
     1
102
RTVSPropertyOp38
 70
     1
102
RTVSPropertyOp39
 70
     1
102
RTVSPropertyOp40
 70
     1
102
RTVSPropertyOp41
 70
     1
102
RTVSPropertyOp42
 70
     1
102
RTVSPropertyOp43
 70
     1
102
RTVSPropertyOp44
 70
     1
102
RTVSPropertyOp45
 70
     1
102
RTVSPropertyOp46
 70
     1
102
RTVSPropertyOp47
 70
     1
102
RTVSPropertyOp48
 70
     1
102
RTVSPropertyOp49
 70
     1
102
RTVSPropertyOp50
 70
     1
102
RTVSPropertyOp51
 70
     0
102
RTVSPropertyOp52
 70
     0
102
RTVSPropertyOp53
 70
     1
102
RTVSPropertyOp54
 70
     1
102
RTVSPropertyOp55
 70
     1
102
RTVSPropertyOp56
 70
     1
102
RTVSPropertyOp57
 70
     1
102
RTVSPropertyOp58
 70
     1
102
RTVSPropertyOp59
 70
     1
102
RTVSPropertyOp60
 70
     1
102
RTVSPropertyOp61
 70
     1
102
RTVSPropertyOp62
 70
     1
  0
XRECORD
  5
CD57
102
{ACAD_REACTORS
330
CD56
102
}
330
CD56
100
AcDbXrecord
280
     1
102
RTVSPost2010Prop28
280
     0
102
RTVSPost2010PropOp28
 70
     1
102
RTVSPost2010Prop29
280
     1
102
RTVSPost2010PropOp29
 70
     1
102
RTVSPost2010Prop30
280
     1
102
RTVSPost2010PropOp30
 70
     1
102
RTVSPost2010Prop31
280
     0
102
RTVSPost2010PropOp31
 70
     1
102
RTVSPost2010Prop32
280
     0
102
RTVSPost2010PropOp32
 70
     1
102
RTVSPost2010Prop33
280
     0
102
RTVSPost2010PropOp33
 70
     1
102
RTVSPost2010Prop34
280
     0
102
RTVSPost2010PropOp34
 70
     1
102
RTVSPost2010Prop35
280
     0
102
RTVSPost2010PropOp35
 70
     1
102
RTVSPost2010Prop36
280
     0
102
RTVSPost2010PropOp36
 70
     1
102
RTVSPost2010Prop37
 90
       50
102
RTVSPost2010PropOp37
 70
     1
102
RTVSPost2010Prop38
140
0.0
102
RTVSPost2010PropOp38
 70
     1
102
RTVSPost2010Prop39
140
1.0
102
RTVSPost2010PropOp39
 70
     1
102
RTVSPost2010Prop40
 90
        0
102
RTVSPost2010PropOp40
 70
     1
102
RTVSPost2010Prop41ColorIndex
 90
       18
102
RTVSPost2010Prop41ColorRGB
 90
        0
102
RTVSPost2010PropOp41
 70
     1
102
RTVSPost2010Prop42
 90
       50
102
RTVSPost2010PropOp42
 70
     1
102
RTVSPost2010Prop43
 90
        3
102
RTVSPost2010PropOp43
 70
     1
102
RTVSPost2010Prop44ColorIndex
 90
        5
102
RTVSPost2010Prop44ColorRGB
 90
      255
102
RTVSPost2010PropOp44
 70
     1
102
RTVSPost2010Prop45
280
     0
102
RTVSPost2010PropOp45
 70
     1
102
RTVSPost2010Prop46
 90
       50
102
RTVSPost2010PropOp46
 70
     1
102
RTVSPost2010Prop47
 90
       50
102
RTVSPost2010PropOp47
 70
     1
102
RTVSPost2010Prop48
 90
       50
102
RTVSPost2010PropOp48
 70
     1
102
RTVSPost2010Prop49
280
     0
102
RTVSPost2010PropOp49
 70
     1
102
RTVSPost2010Prop50
 90
       50
102
RTVSPost2010PropOp50
 70
     1
102
RTVSPost2010Prop51ColorIndex
 90
      256
102
RTVSPost2010Prop51ColorRGB
 90
-16777216
102
RTVSPost2010PropOp51
 70
     0
102
RTVSPost2010Prop52
140
1.0
102
RTVSPost2010PropOp52
 70
     0
102
RTVSPost2010Prop53
 90
        2
102
RTVSPost2010PropOp53
 70
     1
102
RTVSPost2010Prop54
  1
strokes_ogs.tif
102
RTVSPost2010PropOp54
 70
     1
102
RTVSPost2010Prop55
280
     0
102
RTVSPost2010PropOp55
 70
     1
102
RTVSPost2010Prop56
140
1.0
102
RTVSPost2010PropOp56
 70
     1
102
RTVSPost2010Prop57
140
1.0
102
RTVSPost2010PropOp57
 70
     1
102
RTVSPropertyOp0
 70
     1
102
RTVSPropertyOp1
 70
     1
102
RTVSPropertyOp2
 70
     1
102
RTVSPropertyOp3
 70
     1
102
RTVSPropertyOp4
 70
     1
102
RTVSPropertyOp5
 70
     1
102
RTVSPropertyOp6
 70
     1
102
RTVSPropertyOp7
 70
     1
102
RTVSPropertyOp8
 70
     1
102
RTVSPropertyOp9
 70
     1
102
RTVSPropertyOp10
 70
     1
102
RTVSPropertyOp11
 70
     1
102
RTVSPropertyOp12
 70
     1
102
RTVSPropertyOp13
 70
     1
102
RTVSPropertyOp14
 70
     1
102
RTVSPropertyOp15
 70
     1
102
RTVSPropertyOp16
 70
     1
102
RTVSPropertyOp17
 70
     1
102
RTVSPropertyOp18
 70
     1
102
RTVSPropertyOp19
 70
     1
102
RTVSPropertyOp20
 70
     1
102
RTVSPropertyOp21
 70
     1
102
RTVSPropertyOp22
 70
     1
102
RTVSPropertyOp23
 70
     1
102
RTVSPropertyOp24
 70
     1
102
RTVSPropertyOp25
 70
     1
102
RTVSPropertyOp26
 70
     1
102
RTVSPropertyOp27
 70
     1
102
RTVSPropertyOp28
 70
     1
102
RTVSPropertyOp29
 70
     1
102
RTVSPropertyOp30
 70
     1
102
RTVSPropertyOp31
 70
     1
102
RTVSPropertyOp32
 70
     1
102
RTVSPropertyOp33
 70
     1
102
RTVSPropertyOp34
 70
     1
102
RTVSPropertyOp35
 70
     1
102
RTVSPropertyOp36
 70
     1
102
RTVSPropertyOp37
 70
     1
102
RTVSPropertyOp38
 70
     1
102
RTVSPropertyOp39
 70
     1
102
RTVSPropertyOp40
 70
     1
102
RTVSPropertyOp41
 70
     1
102
RTVSPropertyOp42
 70
     1
102
RTVSPropertyOp43
 70
     1
102
RTVSPropertyOp44
 70
     1
102
RTVSPropertyOp45
 70
     1
102
RTVSPropertyOp46
 70
     1
102
RTVSPropertyOp47
 70
     1
102
RTVSPropertyOp48
 70
     1
102
RTVSPropertyOp49
 70
     1
102
RTVSPropertyOp50
 70
     1
102
RTVSPropertyOp51
 70
     0
102
RTVSPropertyOp52
 70
     0
102
RTVSPropertyOp53
 70
     1
102
RTVSPropertyOp54
 70
     1
102
RTVSPropertyOp55
 70
     1
102
RTVSPropertyOp56
 70
     1
102
RTVSPropertyOp57
 70
     1
102
RTVSPropertyOp58
 70
     1
102
RTVSPropertyOp59
 70
     1
102
RTVSPropertyOp60
 70
     1
102
RTVSPropertyOp61
 70
     1
102
RTVSPropertyOp62
 70
     1
  0
XRECORD
  5
CD65
102
{ACAD_REACTORS
330
CD64
102
}
330
CD64
100
AcDbXrecord
280
     1
102
RTVSPost2010Prop28
280
     0
102
RTVSPost2010PropOp28
 70
     1
102
RTVSPost2010Prop29
280
     1
102
RTVSPost2010PropOp29
 70
     1
102
RTVSPost2010Prop30
280
     1
102
RTVSPost2010PropOp30
 70
     1
102
RTVSPost2010Prop31
280
     0
102
RTVSPost2010PropOp31
 70
     1
102
RTVSPost2010Prop32
280
     0
102
RTVSPost2010PropOp32
 70
     1
102
RTVSPost2010Prop33
280
     0
102
RTVSPost2010PropOp33
 70
     1
102
RTVSPost2010Prop34
280
     0
102
RTVSPost2010PropOp34
 70
     1
102
RTVSPost2010Prop35
280
     0
102
RTVSPost2010PropOp35
 70
     1
102
RTVSPost2010Prop36
280
     0
102
RTVSPost2010PropOp36
 70
     1
102
RTVSPost2010Prop37
 90
       50
102
RTVSPost2010PropOp37
 70
     1
102
RTVSPost2010Prop38
140
0.0
102
RTVSPost2010PropOp38
 70
     1
102
RTVSPost2010Prop39
140
1.0
102
RTVSPost2010PropOp39
 70
     1
102
RTVSPost2010Prop40
 90
        0
102
RTVSPost2010PropOp40
 70
     1
102
RTVSPost2010Prop41ColorIndex
 90
       18
102
RTVSPost2010Prop41ColorRGB
 90
        0
102
RTVSPost2010PropOp41
 70
     1
102
RTVSPost2010Prop42
 90
       50
102
RTVSPost2010PropOp42
 70
     1
102
RTVSPost2010Prop43
 90
        3
102
RTVSPost2010PropOp43
 70
     1
102
RTVSPost2010Prop44ColorIndex
 90
        5
102
RTVSPost2010Prop44ColorRGB
 90
      255
102
RTVSPost2010PropOp44
 70
     1
102
RTVSPost2010Prop45
280
     0
102
RTVSPost2010PropOp45
 70
     1
102
RTVSPost2010Prop46
 90
       50
102
RTVSPost2010PropOp46
 70
     1
102
RTVSPost2010Prop47
 90
       50
102
RTVSPost2010PropOp47
 70
     1
102
RTVSPost2010Prop48
 90
       50
102
RTVSPost2010PropOp48
 70
     1
102
RTVSPost2010Prop49
280
     0
102
RTVSPost2010PropOp49
 70
     1
102
RTVSPost2010Prop50
 90
       50
102
RTVSPost2010PropOp50
 70
     1
102
RTVSPost2010Prop51ColorIndex
 90
      256
102
RTVSPost2010Prop51ColorRGB
 90
-16777216
102
RTVSPost2010PropOp51
 70
     0
102
RTVSPost2010Prop52
140
1.0
102
RTVSPost2010PropOp52
 70
     0
102
RTVSPost2010Prop53
 90
        2
102
RTVSPost2010PropOp53
 70
     1
102
RTVSPost2010Prop54
  1
strokes_ogs.tif
102
RTVSPost2010PropOp54
 70
     1
102
RTVSPost2010Prop55
280
     0
102
RTVSPost2010PropOp55
 70
     1
102
RTVSPost2010Prop56
140
1.0
102
RTVSPost2010PropOp56
 70
     1
102
RTVSPost2010Prop57
140
1.0
102
RTVSPost2010PropOp57
 70
     1
102
RTVSPropertyOp0
 70
     1
102
RTVSPropertyOp1
 70
     1
102
RTVSPropertyOp2
 70
     1
102
RTVSPropertyOp3
 70
     1
102
RTVSPropertyOp4
 70
     1
102
RTVSPropertyOp5
 70
     1
102
RTVSPropertyOp6
 70
     1
102
RTVSPropertyOp7
 70
     1
102
RTVSPropertyOp8
 70
     1
102
RTVSPropertyOp9
 70
     1
102
RTVSPropertyOp10
 70
     1
102
RTVSPropertyOp11
 70
     1
102
RTVSPropertyOp12
 70
     1
102
RTVSPropertyOp13
 70
     1
102
RTVSPropertyOp14
 70
     1
102
RTVSPropertyOp15
 70
     1
102
RTVSPropertyOp16
 70
     1
102
RTVSPropertyOp17
 70
     1
102
RTVSPropertyOp18
 70
     1
102
RTVSPropertyOp19
 70
     1
102
RTVSPropertyOp20
 70
     1
102
RTVSPropertyOp21
 70
     1
102
RTVSPropertyOp22
 70
     1
102
RTVSPropertyOp23
 70
     1
102
RTVSPropertyOp24
 70
     1
102
RTVSPropertyOp25
 70
     1
102
RTVSPropertyOp26
 70
     1
102
RTVSPropertyOp27
 70
     1
102
RTVSPropertyOp28
 70
     1
102
RTVSPropertyOp29
 70
     1
102
RTVSPropertyOp30
 70
     1
102
RTVSPropertyOp31
 70
     1
102
RTVSPropertyOp32
 70
     1
102
RTVSPropertyOp33
 70
     1
102
RTVSPropertyOp34
 70
     1
102
RTVSPropertyOp35
 70
     1
102
RTVSPropertyOp36
 70
     1
102
RTVSPropertyOp37
 70
     1
102
RTVSPropertyOp38
 70
     1
102
RTVSPropertyOp39
 70
     1
102
RTVSPropertyOp40
 70
     1
102
RTVSPropertyOp41
 70
     1
102
RTVSPropertyOp42
 70
     1
102
RTVSPropertyOp43
 70
     1
102
RTVSPropertyOp44
 70
     1
102
RTVSPropertyOp45
 70
     1
102
RTVSPropertyOp46
 70
     1
102
RTVSPropertyOp47
 70
     1
102
RTVSPropertyOp48
 70
     1
102
RTVSPropertyOp49
 70
     1
102
RTVSPropertyOp50
 70
     1
102
RTVSPropertyOp51
 70
     0
102
RTVSPropertyOp52
 70
     0
102
RTVSPropertyOp53
 70
     1
102
RTVSPropertyOp54
 70
     1
102
RTVSPropertyOp55
 70
     1
102
RTVSPropertyOp56
 70
     1
102
RTVSPropertyOp57
 70
     1
102
RTVSPropertyOp58
 70
     1
102
RTVSPropertyOp59
 70
     1
102
RTVSPropertyOp60
 70
     1
102
RTVSPropertyOp61
 70
     1
102
RTVSPropertyOp62
 70
     1
  0
XRECORD
  5
CD6D
102
{ACAD_REACTORS
330
CD6C
102
}
330
CD6C
100
AcDbXrecord
280
     1
102
RTVSPost2010Prop28
280
     0
102
RTVSPost2010PropOp28
 70
     1
102
RTVSPost2010Prop29
280
     1
102
RTVSPost2010PropOp29
 70
     1
102
RTVSPost2010Prop30
280
     1
102
RTVSPost2010PropOp30
 70
     1
102
RTVSPost2010Prop31
280
     0
102
RTVSPost2010PropOp31
 70
     1
102
RTVSPost2010Prop32
280
     0
102
RTVSPost2010PropOp32
 70
     1
102
RTVSPost2010Prop33
280
     0
102
RTVSPost2010PropOp33
 70
     1
102
RTVSPost2010Prop34
280
     0
102
RTVSPost2010PropOp34
 70
     1
102
RTVSPost2010Prop35
280
     0
102
RTVSPost2010PropOp35
 70
     1
102
RTVSPost2010Prop36
280
     0
102
RTVSPost2010PropOp36
 70
     1
102
RTVSPost2010Prop37
 90
       50
102
RTVSPost2010PropOp37
 70
     1
102
RTVSPost2010Prop38
140
0.0
102
RTVSPost2010PropOp38
 70
     1
102
RTVSPost2010Prop39
140
1.0
102
RTVSPost2010PropOp39
 70
     1
102
RTVSPost2010Prop40
 90
        0
102
RTVSPost2010PropOp40
 70
     1
102
RTVSPost2010Prop41ColorIndex
 90
       18
102
RTVSPost2010Prop41ColorRGB
 90
        0
102
RTVSPost2010PropOp41
 70
     1
102
RTVSPost2010Prop42
 90
       50
102
RTVSPost2010PropOp42
 70
     1
102
RTVSPost2010Prop43
 90
        3
102
RTVSPost2010PropOp43
 70
     1
102
RTVSPost2010Prop44ColorIndex
 90
        5
102
RTVSPost2010Prop44ColorRGB
 90
      255
102
RTVSPost2010PropOp44
 70
     1
102
RTVSPost2010Prop45
280
     0
102
RTVSPost2010PropOp45
 70
     1
102
RTVSPost2010Prop46
 90
       50
102
RTVSPost2010PropOp46
 70
     1
102
RTVSPost2010Prop47
 90
       50
102
RTVSPost2010PropOp47
 70
     1
102
RTVSPost2010Prop48
 90
       50
102
RTVSPost2010PropOp48
 70
     1
102
RTVSPost2010Prop49
280
     0
102
RTVSPost2010PropOp49
 70
     1
102
RTVSPost2010Prop50
 90
       50
102
RTVSPost2010PropOp50
 70
     1
102
RTVSPost2010Prop51ColorIndex
 90
      256
102
RTVSPost2010Prop51ColorRGB
 90
-16777216
102
RTVSPost2010PropOp51
 70
     0
102
RTVSPost2010Prop52
140
1.0
102
RTVSPost2010PropOp52
 70
     0
102
RTVSPost2010Prop53
 90
        2
102
RTVSPost2010PropOp53
 70
     1
102
RTVSPost2010Prop54
  1
strokes_ogs.tif
102
RTVSPost2010PropOp54
 70
     1
102
RTVSPost2010Prop55
280
     0
102
RTVSPost2010PropOp55
 70
     1
102
RTVSPost2010Prop56
140
1.0
102
RTVSPost2010PropOp56
 70
     1
102
RTVSPost2010Prop57
140
1.0
102
RTVSPost2010PropOp57
 70
     1
102
RTVSPropertyOp0
 70
     1
102
RTVSPropertyOp1
 70
     1
102
RTVSPropertyOp2
 70
     1
102
RTVSPropertyOp3
 70
     1
102
RTVSPropertyOp4
 70
     1
102
RTVSPropertyOp5
 70
     1
102
RTVSPropertyOp6
 70
     1
102
RTVSPropertyOp7
 70
     1
102
RTVSPropertyOp8
 70
     1
102
RTVSPropertyOp9
 70
     1
102
RTVSPropertyOp10
 70
     1
102
RTVSPropertyOp11
 70
     1
102
RTVSPropertyOp12
 70
     1
102
RTVSPropertyOp13
 70
     1
102
RTVSPropertyOp14
 70
     1
102
RTVSPropertyOp15
 70
     1
102
RTVSPropertyOp16
 70
     1
102
RTVSPropertyOp17
 70
     1
102
RTVSPropertyOp18
 70
     1
102
RTVSPropertyOp19
 70
     1
102
RTVSPropertyOp20
 70
     1
102
RTVSPropertyOp21
 70
     1
102
RTVSPropertyOp22
 70
     1
102
RTVSPropertyOp23
 70
     1
102
RTVSPropertyOp24
 70
     1
102
RTVSPropertyOp25
 70
     1
102
RTVSPropertyOp26
 70
     1
102
RTVSPropertyOp27
 70
     1
102
RTVSPropertyOp28
 70
     1
102
RTVSPropertyOp29
 70
     1
102
RTVSPropertyOp30
 70
     1
102
RTVSPropertyOp31
 70
     1
102
RTVSPropertyOp32
 70
     1
102
RTVSPropertyOp33
 70
     1
102
RTVSPropertyOp34
 70
     1
102
RTVSPropertyOp35
 70
     1
102
RTVSPropertyOp36
 70
     1
102
RTVSPropertyOp37
 70
     1
102
RTVSPropertyOp38
 70
     1
102
RTVSPropertyOp39
 70
     1
102
RTVSPropertyOp40
 70
     1
102
RTVSPropertyOp41
 70
     1
102
RTVSPropertyOp42
 70
     1
102
RTVSPropertyOp43
 70
     1
102
RTVSPropertyOp44
 70
     1
102
RTVSPropertyOp45
 70
     1
102
RTVSPropertyOp46
 70
     1
102
RTVSPropertyOp47
 70
     1
102
RTVSPropertyOp48
 70
     1
102
RTVSPropertyOp49
 70
     1
102
RTVSPropertyOp50
 70
     1
102
RTVSPropertyOp51
 70
     0
102
RTVSPropertyOp52
 70
     0
102
RTVSPropertyOp53
 70
     1
102
RTVSPropertyOp54
 70
     1
102
RTVSPropertyOp55
 70
     1
102
RTVSPropertyOp56
 70
     1
102
RTVSPropertyOp57
 70
     1
102
RTVSPropertyOp58
 70
     1
102
RTVSPropertyOp59
 70
     1
102
RTVSPropertyOp60
 70
     1
102
RTVSPropertyOp61
 70
     1
102
RTVSPropertyOp62
 70
     1
  0
XRECORD
  5
CD5F
102
{ACAD_REACTORS
330
CD5E
102
}
330
CD5E
100
AcDbXrecord
280
     1
102
RTVSPost2010Prop28
280
     0
102
RTVSPost2010PropOp28
 70
     1
102
RTVSPost2010Prop29
280
     1
102
RTVSPost2010PropOp29
 70
     1
102
RTVSPost2010Prop30
280
     1
102
RTVSPost2010PropOp30
 70
     1
102
RTVSPost2010Prop31
280
     0
102
RTVSPost2010PropOp31
 70
     1
102
RTVSPost2010Prop32
280
     0
102
RTVSPost2010PropOp32
 70
     1
102
RTVSPost2010Prop33
280
     0
102
RTVSPost2010PropOp33
 70
     1
102
RTVSPost2010Prop34
280
     0
102
RTVSPost2010PropOp34
 70
     1
102
RTVSPost2010Prop35
280
     0
102
RTVSPost2010PropOp35
 70
     1
102
RTVSPost2010Prop36
280
     0
102
RTVSPost2010PropOp36
 70
     1
102
RTVSPost2010Prop37
 90
       50
102
RTVSPost2010PropOp37
 70
     1
102
RTVSPost2010Prop38
140
0.0
102
RTVSPost2010PropOp38
 70
     1
102
RTVSPost2010Prop39
140
1.0
102
RTVSPost2010PropOp39
 70
     1
102
RTVSPost2010Prop40
 90
        0
102
RTVSPost2010PropOp40
 70
     1
102
RTVSPost2010Prop41ColorIndex
 90
       18
102
RTVSPost2010Prop41ColorRGB
 90
        0
102
RTVSPost2010PropOp41
 70
     1
102
RTVSPost2010Prop42
 90
       50
102
RTVSPost2010PropOp42
 70
     1
102
RTVSPost2010Prop43
 90
        3
102
RTVSPost2010PropOp43
 70
     1
102
RTVSPost2010Prop44ColorIndex
 90
        5
102
RTVSPost2010Prop44ColorRGB
 90
      255
102
RTVSPost2010PropOp44
 70
     1
102
RTVSPost2010Prop45
280
     0
102
RTVSPost2010PropOp45
 70
     1
102
RTVSPost2010Prop46
 90
       50
102
RTVSPost2010PropOp46
 70
     1
102
RTVSPost2010Prop47
 90
       50
102
RTVSPost2010PropOp47
 70
     1
102
RTVSPost2010Prop48
 90
       50
102
RTVSPost2010PropOp48
 70
     1
102
RTVSPost2010Prop49
280
     0
102
RTVSPost2010PropOp49
 70
     1
102
RTVSPost2010Prop50
 90
       50
102
RTVSPost2010PropOp50
 70
     1
102
RTVSPost2010Prop51ColorIndex
 90
      256
102
RTVSPost2010Prop51ColorRGB
 90
-16777216
102
RTVSPost2010PropOp51
 70
     0
102
RTVSPost2010Prop52
140
1.0
102
RTVSPost2010PropOp52
 70
     0
102
RTVSPost2010Prop53
 90
        2
102
RTVSPost2010PropOp53
 70
     1
102
RTVSPost2010Prop54
  1
strokes_ogs.tif
102
RTVSPost2010PropOp54
 70
     1
102
RTVSPost2010Prop55
280
     0
102
RTVSPost2010PropOp55
 70
     1
102
RTVSPost2010Prop56
140
1.0
102
RTVSPost2010PropOp56
 70
     1
102
RTVSPost2010Prop57
140
1.0
102
RTVSPost2010PropOp57
 70
     1
102
RTVSPropertyOp0
 70
     1
102
RTVSPropertyOp1
 70
     1
102
RTVSPropertyOp2
 70
     1
102
RTVSPropertyOp3
 70
     1
102
RTVSPropertyOp4
 70
     1
102
RTVSPropertyOp5
 70
     1
102
RTVSPropertyOp6
 70
     1
102
RTVSPropertyOp7
 70
     1
102
RTVSPropertyOp8
 70
     1
102
RTVSPropertyOp9
 70
     1
102
RTVSPropertyOp10
 70
     1
102
RTVSPropertyOp11
 70
     1
102
RTVSPropertyOp12
 70
     1
102
RTVSPropertyOp13
 70
     1
102
RTVSPropertyOp14
 70
     1
102
RTVSPropertyOp15
 70
     1
102
RTVSPropertyOp16
 70
     1
102
RTVSPropertyOp17
 70
     1
102
RTVSPropertyOp18
 70
     1
102
RTVSPropertyOp19
 70
     1
102
RTVSPropertyOp20
 70
     1
102
RTVSPropertyOp21
 70
     1
102
RTVSPropertyOp22
 70
     1
102
RTVSPropertyOp23
 70
     1
102
RTVSPropertyOp24
 70
     1
102
RTVSPropertyOp25
 70
     1
102
RTVSPropertyOp26
 70
     1
102
RTVSPropertyOp27
 70
     1
102
RTVSPropertyOp28
 70
     1
102
RTVSPropertyOp29
 70
     1
102
RTVSPropertyOp30
 70
     1
102
RTVSPropertyOp31
 70
     1
102
RTVSPropertyOp32
 70
     1
102
RTVSPropertyOp33
 70
     1
102
RTVSPropertyOp34
 70
     1
102
RTVSPropertyOp35
 70
     1
102
RTVSPropertyOp36
 70
     1
102
RTVSPropertyOp37
 70
     1
102
RTVSPropertyOp38
 70
     1
102
RTVSPropertyOp39
 70
     1
102
RTVSPropertyOp40
 70
     1
102
RTVSPropertyOp41
 70
     1
102
RTVSPropertyOp42
 70
     1
102
RTVSPropertyOp43
 70
     1
102
RTVSPropertyOp44
 70
     1
102
RTVSPropertyOp45
 70
     1
102
RTVSPropertyOp46
 70
     1
102
RTVSPropertyOp47
 70
     1
102
RTVSPropertyOp48
 70
     1
102
RTVSPropertyOp49
 70
     1
102
RTVSPropertyOp50
 70
     1
102
RTVSPropertyOp51
 70
     0
102
RTVSPropertyOp52
 70
     0
102
RTVSPropertyOp53
 70
     1
102
RTVSPropertyOp54
 70
     1
102
RTVSPropertyOp55
 70
     1
102
RTVSPropertyOp56
 70
     1
102
RTVSPropertyOp57
 70
     1
102
RTVSPropertyOp58
 70
     1
102
RTVSPropertyOp59
 70
     1
102
RTVSPropertyOp60
 70
     1
102
RTVSPropertyOp61
 70
     1
102
RTVSPropertyOp62
 70
     1
  0
XRECORD
  5
CD63
102
{ACAD_REACTORS
330
CD62
102
}
330
CD62
100
AcDbXrecord
280
     1
102
RTVSPost2010Prop28
280
     0
102
RTVSPost2010PropOp28
 70
     1
102
RTVSPost2010Prop29
280
     1
102
RTVSPost2010PropOp29
 70
     1
102
RTVSPost2010Prop30
280
     1
102
RTVSPost2010PropOp30
 70
     1
102
RTVSPost2010Prop31
280
     0
102
RTVSPost2010PropOp31
 70
     1
102
RTVSPost2010Prop32
280
     0
102
RTVSPost2010PropOp32
 70
     1
102
RTVSPost2010Prop33
280
     0
102
RTVSPost2010PropOp33
 70
     1
102
RTVSPost2010Prop34
280
     0
102
RTVSPost2010PropOp34
 70
     1
102
RTVSPost2010Prop35
280
     0
102
RTVSPost2010PropOp35
 70
     1
102
RTVSPost2010Prop36
280
     0
102
RTVSPost2010PropOp36
 70
     1
102
RTVSPost2010Prop37
 90
       50
102
RTVSPost2010PropOp37
 70
     1
102
RTVSPost2010Prop38
140
0.0
102
RTVSPost2010PropOp38
 70
     1
102
RTVSPost2010Prop39
140
1.0
102
RTVSPost2010PropOp39
 70
     1
102
RTVSPost2010Prop40
 90
        0
102
RTVSPost2010PropOp40
 70
     1
102
RTVSPost2010Prop41ColorIndex
 90
       18
102
RTVSPost2010Prop41ColorRGB
 90
        0
102
RTVSPost2010PropOp41
 70
     1
102
RTVSPost2010Prop42
 90
       50
102
RTVSPost2010PropOp42
 70
     1
102
RTVSPost2010Prop43
 90
        3
102
RTVSPost2010PropOp43
 70
     1
102
RTVSPost2010Prop44ColorIndex
 90
        5
102
RTVSPost2010Prop44ColorRGB
 90
      255
102
RTVSPost2010PropOp44
 70
     1
102
RTVSPost2010Prop45
280
     0
102
RTVSPost2010PropOp45
 70
     1
102
RTVSPost2010Prop46
 90
       50
102
RTVSPost2010PropOp46
 70
     1
102
RTVSPost2010Prop47
 90
       50
102
RTVSPost2010PropOp47
 70
     1
102
RTVSPost2010Prop48
 90
       50
102
RTVSPost2010PropOp48
 70
     1
102
RTVSPost2010Prop49
280
     0
102
RTVSPost2010PropOp49
 70
     1
102
RTVSPost2010Prop50
 90
       50
102
RTVSPost2010PropOp50
 70
     1
102
RTVSPost2010Prop51ColorIndex
 90
      256
102
RTVSPost2010Prop51ColorRGB
 90
-16777216
102
RTVSPost2010PropOp51
 70
     0
102
RTVSPost2010Prop52
140
1.0
102
RTVSPost2010PropOp52
 70
     0
102
RTVSPost2010Prop53
 90
        2
102
RTVSPost2010PropOp53
 70
     1
102
RTVSPost2010Prop54
  1
strokes_ogs.tif
102
RTVSPost2010PropOp54
 70
     1
102
RTVSPost2010Prop55
280
     0
102
RTVSPost2010PropOp55
 70
     1
102
RTVSPost2010Prop56
140
1.0
102
RTVSPost2010PropOp56
 70
     1
102
RTVSPost2010Prop57
140
1.0
102
RTVSPost2010PropOp57
 70
     1
102
RTVSPropertyOp0
 70
     1
102
RTVSPropertyOp1
 70
     1
102
RTVSPropertyOp2
 70
     1
102
RTVSPropertyOp3
 70
     1
102
RTVSPropertyOp4
 70
     1
102
RTVSPropertyOp5
 70
     1
102
RTVSPropertyOp6
 70
     1
102
RTVSPropertyOp7
 70
     1
102
RTVSPropertyOp8
 70
     1
102
RTVSPropertyOp9
 70
     1
102
RTVSPropertyOp10
 70
     1
102
RTVSPropertyOp11
 70
     1
102
RTVSPropertyOp12
 70
     1
102
RTVSPropertyOp13
 70
     1
102
RTVSPropertyOp14
 70
     1
102
RTVSPropertyOp15
 70
     1
102
RTVSPropertyOp16
 70
     1
102
RTVSPropertyOp17
 70
     1
102
RTVSPropertyOp18
 70
     1
102
RTVSPropertyOp19
 70
     1
102
RTVSPropertyOp20
 70
     1
102
RTVSPropertyOp21
 70
     1
102
RTVSPropertyOp22
 70
     1
102
RTVSPropertyOp23
 70
     1
102
RTVSPropertyOp24
 70
     1
102
RTVSPropertyOp25
 70
     1
102
RTVSPropertyOp26
 70
     1
102
RTVSPropertyOp27
 70
     1
102
RTVSPropertyOp28
 70
     1
102
RTVSPropertyOp29
 70
     1
102
RTVSPropertyOp30
 70
     1
102
RTVSPropertyOp31
 70
     1
102
RTVSPropertyOp32
 70
     1
102
RTVSPropertyOp33
 70
     1
102
RTVSPropertyOp34
 70
     1
102
RTVSPropertyOp35
 70
     1
102
RTVSPropertyOp36
 70
     1
102
RTVSPropertyOp37
 70
     1
102
RTVSPropertyOp38
 70
     1
102
RTVSPropertyOp39
 70
     1
102
RTVSPropertyOp40
 70
     1
102
RTVSPropertyOp41
 70
     1
102
RTVSPropertyOp42
 70
     1
102
RTVSPropertyOp43
 70
     1
102
RTVSPropertyOp44
 70
     1
102
RTVSPropertyOp45
 70
     1
102
RTVSPropertyOp46
 70
     1
102
RTVSPropertyOp47
 70
     1
102
RTVSPropertyOp48
 70
     1
102
RTVSPropertyOp49
 70
     1
102
RTVSPropertyOp50
 70
     1
102
RTVSPropertyOp51
 70
     0
102
RTVSPropertyOp52
 70
     0
102
RTVSPropertyOp53
 70
     1
102
RTVSPropertyOp54
 70
     1
102
RTVSPropertyOp55
 70
     1
102
RTVSPropertyOp56
 70
     1
102
RTVSPropertyOp57
 70
     1
102
RTVSPropertyOp58
 70
     1
102
RTVSPropertyOp59
 70
     1
102
RTVSPropertyOp60
 70
     1
102
RTVSPropertyOp61
 70
     1
102
RTVSPropertyOp62
 70
     1
  0
XRECORD
  5
CD7D
102
{ACAD_REACTORS
330
CD7C
102
}
330
CD7C
100
AcDbXrecord
280
     1
102
RTVSPost2010Prop28
280
     0
102
RTVSPost2010PropOp28
 70
     1
102
RTVSPost2010Prop29
280
     1
102
RTVSPost2010PropOp29
 70
     1
102
RTVSPost2010Prop30
280
     1
102
RTVSPost2010PropOp30
 70
     1
102
RTVSPost2010Prop31
280
     0
102
RTVSPost2010PropOp31
 70
     1
102
RTVSPost2010Prop32
280
     0
102
RTVSPost2010PropOp32
 70
     1
102
RTVSPost2010Prop33
280
     0
102
RTVSPost2010PropOp33
 70
     1
102
RTVSPost2010Prop34
280
     0
102
RTVSPost2010PropOp34
 70
     1
102
RTVSPost2010Prop35
280
     0
102
RTVSPost2010PropOp35
 70
     1
102
RTVSPost2010Prop36
280
     0
102
RTVSPost2010PropOp36
 70
     1
102
RTVSPost2010Prop37
 90
       50
102
RTVSPost2010PropOp37
 70
     0
102
RTVSPost2010Prop38
140
0.0
102
RTVSPost2010PropOp38
 70
     0
102
RTVSPost2010Prop39
140
1.0
102
RTVSPost2010PropOp39
 70
     0
102
RTVSPost2010Prop40
 90
        0
102
RTVSPost2010PropOp40
 70
     0
102
RTVSPost2010Prop41ColorIndex
 90
       18
102
RTVSPost2010Prop41ColorRGB
 90
        0
102
RTVSPost2010PropOp41
 70
     0
102
RTVSPost2010Prop42
 90
       50
102
RTVSPost2010PropOp42
 70
     0
102
RTVSPost2010Prop43
 90
        3
102
RTVSPost2010PropOp43
 70
     0
102
RTVSPost2010Prop44ColorIndex
 90
        5
102
RTVSPost2010Prop44ColorRGB
 90
      255
102
RTVSPost2010PropOp44
 70
     0
102
RTVSPost2010Prop45
280
     0
102
RTVSPost2010PropOp45
 70
     1
102
RTVSPost2010Prop46
 90
       50
102
RTVSPost2010PropOp46
 70
     0
102
RTVSPost2010Prop47
 90
       50
102
RTVSPost2010PropOp47
 70
     0
102
RTVSPost2010Prop48
 90
       50
102
RTVSPost2010PropOp48
 70
     0
102
RTVSPost2010Prop49
280
     0
102
RTVSPost2010PropOp49
 70
     1
102
RTVSPost2010Prop50
 90
       50
102
RTVSPost2010PropOp50
 70
     0
102
RTVSPost2010Prop51ColorIndex
 90
      256
102
RTVSPost2010Prop51ColorRGB
 90
-16777216
102
RTVSPost2010PropOp51
 70
     0
102
RTVSPost2010Prop52
140
1.0
102
RTVSPost2010PropOp52
 70
     0
102
RTVSPost2010Prop53
 90
        2
102
RTVSPost2010PropOp53
 70
     0
102
RTVSPost2010Prop54
  1
strokes_ogs.tif
102
RTVSPost2010PropOp54
 70
     0
102
RTVSPost2010Prop55
280
     0
102
RTVSPost2010PropOp55
 70
     1
102
RTVSPost2010Prop56
140
1.0
102
RTVSPost2010PropOp56
 70
     0
102
RTVSPost2010Prop57
140
1.0
102
RTVSPost2010PropOp57
 70
     0
102
RTVSPropertyOp0
 70
     0
102
RTVSPropertyOp1
 70
     0
102
RTVSPropertyOp2
 70
     0
102
RTVSPropertyOp3
 70
     0
102
RTVSPropertyOp4
 70
     0
102
RTVSPropertyOp5
 70
     0
102
RTVSPropertyOp6
 70
     0
102
RTVSPropertyOp7
 70
     0
102
RTVSPropertyOp8
 70
     0
102
RTVSPropertyOp9
 70
     0
102
RTVSPropertyOp10
 70
     0
102
RTVSPropertyOp11
 70
     0
102
RTVSPropertyOp12
 70
     0
102
RTVSPropertyOp13
 70
     0
102
RTVSPropertyOp14
 70
     2
102
RTVSPropertyOp15
 70
     0
102
RTVSPropertyOp16
 70
     0
102
RTVSPropertyOp17
 70
     0
102
RTVSPropertyOp18
 70
     0
102
RTVSPropertyOp19
 70
     0
102
RTVSPropertyOp20
 70
     0
102
RTVSPropertyOp21
 70
     0
102
RTVSPropertyOp22
 70
     0
102
RTVSPropertyOp23
 70
     0
102
RTVSPropertyOp24
 70
     0
102
RTVSPropertyOp25
 70
     0
102
RTVSPropertyOp26
 70
     0
102
RTVSPropertyOp27
 70
     0
102
RTVSPropertyOp28
 70
     1
102
RTVSPropertyOp29
 70
     1
102
RTVSPropertyOp30
 70
     1
102
RTVSPropertyOp31
 70
     1
102
RTVSPropertyOp32
 70
     1
102
RTVSPropertyOp33
 70
     1
102
RTVSPropertyOp34
 70
     1
102
RTVSPropertyOp35
 70
     1
102
RTVSPropertyOp36
 70
     1
102
RTVSPropertyOp37
 70
     0
102
RTVSPropertyOp38
 70
     0
102
RTVSPropertyOp39
 70
     0
102
RTVSPropertyOp40
 70
     0
102
RTVSPropertyOp41
 70
     0
102
RTVSPropertyOp42
 70
     0
102
RTVSPropertyOp43
 70
     0
102
RTVSPropertyOp44
 70
     0
102
RTVSPropertyOp45
 70
     1
102
RTVSPropertyOp46
 70
     0
102
RTVSPropertyOp47
 70
     0
102
RTVSPropertyOp48
 70
     0
102
RTVSPropertyOp49
 70
     1
102
RTVSPropertyOp50
 70
     0
102
RTVSPropertyOp51
 70
     0
102
RTVSPropertyOp52
 70
     0
102
RTVSPropertyOp53
 70
     0
102
RTVSPropertyOp54
 70
     0
102
RTVSPropertyOp55
 70
     1
102
RTVSPropertyOp56
 70
     0
102
RTVSPropertyOp57
 70
     0
102
RTVSPropertyOp58
 70
     0
102
RTVSPropertyOp59
 70
     0
102
RTVSPropertyOp60
 70
     0
102
RTVSPropertyOp61
 70
     0
102
RTVSPropertyOp62
 70
     0
  0
XRECORD
  5
CD6B
102
{ACAD_REACTORS
330
CD6A
102
}
330
CD6A
100
AcDbXrecord
280
     1
102
RTVSPost2010Prop28
280
     0
102
RTVSPost2010PropOp28
 70
     1
102
RTVSPost2010Prop29
280
     1
102
RTVSPost2010PropOp29
 70
     1
102
RTVSPost2010Prop30
280
     1
102
RTVSPost2010PropOp30
 70
     1
102
RTVSPost2010Prop31
280
     0
102
RTVSPost2010PropOp31
 70
     1
102
RTVSPost2010Prop32
280
     0
102
RTVSPost2010PropOp32
 70
     1
102
RTVSPost2010Prop33
280
     0
102
RTVSPost2010PropOp33
 70
     1
102
RTVSPost2010Prop34
280
     0
102
RTVSPost2010PropOp34
 70
     1
102
RTVSPost2010Prop35
280
     0
102
RTVSPost2010PropOp35
 70
     1
102
RTVSPost2010Prop36
280
     0
102
RTVSPost2010PropOp36
 70
     1
102
RTVSPost2010Prop37
 90
       50
102
RTVSPost2010PropOp37
 70
     1
102
RTVSPost2010Prop38
140
0.0
102
RTVSPost2010PropOp38
 70
     1
102
RTVSPost2010Prop39
140
1.0
102
RTVSPost2010PropOp39
 70
     1
102
RTVSPost2010Prop40
 90
        0
102
RTVSPost2010PropOp40
 70
     1
102
RTVSPost2010Prop41ColorIndex
 90
       18
102
RTVSPost2010Prop41ColorRGB
 90
        0
102
RTVSPost2010PropOp41
 70
     1
102
RTVSPost2010Prop42
 90
       50
102
RTVSPost2010PropOp42
 70
     1
102
RTVSPost2010Prop43
 90
        3
102
RTVSPost2010PropOp43
 70
     1
102
RTVSPost2010Prop44ColorIndex
 90
        5
102
RTVSPost2010Prop44ColorRGB
 90
      255
102
RTVSPost2010PropOp44
 70
     1
102
RTVSPost2010Prop45
280
     0
102
RTVSPost2010PropOp45
 70
     1
102
RTVSPost2010Prop46
 90
       50
102
RTVSPost2010PropOp46
 70
     1
102
RTVSPost2010Prop47
 90
       50
102
RTVSPost2010PropOp47
 70
     1
102
RTVSPost2010Prop48
 90
       50
102
RTVSPost2010PropOp48
 70
     1
102
RTVSPost2010Prop49
280
     0
102
RTVSPost2010PropOp49
 70
     1
102
RTVSPost2010Prop50
 90
       50
102
RTVSPost2010PropOp50
 70
     1
102
RTVSPost2010Prop51ColorIndex
 90
      256
102
RTVSPost2010Prop51ColorRGB
 90
-16777216
102
RTVSPost2010PropOp51
 70
     0
102
RTVSPost2010Prop52
140
1.0
102
RTVSPost2010PropOp52
 70
     0
102
RTVSPost2010Prop53
 90
        2
102
RTVSPost2010PropOp53
 70
     1
102
RTVSPost2010Prop54
  1
strokes_ogs.tif
102
RTVSPost2010PropOp54
 70
     1
102
RTVSPost2010Prop55
280
     0
102
RTVSPost2010PropOp55
 70
     1
102
RTVSPost2010Prop56
140
1.0
102
RTVSPost2010PropOp56
 70
     1
102
RTVSPost2010Prop57
140
1.0
102
RTVSPost2010PropOp57
 70
     1
102
RTVSPropertyOp0
 70
     1
102
RTVSPropertyOp1
 70
     1
102
RTVSPropertyOp2
 70
     1
102
RTVSPropertyOp3
 70
     1
102
RTVSPropertyOp4
 70
     1
102
RTVSPropertyOp5
 70
     1
102
RTVSPropertyOp6
 70
     1
102
RTVSPropertyOp7
 70
     1
102
RTVSPropertyOp8
 70
     1
102
RTVSPropertyOp9
 70
     1
102
RTVSPropertyOp10
 70
     1
102
RTVSPropertyOp11
 70
     1
102
RTVSPropertyOp12
 70
     1
102
RTVSPropertyOp13
 70
     1
102
RTVSPropertyOp14
 70
     1
102
RTVSPropertyOp15
 70
     1
102
RTVSPropertyOp16
 70
     1
102
RTVSPropertyOp17
 70
     1
102
RTVSPropertyOp18
 70
     1
102
RTVSPropertyOp19
 70
     1
102
RTVSPropertyOp20
 70
     1
102
RTVSPropertyOp21
 70
     1
102
RTVSPropertyOp22
 70
     1
102
RTVSPropertyOp23
 70
     1
102
RTVSPropertyOp24
 70
     1
102
RTVSPropertyOp25
 70
     1
102
RTVSPropertyOp26
 70
     1
102
RTVSPropertyOp27
 70
     1
102
RTVSPropertyOp28
 70
     1
102
RTVSPropertyOp29
 70
     1
102
RTVSPropertyOp30
 70
     1
102
RTVSPropertyOp31
 70
     1
102
RTVSPropertyOp32
 70
     1
102
RTVSPropertyOp33
 70
     1
102
RTVSPropertyOp34
 70
     1
102
RTVSPropertyOp35
 70
     1
102
RTVSPropertyOp36
 70
     1
102
RTVSPropertyOp37
 70
     1
102
RTVSPropertyOp38
 70
     1
102
RTVSPropertyOp39
 70
     1
102
RTVSPropertyOp40
 70
     1
102
RTVSPropertyOp41
 70
     1
102
RTVSPropertyOp42
 70
     1
102
RTVSPropertyOp43
 70
     1
102
RTVSPropertyOp44
 70
     1
102
RTVSPropertyOp45
 70
     1
102
RTVSPropertyOp46
 70
     1
102
RTVSPropertyOp47
 70
     1
102
RTVSPropertyOp48
 70
     1
102
RTVSPropertyOp49
 70
     1
102
RTVSPropertyOp50
 70
     1
102
RTVSPropertyOp51
 70
     0
102
RTVSPropertyOp52
 70
     0
102
RTVSPropertyOp53
 70
     1
102
RTVSPropertyOp54
 70
     1
102
RTVSPropertyOp55
 70
     1
102
RTVSPropertyOp56
 70
     1
102
RTVSPropertyOp57
 70
     1
102
RTVSPropertyOp58
 70
     1
102
RTVSPropertyOp59
 70
     1
102
RTVSPropertyOp60
 70
     1
102
RTVSPropertyOp61
 70
     1
102
RTVSPropertyOp62
 70
     1
  0
XRECORD
  5
CD4F
102
{ACAD_REACTORS
330
CD4E
102
}
330
CD4E
100
AcDbXrecord
280
     1
102
RTVSPost2010Prop28
280
     0
102
RTVSPost2010PropOp28
 70
     1
102
RTVSPost2010Prop29
280
     1
102
RTVSPost2010PropOp29
 70
     1
102
RTVSPost2010Prop30
280
     1
102
RTVSPost2010PropOp30
 70
     1
102
RTVSPost2010Prop31
280
     0
102
RTVSPost2010PropOp31
 70
     1
102
RTVSPost2010Prop32
280
     0
102
RTVSPost2010PropOp32
 70
     1
102
RTVSPost2010Prop33
280
     0
102
RTVSPost2010PropOp33
 70
     1
102
RTVSPost2010Prop34
280
     0
102
RTVSPost2010PropOp34
 70
     1
102
RTVSPost2010Prop35
280
     0
102
RTVSPost2010PropOp35
 70
     1
102
RTVSPost2010Prop36
280
     0
102
RTVSPost2010PropOp36
 70
     1
102
RTVSPost2010Prop37
 90
       50
102
RTVSPost2010PropOp37
 70
     1
102
RTVSPost2010Prop38
140
0.0
102
RTVSPost2010PropOp38
 70
     1
102
RTVSPost2010Prop39
140
1.0
102
RTVSPost2010PropOp39
 70
     1
102
RTVSPost2010Prop40
 90
        0
102
RTVSPost2010PropOp40
 70
     1
102
RTVSPost2010Prop41ColorIndex
 90
       18
102
RTVSPost2010Prop41ColorRGB
 90
        0
102
RTVSPost2010PropOp41
 70
     1
102
RTVSPost2010Prop42
 90
       50
102
RTVSPost2010PropOp42
 70
     1
102
RTVSPost2010Prop43
 90
        3
102
RTVSPost2010PropOp43
 70
     1
102
RTVSPost2010Prop44ColorIndex
 90
        5
102
RTVSPost2010Prop44ColorRGB
 90
      255
102
RTVSPost2010PropOp44
 70
     1
102
RTVSPost2010Prop45
280
     0
102
RTVSPost2010PropOp45
 70
     1
102
RTVSPost2010Prop46
 90
       50
102
RTVSPost2010PropOp46
 70
     1
102
RTVSPost2010Prop47
 90
       50
102
RTVSPost2010PropOp47
 70
     1
102
RTVSPost2010Prop48
 90
       50
102
RTVSPost2010PropOp48
 70
     1
102
RTVSPost2010Prop49
280
     0
102
RTVSPost2010PropOp49
 70
     1
102
RTVSPost2010Prop50
 90
       50
102
RTVSPost2010PropOp50
 70
     1
102
RTVSPost2010Prop51ColorIndex
 90
      256
102
RTVSPost2010Prop51ColorRGB
 90
-16777216
102
RTVSPost2010PropOp51
 70
     0
102
RTVSPost2010Prop52
140
1.0
102
RTVSPost2010PropOp52
 70
     0
102
RTVSPost2010Prop53
 90
        2
102
RTVSPost2010PropOp53
 70
     1
102
RTVSPost2010Prop54
  1
strokes_ogs.tif
102
RTVSPost2010PropOp54
 70
     1
102
RTVSPost2010Prop55
280
     0
102
RTVSPost2010PropOp55
 70
     1
102
RTVSPost2010Prop56
140
1.0
102
RTVSPost2010PropOp56
 70
     1
102
RTVSPost2010Prop57
140
1.0
102
RTVSPost2010PropOp57
 70
     1
102
RTVSPropertyOp0
 70
     1
102
RTVSPropertyOp1
 70
     1
102
RTVSPropertyOp2
 70
     1
102
RTVSPropertyOp3
 70
     1
102
RTVSPropertyOp4
 70
     1
102
RTVSPropertyOp5
 70
     1
102
RTVSPropertyOp6
 70
     1
102
RTVSPropertyOp7
 70
     1
102
RTVSPropertyOp8
 70
     1
102
RTVSPropertyOp9
 70
     1
102
RTVSPropertyOp10
 70
     1
102
RTVSPropertyOp11
 70
     1
102
RTVSPropertyOp12
 70
     1
102
RTVSPropertyOp13
 70
     1
102
RTVSPropertyOp14
 70
     1
102
RTVSPropertyOp15
 70
     1
102
RTVSPropertyOp16
 70
     1
102
RTVSPropertyOp17
 70
     1
102
RTVSPropertyOp18
 70
     1
102
RTVSPropertyOp19
 70
     1
102
RTVSPropertyOp20
 70
     1
102
RTVSPropertyOp21
 70
     1
102
RTVSPropertyOp22
 70
     1
102
RTVSPropertyOp23
 70
     1
102
RTVSPropertyOp24
 70
     1
102
RTVSPropertyOp25
 70
     1
102
RTVSPropertyOp26
 70
     1
102
RTVSPropertyOp27
 70
     1
102
RTVSPropertyOp28
 70
     1
102
RTVSPropertyOp29
 70
     1
102
RTVSPropertyOp30
 70
     1
102
RTVSPropertyOp31
 70
     1
102
RTVSPropertyOp32
 70
     1
102
RTVSPropertyOp33
 70
     1
102
RTVSPropertyOp34
 70
     1
102
RTVSPropertyOp35
 70
     1
102
RTVSPropertyOp36
 70
     1
102
RTVSPropertyOp37
 70
     1
102
RTVSPropertyOp38
 70
     1
102
RTVSPropertyOp39
 70
     1
102
RTVSPropertyOp40
 70
     1
102
RTVSPropertyOp41
 70
     1
102
RTVSPropertyOp42
 70
     1
102
RTVSPropertyOp43
 70
     1
102
RTVSPropertyOp44
 70
     1
102
RTVSPropertyOp45
 70
     1
102
RTVSPropertyOp46
 70
     1
102
RTVSPropertyOp47
 70
     1
102
RTVSPropertyOp48
 70
     1
102
RTVSPropertyOp49
 70
     1
102
RTVSPropertyOp50
 70
     1
102
RTVSPropertyOp51
 70
     0
102
RTVSPropertyOp52
 70
     0
102
RTVSPropertyOp53
 70
     1
102
RTVSPropertyOp54
 70
     1
102
RTVSPropertyOp55
 70
     1
102
RTVSPropertyOp56
 70
     1
102
RTVSPropertyOp57
 70
     1
102
RTVSPropertyOp58
 70
     1
102
RTVSPropertyOp59
 70
     1
102
RTVSPropertyOp60
 70
     1
102
RTVSPropertyOp61
 70
     1
102
RTVSPropertyOp62
 70
     1
  0
XRECORD
  5
CD51
102
{ACAD_REACTORS
330
CD50
102
}
330
CD50
100
AcDbXrecord
280
     1
102
RTVSPost2010Prop28
280
     0
102
RTVSPost2010PropOp28
 70
     1
102
RTVSPost2010Prop29
280
     1
102
RTVSPost2010PropOp29
 70
     1
102
RTVSPost2010Prop30
280
     1
102
RTVSPost2010PropOp30
 70
     1
102
RTVSPost2010Prop31
280
     0
102
RTVSPost2010PropOp31
 70
     1
102
RTVSPost2010Prop32
280
     0
102
RTVSPost2010PropOp32
 70
     1
102
RTVSPost2010Prop33
280
     0
102
RTVSPost2010PropOp33
 70
     1
102
RTVSPost2010Prop34
280
     0
102
RTVSPost2010PropOp34
 70
     1
102
RTVSPost2010Prop35
280
     0
102
RTVSPost2010PropOp35
 70
     1
102
RTVSPost2010Prop36
280
     0
102
RTVSPost2010PropOp36
 70
     1
102
RTVSPost2010Prop37
 90
       50
102
RTVSPost2010PropOp37
 70
     1
102
RTVSPost2010Prop38
140
0.0
102
RTVSPost2010PropOp38
 70
     1
102
RTVSPost2010Prop39
140
1.0
102
RTVSPost2010PropOp39
 70
     1
102
RTVSPost2010Prop40
 90
        0
102
RTVSPost2010PropOp40
 70
     1
102
RTVSPost2010Prop41ColorIndex
 90
       18
102
RTVSPost2010Prop41ColorRGB
 90
        0
102
RTVSPost2010PropOp41
 70
     1
102
RTVSPost2010Prop42
 90
       50
102
RTVSPost2010PropOp42
 70
     1
102
RTVSPost2010Prop43
 90
        3
102
RTVSPost2010PropOp43
 70
     1
102
RTVSPost2010Prop44ColorIndex
 90
        5
102
RTVSPost2010Prop44ColorRGB
 90
      255
102
RTVSPost2010PropOp44
 70
     1
102
RTVSPost2010Prop45
280
     0
102
RTVSPost2010PropOp45
 70
     1
102
RTVSPost2010Prop46
 90
       50
102
RTVSPost2010PropOp46
 70
     1
102
RTVSPost2010Prop47
 90
       50
102
RTVSPost2010PropOp47
 70
     1
102
RTVSPost2010Prop48
 90
       50
102
RTVSPost2010PropOp48
 70
     1
102
RTVSPost2010Prop49
280
     0
102
RTVSPost2010PropOp49
 70
     1
102
RTVSPost2010Prop50
 90
       50
102
RTVSPost2010PropOp50
 70
     1
102
RTVSPost2010Prop51ColorIndex
 90
      256
102
RTVSPost2010Prop51ColorRGB
 90
-16777216
102
RTVSPost2010PropOp51
 70
     0
102
RTVSPost2010Prop52
140
1.0
102
RTVSPost2010PropOp52
 70
     0
102
RTVSPost2010Prop53
 90
        2
102
RTVSPost2010PropOp53
 70
     1
102
RTVSPost2010Prop54
  1
strokes_ogs.tif
102
RTVSPost2010PropOp54
 70
     1
102
RTVSPost2010Prop55
280
     0
102
RTVSPost2010PropOp55
 70
     1
102
RTVSPost2010Prop56
140
1.0
102
RTVSPost2010PropOp56
 70
     1
102
RTVSPost2010Prop57
140
1.0
102
RTVSPost2010PropOp57
 70
     1
102
RTVSPropertyOp0
 70
     1
102
RTVSPropertyOp1
 70
     1
102
RTVSPropertyOp2
 70
     1
102
RTVSPropertyOp3
 70
     1
102
RTVSPropertyOp4
 70
     1
102
RTVSPropertyOp5
 70
     1
102
RTVSPropertyOp6
 70
     1
102
RTVSPropertyOp7
 70
     1
102
RTVSPropertyOp8
 70
     1
102
RTVSPropertyOp9
 70
     1
102
RTVSPropertyOp10
 70
     1
102
RTVSPropertyOp11
 70
     1
102
RTVSPropertyOp12
 70
     1
102
RTVSPropertyOp13
 70
     1
102
RTVSPropertyOp14
 70
     1
102
RTVSPropertyOp15
 70
     1
102
RTVSPropertyOp16
 70
     1
102
RTVSPropertyOp17
 70
     1
102
RTVSPropertyOp18
 70
     1
102
RTVSPropertyOp19
 70
     1
102
RTVSPropertyOp20
 70
     1
102
RTVSPropertyOp21
 70
     1
102
RTVSPropertyOp22
 70
     1
102
RTVSPropertyOp23
 70
     1
102
RTVSPropertyOp24
 70
     1
102
RTVSPropertyOp25
 70
     1
102
RTVSPropertyOp26
 70
     1
102
RTVSPropertyOp27
 70
     1
102
RTVSPropertyOp28
 70
     1
102
RTVSPropertyOp29
 70
     1
102
RTVSPropertyOp30
 70
     1
102
RTVSPropertyOp31
 70
     1
102
RTVSPropertyOp32
 70
     1
102
RTVSPropertyOp33
 70
     1
102
RTVSPropertyOp34
 70
     1
102
RTVSPropertyOp35
 70
     1
102
RTVSPropertyOp36
 70
     1
102
RTVSPropertyOp37
 70
     1
102
RTVSPropertyOp38
 70
     1
102
RTVSPropertyOp39
 70
     1
102
RTVSPropertyOp40
 70
     1
102
RTVSPropertyOp41
 70
     1
102
RTVSPropertyOp42
 70
     1
102
RTVSPropertyOp43
 70
     1
102
RTVSPropertyOp44
 70
     1
102
RTVSPropertyOp45
 70
     1
102
RTVSPropertyOp46
 70
     1
102
RTVSPropertyOp47
 70
     1
102
RTVSPropertyOp48
 70
     1
102
RTVSPropertyOp49
 70
     1
102
RTVSPropertyOp50
 70
     1
102
RTVSPropertyOp51
 70
     0
102
RTVSPropertyOp52
 70
     0
102
RTVSPropertyOp53
 70
     1
102
RTVSPropertyOp54
 70
     1
102
RTVSPropertyOp55
 70
     1
102
RTVSPropertyOp56
 70
     1
102
RTVSPropertyOp57
 70
     1
102
RTVSPropertyOp58
 70
     1
102
RTVSPropertyOp59
 70
     1
102
RTVSPropertyOp60
 70
     1
102
RTVSPropertyOp61
 70
     1
102
RTVSPropertyOp62
 70
     1
  0
XRECORD
  5
CD53
102
{ACAD_REACTORS
330
CD52
102
}
330
CD52
100
AcDbXrecord
280
     1
102
RTVSPost2010Prop28
280
     0
102
RTVSPost2010PropOp28
 70
     1
102
RTVSPost2010Prop29
280
     1
102
RTVSPost2010PropOp29
 70
     1
102
RTVSPost2010Prop30
280
     1
102
RTVSPost2010PropOp30
 70
     1
102
RTVSPost2010Prop31
280
     0
102
RTVSPost2010PropOp31
 70
     1
102
RTVSPost2010Prop32
280
     0
102
RTVSPost2010PropOp32
 70
     1
102
RTVSPost2010Prop33
280
     0
102
RTVSPost2010PropOp33
 70
     1
102
RTVSPost2010Prop34
280
     0
102
RTVSPost2010PropOp34
 70
     1
102
RTVSPost2010Prop35
280
     0
102
RTVSPost2010PropOp35
 70
     1
102
RTVSPost2010Prop36
280
     0
102
RTVSPost2010PropOp36
 70
     1
102
RTVSPost2010Prop37
 90
       50
102
RTVSPost2010PropOp37
 70
     1
102
RTVSPost2010Prop38
140
0.0
102
RTVSPost2010PropOp38
 70
     1
102
RTVSPost2010Prop39
140
1.0
102
RTVSPost2010PropOp39
 70
     1
102
RTVSPost2010Prop40
 90
        0
102
RTVSPost2010PropOp40
 70
     1
102
RTVSPost2010Prop41ColorIndex
 90
       18
102
RTVSPost2010Prop41ColorRGB
 90
        0
102
RTVSPost2010PropOp41
 70
     1
102
RTVSPost2010Prop42
 90
       50
102
RTVSPost2010PropOp42
 70
     1
102
RTVSPost2010Prop43
 90
        3
102
RTVSPost2010PropOp43
 70
     1
102
RTVSPost2010Prop44ColorIndex
 90
        5
102
RTVSPost2010Prop44ColorRGB
 90
      255
102
RTVSPost2010PropOp44
 70
     1
102
RTVSPost2010Prop45
280
     0
102
RTVSPost2010PropOp45
 70
     1
102
RTVSPost2010Prop46
 90
       50
102
RTVSPost2010PropOp46
 70
     1
102
RTVSPost2010Prop47
 90
       50
102
RTVSPost2010PropOp47
 70
     1
102
RTVSPost2010Prop48
 90
       50
102
RTVSPost2010PropOp48
 70
     1
102
RTVSPost2010Prop49
280
     0
102
RTVSPost2010PropOp49
 70
     1
102
RTVSPost2010Prop50
 90
       50
102
RTVSPost2010PropOp50
 70
     1
102
RTVSPost2010Prop51ColorIndex
 90
      256
102
RTVSPost2010Prop51ColorRGB
 90
-16777216
102
RTVSPost2010PropOp51
 70
     0
102
RTVSPost2010Prop52
140
1.0
102
RTVSPost2010PropOp52
 70
     0
102
RTVSPost2010Prop53
 90
        2
102
RTVSPost2010PropOp53
 70
     1
102
RTVSPost2010Prop54
  1
strokes_ogs.tif
102
RTVSPost2010PropOp54
 70
     1
102
RTVSPost2010Prop55
280
     0
102
RTVSPost2010PropOp55
 70
     1
102
RTVSPost2010Prop56
140
1.0
102
RTVSPost2010PropOp56
 70
     1
102
RTVSPost2010Prop57
140
1.0
102
RTVSPost2010PropOp57
 70
     1
102
RTVSPropertyOp0
 70
     1
102
RTVSPropertyOp1
 70
     1
102
RTVSPropertyOp2
 70
     1
102
RTVSPropertyOp3
 70
     1
102
RTVSPropertyOp4
 70
     1
102
RTVSPropertyOp5
 70
     1
102
RTVSPropertyOp6
 70
     1
102
RTVSPropertyOp7
 70
     1
102
RTVSPropertyOp8
 70
     1
102
RTVSPropertyOp9
 70
     1
102
RTVSPropertyOp10
 70
     1
102
RTVSPropertyOp11
 70
     1
102
RTVSPropertyOp12
 70
     1
102
RTVSPropertyOp13
 70
     1
102
RTVSPropertyOp14
 70
     1
102
RTVSPropertyOp15
 70
     1
102
RTVSPropertyOp16
 70
     1
102
RTVSPropertyOp17
 70
     1
102
RTVSPropertyOp18
 70
     1
102
RTVSPropertyOp19
 70
     1
102
RTVSPropertyOp20
 70
     1
102
RTVSPropertyOp21
 70
     1
102
RTVSPropertyOp22
 70
     1
102
RTVSPropertyOp23
 70
     1
102
RTVSPropertyOp24
 70
     1
102
RTVSPropertyOp25
 70
     1
102
RTVSPropertyOp26
 70
     1
102
RTVSPropertyOp27
 70
     1
102
RTVSPropertyOp28
 70
     1
102
RTVSPropertyOp29
 70
     1
102
RTVSPropertyOp30
 70
     1
102
RTVSPropertyOp31
 70
     1
102
RTVSPropertyOp32
 70
     1
102
RTVSPropertyOp33
 70
     1
102
RTVSPropertyOp34
 70
     1
102
RTVSPropertyOp35
 70
     1
102
RTVSPropertyOp36
 70
     1
102
RTVSPropertyOp37
 70
     1
102
RTVSPropertyOp38
 70
     1
102
RTVSPropertyOp39
 70
     1
102
RTVSPropertyOp40
 70
     1
102
RTVSPropertyOp41
 70
     1
102
RTVSPropertyOp42
 70
     1
102
RTVSPropertyOp43
 70
     1
102
RTVSPropertyOp44
 70
     1
102
RTVSPropertyOp45
 70
     1
102
RTVSPropertyOp46
 70
     1
102
RTVSPropertyOp47
 70
     1
102
RTVSPropertyOp48
 70
     1
102
RTVSPropertyOp49
 70
     1
102
RTVSPropertyOp50
 70
     1
102
RTVSPropertyOp51
 70
     0
102
RTVSPropertyOp52
 70
     0
102
RTVSPropertyOp53
 70
     1
102
RTVSPropertyOp54
 70
     1
102
RTVSPropertyOp55
 70
     1
102
RTVSPropertyOp56
 70
     1
102
RTVSPropertyOp57
 70
     1
102
RTVSPropertyOp58
 70
     1
102
RTVSPropertyOp59
 70
     1
102
RTVSPropertyOp60
 70
     1
102
RTVSPropertyOp61
 70
     1
102
RTVSPropertyOp62
 70
     1
  0
XRECORD
  5
CD55
102
{ACAD_REACTORS
330
CD54
102
}
330
CD54
100
AcDbXrecord
280
     1
102
RTVSPost2010Prop28
280
     0
102
RTVSPost2010PropOp28
 70
     1
102
RTVSPost2010Prop29
280
     1
102
RTVSPost2010PropOp29
 70
     1
102
RTVSPost2010Prop30
280
     1
102
RTVSPost2010PropOp30
 70
     1
102
RTVSPost2010Prop31
280
     0
102
RTVSPost2010PropOp31
 70
     1
102
RTVSPost2010Prop32
280
     0
102
RTVSPost2010PropOp32
 70
     1
102
RTVSPost2010Prop33
280
     0
102
RTVSPost2010PropOp33
 70
     1
102
RTVSPost2010Prop34
280
     0
102
RTVSPost2010PropOp34
 70
     1
102
RTVSPost2010Prop35
280
     0
102
RTVSPost2010PropOp35
 70
     1
102
RTVSPost2010Prop36
280
     0
102
RTVSPost2010PropOp36
 70
     1
102
RTVSPost2010Prop37
 90
       50
102
RTVSPost2010PropOp37
 70
     1
102
RTVSPost2010Prop38
140
0.0
102
RTVSPost2010PropOp38
 70
     1
102
RTVSPost2010Prop39
140
1.0
102
RTVSPost2010PropOp39
 70
     1
102
RTVSPost2010Prop40
 90
        0
102
RTVSPost2010PropOp40
 70
     1
102
RTVSPost2010Prop41ColorIndex
 90
       18
102
RTVSPost2010Prop41ColorRGB
 90
        0
102
RTVSPost2010PropOp41
 70
     1
102
RTVSPost2010Prop42
 90
       50
102
RTVSPost2010PropOp42
 70
     1
102
RTVSPost2010Prop43
 90
        3
102
RTVSPost2010PropOp43
 70
     1
102
RTVSPost2010Prop44ColorIndex
 90
        5
102
RTVSPost2010Prop44ColorRGB
 90
      255
102
RTVSPost2010PropOp44
 70
     1
102
RTVSPost2010Prop45
280
     0
102
RTVSPost2010PropOp45
 70
     1
102
RTVSPost2010Prop46
 90
       50
102
RTVSPost2010PropOp46
 70
     1
102
RTVSPost2010Prop47
 90
       50
102
RTVSPost2010PropOp47
 70
     1
102
RTVSPost2010Prop48
 90
       50
102
RTVSPost2010PropOp48
 70
     1
102
RTVSPost2010Prop49
280
     0
102
RTVSPost2010PropOp49
 70
     1
102
RTVSPost2010Prop50
 90
       50
102
RTVSPost2010PropOp50
 70
     1
102
RTVSPost2010Prop51ColorIndex
 90
      256
102
RTVSPost2010Prop51ColorRGB
 90
-16777216
102
RTVSPost2010PropOp51
 70
     0
102
RTVSPost2010Prop52
140
1.0
102
RTVSPost2010PropOp52
 70
     0
102
RTVSPost2010Prop53
 90
        2
102
RTVSPost2010PropOp53
 70
     1
102
RTVSPost2010Prop54
  1
strokes_ogs.tif
102
RTVSPost2010PropOp54
 70
     1
102
RTVSPost2010Prop55
280
     0
102
RTVSPost2010PropOp55
 70
     1
102
RTVSPost2010Prop56
140
1.0
102
RTVSPost2010PropOp56
 70
     1
102
RTVSPost2010Prop57
140
1.0
102
RTVSPost2010PropOp57
 70
     1
102
RTVSPropertyOp0
 70
     1
102
RTVSPropertyOp1
 70
     1
102
RTVSPropertyOp2
 70
     1
102
RTVSPropertyOp3
 70
     1
102
RTVSPropertyOp4
 70
     1
102
RTVSPropertyOp5
 70
     1
102
RTVSPropertyOp6
 70
     1
102
RTVSPropertyOp7
 70
     1
102
RTVSPropertyOp8
 70
     1
102
RTVSPropertyOp9
 70
     1
102
RTVSPropertyOp10
 70
     1
102
RTVSPropertyOp11
 70
     1
102
RTVSPropertyOp12
 70
     1
102
RTVSPropertyOp13
 70
     1
102
RTVSPropertyOp14
 70
     1
102
RTVSPropertyOp15
 70
     1
102
RTVSPropertyOp16
 70
     1
102
RTVSPropertyOp17
 70
     1
102
RTVSPropertyOp18
 70
     1
102
RTVSPropertyOp19
 70
     1
102
RTVSPropertyOp20
 70
     1
102
RTVSPropertyOp21
 70
     1
102
RTVSPropertyOp22
 70
     1
102
RTVSPropertyOp23
 70
     1
102
RTVSPropertyOp24
 70
     1
102
RTVSPropertyOp25
 70
     1
102
RTVSPropertyOp26
 70
     1
102
RTVSPropertyOp27
 70
     1
102
RTVSPropertyOp28
 70
     1
102
RTVSPropertyOp29
 70
     1
102
RTVSPropertyOp30
 70
     1
102
RTVSPropertyOp31
 70
     1
102
RTVSPropertyOp32
 70
     1
102
RTVSPropertyOp33
 70
     1
102
RTVSPropertyOp34
 70
     1
102
RTVSPropertyOp35
 70
     1
102
RTVSPropertyOp36
 70
     1
102
RTVSPropertyOp37
 70
     1
102
RTVSPropertyOp38
 70
     1
102
RTVSPropertyOp39
 70
     1
102
RTVSPropertyOp40
 70
     1
102
RTVSPropertyOp41
 70
     1
102
RTVSPropertyOp42
 70
     1
102
RTVSPropertyOp43
 70
     1
102
RTVSPropertyOp44
 70
     1
102
RTVSPropertyOp45
 70
     1
102
RTVSPropertyOp46
 70
     1
102
RTVSPropertyOp47
 70
     1
102
RTVSPropertyOp48
 70
     1
102
RTVSPropertyOp49
 70
     1
102
RTVSPropertyOp50
 70
     1
102
RTVSPropertyOp51
 70
     0
102
RTVSPropertyOp52
 70
     0
102
RTVSPropertyOp53
 70
     1
102
RTVSPropertyOp54
 70
     1
102
RTVSPropertyOp55
 70
     1
102
RTVSPropertyOp56
 70
     1
102
RTVSPropertyOp57
 70
     1
102
RTVSPropertyOp58
 70
     1
102
RTVSPropertyOp59
 70
     1
102
RTVSPropertyOp60
 70
     1
102
RTVSPropertyOp61
 70
     1
102
RTVSPropertyOp62
 70
     1
  0
XRECORD
  5
CD5D
102
{ACAD_REACTORS
330
CD5C
102
}
330
CD5C
100
AcDbXrecord
280
     1
102
RTVSPost2010Prop28
280
     0
102
RTVSPost2010PropOp28
 70
     1
102
RTVSPost2010Prop29
280
     1
102
RTVSPost2010PropOp29
 70
     1
102
RTVSPost2010Prop30
280
     1
102
RTVSPost2010PropOp30
 70
     1
102
RTVSPost2010Prop31
280
     0
102
RTVSPost2010PropOp31
 70
     1
102
RTVSPost2010Prop32
280
     0
102
RTVSPost2010PropOp32
 70
     1
102
RTVSPost2010Prop33
280
     0
102
RTVSPost2010PropOp33
 70
     1
102
RTVSPost2010Prop34
280
     0
102
RTVSPost2010PropOp34
 70
     1
102
RTVSPost2010Prop35
280
     0
102
RTVSPost2010PropOp35
 70
     1
102
RTVSPost2010Prop36
280
     0
102
RTVSPost2010PropOp36
 70
     1
102
RTVSPost2010Prop37
 90
       50
102
RTVSPost2010PropOp37
 70
     1
102
RTVSPost2010Prop38
140
0.0
102
RTVSPost2010PropOp38
 70
     1
102
RTVSPost2010Prop39
140
1.0
102
RTVSPost2010PropOp39
 70
     1
102
RTVSPost2010Prop40
 90
        0
102
RTVSPost2010PropOp40
 70
     1
102
RTVSPost2010Prop41ColorIndex
 90
       18
102
RTVSPost2010Prop41ColorRGB
 90
        0
102
RTVSPost2010PropOp41
 70
     1
102
RTVSPost2010Prop42
 90
       50
102
RTVSPost2010PropOp42
 70
     1
102
RTVSPost2010Prop43
 90
        3
102
RTVSPost2010PropOp43
 70
     1
102
RTVSPost2010Prop44ColorIndex
 90
        5
102
RTVSPost2010Prop44ColorRGB
 90
      255
102
RTVSPost2010PropOp44
 70
     1
102
RTVSPost2010Prop45
280
     0
102
RTVSPost2010PropOp45
 70
     1
102
RTVSPost2010Prop46
 90
       50
102
RTVSPost2010PropOp46
 70
     1
102
RTVSPost2010Prop47
 90
       50
102
RTVSPost2010PropOp47
 70
     1
102
RTVSPost2010Prop48
 90
       50
102
RTVSPost2010PropOp48
 70
     1
102
RTVSPost2010Prop49
280
     0
102
RTVSPost2010PropOp49
 70
     1
102
RTVSPost2010Prop50
 90
       50
102
RTVSPost2010PropOp50
 70
     1
102
RTVSPost2010Prop51ColorIndex
 90
      256
102
RTVSPost2010Prop51ColorRGB
 90
-16777216
102
RTVSPost2010PropOp51
 70
     0
102
RTVSPost2010Prop52
140
1.0
102
RTVSPost2010PropOp52
 70
     0
102
RTVSPost2010Prop53
 90
        2
102
RTVSPost2010PropOp53
 70
     1
102
RTVSPost2010Prop54
  1
strokes_ogs.tif
102
RTVSPost2010PropOp54
 70
     1
102
RTVSPost2010Prop55
280
     0
102
RTVSPost2010PropOp55
 70
     1
102
RTVSPost2010Prop56
140
1.0
102
RTVSPost2010PropOp56
 70
     1
102
RTVSPost2010Prop57
140
1.0
102
RTVSPost2010PropOp57
 70
     1
102
RTVSPropertyOp0
 70
     1
102
RTVSPropertyOp1
 70
     1
102
RTVSPropertyOp2
 70
     1
102
RTVSPropertyOp3
 70
     1
102
RTVSPropertyOp4
 70
     1
102
RTVSPropertyOp5
 70
     1
102
RTVSPropertyOp6
 70
     1
102
RTVSPropertyOp7
 70
     1
102
RTVSPropertyOp8
 70
     1
102
RTVSPropertyOp9
 70
     1
102
RTVSPropertyOp10
 70
     1
102
RTVSPropertyOp11
 70
     1
102
RTVSPropertyOp12
 70
     1
102
RTVSPropertyOp13
 70
     1
102
RTVSPropertyOp14
 70
     1
102
RTVSPropertyOp15
 70
     1
102
RTVSPropertyOp16
 70
     1
102
RTVSPropertyOp17
 70
     1
102
RTVSPropertyOp18
 70
     1
102
RTVSPropertyOp19
 70
     1
102
RTVSPropertyOp20
 70
     1
102
RTVSPropertyOp21
 70
     1
102
RTVSPropertyOp22
 70
     1
102
RTVSPropertyOp23
 70
     1
102
RTVSPropertyOp24
 70
     1
102
RTVSPropertyOp25
 70
     1
102
RTVSPropertyOp26
 70
     1
102
RTVSPropertyOp27
 70
     1
102
RTVSPropertyOp28
 70
     1
102
RTVSPropertyOp29
 70
     1
102
RTVSPropertyOp30
 70
     1
102
RTVSPropertyOp31
 70
     1
102
RTVSPropertyOp32
 70
     1
102
RTVSPropertyOp33
 70
     1
102
RTVSPropertyOp34
 70
     1
102
RTVSPropertyOp35
 70
     1
102
RTVSPropertyOp36
 70
     1
102
RTVSPropertyOp37
 70
     1
102
RTVSPropertyOp38
 70
     1
102
RTVSPropertyOp39
 70
     1
102
RTVSPropertyOp40
 70
     1
102
RTVSPropertyOp41
 70
     1
102
RTVSPropertyOp42
 70
     1
102
RTVSPropertyOp43
 70
     1
102
RTVSPropertyOp44
 70
     1
102
RTVSPropertyOp45
 70
     1
102
RTVSPropertyOp46
 70
     1
102
RTVSPropertyOp47
 70
     1
102
RTVSPropertyOp48
 70
     1
102
RTVSPropertyOp49
 70
     1
102
RTVSPropertyOp50
 70
     1
102
RTVSPropertyOp51
 70
     0
102
RTVSPropertyOp52
 70
     0
102
RTVSPropertyOp53
 70
     1
102
RTVSPropertyOp54
 70
     1
102
RTVSPropertyOp55
 70
     1
102
RTVSPropertyOp56
 70
     1
102
RTVSPropertyOp57
 70
     1
102
RTVSPropertyOp58
 70
     1
102
RTVSPropertyOp59
 70
     1
102
RTVSPropertyOp60
 70
     1
102
RTVSPropertyOp61
 70
     1
102
RTVSPropertyOp62
 70
     1
  0
XRECORD
  5
CD79
102
{ACAD_REACTORS
330
CD78
102
}
330
CD78
100
AcDbXrecord
280
     1
102
RTVSPost2010Prop28
280
     0
102
RTVSPost2010PropOp28
 70
     1
102
RTVSPost2010Prop29
280
     1
102
RTVSPost2010PropOp29
 70
     1
102
RTVSPost2010Prop30
280
     1
102
RTVSPost2010PropOp30
 70
     1
102
RTVSPost2010Prop31
280
     0
102
RTVSPost2010PropOp31
 70
     1
102
RTVSPost2010Prop32
280
     0
102
RTVSPost2010PropOp32
 70
     1
102
RTVSPost2010Prop33
280
     0
102
RTVSPost2010PropOp33
 70
     1
102
RTVSPost2010Prop34
280
     0
102
RTVSPost2010PropOp34
 70
     1
102
RTVSPost2010Prop35
280
     0
102
RTVSPost2010PropOp35
 70
     1
102
RTVSPost2010Prop36
280
     0
102
RTVSPost2010PropOp36
 70
     1
102
RTVSPost2010Prop37
 90
       50
102
RTVSPost2010PropOp37
 70
     0
102
RTVSPost2010Prop38
140
0.0
102
RTVSPost2010PropOp38
 70
     0
102
RTVSPost2010Prop39
140
1.0
102
RTVSPost2010PropOp39
 70
     0
102
RTVSPost2010Prop40
 90
        0
102
RTVSPost2010PropOp40
 70
     0
102
RTVSPost2010Prop41ColorIndex
 90
       18
102
RTVSPost2010Prop41ColorRGB
 90
        0
102
RTVSPost2010PropOp41
 70
     0
102
RTVSPost2010Prop42
 90
       50
102
RTVSPost2010PropOp42
 70
     0
102
RTVSPost2010Prop43
 90
        3
102
RTVSPost2010PropOp43
 70
     0
102
RTVSPost2010Prop44ColorIndex
 90
        5
102
RTVSPost2010Prop44ColorRGB
 90
      255
102
RTVSPost2010PropOp44
 70
     0
102
RTVSPost2010Prop45
280
     0
102
RTVSPost2010PropOp45
 70
     1
102
RTVSPost2010Prop46
 90
       50
102
RTVSPost2010PropOp46
 70
     0
102
RTVSPost2010Prop47
 90
       50
102
RTVSPost2010PropOp47
 70
     0
102
RTVSPost2010Prop48
 90
       50
102
RTVSPost2010PropOp48
 70
     0
102
RTVSPost2010Prop49
280
     0
102
RTVSPost2010PropOp49
 70
     1
102
RTVSPost2010Prop50
 90
       50
102
RTVSPost2010PropOp50
 70
     0
102
RTVSPost2010Prop51ColorIndex
 90
      256
102
RTVSPost2010Prop51ColorRGB
 90
-16777216
102
RTVSPost2010PropOp51
 70
     0
102
RTVSPost2010Prop52
140
1.0
102
RTVSPost2010PropOp52
 70
     0
102
RTVSPost2010Prop53
 90
        2
102
RTVSPost2010PropOp53
 70
     0
102
RTVSPost2010Prop54
  1
strokes_ogs.tif
102
RTVSPost2010PropOp54
 70
     0
102
RTVSPost2010Prop55
280
     0
102
RTVSPost2010PropOp55
 70
     1
102
RTVSPost2010Prop56
140
1.0
102
RTVSPost2010PropOp56
 70
     0
102
RTVSPost2010Prop57
140
1.0
102
RTVSPost2010PropOp57
 70
     0
102
RTVSPropertyOp0
 70
     0
102
RTVSPropertyOp1
 70
     0
102
RTVSPropertyOp2
 70
     0
102
RTVSPropertyOp3
 70
     0
102
RTVSPropertyOp4
 70
     0
102
RTVSPropertyOp5
 70
     0
102
RTVSPropertyOp6
 70
     0
102
RTVSPropertyOp7
 70
     0
102
RTVSPropertyOp8
 70
     0
102
RTVSPropertyOp9
 70
     0
102
RTVSPropertyOp10
 70
     0
102
RTVSPropertyOp11
 70
     0
102
RTVSPropertyOp12
 70
     0
102
RTVSPropertyOp13
 70
     0
102
RTVSPropertyOp14
 70
     2
102
RTVSPropertyOp15
 70
     0
102
RTVSPropertyOp16
 70
     0
102
RTVSPropertyOp17
 70
     0
102
RTVSPropertyOp18
 70
     0
102
RTVSPropertyOp19
 70
     0
102
RTVSPropertyOp20
 70
     0
102
RTVSPropertyOp21
 70
     0
102
RTVSPropertyOp22
 70
     0
102
RTVSPropertyOp23
 70
     0
102
RTVSPropertyOp24
 70
     0
102
RTVSPropertyOp25
 70
     0
102
RTVSPropertyOp26
 70
     0
102
RTVSPropertyOp27
 70
     0
102
RTVSPropertyOp28
 70
     1
102
RTVSPropertyOp29
 70
     1
102
RTVSPropertyOp30
 70
     1
102
RTVSPropertyOp31
 70
     1
102
RTVSPropertyOp32
 70
     1
102
RTVSPropertyOp33
 70
     1
102
RTVSPropertyOp34
 70
     1
102
RTVSPropertyOp35
 70
     1
102
RTVSPropertyOp36
 70
     1
102
RTVSPropertyOp37
 70
     0
102
RTVSPropertyOp38
 70
     0
102
RTVSPropertyOp39
 70
     0
102
RTVSPropertyOp40
 70
     0
102
RTVSPropertyOp41
 70
     0
102
RTVSPropertyOp42
 70
     0
102
RTVSPropertyOp43
 70
     0
102
RTVSPropertyOp44
 70
     0
102
RTVSPropertyOp45
 70
     1
102
RTVSPropertyOp46
 70
     0
102
RTVSPropertyOp47
 70
     0
102
RTVSPropertyOp48
 70
     0
102
RTVSPropertyOp49
 70
     1
102
RTVSPropertyOp50
 70
     0
102
RTVSPropertyOp51
 70
     0
102
RTVSPropertyOp52
 70
     0
102
RTVSPropertyOp53
 70
     0
102
RTVSPropertyOp54
 70
     0
102
RTVSPropertyOp55
 70
     1
102
RTVSPropertyOp56
 70
     0
102
RTVSPropertyOp57
 70
     0
102
RTVSPropertyOp58
 70
     0
102
RTVSPropertyOp59
 70
     0
102
RTVSPropertyOp60
 70
     0
102
RTVSPropertyOp61
 70
     0
102
RTVSPropertyOp62
 70
     0
  0
XRECORD
  5
CD69
102
{ACAD_REACTORS
330
CD68
102
}
330
CD68
100
AcDbXrecord
280
     1
102
RTVSPost2010Prop28
280
     0
102
RTVSPost2010PropOp28
 70
     1
102
RTVSPost2010Prop29
280
     1
102
RTVSPost2010PropOp29
 70
     1
102
RTVSPost2010Prop30
280
     1
102
RTVSPost2010PropOp30
 70
     1
102
RTVSPost2010Prop31
280
     0
102
RTVSPost2010PropOp31
 70
     1
102
RTVSPost2010Prop32
280
     0
102
RTVSPost2010PropOp32
 70
     1
102
RTVSPost2010Prop33
280
     0
102
RTVSPost2010PropOp33
 70
     1
102
RTVSPost2010Prop34
280
     0
102
RTVSPost2010PropOp34
 70
     1
102
RTVSPost2010Prop35
280
     0
102
RTVSPost2010PropOp35
 70
     1
102
RTVSPost2010Prop36
280
     0
102
RTVSPost2010PropOp36
 70
     1
102
RTVSPost2010Prop37
 90
       50
102
RTVSPost2010PropOp37
 70
     1
102
RTVSPost2010Prop38
140
0.0
102
RTVSPost2010PropOp38
 70
     1
102
RTVSPost2010Prop39
140
1.0
102
RTVSPost2010PropOp39
 70
     1
102
RTVSPost2010Prop40
 90
        0
102
RTVSPost2010PropOp40
 70
     1
102
RTVSPost2010Prop41ColorIndex
 90
       18
102
RTVSPost2010Prop41ColorRGB
 90
        0
102
RTVSPost2010PropOp41
 70
     1
102
RTVSPost2010Prop42
 90
       50
102
RTVSPost2010PropOp42
 70
     1
102
RTVSPost2010Prop43
 90
        3
102
RTVSPost2010PropOp43
 70
     1
102
RTVSPost2010Prop44ColorIndex
 90
        5
102
RTVSPost2010Prop44ColorRGB
 90
      255
102
RTVSPost2010PropOp44
 70
     1
102
RTVSPost2010Prop45
280
     0
102
RTVSPost2010PropOp45
 70
     1
102
RTVSPost2010Prop46
 90
       50
102
RTVSPost2010PropOp46
 70
     1
102
RTVSPost2010Prop47
 90
       50
102
RTVSPost2010PropOp47
 70
     1
102
RTVSPost2010Prop48
 90
       50
102
RTVSPost2010PropOp48
 70
     1
102
RTVSPost2010Prop49
280
     0
102
RTVSPost2010PropOp49
 70
     1
102
RTVSPost2010Prop50
 90
       50
102
RTVSPost2010PropOp50
 70
     1
102
RTVSPost2010Prop51ColorIndex
 90
      256
102
RTVSPost2010Prop51ColorRGB
 90
-16777216
102
RTVSPost2010PropOp51
 70
     0
102
RTVSPost2010Prop52
140
1.0
102
RTVSPost2010PropOp52
 70
     0
102
RTVSPost2010Prop53
 90
        2
102
RTVSPost2010PropOp53
 70
     1
102
RTVSPost2010Prop54
  1
strokes_ogs.tif
102
RTVSPost2010PropOp54
 70
     1
102
RTVSPost2010Prop55
280
     0
102
RTVSPost2010PropOp55
 70
     1
102
RTVSPost2010Prop56
140
1.0
102
RTVSPost2010PropOp56
 70
     1
102
RTVSPost2010Prop57
140
1.0
102
RTVSPost2010PropOp57
 70
     1
102
RTVSPropertyOp0
 70
     1
102
RTVSPropertyOp1
 70
     1
102
RTVSPropertyOp2
 70
     1
102
RTVSPropertyOp3
 70
     1
102
RTVSPropertyOp4
 70
     1
102
RTVSPropertyOp5
 70
     1
102
RTVSPropertyOp6
 70
     1
102
RTVSPropertyOp7
 70
     1
102
RTVSPropertyOp8
 70
     1
102
RTVSPropertyOp9
 70
     1
102
RTVSPropertyOp10
 70
     1
102
RTVSPropertyOp11
 70
     1
102
RTVSPropertyOp12
 70
     1
102
RTVSPropertyOp13
 70
     1
102
RTVSPropertyOp14
 70
     1
102
RTVSPropertyOp15
 70
     1
102
RTVSPropertyOp16
 70
     1
102
RTVSPropertyOp17
 70
     1
102
RTVSPropertyOp18
 70
     1
102
RTVSPropertyOp19
 70
     1
102
RTVSPropertyOp20
 70
     1
102
RTVSPropertyOp21
 70
     1
102
RTVSPropertyOp22
 70
     1
102
RTVSPropertyOp23
 70
     1
102
RTVSPropertyOp24
 70
     1
102
RTVSPropertyOp25
 70
     1
102
RTVSPropertyOp26
 70
     1
102
RTVSPropertyOp27
 70
     1
102
RTVSPropertyOp28
 70
     1
102
RTVSPropertyOp29
 70
     1
102
RTVSPropertyOp30
 70
     1
102
RTVSPropertyOp31
 70
     1
102
RTVSPropertyOp32
 70
     1
102
RTVSPropertyOp33
 70
     1
102
RTVSPropertyOp34
 70
     1
102
RTVSPropertyOp35
 70
     1
102
RTVSPropertyOp36
 70
     1
102
RTVSPropertyOp37
 70
     1
102
RTVSPropertyOp38
 70
     1
102
RTVSPropertyOp39
 70
     1
102
RTVSPropertyOp40
 70
     1
102
RTVSPropertyOp41
 70
     1
102
RTVSPropertyOp42
 70
     1
102
RTVSPropertyOp43
 70
     1
102
RTVSPropertyOp44
 70
     1
102
RTVSPropertyOp45
 70
     1
102
RTVSPropertyOp46
 70
     1
102
RTVSPropertyOp47
 70
     1
102
RTVSPropertyOp48
 70
     1
102
RTVSPropertyOp49
 70
     1
102
RTVSPropertyOp50
 70
     1
102
RTVSPropertyOp51
 70
     0
102
RTVSPropertyOp52
 70
     0
102
RTVSPropertyOp53
 70
     1
102
RTVSPropertyOp54
 70
     1
102
RTVSPropertyOp55
 70
     1
102
RTVSPropertyOp56
 70
     1
102
RTVSPropertyOp57
 70
     1
102
RTVSPropertyOp58
 70
     1
102
RTVSPropertyOp59
 70
     1
102
RTVSPropertyOp60
 70
     1
102
RTVSPropertyOp61
 70
     1
102
RTVSPropertyOp62
 70
     1
  0
XRECORD
  5
CD7B
102
{ACAD_REACTORS
330
CD7A
102
}
330
CD7A
100
AcDbXrecord
280
     1
102
RTVSPost2010Prop28
280
     0
102
RTVSPost2010PropOp28
 70
     1
102
RTVSPost2010Prop29
280
     1
102
RTVSPost2010PropOp29
 70
     1
102
RTVSPost2010Prop30
280
     1
102
RTVSPost2010PropOp30
 70
     1
102
RTVSPost2010Prop31
280
     0
102
RTVSPost2010PropOp31
 70
     1
102
RTVSPost2010Prop32
280
     0
102
RTVSPost2010PropOp32
 70
     1
102
RTVSPost2010Prop33
280
     0
102
RTVSPost2010PropOp33
 70
     1
102
RTVSPost2010Prop34
280
     0
102
RTVSPost2010PropOp34
 70
     1
102
RTVSPost2010Prop35
280
     0
102
RTVSPost2010PropOp35
 70
     1
102
RTVSPost2010Prop36
280
     0
102
RTVSPost2010PropOp36
 70
     1
102
RTVSPost2010Prop37
 90
       50
102
RTVSPost2010PropOp37
 70
     0
102
RTVSPost2010Prop38
140
0.0
102
RTVSPost2010PropOp38
 70
     0
102
RTVSPost2010Prop39
140
1.0
102
RTVSPost2010PropOp39
 70
     0
102
RTVSPost2010Prop40
 90
        0
102
RTVSPost2010PropOp40
 70
     0
102
RTVSPost2010Prop41ColorIndex
 90
       18
102
RTVSPost2010Prop41ColorRGB
 90
        0
102
RTVSPost2010PropOp41
 70
     0
102
RTVSPost2010Prop42
 90
       50
102
RTVSPost2010PropOp42
 70
     0
102
RTVSPost2010Prop43
 90
        3
102
RTVSPost2010PropOp43
 70
     0
102
RTVSPost2010Prop44ColorIndex
 90
        5
102
RTVSPost2010Prop44ColorRGB
 90
      255
102
RTVSPost2010PropOp44
 70
     0
102
RTVSPost2010Prop45
280
     0
102
RTVSPost2010PropOp45
 70
     1
102
RTVSPost2010Prop46
 90
       50
102
RTVSPost2010PropOp46
 70
     0
102
RTVSPost2010Prop47
 90
       50
102
RTVSPost2010PropOp47
 70
     0
102
RTVSPost2010Prop48
 90
       50
102
RTVSPost2010PropOp48
 70
     0
102
RTVSPost2010Prop49
280
     0
102
RTVSPost2010PropOp49
 70
     1
102
RTVSPost2010Prop50
 90
       50
102
RTVSPost2010PropOp50
 70
     0
102
RTVSPost2010Prop51ColorIndex
 90
      256
102
RTVSPost2010Prop51ColorRGB
 90
-16777216
102
RTVSPost2010PropOp51
 70
     0
102
RTVSPost2010Prop52
140
1.0
102
RTVSPost2010PropOp52
 70
     0
102
RTVSPost2010Prop53
 90
        2
102
RTVSPost2010PropOp53
 70
     0
102
RTVSPost2010Prop54
  1
strokes_ogs.tif
102
RTVSPost2010PropOp54
 70
     0
102
RTVSPost2010Prop55
280
     0
102
RTVSPost2010PropOp55
 70
     1
102
RTVSPost2010Prop56
140
1.0
102
RTVSPost2010PropOp56
 70
     0
102
RTVSPost2010Prop57
140
1.0
102
RTVSPost2010PropOp57
 70
     0
102
RTVSPropertyOp0
 70
     0
102
RTVSPropertyOp1
 70
     0
102
RTVSPropertyOp2
 70
     0
102
RTVSPropertyOp3
 70
     0
102
RTVSPropertyOp4
 70
     0
102
RTVSPropertyOp5
 70
     0
102
RTVSPropertyOp6
 70
     0
102
RTVSPropertyOp7
 70
     0
102
RTVSPropertyOp8
 70
     0
102
RTVSPropertyOp9
 70
     0
102
RTVSPropertyOp10
 70
     0
102
RTVSPropertyOp11
 70
     0
102
RTVSPropertyOp12
 70
     0
102
RTVSPropertyOp13
 70
     0
102
RTVSPropertyOp14
 70
     2
102
RTVSPropertyOp15
 70
     0
102
RTVSPropertyOp16
 70
     0
102
RTVSPropertyOp17
 70
     0
102
RTVSPropertyOp18
 70
     0
102
RTVSPropertyOp19
 70
     0
102
RTVSPropertyOp20
 70
     0
102
RTVSPropertyOp21
 70
     0
102
RTVSPropertyOp22
 70
     0
102
RTVSPropertyOp23
 70
     0
102
RTVSPropertyOp24
 70
     0
102
RTVSPropertyOp25
 70
     0
102
RTVSPropertyOp26
 70
     0
102
RTVSPropertyOp27
 70
     0
102
RTVSPropertyOp28
 70
     1
102
RTVSPropertyOp29
 70
     1
102
RTVSPropertyOp30
 70
     1
102
RTVSPropertyOp31
 70
     1
102
RTVSPropertyOp32
 70
     1
102
RTVSPropertyOp33
 70
     1
102
RTVSPropertyOp34
 70
     1
102
RTVSPropertyOp35
 70
     1
102
RTVSPropertyOp36
 70
     1
102
RTVSPropertyOp37
 70
     0
102
RTVSPropertyOp38
 70
     0
102
RTVSPropertyOp39
 70
     0
102
RTVSPropertyOp40
 70
     0
102
RTVSPropertyOp41
 70
     0
102
RTVSPropertyOp42
 70
     0
102
RTVSPropertyOp43
 70
     0
102
RTVSPropertyOp44
 70
     0
102
RTVSPropertyOp45
 70
     1
102
RTVSPropertyOp46
 70
     0
102
RTVSPropertyOp47
 70
     0
102
RTVSPropertyOp48
 70
     0
102
RTVSPropertyOp49
 70
     1
102
RTVSPropertyOp50
 70
     0
102
RTVSPropertyOp51
 70
     0
102
RTVSPropertyOp52
 70
     0
102
RTVSPropertyOp53
 70
     0
102
RTVSPropertyOp54
 70
     0
102
RTVSPropertyOp55
 70
     1
102
RTVSPropertyOp56
 70
     0
102
RTVSPropertyOp57
 70
     0
102
RTVSPropertyOp58
 70
     0
102
RTVSPropertyOp59
 70
     0
102
RTVSPropertyOp60
 70
     0
102
RTVSPropertyOp61
 70
     0
102
RTVSPropertyOp62
 70
     0
  0
XRECORD
  5
CD61
102
{ACAD_REACTORS
330
CD60
102
}
330
CD60
100
AcDbXrecord
280
     1
102
RTVSPost2010Prop28
280
     0
102
RTVSPost2010PropOp28
 70
     1
102
RTVSPost2010Prop29
280
     1
102
RTVSPost2010PropOp29
 70
     1
102
RTVSPost2010Prop30
280
     1
102
RTVSPost2010PropOp30
 70
     1
102
RTVSPost2010Prop31
280
     0
102
RTVSPost2010PropOp31
 70
     1
102
RTVSPost2010Prop32
280
     0
102
RTVSPost2010PropOp32
 70
     1
102
RTVSPost2010Prop33
280
     0
102
RTVSPost2010PropOp33
 70
     1
102
RTVSPost2010Prop34
280
     0
102
RTVSPost2010PropOp34
 70
     1
102
RTVSPost2010Prop35
280
     0
102
RTVSPost2010PropOp35
 70
     1
102
RTVSPost2010Prop36
280
     0
102
RTVSPost2010PropOp36
 70
     1
102
RTVSPost2010Prop37
 90
       50
102
RTVSPost2010PropOp37
 70
     1
102
RTVSPost2010Prop38
140
0.0
102
RTVSPost2010PropOp38
 70
     1
102
RTVSPost2010Prop39
140
1.0
102
RTVSPost2010PropOp39
 70
     1
102
RTVSPost2010Prop40
 90
        0
102
RTVSPost2010PropOp40
 70
     1
102
RTVSPost2010Prop41ColorIndex
 90
       18
102
RTVSPost2010Prop41ColorRGB
 90
        0
102
RTVSPost2010PropOp41
 70
     1
102
RTVSPost2010Prop42
 90
       50
102
RTVSPost2010PropOp42
 70
     1
102
RTVSPost2010Prop43
 90
        3
102
RTVSPost2010PropOp43
 70
     1
102
RTVSPost2010Prop44ColorIndex
 90
        5
102
RTVSPost2010Prop44ColorRGB
 90
      255
102
RTVSPost2010PropOp44
 70
     1
102
RTVSPost2010Prop45
280
     0
102
RTVSPost2010PropOp45
 70
     1
102
RTVSPost2010Prop46
 90
       50
102
RTVSPost2010PropOp46
 70
     1
102
RTVSPost2010Prop47
 90
       50
102
RTVSPost2010PropOp47
 70
     1
102
RTVSPost2010Prop48
 90
       50
102
RTVSPost2010PropOp48
 70
     1
102
RTVSPost2010Prop49
280
     0
102
RTVSPost2010PropOp49
 70
     1
102
RTVSPost2010Prop50
 90
       50
102
RTVSPost2010PropOp50
 70
     1
102
RTVSPost2010Prop51ColorIndex
 90
      256
102
RTVSPost2010Prop51ColorRGB
 90
-16777216
102
RTVSPost2010PropOp51
 70
     0
102
RTVSPost2010Prop52
140
1.0
102
RTVSPost2010PropOp52
 70
     0
102
RTVSPost2010Prop53
 90
        2
102
RTVSPost2010PropOp53
 70
     1
102
RTVSPost2010Prop54
  1
strokes_ogs.tif
102
RTVSPost2010PropOp54
 70
     1
102
RTVSPost2010Prop55
280
     0
102
RTVSPost2010PropOp55
 70
     1
102
RTVSPost2010Prop56
140
1.0
102
RTVSPost2010PropOp56
 70
     1
102
RTVSPost2010Prop57
140
1.0
102
RTVSPost2010PropOp57
 70
     1
102
RTVSPropertyOp0
 70
     1
102
RTVSPropertyOp1
 70
     1
102
RTVSPropertyOp2
 70
     1
102
RTVSPropertyOp3
 70
     1
102
RTVSPropertyOp4
 70
     1
102
RTVSPropertyOp5
 70
     1
102
RTVSPropertyOp6
 70
     1
102
RTVSPropertyOp7
 70
     1
102
RTVSPropertyOp8
 70
     1
102
RTVSPropertyOp9
 70
     1
102
RTVSPropertyOp10
 70
     1
102
RTVSPropertyOp11
 70
     1
102
RTVSPropertyOp12
 70
     1
102
RTVSPropertyOp13
 70
     1
102
RTVSPropertyOp14
 70
     1
102
RTVSPropertyOp15
 70
     1
102
RTVSPropertyOp16
 70
     1
102
RTVSPropertyOp17
 70
     1
102
RTVSPropertyOp18
 70
     1
102
RTVSPropertyOp19
 70
     1
102
RTVSPropertyOp20
 70
     1
102
RTVSPropertyOp21
 70
     1
102
RTVSPropertyOp22
 70
     1
102
RTVSPropertyOp23
 70
     1
102
RTVSPropertyOp24
 70
     1
102
RTVSPropertyOp25
 70
     1
102
RTVSPropertyOp26
 70
     1
102
RTVSPropertyOp27
 70
     1
102
RTVSPropertyOp28
 70
     1
102
RTVSPropertyOp29
 70
     1
102
RTVSPropertyOp30
 70
     1
102
RTVSPropertyOp31
 70
     1
102
RTVSPropertyOp32
 70
     1
102
RTVSPropertyOp33
 70
     1
102
RTVSPropertyOp34
 70
     1
102
RTVSPropertyOp35
 70
     1
102
RTVSPropertyOp36
 70
     1
102
RTVSPropertyOp37
 70
     1
102
RTVSPropertyOp38
 70
     1
102
RTVSPropertyOp39
 70
     1
102
RTVSPropertyOp40
 70
     1
102
RTVSPropertyOp41
 70
     1
102
RTVSPropertyOp42
 70
     1
102
RTVSPropertyOp43
 70
     1
102
RTVSPropertyOp44
 70
     1
102
RTVSPropertyOp45
 70
     1
102
RTVSPropertyOp46
 70
     1
102
RTVSPropertyOp47
 70
     1
102
RTVSPropertyOp48
 70
     1
102
RTVSPropertyOp49
 70
     1
102
RTVSPropertyOp50
 70
     1
102
RTVSPropertyOp51
 70
     0
102
RTVSPropertyOp52
 70
     0
102
RTVSPropertyOp53
 70
     1
102
RTVSPropertyOp54
 70
     1
102
RTVSPropertyOp55
 70
     1
102
RTVSPropertyOp56
 70
     1
102
RTVSPropertyOp57
 70
     1
102
RTVSPropertyOp58
 70
     1
102
RTVSPropertyOp59
 70
     1
102
RTVSPropertyOp60
 70
     1
102
RTVSPropertyOp61
 70
     1
102
RTVSPropertyOp62
 70
     1
  0
XRECORD
  5
CD77
102
{ACAD_REACTORS
330
CD76
102
}
330
CD76
100
AcDbXrecord
280
     1
102
RTVSPost2010Prop28
280
     0
102
RTVSPost2010PropOp28
 70
     1
102
RTVSPost2010Prop29
280
     1
102
RTVSPost2010PropOp29
 70
     1
102
RTVSPost2010Prop30
280
     1
102
RTVSPost2010PropOp30
 70
     1
102
RTVSPost2010Prop31
280
     0
102
RTVSPost2010PropOp31
 70
     1
102
RTVSPost2010Prop32
280
     0
102
RTVSPost2010PropOp32
 70
     1
102
RTVSPost2010Prop33
280
     0
102
RTVSPost2010PropOp33
 70
     1
102
RTVSPost2010Prop34
280
     0
102
RTVSPost2010PropOp34
 70
     1
102
RTVSPost2010Prop35
280
     0
102
RTVSPost2010PropOp35
 70
     1
102
RTVSPost2010Prop36
280
     0
102
RTVSPost2010PropOp36
 70
     1
102
RTVSPost2010Prop37
 90
       50
102
RTVSPost2010PropOp37
 70
     1
102
RTVSPost2010Prop38
140
0.0
102
RTVSPost2010PropOp38
 70
     1
102
RTVSPost2010Prop39
140
1.0
102
RTVSPost2010PropOp39
 70
     1
102
RTVSPost2010Prop40
 90
        0
102
RTVSPost2010PropOp40
 70
     1
102
RTVSPost2010Prop41ColorIndex
 90
       18
102
RTVSPost2010Prop41ColorRGB
 90
        0
102
RTVSPost2010PropOp41
 70
     1
102
RTVSPost2010Prop42
 90
       50
102
RTVSPost2010PropOp42
 70
     1
102
RTVSPost2010Prop43
 90
        3
102
RTVSPost2010PropOp43
 70
     1
102
RTVSPost2010Prop44ColorIndex
 90
        5
102
RTVSPost2010Prop44ColorRGB
 90
      255
102
RTVSPost2010PropOp44
 70
     1
102
RTVSPost2010Prop45
280
     0
102
RTVSPost2010PropOp45
 70
     1
102
RTVSPost2010Prop46
 90
       50
102
RTVSPost2010PropOp46
 70
     1
102
RTVSPost2010Prop47
 90
       50
102
RTVSPost2010PropOp47
 70
     1
102
RTVSPost2010Prop48
 90
       50
102
RTVSPost2010PropOp48
 70
     1
102
RTVSPost2010Prop49
280
     0
102
RTVSPost2010PropOp49
 70
     1
102
RTVSPost2010Prop50
 90
       50
102
RTVSPost2010PropOp50
 70
     1
102
RTVSPost2010Prop51ColorIndex
 90
      256
102
RTVSPost2010Prop51ColorRGB
 90
-16777216
102
RTVSPost2010PropOp51
 70
     0
102
RTVSPost2010Prop52
140
1.0
102
RTVSPost2010PropOp52
 70
     0
102
RTVSPost2010Prop53
 90
        2
102
RTVSPost2010PropOp53
 70
     1
102
RTVSPost2010Prop54
  1
strokes_ogs.tif
102
RTVSPost2010PropOp54
 70
     1
102
RTVSPost2010Prop55
280
     0
102
RTVSPost2010PropOp55
 70
     1
102
RTVSPost2010Prop56
140
1.0
102
RTVSPost2010PropOp56
 70
     1
102
RTVSPost2010Prop57
140
1.0
102
RTVSPost2010PropOp57
 70
     1
102
RTVSPropertyOp0
 70
     1
102
RTVSPropertyOp1
 70
     1
102
RTVSPropertyOp2
 70
     1
102
RTVSPropertyOp3
 70
     1
102
RTVSPropertyOp4
 70
     1
102
RTVSPropertyOp5
 70
     1
102
RTVSPropertyOp6
 70
     1
102
RTVSPropertyOp7
 70
     1
102
RTVSPropertyOp8
 70
     1
102
RTVSPropertyOp9
 70
     1
102
RTVSPropertyOp10
 70
     1
102
RTVSPropertyOp11
 70
     1
102
RTVSPropertyOp12
 70
     1
102
RTVSPropertyOp13
 70
     1
102
RTVSPropertyOp14
 70
     1
102
RTVSPropertyOp15
 70
     1
102
RTVSPropertyOp16
 70
     1
102
RTVSPropertyOp17
 70
     1
102
RTVSPropertyOp18
 70
     1
102
RTVSPropertyOp19
 70
     1
102
RTVSPropertyOp20
 70
     1
102
RTVSPropertyOp21
 70
     1
102
RTVSPropertyOp22
 70
     1
102
RTVSPropertyOp23
 70
     1
102
RTVSPropertyOp24
 70
     1
102
RTVSPropertyOp25
 70
     1
102
RTVSPropertyOp26
 70
     1
102
RTVSPropertyOp27
 70
     1
102
RTVSPropertyOp28
 70
     1
102
RTVSPropertyOp29
 70
     1
102
RTVSPropertyOp30
 70
     1
102
RTVSPropertyOp31
 70
     1
102
RTVSPropertyOp32
 70
     1
102
RTVSPropertyOp33
 70
     1
102
RTVSPropertyOp34
 70
     1
102
RTVSPropertyOp35
 70
     1
102
RTVSPropertyOp36
 70
     1
102
RTVSPropertyOp37
 70
     1
102
RTVSPropertyOp38
 70
     1
102
RTVSPropertyOp39
 70
     1
102
RTVSPropertyOp40
 70
     1
102
RTVSPropertyOp41
 70
     1
102
RTVSPropertyOp42
 70
     1
102
RTVSPropertyOp43
 70
     1
102
RTVSPropertyOp44
 70
     1
102
RTVSPropertyOp45
 70
     1
102
RTVSPropertyOp46
 70
     1
102
RTVSPropertyOp47
 70
     1
102
RTVSPropertyOp48
 70
     1
102
RTVSPropertyOp49
 70
     1
102
RTVSPropertyOp50
 70
     1
102
RTVSPropertyOp51
 70
     0
102
RTVSPropertyOp52
 70
     0
102
RTVSPropertyOp53
 70
     1
102
RTVSPropertyOp54
 70
     1
102
RTVSPropertyOp55
 70
     1
102
RTVSPropertyOp56
 70
     1
102
RTVSPropertyOp57
 70
     1
102
RTVSPropertyOp58
 70
     1
102
RTVSPropertyOp59
 70
     1
102
RTVSPropertyOp60
 70
     1
102
RTVSPropertyOp61
 70
     1
102
RTVSPropertyOp62
 70
     1
  0
XRECORD
  5
CD75
102
{ACAD_REACTORS
330
CD74
102
}
330
CD74
100
AcDbXrecord
280
     1
102
RTVSPost2010Prop28
280
     0
102
RTVSPost2010PropOp28
 70
     1
102
RTVSPost2010Prop29
280
     1
102
RTVSPost2010PropOp29
 70
     1
102
RTVSPost2010Prop30
280
     1
102
RTVSPost2010PropOp30
 70
     1
102
RTVSPost2010Prop31
280
     0
102
RTVSPost2010PropOp31
 70
     1
102
RTVSPost2010Prop32
280
     0
102
RTVSPost2010PropOp32
 70
     1
102
RTVSPost2010Prop33
280
     0
102
RTVSPost2010PropOp33
 70
     1
102
RTVSPost2010Prop34
280
     0
102
RTVSPost2010PropOp34
 70
     1
102
RTVSPost2010Prop35
280
     0
102
RTVSPost2010PropOp35
 70
     1
102
RTVSPost2010Prop36
280
     0
102
RTVSPost2010PropOp36
 70
     1
102
RTVSPost2010Prop37
 90
       50
102
RTVSPost2010PropOp37
 70
     1
102
RTVSPost2010Prop38
140
0.0
102
RTVSPost2010PropOp38
 70
     1
102
RTVSPost2010Prop39
140
1.0
102
RTVSPost2010PropOp39
 70
     1
102
RTVSPost2010Prop40
 90
        0
102
RTVSPost2010PropOp40
 70
     1
102
RTVSPost2010Prop41ColorIndex
 90
       18
102
RTVSPost2010Prop41ColorRGB
 90
        0
102
RTVSPost2010PropOp41
 70
     1
102
RTVSPost2010Prop42
 90
       50
102
RTVSPost2010PropOp42
 70
     1
102
RTVSPost2010Prop43
 90
        3
102
RTVSPost2010PropOp43
 70
     1
102
RTVSPost2010Prop44ColorIndex
 90
        5
102
RTVSPost2010Prop44ColorRGB
 90
      255
102
RTVSPost2010PropOp44
 70
     1
102
RTVSPost2010Prop45
280
     0
102
RTVSPost2010PropOp45
 70
     1
102
RTVSPost2010Prop46
 90
       50
102
RTVSPost2010PropOp46
 70
     1
102
RTVSPost2010Prop47
 90
       50
102
RTVSPost2010PropOp47
 70
     1
102
RTVSPost2010Prop48
 90
       50
102
RTVSPost2010PropOp48
 70
     1
102
RTVSPost2010Prop49
280
     0
102
RTVSPost2010PropOp49
 70
     1
102
RTVSPost2010Prop50
 90
       50
102
RTVSPost2010PropOp50
 70
     1
102
RTVSPost2010Prop51ColorIndex
 90
      256
102
RTVSPost2010Prop51ColorRGB
 90
-16777216
102
RTVSPost2010PropOp51
 70
     0
102
RTVSPost2010Prop52
140
1.0
102
RTVSPost2010PropOp52
 70
     0
102
RTVSPost2010Prop53
 90
        2
102
RTVSPost2010PropOp53
 70
     1
102
RTVSPost2010Prop54
  1
strokes_ogs.tif
102
RTVSPost2010PropOp54
 70
     1
102
RTVSPost2010Prop55
280
     0
102
RTVSPost2010PropOp55
 70
     1
102
RTVSPost2010Prop56
140
1.0
102
RTVSPost2010PropOp56
 70
     1
102
RTVSPost2010Prop57
140
1.0
102
RTVSPost2010PropOp57
 70
     1
102
RTVSPropertyOp0
 70
     1
102
RTVSPropertyOp1
 70
     1
102
RTVSPropertyOp2
 70
     1
102
RTVSPropertyOp3
 70
     1
102
RTVSPropertyOp4
 70
     1
102
RTVSPropertyOp5
 70
     1
102
RTVSPropertyOp6
 70
     1
102
RTVSPropertyOp7
 70
     1
102
RTVSPropertyOp8
 70
     1
102
RTVSPropertyOp9
 70
     1
102
RTVSPropertyOp10
 70
     1
102
RTVSPropertyOp11
 70
     1
102
RTVSPropertyOp12
 70
     1
102
RTVSPropertyOp13
 70
     1
102
RTVSPropertyOp14
 70
     1
102
RTVSPropertyOp15
 70
     1
102
RTVSPropertyOp16
 70
     1
102
RTVSPropertyOp17
 70
     1
102
RTVSPropertyOp18
 70
     1
102
RTVSPropertyOp19
 70
     1
102
RTVSPropertyOp20
 70
     1
102
RTVSPropertyOp21
 70
     1
102
RTVSPropertyOp22
 70
     1
102
RTVSPropertyOp23
 70
     1
102
RTVSPropertyOp24
 70
     1
102
RTVSPropertyOp25
 70
     1
102
RTVSPropertyOp26
 70
     1
102
RTVSPropertyOp27
 70
     1
102
RTVSPropertyOp28
 70
     1
102
RTVSPropertyOp29
 70
     1
102
RTVSPropertyOp30
 70
     1
102
RTVSPropertyOp31
 70
     1
102
RTVSPropertyOp32
 70
     1
102
RTVSPropertyOp33
 70
     1
102
RTVSPropertyOp34
 70
     1
102
RTVSPropertyOp35
 70
     1
102
RTVSPropertyOp36
 70
     1
102
RTVSPropertyOp37
 70
     1
102
RTVSPropertyOp38
 70
     1
102
RTVSPropertyOp39
 70
     1
102
RTVSPropertyOp40
 70
     1
102
RTVSPropertyOp41
 70
     1
102
RTVSPropertyOp42
 70
     1
102
RTVSPropertyOp43
 70
     1
102
RTVSPropertyOp44
 70
     1
102
RTVSPropertyOp45
 70
     1
102
RTVSPropertyOp46
 70
     1
102
RTVSPropertyOp47
 70
     1
102
RTVSPropertyOp48
 70
     1
102
RTVSPropertyOp49
 70
     1
102
RTVSPropertyOp50
 70
     1
102
RTVSPropertyOp51
 70
     0
102
RTVSPropertyOp52
 70
     0
102
RTVSPropertyOp53
 70
     1
102
RTVSPropertyOp54
 70
     1
102
RTVSPropertyOp55
 70
     1
102
RTVSPropertyOp56
 70
     1
102
RTVSPropertyOp57
 70
     1
102
RTVSPropertyOp58
 70
     1
102
RTVSPropertyOp59
 70
     1
102
RTVSPropertyOp60
 70
     1
102
RTVSPropertyOp61
 70
     1
102
RTVSPropertyOp62
 70
     1
  0
XRECORD
  5
CD6F
102
{ACAD_REACTORS
330
CD6E
102
}
330
CD6E
100
AcDbXrecord
280
     1
102
RTVSPost2010Prop28
280
     0
102
RTVSPost2010PropOp28
 70
     1
102
RTVSPost2010Prop29
280
     1
102
RTVSPost2010PropOp29
 70
     1
102
RTVSPost2010Prop30
280
     1
102
RTVSPost2010PropOp30
 70
     1
102
RTVSPost2010Prop31
280
     0
102
RTVSPost2010PropOp31
 70
     1
102
RTVSPost2010Prop32
280
     0
102
RTVSPost2010PropOp32
 70
     1
102
RTVSPost2010Prop33
280
     0
102
RTVSPost2010PropOp33
 70
     1
102
RTVSPost2010Prop34
280
     0
102
RTVSPost2010PropOp34
 70
     1
102
RTVSPost2010Prop35
280
     0
102
RTVSPost2010PropOp35
 70
     1
102
RTVSPost2010Prop36
280
     0
102
RTVSPost2010PropOp36
 70
     1
102
RTVSPost2010Prop37
 90
       50
102
RTVSPost2010PropOp37
 70
     1
102
RTVSPost2010Prop38
140
0.0
102
RTVSPost2010PropOp38
 70
     1
102
RTVSPost2010Prop39
140
1.0
102
RTVSPost2010PropOp39
 70
     1
102
RTVSPost2010Prop40
 90
        0
102
RTVSPost2010PropOp40
 70
     1
102
RTVSPost2010Prop41ColorIndex
 90
       18
102
RTVSPost2010Prop41ColorRGB
 90
        0
102
RTVSPost2010PropOp41
 70
     1
102
RTVSPost2010Prop42
 90
       50
102
RTVSPost2010PropOp42
 70
     1
102
RTVSPost2010Prop43
 90
        3
102
RTVSPost2010PropOp43
 70
     1
102
RTVSPost2010Prop44ColorIndex
 90
        5
102
RTVSPost2010Prop44ColorRGB
 90
      255
102
RTVSPost2010PropOp44
 70
     1
102
RTVSPost2010Prop45
280
     0
102
RTVSPost2010PropOp45
 70
     1
102
RTVSPost2010Prop46
 90
       50
102
RTVSPost2010PropOp46
 70
     1
102
RTVSPost2010Prop47
 90
       50
102
RTVSPost2010PropOp47
 70
     1
102
RTVSPost2010Prop48
 90
       50
102
RTVSPost2010PropOp48
 70
     1
102
RTVSPost2010Prop49
280
     0
102
RTVSPost2010PropOp49
 70
     1
102
RTVSPost2010Prop50
 90
       50
102
RTVSPost2010PropOp50
 70
     1
102
RTVSPost2010Prop51ColorIndex
 90
      256
102
RTVSPost2010Prop51ColorRGB
 90
-16777216
102
RTVSPost2010PropOp51
 70
     0
102
RTVSPost2010Prop52
140
1.0
102
RTVSPost2010PropOp52
 70
     0
102
RTVSPost2010Prop53
 90
        2
102
RTVSPost2010PropOp53
 70
     1
102
RTVSPost2010Prop54
  1
strokes_ogs.tif
102
RTVSPost2010PropOp54
 70
     1
102
RTVSPost2010Prop55
280
     0
102
RTVSPost2010PropOp55
 70
     1
102
RTVSPost2010Prop56
140
1.0
102
RTVSPost2010PropOp56
 70
     1
102
RTVSPost2010Prop57
140
1.0
102
RTVSPost2010PropOp57
 70
     1
102
RTVSPropertyOp0
 70
     1
102
RTVSPropertyOp1
 70
     1
102
RTVSPropertyOp2
 70
     1
102
RTVSPropertyOp3
 70
     1
102
RTVSPropertyOp4
 70
     1
102
RTVSPropertyOp5
 70
     1
102
RTVSPropertyOp6
 70
     1
102
RTVSPropertyOp7
 70
     1
102
RTVSPropertyOp8
 70
     1
102
RTVSPropertyOp9
 70
     1
102
RTVSPropertyOp10
 70
     1
102
RTVSPropertyOp11
 70
     1
102
RTVSPropertyOp12
 70
     1
102
RTVSPropertyOp13
 70
     1
102
RTVSPropertyOp14
 70
     1
102
RTVSPropertyOp15
 70
     1
102
RTVSPropertyOp16
 70
     1
102
RTVSPropertyOp17
 70
     1
102
RTVSPropertyOp18
 70
     1
102
RTVSPropertyOp19
 70
     1
102
RTVSPropertyOp20
 70
     1
102
RTVSPropertyOp21
 70
     1
102
RTVSPropertyOp22
 70
     1
102
RTVSPropertyOp23
 70
     1
102
RTVSPropertyOp24
 70
     1
102
RTVSPropertyOp25
 70
     1
102
RTVSPropertyOp26
 70
     1
102
RTVSPropertyOp27
 70
     1
102
RTVSPropertyOp28
 70
     1
102
RTVSPropertyOp29
 70
     1
102
RTVSPropertyOp30
 70
     1
102
RTVSPropertyOp31
 70
     1
102
RTVSPropertyOp32
 70
     1
102
RTVSPropertyOp33
 70
     1
102
RTVSPropertyOp34
 70
     1
102
RTVSPropertyOp35
 70
     1
102
RTVSPropertyOp36
 70
     1
102
RTVSPropertyOp37
 70
     1
102
RTVSPropertyOp38
 70
     1
102
RTVSPropertyOp39
 70
     1
102
RTVSPropertyOp40
 70
     1
102
RTVSPropertyOp41
 70
     1
102
RTVSPropertyOp42
 70
     1
102
RTVSPropertyOp43
 70
     1
102
RTVSPropertyOp44
 70
     1
102
RTVSPropertyOp45
 70
     1
102
RTVSPropertyOp46
 70
     1
102
RTVSPropertyOp47
 70
     1
102
RTVSPropertyOp48
 70
     1
102
RTVSPropertyOp49
 70
     1
102
RTVSPropertyOp50
 70
     1
102
RTVSPropertyOp51
 70
     0
102
RTVSPropertyOp52
 70
     0
102
RTVSPropertyOp53
 70
     1
102
RTVSPropertyOp54
 70
     1
102
RTVSPropertyOp55
 70
     1
102
RTVSPropertyOp56
 70
     1
102
RTVSPropertyOp57
 70
     1
102
RTVSPropertyOp58
 70
     1
102
RTVSPropertyOp59
 70
     1
102
RTVSPropertyOp60
 70
     1
102
RTVSPropertyOp61
 70
     1
102
RTVSPropertyOp62
 70
     1
  0
XRECORD
  5
CD71
102
{ACAD_REACTORS
330
CD70
102
}
330
CD70
100
AcDbXrecord
280
     1
102
RTVSPost2010Prop28
280
     0
102
RTVSPost2010PropOp28
 70
     1
102
RTVSPost2010Prop29
280
     1
102
RTVSPost2010PropOp29
 70
     1
102
RTVSPost2010Prop30
280
     1
102
RTVSPost2010PropOp30
 70
     1
102
RTVSPost2010Prop31
280
     0
102
RTVSPost2010PropOp31
 70
     1
102
RTVSPost2010Prop32
280
     0
102
RTVSPost2010PropOp32
 70
     1
102
RTVSPost2010Prop33
280
     0
102
RTVSPost2010PropOp33
 70
     1
102
RTVSPost2010Prop34
280
     0
102
RTVSPost2010PropOp34
 70
     1
102
RTVSPost2010Prop35
280
     0
102
RTVSPost2010PropOp35
 70
     1
102
RTVSPost2010Prop36
280
     0
102
RTVSPost2010PropOp36
 70
     1
102
RTVSPost2010Prop37
 90
       50
102
RTVSPost2010PropOp37
 70
     1
102
RTVSPost2010Prop38
140
0.0
102
RTVSPost2010PropOp38
 70
     1
102
RTVSPost2010Prop39
140
1.0
102
RTVSPost2010PropOp39
 70
     1
102
RTVSPost2010Prop40
 90
        0
102
RTVSPost2010PropOp40
 70
     1
102
RTVSPost2010Prop41ColorIndex
 90
       18
102
RTVSPost2010Prop41ColorRGB
 90
        0
102
RTVSPost2010PropOp41
 70
     1
102
RTVSPost2010Prop42
 90
       50
102
RTVSPost2010PropOp42
 70
     1
102
RTVSPost2010Prop43
 90
        3
102
RTVSPost2010PropOp43
 70
     1
102
RTVSPost2010Prop44ColorIndex
 90
        5
102
RTVSPost2010Prop44ColorRGB
 90
      255
102
RTVSPost2010PropOp44
 70
     1
102
RTVSPost2010Prop45
280
     0
102
RTVSPost2010PropOp45
 70
     1
102
RTVSPost2010Prop46
 90
       50
102
RTVSPost2010PropOp46
 70
     1
102
RTVSPost2010Prop47
 90
       50
102
RTVSPost2010PropOp47
 70
     1
102
RTVSPost2010Prop48
 90
       50
102
RTVSPost2010PropOp48
 70
     1
102
RTVSPost2010Prop49
280
     0
102
RTVSPost2010PropOp49
 70
     1
102
RTVSPost2010Prop50
 90
       50
102
RTVSPost2010PropOp50
 70
     1
102
RTVSPost2010Prop51ColorIndex
 90
      256
102
RTVSPost2010Prop51ColorRGB
 90
-16777216
102
RTVSPost2010PropOp51
 70
     0
102
RTVSPost2010Prop52
140
1.0
102
RTVSPost2010PropOp52
 70
     0
102
RTVSPost2010Prop53
 90
        2
102
RTVSPost2010PropOp53
 70
     1
102
RTVSPost2010Prop54
  1
strokes_ogs.tif
102
RTVSPost2010PropOp54
 70
     1
102
RTVSPost2010Prop55
280
     0
102
RTVSPost2010PropOp55
 70
     1
102
RTVSPost2010Prop56
140
1.0
102
RTVSPost2010PropOp56
 70
     1
102
RTVSPost2010Prop57
140
1.0
102
RTVSPost2010PropOp57
 70
     1
102
RTVSPropertyOp0
 70
     1
102
RTVSPropertyOp1
 70
     1
102
RTVSPropertyOp2
 70
     1
102
RTVSPropertyOp3
 70
     1
102
RTVSPropertyOp4
 70
     1
102
RTVSPropertyOp5
 70
     1
102
RTVSPropertyOp6
 70
     1
102
RTVSPropertyOp7
 70
     1
102
RTVSPropertyOp8
 70
     1
102
RTVSPropertyOp9
 70
     1
102
RTVSPropertyOp10
 70
     1
102
RTVSPropertyOp11
 70
     1
102
RTVSPropertyOp12
 70
     1
102
RTVSPropertyOp13
 70
     1
102
RTVSPropertyOp14
 70
     1
102
RTVSPropertyOp15
 70
     1
102
RTVSPropertyOp16
 70
     1
102
RTVSPropertyOp17
 70
     1
102
RTVSPropertyOp18
 70
     1
102
RTVSPropertyOp19
 70
     1
102
RTVSPropertyOp20
 70
     1
102
RTVSPropertyOp21
 70
     1
102
RTVSPropertyOp22
 70
     1
102
RTVSPropertyOp23
 70
     1
102
RTVSPropertyOp24
 70
     1
102
RTVSPropertyOp25
 70
     1
102
RTVSPropertyOp26
 70
     1
102
RTVSPropertyOp27
 70
     1
102
RTVSPropertyOp28
 70
     1
102
RTVSPropertyOp29
 70
     1
102
RTVSPropertyOp30
 70
     1
102
RTVSPropertyOp31
 70
     1
102
RTVSPropertyOp32
 70
     1
102
RTVSPropertyOp33
 70
     1
102
RTVSPropertyOp34
 70
     1
102
RTVSPropertyOp35
 70
     1
102
RTVSPropertyOp36
 70
     1
102
RTVSPropertyOp37
 70
     1
102
RTVSPropertyOp38
 70
     1
102
RTVSPropertyOp39
 70
     1
102
RTVSPropertyOp40
 70
     1
102
RTVSPropertyOp41
 70
     1
102
RTVSPropertyOp42
 70
     1
102
RTVSPropertyOp43
 70
     1
102
RTVSPropertyOp44
 70
     1
102
RTVSPropertyOp45
 70
     1
102
RTVSPropertyOp46
 70
     1
102
RTVSPropertyOp47
 70
     1
102
RTVSPropertyOp48
 70
     1
102
RTVSPropertyOp49
 70
     1
102
RTVSPropertyOp50
 70
     1
102
RTVSPropertyOp51
 70
     0
102
RTVSPropertyOp52
 70
     0
102
RTVSPropertyOp53
 70
     1
102
RTVSPropertyOp54
 70
     1
102
RTVSPropertyOp55
 70
     1
102
RTVSPropertyOp56
 70
     1
102
RTVSPropertyOp57
 70
     1
102
RTVSPropertyOp58
 70
     1
102
RTVSPropertyOp59
 70
     1
102
RTVSPropertyOp60
 70
     1
102
RTVSPropertyOp61
 70
     1
102
RTVSPropertyOp62
 70
     1
  0
XRECORD
  5
CD67
102
{ACAD_REACTORS
330
CD66
102
}
330
CD66
100
AcDbXrecord
280
     1
102
RTVSPost2010Prop28
280
     0
102
RTVSPost2010PropOp28
 70
     1
102
RTVSPost2010Prop29
280
     1
102
RTVSPost2010PropOp29
 70
     1
102
RTVSPost2010Prop30
280
     1
102
RTVSPost2010PropOp30
 70
     1
102
RTVSPost2010Prop31
280
     0
102
RTVSPost2010PropOp31
 70
     1
102
RTVSPost2010Prop32
280
     0
102
RTVSPost2010PropOp32
 70
     1
102
RTVSPost2010Prop33
280
     0
102
RTVSPost2010PropOp33
 70
     1
102
RTVSPost2010Prop34
280
     0
102
RTVSPost2010PropOp34
 70
     1
102
RTVSPost2010Prop35
280
     0
102
RTVSPost2010PropOp35
 70
     1
102
RTVSPost2010Prop36
280
     0
102
RTVSPost2010PropOp36
 70
     1
102
RTVSPost2010Prop37
 90
       50
102
RTVSPost2010PropOp37
 70
     1
102
RTVSPost2010Prop38
140
0.0
102
RTVSPost2010PropOp38
 70
     1
102
RTVSPost2010Prop39
140
1.0
102
RTVSPost2010PropOp39
 70
     1
102
RTVSPost2010Prop40
 90
        0
102
RTVSPost2010PropOp40
 70
     1
102
RTVSPost2010Prop41ColorIndex
 90
       18
102
RTVSPost2010Prop41ColorRGB
 90
        0
102
RTVSPost2010PropOp41
 70
     1
102
RTVSPost2010Prop42
 90
       50
102
RTVSPost2010PropOp42
 70
     1
102
RTVSPost2010Prop43
 90
        3
102
RTVSPost2010PropOp43
 70
     1
102
RTVSPost2010Prop44ColorIndex
 90
        5
102
RTVSPost2010Prop44ColorRGB
 90
      255
102
RTVSPost2010PropOp44
 70
     1
102
RTVSPost2010Prop45
280
     0
102
RTVSPost2010PropOp45
 70
     1
102
RTVSPost2010Prop46
 90
       50
102
RTVSPost2010PropOp46
 70
     1
102
RTVSPost2010Prop47
 90
       50
102
RTVSPost2010PropOp47
 70
     1
102
RTVSPost2010Prop48
 90
       50
102
RTVSPost2010PropOp48
 70
     1
102
RTVSPost2010Prop49
280
     0
102
RTVSPost2010PropOp49
 70
     1
102
RTVSPost2010Prop50
 90
       50
102
RTVSPost2010PropOp50
 70
     1
102
RTVSPost2010Prop51ColorIndex
 90
      256
102
RTVSPost2010Prop51ColorRGB
 90
-16777216
102
RTVSPost2010PropOp51
 70
     0
102
RTVSPost2010Prop52
140
1.0
102
RTVSPost2010PropOp52
 70
     0
102
RTVSPost2010Prop53
 90
        2
102
RTVSPost2010PropOp53
 70
     1
102
RTVSPost2010Prop54
  1
strokes_ogs.tif
102
RTVSPost2010PropOp54
 70
     1
102
RTVSPost2010Prop55
280
     0
102
RTVSPost2010PropOp55
 70
     1
102
RTVSPost2010Prop56
140
1.0
102
RTVSPost2010PropOp56
 70
     1
102
RTVSPost2010Prop57
140
1.0
102
RTVSPost2010PropOp57
 70
     1
102
RTVSPropertyOp0
 70
     1
102
RTVSPropertyOp1
 70
     1
102
RTVSPropertyOp2
 70
     1
102
RTVSPropertyOp3
 70
     1
102
RTVSPropertyOp4
 70
     1
102
RTVSPropertyOp5
 70
     1
102
RTVSPropertyOp6
 70
     1
102
RTVSPropertyOp7
 70
     1
102
RTVSPropertyOp8
 70
     1
102
RTVSPropertyOp9
 70
     1
102
RTVSPropertyOp10
 70
     1
102
RTVSPropertyOp11
 70
     1
102
RTVSPropertyOp12
 70
     1
102
RTVSPropertyOp13
 70
     1
102
RTVSPropertyOp14
 70
     1
102
RTVSPropertyOp15
 70
     1
102
RTVSPropertyOp16
 70
     1
102
RTVSPropertyOp17
 70
     1
102
RTVSPropertyOp18
 70
     1
102
RTVSPropertyOp19
 70
     1
102
RTVSPropertyOp20
 70
     1
102
RTVSPropertyOp21
 70
     1
102
RTVSPropertyOp22
 70
     1
102
RTVSPropertyOp23
 70
     1
102
RTVSPropertyOp24
 70
     1
102
RTVSPropertyOp25
 70
     1
102
RTVSPropertyOp26
 70
     1
102
RTVSPropertyOp27
 70
     1
102
RTVSPropertyOp28
 70
     1
102
RTVSPropertyOp29
 70
     1
102
RTVSPropertyOp30
 70
     1
102
RTVSPropertyOp31
 70
     1
102
RTVSPropertyOp32
 70
     1
102
RTVSPropertyOp33
 70
     1
102
RTVSPropertyOp34
 70
     1
102
RTVSPropertyOp35
 70
     1
102
RTVSPropertyOp36
 70
     1
102
RTVSPropertyOp37
 70
     1
102
RTVSPropertyOp38
 70
     1
102
RTVSPropertyOp39
 70
     1
102
RTVSPropertyOp40
 70
     1
102
RTVSPropertyOp41
 70
     1
102
RTVSPropertyOp42
 70
     1
102
RTVSPropertyOp43
 70
     1
102
RTVSPropertyOp44
 70
     1
102
RTVSPropertyOp45
 70
     1
102
RTVSPropertyOp46
 70
     1
102
RTVSPropertyOp47
 70
     1
102
RTVSPropertyOp48
 70
     1
102
RTVSPropertyOp49
 70
     1
102
RTVSPropertyOp50
 70
     1
102
RTVSPropertyOp51
 70
     0
102
RTVSPropertyOp52
 70
     0
102
RTVSPropertyOp53
 70
     1
102
RTVSPropertyOp54
 70
     1
102
RTVSPropertyOp55
 70
     1
102
RTVSPropertyOp56
 70
     1
102
RTVSPropertyOp57
 70
     1
102
RTVSPropertyOp58
 70
     1
102
RTVSPropertyOp59
 70
     1
102
RTVSPropertyOp60
 70
     1
102
RTVSPropertyOp61
 70
     1
102
RTVSPropertyOp62
 70
     1
  0
XRECORD
  5
CD5B
102
{ACAD_REACTORS
330
CD5A
102
}
330
CD5A
100
AcDbXrecord
280
     1
102
RTVSPost2010Prop28
280
     0
102
RTVSPost2010PropOp28
 70
     1
102
RTVSPost2010Prop29
280
     1
102
RTVSPost2010PropOp29
 70
     1
102
RTVSPost2010Prop30
280
     1
102
RTVSPost2010PropOp30
 70
     1
102
RTVSPost2010Prop31
280
     0
102
RTVSPost2010PropOp31
 70
     1
102
RTVSPost2010Prop32
280
     0
102
RTVSPost2010PropOp32
 70
     1
102
RTVSPost2010Prop33
280
     0
102
RTVSPost2010PropOp33
 70
     1
102
RTVSPost2010Prop34
280
     0
102
RTVSPost2010PropOp34
 70
     1
102
RTVSPost2010Prop35
280
     0
102
RTVSPost2010PropOp35
 70
     1
102
RTVSPost2010Prop36
280
     0
102
RTVSPost2010PropOp36
 70
     1
102
RTVSPost2010Prop37
 90
       50
102
RTVSPost2010PropOp37
 70
     1
102
RTVSPost2010Prop38
140
0.0
102
RTVSPost2010PropOp38
 70
     1
102
RTVSPost2010Prop39
140
1.0
102
RTVSPost2010PropOp39
 70
     1
102
RTVSPost2010Prop40
 90
        0
102
RTVSPost2010PropOp40
 70
     1
102
RTVSPost2010Prop41ColorIndex
 90
       18
102
RTVSPost2010Prop41ColorRGB
 90
        0
102
RTVSPost2010PropOp41
 70
     1
102
RTVSPost2010Prop42
 90
       50
102
RTVSPost2010PropOp42
 70
     1
102
RTVSPost2010Prop43
 90
        3
102
RTVSPost2010PropOp43
 70
     1
102
RTVSPost2010Prop44ColorIndex
 90
        5
102
RTVSPost2010Prop44ColorRGB
 90
      255
102
RTVSPost2010PropOp44
 70
     1
102
RTVSPost2010Prop45
280
     0
102
RTVSPost2010PropOp45
 70
     1
102
RTVSPost2010Prop46
 90
       50
102
RTVSPost2010PropOp46
 70
     1
102
RTVSPost2010Prop47
 90
       50
102
RTVSPost2010PropOp47
 70
     1
102
RTVSPost2010Prop48
 90
       50
102
RTVSPost2010PropOp48
 70
     1
102
RTVSPost2010Prop49
280
     0
102
RTVSPost2010PropOp49
 70
     1
102
RTVSPost2010Prop50
 90
       50
102
RTVSPost2010PropOp50
 70
     1
102
RTVSPost2010Prop51ColorIndex
 90
      256
102
RTVSPost2010Prop51ColorRGB
 90
-16777216
102
RTVSPost2010PropOp51
 70
     0
102
RTVSPost2010Prop52
140
1.0
102
RTVSPost2010PropOp52
 70
     0
102
RTVSPost2010Prop53
 90
        2
102
RTVSPost2010PropOp53
 70
     1
102
RTVSPost2010Prop54
  1
strokes_ogs.tif
102
RTVSPost2010PropOp54
 70
     1
102
RTVSPost2010Prop55
280
     0
102
RTVSPost2010PropOp55
 70
     1
102
RTVSPost2010Prop56
140
1.0
102
RTVSPost2010PropOp56
 70
     1
102
RTVSPost2010Prop57
140
1.0
102
RTVSPost2010PropOp57
 70
     1
102
RTVSPropertyOp0
 70
     1
102
RTVSPropertyOp1
 70
     1
102
RTVSPropertyOp2
 70
     1
102
RTVSPropertyOp3
 70
     1
102
RTVSPropertyOp4
 70
     1
102
RTVSPropertyOp5
 70
     1
102
RTVSPropertyOp6
 70
     1
102
RTVSPropertyOp7
 70
     1
102
RTVSPropertyOp8
 70
     1
102
RTVSPropertyOp9
 70
     1
102
RTVSPropertyOp10
 70
     1
102
RTVSPropertyOp11
 70
     1
102
RTVSPropertyOp12
 70
     1
102
RTVSPropertyOp13
 70
     1
102
RTVSPropertyOp14
 70
     1
102
RTVSPropertyOp15
 70
     1
102
RTVSPropertyOp16
 70
     1
102
RTVSPropertyOp17
 70
     1
102
RTVSPropertyOp18
 70
     1
102
RTVSPropertyOp19
 70
     1
102
RTVSPropertyOp20
 70
     1
102
RTVSPropertyOp21
 70
     1
102
RTVSPropertyOp22
 70
     1
102
RTVSPropertyOp23
 70
     1
102
RTVSPropertyOp24
 70
     1
102
RTVSPropertyOp25
 70
     1
102
RTVSPropertyOp26
 70
     1
102
RTVSPropertyOp27
 70
     1
102
RTVSPropertyOp28
 70
     1
102
RTVSPropertyOp29
 70
     1
102
RTVSPropertyOp30
 70
     1
102
RTVSPropertyOp31
 70
     1
102
RTVSPropertyOp32
 70
     1
102
RTVSPropertyOp33
 70
     1
102
RTVSPropertyOp34
 70
     1
102
RTVSPropertyOp35
 70
     1
102
RTVSPropertyOp36
 70
     1
102
RTVSPropertyOp37
 70
     1
102
RTVSPropertyOp38
 70
     1
102
RTVSPropertyOp39
 70
     1
102
RTVSPropertyOp40
 70
     1
102
RTVSPropertyOp41
 70
     1
102
RTVSPropertyOp42
 70
     1
102
RTVSPropertyOp43
 70
     1
102
RTVSPropertyOp44
 70
     1
102
RTVSPropertyOp45
 70
     1
102
RTVSPropertyOp46
 70
     1
102
RTVSPropertyOp47
 70
     1
102
RTVSPropertyOp48
 70
     1
102
RTVSPropertyOp49
 70
     1
102
RTVSPropertyOp50
 70
     1
102
RTVSPropertyOp51
 70
     0
102
RTVSPropertyOp52
 70
     0
102
RTVSPropertyOp53
 70
     1
102
RTVSPropertyOp54
 70
     1
102
RTVSPropertyOp55
 70
     1
102
RTVSPropertyOp56
 70
     1
102
RTVSPropertyOp57
 70
     1
102
RTVSPropertyOp58
 70
     1
102
RTVSPropertyOp59
 70
     1
102
RTVSPropertyOp60
 70
     1
102
RTVSPropertyOp61
 70
     1
102
RTVSPropertyOp62
 70
     1
  0
XRECORD
  5
CD73
102
{ACAD_REACTORS
330
CD72
102
}
330
CD72
100
AcDbXrecord
280
     1
102
RTVSPost2010Prop28
280
     0
102
RTVSPost2010PropOp28
 70
     1
102
RTVSPost2010Prop29
280
     1
102
RTVSPost2010PropOp29
 70
     1
102
RTVSPost2010Prop30
280
     1
102
RTVSPost2010PropOp30
 70
     1
102
RTVSPost2010Prop31
280
     0
102
RTVSPost2010PropOp31
 70
     1
102
RTVSPost2010Prop32
280
     0
102
RTVSPost2010PropOp32
 70
     1
102
RTVSPost2010Prop33
280
     0
102
RTVSPost2010PropOp33
 70
     1
102
RTVSPost2010Prop34
280
     0
102
RTVSPost2010PropOp34
 70
     1
102
RTVSPost2010Prop35
280
     0
102
RTVSPost2010PropOp35
 70
     1
102
RTVSPost2010Prop36
280
     0
102
RTVSPost2010PropOp36
 70
     1
102
RTVSPost2010Prop37
 90
       50
102
RTVSPost2010PropOp37
 70
     1
102
RTVSPost2010Prop38
140
0.0
102
RTVSPost2010PropOp38
 70
     1
102
RTVSPost2010Prop39
140
1.0
102
RTVSPost2010PropOp39
 70
     1
102
RTVSPost2010Prop40
 90
        0
102
RTVSPost2010PropOp40
 70
     1
102
RTVSPost2010Prop41ColorIndex
 90
       18
102
RTVSPost2010Prop41ColorRGB
 90
        0
102
RTVSPost2010PropOp41
 70
     1
102
RTVSPost2010Prop42
 90
       50
102
RTVSPost2010PropOp42
 70
     1
102
RTVSPost2010Prop43
 90
        3
102
RTVSPost2010PropOp43
 70
     1
102
RTVSPost2010Prop44ColorIndex
 90
        5
102
RTVSPost2010Prop44ColorRGB
 90
      255
102
RTVSPost2010PropOp44
 70
     1
102
RTVSPost2010Prop45
280
     0
102
RTVSPost2010PropOp45
 70
     1
102
RTVSPost2010Prop46
 90
       50
102
RTVSPost2010PropOp46
 70
     1
102
RTVSPost2010Prop47
 90
       50
102
RTVSPost2010PropOp47
 70
     1
102
RTVSPost2010Prop48
 90
       50
102
RTVSPost2010PropOp48
 70
     1
102
RTVSPost2010Prop49
280
     0
102
RTVSPost2010PropOp49
 70
     1
102
RTVSPost2010Prop50
 90
       50
102
RTVSPost2010PropOp50
 70
     1
102
RTVSPost2010Prop51ColorIndex
 90
      256
102
RTVSPost2010Prop51ColorRGB
 90
-16777216
102
RTVSPost2010PropOp51
 70
     0
102
RTVSPost2010Prop52
140
1.0
102
RTVSPost2010PropOp52
 70
     0
102
RTVSPost2010Prop53
 90
        2
102
RTVSPost2010PropOp53
 70
     1
102
RTVSPost2010Prop54
  1
strokes_ogs.tif
102
RTVSPost2010PropOp54
 70
     1
102
RTVSPost2010Prop55
280
     0
102
RTVSPost2010PropOp55
 70
     1
102
RTVSPost2010Prop56
140
1.0
102
RTVSPost2010PropOp56
 70
     1
102
RTVSPost2010Prop57
140
1.0
102
RTVSPost2010PropOp57
 70
     1
102
RTVSPropertyOp0
 70
     1
102
RTVSPropertyOp1
 70
     1
102
RTVSPropertyOp2
 70
     1
102
RTVSPropertyOp3
 70
     1
102
RTVSPropertyOp4
 70
     1
102
RTVSPropertyOp5
 70
     1
102
RTVSPropertyOp6
 70
     1
102
RTVSPropertyOp7
 70
     1
102
RTVSPropertyOp8
 70
     1
102
RTVSPropertyOp9
 70
     1
102
RTVSPropertyOp10
 70
     1
102
RTVSPropertyOp11
 70
     1
102
RTVSPropertyOp12
 70
     1
102
RTVSPropertyOp13
 70
     1
102
RTVSPropertyOp14
 70
     1
102
RTVSPropertyOp15
 70
     1
102
RTVSPropertyOp16
 70
     1
102
RTVSPropertyOp17
 70
     1
102
RTVSPropertyOp18
 70
     1
102
RTVSPropertyOp19
 70
     1
102
RTVSPropertyOp20
 70
     1
102
RTVSPropertyOp21
 70
     1
102
RTVSPropertyOp22
 70
     1
102
RTVSPropertyOp23
 70
     1
102
RTVSPropertyOp24
 70
     1
102
RTVSPropertyOp25
 70
     1
102
RTVSPropertyOp26
 70
     1
102
RTVSPropertyOp27
 70
     1
102
RTVSPropertyOp28
 70
     1
102
RTVSPropertyOp29
 70
     1
102
RTVSPropertyOp30
 70
     1
102
RTVSPropertyOp31
 70
     1
102
RTVSPropertyOp32
 70
     1
102
RTVSPropertyOp33
 70
     1
102
RTVSPropertyOp34
 70
     1
102
RTVSPropertyOp35
 70
     1
102
RTVSPropertyOp36
 70
     1
102
RTVSPropertyOp37
 70
     1
102
RTVSPropertyOp38
 70
     1
102
RTVSPropertyOp39
 70
     1
102
RTVSPropertyOp40
 70
     1
102
RTVSPropertyOp41
 70
     1
102
RTVSPropertyOp42
 70
     1
102
RTVSPropertyOp43
 70
     1
102
RTVSPropertyOp44
 70
     1
102
RTVSPropertyOp45
 70
     1
102
RTVSPropertyOp46
 70
     1
102
RTVSPropertyOp47
 70
     1
102
RTVSPropertyOp48
 70
     1
102
RTVSPropertyOp49
 70
     1
102
RTVSPropertyOp50
 70
     1
102
RTVSPropertyOp51
 70
     0
102
RTVSPropertyOp52
 70
     0
102
RTVSPropertyOp53
 70
     1
102
RTVSPropertyOp54
 70
     1
102
RTVSPropertyOp55
 70
     1
102
RTVSPropertyOp56
 70
     1
102
RTVSPropertyOp57
 70
     1
102
RTVSPropertyOp58
 70
     1
102
RTVSPropertyOp59
 70
     1
102
RTVSPropertyOp60
 70
     1
102
RTVSPropertyOp61
 70
     1
102
RTVSPropertyOp62
 70
     1
  0
ENDSEC
  0
EOF
