  0
SECTION
  2
HEADER
  9
$ACADVER
  1
AC1015
  9
$ACADMAINTVER
 70
    20
  9
$DWGCODEPAGE
  3
ANSI_932
  9
$INSBASE
 10
0.0
 20
0.0
 30
0.0
  9
$EXTMIN
 10
10.0
 20
9.999999999999998
 30
0.0
  9
$EXTMAX
 10
539.4316719999998
 20
447.3034489999998
 30
0.0
  9
$LIMMIN
 10
0.0
 20
0.0
  9
$LIMMAX
 10
663.7395339999999
 20
457.578012
  9
$ORTHOMODE
 70
     1
  9
$REGENMODE
 70
     1
  9
$FILLMODE
 70
     1
  9
$QTEXTMODE
 70
     0
  9
$MIRRTEXT
 70
     1
  9
$LTSCALE
 40
20.0
  9
$ATTMODE
 70
     1
  9
$TEXTSIZE
 40
5.0
  9
$TRACEWID
 40
1.0
  9
$TEXTSTYLE
  7
STANDARD
  9
$CLAYER
  8
0
  9
$CELTYPE
  6
BYLAYER
  9
$CECOLOR
 62
   256
  9
$CELTSCALE
 40
1.0
  9
$DISPSILH
 70
     0
  9
$DIMSCALE
 40
1.0
  9
$DIMASZ
 40
3.0
  9
$DIMEXO
 40
1.0
  9
$DIMDLI
 40
10.0
  9
$DIMRND
 40
0.0
  9
$DIMDLE
 40
0.0
  9
$DIMEXE
 40
1.0
  9
$DIMTP
 40
0.0
  9
$DIMTM
 40
0.0
  9
$DIMTXT
 40
3.2
  9
$DIMCEN
 40
0.0
  9
$DIMTSZ
 40
0.0
  9
$DIMTOL
 70
     0
  9
$DIMLIM
 70
     0
  9
$DIMTIH
 70
     0
  9
$DIMTOH
 70
     0
  9
$DIMSE1
 70
     0
  9
$DIMSE2
 70
     0
  9
$DIMTAD
 70
     3
  9
$DIMZIN
 70
     8
  9
$DIMBLK
  1

  9
$DIMASO
 70
     1
  9
$DIMSHO
 70
     1
  9
$DIMPOST
  1

  9
$DIMAPOST
  1

  9
$DIMALT
 70
     0
  9
$DIMALTD
 70
     2
  9
$DIMALTF
 40
25.4
  9
$DIMLFAC
 40
1.0
  9
$DIMTOFL
 70
     1
  9
$DIMTVP
 40
0.0
  9
$DIMTIX
 70
     0
  9
$DIMSOXD
 70
     0
  9
$DIMSAH
 70
     1
  9
$DIMBLK1
  1
OPEN
  9
$DIMBLK2
  1
OPEN
  9
$DIMSTYLE
  2
STANDARD
  9
$DIMCLRD
 70
     0
  9
$DIMCLRE
 70
     0
  9
$DIMCLRT
 70
     0
  9
$DIMTFAC
 40
1.0
  9
$DIMGAP
 40
1.0
  9
$DIMJUST
 70
     0
  9
$DIMSD1
 70
     0
  9
$DIMSD2
 70
     0
  9
$DIMTOLJ
 70
     1
  9
$DIMTZIN
 70
     0
  9
$DIMALTZ
 70
     0
  9
$DIMALTTZ
 70
     0
  9
$DIMUPT
 70
     0
  9
$DIMDEC
 70
     4
  9
$DIMTDEC
 70
     4
  9
$DIMALTU
 70
     2
  9
$DIMALTTD
 70
     2
  9
$DIMTXSTY
  7
STANDARD
  9
$DIMAUNIT
 70
     0
  9
$DIMADEC
 70
     0
  9
$DIMALTRND
 40
0.0
  9
$DIMAZIN
 70
     0
  9
$DIMDSEP
 70
    46
  9
$DIMATFIT
 70
     3
  9
$DIMFRAC
 70
     0
  9
$DIMLDRBLK
  1
OPEN
  9
$DIMLUNIT
 70
     2
  9
$DIMLWD
 70
    -2
  9
$DIMLWE
 70
    -2
  9
$DIMTMOVE
 70
     0
  9
$LUNITS
 70
     2
  9
$LUPREC
 70
     4
  9
$SKETCHINC
 40
1.0
  9
$FILLETRAD
 40
9.0
  9
$AUNITS
 70
     0
  9
$AUPREC
 70
     2
  9
$MENU
  1
.
  9
$ELEVATION
 40
0.0
  9
$PELEVATION
 40
0.0
  9
$THICKNESS
 40
0.0
  9
$LIMCHECK
 70
     0
  9
$CHAMFERA
 40
10.0
  9
$CHAMFERB
 40
10.0
  9
$CHAMFERC
 40
0.0
  9
$CHAMFERD
 40
0.0
  9
$SKPOLY
 70
     0
  9
$TDCREATE
 40
2451301.575710648
  9
$TDUCREATE
 40
2451301.200710648
  9
$TDUPDATE
 40
2457192.687800799
  9
$TDUUPDATE
 40
2457192.312800799
  9
$TDINDWG
 40
0.0000111690
  9
$TDUSRTIMER
 40
0.0000108681
  9
$USRTIMER
 70
     1
  9
$ANGBASE
 50
0.0
  9
$ANGDIR
 70
     0
  9
$PDMODE
 70
     0
  9
$PDSIZE
 40
0.0
  9
$PLINEWID
 40
0.0
  9
$SPLFRAME
 70
     0
  9
$SPLINETYPE
 70
     6
  9
$SPLINESEGS
 70
     8
  9
$HANDSEED
  5
BD57
  9
$SURFTAB1
 70
     6
  9
$SURFTAB2
 70
     6
  9
$SURFTYPE
 70
     6
  9
$SURFU
 70
     6
  9
$SURFV
 70
     6
  9
$UCSBASE
  2

  9
$UCSNAME
  2

  9
$UCSORG
 10
0.0
 20
0.0
 30
0.0
  9
$UCSXDIR
 10
1.0
 20
0.0
 30
0.0
  9
$UCSYDIR
 10
0.0
 20
1.0
 30
0.0
  9
$UCSORTHOREF
  2

  9
$UCSORTHOVIEW
 70
     0
  9
$UCSORGTOP
 10
0.0
 20
0.0
 30
0.0
  9
$UCSORGBOTTOM
 10
0.0
 20
0.0
 30
0.0
  9
$UCSORGLEFT
 10
0.0
 20
0.0
 30
0.0
  9
$UCSORGRIGHT
 10
0.0
 20
0.0
 30
0.0
  9
$UCSORGFRONT
 10
0.0
 20
0.0
 30
0.0
  9
$UCSORGBACK
 10
0.0
 20
0.0
 30
0.0
  9
$PUCSBASE
  2

  9
$PUCSNAME
  2

  9
$PUCSORG
 10
0.0
 20
0.0
 30
0.0
  9
$PUCSXDIR
 10
1.0
 20
0.0
 30
0.0
  9
$PUCSYDIR
 10
0.0
 20
1.0
 30
0.0
  9
$PUCSORTHOREF
  2

  9
$PUCSORTHOVIEW
 70
     0
  9
$PUCSORGTOP
 10
0.0
 20
0.0
 30
0.0
  9
$PUCSORGBOTTOM
 10
0.0
 20
0.0
 30
0.0
  9
$PUCSORGLEFT
 10
0.0
 20
0.0
 30
0.0
  9
$PUCSORGRIGHT
 10
0.0
 20
0.0
 30
0.0
  9
$PUCSORGFRONT
 10
0.0
 20
0.0
 30
0.0
  9
$PUCSORGBACK
 10
0.0
 20
0.0
 30
0.0
  9
$USERI1
 70
     0
  9
$USERI2
 70
     0
  9
$USERI3
 70
     0
  9
$USERI4
 70
     0
  9
$USERI5
 70
     0
  9
$USERR1
 40
0.0
  9
$USERR2
 40
0.0
  9
$USERR3
 40
0.0
  9
$USERR4
 40
0.0
  9
$USERR5
 40
0.0
  9
$WORLDVIEW
 70
     1
  9
$SHADEDGE
 70
     3
  9
$SHADEDIF
 70
    70
  9
$TILEMODE
 70
     1
  9
$MAXACTVP
 70
    16
  9
$PINSBASE
 10
0.0
 20
0.0
 30
0.0
  9
$PLIMCHECK
 70
     0
  9
$PEXTMIN
 10
1.000000000000000E+20
 20
1.000000000000000E+20
 30
1.000000000000000E+20
  9
$PEXTMAX
 10
-1.000000000000000E+20
 20
-1.000000000000000E+20
 30
-1.000000000000000E+20
  9
$PLIMMIN
 10
0.0
 20
0.0
  9
$PLIMMAX
 10
420.0
 20
297.0
  9
$UNITMODE
 70
     0
  9
$VISRETAIN
 70
     0
  9
$PLINEGEN
 70
     0
  9
$PSLTSCALE
 70
     0
  9
$TREEDEPTH
 70
  3020
  9
$CMLSTYLE
  2
STANDARD
  9
$CMLJUST
 70
     0
  9
$CMLSCALE
 40
1.0
  9
$PROXYGRAPHICS
 70
     1
  9
$MEASUREMENT
 70
     0
  9
$CELWEIGHT
370
    -1
  9
$ENDCAPS
280
     0
  9
$JOINSTYLE
280
     0
  9
$LWDISPLAY
290
     0
  9
$INSUNITS
 70
     0
  9
$HYPERLINKBASE
  1

  9
$STYLESHEET
  1

  9
$XEDIT
290
     1
  9
$CEPSNTYPE
380
     0
  9
$PSTYLEMODE
290
     1
  9
$FINGERPRINTGUID
  2
{18FD9AB4-349D-4FB4-BC69-6758B4B70AA3}
  9
$VERSIONGUID
  2
{1A95D714-D3E3-44CC-8BA0-BDC81588A208}
  9
$EXTNAMES
290
     1
  9
$PSVPSCALE
 40
0.0
  9
$OLESTARTUP
290
     0
  0
ENDSEC
  0
SECTION
  2
CLASSES
  0
CLASS
  1
ACDBDICTIONARYWDFLT
  2
AcDbDictionaryWithDefault
  3
ObjectDBX Classes
 90
        0
280
     0
281
     0
  0
CLASS
  1
ACDBPLACEHOLDER
  2
AcDbPlaceHolder
  3
ObjectDBX Classes
 90
        0
280
     0
281
     0
  0
CLASS
  1
LAYOUT
  2
AcDbLayout
  3
ObjectDBX Classes
 90
        0
280
     0
281
     0
  0
CLASS
  1
DICTIONARYVAR
  2
AcDbDictionaryVar
  3
ObjectDBX Classes
 90
        0
280
     0
281
     0
  0
CLASS
  1
MATERIAL
  2
AcDbMaterial
  3
ObjectDBX Classes
 90
     1153
280
     0
281
     0
  0
CLASS
  1
VISUALSTYLE
  2
AcDbVisualStyle
  3
ObjectDBX Classes
 90
     4095
280
     0
281
     0
  0
CLASS
  1
TABLESTYLE
  2
AcDbTableStyle
  3
ObjectDBX Classes
 90
     4095
280
     0
281
     0
  0
CLASS
  1
SCALE
  2
AcDbScale
  3
ObjectDBX Classes
 90
     1153
280
     0
281
     0
  0
CLASS
  1
MLEADERSTYLE
  2
AcDbMLeaderStyle
  3
ACDB_MLEADERSTYLE_CLASS
 90
     4095
280
     0
281
     0
  0
CLASS
  1
ACDBSECTIONVIEWSTYLE
  2
AcDbSectionViewStyle
  3
ObjectDBX Classes
 90
     1025
280
     0
281
     0
  0
CLASS
  1
ACDBDETAILVIEWSTYLE
  2
AcDbDetailViewStyle
  3
ObjectDBX Classes
 90
     1025
280
     0
281
     0
  0
CLASS
  1
CELLSTYLEMAP
  2
AcDbCellStyleMap
  3
ObjectDBX Classes
 90
     1152
280
     0
281
     0
  0
ENDSEC
  0
SECTION
  2
TABLES
  0
TABLE
  2
VPORT
  5
B973
330
0
100
AcDbSymbolTable
 70
     1
  0
VPORT
  5
BCA0
330
B973
100
AcDbSymbolTableRecord
100
AcDbViewportTableRecord
  2
*ACTIVE
 70
     0
 10
0.0
 20
0.0
 11
1.0
 21
1.0
 12
407.1658031404324
 22
228.6493653379245
 13
0.0
 23
0.0
 14
10.0
 24
10.0
 15
10.0
 25
10.0
 16
0.0
 26
0.0
 36
1.0
 17
0.0
 27
0.0
 37
0.0
 40
442.1905737300583
 41
2.35006605019815
 42
50.0
 43
0.0
 44
0.0
 50
0.0
 51
0.0
 71
     0
 72
   100
 73
     1
 74
     0
 75
     0
 76
     0
 77
     0
 78
     0
281
     0
 65
     1
110
0.0
120
0.0
130
0.0
111
1.0
121
0.0
131
0.0
112
0.0
122
1.0
132
0.0
 79
     0
146
0.0
1001
ACAD_NAV_VCDISPLAY
1070
     3
  0
ENDTAB
  0
TABLE
  2
LTYPE
  5
B970
330
0
100
AcDbSymbolTable
 70
     4
  0
LTYPE
  5
B97E
330
B970
100
AcDbSymbolTableRecord
100
AcDbLinetypeTableRecord
  2
BYBLOCK
 70
     0
  3

 72
    65
 73
     0
 40
0.0
  0
LTYPE
  5
B97F
330
B970
100
AcDbSymbolTableRecord
100
AcDbLinetypeTableRecord
  2
BYLAYER
 70
     0
  3

 72
    65
 73
     0
 40
0.0
  0
LTYPE
  5
B980
330
B970
100
AcDbSymbolTableRecord
100
AcDbLinetypeTableRecord
  2
CONTINUOUS
 70
     0
  3
Solid line
 72
    65
 73
     0
 40
0.0
  0
LTYPE
  5
B98E
330
B970
100
AcDbSymbolTableRecord
100
AcDbLinetypeTableRecord
  2
DASHED
 70
     0
  3
__ __ __ __ __ __ __ __ __ __ __ __ __ __ __ __
 72
    65
 73
     2
 40
0.75
 49
0.5
 74
     0
 49
-0.25
 74
     0
  0
LTYPE
  5
B98F
330
B970
100
AcDbSymbolTableRecord
100
AcDbLinetypeTableRecord
  2
CENTER
 70
     0
  3
____ _ ____ _ ____ _ ____ _ ____ _ ____ _ ____ 
 72
    65
 73
     4
 40
2.0
 49
1.25
 74
     0
 49
-0.25
 74
     0
 49
0.25
 74
     0
 49
-0.25
 74
     0
  0
LTYPE
  5
B990
330
B970
100
AcDbSymbolTableRecord
100
AcDbLinetypeTableRecord
  2
PHANTOM
 70
     0
  3
______  __  __  ______  __  __  ______  __  __ 
 72
    65
 73
     6
 40
2.5
 49
1.25
 74
     0
 49
-0.25
 74
     0
 49
0.25
 74
     0
 49
-0.25
 74
     0
 49
0.25
 74
     0
 49
-0.25
 74
     0
  0
ENDTAB
  0
TABLE
  2
LAYER
  5
B96D
330
0
100
AcDbSymbolTable
 70
     8
  0
LAYER
  5
B97B
102
{ACAD_XDICTIONARY
360
BCFB
102
}
330
B96D
100
AcDbSymbolTableRecord
100
AcDbLayerTableRecord
  2
0
 70
     0
 62
     7
  6
CONTINUOUS
370
    -3
390
BCA9
  0
LAYER
  5
B991
102
{ACAD_XDICTIONARY
360
BCFD
102
}
330
B96D
100
AcDbSymbolTableRecord
100
AcDbLayerTableRecord
  2
4
 70
     0
 62
     1
  6
CENTER
370
    -3
390
BCA9
  0
LAYER
  5
B992
102
{ACAD_XDICTIONARY
360
BCFF
102
}
330
B96D
100
AcDbSymbolTableRecord
100
AcDbLayerTableRecord
  2
5
 70
     0
 62
     6
  6
PHANTOM
370
    -3
390
BCA9
  0
LAYER
  5
B993
102
{ACAD_XDICTIONARY
360
BD01
102
}
330
B96D
100
AcDbSymbolTableRecord
100
AcDbLayerTableRecord
  2
1
 70
     0
 62
     7
  6
CONTINUOUS
370
    -3
390
BCA9
  0
LAYER
  5
B994
102
{ACAD_XDICTIONARY
360
BD03
102
}
330
B96D
100
AcDbSymbolTableRecord
100
AcDbLayerTableRecord
  2
2
 70
     0
 62
     4
  6
CONTINUOUS
370
    -3
390
BCA9
  0
LAYER
  5
B995
102
{ACAD_XDICTIONARY
360
BD05
102
}
330
B96D
100
AcDbSymbolTableRecord
100
AcDbLayerTableRecord
  2
3
 70
     0
 62
     2
  6
DASHED
370
    -3
390
BCA9
  0
LAYER
  5
B996
102
{ACAD_XDICTIONARY
360
BD07
102
}
330
B96D
100
AcDbSymbolTableRecord
100
AcDbLayerTableRecord
  2
6
 70
     0
 62
     5
  6
CONTINUOUS
370
    -3
390
BCA9
  0
LAYER
  5
B997
102
{ACAD_XDICTIONARY
360
BD09
102
}
330
B96D
100
AcDbSymbolTableRecord
100
AcDbLayerTableRecord
  2
7
 70
     0
 62
     3
  6
CONTINUOUS
370
    -3
390
BCA9
  0
ENDTAB
  0
TABLE
  2
STYLE
  5
B96E
330
0
100
AcDbSymbolTable
 70
     1
  0
STYLE
  5
B97C
330
B96E
100
AcDbSymbolTableRecord
100
AcDbTextStyleTableRecord
  2
STANDARD
 70
     0
 40
0.0
 41
1.0
 50
0.0
 71
     0
 42
5.0
  3
txt
  4

  0
ENDTAB
  0
TABLE
  2
VIEW
  5
B971
330
0
100
AcDbSymbolTable
 70
     0
  0
ENDTAB
  0
TABLE
  2
UCS
  5
B972
330
0
100
AcDbSymbolTable
 70
     0
  0
ENDTAB
  0
TABLE
  2
APPID
  5
B974
330
0
100
AcDbSymbolTable
 70
     3
  0
APPID
  5
B97D
330
B974
100
AcDbSymbolTableRecord
100
AcDbRegAppTableRecord
  2
ACAD
 70
     0
  0
APPID
  5
BD15
330
B974
100
AcDbSymbolTableRecord
100
AcDbRegAppTableRecord
  2
ACAD_NAV_VCDISPLAY
 70
     0
  0
APPID
  5
BD4E
330
B974
100
AcDbSymbolTableRecord
100
AcDbRegAppTableRecord
  2
ACAD_MLEADERVER
 70
     0
  0
ENDTAB
  0
TABLE
  2
DIMSTYLE
  5
B975
330
0
100
AcDbSymbolTable
 70
     1
100
AcDbDimStyleTable
 71
     0
  0
DIMSTYLE
105
B999
330
B975
100
AcDbSymbolTableRecord
100
AcDbDimStyleTableRecord
  2
STANDARD
 70
     0
 41
3.0
 42
1.0
 43
10.0
 44
1.0
 73
     0
 74
     0
 77
     3
 78
     8
140
3.2
141
0.0
147
1.0
172
     1
173
     1
284
     8
285
     8
286
     8
340
B97C
  0
ENDTAB
  0
TABLE
  2
BLOCK_RECORD
  5
B96C
330
0
100
AcDbSymbolTable
 70
     1
  0
BLOCK_RECORD
  5
B989
102
{ACAD_XDICTIONARY
360
BCA3
102
}
330
B96C
100
AcDbSymbolTableRecord
100
AcDbBlockTableRecord
  2
*MODEL_SPACE
340
BCF7
  0
BLOCK_RECORD
  5
B985
102
{ACAD_XDICTIONARY
360
BCA1
102
}
330
B96C
100
AcDbSymbolTableRecord
100
AcDbBlockTableRecord
  2
*PAPER_SPACE
340
BCF8
  0
BLOCK_RECORD
  5
B9A1
330
B96C
100
AcDbSymbolTableRecord
100
AcDbBlockTableRecord
  2
_OPEN
340
0
  0
ENDTAB
  0
ENDSEC
  0
SECTION
  2
BLOCKS
  0
BLOCK
  5
B98A
330
B989
100
AcDbEntity
  8
0
100
AcDbBlockBegin
  2
*MODEL_SPACE
 70
     0
 10
0.0
 20
0.0
 30
0.0
  3
*MODEL_SPACE
  1

  0
ENDBLK
  5
B98B
330
B989
100
AcDbEntity
  8
0
100
AcDbBlockEnd
  0
BLOCK
  5
B986
330
B985
100
AcDbEntity
 67
     1
  8
0
100
AcDbBlockBegin
  2
*PAPER_SPACE
 70
     0
 10
0.0
 20
0.0
 30
0.0
  3
*PAPER_SPACE
  1

  0
ENDBLK
  5
B987
330
B985
100
AcDbEntity
 67
     1
  8
0
100
AcDbBlockEnd
  0
BLOCK
  5
B9A2
330
B9A1
100
AcDbEntity
  8
0
100
AcDbBlockBegin
  2
_OPEN
 70
     0
 10
0.0
 20
0.0
 30
0.0
  3
_OPEN
  1

  0
LINE
  5
B9A3
330
B9A1
100
AcDbEntity
  8
0
  6
ByBlock
 62
     0
100
AcDbLine
 10
-1.0
 20
0.166667
 30
0.0
 11
0.0
 21
0.0
 31
0.0
  0
LINE
  5
B9A4
330
B9A1
100
AcDbEntity
  8
0
  6
ByBlock
 62
     0
100
AcDbLine
 10
0.0
 20
0.0
 30
0.0
 11
-1.0
 21
-0.166667
 31
0.0
  0
LINE
  5
B9A5
330
B9A1
100
AcDbEntity
  8
0
  6
ByBlock
 62
     0
100
AcDbLine
 10
0.0
 20
0.0
 30
0.0
 11
-1.0
 21
0.0
 31
0.0
  0
ENDBLK
  5
B9A6
330
B9A1
100
AcDbEntity
  8
0
100
AcDbBlockEnd
  0
ENDSEC
  0
SECTION
  2
ENTITIES
  0
TEXT
  5
B9A7
330
B989
100
AcDbEntity
  8
7
  6
Continuous
100
AcDbText
 10
10.0
 20
18.0
 30
0.0
 40
3.0
  1
TYPE No.207 d=19
100
AcDbText
  0
TEXT
  5
B9A8
330
B989
100
AcDbEntity
  8
7
  6
Continuous
100
AcDbText
 10
10.0
 20
26.0
 30
0.0
 40
3.0
  1
CODE No.9167
100
AcDbText
  0
TEXT
  5
B9A9
330
B989
100
AcDbEntity
  8
1
  6
Continuous
100
AcDbText
 10
10.0
 20
10.0
 30
0.0
 40
1.399999999999999
  1
LAYER
100
AcDbText
  0
TEXT
  5
B9AA
330
B989
100
AcDbEntity
  8
1
  6
Continuous
100
AcDbText
 10
17.97951099999998
 20
10.04873699999998
 30
0.0
 40
1.399999999999999
  1
1
100
AcDbText
  0
TEXT
  5
B9AB
330
B989
100
AcDbEntity
  8
7
  6
Continuous
100
AcDbText
 10
29.97951099999999
 20
10.04873699999998
 30
0.0
 40
1.399999999999999
  1
7
100
AcDbText
  0
TEXT
  5
B9AC
330
B989
100
AcDbEntity
  8
4
  6
CENTER
100
AcDbText
 10
23.97951099999999
 20
10.04873699999998
 30
0.0
 40
1.399999999999999
  1
4
100
AcDbText
  0
TEXT
  5
B9AD
330
B989
100
AcDbEntity
  8
3
  6
DASHED
100
AcDbText
 10
21.979511
 20
10.04873699999998
 30
0.0
 40
1.399999999999999
  1
3
100
AcDbText
  0
TEXT
  5
B9AE
330
B989
100
AcDbEntity
  8
2
  6
Continuous
100
AcDbText
 10
19.97951099999999
 20
10.04873699999998
 30
0.0
 40
1.399999999999999
  1
2
100
AcDbText
  0
TEXT
  5
B9AF
330
B989
100
AcDbEntity
  8
6
  6
Continuous
100
AcDbText
 10
27.979511
 20
10.04873699999998
 30
0.0
 40
1.399999999999999
  1
6
100
AcDbText
  0
TEXT
  5
B9B0
330
B989
100
AcDbEntity
  8
5
  6
PHANTOM
100
AcDbText
 10
25.97951099999999
 20
10.04873699999998
 30
0.0
 40
1.399999999999999
  1
5
100
AcDbText
  0
LINE
  5
B9B1
330
B989
100
AcDbEntity
  8
1
  6
Continuous
100
AcDbLine
 10
250.507768
 20
259.144544
 30
0.0
 11
244.853411
 21
258.6456549999999
 31
0.0
  0
ARC
  5
B9B2
330
B989
100
AcDbEntity
  8
1
  6
Continuous
100
AcDbCircle
 10
245.117864
 20
264.464311
 30
0.0
 40
7.172999999999999
100
AcDbArc
 50
16.056676
 51
21.632539
  0
LINE
  5
B9B3
330
B989
100
AcDbEntity
  8
1
  6
Continuous
100
AcDbLine
 10
309.82296
 20
269.127968
 30
0.0
 11
363.1951599999999
 21
269.127968
 31
0.0
  0
LINE
  5
B9B4
330
B989
100
AcDbEntity
  8
1
  6
Continuous
100
AcDbLine
 10
248.8110349999999
 20
269.1289680000001
 30
0.0
 11
200.3610349999999
 21
269.1289680000001
 31
0.0
  0
ARC
  5
B9B5
330
B989
100
AcDbEntity
  8
1
  6
Continuous
100
AcDbCircle
 10
248.8110349999999
 20
265.928968
 30
0.0
 40
3.2
100
AcDbArc
 50
21.59414599999999
 51
90.0
  0
LINE
  5
B9B6
330
B989
100
AcDbEntity
  8
1
  6
Continuous
100
AcDbLine
 10
251.272135
 20
269.1289569999999
 30
0.0
 11
197.899935
 21
269.1289569999999
 31
0.0
  0
LINE
  5
B9B7
330
B989
100
AcDbEntity
  8
1
  6
Continuous
100
AcDbLine
 10
309.08406
 20
265.927968
 30
0.0
 11
309.08406
 21
228.525321
 31
0.0
  0
LINE
  5
B9B8
330
B989
100
AcDbEntity
  8
1
  6
Continuous
100
AcDbLine
 10
363.93406
 20
265.927968
 30
0.0
 11
363.93406
 21
226.04733
 31
0.0
  0
ARC
  5
B9B9
330
B989
100
AcDbEntity
  8
1
  6
Continuous
100
AcDbCircle
 10
312.2840599999999
 20
265.927968
 30
0.0
 40
3.2
100
AcDbArc
 50
90.0
 51
180.0
  0
ARC
  5
B9BA
330
B989
100
AcDbEntity
  8
1
  6
Continuous
100
AcDbCircle
 10
360.73406
 20
265.927968
 30
0.0
 40
3.2
100
AcDbArc
 50
0.0
 51
90.0
  0
LINE
  5
B9BB
330
B989
100
AcDbEntity
  8
1
  6
Continuous
100
AcDbLine
 10
352.3262599999998
 20
194.9438629999999
 30
0.0
 11
354.9262689999998
 21
194.9438629999999
 31
0.0
  0
LINE
  5
B9BC
330
B989
100
AcDbEntity
  8
1
  6
Continuous
100
AcDbLine
 10
327.962153
 20
259.24496
 30
0.0
 11
345.055966
 21
259.24496
 31
0.0
  0
ARC
  5
B9BD
330
B989
100
AcDbEntity
  8
1
  6
Continuous
100
AcDbCircle
 10
349.6692009999999
 20
226.04733
 30
0.0
 40
40.585141
100
AcDbArc
 50
127.58973
 51
178.2037629999999
  0
ARC
  5
B9BE
330
B989
100
AcDbEntity
  8
1
  6
Continuous
100
AcDbCircle
 10
327.962153
 20
254.2449599999999
 30
0.0
 40
5.0
100
AcDbArc
 50
90.0
 51
127.58973
  0
ARC
  5
B9BF
330
B989
100
AcDbEntity
  8
1
  6
Continuous
100
AcDbCircle
 10
350.9088929999998
 20
227.915635
 30
0.0
 40
39.224834
100
AcDbArc
 50
127.1210199999998
 51
179.538277
  0
ARC
  5
B9C0
330
B989
100
AcDbEntity
  8
1
  6
Continuous
100
AcDbCircle
 10
323.3489189999999
 20
226.04733
 30
0.0
 40
40.585141
100
AcDbArc
 50
4.655269999999998
 51
52.41027
  0
ARC
  5
B9C1
330
B989
100
AcDbEntity
  8
1
  6
Continuous
100
AcDbCircle
 10
345.055966
 20
254.2449599999999
 30
0.0
 40
5.0
100
AcDbArc
 50
52.41027
 51
90.0
  0
ARC
  5
B9C2
330
B989
100
AcDbEntity
  8
1
  6
Continuous
100
AcDbCircle
 10
322.1092259999999
 20
227.915635
 30
0.0
 40
39.224834
100
AcDbArc
 50
0.4616360000000002
 51
52.87898000000001
  0
ARC
  5
B9C3
330
B989
100
AcDbEntity
  8
1
  6
Continuous
100
AcDbCircle
 10
191.5864479999999
 20
206.4441629999998
 30
0.0
 40
50.0
100
AcDbArc
 50
85.14298000000001
 51
32.458048
  0
ARC
  5
B9C4
330
B989
100
AcDbEntity
  8
1
  6
Continuous
100
AcDbCircle
 10
191.5864479999999
 20
206.4441629999998
 30
0.0
 40
41.0
100
AcDbArc
 50
84.369753
 51
26.174034
  0
ARC
  5
B9C5
330
B989
100
AcDbEntity
  8
1
  6
Continuous
100
AcDbCircle
 10
336.509069
 20
186.443867
 30
0.0
 40
30.0
100
AcDbArc
 50
256.1134599999999
 51
283.8865399999999
  0
LINE
  5
B9C6
330
B989
100
AcDbEntity
  8
1
  6
Continuous
100
AcDbLine
 10
325.509069
 20
250.713189
 30
0.0
 11
325.509069
 21
162.1745449999998
 31
0.0
  0
ARC
  5
B9C7
330
B989
100
AcDbEntity
  8
1
  6
Continuous
100
AcDbCircle
 10
336.509069
 20
226.443867
 30
0.0
 40
30.0
100
AcDbArc
 50
76.11346000000001
 51
83.12595700000001
  0
LINE
  5
B9C8
330
B989
100
AcDbEntity
  8
1
  6
Continuous
100
AcDbLine
 10
347.509069
 20
250.713189
 30
0.0
 11
347.509069
 21
162.1745449999998
 31
0.0
  0
LINE
  5
B9C9
330
B989
100
AcDbEntity
  8
1
  6
Continuous
100
AcDbLine
 10
203.380718
 20
264.8758149999998
 30
0.0
 11
203.380718
 21
220.880896
 31
0.0
  0
LINE
  5
B9CA
330
B989
100
AcDbEntity
  8
4
  6
CENTER
100
AcDbLine
 10
133.5864479999999
 20
206.4271629999999
 30
0.0
 11
248.816658
 21
206.4441629999998
 31
0.0
  0
LINE
  5
B9CB
330
B989
100
AcDbEntity
  8
4
  6
CENTER
100
AcDbLine
 10
191.5864479999999
 20
148.3371629999998
 30
0.0
 11
191.5864479999999
 21
258.001771
 31
0.0
  0
LINE
  5
B9CC
330
B989
100
AcDbEntity
  8
4
  6
CENTER
100
AcDbLine
 10
224.586035
 20
235.4709539999999
 30
0.0
 11
224.586035
 21
335.4446299999999
 31
0.0
  0
LINE
  5
B9CD
330
B989
100
AcDbEntity
  8
4
  6
CENTER
100
AcDbLine
 10
257.0110349999998
 20
414.8784489999998
 30
0.0
 11
136.586035
 21
414.8784489999998
 31
0.0
  0
LINE
  5
B9CE
330
B989
100
AcDbEntity
  8
4
  6
CENTER
100
AcDbLine
 10
224.586035
 20
382.4534489999999
 30
0.0
 11
224.586035
 21
447.3034489999998
 31
0.0
  0
LINE
  5
B9CF
330
B989
100
AcDbEntity
  8
4
  6
CENTER
100
AcDbLine
 10
336.5090599999998
 20
335.4436299999999
 30
0.0
 11
336.5090599999998
 21
148.4438669999998
 31
0.0
  0
LINE
  5
B9D0
330
B989
100
AcDbEntity
  8
1
  6
Continuous
100
AcDbLine
 10
320.69186
 20
194.9438629999999
 30
0.0
 11
318.1588509999999
 21
194.9438629999999
 31
0.0
  0
LINE
  5
B9D1
330
B989
100
AcDbEntity
  8
1
  6
Continuous
100
AcDbLine
 10
320.69186
 20
252.9260029999999
 30
0.0
 11
320.69186
 21
194.9438629999999
 31
0.0
  0
LINE
  5
B9D2
330
B989
100
AcDbEntity
  8
1
  6
Continuous
100
AcDbLine
 10
352.3262599999998
 20
252.926002
 30
0.0
 11
352.3262599999998
 21
194.9438629999999
 31
0.0
  0
ARC
  5
B9D3
330
B989
100
AcDbEntity
  8
1
  6
Continuous
100
AcDbCircle
 10
191.5878779999999
 20
206.094166
 30
0.0
 40
11.14999999999999
100
AcDbArc
 50
144.5269859999999
 51
300.109962
  0
ARC
  5
B9D4
330
B989
100
AcDbEntity
  8
1
  6
Continuous
100
AcDbCircle
 10
181.4622139999999
 20
254.0366169999999
 30
0.0
 40
14.529548
100
AcDbArc
 50
359.3096679999999
 51
41.61228499999999
  0
LINE
  5
B9D5
330
B989
100
AcDbEntity
  8
1
  6
Continuous
100
AcDbLine
 10
192.3253129999999
 20
263.685495
 30
0.0
 11
191.5883819999999
 21
266.204001
 31
0.0
  0
ARC
  5
B9D6
330
B989
100
AcDbEntity
  8
1
  6
Continuous
100
AcDbCircle
 10
183.746176
 20
263.5999749999999
 30
0.0
 40
5.267126
100
AcDbArc
 50
2.768558
 51
15.576486
  0
ARC
  5
B9D7
330
B989
100
AcDbEntity
  8
1
  6
Continuous
100
AcDbCircle
 10
192.5528429999999
 20
534.547265
 30
0.0
 40
270.861866
100
AcDbArc
 50
269.329835
 51
269.95187
  0
ARC
  5
B9D8
330
B989
100
AcDbEntity
  8
1
  6
Continuous
100
AcDbCircle
 10
189.391374
 20
264.2695939999999
 30
0.0
 40
0.565705
100
AcDbArc
 50
227.219834
 51
269.329835
  0
ARC
  5
B9D9
330
B989
100
AcDbEntity
  8
1
  6
Continuous
100
AcDbCircle
 10
194.983895
 20
265.1756279999998
 30
0.0
 40
6.166148999999997
100
AcDbArc
 50
174.1216709999999
 51
181.498972
  0
ARC
  5
B9DA
330
B989
100
AcDbEntity
  8
1
  6
Continuous
100
AcDbCircle
 10
189.104413
 20
265.6806889999999
 30
0.0
 40
0.283955
100
AcDbArc
 50
112.4266129999999
 51
153.555477
  0
ARC
  5
B9DB
330
B989
100
AcDbEntity
  8
1
  6
Continuous
100
AcDbCircle
 10
190.4158669999999
 20
262.503052
 30
0.0
 40
3.721582999999998
100
AcDbArc
 50
88.727417
 51
112.4266129999999
  0
ARC
  5
B9DC
330
B989
100
AcDbEntity
  8
1
  6
Continuous
100
AcDbCircle
 10
245.057491
 20
256.332641
 30
0.0
 40
2.322
100
AcDbArc
 50
95.042199
 51
166.6951479999999
  0
ARC
  5
B9DD
330
B989
100
AcDbEntity
  8
1
  6
Continuous
100
AcDbCircle
 10
196.1450389999999
 20
267.4081259999999
 30
0.0
 40
1.189
100
AcDbArc
 50
271.184952
 51
5.074886
  0
ARC
  5
B9DE
330
B989
100
AcDbEntity
  8
1
  6
Continuous
100
AcDbCircle
 10
193.4351679999998
 20
398.419323
 30
0.0
 40
132.2282199999999
100
AcDbArc
 50
268.727417
 51
273.9593529999999
  0
LINE
  5
B9DF
330
B989
100
AcDbEntity
  8
1
  6
Continuous
100
AcDbLine
 10
192.3253129999999
 20
263.685495
 30
0.0
 11
191.5883819999999
 21
266.204001
 31
0.0
  0
ARC
  5
B9E0
330
B989
100
AcDbEntity
  8
1
  6
Continuous
100
AcDbCircle
 10
183.746176
 20
263.5999749999999
 30
0.0
 40
5.267126
100
AcDbArc
 50
2.768558
 51
15.576486
  0
ARC
  5
B9E1
330
B989
100
AcDbEntity
  8
1
  6
Continuous
100
AcDbCircle
 10
192.5528429999999
 20
534.547265
 30
0.0
 40
270.861866
100
AcDbArc
 50
269.329835
 51
269.95187
  0
ARC
  5
B9E2
330
B989
100
AcDbEntity
  8
1
  6
Continuous
100
AcDbCircle
 10
189.391374
 20
264.2695939999999
 30
0.0
 40
0.565705
100
AcDbArc
 50
227.219834
 51
269.329835
  0
ARC
  5
B9E3
330
B989
100
AcDbEntity
  8
1
  6
Continuous
100
AcDbCircle
 10
194.983895
 20
265.1756279999998
 30
0.0
 40
6.166148999999997
100
AcDbArc
 50
174.1216709999999
 51
181.498972
  0
ARC
  5
B9E4
330
B989
100
AcDbEntity
  8
1
  6
Continuous
100
AcDbCircle
 10
189.104413
 20
265.6806889999999
 30
0.0
 40
0.283955
100
AcDbArc
 50
112.4266129999999
 51
153.555477
  0
ARC
  5
B9E5
330
B989
100
AcDbEntity
  8
1
  6
Continuous
100
AcDbCircle
 10
190.4158669999999
 20
262.503052
 30
0.0
 40
3.721582999999998
100
AcDbArc
 50
88.727417
 51
112.4266129999999
  0
ARC
  5
B9E6
330
B989
100
AcDbEntity
  8
1
  6
Continuous
100
AcDbCircle
 10
200.1180199999998
 20
265.9437549999998
 30
0.0
 40
3.2
100
AcDbArc
 50
90.23407699999998
 51
150.627636
  0
ARC
  5
B9E7
330
B989
100
AcDbEntity
  8
1
  6
Continuous
100
AcDbCircle
 10
200.1948669999999
 20
266.7600759999999
 30
0.0
 40
2.383999999999999
100
AcDbArc
 50
353.8988339999999
 51
90.23407699999998
  0
ARC
  5
B9E8
330
B989
100
AcDbEntity
  8
1
  6
Continuous
100
AcDbCircle
 10
342.509069
 20
250.713189
 30
0.0
 40
5.0
100
AcDbArc
 50
0.0
 51
76.11346000000001
  0
ARC
  5
B9E9
330
B989
100
AcDbEntity
  8
1
  6
Continuous
100
AcDbCircle
 10
330.509069
 20
250.713189
 30
0.0
 40
5.0
100
AcDbArc
 50
103.8865399999999
 51
180.0
  0
ARC
  5
B9EA
330
B989
100
AcDbEntity
  8
1
  6
Continuous
100
AcDbCircle
 10
342.509069
 20
162.1745449999998
 30
0.0
 40
5.0
100
AcDbArc
 50
283.8865399999999
 51
0.0
  0
ARC
  5
B9EB
330
B989
100
AcDbEntity
  8
1
  6
Continuous
100
AcDbCircle
 10
330.509069
 20
162.1745449999998
 30
0.0
 40
5.0
100
AcDbArc
 50
180.0
 51
256.1134599999999
  0
LINE
  5
B9EC
330
B989
100
AcDbEntity
  8
4
  6
CENTER
100
AcDbLine
 10
57.121566
 20
335.4266509999998
 30
0.0
 11
57.121566
 21
148.426377
 31
0.0
  0
LINE
  5
B9ED
330
B989
100
AcDbEntity
  8
1
  6
Continuous
100
AcDbLine
 10
68.121566
 20
162.157055
 30
0.0
 11
68.121566
 21
250.6956989999999
 31
0.0
  0
LINE
  5
B9EE
330
B989
100
AcDbEntity
  8
1
  6
Continuous
100
AcDbLine
 10
46.12156599999997
 20
162.157055
 30
0.0
 11
46.12156599999997
 21
250.6956989999999
 31
0.0
  0
LINE
  5
B9EF
330
B989
100
AcDbEntity
  8
4
  6
CENTER
100
AcDbLine
 10
29.971999
 20
206.426377
 30
0.0
 11
87.64230600000002
 21
206.426377
 31
0.0
  0
ARC
  5
B9F0
330
B989
100
AcDbEntity
  8
1
  6
Continuous
100
AcDbCircle
 10
61.25942099999999
 20
210.4439839999999
 30
0.0
 40
19.0
100
AcDbArc
 50
142.818892
 51
165.4165309999999
  0
ARC
  5
B9F1
330
B989
100
AcDbEntity
  8
1
  6
Continuous
100
AcDbCircle
 10
61.25942099999999
 20
202.4087689999999
 30
0.0
 40
19.0
100
AcDbArc
 50
194.583469
 51
217.1811079999999
  0
LINE
  5
B9F2
330
B989
100
AcDbEntity
  8
1
  6
Continuous
100
AcDbLine
 10
42.20434
 20
266.2639919999999
 30
0.0
 11
72.038775
 21
266.2639919999999
 31
0.0
  0
LINE
  5
B9F3
330
B989
100
AcDbEntity
  8
1
  6
Continuous
100
AcDbLine
 10
30.43546599999999
 20
269.0929779999998
 30
0.0
 11
83.80766599999999
 21
269.0929779999998
 31
0.0
  0
LINE
  5
B9F4
330
B989
100
AcDbEntity
  8
1
  6
Continuous
100
AcDbLine
 10
42.20434
 20
263.6639919999999
 30
0.0
 11
72.038775
 21
263.6639919999999
 31
0.0
  0
LINE
  5
B9F5
330
B989
100
AcDbEntity
  8
1
  6
Continuous
100
AcDbLine
 10
38.70434
 20
262.7639919999999
 30
0.0
 11
38.70434
 21
194.926373
 31
0.0
  0
LINE
  5
B9F6
330
B989
100
AcDbEntity
  8
1
  6
Continuous
100
AcDbLine
 10
41.30434
 20
262.7639919999999
 30
0.0
 11
41.30434
 21
194.926373
 31
0.0
  0
LINE
  5
B9F7
330
B989
100
AcDbEntity
  8
1
  6
Continuous
100
AcDbLine
 10
29.696566
 20
265.8929779999999
 30
0.0
 11
29.696566
 21
228.506141
 31
0.0
  0
ARC
  5
B9F8
330
B989
100
AcDbEntity
  8
1
  6
Continuous
100
AcDbCircle
 10
66.162603
 20
228.506141
 30
0.0
 40
36.466037
100
AcDbArc
 50
180.0
 51
209.7374579999999
  0
LINE
  5
B9F9
330
B989
100
AcDbEntity
  8
1
  6
Continuous
100
AcDbLine
 10
42.87156599999997
 20
215.2279969999999
 30
0.0
 11
42.87156599999997
 21
197.624756
 31
0.0
  0
LINE
  5
B9FA
330
B989
100
AcDbEntity
  8
1
  6
Continuous
100
AcDbLine
 10
41.87156599999997
 20
213.9263759999999
 30
0.0
 11
41.87156599999997
 21
198.9263769999998
 31
0.0
  0
LINE
  5
B9FB
330
B989
100
AcDbEntity
  8
1
  6
Continuous
100
AcDbLine
 10
38.70434
 20
194.926373
 30
0.0
 11
41.30434
 21
194.926373
 31
0.0
  0
ARC
  5
B9FC
330
B989
100
AcDbEntity
  8
1
  6
Continuous
100
AcDbCircle
 10
43.81786599999998
 20
199.38672
 30
0.0
 40
2.0
100
AcDbArc
 50
193.3071809999999
 51
241.761033
  0
LINE
  5
B9FD
330
B989
100
AcDbEntity
  8
1
  6
Continuous
100
AcDbLine
 10
41.62156599999997
 20
200.926377
 30
0.0
 11
41.62156599999997
 21
211.9263769999998
 31
0.0
  0
LINE
  5
B9FE
330
B989
100
AcDbEntity
  8
1
  6
Continuous
100
AcDbLine
 10
41.30434
 20
202.426377
 30
0.0
 11
41.62156599999997
 21
202.426377
 31
0.0
  0
LINE
  5
B9FF
330
B989
100
AcDbEntity
  8
1
  6
Continuous
100
AcDbLine
 10
41.62156599999997
 20
200.926377
 30
0.0
 11
41.87156599999997
 21
200.926377
 31
0.0
  0
LINE
  5
BA00
330
B989
100
AcDbEntity
  8
1
  6
Continuous
100
AcDbLine
 10
41.30434
 20
210.426377
 30
0.0
 11
41.62156599999997
 21
210.426377
 31
0.0
  0
LINE
  5
BA01
330
B989
100
AcDbEntity
  8
1
  6
Continuous
100
AcDbLine
 10
41.62156599999997
 20
211.9263769999998
 30
0.0
 11
41.87156599999997
 21
211.9263769999998
 31
0.0
  0
ARC
  5
BA02
330
B989
100
AcDbEntity
  8
1
  6
Continuous
100
AcDbCircle
 10
43.81786599999998
 20
213.4660329999999
 30
0.0
 40
2.0
100
AcDbArc
 50
118.2389669999998
 51
166.6928189999999
  0
ARC
  5
BA03
330
B989
100
AcDbEntity
  8
1
  6
Continuous
100
AcDbCircle
 10
32.896566
 20
265.8929779999999
 30
0.0
 40
3.2
100
AcDbArc
 50
90.0
 51
180.0
  0
ARC
  5
BA04
330
B989
100
AcDbEntity
  8
1
  6
Continuous
100
AcDbCircle
 10
42.20434
 20
262.7639919999999
 30
0.0
 40
3.5
100
AcDbArc
 50
90.0
 51
178.892845
  0
ARC
  5
BA05
330
B989
100
AcDbEntity
  8
1
  6
Continuous
100
AcDbCircle
 10
42.20434
 20
262.7639919999999
 30
0.0
 40
0.9
100
AcDbArc
 50
90.0
 51
180.0
  0
LINE
  5
BA06
330
B989
100
AcDbEntity
  8
1
  6
Continuous
100
AcDbLine
 10
75.538775
 20
262.7639919999999
 30
0.0
 11
75.538775
 21
194.926377
 31
0.0
  0
LINE
  5
BA07
330
B989
100
AcDbEntity
  8
1
  6
Continuous
100
AcDbLine
 10
72.938775
 20
262.7639919999999
 30
0.0
 11
72.938775
 21
194.926377
 31
0.0
  0
LINE
  5
BA08
330
B989
100
AcDbEntity
  8
1
  6
Continuous
100
AcDbLine
 10
84.54656599999998
 20
265.8929779999999
 30
0.0
 11
84.54656599999998
 21
228.507535
 31
0.0
  0
LINE
  5
BA09
330
B989
100
AcDbEntity
  8
1
  6
Continuous
100
AcDbLine
 10
71.371566
 20
215.2279969999999
 30
0.0
 11
71.371566
 21
197.624756
 31
0.0
  0
LINE
  5
BA0A
330
B989
100
AcDbEntity
  8
1
  6
Continuous
100
AcDbLine
 10
72.371566
 20
213.9263759999999
 30
0.0
 11
72.371566
 21
198.9263769999998
 31
0.0
  0
ARC
  5
BA0B
330
B989
100
AcDbEntity
  8
1
  6
Continuous
100
AcDbCircle
 10
52.98370999999999
 20
202.4087689999999
 30
0.0
 40
19.0
100
AcDbArc
 50
322.818892
 51
345.416531
  0
LINE
  5
BA0C
330
B989
100
AcDbEntity
  8
1
  6
Continuous
100
AcDbLine
 10
72.938775
 20
194.926373
 30
0.0
 11
75.538775
 21
194.926373
 31
0.0
  0
ARC
  5
BA0D
330
B989
100
AcDbEntity
  8
1
  6
Continuous
100
AcDbCircle
 10
70.42526600000002
 20
199.38672
 30
0.0
 40
2.0
100
AcDbArc
 50
298.2389669999998
 51
346.6928189999999
  0
LINE
  5
BA0E
330
B989
100
AcDbEntity
  8
1
  6
Continuous
100
AcDbLine
 10
75.538775
 20
198.9263769999998
 30
0.0
 11
77.538775
 21
198.9263769999998
 31
0.0
  0
LINE
  5
BA0F
330
B989
100
AcDbEntity
  8
1
  6
Continuous
100
AcDbLine
 10
72.621566
 20
200.926377
 30
0.0
 11
72.621566
 21
211.9263769999998
 31
0.0
  0
LINE
  5
BA10
330
B989
100
AcDbEntity
  8
1
  6
Continuous
100
AcDbLine
 10
77.538775
 20
198.9263769999998
 30
0.0
 11
77.538775
 21
213.9263769999999
 31
0.0
  0
LINE
  5
BA11
330
B989
100
AcDbEntity
  8
1
  6
Continuous
100
AcDbLine
 10
72.621566
 20
202.426377
 30
0.0
 11
72.938775
 21
202.426377
 31
0.0
  0
LINE
  5
BA12
330
B989
100
AcDbEntity
  8
1
  6
Continuous
100
AcDbLine
 10
72.621566
 20
200.926377
 30
0.0
 11
72.371566
 21
200.926377
 31
0.0
  0
LINE
  5
BA13
330
B989
100
AcDbEntity
  8
1
  6
Continuous
100
AcDbLine
 10
72.938775
 20
210.426377
 30
0.0
 11
72.621566
 21
210.426377
 31
0.0
  0
LINE
  5
BA14
330
B989
100
AcDbEntity
  8
1
  6
Continuous
100
AcDbLine
 10
72.621566
 20
211.9263769999998
 30
0.0
 11
72.371566
 21
211.9263769999998
 31
0.0
  0
ARC
  5
BA15
330
B989
100
AcDbEntity
  8
1
  6
Continuous
100
AcDbCircle
 10
52.98370999999999
 20
210.4439839999999
 30
0.0
 40
19.0
100
AcDbArc
 50
14.583469
 51
37.181108
  0
ARC
  5
BA16
330
B989
100
AcDbEntity
  8
1
  6
Continuous
100
AcDbCircle
 10
70.42526600000002
 20
213.4660329999999
 30
0.0
 40
2.0
100
AcDbArc
 50
13.30718099999998
 51
61.761033
  0
LINE
  5
BA17
330
B989
100
AcDbEntity
  8
1
  6
Continuous
100
AcDbLine
 10
75.538775
 20
213.9263769999999
 30
0.0
 11
77.538775
 21
213.9263769999999
 31
0.0
  0
LINE
  5
BA18
330
B989
100
AcDbEntity
  8
1
  6
Continuous
100
AcDbLine
 10
84.00434
 20
203.091942
 30
0.0
 11
84.00434
 21
209.749877
 31
0.0
  0
LINE
  5
BA19
330
B989
100
AcDbEntity
  8
1
  6
Continuous
100
AcDbLine
 10
83.33877499999998
 20
202.426377
 30
0.0
 11
83.33877499999998
 21
210.426377
 31
0.0
  0
ARC
  5
BA1A
330
B989
100
AcDbEntity
  8
1
  6
Continuous
100
AcDbCircle
 10
48.080566
 20
228.507535
 30
0.0
 40
36.466
100
AcDbArc
 50
335.4468919999998
 51
0.0
  0
ARC
  5
BA1B
330
B989
100
AcDbEntity
  8
1
  6
Continuous
100
AcDbCircle
 10
72.038775
 20
262.7639919999999
 30
0.0
 40
3.5
100
AcDbArc
 50
0.0
 51
90.0
  0
ARC
  5
BA1C
330
B989
100
AcDbEntity
  8
1
  6
Continuous
100
AcDbCircle
 10
72.038775
 20
262.7639919999999
 30
0.0
 40
0.9
100
AcDbArc
 50
0.0
 51
90.0
  0
ARC
  5
BA1D
330
B989
100
AcDbEntity
  8
1
  6
Continuous
100
AcDbCircle
 10
81.34656600000003
 20
265.8929779999999
 30
0.0
 40
3.2
100
AcDbArc
 50
0.0
 51
90.0
  0
LINE
  5
BA1E
330
B989
100
AcDbEntity
  8
1
  6
Continuous
100
AcDbLine
 10
47.521566
 20
256.210227
 30
0.0
 11
53.526809
 21
256.210227
 31
0.0
  0
LINE
  5
BA1F
330
B989
100
AcDbEntity
  8
1
  6
Continuous
100
AcDbLine
 10
47.521566
 20
256.210227
 30
0.0
 11
47.521566
 21
258.2102269999999
 31
0.0
  0
LINE
  5
BA20
330
B989
100
AcDbEntity
  8
1
  6
Continuous
100
AcDbLine
 10
66.721566
 20
256.210227
 30
0.0
 11
60.716323
 21
256.210227
 31
0.0
  0
LINE
  5
BA21
330
B989
100
AcDbEntity
  8
1
  6
Continuous
100
AcDbLine
 10
61.221566
 20
257.810227
 30
0.0
 11
63.83974699999999
 21
256.210227
 31
0.0
  0
LINE
  5
BA22
330
B989
100
AcDbEntity
  8
1
  6
Continuous
100
AcDbLine
 10
61.221566
 20
257.810227
 30
0.0
 11
60.458024
 21
256.760357
 31
0.0
  0
LINE
  5
BA23
330
B989
100
AcDbEntity
  8
1
  6
Continuous
100
AcDbLine
 10
66.721566
 20
256.210227
 30
0.0
 11
66.721566
 21
258.2102269999999
 31
0.0
  0
LINE
  5
BA24
330
B989
100
AcDbEntity
  8
1
  6
Continuous
100
AcDbLine
 10
53.02156599999999
 20
257.810227
 30
0.0
 11
50.403384
 21
256.210227
 31
0.0
  0
LINE
  5
BA25
330
B989
100
AcDbEntity
  8
1
  6
Continuous
100
AcDbLine
 10
53.02156599999999
 20
257.810227
 30
0.0
 11
53.78510699999999
 21
256.760357
 31
0.0
  0
LINE
  5
BA26
330
B989
100
AcDbEntity
  8
1
  6
Continuous
100
AcDbLine
 10
71.316565
 20
258.2102269999999
 30
0.0
 11
42.92656599999999
 21
258.2102269999999
 31
0.0
  0
ARC
  5
BA27
330
B989
100
AcDbEntity
  8
1
  6
Continuous
100
AcDbCircle
 10
71.641402
 20
262.264833
 30
0.0
 40
4.031502999999998
100
AcDbArc
 50
278.1363819999999
 51
287.7668209999999
  0
ARC
  5
BA28
330
B989
100
AcDbEntity
  8
1
  6
Continuous
100
AcDbCircle
 10
71.316565
 20
264.536916
 30
0.0
 40
6.326689
100
AcDbArc
 50
270.0
 51
278.1363819999999
  0
LINE
  5
BA29
330
B989
100
AcDbEntity
  8
1
  6
Continuous
100
AcDbLine
 10
72.938775
 20
261.450284
 30
0.0
 11
41.30434
 21
261.450284
 31
0.0
  0
LINE
  5
BA2A
330
B989
100
AcDbEntity
  8
1
  6
Continuous
100
AcDbLine
 10
72.938775
 20
262.659718
 30
0.0
 11
41.30434
 21
262.659718
 31
0.0
  0
ARC
  5
BA2B
330
B989
100
AcDbEntity
  8
1
  6
Continuous
100
AcDbCircle
 10
42.60172899999999
 20
262.264833
 30
0.0
 40
4.031502999999998
100
AcDbArc
 50
252.2331789999999
 51
261.8636179999999
  0
ARC
  5
BA2C
330
B989
100
AcDbEntity
  8
1
  6
Continuous
100
AcDbCircle
 10
42.92656599999999
 20
264.536916
 30
0.0
 40
6.326689
100
AcDbArc
 50
261.8636179999999
 51
270.0
  0
LINE
  5
BA2D
330
B989
100
AcDbEntity
  8
1
  6
Continuous
100
AcDbLine
 10
71.91403000000002
 20
262.659718
 30
0.0
 11
70.909756
 21
263.6639919999999
 31
0.0
  0
LINE
  5
BA2E
330
B989
100
AcDbEntity
  8
1
  6
Continuous
100
AcDbLine
 10
49.286613
 20
262.659718
 30
0.0
 11
48.282339
 21
263.6639919999999
 31
0.0
  0
LINE
  5
BA2F
330
B989
100
AcDbEntity
  8
1
  6
Continuous
100
AcDbLine
 10
48.69227999999999
 20
262.659718
 30
0.0
 11
49.696553
 21
263.6639919999999
 31
0.0
  0
LINE
  5
BA30
330
B989
100
AcDbEntity
  8
1
  6
Continuous
100
AcDbLine
 10
43.03542499999998
 20
262.659718
 30
0.0
 11
44.03969899999998
 21
263.6639919999999
 31
0.0
  0
LINE
  5
BA31
330
B989
100
AcDbEntity
  8
1
  6
Continuous
100
AcDbLine
 10
41.560075
 20
263.3151879999999
 30
0.0
 11
42.21554499999998
 21
262.659718
 31
0.0
  0
LINE
  5
BA32
330
B989
100
AcDbEntity
  8
1
  6
Continuous
100
AcDbLine
 10
43.629758
 20
262.659718
 30
0.0
 11
42.625485
 21
263.6639919999999
 31
0.0
  0
LINE
  5
BA33
330
B989
100
AcDbEntity
  8
1
  6
Continuous
100
AcDbLine
 10
41.621212
 20
262.659718
 30
0.0
 11
42.625485
 21
263.6639919999999
 31
0.0
  0
LINE
  5
BA34
330
B989
100
AcDbEntity
  8
1
  6
Continuous
100
AcDbLine
 10
47.278066
 20
262.659718
 30
0.0
 11
48.282339
 21
263.6639919999999
 31
0.0
  0
LINE
  5
BA35
330
B989
100
AcDbEntity
  8
1
  6
Continuous
100
AcDbLine
 10
45.04397199999998
 20
262.659718
 30
0.0
 11
44.03969899999998
 21
263.6639919999999
 31
0.0
  0
LINE
  5
BA36
330
B989
100
AcDbEntity
  8
1
  6
Continuous
100
AcDbLine
 10
46.458186
 20
262.659718
 30
0.0
 11
45.453912
 21
263.6639919999999
 31
0.0
  0
LINE
  5
BA37
330
B989
100
AcDbEntity
  8
1
  6
Continuous
100
AcDbLine
 10
47.872399
 20
262.659718
 30
0.0
 11
46.86812599999998
 21
263.6639919999999
 31
0.0
  0
LINE
  5
BA38
330
B989
100
AcDbEntity
  8
1
  6
Continuous
100
AcDbLine
 10
44.449639
 20
262.659718
 30
0.0
 11
45.453912
 21
263.6639919999999
 31
0.0
  0
LINE
  5
BA39
330
B989
100
AcDbEntity
  8
1
  6
Continuous
100
AcDbLine
 10
45.86385299999998
 20
262.659718
 30
0.0
 11
46.86812599999998
 21
263.6639919999999
 31
0.0
  0
LINE
  5
BA3A
330
B989
100
AcDbEntity
  8
1
  6
Continuous
100
AcDbLine
 10
69.08560300000001
 20
262.659718
 30
0.0
 11
68.081329
 21
263.6639919999999
 31
0.0
  0
LINE
  5
BA3B
330
B989
100
AcDbEntity
  8
1
  6
Continuous
100
AcDbLine
 10
68.49127
 20
262.659718
 30
0.0
 11
69.49554300000001
 21
263.6639919999999
 31
0.0
  0
LINE
  5
BA3C
330
B989
100
AcDbEntity
  8
1
  6
Continuous
100
AcDbLine
 10
60.60032099999999
 20
262.659718
 30
0.0
 11
59.59604800000001
 21
263.6639919999999
 31
0.0
  0
LINE
  5
BA3D
330
B989
100
AcDbEntity
  8
1
  6
Continuous
100
AcDbLine
 10
60.005988
 20
262.659718
 30
0.0
 11
61.010261
 21
263.6639919999999
 31
0.0
  0
LINE
  5
BA3E
330
B989
100
AcDbEntity
  8
1
  6
Continuous
100
AcDbLine
 10
59.18610799999999
 20
262.659718
 30
0.0
 11
58.18183399999998
 21
263.6639919999999
 31
0.0
  0
LINE
  5
BA3F
330
B989
100
AcDbEntity
  8
1
  6
Continuous
100
AcDbLine
 10
58.591775
 20
262.659718
 30
0.0
 11
59.59604800000001
 21
263.6639919999999
 31
0.0
  0
LINE
  5
BA40
330
B989
100
AcDbEntity
  8
1
  6
Continuous
100
AcDbLine
 10
64.842962
 20
262.659718
 30
0.0
 11
63.838689
 21
263.6639919999999
 31
0.0
  0
LINE
  5
BA41
330
B989
100
AcDbEntity
  8
1
  6
Continuous
100
AcDbLine
 10
64.24862899999999
 20
262.659718
 30
0.0
 11
65.252902
 21
263.6639919999999
 31
0.0
  0
LINE
  5
BA42
330
B989
100
AcDbEntity
  8
1
  6
Continuous
100
AcDbLine
 10
63.428748
 20
262.659718
 30
0.0
 11
62.424475
 21
263.6639919999999
 31
0.0
  0
LINE
  5
BA43
330
B989
100
AcDbEntity
  8
1
  6
Continuous
100
AcDbLine
 10
62.01453499999999
 20
262.659718
 30
0.0
 11
61.010261
 21
263.6639919999999
 31
0.0
  0
LINE
  5
BA44
330
B989
100
AcDbEntity
  8
1
  6
Continuous
100
AcDbLine
 10
62.834415
 20
262.659718
 30
0.0
 11
63.838689
 21
263.6639919999999
 31
0.0
  0
LINE
  5
BA45
330
B989
100
AcDbEntity
  8
1
  6
Continuous
100
AcDbLine
 10
61.42020200000001
 20
262.659718
 30
0.0
 11
62.424475
 21
263.6639919999999
 31
0.0
  0
LINE
  5
BA46
330
B989
100
AcDbEntity
  8
1
  6
Continuous
100
AcDbLine
 10
67.671389
 20
262.659718
 30
0.0
 11
66.66711600000001
 21
263.6639919999999
 31
0.0
  0
LINE
  5
BA47
330
B989
100
AcDbEntity
  8
1
  6
Continuous
100
AcDbLine
 10
66.257175
 20
262.659718
 30
0.0
 11
65.252902
 21
263.6639919999999
 31
0.0
  0
LINE
  5
BA48
330
B989
100
AcDbEntity
  8
1
  6
Continuous
100
AcDbLine
 10
67.077056
 20
262.659718
 30
0.0
 11
68.081329
 21
263.6639919999999
 31
0.0
  0
LINE
  5
BA49
330
B989
100
AcDbEntity
  8
1
  6
Continuous
100
AcDbLine
 10
65.662842
 20
262.659718
 30
0.0
 11
66.66711600000001
 21
263.6639919999999
 31
0.0
  0
LINE
  5
BA4A
330
B989
100
AcDbEntity
  8
1
  6
Continuous
100
AcDbLine
 10
70.49981600000002
 20
262.659718
 30
0.0
 11
69.49554300000001
 21
263.6639919999999
 31
0.0
  0
LINE
  5
BA4B
330
B989
100
AcDbEntity
  8
1
  6
Continuous
100
AcDbLine
 10
69.90548299999999
 20
262.659718
 30
0.0
 11
70.909756
 21
263.6639919999999
 31
0.0
  0
LINE
  5
BA4C
330
B989
100
AcDbEntity
  8
1
  6
Continuous
100
AcDbLine
 10
52.11504
 20
262.659718
 30
0.0
 11
51.11076699999999
 21
263.6639919999999
 31
0.0
  0
LINE
  5
BA4D
330
B989
100
AcDbEntity
  8
1
  6
Continuous
100
AcDbLine
 10
51.520707
 20
262.659718
 30
0.0
 11
52.52498
 21
263.6639919999999
 31
0.0
  0
LINE
  5
BA4E
330
B989
100
AcDbEntity
  8
1
  6
Continuous
100
AcDbLine
 10
50.700826
 20
262.659718
 30
0.0
 11
49.696553
 21
263.6639919999999
 31
0.0
  0
LINE
  5
BA4F
330
B989
100
AcDbEntity
  8
1
  6
Continuous
100
AcDbLine
 10
50.106493
 20
262.659718
 30
0.0
 11
51.11076699999999
 21
263.6639919999999
 31
0.0
  0
LINE
  5
BA50
330
B989
100
AcDbEntity
  8
1
  6
Continuous
100
AcDbLine
 10
56.35768
 20
262.659718
 30
0.0
 11
55.35340699999999
 21
263.6639919999999
 31
0.0
  0
LINE
  5
BA51
330
B989
100
AcDbEntity
  8
1
  6
Continuous
100
AcDbLine
 10
55.763347
 20
262.659718
 30
0.0
 11
56.767621
 21
263.6639919999999
 31
0.0
  0
LINE
  5
BA52
330
B989
100
AcDbEntity
  8
1
  6
Continuous
100
AcDbLine
 10
54.94346700000001
 20
262.659718
 30
0.0
 11
53.93919399999999
 21
263.6639919999999
 31
0.0
  0
LINE
  5
BA53
330
B989
100
AcDbEntity
  8
1
  6
Continuous
100
AcDbLine
 10
53.52925299999998
 20
262.659718
 30
0.0
 11
52.52498
 21
263.6639919999999
 31
0.0
  0
LINE
  5
BA54
330
B989
100
AcDbEntity
  8
1
  6
Continuous
100
AcDbLine
 10
54.349134
 20
262.659718
 30
0.0
 11
55.35340699999999
 21
263.6639919999999
 31
0.0
  0
LINE
  5
BA55
330
B989
100
AcDbEntity
  8
1
  6
Continuous
100
AcDbLine
 10
52.93492
 20
262.659718
 30
0.0
 11
53.93919399999999
 21
263.6639919999999
 31
0.0
  0
LINE
  5
BA56
330
B989
100
AcDbEntity
  8
1
  6
Continuous
100
AcDbLine
 10
57.77189400000001
 20
262.659718
 30
0.0
 11
56.767621
 21
263.6639919999999
 31
0.0
  0
LINE
  5
BA57
330
B989
100
AcDbEntity
  8
1
  6
Continuous
100
AcDbLine
 10
57.17756099999999
 20
262.659718
 30
0.0
 11
58.18183399999998
 21
263.6639919999999
 31
0.0
  0
LINE
  5
BA58
330
B989
100
AcDbEntity
  8
1
  6
Continuous
100
AcDbLine
 10
72.484261
 20
263.5037
 30
0.0
 11
72.71129999999998
 21
263.2766619999998
 31
0.0
  0
LINE
  5
BA59
330
B989
100
AcDbEntity
  8
1
  6
Continuous
100
AcDbLine
 10
71.31969699999998
 20
262.659718
 30
0.0
 11
72.272261
 21
263.612282
 31
0.0
  0
LINE
  5
BA5A
330
B989
100
AcDbEntity
  8
1
  6
Continuous
100
AcDbLine
 10
72.73390999999998
 20
262.659718
 30
0.0
 11
72.870993
 21
262.7968009999999
 31
0.0
  0
ARC
  5
BA5B
330
B989
100
AcDbEntity
  8
1
  6
Continuous
100
AcDbCircle
 10
57.121566
 20
186.4263769999998
 30
0.0
 40
30.0
100
AcDbArc
 50
256.1134599999999
 51
283.8865399999999
  0
ARC
  5
BA5C
330
B989
100
AcDbEntity
  8
1
  6
Continuous
100
AcDbCircle
 10
63.121566
 20
162.157055
 30
0.0
 40
5.0
100
AcDbArc
 50
283.8865399999999
 51
0.0
  0
ARC
  5
BA5D
330
B989
100
AcDbEntity
  8
1
  6
Continuous
100
AcDbCircle
 10
51.12156599999998
 20
162.157055
 30
0.0
 40
5.0
100
AcDbArc
 50
180.0
 51
256.1134599999999
  0
ARC
  5
BA5E
330
B989
100
AcDbEntity
  8
1
  6
Continuous
100
AcDbCircle
 10
57.121566
 20
226.4263769999999
 30
0.0
 40
30.0
100
AcDbArc
 50
76.11346000000001
 51
103.8865399999999
  0
ARC
  5
BA5F
330
B989
100
AcDbEntity
  8
1
  6
Continuous
100
AcDbCircle
 10
51.12156599999998
 20
250.6956989999999
 30
0.0
 40
5.0
100
AcDbArc
 50
103.8865399999999
 51
180.0
  0
ARC
  5
BA60
330
B989
100
AcDbEntity
  8
1
  6
Continuous
100
AcDbCircle
 10
63.121566
 20
250.6956989999999
 30
0.0
 40
5.0
100
AcDbArc
 50
0.0
 51
76.11346000000001
  0
LINE
  5
BA61
330
B989
100
AcDbEntity
  8
1
  6
Continuous
100
AcDbLine
 10
82.53877499999999
 20
210.426377
 30
0.0
 11
83.32784000000001
 21
210.426377
 31
0.0
  0
LINE
  5
BA62
330
B989
100
AcDbEntity
  8
1
  6
Continuous
100
AcDbLine
 10
82.53877499999999
 20
202.426377
 30
0.0
 11
83.33877499999998
 21
202.426377
 31
0.0
  0
LINE
  5
BA63
330
B989
100
AcDbEntity
  8
2
  6
Continuous
100
AcDbLine
 10
82.53877499999999
 20
209.749877
 30
0.0
 11
84.00434
 21
209.749877
 31
0.0
  0
LINE
  5
BA64
330
B989
100
AcDbEntity
  8
2
  6
Continuous
100
AcDbLine
 10
82.53877499999999
 20
203.102877
 30
0.0
 11
84.00434
 21
203.102877
 31
0.0
  0
LINE
  5
BA65
330
B989
100
AcDbEntity
  8
1
  6
Continuous
100
AcDbLine
 10
83.32784000000001
 20
210.426377
 30
0.0
 11
84.00434
 21
209.749877
 31
0.0
  0
LINE
  5
BA66
330
B989
100
AcDbEntity
  8
1
  6
Continuous
100
AcDbLine
 10
84.00434
 20
203.091942
 30
0.0
 11
83.33877499999998
 21
202.426377
 31
0.0
  0
LINE
  5
BA67
330
B989
100
AcDbEntity
  8
1
  6
Continuous
100
AcDbLine
 10
82.53877499999999
 20
212.426377
 30
0.0
 11
82.53877499999999
 21
200.426377
 31
0.0
  0
ARC
  5
BA68
330
B989
100
AcDbEntity
  8
1
  6
Continuous
100
AcDbCircle
 10
71.074673
 20
206.426377
 30
0.0
 40
11.464102
100
AcDbArc
 50
342.4120459999999
 51
17.587954
  0
ARC
  5
BA69
330
B989
100
AcDbEntity
  8
1
  6
Continuous
100
AcDbCircle
 10
89.002876
 20
206.426377
 30
0.0
 40
11.464102
100
AcDbArc
 50
162.412046
 51
197.5879539999999
  0
LINE
  5
BA6A
330
B989
100
AcDbEntity
  8
1
  6
Continuous
100
AcDbLine
 10
82.00287600000001
 20
199.498174
 30
0.0
 11
82.53877499999999
 21
200.426377
 31
0.0
  0
LINE
  5
BA6B
330
B989
100
AcDbEntity
  8
1
  6
Continuous
100
AcDbLine
 10
78.074673
 20
199.498174
 30
0.0
 11
77.538775
 21
200.426377
 31
0.0
  0
LINE
  5
BA6C
330
B989
100
AcDbEntity
  8
1
  6
Continuous
100
AcDbLine
 10
78.074673
 20
199.498174
 30
0.0
 11
82.00287600000001
 21
199.498174
 31
0.0
  0
LINE
  5
BA6D
330
B989
100
AcDbEntity
  8
1
  6
Continuous
100
AcDbLine
 10
78.074673
 20
202.962275
 30
0.0
 11
82.00287600000001
 21
202.962275
 31
0.0
  0
ARC
  5
BA6E
330
B989
100
AcDbEntity
  8
1
  6
Continuous
100
AcDbCircle
 10
80.60576199999998
 20
201.2302239999999
 30
0.0
 40
3.066986999999998
100
AcDbArc
 50
145.615753
 51
205.615753
  0
ARC
  5
BA6F
330
B989
100
AcDbEntity
  8
1
  6
Continuous
100
AcDbCircle
 10
79.47178700000002
 20
201.2302239999999
 30
0.0
 40
3.066986999999998
100
AcDbArc
 50
334.384247
 51
34.38424699999998
  0
ARC
  5
BA70
330
B989
100
AcDbEntity
  8
1
  6
Continuous
100
AcDbCircle
 10
79.47178700000002
 20
211.622529
 30
0.0
 40
3.066986999999998
100
AcDbArc
 50
325.6157529999999
 51
25.615753
  0
ARC
  5
BA71
330
B989
100
AcDbEntity
  8
1
  6
Continuous
100
AcDbCircle
 10
80.60576199999998
 20
211.622529
 30
0.0
 40
3.066986999999998
100
AcDbArc
 50
154.3842469999999
 51
214.384247
  0
LINE
  5
BA72
330
B989
100
AcDbEntity
  8
1
  6
Continuous
100
AcDbLine
 10
78.074673
 20
209.8904779999998
 30
0.0
 11
82.00287600000001
 21
209.8904779999998
 31
0.0
  0
LINE
  5
BA73
330
B989
100
AcDbEntity
  8
1
  6
Continuous
100
AcDbLine
 10
78.074673
 20
213.3545799999999
 30
0.0
 11
82.00287600000001
 21
213.3545799999999
 31
0.0
  0
LINE
  5
BA74
330
B989
100
AcDbEntity
  8
1
  6
Continuous
100
AcDbLine
 10
78.074673
 20
213.3545799999999
 30
0.0
 11
77.538775
 21
212.426377
 31
0.0
  0
LINE
  5
BA75
330
B989
100
AcDbEntity
  8
1
  6
Continuous
100
AcDbLine
 10
82.00287600000001
 20
213.3545799999999
 30
0.0
 11
82.53877499999999
 21
212.426377
 31
0.0
  0
LINE
  5
BA76
330
B989
100
AcDbEntity
  8
1
  6
Continuous
100
AcDbLine
 10
77.538775
 20
208.426377
 30
0.0
 11
75.538775
 21
206.426377
 31
0.0
  0
LINE
  5
BA77
330
B989
100
AcDbEntity
  8
1
  6
Continuous
100
AcDbLine
 10
77.538775
 20
206.426377
 30
0.0
 11
75.538775
 21
204.426377
 31
0.0
  0
ARC
  5
BA78
330
B989
100
AcDbEntity
  8
1
  6
Continuous
100
AcDbCircle
 10
150.31378
 20
279.2626349999998
 30
0.0
 40
95.157
100
AcDbArc
 50
299.4272049999999
 51
346.3948139999998
  0
ARC
  5
BA79
330
B989
100
AcDbEntity
  8
1
  6
Continuous
100
AcDbCircle
 10
123.324982
 20
254.737122
 30
0.0
 40
72.67100000000002
100
AcDbArc
 50
324.5269859999999
 51
359.3096679999999
  0
LINE
  5
BA7A
330
B989
100
AcDbEntity
  8
1
  6
Continuous
100
AcDbLine
 10
252.0110349999999
 20
259.24496
 30
0.0
 11
252.0110349999999
 21
266.448277
 31
0.0
  0
LINE
  5
BA7B
330
B989
100
AcDbEntity
  8
1
  6
Continuous
100
AcDbLine
 10
250.507768
 20
259.144544
 30
0.0
 11
252.0110349999999
 21
259.24496
 31
0.0
  0
LINE
  5
BA7C
330
B989
100
AcDbEntity
  8
1
  6
Continuous
100
AcDbLine
 10
185.5864479999999
 20
209.908265
 30
0.0
 11
185.5864479999999
 21
202.980061
 31
0.0
  0
LINE
  5
BA7D
330
B989
100
AcDbEntity
  8
1
  6
Continuous
100
AcDbLine
 10
197.586448
 20
209.908265
 30
0.0
 11
197.586448
 21
202.980061
 31
0.0
  0
CIRCLE
  5
BA7E
330
B989
100
AcDbEntity
  8
1
  6
Continuous
100
AcDbCircle
 10
191.5864479999999
 20
206.4441629999998
 30
0.0
 40
6.0
  0
LINE
  5
BA7F
330
B989
100
AcDbEntity
  8
1
  6
Continuous
100
AcDbLine
 10
191.5864479999999
 20
199.51596
 30
0.0
 11
197.586448
 21
202.980061
 31
0.0
  0
LINE
  5
BA80
330
B989
100
AcDbEntity
  8
1
  6
Continuous
100
AcDbLine
 10
191.5864479999999
 20
199.51596
 30
0.0
 11
185.5864479999999
 21
202.980061
 31
0.0
  0
LINE
  5
BA81
330
B989
100
AcDbEntity
  8
1
  6
Continuous
100
AcDbLine
 10
197.586448
 20
209.908265
 30
0.0
 11
191.5864479999999
 21
213.372366
 31
0.0
  0
LINE
  5
BA82
330
B989
100
AcDbEntity
  8
1
  6
Continuous
100
AcDbLine
 10
185.5864479999999
 20
209.908265
 30
0.0
 11
191.5864479999999
 21
213.372366
 31
0.0
  0
CIRCLE
  5
BA83
330
B989
100
AcDbEntity
  8
1
  6
Continuous
100
AcDbCircle
 10
191.5864479999999
 20
206.4441629999998
 30
0.0
 40
4.0
  0
CIRCLE
  5
BA84
330
B989
100
AcDbEntity
  8
2
  6
Continuous
100
AcDbCircle
 10
191.5864479999999
 20
206.4441629999998
 30
0.0
 40
3.3235
  0
CIRCLE
  5
BA85
330
B989
100
AcDbEntity
  8
1
  6
Continuous
100
AcDbCircle
 10
191.5864479999999
 20
206.4441629999998
 30
0.0
 40
7.5
  0
LINE
  5
BA86
330
B989
100
AcDbEntity
  8
4
  6
CENTER
100
AcDbLine
 10
257.0110349999998
 20
71.975465
 30
0.0
 11
136.586035
 21
71.975465
 31
0.0
  0
LINE
  5
BA87
330
B989
100
AcDbEntity
  8
4
  6
CENTER
100
AcDbLine
 10
224.586035
 20
104.4004649999999
 30
0.0
 11
224.586035
 21
39.550465
 31
0.0
  0
LINE
  5
BA88
330
B989
100
AcDbEntity
  8
1
  6
Continuous
100
AcDbLine
 10
340.609061
 20
257.828217
 30
0.0
 11
343.2272419999998
 21
256.2282169999999
 31
0.0
  0
LINE
  5
BA89
330
B989
100
AcDbEntity
  8
1
  6
Continuous
100
AcDbLine
 10
340.609061
 20
257.828217
 30
0.0
 11
339.8455189999999
 21
256.778347
 31
0.0
  0
LINE
  5
BA8A
330
B989
100
AcDbEntity
  8
1
  6
Continuous
100
AcDbLine
 10
346.1090609999998
 20
256.2282169999999
 30
0.0
 11
346.1090609999998
 21
258.2282169999999
 31
0.0
  0
LINE
  5
BA8B
330
B989
100
AcDbEntity
  8
1
  6
Continuous
100
AcDbLine
 10
326.909061
 20
256.2282169999999
 30
0.0
 11
326.909061
 21
258.2282169999999
 31
0.0
  0
LINE
  5
BA8C
330
B989
100
AcDbEntity
  8
1
  6
Continuous
100
AcDbLine
 10
332.409061
 20
257.828217
 30
0.0
 11
329.790879
 21
256.2282169999999
 31
0.0
  0
LINE
  5
BA8D
330
B989
100
AcDbEntity
  8
1
  6
Continuous
100
AcDbLine
 10
332.409061
 20
257.828217
 30
0.0
 11
333.172602
 21
256.778347
 31
0.0
  0
LINE
  5
BA8E
330
B989
100
AcDbEntity
  8
1
  6
Continuous
100
AcDbLine
 10
326.909061
 20
256.2282169999999
 30
0.0
 11
346.1090609999998
 21
256.2282169999999
 31
0.0
  0
LINE
  5
BA8F
330
B989
100
AcDbEntity
  8
1
  6
Continuous
100
AcDbLine
 10
347.0037029999998
 20
258.2282169999999
 30
0.0
 11
326.0144159999999
 21
258.2282169999999
 31
0.0
  0
ARC
  5
BA90
330
B989
100
AcDbEntity
  8
1
  6
Continuous
100
AcDbCircle
 10
336.509069
 20
226.443867
 30
0.0
 40
30.0
100
AcDbArc
 50
96.87404299999998
 51
103.8865399999999
  0
LINE
  5
BA91
330
B989
100
AcDbEntity
  8
1
  6
Continuous
100
AcDbLine
 10
235.8553569999999
 20
60.97546499999999
 30
0.0
 11
147.316713
 21
60.97546499999999
 31
0.0
  0
LINE
  5
BA92
330
B989
100
AcDbEntity
  8
1
  6
Continuous
100
AcDbLine
 10
235.8553569999999
 20
82.97546500000001
 30
0.0
 11
147.316713
 21
82.97546500000001
 31
0.0
  0
ARC
  5
BA93
330
B989
100
AcDbEntity
  8
1
  6
Continuous
100
AcDbCircle
 10
211.586035
 20
71.975465
 30
0.0
 40
30.0
100
AcDbArc
 50
346.1134599999998
 51
13.88654
  0
ARC
  5
BA94
330
B989
100
AcDbEntity
  8
1
  6
Continuous
100
AcDbCircle
 10
235.8553569999999
 20
65.97546499999999
 30
0.0
 40
5.0
100
AcDbArc
 50
270.0
 51
346.1134599999998
  0
LINE
  5
BA95
330
B989
100
AcDbEntity
  8
1
  6
Continuous
100
AcDbLine
 10
197.086035
 20
56.475465
 30
0.0
 11
186.086035
 21
56.475465
 31
0.0
  0
LINE
  5
BA96
330
B989
100
AcDbEntity
  8
1
  6
Continuous
100
AcDbLine
 10
184.0860349999999
 20
56.725465
 30
0.0
 11
199.086035
 21
56.725465
 31
0.0
  0
LINE
  5
BA97
330
B989
100
AcDbEntity
  8
1
  6
Continuous
100
AcDbLine
 10
182.7844149999999
 20
57.725465
 30
0.0
 11
200.387656
 21
57.725465
 31
0.0
  0
LINE
  5
BA98
330
B989
100
AcDbEntity
  8
1
  6
Continuous
100
AcDbLine
 10
197.086035
 20
56.475465
 30
0.0
 11
197.086035
 21
56.725465
 31
0.0
  0
LINE
  5
BA99
330
B989
100
AcDbEntity
  8
1
  6
Continuous
100
AcDbLine
 10
195.586035
 20
56.158239
 30
0.0
 11
195.586035
 21
56.475465
 31
0.0
  0
ARC
  5
BA9A
330
B989
100
AcDbEntity
  8
1
  6
Continuous
100
AcDbCircle
 10
198.6256919999999
 20
58.671765
 30
0.0
 40
2.0
100
AcDbArc
 50
283.307181
 51
331.7610329999999
  0
ARC
  5
BA9B
330
B989
100
AcDbEntity
  8
1
  6
Continuous
100
AcDbCircle
 10
195.603643
 20
76.11332
 30
0.0
 40
19.0
100
AcDbArc
 50
284.583469
 51
307.1811079999998
  0
ARC
  5
BA9C
330
B989
100
AcDbEntity
  8
1
  6
Continuous
100
AcDbCircle
 10
184.546379
 20
58.671765
 30
0.0
 40
2.0
100
AcDbArc
 50
208.2389669999999
 51
256.692819
  0
LINE
  5
BA9D
330
B989
100
AcDbEntity
  8
1
  6
Continuous
100
AcDbLine
 10
186.086035
 20
56.475465
 30
0.0
 11
186.086035
 21
56.725465
 31
0.0
  0
LINE
  5
BA9E
330
B989
100
AcDbEntity
  8
1
  6
Continuous
100
AcDbLine
 10
187.586035
 20
56.158239
 30
0.0
 11
187.586035
 21
56.475465
 31
0.0
  0
ARC
  5
BA9F
330
B989
100
AcDbEntity
  8
1
  6
Continuous
100
AcDbCircle
 10
187.568428
 20
76.11332
 30
0.0
 40
19.0
100
AcDbArc
 50
232.818892
 51
255.416531
  0
ARC
  5
BAA0
330
B989
100
AcDbEntity
  8
1
  6
Continuous
100
AcDbCircle
 10
235.8553569999999
 20
77.975465
 30
0.0
 40
5.0
100
AcDbArc
 50
13.88654
 51
90.0
  0
LINE
  5
BAA1
330
B989
100
AcDbEntity
  8
1
  6
Continuous
100
AcDbLine
 10
195.586035
 20
98.19267400000001
 30
0.0
 11
187.586035
 21
98.19267400000001
 31
0.0
  0
LINE
  5
BAA2
330
B989
100
AcDbEntity
  8
1
  6
Continuous
100
AcDbLine
 10
194.9204699999999
 20
98.858239
 30
0.0
 11
188.2625349999999
 21
98.858239
 31
0.0
  0
LINE
  5
BAA3
330
B989
100
AcDbEntity
  8
1
  6
Continuous
100
AcDbLine
 10
189.586035
 20
92.39267400000001
 30
0.0
 11
191.586035
 21
90.39267399999998
 31
0.0
  0
LINE
  5
BAA4
330
B989
100
AcDbEntity
  8
1
  6
Continuous
100
AcDbLine
 10
197.086035
 20
87.475465
 30
0.0
 11
186.086035
 21
87.475465
 31
0.0
  0
LINE
  5
BAA5
330
B989
100
AcDbEntity
  8
1
  6
Continuous
100
AcDbLine
 10
184.0860349999999
 20
87.22546499999998
 30
0.0
 11
199.086035
 21
87.22546499999998
 31
0.0
  0
LINE
  5
BAA6
330
B989
100
AcDbEntity
  8
1
  6
Continuous
100
AcDbLine
 10
182.7844149999999
 20
86.225465
 30
0.0
 11
200.387656
 21
86.225465
 31
0.0
  0
LINE
  5
BAA7
330
B989
100
AcDbEntity
  8
1
  6
Continuous
100
AcDbLine
 10
191.586035
 20
92.39267400000001
 30
0.0
 11
193.586035
 21
90.39267399999998
 31
0.0
  0
LINE
  5
BAA8
330
B989
100
AcDbEntity
  8
1
  6
Continuous
100
AcDbLine
 10
197.086035
 20
87.475465
 30
0.0
 11
197.086035
 21
87.22546499999998
 31
0.0
  0
LINE
  5
BAA9
330
B989
100
AcDbEntity
  8
1
  6
Continuous
100
AcDbLine
 10
195.586035
 20
87.475465
 30
0.0
 11
195.586035
 21
87.792674
 31
0.0
  0
LINE
  5
BAAA
330
B989
100
AcDbEntity
  8
1
  6
Continuous
100
AcDbLine
 10
199.086035
 20
92.39267400000001
 30
0.0
 11
184.0860349999999
 21
92.39267400000001
 31
0.0
  0
LINE
  5
BAAB
330
B989
100
AcDbEntity
  8
1
  6
Continuous
100
AcDbLine
 10
199.086035
 20
90.39267399999998
 30
0.0
 11
199.086035
 21
92.39267400000001
 31
0.0
  0
ARC
  5
BAAC
330
B989
100
AcDbEntity
  8
1
  6
Continuous
100
AcDbCircle
 10
198.6256919999999
 20
85.27916500000001
 30
0.0
 40
2.0
100
AcDbArc
 50
28.238967
 51
76.692819
  0
ARC
  5
BAAD
330
B989
100
AcDbEntity
  8
1
  6
Continuous
100
AcDbCircle
 10
195.603643
 20
67.837609
 30
0.0
 40
19.0
100
AcDbArc
 50
52.81889200000001
 51
75.41653100000002
  0
LINE
  5
BAAE
330
B989
100
AcDbEntity
  8
1
  6
Continuous
100
AcDbLine
 10
194.9204699999999
 20
98.858239
 30
0.0
 11
195.586035
 21
98.19267400000001
 31
0.0
  0
LINE
  5
BAAF
330
B989
100
AcDbEntity
  8
2
  6
Continuous
100
AcDbLine
 10
194.909535
 20
97.39267400000001
 30
0.0
 11
194.909535
 21
98.858239
 31
0.0
  0
LINE
  5
BAB0
330
B989
100
AcDbEntity
  8
1
  6
Continuous
100
AcDbLine
 10
195.586035
 20
97.39267400000001
 30
0.0
 11
195.586035
 21
98.19267400000001
 31
0.0
  0
LINE
  5
BAB1
330
B989
100
AcDbEntity
  8
1
  6
Continuous
100
AcDbLine
 10
184.0860349999999
 20
90.39267399999998
 30
0.0
 11
184.0860349999999
 21
92.39267400000001
 31
0.0
  0
ARC
  5
BAB2
330
B989
100
AcDbEntity
  8
1
  6
Continuous
100
AcDbCircle
 10
184.546379
 20
85.27916500000001
 30
0.0
 40
2.0
100
AcDbArc
 50
103.307181
 51
151.761033
  0
ARC
  5
BAB3
330
B989
100
AcDbEntity
  8
1
  6
Continuous
100
AcDbCircle
 10
187.568428
 20
67.837609
 30
0.0
 40
19.0
100
AcDbArc
 50
104.5834689999998
 51
127.181108
  0
LINE
  5
BAB4
330
B989
100
AcDbEntity
  8
1
  6
Continuous
100
AcDbLine
 10
186.086035
 20
87.475465
 30
0.0
 11
186.086035
 21
87.22546499999998
 31
0.0
  0
LINE
  5
BAB5
330
B989
100
AcDbEntity
  8
1
  6
Continuous
100
AcDbLine
 10
187.586035
 20
87.792674
 30
0.0
 11
187.586035
 21
87.475465
 31
0.0
  0
LINE
  5
BAB6
330
B989
100
AcDbEntity
  8
1
  6
Continuous
100
AcDbLine
 10
187.586035
 20
98.18173899999999
 30
0.0
 11
188.2625349999999
 21
98.858239
 31
0.0
  0
LINE
  5
BAB7
330
B989
100
AcDbEntity
  8
2
  6
Continuous
100
AcDbLine
 10
188.2625349999999
 20
97.39267400000001
 30
0.0
 11
188.2625349999999
 21
98.858239
 31
0.0
  0
LINE
  5
BAB8
330
B989
100
AcDbEntity
  8
1
  6
Continuous
100
AcDbLine
 10
187.586035
 20
97.39267400000001
 30
0.0
 11
187.586035
 21
98.18173899999999
 31
0.0
  0
ARC
  5
BAB9
330
B989
100
AcDbEntity
  8
1
  6
Continuous
100
AcDbCircle
 10
171.5860349999998
 20
71.975465
 30
0.0
 40
30.0
100
AcDbArc
 50
166.11346
 51
193.88654
  0
ARC
  5
BABA
330
B989
100
AcDbEntity
  8
1
  6
Continuous
100
AcDbCircle
 10
147.316713
 20
65.97546499999999
 30
0.0
 40
5.0
100
AcDbArc
 50
193.88654
 51
270.0
  0
ARC
  5
BABB
330
B989
100
AcDbEntity
  8
1
  6
Continuous
100
AcDbCircle
 10
147.316713
 20
77.975465
 30
0.0
 40
5.0
100
AcDbArc
 50
90.0
 51
166.11346
  0
LINE
  5
BABC
330
B989
100
AcDbEntity
  8
4
  6
CENTER
100
AcDbLine
 10
191.586035
 20
103.8582389999999
 30
0.0
 11
191.586035
 21
43.55823899999999
 31
0.0
  0
LINE
  5
BABD
330
B989
100
AcDbEntity
  8
1
  6
Continuous
100
AcDbLine
 10
180.437878
 20
90.39267399999998
 30
0.0
 11
200.6052659999999
 21
90.39267399999998
 31
0.0
  0
LINE
  5
BABE
330
B989
100
AcDbEntity
  8
1
  6
Continuous
100
AcDbLine
 10
180.437878
 20
53.558239
 30
0.0
 11
200.605285
 21
53.558239
 31
0.0
  0
LINE
  5
BABF
330
B989
100
AcDbEntity
  8
1
  6
Continuous
100
AcDbLine
 10
180.437878
 20
87.792674
 30
0.0
 11
200.6052659999999
 21
87.792674
 31
0.0
  0
LINE
  5
BAC0
330
B989
100
AcDbEntity
  8
1
  6
Continuous
100
AcDbLine
 10
180.437878
 20
56.158239
 30
0.0
 11
200.605285
 21
56.158239
 31
0.0
  0
LINE
  5
BAC1
330
B989
100
AcDbEntity
  8
1
  6
Continuous
100
AcDbLine
 10
180.437878
 20
90.39267399999998
 30
0.0
 11
180.437878
 21
87.792674
 31
0.0
  0
LINE
  5
BAC2
330
B989
100
AcDbEntity
  8
1
  6
Continuous
100
AcDbLine
 10
180.437878
 20
56.158239
 30
0.0
 11
180.437878
 21
53.558239
 31
0.0
  0
ARC
  5
BAC3
330
B989
100
AcDbEntity
  8
1
  6
Continuous
100
AcDbCircle
 10
194.586035
 20
101.0577379999999
 30
0.0
 40
8.665063999999999
100
AcDbArc
 50
249.7438419999999
 51
290.256158
  0
ARC
  5
BAC4
330
B989
100
AcDbEntity
  8
1
  6
Continuous
100
AcDbCircle
 10
194.586035
 20
88.72761099999998
 30
0.0
 40
8.665063999999999
100
AcDbArc
 50
69.743842
 51
110.256158
  0
LINE
  5
BAC5
330
B989
100
AcDbEntity
  8
1
  6
Continuous
100
AcDbLine
 10
185.586035
 20
97.39267400000001
 30
0.0
 11
197.5860349999999
 21
97.39267400000001
 31
0.0
  0
LINE
  5
BAC6
330
B989
100
AcDbEntity
  8
1
  6
Continuous
100
AcDbLine
 10
197.5860349999999
 20
97.39267400000001
 30
0.0
 11
197.5860349999999
 21
92.39267400000001
 31
0.0
  0
ARC
  5
BAC7
330
B989
100
AcDbEntity
  8
1
  6
Continuous
100
AcDbCircle
 10
188.586035
 20
101.0577379999999
 30
0.0
 40
8.665063999999999
100
AcDbArc
 50
249.7438419999999
 51
290.256158
  0
ARC
  5
BAC8
330
B989
100
AcDbEntity
  8
1
  6
Continuous
100
AcDbCircle
 10
188.586035
 20
88.72761099999998
 30
0.0
 40
8.665063999999999
100
AcDbArc
 50
69.743842
 51
110.256158
  0
LINE
  5
BAC9
330
B989
100
AcDbEntity
  8
1
  6
Continuous
100
AcDbLine
 10
191.586035
 20
92.928572
 30
0.0
 11
191.586035
 21
96.85677599999999
 31
0.0
  0
LINE
  5
BACA
330
B989
100
AcDbEntity
  8
1
  6
Continuous
100
AcDbLine
 10
185.586035
 20
97.39267400000001
 30
0.0
 11
185.586035
 21
92.39267400000001
 31
0.0
  0
ARC
  5
BACB
330
B989
100
AcDbEntity
  8
1
  6
Continuous
100
AcDbCircle
 10
224.586035
 20
71.975465
 30
0.0
 40
27.425
100
AcDbArc
 50
228.8251119999999
 51
131.1749289999999
  0
ARC
  5
BACC
330
B989
100
AcDbEntity
  8
1
  6
Continuous
100
AcDbCircle
 10
224.586035
 20
71.975465
 30
0.0
 40
24.82499999999999
100
AcDbArc
 50
228.8251119999999
 51
131.1749289999999
  0
ARC
  5
BACD
330
B989
100
AcDbEntity
  8
1
  6
Continuous
100
AcDbCircle
 10
224.586035
 20
71.975465
 30
0.0
 40
19.82499999999999
100
AcDbArc
 50
213.700727
 51
146.299273
  0
ARC
  5
BACE
330
B989
100
AcDbEntity
  8
1
  6
Continuous
100
AcDbCircle
 10
224.586035
 20
71.975465
 30
0.0
 40
11.82499999999999
100
AcDbArc
 50
248.4710959999999
 51
291.528904
  0
ARC
  5
BACF
330
B989
100
AcDbEntity
  8
1
  6
Continuous
100
AcDbCircle
 10
224.586035
 20
71.975465
 30
0.0
 40
11.82499999999999
100
AcDbArc
 50
68.471096
 51
111.5289039999999
  0
LINE
  5
BAD0
330
B989
100
AcDbEntity
  8
4
  6
CENTER
100
AcDbLine
 10
304.626286
 20
206.4441629999998
 30
0.0
 11
364.926286
 21
206.4441629999998
 31
0.0
  0
LINE
  5
BAD1
330
B989
100
AcDbEntity
  8
1
  6
Continuous
100
AcDbLine
 10
352.0090599999999
 20
200.9441629999999
 30
0.0
 11
352.0090599999999
 21
211.9441629999998
 31
0.0
  0
LINE
  5
BAD2
330
B989
100
AcDbEntity
  8
1
  6
Continuous
100
AcDbLine
 10
351.7590599999999
 20
213.9441629999998
 30
0.0
 11
351.7590599999999
 21
198.9441629999998
 31
0.0
  0
LINE
  5
BAD3
330
B989
100
AcDbEntity
  8
1
  6
Continuous
100
AcDbLine
 10
350.7590599999999
 20
215.2457829999999
 30
0.0
 11
350.7590599999999
 21
197.6425419999999
 31
0.0
  0
LINE
  5
BAD4
330
B989
100
AcDbEntity
  8
1
  6
Continuous
100
AcDbLine
 10
352.0090599999999
 20
200.9441629999999
 30
0.0
 11
351.7590599999999
 21
200.9441629999999
 31
0.0
  0
LINE
  5
BAD5
330
B989
100
AcDbEntity
  8
1
  6
Continuous
100
AcDbLine
 10
352.0090599999999
 20
202.4441629999998
 30
0.0
 11
352.3262689999999
 21
202.4441629999998
 31
0.0
  0
ARC
  5
BAD6
330
B989
100
AcDbEntity
  8
1
  6
Continuous
100
AcDbCircle
 10
349.8127600000001
 20
199.4045059999999
 30
0.0
 40
2.0
100
AcDbArc
 50
298.2389669999998
 51
346.6928189999999
  0
ARC
  5
BAD7
330
B989
100
AcDbEntity
  8
1
  6
Continuous
100
AcDbCircle
 10
332.3712039999999
 20
202.4265549999999
 30
0.0
 40
19.0
100
AcDbArc
 50
322.818892
 51
345.416531
  0
ARC
  5
BAD8
330
B989
100
AcDbEntity
  8
1
  6
Continuous
100
AcDbCircle
 10
349.8127600000001
 20
213.4838189999999
 30
0.0
 40
2.0
100
AcDbArc
 50
13.30718099999998
 51
61.761033
  0
ARC
  5
BAD9
330
B989
100
AcDbEntity
  8
1
  6
Continuous
100
AcDbCircle
 10
332.3712039999999
 20
210.46177
 30
0.0
 40
19.0
100
AcDbArc
 50
14.583469
 51
37.181108
  0
LINE
  5
BADA
330
B989
100
AcDbEntity
  8
1
  6
Continuous
100
AcDbLine
 10
352.0090599999999
 20
211.9441629999998
 30
0.0
 11
351.7590599999999
 21
211.9441629999998
 31
0.0
  0
LINE
  5
BADB
330
B989
100
AcDbEntity
  8
1
  6
Continuous
100
AcDbLine
 10
352.3262689999999
 20
210.4441629999998
 30
0.0
 11
352.0090599999999
 21
210.4441629999998
 31
0.0
  0
LINE
  5
BADC
330
B989
100
AcDbEntity
  8
1
  6
Continuous
100
AcDbLine
 10
321.00906
 20
200.9441629999999
 30
0.0
 11
321.00906
 21
211.9441629999998
 31
0.0
  0
LINE
  5
BADD
330
B989
100
AcDbEntity
  8
1
  6
Continuous
100
AcDbLine
 10
321.2590599999999
 20
213.9441629999998
 30
0.0
 11
321.2590599999999
 21
198.9441629999998
 31
0.0
  0
LINE
  5
BADE
330
B989
100
AcDbEntity
  8
1
  6
Continuous
100
AcDbLine
 10
322.2590599999999
 20
215.2457829999999
 30
0.0
 11
322.2590599999999
 21
197.6425419999999
 31
0.0
  0
LINE
  5
BADF
330
B989
100
AcDbEntity
  8
1
  6
Continuous
100
AcDbLine
 10
321.00906
 20
200.9441629999999
 30
0.0
 11
321.2590599999999
 21
200.9441629999999
 31
0.0
  0
LINE
  5
BAE0
330
B989
100
AcDbEntity
  8
1
  6
Continuous
100
AcDbLine
 10
320.6918339999999
 20
202.4441629999998
 30
0.0
 11
321.00906
 21
202.4441629999998
 31
0.0
  0
ARC
  5
BAE1
330
B989
100
AcDbEntity
  8
1
  6
Continuous
100
AcDbCircle
 10
323.2053599999999
 20
199.4045059999999
 30
0.0
 40
2.0
100
AcDbArc
 50
193.3071809999999
 51
241.761033
  0
ARC
  5
BAE2
330
B989
100
AcDbEntity
  8
1
  6
Continuous
100
AcDbCircle
 10
340.6469149999999
 20
202.4265549999999
 30
0.0
 40
19.0
100
AcDbArc
 50
194.583469
 51
217.1811079999999
  0
ARC
  5
BAE3
330
B989
100
AcDbEntity
  8
1
  6
Continuous
100
AcDbCircle
 10
323.2053599999999
 20
213.4838189999999
 30
0.0
 40
2.0
100
AcDbArc
 50
118.2389669999998
 51
166.6928189999999
  0
LINE
  5
BAE4
330
B989
100
AcDbEntity
  8
1
  6
Continuous
100
AcDbLine
 10
321.00906
 20
211.9441629999998
 30
0.0
 11
321.2590599999999
 21
211.9441629999998
 31
0.0
  0
LINE
  5
BAE5
330
B989
100
AcDbEntity
  8
1
  6
Continuous
100
AcDbLine
 10
320.6918339999999
 20
210.4441629999998
 30
0.0
 11
321.00906
 21
210.4441629999998
 31
0.0
  0
ARC
  5
BAE6
330
B989
100
AcDbEntity
  8
1
  6
Continuous
100
AcDbCircle
 10
340.6469149999999
 20
210.46177
 30
0.0
 40
19.0
100
AcDbArc
 50
142.818892
 51
165.4165309999999
  0
ARC
  5
BAE7
330
B989
100
AcDbEntity
  8
1
  6
Continuous
100
AcDbCircle
 10
327.4680599999999
 20
228.525321
 30
0.0
 40
36.466
100
AcDbArc
 50
323.7207199999998
 51
0.0
  0
LINE
  5
BAE8
330
B989
100
AcDbEntity
  8
1
  6
Continuous
100
AcDbLine
 10
354.9262689999998
 20
201.0303809999999
 30
0.0
 11
354.9262689999998
 21
194.9438629999999
 31
0.0
  0
ARC
  5
BAE9
330
B989
100
AcDbEntity
  8
1
  6
Continuous
100
AcDbCircle
 10
364.926269
 20
201.0303809999999
 30
0.0
 40
10.0
100
AcDbArc
 50
143.72072
 51
180.0
  0
ARC
  5
BAEA
330
B989
100
AcDbEntity
  8
1
  6
Continuous
100
AcDbCircle
 10
327.4680599999999
 20
228.525321
 30
0.0
 40
33.866
100
AcDbArc
 50
323.7207009999999
 51
0.0
  0
ARC
  5
BAEB
330
B989
100
AcDbEntity
  8
1
  6
Continuous
100
AcDbCircle
 10
364.92626
 20
201.030369
 30
0.0
 40
12.6
100
AcDbArc
 50
143.7207009999999
 51
180.0
  0
ARC
  5
BAEC
330
B989
100
AcDbEntity
  8
1
  6
Continuous
100
AcDbCircle
 10
345.5500599999999
 20
228.525321
 30
0.0
 40
33.866
100
AcDbArc
 50
180.0
 51
216.279299
  0
ARC
  5
BAED
330
B989
100
AcDbEntity
  8
1
  6
Continuous
100
AcDbCircle
 10
345.5500599999999
 20
228.525321
 30
0.0
 40
36.466
100
AcDbArc
 50
180.0
 51
216.2792799999998
  0
ARC
  5
BAEE
330
B989
100
AcDbEntity
  8
1
  6
Continuous
100
AcDbCircle
 10
308.0918599999999
 20
201.030369
 30
0.0
 40
12.6
100
AcDbArc
 50
0.0
 51
36.279299
  0
ARC
  5
BAEF
330
B989
100
AcDbEntity
  8
1
  6
Continuous
100
AcDbCircle
 10
308.0918509999999
 20
201.0303809999999
 30
0.0
 40
10.0
100
AcDbArc
 50
0.0
 51
36.27928
  0
LINE
  5
BAF0
330
B989
100
AcDbEntity
  8
1
  6
Continuous
100
AcDbLine
 10
318.0918509999999
 20
201.0303809999999
 30
0.0
 11
318.0918509999999
 21
194.9438629999999
 31
0.0
  0
ARC
  5
BAF1
330
B989
100
AcDbEntity
  8
1
  6
Continuous
100
AcDbCircle
 10
304.6277319999999
 20
206.4441629999998
 30
0.0
 40
11.464102
100
AcDbArc
 50
342.4120459999999
 51
3.048318999999998
  0
ARC
  5
BAF2
330
B989
100
AcDbEntity
  8
1
  6
Continuous
100
AcDbCircle
 10
322.5559359999999
 20
206.4441629999998
 30
0.0
 40
11.464102
100
AcDbArc
 50
162.412046
 51
197.5879539999999
  0
LINE
  5
BAF3
330
B989
100
AcDbEntity
  8
1
  6
Continuous
100
AcDbLine
 10
311.091834
 20
212.4441629999998
 30
0.0
 11
311.091834
 21
200.4441629999998
 31
0.0
  0
LINE
  5
BAF4
330
B989
100
AcDbEntity
  8
1
  6
Continuous
100
AcDbLine
 10
310.2918339999998
 20
202.4441629999998
 30
0.0
 11
310.2918339999998
 21
210.4441629999998
 31
0.0
  0
LINE
  5
BAF5
330
B989
100
AcDbEntity
  8
1
  6
Continuous
100
AcDbLine
 10
309.6262689999999
 20
203.109728
 30
0.0
 11
309.6262689999999
 21
209.767663
 31
0.0
  0
LINE
  5
BAF6
330
B989
100
AcDbEntity
  8
1
  6
Continuous
100
AcDbLine
 10
315.5559359999998
 20
202.980061
 30
0.0
 11
311.627732
 21
202.980061
 31
0.0
  0
LINE
  5
BAF7
330
B989
100
AcDbEntity
  8
1
  6
Continuous
100
AcDbLine
 10
315.5559359999998
 20
199.51596
 30
0.0
 11
311.627732
 21
199.51596
 31
0.0
  0
ARC
  5
BAF8
330
B989
100
AcDbEntity
  8
1
  6
Continuous
100
AcDbCircle
 10
313.024847
 20
201.2480109999999
 30
0.0
 40
3.066986999999998
100
AcDbArc
 50
334.384247
 51
34.38424699999998
  0
LINE
  5
BAF9
330
B989
100
AcDbEntity
  8
1
  6
Continuous
100
AcDbLine
 10
315.5559359999998
 20
199.51596
 30
0.0
 11
316.091834
 21
200.4441629999998
 31
0.0
  0
LINE
  5
BAFA
330
B989
100
AcDbEntity
  8
1
  6
Continuous
100
AcDbLine
 10
316.091834
 20
198.9441629999998
 30
0.0
 11
316.091834
 21
206.4441629999998
 31
0.0
  0
LINE
  5
BAFB
330
B989
100
AcDbEntity
  8
1
  6
Continuous
100
AcDbLine
 10
318.091834
 20
198.9441629999998
 30
0.0
 11
316.091834
 21
198.9441629999998
 31
0.0
  0
ARC
  5
BAFC
330
B989
100
AcDbEntity
  8
1
  6
Continuous
100
AcDbCircle
 10
314.158821
 20
201.2480109999999
 30
0.0
 40
3.066986999999998
100
AcDbArc
 50
145.615753
 51
205.615753
  0
LINE
  5
BAFD
330
B989
100
AcDbEntity
  8
1
  6
Continuous
100
AcDbLine
 10
311.627732
 20
199.51596
 30
0.0
 11
311.091834
 21
200.4441629999998
 31
0.0
  0
LINE
  5
BAFE
330
B989
100
AcDbEntity
  8
1
  6
Continuous
100
AcDbLine
 10
309.6262689999999
 20
203.109728
 30
0.0
 11
310.2918339999998
 21
202.4441629999998
 31
0.0
  0
LINE
  5
BAFF
330
B989
100
AcDbEntity
  8
2
  6
Continuous
100
AcDbLine
 10
311.091834
 20
203.1206629999998
 30
0.0
 11
309.6262689999999
 21
203.1206629999998
 31
0.0
  0
LINE
  5
BB00
330
B989
100
AcDbEntity
  8
1
  6
Continuous
100
AcDbLine
 10
311.091834
 20
202.4441629999998
 30
0.0
 11
310.2918339999998
 21
202.4441629999998
 31
0.0
  0
LINE
  5
BB01
330
B989
100
AcDbEntity
  8
1
  6
Continuous
100
AcDbLine
 10
312.3814439999998
 20
213.372366
 30
0.0
 11
311.627732
 21
213.372366
 31
0.0
  0
LINE
  5
BB02
330
B989
100
AcDbEntity
  8
1
  6
Continuous
100
AcDbLine
 10
314.194449
 20
209.908265
 30
0.0
 11
311.627732
 21
209.908265
 31
0.0
  0
LINE
  5
BB03
330
B989
100
AcDbEntity
  8
1
  6
Continuous
100
AcDbLine
 10
311.627732
 20
213.372366
 30
0.0
 11
311.091834
 21
212.4441629999998
 31
0.0
  0
ARC
  5
BB04
330
B989
100
AcDbEntity
  8
1
  6
Continuous
100
AcDbCircle
 10
314.158821
 20
211.640315
 30
0.0
 40
3.066986999999998
100
AcDbArc
 50
154.3842469999999
 51
214.384247
  0
LINE
  5
BB05
330
B989
100
AcDbEntity
  8
1
  6
Continuous
100
AcDbLine
 10
310.302769
 20
210.4441629999998
 30
0.0
 11
309.6262689999999
 21
209.767663
 31
0.0
  0
LINE
  5
BB06
330
B989
100
AcDbEntity
  8
2
  6
Continuous
100
AcDbLine
 10
311.091834
 20
209.767663
 30
0.0
 11
309.6262689999999
 21
209.767663
 31
0.0
  0
LINE
  5
BB07
330
B989
100
AcDbEntity
  8
1
  6
Continuous
100
AcDbLine
 10
311.091834
 20
210.4441629999998
 30
0.0
 11
310.302769
 21
210.4441629999998
 31
0.0
  0
LINE
  5
BB08
330
B989
100
AcDbEntity
  8
1
  6
Continuous
100
AcDbLine
 10
316.3367779999999
 20
206.689107
 30
0.0
 11
316.091834
 21
206.4441629999998
 31
0.0
  0
LINE
  5
BB09
330
B989
100
AcDbEntity
  8
1
  6
Continuous
100
AcDbLine
 10
317.0738739999999
 20
205.4262029999999
 30
0.0
 11
316.091834
 21
204.4441629999998
 31
0.0
  0
LINE
  5
BB0A
330
B989
100
AcDbEntity
  8
1
  6
Continuous
100
AcDbLine
 10
190.2046699999999
 20
403.878449
 30
0.0
 11
147.3167259999998
 21
403.878449
 31
0.0
  0
LINE
  5
BB0B
330
B989
100
AcDbEntity
  8
1
  6
Continuous
100
AcDbLine
 10
190.204674
 20
425.878449
 30
0.0
 11
147.3167259999998
 21
425.878449
 31
0.0
  0
LINE
  5
BB0C
330
B989
100
AcDbEntity
  8
4
  6
CENTER
100
AcDbLine
 10
191.586048
 20
443.295674
 30
0.0
 11
191.586048
 21
382.9956759999998
 31
0.0
  0
CIRCLE
  5
BB0D
330
B989
100
AcDbEntity
  8
1
  6
Continuous
100
AcDbCircle
 10
224.586035
 20
414.8784489999998
 30
0.0
 40
4.499976
  0
ARC
  5
BB0E
330
B989
100
AcDbEntity
  8
1
  6
Continuous
100
AcDbCircle
 10
224.586035
 20
414.8784489999998
 30
0.0
 40
9.25
100
AcDbArc
 50
295.484369
 51
64.515631
  0
ARC
  5
BB0F
330
B989
100
AcDbEntity
  8
1
  6
Continuous
100
AcDbCircle
 10
224.586035
 20
414.8784489999998
 30
0.0
 40
9.25
100
AcDbArc
 50
115.4843689999999
 51
244.515631
  0
CIRCLE
  5
BB10
330
B989
100
AcDbEntity
  8
1
  6
Continuous
100
AcDbCircle
 10
224.586035
 20
414.8784489999998
 30
0.0
 40
9.5
  0
LINE
  5
BB11
330
B989
100
AcDbEntity
  8
1
  6
Continuous
100
AcDbLine
 10
240.751843
 20
414.8784489999998
 30
0.0
 11
232.6689389999999
 21
428.878449
 31
0.0
  0
LINE
  5
BB12
330
B989
100
AcDbEntity
  8
1
  6
Continuous
100
AcDbLine
 10
216.503132
 20
428.878449
 30
0.0
 11
208.4202279999999
 21
414.8784489999998
 31
0.0
  0
ARC
  5
BB13
330
B989
100
AcDbEntity
  8
1
  6
Continuous
100
AcDbCircle
 10
242.4471089999999
 20
414.878441
 30
0.0
 40
53.38794100000001
100
AcDbArc
 50
159.8200589999999
 51
200.1799409999999
  0
CIRCLE
  5
BB14
330
B989
100
AcDbEntity
  8
1
  6
Continuous
100
AcDbCircle
 10
224.586035
 20
414.8784489999998
 30
0.0
 40
6.0
  0
ARC
  5
BB15
330
B989
100
AcDbEntity
  8
1
  6
Continuous
100
AcDbCircle
 10
225.279254
 20
414.8784489999998
 30
0.0
 40
28.865452
100
AcDbArc
 50
139.0925329999998
 51
220.5077509999999
  0
CIRCLE
  5
BB16
330
B989
100
AcDbEntity
  8
1
  6
Continuous
100
AcDbCircle
 10
224.586035
 20
414.8784489999998
 30
0.0
 40
25.0
  0
CIRCLE
  5
BB17
330
B989
100
AcDbEntity
  8
1
  6
Continuous
100
AcDbCircle
 10
224.586035
 20
414.8784489999998
 30
0.0
 40
26.6861
  0
LINE
  5
BB18
330
B989
100
AcDbEntity
  8
1
  6
Continuous
100
AcDbLine
 10
232.6689389999999
 20
400.878449
 30
0.0
 11
216.503132
 21
400.878449
 31
0.0
  0
LINE
  5
BB19
330
B989
100
AcDbEntity
  8
1
  6
Continuous
100
AcDbLine
 10
240.751843
 20
414.8784489999998
 30
0.0
 11
232.6689389999999
 21
400.878449
 31
0.0
  0
LINE
  5
BB1A
330
B989
100
AcDbEntity
  8
1
  6
Continuous
100
AcDbLine
 10
228.565985
 20
406.528449
 30
0.0
 11
220.606086
 21
406.528449
 31
0.0
  0
LINE
  5
BB1B
330
B989
100
AcDbEntity
  8
1
  6
Continuous
100
AcDbLine
 10
200.605284
 20
396.461224
 30
0.0
 11
180.836444
 21
396.461224
 31
0.0
  0
LINE
  5
BB1C
330
B989
100
AcDbEntity
  8
1
  6
Continuous
100
AcDbLine
 10
191.456052
 20
399.0612239999999
 30
0.0
 11
180.836444
 21
399.0612239999999
 31
0.0
  0
LINE
  5
BB1D
330
B989
100
AcDbEntity
  8
1
  6
Continuous
100
AcDbLine
 10
190.996065
 20
400.6284489999998
 30
0.0
 11
182.7844279999999
 21
400.6284489999998
 31
0.0
  0
LINE
  5
BB1E
330
B989
100
AcDbEntity
  8
1
  6
Continuous
100
AcDbLine
 10
191.283548
 20
399.6284489999999
 30
0.0
 11
184.086048
 21
399.6284489999999
 31
0.0
  0
LINE
  5
BB1F
330
B989
100
AcDbEntity
  8
1
  6
Continuous
100
AcDbLine
 10
216.503132
 20
400.878449
 30
0.0
 11
208.4202279999999
 21
414.8784489999998
 31
0.0
  0
LINE
  5
BB20
330
B989
100
AcDbEntity
  8
1
  6
Continuous
100
AcDbLine
 10
186.086048
 20
399.3784489999999
 30
0.0
 11
191.35873
 21
399.3784489999999
 31
0.0
  0
LINE
  5
BB21
330
B989
100
AcDbEntity
  8
1
  6
Continuous
100
AcDbLine
 10
187.586048
 20
399.0612239999999
 30
0.0
 11
187.586048
 21
399.3784489999999
 31
0.0
  0
LINE
  5
BB22
330
B989
100
AcDbEntity
  8
1
  6
Continuous
100
AcDbLine
 10
186.086048
 20
399.3784489999999
 30
0.0
 11
186.086048
 21
399.6284489999999
 31
0.0
  0
ARC
  5
BB23
330
B989
100
AcDbEntity
  8
1
  6
Continuous
100
AcDbCircle
 10
187.5684409999998
 20
419.0163039999998
 30
0.0
 40
19.0
100
AcDbArc
 50
232.818892
 51
255.416531
  0
LINE
  5
BB24
330
B989
100
AcDbEntity
  8
1
  6
Continuous
100
AcDbLine
 10
180.836444
 20
396.461224
 30
0.0
 11
180.836444
 21
399.0612239999999
 31
0.0
  0
ARC
  5
BB25
330
B989
100
AcDbEntity
  8
1
  6
Continuous
100
AcDbCircle
 10
184.546392
 20
401.5747489999998
 30
0.0
 40
2.0
100
AcDbArc
 50
208.2389669999999
 51
256.692819
  0
LINE
  5
BB26
330
B989
100
AcDbEntity
  8
1
  6
Continuous
100
AcDbLine
 10
232.6689389999999
 20
428.878449
 30
0.0
 11
216.503132
 21
428.878449
 31
0.0
  0
LINE
  5
BB27
330
B989
100
AcDbEntity
  8
1
  6
Continuous
100
AcDbLine
 10
228.565985
 20
423.228449
 30
0.0
 11
220.606086
 21
423.228449
 31
0.0
  0
LINE
  5
BB28
330
B989
100
AcDbEntity
  8
1
  6
Continuous
100
AcDbLine
 10
224.586035
 20
428.878449
 30
0.0
 11
228.8067739999999
 21
428.878449
 31
0.0
  0
LINE
  5
BB29
330
B989
100
AcDbEntity
  8
1
  6
Continuous
100
AcDbLine
 10
200.6052659999999
 20
433.295658
 30
0.0
 11
180.8364479999999
 21
433.295658
 31
0.0
  0
LINE
  5
BB2A
330
B989
100
AcDbEntity
  8
1
  6
Continuous
100
AcDbLine
 10
191.456052
 20
430.6956579999998
 30
0.0
 11
180.8364479999999
 21
430.6956579999998
 31
0.0
  0
LINE
  5
BB2B
330
B989
100
AcDbEntity
  8
1
  6
Continuous
100
AcDbLine
 10
190.996069
 20
429.1284489999998
 30
0.0
 11
182.7844279999999
 21
429.1284489999998
 31
0.0
  0
LINE
  5
BB2C
330
B989
100
AcDbEntity
  8
1
  6
Continuous
100
AcDbLine
 10
191.283553
 20
430.1284489999998
 30
0.0
 11
184.086048
 21
430.1284489999998
 31
0.0
  0
LINE
  5
BB2D
330
B989
100
AcDbEntity
  8
1
  6
Continuous
100
AcDbLine
 10
186.086048
 20
430.3784489999999
 30
0.0
 11
191.358735
 21
430.3784489999999
 31
0.0
  0
LINE
  5
BB2E
330
B989
100
AcDbEntity
  8
1
  6
Continuous
100
AcDbLine
 10
187.586048
 20
430.3784489999999
 30
0.0
 11
187.586048
 21
430.6956579999998
 31
0.0
  0
LINE
  5
BB2F
330
B989
100
AcDbEntity
  8
1
  6
Continuous
100
AcDbLine
 10
186.086048
 20
430.3784489999999
 30
0.0
 11
186.086048
 21
430.1284489999998
 31
0.0
  0
ARC
  5
BB30
330
B989
100
AcDbEntity
  8
1
  6
Continuous
100
AcDbCircle
 10
184.546392
 20
428.1821489999998
 30
0.0
 40
2.0
100
AcDbArc
 50
103.307181
 51
151.761033
  0
ARC
  5
BB31
330
B989
100
AcDbEntity
  8
1
  6
Continuous
100
AcDbCircle
 10
187.5684409999998
 20
410.7405939999998
 30
0.0
 40
19.0
100
AcDbArc
 50
104.5834689999998
 51
127.181108
  0
LINE
  5
BB32
330
B989
100
AcDbEntity
  8
1
  6
Continuous
100
AcDbLine
 10
180.836444
 20
430.6956579999998
 30
0.0
 11
180.836444
 21
433.295658
 31
0.0
  0
LINE
  5
BB33
330
B989
100
AcDbEntity
  8
1
  6
Continuous
100
AcDbLine
 10
322.5090359999999
 20
280.4436299999999
 30
0.0
 11
322.5090359999999
 21
276.9436519999998
 31
0.0
  0
LINE
  5
BB34
330
B989
100
AcDbEntity
  8
1
  6
Continuous
100
AcDbLine
 10
336.5090359999999
 20
280.4436299999999
 30
0.0
 11
336.5090359999999
 21
276.9436519999998
 31
0.0
  0
LINE
  5
BB35
330
B989
100
AcDbEntity
  8
1
  6
Continuous
100
AcDbLine
 10
350.509036
 20
280.4436299999999
 30
0.0
 11
350.509036
 21
276.9436519999998
 31
0.0
  0
ARC
  5
BB36
330
B989
100
AcDbEntity
  8
1
  6
Continuous
100
AcDbCircle
 10
171.586048
 20
414.8784489999998
 30
0.0
 40
30.0
100
AcDbArc
 50
166.11346
 51
193.88654
  0
LINE
  5
BB37
330
B989
100
AcDbEntity
  8
1
  6
Continuous
100
AcDbLine
 10
328.15906
 20
329.5436299999999
 30
0.0
 11
328.15906
 21
326.3436299999999
 31
0.0
  0
ARC
  5
BB38
330
B989
100
AcDbEntity
  8
1
  6
Continuous
100
AcDbCircle
 10
147.3167259999998
 20
408.878449
 30
0.0
 40
5.0
100
AcDbArc
 50
193.88654
 51
270.0
  0
LINE
  5
BB39
330
B989
100
AcDbEntity
  8
1
  6
Continuous
100
AcDbLine
 10
344.85906
 20
329.5436299999999
 30
0.0
 11
344.85906
 21
326.3436299999999
 31
0.0
  0
ARC
  5
BB3A
330
B989
100
AcDbEntity
  8
1
  6
Continuous
100
AcDbCircle
 10
147.3167259999998
 20
420.878449
 30
0.0
 40
5.0
100
AcDbArc
 50
90.0
 51
166.11346
  0
CIRCLE
  5
BB3B
330
B989
100
AcDbEntity
  8
2
  6
Continuous
100
AcDbCircle
 10
224.586035
 20
414.8784489999998
 30
0.0
 40
5.052999999999999
  0
ARC
  5
BB3C
330
B989
100
AcDbEntity
  8
1
  6
Continuous
100
AcDbCircle
 10
36.12156599999997
 20
272.9266729999998
 30
0.0
 40
4.0
100
AcDbArc
 50
90.0
 51
180.0
  0
LINE
  5
BB3D
330
B989
100
AcDbEntity
  8
1
  6
Continuous
100
AcDbLine
 10
30.43546599999999
 20
270.4012109999998
 30
0.0
 11
31.665722
 21
271.632467
 31
0.0
  0
LINE
  5
BB3E
330
B989
100
AcDbEntity
  8
1
  6
Continuous
100
AcDbLine
 10
30.43546599999999
 20
271.632467
 30
0.0
 11
83.80766599999999
 21
271.632467
 31
0.0
  0
LINE
  5
BB3F
330
B989
100
AcDbEntity
  8
1
  6
Continuous
100
AcDbLine
 10
83.80766599999999
 20
272.9266729999998
 30
0.0
 11
30.43546599999999
 21
272.9266729999998
 31
0.0
  0
LINE
  5
BB40
330
B989
100
AcDbEntity
  8
1
  6
Continuous
100
AcDbLine
 10
30.43546599999999
 20
269.0929779999998
 30
0.0
 11
30.43546599999999
 21
272.9266729999998
 31
0.0
  0
LINE
  5
BB41
330
B989
100
AcDbEntity
  8
1
  6
Continuous
100
AcDbLine
 10
31.37578299999999
 20
269.0929779999998
 30
0.0
 11
30.43546599999999
 21
270.0332949999999
 31
0.0
  0
LINE
  5
BB42
330
B989
100
AcDbEntity
  8
1
  6
Continuous
100
AcDbLine
 10
47.62156599999999
 20
281.9266509999998
 30
0.0
 11
47.62156599999999
 21
325.3266509999999
 31
0.0
  0
LINE
  5
BB43
330
B989
100
AcDbEntity
  8
1
  6
Continuous
100
AcDbLine
 10
66.621566
 20
325.3266509999999
 30
0.0
 11
66.621566
 21
281.9266509999998
 31
0.0
  0
LINE
  5
BB44
330
B989
100
AcDbEntity
  8
1
  6
Continuous
100
AcDbLine
 10
63.06835799999999
 20
269.0929779999998
 30
0.0
 11
65.606847
 21
271.632467
 31
0.0
  0
LINE
  5
BB45
330
B989
100
AcDbEntity
  8
1
  6
Continuous
100
AcDbLine
 10
65.316909
 20
269.0929779999998
 30
0.0
 11
62.77841999999999
 21
271.632467
 31
0.0
  0
LINE
  5
BB46
330
B989
100
AcDbEntity
  8
1
  6
Continuous
100
AcDbLine
 10
36.12156599999997
 20
276.926673
 30
0.0
 11
78.121566
 21
276.926673
 31
0.0
  0
LINE
  5
BB47
330
B989
100
AcDbEntity
  8
1
  6
Continuous
100
AcDbLine
 10
47.62156599999999
 20
284.3266509999999
 30
0.0
 11
66.621566
 21
284.3266509999999
 31
0.0
  0
LINE
  5
BB48
330
B989
100
AcDbEntity
  8
1
  6
Continuous
100
AcDbLine
 10
71.12154100000002
 20
280.426651
 30
0.0
 11
43.12154099999999
 21
280.426651
 31
0.0
  0
ARC
  5
BB49
330
B989
100
AcDbEntity
  8
1
  6
Continuous
100
AcDbCircle
 10
49.12156599999999
 20
281.9266509999998
 30
0.0
 40
1.5
100
AcDbArc
 50
180.0
 51
270.0
  0
LINE
  5
BB4A
330
B989
100
AcDbEntity
  8
1
  6
Continuous
100
AcDbLine
 10
46.097795
 20
269.0929779999998
 30
0.0
 11
48.636284
 21
271.632467
 31
0.0
  0
LINE
  5
BB4B
330
B989
100
AcDbEntity
  8
1
  6
Continuous
100
AcDbLine
 10
48.34634600000001
 20
269.0929779999998
 30
0.0
 11
45.80785699999998
 21
271.632467
 31
0.0
  0
LINE
  5
BB4C
330
B989
100
AcDbEntity
  8
1
  6
Continuous
100
AcDbLine
 10
40.44094099999997
 20
269.0929779999998
 30
0.0
 11
42.97943
 21
271.632467
 31
0.0
  0
LINE
  5
BB4D
330
B989
100
AcDbEntity
  8
1
  6
Continuous
100
AcDbLine
 10
42.689492
 20
269.0929779999998
 30
0.0
 11
40.151003
 21
271.632467
 31
0.0
  0
LINE
  5
BB4E
330
B989
100
AcDbEntity
  8
1
  6
Continuous
100
AcDbLine
 10
31.95565999999999
 20
269.0929779999998
 30
0.0
 11
34.494149
 21
271.632467
 31
0.0
  0
LINE
  5
BB4F
330
B989
100
AcDbEntity
  8
1
  6
Continuous
100
AcDbLine
 10
34.20420999999999
 20
269.0929779999998
 30
0.0
 11
31.665722
 21
271.632467
 31
0.0
  0
LINE
  5
BB50
330
B989
100
AcDbEntity
  8
1
  6
Continuous
100
AcDbLine
 10
34.784087
 20
269.0929779999998
 30
0.0
 11
37.322576
 21
271.632467
 31
0.0
  0
LINE
  5
BB51
330
B989
100
AcDbEntity
  8
1
  6
Continuous
100
AcDbLine
 10
37.032638
 20
269.0929779999998
 30
0.0
 11
34.494149
 21
271.632467
 31
0.0
  0
LINE
  5
BB52
330
B989
100
AcDbEntity
  8
1
  6
Continuous
100
AcDbLine
 10
37.61251399999999
 20
269.0929779999998
 30
0.0
 11
40.151003
 21
271.632467
 31
0.0
  0
LINE
  5
BB53
330
B989
100
AcDbEntity
  8
1
  6
Continuous
100
AcDbLine
 10
39.861065
 20
269.0929779999998
 30
0.0
 11
37.322576
 21
271.632467
 31
0.0
  0
LINE
  5
BB54
330
B989
100
AcDbEntity
  8
1
  6
Continuous
100
AcDbLine
 10
43.269368
 20
269.0929779999998
 30
0.0
 11
45.80785699999998
 21
271.632467
 31
0.0
  0
LINE
  5
BB55
330
B989
100
AcDbEntity
  8
1
  6
Continuous
100
AcDbLine
 10
45.517919
 20
269.0929779999998
 30
0.0
 11
42.97943
 21
271.632467
 31
0.0
  0
LINE
  5
BB56
330
B989
100
AcDbEntity
  8
1
  6
Continuous
100
AcDbLine
 10
57.411504
 20
269.0929779999998
 30
0.0
 11
59.94999299999999
 21
271.632467
 31
0.0
  0
LINE
  5
BB57
330
B989
100
AcDbEntity
  8
1
  6
Continuous
100
AcDbLine
 10
59.66005500000001
 20
269.0929779999998
 30
0.0
 11
57.121566
 21
271.632467
 31
0.0
  0
LINE
  5
BB58
330
B989
100
AcDbEntity
  8
1
  6
Continuous
100
AcDbLine
 10
48.926223
 20
269.0929779999998
 30
0.0
 11
51.464711
 21
271.632467
 31
0.0
  0
LINE
  5
BB59
330
B989
100
AcDbEntity
  8
1
  6
Continuous
100
AcDbLine
 10
51.174773
 20
269.0929779999998
 30
0.0
 11
48.636284
 21
271.632467
 31
0.0
  0
LINE
  5
BB5A
330
B989
100
AcDbEntity
  8
1
  6
Continuous
100
AcDbLine
 10
51.75464999999999
 20
269.0929779999998
 30
0.0
 11
54.293139
 21
271.632467
 31
0.0
  0
LINE
  5
BB5B
330
B989
100
AcDbEntity
  8
1
  6
Continuous
100
AcDbLine
 10
54.0032
 20
269.0929779999998
 30
0.0
 11
51.464711
 21
271.632467
 31
0.0
  0
LINE
  5
BB5C
330
B989
100
AcDbEntity
  8
1
  6
Continuous
100
AcDbLine
 10
54.583077
 20
269.0929779999998
 30
0.0
 11
57.121566
 21
271.632467
 31
0.0
  0
LINE
  5
BB5D
330
B989
100
AcDbEntity
  8
1
  6
Continuous
100
AcDbLine
 10
56.831627
 20
269.0929779999998
 30
0.0
 11
54.293139
 21
271.632467
 31
0.0
  0
LINE
  5
BB5E
330
B989
100
AcDbEntity
  8
1
  6
Continuous
100
AcDbLine
 10
60.23993100000001
 20
269.0929779999998
 30
0.0
 11
62.77841999999999
 21
271.632467
 31
0.0
  0
LINE
  5
BB5F
330
B989
100
AcDbEntity
  8
1
  6
Continuous
100
AcDbLine
 10
62.488482
 20
269.0929779999998
 30
0.0
 11
59.94999299999999
 21
271.632467
 31
0.0
  0
ARC
  5
BB60
330
B989
100
AcDbEntity
  8
1
  6
Continuous
100
AcDbCircle
 10
65.121566
 20
281.9266509999998
 30
0.0
 40
1.5
100
AcDbArc
 50
270.0
 51
0.0
  0
LINE
  5
BB61
330
B989
100
AcDbEntity
  8
1
  6
Continuous
100
AcDbLine
 10
77.21049399999998
 20
269.0929779999998
 30
0.0
 11
79.74898299999998
 21
271.632467
 31
0.0
  0
ARC
  5
BB62
330
B989
100
AcDbEntity
  8
1
  6
Continuous
100
AcDbCircle
 10
78.121566
 20
272.9266729999998
 30
0.0
 40
4.0
100
AcDbArc
 50
0.0
 51
90.0
  0
LINE
  5
BB63
330
B989
100
AcDbEntity
  8
1
  6
Continuous
100
AcDbLine
 10
79.45904399999998
 20
269.0929779999998
 30
0.0
 11
76.920556
 21
271.632467
 31
0.0
  0
LINE
  5
BB64
330
B989
100
AcDbEntity
  8
1
  6
Continuous
100
AcDbLine
 10
76.630617
 20
269.0929779999998
 30
0.0
 11
74.092128
 21
271.632467
 31
0.0
  0
LINE
  5
BB65
330
B989
100
AcDbEntity
  8
1
  6
Continuous
100
AcDbLine
 10
68.725212
 20
269.0929779999998
 30
0.0
 11
71.26370099999999
 21
271.632467
 31
0.0
  0
LINE
  5
BB66
330
B989
100
AcDbEntity
  8
1
  6
Continuous
100
AcDbLine
 10
70.97376300000002
 20
269.0929779999998
 30
0.0
 11
68.43527399999999
 21
271.632467
 31
0.0
  0
LINE
  5
BB67
330
B989
100
AcDbEntity
  8
1
  6
Continuous
100
AcDbLine
 10
68.145336
 20
269.0929779999998
 30
0.0
 11
65.606847
 21
271.632467
 31
0.0
  0
LINE
  5
BB68
330
B989
100
AcDbEntity
  8
1
  6
Continuous
100
AcDbLine
 10
65.89678499999999
 20
269.0929779999998
 30
0.0
 11
68.43527399999999
 21
271.632467
 31
0.0
  0
LINE
  5
BB69
330
B989
100
AcDbEntity
  8
1
  6
Continuous
100
AcDbLine
 10
71.55364
 20
269.0929779999998
 30
0.0
 11
74.092128
 21
271.632467
 31
0.0
  0
LINE
  5
BB6A
330
B989
100
AcDbEntity
  8
1
  6
Continuous
100
AcDbLine
 10
73.80218999999998
 20
269.0929779999998
 30
0.0
 11
71.26370099999999
 21
271.632467
 31
0.0
  0
LINE
  5
BB6B
330
B989
100
AcDbEntity
  8
1
  6
Continuous
100
AcDbLine
 10
74.38206700000002
 20
269.0929779999998
 30
0.0
 11
76.920556
 21
271.632467
 31
0.0
  0
LINE
  5
BB6C
330
B989
100
AcDbEntity
  8
1
  6
Continuous
100
AcDbLine
 10
83.80766599999999
 20
270.0332949999999
 30
0.0
 11
82.86734799999997
 21
269.0929779999998
 31
0.0
  0
LINE
  5
BB6D
330
B989
100
AcDbEntity
  8
1
  6
Continuous
100
AcDbLine
 10
83.80766599999999
 20
270.4012109999998
 30
0.0
 11
82.57741000000001
 21
271.632467
 31
0.0
  0
LINE
  5
BB6E
330
B989
100
AcDbEntity
  8
1
  6
Continuous
100
AcDbLine
 10
83.80766599999999
 20
272.9266729999998
 30
0.0
 11
83.80766599999999
 21
269.0929779999998
 31
0.0
  0
LINE
  5
BB6F
330
B989
100
AcDbEntity
  8
1
  6
Continuous
100
AcDbLine
 10
80.03892099999999
 20
269.0929779999998
 30
0.0
 11
82.57741000000001
 21
271.632467
 31
0.0
  0
LINE
  5
BB70
330
B989
100
AcDbEntity
  8
1
  6
Continuous
100
AcDbLine
 10
82.28747199999999
 20
269.0929779999998
 30
0.0
 11
79.74898299999998
 21
271.632467
 31
0.0
  0
LINE
  5
BB71
330
B989
100
AcDbEntity
  8
1
  6
Continuous
100
AcDbLine
 10
48.62156599999998
 20
326.3266509999999
 30
0.0
 11
65.621566
 21
326.3266509999999
 31
0.0
  0
LINE
  5
BB72
330
B989
100
AcDbEntity
  8
1
  6
Continuous
100
AcDbLine
 10
48.771566
 20
329.5266509999998
 30
0.0
 11
65.471566
 21
329.5266509999998
 31
0.0
  0
ARC
  5
BB73
330
B989
100
AcDbEntity
  8
1
  6
Continuous
100
AcDbCircle
 10
48.62156599999998
 20
325.3266509999999
 30
0.0
 40
1.0
100
AcDbArc
 50
90.0
 51
180.0
  0
LINE
  5
BB74
330
B989
100
AcDbEntity
  8
2
  6
Continuous
100
AcDbLine
 10
62.17456600000001
 20
329.5266509999998
 30
0.0
 11
62.17456600000001
 21
329.873627
 31
0.0
  0
LINE
  5
BB75
330
B989
100
AcDbEntity
  8
1
  6
Continuous
100
AcDbLine
 10
61.62154199999999
 20
330.426651
 30
0.0
 11
62.52154199999999
 21
329.5266509999998
 31
0.0
  0
LINE
  5
BB76
330
B989
100
AcDbEntity
  8
2
  6
Continuous
100
AcDbLine
 10
52.068566
 20
329.5266509999998
 30
0.0
 11
52.068566
 21
329.8736749999998
 31
0.0
  0
LINE
  5
BB77
330
B989
100
AcDbEntity
  8
1
  6
Continuous
100
AcDbLine
 10
52.62154200000001
 20
330.426651
 30
0.0
 11
51.721542
 21
329.5266509999998
 31
0.0
  0
LINE
  5
BB78
330
B989
100
AcDbEntity
  8
1
  6
Continuous
100
AcDbLine
 10
52.62154200000001
 20
330.426651
 30
0.0
 11
61.62154199999999
 21
330.426651
 31
0.0
  0
ARC
  5
BB79
330
B989
100
AcDbEntity
  8
1
  6
Continuous
100
AcDbCircle
 10
65.621566
 20
325.3266509999999
 30
0.0
 40
1.0
100
AcDbArc
 50
0.0
 51
90.0
  0
LINE
  5
BB7A
330
B989
100
AcDbEntity
  8
1
  6
Continuous
100
AcDbLine
 10
65.471566
 20
329.5266509999998
 30
0.0
 11
65.471566
 21
326.3266509999999
 31
0.0
  0
LINE
  5
BB7B
330
B989
100
AcDbEntity
  8
1
  6
Continuous
100
AcDbLine
 10
48.771566
 20
329.5266509999998
 30
0.0
 11
48.771566
 21
326.3266509999999
 31
0.0
  0
LINE
  5
BB7C
330
B989
100
AcDbEntity
  8
1
  6
Continuous
100
AcDbLine
 10
43.12154099999999
 20
280.426651
 30
0.0
 11
43.12154099999999
 21
276.926673
 31
0.0
  0
LINE
  5
BB7D
330
B989
100
AcDbEntity
  8
1
  6
Continuous
100
AcDbLine
 10
57.121541
 20
280.426651
 30
0.0
 11
57.121541
 21
276.926673
 31
0.0
  0
LINE
  5
BB7E
330
B989
100
AcDbEntity
  8
1
  6
Continuous
100
AcDbLine
 10
71.12154100000002
 20
280.426651
 30
0.0
 11
71.12154100000002
 21
276.926673
 31
0.0
  0
LINE
  5
BB7F
330
B989
100
AcDbEntity
  8
1
  6
Continuous
100
AcDbLine
 10
191.586048
 20
394.4612409999999
 30
0.0
 11
189.5860479999998
 21
396.4612409999999
 31
0.0
  0
ARC
  5
BB80
330
B989
100
AcDbEntity
  8
1
  6
Continuous
100
AcDbCircle
 10
188.586048
 20
398.1263039999999
 30
0.0
 40
8.665063999999999
100
AcDbArc
 50
249.7438419999999
 51
290.256158
  0
ARC
  5
BB81
330
B989
100
AcDbEntity
  8
1
  6
Continuous
100
AcDbCircle
 10
188.586048
 20
385.796177
 30
0.0
 40
8.665063999999999
100
AcDbArc
 50
69.743842
 51
110.256158
  0
LINE
  5
BB82
330
B989
100
AcDbEntity
  8
1
  6
Continuous
100
AcDbLine
 10
185.586048
 20
389.4612409999999
 30
0.0
 11
197.586048
 21
389.4612409999999
 31
0.0
  0
LINE
  5
BB83
330
B989
100
AcDbEntity
  8
1
  6
Continuous
100
AcDbLine
 10
199.086048
 20
394.4612409999999
 30
0.0
 11
184.086048
 21
394.4612409999999
 31
0.0
  0
LINE
  5
BB84
330
B989
100
AcDbEntity
  8
1
  6
Continuous
100
AcDbLine
 10
194.920483
 20
387.995676
 30
0.0
 11
188.262548
 21
387.995676
 31
0.0
  0
LINE
  5
BB85
330
B989
100
AcDbEntity
  8
1
  6
Continuous
100
AcDbLine
 10
195.586048
 20
388.661241
 30
0.0
 11
187.586048
 21
388.661241
 31
0.0
  0
LINE
  5
BB86
330
B989
100
AcDbEntity
  8
1
  6
Continuous
100
AcDbLine
 10
187.586048
 20
389.4612409999999
 30
0.0
 11
187.586048
 21
388.672176
 31
0.0
  0
LINE
  5
BB87
330
B989
100
AcDbEntity
  8
2
  6
Continuous
100
AcDbLine
 10
188.262548
 20
389.4612409999999
 30
0.0
 11
188.262548
 21
387.995676
 31
0.0
  0
LINE
  5
BB88
330
B989
100
AcDbEntity
  8
1
  6
Continuous
100
AcDbLine
 10
185.586048
 20
389.4612409999999
 30
0.0
 11
185.586048
 21
394.4612409999999
 31
0.0
  0
LINE
  5
BB89
330
B989
100
AcDbEntity
  8
1
  6
Continuous
100
AcDbLine
 10
184.086048
 20
396.4612409999999
 30
0.0
 11
184.086048
 21
394.4612409999999
 31
0.0
  0
LINE
  5
BB8A
330
B989
100
AcDbEntity
  8
1
  6
Continuous
100
AcDbLine
 10
187.586048
 20
388.672176
 30
0.0
 11
188.262548
 21
387.995676
 31
0.0
  0
LINE
  5
BB8B
330
B989
100
AcDbEntity
  8
1
  6
Continuous
100
AcDbLine
 10
193.586048
 20
394.4612409999999
 30
0.0
 11
191.586048
 21
396.4612409999999
 31
0.0
  0
LINE
  5
BB8C
330
B989
100
AcDbEntity
  8
1
  6
Continuous
100
AcDbLine
 10
195.586048
 20
389.4612409999999
 30
0.0
 11
195.586048
 21
388.661241
 31
0.0
  0
LINE
  5
BB8D
330
B989
100
AcDbEntity
  8
2
  6
Continuous
100
AcDbLine
 10
194.909548
 20
389.4612409999999
 30
0.0
 11
194.909548
 21
387.995676
 31
0.0
  0
LINE
  5
BB8E
330
B989
100
AcDbEntity
  8
1
  6
Continuous
100
AcDbLine
 10
191.586048
 20
393.925342
 30
0.0
 11
191.586048
 21
389.997139
 31
0.0
  0
LINE
  5
BB8F
330
B989
100
AcDbEntity
  8
1
  6
Continuous
100
AcDbLine
 10
197.586048
 20
389.4612409999999
 30
0.0
 11
197.586048
 21
394.4612409999999
 31
0.0
  0
ARC
  5
BB90
330
B989
100
AcDbEntity
  8
1
  6
Continuous
100
AcDbCircle
 10
194.586048
 20
398.1263039999999
 30
0.0
 40
8.665063999999999
100
AcDbArc
 50
249.7438419999999
 51
290.256158
  0
ARC
  5
BB91
330
B989
100
AcDbEntity
  8
1
  6
Continuous
100
AcDbCircle
 10
194.586048
 20
385.796177
 30
0.0
 40
8.665063999999999
100
AcDbArc
 50
69.743842
 51
110.256158
  0
LINE
  5
BB92
330
B989
100
AcDbEntity
  8
1
  6
Continuous
100
AcDbLine
 10
199.086048
 20
396.4612409999999
 30
0.0
 11
199.086048
 21
394.4612409999999
 31
0.0
  0
LINE
  5
BB93
330
B989
100
AcDbEntity
  8
1
  6
Continuous
100
AcDbLine
 10
194.920483
 20
387.995676
 30
0.0
 11
195.586048
 21
388.661241
 31
0.0
  0
ARC
  5
BB94
330
B989
100
AcDbEntity
  8
1
  6
Continuous
100
AcDbCircle
 10
224.586035
 20
414.8784489999998
 30
0.0
 40
27.425
100
AcDbArc
 50
228.825109
 51
131.1749289999999
  0
ARC
  5
BB95
330
B989
100
AcDbEntity
  8
1
  6
Continuous
100
AcDbCircle
 10
200.6052659999999
 20
442.295658
 30
0.0
 40
9.0
100
AcDbArc
 50
270.0
 51
311.174929
  0
ARC
  5
BB96
330
B989
100
AcDbEntity
  8
1
  6
Continuous
100
AcDbCircle
 10
200.605284
 20
387.461224
 30
0.0
 40
9.0
100
AcDbArc
 50
48.82510899999999
 51
90.0
  0
ARC
  5
BB97
330
B989
100
AcDbEntity
  8
1
  6
Continuous
100
AcDbCircle
 10
203.586035
 20
272.944652
 30
0.0
 40
4.0
100
AcDbArc
 50
90.0
 51
180.0
  0
LINE
  5
BB98
330
B989
100
AcDbEntity
  8
1
  6
Continuous
100
AcDbLine
 10
197.899935
 20
270.4371899999998
 30
0.0
 11
199.1301909999999
 21
271.6504459999999
 31
0.0
  0
LINE
  5
BB99
330
B989
100
AcDbEntity
  8
1
  6
Continuous
100
AcDbLine
 10
197.899935
 20
271.6504459999999
 30
0.0
 11
251.272135
 21
271.6504459999999
 31
0.0
  0
LINE
  5
BB9A
330
B989
100
AcDbEntity
  8
1
  6
Continuous
100
AcDbLine
 10
251.272135
 20
272.944652
 30
0.0
 11
197.899935
 21
272.944652
 31
0.0
  0
LINE
  5
BB9B
330
B989
100
AcDbEntity
  8
1
  6
Continuous
100
AcDbLine
 10
197.899935
 20
269.1289569999999
 30
0.0
 11
197.899935
 21
272.944652
 31
0.0
  0
LINE
  5
BB9C
330
B989
100
AcDbEntity
  8
1
  6
Continuous
100
AcDbLine
 10
198.8402519999999
 20
269.1289569999999
 30
0.0
 11
197.899935
 21
270.069274
 31
0.0
  0
LINE
  5
BB9D
330
B989
100
AcDbEntity
  8
1
  6
Continuous
100
AcDbLine
 10
215.086035
 20
281.9446299999999
 30
0.0
 11
215.086035
 21
325.34463
 31
0.0
  0
LINE
  5
BB9E
330
B989
100
AcDbEntity
  8
1
  6
Continuous
100
AcDbLine
 10
234.086035
 20
325.34463
 30
0.0
 11
234.086035
 21
281.9446299999999
 31
0.0
  0
LINE
  5
BB9F
330
B989
100
AcDbEntity
  8
1
  6
Continuous
100
AcDbLine
 10
230.5328269999999
 20
269.1289569999999
 30
0.0
 11
233.071316
 21
271.6504459999999
 31
0.0
  0
LINE
  5
BBA0
330
B989
100
AcDbEntity
  8
1
  6
Continuous
100
AcDbLine
 10
232.781378
 20
269.1289569999999
 30
0.0
 11
230.2428889999999
 21
271.6504459999999
 31
0.0
  0
LINE
  5
BBA1
330
B989
100
AcDbEntity
  8
1
  6
Continuous
100
AcDbLine
 10
203.586035
 20
276.944652
 30
0.0
 11
245.586035
 21
276.944652
 31
0.0
  0
LINE
  5
BBA2
330
B989
100
AcDbEntity
  8
1
  6
Continuous
100
AcDbLine
 10
215.086035
 20
284.34463
 30
0.0
 11
234.086035
 21
284.34463
 31
0.0
  0
LINE
  5
BBA3
330
B989
100
AcDbEntity
  8
1
  6
Continuous
100
AcDbLine
 10
240.7518179999999
 20
280.4446299999998
 30
0.0
 11
208.4202029999999
 21
280.4446299999998
 31
0.0
  0
ARC
  5
BBA4
330
B989
100
AcDbEntity
  8
1
  6
Continuous
100
AcDbCircle
 10
216.5860349999999
 20
281.9446299999999
 30
0.0
 40
1.5
100
AcDbArc
 50
180.0
 51
270.0
  0
LINE
  5
BBA5
330
B989
100
AcDbEntity
  8
1
  6
Continuous
100
AcDbLine
 10
213.562264
 20
269.1289569999999
 30
0.0
 11
216.1007529999999
 21
271.6504459999999
 31
0.0
  0
LINE
  5
BBA6
330
B989
100
AcDbEntity
  8
1
  6
Continuous
100
AcDbLine
 10
215.8108149999999
 20
269.1289569999999
 30
0.0
 11
213.2723259999999
 21
271.6504459999999
 31
0.0
  0
LINE
  5
BBA7
330
B989
100
AcDbEntity
  8
1
  6
Continuous
100
AcDbLine
 10
208.4202029999999
 20
276.944652
 30
0.0
 11
208.4202029999999
 21
280.4446299999998
 31
0.0
  0
LINE
  5
BBA8
330
B989
100
AcDbEntity
  8
1
  6
Continuous
100
AcDbLine
 10
207.90541
 20
269.1289569999999
 30
0.0
 11
210.4438989999999
 21
271.6504459999999
 31
0.0
  0
LINE
  5
BBA9
330
B989
100
AcDbEntity
  8
1
  6
Continuous
100
AcDbLine
 10
210.1539609999999
 20
269.1289569999999
 30
0.0
 11
207.615472
 21
271.6504459999999
 31
0.0
  0
LINE
  5
BBAA
330
B989
100
AcDbEntity
  8
1
  6
Continuous
100
AcDbLine
 10
199.420129
 20
269.1289569999999
 30
0.0
 11
201.958618
 21
271.6504459999999
 31
0.0
  0
LINE
  5
BBAB
330
B989
100
AcDbEntity
  8
1
  6
Continuous
100
AcDbLine
 10
201.668679
 20
269.1289569999999
 30
0.0
 11
199.1301909999999
 21
271.6504459999999
 31
0.0
  0
LINE
  5
BBAC
330
B989
100
AcDbEntity
  8
1
  6
Continuous
100
AcDbLine
 10
202.248556
 20
269.1289569999999
 30
0.0
 11
204.787045
 21
271.6504459999999
 31
0.0
  0
LINE
  5
BBAD
330
B989
100
AcDbEntity
  8
1
  6
Continuous
100
AcDbLine
 10
204.4971069999999
 20
269.1289569999999
 30
0.0
 11
201.958618
 21
271.6504459999999
 31
0.0
  0
LINE
  5
BBAE
330
B989
100
AcDbEntity
  8
1
  6
Continuous
100
AcDbLine
 10
205.076983
 20
269.1289569999999
 30
0.0
 11
207.615472
 21
271.6504459999999
 31
0.0
  0
LINE
  5
BBAF
330
B989
100
AcDbEntity
  8
1
  6
Continuous
100
AcDbLine
 10
207.325534
 20
269.1289569999999
 30
0.0
 11
204.787045
 21
271.6504459999999
 31
0.0
  0
LINE
  5
BBB0
330
B989
100
AcDbEntity
  8
1
  6
Continuous
100
AcDbLine
 10
210.7338369999999
 20
269.1289569999999
 30
0.0
 11
213.2723259999999
 21
271.6504459999999
 31
0.0
  0
LINE
  5
BBB1
330
B989
100
AcDbEntity
  8
1
  6
Continuous
100
AcDbLine
 10
212.982388
 20
269.1289569999999
 30
0.0
 11
210.4438989999999
 21
271.6504459999999
 31
0.0
  0
LINE
  5
BBB2
330
B989
100
AcDbEntity
  8
1
  6
Continuous
100
AcDbLine
 10
216.5031069999999
 20
276.944652
 30
0.0
 11
216.5031069999999
 21
280.4446299999998
 31
0.0
  0
LINE
  5
BBB3
330
B989
100
AcDbEntity
  8
1
  6
Continuous
100
AcDbLine
 10
224.8759729999999
 20
269.1289569999999
 30
0.0
 11
227.4144619999999
 21
271.6504459999999
 31
0.0
  0
LINE
  5
BBB4
330
B989
100
AcDbEntity
  8
1
  6
Continuous
100
AcDbLine
 10
227.124524
 20
269.1289569999999
 30
0.0
 11
224.586035
 21
271.6504459999999
 31
0.0
  0
LINE
  5
BBB5
330
B989
100
AcDbEntity
  8
1
  6
Continuous
100
AcDbLine
 10
216.390692
 20
269.1289569999999
 30
0.0
 11
218.9291799999999
 21
271.6504459999999
 31
0.0
  0
LINE
  5
BBB6
330
B989
100
AcDbEntity
  8
1
  6
Continuous
100
AcDbLine
 10
218.639242
 20
269.1289569999999
 30
0.0
 11
216.1007529999999
 21
271.6504459999999
 31
0.0
  0
LINE
  5
BBB7
330
B989
100
AcDbEntity
  8
1
  6
Continuous
100
AcDbLine
 10
219.2191189999999
 20
269.1289569999999
 30
0.0
 11
221.757608
 21
271.6504459999999
 31
0.0
  0
LINE
  5
BBB8
330
B989
100
AcDbEntity
  8
1
  6
Continuous
100
AcDbLine
 10
221.467669
 20
269.1289569999999
 30
0.0
 11
218.9291799999999
 21
271.6504459999999
 31
0.0
  0
LINE
  5
BBB9
330
B989
100
AcDbEntity
  8
1
  6
Continuous
100
AcDbLine
 10
222.0475459999999
 20
269.1289569999999
 30
0.0
 11
224.586035
 21
271.6504459999999
 31
0.0
  0
LINE
  5
BBBA
330
B989
100
AcDbEntity
  8
1
  6
Continuous
100
AcDbLine
 10
224.296096
 20
269.1289569999999
 30
0.0
 11
221.757608
 21
271.6504459999999
 31
0.0
  0
LINE
  5
BBBB
330
B989
100
AcDbEntity
  8
1
  6
Continuous
100
AcDbLine
 10
227.7044
 20
269.1289569999999
 30
0.0
 11
230.2428889999999
 21
271.6504459999999
 31
0.0
  0
LINE
  5
BBBC
330
B989
100
AcDbEntity
  8
1
  6
Continuous
100
AcDbLine
 10
229.9529509999999
 20
269.1289569999999
 30
0.0
 11
227.4144619999999
 21
271.6504459999999
 31
0.0
  0
ARC
  5
BBBD
330
B989
100
AcDbEntity
  8
1
  6
Continuous
100
AcDbCircle
 10
232.586035
 20
281.9446299999999
 30
0.0
 40
1.5
100
AcDbArc
 50
270.0
 51
0.0
  0
LINE
  5
BBBE
330
B989
100
AcDbEntity
  8
1
  6
Continuous
100
AcDbLine
 10
244.6749629999999
 20
269.1289569999999
 30
0.0
 11
247.213452
 21
271.6504459999999
 31
0.0
  0
ARC
  5
BBBF
330
B989
100
AcDbEntity
  8
1
  6
Continuous
100
AcDbCircle
 10
245.586035
 20
272.944652
 30
0.0
 40
4.0
100
AcDbArc
 50
0.0
 51
90.0
  0
LINE
  5
BBC0
330
B989
100
AcDbEntity
  8
1
  6
Continuous
100
AcDbLine
 10
246.9235129999999
 20
269.1289569999999
 30
0.0
 11
244.385025
 21
271.6504459999999
 31
0.0
  0
LINE
  5
BBC1
330
B989
100
AcDbEntity
  8
1
  6
Continuous
100
AcDbLine
 10
240.7518179999999
 20
276.944652
 30
0.0
 11
240.7518179999999
 21
280.4446299999998
 31
0.0
  0
LINE
  5
BBC2
330
B989
100
AcDbEntity
  8
1
  6
Continuous
100
AcDbLine
 10
232.6689149999999
 20
276.944652
 30
0.0
 11
232.6689149999999
 21
280.4446299999998
 31
0.0
  0
LINE
  5
BBC3
330
B989
100
AcDbEntity
  8
1
  6
Continuous
100
AcDbLine
 10
244.095086
 20
269.1289569999999
 30
0.0
 11
241.556597
 21
271.6504459999999
 31
0.0
  0
LINE
  5
BBC4
330
B989
100
AcDbEntity
  8
1
  6
Continuous
100
AcDbLine
 10
236.189681
 20
269.1289569999999
 30
0.0
 11
238.7281699999999
 21
271.6504459999999
 31
0.0
  0
LINE
  5
BBC5
330
B989
100
AcDbEntity
  8
1
  6
Continuous
100
AcDbLine
 10
238.4382319999999
 20
269.1289569999999
 30
0.0
 11
235.899743
 21
271.6504459999999
 31
0.0
  0
LINE
  5
BBC6
330
B989
100
AcDbEntity
  8
1
  6
Continuous
100
AcDbLine
 10
235.6098049999999
 20
269.1289569999999
 30
0.0
 11
233.071316
 21
271.6504459999999
 31
0.0
  0
LINE
  5
BBC7
330
B989
100
AcDbEntity
  8
1
  6
Continuous
100
AcDbLine
 10
233.361254
 20
269.1289569999999
 30
0.0
 11
235.899743
 21
271.6504459999999
 31
0.0
  0
LINE
  5
BBC8
330
B989
100
AcDbEntity
  8
1
  6
Continuous
100
AcDbLine
 10
239.018109
 20
269.1289569999999
 30
0.0
 11
241.556597
 21
271.6504459999999
 31
0.0
  0
LINE
  5
BBC9
330
B989
100
AcDbEntity
  8
1
  6
Continuous
100
AcDbLine
 10
241.2666589999998
 20
269.1289569999999
 30
0.0
 11
238.7281699999999
 21
271.6504459999999
 31
0.0
  0
LINE
  5
BBCA
330
B989
100
AcDbEntity
  8
1
  6
Continuous
100
AcDbLine
 10
241.8465359999999
 20
269.1289569999999
 30
0.0
 11
244.385025
 21
271.6504459999999
 31
0.0
  0
LINE
  5
BBCB
330
B989
100
AcDbEntity
  8
1
  6
Continuous
100
AcDbLine
 10
251.272135
 20
270.069274
 30
0.0
 11
250.331817
 21
269.1289569999999
 31
0.0
  0
LINE
  5
BBCC
330
B989
100
AcDbEntity
  8
1
  6
Continuous
100
AcDbLine
 10
251.272135
 20
270.4371899999998
 30
0.0
 11
250.0418789999999
 21
271.6504459999999
 31
0.0
  0
LINE
  5
BBCD
330
B989
100
AcDbEntity
  8
1
  6
Continuous
100
AcDbLine
 10
251.272135
 20
272.944652
 30
0.0
 11
251.272135
 21
269.1289569999999
 31
0.0
  0
LINE
  5
BBCE
330
B989
100
AcDbEntity
  8
1
  6
Continuous
100
AcDbLine
 10
247.50339
 20
269.1289569999999
 30
0.0
 11
250.0418789999999
 21
271.6504459999999
 31
0.0
  0
LINE
  5
BBCF
330
B989
100
AcDbEntity
  8
1
  6
Continuous
100
AcDbLine
 10
249.7519409999999
 20
269.1289569999999
 30
0.0
 11
247.213452
 21
271.6504459999999
 31
0.0
  0
LINE
  5
BBD0
330
B989
100
AcDbEntity
  8
1
  6
Continuous
100
AcDbLine
 10
215.336035
 20
326.34463
 30
0.0
 11
233.836035
 21
326.34463
 31
0.0
  0
LINE
  5
BBD1
330
B989
100
AcDbEntity
  8
1
  6
Continuous
100
AcDbLine
 10
215.336035
 20
329.54463
 30
0.0
 11
233.836035
 21
329.54463
 31
0.0
  0
ARC
  5
BBD2
330
B989
100
AcDbEntity
  8
1
  6
Continuous
100
AcDbCircle
 10
216.086035
 20
325.34463
 30
0.0
 40
1.0
100
AcDbArc
 50
90.0
 51
180.0
  0
LINE
  5
BBD3
330
B989
100
AcDbEntity
  8
2
  6
Continuous
100
AcDbLine
 10
229.639035
 20
329.54463
 30
0.0
 11
229.639035
 21
329.891606
 31
0.0
  0
LINE
  5
BBD4
330
B989
100
AcDbEntity
  8
1
  6
Continuous
100
AcDbLine
 10
229.086011
 20
330.4446299999999
 30
0.0
 11
229.986011
 21
329.54463
 31
0.0
  0
LINE
  5
BBD5
330
B989
100
AcDbEntity
  8
1
  6
Continuous
100
AcDbLine
 10
228.565984
 20
329.54463
 30
0.0
 11
228.565984
 21
326.34463
 31
0.0
  0
LINE
  5
BBD6
330
B989
100
AcDbEntity
  8
2
  6
Continuous
100
AcDbLine
 10
219.533035
 20
329.54463
 30
0.0
 11
219.533035
 21
329.891654
 31
0.0
  0
LINE
  5
BBD7
330
B989
100
AcDbEntity
  8
1
  6
Continuous
100
AcDbLine
 10
220.606085
 20
329.54463
 30
0.0
 11
220.606085
 21
326.34463
 31
0.0
  0
LINE
  5
BBD8
330
B989
100
AcDbEntity
  8
1
  6
Continuous
100
AcDbLine
 10
215.336035
 20
329.54463
 30
0.0
 11
215.336035
 21
326.34463
 31
0.0
  0
LINE
  5
BBD9
330
B989
100
AcDbEntity
  8
1
  6
Continuous
100
AcDbLine
 10
220.0860109999999
 20
330.4446299999999
 30
0.0
 11
219.1860109999999
 21
329.54463
 31
0.0
  0
LINE
  5
BBDA
330
B989
100
AcDbEntity
  8
1
  6
Continuous
100
AcDbLine
 10
220.0860109999999
 20
330.4446299999999
 30
0.0
 11
229.086011
 21
330.4446299999999
 31
0.0
  0
ARC
  5
BBDB
330
B989
100
AcDbEntity
  8
1
  6
Continuous
100
AcDbCircle
 10
233.086035
 20
325.34463
 30
0.0
 40
1.0
100
AcDbArc
 50
0.0
 51
90.0
  0
LINE
  5
BBDC
330
B989
100
AcDbEntity
  8
1
  6
Continuous
100
AcDbLine
 10
233.836035
 20
329.54463
 30
0.0
 11
233.836035
 21
326.34463
 31
0.0
  0
ARC
  5
BBDD
330
B989
100
AcDbEntity
  8
1
  6
Continuous
100
AcDbCircle
 10
315.5090599999998
 20
272.9436519999998
 30
0.0
 40
4.0
100
AcDbArc
 50
90.0
 51
180.0
  0
LINE
  5
BBDE
330
B989
100
AcDbEntity
  8
1
  6
Continuous
100
AcDbLine
 10
309.82296
 20
270.43619
 30
0.0
 11
311.053216
 21
271.649446
 31
0.0
  0
LINE
  5
BBDF
330
B989
100
AcDbEntity
  8
1
  6
Continuous
100
AcDbLine
 10
309.82296
 20
271.649446
 30
0.0
 11
363.1951599999999
 21
271.649446
 31
0.0
  0
LINE
  5
BBE0
330
B989
100
AcDbEntity
  8
1
  6
Continuous
100
AcDbLine
 10
363.1951599999999
 20
272.9436519999998
 30
0.0
 11
309.82296
 21
272.9436519999998
 31
0.0
  0
LINE
  5
BBE1
330
B989
100
AcDbEntity
  8
1
  6
Continuous
100
AcDbLine
 10
309.82296
 20
269.1279569999999
 30
0.0
 11
309.82296
 21
272.9436519999998
 31
0.0
  0
LINE
  5
BBE2
330
B989
100
AcDbEntity
  8
1
  6
Continuous
100
AcDbLine
 10
310.763277
 20
269.1279569999999
 30
0.0
 11
309.82296
 21
270.0682739999999
 31
0.0
  0
LINE
  5
BBE3
330
B989
100
AcDbEntity
  8
1
  6
Continuous
100
AcDbLine
 10
327.0090599999999
 20
281.9436299999999
 30
0.0
 11
327.0090599999999
 21
325.3436299999999
 31
0.0
  0
LINE
  5
BBE4
330
B989
100
AcDbEntity
  8
1
  6
Continuous
100
AcDbLine
 10
346.00906
 20
325.3436299999999
 30
0.0
 11
346.00906
 21
281.9436299999999
 31
0.0
  0
LINE
  5
BBE5
330
B989
100
AcDbEntity
  8
1
  6
Continuous
100
AcDbLine
 10
342.455852
 20
269.1279569999999
 30
0.0
 11
344.994341
 21
271.649446
 31
0.0
  0
LINE
  5
BBE6
330
B989
100
AcDbEntity
  8
1
  6
Continuous
100
AcDbLine
 10
344.7044029999998
 20
269.1279569999999
 30
0.0
 11
342.165914
 21
271.649446
 31
0.0
  0
LINE
  5
BBE7
330
B989
100
AcDbEntity
  8
1
  6
Continuous
100
AcDbLine
 10
315.5090599999998
 20
276.9436519999998
 30
0.0
 11
357.5090599999999
 21
276.9436519999998
 31
0.0
  0
LINE
  5
BBE8
330
B989
100
AcDbEntity
  8
1
  6
Continuous
100
AcDbLine
 10
327.0090599999999
 20
284.3436299999999
 30
0.0
 11
346.00906
 21
284.3436299999999
 31
0.0
  0
LINE
  5
BBE9
330
B989
100
AcDbEntity
  8
1
  6
Continuous
100
AcDbLine
 10
350.509036
 20
280.4436299999999
 30
0.0
 11
322.5090359999999
 21
280.4436299999999
 31
0.0
  0
ARC
  5
BBEA
330
B989
100
AcDbEntity
  8
1
  6
Continuous
100
AcDbCircle
 10
328.5090599999999
 20
281.9436299999999
 30
0.0
 40
1.5
100
AcDbArc
 50
180.0
 51
270.0
  0
LINE
  5
BBEB
330
B989
100
AcDbEntity
  8
1
  6
Continuous
100
AcDbLine
 10
325.485289
 20
269.1279569999999
 30
0.0
 11
328.023778
 21
271.649446
 31
0.0
  0
LINE
  5
BBEC
330
B989
100
AcDbEntity
  8
1
  6
Continuous
100
AcDbLine
 10
327.73384
 20
269.1279569999999
 30
0.0
 11
325.1953509999998
 21
271.649446
 31
0.0
  0
LINE
  5
BBED
330
B989
100
AcDbEntity
  8
1
  6
Continuous
100
AcDbLine
 10
319.828435
 20
269.1279569999999
 30
0.0
 11
322.3669239999999
 21
271.649446
 31
0.0
  0
LINE
  5
BBEE
330
B989
100
AcDbEntity
  8
1
  6
Continuous
100
AcDbLine
 10
322.0769859999998
 20
269.1279569999999
 30
0.0
 11
319.538497
 21
271.649446
 31
0.0
  0
LINE
  5
BBEF
330
B989
100
AcDbEntity
  8
1
  6
Continuous
100
AcDbLine
 10
311.343154
 20
269.1279569999999
 30
0.0
 11
313.8816429999998
 21
271.649446
 31
0.0
  0
LINE
  5
BBF0
330
B989
100
AcDbEntity
  8
1
  6
Continuous
100
AcDbLine
 10
313.5917039999998
 20
269.1279569999999
 30
0.0
 11
311.053216
 21
271.649446
 31
0.0
  0
LINE
  5
BBF1
330
B989
100
AcDbEntity
  8
1
  6
Continuous
100
AcDbLine
 10
314.1715809999999
 20
269.1279569999999
 30
0.0
 11
316.7100699999999
 21
271.649446
 31
0.0
  0
LINE
  5
BBF2
330
B989
100
AcDbEntity
  8
1
  6
Continuous
100
AcDbLine
 10
316.4201319999999
 20
269.1279569999999
 30
0.0
 11
313.8816429999998
 21
271.649446
 31
0.0
  0
LINE
  5
BBF3
330
B989
100
AcDbEntity
  8
1
  6
Continuous
100
AcDbLine
 10
317.0000079999998
 20
269.1279569999999
 30
0.0
 11
319.538497
 21
271.649446
 31
0.0
  0
LINE
  5
BBF4
330
B989
100
AcDbEntity
  8
1
  6
Continuous
100
AcDbLine
 10
319.2485589999999
 20
269.1279569999999
 30
0.0
 11
316.7100699999999
 21
271.649446
 31
0.0
  0
LINE
  5
BBF5
330
B989
100
AcDbEntity
  8
1
  6
Continuous
100
AcDbLine
 10
322.656862
 20
269.1279569999999
 30
0.0
 11
325.1953509999998
 21
271.649446
 31
0.0
  0
LINE
  5
BBF6
330
B989
100
AcDbEntity
  8
1
  6
Continuous
100
AcDbLine
 10
324.905413
 20
269.1279569999999
 30
0.0
 11
322.3669239999999
 21
271.649446
 31
0.0
  0
LINE
  5
BBF7
330
B989
100
AcDbEntity
  8
1
  6
Continuous
100
AcDbLine
 10
336.7989979999999
 20
269.1279569999999
 30
0.0
 11
339.337487
 21
271.649446
 31
0.0
  0
LINE
  5
BBF8
330
B989
100
AcDbEntity
  8
1
  6
Continuous
100
AcDbLine
 10
339.047549
 20
269.1279569999999
 30
0.0
 11
336.5090599999998
 21
271.649446
 31
0.0
  0
LINE
  5
BBF9
330
B989
100
AcDbEntity
  8
1
  6
Continuous
100
AcDbLine
 10
328.3137169999998
 20
269.1279569999999
 30
0.0
 11
330.8522049999999
 21
271.649446
 31
0.0
  0
LINE
  5
BBFA
330
B989
100
AcDbEntity
  8
1
  6
Continuous
100
AcDbLine
 10
330.562267
 20
269.1279569999999
 30
0.0
 11
328.023778
 21
271.649446
 31
0.0
  0
LINE
  5
BBFB
330
B989
100
AcDbEntity
  8
1
  6
Continuous
100
AcDbLine
 10
331.1421439999999
 20
269.1279569999999
 30
0.0
 11
333.6806329999999
 21
271.649446
 31
0.0
  0
LINE
  5
BBFC
330
B989
100
AcDbEntity
  8
1
  6
Continuous
100
AcDbLine
 10
333.3906939999998
 20
269.1279569999999
 30
0.0
 11
330.8522049999999
 21
271.649446
 31
0.0
  0
LINE
  5
BBFD
330
B989
100
AcDbEntity
  8
1
  6
Continuous
100
AcDbLine
 10
333.970571
 20
269.1279569999999
 30
0.0
 11
336.5090599999998
 21
271.649446
 31
0.0
  0
LINE
  5
BBFE
330
B989
100
AcDbEntity
  8
1
  6
Continuous
100
AcDbLine
 10
336.2191209999999
 20
269.1279569999999
 30
0.0
 11
333.6806329999999
 21
271.649446
 31
0.0
  0
LINE
  5
BBFF
330
B989
100
AcDbEntity
  8
1
  6
Continuous
100
AcDbLine
 10
339.627425
 20
269.1279569999999
 30
0.0
 11
342.165914
 21
271.649446
 31
0.0
  0
LINE
  5
BC00
330
B989
100
AcDbEntity
  8
1
  6
Continuous
100
AcDbLine
 10
341.8759759999999
 20
269.1279569999999
 30
0.0
 11
339.337487
 21
271.649446
 31
0.0
  0
ARC
  5
BC01
330
B989
100
AcDbEntity
  8
1
  6
Continuous
100
AcDbCircle
 10
344.5090599999999
 20
281.9436299999999
 30
0.0
 40
1.5
100
AcDbArc
 50
270.0
 51
0.0
  0
LINE
  5
BC02
330
B989
100
AcDbEntity
  8
1
  6
Continuous
100
AcDbLine
 10
356.5979879999999
 20
269.1279569999999
 30
0.0
 11
359.136477
 21
271.649446
 31
0.0
  0
ARC
  5
BC03
330
B989
100
AcDbEntity
  8
1
  6
Continuous
100
AcDbCircle
 10
357.5090599999999
 20
272.9436519999998
 30
0.0
 40
4.0
100
AcDbArc
 50
0.0
 51
90.0
  0
LINE
  5
BC04
330
B989
100
AcDbEntity
  8
1
  6
Continuous
100
AcDbLine
 10
358.846538
 20
269.1279569999999
 30
0.0
 11
356.3080499999998
 21
271.649446
 31
0.0
  0
LINE
  5
BC05
330
B989
100
AcDbEntity
  8
1
  6
Continuous
100
AcDbLine
 10
356.0181109999998
 20
269.1279569999999
 30
0.0
 11
353.479622
 21
271.649446
 31
0.0
  0
LINE
  5
BC06
330
B989
100
AcDbEntity
  8
1
  6
Continuous
100
AcDbLine
 10
348.1127059999999
 20
269.1279569999999
 30
0.0
 11
350.6511949999999
 21
271.649446
 31
0.0
  0
LINE
  5
BC07
330
B989
100
AcDbEntity
  8
1
  6
Continuous
100
AcDbLine
 10
350.3612569999999
 20
269.1279569999999
 30
0.0
 11
347.8227679999998
 21
271.649446
 31
0.0
  0
LINE
  5
BC08
330
B989
100
AcDbEntity
  8
1
  6
Continuous
100
AcDbLine
 10
347.53283
 20
269.1279569999999
 30
0.0
 11
344.994341
 21
271.649446
 31
0.0
  0
LINE
  5
BC09
330
B989
100
AcDbEntity
  8
1
  6
Continuous
100
AcDbLine
 10
345.284279
 20
269.1279569999999
 30
0.0
 11
347.8227679999998
 21
271.649446
 31
0.0
  0
LINE
  5
BC0A
330
B989
100
AcDbEntity
  8
1
  6
Continuous
100
AcDbLine
 10
350.9411339999999
 20
269.1279569999999
 30
0.0
 11
353.479622
 21
271.649446
 31
0.0
  0
LINE
  5
BC0B
330
B989
100
AcDbEntity
  8
1
  6
Continuous
100
AcDbLine
 10
353.1896839999998
 20
269.1279569999999
 30
0.0
 11
350.6511949999999
 21
271.649446
 31
0.0
  0
LINE
  5
BC0C
330
B989
100
AcDbEntity
  8
1
  6
Continuous
100
AcDbLine
 10
353.769561
 20
269.1279569999999
 30
0.0
 11
356.3080499999998
 21
271.649446
 31
0.0
  0
LINE
  5
BC0D
330
B989
100
AcDbEntity
  8
1
  6
Continuous
100
AcDbLine
 10
363.1951599999999
 20
270.0682739999999
 30
0.0
 11
362.254842
 21
269.1279569999999
 31
0.0
  0
LINE
  5
BC0E
330
B989
100
AcDbEntity
  8
1
  6
Continuous
100
AcDbLine
 10
363.1951599999999
 20
270.43619
 30
0.0
 11
361.964904
 21
271.649446
 31
0.0
  0
LINE
  5
BC0F
330
B989
100
AcDbEntity
  8
1
  6
Continuous
100
AcDbLine
 10
363.1951599999999
 20
272.9436519999998
 30
0.0
 11
363.1951599999999
 21
269.1279569999999
 31
0.0
  0
LINE
  5
BC10
330
B989
100
AcDbEntity
  8
1
  6
Continuous
100
AcDbLine
 10
359.4264149999998
 20
269.1279569999999
 30
0.0
 11
361.964904
 21
271.649446
 31
0.0
  0
LINE
  5
BC11
330
B989
100
AcDbEntity
  8
1
  6
Continuous
100
AcDbLine
 10
361.6749659999999
 20
269.1279569999999
 30
0.0
 11
359.136477
 21
271.649446
 31
0.0
  0
LINE
  5
BC12
330
B989
100
AcDbEntity
  8
1
  6
Continuous
100
AcDbLine
 10
328.0090599999998
 20
326.3436299999999
 30
0.0
 11
345.0090599999999
 21
326.3436299999999
 31
0.0
  0
LINE
  5
BC13
330
B989
100
AcDbEntity
  8
1
  6
Continuous
100
AcDbLine
 10
328.15906
 20
329.5436299999999
 30
0.0
 11
344.85906
 21
329.5436299999999
 31
0.0
  0
ARC
  5
BC14
330
B989
100
AcDbEntity
  8
1
  6
Continuous
100
AcDbCircle
 10
328.0090599999998
 20
325.3436299999999
 30
0.0
 40
1.0
100
AcDbArc
 50
90.0
 51
180.0
  0
LINE
  5
BC15
330
B989
100
AcDbEntity
  8
2
  6
Continuous
100
AcDbLine
 10
341.56206
 20
329.5436299999999
 30
0.0
 11
341.56206
 21
329.890606
 31
0.0
  0
LINE
  5
BC16
330
B989
100
AcDbEntity
  8
1
  6
Continuous
100
AcDbLine
 10
341.0090359999998
 20
330.4436299999999
 30
0.0
 11
341.909036
 21
329.5436299999999
 31
0.0
  0
LINE
  5
BC17
330
B989
100
AcDbEntity
  8
2
  6
Continuous
100
AcDbLine
 10
331.45606
 20
329.5436299999999
 30
0.0
 11
331.45606
 21
329.8906539999999
 31
0.0
  0
LINE
  5
BC18
330
B989
100
AcDbEntity
  8
1
  6
Continuous
100
AcDbLine
 10
332.009036
 20
330.4436299999999
 30
0.0
 11
331.109036
 21
329.5436299999999
 31
0.0
  0
LINE
  5
BC19
330
B989
100
AcDbEntity
  8
1
  6
Continuous
100
AcDbLine
 10
332.009036
 20
330.4436299999999
 30
0.0
 11
341.0090359999998
 21
330.4436299999999
 31
0.0
  0
ARC
  5
BC1A
330
B989
100
AcDbEntity
  8
1
  6
Continuous
100
AcDbCircle
 10
345.0090599999999
 20
325.3436299999999
 30
0.0
 40
1.0
100
AcDbArc
 50
0.0
 51
90.0
  0
ARC
  5
BC1B
330
B989
100
AcDbEntity
  8
1
  6
Continuous
100
AcDbCircle
 10
200.6052659999999
 20
99.392674
 30
0.0
 40
9.0
100
AcDbArc
 50
270.0
 51
311.174929
  0
ARC
  5
BC1C
330
B989
100
AcDbEntity
  8
1
  6
Continuous
100
AcDbCircle
 10
200.6052659999999
 20
99.392674
 30
0.0
 40
11.59999999999999
100
AcDbArc
 50
270.0
 51
311.174929
  0
ARC
  5
BC1D
330
B989
100
AcDbEntity
  8
1
  6
Continuous
100
AcDbCircle
 10
200.605285
 20
44.558239
 30
0.0
 40
11.59999999999999
100
AcDbArc
 50
48.82511199999999
 51
90.0
  0
ARC
  5
BC1E
330
B989
100
AcDbEntity
  8
1
  6
Continuous
100
AcDbCircle
 10
200.605285
 20
44.558239
 30
0.0
 40
9.0
100
AcDbArc
 50
48.82511199999999
 51
90.0
  0
ARC
  5
BC1F
330
B989
100
AcDbEntity
  8
1
  6
Continuous
100
AcDbCircle
 10
481.4316719999998
 20
206.4441629999998
 30
0.0
 40
50.0
100
AcDbArc
 50
147.541952
 51
94.85701999999996
  0
ARC
  5
BC20
330
B989
100
AcDbEntity
  8
1
  6
Continuous
100
AcDbCircle
 10
481.4316719999998
 20
206.4441629999998
 30
0.0
 40
41.0
100
AcDbArc
 50
153.825966
 51
95.63024699999997
  0
LINE
  5
BC21
330
B989
100
AcDbEntity
  8
4
  6
CENTER
100
AcDbLine
 10
539.4316719999998
 20
206.4271629999999
 30
0.0
 11
424.2014619999998
 21
206.4441629999998
 31
0.0
  0
LINE
  5
BC22
330
B989
100
AcDbEntity
  8
4
  6
CENTER
100
AcDbLine
 10
448.4320849999998
 20
235.4709539999999
 30
0.0
 11
448.4320849999998
 21
335.4446299999999
 31
0.0
  0
ARC
  5
BC23
330
B989
100
AcDbEntity
  8
1
  6
Continuous
100
AcDbCircle
 10
427.4320849999998
 20
272.944652
 30
0.0
 40
4.0
100
AcDbArc
 50
90.0
 51
180.0
  0
ARC
  5
BC24
330
B989
100
AcDbEntity
  8
1
  6
Continuous
100
AcDbCircle
 10
469.4320849999998
 20
272.944652
 30
0.0
 40
4.0
100
AcDbArc
 50
0.0
 51
90.0
  0
LINE
  5
BC25
330
B989
100
AcDbEntity
  8
4
  6
CENTER
100
AcDbLine
 10
481.4316719999998
 20
148.3371629999998
 30
0.0
 11
481.4316719999998
 21
258.001771
 31
0.0
  0
LINE
  5
BC26
330
B989
100
AcDbEntity
  8
1
  6
Continuous
100
AcDbLine
 10
424.2070849999998
 20
269.1289680000001
 30
0.0
 11
472.6570849999998
 21
269.1289680000001
 31
0.0
  0
LINE
  5
BC27
330
B989
100
AcDbEntity
  8
1
  6
Continuous
100
AcDbLine
 10
421.745985
 20
269.1289569999999
 30
0.0
 11
475.118185
 21
269.1289569999999
 31
0.0
  0
ARC
  5
BC28
330
B989
100
AcDbEntity
  8
1
  6
Continuous
100
AcDbCircle
 10
522.704341
 20
279.2626349999998
 30
0.0
 40
95.157
100
AcDbArc
 50
193.605186
 51
240.5727950000001
  0
LINE
  5
BC29
330
B989
100
AcDbEntity
  8
1
  6
Continuous
100
AcDbLine
 10
434.000011
 20
269.1289569999999
 30
0.0
 11
431.461523
 21
271.6504459999999
 31
0.0
  0
LINE
  5
BC2A
330
B989
100
AcDbEntity
  8
1
  6
Continuous
100
AcDbLine
 10
431.7514609999998
 20
269.1289569999999
 30
0.0
 11
434.2899499999998
 21
271.6504459999999
 31
0.0
  0
LINE
  5
BC2B
330
B989
100
AcDbEntity
  8
1
  6
Continuous
100
AcDbLine
 10
421.745985
 20
272.944652
 30
0.0
 11
475.118185
 21
272.944652
 31
0.0
  0
LINE
  5
BC2C
330
B989
100
AcDbEntity
  8
1
  6
Continuous
100
AcDbLine
 10
475.118185
 20
271.6504459999999
 30
0.0
 11
421.745985
 21
271.6504459999999
 31
0.0
  0
LINE
  5
BC2D
330
B989
100
AcDbEntity
  8
1
  6
Continuous
100
AcDbLine
 10
469.6374019999998
 20
264.8758149999998
 30
0.0
 11
469.6374019999998
 21
220.880896
 31
0.0
  0
ARC
  5
BC2E
330
B989
100
AcDbEntity
  8
1
  6
Continuous
100
AcDbCircle
 10
549.6931379999998
 20
254.737122
 30
0.0
 40
72.67100000000002
100
AcDbArc
 50
180.690332
 51
215.473014
  0
ARC
  5
BC2F
330
B989
100
AcDbEntity
  8
1
  6
Continuous
100
AcDbCircle
 10
481.4302429999998
 20
206.094166
 30
0.0
 40
11.14999999999999
100
AcDbArc
 50
239.8900379999998
 51
35.473014
  0
ARC
  5
BC30
330
B989
100
AcDbEntity
  8
1
  6
Continuous
100
AcDbCircle
 10
479.5829519999998
 20
398.419323
 30
0.0
 40
132.2282199999999
100
AcDbArc
 50
266.0406469999999
 51
271.272583
  0
ARC
  5
BC31
330
B989
100
AcDbEntity
  8
1
  6
Continuous
100
AcDbCircle
 10
472.823253
 20
266.7600759999999
 30
0.0
 40
2.383999999999999
100
AcDbArc
 50
89.765923
 51
186.1011659999999
  0
LINE
  5
BC32
330
B989
100
AcDbEntity
  8
1
  6
Continuous
100
AcDbLine
 10
468.5210129999998
 20
269.1289569999999
 30
0.0
 11
471.0595019999998
 21
271.6504459999999
 31
0.0
  0
ARC
  5
BC33
330
B989
100
AcDbEntity
  8
1
  6
Continuous
100
AcDbCircle
 10
491.5559059999998
 20
254.0366169999999
 30
0.0
 40
14.529548
100
AcDbArc
 50
138.3877149999999
 51
180.690332
  0
LINE
  5
BC34
330
B989
100
AcDbEntity
  8
1
  6
Continuous
100
AcDbLine
 10
480.692807
 20
263.685495
 30
0.0
 11
481.429738
 21
266.204001
 31
0.0
  0
ARC
  5
BC35
330
B989
100
AcDbEntity
  8
1
  6
Continuous
100
AcDbCircle
 10
489.271944
 20
263.5999749999999
 30
0.0
 40
5.267126
100
AcDbArc
 50
164.4235139999999
 51
177.2314419999999
  0
ARC
  5
BC36
330
B989
100
AcDbEntity
  8
1
  6
Continuous
100
AcDbCircle
 10
480.4652769999998
 20
534.547265
 30
0.0
 40
270.861866
100
AcDbArc
 50
270.0481299999999
 51
270.6701649999998
  0
ARC
  5
BC37
330
B989
100
AcDbEntity
  8
1
  6
Continuous
100
AcDbCircle
 10
483.626747
 20
264.2695939999999
 30
0.0
 40
0.565705
100
AcDbArc
 50
270.6701649999998
 51
312.780166
  0
ARC
  5
BC38
330
B989
100
AcDbEntity
  8
1
  6
Continuous
100
AcDbCircle
 10
478.034225
 20
265.1756279999998
 30
0.0
 40
6.166148999999997
100
AcDbArc
 50
358.5010279999999
 51
5.878328999999997
  0
ARC
  5
BC39
330
B989
100
AcDbEntity
  8
1
  6
Continuous
100
AcDbCircle
 10
483.9137069999998
 20
265.6806889999999
 30
0.0
 40
0.283955
100
AcDbArc
 50
26.44452299999999
 51
67.573387
  0
ARC
  5
BC3A
330
B989
100
AcDbEntity
  8
1
  6
Continuous
100
AcDbCircle
 10
482.602253
 20
262.503052
 30
0.0
 40
3.721582999999998
100
AcDbArc
 50
67.573387
 51
91.27258299999999
  0
ARC
  5
BC3B
330
B989
100
AcDbEntity
  8
1
  6
Continuous
100
AcDbCircle
 10
476.873081
 20
267.4081259999999
 30
0.0
 40
1.189
100
AcDbArc
 50
174.9251139999999
 51
268.815048
  0
LINE
  5
BC3C
330
B989
100
AcDbEntity
  8
1
  6
Continuous
100
AcDbLine
 10
480.692807
 20
263.685495
 30
0.0
 11
481.429738
 21
266.204001
 31
0.0
  0
ARC
  5
BC3D
330
B989
100
AcDbEntity
  8
1
  6
Continuous
100
AcDbCircle
 10
489.271944
 20
263.5999749999999
 30
0.0
 40
5.267126
100
AcDbArc
 50
164.4235139999999
 51
177.2314419999999
  0
ARC
  5
BC3E
330
B989
100
AcDbEntity
  8
1
  6
Continuous
100
AcDbCircle
 10
480.4652769999998
 20
534.547265
 30
0.0
 40
270.861866
100
AcDbArc
 50
270.0481299999999
 51
270.6701649999998
  0
ARC
  5
BC3F
330
B989
100
AcDbEntity
  8
1
  6
Continuous
100
AcDbCircle
 10
483.626747
 20
264.2695939999999
 30
0.0
 40
0.565705
100
AcDbArc
 50
270.6701649999998
 51
312.780166
  0
ARC
  5
BC40
330
B989
100
AcDbEntity
  8
1
  6
Continuous
100
AcDbCircle
 10
478.034225
 20
265.1756279999998
 30
0.0
 40
6.166148999999997
100
AcDbArc
 50
358.5010279999999
 51
5.878328999999997
  0
ARC
  5
BC41
330
B989
100
AcDbEntity
  8
1
  6
Continuous
100
AcDbCircle
 10
483.9137069999998
 20
265.6806889999999
 30
0.0
 40
0.283955
100
AcDbArc
 50
26.44452299999999
 51
67.573387
  0
ARC
  5
BC42
330
B989
100
AcDbEntity
  8
1
  6
Continuous
100
AcDbCircle
 10
482.602253
 20
262.503052
 30
0.0
 40
3.721582999999998
100
AcDbArc
 50
67.573387
 51
91.27258299999999
  0
ARC
  5
BC43
330
B989
100
AcDbEntity
  8
1
  6
Continuous
100
AcDbCircle
 10
472.9001009999998
 20
265.9437549999998
 30
0.0
 40
3.2
100
AcDbArc
 50
29.372364
 51
89.765923
  0
LINE
  5
BC44
330
B989
100
AcDbEntity
  8
1
  6
Continuous
100
AcDbLine
 10
475.118185
 20
270.4371899999998
 30
0.0
 11
473.8879289999998
 21
271.6504459999999
 31
0.0
  0
LINE
  5
BC45
330
B989
100
AcDbEntity
  8
1
  6
Continuous
100
AcDbLine
 10
475.118185
 20
269.1289569999999
 30
0.0
 11
475.118185
 21
272.944652
 31
0.0
  0
LINE
  5
BC46
330
B989
100
AcDbEntity
  8
1
  6
Continuous
100
AcDbLine
 10
474.177868
 20
269.1289569999999
 30
0.0
 11
475.118185
 21
270.069274
 31
0.0
  0
LINE
  5
BC47
330
B989
100
AcDbEntity
  8
1
  6
Continuous
100
AcDbLine
 10
473.597991
 20
269.1289569999999
 30
0.0
 11
471.0595019999998
 21
271.6504459999999
 31
0.0
  0
LINE
  5
BC48
330
B989
100
AcDbEntity
  8
1
  6
Continuous
100
AcDbLine
 10
471.349441
 20
269.1289569999999
 30
0.0
 11
473.8879289999998
 21
271.6504459999999
 31
0.0
  0
LINE
  5
BC49
330
B989
100
AcDbEntity
  8
1
  6
Continuous
100
AcDbLine
 10
453.7990009999998
 20
269.1289569999999
 30
0.0
 11
451.2605119999998
 21
271.6504459999999
 31
0.0
  0
LINE
  5
BC4A
330
B989
100
AcDbEntity
  8
1
  6
Continuous
100
AcDbLine
 10
451.5504509999998
 20
269.1289569999999
 30
0.0
 11
454.08894
 21
271.6504459999999
 31
0.0
  0
LINE
  5
BC4B
330
B989
100
AcDbEntity
  8
1
  6
Continuous
100
AcDbLine
 10
459.455856
 20
269.1289569999999
 30
0.0
 11
456.917367
 21
271.6504459999999
 31
0.0
  0
LINE
  5
BC4C
330
B989
100
AcDbEntity
  8
1
  6
Continuous
100
AcDbLine
 10
457.2073049999998
 20
269.1289569999999
 30
0.0
 11
459.7457939999999
 21
271.6504459999999
 31
0.0
  0
LINE
  5
BC4D
330
B989
100
AcDbEntity
  8
1
  6
Continuous
100
AcDbLine
 10
465.1127099999998
 20
269.1289569999999
 30
0.0
 11
462.574221
 21
271.6504459999999
 31
0.0
  0
LINE
  5
BC4E
330
B989
100
AcDbEntity
  8
1
  6
Continuous
100
AcDbLine
 10
462.8641589999999
 20
269.1289569999999
 30
0.0
 11
465.402648
 21
271.6504459999999
 31
0.0
  0
LINE
  5
BC4F
330
B989
100
AcDbEntity
  8
1
  6
Continuous
100
AcDbLine
 10
470.7695639999998
 20
269.1289569999999
 30
0.0
 11
468.231075
 21
271.6504459999999
 31
0.0
  0
LINE
  5
BC50
330
B989
100
AcDbEntity
  8
1
  6
Continuous
100
AcDbLine
 10
467.941137
 20
269.1289569999999
 30
0.0
 11
465.402648
 21
271.6504459999999
 31
0.0
  0
LINE
  5
BC51
330
B989
100
AcDbEntity
  8
1
  6
Continuous
100
AcDbLine
 10
465.692586
 20
269.1289569999999
 30
0.0
 11
468.231075
 21
271.6504459999999
 31
0.0
  0
LINE
  5
BC52
330
B989
100
AcDbEntity
  8
1
  6
Continuous
100
AcDbLine
 10
462.284283
 20
269.1289569999999
 30
0.0
 11
459.7457939999999
 21
271.6504459999999
 31
0.0
  0
LINE
  5
BC53
330
B989
100
AcDbEntity
  8
1
  6
Continuous
100
AcDbLine
 10
460.035732
 20
269.1289569999999
 30
0.0
 11
462.574221
 21
271.6504459999999
 31
0.0
  0
LINE
  5
BC54
330
B989
100
AcDbEntity
  8
1
  6
Continuous
100
AcDbLine
 10
456.627428
 20
269.1289569999999
 30
0.0
 11
454.08894
 21
271.6504459999999
 31
0.0
  0
LINE
  5
BC55
330
B989
100
AcDbEntity
  8
1
  6
Continuous
100
AcDbLine
 10
454.3788779999998
 20
269.1289569999999
 30
0.0
 11
456.917367
 21
271.6504459999999
 31
0.0
  0
LINE
  5
BC56
330
B989
100
AcDbEntity
  8
1
  6
Continuous
100
AcDbLine
 10
442.4852929999998
 20
269.1289569999999
 30
0.0
 11
439.946804
 21
271.6504459999999
 31
0.0
  0
LINE
  5
BC57
330
B989
100
AcDbEntity
  8
1
  6
Continuous
100
AcDbLine
 10
440.236742
 20
269.1289569999999
 30
0.0
 11
442.7752309999998
 21
271.6504459999999
 31
0.0
  0
LINE
  5
BC58
330
B989
100
AcDbEntity
  8
1
  6
Continuous
100
AcDbLine
 10
448.1421469999999
 20
269.1289569999999
 30
0.0
 11
445.603658
 21
271.6504459999999
 31
0.0
  0
LINE
  5
BC59
330
B989
100
AcDbEntity
  8
1
  6
Continuous
100
AcDbLine
 10
445.8935959999998
 20
269.1289569999999
 30
0.0
 11
448.4320849999998
 21
271.6504459999999
 31
0.0
  0
LINE
  5
BC5A
330
B989
100
AcDbEntity
  8
1
  6
Continuous
100
AcDbLine
 10
450.970574
 20
269.1289569999999
 30
0.0
 11
448.4320849999998
 21
271.6504459999999
 31
0.0
  0
LINE
  5
BC5B
330
B989
100
AcDbEntity
  8
1
  6
Continuous
100
AcDbLine
 10
448.722024
 20
269.1289569999999
 30
0.0
 11
451.2605119999998
 21
271.6504459999999
 31
0.0
  0
LINE
  5
BC5C
330
B989
100
AcDbEntity
  8
1
  6
Continuous
100
AcDbLine
 10
445.3137199999998
 20
269.1289569999999
 30
0.0
 11
442.7752309999998
 21
271.6504459999999
 31
0.0
  0
LINE
  5
BC5D
330
B989
100
AcDbEntity
  8
1
  6
Continuous
100
AcDbLine
 10
443.065169
 20
269.1289569999999
 30
0.0
 11
445.603658
 21
271.6504459999999
 31
0.0
  0
LINE
  5
BC5E
330
B989
100
AcDbEntity
  8
1
  6
Continuous
100
AcDbLine
 10
436.8284389999998
 20
269.1289569999999
 30
0.0
 11
434.2899499999998
 21
271.6504459999999
 31
0.0
  0
LINE
  5
BC5F
330
B989
100
AcDbEntity
  8
1
  6
Continuous
100
AcDbLine
 10
434.579888
 20
269.1289569999999
 30
0.0
 11
437.118377
 21
271.6504459999999
 31
0.0
  0
LINE
  5
BC60
330
B989
100
AcDbEntity
  8
1
  6
Continuous
100
AcDbLine
 10
437.408315
 20
269.1289569999999
 30
0.0
 11
439.946804
 21
271.6504459999999
 31
0.0
  0
LINE
  5
BC61
330
B989
100
AcDbEntity
  8
1
  6
Continuous
100
AcDbLine
 10
439.6568659999998
 20
269.1289569999999
 30
0.0
 11
437.118377
 21
271.6504459999999
 31
0.0
  0
LINE
  5
BC62
330
B989
100
AcDbEntity
  8
1
  6
Continuous
100
AcDbLine
 10
422.5103519999998
 20
259.144544
 30
0.0
 11
428.1647089999998
 21
258.6456549999999
 31
0.0
  0
ARC
  5
BC63
330
B989
100
AcDbEntity
  8
1
  6
Continuous
100
AcDbCircle
 10
427.9002559999998
 20
264.464311
 30
0.0
 40
7.172999999999999
100
AcDbArc
 50
158.3674609999999
 51
163.9433239999999
  0
ARC
  5
BC64
330
B989
100
AcDbEntity
  8
1
  6
Continuous
100
AcDbCircle
 10
424.2070849999998
 20
265.928968
 30
0.0
 40
3.2
100
AcDbArc
 50
90.0
 51
158.405854
  0
ARC
  5
BC65
330
B989
100
AcDbEntity
  8
1
  6
Continuous
100
AcDbCircle
 10
427.96063
 20
256.332641
 30
0.0
 40
2.322
100
AcDbArc
 50
13.304852
 51
84.95780100000002
  0
LINE
  5
BC66
330
B989
100
AcDbEntity
  8
1
  6
Continuous
100
AcDbLine
 10
421.0070849999998
 20
259.24496
 30
0.0
 11
421.0070849999998
 21
266.448277
 31
0.0
  0
LINE
  5
BC67
330
B989
100
AcDbEntity
  8
1
  6
Continuous
100
AcDbLine
 10
422.5103519999998
 20
259.144544
 30
0.0
 11
421.0070849999998
 21
259.24496
 31
0.0
  0
LINE
  5
BC68
330
B989
100
AcDbEntity
  8
1
  6
Continuous
100
AcDbLine
 10
428.343157
 20
269.1289569999999
 30
0.0
 11
425.8046679999997
 21
271.6504459999999
 31
0.0
  0
LINE
  5
BC69
330
B989
100
AcDbEntity
  8
1
  6
Continuous
100
AcDbLine
 10
426.0946070000001
 20
269.1289569999999
 30
0.0
 11
428.6330949999999
 21
271.6504459999999
 31
0.0
  0
LINE
  5
BC6A
330
B989
100
AcDbEntity
  8
1
  6
Continuous
100
AcDbLine
 10
428.9230339999998
 20
269.1289569999999
 30
0.0
 11
431.461523
 21
271.6504459999999
 31
0.0
  0
LINE
  5
BC6B
330
B989
100
AcDbEntity
  8
1
  6
Continuous
100
AcDbLine
 10
431.1715839999997
 20
269.1289569999999
 30
0.0
 11
428.6330949999999
 21
271.6504459999999
 31
0.0
  0
LINE
  5
BC6C
330
B989
100
AcDbEntity
  8
1
  6
Continuous
100
AcDbLine
 10
421.745985
 20
270.069274
 30
0.0
 11
422.686303
 21
269.1289569999999
 31
0.0
  0
LINE
  5
BC6D
330
B989
100
AcDbEntity
  8
1
  6
Continuous
100
AcDbLine
 10
421.745985
 20
270.4371899999998
 30
0.0
 11
422.976241
 21
271.6504459999999
 31
0.0
  0
LINE
  5
BC6E
330
B989
100
AcDbEntity
  8
1
  6
Continuous
100
AcDbLine
 10
421.745985
 20
272.944652
 30
0.0
 11
421.745985
 21
269.1289569999999
 31
0.0
  0
LINE
  5
BC6F
330
B989
100
AcDbEntity
  8
1
  6
Continuous
100
AcDbLine
 10
425.5147299999999
 20
269.1289569999999
 30
0.0
 11
422.976241
 21
271.6504459999999
 31
0.0
  0
LINE
  5
BC70
330
B989
100
AcDbEntity
  8
1
  6
Continuous
100
AcDbLine
 10
423.2661789999998
 20
269.1289569999999
 30
0.0
 11
425.8046679999997
 21
271.6504459999999
 31
0.0
  0
LINE
  5
BC71
330
B989
100
AcDbEntity
  8
1
  6
Continuous
100
AcDbLine
 10
432.2663019999998
 20
280.4446299999998
 30
0.0
 11
464.597917
 21
280.4446299999998
 31
0.0
  0
LINE
  5
BC72
330
B989
100
AcDbEntity
  8
1
  6
Continuous
100
AcDbLine
 10
469.4320849999998
 20
276.944652
 30
0.0
 11
427.4320849999998
 21
276.944652
 31
0.0
  0
ARC
  5
BC73
330
B989
100
AcDbEntity
  8
1
  6
Continuous
100
AcDbCircle
 10
439.9320849999998
 20
325.34463
 30
0.0
 40
1.0
100
AcDbArc
 50
90.0
 51
180.0
  0
ARC
  5
BC74
330
B989
100
AcDbEntity
  8
1
  6
Continuous
100
AcDbCircle
 10
456.9320849999998
 20
325.34463
 30
0.0
 40
1.0
100
AcDbArc
 50
0.0
 51
90.0
  0
LINE
  5
BC75
330
B989
100
AcDbEntity
  8
1
  6
Continuous
100
AcDbLine
 10
438.9320849999998
 20
325.34463
 30
0.0
 11
438.9320849999998
 21
281.9446299999999
 31
0.0
  0
LINE
  5
BC76
330
B989
100
AcDbEntity
  8
1
  6
Continuous
100
AcDbLine
 10
457.932085
 20
281.9446299999999
 30
0.0
 11
457.932085
 21
325.34463
 31
0.0
  0
LINE
  5
BC77
330
B989
100
AcDbEntity
  8
1
  6
Continuous
100
AcDbLine
 10
457.932085
 20
284.34463
 30
0.0
 11
438.9320849999998
 21
284.34463
 31
0.0
  0
LINE
  5
BC78
330
B989
100
AcDbEntity
  8
1
  6
Continuous
100
AcDbLine
 10
456.515013
 20
276.944652
 30
0.0
 11
456.515013
 21
280.4446299999998
 31
0.0
  0
LINE
  5
BC79
330
B989
100
AcDbEntity
  8
1
  6
Continuous
100
AcDbLine
 10
464.597917
 20
276.944652
 30
0.0
 11
464.597917
 21
280.4446299999998
 31
0.0
  0
ARC
  5
BC7A
330
B989
100
AcDbEntity
  8
1
  6
Continuous
100
AcDbCircle
 10
456.4320849999998
 20
281.9446299999999
 30
0.0
 40
1.5
100
AcDbArc
 50
270.0
 51
0.0
  0
LINE
  5
BC7B
330
B989
100
AcDbEntity
  8
1
  6
Continuous
100
AcDbLine
 10
440.3492049999998
 20
276.944652
 30
0.0
 11
440.3492049999998
 21
280.4446299999998
 31
0.0
  0
ARC
  5
BC7C
330
B989
100
AcDbEntity
  8
1
  6
Continuous
100
AcDbCircle
 10
440.4320849999998
 20
281.9446299999999
 30
0.0
 40
1.5
100
AcDbArc
 50
180.0
 51
270.0
  0
LINE
  5
BC7D
330
B989
100
AcDbEntity
  8
1
  6
Continuous
100
AcDbLine
 10
452.9321089999998
 20
330.4446299999999
 30
0.0
 11
443.9321089999999
 21
330.4446299999999
 31
0.0
  0
LINE
  5
BC7E
330
B989
100
AcDbEntity
  8
1
  6
Continuous
100
AcDbLine
 10
457.6820849999998
 20
329.54463
 30
0.0
 11
439.182085
 21
329.54463
 31
0.0
  0
LINE
  5
BC7F
330
B989
100
AcDbEntity
  8
1
  6
Continuous
100
AcDbLine
 10
457.6820849999998
 20
326.34463
 30
0.0
 11
439.182085
 21
326.34463
 31
0.0
  0
LINE
  5
BC80
330
B989
100
AcDbEntity
  8
1
  6
Continuous
100
AcDbLine
 10
452.9321089999998
 20
330.4446299999999
 30
0.0
 11
453.832109
 21
329.54463
 31
0.0
  0
LINE
  5
BC81
330
B989
100
AcDbEntity
  8
1
  6
Continuous
100
AcDbLine
 10
457.6820849999998
 20
329.54463
 30
0.0
 11
457.6820849999998
 21
326.34463
 31
0.0
  0
LINE
  5
BC82
330
B989
100
AcDbEntity
  8
1
  6
Continuous
100
AcDbLine
 10
452.4120349999998
 20
329.54463
 30
0.0
 11
452.4120349999998
 21
326.34463
 31
0.0
  0
LINE
  5
BC83
330
B989
100
AcDbEntity
  8
2
  6
Continuous
100
AcDbLine
 10
453.4850849999998
 20
329.54463
 30
0.0
 11
453.4850849999998
 21
329.891654
 31
0.0
  0
LINE
  5
BC84
330
B989
100
AcDbEntity
  8
1
  6
Continuous
100
AcDbLine
 10
439.182085
 20
329.54463
 30
0.0
 11
439.182085
 21
326.34463
 31
0.0
  0
LINE
  5
BC85
330
B989
100
AcDbEntity
  8
1
  6
Continuous
100
AcDbLine
 10
444.452136
 20
329.54463
 30
0.0
 11
444.452136
 21
326.34463
 31
0.0
  0
LINE
  5
BC86
330
B989
100
AcDbEntity
  8
1
  6
Continuous
100
AcDbLine
 10
443.9321089999999
 20
330.4446299999999
 30
0.0
 11
443.0321089999998
 21
329.54463
 31
0.0
  0
LINE
  5
BC87
330
B989
100
AcDbEntity
  8
2
  6
Continuous
100
AcDbLine
 10
443.379085
 20
329.54463
 30
0.0
 11
443.379085
 21
329.891606
 31
0.0
  0
LINE
  5
BC88
330
B989
100
AcDbEntity
  8
1
  6
Continuous
100
AcDbLine
 10
432.2663019999998
 20
276.944652
 30
0.0
 11
432.2663019999998
 21
280.4446299999998
 31
0.0
  0
CIRCLE
  5
BC89
330
B989
100
AcDbEntity
  8
1
  6
Continuous
100
AcDbCircle
 10
481.4316719999998
 20
206.4357199999999
 30
0.0
 40
7.0
  0
LINE
  5
BC8A
330
B989
100
AcDbEntity
  8
1
  6
Continuous
100
AcDbLine
 10
184.5860479999998
 20
435.6218959999998
 30
0.0
 11
184.5860479999998
 21
433.295658
 31
0.0
  0
LINE
  5
BC8B
330
B989
100
AcDbEntity
  8
1
  6
Continuous
100
AcDbLine
 10
198.586048
 20
435.6218959999998
 30
0.0
 11
184.5860479999998
 21
435.6218959999998
 31
0.0
  0
ARC
  5
BC8C
330
B989
100
AcDbEntity
  8
1
  6
Continuous
100
AcDbCircle
 10
191.586048
 20
427.795658
 30
0.0
 40
10.5
100
AcDbArc
 50
48.189685
 51
131.810315
  0
LINE
  5
BC8D
330
B989
100
AcDbEntity
  8
1
  6
Continuous
100
AcDbLine
 10
198.586048
 20
435.6218959999998
 30
0.0
 11
198.586048
 21
433.295658
 31
0.0
  0
LINE
  5
BC8E
330
B989
100
AcDbEntity
  8
1
  6
Continuous
100
AcDbLine
 10
36.378102
 20
199.426377
 30
0.0
 11
38.70434
 21
199.426377
 31
0.0
  0
LINE
  5
BC8F
330
B989
100
AcDbEntity
  8
1
  6
Continuous
100
AcDbLine
 10
36.378102
 20
213.426377
 30
0.0
 11
38.70434
 21
213.426377
 31
0.0
  0
LINE
  5
BC90
330
B989
100
AcDbEntity
  8
1
  6
Continuous
100
AcDbLine
 10
36.378102
 20
213.426377
 30
0.0
 11
36.378102
 21
199.426377
 31
0.0
  0
ARC
  5
BC91
330
B989
100
AcDbEntity
  8
1
  6
Continuous
100
AcDbCircle
 10
44.20434
 20
206.426377
 30
0.0
 40
10.5
100
AcDbArc
 50
138.1896849999999
 51
221.810315
  0
LINE
  5
BC92
330
B989
100
AcDbEntity
  8
1
  6
Continuous
100
AcDbLine
 10
357.2525069999999
 20
199.4441629999998
 30
0.0
 11
354.9262689999998
 21
199.4441629999998
 31
0.0
  0
LINE
  5
BC93
330
B989
100
AcDbEntity
  8
1
  6
Continuous
100
AcDbLine
 10
357.2525069999999
 20
207.4859319999999
 30
0.0
 11
357.2525069999999
 21
199.4441629999998
 31
0.0
  0
ARC
  5
BC94
330
B989
100
AcDbEntity
  8
1
  6
Continuous
100
AcDbCircle
 10
349.4262689999998
 20
206.4441629999998
 30
0.0
 40
10.5
100
AcDbArc
 50
318.189685
 51
22.38542199999999
  0
LINE
  5
BC95
330
B989
100
AcDbEntity
  8
1
  6
Continuous
100
AcDbLine
 10
198.586035
 20
51.232001
 30
0.0
 11
198.586035
 21
53.558239
 31
0.0
  0
LINE
  5
BC96
330
B989
100
AcDbEntity
  8
1
  6
Continuous
100
AcDbLine
 10
184.586035
 20
51.232001
 30
0.0
 11
184.586035
 21
53.558239
 31
0.0
  0
LINE
  5
BC97
330
B989
100
AcDbEntity
  8
1
  6
Continuous
100
AcDbLine
 10
198.586035
 20
51.232001
 30
0.0
 11
184.586035
 21
51.232001
 31
0.0
  0
ARC
  5
BC98
330
B989
100
AcDbEntity
  8
1
  6
Continuous
100
AcDbCircle
 10
191.586035
 20
59.058239
 30
0.0
 40
10.5
100
AcDbArc
 50
228.1896849999998
 51
311.810315
  0
ENDSEC
  0
SECTION
  2
OBJECTS
  0
DICTIONARY
  5
B977
330
0
100
AcDbDictionary
281
     1
  3
ACAD_CIP_PREVIOUS_PRODUCT_INFO
350
BCFA
  3
ACAD_COLOR
350
BCDC
  3
ACAD_DETAILVIEWSTYLE
350
BCF5
  3
ACAD_GROUP
350
B978
  3
ACAD_LAYOUT
350
B984
  3
ACAD_MATERIAL
350
BCAA
  3
ACAD_MLEADERSTYLE
350
BCF1
  3
ACAD_MLINESTYLE
350
B981
  3
ACAD_PLOTSETTINGS
350
B983
  3
ACAD_PLOTSTYLENAME
350
BCA8
  3
ACAD_SCALELIST
350
BCDF
  3
ACAD_SECTIONVIEWSTYLE
350
BCF3
  3
ACAD_TABLESTYLE
350
BCDD
  3
ACAD_VISUALSTYLE
350
BCC3
  3
ACDB_RECOMPOSE_DATA
350
BD18
  3
AcDbVariableDictionary
350
BD0B
  3
DWGPROPS
350
BD19
  0
DICTIONARY
  5
BCFB
330
B97B
100
AcDbDictionary
280
     1
281
     1
  3
ADSK_XREC_LAYER_RECONCILED
360
BCFC
  0
DICTIONARY
  5
BCFD
330
B991
100
AcDbDictionary
280
     1
281
     1
  3
ADSK_XREC_LAYER_RECONCILED
360
BCFE
  0
DICTIONARY
  5
BCFF
330
B992
100
AcDbDictionary
280
     1
281
     1
  3
ADSK_XREC_LAYER_RECONCILED
360
BD00
  0
DICTIONARY
  5
BD01
330
B993
100
AcDbDictionary
280
     1
281
     1
  3
ADSK_XREC_LAYER_RECONCILED
360
BD02
  0
DICTIONARY
  5
BD03
330
B994
100
AcDbDictionary
280
     1
281
     1
  3
ADSK_XREC_LAYER_RECONCILED
360
BD04
  0
DICTIONARY
  5
BD05
330
B995
100
AcDbDictionary
280
     1
281
     1
  3
ADSK_XREC_LAYER_RECONCILED
360
BD06
  0
DICTIONARY
  5
BD07
330
B996
100
AcDbDictionary
280
     1
281
     1
  3
ADSK_XREC_LAYER_RECONCILED
360
BD08
  0
DICTIONARY
  5
BD09
330
B997
100
AcDbDictionary
280
     1
281
     1
  3
ADSK_XREC_LAYER_RECONCILED
360
BD0A
  0
DICTIONARY
  5
BCA3
330
B989
100
AcDbDictionary
281
     1
  3
ACAD_LAYOUTSELFREF
350
BCA4
  0
DICTIONARY
  5
BCA1
330
B985
100
AcDbDictionary
281
     1
  3
ACAD_LAYOUTSELFREF
350
BCA2
  0
XRECORD
  5
BCFA
102
{ACAD_REACTORS
330
B977
102
}
330
B977
100
AcDbXrecord
280
     1
300
ACDLT
300
2014
300
ACDLT_F_S
  0
DICTIONARY
  5
BCDC
102
{ACAD_REACTORS
330
B977
102
}
330
B977
100
AcDbDictionary
281
     1
  0
DICTIONARY
  5
BCF5
102
{ACAD_REACTORS
330
B977
102
}
330
B977
100
AcDbDictionary
281
     1
  3
Imperial24
350
BCF6
  0
DICTIONARY
  5
B978
102
{ACAD_REACTORS
330
B977
102
}
330
B977
100
AcDbDictionary
281
     1
  0
DICTIONARY
  5
B984
102
{ACAD_REACTORS
330
B977
102
}
330
B977
100
AcDbDictionary
281
     1
  3
Model
350
BCF7
  3
レイアウト1
350
BCF8
  0
DICTIONARY
  5
BCAA
102
{ACAD_REACTORS
330
B977
102
}
330
B977
100
AcDbDictionary
281
     1
  3
ByBlock
350
BCB3
  3
ByLayer
350
BCAB
  3
Global
350
BCBB
  0
DICTIONARY
  5
BCF1
102
{ACAD_REACTORS
330
B977
102
}
330
B977
100
AcDbDictionary
281
     1
  3
Standard
350
BCF2
  0
DICTIONARY
  5
B981
102
{ACAD_REACTORS
330
B977
102
}
330
B977
100
AcDbDictionary
281
     1
  3
STANDARD
350
B982
  0
DICTIONARY
  5
B983
102
{ACAD_REACTORS
330
B977
102
}
330
B977
100
AcDbDictionary
281
     1
  0
ACDBDICTIONARYWDFLT
  5
BCA8
102
{ACAD_REACTORS
330
B977
102
}
330
B977
100
AcDbDictionary
281
     1
  3
Normal
350
BCA9
100
AcDbDictionaryWithDefault
340
BCA9
  0
DICTIONARY
  5
BCDF
102
{ACAD_REACTORS
330
B977
102
}
330
B977
100
AcDbDictionary
281
     1
  3
A0
350
BCE0
  3
A1
350
BCE1
  3
A2
350
BCE2
  3
A3
350
BCE3
  3
A4
350
BCE4
  3
A5
350
BCE5
  3
A6
350
BCE6
  3
A7
350
BCE7
  3
A8
350
BCE8
  3
A9
350
BCE9
  3
B0
350
BCEA
  3
B1
350
BCEB
  3
B2
350
BCEC
  3
B3
350
BCED
  3
B4
350
BCEE
  3
B5
350
BCEF
  3
B6
350
BCF0
  0
DICTIONARY
  5
BCF3
102
{ACAD_REACTORS
330
B977
102
}
330
B977
100
AcDbDictionary
281
     1
  3
Imperial24
350
BCF4
  0
DICTIONARY
  5
BCDD
102
{ACAD_REACTORS
330
B977
102
}
330
B977
100
AcDbDictionary
281
     1
  3
Standard
350
BCDE
  0
DICTIONARY
  5
BCC3
102
{ACAD_REACTORS
330
B977
102
}
330
B977
100
AcDbDictionary
281
     1
  3
2dWireframe
350
BCC9
  3
Basic
350
BCC8
  3
Brighten
350
BCCF
  3
ColorChange
350
BCD3
  3
Conceptual
350
BCCC
  3
Dim
350
BCCE
  3
EdgeColorOff
350
BCDB
  3
Facepattern
350
BCD2
  3
Flat
350
BCC4
  3
FlatWithEdges
350
BCC5
  3
Gouraud
350
BCC6
  3
GouraudWithEdges
350
BCC7
  3
Hidden
350
BCCB
  3
JitterOff
350
BCD9
  3
Linepattern
350
BCD1
  3
OverhangOff
350
BCDA
  3
Realistic
350
BCCD
  3
Shaded
350
BCD8
  3
Shaded with edges
350
BCD7
  3
Shades of Gray
350
BCD4
  3
Sketchy
350
BCD5
  3
Thicken
350
BCD0
  3
Wireframe
350
BCCA
  3
X-Ray
350
BCD6
  0
XRECORD
  5
BD18
102
{ACAD_REACTORS
330
B977
102
}
330
B977
100
AcDbXrecord
280
     1
 90
        1
330
BCDE
  0
DICTIONARY
  5
BD0B
102
{ACAD_REACTORS
330
B977
102
}
330
B977
100
AcDbDictionary
281
     1
  3
CANNOSCALE
350
BD10
  3
CMLEADERSTYLE
350
BD0D
  3
CTABLESTYLE
350
BD0C
  3
CVIEWDETAILSTYLE
350
BD0E
  3
CVIEWSECTIONSTYLE
350
BD0F
  3
DIMASSOC
350
BD13
  3
INDEXCTL
350
BD12
  3
SORTENTS
350
BD11
  3
XCLIPFRAME
350
BD14
  0
XRECORD
  5
BD19
102
{ACAD_REACTORS
330
B977
102
}
330
B977
100
AcDbXrecord
280
     1
  1
DWGPROPS COOKIE
  2

  3

  4

  6

  7

  8
Yoshitsune
  9

300
=
301
=
302
=
303
=
304
=
305
=
306
=
307
=
308
=
309
=
 40
0.0000104861111111
 41
2451301.575710648
 42
2457192.687800799
  1

 90
        0
  0
XRECORD
  5
BCFC
102
{ACAD_REACTORS
330
BCFB
102
}
330
BCFB
100
AcDbXrecord
280
     1
290
     1
  0
XRECORD
  5
BCFE
102
{ACAD_REACTORS
330
BCFD
102
}
330
BCFD
100
AcDbXrecord
280
     1
290
     1
  0
XRECORD
  5
BD00
102
{ACAD_REACTORS
330
BCFF
102
}
330
BCFF
100
AcDbXrecord
280
     1
290
     1
  0
XRECORD
  5
BD02
102
{ACAD_REACTORS
330
BD01
102
}
330
BD01
100
AcDbXrecord
280
     1
290
     1
  0
XRECORD
  5
BD04
102
{ACAD_REACTORS
330
BD03
102
}
330
BD03
100
AcDbXrecord
280
     1
290
     1
  0
XRECORD
  5
BD06
102
{ACAD_REACTORS
330
BD05
102
}
330
BD05
100
AcDbXrecord
280
     1
290
     1
  0
XRECORD
  5
BD08
102
{ACAD_REACTORS
330
BD07
102
}
330
BD07
100
AcDbXrecord
280
     1
290
     1
  0
XRECORD
  5
BD0A
102
{ACAD_REACTORS
330
BD09
102
}
330
BD09
100
AcDbXrecord
280
     1
290
     1
  0
XRECORD
  5
BCA4
102
{ACAD_REACTORS
330
BCA3
102
}
330
BCA3
100
AcDbXrecord
280
     1
340
B989
  0
XRECORD
  5
BCA2
102
{ACAD_REACTORS
330
BCA1
102
}
330
BCA1
100
AcDbXrecord
280
     1
340
B985
  0
ACDBDETAILVIEWSTYLE
  5
BCF6
102
{ACAD_XDICTIONARY
360
BD51
102
}
102
{ACAD_REACTORS
330
BCF5
102
}
330
BCF5
100
AcDbModelDocViewStyle
 70
     0
  3
Imperial24
290
     0
100
AcDbDetailViewStyle
 70
     0
 71
     0
 90
        3
 71
     1
340
B97C
 40
0.24
340
0
 40
0.24
300

 40
0.36
280
     3
 71
     2
340
B980
 90
       25
 71
     3
340
B97C
 40
0.24
 90
        1
 40
0.75
 90
        1
300
%<\AcVar ViewType \f "%tc1">% %<\AcVar ViewDetailId>%\PSCALE %<\AcVar ViewScale \f "%sn">%
 71
     4
340
B980
 90
       25
340
B980
 90
       25
280
     0
  0
LAYOUT
  5
BCF7
102
{ACAD_XDICTIONARY
360
BD53
102
}
102
{ACAD_REACTORS
330
B984
102
}
330
B984
100
AcDbPlotSettings
  1

  2
Canon LBP9100C
  4

  6

 40
0.0
 41
0.0
 42
0.0
 43
0.0
 44
0.0
 45
0.0
 46
0.0
 47
0.0
 48
0.0
 49
0.0
140
0.0
141
0.0
142
1.0
143
1.0
 70
  1712
 72
     0
 73
     0
 74
     0
  7

 75
     0
147
1.0
148
0.0
149
0.0
100
AcDbLayout
  1
Model
 70
     1
 71
     0
 10
0.0
 20
0.0
 11
12.0
 21
9.0
 12
0.0
 22
0.0
 32
0.0
 14
0.0
 24
0.0
 34
0.0
 15
0.0
 25
0.0
 35
0.0
146
0.0
 13
0.0
 23
0.0
 33
0.0
 16
1.0
 26
0.0
 36
0.0
 17
0.0
 27
1.0
 37
0.0
 76
     0
330
B989
331
BCA0
  0
LAYOUT
  5
BCF8
102
{ACAD_XDICTIONARY
360
BD55
102
}
102
{ACAD_REACTORS
330
B984
102
}
330
B984
100
AcDbPlotSettings
  1

  2
Canon LBP9100C
  4

  6

 40
0.0
 41
0.0
 42
0.0
 43
0.0
 44
0.0
 45
0.0
 46
0.0
 47
0.0
 48
0.0
 49
0.0
140
0.0
141
0.0
142
1.0
143
1.0
 70
   688
 72
     0
 73
     0
 74
     5
  7

 75
    16
147
1.0
148
0.0
149
0.0
100
AcDbLayout
  1
レイアウト1
 70
     0
 71
     1
 10
0.0
 20
0.0
 11
420.0
 21
297.0
 12
0.0
 22
0.0
 32
0.0
 14
1.000000000000000E+20
 24
1.000000000000000E+20
 34
1.000000000000000E+20
 15
-1.000000000000000E+20
 25
-1.000000000000000E+20
 35
-1.000000000000000E+20
146
0.0
 13
0.0
 23
0.0
 33
0.0
 16
1.0
 26
0.0
 36
0.0
 17
0.0
 27
1.0
 37
0.0
 76
     0
330
B985
  0
MATERIAL
  5
BCB3
102
{ACAD_XDICTIONARY
360
BCB4
102
}
102
{ACAD_REACTORS
330
BCAA
102
}
330
BCAA
100
AcDbMaterial
  1
ByBlock
 72
     0
 43
0.0208333333333333
 43
0.0
 43
0.0
 43
0.0
 43
0.0
 43
0.0208333333333333
 43
0.0
 43
0.0
 43
0.0
 43
0.0
 43
1.0
 43
0.0
 43
0.0
 43
0.0
 43
0.0
 43
1.0
 77
     0
 47
0.0208333333333333
 47
0.0
 47
0.0
 47
0.0
 47
0.0
 47
0.0208333333333333
 47
0.0
 47
0.0
 47
0.0
 47
0.0
 47
1.0
 47
0.0
 47
0.0
 47
0.0
 47
0.0
 47
1.0
171
     0
 49
0.0208333333333333
 49
0.0
 49
0.0
 49
0.0
 49
0.0
 49
0.0208333333333333
 49
0.0
 49
0.0
 49
0.0
 49
0.0
 49
1.0
 49
0.0
 49
0.0
 49
0.0
 49
0.0
 49
1.0
175
     0
142
0.0208333333333333
142
0.0
142
0.0
142
0.0
142
0.0
142
0.0208333333333333
142
0.0
142
0.0
142
0.0
142
0.0
142
1.0
142
0.0
142
0.0
142
0.0
142
0.0
142
1.0
179
     0
144
0.0208333333333333
144
0.0
144
0.0
144
0.0
144
0.0
144
0.0208333333333333
144
0.0
144
0.0
144
0.0
144
0.0
144
1.0
144
0.0
144
0.0
144
0.0
144
0.0
144
1.0
147
0.0208333333333333
147
0.0
147
0.0
147
0.0
147
0.0
147
0.0208333333333333
147
0.0
147
0.0
147
0.0
147
0.0
147
1.0
147
0.0
147
0.0
147
0.0
147
0.0
147
1.0
  0
MATERIAL
  5
BCAB
102
{ACAD_XDICTIONARY
360
BCAC
102
}
102
{ACAD_REACTORS
330
BCAA
102
}
330
BCAA
100
AcDbMaterial
  1
ByLayer
 72
     0
 43
0.0208333333333333
 43
0.0
 43
0.0
 43
0.0
 43
0.0
 43
0.0208333333333333
 43
0.0
 43
0.0
 43
0.0
 43
0.0
 43
1.0
 43
0.0
 43
0.0
 43
0.0
 43
0.0
 43
1.0
 77
     0
 47
0.0208333333333333
 47
0.0
 47
0.0
 47
0.0
 47
0.0
 47
0.0208333333333333
 47
0.0
 47
0.0
 47
0.0
 47
0.0
 47
1.0
 47
0.0
 47
0.0
 47
0.0
 47
0.0
 47
1.0
171
     0
 49
0.0208333333333333
 49
0.0
 49
0.0
 49
0.0
 49
0.0
 49
0.0208333333333333
 49
0.0
 49
0.0
 49
0.0
 49
0.0
 49
1.0
 49
0.0
 49
0.0
 49
0.0
 49
0.0
 49
1.0
175
     0
142
0.0208333333333333
142
0.0
142
0.0
142
0.0
142
0.0
142
0.0208333333333333
142
0.0
142
0.0
142
0.0
142
0.0
142
1.0
142
0.0
142
0.0
142
0.0
142
0.0
142
1.0
179
     0
144
0.0208333333333333
144
0.0
144
0.0
144
0.0
144
0.0
144
0.0208333333333333
144
0.0
144
0.0
144
0.0
144
0.0
144
1.0
144
0.0
144
0.0
144
0.0
144
0.0
144
1.0
147
0.0208333333333333
147
0.0
147
0.0
147
0.0
147
0.0
147
0.0208333333333333
147
0.0
147
0.0
147
0.0
147
0.0
147
1.0
147
0.0
147
0.0
147
0.0
147
0.0
147
1.0
  0
MATERIAL
  5
BCBB
102
{ACAD_XDICTIONARY
360
BCBC
102
}
102
{ACAD_REACTORS
330
BCAA
102
}
330
BCAA
100
AcDbMaterial
  1
Global
 72
     0
 43
0.0208333333333333
 43
0.0
 43
0.0
 43
0.0
 43
0.0
 43
0.0208333333333333
 43
0.0
 43
0.0
 43
0.0
 43
0.0
 43
1.0
 43
0.0
 43
0.0
 43
0.0
 43
0.0
 43
1.0
 77
     0
 47
0.0208333333333333
 47
0.0
 47
0.0
 47
0.0
 47
0.0
 47
0.0208333333333333
 47
0.0
 47
0.0
 47
0.0
 47
0.0
 47
1.0
 47
0.0
 47
0.0
 47
0.0
 47
0.0
 47
1.0
171
     0
 49
0.0208333333333333
 49
0.0
 49
0.0
 49
0.0
 49
0.0
 49
0.0208333333333333
 49
0.0
 49
0.0
 49
0.0
 49
0.0
 49
1.0
 49
0.0
 49
0.0
 49
0.0
 49
0.0
 49
1.0
175
     0
142
0.0208333333333333
142
0.0
142
0.0
142
0.0
142
0.0
142
0.0208333333333333
142
0.0
142
0.0
142
0.0
142
0.0
142
1.0
142
0.0
142
0.0
142
0.0
142
0.0
142
1.0
179
     0
144
0.0208333333333333
144
0.0
144
0.0
144
0.0
144
0.0
144
0.0208333333333333
144
0.0
144
0.0
144
0.0
144
0.0
144
1.0
144
0.0
144
0.0
144
0.0
144
0.0
144
1.0
147
0.0208333333333333
147
0.0
147
0.0
147
0.0
147
0.0
147
0.0208333333333333
147
0.0
147
0.0
147
0.0
147
0.0
147
1.0
147
0.0
147
0.0
147
0.0
147
0.0
147
1.0
  0
MLEADERSTYLE
  5
BCF2
102
{ACAD_REACTORS
330
BCF1
102
}
330
BCF1
100
AcDbMLeaderStyle
170
     2
171
     1
172
     0
 90
        2
 40
0.0
 41
0.0
173
     1
 91
-1056964608
340
B97E
 92
       -2
290
     1
 42
0.09
291
     1
 43
0.36
  3
Standard
 44
0.18
300

342
B97C
174
     1
178
     6
175
     1
176
     0
 93
-1056964608
 45
0.18
292
     0
297
     0
 46
0.18
 94
-1056964608
 47
1.0
 49
1.0
140
1.0
293
     1
141
0.0
294
     1
177
     0
142
1.0
295
     0
296
     0
143
0.125
1001
ACAD_MLEADERVER
1070
     2
  0
MLINESTYLE
  5
B982
102
{ACAD_REACTORS
330
B981
102
}
330
B981
100
AcDbMlineStyle
  2
STANDARD
 70
     0
  3

 62
   256
 51
90.0
 52
90.0
 71
     2
 49
0.5
 62
   256
  6
BYLAYER
 49
-0.5
 62
   256
  6
BYLAYER
  0
ACDBPLACEHOLDER
  5
BCA9
102
{ACAD_REACTORS
330
BCA8
102
}
330
BCA8
  0
SCALE
  5
BCE0
102
{ACAD_REACTORS
330
BCDF
102
}
330
BCDF
100
AcDbScale
 70
     0
300
1:1
140
1.0
141
1.0
290
     1
  0
SCALE
  5
BCE1
102
{ACAD_REACTORS
330
BCDF
102
}
330
BCDF
100
AcDbScale
 70
     0
300
1/128" = 1'-0"
140
0.0078125
141
12.0
290
     0
  0
SCALE
  5
BCE2
102
{ACAD_REACTORS
330
BCDF
102
}
330
BCDF
100
AcDbScale
 70
     0
300
1/64" = 1'-0"
140
0.015625
141
12.0
290
     0
  0
SCALE
  5
BCE3
102
{ACAD_REACTORS
330
BCDF
102
}
330
BCDF
100
AcDbScale
 70
     0
300
1/32" = 1'-0"
140
0.03125
141
12.0
290
     0
  0
SCALE
  5
BCE4
102
{ACAD_REACTORS
330
BCDF
102
}
330
BCDF
100
AcDbScale
 70
     0
300
1/16" = 1'-0"
140
0.0625
141
12.0
290
     0
  0
SCALE
  5
BCE5
102
{ACAD_REACTORS
330
BCDF
102
}
330
BCDF
100
AcDbScale
 70
     0
300
3/32" = 1'-0"
140
0.09375
141
12.0
290
     0
  0
SCALE
  5
BCE6
102
{ACAD_REACTORS
330
BCDF
102
}
330
BCDF
100
AcDbScale
 70
     0
300
1/8" = 1'-0"
140
0.125
141
12.0
290
     0
  0
SCALE
  5
BCE7
102
{ACAD_REACTORS
330
BCDF
102
}
330
BCDF
100
AcDbScale
 70
     0
300
3/16" = 1'-0"
140
0.1875
141
12.0
290
     0
  0
SCALE
  5
BCE8
102
{ACAD_REACTORS
330
BCDF
102
}
330
BCDF
100
AcDbScale
 70
     0
300
1/4" = 1'-0"
140
0.25
141
12.0
290
     0
  0
SCALE
  5
BCE9
102
{ACAD_REACTORS
330
BCDF
102
}
330
BCDF
100
AcDbScale
 70
     0
300
3/8" = 1'-0"
140
0.375
141
12.0
290
     0
  0
SCALE
  5
BCEA
102
{ACAD_REACTORS
330
BCDF
102
}
330
BCDF
100
AcDbScale
 70
     0
300
1/2" = 1'-0"
140
0.5
141
12.0
290
     0
  0
SCALE
  5
BCEB
102
{ACAD_REACTORS
330
BCDF
102
}
330
BCDF
100
AcDbScale
 70
     0
300
3/4" = 1'-0"
140
0.75
141
12.0
290
     0
  0
SCALE
  5
BCEC
102
{ACAD_REACTORS
330
BCDF
102
}
330
BCDF
100
AcDbScale
 70
     0
300
1" = 1'-0"
140
1.0
141
12.0
290
     0
  0
SCALE
  5
BCED
102
{ACAD_REACTORS
330
BCDF
102
}
330
BCDF
100
AcDbScale
 70
     0
300
1-1/2" = 1'-0"
140
1.5
141
12.0
290
     0
  0
SCALE
  5
BCEE
102
{ACAD_REACTORS
330
BCDF
102
}
330
BCDF
100
AcDbScale
 70
     0
300
3" = 1'-0"
140
3.0
141
12.0
290
     0
  0
SCALE
  5
BCEF
102
{ACAD_REACTORS
330
BCDF
102
}
330
BCDF
100
AcDbScale
 70
     0
300
6" = 1'-0"
140
6.0
141
12.0
290
     0
  0
SCALE
  5
BCF0
102
{ACAD_REACTORS
330
BCDF
102
}
330
BCDF
100
AcDbScale
 70
     0
300
1'-0" = 1'-0"
140
12.0
141
12.0
290
     0
  0
ACDBSECTIONVIEWSTYLE
  5
BCF4
102
{ACAD_XDICTIONARY
360
BD4F
102
}
102
{ACAD_REACTORS
330
BCF3
102
}
330
BCF3
100
AcDbModelDocViewStyle
 70
     0
  3
Imperial24
290
     0
100
AcDbSectionViewStyle
 70
     0
 71
     0
 90
       78
 71
     1
340
B97C
 40
0.24
340
0
340
0
 40
0.24
300
I, O, Q, S, X, Z
 40
0.48
 90
        3
 40
0.18
 90
        1
 71
     2
340
B980
 90
       25
340
B980
 90
       50
 40
0.24
 40
0.0
 40
0.24
 71
     3
340
B97C
 40
0.24
 90
        1
 40
0.75
 90
        1
300
%<\AcVar ViewType \f "%tc1">% %<\AcVar ViewSectionStartId>%-%<\AcVar ViewSectionEndId>%\PSCALE %<\AcVar ViewScale \f "%sn">%
 71
     4
300
ANSI31
 40
1.0
 90
        0
290
     0
290
     0
 90
        6
 40
0.0
 40
1.570796326794896
 40
0.2617993877991494
 40
1.308996938995747
 40
-0.2617993877991494
 40
1.832595714594046
  0
TABLESTYLE
  5
BCDE
102
{ACAD_XDICTIONARY
360
BD16
102
}
102
{ACAD_REACTORS
330
BCDD
102
}
330
BCDD
100
AcDbTableStyle
  3
Standard
 70
     0
 71
     0
 40
0.06
 41
0.06
280
     0
281
     0
  7
STANDARD
140
0.18
170
     2
 62
     0
 63
     7
283
     0
274
    -2
284
     1
 64
     0
275
    -2
285
     1
 65
     0
276
    -2
286
     1
 66
     0
277
    -2
287
     1
 67
     0
278
    -2
288
     1
 68
     0
279
    -2
289
     1
 69
     0
  7
STANDARD
140
0.25
170
     5
 62
     0
 63
     7
283
     0
274
    -2
284
     1
 64
     0
275
    -2
285
     1
 65
     0
276
    -2
286
     1
 66
     0
277
    -2
287
     1
 67
     0
278
    -2
288
     1
 68
     0
279
    -2
289
     1
 69
     0
  7
STANDARD
140
0.18
170
     5
 62
     0
 63
     7
283
     0
274
    -2
284
     1
 64
     0
275
    -2
285
     1
 65
     0
276
    -2
286
     1
 66
     0
277
    -2
287
     1
 67
     0
278
    -2
288
     1
 68
     0
279
    -2
289
     1
 69
     0
  0
VISUALSTYLE
  5
BCC9
102
{ACAD_XDICTIONARY
360
BD27
102
}
102
{ACAD_REACTORS
330
BCC3
102
}
330
BCC3
100
AcDbVisualStyle
  2
2dWireframe
 70
     4
 71
     0
 72
     2
 73
     0
 90
        0
 40
-0.6
 41
-30.0
 62
     5
 63
     7
 74
     1
 91
        4
 64
     7
 65
   257
 75
     1
175
     1
 42
1.0
 92
        0
 66
   257
 43
1.0
 76
     1
 77
     6
 78
     2
 67
     7
 79
     5
170
     0
171
     0
290
     0
174
     0
 93
        1
 44
0.0
173
     0
291
     0
 45
0.0
1001
ACAD
1000
AcDbSavedByObjectVersion
1070
     0
  0
VISUALSTYLE
  5
BCC8
102
{ACAD_XDICTIONARY
360
BD25
102
}
102
{ACAD_REACTORS
330
BCC3
102
}
330
BCC3
100
AcDbVisualStyle
  2
Basic
 70
     7
 71
     1
 72
     0
 73
     1
 90
        0
 40
-0.6
 41
-30.0
 62
     5
 63
     7
 74
     0
 91
        4
 64
     7
 65
   257
 75
     1
175
     1
 42
1.0
 92
        8
 66
     7
 43
1.0
 76
     1
 77
     6
 78
     2
 67
     7
 79
     5
170
     0
171
     0
290
     0
174
     0
 93
        1
 44
0.0
173
     0
291
     1
 45
0.0
1001
ACAD
1000
AcDbSavedByObjectVersion
1070
     0
  0
VISUALSTYLE
  5
BCCF
102
{ACAD_XDICTIONARY
360
BD33
102
}
102
{ACAD_REACTORS
330
BCC3
102
}
330
BCC3
100
AcDbVisualStyle
  2
Brighten
 70
    12
 71
     2
 72
     2
 73
     0
 90
        0
 40
-0.6
 41
-30.0
 62
     5
 63
     7
 74
     1
 91
        4
 64
     7
 65
   257
 75
     1
175
     1
 42
1.0
 92
        8
 66
     7
 43
1.0
 76
     1
 77
     6
 78
     2
 67
     7
 79
     5
170
     0
171
     0
290
     0
174
     0
 93
        1
 44
50.0
173
     0
291
     1
 45
0.0
1001
ACAD
1000
AcDbSavedByObjectVersion
1070
     0
  0
VISUALSTYLE
  5
BCD3
102
{ACAD_XDICTIONARY
360
BD3B
102
}
102
{ACAD_REACTORS
330
BCC3
102
}
330
BCC3
100
AcDbVisualStyle
  2
ColorChange
 70
    16
 71
     2
 72
     2
 73
     3
 90
        0
 40
-0.6
 41
-30.0
 62
     5
 63
     8
 74
     1
 91
        4
 64
     7
 65
   257
 75
     1
175
     1
 42
1.0
 92
        8
 66
     8
 43
1.0
 76
     1
 77
     6
 78
     2
 67
     7
 79
     5
170
     0
171
     0
290
     0
174
     0
 93
        1
 44
0.0
173
     0
291
     1
 45
0.0
1001
ACAD
1000
AcDbSavedByObjectVersion
1070
     0
  0
VISUALSTYLE
  5
BCCC
102
{ACAD_XDICTIONARY
360
BD2D
102
}
102
{ACAD_REACTORS
330
BCC3
102
}
330
BCC3
100
AcDbVisualStyle
  2
Conceptual
 70
     9
 71
     3
 72
     2
 73
     0
 90
        0
 40
-0.6
 41
-30.0
 62
     5
 63
     7
 74
     2
 91
        2
 64
     7
 65
   257
 75
     1
175
     1
 42
179.0
 92
        8
 66
     7
 43
1.0
 76
     1
 77
     6
 78
     2
 67
     7
 79
     3
170
     0
171
     0
290
     0
174
     0
 93
        1
 44
0.0
173
     0
291
     0
 45
0.0
1001
ACAD
1000
AcDbSavedByObjectVersion
1070
     0
  0
VISUALSTYLE
  5
BCCE
102
{ACAD_XDICTIONARY
360
BD31
102
}
102
{ACAD_REACTORS
330
BCC3
102
}
330
BCC3
100
AcDbVisualStyle
  2
Dim
 70
    11
 71
     2
 72
     2
 73
     0
 90
        0
 40
-0.6
 41
-30.0
 62
     5
 63
     7
 74
     1
 91
        4
 64
     7
 65
   257
 75
     1
175
     1
 42
1.0
 92
        8
 66
     7
 43
1.0
 76
     1
 77
     6
 78
     2
 67
     7
 79
     5
170
     0
171
     0
290
     0
174
     0
 93
        1
 44
-50.0
173
     0
291
     1
 45
0.0
1001
ACAD
1000
AcDbSavedByObjectVersion
1070
     0
  0
VISUALSTYLE
  5
BCDB
102
{ACAD_XDICTIONARY
360
BD4B
102
}
102
{ACAD_REACTORS
330
BCC3
102
}
330
BCC3
100
AcDbVisualStyle
  2
EdgeColorOff
 70
    22
 71
     2
 72
     2
 73
     0
 90
        0
 40
-0.6
 41
-30.0
 62
     5
 63
     7
 74
     1
 91
        4
 64
     7
 65
   257
 75
     1
175
     1
 42
1.0
 92
        8
 66
     7
 43
1.0
 76
     1
 77
     6
 78
     2
 67
     7
 79
     5
170
     0
171
     0
290
     0
174
     0
 93
        1
 44
0.0
173
     0
291
     1
 45
0.0
1001
ACAD
1000
AcDbSavedByObjectVersion
1070
     0
  0
VISUALSTYLE
  5
BCD2
102
{ACAD_XDICTIONARY
360
BD39
102
}
102
{ACAD_REACTORS
330
BCC3
102
}
330
BCC3
100
AcDbVisualStyle
  2
Facepattern
 70
    15
 71
     2
 72
     2
 73
     0
 90
        0
 40
-0.6
 41
-30.0
 62
     5
 63
     7
 74
     1
 91
        4
 64
     7
 65
   257
 75
     1
175
     1
 42
1.0
 92
        8
 66
     7
 43
1.0
 76
     1
 77
     6
 78
     2
 67
     7
 79
     5
170
     0
171
     0
290
     0
174
     0
 93
        1
 44
0.0
173
     0
291
     1
 45
0.0
1001
ACAD
1000
AcDbSavedByObjectVersion
1070
     0
  0
VISUALSTYLE
  5
BCC4
102
{ACAD_XDICTIONARY
360
BD1D
102
}
102
{ACAD_REACTORS
330
BCC3
102
}
330
BCC3
100
AcDbVisualStyle
  2
Flat
 70
     0
 71
     2
 72
     1
 73
     1
 90
        2
 40
-0.6
 41
30.0
 62
     5
 63
     7
 74
     0
 91
        0
 64
     7
 65
   257
 75
     1
175
     1
 42
1.0
 92
        8
 66
     7
 43
1.0
 76
     1
 77
     6
 78
     2
 67
     7
 79
     5
170
     0
171
     0
290
     0
174
     0
 93
       13
 44
0.0
173
     0
291
     1
 45
0.0
1001
ACAD
1000
AcDbSavedByObjectVersion
1070
     0
  0
VISUALSTYLE
  5
BCC5
102
{ACAD_XDICTIONARY
360
BD1F
102
}
102
{ACAD_REACTORS
330
BCC3
102
}
330
BCC3
100
AcDbVisualStyle
  2
FlatWithEdges
 70
     1
 71
     2
 72
     1
 73
     1
 90
        2
 40
-0.6
 41
30.0
 62
     5
 63
     7
 74
     1
 91
        0
 64
     7
 65
   257
 75
     1
175
     1
 42
1.0
 92
        0
 66
   257
 43
1.0
 76
     1
 77
     6
 78
     2
 67
     7
 79
     5
170
     0
171
     0
290
     0
174
     0
 93
       13
 44
0.0
173
     0
291
     1
 45
0.0
1001
ACAD
1000
AcDbSavedByObjectVersion
1070
     0
  0
VISUALSTYLE
  5
BCC6
102
{ACAD_XDICTIONARY
360
BD21
102
}
102
{ACAD_REACTORS
330
BCC3
102
}
330
BCC3
100
AcDbVisualStyle
  2
Gouraud
 70
     2
 71
     2
 72
     2
 73
     1
 90
        2
 40
-0.6
 41
30.0
 62
     5
 63
     7
 74
     0
 91
        0
 64
     7
 65
   257
 75
     1
175
     1
 42
1.0
 92
        0
 66
     7
 43
1.0
 76
     1
 77
     6
 78
     2
 67
     7
 79
     5
170
     0
171
     0
290
     0
174
     0
 93
       13
 44
0.0
173
     0
291
     1
 45
0.0
1001
ACAD
1000
AcDbSavedByObjectVersion
1070
     0
  0
VISUALSTYLE
  5
BCC7
102
{ACAD_XDICTIONARY
360
BD23
102
}
102
{ACAD_REACTORS
330
BCC3
102
}
330
BCC3
100
AcDbVisualStyle
  2
GouraudWithEdges
 70
     3
 71
     2
 72
     2
 73
     1
 90
        2
 40
-0.6
 41
30.0
 62
     5
 63
     7
 74
     1
 91
        0
 64
     7
 65
   257
 75
     1
175
     1
 42
1.0
 92
        0
 66
   257
 43
1.0
 76
     1
 77
     6
 78
     2
 67
     7
 79
     5
170
     0
171
     0
290
     0
174
     0
 93
       13
 44
0.0
173
     0
291
     1
 45
0.0
1001
ACAD
1000
AcDbSavedByObjectVersion
1070
     0
  0
VISUALSTYLE
  5
BCCB
102
{ACAD_XDICTIONARY
360
BD2B
102
}
102
{ACAD_REACTORS
330
BCC3
102
}
330
BCC3
100
AcDbVisualStyle
  2
Hidden
 70
     6
 71
     1
 72
     2
 73
     2
 90
        0
 40
-0.6
 41
-30.0
 62
     5
 63
     7
 74
     2
 91
        2
 64
     7
 65
   257
 75
     2
175
     1
 42
40.0
 92
        0
 66
   257
 43
1.0
 76
     1
 77
     6
 78
     2
 67
     7
 79
     3
170
     0
171
     0
290
     0
174
     0
 93
        1
 44
0.0
173
     0
291
     0
 45
0.0
1001
ACAD
1000
AcDbSavedByObjectVersion
1070
     0
  0
VISUALSTYLE
  5
BCD9
102
{ACAD_XDICTIONARY
360
BD47
102
}
102
{ACAD_REACTORS
330
BCC3
102
}
330
BCC3
100
AcDbVisualStyle
  2
JitterOff
 70
    20
 71
     2
 72
     2
 73
     0
 90
        0
 40
-0.6
 41
-30.0
 62
     5
 63
     7
 74
     1
 91
        4
 64
     7
 65
   257
 75
     1
175
     1
 42
1.0
 92
       10
 66
     7
 43
1.0
 76
     1
 77
     6
 78
     2
 67
     7
 79
     5
170
     0
171
     0
290
     0
174
     0
 93
        1
 44
0.0
173
     0
291
     1
 45
0.0
1001
ACAD
1000
AcDbSavedByObjectVersion
1070
     0
  0
VISUALSTYLE
  5
BCD1
102
{ACAD_XDICTIONARY
360
BD37
102
}
102
{ACAD_REACTORS
330
BCC3
102
}
330
BCC3
100
AcDbVisualStyle
  2
Linepattern
 70
    14
 71
     2
 72
     2
 73
     0
 90
        0
 40
-0.6
 41
-30.0
 62
     5
 63
     7
 74
     1
 91
        4
 64
     7
 65
   257
 75
     7
175
     7
 42
1.0
 92
        8
 66
     7
 43
1.0
 76
     1
 77
     6
 78
     2
 67
     7
 79
     5
170
     0
171
     0
290
     0
174
     0
 93
        1
 44
0.0
173
     0
291
     1
 45
0.0
1001
ACAD
1000
AcDbSavedByObjectVersion
1070
     0
  0
VISUALSTYLE
  5
BCDA
102
{ACAD_XDICTIONARY
360
BD49
102
}
102
{ACAD_REACTORS
330
BCC3
102
}
330
BCC3
100
AcDbVisualStyle
  2
OverhangOff
 70
    21
 71
     2
 72
     2
 73
     0
 90
        0
 40
-0.6
 41
-30.0
 62
     5
 63
     7
 74
     1
 91
        4
 64
     7
 65
   257
 75
     1
175
     1
 42
1.0
 92
        9
 66
     7
 43
1.0
 76
     1
 77
     6
 78
     2
 67
     7
 79
     5
170
     0
171
     0
290
     0
174
     0
 93
        1
 44
0.0
173
     0
291
     1
 45
0.0
1001
ACAD
1000
AcDbSavedByObjectVersion
1070
     0
  0
VISUALSTYLE
  5
BCCD
102
{ACAD_XDICTIONARY
360
BD2F
102
}
102
{ACAD_REACTORS
330
BCC3
102
}
330
BCC3
100
AcDbVisualStyle
  2
Realistic
 70
     8
 71
     2
 72
     3
 73
     0
 90
        2
 40
-0.6
 41
30.0
 62
     5
 63
     7
 74
     0
 91
        0
 64
     7
 65
   257
 75
     1
175
     1
 42
1.0
 92
        8
 66
   257
 43
1.0
 76
     1
 77
     6
 78
     2
 67
     7
 79
     3
170
     0
171
     0
290
     0
174
     0
 93
       13
 44
0.0
173
     0
291
     0
 45
0.0
1001
ACAD
1000
AcDbSavedByObjectVersion
1070
     0
  0
VISUALSTYLE
  5
BCD8
102
{ACAD_XDICTIONARY
360
BD45
102
}
102
{ACAD_REACTORS
330
BCC3
102
}
330
BCC3
100
AcDbVisualStyle
  2
Shaded
 70
    27
 71
     2
 72
     2
 73
     1
 90
        2
 40
-0.6
 41
30.0
 62
     5
 63
     7
 74
     0
 91
        4
 64
     7
 65
   257
 75
     1
175
     1
 42
1.0
 92
        8
 66
   257
 43
1.0
 76
     1
 77
     6
 78
     2
 67
     8
 79
     3
170
     0
171
     0
290
     0
174
     0
 93
        5
 44
0.0
173
     0
291
     0
 45
0.0
1001
ACAD
1000
AcDbSavedByObjectVersion
1070
     0
  0
VISUALSTYLE
  5
BCD7
102
{ACAD_XDICTIONARY
360
BD43
102
}
102
{ACAD_REACTORS
330
BCC3
102
}
330
BCC3
100
AcDbVisualStyle
  2
Shaded with edges
 70
    26
 71
     2
 72
     2
 73
     1
 90
        2
 40
-0.6
 41
30.0
 62
     5
 63
     7
 74
     1
 91
       10
 64
     7
 65
   257
 75
     2
175
     1
 42
1.0
 92
        8
 66
   257
 43
1.0
 76
     1
 77
     6
 78
     2
 67
     7
 79
     3
170
     0
171
     0
290
     0
174
     0
 93
        5
 44
0.0
173
     0
291
     0
 45
0.0
1001
ACAD
1000
AcDbSavedByObjectVersion
1070
     0
  0
VISUALSTYLE
  5
BCD4
102
{ACAD_XDICTIONARY
360
BD3D
102
}
102
{ACAD_REACTORS
330
BCC3
102
}
330
BCC3
100
AcDbVisualStyle
  2
Shades of Gray
 70
    23
 71
     2
 72
     2
 73
     3
 90
        0
 40
-0.6
 41
-30.0
 62
     5
 63
     7
 74
     2
 91
        2
 64
     7
 65
     7
 75
     1
175
     1
 42
40.0
 92
        8
 66
     7
 43
1.0
 76
     1
 77
     6
 78
     2
 67
     7
 79
     3
170
     0
171
     0
290
     0
174
     0
 93
        1
 44
0.0
173
     0
291
     0
 45
0.0
1001
ACAD
1000
AcDbSavedByObjectVersion
1070
     0
  0
VISUALSTYLE
  5
BCD5
102
{ACAD_XDICTIONARY
360
BD3F
102
}
102
{ACAD_REACTORS
330
BCC3
102
}
330
BCC3
100
AcDbVisualStyle
  2
Sketchy
 70
    24
 71
     1
 72
     2
 73
     2
 90
        0
 40
-0.6
 41
-30.0
 62
     5
 63
     7
 74
     2
 91
        2
 64
     7
 65
     7
 75
     1
175
     1
 42
40.0
 92
       11
 66
     7
 43
1.0
 76
     1
 77
     6
 78
     2
 67
     7
 79
     6
170
     0
171
     0
290
     0
174
     0
 93
        1
 44
0.0
173
     0
291
     0
 45
0.0
1001
ACAD
1000
AcDbSavedByObjectVersion
1070
     0
  0
VISUALSTYLE
  5
BCD0
102
{ACAD_XDICTIONARY
360
BD35
102
}
102
{ACAD_REACTORS
330
BCC3
102
}
330
BCC3
100
AcDbVisualStyle
  2
Thicken
 70
    13
 71
     2
 72
     2
 73
     0
 90
        0
 40
-0.6
 41
-30.0
 62
     5
 63
     7
 74
     1
 91
        4
 64
     7
 65
   257
 75
     1
175
     1
 42
1.0
 92
       12
 66
     7
 43
1.0
 76
     1
 77
     6
 78
     2
 67
     7
 79
     5
170
     0
171
     0
290
     0
174
     0
 93
        1
 44
0.0
173
     0
291
     1
 45
0.0
1001
ACAD
1000
AcDbSavedByObjectVersion
1070
     0
  0
VISUALSTYLE
  5
BCCA
102
{ACAD_XDICTIONARY
360
BD29
102
}
102
{ACAD_REACTORS
330
BCC3
102
}
330
BCC3
100
AcDbVisualStyle
  2
Wireframe
 70
     5
 71
     0
 72
     2
 73
     0
 90
        0
 40
-0.6
 41
-30.0
 62
     5
 63
     7
 74
     1
 91
        4
 64
     7
 65
   257
 75
     1
175
     1
 42
1.0
 92
        0
 66
   257
 43
1.0
 76
     1
 77
     6
 78
     2
 67
     7
 79
     3
170
     0
171
     0
290
     0
174
     0
 93
        1
 44
0.0
173
     0
291
     0
 45
0.0
1001
ACAD
1000
AcDbSavedByObjectVersion
1070
     0
  0
VISUALSTYLE
  5
BCD6
102
{ACAD_XDICTIONARY
360
BD41
102
}
102
{ACAD_REACTORS
330
BCC3
102
}
330
BCC3
100
AcDbVisualStyle
  2
X-Ray
 70
    25
 71
     2
 72
     2
 73
     1
 90
        1
 40
0.5
 41
-30.0
 62
     5
 63
     7
 74
     1
 91
        0
 64
     7
 65
   257
 75
     1
175
     1
 42
1.0
 92
        8
 66
     7
 43
1.0
 76
     1
 77
     6
 78
     2
 67
     7
 79
     3
170
     0
171
     0
290
     0
174
     0
 93
       13
 44
0.0
173
     0
291
     0
 45
0.0
1001
ACAD
1000
AcDbSavedByObjectVersion
1070
     0
  0
DICTIONARYVAR
  5
BD10
102
{ACAD_REACTORS
330
BD0B
102
}
330
BD0B
100
DictionaryVariables
280
     0
  1
1:1
  0
DICTIONARYVAR
  5
BD0D
102
{ACAD_REACTORS
330
BD0B
102
}
330
BD0B
100
DictionaryVariables
280
     0
  1
STANDARD
  0
DICTIONARYVAR
  5
BD0C
102
{ACAD_REACTORS
330
BD0B
102
}
330
BD0B
100
DictionaryVariables
280
     0
  1
STANDARD
  0
DICTIONARYVAR
  5
BD0E
102
{ACAD_REACTORS
330
BD0B
102
}
330
BD0B
100
DictionaryVariables
280
     0
  1
Imperial24
  0
DICTIONARYVAR
  5
BD0F
102
{ACAD_REACTORS
330
BD0B
102
}
330
BD0B
100
DictionaryVariables
280
     0
  1
Imperial24
  0
DICTIONARYVAR
  5
BD13
102
{ACAD_REACTORS
330
BD0B
102
}
330
BD0B
100
DictionaryVariables
280
     0
  1
1
  0
DICTIONARYVAR
  5
BD12
102
{ACAD_REACTORS
330
BD0B
102
}
330
BD0B
100
DictionaryVariables
280
     0
  1
0
  0
DICTIONARYVAR
  5
BD11
102
{ACAD_REACTORS
330
BD0B
102
}
330
BD0B
100
DictionaryVariables
280
     0
  1
127
  0
DICTIONARYVAR
  5
BD14
102
{ACAD_REACTORS
330
BD0B
102
}
330
BD0B
100
DictionaryVariables
280
     0
  1
2
  0
DICTIONARY
  5
BD51
330
BCF6
100
AcDbDictionary
280
     1
281
     1
  3
ACAD_XREC_ROUNDTRIP
360
BD52
  0
DICTIONARY
  5
BD53
330
BCF7
100
AcDbDictionary
280
     1
281
     1
  3
ACAD_XREC_ROUNDTRIP
360
BD54
  0
DICTIONARY
  5
BD55
330
BCF8
100
AcDbDictionary
280
     1
281
     1
  3
ACAD_XREC_ROUNDTRIP
360
BD56
  0
DICTIONARY
  5
BCB4
330
BCB3
100
AcDbDictionary
280
     1
281
     1
  3
ACAD_XREC_ROUNDTRIP
360
BD1B
  3
BUMPTILE
360
BCB6
  3
DIFFUSETILE
360
BCB5
  3
OPACITYTILE
360
BCB9
  3
REFLECTIONTILE
360
BCB8
  3
REFRACTIONTILE
360
BCBA
  3
SPECULARTILE
360
BCB7
  0
DICTIONARY
  5
BCAC
330
BCAB
100
AcDbDictionary
280
     1
281
     1
  3
ACAD_XREC_ROUNDTRIP
360
BD1A
  3
BUMPTILE
360
BCAE
  3
DIFFUSETILE
360
BCAD
  3
OPACITYTILE
360
BCB1
  3
REFLECTIONTILE
360
BCB0
  3
REFRACTIONTILE
360
BCB2
  3
SPECULARTILE
360
BCAF
  0
DICTIONARY
  5
BCBC
330
BCBB
100
AcDbDictionary
280
     1
281
     1
  3
ACAD_XREC_ROUNDTRIP
360
BD1C
  3
BUMPTILE
360
BCBE
  3
DIFFUSETILE
360
BCBD
  3
OPACITYTILE
360
BCC1
  3
REFLECTIONTILE
360
BCC0
  3
REFRACTIONTILE
360
BCC2
  3
SPECULARTILE
360
BCBF
  0
DICTIONARY
  5
BD4F
330
BCF4
100
AcDbDictionary
280
     1
281
     1
  3
ACAD_XREC_ROUNDTRIP
360
BD50
  0
DICTIONARY
  5
BD16
330
BCDE
100
AcDbDictionary
280
     1
281
     1
  3
ACAD_ROUNDTRIP_2008_TABLESTYLE_CELLSTYLEMAP
360
BD17
  3
ACAD_XREC_ROUNDTRIP
360
BD4D
  0
DICTIONARY
  5
BD27
330
BCC9
100
AcDbDictionary
280
     1
281
     1
  3
ACAD_XREC_ROUNDTRIP
360
BD28
  0
DICTIONARY
  5
BD25
330
BCC8
100
AcDbDictionary
280
     1
281
     1
  3
ACAD_XREC_ROUNDTRIP
360
BD26
  0
DICTIONARY
  5
BD33
330
BCCF
100
AcDbDictionary
280
     1
281
     1
  3
ACAD_XREC_ROUNDTRIP
360
BD34
  0
DICTIONARY
  5
BD3B
330
BCD3
100
AcDbDictionary
280
     1
281
     1
  3
ACAD_XREC_ROUNDTRIP
360
BD3C
  0
DICTIONARY
  5
BD2D
330
BCCC
100
AcDbDictionary
280
     1
281
     1
  3
ACAD_XREC_ROUNDTRIP
360
BD2E
  0
DICTIONARY
  5
BD31
330
BCCE
100
AcDbDictionary
280
     1
281
     1
  3
ACAD_XREC_ROUNDTRIP
360
BD32
  0
DICTIONARY
  5
BD4B
330
BCDB
100
AcDbDictionary
280
     1
281
     1
  3
ACAD_XREC_ROUNDTRIP
360
BD4C
  0
DICTIONARY
  5
BD39
330
BCD2
100
AcDbDictionary
280
     1
281
     1
  3
ACAD_XREC_ROUNDTRIP
360
BD3A
  0
DICTIONARY
  5
BD1D
330
BCC4
100
AcDbDictionary
280
     1
281
     1
  3
ACAD_XREC_ROUNDTRIP
360
BD1E
  0
DICTIONARY
  5
BD1F
330
BCC5
100
AcDbDictionary
280
     1
281
     1
  3
ACAD_XREC_ROUNDTRIP
360
BD20
  0
DICTIONARY
  5
BD21
330
BCC6
100
AcDbDictionary
280
     1
281
     1
  3
ACAD_XREC_ROUNDTRIP
360
BD22
  0
DICTIONARY
  5
BD23
330
BCC7
100
AcDbDictionary
280
     1
281
     1
  3
ACAD_XREC_ROUNDTRIP
360
BD24
  0
DICTIONARY
  5
BD2B
330
BCCB
100
AcDbDictionary
280
     1
281
     1
  3
ACAD_XREC_ROUNDTRIP
360
BD2C
  0
DICTIONARY
  5
BD47
330
BCD9
100
AcDbDictionary
280
     1
281
     1
  3
ACAD_XREC_ROUNDTRIP
360
BD48
  0
DICTIONARY
  5
BD37
330
BCD1
100
AcDbDictionary
280
     1
281
     1
  3
ACAD_XREC_ROUNDTRIP
360
BD38
  0
DICTIONARY
  5
BD49
330
BCDA
100
AcDbDictionary
280
     1
281
     1
  3
ACAD_XREC_ROUNDTRIP
360
BD4A
  0
DICTIONARY
  5
BD2F
330
BCCD
100
AcDbDictionary
280
     1
281
     1
  3
ACAD_XREC_ROUNDTRIP
360
BD30
  0
DICTIONARY
  5
BD45
330
BCD8
100
AcDbDictionary
280
     1
281
     1
  3
ACAD_XREC_ROUNDTRIP
360
BD46
  0
DICTIONARY
  5
BD43
330
BCD7
100
AcDbDictionary
280
     1
281
     1
  3
ACAD_XREC_ROUNDTRIP
360
BD44
  0
DICTIONARY
  5
BD3D
330
BCD4
100
AcDbDictionary
280
     1
281
     1
  3
ACAD_XREC_ROUNDTRIP
360
BD3E
  0
DICTIONARY
  5
BD3F
330
BCD5
100
AcDbDictionary
280
     1
281
     1
  3
ACAD_XREC_ROUNDTRIP
360
BD40
  0
DICTIONARY
  5
BD35
330
BCD0
100
AcDbDictionary
280
     1
281
     1
  3
ACAD_XREC_ROUNDTRIP
360
BD36
  0
DICTIONARY
  5
BD29
330
BCCA
100
AcDbDictionary
280
     1
281
     1
  3
ACAD_XREC_ROUNDTRIP
360
BD2A
  0
DICTIONARY
  5
BD41
330
BCD6
100
AcDbDictionary
280
     1
281
     1
  3
ACAD_XREC_ROUNDTRIP
360
BD42
  0
XRECORD
  5
BD52
102
{ACAD_REACTORS
330
BD51
102
}
330
BD51
100
AcDbXrecord
280
     1
102
DISPLAYNAME
  1
Imperial24
102
FLAGS
 90
        0
  0
XRECORD
  5
BD54
102
{ACAD_REACTORS
330
BD53
102
}
330
BD53
100
AcDbXrecord
280
     1
102
SHADEPLOT
 70
     0
102
SHADEPLOTRESLEVEL
 70
     2
102
SHADEPLOTCUSTOMDPI
 70
   300
  0
XRECORD
  5
BD56
102
{ACAD_REACTORS
330
BD55
102
}
330
BD55
100
AcDbXrecord
280
     1
102
SHADEPLOT
 70
     0
102
SHADEPLOTRESLEVEL
 70
     2
102
SHADEPLOTCUSTOMDPI
 70
   300
  0
XRECORD
  5
BD1B
102
{ACAD_REACTORS
330
BCB4
102
}
330
BCB4
100
AcDbXrecord
280
     1
102
MATERIAL
148
0.0
149
0.0
149
0.0
 93
        0
 94
      127
282
     0
 72
     0
 77
     0
171
     0
175
     0
179
     0
273
     0
  0
XRECORD
  5
BCB6
102
{ACAD_REACTORS
330
BCB4
102
}
330
BCB4
100
AcDbXrecord
280
     1
270
     1
271
     1
  0
XRECORD
  5
BCB5
102
{ACAD_REACTORS
330
BCB4
102
}
330
BCB4
100
AcDbXrecord
280
     1
270
     1
271
     1
  0
XRECORD
  5
BCB9
102
{ACAD_REACTORS
330
BCB4
102
}
330
BCB4
100
AcDbXrecord
280
     1
270
     1
271
     1
  0
XRECORD
  5
BCB8
102
{ACAD_REACTORS
330
BCB4
102
}
330
BCB4
100
AcDbXrecord
280
     1
270
     1
271
     1
  0
XRECORD
  5
BCBA
102
{ACAD_REACTORS
330
BCB4
102
}
330
BCB4
100
AcDbXrecord
280
     1
270
     1
271
     1
  0
XRECORD
  5
BCB7
102
{ACAD_REACTORS
330
BCB4
102
}
330
BCB4
100
AcDbXrecord
280
     1
270
     1
271
     1
  0
XRECORD
  5
BD1A
102
{ACAD_REACTORS
330
BCAC
102
}
330
BCAC
100
AcDbXrecord
280
     1
102
MATERIAL
148
0.0
149
0.0
149
0.0
 93
        0
 94
      127
282
     0
 72
     0
 77
     0
171
     0
175
     0
179
     0
273
     0
  0
XRECORD
  5
BCAE
102
{ACAD_REACTORS
330
BCAC
102
}
330
BCAC
100
AcDbXrecord
280
     1
270
     1
271
     1
  0
XRECORD
  5
BCAD
102
{ACAD_REACTORS
330
BCAC
102
}
330
BCAC
100
AcDbXrecord
280
     1
270
     1
271
     1
  0
XRECORD
  5
BCB1
102
{ACAD_REACTORS
330
BCAC
102
}
330
BCAC
100
AcDbXrecord
280
     1
270
     1
271
     1
  0
XRECORD
  5
BCB0
102
{ACAD_REACTORS
330
BCAC
102
}
330
BCAC
100
AcDbXrecord
280
     1
270
     1
271
     1
  0
XRECORD
  5
BCB2
102
{ACAD_REACTORS
330
BCAC
102
}
330
BCAC
100
AcDbXrecord
280
     1
270
     1
271
     1
  0
XRECORD
  5
BCAF
102
{ACAD_REACTORS
330
BCAC
102
}
330
BCAC
100
AcDbXrecord
280
     1
270
     1
271
     1
  0
XRECORD
  5
BD1C
102
{ACAD_REACTORS
330
BCBC
102
}
330
BCBC
100
AcDbXrecord
280
     1
102
MATERIAL
148
0.0
149
0.0
149
0.0
 93
        0
 94
      127
282
     0
 72
     0
 77
     0
171
     0
175
     0
179
     0
273
     0
  0
XRECORD
  5
BCBE
102
{ACAD_REACTORS
330
BCBC
102
}
330
BCBC
100
AcDbXrecord
280
     1
270
     1
271
     1
  0
XRECORD
  5
BCBD
102
{ACAD_REACTORS
330
BCBC
102
}
330
BCBC
100
AcDbXrecord
280
     1
270
     1
271
     1
  0
XRECORD
  5
BCC1
102
{ACAD_REACTORS
330
BCBC
102
}
330
BCBC
100
AcDbXrecord
280
     1
270
     1
271
     1
  0
XRECORD
  5
BCC0
102
{ACAD_REACTORS
330
BCBC
102
}
330
BCBC
100
AcDbXrecord
280
     1
270
     1
271
     1
  0
XRECORD
  5
BCC2
102
{ACAD_REACTORS
330
BCBC
102
}
330
BCBC
100
AcDbXrecord
280
     1
270
     1
271
     1
  0
XRECORD
  5
BCBF
102
{ACAD_REACTORS
330
BCBC
102
}
330
BCBC
100
AcDbXrecord
280
     1
270
     1
271
     1
  0
XRECORD
  5
BD50
102
{ACAD_REACTORS
330
BD4F
102
}
330
BD4F
100
AcDbXrecord
280
     1
102
DISPLAYNAME
  1
Imperial24
102
FLAGS
 90
        0
  0
CELLSTYLEMAP
  5
BD17
102
{ACAD_REACTORS
330
BD16
102
}
330
BD16
100
AcDbCellStyleMap
 90
        3
300
CELLSTYLE
  1
TABLEFORMAT_BEGIN
 90
        5
170
     1
 91
        0
 92
    32768
 62
   257
 93
        1
300
CONTENTFORMAT
  1
CONTENTFORMAT_BEGIN
 90
        0
 91
        0
 92
      512
 93
        0
300

 40
0.0
140
1.0
 94
        5
 62
     0
340
B97C
144
0.25
309
CONTENTFORMAT_END
171
     0
 94
        0
309
TABLEFORMAT_END
  1
CELLSTYLE_BEGIN
 90
        1
 91
        1
300
_TITLE
309
CELLSTYLE_END
300
CELLSTYLE
  1
TABLEFORMAT_BEGIN
 90
        5
170
     1
 91
        0
 92
        0
 62
   257
 93
        1
300
CONTENTFORMAT
  1
CONTENTFORMAT_BEGIN
 90
        0
 91
        0
 92
      512
 93
        0
300

 40
0.0
140
1.0
 94
        5
 62
     0
340
B97C
144
0.18
309
CONTENTFORMAT_END
171
     0
 94
        0
309
TABLEFORMAT_END
  1
CELLSTYLE_BEGIN
 90
        2
 91
        1
300
_HEADER
309
CELLSTYLE_END
300
CELLSTYLE
  1
TABLEFORMAT_BEGIN
 90
        5
170
     1
 91
        0
 92
        0
 62
   257
 93
        1
300
CONTENTFORMAT
  1
CONTENTFORMAT_BEGIN
 90
        0
 91
        0
 92
      512
 93
        0
300

 40
0.0
140
1.0
 94
        2
 62
     0
340
B97C
144
0.18
309
CONTENTFORMAT_END
171
     0
 94
        0
309
TABLEFORMAT_END
  1
CELLSTYLE_BEGIN
 90
        3
 91
        2
300
_DATA
309
CELLSTYLE_END
  0
XRECORD
  5
BD4D
102
{ACAD_REACTORS
330
BD16
102
}
330
BD16
100
AcDbXrecord
280
     1
102
ACAD_ROUNDTRIP_PRE2007_TABLESTYLE
 90
      512
 91
        0
  1

 92
      512
 93
        0
  2

 94
      512
 95
        0
  3

  0
XRECORD
  5
BD28
102
{ACAD_REACTORS
330
BD27
102
}
330
BD27
100
AcDbXrecord
280
     1
102
RTVSPost2010Prop28
280
     1
102
RTVSPost2010PropOp28
 70
     1
102
RTVSPost2010Prop29
280
     1
102
RTVSPost2010PropOp29
 70
     1
102
RTVSPost2010Prop30
280
     0
102
RTVSPost2010PropOp30
 70
     1
102
RTVSPost2010Prop31
280
     0
102
RTVSPost2010PropOp31
 70
     1
102
RTVSPost2010Prop32
280
     0
102
RTVSPost2010PropOp32
 70
     1
102
RTVSPost2010Prop33
280
     0
102
RTVSPost2010PropOp33
 70
     1
102
RTVSPost2010Prop34
280
     0
102
RTVSPost2010PropOp34
 70
     1
102
RTVSPost2010Prop35
280
     0
102
RTVSPost2010PropOp35
 70
     1
102
RTVSPost2010Prop36
280
     0
102
RTVSPost2010PropOp36
 70
     1
102
RTVSPost2010Prop37
 90
       50
102
RTVSPost2010PropOp37
 70
     1
102
RTVSPost2010Prop38
140
0.0
102
RTVSPost2010PropOp38
 70
     1
102
RTVSPost2010Prop39
140
1.0
102
RTVSPost2010PropOp39
 70
     1
102
RTVSPost2010Prop40
 90
        0
102
RTVSPost2010PropOp40
 70
     1
102
RTVSPost2010Prop41ColorIndex
 90
       18
102
RTVSPost2010Prop41ColorRGB
 90
        0
102
RTVSPost2010PropOp41
 70
     1
102
RTVSPost2010Prop42
 90
       50
102
RTVSPost2010PropOp42
 70
     1
102
RTVSPost2010Prop43
 90
        3
102
RTVSPost2010PropOp43
 70
     1
102
RTVSPost2010Prop44ColorIndex
 90
        5
102
RTVSPost2010Prop44ColorRGB
 90
      255
102
RTVSPost2010PropOp44
 70
     1
102
RTVSPost2010Prop45
280
     0
102
RTVSPost2010PropOp45
 70
     1
102
RTVSPost2010Prop46
 90
       50
102
RTVSPost2010PropOp46
 70
     1
102
RTVSPost2010Prop47
 90
       50
102
RTVSPost2010PropOp47
 70
     1
102
RTVSPost2010Prop48
 90
       50
102
RTVSPost2010PropOp48
 70
     1
102
RTVSPost2010Prop49
280
     0
102
RTVSPost2010PropOp49
 70
     1
102
RTVSPost2010Prop50
 90
       50
102
RTVSPost2010PropOp50
 70
     1
102
RTVSPost2010Prop51ColorIndex
 90
      256
102
RTVSPost2010Prop51ColorRGB
 90
-16777216
102
RTVSPost2010PropOp51
 70
     0
102
RTVSPost2010Prop52
140
1.0
102
RTVSPost2010PropOp52
 70
     0
102
RTVSPost2010Prop53
 90
        2
102
RTVSPost2010PropOp53
 70
     1
102
RTVSPost2010Prop54
  1
strokes_ogs.tif
102
RTVSPost2010PropOp54
 70
     1
102
RTVSPost2010Prop55
280
     0
102
RTVSPost2010PropOp55
 70
     1
102
RTVSPost2010Prop56
140
1.0
102
RTVSPost2010PropOp56
 70
     1
102
RTVSPost2010Prop57
140
1.0
102
RTVSPost2010PropOp57
 70
     1
102
RTVSPropertyOp0
 70
     1
102
RTVSPropertyOp1
 70
     1
102
RTVSPropertyOp2
 70
     1
102
RTVSPropertyOp3
 70
     1
102
RTVSPropertyOp4
 70
     1
102
RTVSPropertyOp5
 70
     1
102
RTVSPropertyOp6
 70
     1
102
RTVSPropertyOp7
 70
     1
102
RTVSPropertyOp8
 70
     1
102
RTVSPropertyOp9
 70
     1
102
RTVSPropertyOp10
 70
     1
102
RTVSPropertyOp11
 70
     1
102
RTVSPropertyOp12
 70
     1
102
RTVSPropertyOp13
 70
     1
102
RTVSPropertyOp14
 70
     1
102
RTVSPropertyOp15
 70
     1
102
RTVSPropertyOp16
 70
     1
102
RTVSPropertyOp17
 70
     1
102
RTVSPropertyOp18
 70
     1
102
RTVSPropertyOp19
 70
     1
102
RTVSPropertyOp20
 70
     1
102
RTVSPropertyOp21
 70
     1
102
RTVSPropertyOp22
 70
     1
102
RTVSPropertyOp23
 70
     1
102
RTVSPropertyOp24
 70
     1
102
RTVSPropertyOp25
 70
     1
102
RTVSPropertyOp26
 70
     1
102
RTVSPropertyOp27
 70
     1
102
RTVSPropertyOp28
 70
     1
102
RTVSPropertyOp29
 70
     1
102
RTVSPropertyOp30
 70
     1
102
RTVSPropertyOp31
 70
     1
102
RTVSPropertyOp32
 70
     1
102
RTVSPropertyOp33
 70
     1
102
RTVSPropertyOp34
 70
     1
102
RTVSPropertyOp35
 70
     1
102
RTVSPropertyOp36
 70
     1
102
RTVSPropertyOp37
 70
     1
102
RTVSPropertyOp38
 70
     1
102
RTVSPropertyOp39
 70
     1
102
RTVSPropertyOp40
 70
     1
102
RTVSPropertyOp41
 70
     1
102
RTVSPropertyOp42
 70
     1
102
RTVSPropertyOp43
 70
     1
102
RTVSPropertyOp44
 70
     1
102
RTVSPropertyOp45
 70
     1
102
RTVSPropertyOp46
 70
     1
102
RTVSPropertyOp47
 70
     1
102
RTVSPropertyOp48
 70
     1
102
RTVSPropertyOp49
 70
     1
102
RTVSPropertyOp50
 70
     1
102
RTVSPropertyOp51
 70
     0
102
RTVSPropertyOp52
 70
     0
102
RTVSPropertyOp53
 70
     1
102
RTVSPropertyOp54
 70
     1
102
RTVSPropertyOp55
 70
     1
102
RTVSPropertyOp56
 70
     1
102
RTVSPropertyOp57
 70
     1
102
RTVSPropertyOp58
 70
     1
102
RTVSPropertyOp59
 70
     1
102
RTVSPropertyOp60
 70
     1
102
RTVSPropertyOp61
 70
     1
102
RTVSPropertyOp62
 70
     1
  0
XRECORD
  5
BD26
102
{ACAD_REACTORS
330
BD25
102
}
330
BD25
100
AcDbXrecord
280
     1
102
RTVSPost2010Prop28
280
     0
102
RTVSPost2010PropOp28
 70
     1
102
RTVSPost2010Prop29
280
     1
102
RTVSPost2010PropOp29
 70
     1
102
RTVSPost2010Prop30
280
     1
102
RTVSPost2010PropOp30
 70
     1
102
RTVSPost2010Prop31
280
     0
102
RTVSPost2010PropOp31
 70
     1
102
RTVSPost2010Prop32
280
     0
102
RTVSPost2010PropOp32
 70
     1
102
RTVSPost2010Prop33
280
     0
102
RTVSPost2010PropOp33
 70
     1
102
RTVSPost2010Prop34
280
     0
102
RTVSPost2010PropOp34
 70
     1
102
RTVSPost2010Prop35
280
     0
102
RTVSPost2010PropOp35
 70
     1
102
RTVSPost2010Prop36
280
     0
102
RTVSPost2010PropOp36
 70
     1
102
RTVSPost2010Prop37
 90
       50
102
RTVSPost2010PropOp37
 70
     1
102
RTVSPost2010Prop38
140
0.0
102
RTVSPost2010PropOp38
 70
     1
102
RTVSPost2010Prop39
140
1.0
102
RTVSPost2010PropOp39
 70
     1
102
RTVSPost2010Prop40
 90
        0
102
RTVSPost2010PropOp40
 70
     1
102
RTVSPost2010Prop41ColorIndex
 90
       18
102
RTVSPost2010Prop41ColorRGB
 90
        0
102
RTVSPost2010PropOp41
 70
     1
102
RTVSPost2010Prop42
 90
       50
102
RTVSPost2010PropOp42
 70
     1
102
RTVSPost2010Prop43
 90
        3
102
RTVSPost2010PropOp43
 70
     1
102
RTVSPost2010Prop44ColorIndex
 90
        5
102
RTVSPost2010Prop44ColorRGB
 90
      255
102
RTVSPost2010PropOp44
 70
     1
102
RTVSPost2010Prop45
280
     0
102
RTVSPost2010PropOp45
 70
     1
102
RTVSPost2010Prop46
 90
       50
102
RTVSPost2010PropOp46
 70
     1
102
RTVSPost2010Prop47
 90
       50
102
RTVSPost2010PropOp47
 70
     1
102
RTVSPost2010Prop48
 90
       50
102
RTVSPost2010PropOp48
 70
     1
102
RTVSPost2010Prop49
280
     0
102
RTVSPost2010PropOp49
 70
     1
102
RTVSPost2010Prop50
 90
       50
102
RTVSPost2010PropOp50
 70
     1
102
RTVSPost2010Prop51ColorIndex
 90
      256
102
RTVSPost2010Prop51ColorRGB
 90
-16777216
102
RTVSPost2010PropOp51
 70
     0
102
RTVSPost2010Prop52
140
1.0
102
RTVSPost2010PropOp52
 70
     0
102
RTVSPost2010Prop53
 90
        2
102
RTVSPost2010PropOp53
 70
     1
102
RTVSPost2010Prop54
  1
strokes_ogs.tif
102
RTVSPost2010PropOp54
 70
     1
102
RTVSPost2010Prop55
280
     0
102
RTVSPost2010PropOp55
 70
     1
102
RTVSPost2010Prop56
140
1.0
102
RTVSPost2010PropOp56
 70
     1
102
RTVSPost2010Prop57
140
1.0
102
RTVSPost2010PropOp57
 70
     1
102
RTVSPropertyOp0
 70
     1
102
RTVSPropertyOp1
 70
     1
102
RTVSPropertyOp2
 70
     1
102
RTVSPropertyOp3
 70
     1
102
RTVSPropertyOp4
 70
     1
102
RTVSPropertyOp5
 70
     1
102
RTVSPropertyOp6
 70
     1
102
RTVSPropertyOp7
 70
     1
102
RTVSPropertyOp8
 70
     1
102
RTVSPropertyOp9
 70
     1
102
RTVSPropertyOp10
 70
     1
102
RTVSPropertyOp11
 70
     1
102
RTVSPropertyOp12
 70
     1
102
RTVSPropertyOp13
 70
     1
102
RTVSPropertyOp14
 70
     1
102
RTVSPropertyOp15
 70
     1
102
RTVSPropertyOp16
 70
     1
102
RTVSPropertyOp17
 70
     1
102
RTVSPropertyOp18
 70
     1
102
RTVSPropertyOp19
 70
     1
102
RTVSPropertyOp20
 70
     1
102
RTVSPropertyOp21
 70
     1
102
RTVSPropertyOp22
 70
     1
102
RTVSPropertyOp23
 70
     1
102
RTVSPropertyOp24
 70
     1
102
RTVSPropertyOp25
 70
     1
102
RTVSPropertyOp26
 70
     1
102
RTVSPropertyOp27
 70
     1
102
RTVSPropertyOp28
 70
     1
102
RTVSPropertyOp29
 70
     1
102
RTVSPropertyOp30
 70
     1
102
RTVSPropertyOp31
 70
     1
102
RTVSPropertyOp32
 70
     1
102
RTVSPropertyOp33
 70
     1
102
RTVSPropertyOp34
 70
     1
102
RTVSPropertyOp35
 70
     1
102
RTVSPropertyOp36
 70
     1
102
RTVSPropertyOp37
 70
     1
102
RTVSPropertyOp38
 70
     1
102
RTVSPropertyOp39
 70
     1
102
RTVSPropertyOp40
 70
     1
102
RTVSPropertyOp41
 70
     1
102
RTVSPropertyOp42
 70
     1
102
RTVSPropertyOp43
 70
     1
102
RTVSPropertyOp44
 70
     1
102
RTVSPropertyOp45
 70
     1
102
RTVSPropertyOp46
 70
     1
102
RTVSPropertyOp47
 70
     1
102
RTVSPropertyOp48
 70
     1
102
RTVSPropertyOp49
 70
     1
102
RTVSPropertyOp50
 70
     1
102
RTVSPropertyOp51
 70
     0
102
RTVSPropertyOp52
 70
     0
102
RTVSPropertyOp53
 70
     1
102
RTVSPropertyOp54
 70
     1
102
RTVSPropertyOp55
 70
     1
102
RTVSPropertyOp56
 70
     1
102
RTVSPropertyOp57
 70
     1
102
RTVSPropertyOp58
 70
     1
102
RTVSPropertyOp59
 70
     1
102
RTVSPropertyOp60
 70
     1
102
RTVSPropertyOp61
 70
     1
102
RTVSPropertyOp62
 70
     1
  0
XRECORD
  5
BD34
102
{ACAD_REACTORS
330
BD33
102
}
330
BD33
100
AcDbXrecord
280
     1
102
RTVSPost2010Prop28
280
     0
102
RTVSPost2010PropOp28
 70
     1
102
RTVSPost2010Prop29
280
     1
102
RTVSPost2010PropOp29
 70
     1
102
RTVSPost2010Prop30
280
     1
102
RTVSPost2010PropOp30
 70
     1
102
RTVSPost2010Prop31
280
     0
102
RTVSPost2010PropOp31
 70
     1
102
RTVSPost2010Prop32
280
     0
102
RTVSPost2010PropOp32
 70
     1
102
RTVSPost2010Prop33
280
     0
102
RTVSPost2010PropOp33
 70
     1
102
RTVSPost2010Prop34
280
     0
102
RTVSPost2010PropOp34
 70
     1
102
RTVSPost2010Prop35
280
     0
102
RTVSPost2010PropOp35
 70
     1
102
RTVSPost2010Prop36
280
     0
102
RTVSPost2010PropOp36
 70
     1
102
RTVSPost2010Prop37
 90
       50
102
RTVSPost2010PropOp37
 70
     1
102
RTVSPost2010Prop38
140
0.0
102
RTVSPost2010PropOp38
 70
     1
102
RTVSPost2010Prop39
140
1.0
102
RTVSPost2010PropOp39
 70
     1
102
RTVSPost2010Prop40
 90
        0
102
RTVSPost2010PropOp40
 70
     1
102
RTVSPost2010Prop41ColorIndex
 90
       18
102
RTVSPost2010Prop41ColorRGB
 90
        0
102
RTVSPost2010PropOp41
 70
     1
102
RTVSPost2010Prop42
 90
       50
102
RTVSPost2010PropOp42
 70
     1
102
RTVSPost2010Prop43
 90
        3
102
RTVSPost2010PropOp43
 70
     1
102
RTVSPost2010Prop44ColorIndex
 90
        5
102
RTVSPost2010Prop44ColorRGB
 90
      255
102
RTVSPost2010PropOp44
 70
     1
102
RTVSPost2010Prop45
280
     0
102
RTVSPost2010PropOp45
 70
     1
102
RTVSPost2010Prop46
 90
       50
102
RTVSPost2010PropOp46
 70
     1
102
RTVSPost2010Prop47
 90
       50
102
RTVSPost2010PropOp47
 70
     1
102
RTVSPost2010Prop48
 90
       50
102
RTVSPost2010PropOp48
 70
     1
102
RTVSPost2010Prop49
280
     0
102
RTVSPost2010PropOp49
 70
     1
102
RTVSPost2010Prop50
 90
       50
102
RTVSPost2010PropOp50
 70
     1
102
RTVSPost2010Prop51ColorIndex
 90
      256
102
RTVSPost2010Prop51ColorRGB
 90
-16777216
102
RTVSPost2010PropOp51
 70
     0
102
RTVSPost2010Prop52
140
1.0
102
RTVSPost2010PropOp52
 70
     0
102
RTVSPost2010Prop53
 90
        2
102
RTVSPost2010PropOp53
 70
     1
102
RTVSPost2010Prop54
  1
strokes_ogs.tif
102
RTVSPost2010PropOp54
 70
     1
102
RTVSPost2010Prop55
280
     0
102
RTVSPost2010PropOp55
 70
     1
102
RTVSPost2010Prop56
140
1.0
102
RTVSPost2010PropOp56
 70
     1
102
RTVSPost2010Prop57
140
1.0
102
RTVSPost2010PropOp57
 70
     1
102
RTVSPropertyOp0
 70
     1
102
RTVSPropertyOp1
 70
     1
102
RTVSPropertyOp2
 70
     1
102
RTVSPropertyOp3
 70
     1
102
RTVSPropertyOp4
 70
     1
102
RTVSPropertyOp5
 70
     1
102
RTVSPropertyOp6
 70
     1
102
RTVSPropertyOp7
 70
     1
102
RTVSPropertyOp8
 70
     1
102
RTVSPropertyOp9
 70
     1
102
RTVSPropertyOp10
 70
     1
102
RTVSPropertyOp11
 70
     1
102
RTVSPropertyOp12
 70
     1
102
RTVSPropertyOp13
 70
     1
102
RTVSPropertyOp14
 70
     1
102
RTVSPropertyOp15
 70
     1
102
RTVSPropertyOp16
 70
     1
102
RTVSPropertyOp17
 70
     1
102
RTVSPropertyOp18
 70
     1
102
RTVSPropertyOp19
 70
     1
102
RTVSPropertyOp20
 70
     1
102
RTVSPropertyOp21
 70
     1
102
RTVSPropertyOp22
 70
     1
102
RTVSPropertyOp23
 70
     1
102
RTVSPropertyOp24
 70
     1
102
RTVSPropertyOp25
 70
     1
102
RTVSPropertyOp26
 70
     1
102
RTVSPropertyOp27
 70
     1
102
RTVSPropertyOp28
 70
     1
102
RTVSPropertyOp29
 70
     1
102
RTVSPropertyOp30
 70
     1
102
RTVSPropertyOp31
 70
     1
102
RTVSPropertyOp32
 70
     1
102
RTVSPropertyOp33
 70
     1
102
RTVSPropertyOp34
 70
     1
102
RTVSPropertyOp35
 70
     1
102
RTVSPropertyOp36
 70
     1
102
RTVSPropertyOp37
 70
     1
102
RTVSPropertyOp38
 70
     1
102
RTVSPropertyOp39
 70
     1
102
RTVSPropertyOp40
 70
     1
102
RTVSPropertyOp41
 70
     1
102
RTVSPropertyOp42
 70
     1
102
RTVSPropertyOp43
 70
     1
102
RTVSPropertyOp44
 70
     1
102
RTVSPropertyOp45
 70
     1
102
RTVSPropertyOp46
 70
     1
102
RTVSPropertyOp47
 70
     1
102
RTVSPropertyOp48
 70
     1
102
RTVSPropertyOp49
 70
     1
102
RTVSPropertyOp50
 70
     1
102
RTVSPropertyOp51
 70
     0
102
RTVSPropertyOp52
 70
     0
102
RTVSPropertyOp53
 70
     1
102
RTVSPropertyOp54
 70
     1
102
RTVSPropertyOp55
 70
     1
102
RTVSPropertyOp56
 70
     1
102
RTVSPropertyOp57
 70
     1
102
RTVSPropertyOp58
 70
     1
102
RTVSPropertyOp59
 70
     1
102
RTVSPropertyOp60
 70
     1
102
RTVSPropertyOp61
 70
     1
102
RTVSPropertyOp62
 70
     1
  0
XRECORD
  5
BD3C
102
{ACAD_REACTORS
330
BD3B
102
}
330
BD3B
100
AcDbXrecord
280
     1
102
RTVSPost2010Prop28
280
     0
102
RTVSPost2010PropOp28
 70
     1
102
RTVSPost2010Prop29
280
     1
102
RTVSPost2010PropOp29
 70
     1
102
RTVSPost2010Prop30
280
     1
102
RTVSPost2010PropOp30
 70
     1
102
RTVSPost2010Prop31
280
     0
102
RTVSPost2010PropOp31
 70
     1
102
RTVSPost2010Prop32
280
     0
102
RTVSPost2010PropOp32
 70
     1
102
RTVSPost2010Prop33
280
     0
102
RTVSPost2010PropOp33
 70
     1
102
RTVSPost2010Prop34
280
     0
102
RTVSPost2010PropOp34
 70
     1
102
RTVSPost2010Prop35
280
     0
102
RTVSPost2010PropOp35
 70
     1
102
RTVSPost2010Prop36
280
     0
102
RTVSPost2010PropOp36
 70
     1
102
RTVSPost2010Prop37
 90
       50
102
RTVSPost2010PropOp37
 70
     1
102
RTVSPost2010Prop38
140
0.0
102
RTVSPost2010PropOp38
 70
     1
102
RTVSPost2010Prop39
140
1.0
102
RTVSPost2010PropOp39
 70
     1
102
RTVSPost2010Prop40
 90
        0
102
RTVSPost2010PropOp40
 70
     1
102
RTVSPost2010Prop41ColorIndex
 90
       18
102
RTVSPost2010Prop41ColorRGB
 90
        0
102
RTVSPost2010PropOp41
 70
     1
102
RTVSPost2010Prop42
 90
       50
102
RTVSPost2010PropOp42
 70
     1
102
RTVSPost2010Prop43
 90
        3
102
RTVSPost2010PropOp43
 70
     1
102
RTVSPost2010Prop44ColorIndex
 90
        5
102
RTVSPost2010Prop44ColorRGB
 90
      255
102
RTVSPost2010PropOp44
 70
     1
102
RTVSPost2010Prop45
280
     0
102
RTVSPost2010PropOp45
 70
     1
102
RTVSPost2010Prop46
 90
       50
102
RTVSPost2010PropOp46
 70
     1
102
RTVSPost2010Prop47
 90
       50
102
RTVSPost2010PropOp47
 70
     1
102
RTVSPost2010Prop48
 90
       50
102
RTVSPost2010PropOp48
 70
     1
102
RTVSPost2010Prop49
280
     0
102
RTVSPost2010PropOp49
 70
     1
102
RTVSPost2010Prop50
 90
       50
102
RTVSPost2010PropOp50
 70
     1
102
RTVSPost2010Prop51ColorIndex
 90
      256
102
RTVSPost2010Prop51ColorRGB
 90
-16777216
102
RTVSPost2010PropOp51
 70
     0
102
RTVSPost2010Prop52
140
1.0
102
RTVSPost2010PropOp52
 70
     0
102
RTVSPost2010Prop53
 90
        2
102
RTVSPost2010PropOp53
 70
     1
102
RTVSPost2010Prop54
  1
strokes_ogs.tif
102
RTVSPost2010PropOp54
 70
     1
102
RTVSPost2010Prop55
280
     0
102
RTVSPost2010PropOp55
 70
     1
102
RTVSPost2010Prop56
140
1.0
102
RTVSPost2010PropOp56
 70
     1
102
RTVSPost2010Prop57
140
1.0
102
RTVSPost2010PropOp57
 70
     1
102
RTVSPropertyOp0
 70
     1
102
RTVSPropertyOp1
 70
     1
102
RTVSPropertyOp2
 70
     1
102
RTVSPropertyOp3
 70
     1
102
RTVSPropertyOp4
 70
     1
102
RTVSPropertyOp5
 70
     1
102
RTVSPropertyOp6
 70
     1
102
RTVSPropertyOp7
 70
     1
102
RTVSPropertyOp8
 70
     1
102
RTVSPropertyOp9
 70
     1
102
RTVSPropertyOp10
 70
     1
102
RTVSPropertyOp11
 70
     1
102
RTVSPropertyOp12
 70
     1
102
RTVSPropertyOp13
 70
     1
102
RTVSPropertyOp14
 70
     1
102
RTVSPropertyOp15
 70
     1
102
RTVSPropertyOp16
 70
     1
102
RTVSPropertyOp17
 70
     1
102
RTVSPropertyOp18
 70
     1
102
RTVSPropertyOp19
 70
     1
102
RTVSPropertyOp20
 70
     1
102
RTVSPropertyOp21
 70
     1
102
RTVSPropertyOp22
 70
     1
102
RTVSPropertyOp23
 70
     1
102
RTVSPropertyOp24
 70
     1
102
RTVSPropertyOp25
 70
     1
102
RTVSPropertyOp26
 70
     1
102
RTVSPropertyOp27
 70
     1
102
RTVSPropertyOp28
 70
     1
102
RTVSPropertyOp29
 70
     1
102
RTVSPropertyOp30
 70
     1
102
RTVSPropertyOp31
 70
     1
102
RTVSPropertyOp32
 70
     1
102
RTVSPropertyOp33
 70
     1
102
RTVSPropertyOp34
 70
     1
102
RTVSPropertyOp35
 70
     1
102
RTVSPropertyOp36
 70
     1
102
RTVSPropertyOp37
 70
     1
102
RTVSPropertyOp38
 70
     1
102
RTVSPropertyOp39
 70
     1
102
RTVSPropertyOp40
 70
     1
102
RTVSPropertyOp41
 70
     1
102
RTVSPropertyOp42
 70
     1
102
RTVSPropertyOp43
 70
     1
102
RTVSPropertyOp44
 70
     1
102
RTVSPropertyOp45
 70
     1
102
RTVSPropertyOp46
 70
     1
102
RTVSPropertyOp47
 70
     1
102
RTVSPropertyOp48
 70
     1
102
RTVSPropertyOp49
 70
     1
102
RTVSPropertyOp50
 70
     1
102
RTVSPropertyOp51
 70
     0
102
RTVSPropertyOp52
 70
     0
102
RTVSPropertyOp53
 70
     1
102
RTVSPropertyOp54
 70
     1
102
RTVSPropertyOp55
 70
     1
102
RTVSPropertyOp56
 70
     1
102
RTVSPropertyOp57
 70
     1
102
RTVSPropertyOp58
 70
     1
102
RTVSPropertyOp59
 70
     1
102
RTVSPropertyOp60
 70
     1
102
RTVSPropertyOp61
 70
     1
102
RTVSPropertyOp62
 70
     1
  0
XRECORD
  5
BD2E
102
{ACAD_REACTORS
330
BD2D
102
}
330
BD2D
100
AcDbXrecord
280
     1
102
RTVSPost2010Prop28
280
     0
102
RTVSPost2010PropOp28
 70
     1
102
RTVSPost2010Prop29
280
     1
102
RTVSPost2010PropOp29
 70
     1
102
RTVSPost2010Prop30
280
     1
102
RTVSPost2010PropOp30
 70
     1
102
RTVSPost2010Prop31
280
     0
102
RTVSPost2010PropOp31
 70
     1
102
RTVSPost2010Prop32
280
     0
102
RTVSPost2010PropOp32
 70
     1
102
RTVSPost2010Prop33
280
     0
102
RTVSPost2010PropOp33
 70
     1
102
RTVSPost2010Prop34
280
     0
102
RTVSPost2010PropOp34
 70
     1
102
RTVSPost2010Prop35
280
     0
102
RTVSPost2010PropOp35
 70
     1
102
RTVSPost2010Prop36
280
     0
102
RTVSPost2010PropOp36
 70
     1
102
RTVSPost2010Prop37
 90
       50
102
RTVSPost2010PropOp37
 70
     1
102
RTVSPost2010Prop38
140
0.0
102
RTVSPost2010PropOp38
 70
     1
102
RTVSPost2010Prop39
140
1.0
102
RTVSPost2010PropOp39
 70
     1
102
RTVSPost2010Prop40
 90
        0
102
RTVSPost2010PropOp40
 70
     1
102
RTVSPost2010Prop41ColorIndex
 90
       18
102
RTVSPost2010Prop41ColorRGB
 90
        0
102
RTVSPost2010PropOp41
 70
     1
102
RTVSPost2010Prop42
 90
       50
102
RTVSPost2010PropOp42
 70
     1
102
RTVSPost2010Prop43
 90
        3
102
RTVSPost2010PropOp43
 70
     1
102
RTVSPost2010Prop44ColorIndex
 90
        5
102
RTVSPost2010Prop44ColorRGB
 90
      255
102
RTVSPost2010PropOp44
 70
     1
102
RTVSPost2010Prop45
280
     0
102
RTVSPost2010PropOp45
 70
     1
102
RTVSPost2010Prop46
 90
       50
102
RTVSPost2010PropOp46
 70
     1
102
RTVSPost2010Prop47
 90
       50
102
RTVSPost2010PropOp47
 70
     1
102
RTVSPost2010Prop48
 90
       50
102
RTVSPost2010PropOp48
 70
     1
102
RTVSPost2010Prop49
280
     0
102
RTVSPost2010PropOp49
 70
     1
102
RTVSPost2010Prop50
 90
       50
102
RTVSPost2010PropOp50
 70
     1
102
RTVSPost2010Prop51ColorIndex
 90
      256
102
RTVSPost2010Prop51ColorRGB
 90
-16777216
102
RTVSPost2010PropOp51
 70
     0
102
RTVSPost2010Prop52
140
1.0
102
RTVSPost2010PropOp52
 70
     0
102
RTVSPost2010Prop53
 90
        2
102
RTVSPost2010PropOp53
 70
     1
102
RTVSPost2010Prop54
  1
strokes_ogs.tif
102
RTVSPost2010PropOp54
 70
     1
102
RTVSPost2010Prop55
280
     0
102
RTVSPost2010PropOp55
 70
     1
102
RTVSPost2010Prop56
140
1.0
102
RTVSPost2010PropOp56
 70
     1
102
RTVSPost2010Prop57
140
1.0
102
RTVSPost2010PropOp57
 70
     1
102
RTVSPropertyOp0
 70
     1
102
RTVSPropertyOp1
 70
     1
102
RTVSPropertyOp2
 70
     1
102
RTVSPropertyOp3
 70
     1
102
RTVSPropertyOp4
 70
     1
102
RTVSPropertyOp5
 70
     1
102
RTVSPropertyOp6
 70
     1
102
RTVSPropertyOp7
 70
     1
102
RTVSPropertyOp8
 70
     1
102
RTVSPropertyOp9
 70
     1
102
RTVSPropertyOp10
 70
     1
102
RTVSPropertyOp11
 70
     1
102
RTVSPropertyOp12
 70
     1
102
RTVSPropertyOp13
 70
     1
102
RTVSPropertyOp14
 70
     1
102
RTVSPropertyOp15
 70
     1
102
RTVSPropertyOp16
 70
     1
102
RTVSPropertyOp17
 70
     1
102
RTVSPropertyOp18
 70
     1
102
RTVSPropertyOp19
 70
     1
102
RTVSPropertyOp20
 70
     1
102
RTVSPropertyOp21
 70
     1
102
RTVSPropertyOp22
 70
     1
102
RTVSPropertyOp23
 70
     1
102
RTVSPropertyOp24
 70
     1
102
RTVSPropertyOp25
 70
     1
102
RTVSPropertyOp26
 70
     1
102
RTVSPropertyOp27
 70
     1
102
RTVSPropertyOp28
 70
     1
102
RTVSPropertyOp29
 70
     1
102
RTVSPropertyOp30
 70
     1
102
RTVSPropertyOp31
 70
     1
102
RTVSPropertyOp32
 70
     1
102
RTVSPropertyOp33
 70
     1
102
RTVSPropertyOp34
 70
     1
102
RTVSPropertyOp35
 70
     1
102
RTVSPropertyOp36
 70
     1
102
RTVSPropertyOp37
 70
     1
102
RTVSPropertyOp38
 70
     1
102
RTVSPropertyOp39
 70
     1
102
RTVSPropertyOp40
 70
     1
102
RTVSPropertyOp41
 70
     1
102
RTVSPropertyOp42
 70
     1
102
RTVSPropertyOp43
 70
     1
102
RTVSPropertyOp44
 70
     1
102
RTVSPropertyOp45
 70
     1
102
RTVSPropertyOp46
 70
     1
102
RTVSPropertyOp47
 70
     1
102
RTVSPropertyOp48
 70
     1
102
RTVSPropertyOp49
 70
     1
102
RTVSPropertyOp50
 70
     1
102
RTVSPropertyOp51
 70
     0
102
RTVSPropertyOp52
 70
     0
102
RTVSPropertyOp53
 70
     1
102
RTVSPropertyOp54
 70
     1
102
RTVSPropertyOp55
 70
     1
102
RTVSPropertyOp56
 70
     1
102
RTVSPropertyOp57
 70
     1
102
RTVSPropertyOp58
 70
     1
102
RTVSPropertyOp59
 70
     1
102
RTVSPropertyOp60
 70
     1
102
RTVSPropertyOp61
 70
     1
102
RTVSPropertyOp62
 70
     1
  0
XRECORD
  5
BD32
102
{ACAD_REACTORS
330
BD31
102
}
330
BD31
100
AcDbXrecord
280
     1
102
RTVSPost2010Prop28
280
     0
102
RTVSPost2010PropOp28
 70
     1
102
RTVSPost2010Prop29
280
     1
102
RTVSPost2010PropOp29
 70
     1
102
RTVSPost2010Prop30
280
     1
102
RTVSPost2010PropOp30
 70
     1
102
RTVSPost2010Prop31
280
     0
102
RTVSPost2010PropOp31
 70
     1
102
RTVSPost2010Prop32
280
     0
102
RTVSPost2010PropOp32
 70
     1
102
RTVSPost2010Prop33
280
     0
102
RTVSPost2010PropOp33
 70
     1
102
RTVSPost2010Prop34
280
     0
102
RTVSPost2010PropOp34
 70
     1
102
RTVSPost2010Prop35
280
     0
102
RTVSPost2010PropOp35
 70
     1
102
RTVSPost2010Prop36
280
     0
102
RTVSPost2010PropOp36
 70
     1
102
RTVSPost2010Prop37
 90
       50
102
RTVSPost2010PropOp37
 70
     1
102
RTVSPost2010Prop38
140
0.0
102
RTVSPost2010PropOp38
 70
     1
102
RTVSPost2010Prop39
140
1.0
102
RTVSPost2010PropOp39
 70
     1
102
RTVSPost2010Prop40
 90
        0
102
RTVSPost2010PropOp40
 70
     1
102
RTVSPost2010Prop41ColorIndex
 90
       18
102
RTVSPost2010Prop41ColorRGB
 90
        0
102
RTVSPost2010PropOp41
 70
     1
102
RTVSPost2010Prop42
 90
       50
102
RTVSPost2010PropOp42
 70
     1
102
RTVSPost2010Prop43
 90
        3
102
RTVSPost2010PropOp43
 70
     1
102
RTVSPost2010Prop44ColorIndex
 90
        5
102
RTVSPost2010Prop44ColorRGB
 90
      255
102
RTVSPost2010PropOp44
 70
     1
102
RTVSPost2010Prop45
280
     0
102
RTVSPost2010PropOp45
 70
     1
102
RTVSPost2010Prop46
 90
       50
102
RTVSPost2010PropOp46
 70
     1
102
RTVSPost2010Prop47
 90
       50
102
RTVSPost2010PropOp47
 70
     1
102
RTVSPost2010Prop48
 90
       50
102
RTVSPost2010PropOp48
 70
     1
102
RTVSPost2010Prop49
280
     0
102
RTVSPost2010PropOp49
 70
     1
102
RTVSPost2010Prop50
 90
       50
102
RTVSPost2010PropOp50
 70
     1
102
RTVSPost2010Prop51ColorIndex
 90
      256
102
RTVSPost2010Prop51ColorRGB
 90
-16777216
102
RTVSPost2010PropOp51
 70
     0
102
RTVSPost2010Prop52
140
1.0
102
RTVSPost2010PropOp52
 70
     0
102
RTVSPost2010Prop53
 90
        2
102
RTVSPost2010PropOp53
 70
     1
102
RTVSPost2010Prop54
  1
strokes_ogs.tif
102
RTVSPost2010PropOp54
 70
     1
102
RTVSPost2010Prop55
280
     0
102
RTVSPost2010PropOp55
 70
     1
102
RTVSPost2010Prop56
140
1.0
102
RTVSPost2010PropOp56
 70
     1
102
RTVSPost2010Prop57
140
1.0
102
RTVSPost2010PropOp57
 70
     1
102
RTVSPropertyOp0
 70
     1
102
RTVSPropertyOp1
 70
     1
102
RTVSPropertyOp2
 70
     1
102
RTVSPropertyOp3
 70
     1
102
RTVSPropertyOp4
 70
     1
102
RTVSPropertyOp5
 70
     1
102
RTVSPropertyOp6
 70
     1
102
RTVSPropertyOp7
 70
     1
102
RTVSPropertyOp8
 70
     1
102
RTVSPropertyOp9
 70
     1
102
RTVSPropertyOp10
 70
     1
102
RTVSPropertyOp11
 70
     1
102
RTVSPropertyOp12
 70
     1
102
RTVSPropertyOp13
 70
     1
102
RTVSPropertyOp14
 70
     1
102
RTVSPropertyOp15
 70
     1
102
RTVSPropertyOp16
 70
     1
102
RTVSPropertyOp17
 70
     1
102
RTVSPropertyOp18
 70
     1
102
RTVSPropertyOp19
 70
     1
102
RTVSPropertyOp20
 70
     1
102
RTVSPropertyOp21
 70
     1
102
RTVSPropertyOp22
 70
     1
102
RTVSPropertyOp23
 70
     1
102
RTVSPropertyOp24
 70
     1
102
RTVSPropertyOp25
 70
     1
102
RTVSPropertyOp26
 70
     1
102
RTVSPropertyOp27
 70
     1
102
RTVSPropertyOp28
 70
     1
102
RTVSPropertyOp29
 70
     1
102
RTVSPropertyOp30
 70
     1
102
RTVSPropertyOp31
 70
     1
102
RTVSPropertyOp32
 70
     1
102
RTVSPropertyOp33
 70
     1
102
RTVSPropertyOp34
 70
     1
102
RTVSPropertyOp35
 70
     1
102
RTVSPropertyOp36
 70
     1
102
RTVSPropertyOp37
 70
     1
102
RTVSPropertyOp38
 70
     1
102
RTVSPropertyOp39
 70
     1
102
RTVSPropertyOp40
 70
     1
102
RTVSPropertyOp41
 70
     1
102
RTVSPropertyOp42
 70
     1
102
RTVSPropertyOp43
 70
     1
102
RTVSPropertyOp44
 70
     1
102
RTVSPropertyOp45
 70
     1
102
RTVSPropertyOp46
 70
     1
102
RTVSPropertyOp47
 70
     1
102
RTVSPropertyOp48
 70
     1
102
RTVSPropertyOp49
 70
     1
102
RTVSPropertyOp50
 70
     1
102
RTVSPropertyOp51
 70
     0
102
RTVSPropertyOp52
 70
     0
102
RTVSPropertyOp53
 70
     1
102
RTVSPropertyOp54
 70
     1
102
RTVSPropertyOp55
 70
     1
102
RTVSPropertyOp56
 70
     1
102
RTVSPropertyOp57
 70
     1
102
RTVSPropertyOp58
 70
     1
102
RTVSPropertyOp59
 70
     1
102
RTVSPropertyOp60
 70
     1
102
RTVSPropertyOp61
 70
     1
102
RTVSPropertyOp62
 70
     1
  0
XRECORD
  5
BD4C
102
{ACAD_REACTORS
330
BD4B
102
}
330
BD4B
100
AcDbXrecord
280
     1
102
RTVSPost2010Prop28
280
     0
102
RTVSPost2010PropOp28
 70
     1
102
RTVSPost2010Prop29
280
     1
102
RTVSPost2010PropOp29
 70
     1
102
RTVSPost2010Prop30
280
     1
102
RTVSPost2010PropOp30
 70
     1
102
RTVSPost2010Prop31
280
     0
102
RTVSPost2010PropOp31
 70
     1
102
RTVSPost2010Prop32
280
     0
102
RTVSPost2010PropOp32
 70
     1
102
RTVSPost2010Prop33
280
     0
102
RTVSPost2010PropOp33
 70
     1
102
RTVSPost2010Prop34
280
     0
102
RTVSPost2010PropOp34
 70
     1
102
RTVSPost2010Prop35
280
     0
102
RTVSPost2010PropOp35
 70
     1
102
RTVSPost2010Prop36
280
     0
102
RTVSPost2010PropOp36
 70
     1
102
RTVSPost2010Prop37
 90
       50
102
RTVSPost2010PropOp37
 70
     0
102
RTVSPost2010Prop38
140
0.0
102
RTVSPost2010PropOp38
 70
     0
102
RTVSPost2010Prop39
140
1.0
102
RTVSPost2010PropOp39
 70
     0
102
RTVSPost2010Prop40
 90
        0
102
RTVSPost2010PropOp40
 70
     0
102
RTVSPost2010Prop41ColorIndex
 90
       18
102
RTVSPost2010Prop41ColorRGB
 90
        0
102
RTVSPost2010PropOp41
 70
     0
102
RTVSPost2010Prop42
 90
       50
102
RTVSPost2010PropOp42
 70
     0
102
RTVSPost2010Prop43
 90
        3
102
RTVSPost2010PropOp43
 70
     0
102
RTVSPost2010Prop44ColorIndex
 90
        5
102
RTVSPost2010Prop44ColorRGB
 90
      255
102
RTVSPost2010PropOp44
 70
     0
102
RTVSPost2010Prop45
280
     0
102
RTVSPost2010PropOp45
 70
     1
102
RTVSPost2010Prop46
 90
       50
102
RTVSPost2010PropOp46
 70
     0
102
RTVSPost2010Prop47
 90
       50
102
RTVSPost2010PropOp47
 70
     0
102
RTVSPost2010Prop48
 90
       50
102
RTVSPost2010PropOp48
 70
     0
102
RTVSPost2010Prop49
280
     0
102
RTVSPost2010PropOp49
 70
     1
102
RTVSPost2010Prop50
 90
       50
102
RTVSPost2010PropOp50
 70
     0
102
RTVSPost2010Prop51ColorIndex
 90
      256
102
RTVSPost2010Prop51ColorRGB
 90
-16777216
102
RTVSPost2010PropOp51
 70
     0
102
RTVSPost2010Prop52
140
1.0
102
RTVSPost2010PropOp52
 70
     0
102
RTVSPost2010Prop53
 90
        2
102
RTVSPost2010PropOp53
 70
     0
102
RTVSPost2010Prop54
  1
strokes_ogs.tif
102
RTVSPost2010PropOp54
 70
     0
102
RTVSPost2010Prop55
280
     0
102
RTVSPost2010PropOp55
 70
     1
102
RTVSPost2010Prop56
140
1.0
102
RTVSPost2010PropOp56
 70
     0
102
RTVSPost2010Prop57
140
1.0
102
RTVSPost2010PropOp57
 70
     0
102
RTVSPropertyOp0
 70
     0
102
RTVSPropertyOp1
 70
     0
102
RTVSPropertyOp2
 70
     0
102
RTVSPropertyOp3
 70
     0
102
RTVSPropertyOp4
 70
     0
102
RTVSPropertyOp5
 70
     0
102
RTVSPropertyOp6
 70
     0
102
RTVSPropertyOp7
 70
     0
102
RTVSPropertyOp8
 70
     0
102
RTVSPropertyOp9
 70
     0
102
RTVSPropertyOp10
 70
     0
102
RTVSPropertyOp11
 70
     0
102
RTVSPropertyOp12
 70
     0
102
RTVSPropertyOp13
 70
     0
102
RTVSPropertyOp14
 70
     2
102
RTVSPropertyOp15
 70
     0
102
RTVSPropertyOp16
 70
     0
102
RTVSPropertyOp17
 70
     0
102
RTVSPropertyOp18
 70
     0
102
RTVSPropertyOp19
 70
     0
102
RTVSPropertyOp20
 70
     0
102
RTVSPropertyOp21
 70
     0
102
RTVSPropertyOp22
 70
     0
102
RTVSPropertyOp23
 70
     0
102
RTVSPropertyOp24
 70
     0
102
RTVSPropertyOp25
 70
     0
102
RTVSPropertyOp26
 70
     0
102
RTVSPropertyOp27
 70
     0
102
RTVSPropertyOp28
 70
     1
102
RTVSPropertyOp29
 70
     1
102
RTVSPropertyOp30
 70
     1
102
RTVSPropertyOp31
 70
     1
102
RTVSPropertyOp32
 70
     1
102
RTVSPropertyOp33
 70
     1
102
RTVSPropertyOp34
 70
     1
102
RTVSPropertyOp35
 70
     1
102
RTVSPropertyOp36
 70
     1
102
RTVSPropertyOp37
 70
     0
102
RTVSPropertyOp38
 70
     0
102
RTVSPropertyOp39
 70
     0
102
RTVSPropertyOp40
 70
     0
102
RTVSPropertyOp41
 70
     0
102
RTVSPropertyOp42
 70
     0
102
RTVSPropertyOp43
 70
     0
102
RTVSPropertyOp44
 70
     0
102
RTVSPropertyOp45
 70
     1
102
RTVSPropertyOp46
 70
     0
102
RTVSPropertyOp47
 70
     0
102
RTVSPropertyOp48
 70
     0
102
RTVSPropertyOp49
 70
     1
102
RTVSPropertyOp50
 70
     0
102
RTVSPropertyOp51
 70
     0
102
RTVSPropertyOp52
 70
     0
102
RTVSPropertyOp53
 70
     0
102
RTVSPropertyOp54
 70
     0
102
RTVSPropertyOp55
 70
     1
102
RTVSPropertyOp56
 70
     0
102
RTVSPropertyOp57
 70
     0
102
RTVSPropertyOp58
 70
     0
102
RTVSPropertyOp59
 70
     0
102
RTVSPropertyOp60
 70
     0
102
RTVSPropertyOp61
 70
     0
102
RTVSPropertyOp62
 70
     0
  0
XRECORD
  5
BD3A
102
{ACAD_REACTORS
330
BD39
102
}
330
BD39
100
AcDbXrecord
280
     1
102
RTVSPost2010Prop28
280
     0
102
RTVSPost2010PropOp28
 70
     1
102
RTVSPost2010Prop29
280
     1
102
RTVSPost2010PropOp29
 70
     1
102
RTVSPost2010Prop30
280
     1
102
RTVSPost2010PropOp30
 70
     1
102
RTVSPost2010Prop31
280
     0
102
RTVSPost2010PropOp31
 70
     1
102
RTVSPost2010Prop32
280
     0
102
RTVSPost2010PropOp32
 70
     1
102
RTVSPost2010Prop33
280
     0
102
RTVSPost2010PropOp33
 70
     1
102
RTVSPost2010Prop34
280
     0
102
RTVSPost2010PropOp34
 70
     1
102
RTVSPost2010Prop35
280
     0
102
RTVSPost2010PropOp35
 70
     1
102
RTVSPost2010Prop36
280
     0
102
RTVSPost2010PropOp36
 70
     1
102
RTVSPost2010Prop37
 90
       50
102
RTVSPost2010PropOp37
 70
     1
102
RTVSPost2010Prop38
140
0.0
102
RTVSPost2010PropOp38
 70
     1
102
RTVSPost2010Prop39
140
1.0
102
RTVSPost2010PropOp39
 70
     1
102
RTVSPost2010Prop40
 90
        0
102
RTVSPost2010PropOp40
 70
     1
102
RTVSPost2010Prop41ColorIndex
 90
       18
102
RTVSPost2010Prop41ColorRGB
 90
        0
102
RTVSPost2010PropOp41
 70
     1
102
RTVSPost2010Prop42
 90
       50
102
RTVSPost2010PropOp42
 70
     1
102
RTVSPost2010Prop43
 90
        3
102
RTVSPost2010PropOp43
 70
     1
102
RTVSPost2010Prop44ColorIndex
 90
        5
102
RTVSPost2010Prop44ColorRGB
 90
      255
102
RTVSPost2010PropOp44
 70
     1
102
RTVSPost2010Prop45
280
     0
102
RTVSPost2010PropOp45
 70
     1
102
RTVSPost2010Prop46
 90
       50
102
RTVSPost2010PropOp46
 70
     1
102
RTVSPost2010Prop47
 90
       50
102
RTVSPost2010PropOp47
 70
     1
102
RTVSPost2010Prop48
 90
       50
102
RTVSPost2010PropOp48
 70
     1
102
RTVSPost2010Prop49
280
     0
102
RTVSPost2010PropOp49
 70
     1
102
RTVSPost2010Prop50
 90
       50
102
RTVSPost2010PropOp50
 70
     1
102
RTVSPost2010Prop51ColorIndex
 90
      256
102
RTVSPost2010Prop51ColorRGB
 90
-16777216
102
RTVSPost2010PropOp51
 70
     0
102
RTVSPost2010Prop52
140
1.0
102
RTVSPost2010PropOp52
 70
     0
102
RTVSPost2010Prop53
 90
        2
102
RTVSPost2010PropOp53
 70
     1
102
RTVSPost2010Prop54
  1
strokes_ogs.tif
102
RTVSPost2010PropOp54
 70
     1
102
RTVSPost2010Prop55
280
     0
102
RTVSPost2010PropOp55
 70
     1
102
RTVSPost2010Prop56
140
1.0
102
RTVSPost2010PropOp56
 70
     1
102
RTVSPost2010Prop57
140
1.0
102
RTVSPost2010PropOp57
 70
     1
102
RTVSPropertyOp0
 70
     1
102
RTVSPropertyOp1
 70
     1
102
RTVSPropertyOp2
 70
     1
102
RTVSPropertyOp3
 70
     1
102
RTVSPropertyOp4
 70
     1
102
RTVSPropertyOp5
 70
     1
102
RTVSPropertyOp6
 70
     1
102
RTVSPropertyOp7
 70
     1
102
RTVSPropertyOp8
 70
     1
102
RTVSPropertyOp9
 70
     1
102
RTVSPropertyOp10
 70
     1
102
RTVSPropertyOp11
 70
     1
102
RTVSPropertyOp12
 70
     1
102
RTVSPropertyOp13
 70
     1
102
RTVSPropertyOp14
 70
     1
102
RTVSPropertyOp15
 70
     1
102
RTVSPropertyOp16
 70
     1
102
RTVSPropertyOp17
 70
     1
102
RTVSPropertyOp18
 70
     1
102
RTVSPropertyOp19
 70
     1
102
RTVSPropertyOp20
 70
     1
102
RTVSPropertyOp21
 70
     1
102
RTVSPropertyOp22
 70
     1
102
RTVSPropertyOp23
 70
     1
102
RTVSPropertyOp24
 70
     1
102
RTVSPropertyOp25
 70
     1
102
RTVSPropertyOp26
 70
     1
102
RTVSPropertyOp27
 70
     1
102
RTVSPropertyOp28
 70
     1
102
RTVSPropertyOp29
 70
     1
102
RTVSPropertyOp30
 70
     1
102
RTVSPropertyOp31
 70
     1
102
RTVSPropertyOp32
 70
     1
102
RTVSPropertyOp33
 70
     1
102
RTVSPropertyOp34
 70
     1
102
RTVSPropertyOp35
 70
     1
102
RTVSPropertyOp36
 70
     1
102
RTVSPropertyOp37
 70
     1
102
RTVSPropertyOp38
 70
     1
102
RTVSPropertyOp39
 70
     1
102
RTVSPropertyOp40
 70
     1
102
RTVSPropertyOp41
 70
     1
102
RTVSPropertyOp42
 70
     1
102
RTVSPropertyOp43
 70
     1
102
RTVSPropertyOp44
 70
     1
102
RTVSPropertyOp45
 70
     1
102
RTVSPropertyOp46
 70
     1
102
RTVSPropertyOp47
 70
     1
102
RTVSPropertyOp48
 70
     1
102
RTVSPropertyOp49
 70
     1
102
RTVSPropertyOp50
 70
     1
102
RTVSPropertyOp51
 70
     0
102
RTVSPropertyOp52
 70
     0
102
RTVSPropertyOp53
 70
     1
102
RTVSPropertyOp54
 70
     1
102
RTVSPropertyOp55
 70
     1
102
RTVSPropertyOp56
 70
     1
102
RTVSPropertyOp57
 70
     1
102
RTVSPropertyOp58
 70
     1
102
RTVSPropertyOp59
 70
     1
102
RTVSPropertyOp60
 70
     1
102
RTVSPropertyOp61
 70
     1
102
RTVSPropertyOp62
 70
     1
  0
XRECORD
  5
BD1E
102
{ACAD_REACTORS
330
BD1D
102
}
330
BD1D
100
AcDbXrecord
280
     1
102
RTVSPost2010Prop28
280
     0
102
RTVSPost2010PropOp28
 70
     1
102
RTVSPost2010Prop29
280
     1
102
RTVSPost2010PropOp29
 70
     1
102
RTVSPost2010Prop30
280
     1
102
RTVSPost2010PropOp30
 70
     1
102
RTVSPost2010Prop31
280
     0
102
RTVSPost2010PropOp31
 70
     1
102
RTVSPost2010Prop32
280
     0
102
RTVSPost2010PropOp32
 70
     1
102
RTVSPost2010Prop33
280
     0
102
RTVSPost2010PropOp33
 70
     1
102
RTVSPost2010Prop34
280
     0
102
RTVSPost2010PropOp34
 70
     1
102
RTVSPost2010Prop35
280
     0
102
RTVSPost2010PropOp35
 70
     1
102
RTVSPost2010Prop36
280
     0
102
RTVSPost2010PropOp36
 70
     1
102
RTVSPost2010Prop37
 90
       50
102
RTVSPost2010PropOp37
 70
     1
102
RTVSPost2010Prop38
140
0.0
102
RTVSPost2010PropOp38
 70
     1
102
RTVSPost2010Prop39
140
1.0
102
RTVSPost2010PropOp39
 70
     1
102
RTVSPost2010Prop40
 90
        0
102
RTVSPost2010PropOp40
 70
     1
102
RTVSPost2010Prop41ColorIndex
 90
       18
102
RTVSPost2010Prop41ColorRGB
 90
        0
102
RTVSPost2010PropOp41
 70
     1
102
RTVSPost2010Prop42
 90
       50
102
RTVSPost2010PropOp42
 70
     1
102
RTVSPost2010Prop43
 90
        3
102
RTVSPost2010PropOp43
 70
     1
102
RTVSPost2010Prop44ColorIndex
 90
        5
102
RTVSPost2010Prop44ColorRGB
 90
      255
102
RTVSPost2010PropOp44
 70
     1
102
RTVSPost2010Prop45
280
     0
102
RTVSPost2010PropOp45
 70
     1
102
RTVSPost2010Prop46
 90
       50
102
RTVSPost2010PropOp46
 70
     1
102
RTVSPost2010Prop47
 90
       50
102
RTVSPost2010PropOp47
 70
     1
102
RTVSPost2010Prop48
 90
       50
102
RTVSPost2010PropOp48
 70
     1
102
RTVSPost2010Prop49
280
     0
102
RTVSPost2010PropOp49
 70
     1
102
RTVSPost2010Prop50
 90
       50
102
RTVSPost2010PropOp50
 70
     1
102
RTVSPost2010Prop51ColorIndex
 90
      256
102
RTVSPost2010Prop51ColorRGB
 90
-16777216
102
RTVSPost2010PropOp51
 70
     0
102
RTVSPost2010Prop52
140
1.0
102
RTVSPost2010PropOp52
 70
     0
102
RTVSPost2010Prop53
 90
        2
102
RTVSPost2010PropOp53
 70
     1
102
RTVSPost2010Prop54
  1
strokes_ogs.tif
102
RTVSPost2010PropOp54
 70
     1
102
RTVSPost2010Prop55
280
     0
102
RTVSPost2010PropOp55
 70
     1
102
RTVSPost2010Prop56
140
1.0
102
RTVSPost2010PropOp56
 70
     1
102
RTVSPost2010Prop57
140
1.0
102
RTVSPost2010PropOp57
 70
     1
102
RTVSPropertyOp0
 70
     1
102
RTVSPropertyOp1
 70
     1
102
RTVSPropertyOp2
 70
     1
102
RTVSPropertyOp3
 70
     1
102
RTVSPropertyOp4
 70
     1
102
RTVSPropertyOp5
 70
     1
102
RTVSPropertyOp6
 70
     1
102
RTVSPropertyOp7
 70
     1
102
RTVSPropertyOp8
 70
     1
102
RTVSPropertyOp9
 70
     1
102
RTVSPropertyOp10
 70
     1
102
RTVSPropertyOp11
 70
     1
102
RTVSPropertyOp12
 70
     1
102
RTVSPropertyOp13
 70
     1
102
RTVSPropertyOp14
 70
     1
102
RTVSPropertyOp15
 70
     1
102
RTVSPropertyOp16
 70
     1
102
RTVSPropertyOp17
 70
     1
102
RTVSPropertyOp18
 70
     1
102
RTVSPropertyOp19
 70
     1
102
RTVSPropertyOp20
 70
     1
102
RTVSPropertyOp21
 70
     1
102
RTVSPropertyOp22
 70
     1
102
RTVSPropertyOp23
 70
     1
102
RTVSPropertyOp24
 70
     1
102
RTVSPropertyOp25
 70
     1
102
RTVSPropertyOp26
 70
     1
102
RTVSPropertyOp27
 70
     1
102
RTVSPropertyOp28
 70
     1
102
RTVSPropertyOp29
 70
     1
102
RTVSPropertyOp30
 70
     1
102
RTVSPropertyOp31
 70
     1
102
RTVSPropertyOp32
 70
     1
102
RTVSPropertyOp33
 70
     1
102
RTVSPropertyOp34
 70
     1
102
RTVSPropertyOp35
 70
     1
102
RTVSPropertyOp36
 70
     1
102
RTVSPropertyOp37
 70
     1
102
RTVSPropertyOp38
 70
     1
102
RTVSPropertyOp39
 70
     1
102
RTVSPropertyOp40
 70
     1
102
RTVSPropertyOp41
 70
     1
102
RTVSPropertyOp42
 70
     1
102
RTVSPropertyOp43
 70
     1
102
RTVSPropertyOp44
 70
     1
102
RTVSPropertyOp45
 70
     1
102
RTVSPropertyOp46
 70
     1
102
RTVSPropertyOp47
 70
     1
102
RTVSPropertyOp48
 70
     1
102
RTVSPropertyOp49
 70
     1
102
RTVSPropertyOp50
 70
     1
102
RTVSPropertyOp51
 70
     0
102
RTVSPropertyOp52
 70
     0
102
RTVSPropertyOp53
 70
     1
102
RTVSPropertyOp54
 70
     1
102
RTVSPropertyOp55
 70
     1
102
RTVSPropertyOp56
 70
     1
102
RTVSPropertyOp57
 70
     1
102
RTVSPropertyOp58
 70
     1
102
RTVSPropertyOp59
 70
     1
102
RTVSPropertyOp60
 70
     1
102
RTVSPropertyOp61
 70
     1
102
RTVSPropertyOp62
 70
     1
  0
XRECORD
  5
BD20
102
{ACAD_REACTORS
330
BD1F
102
}
330
BD1F
100
AcDbXrecord
280
     1
102
RTVSPost2010Prop28
280
     0
102
RTVSPost2010PropOp28
 70
     1
102
RTVSPost2010Prop29
280
     1
102
RTVSPost2010PropOp29
 70
     1
102
RTVSPost2010Prop30
280
     1
102
RTVSPost2010PropOp30
 70
     1
102
RTVSPost2010Prop31
280
     0
102
RTVSPost2010PropOp31
 70
     1
102
RTVSPost2010Prop32
280
     0
102
RTVSPost2010PropOp32
 70
     1
102
RTVSPost2010Prop33
280
     0
102
RTVSPost2010PropOp33
 70
     1
102
RTVSPost2010Prop34
280
     0
102
RTVSPost2010PropOp34
 70
     1
102
RTVSPost2010Prop35
280
     0
102
RTVSPost2010PropOp35
 70
     1
102
RTVSPost2010Prop36
280
     0
102
RTVSPost2010PropOp36
 70
     1
102
RTVSPost2010Prop37
 90
       50
102
RTVSPost2010PropOp37
 70
     1
102
RTVSPost2010Prop38
140
0.0
102
RTVSPost2010PropOp38
 70
     1
102
RTVSPost2010Prop39
140
1.0
102
RTVSPost2010PropOp39
 70
     1
102
RTVSPost2010Prop40
 90
        0
102
RTVSPost2010PropOp40
 70
     1
102
RTVSPost2010Prop41ColorIndex
 90
       18
102
RTVSPost2010Prop41ColorRGB
 90
        0
102
RTVSPost2010PropOp41
 70
     1
102
RTVSPost2010Prop42
 90
       50
102
RTVSPost2010PropOp42
 70
     1
102
RTVSPost2010Prop43
 90
        3
102
RTVSPost2010PropOp43
 70
     1
102
RTVSPost2010Prop44ColorIndex
 90
        5
102
RTVSPost2010Prop44ColorRGB
 90
      255
102
RTVSPost2010PropOp44
 70
     1
102
RTVSPost2010Prop45
280
     0
102
RTVSPost2010PropOp45
 70
     1
102
RTVSPost2010Prop46
 90
       50
102
RTVSPost2010PropOp46
 70
     1
102
RTVSPost2010Prop47
 90
       50
102
RTVSPost2010PropOp47
 70
     1
102
RTVSPost2010Prop48
 90
       50
102
RTVSPost2010PropOp48
 70
     1
102
RTVSPost2010Prop49
280
     0
102
RTVSPost2010PropOp49
 70
     1
102
RTVSPost2010Prop50
 90
       50
102
RTVSPost2010PropOp50
 70
     1
102
RTVSPost2010Prop51ColorIndex
 90
      256
102
RTVSPost2010Prop51ColorRGB
 90
-16777216
102
RTVSPost2010PropOp51
 70
     0
102
RTVSPost2010Prop52
140
1.0
102
RTVSPost2010PropOp52
 70
     0
102
RTVSPost2010Prop53
 90
        2
102
RTVSPost2010PropOp53
 70
     1
102
RTVSPost2010Prop54
  1
strokes_ogs.tif
102
RTVSPost2010PropOp54
 70
     1
102
RTVSPost2010Prop55
280
     0
102
RTVSPost2010PropOp55
 70
     1
102
RTVSPost2010Prop56
140
1.0
102
RTVSPost2010PropOp56
 70
     1
102
RTVSPost2010Prop57
140
1.0
102
RTVSPost2010PropOp57
 70
     1
102
RTVSPropertyOp0
 70
     1
102
RTVSPropertyOp1
 70
     1
102
RTVSPropertyOp2
 70
     1
102
RTVSPropertyOp3
 70
     1
102
RTVSPropertyOp4
 70
     1
102
RTVSPropertyOp5
 70
     1
102
RTVSPropertyOp6
 70
     1
102
RTVSPropertyOp7
 70
     1
102
RTVSPropertyOp8
 70
     1
102
RTVSPropertyOp9
 70
     1
102
RTVSPropertyOp10
 70
     1
102
RTVSPropertyOp11
 70
     1
102
RTVSPropertyOp12
 70
     1
102
RTVSPropertyOp13
 70
     1
102
RTVSPropertyOp14
 70
     1
102
RTVSPropertyOp15
 70
     1
102
RTVSPropertyOp16
 70
     1
102
RTVSPropertyOp17
 70
     1
102
RTVSPropertyOp18
 70
     1
102
RTVSPropertyOp19
 70
     1
102
RTVSPropertyOp20
 70
     1
102
RTVSPropertyOp21
 70
     1
102
RTVSPropertyOp22
 70
     1
102
RTVSPropertyOp23
 70
     1
102
RTVSPropertyOp24
 70
     1
102
RTVSPropertyOp25
 70
     1
102
RTVSPropertyOp26
 70
     1
102
RTVSPropertyOp27
 70
     1
102
RTVSPropertyOp28
 70
     1
102
RTVSPropertyOp29
 70
     1
102
RTVSPropertyOp30
 70
     1
102
RTVSPropertyOp31
 70
     1
102
RTVSPropertyOp32
 70
     1
102
RTVSPropertyOp33
 70
     1
102
RTVSPropertyOp34
 70
     1
102
RTVSPropertyOp35
 70
     1
102
RTVSPropertyOp36
 70
     1
102
RTVSPropertyOp37
 70
     1
102
RTVSPropertyOp38
 70
     1
102
RTVSPropertyOp39
 70
     1
102
RTVSPropertyOp40
 70
     1
102
RTVSPropertyOp41
 70
     1
102
RTVSPropertyOp42
 70
     1
102
RTVSPropertyOp43
 70
     1
102
RTVSPropertyOp44
 70
     1
102
RTVSPropertyOp45
 70
     1
102
RTVSPropertyOp46
 70
     1
102
RTVSPropertyOp47
 70
     1
102
RTVSPropertyOp48
 70
     1
102
RTVSPropertyOp49
 70
     1
102
RTVSPropertyOp50
 70
     1
102
RTVSPropertyOp51
 70
     0
102
RTVSPropertyOp52
 70
     0
102
RTVSPropertyOp53
 70
     1
102
RTVSPropertyOp54
 70
     1
102
RTVSPropertyOp55
 70
     1
102
RTVSPropertyOp56
 70
     1
102
RTVSPropertyOp57
 70
     1
102
RTVSPropertyOp58
 70
     1
102
RTVSPropertyOp59
 70
     1
102
RTVSPropertyOp60
 70
     1
102
RTVSPropertyOp61
 70
     1
102
RTVSPropertyOp62
 70
     1
  0
XRECORD
  5
BD22
102
{ACAD_REACTORS
330
BD21
102
}
330
BD21
100
AcDbXrecord
280
     1
102
RTVSPost2010Prop28
280
     0
102
RTVSPost2010PropOp28
 70
     1
102
RTVSPost2010Prop29
280
     1
102
RTVSPost2010PropOp29
 70
     1
102
RTVSPost2010Prop30
280
     1
102
RTVSPost2010PropOp30
 70
     1
102
RTVSPost2010Prop31
280
     0
102
RTVSPost2010PropOp31
 70
     1
102
RTVSPost2010Prop32
280
     0
102
RTVSPost2010PropOp32
 70
     1
102
RTVSPost2010Prop33
280
     0
102
RTVSPost2010PropOp33
 70
     1
102
RTVSPost2010Prop34
280
     0
102
RTVSPost2010PropOp34
 70
     1
102
RTVSPost2010Prop35
280
     0
102
RTVSPost2010PropOp35
 70
     1
102
RTVSPost2010Prop36
280
     0
102
RTVSPost2010PropOp36
 70
     1
102
RTVSPost2010Prop37
 90
       50
102
RTVSPost2010PropOp37
 70
     1
102
RTVSPost2010Prop38
140
0.0
102
RTVSPost2010PropOp38
 70
     1
102
RTVSPost2010Prop39
140
1.0
102
RTVSPost2010PropOp39
 70
     1
102
RTVSPost2010Prop40
 90
        0
102
RTVSPost2010PropOp40
 70
     1
102
RTVSPost2010Prop41ColorIndex
 90
       18
102
RTVSPost2010Prop41ColorRGB
 90
        0
102
RTVSPost2010PropOp41
 70
     1
102
RTVSPost2010Prop42
 90
       50
102
RTVSPost2010PropOp42
 70
     1
102
RTVSPost2010Prop43
 90
        3
102
RTVSPost2010PropOp43
 70
     1
102
RTVSPost2010Prop44ColorIndex
 90
        5
102
RTVSPost2010Prop44ColorRGB
 90
      255
102
RTVSPost2010PropOp44
 70
     1
102
RTVSPost2010Prop45
280
     0
102
RTVSPost2010PropOp45
 70
     1
102
RTVSPost2010Prop46
 90
       50
102
RTVSPost2010PropOp46
 70
     1
102
RTVSPost2010Prop47
 90
       50
102
RTVSPost2010PropOp47
 70
     1
102
RTVSPost2010Prop48
 90
       50
102
RTVSPost2010PropOp48
 70
     1
102
RTVSPost2010Prop49
280
     0
102
RTVSPost2010PropOp49
 70
     1
102
RTVSPost2010Prop50
 90
       50
102
RTVSPost2010PropOp50
 70
     1
102
RTVSPost2010Prop51ColorIndex
 90
      256
102
RTVSPost2010Prop51ColorRGB
 90
-16777216
102
RTVSPost2010PropOp51
 70
     0
102
RTVSPost2010Prop52
140
1.0
102
RTVSPost2010PropOp52
 70
     0
102
RTVSPost2010Prop53
 90
        2
102
RTVSPost2010PropOp53
 70
     1
102
RTVSPost2010Prop54
  1
strokes_ogs.tif
102
RTVSPost2010PropOp54
 70
     1
102
RTVSPost2010Prop55
280
     0
102
RTVSPost2010PropOp55
 70
     1
102
RTVSPost2010Prop56
140
1.0
102
RTVSPost2010PropOp56
 70
     1
102
RTVSPost2010Prop57
140
1.0
102
RTVSPost2010PropOp57
 70
     1
102
RTVSPropertyOp0
 70
     1
102
RTVSPropertyOp1
 70
     1
102
RTVSPropertyOp2
 70
     1
102
RTVSPropertyOp3
 70
     1
102
RTVSPropertyOp4
 70
     1
102
RTVSPropertyOp5
 70
     1
102
RTVSPropertyOp6
 70
     1
102
RTVSPropertyOp7
 70
     1
102
RTVSPropertyOp8
 70
     1
102
RTVSPropertyOp9
 70
     1
102
RTVSPropertyOp10
 70
     1
102
RTVSPropertyOp11
 70
     1
102
RTVSPropertyOp12
 70
     1
102
RTVSPropertyOp13
 70
     1
102
RTVSPropertyOp14
 70
     1
102
RTVSPropertyOp15
 70
     1
102
RTVSPropertyOp16
 70
     1
102
RTVSPropertyOp17
 70
     1
102
RTVSPropertyOp18
 70
     1
102
RTVSPropertyOp19
 70
     1
102
RTVSPropertyOp20
 70
     1
102
RTVSPropertyOp21
 70
     1
102
RTVSPropertyOp22
 70
     1
102
RTVSPropertyOp23
 70
     1
102
RTVSPropertyOp24
 70
     1
102
RTVSPropertyOp25
 70
     1
102
RTVSPropertyOp26
 70
     1
102
RTVSPropertyOp27
 70
     1
102
RTVSPropertyOp28
 70
     1
102
RTVSPropertyOp29
 70
     1
102
RTVSPropertyOp30
 70
     1
102
RTVSPropertyOp31
 70
     1
102
RTVSPropertyOp32
 70
     1
102
RTVSPropertyOp33
 70
     1
102
RTVSPropertyOp34
 70
     1
102
RTVSPropertyOp35
 70
     1
102
RTVSPropertyOp36
 70
     1
102
RTVSPropertyOp37
 70
     1
102
RTVSPropertyOp38
 70
     1
102
RTVSPropertyOp39
 70
     1
102
RTVSPropertyOp40
 70
     1
102
RTVSPropertyOp41
 70
     1
102
RTVSPropertyOp42
 70
     1
102
RTVSPropertyOp43
 70
     1
102
RTVSPropertyOp44
 70
     1
102
RTVSPropertyOp45
 70
     1
102
RTVSPropertyOp46
 70
     1
102
RTVSPropertyOp47
 70
     1
102
RTVSPropertyOp48
 70
     1
102
RTVSPropertyOp49
 70
     1
102
RTVSPropertyOp50
 70
     1
102
RTVSPropertyOp51
 70
     0
102
RTVSPropertyOp52
 70
     0
102
RTVSPropertyOp53
 70
     1
102
RTVSPropertyOp54
 70
     1
102
RTVSPropertyOp55
 70
     1
102
RTVSPropertyOp56
 70
     1
102
RTVSPropertyOp57
 70
     1
102
RTVSPropertyOp58
 70
     1
102
RTVSPropertyOp59
 70
     1
102
RTVSPropertyOp60
 70
     1
102
RTVSPropertyOp61
 70
     1
102
RTVSPropertyOp62
 70
     1
  0
XRECORD
  5
BD24
102
{ACAD_REACTORS
330
BD23
102
}
330
BD23
100
AcDbXrecord
280
     1
102
RTVSPost2010Prop28
280
     0
102
RTVSPost2010PropOp28
 70
     1
102
RTVSPost2010Prop29
280
     1
102
RTVSPost2010PropOp29
 70
     1
102
RTVSPost2010Prop30
280
     1
102
RTVSPost2010PropOp30
 70
     1
102
RTVSPost2010Prop31
280
     0
102
RTVSPost2010PropOp31
 70
     1
102
RTVSPost2010Prop32
280
     0
102
RTVSPost2010PropOp32
 70
     1
102
RTVSPost2010Prop33
280
     0
102
RTVSPost2010PropOp33
 70
     1
102
RTVSPost2010Prop34
280
     0
102
RTVSPost2010PropOp34
 70
     1
102
RTVSPost2010Prop35
280
     0
102
RTVSPost2010PropOp35
 70
     1
102
RTVSPost2010Prop36
280
     0
102
RTVSPost2010PropOp36
 70
     1
102
RTVSPost2010Prop37
 90
       50
102
RTVSPost2010PropOp37
 70
     1
102
RTVSPost2010Prop38
140
0.0
102
RTVSPost2010PropOp38
 70
     1
102
RTVSPost2010Prop39
140
1.0
102
RTVSPost2010PropOp39
 70
     1
102
RTVSPost2010Prop40
 90
        0
102
RTVSPost2010PropOp40
 70
     1
102
RTVSPost2010Prop41ColorIndex
 90
       18
102
RTVSPost2010Prop41ColorRGB
 90
        0
102
RTVSPost2010PropOp41
 70
     1
102
RTVSPost2010Prop42
 90
       50
102
RTVSPost2010PropOp42
 70
     1
102
RTVSPost2010Prop43
 90
        3
102
RTVSPost2010PropOp43
 70
     1
102
RTVSPost2010Prop44ColorIndex
 90
        5
102
RTVSPost2010Prop44ColorRGB
 90
      255
102
RTVSPost2010PropOp44
 70
     1
102
RTVSPost2010Prop45
280
     0
102
RTVSPost2010PropOp45
 70
     1
102
RTVSPost2010Prop46
 90
       50
102
RTVSPost2010PropOp46
 70
     1
102
RTVSPost2010Prop47
 90
       50
102
RTVSPost2010PropOp47
 70
     1
102
RTVSPost2010Prop48
 90
       50
102
RTVSPost2010PropOp48
 70
     1
102
RTVSPost2010Prop49
280
     0
102
RTVSPost2010PropOp49
 70
     1
102
RTVSPost2010Prop50
 90
       50
102
RTVSPost2010PropOp50
 70
     1
102
RTVSPost2010Prop51ColorIndex
 90
      256
102
RTVSPost2010Prop51ColorRGB
 90
-16777216
102
RTVSPost2010PropOp51
 70
     0
102
RTVSPost2010Prop52
140
1.0
102
RTVSPost2010PropOp52
 70
     0
102
RTVSPost2010Prop53
 90
        2
102
RTVSPost2010PropOp53
 70
     1
102
RTVSPost2010Prop54
  1
strokes_ogs.tif
102
RTVSPost2010PropOp54
 70
     1
102
RTVSPost2010Prop55
280
     0
102
RTVSPost2010PropOp55
 70
     1
102
RTVSPost2010Prop56
140
1.0
102
RTVSPost2010PropOp56
 70
     1
102
RTVSPost2010Prop57
140
1.0
102
RTVSPost2010PropOp57
 70
     1
102
RTVSPropertyOp0
 70
     1
102
RTVSPropertyOp1
 70
     1
102
RTVSPropertyOp2
 70
     1
102
RTVSPropertyOp3
 70
     1
102
RTVSPropertyOp4
 70
     1
102
RTVSPropertyOp5
 70
     1
102
RTVSPropertyOp6
 70
     1
102
RTVSPropertyOp7
 70
     1
102
RTVSPropertyOp8
 70
     1
102
RTVSPropertyOp9
 70
     1
102
RTVSPropertyOp10
 70
     1
102
RTVSPropertyOp11
 70
     1
102
RTVSPropertyOp12
 70
     1
102
RTVSPropertyOp13
 70
     1
102
RTVSPropertyOp14
 70
     1
102
RTVSPropertyOp15
 70
     1
102
RTVSPropertyOp16
 70
     1
102
RTVSPropertyOp17
 70
     1
102
RTVSPropertyOp18
 70
     1
102
RTVSPropertyOp19
 70
     1
102
RTVSPropertyOp20
 70
     1
102
RTVSPropertyOp21
 70
     1
102
RTVSPropertyOp22
 70
     1
102
RTVSPropertyOp23
 70
     1
102
RTVSPropertyOp24
 70
     1
102
RTVSPropertyOp25
 70
     1
102
RTVSPropertyOp26
 70
     1
102
RTVSPropertyOp27
 70
     1
102
RTVSPropertyOp28
 70
     1
102
RTVSPropertyOp29
 70
     1
102
RTVSPropertyOp30
 70
     1
102
RTVSPropertyOp31
 70
     1
102
RTVSPropertyOp32
 70
     1
102
RTVSPropertyOp33
 70
     1
102
RTVSPropertyOp34
 70
     1
102
RTVSPropertyOp35
 70
     1
102
RTVSPropertyOp36
 70
     1
102
RTVSPropertyOp37
 70
     1
102
RTVSPropertyOp38
 70
     1
102
RTVSPropertyOp39
 70
     1
102
RTVSPropertyOp40
 70
     1
102
RTVSPropertyOp41
 70
     1
102
RTVSPropertyOp42
 70
     1
102
RTVSPropertyOp43
 70
     1
102
RTVSPropertyOp44
 70
     1
102
RTVSPropertyOp45
 70
     1
102
RTVSPropertyOp46
 70
     1
102
RTVSPropertyOp47
 70
     1
102
RTVSPropertyOp48
 70
     1
102
RTVSPropertyOp49
 70
     1
102
RTVSPropertyOp50
 70
     1
102
RTVSPropertyOp51
 70
     0
102
RTVSPropertyOp52
 70
     0
102
RTVSPropertyOp53
 70
     1
102
RTVSPropertyOp54
 70
     1
102
RTVSPropertyOp55
 70
     1
102
RTVSPropertyOp56
 70
     1
102
RTVSPropertyOp57
 70
     1
102
RTVSPropertyOp58
 70
     1
102
RTVSPropertyOp59
 70
     1
102
RTVSPropertyOp60
 70
     1
102
RTVSPropertyOp61
 70
     1
102
RTVSPropertyOp62
 70
     1
  0
XRECORD
  5
BD2C
102
{ACAD_REACTORS
330
BD2B
102
}
330
BD2B
100
AcDbXrecord
280
     1
102
RTVSPost2010Prop28
280
     0
102
RTVSPost2010PropOp28
 70
     1
102
RTVSPost2010Prop29
280
     1
102
RTVSPost2010PropOp29
 70
     1
102
RTVSPost2010Prop30
280
     1
102
RTVSPost2010PropOp30
 70
     1
102
RTVSPost2010Prop31
280
     0
102
RTVSPost2010PropOp31
 70
     1
102
RTVSPost2010Prop32
280
     0
102
RTVSPost2010PropOp32
 70
     1
102
RTVSPost2010Prop33
280
     0
102
RTVSPost2010PropOp33
 70
     1
102
RTVSPost2010Prop34
280
     0
102
RTVSPost2010PropOp34
 70
     1
102
RTVSPost2010Prop35
280
     0
102
RTVSPost2010PropOp35
 70
     1
102
RTVSPost2010Prop36
280
     0
102
RTVSPost2010PropOp36
 70
     1
102
RTVSPost2010Prop37
 90
       50
102
RTVSPost2010PropOp37
 70
     1
102
RTVSPost2010Prop38
140
0.0
102
RTVSPost2010PropOp38
 70
     1
102
RTVSPost2010Prop39
140
1.0
102
RTVSPost2010PropOp39
 70
     1
102
RTVSPost2010Prop40
 90
        0
102
RTVSPost2010PropOp40
 70
     1
102
RTVSPost2010Prop41ColorIndex
 90
       18
102
RTVSPost2010Prop41ColorRGB
 90
        0
102
RTVSPost2010PropOp41
 70
     1
102
RTVSPost2010Prop42
 90
       50
102
RTVSPost2010PropOp42
 70
     1
102
RTVSPost2010Prop43
 90
        3
102
RTVSPost2010PropOp43
 70
     1
102
RTVSPost2010Prop44ColorIndex
 90
        5
102
RTVSPost2010Prop44ColorRGB
 90
      255
102
RTVSPost2010PropOp44
 70
     1
102
RTVSPost2010Prop45
280
     0
102
RTVSPost2010PropOp45
 70
     1
102
RTVSPost2010Prop46
 90
       50
102
RTVSPost2010PropOp46
 70
     1
102
RTVSPost2010Prop47
 90
       50
102
RTVSPost2010PropOp47
 70
     1
102
RTVSPost2010Prop48
 90
       50
102
RTVSPost2010PropOp48
 70
     1
102
RTVSPost2010Prop49
280
     0
102
RTVSPost2010PropOp49
 70
     1
102
RTVSPost2010Prop50
 90
       50
102
RTVSPost2010PropOp50
 70
     1
102
RTVSPost2010Prop51ColorIndex
 90
      256
102
RTVSPost2010Prop51ColorRGB
 90
-16777216
102
RTVSPost2010PropOp51
 70
     0
102
RTVSPost2010Prop52
140
1.0
102
RTVSPost2010PropOp52
 70
     0
102
RTVSPost2010Prop53
 90
        2
102
RTVSPost2010PropOp53
 70
     1
102
RTVSPost2010Prop54
  1
strokes_ogs.tif
102
RTVSPost2010PropOp54
 70
     1
102
RTVSPost2010Prop55
280
     0
102
RTVSPost2010PropOp55
 70
     1
102
RTVSPost2010Prop56
140
1.0
102
RTVSPost2010PropOp56
 70
     1
102
RTVSPost2010Prop57
140
1.0
102
RTVSPost2010PropOp57
 70
     1
102
RTVSPropertyOp0
 70
     1
102
RTVSPropertyOp1
 70
     1
102
RTVSPropertyOp2
 70
     1
102
RTVSPropertyOp3
 70
     1
102
RTVSPropertyOp4
 70
     1
102
RTVSPropertyOp5
 70
     1
102
RTVSPropertyOp6
 70
     1
102
RTVSPropertyOp7
 70
     1
102
RTVSPropertyOp8
 70
     1
102
RTVSPropertyOp9
 70
     1
102
RTVSPropertyOp10
 70
     1
102
RTVSPropertyOp11
 70
     1
102
RTVSPropertyOp12
 70
     1
102
RTVSPropertyOp13
 70
     1
102
RTVSPropertyOp14
 70
     1
102
RTVSPropertyOp15
 70
     1
102
RTVSPropertyOp16
 70
     1
102
RTVSPropertyOp17
 70
     1
102
RTVSPropertyOp18
 70
     1
102
RTVSPropertyOp19
 70
     1
102
RTVSPropertyOp20
 70
     1
102
RTVSPropertyOp21
 70
     1
102
RTVSPropertyOp22
 70
     1
102
RTVSPropertyOp23
 70
     1
102
RTVSPropertyOp24
 70
     1
102
RTVSPropertyOp25
 70
     1
102
RTVSPropertyOp26
 70
     1
102
RTVSPropertyOp27
 70
     1
102
RTVSPropertyOp28
 70
     1
102
RTVSPropertyOp29
 70
     1
102
RTVSPropertyOp30
 70
     1
102
RTVSPropertyOp31
 70
     1
102
RTVSPropertyOp32
 70
     1
102
RTVSPropertyOp33
 70
     1
102
RTVSPropertyOp34
 70
     1
102
RTVSPropertyOp35
 70
     1
102
RTVSPropertyOp36
 70
     1
102
RTVSPropertyOp37
 70
     1
102
RTVSPropertyOp38
 70
     1
102
RTVSPropertyOp39
 70
     1
102
RTVSPropertyOp40
 70
     1
102
RTVSPropertyOp41
 70
     1
102
RTVSPropertyOp42
 70
     1
102
RTVSPropertyOp43
 70
     1
102
RTVSPropertyOp44
 70
     1
102
RTVSPropertyOp45
 70
     1
102
RTVSPropertyOp46
 70
     1
102
RTVSPropertyOp47
 70
     1
102
RTVSPropertyOp48
 70
     1
102
RTVSPropertyOp49
 70
     1
102
RTVSPropertyOp50
 70
     1
102
RTVSPropertyOp51
 70
     0
102
RTVSPropertyOp52
 70
     0
102
RTVSPropertyOp53
 70
     1
102
RTVSPropertyOp54
 70
     1
102
RTVSPropertyOp55
 70
     1
102
RTVSPropertyOp56
 70
     1
102
RTVSPropertyOp57
 70
     1
102
RTVSPropertyOp58
 70
     1
102
RTVSPropertyOp59
 70
     1
102
RTVSPropertyOp60
 70
     1
102
RTVSPropertyOp61
 70
     1
102
RTVSPropertyOp62
 70
     1
  0
XRECORD
  5
BD48
102
{ACAD_REACTORS
330
BD47
102
}
330
BD47
100
AcDbXrecord
280
     1
102
RTVSPost2010Prop28
280
     0
102
RTVSPost2010PropOp28
 70
     1
102
RTVSPost2010Prop29
280
     1
102
RTVSPost2010PropOp29
 70
     1
102
RTVSPost2010Prop30
280
     1
102
RTVSPost2010PropOp30
 70
     1
102
RTVSPost2010Prop31
280
     0
102
RTVSPost2010PropOp31
 70
     1
102
RTVSPost2010Prop32
280
     0
102
RTVSPost2010PropOp32
 70
     1
102
RTVSPost2010Prop33
280
     0
102
RTVSPost2010PropOp33
 70
     1
102
RTVSPost2010Prop34
280
     0
102
RTVSPost2010PropOp34
 70
     1
102
RTVSPost2010Prop35
280
     0
102
RTVSPost2010PropOp35
 70
     1
102
RTVSPost2010Prop36
280
     0
102
RTVSPost2010PropOp36
 70
     1
102
RTVSPost2010Prop37
 90
       50
102
RTVSPost2010PropOp37
 70
     0
102
RTVSPost2010Prop38
140
0.0
102
RTVSPost2010PropOp38
 70
     0
102
RTVSPost2010Prop39
140
1.0
102
RTVSPost2010PropOp39
 70
     0
102
RTVSPost2010Prop40
 90
        0
102
RTVSPost2010PropOp40
 70
     0
102
RTVSPost2010Prop41ColorIndex
 90
       18
102
RTVSPost2010Prop41ColorRGB
 90
        0
102
RTVSPost2010PropOp41
 70
     0
102
RTVSPost2010Prop42
 90
       50
102
RTVSPost2010PropOp42
 70
     0
102
RTVSPost2010Prop43
 90
        3
102
RTVSPost2010PropOp43
 70
     0
102
RTVSPost2010Prop44ColorIndex
 90
        5
102
RTVSPost2010Prop44ColorRGB
 90
      255
102
RTVSPost2010PropOp44
 70
     0
102
RTVSPost2010Prop45
280
     0
102
RTVSPost2010PropOp45
 70
     1
102
RTVSPost2010Prop46
 90
       50
102
RTVSPost2010PropOp46
 70
     0
102
RTVSPost2010Prop47
 90
       50
102
RTVSPost2010PropOp47
 70
     0
102
RTVSPost2010Prop48
 90
       50
102
RTVSPost2010PropOp48
 70
     0
102
RTVSPost2010Prop49
280
     0
102
RTVSPost2010PropOp49
 70
     1
102
RTVSPost2010Prop50
 90
       50
102
RTVSPost2010PropOp50
 70
     0
102
RTVSPost2010Prop51ColorIndex
 90
      256
102
RTVSPost2010Prop51ColorRGB
 90
-16777216
102
RTVSPost2010PropOp51
 70
     0
102
RTVSPost2010Prop52
140
1.0
102
RTVSPost2010PropOp52
 70
     0
102
RTVSPost2010Prop53
 90
        2
102
RTVSPost2010PropOp53
 70
     0
102
RTVSPost2010Prop54
  1
strokes_ogs.tif
102
RTVSPost2010PropOp54
 70
     0
102
RTVSPost2010Prop55
280
     0
102
RTVSPost2010PropOp55
 70
     1
102
RTVSPost2010Prop56
140
1.0
102
RTVSPost2010PropOp56
 70
     0
102
RTVSPost2010Prop57
140
1.0
102
RTVSPost2010PropOp57
 70
     0
102
RTVSPropertyOp0
 70
     0
102
RTVSPropertyOp1
 70
     0
102
RTVSPropertyOp2
 70
     0
102
RTVSPropertyOp3
 70
     0
102
RTVSPropertyOp4
 70
     0
102
RTVSPropertyOp5
 70
     0
102
RTVSPropertyOp6
 70
     0
102
RTVSPropertyOp7
 70
     0
102
RTVSPropertyOp8
 70
     0
102
RTVSPropertyOp9
 70
     0
102
RTVSPropertyOp10
 70
     0
102
RTVSPropertyOp11
 70
     0
102
RTVSPropertyOp12
 70
     0
102
RTVSPropertyOp13
 70
     0
102
RTVSPropertyOp14
 70
     2
102
RTVSPropertyOp15
 70
     0
102
RTVSPropertyOp16
 70
     0
102
RTVSPropertyOp17
 70
     0
102
RTVSPropertyOp18
 70
     0
102
RTVSPropertyOp19
 70
     0
102
RTVSPropertyOp20
 70
     0
102
RTVSPropertyOp21
 70
     0
102
RTVSPropertyOp22
 70
     0
102
RTVSPropertyOp23
 70
     0
102
RTVSPropertyOp24
 70
     0
102
RTVSPropertyOp25
 70
     0
102
RTVSPropertyOp26
 70
     0
102
RTVSPropertyOp27
 70
     0
102
RTVSPropertyOp28
 70
     1
102
RTVSPropertyOp29
 70
     1
102
RTVSPropertyOp30
 70
     1
102
RTVSPropertyOp31
 70
     1
102
RTVSPropertyOp32
 70
     1
102
RTVSPropertyOp33
 70
     1
102
RTVSPropertyOp34
 70
     1
102
RTVSPropertyOp35
 70
     1
102
RTVSPropertyOp36
 70
     1
102
RTVSPropertyOp37
 70
     0
102
RTVSPropertyOp38
 70
     0
102
RTVSPropertyOp39
 70
     0
102
RTVSPropertyOp40
 70
     0
102
RTVSPropertyOp41
 70
     0
102
RTVSPropertyOp42
 70
     0
102
RTVSPropertyOp43
 70
     0
102
RTVSPropertyOp44
 70
     0
102
RTVSPropertyOp45
 70
     1
102
RTVSPropertyOp46
 70
     0
102
RTVSPropertyOp47
 70
     0
102
RTVSPropertyOp48
 70
     0
102
RTVSPropertyOp49
 70
     1
102
RTVSPropertyOp50
 70
     0
102
RTVSPropertyOp51
 70
     0
102
RTVSPropertyOp52
 70
     0
102
RTVSPropertyOp53
 70
     0
102
RTVSPropertyOp54
 70
     0
102
RTVSPropertyOp55
 70
     1
102
RTVSPropertyOp56
 70
     0
102
RTVSPropertyOp57
 70
     0
102
RTVSPropertyOp58
 70
     0
102
RTVSPropertyOp59
 70
     0
102
RTVSPropertyOp60
 70
     0
102
RTVSPropertyOp61
 70
     0
102
RTVSPropertyOp62
 70
     0
  0
XRECORD
  5
BD38
102
{ACAD_REACTORS
330
BD37
102
}
330
BD37
100
AcDbXrecord
280
     1
102
RTVSPost2010Prop28
280
     0
102
RTVSPost2010PropOp28
 70
     1
102
RTVSPost2010Prop29
280
     1
102
RTVSPost2010PropOp29
 70
     1
102
RTVSPost2010Prop30
280
     1
102
RTVSPost2010PropOp30
 70
     1
102
RTVSPost2010Prop31
280
     0
102
RTVSPost2010PropOp31
 70
     1
102
RTVSPost2010Prop32
280
     0
102
RTVSPost2010PropOp32
 70
     1
102
RTVSPost2010Prop33
280
     0
102
RTVSPost2010PropOp33
 70
     1
102
RTVSPost2010Prop34
280
     0
102
RTVSPost2010PropOp34
 70
     1
102
RTVSPost2010Prop35
280
     0
102
RTVSPost2010PropOp35
 70
     1
102
RTVSPost2010Prop36
280
     0
102
RTVSPost2010PropOp36
 70
     1
102
RTVSPost2010Prop37
 90
       50
102
RTVSPost2010PropOp37
 70
     1
102
RTVSPost2010Prop38
140
0.0
102
RTVSPost2010PropOp38
 70
     1
102
RTVSPost2010Prop39
140
1.0
102
RTVSPost2010PropOp39
 70
     1
102
RTVSPost2010Prop40
 90
        0
102
RTVSPost2010PropOp40
 70
     1
102
RTVSPost2010Prop41ColorIndex
 90
       18
102
RTVSPost2010Prop41ColorRGB
 90
        0
102
RTVSPost2010PropOp41
 70
     1
102
RTVSPost2010Prop42
 90
       50
102
RTVSPost2010PropOp42
 70
     1
102
RTVSPost2010Prop43
 90
        3
102
RTVSPost2010PropOp43
 70
     1
102
RTVSPost2010Prop44ColorIndex
 90
        5
102
RTVSPost2010Prop44ColorRGB
 90
      255
102
RTVSPost2010PropOp44
 70
     1
102
RTVSPost2010Prop45
280
     0
102
RTVSPost2010PropOp45
 70
     1
102
RTVSPost2010Prop46
 90
       50
102
RTVSPost2010PropOp46
 70
     1
102
RTVSPost2010Prop47
 90
       50
102
RTVSPost2010PropOp47
 70
     1
102
RTVSPost2010Prop48
 90
       50
102
RTVSPost2010PropOp48
 70
     1
102
RTVSPost2010Prop49
280
     0
102
RTVSPost2010PropOp49
 70
     1
102
RTVSPost2010Prop50
 90
       50
102
RTVSPost2010PropOp50
 70
     1
102
RTVSPost2010Prop51ColorIndex
 90
      256
102
RTVSPost2010Prop51ColorRGB
 90
-16777216
102
RTVSPost2010PropOp51
 70
     0
102
RTVSPost2010Prop52
140
1.0
102
RTVSPost2010PropOp52
 70
     0
102
RTVSPost2010Prop53
 90
        2
102
RTVSPost2010PropOp53
 70
     1
102
RTVSPost2010Prop54
  1
strokes_ogs.tif
102
RTVSPost2010PropOp54
 70
     1
102
RTVSPost2010Prop55
280
     0
102
RTVSPost2010PropOp55
 70
     1
102
RTVSPost2010Prop56
140
1.0
102
RTVSPost2010PropOp56
 70
     1
102
RTVSPost2010Prop57
140
1.0
102
RTVSPost2010PropOp57
 70
     1
102
RTVSPropertyOp0
 70
     1
102
RTVSPropertyOp1
 70
     1
102
RTVSPropertyOp2
 70
     1
102
RTVSPropertyOp3
 70
     1
102
RTVSPropertyOp4
 70
     1
102
RTVSPropertyOp5
 70
     1
102
RTVSPropertyOp6
 70
     1
102
RTVSPropertyOp7
 70
     1
102
RTVSPropertyOp8
 70
     1
102
RTVSPropertyOp9
 70
     1
102
RTVSPropertyOp10
 70
     1
102
RTVSPropertyOp11
 70
     1
102
RTVSPropertyOp12
 70
     1
102
RTVSPropertyOp13
 70
     1
102
RTVSPropertyOp14
 70
     1
102
RTVSPropertyOp15
 70
     1
102
RTVSPropertyOp16
 70
     1
102
RTVSPropertyOp17
 70
     1
102
RTVSPropertyOp18
 70
     1
102
RTVSPropertyOp19
 70
     1
102
RTVSPropertyOp20
 70
     1
102
RTVSPropertyOp21
 70
     1
102
RTVSPropertyOp22
 70
     1
102
RTVSPropertyOp23
 70
     1
102
RTVSPropertyOp24
 70
     1
102
RTVSPropertyOp25
 70
     1
102
RTVSPropertyOp26
 70
     1
102
RTVSPropertyOp27
 70
     1
102
RTVSPropertyOp28
 70
     1
102
RTVSPropertyOp29
 70
     1
102
RTVSPropertyOp30
 70
     1
102
RTVSPropertyOp31
 70
     1
102
RTVSPropertyOp32
 70
     1
102
RTVSPropertyOp33
 70
     1
102
RTVSPropertyOp34
 70
     1
102
RTVSPropertyOp35
 70
     1
102
RTVSPropertyOp36
 70
     1
102
RTVSPropertyOp37
 70
     1
102
RTVSPropertyOp38
 70
     1
102
RTVSPropertyOp39
 70
     1
102
RTVSPropertyOp40
 70
     1
102
RTVSPropertyOp41
 70
     1
102
RTVSPropertyOp42
 70
     1
102
RTVSPropertyOp43
 70
     1
102
RTVSPropertyOp44
 70
     1
102
RTVSPropertyOp45
 70
     1
102
RTVSPropertyOp46
 70
     1
102
RTVSPropertyOp47
 70
     1
102
RTVSPropertyOp48
 70
     1
102
RTVSPropertyOp49
 70
     1
102
RTVSPropertyOp50
 70
     1
102
RTVSPropertyOp51
 70
     0
102
RTVSPropertyOp52
 70
     0
102
RTVSPropertyOp53
 70
     1
102
RTVSPropertyOp54
 70
     1
102
RTVSPropertyOp55
 70
     1
102
RTVSPropertyOp56
 70
     1
102
RTVSPropertyOp57
 70
     1
102
RTVSPropertyOp58
 70
     1
102
RTVSPropertyOp59
 70
     1
102
RTVSPropertyOp60
 70
     1
102
RTVSPropertyOp61
 70
     1
102
RTVSPropertyOp62
 70
     1
  0
XRECORD
  5
BD4A
102
{ACAD_REACTORS
330
BD49
102
}
330
BD49
100
AcDbXrecord
280
     1
102
RTVSPost2010Prop28
280
     0
102
RTVSPost2010PropOp28
 70
     1
102
RTVSPost2010Prop29
280
     1
102
RTVSPost2010PropOp29
 70
     1
102
RTVSPost2010Prop30
280
     1
102
RTVSPost2010PropOp30
 70
     1
102
RTVSPost2010Prop31
280
     0
102
RTVSPost2010PropOp31
 70
     1
102
RTVSPost2010Prop32
280
     0
102
RTVSPost2010PropOp32
 70
     1
102
RTVSPost2010Prop33
280
     0
102
RTVSPost2010PropOp33
 70
     1
102
RTVSPost2010Prop34
280
     0
102
RTVSPost2010PropOp34
 70
     1
102
RTVSPost2010Prop35
280
     0
102
RTVSPost2010PropOp35
 70
     1
102
RTVSPost2010Prop36
280
     0
102
RTVSPost2010PropOp36
 70
     1
102
RTVSPost2010Prop37
 90
       50
102
RTVSPost2010PropOp37
 70
     0
102
RTVSPost2010Prop38
140
0.0
102
RTVSPost2010PropOp38
 70
     0
102
RTVSPost2010Prop39
140
1.0
102
RTVSPost2010PropOp39
 70
     0
102
RTVSPost2010Prop40
 90
        0
102
RTVSPost2010PropOp40
 70
     0
102
RTVSPost2010Prop41ColorIndex
 90
       18
102
RTVSPost2010Prop41ColorRGB
 90
        0
102
RTVSPost2010PropOp41
 70
     0
102
RTVSPost2010Prop42
 90
       50
102
RTVSPost2010PropOp42
 70
     0
102
RTVSPost2010Prop43
 90
        3
102
RTVSPost2010PropOp43
 70
     0
102
RTVSPost2010Prop44ColorIndex
 90
        5
102
RTVSPost2010Prop44ColorRGB
 90
      255
102
RTVSPost2010PropOp44
 70
     0
102
RTVSPost2010Prop45
280
     0
102
RTVSPost2010PropOp45
 70
     1
102
RTVSPost2010Prop46
 90
       50
102
RTVSPost2010PropOp46
 70
     0
102
RTVSPost2010Prop47
 90
       50
102
RTVSPost2010PropOp47
 70
     0
102
RTVSPost2010Prop48
 90
       50
102
RTVSPost2010PropOp48
 70
     0
102
RTVSPost2010Prop49
280
     0
102
RTVSPost2010PropOp49
 70
     1
102
RTVSPost2010Prop50
 90
       50
102
RTVSPost2010PropOp50
 70
     0
102
RTVSPost2010Prop51ColorIndex
 90
      256
102
RTVSPost2010Prop51ColorRGB
 90
-16777216
102
RTVSPost2010PropOp51
 70
     0
102
RTVSPost2010Prop52
140
1.0
102
RTVSPost2010PropOp52
 70
     0
102
RTVSPost2010Prop53
 90
        2
102
RTVSPost2010PropOp53
 70
     0
102
RTVSPost2010Prop54
  1
strokes_ogs.tif
102
RTVSPost2010PropOp54
 70
     0
102
RTVSPost2010Prop55
280
     0
102
RTVSPost2010PropOp55
 70
     1
102
RTVSPost2010Prop56
140
1.0
102
RTVSPost2010PropOp56
 70
     0
102
RTVSPost2010Prop57
140
1.0
102
RTVSPost2010PropOp57
 70
     0
102
RTVSPropertyOp0
 70
     0
102
RTVSPropertyOp1
 70
     0
102
RTVSPropertyOp2
 70
     0
102
RTVSPropertyOp3
 70
     0
102
RTVSPropertyOp4
 70
     0
102
RTVSPropertyOp5
 70
     0
102
RTVSPropertyOp6
 70
     0
102
RTVSPropertyOp7
 70
     0
102
RTVSPropertyOp8
 70
     0
102
RTVSPropertyOp9
 70
     0
102
RTVSPropertyOp10
 70
     0
102
RTVSPropertyOp11
 70
     0
102
RTVSPropertyOp12
 70
     0
102
RTVSPropertyOp13
 70
     0
102
RTVSPropertyOp14
 70
     2
102
RTVSPropertyOp15
 70
     0
102
RTVSPropertyOp16
 70
     0
102
RTVSPropertyOp17
 70
     0
102
RTVSPropertyOp18
 70
     0
102
RTVSPropertyOp19
 70
     0
102
RTVSPropertyOp20
 70
     0
102
RTVSPropertyOp21
 70
     0
102
RTVSPropertyOp22
 70
     0
102
RTVSPropertyOp23
 70
     0
102
RTVSPropertyOp24
 70
     0
102
RTVSPropertyOp25
 70
     0
102
RTVSPropertyOp26
 70
     0
102
RTVSPropertyOp27
 70
     0
102
RTVSPropertyOp28
 70
     1
102
RTVSPropertyOp29
 70
     1
102
RTVSPropertyOp30
 70
     1
102
RTVSPropertyOp31
 70
     1
102
RTVSPropertyOp32
 70
     1
102
RTVSPropertyOp33
 70
     1
102
RTVSPropertyOp34
 70
     1
102
RTVSPropertyOp35
 70
     1
102
RTVSPropertyOp36
 70
     1
102
RTVSPropertyOp37
 70
     0
102
RTVSPropertyOp38
 70
     0
102
RTVSPropertyOp39
 70
     0
102
RTVSPropertyOp40
 70
     0
102
RTVSPropertyOp41
 70
     0
102
RTVSPropertyOp42
 70
     0
102
RTVSPropertyOp43
 70
     0
102
RTVSPropertyOp44
 70
     0
102
RTVSPropertyOp45
 70
     1
102
RTVSPropertyOp46
 70
     0
102
RTVSPropertyOp47
 70
     0
102
RTVSPropertyOp48
 70
     0
102
RTVSPropertyOp49
 70
     1
102
RTVSPropertyOp50
 70
     0
102
RTVSPropertyOp51
 70
     0
102
RTVSPropertyOp52
 70
     0
102
RTVSPropertyOp53
 70
     0
102
RTVSPropertyOp54
 70
     0
102
RTVSPropertyOp55
 70
     1
102
RTVSPropertyOp56
 70
     0
102
RTVSPropertyOp57
 70
     0
102
RTVSPropertyOp58
 70
     0
102
RTVSPropertyOp59
 70
     0
102
RTVSPropertyOp60
 70
     0
102
RTVSPropertyOp61
 70
     0
102
RTVSPropertyOp62
 70
     0
  0
XRECORD
  5
BD30
102
{ACAD_REACTORS
330
BD2F
102
}
330
BD2F
100
AcDbXrecord
280
     1
102
RTVSPost2010Prop28
280
     0
102
RTVSPost2010PropOp28
 70
     1
102
RTVSPost2010Prop29
280
     1
102
RTVSPost2010PropOp29
 70
     1
102
RTVSPost2010Prop30
280
     1
102
RTVSPost2010PropOp30
 70
     1
102
RTVSPost2010Prop31
280
     0
102
RTVSPost2010PropOp31
 70
     1
102
RTVSPost2010Prop32
280
     0
102
RTVSPost2010PropOp32
 70
     1
102
RTVSPost2010Prop33
280
     0
102
RTVSPost2010PropOp33
 70
     1
102
RTVSPost2010Prop34
280
     0
102
RTVSPost2010PropOp34
 70
     1
102
RTVSPost2010Prop35
280
     0
102
RTVSPost2010PropOp35
 70
     1
102
RTVSPost2010Prop36
280
     0
102
RTVSPost2010PropOp36
 70
     1
102
RTVSPost2010Prop37
 90
       50
102
RTVSPost2010PropOp37
 70
     1
102
RTVSPost2010Prop38
140
0.0
102
RTVSPost2010PropOp38
 70
     1
102
RTVSPost2010Prop39
140
1.0
102
RTVSPost2010PropOp39
 70
     1
102
RTVSPost2010Prop40
 90
        0
102
RTVSPost2010PropOp40
 70
     1
102
RTVSPost2010Prop41ColorIndex
 90
       18
102
RTVSPost2010Prop41ColorRGB
 90
        0
102
RTVSPost2010PropOp41
 70
     1
102
RTVSPost2010Prop42
 90
       50
102
RTVSPost2010PropOp42
 70
     1
102
RTVSPost2010Prop43
 90
        3
102
RTVSPost2010PropOp43
 70
     1
102
RTVSPost2010Prop44ColorIndex
 90
        5
102
RTVSPost2010Prop44ColorRGB
 90
      255
102
RTVSPost2010PropOp44
 70
     1
102
RTVSPost2010Prop45
280
     0
102
RTVSPost2010PropOp45
 70
     1
102
RTVSPost2010Prop46
 90
       50
102
RTVSPost2010PropOp46
 70
     1
102
RTVSPost2010Prop47
 90
       50
102
RTVSPost2010PropOp47
 70
     1
102
RTVSPost2010Prop48
 90
       50
102
RTVSPost2010PropOp48
 70
     1
102
RTVSPost2010Prop49
280
     0
102
RTVSPost2010PropOp49
 70
     1
102
RTVSPost2010Prop50
 90
       50
102
RTVSPost2010PropOp50
 70
     1
102
RTVSPost2010Prop51ColorIndex
 90
      256
102
RTVSPost2010Prop51ColorRGB
 90
-16777216
102
RTVSPost2010PropOp51
 70
     0
102
RTVSPost2010Prop52
140
1.0
102
RTVSPost2010PropOp52
 70
     0
102
RTVSPost2010Prop53
 90
        2
102
RTVSPost2010PropOp53
 70
     1
102
RTVSPost2010Prop54
  1
strokes_ogs.tif
102
RTVSPost2010PropOp54
 70
     1
102
RTVSPost2010Prop55
280
     0
102
RTVSPost2010PropOp55
 70
     1
102
RTVSPost2010Prop56
140
1.0
102
RTVSPost2010PropOp56
 70
     1
102
RTVSPost2010Prop57
140
1.0
102
RTVSPost2010PropOp57
 70
     1
102
RTVSPropertyOp0
 70
     1
102
RTVSPropertyOp1
 70
     1
102
RTVSPropertyOp2
 70
     1
102
RTVSPropertyOp3
 70
     1
102
RTVSPropertyOp4
 70
     1
102
RTVSPropertyOp5
 70
     1
102
RTVSPropertyOp6
 70
     1
102
RTVSPropertyOp7
 70
     1
102
RTVSPropertyOp8
 70
     1
102
RTVSPropertyOp9
 70
     1
102
RTVSPropertyOp10
 70
     1
102
RTVSPropertyOp11
 70
     1
102
RTVSPropertyOp12
 70
     1
102
RTVSPropertyOp13
 70
     1
102
RTVSPropertyOp14
 70
     1
102
RTVSPropertyOp15
 70
     1
102
RTVSPropertyOp16
 70
     1
102
RTVSPropertyOp17
 70
     1
102
RTVSPropertyOp18
 70
     1
102
RTVSPropertyOp19
 70
     1
102
RTVSPropertyOp20
 70
     1
102
RTVSPropertyOp21
 70
     1
102
RTVSPropertyOp22
 70
     1
102
RTVSPropertyOp23
 70
     1
102
RTVSPropertyOp24
 70
     1
102
RTVSPropertyOp25
 70
     1
102
RTVSPropertyOp26
 70
     1
102
RTVSPropertyOp27
 70
     1
102
RTVSPropertyOp28
 70
     1
102
RTVSPropertyOp29
 70
     1
102
RTVSPropertyOp30
 70
     1
102
RTVSPropertyOp31
 70
     1
102
RTVSPropertyOp32
 70
     1
102
RTVSPropertyOp33
 70
     1
102
RTVSPropertyOp34
 70
     1
102
RTVSPropertyOp35
 70
     1
102
RTVSPropertyOp36
 70
     1
102
RTVSPropertyOp37
 70
     1
102
RTVSPropertyOp38
 70
     1
102
RTVSPropertyOp39
 70
     1
102
RTVSPropertyOp40
 70
     1
102
RTVSPropertyOp41
 70
     1
102
RTVSPropertyOp42
 70
     1
102
RTVSPropertyOp43
 70
     1
102
RTVSPropertyOp44
 70
     1
102
RTVSPropertyOp45
 70
     1
102
RTVSPropertyOp46
 70
     1
102
RTVSPropertyOp47
 70
     1
102
RTVSPropertyOp48
 70
     1
102
RTVSPropertyOp49
 70
     1
102
RTVSPropertyOp50
 70
     1
102
RTVSPropertyOp51
 70
     0
102
RTVSPropertyOp52
 70
     0
102
RTVSPropertyOp53
 70
     1
102
RTVSPropertyOp54
 70
     1
102
RTVSPropertyOp55
 70
     1
102
RTVSPropertyOp56
 70
     1
102
RTVSPropertyOp57
 70
     1
102
RTVSPropertyOp58
 70
     1
102
RTVSPropertyOp59
 70
     1
102
RTVSPropertyOp60
 70
     1
102
RTVSPropertyOp61
 70
     1
102
RTVSPropertyOp62
 70
     1
  0
XRECORD
  5
BD46
102
{ACAD_REACTORS
330
BD45
102
}
330
BD45
100
AcDbXrecord
280
     1
102
RTVSPost2010Prop28
280
     0
102
RTVSPost2010PropOp28
 70
     1
102
RTVSPost2010Prop29
280
     1
102
RTVSPost2010PropOp29
 70
     1
102
RTVSPost2010Prop30
280
     1
102
RTVSPost2010PropOp30
 70
     1
102
RTVSPost2010Prop31
280
     0
102
RTVSPost2010PropOp31
 70
     1
102
RTVSPost2010Prop32
280
     0
102
RTVSPost2010PropOp32
 70
     1
102
RTVSPost2010Prop33
280
     0
102
RTVSPost2010PropOp33
 70
     1
102
RTVSPost2010Prop34
280
     0
102
RTVSPost2010PropOp34
 70
     1
102
RTVSPost2010Prop35
280
     0
102
RTVSPost2010PropOp35
 70
     1
102
RTVSPost2010Prop36
280
     0
102
RTVSPost2010PropOp36
 70
     1
102
RTVSPost2010Prop37
 90
       50
102
RTVSPost2010PropOp37
 70
     1
102
RTVSPost2010Prop38
140
0.0
102
RTVSPost2010PropOp38
 70
     1
102
RTVSPost2010Prop39
140
1.0
102
RTVSPost2010PropOp39
 70
     1
102
RTVSPost2010Prop40
 90
        0
102
RTVSPost2010PropOp40
 70
     1
102
RTVSPost2010Prop41ColorIndex
 90
       18
102
RTVSPost2010Prop41ColorRGB
 90
        0
102
RTVSPost2010PropOp41
 70
     1
102
RTVSPost2010Prop42
 90
       50
102
RTVSPost2010PropOp42
 70
     1
102
RTVSPost2010Prop43
 90
        3
102
RTVSPost2010PropOp43
 70
     1
102
RTVSPost2010Prop44ColorIndex
 90
        5
102
RTVSPost2010Prop44ColorRGB
 90
      255
102
RTVSPost2010PropOp44
 70
     1
102
RTVSPost2010Prop45
280
     0
102
RTVSPost2010PropOp45
 70
     1
102
RTVSPost2010Prop46
 90
       50
102
RTVSPost2010PropOp46
 70
     1
102
RTVSPost2010Prop47
 90
       50
102
RTVSPost2010PropOp47
 70
     1
102
RTVSPost2010Prop48
 90
       50
102
RTVSPost2010PropOp48
 70
     1
102
RTVSPost2010Prop49
280
     0
102
RTVSPost2010PropOp49
 70
     1
102
RTVSPost2010Prop50
 90
       50
102
RTVSPost2010PropOp50
 70
     1
102
RTVSPost2010Prop51ColorIndex
 90
      256
102
RTVSPost2010Prop51ColorRGB
 90
-16777216
102
RTVSPost2010PropOp51
 70
     0
102
RTVSPost2010Prop52
140
1.0
102
RTVSPost2010PropOp52
 70
     0
102
RTVSPost2010Prop53
 90
        2
102
RTVSPost2010PropOp53
 70
     1
102
RTVSPost2010Prop54
  1
strokes_ogs.tif
102
RTVSPost2010PropOp54
 70
     1
102
RTVSPost2010Prop55
280
     0
102
RTVSPost2010PropOp55
 70
     1
102
RTVSPost2010Prop56
140
1.0
102
RTVSPost2010PropOp56
 70
     1
102
RTVSPost2010Prop57
140
1.0
102
RTVSPost2010PropOp57
 70
     1
102
RTVSPropertyOp0
 70
     1
102
RTVSPropertyOp1
 70
     1
102
RTVSPropertyOp2
 70
     1
102
RTVSPropertyOp3
 70
     1
102
RTVSPropertyOp4
 70
     1
102
RTVSPropertyOp5
 70
     1
102
RTVSPropertyOp6
 70
     1
102
RTVSPropertyOp7
 70
     1
102
RTVSPropertyOp8
 70
     1
102
RTVSPropertyOp9
 70
     1
102
RTVSPropertyOp10
 70
     1
102
RTVSPropertyOp11
 70
     1
102
RTVSPropertyOp12
 70
     1
102
RTVSPropertyOp13
 70
     1
102
RTVSPropertyOp14
 70
     1
102
RTVSPropertyOp15
 70
     1
102
RTVSPropertyOp16
 70
     1
102
RTVSPropertyOp17
 70
     1
102
RTVSPropertyOp18
 70
     1
102
RTVSPropertyOp19
 70
     1
102
RTVSPropertyOp20
 70
     1
102
RTVSPropertyOp21
 70
     1
102
RTVSPropertyOp22
 70
     1
102
RTVSPropertyOp23
 70
     1
102
RTVSPropertyOp24
 70
     1
102
RTVSPropertyOp25
 70
     1
102
RTVSPropertyOp26
 70
     1
102
RTVSPropertyOp27
 70
     1
102
RTVSPropertyOp28
 70
     1
102
RTVSPropertyOp29
 70
     1
102
RTVSPropertyOp30
 70
     1
102
RTVSPropertyOp31
 70
     1
102
RTVSPropertyOp32
 70
     1
102
RTVSPropertyOp33
 70
     1
102
RTVSPropertyOp34
 70
     1
102
RTVSPropertyOp35
 70
     1
102
RTVSPropertyOp36
 70
     1
102
RTVSPropertyOp37
 70
     1
102
RTVSPropertyOp38
 70
     1
102
RTVSPropertyOp39
 70
     1
102
RTVSPropertyOp40
 70
     1
102
RTVSPropertyOp41
 70
     1
102
RTVSPropertyOp42
 70
     1
102
RTVSPropertyOp43
 70
     1
102
RTVSPropertyOp44
 70
     1
102
RTVSPropertyOp45
 70
     1
102
RTVSPropertyOp46
 70
     1
102
RTVSPropertyOp47
 70
     1
102
RTVSPropertyOp48
 70
     1
102
RTVSPropertyOp49
 70
     1
102
RTVSPropertyOp50
 70
     1
102
RTVSPropertyOp51
 70
     0
102
RTVSPropertyOp52
 70
     0
102
RTVSPropertyOp53
 70
     1
102
RTVSPropertyOp54
 70
     1
102
RTVSPropertyOp55
 70
     1
102
RTVSPropertyOp56
 70
     1
102
RTVSPropertyOp57
 70
     1
102
RTVSPropertyOp58
 70
     1
102
RTVSPropertyOp59
 70
     1
102
RTVSPropertyOp60
 70
     1
102
RTVSPropertyOp61
 70
     1
102
RTVSPropertyOp62
 70
     1
  0
XRECORD
  5
BD44
102
{ACAD_REACTORS
330
BD43
102
}
330
BD43
100
AcDbXrecord
280
     1
102
RTVSPost2010Prop28
280
     0
102
RTVSPost2010PropOp28
 70
     1
102
RTVSPost2010Prop29
280
     1
102
RTVSPost2010PropOp29
 70
     1
102
RTVSPost2010Prop30
280
     1
102
RTVSPost2010PropOp30
 70
     1
102
RTVSPost2010Prop31
280
     0
102
RTVSPost2010PropOp31
 70
     1
102
RTVSPost2010Prop32
280
     0
102
RTVSPost2010PropOp32
 70
     1
102
RTVSPost2010Prop33
280
     0
102
RTVSPost2010PropOp33
 70
     1
102
RTVSPost2010Prop34
280
     0
102
RTVSPost2010PropOp34
 70
     1
102
RTVSPost2010Prop35
280
     0
102
RTVSPost2010PropOp35
 70
     1
102
RTVSPost2010Prop36
280
     0
102
RTVSPost2010PropOp36
 70
     1
102
RTVSPost2010Prop37
 90
       50
102
RTVSPost2010PropOp37
 70
     1
102
RTVSPost2010Prop38
140
0.0
102
RTVSPost2010PropOp38
 70
     1
102
RTVSPost2010Prop39
140
1.0
102
RTVSPost2010PropOp39
 70
     1
102
RTVSPost2010Prop40
 90
        0
102
RTVSPost2010PropOp40
 70
     1
102
RTVSPost2010Prop41ColorIndex
 90
       18
102
RTVSPost2010Prop41ColorRGB
 90
        0
102
RTVSPost2010PropOp41
 70
     1
102
RTVSPost2010Prop42
 90
       50
102
RTVSPost2010PropOp42
 70
     1
102
RTVSPost2010Prop43
 90
        3
102
RTVSPost2010PropOp43
 70
     1
102
RTVSPost2010Prop44ColorIndex
 90
        5
102
RTVSPost2010Prop44ColorRGB
 90
      255
102
RTVSPost2010PropOp44
 70
     1
102
RTVSPost2010Prop45
280
     0
102
RTVSPost2010PropOp45
 70
     1
102
RTVSPost2010Prop46
 90
       50
102
RTVSPost2010PropOp46
 70
     1
102
RTVSPost2010Prop47
 90
       50
102
RTVSPost2010PropOp47
 70
     1
102
RTVSPost2010Prop48
 90
       50
102
RTVSPost2010PropOp48
 70
     1
102
RTVSPost2010Prop49
280
     0
102
RTVSPost2010PropOp49
 70
     1
102
RTVSPost2010Prop50
 90
       50
102
RTVSPost2010PropOp50
 70
     1
102
RTVSPost2010Prop51ColorIndex
 90
      256
102
RTVSPost2010Prop51ColorRGB
 90
-16777216
102
RTVSPost2010PropOp51
 70
     0
102
RTVSPost2010Prop52
140
1.0
102
RTVSPost2010PropOp52
 70
     0
102
RTVSPost2010Prop53
 90
        2
102
RTVSPost2010PropOp53
 70
     1
102
RTVSPost2010Prop54
  1
strokes_ogs.tif
102
RTVSPost2010PropOp54
 70
     1
102
RTVSPost2010Prop55
280
     0
102
RTVSPost2010PropOp55
 70
     1
102
RTVSPost2010Prop56
140
1.0
102
RTVSPost2010PropOp56
 70
     1
102
RTVSPost2010Prop57
140
1.0
102
RTVSPost2010PropOp57
 70
     1
102
RTVSPropertyOp0
 70
     1
102
RTVSPropertyOp1
 70
     1
102
RTVSPropertyOp2
 70
     1
102
RTVSPropertyOp3
 70
     1
102
RTVSPropertyOp4
 70
     1
102
RTVSPropertyOp5
 70
     1
102
RTVSPropertyOp6
 70
     1
102
RTVSPropertyOp7
 70
     1
102
RTVSPropertyOp8
 70
     1
102
RTVSPropertyOp9
 70
     1
102
RTVSPropertyOp10
 70
     1
102
RTVSPropertyOp11
 70
     1
102
RTVSPropertyOp12
 70
     1
102
RTVSPropertyOp13
 70
     1
102
RTVSPropertyOp14
 70
     1
102
RTVSPropertyOp15
 70
     1
102
RTVSPropertyOp16
 70
     1
102
RTVSPropertyOp17
 70
     1
102
RTVSPropertyOp18
 70
     1
102
RTVSPropertyOp19
 70
     1
102
RTVSPropertyOp20
 70
     1
102
RTVSPropertyOp21
 70
     1
102
RTVSPropertyOp22
 70
     1
102
RTVSPropertyOp23
 70
     1
102
RTVSPropertyOp24
 70
     1
102
RTVSPropertyOp25
 70
     1
102
RTVSPropertyOp26
 70
     1
102
RTVSPropertyOp27
 70
     1
102
RTVSPropertyOp28
 70
     1
102
RTVSPropertyOp29
 70
     1
102
RTVSPropertyOp30
 70
     1
102
RTVSPropertyOp31
 70
     1
102
RTVSPropertyOp32
 70
     1
102
RTVSPropertyOp33
 70
     1
102
RTVSPropertyOp34
 70
     1
102
RTVSPropertyOp35
 70
     1
102
RTVSPropertyOp36
 70
     1
102
RTVSPropertyOp37
 70
     1
102
RTVSPropertyOp38
 70
     1
102
RTVSPropertyOp39
 70
     1
102
RTVSPropertyOp40
 70
     1
102
RTVSPropertyOp41
 70
     1
102
RTVSPropertyOp42
 70
     1
102
RTVSPropertyOp43
 70
     1
102
RTVSPropertyOp44
 70
     1
102
RTVSPropertyOp45
 70
     1
102
RTVSPropertyOp46
 70
     1
102
RTVSPropertyOp47
 70
     1
102
RTVSPropertyOp48
 70
     1
102
RTVSPropertyOp49
 70
     1
102
RTVSPropertyOp50
 70
     1
102
RTVSPropertyOp51
 70
     0
102
RTVSPropertyOp52
 70
     0
102
RTVSPropertyOp53
 70
     1
102
RTVSPropertyOp54
 70
     1
102
RTVSPropertyOp55
 70
     1
102
RTVSPropertyOp56
 70
     1
102
RTVSPropertyOp57
 70
     1
102
RTVSPropertyOp58
 70
     1
102
RTVSPropertyOp59
 70
     1
102
RTVSPropertyOp60
 70
     1
102
RTVSPropertyOp61
 70
     1
102
RTVSPropertyOp62
 70
     1
  0
XRECORD
  5
BD3E
102
{ACAD_REACTORS
330
BD3D
102
}
330
BD3D
100
AcDbXrecord
280
     1
102
RTVSPost2010Prop28
280
     0
102
RTVSPost2010PropOp28
 70
     1
102
RTVSPost2010Prop29
280
     1
102
RTVSPost2010PropOp29
 70
     1
102
RTVSPost2010Prop30
280
     1
102
RTVSPost2010PropOp30
 70
     1
102
RTVSPost2010Prop31
280
     0
102
RTVSPost2010PropOp31
 70
     1
102
RTVSPost2010Prop32
280
     0
102
RTVSPost2010PropOp32
 70
     1
102
RTVSPost2010Prop33
280
     0
102
RTVSPost2010PropOp33
 70
     1
102
RTVSPost2010Prop34
280
     0
102
RTVSPost2010PropOp34
 70
     1
102
RTVSPost2010Prop35
280
     0
102
RTVSPost2010PropOp35
 70
     1
102
RTVSPost2010Prop36
280
     0
102
RTVSPost2010PropOp36
 70
     1
102
RTVSPost2010Prop37
 90
       50
102
RTVSPost2010PropOp37
 70
     1
102
RTVSPost2010Prop38
140
0.0
102
RTVSPost2010PropOp38
 70
     1
102
RTVSPost2010Prop39
140
1.0
102
RTVSPost2010PropOp39
 70
     1
102
RTVSPost2010Prop40
 90
        0
102
RTVSPost2010PropOp40
 70
     1
102
RTVSPost2010Prop41ColorIndex
 90
       18
102
RTVSPost2010Prop41ColorRGB
 90
        0
102
RTVSPost2010PropOp41
 70
     1
102
RTVSPost2010Prop42
 90
       50
102
RTVSPost2010PropOp42
 70
     1
102
RTVSPost2010Prop43
 90
        3
102
RTVSPost2010PropOp43
 70
     1
102
RTVSPost2010Prop44ColorIndex
 90
        5
102
RTVSPost2010Prop44ColorRGB
 90
      255
102
RTVSPost2010PropOp44
 70
     1
102
RTVSPost2010Prop45
280
     0
102
RTVSPost2010PropOp45
 70
     1
102
RTVSPost2010Prop46
 90
       50
102
RTVSPost2010PropOp46
 70
     1
102
RTVSPost2010Prop47
 90
       50
102
RTVSPost2010PropOp47
 70
     1
102
RTVSPost2010Prop48
 90
       50
102
RTVSPost2010PropOp48
 70
     1
102
RTVSPost2010Prop49
280
     0
102
RTVSPost2010PropOp49
 70
     1
102
RTVSPost2010Prop50
 90
       50
102
RTVSPost2010PropOp50
 70
     1
102
RTVSPost2010Prop51ColorIndex
 90
      256
102
RTVSPost2010Prop51ColorRGB
 90
-16777216
102
RTVSPost2010PropOp51
 70
     0
102
RTVSPost2010Prop52
140
1.0
102
RTVSPost2010PropOp52
 70
     0
102
RTVSPost2010Prop53
 90
        2
102
RTVSPost2010PropOp53
 70
     1
102
RTVSPost2010Prop54
  1
strokes_ogs.tif
102
RTVSPost2010PropOp54
 70
     1
102
RTVSPost2010Prop55
280
     0
102
RTVSPost2010PropOp55
 70
     1
102
RTVSPost2010Prop56
140
1.0
102
RTVSPost2010PropOp56
 70
     1
102
RTVSPost2010Prop57
140
1.0
102
RTVSPost2010PropOp57
 70
     1
102
RTVSPropertyOp0
 70
     1
102
RTVSPropertyOp1
 70
     1
102
RTVSPropertyOp2
 70
     1
102
RTVSPropertyOp3
 70
     1
102
RTVSPropertyOp4
 70
     1
102
RTVSPropertyOp5
 70
     1
102
RTVSPropertyOp6
 70
     1
102
RTVSPropertyOp7
 70
     1
102
RTVSPropertyOp8
 70
     1
102
RTVSPropertyOp9
 70
     1
102
RTVSPropertyOp10
 70
     1
102
RTVSPropertyOp11
 70
     1
102
RTVSPropertyOp12
 70
     1
102
RTVSPropertyOp13
 70
     1
102
RTVSPropertyOp14
 70
     1
102
RTVSPropertyOp15
 70
     1
102
RTVSPropertyOp16
 70
     1
102
RTVSPropertyOp17
 70
     1
102
RTVSPropertyOp18
 70
     1
102
RTVSPropertyOp19
 70
     1
102
RTVSPropertyOp20
 70
     1
102
RTVSPropertyOp21
 70
     1
102
RTVSPropertyOp22
 70
     1
102
RTVSPropertyOp23
 70
     1
102
RTVSPropertyOp24
 70
     1
102
RTVSPropertyOp25
 70
     1
102
RTVSPropertyOp26
 70
     1
102
RTVSPropertyOp27
 70
     1
102
RTVSPropertyOp28
 70
     1
102
RTVSPropertyOp29
 70
     1
102
RTVSPropertyOp30
 70
     1
102
RTVSPropertyOp31
 70
     1
102
RTVSPropertyOp32
 70
     1
102
RTVSPropertyOp33
 70
     1
102
RTVSPropertyOp34
 70
     1
102
RTVSPropertyOp35
 70
     1
102
RTVSPropertyOp36
 70
     1
102
RTVSPropertyOp37
 70
     1
102
RTVSPropertyOp38
 70
     1
102
RTVSPropertyOp39
 70
     1
102
RTVSPropertyOp40
 70
     1
102
RTVSPropertyOp41
 70
     1
102
RTVSPropertyOp42
 70
     1
102
RTVSPropertyOp43
 70
     1
102
RTVSPropertyOp44
 70
     1
102
RTVSPropertyOp45
 70
     1
102
RTVSPropertyOp46
 70
     1
102
RTVSPropertyOp47
 70
     1
102
RTVSPropertyOp48
 70
     1
102
RTVSPropertyOp49
 70
     1
102
RTVSPropertyOp50
 70
     1
102
RTVSPropertyOp51
 70
     0
102
RTVSPropertyOp52
 70
     0
102
RTVSPropertyOp53
 70
     1
102
RTVSPropertyOp54
 70
     1
102
RTVSPropertyOp55
 70
     1
102
RTVSPropertyOp56
 70
     1
102
RTVSPropertyOp57
 70
     1
102
RTVSPropertyOp58
 70
     1
102
RTVSPropertyOp59
 70
     1
102
RTVSPropertyOp60
 70
     1
102
RTVSPropertyOp61
 70
     1
102
RTVSPropertyOp62
 70
     1
  0
XRECORD
  5
BD40
102
{ACAD_REACTORS
330
BD3F
102
}
330
BD3F
100
AcDbXrecord
280
     1
102
RTVSPost2010Prop28
280
     0
102
RTVSPost2010PropOp28
 70
     1
102
RTVSPost2010Prop29
280
     1
102
RTVSPost2010PropOp29
 70
     1
102
RTVSPost2010Prop30
280
     1
102
RTVSPost2010PropOp30
 70
     1
102
RTVSPost2010Prop31
280
     0
102
RTVSPost2010PropOp31
 70
     1
102
RTVSPost2010Prop32
280
     0
102
RTVSPost2010PropOp32
 70
     1
102
RTVSPost2010Prop33
280
     0
102
RTVSPost2010PropOp33
 70
     1
102
RTVSPost2010Prop34
280
     0
102
RTVSPost2010PropOp34
 70
     1
102
RTVSPost2010Prop35
280
     0
102
RTVSPost2010PropOp35
 70
     1
102
RTVSPost2010Prop36
280
     0
102
RTVSPost2010PropOp36
 70
     1
102
RTVSPost2010Prop37
 90
       50
102
RTVSPost2010PropOp37
 70
     1
102
RTVSPost2010Prop38
140
0.0
102
RTVSPost2010PropOp38
 70
     1
102
RTVSPost2010Prop39
140
1.0
102
RTVSPost2010PropOp39
 70
     1
102
RTVSPost2010Prop40
 90
        0
102
RTVSPost2010PropOp40
 70
     1
102
RTVSPost2010Prop41ColorIndex
 90
       18
102
RTVSPost2010Prop41ColorRGB
 90
        0
102
RTVSPost2010PropOp41
 70
     1
102
RTVSPost2010Prop42
 90
       50
102
RTVSPost2010PropOp42
 70
     1
102
RTVSPost2010Prop43
 90
        3
102
RTVSPost2010PropOp43
 70
     1
102
RTVSPost2010Prop44ColorIndex
 90
        5
102
RTVSPost2010Prop44ColorRGB
 90
      255
102
RTVSPost2010PropOp44
 70
     1
102
RTVSPost2010Prop45
280
     0
102
RTVSPost2010PropOp45
 70
     1
102
RTVSPost2010Prop46
 90
       50
102
RTVSPost2010PropOp46
 70
     1
102
RTVSPost2010Prop47
 90
       50
102
RTVSPost2010PropOp47
 70
     1
102
RTVSPost2010Prop48
 90
       50
102
RTVSPost2010PropOp48
 70
     1
102
RTVSPost2010Prop49
280
     0
102
RTVSPost2010PropOp49
 70
     1
102
RTVSPost2010Prop50
 90
       50
102
RTVSPost2010PropOp50
 70
     1
102
RTVSPost2010Prop51ColorIndex
 90
      256
102
RTVSPost2010Prop51ColorRGB
 90
-16777216
102
RTVSPost2010PropOp51
 70
     0
102
RTVSPost2010Prop52
140
1.0
102
RTVSPost2010PropOp52
 70
     0
102
RTVSPost2010Prop53
 90
        2
102
RTVSPost2010PropOp53
 70
     1
102
RTVSPost2010Prop54
  1
strokes_ogs.tif
102
RTVSPost2010PropOp54
 70
     1
102
RTVSPost2010Prop55
280
     0
102
RTVSPost2010PropOp55
 70
     1
102
RTVSPost2010Prop56
140
1.0
102
RTVSPost2010PropOp56
 70
     1
102
RTVSPost2010Prop57
140
1.0
102
RTVSPost2010PropOp57
 70
     1
102
RTVSPropertyOp0
 70
     1
102
RTVSPropertyOp1
 70
     1
102
RTVSPropertyOp2
 70
     1
102
RTVSPropertyOp3
 70
     1
102
RTVSPropertyOp4
 70
     1
102
RTVSPropertyOp5
 70
     1
102
RTVSPropertyOp6
 70
     1
102
RTVSPropertyOp7
 70
     1
102
RTVSPropertyOp8
 70
     1
102
RTVSPropertyOp9
 70
     1
102
RTVSPropertyOp10
 70
     1
102
RTVSPropertyOp11
 70
     1
102
RTVSPropertyOp12
 70
     1
102
RTVSPropertyOp13
 70
     1
102
RTVSPropertyOp14
 70
     1
102
RTVSPropertyOp15
 70
     1
102
RTVSPropertyOp16
 70
     1
102
RTVSPropertyOp17
 70
     1
102
RTVSPropertyOp18
 70
     1
102
RTVSPropertyOp19
 70
     1
102
RTVSPropertyOp20
 70
     1
102
RTVSPropertyOp21
 70
     1
102
RTVSPropertyOp22
 70
     1
102
RTVSPropertyOp23
 70
     1
102
RTVSPropertyOp24
 70
     1
102
RTVSPropertyOp25
 70
     1
102
RTVSPropertyOp26
 70
     1
102
RTVSPropertyOp27
 70
     1
102
RTVSPropertyOp28
 70
     1
102
RTVSPropertyOp29
 70
     1
102
RTVSPropertyOp30
 70
     1
102
RTVSPropertyOp31
 70
     1
102
RTVSPropertyOp32
 70
     1
102
RTVSPropertyOp33
 70
     1
102
RTVSPropertyOp34
 70
     1
102
RTVSPropertyOp35
 70
     1
102
RTVSPropertyOp36
 70
     1
102
RTVSPropertyOp37
 70
     1
102
RTVSPropertyOp38
 70
     1
102
RTVSPropertyOp39
 70
     1
102
RTVSPropertyOp40
 70
     1
102
RTVSPropertyOp41
 70
     1
102
RTVSPropertyOp42
 70
     1
102
RTVSPropertyOp43
 70
     1
102
RTVSPropertyOp44
 70
     1
102
RTVSPropertyOp45
 70
     1
102
RTVSPropertyOp46
 70
     1
102
RTVSPropertyOp47
 70
     1
102
RTVSPropertyOp48
 70
     1
102
RTVSPropertyOp49
 70
     1
102
RTVSPropertyOp50
 70
     1
102
RTVSPropertyOp51
 70
     0
102
RTVSPropertyOp52
 70
     0
102
RTVSPropertyOp53
 70
     1
102
RTVSPropertyOp54
 70
     1
102
RTVSPropertyOp55
 70
     1
102
RTVSPropertyOp56
 70
     1
102
RTVSPropertyOp57
 70
     1
102
RTVSPropertyOp58
 70
     1
102
RTVSPropertyOp59
 70
     1
102
RTVSPropertyOp60
 70
     1
102
RTVSPropertyOp61
 70
     1
102
RTVSPropertyOp62
 70
     1
  0
XRECORD
  5
BD36
102
{ACAD_REACTORS
330
BD35
102
}
330
BD35
100
AcDbXrecord
280
     1
102
RTVSPost2010Prop28
280
     0
102
RTVSPost2010PropOp28
 70
     1
102
RTVSPost2010Prop29
280
     1
102
RTVSPost2010PropOp29
 70
     1
102
RTVSPost2010Prop30
280
     1
102
RTVSPost2010PropOp30
 70
     1
102
RTVSPost2010Prop31
280
     0
102
RTVSPost2010PropOp31
 70
     1
102
RTVSPost2010Prop32
280
     0
102
RTVSPost2010PropOp32
 70
     1
102
RTVSPost2010Prop33
280
     0
102
RTVSPost2010PropOp33
 70
     1
102
RTVSPost2010Prop34
280
     0
102
RTVSPost2010PropOp34
 70
     1
102
RTVSPost2010Prop35
280
     0
102
RTVSPost2010PropOp35
 70
     1
102
RTVSPost2010Prop36
280
     0
102
RTVSPost2010PropOp36
 70
     1
102
RTVSPost2010Prop37
 90
       50
102
RTVSPost2010PropOp37
 70
     1
102
RTVSPost2010Prop38
140
0.0
102
RTVSPost2010PropOp38
 70
     1
102
RTVSPost2010Prop39
140
1.0
102
RTVSPost2010PropOp39
 70
     1
102
RTVSPost2010Prop40
 90
        0
102
RTVSPost2010PropOp40
 70
     1
102
RTVSPost2010Prop41ColorIndex
 90
       18
102
RTVSPost2010Prop41ColorRGB
 90
        0
102
RTVSPost2010PropOp41
 70
     1
102
RTVSPost2010Prop42
 90
       50
102
RTVSPost2010PropOp42
 70
     1
102
RTVSPost2010Prop43
 90
        3
102
RTVSPost2010PropOp43
 70
     1
102
RTVSPost2010Prop44ColorIndex
 90
        5
102
RTVSPost2010Prop44ColorRGB
 90
      255
102
RTVSPost2010PropOp44
 70
     1
102
RTVSPost2010Prop45
280
     0
102
RTVSPost2010PropOp45
 70
     1
102
RTVSPost2010Prop46
 90
       50
102
RTVSPost2010PropOp46
 70
     1
102
RTVSPost2010Prop47
 90
       50
102
RTVSPost2010PropOp47
 70
     1
102
RTVSPost2010Prop48
 90
       50
102
RTVSPost2010PropOp48
 70
     1
102
RTVSPost2010Prop49
280
     0
102
RTVSPost2010PropOp49
 70
     1
102
RTVSPost2010Prop50
 90
       50
102
RTVSPost2010PropOp50
 70
     1
102
RTVSPost2010Prop51ColorIndex
 90
      256
102
RTVSPost2010Prop51ColorRGB
 90
-16777216
102
RTVSPost2010PropOp51
 70
     0
102
RTVSPost2010Prop52
140
1.0
102
RTVSPost2010PropOp52
 70
     0
102
RTVSPost2010Prop53
 90
        2
102
RTVSPost2010PropOp53
 70
     1
102
RTVSPost2010Prop54
  1
strokes_ogs.tif
102
RTVSPost2010PropOp54
 70
     1
102
RTVSPost2010Prop55
280
     0
102
RTVSPost2010PropOp55
 70
     1
102
RTVSPost2010Prop56
140
1.0
102
RTVSPost2010PropOp56
 70
     1
102
RTVSPost2010Prop57
140
1.0
102
RTVSPost2010PropOp57
 70
     1
102
RTVSPropertyOp0
 70
     1
102
RTVSPropertyOp1
 70
     1
102
RTVSPropertyOp2
 70
     1
102
RTVSPropertyOp3
 70
     1
102
RTVSPropertyOp4
 70
     1
102
RTVSPropertyOp5
 70
     1
102
RTVSPropertyOp6
 70
     1
102
RTVSPropertyOp7
 70
     1
102
RTVSPropertyOp8
 70
     1
102
RTVSPropertyOp9
 70
     1
102
RTVSPropertyOp10
 70
     1
102
RTVSPropertyOp11
 70
     1
102
RTVSPropertyOp12
 70
     1
102
RTVSPropertyOp13
 70
     1
102
RTVSPropertyOp14
 70
     1
102
RTVSPropertyOp15
 70
     1
102
RTVSPropertyOp16
 70
     1
102
RTVSPropertyOp17
 70
     1
102
RTVSPropertyOp18
 70
     1
102
RTVSPropertyOp19
 70
     1
102
RTVSPropertyOp20
 70
     1
102
RTVSPropertyOp21
 70
     1
102
RTVSPropertyOp22
 70
     1
102
RTVSPropertyOp23
 70
     1
102
RTVSPropertyOp24
 70
     1
102
RTVSPropertyOp25
 70
     1
102
RTVSPropertyOp26
 70
     1
102
RTVSPropertyOp27
 70
     1
102
RTVSPropertyOp28
 70
     1
102
RTVSPropertyOp29
 70
     1
102
RTVSPropertyOp30
 70
     1
102
RTVSPropertyOp31
 70
     1
102
RTVSPropertyOp32
 70
     1
102
RTVSPropertyOp33
 70
     1
102
RTVSPropertyOp34
 70
     1
102
RTVSPropertyOp35
 70
     1
102
RTVSPropertyOp36
 70
     1
102
RTVSPropertyOp37
 70
     1
102
RTVSPropertyOp38
 70
     1
102
RTVSPropertyOp39
 70
     1
102
RTVSPropertyOp40
 70
     1
102
RTVSPropertyOp41
 70
     1
102
RTVSPropertyOp42
 70
     1
102
RTVSPropertyOp43
 70
     1
102
RTVSPropertyOp44
 70
     1
102
RTVSPropertyOp45
 70
     1
102
RTVSPropertyOp46
 70
     1
102
RTVSPropertyOp47
 70
     1
102
RTVSPropertyOp48
 70
     1
102
RTVSPropertyOp49
 70
     1
102
RTVSPropertyOp50
 70
     1
102
RTVSPropertyOp51
 70
     0
102
RTVSPropertyOp52
 70
     0
102
RTVSPropertyOp53
 70
     1
102
RTVSPropertyOp54
 70
     1
102
RTVSPropertyOp55
 70
     1
102
RTVSPropertyOp56
 70
     1
102
RTVSPropertyOp57
 70
     1
102
RTVSPropertyOp58
 70
     1
102
RTVSPropertyOp59
 70
     1
102
RTVSPropertyOp60
 70
     1
102
RTVSPropertyOp61
 70
     1
102
RTVSPropertyOp62
 70
     1
  0
XRECORD
  5
BD2A
102
{ACAD_REACTORS
330
BD29
102
}
330
BD29
100
AcDbXrecord
280
     1
102
RTVSPost2010Prop28
280
     0
102
RTVSPost2010PropOp28
 70
     1
102
RTVSPost2010Prop29
280
     1
102
RTVSPost2010PropOp29
 70
     1
102
RTVSPost2010Prop30
280
     1
102
RTVSPost2010PropOp30
 70
     1
102
RTVSPost2010Prop31
280
     0
102
RTVSPost2010PropOp31
 70
     1
102
RTVSPost2010Prop32
280
     0
102
RTVSPost2010PropOp32
 70
     1
102
RTVSPost2010Prop33
280
     0
102
RTVSPost2010PropOp33
 70
     1
102
RTVSPost2010Prop34
280
     0
102
RTVSPost2010PropOp34
 70
     1
102
RTVSPost2010Prop35
280
     0
102
RTVSPost2010PropOp35
 70
     1
102
RTVSPost2010Prop36
280
     0
102
RTVSPost2010PropOp36
 70
     1
102
RTVSPost2010Prop37
 90
       50
102
RTVSPost2010PropOp37
 70
     1
102
RTVSPost2010Prop38
140
0.0
102
RTVSPost2010PropOp38
 70
     1
102
RTVSPost2010Prop39
140
1.0
102
RTVSPost2010PropOp39
 70
     1
102
RTVSPost2010Prop40
 90
        0
102
RTVSPost2010PropOp40
 70
     1
102
RTVSPost2010Prop41ColorIndex
 90
       18
102
RTVSPost2010Prop41ColorRGB
 90
        0
102
RTVSPost2010PropOp41
 70
     1
102
RTVSPost2010Prop42
 90
       50
102
RTVSPost2010PropOp42
 70
     1
102
RTVSPost2010Prop43
 90
        3
102
RTVSPost2010PropOp43
 70
     1
102
RTVSPost2010Prop44ColorIndex
 90
        5
102
RTVSPost2010Prop44ColorRGB
 90
      255
102
RTVSPost2010PropOp44
 70
     1
102
RTVSPost2010Prop45
280
     0
102
RTVSPost2010PropOp45
 70
     1
102
RTVSPost2010Prop46
 90
       50
102
RTVSPost2010PropOp46
 70
     1
102
RTVSPost2010Prop47
 90
       50
102
RTVSPost2010PropOp47
 70
     1
102
RTVSPost2010Prop48
 90
       50
102
RTVSPost2010PropOp48
 70
     1
102
RTVSPost2010Prop49
280
     0
102
RTVSPost2010PropOp49
 70
     1
102
RTVSPost2010Prop50
 90
       50
102
RTVSPost2010PropOp50
 70
     1
102
RTVSPost2010Prop51ColorIndex
 90
      256
102
RTVSPost2010Prop51ColorRGB
 90
-16777216
102
RTVSPost2010PropOp51
 70
     0
102
RTVSPost2010Prop52
140
1.0
102
RTVSPost2010PropOp52
 70
     0
102
RTVSPost2010Prop53
 90
        2
102
RTVSPost2010PropOp53
 70
     1
102
RTVSPost2010Prop54
  1
strokes_ogs.tif
102
RTVSPost2010PropOp54
 70
     1
102
RTVSPost2010Prop55
280
     0
102
RTVSPost2010PropOp55
 70
     1
102
RTVSPost2010Prop56
140
1.0
102
RTVSPost2010PropOp56
 70
     1
102
RTVSPost2010Prop57
140
1.0
102
RTVSPost2010PropOp57
 70
     1
102
RTVSPropertyOp0
 70
     1
102
RTVSPropertyOp1
 70
     1
102
RTVSPropertyOp2
 70
     1
102
RTVSPropertyOp3
 70
     1
102
RTVSPropertyOp4
 70
     1
102
RTVSPropertyOp5
 70
     1
102
RTVSPropertyOp6
 70
     1
102
RTVSPropertyOp7
 70
     1
102
RTVSPropertyOp8
 70
     1
102
RTVSPropertyOp9
 70
     1
102
RTVSPropertyOp10
 70
     1
102
RTVSPropertyOp11
 70
     1
102
RTVSPropertyOp12
 70
     1
102
RTVSPropertyOp13
 70
     1
102
RTVSPropertyOp14
 70
     1
102
RTVSPropertyOp15
 70
     1
102
RTVSPropertyOp16
 70
     1
102
RTVSPropertyOp17
 70
     1
102
RTVSPropertyOp18
 70
     1
102
RTVSPropertyOp19
 70
     1
102
RTVSPropertyOp20
 70
     1
102
RTVSPropertyOp21
 70
     1
102
RTVSPropertyOp22
 70
     1
102
RTVSPropertyOp23
 70
     1
102
RTVSPropertyOp24
 70
     1
102
RTVSPropertyOp25
 70
     1
102
RTVSPropertyOp26
 70
     1
102
RTVSPropertyOp27
 70
     1
102
RTVSPropertyOp28
 70
     1
102
RTVSPropertyOp29
 70
     1
102
RTVSPropertyOp30
 70
     1
102
RTVSPropertyOp31
 70
     1
102
RTVSPropertyOp32
 70
     1
102
RTVSPropertyOp33
 70
     1
102
RTVSPropertyOp34
 70
     1
102
RTVSPropertyOp35
 70
     1
102
RTVSPropertyOp36
 70
     1
102
RTVSPropertyOp37
 70
     1
102
RTVSPropertyOp38
 70
     1
102
RTVSPropertyOp39
 70
     1
102
RTVSPropertyOp40
 70
     1
102
RTVSPropertyOp41
 70
     1
102
RTVSPropertyOp42
 70
     1
102
RTVSPropertyOp43
 70
     1
102
RTVSPropertyOp44
 70
     1
102
RTVSPropertyOp45
 70
     1
102
RTVSPropertyOp46
 70
     1
102
RTVSPropertyOp47
 70
     1
102
RTVSPropertyOp48
 70
     1
102
RTVSPropertyOp49
 70
     1
102
RTVSPropertyOp50
 70
     1
102
RTVSPropertyOp51
 70
     0
102
RTVSPropertyOp52
 70
     0
102
RTVSPropertyOp53
 70
     1
102
RTVSPropertyOp54
 70
     1
102
RTVSPropertyOp55
 70
     1
102
RTVSPropertyOp56
 70
     1
102
RTVSPropertyOp57
 70
     1
102
RTVSPropertyOp58
 70
     1
102
RTVSPropertyOp59
 70
     1
102
RTVSPropertyOp60
 70
     1
102
RTVSPropertyOp61
 70
     1
102
RTVSPropertyOp62
 70
     1
  0
XRECORD
  5
BD42
102
{ACAD_REACTORS
330
BD41
102
}
330
BD41
100
AcDbXrecord
280
     1
102
RTVSPost2010Prop28
280
     0
102
RTVSPost2010PropOp28
 70
     1
102
RTVSPost2010Prop29
280
     1
102
RTVSPost2010PropOp29
 70
     1
102
RTVSPost2010Prop30
280
     1
102
RTVSPost2010PropOp30
 70
     1
102
RTVSPost2010Prop31
280
     0
102
RTVSPost2010PropOp31
 70
     1
102
RTVSPost2010Prop32
280
     0
102
RTVSPost2010PropOp32
 70
     1
102
RTVSPost2010Prop33
280
     0
102
RTVSPost2010PropOp33
 70
     1
102
RTVSPost2010Prop34
280
     0
102
RTVSPost2010PropOp34
 70
     1
102
RTVSPost2010Prop35
280
     0
102
RTVSPost2010PropOp35
 70
     1
102
RTVSPost2010Prop36
280
     0
102
RTVSPost2010PropOp36
 70
     1
102
RTVSPost2010Prop37
 90
       50
102
RTVSPost2010PropOp37
 70
     1
102
RTVSPost2010Prop38
140
0.0
102
RTVSPost2010PropOp38
 70
     1
102
RTVSPost2010Prop39
140
1.0
102
RTVSPost2010PropOp39
 70
     1
102
RTVSPost2010Prop40
 90
        0
102
RTVSPost2010PropOp40
 70
     1
102
RTVSPost2010Prop41ColorIndex
 90
       18
102
RTVSPost2010Prop41ColorRGB
 90
        0
102
RTVSPost2010PropOp41
 70
     1
102
RTVSPost2010Prop42
 90
       50
102
RTVSPost2010PropOp42
 70
     1
102
RTVSPost2010Prop43
 90
        3
102
RTVSPost2010PropOp43
 70
     1
102
RTVSPost2010Prop44ColorIndex
 90
        5
102
RTVSPost2010Prop44ColorRGB
 90
      255
102
RTVSPost2010PropOp44
 70
     1
102
RTVSPost2010Prop45
280
     0
102
RTVSPost2010PropOp45
 70
     1
102
RTVSPost2010Prop46
 90
       50
102
RTVSPost2010PropOp46
 70
     1
102
RTVSPost2010Prop47
 90
       50
102
RTVSPost2010PropOp47
 70
     1
102
RTVSPost2010Prop48
 90
       50
102
RTVSPost2010PropOp48
 70
     1
102
RTVSPost2010Prop49
280
     0
102
RTVSPost2010PropOp49
 70
     1
102
RTVSPost2010Prop50
 90
       50
102
RTVSPost2010PropOp50
 70
     1
102
RTVSPost2010Prop51ColorIndex
 90
      256
102
RTVSPost2010Prop51ColorRGB
 90
-16777216
102
RTVSPost2010PropOp51
 70
     0
102
RTVSPost2010Prop52
140
1.0
102
RTVSPost2010PropOp52
 70
     0
102
RTVSPost2010Prop53
 90
        2
102
RTVSPost2010PropOp53
 70
     1
102
RTVSPost2010Prop54
  1
strokes_ogs.tif
102
RTVSPost2010PropOp54
 70
     1
102
RTVSPost2010Prop55
280
     0
102
RTVSPost2010PropOp55
 70
     1
102
RTVSPost2010Prop56
140
1.0
102
RTVSPost2010PropOp56
 70
     1
102
RTVSPost2010Prop57
140
1.0
102
RTVSPost2010PropOp57
 70
     1
102
RTVSPropertyOp0
 70
     1
102
RTVSPropertyOp1
 70
     1
102
RTVSPropertyOp2
 70
     1
102
RTVSPropertyOp3
 70
     1
102
RTVSPropertyOp4
 70
     1
102
RTVSPropertyOp5
 70
     1
102
RTVSPropertyOp6
 70
     1
102
RTVSPropertyOp7
 70
     1
102
RTVSPropertyOp8
 70
     1
102
RTVSPropertyOp9
 70
     1
102
RTVSPropertyOp10
 70
     1
102
RTVSPropertyOp11
 70
     1
102
RTVSPropertyOp12
 70
     1
102
RTVSPropertyOp13
 70
     1
102
RTVSPropertyOp14
 70
     1
102
RTVSPropertyOp15
 70
     1
102
RTVSPropertyOp16
 70
     1
102
RTVSPropertyOp17
 70
     1
102
RTVSPropertyOp18
 70
     1
102
RTVSPropertyOp19
 70
     1
102
RTVSPropertyOp20
 70
     1
102
RTVSPropertyOp21
 70
     1
102
RTVSPropertyOp22
 70
     1
102
RTVSPropertyOp23
 70
     1
102
RTVSPropertyOp24
 70
     1
102
RTVSPropertyOp25
 70
     1
102
RTVSPropertyOp26
 70
     1
102
RTVSPropertyOp27
 70
     1
102
RTVSPropertyOp28
 70
     1
102
RTVSPropertyOp29
 70
     1
102
RTVSPropertyOp30
 70
     1
102
RTVSPropertyOp31
 70
     1
102
RTVSPropertyOp32
 70
     1
102
RTVSPropertyOp33
 70
     1
102
RTVSPropertyOp34
 70
     1
102
RTVSPropertyOp35
 70
     1
102
RTVSPropertyOp36
 70
     1
102
RTVSPropertyOp37
 70
     1
102
RTVSPropertyOp38
 70
     1
102
RTVSPropertyOp39
 70
     1
102
RTVSPropertyOp40
 70
     1
102
RTVSPropertyOp41
 70
     1
102
RTVSPropertyOp42
 70
     1
102
RTVSPropertyOp43
 70
     1
102
RTVSPropertyOp44
 70
     1
102
RTVSPropertyOp45
 70
     1
102
RTVSPropertyOp46
 70
     1
102
RTVSPropertyOp47
 70
     1
102
RTVSPropertyOp48
 70
     1
102
RTVSPropertyOp49
 70
     1
102
RTVSPropertyOp50
 70
     1
102
RTVSPropertyOp51
 70
     0
102
RTVSPropertyOp52
 70
     0
102
RTVSPropertyOp53
 70
     1
102
RTVSPropertyOp54
 70
     1
102
RTVSPropertyOp55
 70
     1
102
RTVSPropertyOp56
 70
     1
102
RTVSPropertyOp57
 70
     1
102
RTVSPropertyOp58
 70
     1
102
RTVSPropertyOp59
 70
     1
102
RTVSPropertyOp60
 70
     1
102
RTVSPropertyOp61
 70
     1
102
RTVSPropertyOp62
 70
     1
  0
ENDSEC
  0
EOF
