  0
SECTION
  2
HEADER
  9
$ACADVER
  1
AC1015
  9
$ACADMAINTVER
 70
    20
  9
$DWGCODEPAGE
  3
ANSI_932
  9
$INSBASE
 10
0.0
 20
0.0
 30
0.0
  9
$EXTMIN
 10
10.0
 20
9.999999999999998
 30
0.0
  9
$EXTMAX
 10
764.9155369999999
 20
517.954158
 30
0.0
  9
$LIMMIN
 10
0.0
 20
0.0
  9
$LIMMAX
 10
792.0
 20
546.0
  9
$ORTHOMODE
 70
     0
  9
$REGENMODE
 70
     1
  9
$FILLMODE
 70
     1
  9
$QTEXTMODE
 70
     0
  9
$MIRRTEXT
 70
     1
  9
$LTSCALE
 40
20.0
  9
$ATTMODE
 70
     1
  9
$TEXTSIZE
 40
5.0
  9
$TRACEWID
 40
1.0
  9
$TEXTSTYLE
  7
STANDARD
  9
$CLAYER
  8
0
  9
$CELTYPE
  6
BYLAYER
  9
$CECOLOR
 62
   256
  9
$CELTSCALE
 40
1.0
  9
$DISPSILH
 70
     0
  9
$DIMSCALE
 40
1.0
  9
$DIMASZ
 40
3.0
  9
$DIMEXO
 40
1.0
  9
$DIMDLI
 40
10.0
  9
$DIMRND
 40
0.0
  9
$DIMDLE
 40
0.0
  9
$DIMEXE
 40
1.0
  9
$DIMTP
 40
0.0
  9
$DIMTM
 40
0.0
  9
$DIMTXT
 40
3.2
  9
$DIMCEN
 40
0.0
  9
$DIMTSZ
 40
0.0
  9
$DIMTOL
 70
     0
  9
$DIMLIM
 70
     0
  9
$DIMTIH
 70
     0
  9
$DIMTOH
 70
     0
  9
$DIMSE1
 70
     0
  9
$DIMSE2
 70
     0
  9
$DIMTAD
 70
     3
  9
$DIMZIN
 70
     8
  9
$DIMBLK
  1

  9
$DIMASO
 70
     1
  9
$DIMSHO
 70
     1
  9
$DIMPOST
  1

  9
$DIMAPOST
  1

  9
$DIMALT
 70
     0
  9
$DIMALTD
 70
     2
  9
$DIMALTF
 40
25.4
  9
$DIMLFAC
 40
1.0
  9
$DIMTOFL
 70
     1
  9
$DIMTVP
 40
0.0
  9
$DIMTIX
 70
     0
  9
$DIMSOXD
 70
     0
  9
$DIMSAH
 70
     1
  9
$DIMBLK1
  1
OPEN
  9
$DIMBLK2
  1
OPEN
  9
$DIMSTYLE
  2
STANDARD
  9
$DIMCLRD
 70
     0
  9
$DIMCLRE
 70
     0
  9
$DIMCLRT
 70
     0
  9
$DIMTFAC
 40
1.0
  9
$DIMGAP
 40
1.0
  9
$DIMJUST
 70
     0
  9
$DIMSD1
 70
     0
  9
$DIMSD2
 70
     0
  9
$DIMTOLJ
 70
     1
  9
$DIMTZIN
 70
     0
  9
$DIMALTZ
 70
     0
  9
$DIMALTTZ
 70
     0
  9
$DIMUPT
 70
     0
  9
$DIMDEC
 70
     4
  9
$DIMTDEC
 70
     4
  9
$DIMALTU
 70
     2
  9
$DIMALTTD
 70
     2
  9
$DIMTXSTY
  7
STANDARD
  9
$DIMAUNIT
 70
     0
  9
$DIMADEC
 70
     0
  9
$DIMALTRND
 40
0.0
  9
$DIMAZIN
 70
     0
  9
$DIMDSEP
 70
    46
  9
$DIMATFIT
 70
     3
  9
$DIMFRAC
 70
     0
  9
$DIMLDRBLK
  1
OPEN
  9
$DIMLUNIT
 70
     2
  9
$DIMLWD
 70
    -2
  9
$DIMLWE
 70
    -2
  9
$DIMTMOVE
 70
     0
  9
$LUNITS
 70
     2
  9
$LUPREC
 70
     4
  9
$SKETCHINC
 40
1.0
  9
$FILLETRAD
 40
10.0
  9
$AUNITS
 70
     0
  9
$AUPREC
 70
     2
  9
$MENU
  1
.
  9
$ELEVATION
 40
0.0
  9
$PELEVATION
 40
0.0
  9
$THICKNESS
 40
0.0
  9
$LIMCHECK
 70
     0
  9
$CHAMFERA
 40
1.0
  9
$CHAMFERB
 40
1.0
  9
$CHAMFERC
 40
0.0
  9
$CHAMFERD
 40
0.0
  9
$SKPOLY
 70
     0
  9
$TDCREATE
 40
2451301.772956713
  9
$TDUCREATE
 40
2451301.397956713
  9
$TDUPDATE
 40
2457618.723885371
  9
$TDUUPDATE
 40
2457618.348885371
  9
$TDINDWG
 40
0.0005687384
  9
$TDUSRTIMER
 40
0.0005684028
  9
$USRTIMER
 70
     1
  9
$ANGBASE
 50
0.0
  9
$ANGDIR
 70
     0
  9
$PDMODE
 70
     0
  9
$PDSIZE
 40
0.0
  9
$PLINEWID
 40
0.0
  9
$SPLFRAME
 70
     0
  9
$SPLINETYPE
 70
     6
  9
$SPLINESEGS
 70
     8
  9
$HANDSEED
  5
AAF8
  9
$SURFTAB1
 70
     6
  9
$SURFTAB2
 70
     6
  9
$SURFTYPE
 70
     6
  9
$SURFU
 70
     6
  9
$SURFV
 70
     6
  9
$UCSBASE
  2

  9
$UCSNAME
  2

  9
$UCSORG
 10
0.0
 20
0.0
 30
0.0
  9
$UCSXDIR
 10
1.0
 20
0.0
 30
0.0
  9
$UCSYDIR
 10
0.0
 20
1.0
 30
0.0
  9
$UCSORTHOREF
  2

  9
$UCSORTHOVIEW
 70
     0
  9
$UCSORGTOP
 10
0.0
 20
0.0
 30
0.0
  9
$UCSORGBOTTOM
 10
0.0
 20
0.0
 30
0.0
  9
$UCSORGLEFT
 10
0.0
 20
0.0
 30
0.0
  9
$UCSORGRIGHT
 10
0.0
 20
0.0
 30
0.0
  9
$UCSORGFRONT
 10
0.0
 20
0.0
 30
0.0
  9
$UCSORGBACK
 10
0.0
 20
0.0
 30
0.0
  9
$PUCSBASE
  2

  9
$PUCSNAME
  2

  9
$PUCSORG
 10
0.0
 20
0.0
 30
0.0
  9
$PUCSXDIR
 10
1.0
 20
0.0
 30
0.0
  9
$PUCSYDIR
 10
0.0
 20
1.0
 30
0.0
  9
$PUCSORTHOREF
  2

  9
$PUCSORTHOVIEW
 70
     0
  9
$PUCSORGTOP
 10
0.0
 20
0.0
 30
0.0
  9
$PUCSORGBOTTOM
 10
0.0
 20
0.0
 30
0.0
  9
$PUCSORGLEFT
 10
0.0
 20
0.0
 30
0.0
  9
$PUCSORGRIGHT
 10
0.0
 20
0.0
 30
0.0
  9
$PUCSORGFRONT
 10
0.0
 20
0.0
 30
0.0
  9
$PUCSORGBACK
 10
0.0
 20
0.0
 30
0.0
  9
$USERI1
 70
     0
  9
$USERI2
 70
     0
  9
$USERI3
 70
     0
  9
$USERI4
 70
     0
  9
$USERI5
 70
     0
  9
$USERR1
 40
0.0
  9
$USERR2
 40
0.0
  9
$USERR3
 40
0.0
  9
$USERR4
 40
0.0
  9
$USERR5
 40
0.0
  9
$WORLDVIEW
 70
     1
  9
$SHADEDGE
 70
     3
  9
$SHADEDIF
 70
    70
  9
$TILEMODE
 70
     1
  9
$MAXACTVP
 70
    16
  9
$PINSBASE
 10
0.0
 20
0.0
 30
0.0
  9
$PLIMCHECK
 70
     0
  9
$PEXTMIN
 10
1.000000000000000E+20
 20
1.000000000000000E+20
 30
1.000000000000000E+20
  9
$PEXTMAX
 10
-1.000000000000000E+20
 20
-1.000000000000000E+20
 30
-1.000000000000000E+20
  9
$PLIMMIN
 10
0.0
 20
0.0
  9
$PLIMMAX
 10
420.0
 20
297.0
  9
$UNITMODE
 70
     0
  9
$VISRETAIN
 70
     0
  9
$PLINEGEN
 70
     0
  9
$PSLTSCALE
 70
     0
  9
$TREEDEPTH
 70
  3020
  9
$CMLSTYLE
  2
STANDARD
  9
$CMLJUST
 70
     0
  9
$CMLSCALE
 40
1.0
  9
$PROXYGRAPHICS
 70
     1
  9
$MEASUREMENT
 70
     0
  9
$CELWEIGHT
370
    -1
  9
$ENDCAPS
280
     0
  9
$JOINSTYLE
280
     0
  9
$LWDISPLAY
290
     0
  9
$INSUNITS
 70
     0
  9
$HYPERLINKBASE
  1

  9
$STYLESHEET
  1

  9
$XEDIT
290
     1
  9
$CEPSNTYPE
380
     0
  9
$PSTYLEMODE
290
     1
  9
$FINGERPRINTGUID
  2
{EDF2AF63-01AC-445B-BB47-697128CF24AD}
  9
$VERSIONGUID
  2
{9DC3B758-FCD3-4927-87D9-5764E33EFE7D}
  9
$EXTNAMES
290
     1
  9
$PSVPSCALE
 40
0.0
  9
$OLESTARTUP
290
     0
  0
ENDSEC
  0
SECTION
  2
CLASSES
  0
CLASS
  1
ACDBDICTIONARYWDFLT
  2
AcDbDictionaryWithDefault
  3
ObjectDBX Classes
 90
        0
280
     0
281
     0
  0
CLASS
  1
ACDBPLACEHOLDER
  2
AcDbPlaceHolder
  3
ObjectDBX Classes
 90
        0
280
     0
281
     0
  0
CLASS
  1
LAYOUT
  2
AcDbLayout
  3
ObjectDBX Classes
 90
        0
280
     0
281
     0
  0
CLASS
  1
DICTIONARYVAR
  2
AcDbDictionaryVar
  3
ObjectDBX Classes
 90
        0
280
     0
281
     0
  0
CLASS
  1
MATERIAL
  2
AcDbMaterial
  3
ObjectDBX Classes
 90
     1153
280
     0
281
     0
  0
CLASS
  1
VISUALSTYLE
  2
AcDbVisualStyle
  3
ObjectDBX Classes
 90
     4095
280
     0
281
     0
  0
CLASS
  1
TABLESTYLE
  2
AcDbTableStyle
  3
ObjectDBX Classes
 90
     4095
280
     0
281
     0
  0
CLASS
  1
SCALE
  2
AcDbScale
  3
ObjectDBX Classes
 90
     1153
280
     0
281
     0
  0
CLASS
  1
MLEADERSTYLE
  2
AcDbMLeaderStyle
  3
ACDB_MLEADERSTYLE_CLASS
 90
     4095
280
     0
281
     0
  0
CLASS
  1
ACDBSECTIONVIEWSTYLE
  2
AcDbSectionViewStyle
  3
ObjectDBX Classes
 90
     1025
280
     0
281
     0
  0
CLASS
  1
ACDBDETAILVIEWSTYLE
  2
AcDbDetailViewStyle
  3
ObjectDBX Classes
 90
     1025
280
     0
281
     0
  0
CLASS
  1
CELLSTYLEMAP
  2
AcDbCellStyleMap
  3
ObjectDBX Classes
 90
     1152
280
     0
281
     0
  0
ENDSEC
  0
SECTION
  2
TABLES
  0
TABLE
  2
VPORT
  5
A742
330
0
100
AcDbSymbolTable
 70
     1
  0
VPORT
  5
AA41
330
A742
100
AcDbSymbolTableRecord
100
AcDbViewportTableRecord
  2
*ACTIVE
 70
     0
 10
0.0
 20
0.0
 11
1.0
 21
1.0
 12
597.1895081977102
 22
263.9813702793109
 13
0.0
 23
0.0
 14
10.0
 24
10.0
 15
10.0
 25
10.0
 16
0.0
 26
0.0
 36
1.0
 17
0.0
 27
0.0
 37
0.0
 40
513.8953624009451
 41
2.567642956764295
 42
50.0
 43
0.0
 44
0.0
 50
0.0
 51
0.0
 71
     0
 72
   100
 73
     1
 74
     0
 75
     0
 76
     0
 77
     0
 78
     0
281
     0
 65
     1
110
0.0
120
0.0
130
0.0
111
1.0
121
0.0
131
0.0
112
0.0
122
1.0
132
0.0
 79
     0
146
0.0
1001
ACAD_NAV_VCDISPLAY
1070
     3
  0
ENDTAB
  0
TABLE
  2
LTYPE
  5
A73F
330
0
100
AcDbSymbolTable
 70
     4
  0
LTYPE
  5
A74D
330
A73F
100
AcDbSymbolTableRecord
100
AcDbLinetypeTableRecord
  2
BYBLOCK
 70
     0
  3

 72
    65
 73
     0
 40
0.0
  0
LTYPE
  5
A74E
330
A73F
100
AcDbSymbolTableRecord
100
AcDbLinetypeTableRecord
  2
BYLAYER
 70
     0
  3

 72
    65
 73
     0
 40
0.0
  0
LTYPE
  5
A74F
330
A73F
100
AcDbSymbolTableRecord
100
AcDbLinetypeTableRecord
  2
CONTINUOUS
 70
     0
  3
Solid line
 72
    65
 73
     0
 40
0.0
  0
LTYPE
  5
A75D
330
A73F
100
AcDbSymbolTableRecord
100
AcDbLinetypeTableRecord
  2
DASHED
 70
     0
  3
__ __ __ __ __ __ __ __ __ __ __ __ __ __ __ __
 72
    65
 73
     2
 40
0.75
 49
0.5
 74
     0
 49
-0.25
 74
     0
  0
LTYPE
  5
A75E
330
A73F
100
AcDbSymbolTableRecord
100
AcDbLinetypeTableRecord
  2
CENTER
 70
     0
  3
____ _ ____ _ ____ _ ____ _ ____ _ ____ _ ____ 
 72
    65
 73
     4
 40
2.0
 49
1.25
 74
     0
 49
-0.25
 74
     0
 49
0.25
 74
     0
 49
-0.25
 74
     0
  0
LTYPE
  5
A75F
330
A73F
100
AcDbSymbolTableRecord
100
AcDbLinetypeTableRecord
  2
PHANTOM
 70
     0
  3
______  __  __  ______  __  __  ______  __  __ 
 72
    65
 73
     6
 40
2.5
 49
1.25
 74
     0
 49
-0.25
 74
     0
 49
0.25
 74
     0
 49
-0.25
 74
     0
 49
0.25
 74
     0
 49
-0.25
 74
     0
  0
ENDTAB
  0
TABLE
  2
LAYER
  5
A73C
330
0
100
AcDbSymbolTable
 70
     8
  0
LAYER
  5
A74A
102
{ACAD_XDICTIONARY
360
AA9C
102
}
330
A73C
100
AcDbSymbolTableRecord
100
AcDbLayerTableRecord
  2
0
 70
     0
 62
     7
  6
CONTINUOUS
370
    -3
390
AA4A
  0
LAYER
  5
A760
102
{ACAD_XDICTIONARY
360
AA9E
102
}
330
A73C
100
AcDbSymbolTableRecord
100
AcDbLayerTableRecord
  2
4
 70
     0
 62
     1
  6
CENTER
370
    -3
390
AA4A
  0
LAYER
  5
A761
102
{ACAD_XDICTIONARY
360
AAA0
102
}
330
A73C
100
AcDbSymbolTableRecord
100
AcDbLayerTableRecord
  2
5
 70
     0
 62
     6
  6
PHANTOM
370
    -3
390
AA4A
  0
LAYER
  5
A762
102
{ACAD_XDICTIONARY
360
AAA2
102
}
330
A73C
100
AcDbSymbolTableRecord
100
AcDbLayerTableRecord
  2
1
 70
     0
 62
     7
  6
CONTINUOUS
370
    -3
390
AA4A
  0
LAYER
  5
A763
102
{ACAD_XDICTIONARY
360
AAA4
102
}
330
A73C
100
AcDbSymbolTableRecord
100
AcDbLayerTableRecord
  2
2
 70
     0
 62
     4
  6
CONTINUOUS
370
    -3
390
AA4A
  0
LAYER
  5
A764
102
{ACAD_XDICTIONARY
360
AAA6
102
}
330
A73C
100
AcDbSymbolTableRecord
100
AcDbLayerTableRecord
  2
3
 70
     0
 62
     2
  6
DASHED
370
    -3
390
AA4A
  0
LAYER
  5
A765
102
{ACAD_XDICTIONARY
360
AAA8
102
}
330
A73C
100
AcDbSymbolTableRecord
100
AcDbLayerTableRecord
  2
6
 70
     0
 62
     5
  6
CONTINUOUS
370
    -3
390
AA4A
  0
LAYER
  5
A766
102
{ACAD_XDICTIONARY
360
AAAA
102
}
330
A73C
100
AcDbSymbolTableRecord
100
AcDbLayerTableRecord
  2
7
 70
     0
 62
     3
  6
CONTINUOUS
370
    -3
390
AA4A
  0
ENDTAB
  0
TABLE
  2
STYLE
  5
A73D
330
0
100
AcDbSymbolTable
 70
     1
  0
STYLE
  5
A74B
330
A73D
100
AcDbSymbolTableRecord
100
AcDbTextStyleTableRecord
  2
STANDARD
 70
     0
 40
0.0
 41
1.0
 50
0.0
 71
     0
 42
5.0
  3
txt
  4

  0
ENDTAB
  0
TABLE
  2
VIEW
  5
A740
330
0
100
AcDbSymbolTable
 70
     0
  0
ENDTAB
  0
TABLE
  2
UCS
  5
A741
330
0
100
AcDbSymbolTable
 70
     0
  0
ENDTAB
  0
TABLE
  2
APPID
  5
A743
330
0
100
AcDbSymbolTable
 70
     3
  0
APPID
  5
A74C
330
A743
100
AcDbSymbolTableRecord
100
AcDbRegAppTableRecord
  2
ACAD
 70
     0
  0
APPID
  5
AAB6
330
A743
100
AcDbSymbolTableRecord
100
AcDbRegAppTableRecord
  2
ACAD_NAV_VCDISPLAY
 70
     0
  0
APPID
  5
AAEF
330
A743
100
AcDbSymbolTableRecord
100
AcDbRegAppTableRecord
  2
ACAD_MLEADERVER
 70
     0
  0
ENDTAB
  0
TABLE
  2
DIMSTYLE
  5
A744
330
0
100
AcDbSymbolTable
 70
     1
100
AcDbDimStyleTable
 71
     0
  0
DIMSTYLE
105
A768
330
A744
100
AcDbSymbolTableRecord
100
AcDbDimStyleTableRecord
  2
STANDARD
 70
     0
 41
3.0
 42
1.0
 43
10.0
 44
1.0
 73
     0
 74
     0
 77
     3
 78
     8
140
3.2
141
0.0
147
1.0
172
     1
173
     1
284
     8
285
     8
286
     8
340
A74B
  0
ENDTAB
  0
TABLE
  2
BLOCK_RECORD
  5
A73B
330
0
100
AcDbSymbolTable
 70
     1
  0
BLOCK_RECORD
  5
A758
102
{ACAD_XDICTIONARY
360
AA44
102
}
330
A73B
100
AcDbSymbolTableRecord
100
AcDbBlockTableRecord
  2
*MODEL_SPACE
340
AA98
  0
BLOCK_RECORD
  5
A754
102
{ACAD_XDICTIONARY
360
AA42
102
}
330
A73B
100
AcDbSymbolTableRecord
100
AcDbBlockTableRecord
  2
*PAPER_SPACE
340
AA99
  0
BLOCK_RECORD
  5
A770
330
A73B
100
AcDbSymbolTableRecord
100
AcDbBlockTableRecord
  2
_OPEN
340
0
  0
ENDTAB
  0
ENDSEC
  0
SECTION
  2
BLOCKS
  0
BLOCK
  5
A759
330
A758
100
AcDbEntity
  8
0
100
AcDbBlockBegin
  2
*MODEL_SPACE
 70
     0
 10
0.0
 20
0.0
 30
0.0
  3
*MODEL_SPACE
  1

  0
ENDBLK
  5
A75A
330
A758
100
AcDbEntity
  8
0
100
AcDbBlockEnd
  0
BLOCK
  5
A755
330
A754
100
AcDbEntity
 67
     1
  8
0
100
AcDbBlockBegin
  2
*PAPER_SPACE
 70
     0
 10
0.0
 20
0.0
 30
0.0
  3
*PAPER_SPACE
  1

  0
ENDBLK
  5
A756
330
A754
100
AcDbEntity
 67
     1
  8
0
100
AcDbBlockEnd
  0
BLOCK
  5
A771
330
A770
100
AcDbEntity
  8
0
100
AcDbBlockBegin
  2
_OPEN
 70
     0
 10
0.0
 20
0.0
 30
0.0
  3
_OPEN
  1

  0
LINE
  5
A772
330
A770
100
AcDbEntity
  8
0
  6
ByBlock
 62
     0
100
AcDbLine
 10
-1.0
 20
0.166667
 30
0.0
 11
0.0
 21
0.0
 31
0.0
  0
LINE
  5
A773
330
A770
100
AcDbEntity
  8
0
  6
ByBlock
 62
     0
100
AcDbLine
 10
0.0
 20
0.0
 30
0.0
 11
-1.0
 21
-0.166667
 31
0.0
  0
LINE
  5
A774
330
A770
100
AcDbEntity
  8
0
  6
ByBlock
 62
     0
100
AcDbLine
 10
0.0
 20
0.0
 30
0.0
 11
-1.0
 21
0.0
 31
0.0
  0
ENDBLK
  5
A775
330
A770
100
AcDbEntity
  8
0
100
AcDbBlockEnd
  0
ENDSEC
  0
SECTION
  2
ENTITIES
  0
TEXT
  5
A77A
330
A758
100
AcDbEntity
  8
7
  6
Continuous
100
AcDbText
 10
10.0
 20
18.0
 30
0.0
 40
3.0
  1
TYPE No.208M d=19
100
AcDbText
  0
TEXT
  5
A77B
330
A758
100
AcDbEntity
  8
7
  6
Continuous
100
AcDbText
 10
10.0
 20
26.0
 30
0.0
 40
3.0
  1
CODE No.9189
100
AcDbText
  0
TEXT
  5
A77C
330
A758
100
AcDbEntity
  8
1
  6
Continuous
100
AcDbText
 10
10.0
 20
10.0
 30
0.0
 40
1.399999999999999
  1
LAYER
100
AcDbText
  0
TEXT
  5
A77D
330
A758
100
AcDbEntity
  8
1
  6
Continuous
100
AcDbText
 10
17.97951099999998
 20
10.04873699999998
 30
0.0
 40
1.399999999999999
  1
1
100
AcDbText
  0
TEXT
  5
A77E
330
A758
100
AcDbEntity
  8
7
  6
Continuous
100
AcDbText
 10
29.97951099999999
 20
10.04873699999998
 30
0.0
 40
1.399999999999999
  1
7
100
AcDbText
  0
TEXT
  5
A77F
330
A758
100
AcDbEntity
  8
4
  6
CENTER
100
AcDbText
 10
23.97951099999999
 20
10.04873699999998
 30
0.0
 40
1.399999999999999
  1
4
100
AcDbText
  0
TEXT
  5
A780
330
A758
100
AcDbEntity
  8
3
  6
DASHED
100
AcDbText
 10
21.979511
 20
10.04873699999998
 30
0.0
 40
1.399999999999999
  1
3
100
AcDbText
  0
TEXT
  5
A781
330
A758
100
AcDbEntity
  8
2
  6
Continuous
100
AcDbText
 10
19.97951099999999
 20
10.04873699999998
 30
0.0
 40
1.399999999999999
  1
2
100
AcDbText
  0
TEXT
  5
A782
330
A758
100
AcDbEntity
  8
6
  6
Continuous
100
AcDbText
 10
27.979511
 20
10.04873699999998
 30
0.0
 40
1.399999999999999
  1
6
100
AcDbText
  0
TEXT
  5
A783
330
A758
100
AcDbEntity
  8
5
  6
PHANTOM
100
AcDbText
 10
25.97951099999999
 20
10.04873699999998
 30
0.0
 40
1.399999999999999
  1
5
100
AcDbText
  0
LINE
  5
A784
330
A758
100
AcDbEntity
  8
4
  6
CENTER
100
AcDbLine
 10
312.6143379999998
 20
403.7947649999998
 30
0.0
 11
312.6143379999998
 21
250.3780359999999
 31
0.0
  0
ARC
  5
A785
330
A758
100
AcDbEntity
  8
1
  6
Continuous
100
AcDbCircle
 10
629.6310049999997
 20
342.147775
 30
0.0
 40
326.8166669999998
100
AcDbArc
 50
177.5297759999999
 51
182.4551579999999
  0
ARC
  5
A786
330
A758
100
AcDbEntity
  8
1
  6
Continuous
100
AcDbCircle
 10
-4.402328999999999
 20
342.147775
 30
0.0
 40
326.8166669999998
100
AcDbArc
 50
357.544842
 51
2.470223999999999
  0
LINE
  5
A787
330
A758
100
AcDbEntity
  8
4
  6
CENTER
100
AcDbLine
 10
340.954052
 20
224.2477749999999
 30
0.0
 11
195.7645229999999
 21
224.2477749999999
 31
0.0
  0
LINE
  5
A788
330
A758
100
AcDbEntity
  8
4
  6
CENTER
100
AcDbLine
 10
267.6143379999999
 20
151.0885159999999
 30
0.0
 11
267.6143379999999
 21
295.2477749999999
 31
0.0
  0
ARC
  5
A789
330
A758
100
AcDbEntity
  8
1
  6
Continuous
100
AcDbCircle
 10
267.6143379999999
 20
224.2477749999999
 30
0.0
 40
48.75
100
AcDbArc
 50
52.673354
 51
17.612545
  0
ARC
  5
A78B
330
A758
100
AcDbEntity
  8
1
  6
Continuous
100
AcDbCircle
 10
267.6143379999999
 20
224.2477749999999
 30
0.0
 40
20.5
100
AcDbArc
 50
64.81015699999999
 51
359.189843
  0
ARC
  5
A78C
330
A758
100
AcDbEntity
  8
1
  6
Continuous
100
AcDbCircle
 10
295.1143379999999
 20
268.415071
 30
0.0
 40
35.0
100
AcDbArc
 50
300.0
 51
1.917050999999998
  0
ARC
  5
A78D
330
A758
100
AcDbEntity
  8
1
  6
Continuous
100
AcDbCircle
 10
275.6143379999999
 20
269.4490359999999
 30
0.0
 40
22.5
100
AcDbArc
 50
304.0
 51
0.0
  0
LINE
  5
A78E
330
A758
100
AcDbEntity
  8
1
  6
Continuous
100
AcDbLine
 10
272.8643379999999
 20
215.1545089999999
 30
0.0
 11
312.6143379999998
 21
238.1041819999999
 31
0.0
  0
ARC
  5
A78F
330
A758
100
AcDbEntity
  8
1
  6
Continuous
100
AcDbCircle
 10
267.6143379999999
 20
224.2477749999999
 30
0.0
 40
10.5
100
AcDbArc
 50
335.9505679999998
 51
88.04943199999998
  0
ARC
  5
A790
330
A758
100
AcDbEntity
  8
1
  6
Continuous
100
AcDbCircle
 10
275.246771
 20
229.0170489999999
 30
0.0
 40
6.5
100
AcDbArc
 50
351.2481179999999
 51
72.75188199999998
  0
ARC
  5
A791
330
A758
100
AcDbEntity
  8
1
  6
Continuous
100
AcDbCircle
 10
267.6143379999999
 20
224.2477749999999
 30
0.0
 40
16.0
100
AcDbArc
 50
75.0145
 51
348.9854999999999
  0
LINE
  5
A792
330
A758
100
AcDbEntity
  8
1
  6
Continuous
100
AcDbLine
 10
261.7428129999999
 20
232.95267
 30
0.0
 11
288.1961779999999
 21
250.7956899999999
 31
0.0
  0
CIRCLE
  5
A793
330
A758
100
AcDbEntity
  8
1
  6
Continuous
100
AcDbCircle
 10
267.6143379999999
 20
224.2477749999999
 30
0.0
 40
8.0
  0
CIRCLE
  5
A794
330
A758
100
AcDbEntity
  8
1
  6
Continuous
100
AcDbCircle
 10
267.6143379999999
 20
224.2477749999999
 30
0.0
 40
7.5
  0
ARC
  5
A795
330
A758
100
AcDbEntity
  8
1
  6
Continuous
100
AcDbCircle
 10
267.6143379999999
 20
224.2477749999999
 30
0.0
 40
10.5
100
AcDbArc
 50
124.0
 51
300.0
  0
ARC
  5
A796
330
A758
100
AcDbEntity
  8
1
  6
Continuous
100
AcDbCircle
 10
263.847616
 20
230.7719299999999
 30
0.0
 40
18.033445
100
AcDbArc
 50
330.5293909999999
 51
351.2481179999999
  0
ARC
  5
A797
330
A758
100
AcDbEntity
  8
1
  6
Continuous
100
AcDbCircle
 10
271.8269869999999
 20
218.002267
 30
0.0
 40
18.033445
100
AcDbArc
 50
72.75188199999998
 51
93.470609
  0
ARC
  5
A798
330
A758
100
AcDbEntity
  8
1
  6
Continuous
100
AcDbCircle
 10
299.964338
 20
311.7477749999999
 30
0.0
 40
6.5
100
AcDbArc
 50
90.0
 51
180.0
  0
ARC
  5
A799
330
A758
100
AcDbEntity
  8
1
  6
Continuous
100
AcDbCircle
 10
296.8643379999999
 20
297.6977749999999
 30
0.0
 40
4.75
100
AcDbArc
 50
106.6855899999999
 51
180.0
  0
LINE
  5
A79A
330
A758
100
AcDbEntity
  8
1
  6
Continuous
100
AcDbLine
 10
296.1143379999999
 20
288.4477749999998
 30
0.0
 11
292.1143379999999
 21
288.4477749999998
 31
0.0
  0
LINE
  5
A79B
330
A758
100
AcDbEntity
  8
1
  6
Continuous
100
AcDbLine
 10
331.764338
 20
302.247775
 30
0.0
 11
293.464338
 21
302.247775
 31
0.0
  0
ARC
  5
A79C
330
A758
100
AcDbEntity
  8
1
  6
Continuous
100
AcDbCircle
 10
328.364338
 20
297.6977749999999
 30
0.0
 40
4.75
100
AcDbArc
 50
0.0
 51
73.31440999999998
  0
ARC
  5
A79D
330
A758
100
AcDbEntity
  8
1
  6
Continuous
100
AcDbCircle
 10
380.0667639999998
 20
271.2585429999999
 30
0.0
 40
50.0
100
AcDbArc
 50
159.892376
 51
181.917051
  0
LINE
  5
A79E
330
A758
100
AcDbEntity
  8
1
  6
Continuous
100
AcDbLine
 10
333.1143379999998
 20
297.6977749999999
 30
0.0
 11
333.1143379999998
 21
288.4477749999998
 31
0.0
  0
LINE
  5
A79F
330
A758
100
AcDbEntity
  8
1
  6
Continuous
100
AcDbLine
 10
298.1143379999998
 20
286.4477749999998
 30
0.0
 11
298.1143379999998
 21
269.4490359999999
 31
0.0
  0
ARC
  5
A7A0
330
A758
100
AcDbEntity
  8
1
  6
Continuous
100
AcDbCircle
 10
296.1143379999999
 20
286.4477749999998
 30
0.0
 40
2.0
100
AcDbArc
 50
0.0
 51
90.0
  0
LINE
  5
A7A1
330
A758
100
AcDbEntity
  8
1
  6
Continuous
100
AcDbLine
 10
322.114338
 20
328.147775
 30
0.0
 11
303.1143379999999
 21
328.147775
 31
0.0
  0
LINE
  5
A7A2
330
A758
100
AcDbEntity
  8
1
  6
Continuous
100
AcDbLine
 10
325.264338
 20
318.2477749999998
 30
0.0
 11
299.964338
 21
318.2477749999998
 31
0.0
  0
LINE
  5
A7A3
330
A758
100
AcDbEntity
  8
1
  6
Continuous
100
AcDbLine
 10
321.1143379999999
 20
324.2477749999999
 30
0.0
 11
304.1143379999998
 21
324.2477749999999
 31
0.0
  0
LINE
  5
A7A4
330
A758
100
AcDbEntity
  8
1
  6
Continuous
100
AcDbLine
 10
324.7388379999998
 20
322.2477749999999
 30
0.0
 11
300.4898379999999
 21
322.2477749999999
 31
0.0
  0
ARC
  5
A7A5
330
A758
100
AcDbEntity
  8
1
  6
Continuous
100
AcDbCircle
 10
325.264338
 20
311.7477749999999
 30
0.0
 40
6.5
100
AcDbArc
 50
0.0
 51
90.0
  0
LINE
  5
A7A6
330
A758
100
AcDbEntity
  8
1
  6
Continuous
100
AcDbLine
 10
331.764338
 20
311.7477749999999
 30
0.0
 11
331.764338
 21
302.247775
 31
0.0
  0
LINE
  5
A7A7
330
A758
100
AcDbEntity
  8
1
  6
Continuous
100
AcDbLine
 10
322.114338
 20
328.147775
 30
0.0
 11
322.114338
 21
325.247775
 31
0.0
  0
LINE
  5
A7A8
330
A758
100
AcDbEntity
  8
1
  6
Continuous
100
AcDbLine
 10
324.7388379999998
 20
322.2477749999999
 30
0.0
 11
324.7388379999998
 21
318.2477749999998
 31
0.0
  0
ARC
  5
A7A9
330
A758
100
AcDbEntity
  8
1
  6
Continuous
100
AcDbCircle
 10
321.1143379999999
 20
325.247775
 30
0.0
 40
1.0
100
AcDbArc
 50
270.0
 51
0.0
  0
LINE
  5
A7AA
330
A758
100
AcDbEntity
  8
1
  6
Continuous
100
AcDbLine
 10
318.6763379999998
 20
322.2477749999999
 30
0.0
 11
318.6763379999998
 21
318.2477749999998
 31
0.0
  0
ARC
  5
A7AB
330
A758
100
AcDbEntity
  8
1
  6
Continuous
100
AcDbCircle
 10
322.6143379999999
 20
323.247775
 30
0.0
 40
1.0
100
AcDbArc
 50
180.0
 51
270.0
  0
ARC
  5
A7AC
330
A758
100
AcDbEntity
  8
1
  6
Continuous
100
AcDbCircle
 10
320.6143379999998
 20
323.247775
 30
0.0
 40
1.0
100
AcDbArc
 50
0.0
 51
90.0
  0
LINE
  5
A7AD
330
A758
100
AcDbEntity
  8
1
  6
Continuous
100
AcDbLine
 10
306.5523379999999
 20
322.2477749999999
 30
0.0
 11
306.5523379999999
 21
318.2477749999998
 31
0.0
  0
LINE
  5
A7AE
330
A758
100
AcDbEntity
  8
1
  6
Continuous
100
AcDbLine
 10
303.1143379999999
 20
328.147775
 30
0.0
 11
303.1143379999999
 21
325.247775
 31
0.0
  0
ARC
  5
A7AF
330
A758
100
AcDbEntity
  8
1
  6
Continuous
100
AcDbCircle
 10
304.1143379999998
 20
325.247775
 30
0.0
 40
1.0
100
AcDbArc
 50
180.0
 51
270.0
  0
LINE
  5
A7B0
330
A758
100
AcDbEntity
  8
1
  6
Continuous
100
AcDbLine
 10
300.4898379999999
 20
322.2477749999999
 30
0.0
 11
300.4898379999999
 21
318.2477749999998
 31
0.0
  0
ARC
  5
A7B1
330
A758
100
AcDbEntity
  8
1
  6
Continuous
100
AcDbCircle
 10
304.6143379999999
 20
323.247775
 30
0.0
 40
1.0
100
AcDbArc
 50
90.0
 51
180.0
  0
ARC
  5
A7B2
330
A758
100
AcDbEntity
  8
1
  6
Continuous
100
AcDbCircle
 10
302.6143379999999
 20
323.247775
 30
0.0
 40
1.0
100
AcDbArc
 50
270.0
 51
0.0
  0
LINE
  5
A7B3
330
A758
100
AcDbEntity
  8
1
  6
Continuous
100
AcDbLine
 10
292.1143379999999
 20
297.6977749999999
 30
0.0
 11
292.1143379999999
 21
288.4477749999998
 31
0.0
  0
LINE
  5
A7B4
330
A758
100
AcDbEntity
  8
1
  6
Continuous
100
AcDbLine
 10
293.464338
 20
311.7477749999999
 30
0.0
 11
293.464338
 21
302.247775
 31
0.0
  0
LINE
  5
A7B5
330
A758
100
AcDbEntity
  8
4
  6
CENTER
100
AcDbLine
 10
312.6143379999998
 20
511.120723
 30
0.0
 11
312.6143379999998
 21
454.387935
 31
0.0
  0
LINE
  5
A7B6
330
A758
100
AcDbEntity
  8
4
  6
CENTER
100
AcDbLine
 10
267.6143379999999
 20
517.954158
 30
0.0
 11
267.6143379999999
 21
445.3776659999999
 31
0.0
  0
ARC
  5
A7B7
330
A758
100
AcDbEntity
  8
1
  6
Continuous
100
AcDbCircle
 10
290.136247
 20
440.5771419999998
 30
0.0
 40
67.671456
100
AcDbArc
 50
61.54170699999998
 51
69.49041300000001
  0
ARC
  5
A7B8
330
A758
100
AcDbEntity
  8
1
  6
Continuous
100
AcDbCircle
 10
650.9685049999999
 20
374.1977749999999
 30
0.0
 40
348.1541669999999
100
AcDbArc
 50
177.6212779999999
 51
182.392422
  0
ARC
  5
A7B9
330
A758
100
AcDbEntity
  8
1
  6
Continuous
100
AcDbCircle
 10
-25.739829
 20
374.1977749999999
 30
0.0
 40
348.1541669999999
100
AcDbArc
 50
357.6212779999999
 51
2.378721999999998
  0
LINE
  5
A7BA
330
A758
100
AcDbEntity
  8
1
  6
Continuous
100
AcDbLine
 10
303.7143379999998
 20
358.747775
 30
0.0
 11
321.514338
 21
358.747775
 31
0.0
  0
LINE
  5
A7BB
330
A758
100
AcDbEntity
  8
1
  6
Continuous
100
AcDbLine
 10
321.514338
 20
357.147775
 30
0.0
 11
303.7143379999998
 21
357.147775
 31
0.0
  0
LINE
  5
A7BC
330
A758
100
AcDbEntity
  8
1
  6
Continuous
100
AcDbLine
 10
321.514338
 20
358.747775
 30
0.0
 11
321.514338
 21
357.147775
 31
0.0
  0
ARC
  5
A7BD
330
A758
100
AcDbEntity
  8
1
  6
Continuous
100
AcDbCircle
 10
321.1143379999999
 20
356.147775
 30
0.0
 40
1.0
100
AcDbArc
 50
0.0
 51
90.0
  0
ARC
  5
A7BE
330
A758
100
AcDbEntity
  8
1
  6
Continuous
100
AcDbCircle
 10
321.1143379999999
 20
359.7477749999998
 30
0.0
 40
1.0
100
AcDbArc
 50
270.0
 51
0.0
  0
LINE
  5
A7BF
330
A758
100
AcDbEntity
  8
1
  6
Continuous
100
AcDbLine
 10
303.7143379999998
 20
358.747775
 30
0.0
 11
303.7143379999998
 21
357.147775
 31
0.0
  0
ARC
  5
A7C0
330
A758
100
AcDbEntity
  8
1
  6
Continuous
100
AcDbCircle
 10
304.1143379999998
 20
356.147775
 30
0.0
 40
1.0
100
AcDbArc
 50
90.0
 51
180.0
  0
ARC
  5
A7C1
330
A758
100
AcDbEntity
  8
1
  6
Continuous
100
AcDbCircle
 10
304.1143379999998
 20
359.7477749999998
 30
0.0
 40
1.0
100
AcDbArc
 50
180.0
 51
270.0
  0
LINE
  5
A7C2
330
A758
100
AcDbEntity
  8
1
  6
Continuous
100
AcDbLine
 10
318.6143379999998
 20
395.7477749999998
 30
0.0
 11
317.1143379999999
 21
397.2477749999998
 31
0.0
  0
LINE
  5
A7C3
330
A758
100
AcDbEntity
  8
1
  6
Continuous
100
AcDbLine
 10
318.6143379999998
 20
395.7477749999998
 30
0.0
 11
306.6143379999999
 21
395.7477749999998
 31
0.0
  0
LINE
  5
A7C4
330
A758
100
AcDbEntity
  8
1
  6
Continuous
100
AcDbLine
 10
303.1143379999999
 20
388.647775
 30
0.0
 11
322.114338
 21
388.647775
 31
0.0
  0
LINE
  5
A7C5
330
A758
100
AcDbEntity
  8
1
  6
Continuous
100
AcDbLine
 10
303.364338
 20
391.647775
 30
0.0
 11
321.8643379999999
 21
391.647775
 31
0.0
  0
LINE
  5
A7C6
330
A758
100
AcDbEntity
  8
1
  6
Continuous
100
AcDbLine
 10
303.364338
 20
394.847775
 30
0.0
 11
321.8643379999999
 21
394.847775
 31
0.0
  0
LINE
  5
A7C7
330
A758
100
AcDbEntity
  8
1
  6
Continuous
100
AcDbLine
 10
321.1143379999999
 20
388.647775
 30
0.0
 11
321.1143379999999
 21
391.647775
 31
0.0
  0
LINE
  5
A7C8
330
A758
100
AcDbEntity
  8
1
  6
Continuous
100
AcDbLine
 10
318.6143379999998
 20
395.7477749999998
 30
0.0
 11
318.6143379999998
 21
394.847775
 31
0.0
  0
LINE
  5
A7C9
330
A758
100
AcDbEntity
  8
1
  6
Continuous
100
AcDbLine
 10
321.8643379999999
 20
391.647775
 30
0.0
 11
321.8643379999999
 21
394.847775
 31
0.0
  0
LINE
  5
A7CA
330
A758
100
AcDbEntity
  8
1
  6
Continuous
100
AcDbLine
 10
317.1143379999999
 20
397.2477749999998
 30
0.0
 11
308.1143379999998
 21
397.2477749999998
 31
0.0
  0
LINE
  5
A7CB
330
A758
100
AcDbEntity
  8
1
  6
Continuous
100
AcDbLine
 10
316.594288
 20
394.847775
 30
0.0
 11
316.594288
 21
391.647775
 31
0.0
  0
LINE
  5
A7CC
330
A758
100
AcDbEntity
  8
1
  6
Continuous
100
AcDbLine
 10
308.634388
 20
394.847775
 30
0.0
 11
308.634388
 21
391.647775
 31
0.0
  0
LINE
  5
A7CD
330
A758
100
AcDbEntity
  8
1
  6
Continuous
100
AcDbLine
 10
306.6143379999999
 20
395.7477749999998
 30
0.0
 11
308.1143379999998
 21
397.2477749999998
 31
0.0
  0
LINE
  5
A7CE
330
A758
100
AcDbEntity
  8
1
  6
Continuous
100
AcDbLine
 10
306.6143379999999
 20
395.7477749999998
 30
0.0
 11
306.6143379999999
 21
394.847775
 31
0.0
  0
LINE
  5
A7CF
330
A758
100
AcDbEntity
  8
1
  6
Continuous
100
AcDbLine
 10
304.1143379999998
 20
388.647775
 30
0.0
 11
304.1143379999998
 21
391.647775
 31
0.0
  0
LINE
  5
A7D0
330
A758
100
AcDbEntity
  8
1
  6
Continuous
100
AcDbLine
 10
303.364338
 20
391.647775
 30
0.0
 11
303.364338
 21
394.847775
 31
0.0
  0
LINE
  5
A7D1
330
A758
100
AcDbEntity
  8
4
  6
CENTER
100
AcDbLine
 10
339.7003899999999
 20
482.0485979999999
 30
0.0
 11
196.260159
 21
482.0485979999999
 31
0.0
  0
ARC
  5
A7D2
330
A758
100
AcDbEntity
  8
1
  6
Continuous
100
AcDbCircle
 10
249.9427649999999
 20
467.2985979999999
 30
0.0
 40
3.0
100
AcDbArc
 50
199.4712209999999
 51
270.0
  0
ARC
  5
A7D3
330
A758
100
AcDbEntity
  8
1
  6
Continuous
100
AcDbCircle
 10
249.9427649999999
 20
496.798598
 30
0.0
 40
3.0
100
AcDbArc
 50
90.0
 51
160.528779
  0
LINE
  5
A7D4
330
A758
100
AcDbEntity
  8
1
  6
Continuous
100
AcDbLine
 10
288.1143379999999
 20
466.298598
 30
0.0
 11
247.114338
 21
466.298598
 31
0.0
  0
LINE
  5
A7D5
330
A758
100
AcDbEntity
  8
1
  6
Continuous
100
AcDbLine
 10
288.1143379999999
 20
497.798598
 30
0.0
 11
247.114338
 21
497.798598
 31
0.0
  0
ARC
  5
A7D6
330
A758
100
AcDbEntity
  8
1
  6
Continuous
100
AcDbCircle
 10
278.1143379999999
 20
472.2215709999998
 30
0.0
 40
30.72702700000001
100
AcDbArc
 50
82.93481699999999
 51
90.0
  0
ARC
  5
A7D7
330
A758
100
AcDbEntity
  8
1
  6
Continuous
100
AcDbCircle
 10
312.6143379999998
 20
482.0485979999999
 30
0.0
 40
20.5
100
AcDbArc
 50
118.233118
 51
241.7668819999998
  0
ARC
  5
A7D8
330
A758
100
AcDbEntity
  8
1
  6
Continuous
100
AcDbCircle
 10
278.1143379999999
 20
472.2215709999998
 30
0.0
 40
33.02702699999999
100
AcDbArc
 50
76.96399300000002
 51
90.0
  0
CIRCLE
  5
A7D9
330
A758
100
AcDbEntity
  8
1
  6
Continuous
100
AcDbCircle
 10
312.6143379999998
 20
482.0485979999999
 30
0.0
 40
19.15
  0
LINE
  5
A7DA
330
A758
100
AcDbEntity
  8
1
  6
Continuous
100
AcDbLine
 10
324.738694
 20
482.0485979999999
 30
0.0
 11
318.676516
 21
471.548598
 31
0.0
  0
LINE
  5
A7DB
330
A758
100
AcDbEntity
  8
1
  6
Continuous
100
AcDbLine
 10
306.55216
 20
471.548598
 30
0.0
 11
300.4899829999998
 21
482.0485979999999
 31
0.0
  0
CIRCLE
  5
A7DC
330
A758
100
AcDbEntity
  8
1
  6
Continuous
100
AcDbCircle
 10
312.6143379999998
 20
482.0485979999999
 30
0.0
 40
10.5
  0
ARC
  5
A7DD
330
A758
100
AcDbEntity
  8
1
  6
Continuous
100
AcDbCircle
 10
312.6143379999998
 20
482.0485979999999
 30
0.0
 40
9.25
100
AcDbArc
 50
115.4843689999999
 51
244.515631
  0
ARC
  5
A7DE
330
A758
100
AcDbEntity
  8
1
  6
Continuous
100
AcDbCircle
 10
312.6143379999998
 20
482.0485979999999
 30
0.0
 40
9.25
100
AcDbArc
 50
295.484369
 51
64.515631
  0
ARC
  5
A7DF
330
A758
100
AcDbEntity
  8
1
  6
Continuous
100
AcDbCircle
 10
312.6143379999998
 20
482.0485979999999
 30
0.0
 40
20.5
100
AcDbArc
 50
298.4582939999999
 51
61.54170699999998
  0
LINE
  5
A7E0
330
A758
100
AcDbEntity
  8
1
  6
Continuous
100
AcDbLine
 10
318.676516
 20
492.548598
 30
0.0
 11
306.55216
 21
492.548598
 31
0.0
  0
CIRCLE
  5
A7E1
330
A758
100
AcDbEntity
  8
1
  6
Continuous
100
AcDbCircle
 10
312.6143379999998
 20
482.0485979999999
 30
0.0
 40
6.0
  0
LINE
  5
A7E2
330
A758
100
AcDbEntity
  8
1
  6
Continuous
100
AcDbLine
 10
324.738694
 20
482.0485979999999
 30
0.0
 11
318.676516
 21
492.548598
 31
0.0
  0
LINE
  5
A7E3
330
A758
100
AcDbEntity
  8
1
  6
Continuous
100
AcDbLine
 10
306.55216
 20
492.548598
 30
0.0
 11
300.4899829999998
 21
482.0485979999999
 31
0.0
  0
LINE
  5
A7E4
330
A758
100
AcDbEntity
  8
1
  6
Continuous
100
AcDbLine
 10
308.634388
 20
490.3985979999998
 30
0.0
 11
316.594288
 21
490.3985979999998
 31
0.0
  0
LINE
  5
A7E5
330
A758
100
AcDbEntity
  8
1
  6
Continuous
100
AcDbLine
 10
318.676516
 20
471.548598
 30
0.0
 11
306.55216
 21
471.548598
 31
0.0
  0
LINE
  5
A7E6
330
A758
100
AcDbEntity
  8
1
  6
Continuous
100
AcDbLine
 10
308.634388
 20
473.698598
 30
0.0
 11
316.594288
 21
473.698598
 31
0.0
  0
LINE
  5
A7E7
330
A758
100
AcDbEntity
  8
1
  6
Continuous
100
AcDbLine
 10
274.3782700000001
 20
501.948598
 30
0.0
 11
260.850406
 21
501.948598
 31
0.0
  0
LINE
  5
A7E8
330
A758
100
AcDbEntity
  8
1
  6
Continuous
100
AcDbLine
 10
275.1143379999999
 20
507.548598
 30
0.0
 11
260.1143379999999
 21
507.548598
 31
0.0
  0
LINE
  5
A7E9
330
A758
100
AcDbEntity
  8
1
  6
Continuous
100
AcDbLine
 10
283.6143379999999
 20
501.848598
 30
0.0
 11
251.6143379999999
 21
501.848598
 31
0.0
  0
ARC
  5
A7EA
330
A758
100
AcDbEntity
  8
1
  6
Continuous
100
AcDbCircle
 10
261.7428129999999
 20
573.4416569999998
 30
0.0
 40
68.19305799999999
100
AcDbArc
 50
270.0
 51
282.0627859999999
  0
LINE
  5
A7EB
330
A758
100
AcDbEntity
  8
1
  6
Continuous
100
AcDbLine
 10
285.285911
 20
499.798598
 30
0.0
 11
249.9427649999999
 21
499.798598
 31
0.0
  0
LINE
  5
A7EC
330
A758
100
AcDbEntity
  8
1
  6
Continuous
100
AcDbLine
 10
278.1143379999999
 20
505.2485980000001
 30
0.0
 11
257.1143379999999
 21
505.2485980000001
 31
0.0
  0
LINE
  5
A7ED
330
A758
100
AcDbEntity
  8
1
  6
Continuous
100
AcDbLine
 10
278.1143379999999
 20
502.948598
 30
0.0
 11
257.1143379999999
 21
502.948598
 31
0.0
  0
ARC
  5
A7EE
330
A758
100
AcDbEntity
  8
1
  6
Continuous
100
AcDbCircle
 10
285.285911
 20
496.798598
 30
0.0
 40
3.0
100
AcDbArc
 50
19.47122099999998
 51
90.0
  0
LINE
  5
A7EF
330
A758
100
AcDbEntity
  8
1
  6
Continuous
100
AcDbLine
 10
283.6143379999999
 20
501.848598
 30
0.0
 11
283.6143379999999
 21
499.798598
 31
0.0
  0
ARC
  5
A7F0
330
A758
100
AcDbEntity
  8
1
  6
Continuous
100
AcDbCircle
 10
269.3718029999998
 20
471.2473759999999
 30
0.0
 40
32.5
100
AcDbArc
 50
42.12936699999999
 51
54.78169300000001
  0
LINE
  5
A7F1
330
A758
100
AcDbEntity
  8
1
  6
Continuous
100
AcDbLine
 10
273.5893379999998
 20
501.948598
 30
0.0
 11
273.5893379999998
 21
501.848598
 31
0.0
  0
ARC
  5
A7F2
330
A758
100
AcDbEntity
  8
1
  6
Continuous
100
AcDbCircle
 10
274.3782700000001
 20
504.948598
 30
0.0
 40
3.0
100
AcDbArc
 50
270.0
 51
318.189685
  0
LINE
  5
A7F3
330
A758
100
AcDbEntity
  8
1
  6
Continuous
100
AcDbLine
 10
275.1143379999999
 20
507.548598
 30
0.0
 11
275.1143379999999
 21
506.572415
 31
0.0
  0
ARC
  5
A7F4
330
A758
100
AcDbEntity
  8
1
  6
Continuous
100
AcDbCircle
 10
260.850406
 20
504.948598
 30
0.0
 40
3.0
100
AcDbArc
 50
221.810315
 51
270.0
  0
LINE
  5
A7F5
330
A758
100
AcDbEntity
  8
1
  6
Continuous
100
AcDbLine
 10
261.639338
 20
501.948598
 30
0.0
 11
261.639338
 21
501.848598
 31
0.0
  0
LINE
  5
A7F6
330
A758
100
AcDbEntity
  8
1
  6
Continuous
100
AcDbLine
 10
260.1143379999999
 20
507.548598
 30
0.0
 11
260.1143379999999
 21
505.2485980000001
 31
0.0
  0
LINE
  5
A7F7
330
A758
100
AcDbEntity
  8
1
  6
Continuous
100
AcDbLine
 10
257.1143379999999
 20
505.2485980000001
 30
0.0
 11
257.1143379999999
 21
502.948598
 31
0.0
  0
LINE
  5
A7F8
330
A758
100
AcDbEntity
  8
1
  6
Continuous
100
AcDbLine
 10
251.6143379999999
 20
501.848598
 30
0.0
 11
251.6143379999999
 21
499.798598
 31
0.0
  0
LINE
  5
A7F9
330
A758
100
AcDbEntity
  8
1
  6
Continuous
100
AcDbLine
 10
274.3782700000001
 20
462.148598
 30
0.0
 11
260.850406
 21
462.148598
 31
0.0
  0
LINE
  5
A7FA
330
A758
100
AcDbEntity
  8
1
  6
Continuous
100
AcDbLine
 10
275.1143379999999
 20
456.548598
 30
0.0
 11
260.1143379999999
 21
456.548598
 31
0.0
  0
LINE
  5
A7FB
330
A758
100
AcDbEntity
  8
1
  6
Continuous
100
AcDbLine
 10
283.6143379999999
 20
462.248598
 30
0.0
 11
251.6143379999999
 21
462.248598
 31
0.0
  0
LINE
  5
A7FC
330
A758
100
AcDbEntity
  8
1
  6
Continuous
100
AcDbLine
 10
285.285911
 20
464.298598
 30
0.0
 11
249.9427649999999
 21
464.298598
 31
0.0
  0
ARC
  5
A7FD
330
A758
100
AcDbEntity
  8
1
  6
Continuous
100
AcDbCircle
 10
269.3718029999998
 20
492.8498199999999
 30
0.0
 40
32.5
100
AcDbArc
 50
305.2183069999998
 51
317.870633
  0
LINE
  5
A7FE
330
A758
100
AcDbEntity
  8
1
  6
Continuous
100
AcDbLine
 10
283.6143379999999
 20
464.298598
 30
0.0
 11
283.6143379999999
 21
462.248598
 31
0.0
  0
ARC
  5
A7FF
330
A758
100
AcDbEntity
  8
1
  6
Continuous
100
AcDbCircle
 10
285.285911
 20
467.2985979999999
 30
0.0
 40
3.0
100
AcDbArc
 50
270.0
 51
340.528779
  0
LINE
  5
A800
330
A758
100
AcDbEntity
  8
1
  6
Continuous
100
AcDbLine
 10
273.5893379999998
 20
462.248598
 30
0.0
 11
273.5893379999998
 21
462.148598
 31
0.0
  0
ARC
  5
A801
330
A758
100
AcDbEntity
  8
1
  6
Continuous
100
AcDbCircle
 10
274.3782700000001
 20
459.1485979999998
 30
0.0
 40
3.0
100
AcDbArc
 50
41.810315
 51
90.0
  0
LINE
  5
A802
330
A758
100
AcDbEntity
  8
1
  6
Continuous
100
AcDbLine
 10
275.1143379999999
 20
457.524782
 30
0.0
 11
275.1143379999999
 21
456.548598
 31
0.0
  0
LINE
  5
A803
330
A758
100
AcDbEntity
  8
1
  6
Continuous
100
AcDbLine
 10
260.1143379999999
 20
458.8485979999998
 30
0.0
 11
260.1143379999999
 21
456.548598
 31
0.0
  0
ARC
  5
A804
330
A758
100
AcDbEntity
  8
1
  6
Continuous
100
AcDbCircle
 10
260.850406
 20
459.1485979999998
 30
0.0
 40
3.0
100
AcDbArc
 50
90.0
 51
138.1896849999999
  0
LINE
  5
A805
330
A758
100
AcDbEntity
  8
1
  6
Continuous
100
AcDbLine
 10
261.639338
 20
462.248598
 30
0.0
 11
261.639338
 21
462.148598
 31
0.0
  0
LINE
  5
A806
330
A758
100
AcDbEntity
  8
1
  6
Continuous
100
AcDbLine
 10
257.1143379999999
 20
461.148598
 30
0.0
 11
257.1143379999999
 21
458.8485979999998
 31
0.0
  0
LINE
  5
A807
330
A758
100
AcDbEntity
  8
1
  6
Continuous
100
AcDbLine
 10
251.6143379999999
 20
464.298598
 30
0.0
 11
251.6143379999999
 21
462.248598
 31
0.0
  0
ARC
  5
A808
330
A758
100
AcDbEntity
  8
1
  6
Continuous
100
AcDbCircle
 10
265.856873
 20
471.2473759999999
 30
0.0
 40
32.5
100
AcDbArc
 50
125.218307
 51
137.8706329999999
  0
ARC
  5
A809
330
A758
100
AcDbEntity
  8
1
  6
Continuous
100
AcDbCircle
 10
265.856873
 20
492.8498199999999
 30
0.0
 40
32.5
100
AcDbArc
 50
222.129367
 51
234.781693
  0
LINE
  5
A80A
330
A758
100
AcDbEntity
  8
4
  6
CENTER
100
AcDbLine
 10
77.00595899999997
 20
403.7947649999998
 30
0.0
 11
77.00595899999997
 21
150.0885159999999
 31
0.0
  0
ARC
  5
A80B
330
A758
100
AcDbEntity
  8
1
  6
Continuous
100
AcDbCircle
 10
-240.010687
 20
342.147775
 30
0.0
 40
326.8166669999998
100
AcDbArc
 50
357.544842
 51
2.470223999999999
  0
ARC
  5
A80C
330
A758
100
AcDbEntity
  8
1
  6
Continuous
100
AcDbCircle
 10
394.022647
 20
342.147775
 30
0.0
 40
326.8166669999998
100
AcDbArc
 50
177.5297759999999
 51
182.4551579999999
  0
ARC
  5
A80D
330
A758
100
AcDbEntity
  8
1
  6
Continuous
100
AcDbCircle
 10
66.20473699999999
 20
222.49031
 30
0.0
 40
32.5
100
AcDbArc
 50
312.129367
 51
324.781693
  0
ARC
  5
A80E
330
A758
100
AcDbEntity
  8
1
  6
Continuous
100
AcDbCircle
 10
87.80718099999999
 20
222.49031
 30
0.0
 40
32.5
100
AcDbArc
 50
215.2183069999999
 51
227.8706329999999
  0
LINE
  5
A80F
330
A758
100
AcDbEntity
  8
4
  6
CENTER
100
AcDbLine
 10
40.48353999999998
 20
224.2477749999999
 30
0.0
 11
113.078301
 21
224.2477749999999
 31
0.0
  0
ARC
  5
A810
330
A758
100
AcDbEntity
  8
1
  6
Continuous
100
AcDbCircle
 10
87.80718099999999
 20
226.0052399999999
 30
0.0
 40
32.5
100
AcDbArc
 50
132.1293669999998
 51
144.7816929999999
  0
ARC
  5
A811
330
A758
100
AcDbEntity
  8
1
  6
Continuous
100
AcDbCircle
 10
64.20099399999999
 20
285.447775
 30
0.0
 40
3.0
100
AcDbArc
 50
90.0
 51
179.431016
  0
ARC
  5
A812
330
A758
100
AcDbEntity
  8
1
  6
Continuous
100
AcDbCircle
 10
-36.49404099999999
 20
286.4477749999998
 30
0.0
 40
97.70000000000001
100
AcDbArc
 50
343.708766
 51
359.431016
  0
ARC
  5
A813
330
A758
100
AcDbEntity
  8
1
  6
Continuous
100
AcDbCircle
 10
-36.49404099999999
 20
286.4477749999998
 30
0.0
 40
100.0
100
AcDbArc
 50
343.708766
 51
0.0
  0
ARC
  5
A814
330
A758
100
AcDbEntity
  8
1
  6
Continuous
100
AcDbCircle
 10
64.355959
 20
311.7477749999999
 30
0.0
 40
6.5
100
AcDbArc
 50
90.0
 51
180.0
  0
LINE
  5
A815
330
A758
100
AcDbEntity
  8
1
  6
Continuous
100
AcDbLine
 10
57.855959
 20
302.247775
 30
0.0
 11
96.155959
 21
302.247775
 31
0.0
  0
ARC
  5
A816
330
A758
100
AcDbEntity
  8
1
  6
Continuous
100
AcDbCircle
 10
6.505958999999998
 20
277.4477749999999
 30
0.0
 40
50.0
100
AcDbArc
 50
348.7530469999999
 51
0.0
  0
LINE
  5
A817
330
A758
100
AcDbEntity
  8
1
  6
Continuous
100
AcDbLine
 10
57.205959
 20
240.247775
 30
0.0
 11
57.205959
 21
208.2477749999999
 31
0.0
  0
ARC
  5
A818
330
A758
100
AcDbEntity
  8
1
  6
Continuous
100
AcDbCircle
 10
300.7446549999999
 20
218.936324
 30
0.0
 40
250.0
100
AcDbArc
 50
168.753047
 51
177.193756
  0
ARC
  5
A819
330
A758
100
AcDbEntity
  8
1
  6
Continuous
100
AcDbCircle
 10
140.4066349999999
 20
234.7477749999999
 30
0.0
 40
86.60067600000003
100
AcDbArc
 50
163.7087659999999
 51
180.0
  0
ARC
  5
A81A
330
A758
100
AcDbEntity
  8
1
  6
Continuous
100
AcDbCircle
 10
140.4066349999999
 20
234.7477749999999
 30
0.0
 40
84.30067599999999
100
AcDbArc
 50
163.7087659999999
 51
180.0
  0
LINE
  5
A81B
330
A758
100
AcDbEntity
  8
1
  6
Continuous
100
AcDbLine
 10
61.255959
 20
244.747775
 30
0.0
 11
61.255959
 21
203.7477749999999
 31
0.0
  0
LINE
  5
A81C
330
A758
100
AcDbEntity
  8
1
  6
Continuous
100
AcDbLine
 10
59.255959
 20
241.919348
 30
0.0
 11
59.255959
 21
206.576203
 31
0.0
  0
LINE
  5
A81D
330
A758
100
AcDbEntity
  8
1
  6
Continuous
100
AcDbLine
 10
57.105959
 20
231.0117069999999
 30
0.0
 11
57.105959
 21
217.483843
 31
0.0
  0
LINE
  5
A81E
330
A758
100
AcDbEntity
  8
1
  6
Continuous
100
AcDbLine
 10
51.50595899999999
 20
231.747775
 30
0.0
 11
51.50595899999999
 21
216.7477749999999
 31
0.0
  0
LINE
  5
A81F
330
A758
100
AcDbEntity
  8
1
  6
Continuous
100
AcDbLine
 10
53.80595899999999
 20
234.7477749999999
 30
0.0
 11
53.80595899999999
 21
213.7477749999999
 31
0.0
  0
LINE
  5
A820
330
A758
100
AcDbEntity
  8
1
  6
Continuous
100
AcDbLine
 10
56.10595899999999
 20
234.7477749999999
 30
0.0
 11
56.10595899999999
 21
213.7477749999999
 31
0.0
  0
LINE
  5
A821
330
A758
100
AcDbEntity
  8
1
  6
Continuous
100
AcDbLine
 10
57.205959
 20
208.2477749999999
 30
0.0
 11
59.255959
 21
208.2477749999999
 31
0.0
  0
ARC
  5
A822
330
A758
100
AcDbEntity
  8
1
  6
Continuous
100
AcDbCircle
 10
62.255959
 20
206.576203
 30
0.0
 40
3.0
100
AcDbArc
 50
180.0
 51
250.5287789999999
  0
LINE
  5
A823
330
A758
100
AcDbEntity
  8
1
  6
Continuous
100
AcDbLine
 10
53.80595899999999
 20
213.7477749999999
 30
0.0
 11
56.10595899999999
 21
213.7477749999999
 31
0.0
  0
LINE
  5
A824
330
A758
100
AcDbEntity
  8
1
  6
Continuous
100
AcDbLine
 10
51.50595899999999
 20
216.7477749999999
 30
0.0
 11
53.80595899999999
 21
216.7477749999999
 31
0.0
  0
ARC
  5
A825
330
A758
100
AcDbEntity
  8
1
  6
Continuous
100
AcDbCircle
 10
70.680959
 20
224.2477749999999
 30
0.0
 40
19.875
100
AcDbArc
 50
202.170157
 51
211.8907919999998
  0
LINE
  5
A826
330
A758
100
AcDbEntity
  8
1
  6
Continuous
100
AcDbLine
 10
57.105959
 20
218.272775
 30
0.0
 11
57.205959
 21
218.272775
 31
0.0
  0
ARC
  5
A827
330
A758
100
AcDbEntity
  8
1
  6
Continuous
100
AcDbCircle
 10
54.105959
 20
217.483843
 30
0.0
 40
3.0
100
AcDbArc
 50
311.810315
 51
0.0
  0
ARC
  5
A828
330
A758
100
AcDbEntity
  8
1
  6
Continuous
100
AcDbCircle
 10
70.680959
 20
224.2477749999999
 30
0.0
 40
19.875
100
AcDbArc
 50
148.1092079999999
 51
157.8298429999998
  0
LINE
  5
A829
330
A758
100
AcDbEntity
  8
1
  6
Continuous
100
AcDbLine
 10
51.50595899999999
 20
231.747775
 30
0.0
 11
53.80595899999999
 21
231.747775
 31
0.0
  0
LINE
  5
A82A
330
A758
100
AcDbEntity
  8
1
  6
Continuous
100
AcDbLine
 10
57.105959
 20
230.222775
 30
0.0
 11
57.205959
 21
230.222775
 31
0.0
  0
ARC
  5
A82B
330
A758
100
AcDbEntity
  8
1
  6
Continuous
100
AcDbCircle
 10
54.105959
 20
231.0117069999999
 30
0.0
 40
3.0
100
AcDbArc
 50
0.0
 51
48.189685
  0
ARC
  5
A82C
330
A758
100
AcDbEntity
  8
1
  6
Continuous
100
AcDbCircle
 10
62.255959
 20
241.919348
 30
0.0
 40
3.0
100
AcDbArc
 50
109.4712209999999
 51
180.0
  0
LINE
  5
A82D
330
A758
100
AcDbEntity
  8
1
  6
Continuous
100
AcDbLine
 10
57.205959
 20
240.247775
 30
0.0
 11
59.255959
 21
240.247775
 31
0.0
  0
ARC
  5
A82E
330
A758
100
AcDbEntity
  8
1
  6
Continuous
100
AcDbCircle
 10
61.255959
 20
297.6977749999999
 30
0.0
 40
4.75
100
AcDbArc
 50
106.6855899999999
 51
180.0
  0
LINE
  5
A82F
330
A758
100
AcDbEntity
  8
1
  6
Continuous
100
AcDbLine
 10
56.50595899999999
 20
297.6977749999999
 30
0.0
 11
56.50595899999999
 21
277.4477749999999
 31
0.0
  0
LINE
  5
A830
330
A758
100
AcDbEntity
  8
1
  6
Continuous
100
AcDbLine
 10
57.855959
 20
302.247775
 30
0.0
 11
57.855959
 21
311.7477749999999
 31
0.0
  0
ARC
  5
A831
330
A758
100
AcDbEntity
  8
1
  6
Continuous
100
AcDbCircle
 10
147.5059589999999
 20
277.4477749999999
 30
0.0
 40
50.0
100
AcDbArc
 50
180.0
 51
191.2469529999999
  0
ARC
  5
A832
330
A758
100
AcDbEntity
  8
1
  6
Continuous
100
AcDbCircle
 10
190.505959
 20
286.4477749999998
 30
0.0
 40
97.70000000000001
100
AcDbArc
 50
180.568984
 51
196.291234
  0
ARC
  5
A833
330
A758
100
AcDbEntity
  8
1
  6
Continuous
100
AcDbCircle
 10
190.505959
 20
286.4477749999998
 30
0.0
 40
100.0
100
AcDbArc
 50
180.0
 51
196.291234
  0
LINE
  5
A834
330
A758
100
AcDbEntity
  8
1
  6
Continuous
100
AcDbLine
 10
96.805959
 20
240.247775
 30
0.0
 11
96.805959
 21
208.2477749999999
 31
0.0
  0
ARC
  5
A835
330
A758
100
AcDbEntity
  8
1
  6
Continuous
100
AcDbCircle
 10
-146.7327369999999
 20
218.936324
 30
0.0
 40
250.0
100
AcDbArc
 50
2.778982
 51
11.24695299999999
  0
ARC
  5
A836
330
A758
100
AcDbEntity
  8
1
  6
Continuous
100
AcDbCircle
 10
13.60528399999999
 20
234.7477749999999
 30
0.0
 40
86.60067600000003
100
AcDbArc
 50
0.0
 51
16.291234
  0
ARC
  5
A837
330
A758
100
AcDbEntity
  8
1
  6
Continuous
100
AcDbCircle
 10
13.60528399999999
 20
234.7477749999999
 30
0.0
 40
84.30067599999999
100
AcDbArc
 50
0.0
 51
16.291234
  0
LINE
  5
A838
330
A758
100
AcDbEntity
  8
1
  6
Continuous
100
AcDbLine
 10
92.75595899999999
 20
244.747775
 30
0.0
 11
92.75595899999999
 21
203.7477749999999
 31
0.0
  0
LINE
  5
A839
330
A758
100
AcDbEntity
  8
1
  6
Continuous
100
AcDbLine
 10
94.755959
 20
241.919348
 30
0.0
 11
94.755959
 21
206.576203
 31
0.0
  0
LINE
  5
A83A
330
A758
100
AcDbEntity
  8
1
  6
Continuous
100
AcDbLine
 10
96.90595899999999
 20
231.0117069999999
 30
0.0
 11
96.90595899999999
 21
217.483843
 31
0.0
  0
LINE
  5
A83B
330
A758
100
AcDbEntity
  8
1
  6
Continuous
100
AcDbLine
 10
102.5059589999999
 20
231.747775
 30
0.0
 11
102.5059589999999
 21
216.7477749999999
 31
0.0
  0
LINE
  5
A83C
330
A758
100
AcDbEntity
  8
1
  6
Continuous
100
AcDbLine
 10
100.205959
 20
234.7477749999999
 30
0.0
 11
100.205959
 21
213.7477749999999
 31
0.0
  0
LINE
  5
A83D
330
A758
100
AcDbEntity
  8
1
  6
Continuous
100
AcDbLine
 10
97.90595899999999
 20
234.7477749999999
 30
0.0
 11
97.90595899999999
 21
213.7477749999999
 31
0.0
  0
LINE
  5
A83E
330
A758
100
AcDbEntity
  8
1
  6
Continuous
100
AcDbLine
 10
94.755959
 20
208.2477749999999
 30
0.0
 11
96.805959
 21
208.2477749999999
 31
0.0
  0
ARC
  5
A83F
330
A758
100
AcDbEntity
  8
1
  6
Continuous
100
AcDbCircle
 10
91.75595900000001
 20
206.576203
 30
0.0
 40
3.0
100
AcDbArc
 50
289.471221
 51
0.0
  0
LINE
  5
A840
330
A758
100
AcDbEntity
  8
1
  6
Continuous
100
AcDbLine
 10
100.205959
 20
216.7477749999999
 30
0.0
 11
102.5059589999999
 21
216.7477749999999
 31
0.0
  0
LINE
  5
A841
330
A758
100
AcDbEntity
  8
1
  6
Continuous
100
AcDbLine
 10
96.805959
 20
218.272775
 30
0.0
 11
96.90595899999999
 21
218.272775
 31
0.0
  0
ARC
  5
A842
330
A758
100
AcDbEntity
  8
1
  6
Continuous
100
AcDbCircle
 10
99.905959
 20
217.483843
 30
0.0
 40
3.0
100
AcDbArc
 50
180.0
 51
228.1896849999998
  0
ARC
  5
A843
330
A758
100
AcDbEntity
  8
1
  6
Continuous
100
AcDbCircle
 10
83.33095899999998
 20
224.2477749999999
 30
0.0
 40
19.875
100
AcDbArc
 50
328.109208
 51
337.829843
  0
LINE
  5
A844
330
A758
100
AcDbEntity
  8
1
  6
Continuous
100
AcDbLine
 10
97.90595899999999
 20
213.7477749999999
 30
0.0
 11
100.205959
 21
213.7477749999999
 31
0.0
  0
LINE
  5
A845
330
A758
100
AcDbEntity
  8
1
  6
Continuous
100
AcDbLine
 10
100.205959
 20
231.747775
 30
0.0
 11
102.5059589999999
 21
231.747775
 31
0.0
  0
ARC
  5
A846
330
A758
100
AcDbEntity
  8
1
  6
Continuous
100
AcDbCircle
 10
83.33095899999998
 20
224.2477749999999
 30
0.0
 40
19.875
100
AcDbArc
 50
22.170157
 51
31.890792
  0
LINE
  5
A847
330
A758
100
AcDbEntity
  8
1
  6
Continuous
100
AcDbLine
 10
96.805959
 20
230.222775
 30
0.0
 11
96.90595899999999
 21
230.222775
 31
0.0
  0
ARC
  5
A848
330
A758
100
AcDbEntity
  8
1
  6
Continuous
100
AcDbCircle
 10
99.905959
 20
231.0117069999999
 30
0.0
 40
3.0
100
AcDbArc
 50
131.810315
 51
180.0
  0
LINE
  5
A849
330
A758
100
AcDbEntity
  8
1
  6
Continuous
100
AcDbLine
 10
94.755959
 20
240.247775
 30
0.0
 11
96.805959
 21
240.247775
 31
0.0
  0
ARC
  5
A84A
330
A758
100
AcDbEntity
  8
1
  6
Continuous
100
AcDbCircle
 10
91.75595900000001
 20
241.919348
 30
0.0
 40
3.0
100
AcDbArc
 50
0.0
 51
70.528779
  0
ARC
  5
A84B
330
A758
100
AcDbEntity
  8
1
  6
Continuous
100
AcDbCircle
 10
66.20473699999999
 20
226.0052399999999
 30
0.0
 40
32.5
100
AcDbArc
 50
35.21830700000001
 51
47.87063300000001
  0
ARC
  5
A84C
330
A758
100
AcDbEntity
  8
1
  6
Continuous
100
AcDbCircle
 10
92.75595899999999
 20
297.6977749999999
 30
0.0
 40
4.75
100
AcDbArc
 50
0.0
 51
73.31440999999998
  0
LINE
  5
A84D
330
A758
100
AcDbEntity
  8
1
  6
Continuous
100
AcDbLine
 10
81.124211
 20
288.4477749999998
 30
0.0
 11
89.81092499999999
 21
288.4477749999998
 31
0.0
  0
LINE
  5
A84E
330
A758
100
AcDbEntity
  8
1
  6
Continuous
100
AcDbLine
 10
64.20099399999999
 20
288.4477749999998
 30
0.0
 11
72.88770699999997
 21
288.4477749999998
 31
0.0
  0
ARC
  5
A84F
330
A758
100
AcDbEntity
  8
1
  6
Continuous
100
AcDbCircle
 10
65.50595899999999
 20
286.4477749999998
 30
0.0
 40
2.0
100
AcDbArc
 50
90.0
 51
180.0
  0
LINE
  5
A850
330
A758
100
AcDbEntity
  8
1
  6
Continuous
100
AcDbLine
 10
97.505959
 20
297.6977749999999
 30
0.0
 11
97.505959
 21
277.4477749999999
 31
0.0
  0
ARC
  5
A851
330
A758
100
AcDbEntity
  8
1
  6
Continuous
100
AcDbCircle
 10
89.81092499999999
 20
285.447775
 30
0.0
 40
3.0
100
AcDbArc
 50
0.5689840000000001
 51
90.0
  0
ARC
  5
A852
330
A758
100
AcDbEntity
  8
1
  6
Continuous
100
AcDbCircle
 10
88.505959
 20
286.4477749999998
 30
0.0
 40
2.0
100
AcDbArc
 50
0.0
 51
90.0
  0
LINE
  5
A853
330
A758
100
AcDbEntity
  8
1
  6
Continuous
100
AcDbLine
 10
67.50598
 20
328.147775
 30
0.0
 11
86.50597999999998
 21
328.147775
 31
0.0
  0
LINE
  5
A854
330
A758
100
AcDbEntity
  8
1
  6
Continuous
100
AcDbLine
 10
68.50598000000001
 20
324.2477749999999
 30
0.0
 11
85.50597999999999
 21
324.2477749999999
 31
0.0
  0
LINE
  5
A855
330
A758
100
AcDbEntity
  8
1
  6
Continuous
100
AcDbLine
 10
66.50595899999999
 20
322.2477749999999
 30
0.0
 11
87.50595899999996
 21
322.2477749999999
 31
0.0
  0
LINE
  5
A856
330
A758
100
AcDbEntity
  8
1
  6
Continuous
100
AcDbLine
 10
64.355959
 20
318.2477749999998
 30
0.0
 11
89.65595899999998
 21
318.2477749999998
 31
0.0
  0
LINE
  5
A857
330
A758
100
AcDbEntity
  8
1
  6
Continuous
100
AcDbLine
 10
67.50598
 20
328.147775
 30
0.0
 11
67.50598
 21
325.247775
 31
0.0
  0
ARC
  5
A858
330
A758
100
AcDbEntity
  8
1
  6
Continuous
100
AcDbCircle
 10
68.50598000000001
 20
325.247775
 30
0.0
 40
1.0
100
AcDbArc
 50
180.0
 51
270.0
  0
ARC
  5
A859
330
A758
100
AcDbEntity
  8
1
  6
Continuous
100
AcDbCircle
 10
67.00595899999999
 20
323.247775
 30
0.0
 40
1.0
100
AcDbArc
 50
270.0
 51
0.0
  0
LINE
  5
A85A
330
A758
100
AcDbEntity
  8
1
  6
Continuous
100
AcDbLine
 10
66.50595899999999
 20
318.2477749999998
 30
0.0
 11
66.50595899999999
 21
322.2477749999999
 31
0.0
  0
ARC
  5
A85B
330
A758
100
AcDbEntity
  8
1
  6
Continuous
100
AcDbCircle
 10
69.00595899999999
 20
323.247775
 30
0.0
 40
1.0
100
AcDbArc
 50
90.0
 51
180.0
  0
LINE
  5
A85C
330
A758
100
AcDbEntity
  8
1
  6
Continuous
100
AcDbLine
 10
77.00595899999997
 20
322.2477749999999
 30
0.0
 11
77.00595899999997
 21
318.2477749999998
 31
0.0
  0
ARC
  5
A85D
330
A758
100
AcDbEntity
  8
1
  6
Continuous
100
AcDbCircle
 10
89.65595899999998
 20
311.7477749999999
 30
0.0
 40
6.5
100
AcDbArc
 50
0.0
 51
90.0
  0
LINE
  5
A85E
330
A758
100
AcDbEntity
  8
1
  6
Continuous
100
AcDbLine
 10
96.155959
 20
302.247775
 30
0.0
 11
96.155959
 21
311.7477749999999
 31
0.0
  0
LINE
  5
A85F
330
A758
100
AcDbEntity
  8
1
  6
Continuous
100
AcDbLine
 10
86.50597999999998
 20
328.147775
 30
0.0
 11
86.50597999999998
 21
325.247775
 31
0.0
  0
ARC
  5
A860
330
A758
100
AcDbEntity
  8
1
  6
Continuous
100
AcDbCircle
 10
85.50597999999999
 20
325.247775
 30
0.0
 40
1.0
100
AcDbArc
 50
270.0
 51
0.0
  0
ARC
  5
A861
330
A758
100
AcDbEntity
  8
1
  6
Continuous
100
AcDbCircle
 10
87.00595899999996
 20
323.247775
 30
0.0
 40
1.0
100
AcDbArc
 50
180.0
 51
270.0
  0
ARC
  5
A862
330
A758
100
AcDbEntity
  8
1
  6
Continuous
100
AcDbCircle
 10
85.00595899999998
 20
323.247775
 30
0.0
 40
1.0
100
AcDbArc
 50
0.0
 51
90.0
  0
LINE
  5
A863
330
A758
100
AcDbEntity
  8
1
  6
Continuous
100
AcDbLine
 10
87.50595899999996
 20
318.2477749999998
 30
0.0
 11
87.50595899999996
 21
322.2477749999999
 31
0.0
  0
ARC
  5
A864
330
A758
100
AcDbEntity
  8
1
  6
Continuous
100
AcDbCircle
 10
-261.348187
 20
374.1977749999999
 30
0.0
 40
348.1541669999999
100
AcDbArc
 50
357.607578
 51
2.378721999999998
  0
ARC
  5
A865
330
A758
100
AcDbEntity
  8
1
  6
Continuous
100
AcDbCircle
 10
415.3601469999999
 20
374.1977749999999
 30
0.0
 40
348.1541669999999
100
AcDbArc
 50
177.6212779999999
 51
182.3787219999999
  0
LINE
  5
A866
330
A758
100
AcDbEntity
  8
1
  6
Continuous
100
AcDbLine
 10
85.90597999999998
 20
358.747775
 30
0.0
 11
68.10598
 21
358.747775
 31
0.0
  0
LINE
  5
A867
330
A758
100
AcDbEntity
  8
1
  6
Continuous
100
AcDbLine
 10
68.10598
 20
357.147775
 30
0.0
 11
85.90597999999998
 21
357.147775
 31
0.0
  0
LINE
  5
A868
330
A758
100
AcDbEntity
  8
1
  6
Continuous
100
AcDbLine
 10
68.10598
 20
358.747775
 30
0.0
 11
68.10598
 21
357.147775
 31
0.0
  0
ARC
  5
A869
330
A758
100
AcDbEntity
  8
1
  6
Continuous
100
AcDbCircle
 10
68.50598000000001
 20
356.147775
 30
0.0
 40
1.0
100
AcDbArc
 50
90.0
 51
180.0
  0
ARC
  5
A86A
330
A758
100
AcDbEntity
  8
1
  6
Continuous
100
AcDbCircle
 10
68.50598000000001
 20
359.7477749999998
 30
0.0
 40
1.0
100
AcDbArc
 50
180.0
 51
270.0
  0
LINE
  5
A86B
330
A758
100
AcDbEntity
  8
1
  6
Continuous
100
AcDbLine
 10
85.90597999999998
 20
358.747775
 30
0.0
 11
85.90597999999998
 21
357.147775
 31
0.0
  0
ARC
  5
A86C
330
A758
100
AcDbEntity
  8
1
  6
Continuous
100
AcDbCircle
 10
85.50597999999999
 20
356.147775
 30
0.0
 40
1.0
100
AcDbArc
 50
0.0
 51
90.0
  0
ARC
  5
A86D
330
A758
100
AcDbEntity
  8
1
  6
Continuous
100
AcDbCircle
 10
85.50597999999999
 20
359.7477749999998
 30
0.0
 40
1.0
100
AcDbArc
 50
270.0
 51
0.0
  0
LINE
  5
A86E
330
A758
100
AcDbEntity
  8
1
  6
Continuous
100
AcDbLine
 10
86.50597999999998
 20
388.647775
 30
0.0
 11
67.50598
 21
388.647775
 31
0.0
  0
LINE
  5
A86F
330
A758
100
AcDbEntity
  8
1
  6
Continuous
100
AcDbLine
 10
85.50597999999999
 20
391.647775
 30
0.0
 11
68.50598000000001
 21
391.647775
 31
0.0
  0
LINE
  5
A870
330
A758
100
AcDbEntity
  8
1
  6
Continuous
100
AcDbLine
 10
85.355959
 20
394.847775
 30
0.0
 11
68.65595899999999
 21
394.847775
 31
0.0
  0
LINE
  5
A871
330
A758
100
AcDbEntity
  8
1
  6
Continuous
100
AcDbLine
 10
71.00598000000002
 20
395.7477749999998
 30
0.0
 11
83.00597999999999
 21
395.7477749999998
 31
0.0
  0
LINE
  5
A872
330
A758
100
AcDbEntity
  8
1
  6
Continuous
100
AcDbLine
 10
72.50597999999998
 20
397.2477749999998
 30
0.0
 11
81.50597999999998
 21
397.2477749999998
 31
0.0
  0
LINE
  5
A873
330
A758
100
AcDbEntity
  8
1
  6
Continuous
100
AcDbLine
 10
68.50598000000001
 20
388.647775
 30
0.0
 11
68.50598000000001
 21
391.647775
 31
0.0
  0
LINE
  5
A874
330
A758
100
AcDbEntity
  8
1
  6
Continuous
100
AcDbLine
 10
68.65595899999999
 20
394.847775
 30
0.0
 11
68.65595899999999
 21
391.647775
 31
0.0
  0
LINE
  5
A875
330
A758
100
AcDbEntity
  8
1
  6
Continuous
100
AcDbLine
 10
71.00598000000002
 20
395.7477749999998
 30
0.0
 11
72.50597999999998
 21
397.2477749999998
 31
0.0
  0
LINE
  5
A876
330
A758
100
AcDbEntity
  8
1
  6
Continuous
100
AcDbLine
 10
71.00598000000002
 20
395.7477749999998
 30
0.0
 11
71.00598000000002
 21
394.847775
 31
0.0
  0
LINE
  5
A877
330
A758
100
AcDbEntity
  8
1
  6
Continuous
100
AcDbLine
 10
83.00597999999999
 20
395.7477749999998
 30
0.0
 11
81.50597999999998
 21
397.2477749999998
 31
0.0
  0
LINE
  5
A878
330
A758
100
AcDbEntity
  8
1
  6
Continuous
100
AcDbLine
 10
83.00597999999999
 20
395.7477749999998
 30
0.0
 11
83.00597999999999
 21
394.847775
 31
0.0
  0
LINE
  5
A879
330
A758
100
AcDbEntity
  8
1
  6
Continuous
100
AcDbLine
 10
85.50597999999999
 20
388.647775
 30
0.0
 11
85.50597999999999
 21
391.647775
 31
0.0
  0
LINE
  5
A87A
330
A758
100
AcDbEntity
  8
1
  6
Continuous
100
AcDbLine
 10
85.355959
 20
394.847775
 30
0.0
 11
85.355959
 21
391.647775
 31
0.0
  0
ARC
  5
A87B
330
A758
100
AcDbEntity
  8
1
  6
Continuous
100
AcDbCircle
 10
132.1109209999999
 20
374.1977749999999
 30
0.0
 40
348.1541669999999
100
AcDbArc
 50
357.6212779999999
 51
2.378721999999998
  0
ARC
  5
A87C
330
A758
100
AcDbEntity
  8
1
  6
Continuous
100
AcDbCircle
 10
808.819255
 20
374.1977749999999
 30
0.0
 40
348.1541669999999
100
AcDbArc
 50
177.6212779999999
 51
182.392422
  0
LINE
  5
A87D
330
A758
100
AcDbEntity
  8
4
  6
CENTER
100
AcDbLine
 10
470.4651089999998
 20
403.7947649999998
 30
0.0
 11
470.4651089999998
 21
151.0885159999999
 31
0.0
  0
LINE
  5
A87E
330
A758
100
AcDbEntity
  8
4
  6
CENTER
100
AcDbLine
 10
506.987528
 20
224.2477749999999
 30
0.0
 11
434.392767
 21
224.2477749999999
 31
0.0
  0
ARC
  5
A87F
330
A758
100
AcDbEntity
  8
1
  6
Continuous
100
AcDbCircle
 10
540.9651089999998
 20
277.4477749999999
 30
0.0
 40
50.0
100
AcDbArc
 50
180.0
 51
191.2469529999999
  0
ARC
  5
A880
330
A758
100
AcDbEntity
  8
1
  6
Continuous
100
AcDbCircle
 10
399.965109
 20
277.4477749999999
 30
0.0
 40
50.0
100
AcDbArc
 50
348.7530469999999
 51
0.0
  0
LINE
  5
A881
330
A758
100
AcDbEntity
  8
1
  6
Continuous
100
AcDbLine
 10
493.6651089999998
 20
234.7477749999999
 30
0.0
 11
493.6651089999998
 21
213.7477749999999
 31
0.0
  0
LINE
  5
A882
330
A758
100
AcDbEntity
  8
1
  6
Continuous
100
AcDbLine
 10
495.965109
 20
221.6806309999999
 30
0.0
 11
495.965109
 21
216.7477749999999
 31
0.0
  0
LINE
  5
A883
330
A758
100
AcDbEntity
  8
1
  6
Continuous
100
AcDbLine
 10
491.365109
 20
234.7477749999999
 30
0.0
 11
491.365109
 21
213.7477749999999
 31
0.0
  0
LINE
  5
A884
330
A758
100
AcDbEntity
  8
1
  6
Continuous
100
AcDbLine
 10
490.3651089999998
 20
231.0117069999999
 30
0.0
 11
490.3651089999998
 21
217.483843
 31
0.0
  0
LINE
  5
A885
330
A758
100
AcDbEntity
  8
1
  6
Continuous
100
AcDbLine
 10
488.2151089999998
 20
241.919348
 30
0.0
 11
488.2151089999998
 21
206.576203
 31
0.0
  0
LINE
  5
A886
330
A758
100
AcDbEntity
  8
1
  6
Continuous
100
AcDbLine
 10
490.2651089999998
 20
240.247775
 30
0.0
 11
490.2651089999998
 21
208.2477749999999
 31
0.0
  0
ARC
  5
A887
330
A758
100
AcDbEntity
  8
1
  6
Continuous
100
AcDbCircle
 10
442.884729
 20
229.4439279999998
 30
0.0
 40
2.080379
100
AcDbArc
 50
303.6368749999998
 51
314.235875
  0
ARC
  5
A888
330
A758
100
AcDbEntity
  8
1
  6
Continuous
100
AcDbCircle
 10
442.045488
 20
229.4439279999998
 30
0.0
 40
2.080379
100
AcDbArc
 50
123.636875
 51
236.363125
  0
LINE
  5
A889
330
A758
100
AcDbEntity
  8
1
  6
Continuous
100
AcDbLine
 10
439.9651089999998
 20
229.4439279999998
 30
0.0
 11
439.9651089999998
 21
219.051623
 31
0.0
  0
LINE
  5
A88A
330
A758
100
AcDbEntity
  8
1
  6
Continuous
100
AcDbLine
 10
449.5651089999998
 20
234.7477749999999
 30
0.0
 11
449.5651089999998
 21
213.7477749999999
 31
0.0
  0
LINE
  5
A88B
330
A758
100
AcDbEntity
  8
1
  6
Continuous
100
AcDbLine
 10
447.265109
 20
234.7477749999999
 30
0.0
 11
447.265109
 21
213.7477749999999
 31
0.0
  0
LINE
  5
A88C
330
A758
100
AcDbEntity
  8
1
  6
Continuous
100
AcDbLine
 10
444.9651089999998
 20
221.6806309999999
 30
0.0
 11
444.9651089999998
 21
216.7477749999999
 31
0.0
  0
LINE
  5
A88D
330
A758
100
AcDbEntity
  8
1
  6
Continuous
100
AcDbLine
 10
450.5651089999998
 20
231.0117069999999
 30
0.0
 11
450.5651089999998
 21
217.483843
 31
0.0
  0
LINE
  5
A88E
330
A758
100
AcDbEntity
  8
1
  6
Continuous
100
AcDbLine
 10
452.715109
 20
241.919348
 30
0.0
 11
452.715109
 21
206.576203
 31
0.0
  0
LINE
  5
A88F
330
A758
100
AcDbEntity
  8
1
  6
Continuous
100
AcDbLine
 10
450.665109
 20
240.247775
 30
0.0
 11
450.665109
 21
208.2477749999999
 31
0.0
  0
LINE
  5
A890
330
A758
100
AcDbEntity
  8
1
  6
Continuous
100
AcDbLine
 10
486.215109
 20
244.747775
 30
0.0
 11
486.215109
 21
203.7477749999999
 31
0.0
  0
LINE
  5
A891
330
A758
100
AcDbEntity
  8
1
  6
Continuous
100
AcDbLine
 10
454.7151089999998
 20
244.747775
 30
0.0
 11
454.7151089999998
 21
203.7477749999999
 31
0.0
  0
ARC
  5
A892
330
A758
100
AcDbEntity
  8
1
  6
Continuous
100
AcDbCircle
 10
455.7151089999998
 20
206.576203
 30
0.0
 40
3.0
100
AcDbArc
 50
180.0
 51
250.5287789999999
  0
ARC
  5
A893
330
A758
100
AcDbEntity
  8
1
  6
Continuous
100
AcDbCircle
 10
481.2663309999998
 20
222.49031
 30
0.0
 40
32.5
100
AcDbArc
 50
215.2183069999999
 51
227.8706329999999
  0
LINE
  5
A894
330
A758
100
AcDbEntity
  8
1
  6
Continuous
100
AcDbLine
 10
444.037109
 20
227.7118769999999
 30
0.0
 11
440.893109
 21
227.7118769999999
 31
0.0
  0
ARC
  5
A895
330
A758
100
AcDbEntity
  8
1
  6
Continuous
100
AcDbCircle
 10
442.884729
 20
219.051623
 30
0.0
 40
2.080379
100
AcDbArc
 50
303.6368749999998
 51
56.36312499999998
  0
LINE
  5
A896
330
A758
100
AcDbEntity
  8
1
  6
Continuous
100
AcDbLine
 10
449.5651089999998
 20
213.7477749999999
 30
0.0
 11
447.265109
 21
213.7477749999999
 31
0.0
  0
ARC
  5
A897
330
A758
100
AcDbEntity
  8
1
  6
Continuous
100
AcDbCircle
 10
447.565109
 20
217.483843
 30
0.0
 40
3.0
100
AcDbArc
 50
311.810315
 51
0.0
  0
LINE
  5
A898
330
A758
100
AcDbEntity
  8
1
  6
Continuous
100
AcDbLine
 10
450.665109
 20
218.272775
 30
0.0
 11
450.5651089999998
 21
218.272775
 31
0.0
  0
LINE
  5
A899
330
A758
100
AcDbEntity
  8
1
  6
Continuous
100
AcDbLine
 10
446.184515
 20
216.7477749999999
 30
0.0
 11
444.9651089999998
 21
216.7477749999999
 31
0.0
  0
LINE
  5
A89A
330
A758
100
AcDbEntity
  8
1
  6
Continuous
100
AcDbLine
 10
452.715109
 20
208.2477749999999
 30
0.0
 11
450.665109
 21
208.2477749999999
 31
0.0
  0
LINE
  5
A89B
330
A758
100
AcDbEntity
  8
1
  6
Continuous
100
AcDbLine
 10
444.037109
 20
220.7836739999999
 30
0.0
 11
440.893109
 21
220.7836739999999
 31
0.0
  0
LINE
  5
A89C
330
A758
100
AcDbEntity
  8
1
  6
Continuous
100
AcDbLine
 10
444.037109
 20
217.3195719999999
 30
0.0
 11
440.893109
 21
217.3195719999999
 31
0.0
  0
ARC
  5
A89D
330
A758
100
AcDbEntity
  8
1
  6
Continuous
100
AcDbCircle
 10
442.045488
 20
219.051623
 30
0.0
 40
2.080379
100
AcDbArc
 50
123.636875
 51
236.363125
  0
ARC
  5
A89E
330
A758
100
AcDbEntity
  8
1
  6
Continuous
100
AcDbCircle
 10
438.035592
 20
224.2477749999999
 30
0.0
 40
6.929516999999997
100
AcDbArc
 50
330.006273
 51
347.191006
  0
ARC
  5
A89F
330
A758
100
AcDbEntity
  8
1
  6
Continuous
100
AcDbCircle
 10
446.894626
 20
224.2477749999999
 30
0.0
 40
6.929516999999997
100
AcDbArc
 50
150.0062729999999
 51
209.993727
  0
ARC
  5
A8A0
330
A758
100
AcDbEntity
  8
1
  6
Continuous
100
AcDbCircle
 10
459.6638869999998
 20
222.49031
 30
0.0
 40
32.5
100
AcDbArc
 50
312.367527
 51
324.781693
  0
ARC
  5
A8A1
330
A758
100
AcDbEntity
  8
1
  6
Continuous
100
AcDbCircle
 10
485.2151089999998
 20
206.576203
 30
0.0
 40
3.0
100
AcDbArc
 50
289.471221
 51
0.0
  0
LINE
  5
A8A2
330
A758
100
AcDbEntity
  8
1
  6
Continuous
100
AcDbLine
 10
493.6651089999998
 20
213.7477749999999
 30
0.0
 11
491.365109
 21
213.7477749999999
 31
0.0
  0
LINE
  5
A8A3
330
A758
100
AcDbEntity
  8
1
  6
Continuous
100
AcDbLine
 10
495.965109
 20
216.7477749999999
 30
0.0
 11
494.7457039999998
 21
216.7477749999999
 31
0.0
  0
ARC
  5
A8A4
330
A758
100
AcDbEntity
  8
1
  6
Continuous
100
AcDbCircle
 10
493.3651089999998
 20
217.483843
 30
0.0
 40
3.0
100
AcDbArc
 50
180.0
 51
228.1896849999998
  0
LINE
  5
A8A5
330
A758
100
AcDbEntity
  8
1
  6
Continuous
100
AcDbLine
 10
490.3651089999998
 20
218.272775
 30
0.0
 11
490.2651089999998
 21
218.272775
 31
0.0
  0
LINE
  5
A8A6
330
A758
100
AcDbEntity
  8
1
  6
Continuous
100
AcDbLine
 10
490.2651089999998
 20
208.2477749999999
 30
0.0
 11
488.2151089999998
 21
208.2477749999999
 31
0.0
  0
ARC
  5
A8A7
330
A758
100
AcDbEntity
  8
1
  6
Continuous
100
AcDbCircle
 10
533.8657839999998
 20
234.7477749999999
 30
0.0
 40
84.30067599999999
100
AcDbArc
 50
165.242145
 51
180.0
  0
ARC
  5
A8A8
330
A758
100
AcDbEntity
  8
1
  6
Continuous
100
AcDbCircle
 10
533.8657839999998
 20
234.7477749999999
 30
0.0
 40
86.60067600000003
100
AcDbArc
 50
163.970181
 51
180.0
  0
ARC
  5
A8A9
330
A758
100
AcDbEntity
  8
1
  6
Continuous
100
AcDbCircle
 10
694.2038049999996
 20
218.936324
 30
0.0
 40
250.0
100
AcDbArc
 50
168.753047
 51
177.2859479999999
  0
ARC
  5
A8AA
330
A758
100
AcDbEntity
  8
1
  6
Continuous
100
AcDbCircle
 10
455.7151089999998
 20
241.919348
 30
0.0
 40
3.0
100
AcDbArc
 50
109.4712209999999
 51
180.0
  0
LINE
  5
A8AB
330
A758
100
AcDbEntity
  8
1
  6
Continuous
100
AcDbLine
 10
452.715109
 20
240.247775
 30
0.0
 11
450.665109
 21
240.247775
 31
0.0
  0
ARC
  5
A8AC
330
A758
100
AcDbEntity
  8
1
  6
Continuous
100
AcDbCircle
 10
447.565109
 20
231.0117069999999
 30
0.0
 40
3.0
100
AcDbArc
 50
0.0
 51
48.189685
  0
LINE
  5
A8AD
330
A758
100
AcDbEntity
  8
1
  6
Continuous
100
AcDbLine
 10
450.665109
 20
230.222775
 30
0.0
 11
450.5651089999998
 21
230.222775
 31
0.0
  0
LINE
  5
A8AE
330
A758
100
AcDbEntity
  8
1
  6
Continuous
100
AcDbLine
 10
444.037109
 20
231.1759789999999
 30
0.0
 11
440.893109
 21
231.1759789999999
 31
0.0
  0
ARC
  5
A8AF
330
A758
100
AcDbEntity
  8
1
  6
Continuous
100
AcDbCircle
 10
481.2663309999998
 20
226.0052399999999
 30
0.0
 40
32.5
100
AcDbArc
 50
132.1293669999998
 51
144.7816929999999
  0
ARC
  5
A8B0
330
A758
100
AcDbEntity
  8
1
  6
Continuous
100
AcDbCircle
 10
407.064433
 20
234.7477749999999
 30
0.0
 40
84.30067599999999
100
AcDbArc
 50
0.0
 51
16.291234
  0
ARC
  5
A8B1
330
A758
100
AcDbEntity
  8
1
  6
Continuous
100
AcDbCircle
 10
407.064433
 20
234.7477749999999
 30
0.0
 40
86.60067600000003
100
AcDbArc
 50
0.0
 51
16.02982699999999
  0
ARC
  5
A8B2
330
A758
100
AcDbEntity
  8
1
  6
Continuous
100
AcDbCircle
 10
246.7264129999998
 20
218.936324
 30
0.0
 40
250.0
100
AcDbArc
 50
3.425658999999998
 51
11.24695299999999
  0
ARC
  5
A8B3
330
A758
100
AcDbEntity
  8
1
  6
Continuous
100
AcDbCircle
 10
459.6638869999998
 20
226.0052399999999
 30
0.0
 40
32.5
100
AcDbArc
 50
35.21830700000001
 51
47.87063300000001
  0
LINE
  5
A8B4
330
A758
100
AcDbEntity
  8
1
  6
Continuous
100
AcDbLine
 10
490.2651089999998
 20
240.247775
 30
0.0
 11
488.2151089999998
 21
240.247775
 31
0.0
  0
ARC
  5
A8B5
330
A758
100
AcDbEntity
  8
1
  6
Continuous
100
AcDbCircle
 10
485.2151089999998
 20
241.919348
 30
0.0
 40
3.0
100
AcDbArc
 50
0.0
 51
70.528779
  0
ARC
  5
A8B6
330
A758
100
AcDbEntity
  8
1
  6
Continuous
100
AcDbCircle
 10
493.3651089999998
 20
231.0117069999999
 30
0.0
 40
3.0
100
AcDbArc
 50
131.810315
 51
180.0
  0
LINE
  5
A8B7
330
A758
100
AcDbEntity
  8
1
  6
Continuous
100
AcDbLine
 10
490.3651089999998
 20
230.222775
 30
0.0
 11
490.2651089999998
 21
230.222775
 31
0.0
  0
ARC
  5
A8B8
330
A758
100
AcDbEntity
  8
1
  6
Continuous
100
AcDbCircle
 10
483.1151089999998
 20
311.7477749999999
 30
0.0
 40
6.5
100
AcDbArc
 50
0.0
 51
90.0
  0
ARC
  5
A8B9
330
A758
100
AcDbEntity
  8
1
  6
Continuous
100
AcDbCircle
 10
457.815109
 20
311.7477749999999
 30
0.0
 40
6.5
100
AcDbArc
 50
90.0
 51
180.0
  0
LINE
  5
A8BA
330
A758
100
AcDbEntity
  8
1
  6
Continuous
100
AcDbLine
 10
489.615109
 20
302.247775
 30
0.0
 11
451.315109
 21
302.247775
 31
0.0
  0
LINE
  5
A8BB
330
A758
100
AcDbEntity
  8
1
  6
Continuous
100
AcDbLine
 10
449.9651089999998
 20
297.6977749999999
 30
0.0
 11
449.9651089999998
 21
277.4477749999999
 31
0.0
  0
ARC
  5
A8BC
330
A758
100
AcDbEntity
  8
1
  6
Continuous
100
AcDbCircle
 10
454.7151089999998
 20
297.6977749999999
 30
0.0
 40
4.75
100
AcDbArc
 50
106.6855899999999
 51
180.0
  0
LINE
  5
A8BD
330
A758
100
AcDbEntity
  8
1
  6
Continuous
100
AcDbLine
 10
451.315109
 20
302.247775
 30
0.0
 11
451.315109
 21
311.7477749999999
 31
0.0
  0
LINE
  5
A8BE
330
A758
100
AcDbEntity
  8
1
  6
Continuous
100
AcDbLine
 10
490.9651089999998
 20
297.6977749999999
 30
0.0
 11
490.9651089999998
 21
277.4477749999999
 31
0.0
  0
LINE
  5
A8BF
330
A758
100
AcDbEntity
  8
1
  6
Continuous
100
AcDbLine
 10
489.615109
 20
302.247775
 30
0.0
 11
489.615109
 21
311.7477749999999
 31
0.0
  0
ARC
  5
A8C0
330
A758
100
AcDbEntity
  8
1
  6
Continuous
100
AcDbCircle
 10
486.215109
 20
297.6977749999999
 30
0.0
 40
4.75
100
AcDbArc
 50
0.0
 51
73.31440999999998
  0
LINE
  5
A8C1
330
A758
100
AcDbEntity
  8
1
  6
Continuous
100
AcDbLine
 10
479.365088
 20
357.147775
 30
0.0
 11
461.565088
 21
357.147775
 31
0.0
  0
LINE
  5
A8C2
330
A758
100
AcDbEntity
  8
1
  6
Continuous
100
AcDbLine
 10
461.565088
 20
358.747775
 30
0.0
 11
479.365088
 21
358.747775
 31
0.0
  0
LINE
  5
A8C3
330
A758
100
AcDbEntity
  8
1
  6
Continuous
100
AcDbLine
 10
483.1151089999998
 20
318.2477749999998
 30
0.0
 11
457.815109
 21
318.2477749999998
 31
0.0
  0
LINE
  5
A8C4
330
A758
100
AcDbEntity
  8
1
  6
Continuous
100
AcDbLine
 10
480.965109
 20
322.2477749999999
 30
0.0
 11
459.965109
 21
322.2477749999999
 31
0.0
  0
LINE
  5
A8C5
330
A758
100
AcDbEntity
  8
1
  6
Continuous
100
AcDbLine
 10
478.9650879999999
 20
324.2477749999999
 30
0.0
 11
461.965088
 21
324.2477749999999
 31
0.0
  0
LINE
  5
A8C6
330
A758
100
AcDbEntity
  8
1
  6
Continuous
100
AcDbLine
 10
479.9650879999998
 20
328.147775
 30
0.0
 11
460.965088
 21
328.147775
 31
0.0
  0
ARC
  5
A8C7
330
A758
100
AcDbEntity
  8
1
  6
Continuous
100
AcDbCircle
 10
787.481755
 20
342.147775
 30
0.0
 40
326.8166669999998
100
AcDbArc
 50
177.5297759999999
 51
182.4551579999999
  0
ARC
  5
A8C8
330
A758
100
AcDbEntity
  8
1
  6
Continuous
100
AcDbCircle
 10
460.4651089999999
 20
323.247775
 30
0.0
 40
1.0
100
AcDbArc
 50
270.0
 51
0.0
  0
ARC
  5
A8C9
330
A758
100
AcDbEntity
  8
1
  6
Continuous
100
AcDbCircle
 10
462.4651089999998
 20
323.247775
 30
0.0
 40
1.0
100
AcDbArc
 50
90.0
 51
180.0
  0
ARC
  5
A8CA
330
A758
100
AcDbEntity
  8
1
  6
Continuous
100
AcDbCircle
 10
461.965088
 20
325.247775
 30
0.0
 40
1.0
100
AcDbArc
 50
180.0
 51
270.0
  0
LINE
  5
A8CB
330
A758
100
AcDbEntity
  8
1
  6
Continuous
100
AcDbLine
 10
460.965088
 20
328.147775
 30
0.0
 11
460.965088
 21
325.247775
 31
0.0
  0
LINE
  5
A8CC
330
A758
100
AcDbEntity
  8
1
  6
Continuous
100
AcDbLine
 10
459.965109
 20
318.2477749999998
 30
0.0
 11
459.965109
 21
322.2477749999999
 31
0.0
  0
ARC
  5
A8CD
330
A758
100
AcDbEntity
  8
1
  6
Continuous
100
AcDbCircle
 10
461.965088
 20
356.147775
 30
0.0
 40
1.0
100
AcDbArc
 50
90.0
 51
180.0
  0
LINE
  5
A8CE
330
A758
100
AcDbEntity
  8
1
  6
Continuous
100
AcDbLine
 10
461.565088
 20
358.747775
 30
0.0
 11
461.565088
 21
357.147775
 31
0.0
  0
ARC
  5
A8CF
330
A758
100
AcDbEntity
  8
1
  6
Continuous
100
AcDbCircle
 10
461.965088
 20
359.7477749999998
 30
0.0
 40
1.0
100
AcDbArc
 50
180.0
 51
270.0
  0
ARC
  5
A8D0
330
A758
100
AcDbEntity
  8
1
  6
Continuous
100
AcDbCircle
 10
153.448421
 20
342.147775
 30
0.0
 40
326.8166669999998
100
AcDbArc
 50
357.544842
 51
2.470223999999999
  0
ARC
  5
A8D1
330
A758
100
AcDbEntity
  8
1
  6
Continuous
100
AcDbCircle
 10
478.4651089999998
 20
323.247775
 30
0.0
 40
1.0
100
AcDbArc
 50
0.0
 51
90.0
  0
LINE
  5
A8D2
330
A758
100
AcDbEntity
  8
1
  6
Continuous
100
AcDbLine
 10
480.965109
 20
318.2477749999998
 30
0.0
 11
480.965109
 21
322.2477749999999
 31
0.0
  0
ARC
  5
A8D3
330
A758
100
AcDbEntity
  8
1
  6
Continuous
100
AcDbCircle
 10
480.465109
 20
323.247775
 30
0.0
 40
1.0
100
AcDbArc
 50
180.0
 51
270.0
  0
ARC
  5
A8D4
330
A758
100
AcDbEntity
  8
1
  6
Continuous
100
AcDbCircle
 10
478.9650879999999
 20
325.247775
 30
0.0
 40
1.0
100
AcDbArc
 50
270.0
 51
0.0
  0
LINE
  5
A8D5
330
A758
100
AcDbEntity
  8
1
  6
Continuous
100
AcDbLine
 10
479.9650879999998
 20
328.147775
 30
0.0
 11
479.9650879999998
 21
325.247775
 31
0.0
  0
LINE
  5
A8D6
330
A758
100
AcDbEntity
  8
1
  6
Continuous
100
AcDbLine
 10
470.4651089999998
 20
322.2477749999999
 30
0.0
 11
470.4651089999998
 21
318.2477749999998
 31
0.0
  0
ARC
  5
A8D7
330
A758
100
AcDbEntity
  8
1
  6
Continuous
100
AcDbCircle
 10
478.9650879999999
 20
356.147775
 30
0.0
 40
1.0
100
AcDbArc
 50
0.0
 51
90.0
  0
LINE
  5
A8D8
330
A758
100
AcDbEntity
  8
1
  6
Continuous
100
AcDbLine
 10
479.365088
 20
358.747775
 30
0.0
 11
479.365088
 21
357.147775
 31
0.0
  0
ARC
  5
A8D9
330
A758
100
AcDbEntity
  8
1
  6
Continuous
100
AcDbCircle
 10
478.9650879999999
 20
359.7477749999998
 30
0.0
 40
1.0
100
AcDbArc
 50
270.0
 51
0.0
  0
LINE
  5
A8DA
330
A758
100
AcDbEntity
  8
1
  6
Continuous
100
AcDbLine
 10
462.1151089999998
 20
394.847775
 30
0.0
 11
478.815109
 21
394.847775
 31
0.0
  0
LINE
  5
A8DB
330
A758
100
AcDbEntity
  8
1
  6
Continuous
100
AcDbLine
 10
461.965088
 20
391.647775
 30
0.0
 11
478.9650879999999
 21
391.647775
 31
0.0
  0
LINE
  5
A8DC
330
A758
100
AcDbEntity
  8
1
  6
Continuous
100
AcDbLine
 10
460.965088
 20
388.647775
 30
0.0
 11
479.9650879999998
 21
388.647775
 31
0.0
  0
LINE
  5
A8DD
330
A758
100
AcDbEntity
  8
1
  6
Continuous
100
AcDbLine
 10
474.9650879999999
 20
397.2477749999998
 30
0.0
 11
465.965088
 21
397.2477749999998
 31
0.0
  0
LINE
  5
A8DE
330
A758
100
AcDbEntity
  8
1
  6
Continuous
100
AcDbLine
 10
476.4650879999998
 20
395.7477749999998
 30
0.0
 11
464.4650879999998
 21
395.7477749999998
 31
0.0
  0
LINE
  5
A8DF
330
A758
100
AcDbEntity
  8
1
  6
Continuous
100
AcDbLine
 10
462.1151089999998
 20
394.847775
 30
0.0
 11
462.1151089999998
 21
391.647775
 31
0.0
  0
LINE
  5
A8E0
330
A758
100
AcDbEntity
  8
1
  6
Continuous
100
AcDbLine
 10
461.965088
 20
388.647775
 30
0.0
 11
461.965088
 21
391.647775
 31
0.0
  0
LINE
  5
A8E1
330
A758
100
AcDbEntity
  8
1
  6
Continuous
100
AcDbLine
 10
464.4650879999998
 20
395.7477749999998
 30
0.0
 11
464.4650879999998
 21
394.847775
 31
0.0
  0
LINE
  5
A8E2
330
A758
100
AcDbEntity
  8
1
  6
Continuous
100
AcDbLine
 10
464.4650879999998
 20
395.7477749999998
 30
0.0
 11
465.965088
 21
397.2477749999998
 31
0.0
  0
LINE
  5
A8E3
330
A758
100
AcDbEntity
  8
1
  6
Continuous
100
AcDbLine
 10
478.815109
 20
394.847775
 30
0.0
 11
478.815109
 21
391.647775
 31
0.0
  0
LINE
  5
A8E4
330
A758
100
AcDbEntity
  8
1
  6
Continuous
100
AcDbLine
 10
478.9650879999999
 20
388.647775
 30
0.0
 11
478.9650879999999
 21
391.647775
 31
0.0
  0
LINE
  5
A8E5
330
A758
100
AcDbEntity
  8
1
  6
Continuous
100
AcDbLine
 10
476.4650879999998
 20
395.7477749999998
 30
0.0
 11
476.4650879999998
 21
394.847775
 31
0.0
  0
LINE
  5
A8E6
330
A758
100
AcDbEntity
  8
1
  6
Continuous
100
AcDbLine
 10
476.4650879999998
 20
395.7477749999998
 30
0.0
 11
474.9650879999999
 21
397.2477749999998
 31
0.0
  0
LINE
  5
A8E7
330
A758
100
AcDbEntity
  8
4
  6
CENTER
100
AcDbLine
 10
339.7003899999999
 20
76.03216299999998
 30
0.0
 11
196.260159
 21
76.03216299999998
 31
0.0
  0
ARC
  5
A8E8
330
A758
100
AcDbEntity
  8
1
  6
Continuous
100
AcDbCircle
 10
312.6143379999998
 20
76.03216299999998
 30
0.0
 40
20.5
100
AcDbArc
 50
298.4582939999999
 51
61.558737
  0
LINE
  5
A8E9
330
A758
100
AcDbEntity
  8
1
  6
Continuous
100
AcDbLine
 10
276.8833939999999
 20
99.23216299999999
 30
0.0
 11
257.1143379999999
 21
99.23216299999999
 31
0.0
  0
LINE
  5
A8EA
330
A758
100
AcDbEntity
  8
1
  6
Continuous
100
AcDbLine
 10
275.1143379999999
 20
101.532163
 30
0.0
 11
260.1143379999999
 21
101.532163
 31
0.0
  0
LINE
  5
A8EB
330
A758
100
AcDbEntity
  8
1
  6
Continuous
100
AcDbLine
 10
276.8833939999999
 20
52.832163
 30
0.0
 11
257.1143379999999
 21
52.832163
 31
0.0
  0
LINE
  5
A8EC
330
A758
100
AcDbEntity
  8
1
  6
Continuous
100
AcDbLine
 10
275.1143379999999
 20
50.53216299999998
 30
0.0
 11
260.1143379999999
 21
50.53216299999998
 31
0.0
  0
ARC
  5
A8ED
330
A758
100
AcDbEntity
  8
1
  6
Continuous
100
AcDbCircle
 10
261.7428129999999
 20
-15.36089599999999
 30
0.0
 40
68.19305799999999
100
AcDbArc
 50
77.93721399999999
 51
90.0
  0
LINE
  5
A8EE
330
A758
100
AcDbEntity
  8
1
  6
Continuous
100
AcDbLine
 10
278.1143379999999
 20
96.93216300000001
 30
0.0
 11
257.1143379999999
 21
96.93216300000001
 31
0.0
  0
LINE
  5
A8EF
330
A758
100
AcDbEntity
  8
1
  6
Continuous
100
AcDbLine
 10
285.285911
 20
93.782163
 30
0.0
 11
249.9427649999999
 21
93.782163
 31
0.0
  0
LINE
  5
A8F0
330
A758
100
AcDbEntity
  8
1
  6
Continuous
100
AcDbLine
 10
283.6143379999999
 20
95.832163
 30
0.0
 11
251.6143379999999
 21
95.832163
 31
0.0
  0
LINE
  5
A8F1
330
A758
100
AcDbEntity
  8
1
  6
Continuous
100
AcDbLine
 10
278.1143379999999
 20
55.13216299999999
 30
0.0
 11
257.1143379999999
 21
55.13216299999999
 31
0.0
  0
LINE
  5
A8F2
330
A758
100
AcDbEntity
  8
1
  6
Continuous
100
AcDbLine
 10
285.285911
 20
58.282163
 30
0.0
 11
249.9427649999999
 21
58.282163
 31
0.0
  0
LINE
  5
A8F3
330
A758
100
AcDbEntity
  8
1
  6
Continuous
100
AcDbLine
 10
283.6143379999999
 20
56.232163
 30
0.0
 11
251.6143379999999
 21
56.232163
 31
0.0
  0
LINE
  5
A8F4
330
A758
100
AcDbEntity
  8
1
  6
Continuous
100
AcDbLine
 10
288.1143379999999
 20
60.282163
 30
0.0
 11
247.114338
 21
60.282163
 31
0.0
  0
LINE
  5
A8F5
330
A758
100
AcDbEntity
  8
1
  6
Continuous
100
AcDbLine
 10
288.1143379999999
 20
91.782163
 30
0.0
 11
247.114338
 21
91.782163
 31
0.0
  0
LINE
  5
A8F6
330
A758
100
AcDbEntity
  8
1
  6
Continuous
100
AcDbLine
 10
274.3782700000001
 20
56.132163
 30
0.0
 11
260.850406
 21
56.132163
 31
0.0
  0
LINE
  5
A8F7
330
A758
100
AcDbEntity
  8
1
  6
Continuous
100
AcDbLine
 10
274.3782700000001
 20
95.93216299999999
 30
0.0
 11
260.850406
 21
95.93216299999999
 31
0.0
  0
LINE
  5
A8F8
330
A758
100
AcDbEntity
  8
4
  6
CENTER
100
AcDbLine
 10
267.6143379999999
 20
40.126603
 30
0.0
 11
267.6143379999999
 21
112.7030949999999
 31
0.0
  0
ARC
  5
A8F9
330
A758
100
AcDbEntity
  8
1
  6
Continuous
100
AcDbCircle
 10
260.850406
 20
53.132163
 30
0.0
 40
3.0
100
AcDbArc
 50
90.0
 51
138.1896849999999
  0
LINE
  5
A8FA
330
A758
100
AcDbEntity
  8
1
  6
Continuous
100
AcDbLine
 10
260.1143379999999
 20
50.53216299999998
 30
0.0
 11
260.1143379999999
 21
52.832163
 31
0.0
  0
LINE
  5
A8FB
330
A758
100
AcDbEntity
  8
1
  6
Continuous
100
AcDbLine
 10
257.1143379999999
 20
52.832163
 30
0.0
 11
257.1143379999999
 21
55.13216299999999
 31
0.0
  0
ARC
  5
A8FC
330
A758
100
AcDbEntity
  8
1
  6
Continuous
100
AcDbCircle
 10
265.856873
 20
86.83338499999996
 30
0.0
 40
32.5
100
AcDbArc
 50
222.129367
 51
234.781693
  0
LINE
  5
A8FD
330
A758
100
AcDbEntity
  8
1
  6
Continuous
100
AcDbLine
 10
251.6143379999999
 20
56.232163
 30
0.0
 11
251.6143379999999
 21
58.282163
 31
0.0
  0
ARC
  5
A8FE
330
A758
100
AcDbEntity
  8
1
  6
Continuous
100
AcDbCircle
 10
249.9427649999999
 20
61.282163
 30
0.0
 40
3.0
100
AcDbArc
 50
199.4712209999999
 51
270.0
  0
LINE
  5
A8FF
330
A758
100
AcDbEntity
  8
1
  6
Continuous
100
AcDbLine
 10
261.639338
 20
56.132163
 30
0.0
 11
261.639338
 21
56.232163
 31
0.0
  0
LINE
  5
A900
330
A758
100
AcDbEntity
  8
1
  6
Continuous
100
AcDbLine
 10
260.1143379999999
 20
99.23216299999999
 30
0.0
 11
260.1143379999999
 21
101.532163
 31
0.0
  0
ARC
  5
A901
330
A758
100
AcDbEntity
  8
1
  6
Continuous
100
AcDbCircle
 10
265.856873
 20
65.230941
 30
0.0
 40
32.5
100
AcDbArc
 50
125.218307
 51
137.632473
  0
LINE
  5
A902
330
A758
100
AcDbEntity
  8
1
  6
Continuous
100
AcDbLine
 10
251.6143379999999
 20
93.782163
 30
0.0
 11
251.6143379999999
 21
95.832163
 31
0.0
  0
ARC
  5
A903
330
A758
100
AcDbEntity
  8
1
  6
Continuous
100
AcDbCircle
 10
249.9427649999999
 20
90.78216299999999
 30
0.0
 40
3.0
100
AcDbArc
 50
90.0
 51
160.528779
  0
ARC
  5
A904
330
A758
100
AcDbEntity
  8
1
  6
Continuous
100
AcDbCircle
 10
260.850406
 20
98.932163
 30
0.0
 40
3.0
100
AcDbArc
 50
221.810315
 51
270.0
  0
LINE
  5
A905
330
A758
100
AcDbEntity
  8
1
  6
Continuous
100
AcDbLine
 10
261.639338
 20
95.832163
 30
0.0
 11
261.639338
 21
95.93216299999999
 31
0.0
  0
LINE
  5
A906
330
A758
100
AcDbEntity
  8
1
  6
Continuous
100
AcDbLine
 10
257.1143379999999
 20
96.93216300000001
 30
0.0
 11
257.1143379999999
 21
99.23216299999999
 31
0.0
  0
ARC
  5
A907
330
A758
100
AcDbEntity
  8
1
  6
Continuous
100
AcDbCircle
 10
312.6143379999998
 20
76.03216299999998
 30
0.0
 40
20.5
100
AcDbArc
 50
137.1458419999999
 51
147.548509
  0
LINE
  5
A908
330
A758
100
AcDbEntity
  8
4
  6
CENTER
100
AcDbLine
 10
312.6143379999998
 20
46.96003799999998
 30
0.0
 11
312.6143379999998
 21
103.692826
 31
0.0
  0
ARC
  5
A909
330
A758
100
AcDbEntity
  8
1
  6
Continuous
100
AcDbCircle
 10
274.3782700000001
 20
53.132163
 30
0.0
 40
3.0
100
AcDbArc
 50
41.810315
 51
90.0
  0
ARC
  5
A90A
330
A758
100
AcDbEntity
  8
1
  6
Continuous
100
AcDbCircle
 10
278.1143379999999
 20
85.85919
 30
0.0
 40
30.72702700000001
100
AcDbArc
 50
270.0
 51
313.614773
  0
LINE
  5
A90B
330
A758
100
AcDbEntity
  8
1
  6
Continuous
100
AcDbLine
 10
275.1143379999999
 20
50.53216299999998
 30
0.0
 11
275.1143379999999
 21
51.508346
 31
0.0
  0
LINE
  5
A90C
330
A758
100
AcDbEntity
  8
1
  6
Continuous
100
AcDbLine
 10
283.6143379999999
 20
56.232163
 30
0.0
 11
283.6143379999999
 21
58.282163
 31
0.0
  0
LINE
  5
A90D
330
A758
100
AcDbEntity
  8
1
  6
Continuous
100
AcDbLine
 10
273.5893379999998
 20
56.132163
 30
0.0
 11
273.5893379999998
 21
56.232163
 31
0.0
  0
ARC
  5
A90E
330
A758
100
AcDbEntity
  8
1
  6
Continuous
100
AcDbCircle
 10
269.3718029999998
 20
86.83338499999996
 30
0.0
 40
32.5
100
AcDbArc
 50
305.2183069999998
 51
317.870633
  0
ARC
  5
A90F
330
A758
100
AcDbEntity
  8
1
  6
Continuous
100
AcDbCircle
 10
285.285911
 20
61.282163
 30
0.0
 40
3.0
100
AcDbArc
 50
270.0
 51
340.528779
  0
ARC
  5
A910
330
A758
100
AcDbEntity
  8
1
  6
Continuous
100
AcDbCircle
 10
278.1143379999999
 20
66.20513599999999
 30
0.0
 40
30.72702700000001
100
AcDbArc
 50
46.38522700000001
 51
90.0
  0
ARC
  5
A911
330
A758
100
AcDbEntity
  8
1
  6
Continuous
100
AcDbCircle
 10
274.3782700000001
 20
98.932163
 30
0.0
 40
3.0
100
AcDbArc
 50
270.0
 51
318.189685
  0
LINE
  5
A912
330
A758
100
AcDbEntity
  8
1
  6
Continuous
100
AcDbLine
 10
283.6143379999999
 20
93.782163
 30
0.0
 11
283.6143379999999
 21
95.832163
 31
0.0
  0
LINE
  5
A913
330
A758
100
AcDbEntity
  8
1
  6
Continuous
100
AcDbLine
 10
273.5893379999998
 20
95.832163
 30
0.0
 11
273.5893379999998
 21
95.93216299999999
 31
0.0
  0
ARC
  5
A914
330
A758
100
AcDbEntity
  8
1
  6
Continuous
100
AcDbCircle
 10
269.3718029999998
 20
65.230941
 30
0.0
 40
32.5
100
AcDbArc
 50
42.12936699999999
 51
54.78169300000001
  0
ARC
  5
A915
330
A758
100
AcDbEntity
  8
1
  6
Continuous
100
AcDbCircle
 10
285.285911
 20
90.78216299999999
 30
0.0
 40
3.0
100
AcDbArc
 50
19.47122099999998
 51
90.0
  0
LINE
  5
A916
330
A758
100
AcDbEntity
  8
1
  6
Continuous
100
AcDbLine
 10
275.1143379999999
 20
100.5559789999999
 30
0.0
 11
275.1143379999999
 21
101.532163
 31
0.0
  0
LINE
  5
A917
330
A758
100
AcDbEntity
  8
1
  6
Continuous
100
AcDbLine
 10
295.315494
 20
493.048598
 30
0.0
 11
213.8143379999999
 21
493.048598
 31
0.0
  0
LINE
  5
A918
330
A758
100
AcDbEntity
  8
1
  6
Continuous
100
AcDbLine
 10
295.315494
 20
471.048598
 30
0.0
 11
213.8143379999999
 21
471.048598
 31
0.0
  0
ARC
  5
A919
330
A758
100
AcDbEntity
  8
1
  6
Continuous
100
AcDbCircle
 10
213.8143379999999
 20
482.0485979999999
 30
0.0
 40
11.0
100
AcDbArc
 50
90.0
 51
270.0
  0
CIRCLE
  5
A91A
330
A758
100
AcDbEntity
  8
1
  6
Continuous
100
AcDbCircle
 10
312.6143379999998
 20
482.0485979999999
 30
0.0
 40
9.5
  0
CIRCLE
  5
A91B
330
A758
100
AcDbEntity
  8
2
  6
Continuous
100
AcDbCircle
 10
312.6143379999998
 20
482.0485979999999
 30
0.0
 40
5.3235
  0
CIRCLE
  5
A91C
330
A758
100
AcDbEntity
  8
1
  6
Continuous
100
AcDbCircle
 10
312.6143379999998
 20
482.0485979999999
 30
0.0
 40
4.5
  0
LINE
  5
A91D
330
A758
100
AcDbEntity
  8
1
  6
Continuous
100
AcDbLine
 10
459.465109
 20
278.2477749999998
 30
0.0
 11
459.465109
 21
170.2477749999999
 31
0.0
  0
LINE
  5
A91E
330
A758
100
AcDbEntity
  8
1
  6
Continuous
100
AcDbLine
 10
481.4651089999999
 20
278.2477749999998
 30
0.0
 11
481.4651089999999
 21
170.2477749999999
 31
0.0
  0
ARC
  5
A91F
330
A758
100
AcDbEntity
  8
1
  6
Continuous
100
AcDbCircle
 10
470.4651089999998
 20
278.2477749999998
 30
0.0
 40
11.0
100
AcDbArc
 50
0.0
 51
67.608676
  0
ARC
  5
A920
330
A758
100
AcDbEntity
  8
1
  6
Continuous
100
AcDbCircle
 10
470.4651089999998
 20
170.2477749999999
 30
0.0
 40
11.0
100
AcDbArc
 50
180.0
 51
0.0
  0
ARC
  5
A921
330
A758
100
AcDbEntity
  8
1
  6
Continuous
100
AcDbCircle
 10
77.00595899999997
 20
278.2477749999998
 30
0.0
 40
11.0
100
AcDbArc
 50
0.0
 51
180.0
  0
LINE
  5
A922
330
A758
100
AcDbEntity
  8
1
  6
Continuous
100
AcDbLine
 10
66.00595899999999
 20
278.2477749999998
 30
0.0
 11
66.00595899999999
 21
170.2477749999999
 31
0.0
  0
LINE
  5
A923
330
A758
100
AcDbEntity
  8
1
  6
Continuous
100
AcDbLine
 10
88.00595899999995
 20
278.2477749999998
 30
0.0
 11
88.00595899999995
 21
170.2477749999999
 31
0.0
  0
ARC
  5
A924
330
A758
100
AcDbEntity
  8
1
  6
Continuous
100
AcDbCircle
 10
77.00595899999997
 20
170.2477749999999
 30
0.0
 40
11.0
100
AcDbArc
 50
180.0
 51
0.0
  0
ARC
  5
A925
330
A758
100
AcDbEntity
  8
1
  6
Continuous
100
AcDbCircle
 10
470.4651089999998
 20
278.2477749999998
 30
0.0
 40
11.0
100
AcDbArc
 50
112.391324
 51
180.0
  0
ARC
  5
A926
330
A758
100
AcDbEntity
  8
1
  6
Continuous
100
AcDbCircle
 10
460.243487
 20
255.900102
 30
0.0
 40
10.0
100
AcDbArc
 50
158.460325
 51
163.970181
  0
ARC
  5
A927
330
A758
100
AcDbEntity
  8
1
  6
Continuous
100
AcDbCircle
 10
480.686728
 20
255.900112
 30
0.0
 40
10.0
100
AcDbArc
 50
16.02982699999999
 51
21.539671
  0
LINE
  5
A928
330
A758
100
AcDbEntity
  8
1
  6
Continuous
100
AcDbLine
 10
467.0780159999998
 20
288.4477749999998
 30
0.0
 11
473.8522019999998
 21
288.4477749999998
 31
0.0
  0
ARC
  5
A929
330
A758
100
AcDbEntity
  8
1
  6
Continuous
100
AcDbCircle
 10
259.1552409999998
 20
321.509993
 30
0.0
 40
201.540253
100
AcDbArc
 50
342.10188
 51
348.0351049999999
  0
ARC
  5
A92A
330
A758
100
AcDbEntity
  8
1
  6
Continuous
100
AcDbCircle
 10
441.0211249999998
 20
261.4228539999999
 30
0.0
 40
10.0
100
AcDbArc
 50
343.970181
 51
343.970181
  0
ARC
  5
A92B
330
A758
100
AcDbEntity
  8
1
  6
Continuous
100
AcDbCircle
 10
-241.670438
 20
450.1808259999998
 30
0.0
 40
720.610128
100
AcDbArc
 50
344.3857669999999
 51
346.8157819999998
  0
ARC
  5
A92C
330
A758
100
AcDbEntity
  8
1
  6
Continuous
100
AcDbCircle
 10
467.0780159999998
 20
277.4477749999999
 30
0.0
 40
11.0
100
AcDbArc
 50
90.0
 51
168.0351049999999
  0
ARC
  5
A92D
330
A758
100
AcDbEntity
  8
1
  6
Continuous
100
AcDbCircle
 10
1182.600657
 20
450.1808259999998
 30
0.0
 40
720.610128
100
AcDbArc
 50
193.1842179999999
 51
195.614233
  0
ARC
  5
A92E
330
A758
100
AcDbEntity
  8
1
  6
Continuous
100
AcDbCircle
 10
473.8522019999998
 20
277.4477749999999
 30
0.0
 40
11.0
100
AcDbArc
 50
11.96489499999999
 51
90.0
  0
ARC
  5
A92F
330
A758
100
AcDbEntity
  8
1
  6
Continuous
100
AcDbCircle
 10
681.7749769999998
 20
321.509993
 30
0.0
 40
201.540253
100
AcDbArc
 50
191.9648949999999
 51
197.8981199999998
  0
LINE
  5
A930
330
A758
100
AcDbEntity
  8
1
  6
Continuous
100
AcDbLine
 10
274.5425419999999
 20
507.548598
 30
0.0
 11
260.6861349999999
 21
507.548598
 31
0.0
  0
LINE
  5
A931
330
A758
100
AcDbEntity
  8
1
  6
Continuous
100
AcDbLine
 10
51.50595899999999
 20
231.175978
 30
0.0
 11
51.50595899999999
 21
217.3195719999999
 31
0.0
  0
ARC
  5
A932
330
A758
100
AcDbEntity
  8
1
  6
Continuous
100
AcDbCircle
 10
49.072947
 20
219.051623
 30
0.0
 40
3.066986999999998
100
AcDbArc
 50
145.615753
 51
205.615753
  0
LINE
  5
A933
330
A758
100
AcDbEntity
  8
1
  6
Continuous
100
AcDbLine
 10
46.005959
 20
230.2477749999999
 30
0.0
 11
46.005959
 21
218.2477749999999
 31
0.0
  0
LINE
  5
A934
330
A758
100
AcDbEntity
  8
1
  6
Continuous
100
AcDbLine
 10
46.54185799999999
 20
217.3195719999999
 30
0.0
 11
46.005959
 21
218.2477749999999
 31
0.0
  0
LINE
  5
A935
330
A758
100
AcDbEntity
  8
1
  6
Continuous
100
AcDbLine
 10
46.54185799999999
 20
217.3195719999999
 30
0.0
 11
51.50595899999999
 21
217.3195719999999
 31
0.0
  0
LINE
  5
A936
330
A758
100
AcDbEntity
  8
1
  6
Continuous
100
AcDbLine
 10
46.54185799999999
 20
231.175978
 30
0.0
 11
46.005959
 21
230.2477749999999
 31
0.0
  0
ARC
  5
A937
330
A758
100
AcDbEntity
  8
1
  6
Continuous
100
AcDbCircle
 10
49.072947
 20
229.4439279999998
 30
0.0
 40
3.066986999999998
100
AcDbArc
 50
154.3842469999999
 51
214.384247
  0
ARC
  5
A938
330
A758
100
AcDbEntity
  8
1
  6
Continuous
100
AcDbCircle
 10
57.470061
 20
224.2477749999999
 30
0.0
 40
11.464102
100
AcDbArc
 50
162.412046
 51
197.5879539999999
  0
LINE
  5
A939
330
A758
100
AcDbEntity
  8
1
  6
Continuous
100
AcDbLine
 10
46.54185799999999
 20
231.175978
 30
0.0
 11
51.50595899999999
 21
231.175978
 31
0.0
  0
LINE
  5
A93A
330
A758
100
AcDbEntity
  8
1
  6
Continuous
100
AcDbLine
 10
46.54185799999999
 20
227.7118769999999
 30
0.0
 11
51.50595899999999
 21
227.7118769999999
 31
0.0
  0
LINE
  5
A93B
330
A758
100
AcDbEntity
  8
1
  6
Continuous
100
AcDbLine
 10
46.54185799999999
 20
220.7836739999999
 30
0.0
 11
51.50595899999999
 21
220.7836739999999
 31
0.0
  0
LINE
  5
A93C
330
A758
100
AcDbEntity
  8
1
  6
Continuous
100
AcDbLine
 10
106.970061
 20
231.175978
 30
0.0
 11
107.505959
 21
230.2477749999999
 31
0.0
  0
LINE
  5
A93D
330
A758
100
AcDbEntity
  8
1
  6
Continuous
100
AcDbLine
 10
103.0418579999999
 20
231.175978
 30
0.0
 11
102.5059589999999
 21
230.2477749999999
 31
0.0
  0
LINE
  5
A93E
330
A758
100
AcDbEntity
  8
1
  6
Continuous
100
AcDbLine
 10
103.0418579999999
 20
231.175978
 30
0.0
 11
106.970061
 21
231.175978
 31
0.0
  0
LINE
  5
A93F
330
A758
100
AcDbEntity
  8
1
  6
Continuous
100
AcDbLine
 10
103.0418579999999
 20
227.7118769999999
 30
0.0
 11
106.970061
 21
227.7118769999999
 31
0.0
  0
ARC
  5
A940
330
A758
100
AcDbEntity
  8
1
  6
Continuous
100
AcDbCircle
 10
104.4389719999998
 20
229.4439279999998
 30
0.0
 40
3.066986999999998
100
AcDbArc
 50
325.6157529999999
 51
25.615753
  0
ARC
  5
A941
330
A758
100
AcDbEntity
  8
1
  6
Continuous
100
AcDbCircle
 10
105.5729469999999
 20
229.4439279999998
 30
0.0
 40
3.066986999999998
100
AcDbArc
 50
154.3842469999999
 51
214.384247
  0
ARC
  5
A942
330
A758
100
AcDbEntity
  8
1
  6
Continuous
100
AcDbCircle
 10
104.4389719999998
 20
219.051623
 30
0.0
 40
3.066986999999998
100
AcDbArc
 50
334.384247
 51
34.38424699999998
  0
ARC
  5
A943
330
A758
100
AcDbEntity
  8
1
  6
Continuous
100
AcDbCircle
 10
105.5729469999999
 20
219.051623
 30
0.0
 40
3.066986999999998
100
AcDbArc
 50
145.615753
 51
205.615753
  0
LINE
  5
A944
330
A758
100
AcDbEntity
  8
1
  6
Continuous
100
AcDbLine
 10
103.0418579999999
 20
220.7836739999999
 30
0.0
 11
106.970061
 21
220.7836739999999
 31
0.0
  0
LINE
  5
A945
330
A758
100
AcDbEntity
  8
1
  6
Continuous
100
AcDbLine
 10
103.0418579999999
 20
217.3195719999999
 30
0.0
 11
106.970061
 21
217.3195719999999
 31
0.0
  0
LINE
  5
A946
330
A758
100
AcDbEntity
  8
1
  6
Continuous
100
AcDbLine
 10
106.970061
 20
217.3195719999999
 30
0.0
 11
107.505959
 21
218.2477749999999
 31
0.0
  0
LINE
  5
A947
330
A758
100
AcDbEntity
  8
1
  6
Continuous
100
AcDbLine
 10
103.0418579999999
 20
217.3195719999999
 30
0.0
 11
102.5059589999999
 21
218.2477749999999
 31
0.0
  0
LINE
  5
A948
330
A758
100
AcDbEntity
  8
1
  6
Continuous
100
AcDbLine
 10
107.505959
 20
230.2477749999999
 30
0.0
 11
107.505959
 21
218.2477749999999
 31
0.0
  0
ARC
  5
A949
330
A758
100
AcDbEntity
  8
1
  6
Continuous
100
AcDbCircle
 10
96.04185800000001
 20
224.2477749999999
 30
0.0
 40
11.464102
100
AcDbArc
 50
342.4120459999999
 51
17.587954
  0
ARC
  5
A94A
330
A758
100
AcDbEntity
  8
1
  6
Continuous
100
AcDbCircle
 10
113.970061
 20
224.2477749999999
 30
0.0
 40
11.464102
100
AcDbArc
 50
162.412046
 51
197.5879539999999
  0
LINE
  5
A94B
330
A758
100
AcDbEntity
  8
1
  6
Continuous
100
AcDbLine
 10
102.5059589999999
 20
230.2477749999999
 30
0.0
 11
102.5059589999999
 21
218.2477749999999
 31
0.0
  0
ARC
  5
A94C
330
A758
100
AcDbEntity
  8
1
  6
Continuous
100
AcDbCircle
 10
456.58766
 20
228.797618
 30
0.0
 40
40.015434
100
AcDbArc
 50
337.907626
 51
7.289194999999997
  0
ARC
  5
A94D
330
A758
100
AcDbEntity
  8
1
  6
Continuous
100
AcDbCircle
 10
484.3425579999998
 20
228.797618
 30
0.0
 40
40.015434
100
AcDbArc
 50
172.710805
 51
202.092374
  0
ARC
  5
A94E
330
A758
100
AcDbEntity
  8
1
  6
Continuous
100
AcDbCircle
 10
438.035592
 20
224.2477749999999
 30
0.0
 40
6.929516999999997
100
AcDbArc
 50
24.032045
 51
29.993727
  0
ARC
  5
A94F
330
A758
100
AcDbEntity
  8
1
  6
Continuous
100
AcDbCircle
 10
442.884729
 20
229.4439279999998
 30
0.0
 40
2.080379
100
AcDbArc
 50
43.977835
 51
56.36312499999998
  0
ARC
  5
A950
330
A758
100
AcDbEntity
  8
1
  6
Continuous
100
AcDbCircle
 10
267.6143379999999
 20
224.2477749999999
 30
0.0
 40
65.0
100
AcDbArc
 50
62.01562400000001
 51
25.631885
  0
ARC
  5
A951
330
A758
100
AcDbEntity
  8
1
  6
Continuous
100
AcDbCircle
 10
270.6143379999999
 20
447.8835349999997
 30
0.0
 40
8.665063999999999
100
AcDbArc
 50
69.743842
 51
110.256158
  0
ARC
  5
A952
330
A758
100
AcDbEntity
  8
1
  6
Continuous
100
AcDbCircle
 10
270.6143379999999
 20
460.213662
 30
0.0
 40
8.665063999999999
100
AcDbArc
 50
249.7438419999999
 51
290.256158
  0
LINE
  5
A953
330
A758
100
AcDbEntity
  8
1
  6
Continuous
100
AcDbLine
 10
273.6143379999999
 20
456.548598
 30
0.0
 11
261.614338
 21
456.548598
 31
0.0
  0
LINE
  5
A954
330
A758
100
AcDbEntity
  8
1
  6
Continuous
100
AcDbLine
 10
273.6143379999999
 20
451.548598
 30
0.0
 11
261.614338
 21
451.548598
 31
0.0
  0
LINE
  5
A955
330
A758
100
AcDbEntity
  8
1
  6
Continuous
100
AcDbLine
 10
261.614338
 20
451.548598
 30
0.0
 11
261.614338
 21
456.548598
 31
0.0
  0
ARC
  5
A956
330
A758
100
AcDbEntity
  8
1
  6
Continuous
100
AcDbCircle
 10
264.6143379999999
 20
447.8835349999997
 30
0.0
 40
8.665063999999999
100
AcDbArc
 50
69.743842
 51
110.256158
  0
LINE
  5
A957
330
A758
100
AcDbEntity
  8
1
  6
Continuous
100
AcDbLine
 10
267.6143379999999
 20
456.0127
 30
0.0
 11
267.6143379999999
 21
452.0844969999997
 31
0.0
  0
ARC
  5
A958
330
A758
100
AcDbEntity
  8
1
  6
Continuous
100
AcDbCircle
 10
264.6143379999999
 20
460.213662
 30
0.0
 40
8.665063999999999
100
AcDbArc
 50
249.7438419999999
 51
290.256158
  0
LINE
  5
A959
330
A758
100
AcDbEntity
  8
1
  6
Continuous
100
AcDbLine
 10
273.6143379999999
 20
451.548598
 30
0.0
 11
273.6143379999999
 21
456.548598
 31
0.0
  0
LINE
  5
A95A
330
A758
100
AcDbEntity
  8
1
  6
Continuous
100
AcDbLine
 10
273.6143379999999
 20
507.548598
 30
0.0
 11
261.614338
 21
507.548598
 31
0.0
  0
ARC
  5
A95B
330
A758
100
AcDbEntity
  8
1
  6
Continuous
100
AcDbCircle
 10
270.6143379999999
 20
504.3835349999998
 30
0.0
 40
8.665063999999999
100
AcDbArc
 50
69.743842
 51
110.256158
  0
LINE
  5
A95C
330
A758
100
AcDbEntity
  8
1
  6
Continuous
100
AcDbLine
 10
273.6143379999999
 20
513.0485980000002
 30
0.0
 11
261.614338
 21
513.0485980000002
 31
0.0
  0
ARC
  5
A95D
330
A758
100
AcDbEntity
  8
1
  6
Continuous
100
AcDbCircle
 10
264.6143379999999
 20
504.3835349999998
 30
0.0
 40
8.665063999999999
100
AcDbArc
 50
69.743842
 51
110.256158
  0
LINE
  5
A95E
330
A758
100
AcDbEntity
  8
1
  6
Continuous
100
AcDbLine
 10
261.614338
 20
507.548598
 30
0.0
 11
261.614338
 21
513.0485980000002
 31
0.0
  0
LINE
  5
A95F
330
A758
100
AcDbEntity
  8
1
  6
Continuous
100
AcDbLine
 10
267.6143379999999
 20
512.5126999999999
 30
0.0
 11
267.6143379999999
 21
507.548598
 31
0.0
  0
LINE
  5
A960
330
A758
100
AcDbEntity
  8
1
  6
Continuous
100
AcDbLine
 10
273.6143379999999
 20
507.548598
 30
0.0
 11
273.6143379999999
 21
513.0485980000002
 31
0.0
  0
LINE
  5
A961
330
A758
100
AcDbEntity
  8
1
  6
Continuous
100
AcDbLine
 10
273.6143379999999
 20
101.532163
 30
0.0
 11
273.6143379999999
 21
106.5321629999999
 31
0.0
  0
LINE
  5
A962
330
A758
100
AcDbEntity
  8
1
  6
Continuous
100
AcDbLine
 10
267.6143379999999
 20
105.9962649999998
 30
0.0
 11
267.6143379999999
 21
102.068061
 31
0.0
  0
LINE
  5
A963
330
A758
100
AcDbEntity
  8
1
  6
Continuous
100
AcDbLine
 10
261.614338
 20
101.532163
 30
0.0
 11
261.614338
 21
106.5321629999999
 31
0.0
  0
ARC
  5
A964
330
A758
100
AcDbEntity
  8
1
  6
Continuous
100
AcDbCircle
 10
264.6143379999999
 20
110.1972259999999
 30
0.0
 40
8.665063999999999
100
AcDbArc
 50
249.7438419999999
 51
290.256158
  0
LINE
  5
A965
330
A758
100
AcDbEntity
  8
1
  6
Continuous
100
AcDbLine
 10
273.6143379999999
 20
101.532163
 30
0.0
 11
261.614338
 21
101.532163
 31
0.0
  0
ARC
  5
A966
330
A758
100
AcDbEntity
  8
1
  6
Continuous
100
AcDbCircle
 10
270.6143379999999
 20
110.1972259999999
 30
0.0
 40
8.665063999999999
100
AcDbArc
 50
249.7438419999999
 51
290.256158
  0
ARC
  5
A967
330
A758
100
AcDbEntity
  8
1
  6
Continuous
100
AcDbCircle
 10
264.6143379999999
 20
97.86709899999999
 30
0.0
 40
8.665063999999999
100
AcDbArc
 50
69.743842
 51
110.256158
  0
LINE
  5
A968
330
A758
100
AcDbEntity
  8
1
  6
Continuous
100
AcDbLine
 10
273.6143379999999
 20
106.5321629999999
 30
0.0
 11
261.614338
 21
106.5321629999999
 31
0.0
  0
ARC
  5
A969
330
A758
100
AcDbEntity
  8
1
  6
Continuous
100
AcDbCircle
 10
270.6143379999999
 20
97.86709899999999
 30
0.0
 40
8.665063999999999
100
AcDbArc
 50
69.743842
 51
110.256158
  0
ARC
  5
A96A
330
A758
100
AcDbEntity
  8
1
  6
Continuous
100
AcDbCircle
 10
270.6143379999999
 20
53.697226
 30
0.0
 40
8.665063999999999
100
AcDbArc
 50
249.7438419999999
 51
290.256158
  0
LINE
  5
A96B
330
A758
100
AcDbEntity
  8
1
  6
Continuous
100
AcDbLine
 10
261.614338
 20
50.53216299999998
 30
0.0
 11
273.6143379999999
 21
50.53216299999998
 31
0.0
  0
LINE
  5
A96C
330
A758
100
AcDbEntity
  8
1
  6
Continuous
100
AcDbLine
 10
261.614338
 20
45.032163
 30
0.0
 11
273.6143379999999
 21
45.032163
 31
0.0
  0
LINE
  5
A96D
330
A758
100
AcDbEntity
  8
1
  6
Continuous
100
AcDbLine
 10
261.614338
 20
50.53216299999998
 30
0.0
 11
261.614338
 21
45.032163
 31
0.0
  0
LINE
  5
A96E
330
A758
100
AcDbEntity
  8
1
  6
Continuous
100
AcDbLine
 10
267.6143379999999
 20
45.568061
 30
0.0
 11
267.6143379999999
 21
50.53216299999998
 31
0.0
  0
ARC
  5
A96F
330
A758
100
AcDbEntity
  8
1
  6
Continuous
100
AcDbCircle
 10
264.6143379999999
 20
53.697226
 30
0.0
 40
8.665063999999999
100
AcDbArc
 50
249.7438419999999
 51
290.256158
  0
LINE
  5
A970
330
A758
100
AcDbEntity
  8
1
  6
Continuous
100
AcDbLine
 10
273.6143379999999
 20
50.53216299999998
 30
0.0
 11
273.6143379999999
 21
45.032163
 31
0.0
  0
LINE
  5
A971
330
A758
100
AcDbEntity
  8
1
  6
Continuous
100
AcDbLine
 10
321.6143379999999
 20
87.03216299999999
 30
0.0
 11
213.8143379999999
 21
87.03216299999999
 31
0.0
  0
LINE
  5
A972
330
A758
100
AcDbEntity
  8
1
  6
Continuous
100
AcDbLine
 10
321.6143379999999
 20
65.032163
 30
0.0
 11
213.8143379999999
 21
65.032163
 31
0.0
  0
ARC
  5
A973
330
A758
100
AcDbEntity
  8
1
  6
Continuous
100
AcDbCircle
 10
213.6143379999999
 20
76.03216299999998
 30
0.0
 40
11.0
100
AcDbArc
 50
90.0
 51
270.0
  0
ARC
  5
A974
330
A758
100
AcDbEntity
  8
1
  6
Continuous
100
AcDbCircle
 10
321.6143379999999
 20
76.03216299999998
 30
0.0
 40
11.0
100
AcDbArc
 50
270.0
 51
90.0
  0
ARC
  5
A975
330
A758
100
AcDbEntity
  8
1
  6
Continuous
100
AcDbCircle
 10
312.6143379999998
 20
76.03216299999998
 30
0.0
 40
20.5
100
AcDbArc
 50
212.451491
 51
222.854158
  0
ARC
  5
A976
330
A758
100
AcDbEntity
  8
1
  6
Continuous
100
AcDbCircle
 10
276.911868
 20
106.9321629999999
 30
0.0
 40
10.0
100
AcDbArc
 50
270.0
 51
283.211092
  0
ARC
  5
A977
330
A758
100
AcDbEntity
  8
1
  6
Continuous
100
AcDbCircle
 10
276.8833939999999
 20
111.5321629999999
 30
0.0
 40
12.3
100
AcDbArc
 50
270.0
 51
280.98366
  0
LINE
  5
A978
330
A758
100
AcDbEntity
  8
1
  6
Continuous
100
AcDbLine
 10
273.6143379999999
 20
227.7118769999999
 30
0.0
 11
273.6143379999999
 21
220.7836739999999
 31
0.0
  0
LINE
  5
A979
330
A758
100
AcDbEntity
  8
1
  6
Continuous
100
AcDbLine
 10
261.614338
 20
227.7118769999999
 30
0.0
 11
261.614338
 21
220.7836739999999
 31
0.0
  0
LINE
  5
A97A
330
A758
100
AcDbEntity
  8
1
  6
Continuous
100
AcDbLine
 10
267.6143379999999
 20
217.3195719999999
 30
0.0
 11
273.6143379999999
 21
220.7836739999999
 31
0.0
  0
LINE
  5
A97B
330
A758
100
AcDbEntity
  8
1
  6
Continuous
100
AcDbLine
 10
267.6143379999999
 20
217.3195719999999
 30
0.0
 11
261.614338
 21
220.7836739999999
 31
0.0
  0
LINE
  5
A97C
330
A758
100
AcDbEntity
  8
1
  6
Continuous
100
AcDbLine
 10
273.6143379999999
 20
227.7118769999999
 30
0.0
 11
267.6143379999999
 21
231.175978
 31
0.0
  0
LINE
  5
A97D
330
A758
100
AcDbEntity
  8
1
  6
Continuous
100
AcDbLine
 10
261.614338
 20
227.7118769999999
 30
0.0
 11
267.6143379999999
 21
231.175978
 31
0.0
  0
LINE
  5
A97E
330
A758
100
AcDbEntity
  8
4
  6
CENTER
100
AcDbLine
 10
648.0657219999999
 20
403.7947649999998
 30
0.0
 11
648.0657219999999
 21
250.3780359999999
 31
0.0
  0
ARC
  5
A97F
330
A758
100
AcDbEntity
  8
1
  6
Continuous
100
AcDbCircle
 10
693.0657219999999
 20
224.2477749999999
 30
0.0
 40
65.0
100
AcDbArc
 50
154.3681149999999
 51
117.9843759999998
  0
LINE
  5
A980
330
A758
100
AcDbEntity
  8
4
  6
CENTER
100
AcDbLine
 10
619.7260079999997
 20
224.2477749999999
 30
0.0
 11
764.9155369999999
 21
224.2477749999999
 31
0.0
  0
LINE
  5
A981
330
A758
100
AcDbEntity
  8
4
  6
CENTER
100
AcDbLine
 10
693.0657219999999
 20
151.0885159999999
 30
0.0
 11
693.0657219999999
 21
295.2477749999999
 31
0.0
  0
ARC
  5
A983
330
A758
100
AcDbEntity
  8
1
  6
Continuous
100
AcDbCircle
 10
635.4157219999997
 20
311.7477749999999
 30
0.0
 40
6.5
100
AcDbArc
 50
90.0
 51
180.0
  0
ARC
  5
A984
330
A758
100
AcDbEntity
  8
1
  6
Continuous
100
AcDbCircle
 10
580.613296
 20
271.2585429999999
 30
0.0
 40
50.0
100
AcDbArc
 50
358.0829489999999
 51
20.10762399999999
  0
ARC
  5
A985
330
A758
100
AcDbEntity
  8
1
  6
Continuous
100
AcDbCircle
 10
632.3157219999999
 20
297.6977749999999
 30
0.0
 40
4.75
100
AcDbArc
 50
106.6855899999999
 51
180.0
  0
ARC
  5
A986
330
A758
100
AcDbEntity
  8
1
  6
Continuous
100
AcDbCircle
 10
665.5657220000001
 20
268.415071
 30
0.0
 40
35.0
100
AcDbArc
 50
178.0829489999999
 51
239.9999999999999
  0
ARC
  5
A987
330
A758
100
AcDbEntity
  8
1
  6
Continuous
100
AcDbCircle
 10
685.0657219999999
 20
269.4490359999999
 30
0.0
 40
22.5
100
AcDbArc
 50
180.0
 51
236.0
  0
ARC
  5
A988
330
A758
100
AcDbEntity
  8
1
  6
Continuous
100
AcDbCircle
 10
693.0657219999999
 20
224.2477749999999
 30
0.0
 40
48.75
100
AcDbArc
 50
162.387455
 51
127.3266459999999
  0
ARC
  5
A989
330
A758
100
AcDbEntity
  8
1
  6
Continuous
100
AcDbCircle
 10
693.0657219999999
 20
224.2477749999999
 30
0.0
 40
10.5
100
AcDbArc
 50
239.9999999999999
 51
56.0
  0
CIRCLE
  5
A98A
330
A758
100
AcDbEntity
  8
1
  6
Continuous
100
AcDbCircle
 10
693.0657219999999
 20
224.2477749999999
 30
0.0
 40
7.5
  0
CIRCLE
  5
A98B
330
A758
100
AcDbEntity
  8
1
  6
Continuous
100
AcDbCircle
 10
693.0657219999999
 20
224.2477749999999
 30
0.0
 40
8.0
  0
LINE
  5
A98C
330
A758
100
AcDbEntity
  8
1
  6
Continuous
100
AcDbLine
 10
698.9372469999998
 20
232.95267
 30
0.0
 11
672.483882
 21
250.7956899999999
 31
0.0
  0
ARC
  5
A98D
330
A758
100
AcDbEntity
  8
1
  6
Continuous
100
AcDbCircle
 10
693.0657219999999
 20
224.2477749999999
 30
0.0
 40
16.0
100
AcDbArc
 50
191.0144999999999
 51
104.9855
  0
ARC
  5
A98E
330
A758
100
AcDbEntity
  8
1
  6
Continuous
100
AcDbCircle
 10
693.0657219999999
 20
224.2477749999999
 30
0.0
 40
10.5
100
AcDbArc
 50
91.95056800000001
 51
204.049432
  0
ARC
  5
A98F
330
A758
100
AcDbEntity
  8
1
  6
Continuous
100
AcDbCircle
 10
693.0657219999999
 20
224.2477749999999
 30
0.0
 40
20.5
100
AcDbArc
 50
180.8101569999998
 51
115.1898429999999
  0
LINE
  5
A990
330
A758
100
AcDbEntity
  8
1
  6
Continuous
100
AcDbLine
 10
687.8157219999999
 20
215.1545089999999
 30
0.0
 11
648.0657219999999
 21
238.1041819999999
 31
0.0
  0
ARC
  5
A991
330
A758
100
AcDbEntity
  8
1
  6
Continuous
100
AcDbCircle
 10
685.4332889999998
 20
229.0170489999999
 30
0.0
 40
6.5
100
AcDbArc
 50
107.248118
 51
188.751882
  0
ARC
  5
A992
330
A758
100
AcDbEntity
  8
1
  6
Continuous
100
AcDbCircle
 10
696.8324439999999
 20
230.7719299999999
 30
0.0
 40
18.033445
100
AcDbArc
 50
188.751882
 51
209.470609
  0
ARC
  5
A993
330
A758
100
AcDbEntity
  8
1
  6
Continuous
100
AcDbCircle
 10
688.853073
 20
218.002267
 30
0.0
 40
18.033445
100
AcDbArc
 50
86.52939100000002
 51
107.248118
  0
ARC
  5
A994
330
A758
100
AcDbEntity
  8
1
  6
Continuous
100
AcDbCircle
 10
663.8157219999999
 20
297.6977749999999
 30
0.0
 40
4.75
100
AcDbArc
 50
0.0
 51
73.31440999999998
  0
LINE
  5
A995
330
A758
100
AcDbEntity
  8
1
  6
Continuous
100
AcDbLine
 10
662.5657219999999
 20
286.4477749999998
 30
0.0
 11
662.5657219999999
 21
269.4490359999999
 31
0.0
  0
LINE
  5
A996
330
A758
100
AcDbEntity
  8
1
  6
Continuous
100
AcDbLine
 10
668.5657219999999
 20
297.6977749999999
 30
0.0
 11
668.5657219999999
 21
288.4477749999998
 31
0.0
  0
ARC
  5
A997
330
A758
100
AcDbEntity
  8
1
  6
Continuous
100
AcDbCircle
 10
664.5657219999999
 20
286.4477749999998
 30
0.0
 40
2.0
100
AcDbArc
 50
90.0
 51
180.0
  0
LINE
  5
A998
330
A758
100
AcDbEntity
  8
1
  6
Continuous
100
AcDbLine
 10
664.5657219999999
 20
288.4477749999998
 30
0.0
 11
668.5657219999999
 21
288.4477749999998
 31
0.0
  0
LINE
  5
A999
330
A758
100
AcDbEntity
  8
1
  6
Continuous
100
AcDbLine
 10
628.9157219999997
 20
302.247775
 30
0.0
 11
667.215722
 21
302.247775
 31
0.0
  0
LINE
  5
A99A
330
A758
100
AcDbEntity
  8
1
  6
Continuous
100
AcDbLine
 10
667.215722
 20
311.7477749999999
 30
0.0
 11
667.215722
 21
302.247775
 31
0.0
  0
ARC
  5
A99B
330
A758
100
AcDbEntity
  8
1
  6
Continuous
100
AcDbCircle
 10
660.715722
 20
311.7477749999999
 30
0.0
 40
6.5
100
AcDbArc
 50
0.0
 51
90.0
  0
LINE
  5
A99C
330
A758
100
AcDbEntity
  8
1
  6
Continuous
100
AcDbLine
 10
628.9157219999997
 20
311.7477749999999
 30
0.0
 11
628.9157219999997
 21
302.247775
 31
0.0
  0
LINE
  5
A99D
330
A758
100
AcDbEntity
  8
1
  6
Continuous
100
AcDbLine
 10
627.5657219999999
 20
297.6977749999999
 30
0.0
 11
627.5657219999999
 21
288.4477749999998
 31
0.0
  0
ARC
  5
A99E
330
A758
100
AcDbEntity
  8
1
  6
Continuous
100
AcDbCircle
 10
965.0823889999999
 20
342.147775
 30
0.0
 40
326.8166669999998
100
AcDbArc
 50
177.5297759999999
 51
182.4551579999999
  0
ARC
  5
A99F
330
A758
100
AcDbEntity
  8
1
  6
Continuous
100
AcDbCircle
 10
331.0490549999999
 20
342.147775
 30
0.0
 40
326.8166669999998
100
AcDbArc
 50
357.544842
 51
2.470223999999999
  0
LINE
  5
A9A0
330
A758
100
AcDbEntity
  8
1
  6
Continuous
100
AcDbLine
 10
635.9412219999998
 20
322.2477749999999
 30
0.0
 11
660.1902219999998
 21
322.2477749999999
 31
0.0
  0
LINE
  5
A9A1
330
A758
100
AcDbEntity
  8
1
  6
Continuous
100
AcDbLine
 10
635.4157219999997
 20
318.2477749999998
 30
0.0
 11
660.715722
 21
318.2477749999998
 31
0.0
  0
LINE
  5
A9A2
330
A758
100
AcDbEntity
  8
1
  6
Continuous
100
AcDbLine
 10
660.1902219999998
 20
322.2477749999999
 30
0.0
 11
660.1902219999998
 21
318.2477749999998
 31
0.0
  0
LINE
  5
A9A3
330
A758
100
AcDbEntity
  8
1
  6
Continuous
100
AcDbLine
 10
654.1277219999998
 20
322.2477749999999
 30
0.0
 11
654.1277219999998
 21
318.2477749999998
 31
0.0
  0
LINE
  5
A9A4
330
A758
100
AcDbEntity
  8
1
  6
Continuous
100
AcDbLine
 10
642.0037219999998
 20
322.2477749999999
 30
0.0
 11
642.0037219999998
 21
318.2477749999998
 31
0.0
  0
LINE
  5
A9A5
330
A758
100
AcDbEntity
  8
1
  6
Continuous
100
AcDbLine
 10
635.9412219999998
 20
322.2477749999999
 30
0.0
 11
635.9412219999998
 21
318.2477749999998
 31
0.0
  0
LINE
  5
A9A6
330
A758
100
AcDbEntity
  8
1
  6
Continuous
100
AcDbLine
 10
639.5657219999999
 20
324.2477749999999
 30
0.0
 11
656.5657219999999
 21
324.2477749999999
 31
0.0
  0
LINE
  5
A9A7
330
A758
100
AcDbEntity
  8
1
  6
Continuous
100
AcDbLine
 10
638.5657219999999
 20
328.147775
 30
0.0
 11
657.5657219999999
 21
328.147775
 31
0.0
  0
ARC
  5
A9A8
330
A758
100
AcDbEntity
  8
1
  6
Continuous
100
AcDbCircle
 10
658.0657219999999
 20
323.247775
 30
0.0
 40
1.0
100
AcDbArc
 50
180.0
 51
270.0
  0
ARC
  5
A9A9
330
A758
100
AcDbEntity
  8
1
  6
Continuous
100
AcDbCircle
 10
656.0657219999999
 20
323.247775
 30
0.0
 40
1.0
100
AcDbArc
 50
0.0
 51
90.0
  0
ARC
  5
A9AA
330
A758
100
AcDbEntity
  8
1
  6
Continuous
100
AcDbCircle
 10
656.5657219999999
 20
325.247775
 30
0.0
 40
1.0
100
AcDbArc
 50
270.0
 51
0.0
  0
LINE
  5
A9AB
330
A758
100
AcDbEntity
  8
1
  6
Continuous
100
AcDbLine
 10
657.5657219999999
 20
328.147775
 30
0.0
 11
657.5657219999999
 21
325.247775
 31
0.0
  0
ARC
  5
A9AC
330
A758
100
AcDbEntity
  8
1
  6
Continuous
100
AcDbCircle
 10
640.0657219999999
 20
323.247775
 30
0.0
 40
1.0
100
AcDbArc
 50
90.0
 51
180.0
  0
ARC
  5
A9AD
330
A758
100
AcDbEntity
  8
1
  6
Continuous
100
AcDbCircle
 10
638.0657219999999
 20
323.247775
 30
0.0
 40
1.0
100
AcDbArc
 50
270.0
 51
0.0
  0
ARC
  5
A9AE
330
A758
100
AcDbEntity
  8
1
  6
Continuous
100
AcDbCircle
 10
639.5657219999999
 20
325.247775
 30
0.0
 40
1.0
100
AcDbArc
 50
180.0
 51
270.0
  0
LINE
  5
A9AF
330
A758
100
AcDbEntity
  8
1
  6
Continuous
100
AcDbLine
 10
638.5657219999999
 20
328.147775
 30
0.0
 11
638.5657219999999
 21
325.247775
 31
0.0
  0
ARC
  5
A9B0
330
A758
100
AcDbEntity
  8
1
  6
Continuous
100
AcDbCircle
 10
986.419889
 20
374.1977749999999
 30
0.0
 40
348.1541669999999
100
AcDbArc
 50
177.6212779999999
 51
182.3787219999999
  0
ARC
  5
A9B1
330
A758
100
AcDbEntity
  8
1
  6
Continuous
100
AcDbCircle
 10
309.7115549999998
 20
374.1977749999999
 30
0.0
 40
348.1541669999999
100
AcDbArc
 50
357.607578
 51
2.378721999999998
  0
LINE
  5
A9B2
330
A758
100
AcDbEntity
  8
1
  6
Continuous
100
AcDbLine
 10
639.1657219999999
 20
357.147775
 30
0.0
 11
656.965722
 21
357.147775
 31
0.0
  0
LINE
  5
A9B3
330
A758
100
AcDbEntity
  8
1
  6
Continuous
100
AcDbLine
 10
656.965722
 20
358.747775
 30
0.0
 11
639.1657219999999
 21
358.747775
 31
0.0
  0
ARC
  5
A9B4
330
A758
100
AcDbEntity
  8
1
  6
Continuous
100
AcDbCircle
 10
656.5657219999999
 20
359.7477749999998
 30
0.0
 40
1.0
100
AcDbArc
 50
270.0
 51
0.0
  0
ARC
  5
A9B5
330
A758
100
AcDbEntity
  8
1
  6
Continuous
100
AcDbCircle
 10
656.5657219999999
 20
356.147775
 30
0.0
 40
1.0
100
AcDbArc
 50
0.0
 51
90.0
  0
LINE
  5
A9B6
330
A758
100
AcDbEntity
  8
1
  6
Continuous
100
AcDbLine
 10
656.965722
 20
358.747775
 30
0.0
 11
656.965722
 21
357.147775
 31
0.0
  0
ARC
  5
A9B7
330
A758
100
AcDbEntity
  8
1
  6
Continuous
100
AcDbCircle
 10
639.5657219999999
 20
359.7477749999998
 30
0.0
 40
1.0
100
AcDbArc
 50
180.0
 51
270.0
  0
ARC
  5
A9B8
330
A758
100
AcDbEntity
  8
1
  6
Continuous
100
AcDbCircle
 10
639.5657219999999
 20
356.147775
 30
0.0
 40
1.0
100
AcDbArc
 50
90.0
 51
180.0
  0
LINE
  5
A9B9
330
A758
100
AcDbEntity
  8
1
  6
Continuous
100
AcDbLine
 10
639.1657219999999
 20
358.747775
 30
0.0
 11
639.1657219999999
 21
357.147775
 31
0.0
  0
LINE
  5
A9BA
330
A758
100
AcDbEntity
  8
1
  6
Continuous
100
AcDbLine
 10
643.5657219999999
 20
397.2477749999998
 30
0.0
 11
652.5657219999999
 21
397.2477749999998
 31
0.0
  0
LINE
  5
A9BB
330
A758
100
AcDbEntity
  8
1
  6
Continuous
100
AcDbLine
 10
657.3157219999999
 20
394.847775
 30
0.0
 11
638.8157219999999
 21
394.847775
 31
0.0
  0
LINE
  5
A9BC
330
A758
100
AcDbEntity
  8
1
  6
Continuous
100
AcDbLine
 10
657.3157219999999
 20
391.647775
 30
0.0
 11
638.8157219999999
 21
391.647775
 31
0.0
  0
LINE
  5
A9BD
330
A758
100
AcDbEntity
  8
1
  6
Continuous
100
AcDbLine
 10
657.5657219999999
 20
388.647775
 30
0.0
 11
638.5657219999999
 21
388.647775
 31
0.0
  0
LINE
  5
A9BE
330
A758
100
AcDbEntity
  8
1
  6
Continuous
100
AcDbLine
 10
642.0657219999999
 20
395.7477749999998
 30
0.0
 11
654.0657219999999
 21
395.7477749999998
 31
0.0
  0
LINE
  5
A9BF
330
A758
100
AcDbEntity
  8
1
  6
Continuous
100
AcDbLine
 10
657.3157219999999
 20
391.647775
 30
0.0
 11
657.3157219999999
 21
394.847775
 31
0.0
  0
LINE
  5
A9C0
330
A758
100
AcDbEntity
  8
1
  6
Continuous
100
AcDbLine
 10
656.5657219999999
 20
388.647775
 30
0.0
 11
656.5657219999999
 21
391.647775
 31
0.0
  0
LINE
  5
A9C1
330
A758
100
AcDbEntity
  8
1
  6
Continuous
100
AcDbLine
 10
654.0657219999999
 20
395.7477749999998
 30
0.0
 11
654.0657219999999
 21
394.847775
 31
0.0
  0
LINE
  5
A9C2
330
A758
100
AcDbEntity
  8
1
  6
Continuous
100
AcDbLine
 10
654.0657219999999
 20
395.7477749999998
 30
0.0
 11
652.5657219999999
 21
397.2477749999998
 31
0.0
  0
LINE
  5
A9C3
330
A758
100
AcDbEntity
  8
1
  6
Continuous
100
AcDbLine
 10
652.0456719999997
 20
394.847775
 30
0.0
 11
652.0456719999997
 21
391.647775
 31
0.0
  0
LINE
  5
A9C4
330
A758
100
AcDbEntity
  8
1
  6
Continuous
100
AcDbLine
 10
644.085772
 20
394.847775
 30
0.0
 11
644.085772
 21
391.647775
 31
0.0
  0
LINE
  5
A9C5
330
A758
100
AcDbEntity
  8
1
  6
Continuous
100
AcDbLine
 10
638.8157219999999
 20
391.647775
 30
0.0
 11
638.8157219999999
 21
394.847775
 31
0.0
  0
LINE
  5
A9C6
330
A758
100
AcDbEntity
  8
1
  6
Continuous
100
AcDbLine
 10
642.0657219999999
 20
395.7477749999998
 30
0.0
 11
642.0657219999999
 21
394.847775
 31
0.0
  0
LINE
  5
A9C7
330
A758
100
AcDbEntity
  8
1
  6
Continuous
100
AcDbLine
 10
639.5657219999999
 20
388.647775
 30
0.0
 11
639.5657219999999
 21
391.647775
 31
0.0
  0
LINE
  5
A9C8
330
A758
100
AcDbEntity
  8
1
  6
Continuous
100
AcDbLine
 10
642.0657219999999
 20
395.7477749999998
 30
0.0
 11
643.5657219999999
 21
397.2477749999998
 31
0.0
  0
LINE
  5
A9C9
330
A758
100
AcDbEntity
  8
1
  6
Continuous
100
AcDbLine
 10
699.0657220000001
 20
227.7118769999999
 30
0.0
 11
699.0657220000001
 21
220.7836739999999
 31
0.0
  0
LINE
  5
A9CA
330
A758
100
AcDbEntity
  8
1
  6
Continuous
100
AcDbLine
 10
687.0657219999999
 20
227.7118769999999
 30
0.0
 11
693.0657219999999
 21
231.175978
 31
0.0
  0
LINE
  5
A9CB
330
A758
100
AcDbEntity
  8
1
  6
Continuous
100
AcDbLine
 10
693.0657219999999
 20
217.3195719999999
 30
0.0
 11
687.0657219999999
 21
220.7836739999999
 31
0.0
  0
LINE
  5
A9CC
330
A758
100
AcDbEntity
  8
1
  6
Continuous
100
AcDbLine
 10
687.0657219999999
 20
227.7118769999999
 30
0.0
 11
687.0657219999999
 21
220.7836739999999
 31
0.0
  0
LINE
  5
A9CD
330
A758
100
AcDbEntity
  8
1
  6
Continuous
100
AcDbLine
 10
699.0657220000001
 20
227.7118769999999
 30
0.0
 11
693.0657219999999
 21
231.175978
 31
0.0
  0
LINE
  5
A9CE
330
A758
100
AcDbEntity
  8
1
  6
Continuous
100
AcDbLine
 10
693.0657219999999
 20
217.3195719999999
 30
0.0
 11
699.0657220000001
 21
220.7836739999999
 31
0.0
  0
CIRCLE
  5
A9CF
330
A758
100
AcDbEntity
  8
1
  6
Continuous
100
AcDbCircle
 10
693.0657219999999
 20
224.2477749999999
 30
0.0
 40
6.0
  0
LINE
  5
A9D0
330
A758
100
AcDbEntity
  8
2
  6
Continuous
100
AcDbLine
 10
71.68245899999998
 20
396.424254
 30
0.0
 11
71.68245899999998
 21
394.847775
 31
0.0
  0
LINE
  5
A9D1
330
A758
100
AcDbEntity
  8
2
  6
Continuous
100
AcDbLine
 10
82.329459
 20
396.424254
 30
0.0
 11
82.329459
 21
394.847775
 31
0.0
  0
LINE
  5
A9D2
330
A758
100
AcDbEntity
  8
2
  6
Continuous
100
AcDbLine
 10
307.290838
 20
396.424254
 30
0.0
 11
307.290838
 21
394.847775
 31
0.0
  0
LINE
  5
A9D3
330
A758
100
AcDbEntity
  8
2
  6
Continuous
100
AcDbLine
 10
317.937838
 20
396.424254
 30
0.0
 11
317.937838
 21
394.847775
 31
0.0
  0
LINE
  5
A9D4
330
A758
100
AcDbEntity
  8
2
  6
Continuous
100
AcDbLine
 10
465.1416089999998
 20
396.424254
 30
0.0
 11
465.1416089999998
 21
394.847775
 31
0.0
  0
LINE
  5
A9D5
330
A758
100
AcDbEntity
  8
2
  6
Continuous
100
AcDbLine
 10
475.788609
 20
396.424254
 30
0.0
 11
475.788609
 21
394.847775
 31
0.0
  0
LINE
  5
A9D6
330
A758
100
AcDbEntity
  8
2
  6
Continuous
100
AcDbLine
 10
642.7422219999997
 20
396.424254
 30
0.0
 11
642.7422219999997
 21
394.847775
 31
0.0
  0
LINE
  5
A9D7
330
A758
100
AcDbEntity
  8
2
  6
Continuous
100
AcDbLine
 10
653.389222
 20
396.424254
 30
0.0
 11
653.389222
 21
394.847775
 31
0.0
  0
CIRCLE
  5
A9D8
330
A758
100
AcDbEntity
  8
1
  6
Continuous
100
AcDbCircle
 10
267.6143379999999
 20
224.2477749999999
 30
0.0
 40
4.0
  0
CIRCLE
  5
A9D9
330
A758
100
AcDbEntity
  8
2
  6
Continuous
100
AcDbCircle
 10
267.6143379999999
 20
224.2477749999999
 30
0.0
 40
3.3235
  0
LINE
  5
A9DA
330
A758
100
AcDbEntity
  8
1
  6
Continuous
100
AcDbLine
 10
109.005959
 20
227.2477749999999
 30
0.0
 11
109.005959
 21
221.247775
 31
0.0
  0
LINE
  5
A9DB
330
A758
100
AcDbEntity
  8
1
  6
Continuous
100
AcDbLine
 10
107.505959
 20
228.2477749999999
 30
0.0
 11
108.005959
 21
228.2477749999999
 31
0.0
  0
LINE
  5
A9DC
330
A758
100
AcDbEntity
  8
1
  6
Continuous
100
AcDbLine
 10
108.005959
 20
228.2477749999999
 30
0.0
 11
109.005959
 21
227.2477749999999
 31
0.0
  0
LINE
  5
A9DD
330
A758
100
AcDbEntity
  8
2
  6
Continuous
100
AcDbLine
 10
107.505959
 20
227.571275
 30
0.0
 11
108.6824589999999
 21
227.571275
 31
0.0
  0
LINE
  5
A9DE
330
A758
100
AcDbEntity
  8
2
  6
Continuous
100
AcDbLine
 10
107.505959
 20
220.924275
 30
0.0
 11
108.6824589999999
 21
220.924275
 31
0.0
  0
LINE
  5
A9DF
330
A758
100
AcDbEntity
  8
1
  6
Continuous
100
AcDbLine
 10
107.505959
 20
220.2477749999999
 30
0.0
 11
108.005959
 21
220.2477749999999
 31
0.0
  0
LINE
  5
A9E0
330
A758
100
AcDbEntity
  8
1
  6
Continuous
100
AcDbLine
 10
108.005959
 20
220.2477749999999
 30
0.0
 11
109.005959
 21
221.247775
 31
0.0
  0
LINE
  5
A9E1
330
A758
100
AcDbEntity
  8
1
  6
Continuous
100
AcDbLine
 10
439.9651089999998
 20
228.2477749999999
 30
0.0
 11
439.4651089999999
 21
228.2477749999999
 31
0.0
  0
LINE
  5
A9E2
330
A758
100
AcDbEntity
  8
1
  6
Continuous
100
AcDbLine
 10
438.465109
 20
227.2477749999999
 30
0.0
 11
438.465109
 21
221.247775
 31
0.0
  0
LINE
  5
A9E3
330
A758
100
AcDbEntity
  8
2
  6
Continuous
100
AcDbLine
 10
439.9651089999998
 20
227.571275
 30
0.0
 11
438.788609
 21
227.571275
 31
0.0
  0
LINE
  5
A9E4
330
A758
100
AcDbEntity
  8
1
  6
Continuous
100
AcDbLine
 10
439.4651089999999
 20
228.2477749999999
 30
0.0
 11
438.465109
 21
227.2477749999999
 31
0.0
  0
LINE
  5
A9E5
330
A758
100
AcDbEntity
  8
1
  6
Continuous
100
AcDbLine
 10
439.4651089999999
 20
220.2477749999999
 30
0.0
 11
438.465109
 21
221.247775
 31
0.0
  0
LINE
  5
A9E6
330
A758
100
AcDbEntity
  8
2
  6
Continuous
100
AcDbLine
 10
439.9651089999998
 20
220.924275
 30
0.0
 11
438.788609
 21
220.924275
 31
0.0
  0
LINE
  5
A9E7
330
A758
100
AcDbEntity
  8
1
  6
Continuous
100
AcDbLine
 10
439.9651089999998
 20
220.2477749999999
 30
0.0
 11
439.4651089999999
 21
220.2477749999999
 31
0.0
  0
LINE
  5
A9E8
330
A758
100
AcDbEntity
  8
1
  6
Continuous
100
AcDbLine
 10
264.6143379999999
 20
108.0321629999998
 30
0.0
 11
270.6143379999999
 21
108.0321629999998
 31
0.0
  0
LINE
  5
A9E9
330
A758
100
AcDbEntity
  8
2
  6
Continuous
100
AcDbLine
 10
264.290838
 20
106.5321629999999
 30
0.0
 11
264.290838
 21
107.7086629999999
 31
0.0
  0
LINE
  5
A9EA
330
A758
100
AcDbEntity
  8
1
  6
Continuous
100
AcDbLine
 10
263.6143379999999
 20
107.0321629999998
 30
0.0
 11
264.6143379999999
 21
108.0321629999998
 31
0.0
  0
LINE
  5
A9EB
330
A758
100
AcDbEntity
  8
2
  6
Continuous
100
AcDbLine
 10
270.9378379999999
 20
106.5321629999999
 30
0.0
 11
270.9378379999999
 21
107.7086629999999
 31
0.0
  0
LINE
  5
A9EC
330
A758
100
AcDbEntity
  8
1
  6
Continuous
100
AcDbLine
 10
271.6143379999999
 20
106.5321629999999
 30
0.0
 11
271.6143379999999
 21
107.0321629999998
 31
0.0
  0
LINE
  5
A9ED
330
A758
100
AcDbEntity
  8
1
  6
Continuous
100
AcDbLine
 10
263.6143379999999
 20
106.5321629999999
 30
0.0
 11
263.6143379999999
 21
107.0321629999998
 31
0.0
  0
LINE
  5
A9EE
330
A758
100
AcDbEntity
  8
1
  6
Continuous
100
AcDbLine
 10
271.6143379999999
 20
107.0321629999998
 30
0.0
 11
270.6143379999999
 21
108.0321629999998
 31
0.0
  0
LINE
  5
A9EF
330
A758
100
AcDbEntity
  8
1
  6
Continuous
100
AcDbLine
 10
270.6143379999999
 20
450.048598
 30
0.0
 11
264.6143379999999
 21
450.048598
 31
0.0
  0
LINE
  5
A9F0
330
A758
100
AcDbEntity
  8
1
  6
Continuous
100
AcDbLine
 10
263.6143379999999
 20
451.048598
 30
0.0
 11
264.6143379999999
 21
450.048598
 31
0.0
  0
LINE
  5
A9F1
330
A758
100
AcDbEntity
  8
1
  6
Continuous
100
AcDbLine
 10
263.6143379999999
 20
451.548598
 30
0.0
 11
263.6143379999999
 21
451.048598
 31
0.0
  0
LINE
  5
A9F2
330
A758
100
AcDbEntity
  8
1
  6
Continuous
100
AcDbLine
 10
264.290838
 20
451.548598
 30
0.0
 11
264.290838
 21
450.3720979999997
 31
0.0
  0
LINE
  5
A9F3
330
A758
100
AcDbEntity
  8
1
  6
Continuous
100
AcDbLine
 10
271.6143379999999
 20
451.548598
 30
0.0
 11
271.6143379999999
 21
451.048598
 31
0.0
  0
LINE
  5
A9F4
330
A758
100
AcDbEntity
  8
1
  6
Continuous
100
AcDbLine
 10
271.6143379999999
 20
451.048598
 30
0.0
 11
270.6143379999999
 21
450.048598
 31
0.0
  0
LINE
  5
A9F5
330
A758
100
AcDbEntity
  8
1
  6
Continuous
100
AcDbLine
 10
270.9378379999999
 20
451.548598
 30
0.0
 11
270.9378379999999
 21
450.3720979999997
 31
0.0
  0
LINE
  5
A9F6
330
A758
100
AcDbEntity
  8
1
  6
Continuous
100
AcDbLine
 10
501.465109
 20
218.2477749999999
 30
0.0
 11
501.465109
 21
230.2477749999999
 31
0.0
  0
LINE
  5
A9F7
330
A758
100
AcDbEntity
  8
1
  6
Continuous
100
AcDbLine
 10
500.929211
 20
220.7836739999999
 30
0.0
 11
495.965109
 21
220.7836739999999
 31
0.0
  0
ARC
  5
A9F8
330
A758
100
AcDbEntity
  8
1
  6
Continuous
100
AcDbCircle
 10
490.001008
 20
224.2477749999999
 30
0.0
 40
11.464102
100
AcDbArc
 50
342.4120459999999
 51
17.587954
  0
ARC
  5
A9F9
330
A758
100
AcDbEntity
  8
1
  6
Continuous
100
AcDbCircle
 10
498.398122
 20
219.051623
 30
0.0
 40
3.066986999999998
100
AcDbArc
 50
334.384247
 51
34.38424699999998
  0
LINE
  5
A9FA
330
A758
100
AcDbEntity
  8
1
  6
Continuous
100
AcDbLine
 10
500.929211
 20
217.3195719999999
 30
0.0
 11
495.965109
 21
217.3195719999999
 31
0.0
  0
LINE
  5
A9FB
330
A758
100
AcDbEntity
  8
1
  6
Continuous
100
AcDbLine
 10
500.929211
 20
231.175978
 30
0.0
 11
496.5323519999998
 21
231.175978
 31
0.0
  0
ARC
  5
A9FC
330
A758
100
AcDbEntity
  8
1
  6
Continuous
100
AcDbCircle
 10
498.398122
 20
229.4439279999998
 30
0.0
 40
3.066986999999998
100
AcDbArc
 50
325.6157529999999
 51
25.615753
  0
LINE
  5
A9FD
330
A758
100
AcDbEntity
  8
1
  6
Continuous
100
AcDbLine
 10
500.929211
 20
227.7118769999999
 30
0.0
 11
496.588362
 21
227.7118769999999
 31
0.0
  0
LINE
  5
A9FE
330
A758
100
AcDbEntity
  8
1
  6
Continuous
100
AcDbLine
 10
500.929211
 20
217.3195719999999
 30
0.0
 11
501.465109
 21
218.2477749999999
 31
0.0
  0
LINE
  5
A9FF
330
A758
100
AcDbEntity
  8
1
  6
Continuous
100
AcDbLine
 10
500.929211
 20
231.175978
 30
0.0
 11
501.465109
 21
230.2477749999999
 31
0.0
  0
ARC
  5
AA00
330
A758
100
AcDbEntity
  8
1
  6
Continuous
100
AcDbCircle
 10
267.6143379999999
 20
224.2477749999999
 30
0.0
 40
25.860509
100
AcDbArc
 50
57.955344
 51
6.044658
  0
ARC
  5
AA01
330
A758
100
AcDbEntity
  8
1
  6
Continuous
100
AcDbCircle
 10
693.0657219999999
 20
224.2477749999999
 30
0.0
 40
25.860509
100
AcDbArc
 50
173.955342
 51
122.044656
  0
ARC
  5
AA05
330
A758
100
AcDbEntity
  8
1
  6
Continuous
100
AcDbCircle
 10
267.6143379999999
 20
224.2477749999999
 30
0.0
 40
45.0
100
AcDbArc
 50
51.324581
 51
16.50660199999999
  0
ARC
  5
AA07
330
A758
100
AcDbEntity
  8
1
  6
Continuous
100
AcDbCircle
 10
693.0657219999999
 20
224.2477749999999
 30
0.0
 40
45.0
100
AcDbArc
 50
163.4933979999999
 51
128.675419
  0
LINE
  5
AA0A
330
A758
100
AcDbEntity
  8
1
  6
Continuous
100
AcDbLine
 10
311.4117289999999
 20
504.5356579999998
 30
0.0
 11
282.949381
 21
507.5971899999998
 31
0.0
  0
ARC
  5
AA0B
330
A758
100
AcDbEntity
  8
1
  6
Continuous
100
AcDbCircle
 10
290.136247
 20
440.5771419999998
 30
0.0
 40
67.671456
100
AcDbArc
 50
98.23083800000004
 51
102.0627859999998
  0
ARC
  5
AA0C
330
A758
100
AcDbEntity
  8
1
  6
Continuous
100
AcDbCircle
 10
281.879907
 20
497.6545429999998
 30
0.0
 40
10.0
100
AcDbArc
 50
83.86062599999998
 51
98.23083800000004
  0
LINE
  5
AA0D
330
A758
100
AcDbEntity
  8
1
  6
Continuous
100
AcDbLine
 10
305.426849
 20
499.798598
 30
0.0
 11
281.893715
 21
502.715284
 31
0.0
  0
LINE
  5
AA0E
330
A758
100
AcDbEntity
  8
1
  6
Continuous
100
AcDbLine
 10
305.426849
 20
499.798598
 30
0.0
 11
285.564025
 21
504.397442
 31
0.0
  0
LINE
  5
AA0F
330
A758
100
AcDbEntity
  8
1
  6
Continuous
100
AcDbLine
 10
311.4117289999999
 20
459.5615389999998
 30
0.0
 11
282.949381
 21
456.5000069999999
 31
0.0
  0
ARC
  5
AA10
330
A758
100
AcDbEntity
  8
1
  6
Continuous
100
AcDbCircle
 10
281.879907
 20
466.442653
 30
0.0
 40
10.0
100
AcDbArc
 50
261.7691619999998
 51
276.1393739999999
  0
ARC
  5
AA11
330
A758
100
AcDbEntity
  8
1
  6
Continuous
100
AcDbCircle
 10
290.136247
 20
523.520054
 30
0.0
 40
67.671456
100
AcDbArc
 50
257.937214
 51
261.7691619999998
  0
ARC
  5
AA12
330
A758
100
AcDbEntity
  8
1
  6
Continuous
100
AcDbCircle
 10
261.7428129999999
 20
390.6555389999999
 30
0.0
 40
68.19305799999999
100
AcDbArc
 50
77.93721399999999
 51
90.0
  0
LINE
  5
AA13
330
A758
100
AcDbEntity
  8
1
  6
Continuous
100
AcDbLine
 10
278.1143379999999
 20
458.8485979999998
 30
0.0
 11
257.1143379999999
 21
458.8485979999998
 31
0.0
  0
ARC
  5
AA14
330
A758
100
AcDbEntity
  8
1
  6
Continuous
100
AcDbCircle
 10
278.1143379999999
 20
491.875625
 30
0.0
 40
33.02702699999999
100
AcDbArc
 50
270.0
 51
283.0360069999999
  0
LINE
  5
AA15
330
A758
100
AcDbEntity
  8
1
  6
Continuous
100
AcDbLine
 10
305.426849
 20
464.298598
 30
0.0
 11
285.564025
 21
459.699754
 31
0.0
  0
LINE
  5
AA16
330
A758
100
AcDbEntity
  8
1
  6
Continuous
100
AcDbLine
 10
305.426849
 20
464.298598
 30
0.0
 11
281.893715
 21
461.381913
 31
0.0
  0
ARC
  5
AA17
330
A758
100
AcDbEntity
  8
1
  6
Continuous
100
AcDbCircle
 10
278.1143379999999
 20
491.875625
 30
0.0
 40
30.72702700000001
100
AcDbArc
 50
270.0
 51
277.0651829999998
  0
LINE
  5
AA18
330
A758
100
AcDbEntity
  8
1
  6
Continuous
100
AcDbLine
 10
278.1143379999999
 20
461.148598
 30
0.0
 11
257.1143379999999
 21
461.148598
 31
0.0
  0
ARC
  5
AA19
330
A758
100
AcDbEntity
  8
1
  6
Continuous
100
AcDbCircle
 10
290.136247
 20
523.520054
 30
0.0
 40
67.671456
100
AcDbArc
 50
290.509587
 51
298.4582930000001
  0
ARC
  5
AA1A
330
A758
100
AcDbEntity
  8
1
  6
Continuous
100
AcDbCircle
 10
312.6143379999998
 20
76.03216299999998
 30
0.0
 40
18.2
100
AcDbArc
 50
217.185363
 51
332.7492299999998
  0
ARC
  5
AA1B
330
A758
100
AcDbEntity
  8
1
  6
Continuous
100
AcDbCircle
 10
312.6143379999998
 20
76.03216299999998
 30
0.0
 40
18.2
100
AcDbArc
 50
27.25077000000001
 51
142.814637
  0
ARC
  5
AA1C
330
A758
100
AcDbEntity
  8
1
  6
Continuous
100
AcDbCircle
 10
290.136247
 20
34.560707
 30
0.0
 40
67.671456
100
AcDbArc
 50
61.54170699999998
 51
69.49041300000001
  0
LINE
  5
AA1D
330
A758
100
AcDbEntity
  8
1
  6
Continuous
100
AcDbLine
 10
311.4117289999999
 20
98.519223
 30
0.0
 11
282.949381
 21
101.580755
 31
0.0
  0
ARC
  5
AA1E
330
A758
100
AcDbEntity
  8
1
  6
Continuous
100
AcDbCircle
 10
290.136247
 20
34.560707
 30
0.0
 40
67.671456
100
AcDbArc
 50
98.23083800000004
 51
102.0627859999998
  0
ARC
  5
AA1F
330
A758
100
AcDbEntity
  8
1
  6
Continuous
100
AcDbCircle
 10
261.7428129999999
 20
167.4252219999999
 30
0.0
 40
68.19305799999999
100
AcDbArc
 50
270.0
 51
282.0627859999999
  0
ARC
  5
AA20
330
A758
100
AcDbEntity
  8
1
  6
Continuous
100
AcDbCircle
 10
281.879907
 20
91.638108
 30
0.0
 40
10.0
100
AcDbArc
 50
83.86062599999998
 51
98.23083800000004
  0
ARC
  5
AA21
330
A758
100
AcDbEntity
  8
1
  6
Continuous
100
AcDbCircle
 10
261.7428129999999
 20
-15.36089599999999
 30
0.0
 40
68.19305799999999
100
AcDbArc
 50
77.93721399999999
 51
90.0
  0
ARC
  5
AA22
330
A758
100
AcDbEntity
  8
1
  6
Continuous
100
AcDbCircle
 10
290.136247
 20
117.5036189999999
 30
0.0
 40
67.671456
100
AcDbArc
 50
257.937214
 51
261.7691619999998
  0
LINE
  5
AA23
330
A758
100
AcDbEntity
  8
1
  6
Continuous
100
AcDbLine
 10
311.4117289999999
 20
53.54510300000001
 30
0.0
 11
282.949381
 21
50.483571
 31
0.0
  0
ARC
  5
AA24
330
A758
100
AcDbEntity
  8
1
  6
Continuous
100
AcDbCircle
 10
281.879907
 20
60.426218
 30
0.0
 40
10.0
100
AcDbArc
 50
261.7691619999998
 51
276.1393739999999
  0
ARC
  5
AA25
330
A758
100
AcDbEntity
  8
1
  6
Continuous
100
AcDbCircle
 10
290.136247
 20
117.5036189999999
 30
0.0
 40
67.671456
100
AcDbArc
 50
290.509587
 51
298.4582930000001
  0
ARC
  5
AA26
330
A758
100
AcDbEntity
  8
1
  6
Continuous
100
AcDbCircle
 10
291.3875669999999
 20
21.75194499999999
 30
0.0
 40
76.42337499999998
100
AcDbArc
 50
69.90619699999999
 51
99.178466
  0
ARC
  5
AA27
330
A758
100
AcDbEntity
  8
1
  6
Continuous
100
AcDbCircle
 10
287.9866859999999
 20
-5.639041999999997
 30
0.0
 40
105.4609539999999
100
AcDbArc
 50
70.964623
 51
94.76458400000002
  0
ARC
  5
AA28
330
A758
100
AcDbEntity
  8
1
  6
Continuous
100
AcDbCircle
 10
287.9866859999999
 20
157.7033679999999
 30
0.0
 40
105.4609539999999
100
AcDbArc
 50
265.2354159999998
 51
289.0353769999999
  0
ARC
  5
AA29
330
A758
100
AcDbEntity
  8
1
  6
Continuous
100
AcDbCircle
 10
276.8833939999999
 20
40.53216299999998
 30
0.0
 40
12.3
100
AcDbArc
 50
79.01634
 51
90.0
  0
ARC
  5
AA2A
330
A758
100
AcDbEntity
  8
1
  6
Continuous
100
AcDbCircle
 10
276.911868
 20
45.13216299999998
 30
0.0
 40
10.0
100
AcDbArc
 50
76.78890799999997
 51
90.0
  0
ARC
  5
AA2B
330
A758
100
AcDbEntity
  8
1
  6
Continuous
100
AcDbCircle
 10
291.3875669999999
 20
130.3123809999999
 30
0.0
 40
76.42337499999998
100
AcDbArc
 50
260.821534
 51
290.0938029999998
  0
ARC
  5
AA2C
330
A758
100
AcDbEntity
  8
1
  6
Continuous
100
AcDbCircle
 10
310.3422549999999
 20
494.5930109999998
 30
0.0
 40
10.0
100
AcDbArc
 50
69.49041300000001
 51
83.86062599999998
  0
ARC
  5
AA2D
330
A758
100
AcDbEntity
  8
1
  6
Continuous
100
AcDbCircle
 10
310.3422549999999
 20
469.5041849999998
 30
0.0
 40
10.0
100
AcDbArc
 50
276.1393739999999
 51
290.509587
  0
ARC
  5
AA2E
330
A758
100
AcDbEntity
  8
1
  6
Continuous
100
AcDbCircle
 10
310.3422549999999
 20
88.57657600000001
 30
0.0
 40
10.0
100
AcDbArc
 50
69.49041300000001
 51
83.86062599999998
  0
ARC
  5
AA2F
330
A758
100
AcDbEntity
  8
1
  6
Continuous
100
AcDbCircle
 10
310.3422549999999
 20
63.48774999999999
 30
0.0
 40
10.0
100
AcDbArc
 50
276.1393739999999
 51
290.509587
  0
CIRCLE
  5
AA35
330
A758
100
AcDbEntity
  8
1
  6
Continuous
100
AcDbCircle
 10
667.6098769999997
 20
198.791931
 30
0.0
 40
3.5
  0
CIRCLE
  5
AA36
330
A758
100
AcDbEntity
  8
1
  6
Continuous
100
AcDbCircle
 10
718.5215659999999
 20
198.791931
 30
0.0
 40
3.5
  0
CIRCLE
  5
AA37
330
A758
100
AcDbEntity
  8
1
  6
Continuous
100
AcDbCircle
 10
718.5215669999998
 20
249.703619
 30
0.0
 40
3.5
  0
CIRCLE
  5
AA38
330
A758
100
AcDbEntity
  8
1
  6
Continuous
100
AcDbCircle
 10
242.1584939999999
 20
249.703619
 30
0.0
 40
3.5
  0
CIRCLE
  5
AA39
330
A758
100
AcDbEntity
  8
1
  6
Continuous
100
AcDbCircle
 10
242.1584939999999
 20
198.791931
 30
0.0
 40
3.5
  0
CIRCLE
  5
AA3A
330
A758
100
AcDbEntity
  8
1
  6
Continuous
100
AcDbCircle
 10
293.0701829999998
 20
198.791931
 30
0.0
 40
3.5
  0
ENDSEC
  0
SECTION
  2
OBJECTS
  0
DICTIONARY
  5
A746
330
0
100
AcDbDictionary
281
     1
  3
ACAD_CIP_PREVIOUS_PRODUCT_INFO
350
AA9B
  3
ACAD_COLOR
350
AA7D
  3
ACAD_DETAILVIEWSTYLE
350
AA96
  3
ACAD_GROUP
350
A747
  3
ACAD_LAYOUT
350
A753
  3
ACAD_MATERIAL
350
AA4B
  3
ACAD_MLEADERSTYLE
350
AA92
  3
ACAD_MLINESTYLE
350
A750
  3
ACAD_PLOTSETTINGS
350
A752
  3
ACAD_PLOTSTYLENAME
350
AA49
  3
ACAD_SCALELIST
350
AA80
  3
ACAD_SECTIONVIEWSTYLE
350
AA94
  3
ACAD_TABLESTYLE
350
AA7E
  3
ACAD_VISUALSTYLE
350
AA64
  3
ACDB_RECOMPOSE_DATA
350
AAB9
  3
AcDbVariableDictionary
350
AAAC
  3
DWGPROPS
350
AABA
  0
DICTIONARY
  5
AA9C
330
A74A
100
AcDbDictionary
280
     1
281
     1
  3
ADSK_XREC_LAYER_RECONCILED
360
AA9D
  0
DICTIONARY
  5
AA9E
330
A760
100
AcDbDictionary
280
     1
281
     1
  3
ADSK_XREC_LAYER_RECONCILED
360
AA9F
  0
DICTIONARY
  5
AAA0
330
A761
100
AcDbDictionary
280
     1
281
     1
  3
ADSK_XREC_LAYER_RECONCILED
360
AAA1
  0
DICTIONARY
  5
AAA2
330
A762
100
AcDbDictionary
280
     1
281
     1
  3
ADSK_XREC_LAYER_RECONCILED
360
AAA3
  0
DICTIONARY
  5
AAA4
330
A763
100
AcDbDictionary
280
     1
281
     1
  3
ADSK_XREC_LAYER_RECONCILED
360
AAA5
  0
DICTIONARY
  5
AAA6
330
A764
100
AcDbDictionary
280
     1
281
     1
  3
ADSK_XREC_LAYER_RECONCILED
360
AAA7
  0
DICTIONARY
  5
AAA8
330
A765
100
AcDbDictionary
280
     1
281
     1
  3
ADSK_XREC_LAYER_RECONCILED
360
AAA9
  0
DICTIONARY
  5
AAAA
330
A766
100
AcDbDictionary
280
     1
281
     1
  3
ADSK_XREC_LAYER_RECONCILED
360
AAAB
  0
DICTIONARY
  5
AA44
330
A758
100
AcDbDictionary
281
     1
  3
ACAD_LAYOUTSELFREF
350
AA45
  0
DICTIONARY
  5
AA42
330
A754
100
AcDbDictionary
281
     1
  3
ACAD_LAYOUTSELFREF
350
AA43
  0
XRECORD
  5
AA9B
102
{ACAD_REACTORS
330
A746
102
}
330
A746
100
AcDbXrecord
280
     1
300
ACDLT
300
2014
300
ACDLT_F_S
  0
DICTIONARY
  5
AA7D
102
{ACAD_REACTORS
330
A746
102
}
330
A746
100
AcDbDictionary
281
     1
  0
DICTIONARY
  5
AA96
102
{ACAD_REACTORS
330
A746
102
}
330
A746
100
AcDbDictionary
281
     1
  3
Imperial24
350
AA97
  0
DICTIONARY
  5
A747
102
{ACAD_REACTORS
330
A746
102
}
330
A746
100
AcDbDictionary
281
     1
  0
DICTIONARY
  5
A753
102
{ACAD_REACTORS
330
A746
102
}
330
A746
100
AcDbDictionary
281
     1
  3
Model
350
AA98
  3
レイアウト1
350
AA99
  0
DICTIONARY
  5
AA4B
102
{ACAD_REACTORS
330
A746
102
}
330
A746
100
AcDbDictionary
281
     1
  3
ByBlock
350
AA54
  3
ByLayer
350
AA4C
  3
Global
350
AA5C
  0
DICTIONARY
  5
AA92
102
{ACAD_REACTORS
330
A746
102
}
330
A746
100
AcDbDictionary
281
     1
  3
Standard
350
AA93
  0
DICTIONARY
  5
A750
102
{ACAD_REACTORS
330
A746
102
}
330
A746
100
AcDbDictionary
281
     1
  3
STANDARD
350
A751
  0
DICTIONARY
  5
A752
102
{ACAD_REACTORS
330
A746
102
}
330
A746
100
AcDbDictionary
281
     1
  0
ACDBDICTIONARYWDFLT
  5
AA49
102
{ACAD_REACTORS
330
A746
102
}
330
A746
100
AcDbDictionary
281
     1
  3
Normal
350
AA4A
100
AcDbDictionaryWithDefault
340
AA4A
  0
DICTIONARY
  5
AA80
102
{ACAD_REACTORS
330
A746
102
}
330
A746
100
AcDbDictionary
281
     1
  3
A0
350
AA81
  3
A1
350
AA82
  3
A2
350
AA83
  3
A3
350
AA84
  3
A4
350
AA85
  3
A5
350
AA86
  3
A6
350
AA87
  3
A7
350
AA88
  3
A8
350
AA89
  3
A9
350
AA8A
  3
B0
350
AA8B
  3
B1
350
AA8C
  3
B2
350
AA8D
  3
B3
350
AA8E
  3
B4
350
AA8F
  3
B5
350
AA90
  3
B6
350
AA91
  0
DICTIONARY
  5
AA94
102
{ACAD_REACTORS
330
A746
102
}
330
A746
100
AcDbDictionary
281
     1
  3
Imperial24
350
AA95
  0
DICTIONARY
  5
AA7E
102
{ACAD_REACTORS
330
A746
102
}
330
A746
100
AcDbDictionary
281
     1
  3
Standard
350
AA7F
  0
DICTIONARY
  5
AA64
102
{ACAD_REACTORS
330
A746
102
}
330
A746
100
AcDbDictionary
281
     1
  3
2dWireframe
350
AA6A
  3
Basic
350
AA69
  3
Brighten
350
AA70
  3
ColorChange
350
AA74
  3
Conceptual
350
AA6D
  3
Dim
350
AA6F
  3
EdgeColorOff
350
AA7C
  3
Facepattern
350
AA73
  3
Flat
350
AA65
  3
FlatWithEdges
350
AA66
  3
Gouraud
350
AA67
  3
GouraudWithEdges
350
AA68
  3
Hidden
350
AA6C
  3
JitterOff
350
AA7A
  3
Linepattern
350
AA72
  3
OverhangOff
350
AA7B
  3
Realistic
350
AA6E
  3
Shaded
350
AA79
  3
Shaded with edges
350
AA78
  3
Shades of Gray
350
AA75
  3
Sketchy
350
AA76
  3
Thicken
350
AA71
  3
Wireframe
350
AA6B
  3
X-Ray
350
AA77
  0
XRECORD
  5
AAB9
102
{ACAD_REACTORS
330
A746
102
}
330
A746
100
AcDbXrecord
280
     1
 90
        1
330
AA7F
  0
DICTIONARY
  5
AAAC
102
{ACAD_REACTORS
330
A746
102
}
330
A746
100
AcDbDictionary
281
     1
  3
CANNOSCALE
350
AAB1
  3
CMLEADERSTYLE
350
AAAE
  3
CTABLESTYLE
350
AAAD
  3
CVIEWDETAILSTYLE
350
AAAF
  3
CVIEWSECTIONSTYLE
350
AAB0
  3
DIMASSOC
350
AAB4
  3
INDEXCTL
350
AAB3
  3
SORTENTS
350
AAB2
  3
XCLIPFRAME
350
AAB5
  0
XRECORD
  5
AABA
102
{ACAD_REACTORS
330
A746
102
}
330
A746
100
AcDbXrecord
280
     1
  1
DWGPROPS COOKIE
  2

  3

  4

  6

  7

  8
Yoshitsune
  9

300
=
301
=
302
=
303
=
304
=
305
=
306
=
307
=
308
=
309
=
 40
0.0005677546296296
 41
2451301.772956713
 42
2457618.723885371
  1

 90
        0
  0
XRECORD
  5
AA9D
102
{ACAD_REACTORS
330
AA9C
102
}
330
AA9C
100
AcDbXrecord
280
     1
290
     1
  0
XRECORD
  5
AA9F
102
{ACAD_REACTORS
330
AA9E
102
}
330
AA9E
100
AcDbXrecord
280
     1
290
     1
  0
XRECORD
  5
AAA1
102
{ACAD_REACTORS
330
AAA0
102
}
330
AAA0
100
AcDbXrecord
280
     1
290
     1
  0
XRECORD
  5
AAA3
102
{ACAD_REACTORS
330
AAA2
102
}
330
AAA2
100
AcDbXrecord
280
     1
290
     1
  0
XRECORD
  5
AAA5
102
{ACAD_REACTORS
330
AAA4
102
}
330
AAA4
100
AcDbXrecord
280
     1
290
     1
  0
XRECORD
  5
AAA7
102
{ACAD_REACTORS
330
AAA6
102
}
330
AAA6
100
AcDbXrecord
280
     1
290
     1
  0
XRECORD
  5
AAA9
102
{ACAD_REACTORS
330
AAA8
102
}
330
AAA8
100
AcDbXrecord
280
     1
290
     1
  0
XRECORD
  5
AAAB
102
{ACAD_REACTORS
330
AAAA
102
}
330
AAAA
100
AcDbXrecord
280
     1
290
     1
  0
XRECORD
  5
AA45
102
{ACAD_REACTORS
330
AA44
102
}
330
AA44
100
AcDbXrecord
280
     1
340
A758
  0
XRECORD
  5
AA43
102
{ACAD_REACTORS
330
AA42
102
}
330
AA42
100
AcDbXrecord
280
     1
340
A754
  0
ACDBDETAILVIEWSTYLE
  5
AA97
102
{ACAD_XDICTIONARY
360
AAF2
102
}
102
{ACAD_REACTORS
330
AA96
102
}
330
AA96
100
AcDbModelDocViewStyle
 70
     0
  3
Imperial24
290
     0
100
AcDbDetailViewStyle
 70
     0
 71
     0
 90
        3
 71
     1
340
A74B
 40
0.24
340
0
 40
0.24
300

 40
0.36
280
     3
 71
     2
340
A74F
 90
       25
 71
     3
340
A74B
 40
0.24
 90
        1
 40
0.75
 90
        1
300
%<\AcVar ViewType \f "%tc1">% %<\AcVar ViewDetailId>%\PSCALE %<\AcVar ViewScale \f "%sn">%
 71
     4
340
A74F
 90
       25
340
A74F
 90
       25
280
     0
  0
LAYOUT
  5
AA98
102
{ACAD_XDICTIONARY
360
AAF4
102
}
102
{ACAD_REACTORS
330
A753
102
}
330
A753
100
AcDbPlotSettings
  1

  2
Canon LBP9100C
  4

  6

 40
0.0
 41
0.0
 42
0.0
 43
0.0
 44
0.0
 45
0.0
 46
0.0
 47
0.0
 48
0.0
 49
0.0
140
0.0
141
0.0
142
1.0
143
1.0
 70
  1712
 72
     0
 73
     0
 74
     0
  7

 75
     0
147
1.0
148
0.0
149
0.0
100
AcDbLayout
  1
Model
 70
     1
 71
     0
 10
0.0
 20
0.0
 11
12.0
 21
9.0
 12
0.0
 22
0.0
 32
0.0
 14
0.0
 24
0.0
 34
0.0
 15
0.0
 25
0.0
 35
0.0
146
0.0
 13
0.0
 23
0.0
 33
0.0
 16
1.0
 26
0.0
 36
0.0
 17
0.0
 27
1.0
 37
0.0
 76
     0
330
A758
331
AA41
  0
LAYOUT
  5
AA99
102
{ACAD_XDICTIONARY
360
AAF6
102
}
102
{ACAD_REACTORS
330
A753
102
}
330
A753
100
AcDbPlotSettings
  1

  2
Canon LBP9100C
  4

  6

 40
0.0
 41
0.0
 42
0.0
 43
0.0
 44
0.0
 45
0.0
 46
0.0
 47
0.0
 48
0.0
 49
0.0
140
0.0
141
0.0
142
1.0
143
1.0
 70
   688
 72
     0
 73
     0
 74
     5
  7

 75
    16
147
1.0
148
0.0
149
0.0
100
AcDbLayout
  1
レイアウト1
 70
     0
 71
     1
 10
0.0
 20
0.0
 11
420.0
 21
297.0
 12
0.0
 22
0.0
 32
0.0
 14
1.000000000000000E+20
 24
1.000000000000000E+20
 34
1.000000000000000E+20
 15
-1.000000000000000E+20
 25
-1.000000000000000E+20
 35
-1.000000000000000E+20
146
0.0
 13
0.0
 23
0.0
 33
0.0
 16
1.0
 26
0.0
 36
0.0
 17
0.0
 27
1.0
 37
0.0
 76
     0
330
A754
  0
MATERIAL
  5
AA54
102
{ACAD_XDICTIONARY
360
AA55
102
}
102
{ACAD_REACTORS
330
AA4B
102
}
330
AA4B
100
AcDbMaterial
  1
ByBlock
 72
     0
 43
0.0208333333333333
 43
0.0
 43
0.0
 43
0.0
 43
0.0
 43
0.0208333333333333
 43
0.0
 43
0.0
 43
0.0
 43
0.0
 43
1.0
 43
0.0
 43
0.0
 43
0.0
 43
0.0
 43
1.0
 77
     0
 47
0.0208333333333333
 47
0.0
 47
0.0
 47
0.0
 47
0.0
 47
0.0208333333333333
 47
0.0
 47
0.0
 47
0.0
 47
0.0
 47
1.0
 47
0.0
 47
0.0
 47
0.0
 47
0.0
 47
1.0
171
     0
 49
0.0208333333333333
 49
0.0
 49
0.0
 49
0.0
 49
0.0
 49
0.0208333333333333
 49
0.0
 49
0.0
 49
0.0
 49
0.0
 49
1.0
 49
0.0
 49
0.0
 49
0.0
 49
0.0
 49
1.0
175
     0
142
0.0208333333333333
142
0.0
142
0.0
142
0.0
142
0.0
142
0.0208333333333333
142
0.0
142
0.0
142
0.0
142
0.0
142
1.0
142
0.0
142
0.0
142
0.0
142
0.0
142
1.0
179
     0
144
0.0208333333333333
144
0.0
144
0.0
144
0.0
144
0.0
144
0.0208333333333333
144
0.0
144
0.0
144
0.0
144
0.0
144
1.0
144
0.0
144
0.0
144
0.0
144
0.0
144
1.0
147
0.0208333333333333
147
0.0
147
0.0
147
0.0
147
0.0
147
0.0208333333333333
147
0.0
147
0.0
147
0.0
147
0.0
147
1.0
147
0.0
147
0.0
147
0.0
147
0.0
147
1.0
  0
MATERIAL
  5
AA4C
102
{ACAD_XDICTIONARY
360
AA4D
102
}
102
{ACAD_REACTORS
330
AA4B
102
}
330
AA4B
100
AcDbMaterial
  1
ByLayer
 72
     0
 43
0.0208333333333333
 43
0.0
 43
0.0
 43
0.0
 43
0.0
 43
0.0208333333333333
 43
0.0
 43
0.0
 43
0.0
 43
0.0
 43
1.0
 43
0.0
 43
0.0
 43
0.0
 43
0.0
 43
1.0
 77
     0
 47
0.0208333333333333
 47
0.0
 47
0.0
 47
0.0
 47
0.0
 47
0.0208333333333333
 47
0.0
 47
0.0
 47
0.0
 47
0.0
 47
1.0
 47
0.0
 47
0.0
 47
0.0
 47
0.0
 47
1.0
171
     0
 49
0.0208333333333333
 49
0.0
 49
0.0
 49
0.0
 49
0.0
 49
0.0208333333333333
 49
0.0
 49
0.0
 49
0.0
 49
0.0
 49
1.0
 49
0.0
 49
0.0
 49
0.0
 49
0.0
 49
1.0
175
     0
142
0.0208333333333333
142
0.0
142
0.0
142
0.0
142
0.0
142
0.0208333333333333
142
0.0
142
0.0
142
0.0
142
0.0
142
1.0
142
0.0
142
0.0
142
0.0
142
0.0
142
1.0
179
     0
144
0.0208333333333333
144
0.0
144
0.0
144
0.0
144
0.0
144
0.0208333333333333
144
0.0
144
0.0
144
0.0
144
0.0
144
1.0
144
0.0
144
0.0
144
0.0
144
0.0
144
1.0
147
0.0208333333333333
147
0.0
147
0.0
147
0.0
147
0.0
147
0.0208333333333333
147
0.0
147
0.0
147
0.0
147
0.0
147
1.0
147
0.0
147
0.0
147
0.0
147
0.0
147
1.0
  0
MATERIAL
  5
AA5C
102
{ACAD_XDICTIONARY
360
AA5D
102
}
102
{ACAD_REACTORS
330
AA4B
102
}
330
AA4B
100
AcDbMaterial
  1
Global
 72
     0
 43
0.0208333333333333
 43
0.0
 43
0.0
 43
0.0
 43
0.0
 43
0.0208333333333333
 43
0.0
 43
0.0
 43
0.0
 43
0.0
 43
1.0
 43
0.0
 43
0.0
 43
0.0
 43
0.0
 43
1.0
 77
     0
 47
0.0208333333333333
 47
0.0
 47
0.0
 47
0.0
 47
0.0
 47
0.0208333333333333
 47
0.0
 47
0.0
 47
0.0
 47
0.0
 47
1.0
 47
0.0
 47
0.0
 47
0.0
 47
0.0
 47
1.0
171
     0
 49
0.0208333333333333
 49
0.0
 49
0.0
 49
0.0
 49
0.0
 49
0.0208333333333333
 49
0.0
 49
0.0
 49
0.0
 49
0.0
 49
1.0
 49
0.0
 49
0.0
 49
0.0
 49
0.0
 49
1.0
175
     0
142
0.0208333333333333
142
0.0
142
0.0
142
0.0
142
0.0
142
0.0208333333333333
142
0.0
142
0.0
142
0.0
142
0.0
142
1.0
142
0.0
142
0.0
142
0.0
142
0.0
142
1.0
179
     0
144
0.0208333333333333
144
0.0
144
0.0
144
0.0
144
0.0
144
0.0208333333333333
144
0.0
144
0.0
144
0.0
144
0.0
144
1.0
144
0.0
144
0.0
144
0.0
144
0.0
144
1.0
147
0.0208333333333333
147
0.0
147
0.0
147
0.0
147
0.0
147
0.0208333333333333
147
0.0
147
0.0
147
0.0
147
0.0
147
1.0
147
0.0
147
0.0
147
0.0
147
0.0
147
1.0
  0
MLEADERSTYLE
  5
AA93
102
{ACAD_REACTORS
330
AA92
102
}
330
AA92
100
AcDbMLeaderStyle
170
     2
171
     1
172
     0
 90
        2
 40
0.0
 41
0.0
173
     1
 91
-1056964608
340
A74D
 92
       -2
290
     1
 42
0.09
291
     1
 43
0.36
  3
Standard
 44
0.18
300

342
A74B
174
     1
178
     6
175
     1
176
     0
 93
-1056964608
 45
0.18
292
     0
297
     0
 46
0.18
 94
-1056964608
 47
1.0
 49
1.0
140
1.0
293
     1
141
0.0
294
     1
177
     0
142
1.0
295
     0
296
     0
143
0.125
1001
ACAD_MLEADERVER
1070
     2
  0
MLINESTYLE
  5
A751
102
{ACAD_REACTORS
330
A750
102
}
330
A750
100
AcDbMlineStyle
  2
STANDARD
 70
     0
  3

 62
   256
 51
90.0
 52
90.0
 71
     2
 49
0.5
 62
   256
  6
BYLAYER
 49
-0.5
 62
   256
  6
BYLAYER
  0
ACDBPLACEHOLDER
  5
AA4A
102
{ACAD_REACTORS
330
AA49
102
}
330
AA49
  0
SCALE
  5
AA81
102
{ACAD_REACTORS
330
AA80
102
}
330
AA80
100
AcDbScale
 70
     0
300
1:1
140
1.0
141
1.0
290
     1
  0
SCALE
  5
AA82
102
{ACAD_REACTORS
330
AA80
102
}
330
AA80
100
AcDbScale
 70
     0
300
1/128" = 1'-0"
140
0.0078125
141
12.0
290
     0
  0
SCALE
  5
AA83
102
{ACAD_REACTORS
330
AA80
102
}
330
AA80
100
AcDbScale
 70
     0
300
1/64" = 1'-0"
140
0.015625
141
12.0
290
     0
  0
SCALE
  5
AA84
102
{ACAD_REACTORS
330
AA80
102
}
330
AA80
100
AcDbScale
 70
     0
300
1/32" = 1'-0"
140
0.03125
141
12.0
290
     0
  0
SCALE
  5
AA85
102
{ACAD_REACTORS
330
AA80
102
}
330
AA80
100
AcDbScale
 70
     0
300
1/16" = 1'-0"
140
0.0625
141
12.0
290
     0
  0
SCALE
  5
AA86
102
{ACAD_REACTORS
330
AA80
102
}
330
AA80
100
AcDbScale
 70
     0
300
3/32" = 1'-0"
140
0.09375
141
12.0
290
     0
  0
SCALE
  5
AA87
102
{ACAD_REACTORS
330
AA80
102
}
330
AA80
100
AcDbScale
 70
     0
300
1/8" = 1'-0"
140
0.125
141
12.0
290
     0
  0
SCALE
  5
AA88
102
{ACAD_REACTORS
330
AA80
102
}
330
AA80
100
AcDbScale
 70
     0
300
3/16" = 1'-0"
140
0.1875
141
12.0
290
     0
  0
SCALE
  5
AA89
102
{ACAD_REACTORS
330
AA80
102
}
330
AA80
100
AcDbScale
 70
     0
300
1/4" = 1'-0"
140
0.25
141
12.0
290
     0
  0
SCALE
  5
AA8A
102
{ACAD_REACTORS
330
AA80
102
}
330
AA80
100
AcDbScale
 70
     0
300
3/8" = 1'-0"
140
0.375
141
12.0
290
     0
  0
SCALE
  5
AA8B
102
{ACAD_REACTORS
330
AA80
102
}
330
AA80
100
AcDbScale
 70
     0
300
1/2" = 1'-0"
140
0.5
141
12.0
290
     0
  0
SCALE
  5
AA8C
102
{ACAD_REACTORS
330
AA80
102
}
330
AA80
100
AcDbScale
 70
     0
300
3/4" = 1'-0"
140
0.75
141
12.0
290
     0
  0
SCALE
  5
AA8D
102
{ACAD_REACTORS
330
AA80
102
}
330
AA80
100
AcDbScale
 70
     0
300
1" = 1'-0"
140
1.0
141
12.0
290
     0
  0
SCALE
  5
AA8E
102
{ACAD_REACTORS
330
AA80
102
}
330
AA80
100
AcDbScale
 70
     0
300
1-1/2" = 1'-0"
140
1.5
141
12.0
290
     0
  0
SCALE
  5
AA8F
102
{ACAD_REACTORS
330
AA80
102
}
330
AA80
100
AcDbScale
 70
     0
300
3" = 1'-0"
140
3.0
141
12.0
290
     0
  0
SCALE
  5
AA90
102
{ACAD_REACTORS
330
AA80
102
}
330
AA80
100
AcDbScale
 70
     0
300
6" = 1'-0"
140
6.0
141
12.0
290
     0
  0
SCALE
  5
AA91
102
{ACAD_REACTORS
330
AA80
102
}
330
AA80
100
AcDbScale
 70
     0
300
1'-0" = 1'-0"
140
12.0
141
12.0
290
     0
  0
ACDBSECTIONVIEWSTYLE
  5
AA95
102
{ACAD_XDICTIONARY
360
AAF0
102
}
102
{ACAD_REACTORS
330
AA94
102
}
330
AA94
100
AcDbModelDocViewStyle
 70
     0
  3
Imperial24
290
     0
100
AcDbSectionViewStyle
 70
     0
 71
     0
 90
       78
 71
     1
340
A74B
 40
0.24
340
0
340
0
 40
0.24
300
I, O, Q, S, X, Z
 40
0.48
 90
        3
 40
0.18
 90
        1
 71
     2
340
A74F
 90
       25
340
A74F
 90
       50
 40
0.24
 40
0.0
 40
0.24
 71
     3
340
A74B
 40
0.24
 90
        1
 40
0.75
 90
        1
300
%<\AcVar ViewType \f "%tc1">% %<\AcVar ViewSectionStartId>%-%<\AcVar ViewSectionEndId>%\PSCALE %<\AcVar ViewScale \f "%sn">%
 71
     4
300
ANSI31
 40
1.0
 90
        0
290
     0
290
     0
 90
        6
 40
0.0
 40
1.570796326794896
 40
0.2617993877991494
 40
1.308996938995747
 40
-0.2617993877991494
 40
1.832595714594046
  0
TABLESTYLE
  5
AA7F
102
{ACAD_XDICTIONARY
360
AAB7
102
}
102
{ACAD_REACTORS
330
AA7E
102
}
330
AA7E
100
AcDbTableStyle
  3
Standard
 70
     0
 71
     0
 40
0.06
 41
0.06
280
     0
281
     0
  7
STANDARD
140
0.18
170
     2
 62
     0
 63
     7
283
     0
274
    -2
284
     1
 64
     0
275
    -2
285
     1
 65
     0
276
    -2
286
     1
 66
     0
277
    -2
287
     1
 67
     0
278
    -2
288
     1
 68
     0
279
    -2
289
     1
 69
     0
  7
STANDARD
140
0.25
170
     5
 62
     0
 63
     7
283
     0
274
    -2
284
     1
 64
     0
275
    -2
285
     1
 65
     0
276
    -2
286
     1
 66
     0
277
    -2
287
     1
 67
     0
278
    -2
288
     1
 68
     0
279
    -2
289
     1
 69
     0
  7
STANDARD
140
0.18
170
     5
 62
     0
 63
     7
283
     0
274
    -2
284
     1
 64
     0
275
    -2
285
     1
 65
     0
276
    -2
286
     1
 66
     0
277
    -2
287
     1
 67
     0
278
    -2
288
     1
 68
     0
279
    -2
289
     1
 69
     0
  0
VISUALSTYLE
  5
AA6A
102
{ACAD_XDICTIONARY
360
AAC8
102
}
102
{ACAD_REACTORS
330
AA64
102
}
330
AA64
100
AcDbVisualStyle
  2
2dWireframe
 70
     4
 71
     0
 72
     2
 73
     0
 90
        0
 40
-0.6
 41
-30.0
 62
     5
 63
     7
 74
     1
 91
        4
 64
     7
 65
   257
 75
     1
175
     1
 42
1.0
 92
        0
 66
   257
 43
1.0
 76
     1
 77
     6
 78
     2
 67
     7
 79
     5
170
     0
171
     0
290
     0
174
     0
 93
        1
 44
0.0
173
     0
291
     0
 45
0.0
1001
ACAD
1000
AcDbSavedByObjectVersion
1070
     0
  0
VISUALSTYLE
  5
AA69
102
{ACAD_XDICTIONARY
360
AAC6
102
}
102
{ACAD_REACTORS
330
AA64
102
}
330
AA64
100
AcDbVisualStyle
  2
Basic
 70
     7
 71
     1
 72
     0
 73
     1
 90
        0
 40
-0.6
 41
-30.0
 62
     5
 63
     7
 74
     0
 91
        4
 64
     7
 65
   257
 75
     1
175
     1
 42
1.0
 92
        8
 66
     7
 43
1.0
 76
     1
 77
     6
 78
     2
 67
     7
 79
     5
170
     0
171
     0
290
     0
174
     0
 93
        1
 44
0.0
173
     0
291
     1
 45
0.0
1001
ACAD
1000
AcDbSavedByObjectVersion
1070
     0
  0
VISUALSTYLE
  5
AA70
102
{ACAD_XDICTIONARY
360
AAD4
102
}
102
{ACAD_REACTORS
330
AA64
102
}
330
AA64
100
AcDbVisualStyle
  2
Brighten
 70
    12
 71
     2
 72
     2
 73
     0
 90
        0
 40
-0.6
 41
-30.0
 62
     5
 63
     7
 74
     1
 91
        4
 64
     7
 65
   257
 75
     1
175
     1
 42
1.0
 92
        8
 66
     7
 43
1.0
 76
     1
 77
     6
 78
     2
 67
     7
 79
     5
170
     0
171
     0
290
     0
174
     0
 93
        1
 44
50.0
173
     0
291
     1
 45
0.0
1001
ACAD
1000
AcDbSavedByObjectVersion
1070
     0
  0
VISUALSTYLE
  5
AA74
102
{ACAD_XDICTIONARY
360
AADC
102
}
102
{ACAD_REACTORS
330
AA64
102
}
330
AA64
100
AcDbVisualStyle
  2
ColorChange
 70
    16
 71
     2
 72
     2
 73
     3
 90
        0
 40
-0.6
 41
-30.0
 62
     5
 63
     8
 74
     1
 91
        4
 64
     7
 65
   257
 75
     1
175
     1
 42
1.0
 92
        8
 66
     8
 43
1.0
 76
     1
 77
     6
 78
     2
 67
     7
 79
     5
170
     0
171
     0
290
     0
174
     0
 93
        1
 44
0.0
173
     0
291
     1
 45
0.0
1001
ACAD
1000
AcDbSavedByObjectVersion
1070
     0
  0
VISUALSTYLE
  5
AA6D
102
{ACAD_XDICTIONARY
360
AACE
102
}
102
{ACAD_REACTORS
330
AA64
102
}
330
AA64
100
AcDbVisualStyle
  2
Conceptual
 70
     9
 71
     3
 72
     2
 73
     0
 90
        0
 40
-0.6
 41
-30.0
 62
     5
 63
     7
 74
     2
 91
        2
 64
     7
 65
   257
 75
     1
175
     1
 42
179.0
 92
        8
 66
     7
 43
1.0
 76
     1
 77
     6
 78
     2
 67
     7
 79
     3
170
     0
171
     0
290
     0
174
     0
 93
        1
 44
0.0
173
     0
291
     0
 45
0.0
1001
ACAD
1000
AcDbSavedByObjectVersion
1070
     0
  0
VISUALSTYLE
  5
AA6F
102
{ACAD_XDICTIONARY
360
AAD2
102
}
102
{ACAD_REACTORS
330
AA64
102
}
330
AA64
100
AcDbVisualStyle
  2
Dim
 70
    11
 71
     2
 72
     2
 73
     0
 90
        0
 40
-0.6
 41
-30.0
 62
     5
 63
     7
 74
     1
 91
        4
 64
     7
 65
   257
 75
     1
175
     1
 42
1.0
 92
        8
 66
     7
 43
1.0
 76
     1
 77
     6
 78
     2
 67
     7
 79
     5
170
     0
171
     0
290
     0
174
     0
 93
        1
 44
-50.0
173
     0
291
     1
 45
0.0
1001
ACAD
1000
AcDbSavedByObjectVersion
1070
     0
  0
VISUALSTYLE
  5
AA7C
102
{ACAD_XDICTIONARY
360
AAEC
102
}
102
{ACAD_REACTORS
330
AA64
102
}
330
AA64
100
AcDbVisualStyle
  2
EdgeColorOff
 70
    22
 71
     2
 72
     2
 73
     0
 90
        0
 40
-0.6
 41
-30.0
 62
     5
 63
     7
 74
     1
 91
        4
 64
     7
 65
   257
 75
     1
175
     1
 42
1.0
 92
        8
 66
     7
 43
1.0
 76
     1
 77
     6
 78
     2
 67
     7
 79
     5
170
     0
171
     0
290
     0
174
     0
 93
        1
 44
0.0
173
     0
291
     1
 45
0.0
1001
ACAD
1000
AcDbSavedByObjectVersion
1070
     0
  0
VISUALSTYLE
  5
AA73
102
{ACAD_XDICTIONARY
360
AADA
102
}
102
{ACAD_REACTORS
330
AA64
102
}
330
AA64
100
AcDbVisualStyle
  2
Facepattern
 70
    15
 71
     2
 72
     2
 73
     0
 90
        0
 40
-0.6
 41
-30.0
 62
     5
 63
     7
 74
     1
 91
        4
 64
     7
 65
   257
 75
     1
175
     1
 42
1.0
 92
        8
 66
     7
 43
1.0
 76
     1
 77
     6
 78
     2
 67
     7
 79
     5
170
     0
171
     0
290
     0
174
     0
 93
        1
 44
0.0
173
     0
291
     1
 45
0.0
1001
ACAD
1000
AcDbSavedByObjectVersion
1070
     0
  0
VISUALSTYLE
  5
AA65
102
{ACAD_XDICTIONARY
360
AABE
102
}
102
{ACAD_REACTORS
330
AA64
102
}
330
AA64
100
AcDbVisualStyle
  2
Flat
 70
     0
 71
     2
 72
     1
 73
     1
 90
        2
 40
-0.6
 41
30.0
 62
     5
 63
     7
 74
     0
 91
        0
 64
     7
 65
   257
 75
     1
175
     1
 42
1.0
 92
        8
 66
     7
 43
1.0
 76
     1
 77
     6
 78
     2
 67
     7
 79
     5
170
     0
171
     0
290
     0
174
     0
 93
       13
 44
0.0
173
     0
291
     1
 45
0.0
1001
ACAD
1000
AcDbSavedByObjectVersion
1070
     0
  0
VISUALSTYLE
  5
AA66
102
{ACAD_XDICTIONARY
360
AAC0
102
}
102
{ACAD_REACTORS
330
AA64
102
}
330
AA64
100
AcDbVisualStyle
  2
FlatWithEdges
 70
     1
 71
     2
 72
     1
 73
     1
 90
        2
 40
-0.6
 41
30.0
 62
     5
 63
     7
 74
     1
 91
        0
 64
     7
 65
   257
 75
     1
175
     1
 42
1.0
 92
        0
 66
   257
 43
1.0
 76
     1
 77
     6
 78
     2
 67
     7
 79
     5
170
     0
171
     0
290
     0
174
     0
 93
       13
 44
0.0
173
     0
291
     1
 45
0.0
1001
ACAD
1000
AcDbSavedByObjectVersion
1070
     0
  0
VISUALSTYLE
  5
AA67
102
{ACAD_XDICTIONARY
360
AAC2
102
}
102
{ACAD_REACTORS
330
AA64
102
}
330
AA64
100
AcDbVisualStyle
  2
Gouraud
 70
     2
 71
     2
 72
     2
 73
     1
 90
        2
 40
-0.6
 41
30.0
 62
     5
 63
     7
 74
     0
 91
        0
 64
     7
 65
   257
 75
     1
175
     1
 42
1.0
 92
        0
 66
     7
 43
1.0
 76
     1
 77
     6
 78
     2
 67
     7
 79
     5
170
     0
171
     0
290
     0
174
     0
 93
       13
 44
0.0
173
     0
291
     1
 45
0.0
1001
ACAD
1000
AcDbSavedByObjectVersion
1070
     0
  0
VISUALSTYLE
  5
AA68
102
{ACAD_XDICTIONARY
360
AAC4
102
}
102
{ACAD_REACTORS
330
AA64
102
}
330
AA64
100
AcDbVisualStyle
  2
GouraudWithEdges
 70
     3
 71
     2
 72
     2
 73
     1
 90
        2
 40
-0.6
 41
30.0
 62
     5
 63
     7
 74
     1
 91
        0
 64
     7
 65
   257
 75
     1
175
     1
 42
1.0
 92
        0
 66
   257
 43
1.0
 76
     1
 77
     6
 78
     2
 67
     7
 79
     5
170
     0
171
     0
290
     0
174
     0
 93
       13
 44
0.0
173
     0
291
     1
 45
0.0
1001
ACAD
1000
AcDbSavedByObjectVersion
1070
     0
  0
VISUALSTYLE
  5
AA6C
102
{ACAD_XDICTIONARY
360
AACC
102
}
102
{ACAD_REACTORS
330
AA64
102
}
330
AA64
100
AcDbVisualStyle
  2
Hidden
 70
     6
 71
     1
 72
     2
 73
     2
 90
        0
 40
-0.6
 41
-30.0
 62
     5
 63
     7
 74
     2
 91
        2
 64
     7
 65
   257
 75
     2
175
     1
 42
40.0
 92
        0
 66
   257
 43
1.0
 76
     1
 77
     6
 78
     2
 67
     7
 79
     3
170
     0
171
     0
290
     0
174
     0
 93
        1
 44
0.0
173
     0
291
     0
 45
0.0
1001
ACAD
1000
AcDbSavedByObjectVersion
1070
     0
  0
VISUALSTYLE
  5
AA7A
102
{ACAD_XDICTIONARY
360
AAE8
102
}
102
{ACAD_REACTORS
330
AA64
102
}
330
AA64
100
AcDbVisualStyle
  2
JitterOff
 70
    20
 71
     2
 72
     2
 73
     0
 90
        0
 40
-0.6
 41
-30.0
 62
     5
 63
     7
 74
     1
 91
        4
 64
     7
 65
   257
 75
     1
175
     1
 42
1.0
 92
       10
 66
     7
 43
1.0
 76
     1
 77
     6
 78
     2
 67
     7
 79
     5
170
     0
171
     0
290
     0
174
     0
 93
        1
 44
0.0
173
     0
291
     1
 45
0.0
1001
ACAD
1000
AcDbSavedByObjectVersion
1070
     0
  0
VISUALSTYLE
  5
AA72
102
{ACAD_XDICTIONARY
360
AAD8
102
}
102
{ACAD_REACTORS
330
AA64
102
}
330
AA64
100
AcDbVisualStyle
  2
Linepattern
 70
    14
 71
     2
 72
     2
 73
     0
 90
        0
 40
-0.6
 41
-30.0
 62
     5
 63
     7
 74
     1
 91
        4
 64
     7
 65
   257
 75
     7
175
     7
 42
1.0
 92
        8
 66
     7
 43
1.0
 76
     1
 77
     6
 78
     2
 67
     7
 79
     5
170
     0
171
     0
290
     0
174
     0
 93
        1
 44
0.0
173
     0
291
     1
 45
0.0
1001
ACAD
1000
AcDbSavedByObjectVersion
1070
     0
  0
VISUALSTYLE
  5
AA7B
102
{ACAD_XDICTIONARY
360
AAEA
102
}
102
{ACAD_REACTORS
330
AA64
102
}
330
AA64
100
AcDbVisualStyle
  2
OverhangOff
 70
    21
 71
     2
 72
     2
 73
     0
 90
        0
 40
-0.6
 41
-30.0
 62
     5
 63
     7
 74
     1
 91
        4
 64
     7
 65
   257
 75
     1
175
     1
 42
1.0
 92
        9
 66
     7
 43
1.0
 76
     1
 77
     6
 78
     2
 67
     7
 79
     5
170
     0
171
     0
290
     0
174
     0
 93
        1
 44
0.0
173
     0
291
     1
 45
0.0
1001
ACAD
1000
AcDbSavedByObjectVersion
1070
     0
  0
VISUALSTYLE
  5
AA6E
102
{ACAD_XDICTIONARY
360
AAD0
102
}
102
{ACAD_REACTORS
330
AA64
102
}
330
AA64
100
AcDbVisualStyle
  2
Realistic
 70
     8
 71
     2
 72
     3
 73
     0
 90
        2
 40
-0.6
 41
30.0
 62
     5
 63
     7
 74
     0
 91
        0
 64
     7
 65
   257
 75
     1
175
     1
 42
1.0
 92
        8
 66
   257
 43
1.0
 76
     1
 77
     6
 78
     2
 67
     7
 79
     3
170
     0
171
     0
290
     0
174
     0
 93
       13
 44
0.0
173
     0
291
     0
 45
0.0
1001
ACAD
1000
AcDbSavedByObjectVersion
1070
     0
  0
VISUALSTYLE
  5
AA79
102
{ACAD_XDICTIONARY
360
AAE6
102
}
102
{ACAD_REACTORS
330
AA64
102
}
330
AA64
100
AcDbVisualStyle
  2
Shaded
 70
    27
 71
     2
 72
     2
 73
     1
 90
        2
 40
-0.6
 41
30.0
 62
     5
 63
     7
 74
     0
 91
        4
 64
     7
 65
   257
 75
     1
175
     1
 42
1.0
 92
        8
 66
   257
 43
1.0
 76
     1
 77
     6
 78
     2
 67
     8
 79
     3
170
     0
171
     0
290
     0
174
     0
 93
        5
 44
0.0
173
     0
291
     0
 45
0.0
1001
ACAD
1000
AcDbSavedByObjectVersion
1070
     0
  0
VISUALSTYLE
  5
AA78
102
{ACAD_XDICTIONARY
360
AAE4
102
}
102
{ACAD_REACTORS
330
AA64
102
}
330
AA64
100
AcDbVisualStyle
  2
Shaded with edges
 70
    26
 71
     2
 72
     2
 73
     1
 90
        2
 40
-0.6
 41
30.0
 62
     5
 63
     7
 74
     1
 91
       10
 64
     7
 65
   257
 75
     2
175
     1
 42
1.0
 92
        8
 66
   257
 43
1.0
 76
     1
 77
     6
 78
     2
 67
     7
 79
     3
170
     0
171
     0
290
     0
174
     0
 93
        5
 44
0.0
173
     0
291
     0
 45
0.0
1001
ACAD
1000
AcDbSavedByObjectVersion
1070
     0
  0
VISUALSTYLE
  5
AA75
102
{ACAD_XDICTIONARY
360
AADE
102
}
102
{ACAD_REACTORS
330
AA64
102
}
330
AA64
100
AcDbVisualStyle
  2
Shades of Gray
 70
    23
 71
     2
 72
     2
 73
     3
 90
        0
 40
-0.6
 41
-30.0
 62
     5
 63
     7
 74
     2
 91
        2
 64
     7
 65
     7
 75
     1
175
     1
 42
40.0
 92
        8
 66
     7
 43
1.0
 76
     1
 77
     6
 78
     2
 67
     7
 79
     3
170
     0
171
     0
290
     0
174
     0
 93
        1
 44
0.0
173
     0
291
     0
 45
0.0
1001
ACAD
1000
AcDbSavedByObjectVersion
1070
     0
  0
VISUALSTYLE
  5
AA76
102
{ACAD_XDICTIONARY
360
AAE0
102
}
102
{ACAD_REACTORS
330
AA64
102
}
330
AA64
100
AcDbVisualStyle
  2
Sketchy
 70
    24
 71
     1
 72
     2
 73
     2
 90
        0
 40
-0.6
 41
-30.0
 62
     5
 63
     7
 74
     2
 91
        2
 64
     7
 65
     7
 75
     1
175
     1
 42
40.0
 92
       11
 66
     7
 43
1.0
 76
     1
 77
     6
 78
     2
 67
     7
 79
     6
170
     0
171
     0
290
     0
174
     0
 93
        1
 44
0.0
173
     0
291
     0
 45
0.0
1001
ACAD
1000
AcDbSavedByObjectVersion
1070
     0
  0
VISUALSTYLE
  5
AA71
102
{ACAD_XDICTIONARY
360
AAD6
102
}
102
{ACAD_REACTORS
330
AA64
102
}
330
AA64
100
AcDbVisualStyle
  2
Thicken
 70
    13
 71
     2
 72
     2
 73
     0
 90
        0
 40
-0.6
 41
-30.0
 62
     5
 63
     7
 74
     1
 91
        4
 64
     7
 65
   257
 75
     1
175
     1
 42
1.0
 92
       12
 66
     7
 43
1.0
 76
     1
 77
     6
 78
     2
 67
     7
 79
     5
170
     0
171
     0
290
     0
174
     0
 93
        1
 44
0.0
173
     0
291
     1
 45
0.0
1001
ACAD
1000
AcDbSavedByObjectVersion
1070
     0
  0
VISUALSTYLE
  5
AA6B
102
{ACAD_XDICTIONARY
360
AACA
102
}
102
{ACAD_REACTORS
330
AA64
102
}
330
AA64
100
AcDbVisualStyle
  2
Wireframe
 70
     5
 71
     0
 72
     2
 73
     0
 90
        0
 40
-0.6
 41
-30.0
 62
     5
 63
     7
 74
     1
 91
        4
 64
     7
 65
   257
 75
     1
175
     1
 42
1.0
 92
        0
 66
   257
 43
1.0
 76
     1
 77
     6
 78
     2
 67
     7
 79
     3
170
     0
171
     0
290
     0
174
     0
 93
        1
 44
0.0
173
     0
291
     0
 45
0.0
1001
ACAD
1000
AcDbSavedByObjectVersion
1070
     0
  0
VISUALSTYLE
  5
AA77
102
{ACAD_XDICTIONARY
360
AAE2
102
}
102
{ACAD_REACTORS
330
AA64
102
}
330
AA64
100
AcDbVisualStyle
  2
X-Ray
 70
    25
 71
     2
 72
     2
 73
     1
 90
        1
 40
0.5
 41
-30.0
 62
     5
 63
     7
 74
     1
 91
        0
 64
     7
 65
   257
 75
     1
175
     1
 42
1.0
 92
        8
 66
     7
 43
1.0
 76
     1
 77
     6
 78
     2
 67
     7
 79
     3
170
     0
171
     0
290
     0
174
     0
 93
       13
 44
0.0
173
     0
291
     0
 45
0.0
1001
ACAD
1000
AcDbSavedByObjectVersion
1070
     0
  0
DICTIONARYVAR
  5
AAB1
102
{ACAD_REACTORS
330
AAAC
102
}
330
AAAC
100
DictionaryVariables
280
     0
  1
1:1
  0
DICTIONARYVAR
  5
AAAE
102
{ACAD_REACTORS
330
AAAC
102
}
330
AAAC
100
DictionaryVariables
280
     0
  1
STANDARD
  0
DICTIONARYVAR
  5
AAAD
102
{ACAD_REACTORS
330
AAAC
102
}
330
AAAC
100
DictionaryVariables
280
     0
  1
STANDARD
  0
DICTIONARYVAR
  5
AAAF
102
{ACAD_REACTORS
330
AAAC
102
}
330
AAAC
100
DictionaryVariables
280
     0
  1
Imperial24
  0
DICTIONARYVAR
  5
AAB0
102
{ACAD_REACTORS
330
AAAC
102
}
330
AAAC
100
DictionaryVariables
280
     0
  1
Imperial24
  0
DICTIONARYVAR
  5
AAB4
102
{ACAD_REACTORS
330
AAAC
102
}
330
AAAC
100
DictionaryVariables
280
     0
  1
1
  0
DICTIONARYVAR
  5
AAB3
102
{ACAD_REACTORS
330
AAAC
102
}
330
AAAC
100
DictionaryVariables
280
     0
  1
0
  0
DICTIONARYVAR
  5
AAB2
102
{ACAD_REACTORS
330
AAAC
102
}
330
AAAC
100
DictionaryVariables
280
     0
  1
127
  0
DICTIONARYVAR
  5
AAB5
102
{ACAD_REACTORS
330
AAAC
102
}
330
AAAC
100
DictionaryVariables
280
     0
  1
2
  0
DICTIONARY
  5
AAF2
330
AA97
100
AcDbDictionary
280
     1
281
     1
  3
ACAD_XREC_ROUNDTRIP
360
AAF3
  0
DICTIONARY
  5
AAF4
330
AA98
100
AcDbDictionary
280
     1
281
     1
  3
ACAD_XREC_ROUNDTRIP
360
AAF5
  0
DICTIONARY
  5
AAF6
330
AA99
100
AcDbDictionary
280
     1
281
     1
  3
ACAD_XREC_ROUNDTRIP
360
AAF7
  0
DICTIONARY
  5
AA55
330
AA54
100
AcDbDictionary
280
     1
281
     1
  3
ACAD_XREC_ROUNDTRIP
360
AABC
  3
BUMPTILE
360
AA57
  3
DIFFUSETILE
360
AA56
  3
OPACITYTILE
360
AA5A
  3
REFLECTIONTILE
360
AA59
  3
REFRACTIONTILE
360
AA5B
  3
SPECULARTILE
360
AA58
  0
DICTIONARY
  5
AA4D
330
AA4C
100
AcDbDictionary
280
     1
281
     1
  3
ACAD_XREC_ROUNDTRIP
360
AABB
  3
BUMPTILE
360
AA4F
  3
DIFFUSETILE
360
AA4E
  3
OPACITYTILE
360
AA52
  3
REFLECTIONTILE
360
AA51
  3
REFRACTIONTILE
360
AA53
  3
SPECULARTILE
360
AA50
  0
DICTIONARY
  5
AA5D
330
AA5C
100
AcDbDictionary
280
     1
281
     1
  3
ACAD_XREC_ROUNDTRIP
360
AABD
  3
BUMPTILE
360
AA5F
  3
DIFFUSETILE
360
AA5E
  3
OPACITYTILE
360
AA62
  3
REFLECTIONTILE
360
AA61
  3
REFRACTIONTILE
360
AA63
  3
SPECULARTILE
360
AA60
  0
DICTIONARY
  5
AAF0
330
AA95
100
AcDbDictionary
280
     1
281
     1
  3
ACAD_XREC_ROUNDTRIP
360
AAF1
  0
DICTIONARY
  5
AAB7
330
AA7F
100
AcDbDictionary
280
     1
281
     1
  3
ACAD_ROUNDTRIP_2008_TABLESTYLE_CELLSTYLEMAP
360
AAB8
  3
ACAD_XREC_ROUNDTRIP
360
AAEE
  0
DICTIONARY
  5
AAC8
330
AA6A
100
AcDbDictionary
280
     1
281
     1
  3
ACAD_XREC_ROUNDTRIP
360
AAC9
  0
DICTIONARY
  5
AAC6
330
AA69
100
AcDbDictionary
280
     1
281
     1
  3
ACAD_XREC_ROUNDTRIP
360
AAC7
  0
DICTIONARY
  5
AAD4
330
AA70
100
AcDbDictionary
280
     1
281
     1
  3
ACAD_XREC_ROUNDTRIP
360
AAD5
  0
DICTIONARY
  5
AADC
330
AA74
100
AcDbDictionary
280
     1
281
     1
  3
ACAD_XREC_ROUNDTRIP
360
AADD
  0
DICTIONARY
  5
AACE
330
AA6D
100
AcDbDictionary
280
     1
281
     1
  3
ACAD_XREC_ROUNDTRIP
360
AACF
  0
DICTIONARY
  5
AAD2
330
AA6F
100
AcDbDictionary
280
     1
281
     1
  3
ACAD_XREC_ROUNDTRIP
360
AAD3
  0
DICTIONARY
  5
AAEC
330
AA7C
100
AcDbDictionary
280
     1
281
     1
  3
ACAD_XREC_ROUNDTRIP
360
AAED
  0
DICTIONARY
  5
AADA
330
AA73
100
AcDbDictionary
280
     1
281
     1
  3
ACAD_XREC_ROUNDTRIP
360
AADB
  0
DICTIONARY
  5
AABE
330
AA65
100
AcDbDictionary
280
     1
281
     1
  3
ACAD_XREC_ROUNDTRIP
360
AABF
  0
DICTIONARY
  5
AAC0
330
AA66
100
AcDbDictionary
280
     1
281
     1
  3
ACAD_XREC_ROUNDTRIP
360
AAC1
  0
DICTIONARY
  5
AAC2
330
AA67
100
AcDbDictionary
280
     1
281
     1
  3
ACAD_XREC_ROUNDTRIP
360
AAC3
  0
DICTIONARY
  5
AAC4
330
AA68
100
AcDbDictionary
280
     1
281
     1
  3
ACAD_XREC_ROUNDTRIP
360
AAC5
  0
DICTIONARY
  5
AACC
330
AA6C
100
AcDbDictionary
280
     1
281
     1
  3
ACAD_XREC_ROUNDTRIP
360
AACD
  0
DICTIONARY
  5
AAE8
330
AA7A
100
AcDbDictionary
280
     1
281
     1
  3
ACAD_XREC_ROUNDTRIP
360
AAE9
  0
DICTIONARY
  5
AAD8
330
AA72
100
AcDbDictionary
280
     1
281
     1
  3
ACAD_XREC_ROUNDTRIP
360
AAD9
  0
DICTIONARY
  5
AAEA
330
AA7B
100
AcDbDictionary
280
     1
281
     1
  3
ACAD_XREC_ROUNDTRIP
360
AAEB
  0
DICTIONARY
  5
AAD0
330
AA6E
100
AcDbDictionary
280
     1
281
     1
  3
ACAD_XREC_ROUNDTRIP
360
AAD1
  0
DICTIONARY
  5
AAE6
330
AA79
100
AcDbDictionary
280
     1
281
     1
  3
ACAD_XREC_ROUNDTRIP
360
AAE7
  0
DICTIONARY
  5
AAE4
330
AA78
100
AcDbDictionary
280
     1
281
     1
  3
ACAD_XREC_ROUNDTRIP
360
AAE5
  0
DICTIONARY
  5
AADE
330
AA75
100
AcDbDictionary
280
     1
281
     1
  3
ACAD_XREC_ROUNDTRIP
360
AADF
  0
DICTIONARY
  5
AAE0
330
AA76
100
AcDbDictionary
280
     1
281
     1
  3
ACAD_XREC_ROUNDTRIP
360
AAE1
  0
DICTIONARY
  5
AAD6
330
AA71
100
AcDbDictionary
280
     1
281
     1
  3
ACAD_XREC_ROUNDTRIP
360
AAD7
  0
DICTIONARY
  5
AACA
330
AA6B
100
AcDbDictionary
280
     1
281
     1
  3
ACAD_XREC_ROUNDTRIP
360
AACB
  0
DICTIONARY
  5
AAE2
330
AA77
100
AcDbDictionary
280
     1
281
     1
  3
ACAD_XREC_ROUNDTRIP
360
AAE3
  0
XRECORD
  5
AAF3
102
{ACAD_REACTORS
330
AAF2
102
}
330
AAF2
100
AcDbXrecord
280
     1
102
DISPLAYNAME
  1
Imperial24
102
FLAGS
 90
        0
  0
XRECORD
  5
AAF5
102
{ACAD_REACTORS
330
AAF4
102
}
330
AAF4
100
AcDbXrecord
280
     1
102
SHADEPLOT
 70
     0
102
SHADEPLOTRESLEVEL
 70
     2
102
SHADEPLOTCUSTOMDPI
 70
   300
  0
XRECORD
  5
AAF7
102
{ACAD_REACTORS
330
AAF6
102
}
330
AAF6
100
AcDbXrecord
280
     1
102
SHADEPLOT
 70
     0
102
SHADEPLOTRESLEVEL
 70
     2
102
SHADEPLOTCUSTOMDPI
 70
   300
  0
XRECORD
  5
AABC
102
{ACAD_REACTORS
330
AA55
102
}
330
AA55
100
AcDbXrecord
280
     1
102
MATERIAL
148
0.0
149
0.0
149
0.0
 93
        0
 94
      127
282
     0
 72
     0
 77
     0
171
     0
175
     0
179
     0
273
     0
  0
XRECORD
  5
AA57
102
{ACAD_REACTORS
330
AA55
102
}
330
AA55
100
AcDbXrecord
280
     1
270
     1
271
     1
  0
XRECORD
  5
AA56
102
{ACAD_REACTORS
330
AA55
102
}
330
AA55
100
AcDbXrecord
280
     1
270
     1
271
     1
  0
XRECORD
  5
AA5A
102
{ACAD_REACTORS
330
AA55
102
}
330
AA55
100
AcDbXrecord
280
     1
270
     1
271
     1
  0
XRECORD
  5
AA59
102
{ACAD_REACTORS
330
AA55
102
}
330
AA55
100
AcDbXrecord
280
     1
270
     1
271
     1
  0
XRECORD
  5
AA5B
102
{ACAD_REACTORS
330
AA55
102
}
330
AA55
100
AcDbXrecord
280
     1
270
     1
271
     1
  0
XRECORD
  5
AA58
102
{ACAD_REACTORS
330
AA55
102
}
330
AA55
100
AcDbXrecord
280
     1
270
     1
271
     1
  0
XRECORD
  5
AABB
102
{ACAD_REACTORS
330
AA4D
102
}
330
AA4D
100
AcDbXrecord
280
     1
102
MATERIAL
148
0.0
149
0.0
149
0.0
 93
        0
 94
      127
282
     0
 72
     0
 77
     0
171
     0
175
     0
179
     0
273
     0
  0
XRECORD
  5
AA4F
102
{ACAD_REACTORS
330
AA4D
102
}
330
AA4D
100
AcDbXrecord
280
     1
270
     1
271
     1
  0
XRECORD
  5
AA4E
102
{ACAD_REACTORS
330
AA4D
102
}
330
AA4D
100
AcDbXrecord
280
     1
270
     1
271
     1
  0
XRECORD
  5
AA52
102
{ACAD_REACTORS
330
AA4D
102
}
330
AA4D
100
AcDbXrecord
280
     1
270
     1
271
     1
  0
XRECORD
  5
AA51
102
{ACAD_REACTORS
330
AA4D
102
}
330
AA4D
100
AcDbXrecord
280
     1
270
     1
271
     1
  0
XRECORD
  5
AA53
102
{ACAD_REACTORS
330
AA4D
102
}
330
AA4D
100
AcDbXrecord
280
     1
270
     1
271
     1
  0
XRECORD
  5
AA50
102
{ACAD_REACTORS
330
AA4D
102
}
330
AA4D
100
AcDbXrecord
280
     1
270
     1
271
     1
  0
XRECORD
  5
AABD
102
{ACAD_REACTORS
330
AA5D
102
}
330
AA5D
100
AcDbXrecord
280
     1
102
MATERIAL
148
0.0
149
0.0
149
0.0
 93
        0
 94
      127
282
     0
 72
     0
 77
     0
171
     0
175
     0
179
     0
273
     0
  0
XRECORD
  5
AA5F
102
{ACAD_REACTORS
330
AA5D
102
}
330
AA5D
100
AcDbXrecord
280
     1
270
     1
271
     1
  0
XRECORD
  5
AA5E
102
{ACAD_REACTORS
330
AA5D
102
}
330
AA5D
100
AcDbXrecord
280
     1
270
     1
271
     1
  0
XRECORD
  5
AA62
102
{ACAD_REACTORS
330
AA5D
102
}
330
AA5D
100
AcDbXrecord
280
     1
270
     1
271
     1
  0
XRECORD
  5
AA61
102
{ACAD_REACTORS
330
AA5D
102
}
330
AA5D
100
AcDbXrecord
280
     1
270
     1
271
     1
  0
XRECORD
  5
AA63
102
{ACAD_REACTORS
330
AA5D
102
}
330
AA5D
100
AcDbXrecord
280
     1
270
     1
271
     1
  0
XRECORD
  5
AA60
102
{ACAD_REACTORS
330
AA5D
102
}
330
AA5D
100
AcDbXrecord
280
     1
270
     1
271
     1
  0
XRECORD
  5
AAF1
102
{ACAD_REACTORS
330
AAF0
102
}
330
AAF0
100
AcDbXrecord
280
     1
102
DISPLAYNAME
  1
Imperial24
102
FLAGS
 90
        0
  0
CELLSTYLEMAP
  5
AAB8
102
{ACAD_REACTORS
330
AAB7
102
}
330
AAB7
100
AcDbCellStyleMap
 90
        3
300
CELLSTYLE
  1
TABLEFORMAT_BEGIN
 90
        5
170
     1
 91
        0
 92
    32768
 62
   257
 93
        1
300
CONTENTFORMAT
  1
CONTENTFORMAT_BEGIN
 90
        0
 91
        0
 92
      512
 93
        0
300

 40
0.0
140
1.0
 94
        5
 62
     0
340
A74B
144
0.25
309
CONTENTFORMAT_END
171
     0
 94
        0
309
TABLEFORMAT_END
  1
CELLSTYLE_BEGIN
 90
        1
 91
        1
300
_TITLE
309
CELLSTYLE_END
300
CELLSTYLE
  1
TABLEFORMAT_BEGIN
 90
        5
170
     1
 91
        0
 92
        0
 62
   257
 93
        1
300
CONTENTFORMAT
  1
CONTENTFORMAT_BEGIN
 90
        0
 91
        0
 92
      512
 93
        0
300

 40
0.0
140
1.0
 94
        5
 62
     0
340
A74B
144
0.18
309
CONTENTFORMAT_END
171
     0
 94
        0
309
TABLEFORMAT_END
  1
CELLSTYLE_BEGIN
 90
        2
 91
        1
300
_HEADER
309
CELLSTYLE_END
300
CELLSTYLE
  1
TABLEFORMAT_BEGIN
 90
        5
170
     1
 91
        0
 92
        0
 62
   257
 93
        1
300
CONTENTFORMAT
  1
CONTENTFORMAT_BEGIN
 90
        0
 91
        0
 92
      512
 93
        0
300

 40
0.0
140
1.0
 94
        2
 62
     0
340
A74B
144
0.18
309
CONTENTFORMAT_END
171
     0
 94
        0
309
TABLEFORMAT_END
  1
CELLSTYLE_BEGIN
 90
        3
 91
        2
300
_DATA
309
CELLSTYLE_END
  0
XRECORD
  5
AAEE
102
{ACAD_REACTORS
330
AAB7
102
}
330
AAB7
100
AcDbXrecord
280
     1
102
ACAD_ROUNDTRIP_PRE2007_TABLESTYLE
 90
      512
 91
        0
  1

 92
      512
 93
        0
  2

 94
      512
 95
        0
  3

  0
XRECORD
  5
AAC9
102
{ACAD_REACTORS
330
AAC8
102
}
330
AAC8
100
AcDbXrecord
280
     1
102
RTVSPost2010Prop28
280
     1
102
RTVSPost2010PropOp28
 70
     1
102
RTVSPost2010Prop29
280
     1
102
RTVSPost2010PropOp29
 70
     1
102
RTVSPost2010Prop30
280
     0
102
RTVSPost2010PropOp30
 70
     1
102
RTVSPost2010Prop31
280
     0
102
RTVSPost2010PropOp31
 70
     1
102
RTVSPost2010Prop32
280
     0
102
RTVSPost2010PropOp32
 70
     1
102
RTVSPost2010Prop33
280
     0
102
RTVSPost2010PropOp33
 70
     1
102
RTVSPost2010Prop34
280
     0
102
RTVSPost2010PropOp34
 70
     1
102
RTVSPost2010Prop35
280
     0
102
RTVSPost2010PropOp35
 70
     1
102
RTVSPost2010Prop36
280
     0
102
RTVSPost2010PropOp36
 70
     1
102
RTVSPost2010Prop37
 90
       50
102
RTVSPost2010PropOp37
 70
     1
102
RTVSPost2010Prop38
140
0.0
102
RTVSPost2010PropOp38
 70
     1
102
RTVSPost2010Prop39
140
1.0
102
RTVSPost2010PropOp39
 70
     1
102
RTVSPost2010Prop40
 90
        0
102
RTVSPost2010PropOp40
 70
     1
102
RTVSPost2010Prop41ColorIndex
 90
       18
102
RTVSPost2010Prop41ColorRGB
 90
        0
102
RTVSPost2010PropOp41
 70
     1
102
RTVSPost2010Prop42
 90
       50
102
RTVSPost2010PropOp42
 70
     1
102
RTVSPost2010Prop43
 90
        3
102
RTVSPost2010PropOp43
 70
     1
102
RTVSPost2010Prop44ColorIndex
 90
        5
102
RTVSPost2010Prop44ColorRGB
 90
      255
102
RTVSPost2010PropOp44
 70
     1
102
RTVSPost2010Prop45
280
     0
102
RTVSPost2010PropOp45
 70
     1
102
RTVSPost2010Prop46
 90
       50
102
RTVSPost2010PropOp46
 70
     1
102
RTVSPost2010Prop47
 90
       50
102
RTVSPost2010PropOp47
 70
     1
102
RTVSPost2010Prop48
 90
       50
102
RTVSPost2010PropOp48
 70
     1
102
RTVSPost2010Prop49
280
     0
102
RTVSPost2010PropOp49
 70
     1
102
RTVSPost2010Prop50
 90
       50
102
RTVSPost2010PropOp50
 70
     1
102
RTVSPost2010Prop51ColorIndex
 90
      256
102
RTVSPost2010Prop51ColorRGB
 90
-16777216
102
RTVSPost2010PropOp51
 70
     0
102
RTVSPost2010Prop52
140
1.0
102
RTVSPost2010PropOp52
 70
     0
102
RTVSPost2010Prop53
 90
        2
102
RTVSPost2010PropOp53
 70
     1
102
RTVSPost2010Prop54
  1
strokes_ogs.tif
102
RTVSPost2010PropOp54
 70
     1
102
RTVSPost2010Prop55
280
     0
102
RTVSPost2010PropOp55
 70
     1
102
RTVSPost2010Prop56
140
1.0
102
RTVSPost2010PropOp56
 70
     1
102
RTVSPost2010Prop57
140
1.0
102
RTVSPost2010PropOp57
 70
     1
102
RTVSPropertyOp0
 70
     1
102
RTVSPropertyOp1
 70
     1
102
RTVSPropertyOp2
 70
     1
102
RTVSPropertyOp3
 70
     1
102
RTVSPropertyOp4
 70
     1
102
RTVSPropertyOp5
 70
     1
102
RTVSPropertyOp6
 70
     1
102
RTVSPropertyOp7
 70
     1
102
RTVSPropertyOp8
 70
     1
102
RTVSPropertyOp9
 70
     1
102
RTVSPropertyOp10
 70
     1
102
RTVSPropertyOp11
 70
     1
102
RTVSPropertyOp12
 70
     1
102
RTVSPropertyOp13
 70
     1
102
RTVSPropertyOp14
 70
     1
102
RTVSPropertyOp15
 70
     1
102
RTVSPropertyOp16
 70
     1
102
RTVSPropertyOp17
 70
     1
102
RTVSPropertyOp18
 70
     1
102
RTVSPropertyOp19
 70
     1
102
RTVSPropertyOp20
 70
     1
102
RTVSPropertyOp21
 70
     1
102
RTVSPropertyOp22
 70
     1
102
RTVSPropertyOp23
 70
     1
102
RTVSPropertyOp24
 70
     1
102
RTVSPropertyOp25
 70
     1
102
RTVSPropertyOp26
 70
     1
102
RTVSPropertyOp27
 70
     1
102
RTVSPropertyOp28
 70
     1
102
RTVSPropertyOp29
 70
     1
102
RTVSPropertyOp30
 70
     1
102
RTVSPropertyOp31
 70
     1
102
RTVSPropertyOp32
 70
     1
102
RTVSPropertyOp33
 70
     1
102
RTVSPropertyOp34
 70
     1
102
RTVSPropertyOp35
 70
     1
102
RTVSPropertyOp36
 70
     1
102
RTVSPropertyOp37
 70
     1
102
RTVSPropertyOp38
 70
     1
102
RTVSPropertyOp39
 70
     1
102
RTVSPropertyOp40
 70
     1
102
RTVSPropertyOp41
 70
     1
102
RTVSPropertyOp42
 70
     1
102
RTVSPropertyOp43
 70
     1
102
RTVSPropertyOp44
 70
     1
102
RTVSPropertyOp45
 70
     1
102
RTVSPropertyOp46
 70
     1
102
RTVSPropertyOp47
 70
     1
102
RTVSPropertyOp48
 70
     1
102
RTVSPropertyOp49
 70
     1
102
RTVSPropertyOp50
 70
     1
102
RTVSPropertyOp51
 70
     0
102
RTVSPropertyOp52
 70
     0
102
RTVSPropertyOp53
 70
     1
102
RTVSPropertyOp54
 70
     1
102
RTVSPropertyOp55
 70
     1
102
RTVSPropertyOp56
 70
     1
102
RTVSPropertyOp57
 70
     1
102
RTVSPropertyOp58
 70
     1
102
RTVSPropertyOp59
 70
     1
102
RTVSPropertyOp60
 70
     1
102
RTVSPropertyOp61
 70
     1
102
RTVSPropertyOp62
 70
     1
  0
XRECORD
  5
AAC7
102
{ACAD_REACTORS
330
AAC6
102
}
330
AAC6
100
AcDbXrecord
280
     1
102
RTVSPost2010Prop28
280
     0
102
RTVSPost2010PropOp28
 70
     1
102
RTVSPost2010Prop29
280
     1
102
RTVSPost2010PropOp29
 70
     1
102
RTVSPost2010Prop30
280
     1
102
RTVSPost2010PropOp30
 70
     1
102
RTVSPost2010Prop31
280
     0
102
RTVSPost2010PropOp31
 70
     1
102
RTVSPost2010Prop32
280
     0
102
RTVSPost2010PropOp32
 70
     1
102
RTVSPost2010Prop33
280
     0
102
RTVSPost2010PropOp33
 70
     1
102
RTVSPost2010Prop34
280
     0
102
RTVSPost2010PropOp34
 70
     1
102
RTVSPost2010Prop35
280
     0
102
RTVSPost2010PropOp35
 70
     1
102
RTVSPost2010Prop36
280
     0
102
RTVSPost2010PropOp36
 70
     1
102
RTVSPost2010Prop37
 90
       50
102
RTVSPost2010PropOp37
 70
     1
102
RTVSPost2010Prop38
140
0.0
102
RTVSPost2010PropOp38
 70
     1
102
RTVSPost2010Prop39
140
1.0
102
RTVSPost2010PropOp39
 70
     1
102
RTVSPost2010Prop40
 90
        0
102
RTVSPost2010PropOp40
 70
     1
102
RTVSPost2010Prop41ColorIndex
 90
       18
102
RTVSPost2010Prop41ColorRGB
 90
        0
102
RTVSPost2010PropOp41
 70
     1
102
RTVSPost2010Prop42
 90
       50
102
RTVSPost2010PropOp42
 70
     1
102
RTVSPost2010Prop43
 90
        3
102
RTVSPost2010PropOp43
 70
     1
102
RTVSPost2010Prop44ColorIndex
 90
        5
102
RTVSPost2010Prop44ColorRGB
 90
      255
102
RTVSPost2010PropOp44
 70
     1
102
RTVSPost2010Prop45
280
     0
102
RTVSPost2010PropOp45
 70
     1
102
RTVSPost2010Prop46
 90
       50
102
RTVSPost2010PropOp46
 70
     1
102
RTVSPost2010Prop47
 90
       50
102
RTVSPost2010PropOp47
 70
     1
102
RTVSPost2010Prop48
 90
       50
102
RTVSPost2010PropOp48
 70
     1
102
RTVSPost2010Prop49
280
     0
102
RTVSPost2010PropOp49
 70
     1
102
RTVSPost2010Prop50
 90
       50
102
RTVSPost2010PropOp50
 70
     1
102
RTVSPost2010Prop51ColorIndex
 90
      256
102
RTVSPost2010Prop51ColorRGB
 90
-16777216
102
RTVSPost2010PropOp51
 70
     0
102
RTVSPost2010Prop52
140
1.0
102
RTVSPost2010PropOp52
 70
     0
102
RTVSPost2010Prop53
 90
        2
102
RTVSPost2010PropOp53
 70
     1
102
RTVSPost2010Prop54
  1
strokes_ogs.tif
102
RTVSPost2010PropOp54
 70
     1
102
RTVSPost2010Prop55
280
     0
102
RTVSPost2010PropOp55
 70
     1
102
RTVSPost2010Prop56
140
1.0
102
RTVSPost2010PropOp56
 70
     1
102
RTVSPost2010Prop57
140
1.0
102
RTVSPost2010PropOp57
 70
     1
102
RTVSPropertyOp0
 70
     1
102
RTVSPropertyOp1
 70
     1
102
RTVSPropertyOp2
 70
     1
102
RTVSPropertyOp3
 70
     1
102
RTVSPropertyOp4
 70
     1
102
RTVSPropertyOp5
 70
     1
102
RTVSPropertyOp6
 70
     1
102
RTVSPropertyOp7
 70
     1
102
RTVSPropertyOp8
 70
     1
102
RTVSPropertyOp9
 70
     1
102
RTVSPropertyOp10
 70
     1
102
RTVSPropertyOp11
 70
     1
102
RTVSPropertyOp12
 70
     1
102
RTVSPropertyOp13
 70
     1
102
RTVSPropertyOp14
 70
     1
102
RTVSPropertyOp15
 70
     1
102
RTVSPropertyOp16
 70
     1
102
RTVSPropertyOp17
 70
     1
102
RTVSPropertyOp18
 70
     1
102
RTVSPropertyOp19
 70
     1
102
RTVSPropertyOp20
 70
     1
102
RTVSPropertyOp21
 70
     1
102
RTVSPropertyOp22
 70
     1
102
RTVSPropertyOp23
 70
     1
102
RTVSPropertyOp24
 70
     1
102
RTVSPropertyOp25
 70
     1
102
RTVSPropertyOp26
 70
     1
102
RTVSPropertyOp27
 70
     1
102
RTVSPropertyOp28
 70
     1
102
RTVSPropertyOp29
 70
     1
102
RTVSPropertyOp30
 70
     1
102
RTVSPropertyOp31
 70
     1
102
RTVSPropertyOp32
 70
     1
102
RTVSPropertyOp33
 70
     1
102
RTVSPropertyOp34
 70
     1
102
RTVSPropertyOp35
 70
     1
102
RTVSPropertyOp36
 70
     1
102
RTVSPropertyOp37
 70
     1
102
RTVSPropertyOp38
 70
     1
102
RTVSPropertyOp39
 70
     1
102
RTVSPropertyOp40
 70
     1
102
RTVSPropertyOp41
 70
     1
102
RTVSPropertyOp42
 70
     1
102
RTVSPropertyOp43
 70
     1
102
RTVSPropertyOp44
 70
     1
102
RTVSPropertyOp45
 70
     1
102
RTVSPropertyOp46
 70
     1
102
RTVSPropertyOp47
 70
     1
102
RTVSPropertyOp48
 70
     1
102
RTVSPropertyOp49
 70
     1
102
RTVSPropertyOp50
 70
     1
102
RTVSPropertyOp51
 70
     0
102
RTVSPropertyOp52
 70
     0
102
RTVSPropertyOp53
 70
     1
102
RTVSPropertyOp54
 70
     1
102
RTVSPropertyOp55
 70
     1
102
RTVSPropertyOp56
 70
     1
102
RTVSPropertyOp57
 70
     1
102
RTVSPropertyOp58
 70
     1
102
RTVSPropertyOp59
 70
     1
102
RTVSPropertyOp60
 70
     1
102
RTVSPropertyOp61
 70
     1
102
RTVSPropertyOp62
 70
     1
  0
XRECORD
  5
AAD5
102
{ACAD_REACTORS
330
AAD4
102
}
330
AAD4
100
AcDbXrecord
280
     1
102
RTVSPost2010Prop28
280
     0
102
RTVSPost2010PropOp28
 70
     1
102
RTVSPost2010Prop29
280
     1
102
RTVSPost2010PropOp29
 70
     1
102
RTVSPost2010Prop30
280
     1
102
RTVSPost2010PropOp30
 70
     1
102
RTVSPost2010Prop31
280
     0
102
RTVSPost2010PropOp31
 70
     1
102
RTVSPost2010Prop32
280
     0
102
RTVSPost2010PropOp32
 70
     1
102
RTVSPost2010Prop33
280
     0
102
RTVSPost2010PropOp33
 70
     1
102
RTVSPost2010Prop34
280
     0
102
RTVSPost2010PropOp34
 70
     1
102
RTVSPost2010Prop35
280
     0
102
RTVSPost2010PropOp35
 70
     1
102
RTVSPost2010Prop36
280
     0
102
RTVSPost2010PropOp36
 70
     1
102
RTVSPost2010Prop37
 90
       50
102
RTVSPost2010PropOp37
 70
     1
102
RTVSPost2010Prop38
140
0.0
102
RTVSPost2010PropOp38
 70
     1
102
RTVSPost2010Prop39
140
1.0
102
RTVSPost2010PropOp39
 70
     1
102
RTVSPost2010Prop40
 90
        0
102
RTVSPost2010PropOp40
 70
     1
102
RTVSPost2010Prop41ColorIndex
 90
       18
102
RTVSPost2010Prop41ColorRGB
 90
        0
102
RTVSPost2010PropOp41
 70
     1
102
RTVSPost2010Prop42
 90
       50
102
RTVSPost2010PropOp42
 70
     1
102
RTVSPost2010Prop43
 90
        3
102
RTVSPost2010PropOp43
 70
     1
102
RTVSPost2010Prop44ColorIndex
 90
        5
102
RTVSPost2010Prop44ColorRGB
 90
      255
102
RTVSPost2010PropOp44
 70
     1
102
RTVSPost2010Prop45
280
     0
102
RTVSPost2010PropOp45
 70
     1
102
RTVSPost2010Prop46
 90
       50
102
RTVSPost2010PropOp46
 70
     1
102
RTVSPost2010Prop47
 90
       50
102
RTVSPost2010PropOp47
 70
     1
102
RTVSPost2010Prop48
 90
       50
102
RTVSPost2010PropOp48
 70
     1
102
RTVSPost2010Prop49
280
     0
102
RTVSPost2010PropOp49
 70
     1
102
RTVSPost2010Prop50
 90
       50
102
RTVSPost2010PropOp50
 70
     1
102
RTVSPost2010Prop51ColorIndex
 90
      256
102
RTVSPost2010Prop51ColorRGB
 90
-16777216
102
RTVSPost2010PropOp51
 70
     0
102
RTVSPost2010Prop52
140
1.0
102
RTVSPost2010PropOp52
 70
     0
102
RTVSPost2010Prop53
 90
        2
102
RTVSPost2010PropOp53
 70
     1
102
RTVSPost2010Prop54
  1
strokes_ogs.tif
102
RTVSPost2010PropOp54
 70
     1
102
RTVSPost2010Prop55
280
     0
102
RTVSPost2010PropOp55
 70
     1
102
RTVSPost2010Prop56
140
1.0
102
RTVSPost2010PropOp56
 70
     1
102
RTVSPost2010Prop57
140
1.0
102
RTVSPost2010PropOp57
 70
     1
102
RTVSPropertyOp0
 70
     1
102
RTVSPropertyOp1
 70
     1
102
RTVSPropertyOp2
 70
     1
102
RTVSPropertyOp3
 70
     1
102
RTVSPropertyOp4
 70
     1
102
RTVSPropertyOp5
 70
     1
102
RTVSPropertyOp6
 70
     1
102
RTVSPropertyOp7
 70
     1
102
RTVSPropertyOp8
 70
     1
102
RTVSPropertyOp9
 70
     1
102
RTVSPropertyOp10
 70
     1
102
RTVSPropertyOp11
 70
     1
102
RTVSPropertyOp12
 70
     1
102
RTVSPropertyOp13
 70
     1
102
RTVSPropertyOp14
 70
     1
102
RTVSPropertyOp15
 70
     1
102
RTVSPropertyOp16
 70
     1
102
RTVSPropertyOp17
 70
     1
102
RTVSPropertyOp18
 70
     1
102
RTVSPropertyOp19
 70
     1
102
RTVSPropertyOp20
 70
     1
102
RTVSPropertyOp21
 70
     1
102
RTVSPropertyOp22
 70
     1
102
RTVSPropertyOp23
 70
     1
102
RTVSPropertyOp24
 70
     1
102
RTVSPropertyOp25
 70
     1
102
RTVSPropertyOp26
 70
     1
102
RTVSPropertyOp27
 70
     1
102
RTVSPropertyOp28
 70
     1
102
RTVSPropertyOp29
 70
     1
102
RTVSPropertyOp30
 70
     1
102
RTVSPropertyOp31
 70
     1
102
RTVSPropertyOp32
 70
     1
102
RTVSPropertyOp33
 70
     1
102
RTVSPropertyOp34
 70
     1
102
RTVSPropertyOp35
 70
     1
102
RTVSPropertyOp36
 70
     1
102
RTVSPropertyOp37
 70
     1
102
RTVSPropertyOp38
 70
     1
102
RTVSPropertyOp39
 70
     1
102
RTVSPropertyOp40
 70
     1
102
RTVSPropertyOp41
 70
     1
102
RTVSPropertyOp42
 70
     1
102
RTVSPropertyOp43
 70
     1
102
RTVSPropertyOp44
 70
     1
102
RTVSPropertyOp45
 70
     1
102
RTVSPropertyOp46
 70
     1
102
RTVSPropertyOp47
 70
     1
102
RTVSPropertyOp48
 70
     1
102
RTVSPropertyOp49
 70
     1
102
RTVSPropertyOp50
 70
     1
102
RTVSPropertyOp51
 70
     0
102
RTVSPropertyOp52
 70
     0
102
RTVSPropertyOp53
 70
     1
102
RTVSPropertyOp54
 70
     1
102
RTVSPropertyOp55
 70
     1
102
RTVSPropertyOp56
 70
     1
102
RTVSPropertyOp57
 70
     1
102
RTVSPropertyOp58
 70
     1
102
RTVSPropertyOp59
 70
     1
102
RTVSPropertyOp60
 70
     1
102
RTVSPropertyOp61
 70
     1
102
RTVSPropertyOp62
 70
     1
  0
XRECORD
  5
AADD
102
{ACAD_REACTORS
330
AADC
102
}
330
AADC
100
AcDbXrecord
280
     1
102
RTVSPost2010Prop28
280
     0
102
RTVSPost2010PropOp28
 70
     1
102
RTVSPost2010Prop29
280
     1
102
RTVSPost2010PropOp29
 70
     1
102
RTVSPost2010Prop30
280
     1
102
RTVSPost2010PropOp30
 70
     1
102
RTVSPost2010Prop31
280
     0
102
RTVSPost2010PropOp31
 70
     1
102
RTVSPost2010Prop32
280
     0
102
RTVSPost2010PropOp32
 70
     1
102
RTVSPost2010Prop33
280
     0
102
RTVSPost2010PropOp33
 70
     1
102
RTVSPost2010Prop34
280
     0
102
RTVSPost2010PropOp34
 70
     1
102
RTVSPost2010Prop35
280
     0
102
RTVSPost2010PropOp35
 70
     1
102
RTVSPost2010Prop36
280
     0
102
RTVSPost2010PropOp36
 70
     1
102
RTVSPost2010Prop37
 90
       50
102
RTVSPost2010PropOp37
 70
     1
102
RTVSPost2010Prop38
140
0.0
102
RTVSPost2010PropOp38
 70
     1
102
RTVSPost2010Prop39
140
1.0
102
RTVSPost2010PropOp39
 70
     1
102
RTVSPost2010Prop40
 90
        0
102
RTVSPost2010PropOp40
 70
     1
102
RTVSPost2010Prop41ColorIndex
 90
       18
102
RTVSPost2010Prop41ColorRGB
 90
        0
102
RTVSPost2010PropOp41
 70
     1
102
RTVSPost2010Prop42
 90
       50
102
RTVSPost2010PropOp42
 70
     1
102
RTVSPost2010Prop43
 90
        3
102
RTVSPost2010PropOp43
 70
     1
102
RTVSPost2010Prop44ColorIndex
 90
        5
102
RTVSPost2010Prop44ColorRGB
 90
      255
102
RTVSPost2010PropOp44
 70
     1
102
RTVSPost2010Prop45
280
     0
102
RTVSPost2010PropOp45
 70
     1
102
RTVSPost2010Prop46
 90
       50
102
RTVSPost2010PropOp46
 70
     1
102
RTVSPost2010Prop47
 90
       50
102
RTVSPost2010PropOp47
 70
     1
102
RTVSPost2010Prop48
 90
       50
102
RTVSPost2010PropOp48
 70
     1
102
RTVSPost2010Prop49
280
     0
102
RTVSPost2010PropOp49
 70
     1
102
RTVSPost2010Prop50
 90
       50
102
RTVSPost2010PropOp50
 70
     1
102
RTVSPost2010Prop51ColorIndex
 90
      256
102
RTVSPost2010Prop51ColorRGB
 90
-16777216
102
RTVSPost2010PropOp51
 70
     0
102
RTVSPost2010Prop52
140
1.0
102
RTVSPost2010PropOp52
 70
     0
102
RTVSPost2010Prop53
 90
        2
102
RTVSPost2010PropOp53
 70
     1
102
RTVSPost2010Prop54
  1
strokes_ogs.tif
102
RTVSPost2010PropOp54
 70
     1
102
RTVSPost2010Prop55
280
     0
102
RTVSPost2010PropOp55
 70
     1
102
RTVSPost2010Prop56
140
1.0
102
RTVSPost2010PropOp56
 70
     1
102
RTVSPost2010Prop57
140
1.0
102
RTVSPost2010PropOp57
 70
     1
102
RTVSPropertyOp0
 70
     1
102
RTVSPropertyOp1
 70
     1
102
RTVSPropertyOp2
 70
     1
102
RTVSPropertyOp3
 70
     1
102
RTVSPropertyOp4
 70
     1
102
RTVSPropertyOp5
 70
     1
102
RTVSPropertyOp6
 70
     1
102
RTVSPropertyOp7
 70
     1
102
RTVSPropertyOp8
 70
     1
102
RTVSPropertyOp9
 70
     1
102
RTVSPropertyOp10
 70
     1
102
RTVSPropertyOp11
 70
     1
102
RTVSPropertyOp12
 70
     1
102
RTVSPropertyOp13
 70
     1
102
RTVSPropertyOp14
 70
     1
102
RTVSPropertyOp15
 70
     1
102
RTVSPropertyOp16
 70
     1
102
RTVSPropertyOp17
 70
     1
102
RTVSPropertyOp18
 70
     1
102
RTVSPropertyOp19
 70
     1
102
RTVSPropertyOp20
 70
     1
102
RTVSPropertyOp21
 70
     1
102
RTVSPropertyOp22
 70
     1
102
RTVSPropertyOp23
 70
     1
102
RTVSPropertyOp24
 70
     1
102
RTVSPropertyOp25
 70
     1
102
RTVSPropertyOp26
 70
     1
102
RTVSPropertyOp27
 70
     1
102
RTVSPropertyOp28
 70
     1
102
RTVSPropertyOp29
 70
     1
102
RTVSPropertyOp30
 70
     1
102
RTVSPropertyOp31
 70
     1
102
RTVSPropertyOp32
 70
     1
102
RTVSPropertyOp33
 70
     1
102
RTVSPropertyOp34
 70
     1
102
RTVSPropertyOp35
 70
     1
102
RTVSPropertyOp36
 70
     1
102
RTVSPropertyOp37
 70
     1
102
RTVSPropertyOp38
 70
     1
102
RTVSPropertyOp39
 70
     1
102
RTVSPropertyOp40
 70
     1
102
RTVSPropertyOp41
 70
     1
102
RTVSPropertyOp42
 70
     1
102
RTVSPropertyOp43
 70
     1
102
RTVSPropertyOp44
 70
     1
102
RTVSPropertyOp45
 70
     1
102
RTVSPropertyOp46
 70
     1
102
RTVSPropertyOp47
 70
     1
102
RTVSPropertyOp48
 70
     1
102
RTVSPropertyOp49
 70
     1
102
RTVSPropertyOp50
 70
     1
102
RTVSPropertyOp51
 70
     0
102
RTVSPropertyOp52
 70
     0
102
RTVSPropertyOp53
 70
     1
102
RTVSPropertyOp54
 70
     1
102
RTVSPropertyOp55
 70
     1
102
RTVSPropertyOp56
 70
     1
102
RTVSPropertyOp57
 70
     1
102
RTVSPropertyOp58
 70
     1
102
RTVSPropertyOp59
 70
     1
102
RTVSPropertyOp60
 70
     1
102
RTVSPropertyOp61
 70
     1
102
RTVSPropertyOp62
 70
     1
  0
XRECORD
  5
AACF
102
{ACAD_REACTORS
330
AACE
102
}
330
AACE
100
AcDbXrecord
280
     1
102
RTVSPost2010Prop28
280
     0
102
RTVSPost2010PropOp28
 70
     1
102
RTVSPost2010Prop29
280
     1
102
RTVSPost2010PropOp29
 70
     1
102
RTVSPost2010Prop30
280
     1
102
RTVSPost2010PropOp30
 70
     1
102
RTVSPost2010Prop31
280
     0
102
RTVSPost2010PropOp31
 70
     1
102
RTVSPost2010Prop32
280
     0
102
RTVSPost2010PropOp32
 70
     1
102
RTVSPost2010Prop33
280
     0
102
RTVSPost2010PropOp33
 70
     1
102
RTVSPost2010Prop34
280
     0
102
RTVSPost2010PropOp34
 70
     1
102
RTVSPost2010Prop35
280
     0
102
RTVSPost2010PropOp35
 70
     1
102
RTVSPost2010Prop36
280
     0
102
RTVSPost2010PropOp36
 70
     1
102
RTVSPost2010Prop37
 90
       50
102
RTVSPost2010PropOp37
 70
     1
102
RTVSPost2010Prop38
140
0.0
102
RTVSPost2010PropOp38
 70
     1
102
RTVSPost2010Prop39
140
1.0
102
RTVSPost2010PropOp39
 70
     1
102
RTVSPost2010Prop40
 90
        0
102
RTVSPost2010PropOp40
 70
     1
102
RTVSPost2010Prop41ColorIndex
 90
       18
102
RTVSPost2010Prop41ColorRGB
 90
        0
102
RTVSPost2010PropOp41
 70
     1
102
RTVSPost2010Prop42
 90
       50
102
RTVSPost2010PropOp42
 70
     1
102
RTVSPost2010Prop43
 90
        3
102
RTVSPost2010PropOp43
 70
     1
102
RTVSPost2010Prop44ColorIndex
 90
        5
102
RTVSPost2010Prop44ColorRGB
 90
      255
102
RTVSPost2010PropOp44
 70
     1
102
RTVSPost2010Prop45
280
     0
102
RTVSPost2010PropOp45
 70
     1
102
RTVSPost2010Prop46
 90
       50
102
RTVSPost2010PropOp46
 70
     1
102
RTVSPost2010Prop47
 90
       50
102
RTVSPost2010PropOp47
 70
     1
102
RTVSPost2010Prop48
 90
       50
102
RTVSPost2010PropOp48
 70
     1
102
RTVSPost2010Prop49
280
     0
102
RTVSPost2010PropOp49
 70
     1
102
RTVSPost2010Prop50
 90
       50
102
RTVSPost2010PropOp50
 70
     1
102
RTVSPost2010Prop51ColorIndex
 90
      256
102
RTVSPost2010Prop51ColorRGB
 90
-16777216
102
RTVSPost2010PropOp51
 70
     0
102
RTVSPost2010Prop52
140
1.0
102
RTVSPost2010PropOp52
 70
     0
102
RTVSPost2010Prop53
 90
        2
102
RTVSPost2010PropOp53
 70
     1
102
RTVSPost2010Prop54
  1
strokes_ogs.tif
102
RTVSPost2010PropOp54
 70
     1
102
RTVSPost2010Prop55
280
     0
102
RTVSPost2010PropOp55
 70
     1
102
RTVSPost2010Prop56
140
1.0
102
RTVSPost2010PropOp56
 70
     1
102
RTVSPost2010Prop57
140
1.0
102
RTVSPost2010PropOp57
 70
     1
102
RTVSPropertyOp0
 70
     1
102
RTVSPropertyOp1
 70
     1
102
RTVSPropertyOp2
 70
     1
102
RTVSPropertyOp3
 70
     1
102
RTVSPropertyOp4
 70
     1
102
RTVSPropertyOp5
 70
     1
102
RTVSPropertyOp6
 70
     1
102
RTVSPropertyOp7
 70
     1
102
RTVSPropertyOp8
 70
     1
102
RTVSPropertyOp9
 70
     1
102
RTVSPropertyOp10
 70
     1
102
RTVSPropertyOp11
 70
     1
102
RTVSPropertyOp12
 70
     1
102
RTVSPropertyOp13
 70
     1
102
RTVSPropertyOp14
 70
     1
102
RTVSPropertyOp15
 70
     1
102
RTVSPropertyOp16
 70
     1
102
RTVSPropertyOp17
 70
     1
102
RTVSPropertyOp18
 70
     1
102
RTVSPropertyOp19
 70
     1
102
RTVSPropertyOp20
 70
     1
102
RTVSPropertyOp21
 70
     1
102
RTVSPropertyOp22
 70
     1
102
RTVSPropertyOp23
 70
     1
102
RTVSPropertyOp24
 70
     1
102
RTVSPropertyOp25
 70
     1
102
RTVSPropertyOp26
 70
     1
102
RTVSPropertyOp27
 70
     1
102
RTVSPropertyOp28
 70
     1
102
RTVSPropertyOp29
 70
     1
102
RTVSPropertyOp30
 70
     1
102
RTVSPropertyOp31
 70
     1
102
RTVSPropertyOp32
 70
     1
102
RTVSPropertyOp33
 70
     1
102
RTVSPropertyOp34
 70
     1
102
RTVSPropertyOp35
 70
     1
102
RTVSPropertyOp36
 70
     1
102
RTVSPropertyOp37
 70
     1
102
RTVSPropertyOp38
 70
     1
102
RTVSPropertyOp39
 70
     1
102
RTVSPropertyOp40
 70
     1
102
RTVSPropertyOp41
 70
     1
102
RTVSPropertyOp42
 70
     1
102
RTVSPropertyOp43
 70
     1
102
RTVSPropertyOp44
 70
     1
102
RTVSPropertyOp45
 70
     1
102
RTVSPropertyOp46
 70
     1
102
RTVSPropertyOp47
 70
     1
102
RTVSPropertyOp48
 70
     1
102
RTVSPropertyOp49
 70
     1
102
RTVSPropertyOp50
 70
     1
102
RTVSPropertyOp51
 70
     0
102
RTVSPropertyOp52
 70
     0
102
RTVSPropertyOp53
 70
     1
102
RTVSPropertyOp54
 70
     1
102
RTVSPropertyOp55
 70
     1
102
RTVSPropertyOp56
 70
     1
102
RTVSPropertyOp57
 70
     1
102
RTVSPropertyOp58
 70
     1
102
RTVSPropertyOp59
 70
     1
102
RTVSPropertyOp60
 70
     1
102
RTVSPropertyOp61
 70
     1
102
RTVSPropertyOp62
 70
     1
  0
XRECORD
  5
AAD3
102
{ACAD_REACTORS
330
AAD2
102
}
330
AAD2
100
AcDbXrecord
280
     1
102
RTVSPost2010Prop28
280
     0
102
RTVSPost2010PropOp28
 70
     1
102
RTVSPost2010Prop29
280
     1
102
RTVSPost2010PropOp29
 70
     1
102
RTVSPost2010Prop30
280
     1
102
RTVSPost2010PropOp30
 70
     1
102
RTVSPost2010Prop31
280
     0
102
RTVSPost2010PropOp31
 70
     1
102
RTVSPost2010Prop32
280
     0
102
RTVSPost2010PropOp32
 70
     1
102
RTVSPost2010Prop33
280
     0
102
RTVSPost2010PropOp33
 70
     1
102
RTVSPost2010Prop34
280
     0
102
RTVSPost2010PropOp34
 70
     1
102
RTVSPost2010Prop35
280
     0
102
RTVSPost2010PropOp35
 70
     1
102
RTVSPost2010Prop36
280
     0
102
RTVSPost2010PropOp36
 70
     1
102
RTVSPost2010Prop37
 90
       50
102
RTVSPost2010PropOp37
 70
     1
102
RTVSPost2010Prop38
140
0.0
102
RTVSPost2010PropOp38
 70
     1
102
RTVSPost2010Prop39
140
1.0
102
RTVSPost2010PropOp39
 70
     1
102
RTVSPost2010Prop40
 90
        0
102
RTVSPost2010PropOp40
 70
     1
102
RTVSPost2010Prop41ColorIndex
 90
       18
102
RTVSPost2010Prop41ColorRGB
 90
        0
102
RTVSPost2010PropOp41
 70
     1
102
RTVSPost2010Prop42
 90
       50
102
RTVSPost2010PropOp42
 70
     1
102
RTVSPost2010Prop43
 90
        3
102
RTVSPost2010PropOp43
 70
     1
102
RTVSPost2010Prop44ColorIndex
 90
        5
102
RTVSPost2010Prop44ColorRGB
 90
      255
102
RTVSPost2010PropOp44
 70
     1
102
RTVSPost2010Prop45
280
     0
102
RTVSPost2010PropOp45
 70
     1
102
RTVSPost2010Prop46
 90
       50
102
RTVSPost2010PropOp46
 70
     1
102
RTVSPost2010Prop47
 90
       50
102
RTVSPost2010PropOp47
 70
     1
102
RTVSPost2010Prop48
 90
       50
102
RTVSPost2010PropOp48
 70
     1
102
RTVSPost2010Prop49
280
     0
102
RTVSPost2010PropOp49
 70
     1
102
RTVSPost2010Prop50
 90
       50
102
RTVSPost2010PropOp50
 70
     1
102
RTVSPost2010Prop51ColorIndex
 90
      256
102
RTVSPost2010Prop51ColorRGB
 90
-16777216
102
RTVSPost2010PropOp51
 70
     0
102
RTVSPost2010Prop52
140
1.0
102
RTVSPost2010PropOp52
 70
     0
102
RTVSPost2010Prop53
 90
        2
102
RTVSPost2010PropOp53
 70
     1
102
RTVSPost2010Prop54
  1
strokes_ogs.tif
102
RTVSPost2010PropOp54
 70
     1
102
RTVSPost2010Prop55
280
     0
102
RTVSPost2010PropOp55
 70
     1
102
RTVSPost2010Prop56
140
1.0
102
RTVSPost2010PropOp56
 70
     1
102
RTVSPost2010Prop57
140
1.0
102
RTVSPost2010PropOp57
 70
     1
102
RTVSPropertyOp0
 70
     1
102
RTVSPropertyOp1
 70
     1
102
RTVSPropertyOp2
 70
     1
102
RTVSPropertyOp3
 70
     1
102
RTVSPropertyOp4
 70
     1
102
RTVSPropertyOp5
 70
     1
102
RTVSPropertyOp6
 70
     1
102
RTVSPropertyOp7
 70
     1
102
RTVSPropertyOp8
 70
     1
102
RTVSPropertyOp9
 70
     1
102
RTVSPropertyOp10
 70
     1
102
RTVSPropertyOp11
 70
     1
102
RTVSPropertyOp12
 70
     1
102
RTVSPropertyOp13
 70
     1
102
RTVSPropertyOp14
 70
     1
102
RTVSPropertyOp15
 70
     1
102
RTVSPropertyOp16
 70
     1
102
RTVSPropertyOp17
 70
     1
102
RTVSPropertyOp18
 70
     1
102
RTVSPropertyOp19
 70
     1
102
RTVSPropertyOp20
 70
     1
102
RTVSPropertyOp21
 70
     1
102
RTVSPropertyOp22
 70
     1
102
RTVSPropertyOp23
 70
     1
102
RTVSPropertyOp24
 70
     1
102
RTVSPropertyOp25
 70
     1
102
RTVSPropertyOp26
 70
     1
102
RTVSPropertyOp27
 70
     1
102
RTVSPropertyOp28
 70
     1
102
RTVSPropertyOp29
 70
     1
102
RTVSPropertyOp30
 70
     1
102
RTVSPropertyOp31
 70
     1
102
RTVSPropertyOp32
 70
     1
102
RTVSPropertyOp33
 70
     1
102
RTVSPropertyOp34
 70
     1
102
RTVSPropertyOp35
 70
     1
102
RTVSPropertyOp36
 70
     1
102
RTVSPropertyOp37
 70
     1
102
RTVSPropertyOp38
 70
     1
102
RTVSPropertyOp39
 70
     1
102
RTVSPropertyOp40
 70
     1
102
RTVSPropertyOp41
 70
     1
102
RTVSPropertyOp42
 70
     1
102
RTVSPropertyOp43
 70
     1
102
RTVSPropertyOp44
 70
     1
102
RTVSPropertyOp45
 70
     1
102
RTVSPropertyOp46
 70
     1
102
RTVSPropertyOp47
 70
     1
102
RTVSPropertyOp48
 70
     1
102
RTVSPropertyOp49
 70
     1
102
RTVSPropertyOp50
 70
     1
102
RTVSPropertyOp51
 70
     0
102
RTVSPropertyOp52
 70
     0
102
RTVSPropertyOp53
 70
     1
102
RTVSPropertyOp54
 70
     1
102
RTVSPropertyOp55
 70
     1
102
RTVSPropertyOp56
 70
     1
102
RTVSPropertyOp57
 70
     1
102
RTVSPropertyOp58
 70
     1
102
RTVSPropertyOp59
 70
     1
102
RTVSPropertyOp60
 70
     1
102
RTVSPropertyOp61
 70
     1
102
RTVSPropertyOp62
 70
     1
  0
XRECORD
  5
AAED
102
{ACAD_REACTORS
330
AAEC
102
}
330
AAEC
100
AcDbXrecord
280
     1
102
RTVSPost2010Prop28
280
     0
102
RTVSPost2010PropOp28
 70
     1
102
RTVSPost2010Prop29
280
     1
102
RTVSPost2010PropOp29
 70
     1
102
RTVSPost2010Prop30
280
     1
102
RTVSPost2010PropOp30
 70
     1
102
RTVSPost2010Prop31
280
     0
102
RTVSPost2010PropOp31
 70
     1
102
RTVSPost2010Prop32
280
     0
102
RTVSPost2010PropOp32
 70
     1
102
RTVSPost2010Prop33
280
     0
102
RTVSPost2010PropOp33
 70
     1
102
RTVSPost2010Prop34
280
     0
102
RTVSPost2010PropOp34
 70
     1
102
RTVSPost2010Prop35
280
     0
102
RTVSPost2010PropOp35
 70
     1
102
RTVSPost2010Prop36
280
     0
102
RTVSPost2010PropOp36
 70
     1
102
RTVSPost2010Prop37
 90
       50
102
RTVSPost2010PropOp37
 70
     0
102
RTVSPost2010Prop38
140
0.0
102
RTVSPost2010PropOp38
 70
     0
102
RTVSPost2010Prop39
140
1.0
102
RTVSPost2010PropOp39
 70
     0
102
RTVSPost2010Prop40
 90
        0
102
RTVSPost2010PropOp40
 70
     0
102
RTVSPost2010Prop41ColorIndex
 90
       18
102
RTVSPost2010Prop41ColorRGB
 90
        0
102
RTVSPost2010PropOp41
 70
     0
102
RTVSPost2010Prop42
 90
       50
102
RTVSPost2010PropOp42
 70
     0
102
RTVSPost2010Prop43
 90
        3
102
RTVSPost2010PropOp43
 70
     0
102
RTVSPost2010Prop44ColorIndex
 90
        5
102
RTVSPost2010Prop44ColorRGB
 90
      255
102
RTVSPost2010PropOp44
 70
     0
102
RTVSPost2010Prop45
280
     0
102
RTVSPost2010PropOp45
 70
     1
102
RTVSPost2010Prop46
 90
       50
102
RTVSPost2010PropOp46
 70
     0
102
RTVSPost2010Prop47
 90
       50
102
RTVSPost2010PropOp47
 70
     0
102
RTVSPost2010Prop48
 90
       50
102
RTVSPost2010PropOp48
 70
     0
102
RTVSPost2010Prop49
280
     0
102
RTVSPost2010PropOp49
 70
     1
102
RTVSPost2010Prop50
 90
       50
102
RTVSPost2010PropOp50
 70
     0
102
RTVSPost2010Prop51ColorIndex
 90
      256
102
RTVSPost2010Prop51ColorRGB
 90
-16777216
102
RTVSPost2010PropOp51
 70
     0
102
RTVSPost2010Prop52
140
1.0
102
RTVSPost2010PropOp52
 70
     0
102
RTVSPost2010Prop53
 90
        2
102
RTVSPost2010PropOp53
 70
     0
102
RTVSPost2010Prop54
  1
strokes_ogs.tif
102
RTVSPost2010PropOp54
 70
     0
102
RTVSPost2010Prop55
280
     0
102
RTVSPost2010PropOp55
 70
     1
102
RTVSPost2010Prop56
140
1.0
102
RTVSPost2010PropOp56
 70
     0
102
RTVSPost2010Prop57
140
1.0
102
RTVSPost2010PropOp57
 70
     0
102
RTVSPropertyOp0
 70
     0
102
RTVSPropertyOp1
 70
     0
102
RTVSPropertyOp2
 70
     0
102
RTVSPropertyOp3
 70
     0
102
RTVSPropertyOp4
 70
     0
102
RTVSPropertyOp5
 70
     0
102
RTVSPropertyOp6
 70
     0
102
RTVSPropertyOp7
 70
     0
102
RTVSPropertyOp8
 70
     0
102
RTVSPropertyOp9
 70
     0
102
RTVSPropertyOp10
 70
     0
102
RTVSPropertyOp11
 70
     0
102
RTVSPropertyOp12
 70
     0
102
RTVSPropertyOp13
 70
     0
102
RTVSPropertyOp14
 70
     2
102
RTVSPropertyOp15
 70
     0
102
RTVSPropertyOp16
 70
     0
102
RTVSPropertyOp17
 70
     0
102
RTVSPropertyOp18
 70
     0
102
RTVSPropertyOp19
 70
     0
102
RTVSPropertyOp20
 70
     0
102
RTVSPropertyOp21
 70
     0
102
RTVSPropertyOp22
 70
     0
102
RTVSPropertyOp23
 70
     0
102
RTVSPropertyOp24
 70
     0
102
RTVSPropertyOp25
 70
     0
102
RTVSPropertyOp26
 70
     0
102
RTVSPropertyOp27
 70
     0
102
RTVSPropertyOp28
 70
     1
102
RTVSPropertyOp29
 70
     1
102
RTVSPropertyOp30
 70
     1
102
RTVSPropertyOp31
 70
     1
102
RTVSPropertyOp32
 70
     1
102
RTVSPropertyOp33
 70
     1
102
RTVSPropertyOp34
 70
     1
102
RTVSPropertyOp35
 70
     1
102
RTVSPropertyOp36
 70
     1
102
RTVSPropertyOp37
 70
     0
102
RTVSPropertyOp38
 70
     0
102
RTVSPropertyOp39
 70
     0
102
RTVSPropertyOp40
 70
     0
102
RTVSPropertyOp41
 70
     0
102
RTVSPropertyOp42
 70
     0
102
RTVSPropertyOp43
 70
     0
102
RTVSPropertyOp44
 70
     0
102
RTVSPropertyOp45
 70
     1
102
RTVSPropertyOp46
 70
     0
102
RTVSPropertyOp47
 70
     0
102
RTVSPropertyOp48
 70
     0
102
RTVSPropertyOp49
 70
     1
102
RTVSPropertyOp50
 70
     0
102
RTVSPropertyOp51
 70
     0
102
RTVSPropertyOp52
 70
     0
102
RTVSPropertyOp53
 70
     0
102
RTVSPropertyOp54
 70
     0
102
RTVSPropertyOp55
 70
     1
102
RTVSPropertyOp56
 70
     0
102
RTVSPropertyOp57
 70
     0
102
RTVSPropertyOp58
 70
     0
102
RTVSPropertyOp59
 70
     0
102
RTVSPropertyOp60
 70
     0
102
RTVSPropertyOp61
 70
     0
102
RTVSPropertyOp62
 70
     0
  0
XRECORD
  5
AADB
102
{ACAD_REACTORS
330
AADA
102
}
330
AADA
100
AcDbXrecord
280
     1
102
RTVSPost2010Prop28
280
     0
102
RTVSPost2010PropOp28
 70
     1
102
RTVSPost2010Prop29
280
     1
102
RTVSPost2010PropOp29
 70
     1
102
RTVSPost2010Prop30
280
     1
102
RTVSPost2010PropOp30
 70
     1
102
RTVSPost2010Prop31
280
     0
102
RTVSPost2010PropOp31
 70
     1
102
RTVSPost2010Prop32
280
     0
102
RTVSPost2010PropOp32
 70
     1
102
RTVSPost2010Prop33
280
     0
102
RTVSPost2010PropOp33
 70
     1
102
RTVSPost2010Prop34
280
     0
102
RTVSPost2010PropOp34
 70
     1
102
RTVSPost2010Prop35
280
     0
102
RTVSPost2010PropOp35
 70
     1
102
RTVSPost2010Prop36
280
     0
102
RTVSPost2010PropOp36
 70
     1
102
RTVSPost2010Prop37
 90
       50
102
RTVSPost2010PropOp37
 70
     1
102
RTVSPost2010Prop38
140
0.0
102
RTVSPost2010PropOp38
 70
     1
102
RTVSPost2010Prop39
140
1.0
102
RTVSPost2010PropOp39
 70
     1
102
RTVSPost2010Prop40
 90
        0
102
RTVSPost2010PropOp40
 70
     1
102
RTVSPost2010Prop41ColorIndex
 90
       18
102
RTVSPost2010Prop41ColorRGB
 90
        0
102
RTVSPost2010PropOp41
 70
     1
102
RTVSPost2010Prop42
 90
       50
102
RTVSPost2010PropOp42
 70
     1
102
RTVSPost2010Prop43
 90
        3
102
RTVSPost2010PropOp43
 70
     1
102
RTVSPost2010Prop44ColorIndex
 90
        5
102
RTVSPost2010Prop44ColorRGB
 90
      255
102
RTVSPost2010PropOp44
 70
     1
102
RTVSPost2010Prop45
280
     0
102
RTVSPost2010PropOp45
 70
     1
102
RTVSPost2010Prop46
 90
       50
102
RTVSPost2010PropOp46
 70
     1
102
RTVSPost2010Prop47
 90
       50
102
RTVSPost2010PropOp47
 70
     1
102
RTVSPost2010Prop48
 90
       50
102
RTVSPost2010PropOp48
 70
     1
102
RTVSPost2010Prop49
280
     0
102
RTVSPost2010PropOp49
 70
     1
102
RTVSPost2010Prop50
 90
       50
102
RTVSPost2010PropOp50
 70
     1
102
RTVSPost2010Prop51ColorIndex
 90
      256
102
RTVSPost2010Prop51ColorRGB
 90
-16777216
102
RTVSPost2010PropOp51
 70
     0
102
RTVSPost2010Prop52
140
1.0
102
RTVSPost2010PropOp52
 70
     0
102
RTVSPost2010Prop53
 90
        2
102
RTVSPost2010PropOp53
 70
     1
102
RTVSPost2010Prop54
  1
strokes_ogs.tif
102
RTVSPost2010PropOp54
 70
     1
102
RTVSPost2010Prop55
280
     0
102
RTVSPost2010PropOp55
 70
     1
102
RTVSPost2010Prop56
140
1.0
102
RTVSPost2010PropOp56
 70
     1
102
RTVSPost2010Prop57
140
1.0
102
RTVSPost2010PropOp57
 70
     1
102
RTVSPropertyOp0
 70
     1
102
RTVSPropertyOp1
 70
     1
102
RTVSPropertyOp2
 70
     1
102
RTVSPropertyOp3
 70
     1
102
RTVSPropertyOp4
 70
     1
102
RTVSPropertyOp5
 70
     1
102
RTVSPropertyOp6
 70
     1
102
RTVSPropertyOp7
 70
     1
102
RTVSPropertyOp8
 70
     1
102
RTVSPropertyOp9
 70
     1
102
RTVSPropertyOp10
 70
     1
102
RTVSPropertyOp11
 70
     1
102
RTVSPropertyOp12
 70
     1
102
RTVSPropertyOp13
 70
     1
102
RTVSPropertyOp14
 70
     1
102
RTVSPropertyOp15
 70
     1
102
RTVSPropertyOp16
 70
     1
102
RTVSPropertyOp17
 70
     1
102
RTVSPropertyOp18
 70
     1
102
RTVSPropertyOp19
 70
     1
102
RTVSPropertyOp20
 70
     1
102
RTVSPropertyOp21
 70
     1
102
RTVSPropertyOp22
 70
     1
102
RTVSPropertyOp23
 70
     1
102
RTVSPropertyOp24
 70
     1
102
RTVSPropertyOp25
 70
     1
102
RTVSPropertyOp26
 70
     1
102
RTVSPropertyOp27
 70
     1
102
RTVSPropertyOp28
 70
     1
102
RTVSPropertyOp29
 70
     1
102
RTVSPropertyOp30
 70
     1
102
RTVSPropertyOp31
 70
     1
102
RTVSPropertyOp32
 70
     1
102
RTVSPropertyOp33
 70
     1
102
RTVSPropertyOp34
 70
     1
102
RTVSPropertyOp35
 70
     1
102
RTVSPropertyOp36
 70
     1
102
RTVSPropertyOp37
 70
     1
102
RTVSPropertyOp38
 70
     1
102
RTVSPropertyOp39
 70
     1
102
RTVSPropertyOp40
 70
     1
102
RTVSPropertyOp41
 70
     1
102
RTVSPropertyOp42
 70
     1
102
RTVSPropertyOp43
 70
     1
102
RTVSPropertyOp44
 70
     1
102
RTVSPropertyOp45
 70
     1
102
RTVSPropertyOp46
 70
     1
102
RTVSPropertyOp47
 70
     1
102
RTVSPropertyOp48
 70
     1
102
RTVSPropertyOp49
 70
     1
102
RTVSPropertyOp50
 70
     1
102
RTVSPropertyOp51
 70
     0
102
RTVSPropertyOp52
 70
     0
102
RTVSPropertyOp53
 70
     1
102
RTVSPropertyOp54
 70
     1
102
RTVSPropertyOp55
 70
     1
102
RTVSPropertyOp56
 70
     1
102
RTVSPropertyOp57
 70
     1
102
RTVSPropertyOp58
 70
     1
102
RTVSPropertyOp59
 70
     1
102
RTVSPropertyOp60
 70
     1
102
RTVSPropertyOp61
 70
     1
102
RTVSPropertyOp62
 70
     1
  0
XRECORD
  5
AABF
102
{ACAD_REACTORS
330
AABE
102
}
330
AABE
100
AcDbXrecord
280
     1
102
RTVSPost2010Prop28
280
     0
102
RTVSPost2010PropOp28
 70
     1
102
RTVSPost2010Prop29
280
     1
102
RTVSPost2010PropOp29
 70
     1
102
RTVSPost2010Prop30
280
     1
102
RTVSPost2010PropOp30
 70
     1
102
RTVSPost2010Prop31
280
     0
102
RTVSPost2010PropOp31
 70
     1
102
RTVSPost2010Prop32
280
     0
102
RTVSPost2010PropOp32
 70
     1
102
RTVSPost2010Prop33
280
     0
102
RTVSPost2010PropOp33
 70
     1
102
RTVSPost2010Prop34
280
     0
102
RTVSPost2010PropOp34
 70
     1
102
RTVSPost2010Prop35
280
     0
102
RTVSPost2010PropOp35
 70
     1
102
RTVSPost2010Prop36
280
     0
102
RTVSPost2010PropOp36
 70
     1
102
RTVSPost2010Prop37
 90
       50
102
RTVSPost2010PropOp37
 70
     1
102
RTVSPost2010Prop38
140
0.0
102
RTVSPost2010PropOp38
 70
     1
102
RTVSPost2010Prop39
140
1.0
102
RTVSPost2010PropOp39
 70
     1
102
RTVSPost2010Prop40
 90
        0
102
RTVSPost2010PropOp40
 70
     1
102
RTVSPost2010Prop41ColorIndex
 90
       18
102
RTVSPost2010Prop41ColorRGB
 90
        0
102
RTVSPost2010PropOp41
 70
     1
102
RTVSPost2010Prop42
 90
       50
102
RTVSPost2010PropOp42
 70
     1
102
RTVSPost2010Prop43
 90
        3
102
RTVSPost2010PropOp43
 70
     1
102
RTVSPost2010Prop44ColorIndex
 90
        5
102
RTVSPost2010Prop44ColorRGB
 90
      255
102
RTVSPost2010PropOp44
 70
     1
102
RTVSPost2010Prop45
280
     0
102
RTVSPost2010PropOp45
 70
     1
102
RTVSPost2010Prop46
 90
       50
102
RTVSPost2010PropOp46
 70
     1
102
RTVSPost2010Prop47
 90
       50
102
RTVSPost2010PropOp47
 70
     1
102
RTVSPost2010Prop48
 90
       50
102
RTVSPost2010PropOp48
 70
     1
102
RTVSPost2010Prop49
280
     0
102
RTVSPost2010PropOp49
 70
     1
102
RTVSPost2010Prop50
 90
       50
102
RTVSPost2010PropOp50
 70
     1
102
RTVSPost2010Prop51ColorIndex
 90
      256
102
RTVSPost2010Prop51ColorRGB
 90
-16777216
102
RTVSPost2010PropOp51
 70
     0
102
RTVSPost2010Prop52
140
1.0
102
RTVSPost2010PropOp52
 70
     0
102
RTVSPost2010Prop53
 90
        2
102
RTVSPost2010PropOp53
 70
     1
102
RTVSPost2010Prop54
  1
strokes_ogs.tif
102
RTVSPost2010PropOp54
 70
     1
102
RTVSPost2010Prop55
280
     0
102
RTVSPost2010PropOp55
 70
     1
102
RTVSPost2010Prop56
140
1.0
102
RTVSPost2010PropOp56
 70
     1
102
RTVSPost2010Prop57
140
1.0
102
RTVSPost2010PropOp57
 70
     1
102
RTVSPropertyOp0
 70
     1
102
RTVSPropertyOp1
 70
     1
102
RTVSPropertyOp2
 70
     1
102
RTVSPropertyOp3
 70
     1
102
RTVSPropertyOp4
 70
     1
102
RTVSPropertyOp5
 70
     1
102
RTVSPropertyOp6
 70
     1
102
RTVSPropertyOp7
 70
     1
102
RTVSPropertyOp8
 70
     1
102
RTVSPropertyOp9
 70
     1
102
RTVSPropertyOp10
 70
     1
102
RTVSPropertyOp11
 70
     1
102
RTVSPropertyOp12
 70
     1
102
RTVSPropertyOp13
 70
     1
102
RTVSPropertyOp14
 70
     1
102
RTVSPropertyOp15
 70
     1
102
RTVSPropertyOp16
 70
     1
102
RTVSPropertyOp17
 70
     1
102
RTVSPropertyOp18
 70
     1
102
RTVSPropertyOp19
 70
     1
102
RTVSPropertyOp20
 70
     1
102
RTVSPropertyOp21
 70
     1
102
RTVSPropertyOp22
 70
     1
102
RTVSPropertyOp23
 70
     1
102
RTVSPropertyOp24
 70
     1
102
RTVSPropertyOp25
 70
     1
102
RTVSPropertyOp26
 70
     1
102
RTVSPropertyOp27
 70
     1
102
RTVSPropertyOp28
 70
     1
102
RTVSPropertyOp29
 70
     1
102
RTVSPropertyOp30
 70
     1
102
RTVSPropertyOp31
 70
     1
102
RTVSPropertyOp32
 70
     1
102
RTVSPropertyOp33
 70
     1
102
RTVSPropertyOp34
 70
     1
102
RTVSPropertyOp35
 70
     1
102
RTVSPropertyOp36
 70
     1
102
RTVSPropertyOp37
 70
     1
102
RTVSPropertyOp38
 70
     1
102
RTVSPropertyOp39
 70
     1
102
RTVSPropertyOp40
 70
     1
102
RTVSPropertyOp41
 70
     1
102
RTVSPropertyOp42
 70
     1
102
RTVSPropertyOp43
 70
     1
102
RTVSPropertyOp44
 70
     1
102
RTVSPropertyOp45
 70
     1
102
RTVSPropertyOp46
 70
     1
102
RTVSPropertyOp47
 70
     1
102
RTVSPropertyOp48
 70
     1
102
RTVSPropertyOp49
 70
     1
102
RTVSPropertyOp50
 70
     1
102
RTVSPropertyOp51
 70
     0
102
RTVSPropertyOp52
 70
     0
102
RTVSPropertyOp53
 70
     1
102
RTVSPropertyOp54
 70
     1
102
RTVSPropertyOp55
 70
     1
102
RTVSPropertyOp56
 70
     1
102
RTVSPropertyOp57
 70
     1
102
RTVSPropertyOp58
 70
     1
102
RTVSPropertyOp59
 70
     1
102
RTVSPropertyOp60
 70
     1
102
RTVSPropertyOp61
 70
     1
102
RTVSPropertyOp62
 70
     1
  0
XRECORD
  5
AAC1
102
{ACAD_REACTORS
330
AAC0
102
}
330
AAC0
100
AcDbXrecord
280
     1
102
RTVSPost2010Prop28
280
     0
102
RTVSPost2010PropOp28
 70
     1
102
RTVSPost2010Prop29
280
     1
102
RTVSPost2010PropOp29
 70
     1
102
RTVSPost2010Prop30
280
     1
102
RTVSPost2010PropOp30
 70
     1
102
RTVSPost2010Prop31
280
     0
102
RTVSPost2010PropOp31
 70
     1
102
RTVSPost2010Prop32
280
     0
102
RTVSPost2010PropOp32
 70
     1
102
RTVSPost2010Prop33
280
     0
102
RTVSPost2010PropOp33
 70
     1
102
RTVSPost2010Prop34
280
     0
102
RTVSPost2010PropOp34
 70
     1
102
RTVSPost2010Prop35
280
     0
102
RTVSPost2010PropOp35
 70
     1
102
RTVSPost2010Prop36
280
     0
102
RTVSPost2010PropOp36
 70
     1
102
RTVSPost2010Prop37
 90
       50
102
RTVSPost2010PropOp37
 70
     1
102
RTVSPost2010Prop38
140
0.0
102
RTVSPost2010PropOp38
 70
     1
102
RTVSPost2010Prop39
140
1.0
102
RTVSPost2010PropOp39
 70
     1
102
RTVSPost2010Prop40
 90
        0
102
RTVSPost2010PropOp40
 70
     1
102
RTVSPost2010Prop41ColorIndex
 90
       18
102
RTVSPost2010Prop41ColorRGB
 90
        0
102
RTVSPost2010PropOp41
 70
     1
102
RTVSPost2010Prop42
 90
       50
102
RTVSPost2010PropOp42
 70
     1
102
RTVSPost2010Prop43
 90
        3
102
RTVSPost2010PropOp43
 70
     1
102
RTVSPost2010Prop44ColorIndex
 90
        5
102
RTVSPost2010Prop44ColorRGB
 90
      255
102
RTVSPost2010PropOp44
 70
     1
102
RTVSPost2010Prop45
280
     0
102
RTVSPost2010PropOp45
 70
     1
102
RTVSPost2010Prop46
 90
       50
102
RTVSPost2010PropOp46
 70
     1
102
RTVSPost2010Prop47
 90
       50
102
RTVSPost2010PropOp47
 70
     1
102
RTVSPost2010Prop48
 90
       50
102
RTVSPost2010PropOp48
 70
     1
102
RTVSPost2010Prop49
280
     0
102
RTVSPost2010PropOp49
 70
     1
102
RTVSPost2010Prop50
 90
       50
102
RTVSPost2010PropOp50
 70
     1
102
RTVSPost2010Prop51ColorIndex
 90
      256
102
RTVSPost2010Prop51ColorRGB
 90
-16777216
102
RTVSPost2010PropOp51
 70
     0
102
RTVSPost2010Prop52
140
1.0
102
RTVSPost2010PropOp52
 70
     0
102
RTVSPost2010Prop53
 90
        2
102
RTVSPost2010PropOp53
 70
     1
102
RTVSPost2010Prop54
  1
strokes_ogs.tif
102
RTVSPost2010PropOp54
 70
     1
102
RTVSPost2010Prop55
280
     0
102
RTVSPost2010PropOp55
 70
     1
102
RTVSPost2010Prop56
140
1.0
102
RTVSPost2010PropOp56
 70
     1
102
RTVSPost2010Prop57
140
1.0
102
RTVSPost2010PropOp57
 70
     1
102
RTVSPropertyOp0
 70
     1
102
RTVSPropertyOp1
 70
     1
102
RTVSPropertyOp2
 70
     1
102
RTVSPropertyOp3
 70
     1
102
RTVSPropertyOp4
 70
     1
102
RTVSPropertyOp5
 70
     1
102
RTVSPropertyOp6
 70
     1
102
RTVSPropertyOp7
 70
     1
102
RTVSPropertyOp8
 70
     1
102
RTVSPropertyOp9
 70
     1
102
RTVSPropertyOp10
 70
     1
102
RTVSPropertyOp11
 70
     1
102
RTVSPropertyOp12
 70
     1
102
RTVSPropertyOp13
 70
     1
102
RTVSPropertyOp14
 70
     1
102
RTVSPropertyOp15
 70
     1
102
RTVSPropertyOp16
 70
     1
102
RTVSPropertyOp17
 70
     1
102
RTVSPropertyOp18
 70
     1
102
RTVSPropertyOp19
 70
     1
102
RTVSPropertyOp20
 70
     1
102
RTVSPropertyOp21
 70
     1
102
RTVSPropertyOp22
 70
     1
102
RTVSPropertyOp23
 70
     1
102
RTVSPropertyOp24
 70
     1
102
RTVSPropertyOp25
 70
     1
102
RTVSPropertyOp26
 70
     1
102
RTVSPropertyOp27
 70
     1
102
RTVSPropertyOp28
 70
     1
102
RTVSPropertyOp29
 70
     1
102
RTVSPropertyOp30
 70
     1
102
RTVSPropertyOp31
 70
     1
102
RTVSPropertyOp32
 70
     1
102
RTVSPropertyOp33
 70
     1
102
RTVSPropertyOp34
 70
     1
102
RTVSPropertyOp35
 70
     1
102
RTVSPropertyOp36
 70
     1
102
RTVSPropertyOp37
 70
     1
102
RTVSPropertyOp38
 70
     1
102
RTVSPropertyOp39
 70
     1
102
RTVSPropertyOp40
 70
     1
102
RTVSPropertyOp41
 70
     1
102
RTVSPropertyOp42
 70
     1
102
RTVSPropertyOp43
 70
     1
102
RTVSPropertyOp44
 70
     1
102
RTVSPropertyOp45
 70
     1
102
RTVSPropertyOp46
 70
     1
102
RTVSPropertyOp47
 70
     1
102
RTVSPropertyOp48
 70
     1
102
RTVSPropertyOp49
 70
     1
102
RTVSPropertyOp50
 70
     1
102
RTVSPropertyOp51
 70
     0
102
RTVSPropertyOp52
 70
     0
102
RTVSPropertyOp53
 70
     1
102
RTVSPropertyOp54
 70
     1
102
RTVSPropertyOp55
 70
     1
102
RTVSPropertyOp56
 70
     1
102
RTVSPropertyOp57
 70
     1
102
RTVSPropertyOp58
 70
     1
102
RTVSPropertyOp59
 70
     1
102
RTVSPropertyOp60
 70
     1
102
RTVSPropertyOp61
 70
     1
102
RTVSPropertyOp62
 70
     1
  0
XRECORD
  5
AAC3
102
{ACAD_REACTORS
330
AAC2
102
}
330
AAC2
100
AcDbXrecord
280
     1
102
RTVSPost2010Prop28
280
     0
102
RTVSPost2010PropOp28
 70
     1
102
RTVSPost2010Prop29
280
     1
102
RTVSPost2010PropOp29
 70
     1
102
RTVSPost2010Prop30
280
     1
102
RTVSPost2010PropOp30
 70
     1
102
RTVSPost2010Prop31
280
     0
102
RTVSPost2010PropOp31
 70
     1
102
RTVSPost2010Prop32
280
     0
102
RTVSPost2010PropOp32
 70
     1
102
RTVSPost2010Prop33
280
     0
102
RTVSPost2010PropOp33
 70
     1
102
RTVSPost2010Prop34
280
     0
102
RTVSPost2010PropOp34
 70
     1
102
RTVSPost2010Prop35
280
     0
102
RTVSPost2010PropOp35
 70
     1
102
RTVSPost2010Prop36
280
     0
102
RTVSPost2010PropOp36
 70
     1
102
RTVSPost2010Prop37
 90
       50
102
RTVSPost2010PropOp37
 70
     1
102
RTVSPost2010Prop38
140
0.0
102
RTVSPost2010PropOp38
 70
     1
102
RTVSPost2010Prop39
140
1.0
102
RTVSPost2010PropOp39
 70
     1
102
RTVSPost2010Prop40
 90
        0
102
RTVSPost2010PropOp40
 70
     1
102
RTVSPost2010Prop41ColorIndex
 90
       18
102
RTVSPost2010Prop41ColorRGB
 90
        0
102
RTVSPost2010PropOp41
 70
     1
102
RTVSPost2010Prop42
 90
       50
102
RTVSPost2010PropOp42
 70
     1
102
RTVSPost2010Prop43
 90
        3
102
RTVSPost2010PropOp43
 70
     1
102
RTVSPost2010Prop44ColorIndex
 90
        5
102
RTVSPost2010Prop44ColorRGB
 90
      255
102
RTVSPost2010PropOp44
 70
     1
102
RTVSPost2010Prop45
280
     0
102
RTVSPost2010PropOp45
 70
     1
102
RTVSPost2010Prop46
 90
       50
102
RTVSPost2010PropOp46
 70
     1
102
RTVSPost2010Prop47
 90
       50
102
RTVSPost2010PropOp47
 70
     1
102
RTVSPost2010Prop48
 90
       50
102
RTVSPost2010PropOp48
 70
     1
102
RTVSPost2010Prop49
280
     0
102
RTVSPost2010PropOp49
 70
     1
102
RTVSPost2010Prop50
 90
       50
102
RTVSPost2010PropOp50
 70
     1
102
RTVSPost2010Prop51ColorIndex
 90
      256
102
RTVSPost2010Prop51ColorRGB
 90
-16777216
102
RTVSPost2010PropOp51
 70
     0
102
RTVSPost2010Prop52
140
1.0
102
RTVSPost2010PropOp52
 70
     0
102
RTVSPost2010Prop53
 90
        2
102
RTVSPost2010PropOp53
 70
     1
102
RTVSPost2010Prop54
  1
strokes_ogs.tif
102
RTVSPost2010PropOp54
 70
     1
102
RTVSPost2010Prop55
280
     0
102
RTVSPost2010PropOp55
 70
     1
102
RTVSPost2010Prop56
140
1.0
102
RTVSPost2010PropOp56
 70
     1
102
RTVSPost2010Prop57
140
1.0
102
RTVSPost2010PropOp57
 70
     1
102
RTVSPropertyOp0
 70
     1
102
RTVSPropertyOp1
 70
     1
102
RTVSPropertyOp2
 70
     1
102
RTVSPropertyOp3
 70
     1
102
RTVSPropertyOp4
 70
     1
102
RTVSPropertyOp5
 70
     1
102
RTVSPropertyOp6
 70
     1
102
RTVSPropertyOp7
 70
     1
102
RTVSPropertyOp8
 70
     1
102
RTVSPropertyOp9
 70
     1
102
RTVSPropertyOp10
 70
     1
102
RTVSPropertyOp11
 70
     1
102
RTVSPropertyOp12
 70
     1
102
RTVSPropertyOp13
 70
     1
102
RTVSPropertyOp14
 70
     1
102
RTVSPropertyOp15
 70
     1
102
RTVSPropertyOp16
 70
     1
102
RTVSPropertyOp17
 70
     1
102
RTVSPropertyOp18
 70
     1
102
RTVSPropertyOp19
 70
     1
102
RTVSPropertyOp20
 70
     1
102
RTVSPropertyOp21
 70
     1
102
RTVSPropertyOp22
 70
     1
102
RTVSPropertyOp23
 70
     1
102
RTVSPropertyOp24
 70
     1
102
RTVSPropertyOp25
 70
     1
102
RTVSPropertyOp26
 70
     1
102
RTVSPropertyOp27
 70
     1
102
RTVSPropertyOp28
 70
     1
102
RTVSPropertyOp29
 70
     1
102
RTVSPropertyOp30
 70
     1
102
RTVSPropertyOp31
 70
     1
102
RTVSPropertyOp32
 70
     1
102
RTVSPropertyOp33
 70
     1
102
RTVSPropertyOp34
 70
     1
102
RTVSPropertyOp35
 70
     1
102
RTVSPropertyOp36
 70
     1
102
RTVSPropertyOp37
 70
     1
102
RTVSPropertyOp38
 70
     1
102
RTVSPropertyOp39
 70
     1
102
RTVSPropertyOp40
 70
     1
102
RTVSPropertyOp41
 70
     1
102
RTVSPropertyOp42
 70
     1
102
RTVSPropertyOp43
 70
     1
102
RTVSPropertyOp44
 70
     1
102
RTVSPropertyOp45
 70
     1
102
RTVSPropertyOp46
 70
     1
102
RTVSPropertyOp47
 70
     1
102
RTVSPropertyOp48
 70
     1
102
RTVSPropertyOp49
 70
     1
102
RTVSPropertyOp50
 70
     1
102
RTVSPropertyOp51
 70
     0
102
RTVSPropertyOp52
 70
     0
102
RTVSPropertyOp53
 70
     1
102
RTVSPropertyOp54
 70
     1
102
RTVSPropertyOp55
 70
     1
102
RTVSPropertyOp56
 70
     1
102
RTVSPropertyOp57
 70
     1
102
RTVSPropertyOp58
 70
     1
102
RTVSPropertyOp59
 70
     1
102
RTVSPropertyOp60
 70
     1
102
RTVSPropertyOp61
 70
     1
102
RTVSPropertyOp62
 70
     1
  0
XRECORD
  5
AAC5
102
{ACAD_REACTORS
330
AAC4
102
}
330
AAC4
100
AcDbXrecord
280
     1
102
RTVSPost2010Prop28
280
     0
102
RTVSPost2010PropOp28
 70
     1
102
RTVSPost2010Prop29
280
     1
102
RTVSPost2010PropOp29
 70
     1
102
RTVSPost2010Prop30
280
     1
102
RTVSPost2010PropOp30
 70
     1
102
RTVSPost2010Prop31
280
     0
102
RTVSPost2010PropOp31
 70
     1
102
RTVSPost2010Prop32
280
     0
102
RTVSPost2010PropOp32
 70
     1
102
RTVSPost2010Prop33
280
     0
102
RTVSPost2010PropOp33
 70
     1
102
RTVSPost2010Prop34
280
     0
102
RTVSPost2010PropOp34
 70
     1
102
RTVSPost2010Prop35
280
     0
102
RTVSPost2010PropOp35
 70
     1
102
RTVSPost2010Prop36
280
     0
102
RTVSPost2010PropOp36
 70
     1
102
RTVSPost2010Prop37
 90
       50
102
RTVSPost2010PropOp37
 70
     1
102
RTVSPost2010Prop38
140
0.0
102
RTVSPost2010PropOp38
 70
     1
102
RTVSPost2010Prop39
140
1.0
102
RTVSPost2010PropOp39
 70
     1
102
RTVSPost2010Prop40
 90
        0
102
RTVSPost2010PropOp40
 70
     1
102
RTVSPost2010Prop41ColorIndex
 90
       18
102
RTVSPost2010Prop41ColorRGB
 90
        0
102
RTVSPost2010PropOp41
 70
     1
102
RTVSPost2010Prop42
 90
       50
102
RTVSPost2010PropOp42
 70
     1
102
RTVSPost2010Prop43
 90
        3
102
RTVSPost2010PropOp43
 70
     1
102
RTVSPost2010Prop44ColorIndex
 90
        5
102
RTVSPost2010Prop44ColorRGB
 90
      255
102
RTVSPost2010PropOp44
 70
     1
102
RTVSPost2010Prop45
280
     0
102
RTVSPost2010PropOp45
 70
     1
102
RTVSPost2010Prop46
 90
       50
102
RTVSPost2010PropOp46
 70
     1
102
RTVSPost2010Prop47
 90
       50
102
RTVSPost2010PropOp47
 70
     1
102
RTVSPost2010Prop48
 90
       50
102
RTVSPost2010PropOp48
 70
     1
102
RTVSPost2010Prop49
280
     0
102
RTVSPost2010PropOp49
 70
     1
102
RTVSPost2010Prop50
 90
       50
102
RTVSPost2010PropOp50
 70
     1
102
RTVSPost2010Prop51ColorIndex
 90
      256
102
RTVSPost2010Prop51ColorRGB
 90
-16777216
102
RTVSPost2010PropOp51
 70
     0
102
RTVSPost2010Prop52
140
1.0
102
RTVSPost2010PropOp52
 70
     0
102
RTVSPost2010Prop53
 90
        2
102
RTVSPost2010PropOp53
 70
     1
102
RTVSPost2010Prop54
  1
strokes_ogs.tif
102
RTVSPost2010PropOp54
 70
     1
102
RTVSPost2010Prop55
280
     0
102
RTVSPost2010PropOp55
 70
     1
102
RTVSPost2010Prop56
140
1.0
102
RTVSPost2010PropOp56
 70
     1
102
RTVSPost2010Prop57
140
1.0
102
RTVSPost2010PropOp57
 70
     1
102
RTVSPropertyOp0
 70
     1
102
RTVSPropertyOp1
 70
     1
102
RTVSPropertyOp2
 70
     1
102
RTVSPropertyOp3
 70
     1
102
RTVSPropertyOp4
 70
     1
102
RTVSPropertyOp5
 70
     1
102
RTVSPropertyOp6
 70
     1
102
RTVSPropertyOp7
 70
     1
102
RTVSPropertyOp8
 70
     1
102
RTVSPropertyOp9
 70
     1
102
RTVSPropertyOp10
 70
     1
102
RTVSPropertyOp11
 70
     1
102
RTVSPropertyOp12
 70
     1
102
RTVSPropertyOp13
 70
     1
102
RTVSPropertyOp14
 70
     1
102
RTVSPropertyOp15
 70
     1
102
RTVSPropertyOp16
 70
     1
102
RTVSPropertyOp17
 70
     1
102
RTVSPropertyOp18
 70
     1
102
RTVSPropertyOp19
 70
     1
102
RTVSPropertyOp20
 70
     1
102
RTVSPropertyOp21
 70
     1
102
RTVSPropertyOp22
 70
     1
102
RTVSPropertyOp23
 70
     1
102
RTVSPropertyOp24
 70
     1
102
RTVSPropertyOp25
 70
     1
102
RTVSPropertyOp26
 70
     1
102
RTVSPropertyOp27
 70
     1
102
RTVSPropertyOp28
 70
     1
102
RTVSPropertyOp29
 70
     1
102
RTVSPropertyOp30
 70
     1
102
RTVSPropertyOp31
 70
     1
102
RTVSPropertyOp32
 70
     1
102
RTVSPropertyOp33
 70
     1
102
RTVSPropertyOp34
 70
     1
102
RTVSPropertyOp35
 70
     1
102
RTVSPropertyOp36
 70
     1
102
RTVSPropertyOp37
 70
     1
102
RTVSPropertyOp38
 70
     1
102
RTVSPropertyOp39
 70
     1
102
RTVSPropertyOp40
 70
     1
102
RTVSPropertyOp41
 70
     1
102
RTVSPropertyOp42
 70
     1
102
RTVSPropertyOp43
 70
     1
102
RTVSPropertyOp44
 70
     1
102
RTVSPropertyOp45
 70
     1
102
RTVSPropertyOp46
 70
     1
102
RTVSPropertyOp47
 70
     1
102
RTVSPropertyOp48
 70
     1
102
RTVSPropertyOp49
 70
     1
102
RTVSPropertyOp50
 70
     1
102
RTVSPropertyOp51
 70
     0
102
RTVSPropertyOp52
 70
     0
102
RTVSPropertyOp53
 70
     1
102
RTVSPropertyOp54
 70
     1
102
RTVSPropertyOp55
 70
     1
102
RTVSPropertyOp56
 70
     1
102
RTVSPropertyOp57
 70
     1
102
RTVSPropertyOp58
 70
     1
102
RTVSPropertyOp59
 70
     1
102
RTVSPropertyOp60
 70
     1
102
RTVSPropertyOp61
 70
     1
102
RTVSPropertyOp62
 70
     1
  0
XRECORD
  5
AACD
102
{ACAD_REACTORS
330
AACC
102
}
330
AACC
100
AcDbXrecord
280
     1
102
RTVSPost2010Prop28
280
     0
102
RTVSPost2010PropOp28
 70
     1
102
RTVSPost2010Prop29
280
     1
102
RTVSPost2010PropOp29
 70
     1
102
RTVSPost2010Prop30
280
     1
102
RTVSPost2010PropOp30
 70
     1
102
RTVSPost2010Prop31
280
     0
102
RTVSPost2010PropOp31
 70
     1
102
RTVSPost2010Prop32
280
     0
102
RTVSPost2010PropOp32
 70
     1
102
RTVSPost2010Prop33
280
     0
102
RTVSPost2010PropOp33
 70
     1
102
RTVSPost2010Prop34
280
     0
102
RTVSPost2010PropOp34
 70
     1
102
RTVSPost2010Prop35
280
     0
102
RTVSPost2010PropOp35
 70
     1
102
RTVSPost2010Prop36
280
     0
102
RTVSPost2010PropOp36
 70
     1
102
RTVSPost2010Prop37
 90
       50
102
RTVSPost2010PropOp37
 70
     1
102
RTVSPost2010Prop38
140
0.0
102
RTVSPost2010PropOp38
 70
     1
102
RTVSPost2010Prop39
140
1.0
102
RTVSPost2010PropOp39
 70
     1
102
RTVSPost2010Prop40
 90
        0
102
RTVSPost2010PropOp40
 70
     1
102
RTVSPost2010Prop41ColorIndex
 90
       18
102
RTVSPost2010Prop41ColorRGB
 90
        0
102
RTVSPost2010PropOp41
 70
     1
102
RTVSPost2010Prop42
 90
       50
102
RTVSPost2010PropOp42
 70
     1
102
RTVSPost2010Prop43
 90
        3
102
RTVSPost2010PropOp43
 70
     1
102
RTVSPost2010Prop44ColorIndex
 90
        5
102
RTVSPost2010Prop44ColorRGB
 90
      255
102
RTVSPost2010PropOp44
 70
     1
102
RTVSPost2010Prop45
280
     0
102
RTVSPost2010PropOp45
 70
     1
102
RTVSPost2010Prop46
 90
       50
102
RTVSPost2010PropOp46
 70
     1
102
RTVSPost2010Prop47
 90
       50
102
RTVSPost2010PropOp47
 70
     1
102
RTVSPost2010Prop48
 90
       50
102
RTVSPost2010PropOp48
 70
     1
102
RTVSPost2010Prop49
280
     0
102
RTVSPost2010PropOp49
 70
     1
102
RTVSPost2010Prop50
 90
       50
102
RTVSPost2010PropOp50
 70
     1
102
RTVSPost2010Prop51ColorIndex
 90
      256
102
RTVSPost2010Prop51ColorRGB
 90
-16777216
102
RTVSPost2010PropOp51
 70
     0
102
RTVSPost2010Prop52
140
1.0
102
RTVSPost2010PropOp52
 70
     0
102
RTVSPost2010Prop53
 90
        2
102
RTVSPost2010PropOp53
 70
     1
102
RTVSPost2010Prop54
  1
strokes_ogs.tif
102
RTVSPost2010PropOp54
 70
     1
102
RTVSPost2010Prop55
280
     0
102
RTVSPost2010PropOp55
 70
     1
102
RTVSPost2010Prop56
140
1.0
102
RTVSPost2010PropOp56
 70
     1
102
RTVSPost2010Prop57
140
1.0
102
RTVSPost2010PropOp57
 70
     1
102
RTVSPropertyOp0
 70
     1
102
RTVSPropertyOp1
 70
     1
102
RTVSPropertyOp2
 70
     1
102
RTVSPropertyOp3
 70
     1
102
RTVSPropertyOp4
 70
     1
102
RTVSPropertyOp5
 70
     1
102
RTVSPropertyOp6
 70
     1
102
RTVSPropertyOp7
 70
     1
102
RTVSPropertyOp8
 70
     1
102
RTVSPropertyOp9
 70
     1
102
RTVSPropertyOp10
 70
     1
102
RTVSPropertyOp11
 70
     1
102
RTVSPropertyOp12
 70
     1
102
RTVSPropertyOp13
 70
     1
102
RTVSPropertyOp14
 70
     1
102
RTVSPropertyOp15
 70
     1
102
RTVSPropertyOp16
 70
     1
102
RTVSPropertyOp17
 70
     1
102
RTVSPropertyOp18
 70
     1
102
RTVSPropertyOp19
 70
     1
102
RTVSPropertyOp20
 70
     1
102
RTVSPropertyOp21
 70
     1
102
RTVSPropertyOp22
 70
     1
102
RTVSPropertyOp23
 70
     1
102
RTVSPropertyOp24
 70
     1
102
RTVSPropertyOp25
 70
     1
102
RTVSPropertyOp26
 70
     1
102
RTVSPropertyOp27
 70
     1
102
RTVSPropertyOp28
 70
     1
102
RTVSPropertyOp29
 70
     1
102
RTVSPropertyOp30
 70
     1
102
RTVSPropertyOp31
 70
     1
102
RTVSPropertyOp32
 70
     1
102
RTVSPropertyOp33
 70
     1
102
RTVSPropertyOp34
 70
     1
102
RTVSPropertyOp35
 70
     1
102
RTVSPropertyOp36
 70
     1
102
RTVSPropertyOp37
 70
     1
102
RTVSPropertyOp38
 70
     1
102
RTVSPropertyOp39
 70
     1
102
RTVSPropertyOp40
 70
     1
102
RTVSPropertyOp41
 70
     1
102
RTVSPropertyOp42
 70
     1
102
RTVSPropertyOp43
 70
     1
102
RTVSPropertyOp44
 70
     1
102
RTVSPropertyOp45
 70
     1
102
RTVSPropertyOp46
 70
     1
102
RTVSPropertyOp47
 70
     1
102
RTVSPropertyOp48
 70
     1
102
RTVSPropertyOp49
 70
     1
102
RTVSPropertyOp50
 70
     1
102
RTVSPropertyOp51
 70
     0
102
RTVSPropertyOp52
 70
     0
102
RTVSPropertyOp53
 70
     1
102
RTVSPropertyOp54
 70
     1
102
RTVSPropertyOp55
 70
     1
102
RTVSPropertyOp56
 70
     1
102
RTVSPropertyOp57
 70
     1
102
RTVSPropertyOp58
 70
     1
102
RTVSPropertyOp59
 70
     1
102
RTVSPropertyOp60
 70
     1
102
RTVSPropertyOp61
 70
     1
102
RTVSPropertyOp62
 70
     1
  0
XRECORD
  5
AAE9
102
{ACAD_REACTORS
330
AAE8
102
}
330
AAE8
100
AcDbXrecord
280
     1
102
RTVSPost2010Prop28
280
     0
102
RTVSPost2010PropOp28
 70
     1
102
RTVSPost2010Prop29
280
     1
102
RTVSPost2010PropOp29
 70
     1
102
RTVSPost2010Prop30
280
     1
102
RTVSPost2010PropOp30
 70
     1
102
RTVSPost2010Prop31
280
     0
102
RTVSPost2010PropOp31
 70
     1
102
RTVSPost2010Prop32
280
     0
102
RTVSPost2010PropOp32
 70
     1
102
RTVSPost2010Prop33
280
     0
102
RTVSPost2010PropOp33
 70
     1
102
RTVSPost2010Prop34
280
     0
102
RTVSPost2010PropOp34
 70
     1
102
RTVSPost2010Prop35
280
     0
102
RTVSPost2010PropOp35
 70
     1
102
RTVSPost2010Prop36
280
     0
102
RTVSPost2010PropOp36
 70
     1
102
RTVSPost2010Prop37
 90
       50
102
RTVSPost2010PropOp37
 70
     0
102
RTVSPost2010Prop38
140
0.0
102
RTVSPost2010PropOp38
 70
     0
102
RTVSPost2010Prop39
140
1.0
102
RTVSPost2010PropOp39
 70
     0
102
RTVSPost2010Prop40
 90
        0
102
RTVSPost2010PropOp40
 70
     0
102
RTVSPost2010Prop41ColorIndex
 90
       18
102
RTVSPost2010Prop41ColorRGB
 90
        0
102
RTVSPost2010PropOp41
 70
     0
102
RTVSPost2010Prop42
 90
       50
102
RTVSPost2010PropOp42
 70
     0
102
RTVSPost2010Prop43
 90
        3
102
RTVSPost2010PropOp43
 70
     0
102
RTVSPost2010Prop44ColorIndex
 90
        5
102
RTVSPost2010Prop44ColorRGB
 90
      255
102
RTVSPost2010PropOp44
 70
     0
102
RTVSPost2010Prop45
280
     0
102
RTVSPost2010PropOp45
 70
     1
102
RTVSPost2010Prop46
 90
       50
102
RTVSPost2010PropOp46
 70
     0
102
RTVSPost2010Prop47
 90
       50
102
RTVSPost2010PropOp47
 70
     0
102
RTVSPost2010Prop48
 90
       50
102
RTVSPost2010PropOp48
 70
     0
102
RTVSPost2010Prop49
280
     0
102
RTVSPost2010PropOp49
 70
     1
102
RTVSPost2010Prop50
 90
       50
102
RTVSPost2010PropOp50
 70
     0
102
RTVSPost2010Prop51ColorIndex
 90
      256
102
RTVSPost2010Prop51ColorRGB
 90
-16777216
102
RTVSPost2010PropOp51
 70
     0
102
RTVSPost2010Prop52
140
1.0
102
RTVSPost2010PropOp52
 70
     0
102
RTVSPost2010Prop53
 90
        2
102
RTVSPost2010PropOp53
 70
     0
102
RTVSPost2010Prop54
  1
strokes_ogs.tif
102
RTVSPost2010PropOp54
 70
     0
102
RTVSPost2010Prop55
280
     0
102
RTVSPost2010PropOp55
 70
     1
102
RTVSPost2010Prop56
140
1.0
102
RTVSPost2010PropOp56
 70
     0
102
RTVSPost2010Prop57
140
1.0
102
RTVSPost2010PropOp57
 70
     0
102
RTVSPropertyOp0
 70
     0
102
RTVSPropertyOp1
 70
     0
102
RTVSPropertyOp2
 70
     0
102
RTVSPropertyOp3
 70
     0
102
RTVSPropertyOp4
 70
     0
102
RTVSPropertyOp5
 70
     0
102
RTVSPropertyOp6
 70
     0
102
RTVSPropertyOp7
 70
     0
102
RTVSPropertyOp8
 70
     0
102
RTVSPropertyOp9
 70
     0
102
RTVSPropertyOp10
 70
     0
102
RTVSPropertyOp11
 70
     0
102
RTVSPropertyOp12
 70
     0
102
RTVSPropertyOp13
 70
     0
102
RTVSPropertyOp14
 70
     2
102
RTVSPropertyOp15
 70
     0
102
RTVSPropertyOp16
 70
     0
102
RTVSPropertyOp17
 70
     0
102
RTVSPropertyOp18
 70
     0
102
RTVSPropertyOp19
 70
     0
102
RTVSPropertyOp20
 70
     0
102
RTVSPropertyOp21
 70
     0
102
RTVSPropertyOp22
 70
     0
102
RTVSPropertyOp23
 70
     0
102
RTVSPropertyOp24
 70
     0
102
RTVSPropertyOp25
 70
     0
102
RTVSPropertyOp26
 70
     0
102
RTVSPropertyOp27
 70
     0
102
RTVSPropertyOp28
 70
     1
102
RTVSPropertyOp29
 70
     1
102
RTVSPropertyOp30
 70
     1
102
RTVSPropertyOp31
 70
     1
102
RTVSPropertyOp32
 70
     1
102
RTVSPropertyOp33
 70
     1
102
RTVSPropertyOp34
 70
     1
102
RTVSPropertyOp35
 70
     1
102
RTVSPropertyOp36
 70
     1
102
RTVSPropertyOp37
 70
     0
102
RTVSPropertyOp38
 70
     0
102
RTVSPropertyOp39
 70
     0
102
RTVSPropertyOp40
 70
     0
102
RTVSPropertyOp41
 70
     0
102
RTVSPropertyOp42
 70
     0
102
RTVSPropertyOp43
 70
     0
102
RTVSPropertyOp44
 70
     0
102
RTVSPropertyOp45
 70
     1
102
RTVSPropertyOp46
 70
     0
102
RTVSPropertyOp47
 70
     0
102
RTVSPropertyOp48
 70
     0
102
RTVSPropertyOp49
 70
     1
102
RTVSPropertyOp50
 70
     0
102
RTVSPropertyOp51
 70
     0
102
RTVSPropertyOp52
 70
     0
102
RTVSPropertyOp53
 70
     0
102
RTVSPropertyOp54
 70
     0
102
RTVSPropertyOp55
 70
     1
102
RTVSPropertyOp56
 70
     0
102
RTVSPropertyOp57
 70
     0
102
RTVSPropertyOp58
 70
     0
102
RTVSPropertyOp59
 70
     0
102
RTVSPropertyOp60
 70
     0
102
RTVSPropertyOp61
 70
     0
102
RTVSPropertyOp62
 70
     0
  0
XRECORD
  5
AAD9
102
{ACAD_REACTORS
330
AAD8
102
}
330
AAD8
100
AcDbXrecord
280
     1
102
RTVSPost2010Prop28
280
     0
102
RTVSPost2010PropOp28
 70
     1
102
RTVSPost2010Prop29
280
     1
102
RTVSPost2010PropOp29
 70
     1
102
RTVSPost2010Prop30
280
     1
102
RTVSPost2010PropOp30
 70
     1
102
RTVSPost2010Prop31
280
     0
102
RTVSPost2010PropOp31
 70
     1
102
RTVSPost2010Prop32
280
     0
102
RTVSPost2010PropOp32
 70
     1
102
RTVSPost2010Prop33
280
     0
102
RTVSPost2010PropOp33
 70
     1
102
RTVSPost2010Prop34
280
     0
102
RTVSPost2010PropOp34
 70
     1
102
RTVSPost2010Prop35
280
     0
102
RTVSPost2010PropOp35
 70
     1
102
RTVSPost2010Prop36
280
     0
102
RTVSPost2010PropOp36
 70
     1
102
RTVSPost2010Prop37
 90
       50
102
RTVSPost2010PropOp37
 70
     1
102
RTVSPost2010Prop38
140
0.0
102
RTVSPost2010PropOp38
 70
     1
102
RTVSPost2010Prop39
140
1.0
102
RTVSPost2010PropOp39
 70
     1
102
RTVSPost2010Prop40
 90
        0
102
RTVSPost2010PropOp40
 70
     1
102
RTVSPost2010Prop41ColorIndex
 90
       18
102
RTVSPost2010Prop41ColorRGB
 90
        0
102
RTVSPost2010PropOp41
 70
     1
102
RTVSPost2010Prop42
 90
       50
102
RTVSPost2010PropOp42
 70
     1
102
RTVSPost2010Prop43
 90
        3
102
RTVSPost2010PropOp43
 70
     1
102
RTVSPost2010Prop44ColorIndex
 90
        5
102
RTVSPost2010Prop44ColorRGB
 90
      255
102
RTVSPost2010PropOp44
 70
     1
102
RTVSPost2010Prop45
280
     0
102
RTVSPost2010PropOp45
 70
     1
102
RTVSPost2010Prop46
 90
       50
102
RTVSPost2010PropOp46
 70
     1
102
RTVSPost2010Prop47
 90
       50
102
RTVSPost2010PropOp47
 70
     1
102
RTVSPost2010Prop48
 90
       50
102
RTVSPost2010PropOp48
 70
     1
102
RTVSPost2010Prop49
280
     0
102
RTVSPost2010PropOp49
 70
     1
102
RTVSPost2010Prop50
 90
       50
102
RTVSPost2010PropOp50
 70
     1
102
RTVSPost2010Prop51ColorIndex
 90
      256
102
RTVSPost2010Prop51ColorRGB
 90
-16777216
102
RTVSPost2010PropOp51
 70
     0
102
RTVSPost2010Prop52
140
1.0
102
RTVSPost2010PropOp52
 70
     0
102
RTVSPost2010Prop53
 90
        2
102
RTVSPost2010PropOp53
 70
     1
102
RTVSPost2010Prop54
  1
strokes_ogs.tif
102
RTVSPost2010PropOp54
 70
     1
102
RTVSPost2010Prop55
280
     0
102
RTVSPost2010PropOp55
 70
     1
102
RTVSPost2010Prop56
140
1.0
102
RTVSPost2010PropOp56
 70
     1
102
RTVSPost2010Prop57
140
1.0
102
RTVSPost2010PropOp57
 70
     1
102
RTVSPropertyOp0
 70
     1
102
RTVSPropertyOp1
 70
     1
102
RTVSPropertyOp2
 70
     1
102
RTVSPropertyOp3
 70
     1
102
RTVSPropertyOp4
 70
     1
102
RTVSPropertyOp5
 70
     1
102
RTVSPropertyOp6
 70
     1
102
RTVSPropertyOp7
 70
     1
102
RTVSPropertyOp8
 70
     1
102
RTVSPropertyOp9
 70
     1
102
RTVSPropertyOp10
 70
     1
102
RTVSPropertyOp11
 70
     1
102
RTVSPropertyOp12
 70
     1
102
RTVSPropertyOp13
 70
     1
102
RTVSPropertyOp14
 70
     1
102
RTVSPropertyOp15
 70
     1
102
RTVSPropertyOp16
 70
     1
102
RTVSPropertyOp17
 70
     1
102
RTVSPropertyOp18
 70
     1
102
RTVSPropertyOp19
 70
     1
102
RTVSPropertyOp20
 70
     1
102
RTVSPropertyOp21
 70
     1
102
RTVSPropertyOp22
 70
     1
102
RTVSPropertyOp23
 70
     1
102
RTVSPropertyOp24
 70
     1
102
RTVSPropertyOp25
 70
     1
102
RTVSPropertyOp26
 70
     1
102
RTVSPropertyOp27
 70
     1
102
RTVSPropertyOp28
 70
     1
102
RTVSPropertyOp29
 70
     1
102
RTVSPropertyOp30
 70
     1
102
RTVSPropertyOp31
 70
     1
102
RTVSPropertyOp32
 70
     1
102
RTVSPropertyOp33
 70
     1
102
RTVSPropertyOp34
 70
     1
102
RTVSPropertyOp35
 70
     1
102
RTVSPropertyOp36
 70
     1
102
RTVSPropertyOp37
 70
     1
102
RTVSPropertyOp38
 70
     1
102
RTVSPropertyOp39
 70
     1
102
RTVSPropertyOp40
 70
     1
102
RTVSPropertyOp41
 70
     1
102
RTVSPropertyOp42
 70
     1
102
RTVSPropertyOp43
 70
     1
102
RTVSPropertyOp44
 70
     1
102
RTVSPropertyOp45
 70
     1
102
RTVSPropertyOp46
 70
     1
102
RTVSPropertyOp47
 70
     1
102
RTVSPropertyOp48
 70
     1
102
RTVSPropertyOp49
 70
     1
102
RTVSPropertyOp50
 70
     1
102
RTVSPropertyOp51
 70
     0
102
RTVSPropertyOp52
 70
     0
102
RTVSPropertyOp53
 70
     1
102
RTVSPropertyOp54
 70
     1
102
RTVSPropertyOp55
 70
     1
102
RTVSPropertyOp56
 70
     1
102
RTVSPropertyOp57
 70
     1
102
RTVSPropertyOp58
 70
     1
102
RTVSPropertyOp59
 70
     1
102
RTVSPropertyOp60
 70
     1
102
RTVSPropertyOp61
 70
     1
102
RTVSPropertyOp62
 70
     1
  0
XRECORD
  5
AAEB
102
{ACAD_REACTORS
330
AAEA
102
}
330
AAEA
100
AcDbXrecord
280
     1
102
RTVSPost2010Prop28
280
     0
102
RTVSPost2010PropOp28
 70
     1
102
RTVSPost2010Prop29
280
     1
102
RTVSPost2010PropOp29
 70
     1
102
RTVSPost2010Prop30
280
     1
102
RTVSPost2010PropOp30
 70
     1
102
RTVSPost2010Prop31
280
     0
102
RTVSPost2010PropOp31
 70
     1
102
RTVSPost2010Prop32
280
     0
102
RTVSPost2010PropOp32
 70
     1
102
RTVSPost2010Prop33
280
     0
102
RTVSPost2010PropOp33
 70
     1
102
RTVSPost2010Prop34
280
     0
102
RTVSPost2010PropOp34
 70
     1
102
RTVSPost2010Prop35
280
     0
102
RTVSPost2010PropOp35
 70
     1
102
RTVSPost2010Prop36
280
     0
102
RTVSPost2010PropOp36
 70
     1
102
RTVSPost2010Prop37
 90
       50
102
RTVSPost2010PropOp37
 70
     0
102
RTVSPost2010Prop38
140
0.0
102
RTVSPost2010PropOp38
 70
     0
102
RTVSPost2010Prop39
140
1.0
102
RTVSPost2010PropOp39
 70
     0
102
RTVSPost2010Prop40
 90
        0
102
RTVSPost2010PropOp40
 70
     0
102
RTVSPost2010Prop41ColorIndex
 90
       18
102
RTVSPost2010Prop41ColorRGB
 90
        0
102
RTVSPost2010PropOp41
 70
     0
102
RTVSPost2010Prop42
 90
       50
102
RTVSPost2010PropOp42
 70
     0
102
RTVSPost2010Prop43
 90
        3
102
RTVSPost2010PropOp43
 70
     0
102
RTVSPost2010Prop44ColorIndex
 90
        5
102
RTVSPost2010Prop44ColorRGB
 90
      255
102
RTVSPost2010PropOp44
 70
     0
102
RTVSPost2010Prop45
280
     0
102
RTVSPost2010PropOp45
 70
     1
102
RTVSPost2010Prop46
 90
       50
102
RTVSPost2010PropOp46
 70
     0
102
RTVSPost2010Prop47
 90
       50
102
RTVSPost2010PropOp47
 70
     0
102
RTVSPost2010Prop48
 90
       50
102
RTVSPost2010PropOp48
 70
     0
102
RTVSPost2010Prop49
280
     0
102
RTVSPost2010PropOp49
 70
     1
102
RTVSPost2010Prop50
 90
       50
102
RTVSPost2010PropOp50
 70
     0
102
RTVSPost2010Prop51ColorIndex
 90
      256
102
RTVSPost2010Prop51ColorRGB
 90
-16777216
102
RTVSPost2010PropOp51
 70
     0
102
RTVSPost2010Prop52
140
1.0
102
RTVSPost2010PropOp52
 70
     0
102
RTVSPost2010Prop53
 90
        2
102
RTVSPost2010PropOp53
 70
     0
102
RTVSPost2010Prop54
  1
strokes_ogs.tif
102
RTVSPost2010PropOp54
 70
     0
102
RTVSPost2010Prop55
280
     0
102
RTVSPost2010PropOp55
 70
     1
102
RTVSPost2010Prop56
140
1.0
102
RTVSPost2010PropOp56
 70
     0
102
RTVSPost2010Prop57
140
1.0
102
RTVSPost2010PropOp57
 70
     0
102
RTVSPropertyOp0
 70
     0
102
RTVSPropertyOp1
 70
     0
102
RTVSPropertyOp2
 70
     0
102
RTVSPropertyOp3
 70
     0
102
RTVSPropertyOp4
 70
     0
102
RTVSPropertyOp5
 70
     0
102
RTVSPropertyOp6
 70
     0
102
RTVSPropertyOp7
 70
     0
102
RTVSPropertyOp8
 70
     0
102
RTVSPropertyOp9
 70
     0
102
RTVSPropertyOp10
 70
     0
102
RTVSPropertyOp11
 70
     0
102
RTVSPropertyOp12
 70
     0
102
RTVSPropertyOp13
 70
     0
102
RTVSPropertyOp14
 70
     2
102
RTVSPropertyOp15
 70
     0
102
RTVSPropertyOp16
 70
     0
102
RTVSPropertyOp17
 70
     0
102
RTVSPropertyOp18
 70
     0
102
RTVSPropertyOp19
 70
     0
102
RTVSPropertyOp20
 70
     0
102
RTVSPropertyOp21
 70
     0
102
RTVSPropertyOp22
 70
     0
102
RTVSPropertyOp23
 70
     0
102
RTVSPropertyOp24
 70
     0
102
RTVSPropertyOp25
 70
     0
102
RTVSPropertyOp26
 70
     0
102
RTVSPropertyOp27
 70
     0
102
RTVSPropertyOp28
 70
     1
102
RTVSPropertyOp29
 70
     1
102
RTVSPropertyOp30
 70
     1
102
RTVSPropertyOp31
 70
     1
102
RTVSPropertyOp32
 70
     1
102
RTVSPropertyOp33
 70
     1
102
RTVSPropertyOp34
 70
     1
102
RTVSPropertyOp35
 70
     1
102
RTVSPropertyOp36
 70
     1
102
RTVSPropertyOp37
 70
     0
102
RTVSPropertyOp38
 70
     0
102
RTVSPropertyOp39
 70
     0
102
RTVSPropertyOp40
 70
     0
102
RTVSPropertyOp41
 70
     0
102
RTVSPropertyOp42
 70
     0
102
RTVSPropertyOp43
 70
     0
102
RTVSPropertyOp44
 70
     0
102
RTVSPropertyOp45
 70
     1
102
RTVSPropertyOp46
 70
     0
102
RTVSPropertyOp47
 70
     0
102
RTVSPropertyOp48
 70
     0
102
RTVSPropertyOp49
 70
     1
102
RTVSPropertyOp50
 70
     0
102
RTVSPropertyOp51
 70
     0
102
RTVSPropertyOp52
 70
     0
102
RTVSPropertyOp53
 70
     0
102
RTVSPropertyOp54
 70
     0
102
RTVSPropertyOp55
 70
     1
102
RTVSPropertyOp56
 70
     0
102
RTVSPropertyOp57
 70
     0
102
RTVSPropertyOp58
 70
     0
102
RTVSPropertyOp59
 70
     0
102
RTVSPropertyOp60
 70
     0
102
RTVSPropertyOp61
 70
     0
102
RTVSPropertyOp62
 70
     0
  0
XRECORD
  5
AAD1
102
{ACAD_REACTORS
330
AAD0
102
}
330
AAD0
100
AcDbXrecord
280
     1
102
RTVSPost2010Prop28
280
     0
102
RTVSPost2010PropOp28
 70
     1
102
RTVSPost2010Prop29
280
     1
102
RTVSPost2010PropOp29
 70
     1
102
RTVSPost2010Prop30
280
     1
102
RTVSPost2010PropOp30
 70
     1
102
RTVSPost2010Prop31
280
     0
102
RTVSPost2010PropOp31
 70
     1
102
RTVSPost2010Prop32
280
     0
102
RTVSPost2010PropOp32
 70
     1
102
RTVSPost2010Prop33
280
     0
102
RTVSPost2010PropOp33
 70
     1
102
RTVSPost2010Prop34
280
     0
102
RTVSPost2010PropOp34
 70
     1
102
RTVSPost2010Prop35
280
     0
102
RTVSPost2010PropOp35
 70
     1
102
RTVSPost2010Prop36
280
     0
102
RTVSPost2010PropOp36
 70
     1
102
RTVSPost2010Prop37
 90
       50
102
RTVSPost2010PropOp37
 70
     1
102
RTVSPost2010Prop38
140
0.0
102
RTVSPost2010PropOp38
 70
     1
102
RTVSPost2010Prop39
140
1.0
102
RTVSPost2010PropOp39
 70
     1
102
RTVSPost2010Prop40
 90
        0
102
RTVSPost2010PropOp40
 70
     1
102
RTVSPost2010Prop41ColorIndex
 90
       18
102
RTVSPost2010Prop41ColorRGB
 90
        0
102
RTVSPost2010PropOp41
 70
     1
102
RTVSPost2010Prop42
 90
       50
102
RTVSPost2010PropOp42
 70
     1
102
RTVSPost2010Prop43
 90
        3
102
RTVSPost2010PropOp43
 70
     1
102
RTVSPost2010Prop44ColorIndex
 90
        5
102
RTVSPost2010Prop44ColorRGB
 90
      255
102
RTVSPost2010PropOp44
 70
     1
102
RTVSPost2010Prop45
280
     0
102
RTVSPost2010PropOp45
 70
     1
102
RTVSPost2010Prop46
 90
       50
102
RTVSPost2010PropOp46
 70
     1
102
RTVSPost2010Prop47
 90
       50
102
RTVSPost2010PropOp47
 70
     1
102
RTVSPost2010Prop48
 90
       50
102
RTVSPost2010PropOp48
 70
     1
102
RTVSPost2010Prop49
280
     0
102
RTVSPost2010PropOp49
 70
     1
102
RTVSPost2010Prop50
 90
       50
102
RTVSPost2010PropOp50
 70
     1
102
RTVSPost2010Prop51ColorIndex
 90
      256
102
RTVSPost2010Prop51ColorRGB
 90
-16777216
102
RTVSPost2010PropOp51
 70
     0
102
RTVSPost2010Prop52
140
1.0
102
RTVSPost2010PropOp52
 70
     0
102
RTVSPost2010Prop53
 90
        2
102
RTVSPost2010PropOp53
 70
     1
102
RTVSPost2010Prop54
  1
strokes_ogs.tif
102
RTVSPost2010PropOp54
 70
     1
102
RTVSPost2010Prop55
280
     0
102
RTVSPost2010PropOp55
 70
     1
102
RTVSPost2010Prop56
140
1.0
102
RTVSPost2010PropOp56
 70
     1
102
RTVSPost2010Prop57
140
1.0
102
RTVSPost2010PropOp57
 70
     1
102
RTVSPropertyOp0
 70
     1
102
RTVSPropertyOp1
 70
     1
102
RTVSPropertyOp2
 70
     1
102
RTVSPropertyOp3
 70
     1
102
RTVSPropertyOp4
 70
     1
102
RTVSPropertyOp5
 70
     1
102
RTVSPropertyOp6
 70
     1
102
RTVSPropertyOp7
 70
     1
102
RTVSPropertyOp8
 70
     1
102
RTVSPropertyOp9
 70
     1
102
RTVSPropertyOp10
 70
     1
102
RTVSPropertyOp11
 70
     1
102
RTVSPropertyOp12
 70
     1
102
RTVSPropertyOp13
 70
     1
102
RTVSPropertyOp14
 70
     1
102
RTVSPropertyOp15
 70
     1
102
RTVSPropertyOp16
 70
     1
102
RTVSPropertyOp17
 70
     1
102
RTVSPropertyOp18
 70
     1
102
RTVSPropertyOp19
 70
     1
102
RTVSPropertyOp20
 70
     1
102
RTVSPropertyOp21
 70
     1
102
RTVSPropertyOp22
 70
     1
102
RTVSPropertyOp23
 70
     1
102
RTVSPropertyOp24
 70
     1
102
RTVSPropertyOp25
 70
     1
102
RTVSPropertyOp26
 70
     1
102
RTVSPropertyOp27
 70
     1
102
RTVSPropertyOp28
 70
     1
102
RTVSPropertyOp29
 70
     1
102
RTVSPropertyOp30
 70
     1
102
RTVSPropertyOp31
 70
     1
102
RTVSPropertyOp32
 70
     1
102
RTVSPropertyOp33
 70
     1
102
RTVSPropertyOp34
 70
     1
102
RTVSPropertyOp35
 70
     1
102
RTVSPropertyOp36
 70
     1
102
RTVSPropertyOp37
 70
     1
102
RTVSPropertyOp38
 70
     1
102
RTVSPropertyOp39
 70
     1
102
RTVSPropertyOp40
 70
     1
102
RTVSPropertyOp41
 70
     1
102
RTVSPropertyOp42
 70
     1
102
RTVSPropertyOp43
 70
     1
102
RTVSPropertyOp44
 70
     1
102
RTVSPropertyOp45
 70
     1
102
RTVSPropertyOp46
 70
     1
102
RTVSPropertyOp47
 70
     1
102
RTVSPropertyOp48
 70
     1
102
RTVSPropertyOp49
 70
     1
102
RTVSPropertyOp50
 70
     1
102
RTVSPropertyOp51
 70
     0
102
RTVSPropertyOp52
 70
     0
102
RTVSPropertyOp53
 70
     1
102
RTVSPropertyOp54
 70
     1
102
RTVSPropertyOp55
 70
     1
102
RTVSPropertyOp56
 70
     1
102
RTVSPropertyOp57
 70
     1
102
RTVSPropertyOp58
 70
     1
102
RTVSPropertyOp59
 70
     1
102
RTVSPropertyOp60
 70
     1
102
RTVSPropertyOp61
 70
     1
102
RTVSPropertyOp62
 70
     1
  0
XRECORD
  5
AAE7
102
{ACAD_REACTORS
330
AAE6
102
}
330
AAE6
100
AcDbXrecord
280
     1
102
RTVSPost2010Prop28
280
     0
102
RTVSPost2010PropOp28
 70
     1
102
RTVSPost2010Prop29
280
     1
102
RTVSPost2010PropOp29
 70
     1
102
RTVSPost2010Prop30
280
     1
102
RTVSPost2010PropOp30
 70
     1
102
RTVSPost2010Prop31
280
     0
102
RTVSPost2010PropOp31
 70
     1
102
RTVSPost2010Prop32
280
     0
102
RTVSPost2010PropOp32
 70
     1
102
RTVSPost2010Prop33
280
     0
102
RTVSPost2010PropOp33
 70
     1
102
RTVSPost2010Prop34
280
     0
102
RTVSPost2010PropOp34
 70
     1
102
RTVSPost2010Prop35
280
     0
102
RTVSPost2010PropOp35
 70
     1
102
RTVSPost2010Prop36
280
     0
102
RTVSPost2010PropOp36
 70
     1
102
RTVSPost2010Prop37
 90
       50
102
RTVSPost2010PropOp37
 70
     1
102
RTVSPost2010Prop38
140
0.0
102
RTVSPost2010PropOp38
 70
     1
102
RTVSPost2010Prop39
140
1.0
102
RTVSPost2010PropOp39
 70
     1
102
RTVSPost2010Prop40
 90
        0
102
RTVSPost2010PropOp40
 70
     1
102
RTVSPost2010Prop41ColorIndex
 90
       18
102
RTVSPost2010Prop41ColorRGB
 90
        0
102
RTVSPost2010PropOp41
 70
     1
102
RTVSPost2010Prop42
 90
       50
102
RTVSPost2010PropOp42
 70
     1
102
RTVSPost2010Prop43
 90
        3
102
RTVSPost2010PropOp43
 70
     1
102
RTVSPost2010Prop44ColorIndex
 90
        5
102
RTVSPost2010Prop44ColorRGB
 90
      255
102
RTVSPost2010PropOp44
 70
     1
102
RTVSPost2010Prop45
280
     0
102
RTVSPost2010PropOp45
 70
     1
102
RTVSPost2010Prop46
 90
       50
102
RTVSPost2010PropOp46
 70
     1
102
RTVSPost2010Prop47
 90
       50
102
RTVSPost2010PropOp47
 70
     1
102
RTVSPost2010Prop48
 90
       50
102
RTVSPost2010PropOp48
 70
     1
102
RTVSPost2010Prop49
280
     0
102
RTVSPost2010PropOp49
 70
     1
102
RTVSPost2010Prop50
 90
       50
102
RTVSPost2010PropOp50
 70
     1
102
RTVSPost2010Prop51ColorIndex
 90
      256
102
RTVSPost2010Prop51ColorRGB
 90
-16777216
102
RTVSPost2010PropOp51
 70
     0
102
RTVSPost2010Prop52
140
1.0
102
RTVSPost2010PropOp52
 70
     0
102
RTVSPost2010Prop53
 90
        2
102
RTVSPost2010PropOp53
 70
     1
102
RTVSPost2010Prop54
  1
strokes_ogs.tif
102
RTVSPost2010PropOp54
 70
     1
102
RTVSPost2010Prop55
280
     0
102
RTVSPost2010PropOp55
 70
     1
102
RTVSPost2010Prop56
140
1.0
102
RTVSPost2010PropOp56
 70
     1
102
RTVSPost2010Prop57
140
1.0
102
RTVSPost2010PropOp57
 70
     1
102
RTVSPropertyOp0
 70
     1
102
RTVSPropertyOp1
 70
     1
102
RTVSPropertyOp2
 70
     1
102
RTVSPropertyOp3
 70
     1
102
RTVSPropertyOp4
 70
     1
102
RTVSPropertyOp5
 70
     1
102
RTVSPropertyOp6
 70
     1
102
RTVSPropertyOp7
 70
     1
102
RTVSPropertyOp8
 70
     1
102
RTVSPropertyOp9
 70
     1
102
RTVSPropertyOp10
 70
     1
102
RTVSPropertyOp11
 70
     1
102
RTVSPropertyOp12
 70
     1
102
RTVSPropertyOp13
 70
     1
102
RTVSPropertyOp14
 70
     1
102
RTVSPropertyOp15
 70
     1
102
RTVSPropertyOp16
 70
     1
102
RTVSPropertyOp17
 70
     1
102
RTVSPropertyOp18
 70
     1
102
RTVSPropertyOp19
 70
     1
102
RTVSPropertyOp20
 70
     1
102
RTVSPropertyOp21
 70
     1
102
RTVSPropertyOp22
 70
     1
102
RTVSPropertyOp23
 70
     1
102
RTVSPropertyOp24
 70
     1
102
RTVSPropertyOp25
 70
     1
102
RTVSPropertyOp26
 70
     1
102
RTVSPropertyOp27
 70
     1
102
RTVSPropertyOp28
 70
     1
102
RTVSPropertyOp29
 70
     1
102
RTVSPropertyOp30
 70
     1
102
RTVSPropertyOp31
 70
     1
102
RTVSPropertyOp32
 70
     1
102
RTVSPropertyOp33
 70
     1
102
RTVSPropertyOp34
 70
     1
102
RTVSPropertyOp35
 70
     1
102
RTVSPropertyOp36
 70
     1
102
RTVSPropertyOp37
 70
     1
102
RTVSPropertyOp38
 70
     1
102
RTVSPropertyOp39
 70
     1
102
RTVSPropertyOp40
 70
     1
102
RTVSPropertyOp41
 70
     1
102
RTVSPropertyOp42
 70
     1
102
RTVSPropertyOp43
 70
     1
102
RTVSPropertyOp44
 70
     1
102
RTVSPropertyOp45
 70
     1
102
RTVSPropertyOp46
 70
     1
102
RTVSPropertyOp47
 70
     1
102
RTVSPropertyOp48
 70
     1
102
RTVSPropertyOp49
 70
     1
102
RTVSPropertyOp50
 70
     1
102
RTVSPropertyOp51
 70
     0
102
RTVSPropertyOp52
 70
     0
102
RTVSPropertyOp53
 70
     1
102
RTVSPropertyOp54
 70
     1
102
RTVSPropertyOp55
 70
     1
102
RTVSPropertyOp56
 70
     1
102
RTVSPropertyOp57
 70
     1
102
RTVSPropertyOp58
 70
     1
102
RTVSPropertyOp59
 70
     1
102
RTVSPropertyOp60
 70
     1
102
RTVSPropertyOp61
 70
     1
102
RTVSPropertyOp62
 70
     1
  0
XRECORD
  5
AAE5
102
{ACAD_REACTORS
330
AAE4
102
}
330
AAE4
100
AcDbXrecord
280
     1
102
RTVSPost2010Prop28
280
     0
102
RTVSPost2010PropOp28
 70
     1
102
RTVSPost2010Prop29
280
     1
102
RTVSPost2010PropOp29
 70
     1
102
RTVSPost2010Prop30
280
     1
102
RTVSPost2010PropOp30
 70
     1
102
RTVSPost2010Prop31
280
     0
102
RTVSPost2010PropOp31
 70
     1
102
RTVSPost2010Prop32
280
     0
102
RTVSPost2010PropOp32
 70
     1
102
RTVSPost2010Prop33
280
     0
102
RTVSPost2010PropOp33
 70
     1
102
RTVSPost2010Prop34
280
     0
102
RTVSPost2010PropOp34
 70
     1
102
RTVSPost2010Prop35
280
     0
102
RTVSPost2010PropOp35
 70
     1
102
RTVSPost2010Prop36
280
     0
102
RTVSPost2010PropOp36
 70
     1
102
RTVSPost2010Prop37
 90
       50
102
RTVSPost2010PropOp37
 70
     1
102
RTVSPost2010Prop38
140
0.0
102
RTVSPost2010PropOp38
 70
     1
102
RTVSPost2010Prop39
140
1.0
102
RTVSPost2010PropOp39
 70
     1
102
RTVSPost2010Prop40
 90
        0
102
RTVSPost2010PropOp40
 70
     1
102
RTVSPost2010Prop41ColorIndex
 90
       18
102
RTVSPost2010Prop41ColorRGB
 90
        0
102
RTVSPost2010PropOp41
 70
     1
102
RTVSPost2010Prop42
 90
       50
102
RTVSPost2010PropOp42
 70
     1
102
RTVSPost2010Prop43
 90
        3
102
RTVSPost2010PropOp43
 70
     1
102
RTVSPost2010Prop44ColorIndex
 90
        5
102
RTVSPost2010Prop44ColorRGB
 90
      255
102
RTVSPost2010PropOp44
 70
     1
102
RTVSPost2010Prop45
280
     0
102
RTVSPost2010PropOp45
 70
     1
102
RTVSPost2010Prop46
 90
       50
102
RTVSPost2010PropOp46
 70
     1
102
RTVSPost2010Prop47
 90
       50
102
RTVSPost2010PropOp47
 70
     1
102
RTVSPost2010Prop48
 90
       50
102
RTVSPost2010PropOp48
 70
     1
102
RTVSPost2010Prop49
280
     0
102
RTVSPost2010PropOp49
 70
     1
102
RTVSPost2010Prop50
 90
       50
102
RTVSPost2010PropOp50
 70
     1
102
RTVSPost2010Prop51ColorIndex
 90
      256
102
RTVSPost2010Prop51ColorRGB
 90
-16777216
102
RTVSPost2010PropOp51
 70
     0
102
RTVSPost2010Prop52
140
1.0
102
RTVSPost2010PropOp52
 70
     0
102
RTVSPost2010Prop53
 90
        2
102
RTVSPost2010PropOp53
 70
     1
102
RTVSPost2010Prop54
  1
strokes_ogs.tif
102
RTVSPost2010PropOp54
 70
     1
102
RTVSPost2010Prop55
280
     0
102
RTVSPost2010PropOp55
 70
     1
102
RTVSPost2010Prop56
140
1.0
102
RTVSPost2010PropOp56
 70
     1
102
RTVSPost2010Prop57
140
1.0
102
RTVSPost2010PropOp57
 70
     1
102
RTVSPropertyOp0
 70
     1
102
RTVSPropertyOp1
 70
     1
102
RTVSPropertyOp2
 70
     1
102
RTVSPropertyOp3
 70
     1
102
RTVSPropertyOp4
 70
     1
102
RTVSPropertyOp5
 70
     1
102
RTVSPropertyOp6
 70
     1
102
RTVSPropertyOp7
 70
     1
102
RTVSPropertyOp8
 70
     1
102
RTVSPropertyOp9
 70
     1
102
RTVSPropertyOp10
 70
     1
102
RTVSPropertyOp11
 70
     1
102
RTVSPropertyOp12
 70
     1
102
RTVSPropertyOp13
 70
     1
102
RTVSPropertyOp14
 70
     1
102
RTVSPropertyOp15
 70
     1
102
RTVSPropertyOp16
 70
     1
102
RTVSPropertyOp17
 70
     1
102
RTVSPropertyOp18
 70
     1
102
RTVSPropertyOp19
 70
     1
102
RTVSPropertyOp20
 70
     1
102
RTVSPropertyOp21
 70
     1
102
RTVSPropertyOp22
 70
     1
102
RTVSPropertyOp23
 70
     1
102
RTVSPropertyOp24
 70
     1
102
RTVSPropertyOp25
 70
     1
102
RTVSPropertyOp26
 70
     1
102
RTVSPropertyOp27
 70
     1
102
RTVSPropertyOp28
 70
     1
102
RTVSPropertyOp29
 70
     1
102
RTVSPropertyOp30
 70
     1
102
RTVSPropertyOp31
 70
     1
102
RTVSPropertyOp32
 70
     1
102
RTVSPropertyOp33
 70
     1
102
RTVSPropertyOp34
 70
     1
102
RTVSPropertyOp35
 70
     1
102
RTVSPropertyOp36
 70
     1
102
RTVSPropertyOp37
 70
     1
102
RTVSPropertyOp38
 70
     1
102
RTVSPropertyOp39
 70
     1
102
RTVSPropertyOp40
 70
     1
102
RTVSPropertyOp41
 70
     1
102
RTVSPropertyOp42
 70
     1
102
RTVSPropertyOp43
 70
     1
102
RTVSPropertyOp44
 70
     1
102
RTVSPropertyOp45
 70
     1
102
RTVSPropertyOp46
 70
     1
102
RTVSPropertyOp47
 70
     1
102
RTVSPropertyOp48
 70
     1
102
RTVSPropertyOp49
 70
     1
102
RTVSPropertyOp50
 70
     1
102
RTVSPropertyOp51
 70
     0
102
RTVSPropertyOp52
 70
     0
102
RTVSPropertyOp53
 70
     1
102
RTVSPropertyOp54
 70
     1
102
RTVSPropertyOp55
 70
     1
102
RTVSPropertyOp56
 70
     1
102
RTVSPropertyOp57
 70
     1
102
RTVSPropertyOp58
 70
     1
102
RTVSPropertyOp59
 70
     1
102
RTVSPropertyOp60
 70
     1
102
RTVSPropertyOp61
 70
     1
102
RTVSPropertyOp62
 70
     1
  0
XRECORD
  5
AADF
102
{ACAD_REACTORS
330
AADE
102
}
330
AADE
100
AcDbXrecord
280
     1
102
RTVSPost2010Prop28
280
     0
102
RTVSPost2010PropOp28
 70
     1
102
RTVSPost2010Prop29
280
     1
102
RTVSPost2010PropOp29
 70
     1
102
RTVSPost2010Prop30
280
     1
102
RTVSPost2010PropOp30
 70
     1
102
RTVSPost2010Prop31
280
     0
102
RTVSPost2010PropOp31
 70
     1
102
RTVSPost2010Prop32
280
     0
102
RTVSPost2010PropOp32
 70
     1
102
RTVSPost2010Prop33
280
     0
102
RTVSPost2010PropOp33
 70
     1
102
RTVSPost2010Prop34
280
     0
102
RTVSPost2010PropOp34
 70
     1
102
RTVSPost2010Prop35
280
     0
102
RTVSPost2010PropOp35
 70
     1
102
RTVSPost2010Prop36
280
     0
102
RTVSPost2010PropOp36
 70
     1
102
RTVSPost2010Prop37
 90
       50
102
RTVSPost2010PropOp37
 70
     1
102
RTVSPost2010Prop38
140
0.0
102
RTVSPost2010PropOp38
 70
     1
102
RTVSPost2010Prop39
140
1.0
102
RTVSPost2010PropOp39
 70
     1
102
RTVSPost2010Prop40
 90
        0
102
RTVSPost2010PropOp40
 70
     1
102
RTVSPost2010Prop41ColorIndex
 90
       18
102
RTVSPost2010Prop41ColorRGB
 90
        0
102
RTVSPost2010PropOp41
 70
     1
102
RTVSPost2010Prop42
 90
       50
102
RTVSPost2010PropOp42
 70
     1
102
RTVSPost2010Prop43
 90
        3
102
RTVSPost2010PropOp43
 70
     1
102
RTVSPost2010Prop44ColorIndex
 90
        5
102
RTVSPost2010Prop44ColorRGB
 90
      255
102
RTVSPost2010PropOp44
 70
     1
102
RTVSPost2010Prop45
280
     0
102
RTVSPost2010PropOp45
 70
     1
102
RTVSPost2010Prop46
 90
       50
102
RTVSPost2010PropOp46
 70
     1
102
RTVSPost2010Prop47
 90
       50
102
RTVSPost2010PropOp47
 70
     1
102
RTVSPost2010Prop48
 90
       50
102
RTVSPost2010PropOp48
 70
     1
102
RTVSPost2010Prop49
280
     0
102
RTVSPost2010PropOp49
 70
     1
102
RTVSPost2010Prop50
 90
       50
102
RTVSPost2010PropOp50
 70
     1
102
RTVSPost2010Prop51ColorIndex
 90
      256
102
RTVSPost2010Prop51ColorRGB
 90
-16777216
102
RTVSPost2010PropOp51
 70
     0
102
RTVSPost2010Prop52
140
1.0
102
RTVSPost2010PropOp52
 70
     0
102
RTVSPost2010Prop53
 90
        2
102
RTVSPost2010PropOp53
 70
     1
102
RTVSPost2010Prop54
  1
strokes_ogs.tif
102
RTVSPost2010PropOp54
 70
     1
102
RTVSPost2010Prop55
280
     0
102
RTVSPost2010PropOp55
 70
     1
102
RTVSPost2010Prop56
140
1.0
102
RTVSPost2010PropOp56
 70
     1
102
RTVSPost2010Prop57
140
1.0
102
RTVSPost2010PropOp57
 70
     1
102
RTVSPropertyOp0
 70
     1
102
RTVSPropertyOp1
 70
     1
102
RTVSPropertyOp2
 70
     1
102
RTVSPropertyOp3
 70
     1
102
RTVSPropertyOp4
 70
     1
102
RTVSPropertyOp5
 70
     1
102
RTVSPropertyOp6
 70
     1
102
RTVSPropertyOp7
 70
     1
102
RTVSPropertyOp8
 70
     1
102
RTVSPropertyOp9
 70
     1
102
RTVSPropertyOp10
 70
     1
102
RTVSPropertyOp11
 70
     1
102
RTVSPropertyOp12
 70
     1
102
RTVSPropertyOp13
 70
     1
102
RTVSPropertyOp14
 70
     1
102
RTVSPropertyOp15
 70
     1
102
RTVSPropertyOp16
 70
     1
102
RTVSPropertyOp17
 70
     1
102
RTVSPropertyOp18
 70
     1
102
RTVSPropertyOp19
 70
     1
102
RTVSPropertyOp20
 70
     1
102
RTVSPropertyOp21
 70
     1
102
RTVSPropertyOp22
 70
     1
102
RTVSPropertyOp23
 70
     1
102
RTVSPropertyOp24
 70
     1
102
RTVSPropertyOp25
 70
     1
102
RTVSPropertyOp26
 70
     1
102
RTVSPropertyOp27
 70
     1
102
RTVSPropertyOp28
 70
     1
102
RTVSPropertyOp29
 70
     1
102
RTVSPropertyOp30
 70
     1
102
RTVSPropertyOp31
 70
     1
102
RTVSPropertyOp32
 70
     1
102
RTVSPropertyOp33
 70
     1
102
RTVSPropertyOp34
 70
     1
102
RTVSPropertyOp35
 70
     1
102
RTVSPropertyOp36
 70
     1
102
RTVSPropertyOp37
 70
     1
102
RTVSPropertyOp38
 70
     1
102
RTVSPropertyOp39
 70
     1
102
RTVSPropertyOp40
 70
     1
102
RTVSPropertyOp41
 70
     1
102
RTVSPropertyOp42
 70
     1
102
RTVSPropertyOp43
 70
     1
102
RTVSPropertyOp44
 70
     1
102
RTVSPropertyOp45
 70
     1
102
RTVSPropertyOp46
 70
     1
102
RTVSPropertyOp47
 70
     1
102
RTVSPropertyOp48
 70
     1
102
RTVSPropertyOp49
 70
     1
102
RTVSPropertyOp50
 70
     1
102
RTVSPropertyOp51
 70
     0
102
RTVSPropertyOp52
 70
     0
102
RTVSPropertyOp53
 70
     1
102
RTVSPropertyOp54
 70
     1
102
RTVSPropertyOp55
 70
     1
102
RTVSPropertyOp56
 70
     1
102
RTVSPropertyOp57
 70
     1
102
RTVSPropertyOp58
 70
     1
102
RTVSPropertyOp59
 70
     1
102
RTVSPropertyOp60
 70
     1
102
RTVSPropertyOp61
 70
     1
102
RTVSPropertyOp62
 70
     1
  0
XRECORD
  5
AAE1
102
{ACAD_REACTORS
330
AAE0
102
}
330
AAE0
100
AcDbXrecord
280
     1
102
RTVSPost2010Prop28
280
     0
102
RTVSPost2010PropOp28
 70
     1
102
RTVSPost2010Prop29
280
     1
102
RTVSPost2010PropOp29
 70
     1
102
RTVSPost2010Prop30
280
     1
102
RTVSPost2010PropOp30
 70
     1
102
RTVSPost2010Prop31
280
     0
102
RTVSPost2010PropOp31
 70
     1
102
RTVSPost2010Prop32
280
     0
102
RTVSPost2010PropOp32
 70
     1
102
RTVSPost2010Prop33
280
     0
102
RTVSPost2010PropOp33
 70
     1
102
RTVSPost2010Prop34
280
     0
102
RTVSPost2010PropOp34
 70
     1
102
RTVSPost2010Prop35
280
     0
102
RTVSPost2010PropOp35
 70
     1
102
RTVSPost2010Prop36
280
     0
102
RTVSPost2010PropOp36
 70
     1
102
RTVSPost2010Prop37
 90
       50
102
RTVSPost2010PropOp37
 70
     1
102
RTVSPost2010Prop38
140
0.0
102
RTVSPost2010PropOp38
 70
     1
102
RTVSPost2010Prop39
140
1.0
102
RTVSPost2010PropOp39
 70
     1
102
RTVSPost2010Prop40
 90
        0
102
RTVSPost2010PropOp40
 70
     1
102
RTVSPost2010Prop41ColorIndex
 90
       18
102
RTVSPost2010Prop41ColorRGB
 90
        0
102
RTVSPost2010PropOp41
 70
     1
102
RTVSPost2010Prop42
 90
       50
102
RTVSPost2010PropOp42
 70
     1
102
RTVSPost2010Prop43
 90
        3
102
RTVSPost2010PropOp43
 70
     1
102
RTVSPost2010Prop44ColorIndex
 90
        5
102
RTVSPost2010Prop44ColorRGB
 90
      255
102
RTVSPost2010PropOp44
 70
     1
102
RTVSPost2010Prop45
280
     0
102
RTVSPost2010PropOp45
 70
     1
102
RTVSPost2010Prop46
 90
       50
102
RTVSPost2010PropOp46
 70
     1
102
RTVSPost2010Prop47
 90
       50
102
RTVSPost2010PropOp47
 70
     1
102
RTVSPost2010Prop48
 90
       50
102
RTVSPost2010PropOp48
 70
     1
102
RTVSPost2010Prop49
280
     0
102
RTVSPost2010PropOp49
 70
     1
102
RTVSPost2010Prop50
 90
       50
102
RTVSPost2010PropOp50
 70
     1
102
RTVSPost2010Prop51ColorIndex
 90
      256
102
RTVSPost2010Prop51ColorRGB
 90
-16777216
102
RTVSPost2010PropOp51
 70
     0
102
RTVSPost2010Prop52
140
1.0
102
RTVSPost2010PropOp52
 70
     0
102
RTVSPost2010Prop53
 90
        2
102
RTVSPost2010PropOp53
 70
     1
102
RTVSPost2010Prop54
  1
strokes_ogs.tif
102
RTVSPost2010PropOp54
 70
     1
102
RTVSPost2010Prop55
280
     0
102
RTVSPost2010PropOp55
 70
     1
102
RTVSPost2010Prop56
140
1.0
102
RTVSPost2010PropOp56
 70
     1
102
RTVSPost2010Prop57
140
1.0
102
RTVSPost2010PropOp57
 70
     1
102
RTVSPropertyOp0
 70
     1
102
RTVSPropertyOp1
 70
     1
102
RTVSPropertyOp2
 70
     1
102
RTVSPropertyOp3
 70
     1
102
RTVSPropertyOp4
 70
     1
102
RTVSPropertyOp5
 70
     1
102
RTVSPropertyOp6
 70
     1
102
RTVSPropertyOp7
 70
     1
102
RTVSPropertyOp8
 70
     1
102
RTVSPropertyOp9
 70
     1
102
RTVSPropertyOp10
 70
     1
102
RTVSPropertyOp11
 70
     1
102
RTVSPropertyOp12
 70
     1
102
RTVSPropertyOp13
 70
     1
102
RTVSPropertyOp14
 70
     1
102
RTVSPropertyOp15
 70
     1
102
RTVSPropertyOp16
 70
     1
102
RTVSPropertyOp17
 70
     1
102
RTVSPropertyOp18
 70
     1
102
RTVSPropertyOp19
 70
     1
102
RTVSPropertyOp20
 70
     1
102
RTVSPropertyOp21
 70
     1
102
RTVSPropertyOp22
 70
     1
102
RTVSPropertyOp23
 70
     1
102
RTVSPropertyOp24
 70
     1
102
RTVSPropertyOp25
 70
     1
102
RTVSPropertyOp26
 70
     1
102
RTVSPropertyOp27
 70
     1
102
RTVSPropertyOp28
 70
     1
102
RTVSPropertyOp29
 70
     1
102
RTVSPropertyOp30
 70
     1
102
RTVSPropertyOp31
 70
     1
102
RTVSPropertyOp32
 70
     1
102
RTVSPropertyOp33
 70
     1
102
RTVSPropertyOp34
 70
     1
102
RTVSPropertyOp35
 70
     1
102
RTVSPropertyOp36
 70
     1
102
RTVSPropertyOp37
 70
     1
102
RTVSPropertyOp38
 70
     1
102
RTVSPropertyOp39
 70
     1
102
RTVSPropertyOp40
 70
     1
102
RTVSPropertyOp41
 70
     1
102
RTVSPropertyOp42
 70
     1
102
RTVSPropertyOp43
 70
     1
102
RTVSPropertyOp44
 70
     1
102
RTVSPropertyOp45
 70
     1
102
RTVSPropertyOp46
 70
     1
102
RTVSPropertyOp47
 70
     1
102
RTVSPropertyOp48
 70
     1
102
RTVSPropertyOp49
 70
     1
102
RTVSPropertyOp50
 70
     1
102
RTVSPropertyOp51
 70
     0
102
RTVSPropertyOp52
 70
     0
102
RTVSPropertyOp53
 70
     1
102
RTVSPropertyOp54
 70
     1
102
RTVSPropertyOp55
 70
     1
102
RTVSPropertyOp56
 70
     1
102
RTVSPropertyOp57
 70
     1
102
RTVSPropertyOp58
 70
     1
102
RTVSPropertyOp59
 70
     1
102
RTVSPropertyOp60
 70
     1
102
RTVSPropertyOp61
 70
     1
102
RTVSPropertyOp62
 70
     1
  0
XRECORD
  5
AAD7
102
{ACAD_REACTORS
330
AAD6
102
}
330
AAD6
100
AcDbXrecord
280
     1
102
RTVSPost2010Prop28
280
     0
102
RTVSPost2010PropOp28
 70
     1
102
RTVSPost2010Prop29
280
     1
102
RTVSPost2010PropOp29
 70
     1
102
RTVSPost2010Prop30
280
     1
102
RTVSPost2010PropOp30
 70
     1
102
RTVSPost2010Prop31
280
     0
102
RTVSPost2010PropOp31
 70
     1
102
RTVSPost2010Prop32
280
     0
102
RTVSPost2010PropOp32
 70
     1
102
RTVSPost2010Prop33
280
     0
102
RTVSPost2010PropOp33
 70
     1
102
RTVSPost2010Prop34
280
     0
102
RTVSPost2010PropOp34
 70
     1
102
RTVSPost2010Prop35
280
     0
102
RTVSPost2010PropOp35
 70
     1
102
RTVSPost2010Prop36
280
     0
102
RTVSPost2010PropOp36
 70
     1
102
RTVSPost2010Prop37
 90
       50
102
RTVSPost2010PropOp37
 70
     1
102
RTVSPost2010Prop38
140
0.0
102
RTVSPost2010PropOp38
 70
     1
102
RTVSPost2010Prop39
140
1.0
102
RTVSPost2010PropOp39
 70
     1
102
RTVSPost2010Prop40
 90
        0
102
RTVSPost2010PropOp40
 70
     1
102
RTVSPost2010Prop41ColorIndex
 90
       18
102
RTVSPost2010Prop41ColorRGB
 90
        0
102
RTVSPost2010PropOp41
 70
     1
102
RTVSPost2010Prop42
 90
       50
102
RTVSPost2010PropOp42
 70
     1
102
RTVSPost2010Prop43
 90
        3
102
RTVSPost2010PropOp43
 70
     1
102
RTVSPost2010Prop44ColorIndex
 90
        5
102
RTVSPost2010Prop44ColorRGB
 90
      255
102
RTVSPost2010PropOp44
 70
     1
102
RTVSPost2010Prop45
280
     0
102
RTVSPost2010PropOp45
 70
     1
102
RTVSPost2010Prop46
 90
       50
102
RTVSPost2010PropOp46
 70
     1
102
RTVSPost2010Prop47
 90
       50
102
RTVSPost2010PropOp47
 70
     1
102
RTVSPost2010Prop48
 90
       50
102
RTVSPost2010PropOp48
 70
     1
102
RTVSPost2010Prop49
280
     0
102
RTVSPost2010PropOp49
 70
     1
102
RTVSPost2010Prop50
 90
       50
102
RTVSPost2010PropOp50
 70
     1
102
RTVSPost2010Prop51ColorIndex
 90
      256
102
RTVSPost2010Prop51ColorRGB
 90
-16777216
102
RTVSPost2010PropOp51
 70
     0
102
RTVSPost2010Prop52
140
1.0
102
RTVSPost2010PropOp52
 70
     0
102
RTVSPost2010Prop53
 90
        2
102
RTVSPost2010PropOp53
 70
     1
102
RTVSPost2010Prop54
  1
strokes_ogs.tif
102
RTVSPost2010PropOp54
 70
     1
102
RTVSPost2010Prop55
280
     0
102
RTVSPost2010PropOp55
 70
     1
102
RTVSPost2010Prop56
140
1.0
102
RTVSPost2010PropOp56
 70
     1
102
RTVSPost2010Prop57
140
1.0
102
RTVSPost2010PropOp57
 70
     1
102
RTVSPropertyOp0
 70
     1
102
RTVSPropertyOp1
 70
     1
102
RTVSPropertyOp2
 70
     1
102
RTVSPropertyOp3
 70
     1
102
RTVSPropertyOp4
 70
     1
102
RTVSPropertyOp5
 70
     1
102
RTVSPropertyOp6
 70
     1
102
RTVSPropertyOp7
 70
     1
102
RTVSPropertyOp8
 70
     1
102
RTVSPropertyOp9
 70
     1
102
RTVSPropertyOp10
 70
     1
102
RTVSPropertyOp11
 70
     1
102
RTVSPropertyOp12
 70
     1
102
RTVSPropertyOp13
 70
     1
102
RTVSPropertyOp14
 70
     1
102
RTVSPropertyOp15
 70
     1
102
RTVSPropertyOp16
 70
     1
102
RTVSPropertyOp17
 70
     1
102
RTVSPropertyOp18
 70
     1
102
RTVSPropertyOp19
 70
     1
102
RTVSPropertyOp20
 70
     1
102
RTVSPropertyOp21
 70
     1
102
RTVSPropertyOp22
 70
     1
102
RTVSPropertyOp23
 70
     1
102
RTVSPropertyOp24
 70
     1
102
RTVSPropertyOp25
 70
     1
102
RTVSPropertyOp26
 70
     1
102
RTVSPropertyOp27
 70
     1
102
RTVSPropertyOp28
 70
     1
102
RTVSPropertyOp29
 70
     1
102
RTVSPropertyOp30
 70
     1
102
RTVSPropertyOp31
 70
     1
102
RTVSPropertyOp32
 70
     1
102
RTVSPropertyOp33
 70
     1
102
RTVSPropertyOp34
 70
     1
102
RTVSPropertyOp35
 70
     1
102
RTVSPropertyOp36
 70
     1
102
RTVSPropertyOp37
 70
     1
102
RTVSPropertyOp38
 70
     1
102
RTVSPropertyOp39
 70
     1
102
RTVSPropertyOp40
 70
     1
102
RTVSPropertyOp41
 70
     1
102
RTVSPropertyOp42
 70
     1
102
RTVSPropertyOp43
 70
     1
102
RTVSPropertyOp44
 70
     1
102
RTVSPropertyOp45
 70
     1
102
RTVSPropertyOp46
 70
     1
102
RTVSPropertyOp47
 70
     1
102
RTVSPropertyOp48
 70
     1
102
RTVSPropertyOp49
 70
     1
102
RTVSPropertyOp50
 70
     1
102
RTVSPropertyOp51
 70
     0
102
RTVSPropertyOp52
 70
     0
102
RTVSPropertyOp53
 70
     1
102
RTVSPropertyOp54
 70
     1
102
RTVSPropertyOp55
 70
     1
102
RTVSPropertyOp56
 70
     1
102
RTVSPropertyOp57
 70
     1
102
RTVSPropertyOp58
 70
     1
102
RTVSPropertyOp59
 70
     1
102
RTVSPropertyOp60
 70
     1
102
RTVSPropertyOp61
 70
     1
102
RTVSPropertyOp62
 70
     1
  0
XRECORD
  5
AACB
102
{ACAD_REACTORS
330
AACA
102
}
330
AACA
100
AcDbXrecord
280
     1
102
RTVSPost2010Prop28
280
     0
102
RTVSPost2010PropOp28
 70
     1
102
RTVSPost2010Prop29
280
     1
102
RTVSPost2010PropOp29
 70
     1
102
RTVSPost2010Prop30
280
     1
102
RTVSPost2010PropOp30
 70
     1
102
RTVSPost2010Prop31
280
     0
102
RTVSPost2010PropOp31
 70
     1
102
RTVSPost2010Prop32
280
     0
102
RTVSPost2010PropOp32
 70
     1
102
RTVSPost2010Prop33
280
     0
102
RTVSPost2010PropOp33
 70
     1
102
RTVSPost2010Prop34
280
     0
102
RTVSPost2010PropOp34
 70
     1
102
RTVSPost2010Prop35
280
     0
102
RTVSPost2010PropOp35
 70
     1
102
RTVSPost2010Prop36
280
     0
102
RTVSPost2010PropOp36
 70
     1
102
RTVSPost2010Prop37
 90
       50
102
RTVSPost2010PropOp37
 70
     1
102
RTVSPost2010Prop38
140
0.0
102
RTVSPost2010PropOp38
 70
     1
102
RTVSPost2010Prop39
140
1.0
102
RTVSPost2010PropOp39
 70
     1
102
RTVSPost2010Prop40
 90
        0
102
RTVSPost2010PropOp40
 70
     1
102
RTVSPost2010Prop41ColorIndex
 90
       18
102
RTVSPost2010Prop41ColorRGB
 90
        0
102
RTVSPost2010PropOp41
 70
     1
102
RTVSPost2010Prop42
 90
       50
102
RTVSPost2010PropOp42
 70
     1
102
RTVSPost2010Prop43
 90
        3
102
RTVSPost2010PropOp43
 70
     1
102
RTVSPost2010Prop44ColorIndex
 90
        5
102
RTVSPost2010Prop44ColorRGB
 90
      255
102
RTVSPost2010PropOp44
 70
     1
102
RTVSPost2010Prop45
280
     0
102
RTVSPost2010PropOp45
 70
     1
102
RTVSPost2010Prop46
 90
       50
102
RTVSPost2010PropOp46
 70
     1
102
RTVSPost2010Prop47
 90
       50
102
RTVSPost2010PropOp47
 70
     1
102
RTVSPost2010Prop48
 90
       50
102
RTVSPost2010PropOp48
 70
     1
102
RTVSPost2010Prop49
280
     0
102
RTVSPost2010PropOp49
 70
     1
102
RTVSPost2010Prop50
 90
       50
102
RTVSPost2010PropOp50
 70
     1
102
RTVSPost2010Prop51ColorIndex
 90
      256
102
RTVSPost2010Prop51ColorRGB
 90
-16777216
102
RTVSPost2010PropOp51
 70
     0
102
RTVSPost2010Prop52
140
1.0
102
RTVSPost2010PropOp52
 70
     0
102
RTVSPost2010Prop53
 90
        2
102
RTVSPost2010PropOp53
 70
     1
102
RTVSPost2010Prop54
  1
strokes_ogs.tif
102
RTVSPost2010PropOp54
 70
     1
102
RTVSPost2010Prop55
280
     0
102
RTVSPost2010PropOp55
 70
     1
102
RTVSPost2010Prop56
140
1.0
102
RTVSPost2010PropOp56
 70
     1
102
RTVSPost2010Prop57
140
1.0
102
RTVSPost2010PropOp57
 70
     1
102
RTVSPropertyOp0
 70
     1
102
RTVSPropertyOp1
 70
     1
102
RTVSPropertyOp2
 70
     1
102
RTVSPropertyOp3
 70
     1
102
RTVSPropertyOp4
 70
     1
102
RTVSPropertyOp5
 70
     1
102
RTVSPropertyOp6
 70
     1
102
RTVSPropertyOp7
 70
     1
102
RTVSPropertyOp8
 70
     1
102
RTVSPropertyOp9
 70
     1
102
RTVSPropertyOp10
 70
     1
102
RTVSPropertyOp11
 70
     1
102
RTVSPropertyOp12
 70
     1
102
RTVSPropertyOp13
 70
     1
102
RTVSPropertyOp14
 70
     1
102
RTVSPropertyOp15
 70
     1
102
RTVSPropertyOp16
 70
     1
102
RTVSPropertyOp17
 70
     1
102
RTVSPropertyOp18
 70
     1
102
RTVSPropertyOp19
 70
     1
102
RTVSPropertyOp20
 70
     1
102
RTVSPropertyOp21
 70
     1
102
RTVSPropertyOp22
 70
     1
102
RTVSPropertyOp23
 70
     1
102
RTVSPropertyOp24
 70
     1
102
RTVSPropertyOp25
 70
     1
102
RTVSPropertyOp26
 70
     1
102
RTVSPropertyOp27
 70
     1
102
RTVSPropertyOp28
 70
     1
102
RTVSPropertyOp29
 70
     1
102
RTVSPropertyOp30
 70
     1
102
RTVSPropertyOp31
 70
     1
102
RTVSPropertyOp32
 70
     1
102
RTVSPropertyOp33
 70
     1
102
RTVSPropertyOp34
 70
     1
102
RTVSPropertyOp35
 70
     1
102
RTVSPropertyOp36
 70
     1
102
RTVSPropertyOp37
 70
     1
102
RTVSPropertyOp38
 70
     1
102
RTVSPropertyOp39
 70
     1
102
RTVSPropertyOp40
 70
     1
102
RTVSPropertyOp41
 70
     1
102
RTVSPropertyOp42
 70
     1
102
RTVSPropertyOp43
 70
     1
102
RTVSPropertyOp44
 70
     1
102
RTVSPropertyOp45
 70
     1
102
RTVSPropertyOp46
 70
     1
102
RTVSPropertyOp47
 70
     1
102
RTVSPropertyOp48
 70
     1
102
RTVSPropertyOp49
 70
     1
102
RTVSPropertyOp50
 70
     1
102
RTVSPropertyOp51
 70
     0
102
RTVSPropertyOp52
 70
     0
102
RTVSPropertyOp53
 70
     1
102
RTVSPropertyOp54
 70
     1
102
RTVSPropertyOp55
 70
     1
102
RTVSPropertyOp56
 70
     1
102
RTVSPropertyOp57
 70
     1
102
RTVSPropertyOp58
 70
     1
102
RTVSPropertyOp59
 70
     1
102
RTVSPropertyOp60
 70
     1
102
RTVSPropertyOp61
 70
     1
102
RTVSPropertyOp62
 70
     1
  0
XRECORD
  5
AAE3
102
{ACAD_REACTORS
330
AAE2
102
}
330
AAE2
100
AcDbXrecord
280
     1
102
RTVSPost2010Prop28
280
     0
102
RTVSPost2010PropOp28
 70
     1
102
RTVSPost2010Prop29
280
     1
102
RTVSPost2010PropOp29
 70
     1
102
RTVSPost2010Prop30
280
     1
102
RTVSPost2010PropOp30
 70
     1
102
RTVSPost2010Prop31
280
     0
102
RTVSPost2010PropOp31
 70
     1
102
RTVSPost2010Prop32
280
     0
102
RTVSPost2010PropOp32
 70
     1
102
RTVSPost2010Prop33
280
     0
102
RTVSPost2010PropOp33
 70
     1
102
RTVSPost2010Prop34
280
     0
102
RTVSPost2010PropOp34
 70
     1
102
RTVSPost2010Prop35
280
     0
102
RTVSPost2010PropOp35
 70
     1
102
RTVSPost2010Prop36
280
     0
102
RTVSPost2010PropOp36
 70
     1
102
RTVSPost2010Prop37
 90
       50
102
RTVSPost2010PropOp37
 70
     1
102
RTVSPost2010Prop38
140
0.0
102
RTVSPost2010PropOp38
 70
     1
102
RTVSPost2010Prop39
140
1.0
102
RTVSPost2010PropOp39
 70
     1
102
RTVSPost2010Prop40
 90
        0
102
RTVSPost2010PropOp40
 70
     1
102
RTVSPost2010Prop41ColorIndex
 90
       18
102
RTVSPost2010Prop41ColorRGB
 90
        0
102
RTVSPost2010PropOp41
 70
     1
102
RTVSPost2010Prop42
 90
       50
102
RTVSPost2010PropOp42
 70
     1
102
RTVSPost2010Prop43
 90
        3
102
RTVSPost2010PropOp43
 70
     1
102
RTVSPost2010Prop44ColorIndex
 90
        5
102
RTVSPost2010Prop44ColorRGB
 90
      255
102
RTVSPost2010PropOp44
 70
     1
102
RTVSPost2010Prop45
280
     0
102
RTVSPost2010PropOp45
 70
     1
102
RTVSPost2010Prop46
 90
       50
102
RTVSPost2010PropOp46
 70
     1
102
RTVSPost2010Prop47
 90
       50
102
RTVSPost2010PropOp47
 70
     1
102
RTVSPost2010Prop48
 90
       50
102
RTVSPost2010PropOp48
 70
     1
102
RTVSPost2010Prop49
280
     0
102
RTVSPost2010PropOp49
 70
     1
102
RTVSPost2010Prop50
 90
       50
102
RTVSPost2010PropOp50
 70
     1
102
RTVSPost2010Prop51ColorIndex
 90
      256
102
RTVSPost2010Prop51ColorRGB
 90
-16777216
102
RTVSPost2010PropOp51
 70
     0
102
RTVSPost2010Prop52
140
1.0
102
RTVSPost2010PropOp52
 70
     0
102
RTVSPost2010Prop53
 90
        2
102
RTVSPost2010PropOp53
 70
     1
102
RTVSPost2010Prop54
  1
strokes_ogs.tif
102
RTVSPost2010PropOp54
 70
     1
102
RTVSPost2010Prop55
280
     0
102
RTVSPost2010PropOp55
 70
     1
102
RTVSPost2010Prop56
140
1.0
102
RTVSPost2010PropOp56
 70
     1
102
RTVSPost2010Prop57
140
1.0
102
RTVSPost2010PropOp57
 70
     1
102
RTVSPropertyOp0
 70
     1
102
RTVSPropertyOp1
 70
     1
102
RTVSPropertyOp2
 70
     1
102
RTVSPropertyOp3
 70
     1
102
RTVSPropertyOp4
 70
     1
102
RTVSPropertyOp5
 70
     1
102
RTVSPropertyOp6
 70
     1
102
RTVSPropertyOp7
 70
     1
102
RTVSPropertyOp8
 70
     1
102
RTVSPropertyOp9
 70
     1
102
RTVSPropertyOp10
 70
     1
102
RTVSPropertyOp11
 70
     1
102
RTVSPropertyOp12
 70
     1
102
RTVSPropertyOp13
 70
     1
102
RTVSPropertyOp14
 70
     1
102
RTVSPropertyOp15
 70
     1
102
RTVSPropertyOp16
 70
     1
102
RTVSPropertyOp17
 70
     1
102
RTVSPropertyOp18
 70
     1
102
RTVSPropertyOp19
 70
     1
102
RTVSPropertyOp20
 70
     1
102
RTVSPropertyOp21
 70
     1
102
RTVSPropertyOp22
 70
     1
102
RTVSPropertyOp23
 70
     1
102
RTVSPropertyOp24
 70
     1
102
RTVSPropertyOp25
 70
     1
102
RTVSPropertyOp26
 70
     1
102
RTVSPropertyOp27
 70
     1
102
RTVSPropertyOp28
 70
     1
102
RTVSPropertyOp29
 70
     1
102
RTVSPropertyOp30
 70
     1
102
RTVSPropertyOp31
 70
     1
102
RTVSPropertyOp32
 70
     1
102
RTVSPropertyOp33
 70
     1
102
RTVSPropertyOp34
 70
     1
102
RTVSPropertyOp35
 70
     1
102
RTVSPropertyOp36
 70
     1
102
RTVSPropertyOp37
 70
     1
102
RTVSPropertyOp38
 70
     1
102
RTVSPropertyOp39
 70
     1
102
RTVSPropertyOp40
 70
     1
102
RTVSPropertyOp41
 70
     1
102
RTVSPropertyOp42
 70
     1
102
RTVSPropertyOp43
 70
     1
102
RTVSPropertyOp44
 70
     1
102
RTVSPropertyOp45
 70
     1
102
RTVSPropertyOp46
 70
     1
102
RTVSPropertyOp47
 70
     1
102
RTVSPropertyOp48
 70
     1
102
RTVSPropertyOp49
 70
     1
102
RTVSPropertyOp50
 70
     1
102
RTVSPropertyOp51
 70
     0
102
RTVSPropertyOp52
 70
     0
102
RTVSPropertyOp53
 70
     1
102
RTVSPropertyOp54
 70
     1
102
RTVSPropertyOp55
 70
     1
102
RTVSPropertyOp56
 70
     1
102
RTVSPropertyOp57
 70
     1
102
RTVSPropertyOp58
 70
     1
102
RTVSPropertyOp59
 70
     1
102
RTVSPropertyOp60
 70
     1
102
RTVSPropertyOp61
 70
     1
102
RTVSPropertyOp62
 70
     1
  0
ENDSEC
  0
EOF
