  0
SECTION
  2
HEADER
  9
$ACADVER
  1
AC1015
  9
$ACADMAINTVER
 70
    20
  9
$DWGCODEPAGE
  3
ANSI_932
  9
$INSBASE
 10
0.0
 20
0.0
 30
0.0
  9
$EXTMIN
 10
10.0
 20
9.999999999999998
 30
0.0
  9
$EXTMAX
 10
566.2311479999998
 20
474.8442299999998
 30
0.0
  9
$LIMMIN
 10
0.0
 20
0.0
  9
$LIMMAX
 10
792.0
 20
546.0
  9
$ORTHOMODE
 70
     1
  9
$REGENMODE
 70
     1
  9
$FILLMODE
 70
     1
  9
$QTEXTMODE
 70
     0
  9
$MIRRTEXT
 70
     1
  9
$LTSCALE
 40
20.0
  9
$ATTMODE
 70
     1
  9
$TEXTSIZE
 40
5.0
  9
$TRACEWID
 40
1.0
  9
$TEXTSTYLE
  7
STANDARD
  9
$CLAYER
  8
0
  9
$CELTYPE
  6
BYLAYER
  9
$CECOLOR
 62
   256
  9
$CELTSCALE
 40
1.0
  9
$DISPSILH
 70
     0
  9
$DIMSCALE
 40
1.0
  9
$DIMASZ
 40
3.0
  9
$DIMEXO
 40
1.0
  9
$DIMDLI
 40
10.0
  9
$DIMRND
 40
0.0
  9
$DIMDLE
 40
0.0
  9
$DIMEXE
 40
1.0
  9
$DIMTP
 40
0.0
  9
$DIMTM
 40
0.0
  9
$DIMTXT
 40
3.2
  9
$DIMCEN
 40
0.0
  9
$DIMTSZ
 40
0.0
  9
$DIMTOL
 70
     0
  9
$DIMLIM
 70
     0
  9
$DIMTIH
 70
     0
  9
$DIMTOH
 70
     0
  9
$DIMSE1
 70
     0
  9
$DIMSE2
 70
     0
  9
$DIMTAD
 70
     3
  9
$DIMZIN
 70
     8
  9
$DIMBLK
  1

  9
$DIMASO
 70
     1
  9
$DIMSHO
 70
     1
  9
$DIMPOST
  1

  9
$DIMAPOST
  1

  9
$DIMALT
 70
     0
  9
$DIMALTD
 70
     2
  9
$DIMALTF
 40
25.4
  9
$DIMLFAC
 40
1.0
  9
$DIMTOFL
 70
     1
  9
$DIMTVP
 40
0.0
  9
$DIMTIX
 70
     0
  9
$DIMSOXD
 70
     0
  9
$DIMSAH
 70
     1
  9
$DIMBLK1
  1
OPEN
  9
$DIMBLK2
  1
OPEN
  9
$DIMSTYLE
  2
STANDARD
  9
$DIMCLRD
 70
     0
  9
$DIMCLRE
 70
     0
  9
$DIMCLRT
 70
     0
  9
$DIMTFAC
 40
1.0
  9
$DIMGAP
 40
1.0
  9
$DIMJUST
 70
     0
  9
$DIMSD1
 70
     0
  9
$DIMSD2
 70
     0
  9
$DIMTOLJ
 70
     1
  9
$DIMTZIN
 70
     0
  9
$DIMALTZ
 70
     0
  9
$DIMALTTZ
 70
     0
  9
$DIMUPT
 70
     0
  9
$DIMDEC
 70
     4
  9
$DIMTDEC
 70
     4
  9
$DIMALTU
 70
     2
  9
$DIMALTTD
 70
     2
  9
$DIMTXSTY
  7
STANDARD
  9
$DIMAUNIT
 70
     0
  9
$DIMADEC
 70
     0
  9
$DIMALTRND
 40
0.0
  9
$DIMAZIN
 70
     0
  9
$DIMDSEP
 70
    46
  9
$DIMATFIT
 70
     3
  9
$DIMFRAC
 70
     0
  9
$DIMLDRBLK
  1
OPEN
  9
$DIMLUNIT
 70
     2
  9
$DIMLWD
 70
    -2
  9
$DIMLWE
 70
    -2
  9
$DIMTMOVE
 70
     0
  9
$LUNITS
 70
     2
  9
$LUPREC
 70
     4
  9
$SKETCHINC
 40
1.0
  9
$FILLETRAD
 40
13.9
  9
$AUNITS
 70
     0
  9
$AUPREC
 70
     2
  9
$MENU
  1
.
  9
$ELEVATION
 40
0.0
  9
$PELEVATION
 40
0.0
  9
$THICKNESS
 40
0.0
  9
$LIMCHECK
 70
     0
  9
$CHAMFERA
 40
10.0
  9
$CHAMFERB
 40
10.0
  9
$CHAMFERC
 40
0.0
  9
$CHAMFERD
 40
0.0
  9
$SKPOLY
 70
     0
  9
$TDCREATE
 40
2451301.578011343
  9
$TDUCREATE
 40
2451301.203011343
  9
$TDUPDATE
 40
2457192.687838044
  9
$TDUUPDATE
 40
2457192.312838044
  9
$TDINDWG
 40
0.0000112037
  9
$TDUSRTIMER
 40
0.0000108912
  9
$USRTIMER
 70
     1
  9
$ANGBASE
 50
0.0
  9
$ANGDIR
 70
     0
  9
$PDMODE
 70
     0
  9
$PDSIZE
 40
0.0
  9
$PLINEWID
 40
0.0
  9
$SPLFRAME
 70
     0
  9
$SPLINETYPE
 70
     6
  9
$SPLINESEGS
 70
     8
  9
$HANDSEED
  5
B52B
  9
$SURFTAB1
 70
     6
  9
$SURFTAB2
 70
     6
  9
$SURFTYPE
 70
     6
  9
$SURFU
 70
     6
  9
$SURFV
 70
     6
  9
$UCSBASE
  2

  9
$UCSNAME
  2

  9
$UCSORG
 10
0.0
 20
0.0
 30
0.0
  9
$UCSXDIR
 10
1.0
 20
0.0
 30
0.0
  9
$UCSYDIR
 10
0.0
 20
1.0
 30
0.0
  9
$UCSORTHOREF
  2

  9
$UCSORTHOVIEW
 70
     0
  9
$UCSORGTOP
 10
0.0
 20
0.0
 30
0.0
  9
$UCSORGBOTTOM
 10
0.0
 20
0.0
 30
0.0
  9
$UCSORGLEFT
 10
0.0
 20
0.0
 30
0.0
  9
$UCSORGRIGHT
 10
0.0
 20
0.0
 30
0.0
  9
$UCSORGFRONT
 10
0.0
 20
0.0
 30
0.0
  9
$UCSORGBACK
 10
0.0
 20
0.0
 30
0.0
  9
$PUCSBASE
  2

  9
$PUCSNAME
  2

  9
$PUCSORG
 10
0.0
 20
0.0
 30
0.0
  9
$PUCSXDIR
 10
1.0
 20
0.0
 30
0.0
  9
$PUCSYDIR
 10
0.0
 20
1.0
 30
0.0
  9
$PUCSORTHOREF
  2

  9
$PUCSORTHOVIEW
 70
     0
  9
$PUCSORGTOP
 10
0.0
 20
0.0
 30
0.0
  9
$PUCSORGBOTTOM
 10
0.0
 20
0.0
 30
0.0
  9
$PUCSORGLEFT
 10
0.0
 20
0.0
 30
0.0
  9
$PUCSORGRIGHT
 10
0.0
 20
0.0
 30
0.0
  9
$PUCSORGFRONT
 10
0.0
 20
0.0
 30
0.0
  9
$PUCSORGBACK
 10
0.0
 20
0.0
 30
0.0
  9
$USERI1
 70
     0
  9
$USERI2
 70
     0
  9
$USERI3
 70
     0
  9
$USERI4
 70
     0
  9
$USERI5
 70
     0
  9
$USERR1
 40
0.0
  9
$USERR2
 40
0.0
  9
$USERR3
 40
0.0
  9
$USERR4
 40
0.0
  9
$USERR5
 40
0.0
  9
$WORLDVIEW
 70
     1
  9
$SHADEDGE
 70
     3
  9
$SHADEDIF
 70
    70
  9
$TILEMODE
 70
     1
  9
$MAXACTVP
 70
    16
  9
$PINSBASE
 10
0.0
 20
0.0
 30
0.0
  9
$PLIMCHECK
 70
     0
  9
$PEXTMIN
 10
1.000000000000000E+20
 20
1.000000000000000E+20
 30
1.000000000000000E+20
  9
$PEXTMAX
 10
-1.000000000000000E+20
 20
-1.000000000000000E+20
 30
-1.000000000000000E+20
  9
$PLIMMIN
 10
0.0
 20
0.0
  9
$PLIMMAX
 10
420.0
 20
297.0
  9
$UNITMODE
 70
     0
  9
$VISRETAIN
 70
     0
  9
$PLINEGEN
 70
     0
  9
$PSLTSCALE
 70
     0
  9
$TREEDEPTH
 70
  3020
  9
$CMLSTYLE
  2
STANDARD
  9
$CMLJUST
 70
     0
  9
$CMLSCALE
 40
1.0
  9
$PROXYGRAPHICS
 70
     1
  9
$MEASUREMENT
 70
     0
  9
$CELWEIGHT
370
    -1
  9
$ENDCAPS
280
     0
  9
$JOINSTYLE
280
     0
  9
$LWDISPLAY
290
     0
  9
$INSUNITS
 70
     0
  9
$HYPERLINKBASE
  1

  9
$STYLESHEET
  1

  9
$XEDIT
290
     1
  9
$CEPSNTYPE
380
     0
  9
$PSTYLEMODE
290
     1
  9
$FINGERPRINTGUID
  2
{3BF2EDFE-F807-44AE-8F76-41CEE9DF9DB2}
  9
$VERSIONGUID
  2
{8AF14AA0-E5D7-4D49-8DE3-A90D13F04145}
  9
$EXTNAMES
290
     1
  9
$PSVPSCALE
 40
0.0
  9
$OLESTARTUP
290
     0
  0
ENDSEC
  0
SECTION
  2
CLASSES
  0
CLASS
  1
ACDBDICTIONARYWDFLT
  2
AcDbDictionaryWithDefault
  3
ObjectDBX Classes
 90
        0
280
     0
281
     0
  0
CLASS
  1
ACDBPLACEHOLDER
  2
AcDbPlaceHolder
  3
ObjectDBX Classes
 90
        0
280
     0
281
     0
  0
CLASS
  1
LAYOUT
  2
AcDbLayout
  3
ObjectDBX Classes
 90
        0
280
     0
281
     0
  0
CLASS
  1
DICTIONARYVAR
  2
AcDbDictionaryVar
  3
ObjectDBX Classes
 90
        0
280
     0
281
     0
  0
CLASS
  1
MATERIAL
  2
AcDbMaterial
  3
ObjectDBX Classes
 90
     1153
280
     0
281
     0
  0
CLASS
  1
VISUALSTYLE
  2
AcDbVisualStyle
  3
ObjectDBX Classes
 90
     4095
280
     0
281
     0
  0
CLASS
  1
TABLESTYLE
  2
AcDbTableStyle
  3
ObjectDBX Classes
 90
     4095
280
     0
281
     0
  0
CLASS
  1
SCALE
  2
AcDbScale
  3
ObjectDBX Classes
 90
     1153
280
     0
281
     0
  0
CLASS
  1
MLEADERSTYLE
  2
AcDbMLeaderStyle
  3
ACDB_MLEADERSTYLE_CLASS
 90
     4095
280
     0
281
     0
  0
CLASS
  1
ACDBSECTIONVIEWSTYLE
  2
AcDbSectionViewStyle
  3
ObjectDBX Classes
 90
     1025
280
     0
281
     0
  0
CLASS
  1
ACDBDETAILVIEWSTYLE
  2
AcDbDetailViewStyle
  3
ObjectDBX Classes
 90
     1025
280
     0
281
     0
  0
CLASS
  1
CELLSTYLEMAP
  2
AcDbCellStyleMap
  3
ObjectDBX Classes
 90
     1152
280
     0
281
     0
  0
ENDSEC
  0
SECTION
  2
TABLES
  0
TABLE
  2
VPORT
  5
B156
330
0
100
AcDbSymbolTable
 70
     1
  0
VPORT
  5
B474
330
B156
100
AcDbSymbolTableRecord
100
AcDbViewportTableRecord
  2
*ACTIVE
 70
     0
 10
0.0
 20
0.0
 11
1.0
 21
1.0
 12
428.9172375729775
 22
242.4241345364414
 13
0.0
 23
0.0
 14
10.0
 24
10.0
 15
10.0
 25
10.0
 16
0.0
 26
0.0
 36
1.0
 17
0.0
 27
0.0
 37
0.0
 40
470.0233416366584
 41
2.35006605019815
 42
50.0
 43
0.0
 44
0.0
 50
0.0
 51
0.0
 71
     0
 72
   100
 73
     1
 74
     0
 75
     0
 76
     0
 77
     0
 78
     0
281
     0
 65
     1
110
0.0
120
0.0
130
0.0
111
1.0
121
0.0
131
0.0
112
0.0
122
1.0
132
0.0
 79
     0
146
0.0
1001
ACAD_NAV_VCDISPLAY
1070
     3
  0
ENDTAB
  0
TABLE
  2
LTYPE
  5
B153
330
0
100
AcDbSymbolTable
 70
     4
  0
LTYPE
  5
B161
330
B153
100
AcDbSymbolTableRecord
100
AcDbLinetypeTableRecord
  2
BYBLOCK
 70
     0
  3

 72
    65
 73
     0
 40
0.0
  0
LTYPE
  5
B162
330
B153
100
AcDbSymbolTableRecord
100
AcDbLinetypeTableRecord
  2
BYLAYER
 70
     0
  3

 72
    65
 73
     0
 40
0.0
  0
LTYPE
  5
B163
330
B153
100
AcDbSymbolTableRecord
100
AcDbLinetypeTableRecord
  2
CONTINUOUS
 70
     0
  3
Solid line
 72
    65
 73
     0
 40
0.0
  0
LTYPE
  5
B171
330
B153
100
AcDbSymbolTableRecord
100
AcDbLinetypeTableRecord
  2
DASHED
 70
     0
  3
__ __ __ __ __ __ __ __ __ __ __ __ __ __ __ __
 72
    65
 73
     2
 40
0.75
 49
0.5
 74
     0
 49
-0.25
 74
     0
  0
LTYPE
  5
B172
330
B153
100
AcDbSymbolTableRecord
100
AcDbLinetypeTableRecord
  2
CENTER
 70
     0
  3
____ _ ____ _ ____ _ ____ _ ____ _ ____ _ ____ 
 72
    65
 73
     4
 40
2.0
 49
1.25
 74
     0
 49
-0.25
 74
     0
 49
0.25
 74
     0
 49
-0.25
 74
     0
  0
LTYPE
  5
B173
330
B153
100
AcDbSymbolTableRecord
100
AcDbLinetypeTableRecord
  2
PHANTOM
 70
     0
  3
______  __  __  ______  __  __  ______  __  __ 
 72
    65
 73
     6
 40
2.5
 49
1.25
 74
     0
 49
-0.25
 74
     0
 49
0.25
 74
     0
 49
-0.25
 74
     0
 49
0.25
 74
     0
 49
-0.25
 74
     0
  0
ENDTAB
  0
TABLE
  2
LAYER
  5
B150
330
0
100
AcDbSymbolTable
 70
     8
  0
LAYER
  5
B15E
102
{ACAD_XDICTIONARY
360
B4CF
102
}
330
B150
100
AcDbSymbolTableRecord
100
AcDbLayerTableRecord
  2
0
 70
     0
 62
     7
  6
CONTINUOUS
370
    -3
390
B47D
  0
LAYER
  5
B174
102
{ACAD_XDICTIONARY
360
B4D1
102
}
330
B150
100
AcDbSymbolTableRecord
100
AcDbLayerTableRecord
  2
4
 70
     0
 62
     1
  6
CENTER
370
    -3
390
B47D
  0
LAYER
  5
B175
102
{ACAD_XDICTIONARY
360
B4D3
102
}
330
B150
100
AcDbSymbolTableRecord
100
AcDbLayerTableRecord
  2
5
 70
     0
 62
     6
  6
PHANTOM
370
    -3
390
B47D
  0
LAYER
  5
B176
102
{ACAD_XDICTIONARY
360
B4D5
102
}
330
B150
100
AcDbSymbolTableRecord
100
AcDbLayerTableRecord
  2
1
 70
     0
 62
     7
  6
CONTINUOUS
370
    -3
390
B47D
  0
LAYER
  5
B177
102
{ACAD_XDICTIONARY
360
B4D7
102
}
330
B150
100
AcDbSymbolTableRecord
100
AcDbLayerTableRecord
  2
2
 70
     0
 62
     4
  6
CONTINUOUS
370
    -3
390
B47D
  0
LAYER
  5
B178
102
{ACAD_XDICTIONARY
360
B4D9
102
}
330
B150
100
AcDbSymbolTableRecord
100
AcDbLayerTableRecord
  2
3
 70
     0
 62
     2
  6
DASHED
370
    -3
390
B47D
  0
LAYER
  5
B179
102
{ACAD_XDICTIONARY
360
B4DB
102
}
330
B150
100
AcDbSymbolTableRecord
100
AcDbLayerTableRecord
  2
6
 70
     0
 62
     5
  6
CONTINUOUS
370
    -3
390
B47D
  0
LAYER
  5
B17A
102
{ACAD_XDICTIONARY
360
B4DD
102
}
330
B150
100
AcDbSymbolTableRecord
100
AcDbLayerTableRecord
  2
7
 70
     0
 62
     3
  6
CONTINUOUS
370
    -3
390
B47D
  0
ENDTAB
  0
TABLE
  2
STYLE
  5
B151
330
0
100
AcDbSymbolTable
 70
     1
  0
STYLE
  5
B15F
330
B151
100
AcDbSymbolTableRecord
100
AcDbTextStyleTableRecord
  2
STANDARD
 70
     0
 40
0.0
 41
1.0
 50
0.0
 71
     0
 42
5.0
  3
txt
  4

  0
ENDTAB
  0
TABLE
  2
VIEW
  5
B154
330
0
100
AcDbSymbolTable
 70
     0
  0
ENDTAB
  0
TABLE
  2
UCS
  5
B155
330
0
100
AcDbSymbolTable
 70
     0
  0
ENDTAB
  0
TABLE
  2
APPID
  5
B157
330
0
100
AcDbSymbolTable
 70
     3
  0
APPID
  5
B160
330
B157
100
AcDbSymbolTableRecord
100
AcDbRegAppTableRecord
  2
ACAD
 70
     0
  0
APPID
  5
B4E9
330
B157
100
AcDbSymbolTableRecord
100
AcDbRegAppTableRecord
  2
ACAD_NAV_VCDISPLAY
 70
     0
  0
APPID
  5
B522
330
B157
100
AcDbSymbolTableRecord
100
AcDbRegAppTableRecord
  2
ACAD_MLEADERVER
 70
     0
  0
ENDTAB
  0
TABLE
  2
DIMSTYLE
  5
B158
330
0
100
AcDbSymbolTable
 70
     1
100
AcDbDimStyleTable
 71
     0
  0
DIMSTYLE
105
B17C
330
B158
100
AcDbSymbolTableRecord
100
AcDbDimStyleTableRecord
  2
STANDARD
 70
     0
 41
3.0
 42
1.0
 43
10.0
 44
1.0
 73
     0
 74
     0
 77
     3
 78
     8
140
3.2
141
0.0
147
1.0
172
     1
173
     1
284
     8
285
     8
286
     8
340
B15F
  0
ENDTAB
  0
TABLE
  2
BLOCK_RECORD
  5
B14F
330
0
100
AcDbSymbolTable
 70
     1
  0
BLOCK_RECORD
  5
B16C
102
{ACAD_XDICTIONARY
360
B477
102
}
330
B14F
100
AcDbSymbolTableRecord
100
AcDbBlockTableRecord
  2
*MODEL_SPACE
340
B4CB
  0
BLOCK_RECORD
  5
B168
102
{ACAD_XDICTIONARY
360
B475
102
}
330
B14F
100
AcDbSymbolTableRecord
100
AcDbBlockTableRecord
  2
*PAPER_SPACE
340
B4CC
  0
BLOCK_RECORD
  5
B184
330
B14F
100
AcDbSymbolTableRecord
100
AcDbBlockTableRecord
  2
_OPEN
340
0
  0
ENDTAB
  0
ENDSEC
  0
SECTION
  2
BLOCKS
  0
BLOCK
  5
B16D
330
B16C
100
AcDbEntity
  8
0
100
AcDbBlockBegin
  2
*MODEL_SPACE
 70
     0
 10
0.0
 20
0.0
 30
0.0
  3
*MODEL_SPACE
  1

  0
ENDBLK
  5
B16E
330
B16C
100
AcDbEntity
  8
0
100
AcDbBlockEnd
  0
BLOCK
  5
B169
330
B168
100
AcDbEntity
 67
     1
  8
0
100
AcDbBlockBegin
  2
*PAPER_SPACE
 70
     0
 10
0.0
 20
0.0
 30
0.0
  3
*PAPER_SPACE
  1

  0
ENDBLK
  5
B16A
330
B168
100
AcDbEntity
 67
     1
  8
0
100
AcDbBlockEnd
  0
BLOCK
  5
B185
330
B184
100
AcDbEntity
  8
0
100
AcDbBlockBegin
  2
_OPEN
 70
     0
 10
0.0
 20
0.0
 30
0.0
  3
_OPEN
  1

  0
LINE
  5
B186
330
B184
100
AcDbEntity
  8
0
  6
ByBlock
 62
     0
100
AcDbLine
 10
-1.0
 20
0.166667
 30
0.0
 11
0.0
 21
0.0
 31
0.0
  0
LINE
  5
B187
330
B184
100
AcDbEntity
  8
0
  6
ByBlock
 62
     0
100
AcDbLine
 10
0.0
 20
0.0
 30
0.0
 11
-1.0
 21
-0.166667
 31
0.0
  0
LINE
  5
B188
330
B184
100
AcDbEntity
  8
0
  6
ByBlock
 62
     0
100
AcDbLine
 10
0.0
 20
0.0
 30
0.0
 11
-1.0
 21
0.0
 31
0.0
  0
ENDBLK
  5
B189
330
B184
100
AcDbEntity
  8
0
100
AcDbBlockEnd
  0
ENDSEC
  0
SECTION
  2
ENTITIES
  0
TEXT
  5
B18A
330
B16C
100
AcDbEntity
  8
7
  6
Continuous
100
AcDbText
 10
10.0
 20
18.0
 30
0.0
 40
3.0
  1
TYPE No.208 d=19
100
AcDbText
  0
TEXT
  5
B18B
330
B16C
100
AcDbEntity
  8
7
  6
Continuous
100
AcDbText
 10
10.0
 20
26.0
 30
0.0
 40
3.0
  1
CODE No.9169
100
AcDbText
  0
TEXT
  5
B18C
330
B16C
100
AcDbEntity
  8
1
  6
Continuous
100
AcDbText
 10
10.0
 20
10.0
 30
0.0
 40
1.399999999999999
  1
LAYER
100
AcDbText
  0
TEXT
  5
B18D
330
B16C
100
AcDbEntity
  8
1
  6
Continuous
100
AcDbText
 10
17.97951099999998
 20
10.04873699999998
 30
0.0
 40
1.399999999999999
  1
1
100
AcDbText
  0
TEXT
  5
B18E
330
B16C
100
AcDbEntity
  8
7
  6
Continuous
100
AcDbText
 10
29.97951099999999
 20
10.04873699999998
 30
0.0
 40
1.399999999999999
  1
7
100
AcDbText
  0
TEXT
  5
B18F
330
B16C
100
AcDbEntity
  8
4
  6
CENTER
100
AcDbText
 10
23.97951099999999
 20
10.04873699999998
 30
0.0
 40
1.399999999999999
  1
4
100
AcDbText
  0
TEXT
  5
B190
330
B16C
100
AcDbEntity
  8
3
  6
DASHED
100
AcDbText
 10
21.979511
 20
10.04873699999998
 30
0.0
 40
1.399999999999999
  1
3
100
AcDbText
  0
TEXT
  5
B191
330
B16C
100
AcDbEntity
  8
2
  6
Continuous
100
AcDbText
 10
19.97951099999999
 20
10.04873699999998
 30
0.0
 40
1.399999999999999
  1
2
100
AcDbText
  0
TEXT
  5
B192
330
B16C
100
AcDbEntity
  8
6
  6
Continuous
100
AcDbText
 10
27.979511
 20
10.04873699999998
 30
0.0
 40
1.399999999999999
  1
6
100
AcDbText
  0
TEXT
  5
B193
330
B16C
100
AcDbEntity
  8
5
  6
PHANTOM
100
AcDbText
 10
25.97951099999999
 20
10.04873699999998
 30
0.0
 40
1.399999999999999
  1
5
100
AcDbText
  0
LINE
  5
B194
330
B16C
100
AcDbEntity
  8
4
  6
CENTER
100
AcDbLine
 10
318.0098619999998
 20
229.6277349999999
 30
0.0
 11
378.6262299999998
 21
229.6277349999999
 31
0.0
  0
LINE
  5
B195
330
B16C
100
AcDbEntity
  8
1
  6
Continuous
100
AcDbLine
 10
324.6976399999998
 20
304.462739
 30
0.0
 11
378.0698399999999
 21
304.462739
 31
0.0
  0
LINE
  5
B196
330
B16C
100
AcDbEntity
  8
4
  6
CENTER
100
AcDbLine
 10
282.2363389999998
 20
229.6277389999999
 30
0.0
 11
136.2363389999998
 21
229.6277389999999
 31
0.0
  0
LINE
  5
B197
330
B16C
100
AcDbEntity
  8
4
  6
CENTER
100
AcDbLine
 10
209.236339
 20
157.1487389999998
 30
0.0
 11
209.236339
 21
302.627739
 31
0.0
  0
LINE
  5
B198
330
B16C
100
AcDbEntity
  8
4
  6
CENTER
100
AcDbLine
 10
351.233743
 20
370.627923
 30
0.0
 11
351.233743
 21
156.777739
 31
0.0
  0
ARC
  5
B199
330
B16C
100
AcDbEntity
  8
1
  6
Continuous
100
AcDbCircle
 10
104.985169
 20
195.920948
 30
0.0
 40
277.8421779999998
100
AcDbArc
 50
13.58600199999999
 51
19.83204999999999
  0
ARC
  5
B19A
330
B16C
100
AcDbEntity
  8
1
  6
Continuous
100
AcDbCircle
 10
104.9496709999999
 20
195.752224
 30
0.0
 40
280.2147699999999
100
AcDbArc
 50
13.044057
 51
19.16351999999999
  0
ARC
  5
B19B
330
B16C
100
AcDbEntity
  8
1
  6
Continuous
100
AcDbCircle
 10
346.197645
 20
251.827299
 30
0.0
 40
32.53609799999999
100
AcDbArc
 50
2.672433999999999
 51
12.72982799999999
  0
LINE
  5
B19C
330
B16C
100
AcDbEntity
  8
1
  6
Continuous
100
AcDbLine
 10
369.586525
 20
226.8988069999998
 30
0.0
 11
369.576723
 21
217.1277529999999
 31
0.0
  0
ARC
  5
B19D
330
B16C
100
AcDbEntity
  8
1
  6
Continuous
100
AcDbCircle
 10
360.7812739999998
 20
288.20501
 30
0.0
 40
5.908440999999998
100
AcDbArc
 50
19.557187
 51
71.279225
  0
ARC
  5
B19E
330
B16C
100
AcDbEntity
  8
1
  6
Continuous
100
AcDbCircle
 10
360.921012
 20
284.7600429999999
 30
0.0
 40
9.209889
100
AcDbArc
 50
18.85874099999998
 51
79.00453
  0
ARC
  5
B19F
330
B16C
100
AcDbEntity
  8
1
  6
Continuous
100
AcDbCircle
 10
351.233743
 20
234.9023229999999
 30
0.0
 40
60.0
100
AcDbArc
 50
79.00453
 51
100.9954699999999
  0
LINE
  5
B1A0
330
B16C
100
AcDbEntity
  8
4
  6
CENTER
100
AcDbLine
 10
245.2363389999999
 20
249.214135
 30
0.0
 11
245.2363389999999
 21
370.627923
 31
0.0
  0
LINE
  5
B1A1
330
B16C
100
AcDbEntity
  8
1
  6
Continuous
100
AcDbLine
 10
223.76406
 20
300.798268
 30
0.0
 11
223.76406
 21
230.793644
 31
0.0
  0
ARC
  5
B1A2
330
B16C
100
AcDbEntity
  8
1
  6
Continuous
100
AcDbCircle
 10
107.3197639999999
 20
351.653945
 30
0.0
 40
171.799
100
AcDbArc
 50
309.937791
 51
339.6990839999999
  0
ARC
  5
B1A3
330
B16C
100
AcDbEntity
  8
1
  6
Continuous
100
AcDbCircle
 10
80.74851200000003
 20
296.1153649999999
 30
0.0
 40
132.243177
100
AcDbArc
 50
332.685565
 51
2.590463
  0
ARC
  5
B1A4
330
B16C
100
AcDbEntity
  8
1
  6
Continuous
100
AcDbCircle
 10
209.4863389999999
 20
229.6277389999999
 30
0.0
 40
12.65
100
AcDbArc
 50
152.6855649999999
 51
309.937791
  0
LINE
  5
B1A5
330
B16C
100
AcDbEntity
  8
1
  6
Continuous
100
AcDbLine
 10
271.9224389999999
 20
304.312739
 30
0.0
 11
218.5502389999999
 21
304.312739
 31
0.0
  0
ARC
  5
B1A6
330
B16C
100
AcDbEntity
  8
1
  6
Continuous
100
AcDbCircle
 10
266.252922
 20
300.152624
 30
0.0
 40
6.768752
100
AcDbArc
 50
16.69546099999999
 51
28.62323099999998
  0
ARC
  5
B1A7
330
B16C
100
AcDbEntity
  8
1
  6
Continuous
100
AcDbCircle
 10
269.50967
 20
301.929974
 30
0.0
 40
3.058577999999998
100
AcDbArc
 50
28.62323099999998
 51
51.173052
  0
LINE
  5
B1A8
330
B16C
100
AcDbEntity
  8
1
  6
Continuous
100
AcDbLine
 10
209.418711
 20
302.091789
 30
0.0
 11
223.7636549999999
 21
302.091789
 31
0.0
  0
ARC
  5
B1A9
330
B16C
100
AcDbEntity
  8
1
  6
Continuous
100
AcDbCircle
 10
221.4179389999999
 20
302.519206
 30
0.0
 40
2.384338999999997
100
AcDbArc
 50
349.6733199999998
 51
48.78250799999999
  0
ARC
  5
B1AA
330
B16C
100
AcDbEntity
  8
1
  6
Continuous
100
AcDbCircle
 10
217.7253169999999
 20
303.2410889999998
 30
0.0
 40
1.188780999999998
100
AcDbArc
 50
284.807772
 51
2.109159
  0
ARC
  5
B1AB
330
B16C
100
AcDbEntity
  8
1
  6
Continuous
100
AcDbCircle
 10
221.1087229999999
 20
302.604599
 30
0.0
 40
2.298399999999999
100
AcDbArc
 50
131.996419
 51
162.784696
  0
LINE
  5
B1AC
330
B16C
100
AcDbEntity
  8
1
  6
Continuous
100
AcDbLine
 10
209.260104
 20
299.5381619999998
 30
0.0
 11
212.947386
 21
299.5381619999998
 31
0.0
  0
ARC
  5
B1AD
330
B16C
100
AcDbEntity
  8
1
  6
Continuous
100
AcDbCircle
 10
210.1356829999998
 20
301.1713379999998
 30
0.0
 40
2.172123
100
AcDbArc
 50
163.484735
 51
182.237079
  0
ARC
  5
B1AE
330
B16C
100
AcDbEntity
  8
1
  6
Continuous
100
AcDbCircle
 10
199.7357799999998
 20
299.1607989999998
 30
0.0
 40
8.451753
100
AcDbArc
 50
4.483236999999999
 51
13.17066
  0
ARC
  5
B1AF
330
B16C
100
AcDbEntity
  8
1
  6
Continuous
100
AcDbCircle
 10
208.578211
 20
301.029678
 30
0.0
 40
0.9230079999999999
100
AcDbArc
 50
108.7945229999998
 51
124.668912
  0
LINE
  5
B1B0
330
B16C
100
AcDbEntity
  8
1
  6
Continuous
100
AcDbLine
 10
208.2973739999999
 20
299.65751
 30
0.0
 11
208.1616719999999
 21
299.821451
 31
0.0
  0
ARC
  5
B1B1
330
B16C
100
AcDbEntity
  8
1
  6
Continuous
100
AcDbCircle
 10
209.260104
 20
303.480799
 30
0.0
 40
3.942636999999998
100
AcDbArc
 50
255.866358
 51
270.0
  0
ARC
  5
B1B2
330
B16C
100
AcDbEntity
  8
1
  6
Continuous
100
AcDbCircle
 10
209.418711
 20
298.5599509999999
 30
0.0
 40
3.531837999999998
100
AcDbArc
 50
90.0
 51
108.7945229999998
  0
LINE
  5
B1B3
330
B16C
100
AcDbEntity
  8
4
  6
CENTER
100
AcDbLine
 10
66.238934
 20
370.6279369999998
 30
0.0
 11
66.238934
 21
156.6277389999999
 31
0.0
  0
LINE
  5
B1B4
330
B16C
100
AcDbEntity
  8
1
  6
Continuous
100
AcDbLine
 10
84.663128
 20
298.0877899999999
 30
0.0
 11
84.58176299999998
 21
216.9777529999998
 31
0.0
  0
LINE
  5
B1B5
330
B16C
100
AcDbEntity
  8
1
  6
Continuous
100
AcDbLine
 10
82.06357699999998
 20
298.537173
 30
0.0
 11
81.981762
 21
216.9777529999998
 31
0.0
  0
LINE
  5
B1B6
330
B16C
100
AcDbEntity
  8
1
  6
Continuous
100
AcDbLine
 10
47.81474099999999
 20
298.0877899999999
 30
0.0
 11
47.896105
 21
216.9777529999998
 31
0.0
  0
LINE
  5
B1B7
330
B16C
100
AcDbEntity
  8
1
  6
Continuous
100
AcDbLine
 10
50.414291
 20
298.537173
 30
0.0
 11
50.496107
 21
216.9777529999998
 31
0.0
  0
ARC
  5
B1B8
330
B16C
100
AcDbEntity
  8
1
  6
Continuous
100
AcDbCircle
 10
53.938665
 20
254.901466
 30
0.0
 40
39.801511
100
AcDbArc
 50
332.553191
 51
359.5473579999999
  0
ARC
  5
B1B9
330
B16C
100
AcDbEntity
  8
1
  6
Continuous
100
AcDbCircle
 10
78.539203
 20
254.901466
 30
0.0
 40
39.801511
100
AcDbArc
 50
180.452642
 51
210.446211
  0
LINE
  5
B1BA
330
B16C
100
AcDbEntity
  8
4
  6
CENTER
100
AcDbLine
 10
38.33146
 20
229.6277529999999
 30
0.0
 11
98.48692900000001
 21
229.6277529999999
 31
0.0
  0
LINE
  5
B1BB
330
B16C
100
AcDbEntity
  8
1
  6
Continuous
100
AcDbLine
 10
47.896105
 20
216.9777529999998
 30
0.0
 11
50.496107
 21
216.9777529999998
 31
0.0
  0
LINE
  5
B1BC
330
B16C
100
AcDbEntity
  8
1
  6
Continuous
100
AcDbLine
 10
86.586929
 20
222.127753
 30
0.0
 11
86.586929
 21
237.1277529999999
 31
0.0
  0
LINE
  5
B1BD
330
B16C
100
AcDbEntity
  8
1
  6
Continuous
100
AcDbLine
 10
81.981762
 20
216.9777529999998
 30
0.0
 11
84.58176299999998
 21
216.9777529999998
 31
0.0
  0
LINE
  5
B1BE
330
B16C
100
AcDbEntity
  8
1
  6
Continuous
100
AcDbLine
 10
84.586929
 20
222.127753
 30
0.0
 11
86.586929
 21
222.127753
 31
0.0
  0
LINE
  5
B1BF
330
B16C
100
AcDbEntity
  8
1
  6
Continuous
100
AcDbLine
 10
84.60197599999998
 20
237.1277529999999
 30
0.0
 11
86.586929
 21
237.1277529999999
 31
0.0
  0
LINE
  5
B1C0
330
B16C
100
AcDbEntity
  8
1
  6
Continuous
100
AcDbLine
 10
51.41429099999999
 20
299.5381759999999
 30
0.0
 11
81.06357800000003
 21
299.5381759999999
 31
0.0
  0
LINE
  5
B1C1
330
B16C
100
AcDbEntity
  8
1
  6
Continuous
100
AcDbLine
 10
51.814739
 20
302.0918029999999
 30
0.0
 11
80.66312999999999
 21
302.0918029999999
 31
0.0
  0
LINE
  5
B1C2
330
B16C
100
AcDbEntity
  8
1
  6
Continuous
100
AcDbLine
 10
39.552826
 20
304.312753
 30
0.0
 11
92.925026
 21
304.312753
 31
0.0
  0
ARC
  5
B1C3
330
B16C
100
AcDbEntity
  8
1
  6
Continuous
100
AcDbCircle
 10
51.814739
 20
298.0918029999999
 30
0.0
 40
4.0
100
AcDbArc
 50
90.0
 51
180.057476
  0
ARC
  5
B1C4
330
B16C
100
AcDbEntity
  8
1
  6
Continuous
100
AcDbCircle
 10
51.41429099999999
 20
298.5381759999999
 30
0.0
 40
1.0
100
AcDbArc
 50
90.0
 51
180.057476
  0
ARC
  5
B1C5
330
B16C
100
AcDbEntity
  8
1
  6
Continuous
100
AcDbCircle
 10
81.06357800000003
 20
298.5381759999999
 30
0.0
 40
1.0
100
AcDbArc
 50
359.9425239999998
 51
90.0
  0
ARC
  5
B1C6
330
B16C
100
AcDbEntity
  8
1
  6
Continuous
100
AcDbCircle
 10
80.66312999999999
 20
298.0918029999999
 30
0.0
 40
4.0
100
AcDbArc
 50
359.9425239999998
 51
90.0
  0
LINE
  5
B1C7
330
B16C
100
AcDbEntity
  8
1
  6
Continuous
100
AcDbLine
 10
38.738934
 20
297.5437529999999
 30
0.0
 11
38.738934
 21
254.587033
 31
0.0
  0
LINE
  5
B1C8
330
B16C
100
AcDbEntity
  8
1
  6
Continuous
100
AcDbLine
 10
93.738934
 20
297.5437529999999
 30
0.0
 11
93.738934
 21
254.587033
 31
0.0
  0
ARC
  5
B1C9
330
B16C
100
AcDbEntity
  8
1
  6
Continuous
100
AcDbCircle
 10
45.50793399999998
 20
297.5437529999999
 30
0.0
 40
6.769
100
AcDbArc
 50
90.0
 51
180.0
  0
ARC
  5
B1CA
330
B16C
100
AcDbEntity
  8
1
  6
Continuous
100
AcDbCircle
 10
86.96993399999998
 20
297.5437529999999
 30
0.0
 40
6.769
100
AcDbArc
 50
0.0
 51
90.0
  0
LINE
  5
B1CB
330
B16C
100
AcDbEntity
  8
1
  6
Continuous
100
AcDbLine
 10
84.594453
 20
229.6277529999999
 30
0.0
 11
86.586929
 21
231.620229
 31
0.0
  0
LINE
  5
B1CC
330
B16C
100
AcDbEntity
  8
1
  6
Continuous
100
AcDbLine
 10
84.59245200000003
 20
227.6332759999998
 30
0.0
 11
86.586929
 21
229.6277529999999
 31
0.0
  0
LINE
  5
B1CD
330
B16C
100
AcDbEntity
  8
1
  6
Continuous
100
AcDbLine
 10
378.733743
 20
297.336739
 30
0.0
 11
378.733743
 21
254.7370059999999
 31
0.0
  0
LINE
  5
B1CE
330
B16C
100
AcDbEntity
  8
1
  6
Continuous
100
AcDbLine
 10
323.733743
 20
297.336739
 30
0.0
 11
323.733743
 21
254.73706
 31
0.0
  0
ARC
  5
B1CF
330
B16C
100
AcDbEntity
  8
1
  6
Continuous
100
AcDbCircle
 10
330.8597429999999
 20
297.336739
 30
0.0
 40
7.126
100
AcDbArc
 50
90.0
 51
180.0
  0
ARC
  5
B1D0
330
B16C
100
AcDbEntity
  8
1
  6
Continuous
100
AcDbCircle
 10
371.607743
 20
297.336739
 30
0.0
 40
7.126
100
AcDbArc
 50
0.0
 51
90.0
  0
ARC
  5
B1D1
330
B16C
100
AcDbEntity
  8
1
  6
Continuous
100
AcDbCircle
 10
597.4823169999997
 20
195.920948
 30
0.0
 40
277.8421779999998
100
AcDbArc
 50
160.1679499999999
 51
166.985586
  0
ARC
  5
B1D2
330
B16C
100
AcDbEntity
  8
1
  6
Continuous
100
AcDbCircle
 10
597.517816
 20
195.752224
 30
0.0
 40
280.2147699999999
100
AcDbArc
 50
160.8364799999999
 51
166.9559429999999
  0
ARC
  5
B1D3
330
B16C
100
AcDbEntity
  8
1
  6
Continuous
100
AcDbCircle
 10
341.5464739999999
 20
284.7600429999999
 30
0.0
 40
9.209889
100
AcDbArc
 50
100.9954699999999
 51
161.141259
  0
ARC
  5
B1D4
330
B16C
100
AcDbEntity
  8
1
  6
Continuous
100
AcDbCircle
 10
341.686212
 20
288.20501
 30
0.0
 40
5.908440999999998
100
AcDbArc
 50
108.720775
 51
160.442813
  0
ARC
  5
B1D5
330
B16C
100
AcDbEntity
  8
1
  6
Continuous
100
AcDbCircle
 10
338.9334739999999
 20
255.051466
 30
0.0
 40
39.801511
100
AcDbArc
 50
324.005645
 51
359.5473579999999
  0
LINE
  5
B1D6
330
B16C
100
AcDbEntity
  8
1
  6
Continuous
100
AcDbLine
 10
335.419599
 20
288.221586
 30
0.0
 11
335.4909149999999
 21
217.1277529999999
 31
0.0
  0
LINE
  5
B1D7
330
B16C
100
AcDbEntity
  8
1
  6
Continuous
100
AcDbLine
 10
367.047888
 20
288.221585
 30
0.0
 11
366.9765699999999
 21
217.1277529999999
 31
0.0
  0
LINE
  5
B1D8
330
B16C
100
AcDbEntity
  8
1
  6
Continuous
100
AcDbLine
 10
369.576723
 20
217.1277529999999
 30
0.0
 11
366.9765699999999
 21
217.1277529999999
 31
0.0
  0
LINE
  5
B1D9
330
B16C
100
AcDbEntity
  8
1
  6
Continuous
100
AcDbLine
 10
335.4909149999999
 20
217.1277529999999
 30
0.0
 11
332.890914
 21
217.1277529999999
 31
0.0
  0
ARC
  5
B1DA
330
B16C
100
AcDbEntity
  8
1
  6
Continuous
100
AcDbCircle
 10
377.701521
 20
226.890666
 30
0.0
 40
8.115
100
AcDbArc
 50
144.0056449999999
 51
179.942522
  0
ARC
  5
B1DB
330
B16C
100
AcDbEntity
  8
1
  6
Continuous
100
AcDbCircle
 10
338.9334739999999
 20
255.051466
 30
0.0
 40
37.20151099999998
100
AcDbArc
 50
324.005645
 51
344.602802
  0
ARC
  5
B1DC
330
B16C
100
AcDbEntity
  8
1
  6
Continuous
100
AcDbCircle
 10
377.701521
 20
226.890666
 30
0.0
 40
10.715
100
AcDbArc
 50
144.0056449999999
 51
179.942522
  0
ARC
  5
B1DD
330
B16C
100
AcDbEntity
  8
1
  6
Continuous
100
AcDbCircle
 10
343.9482949999999
 20
253.670418
 30
0.0
 40
32.0
100
AcDbArc
 50
344.602802
 51
13.58600199999999
  0
ARC
  5
B1DE
330
B16C
100
AcDbEntity
  8
1
  6
Continuous
100
AcDbCircle
 10
358.5191919999999
 20
253.670418
 30
0.0
 40
32.0
100
AcDbArc
 50
166.4139979999999
 51
195.3971979999998
  0
ARC
  5
B1DF
330
B16C
100
AcDbEntity
  8
1
  6
Continuous
100
AcDbCircle
 10
356.2698409999999
 20
251.827299
 30
0.0
 40
32.53609799999999
100
AcDbArc
 50
167.270172
 51
177.3275659999999
  0
ARC
  5
B1E0
330
B16C
100
AcDbEntity
  8
1
  6
Continuous
100
AcDbCircle
 10
363.534012
 20
255.051466
 30
0.0
 40
39.801511
100
AcDbArc
 50
180.452642
 51
215.9943549999999
  0
ARC
  5
B1E1
330
B16C
100
AcDbEntity
  8
1
  6
Continuous
100
AcDbCircle
 10
363.534012
 20
255.051466
 30
0.0
 40
37.20151099999998
100
AcDbArc
 50
195.3971979999998
 51
215.9943549999999
  0
ARC
  5
B1E2
330
B16C
100
AcDbEntity
  8
1
  6
Continuous
100
AcDbCircle
 10
324.765966
 20
226.890666
 30
0.0
 40
10.715
100
AcDbArc
 50
0.057478
 51
35.994355
  0
ARC
  5
B1E3
330
B16C
100
AcDbEntity
  8
1
  6
Continuous
100
AcDbCircle
 10
324.765966
 20
226.890666
 30
0.0
 40
8.115
100
AcDbArc
 50
0.057478
 51
35.994355
  0
LINE
  5
B1E4
330
B16C
100
AcDbEntity
  8
1
  6
Continuous
100
AcDbLine
 10
332.880962
 20
226.8988069999998
 30
0.0
 11
332.890764
 21
217.1277529999999
 31
0.0
  0
LINE
  5
B1E5
330
B16C
100
AcDbEntity
  8
1
  6
Continuous
100
AcDbLine
 10
272.7363389999998
 20
294.7523229999998
 30
0.0
 11
272.7363389999998
 21
302.0971829999999
 31
0.0
  0
ARC
  5
B1E6
330
B16C
100
AcDbEntity
  8
1
  6
Continuous
100
AcDbCircle
 10
272.588482
 20
290.2331859999998
 30
0.0
 40
4.521554
100
AcDbArc
 50
88.126069
 51
156.3338149999998
  0
LINE
  5
B1E7
330
B16C
100
AcDbEntity
  8
4
  6
CENTER
100
AcDbLine
 10
279.236357
 20
87.422368
 30
0.0
 11
139.2363389999998
 21
87.422368
 31
0.0
  0
LINE
  5
B1E8
330
B16C
100
AcDbEntity
  8
4
  6
CENTER
100
AcDbLine
 10
245.2363389999999
 20
119.922368
 30
0.0
 11
245.2363389999999
 21
54.922368
 31
0.0
  0
LINE
  5
B1E9
330
B16C
100
AcDbEntity
  8
1
  6
Continuous
100
AcDbLine
 10
196.836339
 20
71.65441300000002
 30
0.0
 11
220.1895700000001
 21
71.67783900000002
 31
0.0
  0
LINE
  5
B1EA
330
B16C
100
AcDbEntity
  8
1
  6
Continuous
100
AcDbLine
 10
196.836339
 20
69.054411
 30
0.0
 11
220.19218
 21
69.07784000000001
 31
0.0
  0
LINE
  5
B1EB
330
B16C
100
AcDbEntity
  8
1
  6
Continuous
100
AcDbLine
 10
196.836339
 20
103.190325
 30
0.0
 11
220.189572
 21
103.166898
 31
0.0
  0
LINE
  5
B1EC
330
B16C
100
AcDbEntity
  8
1
  6
Continuous
100
AcDbLine
 10
196.836339
 20
105.790326
 30
0.0
 11
220.192179
 21
105.7668969999999
 31
0.0
  0
LINE
  5
B1ED
330
B16C
100
AcDbEntity
  8
1
  6
Continuous
100
AcDbLine
 10
201.7363389999999
 20
105.78541
 30
0.0
 11
201.7363389999999
 21
107.770363
 31
0.0
  0
LINE
  5
B1EE
330
B16C
100
AcDbEntity
  8
1
  6
Continuous
100
AcDbLine
 10
211.2308159999999
 20
105.775886
 30
0.0
 11
209.236339
 21
107.770363
 31
0.0
  0
LINE
  5
B1EF
330
B16C
100
AcDbEntity
  8
1
  6
Continuous
100
AcDbLine
 10
216.7363389999999
 20
105.770363
 30
0.0
 11
216.7363389999999
 21
107.770363
 31
0.0
  0
LINE
  5
B1F0
330
B16C
100
AcDbEntity
  8
1
  6
Continuous
100
AcDbLine
 10
209.236339
 20
105.777887
 30
0.0
 11
207.2438629999998
 21
107.770363
 31
0.0
  0
LINE
  5
B1F1
330
B16C
100
AcDbEntity
  8
1
  6
Continuous
100
AcDbLine
 10
216.7363389999999
 20
107.770363
 30
0.0
 11
201.7363389999999
 21
107.770363
 31
0.0
  0
LINE
  5
B1F2
330
B16C
100
AcDbEntity
  8
4
  6
CENTER
100
AcDbLine
 10
209.236339
 20
119.670363
 30
0.0
 11
209.236339
 21
59.06685
 31
0.0
  0
ARC
  5
B1F3
330
B16C
100
AcDbEntity
  8
1
  6
Continuous
100
AcDbCircle
 10
245.2363389999999
 20
87.422368
 30
0.0
 40
27.5
100
AcDbArc
 50
229.821137
 51
333.5095819999999
  0
ARC
  5
B1F4
330
B16C
100
AcDbEntity
  8
1
  6
Continuous
100
AcDbCircle
 10
245.2363389999999
 20
87.422368
 30
0.0
 40
24.9
100
AcDbArc
 50
229.8211349999999
 51
329.6006419999998
  0
LINE
  5
B1F5
330
B16C
100
AcDbEntity
  8
1
  6
Continuous
100
AcDbLine
 10
196.836339
 20
105.790326
 30
0.0
 11
196.836339
 21
103.190325
 31
0.0
  0
LINE
  5
B1F6
330
B16C
100
AcDbEntity
  8
1
  6
Continuous
100
AcDbLine
 10
196.836339
 20
71.65441300000002
 30
0.0
 11
196.836339
 21
69.054411
 31
0.0
  0
ARC
  5
B1F7
330
B16C
100
AcDbEntity
  8
1
  6
Continuous
100
AcDbCircle
 10
245.2363389999999
 20
87.422368
 30
0.0
 40
24.9
100
AcDbArc
 50
30.132939
 51
130.178862
  0
ARC
  5
B1F8
330
B16C
100
AcDbEntity
  8
1
  6
Continuous
100
AcDbCircle
 10
245.2363389999999
 20
87.422368
 30
0.0
 40
27.5
100
AcDbArc
 50
26.237932
 51
130.1788629999998
  0
ARC
  5
B1F9
330
B16C
100
AcDbEntity
  8
1
  6
Continuous
100
AcDbCircle
 10
245.2363389999999
 20
87.422368
 30
0.0
 40
20.89999999999999
100
AcDbArc
 50
36.732949
 51
142.9242179999999
  0
ARC
  5
B1FA
330
B16C
100
AcDbEntity
  8
1
  6
Continuous
100
AcDbCircle
 10
245.2363389999999
 20
87.422368
 30
0.0
 40
20.89999999999999
100
AcDbArc
 50
217.0757819999999
 51
322.9242179999999
  0
LINE
  5
B1FB
330
B16C
100
AcDbEntity
  8
1
  6
Continuous
100
AcDbLine
 10
91.586929
 20
235.6277529999999
 30
0.0
 11
91.586929
 21
223.6277529999999
 31
0.0
  0
ARC
  5
B1FC
330
B16C
100
AcDbEntity
  8
1
  6
Continuous
100
AcDbCircle
 10
80.12282799999999
 20
229.6277529999999
 30
0.0
 40
11.464102
100
AcDbArc
 50
342.4120459999999
 51
17.587954
  0
ARC
  5
B1FD
330
B16C
100
AcDbEntity
  8
1
  6
Continuous
100
AcDbCircle
 10
98.05103100000003
 20
229.6277529999999
 30
0.0
 40
11.464102
100
AcDbArc
 50
162.412046
 51
197.5879539999999
  0
LINE
  5
B1FE
330
B16C
100
AcDbEntity
  8
1
  6
Continuous
100
AcDbLine
 10
86.586929
 20
235.6277529999999
 30
0.0
 11
86.586929
 21
223.6277529999999
 31
0.0
  0
LINE
  5
B1FF
330
B16C
100
AcDbEntity
  8
1
  6
Continuous
100
AcDbLine
 10
91.05103099999999
 20
222.6995489999999
 30
0.0
 11
91.586929
 21
223.6277529999999
 31
0.0
  0
LINE
  5
B200
330
B16C
100
AcDbEntity
  8
1
  6
Continuous
100
AcDbLine
 10
87.122828
 20
222.6995489999999
 30
0.0
 11
86.586929
 21
223.6277529999999
 31
0.0
  0
LINE
  5
B201
330
B16C
100
AcDbEntity
  8
1
  6
Continuous
100
AcDbLine
 10
87.122828
 20
222.6995489999999
 30
0.0
 11
91.05103099999999
 21
222.6995489999999
 31
0.0
  0
LINE
  5
B202
330
B16C
100
AcDbEntity
  8
1
  6
Continuous
100
AcDbLine
 10
87.122828
 20
226.1636509999999
 30
0.0
 11
91.05103099999999
 21
226.1636509999999
 31
0.0
  0
ARC
  5
B203
330
B16C
100
AcDbEntity
  8
1
  6
Continuous
100
AcDbCircle
 10
89.65391600000002
 20
224.4315999999999
 30
0.0
 40
3.066986999999998
100
AcDbArc
 50
145.615753
 51
205.615753
  0
ARC
  5
B204
330
B16C
100
AcDbEntity
  8
1
  6
Continuous
100
AcDbCircle
 10
88.519942
 20
224.4315999999999
 30
0.0
 40
3.066986999999998
100
AcDbArc
 50
334.384247
 51
34.38424699999998
  0
ARC
  5
B205
330
B16C
100
AcDbEntity
  8
1
  6
Continuous
100
AcDbCircle
 10
88.519942
 20
234.8239049999999
 30
0.0
 40
3.066986999999998
100
AcDbArc
 50
325.6157529999999
 51
25.615753
  0
ARC
  5
B206
330
B16C
100
AcDbEntity
  8
1
  6
Continuous
100
AcDbCircle
 10
89.65391600000002
 20
234.8239049999999
 30
0.0
 40
3.066986999999998
100
AcDbArc
 50
154.3842469999999
 51
214.384247
  0
LINE
  5
B207
330
B16C
100
AcDbEntity
  8
1
  6
Continuous
100
AcDbLine
 10
87.122828
 20
233.091854
 30
0.0
 11
91.05103099999999
 21
233.091854
 31
0.0
  0
LINE
  5
B208
330
B16C
100
AcDbEntity
  8
1
  6
Continuous
100
AcDbLine
 10
87.122828
 20
236.555956
 30
0.0
 11
91.05103099999999
 21
236.555956
 31
0.0
  0
LINE
  5
B209
330
B16C
100
AcDbEntity
  8
1
  6
Continuous
100
AcDbLine
 10
87.122828
 20
236.555956
 30
0.0
 11
86.586929
 21
235.6277529999999
 31
0.0
  0
LINE
  5
B20A
330
B16C
100
AcDbEntity
  8
1
  6
Continuous
100
AcDbLine
 10
91.05103099999999
 20
236.555956
 30
0.0
 11
91.586929
 21
235.6277529999999
 31
0.0
  0
ARC
  5
B20B
330
B16C
100
AcDbEntity
  8
1
  6
Continuous
100
AcDbCircle
 10
212.2363389999999
 20
116.435427
 30
0.0
 40
8.665063999999999
100
AcDbArc
 50
249.7438419999999
 51
290.256158
  0
ARC
  5
B20C
330
B16C
100
AcDbEntity
  8
1
  6
Continuous
100
AcDbCircle
 10
212.2363389999999
 20
104.1053
 30
0.0
 40
8.665063999999999
100
AcDbArc
 50
69.743842
 51
110.256158
  0
LINE
  5
B20D
330
B16C
100
AcDbEntity
  8
1
  6
Continuous
100
AcDbLine
 10
203.2363389999999
 20
112.7703629999998
 30
0.0
 11
215.236339
 21
112.7703629999998
 31
0.0
  0
LINE
  5
B20E
330
B16C
100
AcDbEntity
  8
1
  6
Continuous
100
AcDbLine
 10
215.236339
 20
112.7703629999998
 30
0.0
 11
215.236339
 21
107.770363
 31
0.0
  0
ARC
  5
B20F
330
B16C
100
AcDbEntity
  8
1
  6
Continuous
100
AcDbCircle
 10
206.2363389999999
 20
116.435427
 30
0.0
 40
8.665063999999999
100
AcDbArc
 50
249.7438419999999
 51
290.256158
  0
ARC
  5
B210
330
B16C
100
AcDbEntity
  8
1
  6
Continuous
100
AcDbCircle
 10
206.2363389999999
 20
104.1053
 30
0.0
 40
8.665063999999999
100
AcDbArc
 50
69.743842
 51
110.256158
  0
LINE
  5
B211
330
B16C
100
AcDbEntity
  8
1
  6
Continuous
100
AcDbLine
 10
209.236339
 20
108.306262
 30
0.0
 11
209.236339
 21
112.2344649999998
 31
0.0
  0
LINE
  5
B212
330
B16C
100
AcDbEntity
  8
1
  6
Continuous
100
AcDbLine
 10
203.2363389999999
 20
112.7703629999998
 30
0.0
 11
203.2363389999999
 21
107.770363
 31
0.0
  0
LINE
  5
B213
330
B16C
100
AcDbEntity
  8
1
  6
Continuous
100
AcDbLine
 10
203.2363389999999
 20
233.0918409999999
 30
0.0
 11
203.2363389999999
 21
226.163638
 31
0.0
  0
LINE
  5
B214
330
B16C
100
AcDbEntity
  8
1
  6
Continuous
100
AcDbLine
 10
215.236339
 20
233.0918409999999
 30
0.0
 11
215.236339
 21
226.163638
 31
0.0
  0
CIRCLE
  5
B215
330
B16C
100
AcDbEntity
  8
1
  6
Continuous
100
AcDbCircle
 10
209.236339
 20
229.6277389999999
 30
0.0
 40
6.0
  0
LINE
  5
B216
330
B16C
100
AcDbEntity
  8
1
  6
Continuous
100
AcDbLine
 10
209.236339
 20
222.699536
 30
0.0
 11
215.236339
 21
226.163638
 31
0.0
  0
LINE
  5
B217
330
B16C
100
AcDbEntity
  8
1
  6
Continuous
100
AcDbLine
 10
209.236339
 20
222.699536
 30
0.0
 11
203.2363389999999
 21
226.163638
 31
0.0
  0
LINE
  5
B218
330
B16C
100
AcDbEntity
  8
1
  6
Continuous
100
AcDbLine
 10
215.236339
 20
233.0918409999999
 30
0.0
 11
209.236339
 21
236.5559419999999
 31
0.0
  0
LINE
  5
B219
330
B16C
100
AcDbEntity
  8
1
  6
Continuous
100
AcDbLine
 10
203.2363389999999
 20
233.0918409999999
 30
0.0
 11
209.236339
 21
236.5559419999999
 31
0.0
  0
CIRCLE
  5
B21A
330
B16C
100
AcDbEntity
  8
1
  6
Continuous
100
AcDbCircle
 10
209.236339
 20
229.6277389999999
 30
0.0
 40
4.0
  0
CIRCLE
  5
B21B
330
B16C
100
AcDbEntity
  8
2
  6
Continuous
100
AcDbCircle
 10
209.236339
 20
229.6277389999999
 30
0.0
 40
3.3235
  0
LINE
  5
B21C
330
B16C
100
AcDbEntity
  8
1
  6
Continuous
100
AcDbLine
 10
326.434365
 20
236.555938
 30
0.0
 11
325.8984669999999
 21
235.627735
 31
0.0
  0
LINE
  5
B21D
330
B16C
100
AcDbEntity
  8
1
  6
Continuous
100
AcDbLine
 10
328.2909169999999
 20
236.555938
 30
0.0
 11
326.434365
 21
236.555938
 31
0.0
  0
LINE
  5
B21E
330
B16C
100
AcDbEntity
  8
1
  6
Continuous
100
AcDbLine
 10
330.362568
 20
233.091836
 30
0.0
 11
326.434365
 21
233.091836
 31
0.0
  0
ARC
  5
B21F
330
B16C
100
AcDbEntity
  8
1
  6
Continuous
100
AcDbCircle
 10
328.965454
 20
234.823887
 30
0.0
 40
3.066986999999998
100
AcDbArc
 50
154.3842469999999
 51
214.384247
  0
ARC
  5
B220
330
B16C
100
AcDbEntity
  8
1
  6
Continuous
100
AcDbCircle
 10
328.965454
 20
224.431582
 30
0.0
 40
3.066986999999998
100
AcDbArc
 50
145.615753
 51
205.615753
  0
ARC
  5
B221
330
B16C
100
AcDbEntity
  8
1
  6
Continuous
100
AcDbCircle
 10
327.831479
 20
224.431582
 30
0.0
 40
3.066986999999998
100
AcDbArc
 50
334.384247
 51
34.38424699999998
  0
LINE
  5
B222
330
B16C
100
AcDbEntity
  8
1
  6
Continuous
100
AcDbLine
 10
330.362568
 20
226.1636329999999
 30
0.0
 11
326.434365
 21
226.1636329999999
 31
0.0
  0
LINE
  5
B223
330
B16C
100
AcDbEntity
  8
1
  6
Continuous
100
AcDbLine
 10
330.362568
 20
222.6995309999999
 30
0.0
 11
326.434365
 21
222.6995309999999
 31
0.0
  0
LINE
  5
B224
330
B16C
100
AcDbEntity
  8
1
  6
Continuous
100
AcDbLine
 10
330.362568
 20
222.6995309999999
 30
0.0
 11
330.898467
 21
223.6277349999999
 31
0.0
  0
LINE
  5
B225
330
B16C
100
AcDbEntity
  8
1
  6
Continuous
100
AcDbLine
 10
326.434365
 20
222.6995309999999
 30
0.0
 11
325.8984669999999
 21
223.6277349999999
 31
0.0
  0
LINE
  5
B226
330
B16C
100
AcDbEntity
  8
1
  6
Continuous
100
AcDbLine
 10
330.898467
 20
232.2681059999999
 30
0.0
 11
330.898467
 21
223.6277349999999
 31
0.0
  0
ARC
  5
B227
330
B16C
100
AcDbEntity
  8
1
  6
Continuous
100
AcDbCircle
 10
319.434365
 20
229.6277349999999
 30
0.0
 40
11.464102
100
AcDbArc
 50
342.4120459999999
 51
17.587954
  0
ARC
  5
B228
330
B16C
100
AcDbEntity
  8
1
  6
Continuous
100
AcDbCircle
 10
337.3625679999999
 20
229.6277349999999
 30
0.0
 40
11.464102
100
AcDbArc
 50
162.412046
 51
197.5879539999999
  0
LINE
  5
B229
330
B16C
100
AcDbEntity
  8
1
  6
Continuous
100
AcDbLine
 10
325.8984669999999
 20
235.627735
 30
0.0
 11
325.8984669999999
 21
223.6277349999999
 31
0.0
  0
LINE
  5
B22A
330
B16C
100
AcDbEntity
  8
1
  6
Continuous
100
AcDbLine
 10
332.898467
 20
222.127735
 30
0.0
 11
330.898467
 21
222.127735
 31
0.0
  0
LINE
  5
B22B
330
B16C
100
AcDbEntity
  8
1
  6
Continuous
100
AcDbLine
 10
330.898467
 20
222.127735
 30
0.0
 11
330.898467
 21
232.2681059999999
 31
0.0
  0
LINE
  5
B22C
330
B16C
100
AcDbEntity
  8
1
  6
Continuous
100
AcDbLine
 10
331.9449569999998
 20
230.674225
 30
0.0
 11
330.898467
 21
229.6277349999999
 31
0.0
  0
LINE
  5
B22D
330
B16C
100
AcDbEntity
  8
1
  6
Continuous
100
AcDbLine
 10
332.5234169999998
 20
229.2729279999999
 30
0.0
 11
330.898467
 21
227.6479769999999
 31
0.0
  0
CIRCLE
  5
B22E
330
B16C
100
AcDbEntity
  8
1
  6
Continuous
100
AcDbCircle
 10
209.236339
 20
229.6277389999999
 30
0.0
 40
7.5
  0
LINE
  5
B22F
330
B16C
100
AcDbEntity
  8
1
  6
Continuous
100
AcDbLine
 10
205.236339
 20
113.6703629999999
 30
0.0
 11
213.236339
 21
113.6703629999999
 31
0.0
  0
LINE
  5
B230
330
B16C
100
AcDbEntity
  8
1
  6
Continuous
100
AcDbLine
 10
206.2363389999999
 20
114.6703629999999
 30
0.0
 11
212.2363389999999
 21
114.6703629999999
 31
0.0
  0
LINE
  5
B231
330
B16C
100
AcDbEntity
  8
1
  6
Continuous
100
AcDbLine
 10
205.236339
 20
112.7703629999998
 30
0.0
 11
205.236339
 21
113.6703629999999
 31
0.0
  0
LINE
  5
B232
330
B16C
100
AcDbEntity
  8
1
  6
Continuous
100
AcDbLine
 10
213.236339
 20
112.7703629999998
 30
0.0
 11
213.236339
 21
113.6703629999999
 31
0.0
  0
LINE
  5
B233
330
B16C
100
AcDbEntity
  8
2
  6
Continuous
100
AcDbLine
 10
212.5598389999999
 20
112.7703629999998
 30
0.0
 11
212.5598389999999
 21
114.3468629999998
 31
0.0
  0
LINE
  5
B234
330
B16C
100
AcDbEntity
  8
2
  6
Continuous
100
AcDbLine
 10
205.912839
 20
112.7703629999998
 30
0.0
 11
205.912839
 21
114.3468629999998
 31
0.0
  0
LINE
  5
B235
330
B16C
100
AcDbEntity
  8
1
  6
Continuous
100
AcDbLine
 10
206.2363389999999
 20
114.6703629999999
 30
0.0
 11
205.236339
 21
113.6703629999999
 31
0.0
  0
LINE
  5
B236
330
B16C
100
AcDbEntity
  8
1
  6
Continuous
100
AcDbLine
 10
212.2363389999999
 20
114.6703629999999
 30
0.0
 11
213.236339
 21
113.6703629999999
 31
0.0
  0
LINE
  5
B237
330
B16C
100
AcDbEntity
  8
1
  6
Continuous
100
AcDbLine
 10
93.48692900000001
 20
232.627753
 30
0.0
 11
92.48692899999999
 21
233.6277529999999
 31
0.0
  0
LINE
  5
B238
330
B16C
100
AcDbEntity
  8
1
  6
Continuous
100
AcDbLine
 10
93.48692900000001
 20
226.6277529999999
 30
0.0
 11
92.48692899999999
 21
225.6277529999999
 31
0.0
  0
LINE
  5
B239
330
B16C
100
AcDbEntity
  8
2
  6
Continuous
100
AcDbLine
 10
91.586929
 20
226.3042529999999
 30
0.0
 11
93.163429
 21
226.3042529999999
 31
0.0
  0
LINE
  5
B23A
330
B16C
100
AcDbEntity
  8
2
  6
Continuous
100
AcDbLine
 10
91.586929
 20
232.9512529999998
 30
0.0
 11
93.163429
 21
232.9512529999998
 31
0.0
  0
LINE
  5
B23B
330
B16C
100
AcDbEntity
  8
1
  6
Continuous
100
AcDbLine
 10
91.586929
 20
233.6277529999999
 30
0.0
 11
92.48692899999999
 21
233.6277529999999
 31
0.0
  0
LINE
  5
B23C
330
B16C
100
AcDbEntity
  8
1
  6
Continuous
100
AcDbLine
 10
91.586929
 20
225.6277529999999
 30
0.0
 11
92.48692899999999
 21
225.6277529999999
 31
0.0
  0
LINE
  5
B23D
330
B16C
100
AcDbEntity
  8
1
  6
Continuous
100
AcDbLine
 10
93.48692900000001
 20
226.6277529999999
 30
0.0
 11
93.48692900000001
 21
232.627753
 31
0.0
  0
LINE
  5
B23E
330
B16C
100
AcDbEntity
  8
1
  6
Continuous
100
AcDbLine
 10
92.48692899999999
 20
225.6277529999999
 30
0.0
 11
92.48692899999999
 21
233.6277529999999
 31
0.0
  0
LINE
  5
B23F
330
B16C
100
AcDbEntity
  8
1
  6
Continuous
100
AcDbLine
 10
323.998467
 20
226.627735
 30
0.0
 11
323.998467
 21
232.627735
 31
0.0
  0
LINE
  5
B240
330
B16C
100
AcDbEntity
  8
1
  6
Continuous
100
AcDbLine
 10
325.8984669999999
 20
233.627735
 30
0.0
 11
324.9984669999999
 21
233.627735
 31
0.0
  0
LINE
  5
B241
330
B16C
100
AcDbEntity
  8
1
  6
Continuous
100
AcDbLine
 10
325.8984669999999
 20
225.6277349999999
 30
0.0
 11
324.9984669999999
 21
225.6277349999999
 31
0.0
  0
LINE
  5
B242
330
B16C
100
AcDbEntity
  8
1
  6
Continuous
100
AcDbLine
 10
324.9984669999999
 20
225.6277349999999
 30
0.0
 11
324.9984669999999
 21
233.627735
 31
0.0
  0
LINE
  5
B243
330
B16C
100
AcDbEntity
  8
1
  6
Continuous
100
AcDbLine
 10
323.998467
 20
232.627735
 30
0.0
 11
324.9984669999999
 21
233.627735
 31
0.0
  0
LINE
  5
B244
330
B16C
100
AcDbEntity
  8
1
  6
Continuous
100
AcDbLine
 10
323.998467
 20
226.627735
 30
0.0
 11
324.9984669999999
 21
225.6277349999999
 31
0.0
  0
LINE
  5
B245
330
B16C
100
AcDbEntity
  8
2
  6
Continuous
100
AcDbLine
 10
325.8984669999999
 20
226.304235
 30
0.0
 11
324.3219669999998
 21
226.304235
 31
0.0
  0
LINE
  5
B246
330
B16C
100
AcDbEntity
  8
2
  6
Continuous
100
AcDbLine
 10
325.8984669999999
 20
232.9512349999999
 30
0.0
 11
324.3219669999998
 21
232.9512349999999
 31
0.0
  0
ARC
  5
B247
330
B16C
100
AcDbEntity
  8
1
  6
Continuous
100
AcDbCircle
 10
209.236339
 20
229.6277389999999
 30
0.0
 40
40.533539
100
AcDbArc
 50
88.331756
 51
28.25553499999999
  0
ARC
  5
B248
330
B16C
100
AcDbEntity
  8
1
  6
Continuous
100
AcDbCircle
 10
209.236339
 20
229.6277389999999
 30
0.0
 40
53.65
100
AcDbArc
 50
86.66410500000003
 51
35.298906
  0
ARC
  5
B249
330
B16C
100
AcDbEntity
  8
1
  6
Continuous
100
AcDbCircle
 10
209.236339
 20
229.6277389999999
 30
0.0
 40
65.0
100
AcDbArc
 50
86.69641400000001
 51
39.834024
  0
CIRCLE
  5
B24A
330
B16C
100
AcDbEntity
  8
1
  6
Continuous
100
AcDbCircle
 10
209.236339
 20
193.6277389999999
 30
0.0
 40
3.7
  0
ARC
  5
B24B
330
B16C
100
AcDbEntity
  8
1
  6
Continuous
100
AcDbCircle
 10
209.236339
 20
229.6277389999999
 30
0.0
 40
31.415325
100
AcDbArc
 50
91.79576500000001
 51
20.878579
  0
CIRCLE
  5
B24C
330
B16C
100
AcDbEntity
  8
1
  6
Continuous
100
AcDbCircle
 10
174.998304
 20
218.503127
 30
0.0
 40
3.7
  0
CIRCLE
  5
B24D
330
B16C
100
AcDbEntity
  8
1
  6
Continuous
100
AcDbCircle
 10
243.474374
 20
218.503127
 30
0.0
 40
3.7
  0
LINE
  5
B24E
330
B16C
100
AcDbEntity
  8
4
  6
CENTER
100
AcDbLine
 10
245.2363389999999
 20
409.84423
 30
0.0
 11
245.2363389999999
 21
474.8442299999998
 31
0.0
  0
CIRCLE
  5
B24F
330
B16C
100
AcDbEntity
  8
1
  6
Continuous
100
AcDbCircle
 10
245.2363389999999
 20
442.3442299999998
 30
0.0
 40
25.0
  0
CIRCLE
  5
B250
330
B16C
100
AcDbEntity
  8
1
  6
Continuous
100
AcDbCircle
 10
245.2363389999999
 20
442.3442299999998
 30
0.0
 40
26.6861
  0
LINE
  5
B251
330
B16C
100
AcDbEntity
  8
4
  6
CENTER
100
AcDbLine
 10
279.2363689999999
 20
442.3442299999998
 30
0.0
 11
139.2363349999999
 21
442.3442299999998
 31
0.0
  0
ARC
  5
B252
330
B16C
100
AcDbEntity
  8
1
  6
Continuous
100
AcDbCircle
 10
245.354157
 20
442.3442299999998
 30
0.0
 40
28.865452
100
AcDbArc
 50
139.838719
 51
220.5077509999999
  0
LINE
  5
B253
330
B16C
100
AcDbEntity
  8
1
  6
Continuous
100
AcDbLine
 10
229.0705319999999
 20
442.3442299999998
 30
0.0
 11
237.153435
 21
428.3442299999999
 31
0.0
  0
LINE
  5
B254
330
B16C
100
AcDbEntity
  8
1
  6
Continuous
100
AcDbLine
 10
261.402147
 20
442.3442299999998
 30
0.0
 11
253.319243
 21
428.3442299999999
 31
0.0
  0
LINE
  5
B255
330
B16C
100
AcDbEntity
  8
1
  6
Continuous
100
AcDbLine
 10
237.153435
 20
428.3442299999999
 30
0.0
 11
253.319243
 21
428.3442299999999
 31
0.0
  0
LINE
  5
B256
330
B16C
100
AcDbEntity
  8
1
  6
Continuous
100
AcDbLine
 10
237.153435
 20
456.34423
 30
0.0
 11
253.319243
 21
456.34423
 31
0.0
  0
ARC
  5
B257
330
B16C
100
AcDbEntity
  8
1
  6
Continuous
100
AcDbCircle
 10
245.2363389999999
 20
442.3442299999998
 30
0.0
 40
9.25
100
AcDbArc
 50
115.4843689999999
 51
244.515631
  0
CIRCLE
  5
B258
330
B16C
100
AcDbEntity
  8
1
  6
Continuous
100
AcDbCircle
 10
245.2363389999999
 20
442.3442299999998
 30
0.0
 40
6.0
  0
ARC
  5
B259
330
B16C
100
AcDbEntity
  8
1
  6
Continuous
100
AcDbCircle
 10
245.2363389999999
 20
442.3442299999998
 30
0.0
 40
9.25
100
AcDbArc
 50
295.484369
 51
64.515631
  0
LINE
  5
B25A
330
B16C
100
AcDbEntity
  8
1
  6
Continuous
100
AcDbLine
 10
261.402147
 20
442.3442299999998
 30
0.0
 11
253.319243
 21
456.34423
 31
0.0
  0
CIRCLE
  5
B25B
330
B16C
100
AcDbEntity
  8
1
  6
Continuous
100
AcDbCircle
 10
245.2363389999999
 20
442.3442299999998
 30
0.0
 40
4.499976
  0
LINE
  5
B25C
330
B16C
100
AcDbEntity
  8
1
  6
Continuous
100
AcDbLine
 10
249.2162889999999
 20
433.9942299999998
 30
0.0
 11
241.256389
 21
433.9942299999998
 31
0.0
  0
LINE
  5
B25D
330
B16C
100
AcDbEntity
  8
1
  6
Continuous
100
AcDbLine
 10
249.2162889999999
 20
450.69423
 30
0.0
 11
241.256389
 21
450.69423
 31
0.0
  0
LINE
  5
B25E
330
B16C
100
AcDbEntity
  8
1
  6
Continuous
100
AcDbLine
 10
229.0705319999999
 20
442.3442299999998
 30
0.0
 11
237.153435
 21
456.34423
 31
0.0
  0
LINE
  5
B25F
330
B16C
100
AcDbEntity
  8
4
  6
CENTER
100
AcDbLine
 10
209.236352
 20
410.0962349999998
 30
0.0
 11
209.236352
 21
470.699749
 31
0.0
  0
ARC
  5
B260
330
B16C
100
AcDbEntity
  8
1
  6
Continuous
100
AcDbCircle
 10
261.313613
 20
442.344222
 30
0.0
 40
53.38794100000001
100
AcDbArc
 50
159.892807
 51
200.1071739999999
  0
LINE
  5
B262
330
B16C
100
AcDbEntity
  8
1
  6
Continuous
100
AcDbLine
 10
337.233719
 20
315.6279229999999
 30
0.0
 11
337.233719
 21
312.127945
 31
0.0
  0
LINE
  5
B263
330
B16C
100
AcDbEntity
  8
1
  6
Continuous
100
AcDbLine
 10
365.233719
 20
315.6279229999999
 30
0.0
 11
365.233719
 21
312.127945
 31
0.0
  0
LINE
  5
B264
330
B16C
100
AcDbEntity
  8
1
  6
Continuous
100
AcDbLine
 10
342.8837429999999
 20
360.5279229999999
 30
0.0
 11
342.8837429999999
 21
363.7279229999998
 31
0.0
  0
LINE
  5
B265
330
B16C
100
AcDbEntity
  8
1
  6
Continuous
100
AcDbLine
 10
359.583743
 20
360.5279229999999
 30
0.0
 11
359.583743
 21
363.7279229999998
 31
0.0
  0
CIRCLE
  5
B266
330
B16C
100
AcDbEntity
  8
2
  6
Continuous
100
AcDbCircle
 10
245.2363389999999
 20
442.3442299999998
 30
0.0
 40
5.052999999999999
  0
CIRCLE
  5
B267
330
B16C
100
AcDbEntity
  8
1
  6
Continuous
100
AcDbCircle
 10
245.2363389999999
 20
442.3442299999998
 30
0.0
 40
9.5
  0
ARC
  5
B268
330
B16C
100
AcDbEntity
  8
1
  6
Continuous
100
AcDbCircle
 10
87.23893399999999
 20
308.1279589999998
 30
0.0
 40
4.0
100
AcDbArc
 50
0.0
 51
90.0
  0
ARC
  5
B269
330
B16C
100
AcDbEntity
  8
1
  6
Continuous
100
AcDbCircle
 10
45.238934
 20
308.1279589999998
 30
0.0
 40
4.0
100
AcDbArc
 50
90.0
 51
180.0
  0
LINE
  5
B26A
330
B16C
100
AcDbEntity
  8
1
  6
Continuous
100
AcDbLine
 10
71.665532
 20
304.312753
 30
0.0
 11
69.66553199999999
 21
306.8337529999999
 31
0.0
  0
LINE
  5
B26B
330
B16C
100
AcDbEntity
  8
1
  6
Continuous
100
AcDbLine
 10
70.37263900000002
 20
304.312753
 30
0.0
 11
72.37263900000002
 21
306.8337529999999
 31
0.0
  0
LINE
  5
B26C
330
B16C
100
AcDbEntity
  8
1
  6
Continuous
100
AcDbLine
 10
39.55283399999999
 20
306.8337529999999
 30
0.0
 11
92.92503399999999
 21
306.8337529999999
 31
0.0
  0
LINE
  5
B26D
330
B16C
100
AcDbEntity
  8
1
  6
Continuous
100
AcDbLine
 10
92.92503399999999
 20
308.1279589999998
 30
0.0
 11
39.55283399999999
 21
308.1279589999998
 31
0.0
  0
LINE
  5
B26E
330
B16C
100
AcDbEntity
  8
1
  6
Continuous
100
AcDbLine
 10
51.28075599999998
 20
304.312753
 30
0.0
 11
53.280756
 21
306.8337529999999
 31
0.0
  0
LINE
  5
B26F
330
B16C
100
AcDbEntity
  8
1
  6
Continuous
100
AcDbLine
 10
49.159436
 20
304.312753
 30
0.0
 11
51.159436
 21
306.8337529999999
 31
0.0
  0
LINE
  5
B270
330
B16C
100
AcDbEntity
  8
1
  6
Continuous
100
AcDbLine
 10
51.86654199999999
 20
304.312753
 30
0.0
 11
49.866542
 21
306.8337529999999
 31
0.0
  0
LINE
  5
B271
330
B16C
100
AcDbEntity
  8
1
  6
Continuous
100
AcDbLine
 10
44.916795
 20
304.312753
 30
0.0
 11
46.916795
 21
306.8337529999999
 31
0.0
  0
LINE
  5
B272
330
B16C
100
AcDbEntity
  8
1
  6
Continuous
100
AcDbLine
 10
46.20968799999999
 20
304.312753
 30
0.0
 11
44.20968799999999
 21
306.8337529999999
 31
0.0
  0
LINE
  5
B273
330
B16C
100
AcDbEntity
  8
1
  6
Continuous
100
AcDbLine
 10
40.55283399999999
 20
306.8337529999999
 30
0.0
 11
39.55283399999999
 21
305.3127529999998
 31
0.0
  0
LINE
  5
B274
330
B16C
100
AcDbEntity
  8
1
  6
Continuous
100
AcDbLine
 10
40.67415399999997
 20
304.312753
 30
0.0
 11
42.67415399999999
 21
306.8337529999999
 31
0.0
  0
LINE
  5
B275
330
B16C
100
AcDbEntity
  8
1
  6
Continuous
100
AcDbLine
 10
40.55283399999999
 20
304.312753
 30
0.0
 11
39.55283399999999
 21
305.3127529999998
 31
0.0
  0
LINE
  5
B276
330
B16C
100
AcDbEntity
  8
1
  6
Continuous
100
AcDbLine
 10
42.795475
 20
304.312753
 30
0.0
 11
44.795475
 21
306.8337529999999
 31
0.0
  0
LINE
  5
B277
330
B16C
100
AcDbEntity
  8
1
  6
Continuous
100
AcDbLine
 10
43.381261
 20
304.312753
 30
0.0
 11
41.381261
 21
306.8337529999999
 31
0.0
  0
LINE
  5
B278
330
B16C
100
AcDbEntity
  8
1
  6
Continuous
100
AcDbLine
 10
47.03811499999999
 20
304.312753
 30
0.0
 11
49.03811499999999
 21
306.8337529999999
 31
0.0
  0
LINE
  5
B279
330
B16C
100
AcDbEntity
  8
1
  6
Continuous
100
AcDbLine
 10
49.03811499999999
 20
304.312753
 30
0.0
 11
47.03811499999999
 21
306.8337529999999
 31
0.0
  0
LINE
  5
B27A
330
B16C
100
AcDbEntity
  8
1
  6
Continuous
100
AcDbLine
 10
39.55283399999999
 20
304.312753
 30
0.0
 11
39.55283399999999
 21
308.1279589999998
 31
0.0
  0
LINE
  5
B27B
330
B16C
100
AcDbEntity
  8
1
  6
Continuous
100
AcDbLine
 10
61.88735799999999
 20
304.312753
 30
0.0
 11
63.887358
 21
306.8337529999999
 31
0.0
  0
LINE
  5
B27C
330
B16C
100
AcDbEntity
  8
1
  6
Continuous
100
AcDbLine
 10
64.008678
 20
304.312753
 30
0.0
 11
66.008678
 21
306.8337529999999
 31
0.0
  0
LINE
  5
B27D
330
B16C
100
AcDbEntity
  8
1
  6
Continuous
100
AcDbLine
 10
63.18025099999999
 20
304.312753
 30
0.0
 11
61.180251
 21
306.8337529999999
 31
0.0
  0
LINE
  5
B27E
330
B16C
100
AcDbEntity
  8
1
  6
Continuous
100
AcDbLine
 10
66.008678
 20
304.312753
 30
0.0
 11
64.008678
 21
306.8337529999999
 31
0.0
  0
LINE
  5
B27F
330
B16C
100
AcDbEntity
  8
1
  6
Continuous
100
AcDbLine
 10
66.129998
 20
304.312753
 30
0.0
 11
68.129998
 21
306.8337529999999
 31
0.0
  0
LINE
  5
B280
330
B16C
100
AcDbEntity
  8
1
  6
Continuous
100
AcDbLine
 10
55.523397
 20
304.312753
 30
0.0
 11
57.523397
 21
306.8337529999999
 31
0.0
  0
LINE
  5
B281
330
B16C
100
AcDbEntity
  8
1
  6
Continuous
100
AcDbLine
 10
57.64471700000001
 20
304.312753
 30
0.0
 11
59.644717
 21
306.8337529999999
 31
0.0
  0
LINE
  5
B282
330
B16C
100
AcDbEntity
  8
1
  6
Continuous
100
AcDbLine
 10
57.523397
 20
304.312753
 30
0.0
 11
55.523397
 21
306.8337529999999
 31
0.0
  0
LINE
  5
B283
330
B16C
100
AcDbEntity
  8
1
  6
Continuous
100
AcDbLine
 10
60.351824
 20
304.312753
 30
0.0
 11
58.351824
 21
306.8337529999999
 31
0.0
  0
LINE
  5
B284
330
B16C
100
AcDbEntity
  8
1
  6
Continuous
100
AcDbLine
 10
54.69497
 20
304.312753
 30
0.0
 11
52.69497
 21
306.8337529999999
 31
0.0
  0
LINE
  5
B285
330
B16C
100
AcDbEntity
  8
1
  6
Continuous
100
AcDbLine
 10
53.402076
 20
304.312753
 30
0.0
 11
55.402076
 21
306.8337529999999
 31
0.0
  0
LINE
  5
B286
330
B16C
100
AcDbEntity
  8
1
  6
Continuous
100
AcDbLine
 10
59.766037
 20
304.312753
 30
0.0
 11
61.766037
 21
306.8337529999999
 31
0.0
  0
LINE
  5
B287
330
B16C
100
AcDbEntity
  8
1
  6
Continuous
100
AcDbLine
 10
68.25131899999999
 20
304.312753
 30
0.0
 11
70.25131899999999
 21
306.8337529999999
 31
0.0
  0
LINE
  5
B288
330
B16C
100
AcDbEntity
  8
1
  6
Continuous
100
AcDbLine
 10
68.83710500000001
 20
304.312753
 30
0.0
 11
66.837105
 21
306.8337529999999
 31
0.0
  0
LINE
  5
B289
330
B16C
100
AcDbEntity
  8
1
  6
Continuous
100
AcDbLine
 10
89.46452200000001
 20
304.312753
 30
0.0
 11
91.464522
 21
306.8337529999999
 31
0.0
  0
LINE
  5
B28A
330
B16C
100
AcDbEntity
  8
1
  6
Continuous
100
AcDbLine
 10
91.464522
 20
304.312753
 30
0.0
 11
89.46452200000001
 21
306.8337529999999
 31
0.0
  0
LINE
  5
B28B
330
B16C
100
AcDbEntity
  8
1
  6
Continuous
100
AcDbLine
 10
85.22188100000002
 20
304.312753
 30
0.0
 11
87.22188100000002
 21
306.8337529999999
 31
0.0
  0
LINE
  5
B28C
330
B16C
100
AcDbEntity
  8
1
  6
Continuous
100
AcDbLine
 10
85.80766800000002
 20
304.312753
 30
0.0
 11
83.80766800000001
 21
306.8337529999999
 31
0.0
  0
LINE
  5
B28D
330
B16C
100
AcDbEntity
  8
1
  6
Continuous
100
AcDbLine
 10
78.85791999999998
 20
304.312753
 30
0.0
 11
80.85791999999996
 21
306.8337529999999
 31
0.0
  0
LINE
  5
B28E
330
B16C
100
AcDbEntity
  8
1
  6
Continuous
100
AcDbLine
 10
80.979241
 20
304.312753
 30
0.0
 11
82.97924100000001
 21
306.8337529999999
 31
0.0
  0
LINE
  5
B28F
330
B16C
100
AcDbEntity
  8
1
  6
Continuous
100
AcDbLine
 10
80.15081399999997
 20
304.312753
 30
0.0
 11
78.15081399999998
 21
306.8337529999999
 31
0.0
  0
LINE
  5
B290
330
B16C
100
AcDbEntity
  8
1
  6
Continuous
100
AcDbLine
 10
82.97924100000001
 20
304.312753
 30
0.0
 11
80.979241
 21
306.8337529999999
 31
0.0
  0
LINE
  5
B291
330
B16C
100
AcDbEntity
  8
1
  6
Continuous
100
AcDbLine
 10
72.493959
 20
304.312753
 30
0.0
 11
74.493959
 21
306.8337529999999
 31
0.0
  0
LINE
  5
B292
330
B16C
100
AcDbEntity
  8
1
  6
Continuous
100
AcDbLine
 10
74.61528
 20
304.312753
 30
0.0
 11
76.61528
 21
306.8337529999999
 31
0.0
  0
LINE
  5
B293
330
B16C
100
AcDbEntity
  8
1
  6
Continuous
100
AcDbLine
 10
74.493959
 20
304.312753
 30
0.0
 11
72.493959
 21
306.8337529999999
 31
0.0
  0
LINE
  5
B294
330
B16C
100
AcDbEntity
  8
1
  6
Continuous
100
AcDbLine
 10
77.322387
 20
304.312753
 30
0.0
 11
75.322387
 21
306.8337529999999
 31
0.0
  0
LINE
  5
B295
330
B16C
100
AcDbEntity
  8
1
  6
Continuous
100
AcDbLine
 10
76.73659999999998
 20
304.312753
 30
0.0
 11
78.73659999999998
 21
306.8337529999999
 31
0.0
  0
LINE
  5
B296
330
B16C
100
AcDbEntity
  8
1
  6
Continuous
100
AcDbLine
 10
83.100561
 20
304.312753
 30
0.0
 11
85.10056099999998
 21
306.8337529999999
 31
0.0
  0
LINE
  5
B297
330
B16C
100
AcDbEntity
  8
1
  6
Continuous
100
AcDbLine
 10
87.343202
 20
304.312753
 30
0.0
 11
89.343202
 21
306.8337529999999
 31
0.0
  0
LINE
  5
B298
330
B16C
100
AcDbEntity
  8
1
  6
Continuous
100
AcDbLine
 10
88.63609499999999
 20
304.312753
 30
0.0
 11
86.63609499999996
 21
306.8337529999999
 31
0.0
  0
ARC
  5
B299
330
B16C
100
AcDbEntity
  8
1
  6
Continuous
100
AcDbCircle
 10
91.82229699999997
 20
301.473591
 30
0.0
 40
2.839261999999998
100
AcDbArc
 50
86.26253100000004
 51
90.48175099999999
  0
LINE
  5
B29A
330
B16C
100
AcDbEntity
  8
1
  6
Continuous
100
AcDbLine
 10
91.58584299999999
 20
304.312753
 30
0.0
 11
92.92503399999999
 21
306.1729439999999
 31
0.0
  0
LINE
  5
B29B
330
B16C
100
AcDbEntity
  8
1
  6
Continuous
100
AcDbLine
 10
92.92503399999999
 20
306.2016679999999
 30
0.0
 11
92.29294899999999
 21
306.8337529999999
 31
0.0
  0
LINE
  5
B29C
330
B16C
100
AcDbEntity
  8
1
  6
Continuous
100
AcDbLine
 10
92.92503399999999
 20
308.1279589999998
 30
0.0
 11
92.92503399999999
 21
304.312753
 31
0.0
  0
LINE
  5
B29D
330
B16C
100
AcDbEntity
  8
1
  6
Continuous
100
AcDbLine
 10
72.238973
 20
364.1279369999999
 30
0.0
 11
70.738973
 21
365.627937
 31
0.0
  0
LINE
  5
B29E
330
B16C
100
AcDbEntity
  8
1
  6
Continuous
100
AcDbLine
 10
57.888934
 20
363.7279369999998
 30
0.0
 11
74.58893399999998
 21
363.7279369999998
 31
0.0
  0
LINE
  5
B29F
330
B16C
100
AcDbEntity
  8
1
  6
Continuous
100
AcDbLine
 10
60.238973
 20
364.1279369999999
 30
0.0
 11
72.238973
 21
364.1279369999999
 31
0.0
  0
LINE
  5
B2A0
330
B16C
100
AcDbEntity
  8
1
  6
Continuous
100
AcDbLine
 10
57.73893399999999
 20
360.527937
 30
0.0
 11
74.738934
 21
360.527937
 31
0.0
  0
LINE
  5
B2A1
330
B16C
100
AcDbEntity
  8
1
  6
Continuous
100
AcDbLine
 10
56.73893399999999
 20
319.527937
 30
0.0
 11
75.738934
 21
319.527937
 31
0.0
  0
LINE
  5
B2A2
330
B16C
100
AcDbEntity
  8
1
  6
Continuous
100
AcDbLine
 10
45.238934
 20
312.1279589999998
 30
0.0
 11
87.23893399999999
 21
312.1279589999998
 31
0.0
  0
LINE
  5
B2A3
330
B16C
100
AcDbEntity
  8
1
  6
Continuous
100
AcDbLine
 10
80.238934
 20
315.627937
 30
0.0
 11
52.238934
 21
315.627937
 31
0.0
  0
LINE
  5
B2A4
330
B16C
100
AcDbEntity
  8
1
  6
Continuous
100
AcDbLine
 10
56.73893399999999
 20
317.1279369999999
 30
0.0
 11
56.73893399999999
 21
359.527937
 31
0.0
  0
ARC
  5
B2A5
330
B16C
100
AcDbEntity
  8
1
  6
Continuous
100
AcDbCircle
 10
58.23893399999999
 20
317.1279369999999
 30
0.0
 40
1.5
100
AcDbArc
 50
180.0
 51
270.0
  0
LINE
  5
B2A6
330
B16C
100
AcDbEntity
  8
1
  6
Continuous
100
AcDbLine
 10
60.238973
 20
363.7279369999998
 30
0.0
 11
60.238973
 21
364.1279369999999
 31
0.0
  0
LINE
  5
B2A7
330
B16C
100
AcDbEntity
  8
1
  6
Continuous
100
AcDbLine
 10
61.738973
 20
365.627937
 30
0.0
 11
60.238973
 21
364.1279369999999
 31
0.0
  0
LINE
  5
B2A8
330
B16C
100
AcDbEntity
  8
1
  6
Continuous
100
AcDbLine
 10
61.738973
 20
365.627937
 30
0.0
 11
70.738973
 21
365.627937
 31
0.0
  0
LINE
  5
B2A9
330
B16C
100
AcDbEntity
  8
2
  6
Continuous
100
AcDbLine
 10
61.18593399999999
 20
363.7279369999998
 30
0.0
 11
61.18593399999999
 21
365.074898
 31
0.0
  0
LINE
  5
B2AA
330
B16C
100
AcDbEntity
  8
2
  6
Continuous
100
AcDbLine
 10
71.291934
 20
363.7279369999998
 30
0.0
 11
71.291934
 21
365.074976
 31
0.0
  0
ARC
  5
B2AB
330
B16C
100
AcDbEntity
  8
1
  6
Continuous
100
AcDbCircle
 10
57.73893399999999
 20
359.527937
 30
0.0
 40
1.0
100
AcDbArc
 50
90.0
 51
180.0
  0
LINE
  5
B2AC
330
B16C
100
AcDbEntity
  8
1
  6
Continuous
100
AcDbLine
 10
75.738934
 20
317.1279369999999
 30
0.0
 11
75.738934
 21
359.527937
 31
0.0
  0
ARC
  5
B2AD
330
B16C
100
AcDbEntity
  8
1
  6
Continuous
100
AcDbCircle
 10
74.238934
 20
317.1279369999999
 30
0.0
 40
1.5
100
AcDbArc
 50
270.0
 51
0.0
  0
LINE
  5
B2AE
330
B16C
100
AcDbEntity
  8
1
  6
Continuous
100
AcDbLine
 10
72.238973
 20
364.1279369999999
 30
0.0
 11
72.238973
 21
363.7279369999998
 31
0.0
  0
ARC
  5
B2AF
330
B16C
100
AcDbEntity
  8
1
  6
Continuous
100
AcDbCircle
 10
74.738934
 20
359.527937
 30
0.0
 40
1.0
100
AcDbArc
 50
0.0
 51
90.0
  0
LINE
  5
B2B0
330
B16C
100
AcDbEntity
  8
1
  6
Continuous
100
AcDbLine
 10
57.888934
 20
360.527937
 30
0.0
 11
57.888934
 21
363.7279369999998
 31
0.0
  0
LINE
  5
B2B1
330
B16C
100
AcDbEntity
  8
1
  6
Continuous
100
AcDbLine
 10
74.58893399999998
 20
360.527937
 30
0.0
 11
74.58893399999998
 21
363.7279369999998
 31
0.0
  0
LINE
  5
B2B2
330
B16C
100
AcDbEntity
  8
1
  6
Continuous
100
AcDbLine
 10
52.238934
 20
315.627937
 30
0.0
 11
52.238934
 21
312.1279589999998
 31
0.0
  0
LINE
  5
B2B3
330
B16C
100
AcDbEntity
  8
1
  6
Continuous
100
AcDbLine
 10
80.238934
 20
315.627937
 30
0.0
 11
80.238934
 21
312.1279589999998
 31
0.0
  0
LINE
  5
B2B4
330
B16C
100
AcDbEntity
  8
1
  6
Continuous
100
AcDbLine
 10
351.233719
 20
315.6279229999999
 30
0.0
 11
351.233719
 21
312.127945
 31
0.0
  0
LINE
  5
B2B5
330
B16C
100
AcDbEntity
  8
1
  6
Continuous
100
AcDbLine
 10
66.238934
 20
315.627937
 30
0.0
 11
66.238934
 21
312.1279589999998
 31
0.0
  0
ARC
  5
B2B6
330
B16C
100
AcDbEntity
  8
1
  6
Continuous
100
AcDbCircle
 10
266.2363389999998
 20
308.127945
 30
0.0
 40
4.0
100
AcDbArc
 50
0.0
 51
90.0
  0
ARC
  5
B2B7
330
B16C
100
AcDbEntity
  8
1
  6
Continuous
100
AcDbCircle
 10
224.2363389999999
 20
308.127945
 30
0.0
 40
4.0
100
AcDbArc
 50
90.0
 51
180.0
  0
LINE
  5
B2B8
330
B16C
100
AcDbEntity
  8
1
  6
Continuous
100
AcDbLine
 10
250.662937
 20
304.312739
 30
0.0
 11
248.662937
 21
306.8337389999999
 31
0.0
  0
LINE
  5
B2B9
330
B16C
100
AcDbEntity
  8
1
  6
Continuous
100
AcDbLine
 10
249.370044
 20
304.312739
 30
0.0
 11
251.370044
 21
306.8337389999999
 31
0.0
  0
LINE
  5
B2BA
330
B16C
100
AcDbEntity
  8
1
  6
Continuous
100
AcDbLine
 10
218.5502389999999
 20
306.8337389999999
 30
0.0
 11
271.9224389999999
 21
306.8337389999999
 31
0.0
  0
LINE
  5
B2BB
330
B16C
100
AcDbEntity
  8
1
  6
Continuous
100
AcDbLine
 10
271.9224389999999
 20
308.127945
 30
0.0
 11
218.5502389999999
 21
308.127945
 31
0.0
  0
LINE
  5
B2BC
330
B16C
100
AcDbEntity
  8
1
  6
Continuous
100
AcDbLine
 10
230.2781609999999
 20
304.312739
 30
0.0
 11
232.2781609999999
 21
306.8337389999999
 31
0.0
  0
LINE
  5
B2BD
330
B16C
100
AcDbEntity
  8
1
  6
Continuous
100
AcDbLine
 10
228.1568409999999
 20
304.312739
 30
0.0
 11
230.1568409999999
 21
306.8337389999999
 31
0.0
  0
LINE
  5
B2BE
330
B16C
100
AcDbEntity
  8
1
  6
Continuous
100
AcDbLine
 10
230.863947
 20
304.312739
 30
0.0
 11
228.863947
 21
306.8337389999999
 31
0.0
  0
LINE
  5
B2BF
330
B16C
100
AcDbEntity
  8
1
  6
Continuous
100
AcDbLine
 10
223.9142
 20
304.312739
 30
0.0
 11
225.9142
 21
306.8337389999999
 31
0.0
  0
LINE
  5
B2C0
330
B16C
100
AcDbEntity
  8
1
  6
Continuous
100
AcDbLine
 10
225.2070929999999
 20
304.312739
 30
0.0
 11
223.2070929999999
 21
306.8337389999999
 31
0.0
  0
LINE
  5
B2C1
330
B16C
100
AcDbEntity
  8
1
  6
Continuous
100
AcDbLine
 10
219.550239
 20
306.8337389999999
 30
0.0
 11
218.5502389999999
 21
305.312739
 31
0.0
  0
LINE
  5
B2C2
330
B16C
100
AcDbEntity
  8
1
  6
Continuous
100
AcDbLine
 10
219.6715589999998
 20
304.312739
 30
0.0
 11
221.6715589999998
 21
306.8337389999999
 31
0.0
  0
LINE
  5
B2C3
330
B16C
100
AcDbEntity
  8
1
  6
Continuous
100
AcDbLine
 10
219.550239
 20
304.312739
 30
0.0
 11
218.5502389999999
 21
305.312739
 31
0.0
  0
LINE
  5
B2C4
330
B16C
100
AcDbEntity
  8
1
  6
Continuous
100
AcDbLine
 10
221.7928799999999
 20
304.312739
 30
0.0
 11
223.7928799999999
 21
306.8337389999999
 31
0.0
  0
LINE
  5
B2C5
330
B16C
100
AcDbEntity
  8
1
  6
Continuous
100
AcDbLine
 10
222.378666
 20
304.312739
 30
0.0
 11
220.378666
 21
306.8337389999999
 31
0.0
  0
LINE
  5
B2C6
330
B16C
100
AcDbEntity
  8
1
  6
Continuous
100
AcDbLine
 10
226.0355199999999
 20
304.312739
 30
0.0
 11
228.0355199999999
 21
306.8337389999999
 31
0.0
  0
LINE
  5
B2C7
330
B16C
100
AcDbEntity
  8
1
  6
Continuous
100
AcDbLine
 10
228.0355199999999
 20
304.312739
 30
0.0
 11
226.0355199999999
 21
306.8337389999999
 31
0.0
  0
LINE
  5
B2C8
330
B16C
100
AcDbEntity
  8
1
  6
Continuous
100
AcDbLine
 10
218.5502389999999
 20
304.312739
 30
0.0
 11
218.5502389999999
 21
308.127945
 31
0.0
  0
LINE
  5
B2C9
330
B16C
100
AcDbEntity
  8
1
  6
Continuous
100
AcDbLine
 10
240.8847629999999
 20
304.312739
 30
0.0
 11
242.8847629999999
 21
306.8337389999999
 31
0.0
  0
LINE
  5
B2CA
330
B16C
100
AcDbEntity
  8
1
  6
Continuous
100
AcDbLine
 10
243.0060829999999
 20
304.312739
 30
0.0
 11
245.0060829999999
 21
306.8337389999999
 31
0.0
  0
LINE
  5
B2CB
330
B16C
100
AcDbEntity
  8
1
  6
Continuous
100
AcDbLine
 10
242.177656
 20
304.312739
 30
0.0
 11
240.177656
 21
306.8337389999999
 31
0.0
  0
LINE
  5
B2CC
330
B16C
100
AcDbEntity
  8
1
  6
Continuous
100
AcDbLine
 10
245.0060829999999
 20
304.312739
 30
0.0
 11
243.0060829999999
 21
306.8337389999999
 31
0.0
  0
LINE
  5
B2CD
330
B16C
100
AcDbEntity
  8
1
  6
Continuous
100
AcDbLine
 10
245.1274029999999
 20
304.312739
 30
0.0
 11
247.127403
 21
306.8337389999999
 31
0.0
  0
LINE
  5
B2CE
330
B16C
100
AcDbEntity
  8
1
  6
Continuous
100
AcDbLine
 10
234.520802
 20
304.312739
 30
0.0
 11
236.520802
 21
306.8337389999999
 31
0.0
  0
LINE
  5
B2CF
330
B16C
100
AcDbEntity
  8
1
  6
Continuous
100
AcDbLine
 10
236.642122
 20
304.312739
 30
0.0
 11
238.642122
 21
306.8337389999999
 31
0.0
  0
LINE
  5
B2D0
330
B16C
100
AcDbEntity
  8
1
  6
Continuous
100
AcDbLine
 10
236.520802
 20
304.312739
 30
0.0
 11
234.520802
 21
306.8337389999999
 31
0.0
  0
LINE
  5
B2D1
330
B16C
100
AcDbEntity
  8
1
  6
Continuous
100
AcDbLine
 10
239.349229
 20
304.312739
 30
0.0
 11
237.349229
 21
306.8337389999999
 31
0.0
  0
LINE
  5
B2D2
330
B16C
100
AcDbEntity
  8
1
  6
Continuous
100
AcDbLine
 10
233.6923749999999
 20
304.312739
 30
0.0
 11
231.6923749999999
 21
306.8337389999999
 31
0.0
  0
LINE
  5
B2D3
330
B16C
100
AcDbEntity
  8
1
  6
Continuous
100
AcDbLine
 10
232.399481
 20
304.312739
 30
0.0
 11
234.399481
 21
306.8337389999999
 31
0.0
  0
LINE
  5
B2D4
330
B16C
100
AcDbEntity
  8
1
  6
Continuous
100
AcDbLine
 10
238.7634419999999
 20
304.312739
 30
0.0
 11
240.7634419999999
 21
306.8337389999999
 31
0.0
  0
LINE
  5
B2D5
330
B16C
100
AcDbEntity
  8
1
  6
Continuous
100
AcDbLine
 10
247.2487239999999
 20
304.312739
 30
0.0
 11
249.2487239999999
 21
306.8337389999999
 31
0.0
  0
LINE
  5
B2D6
330
B16C
100
AcDbEntity
  8
1
  6
Continuous
100
AcDbLine
 10
247.8345099999999
 20
304.312739
 30
0.0
 11
245.8345099999999
 21
306.8337389999999
 31
0.0
  0
LINE
  5
B2D7
330
B16C
100
AcDbEntity
  8
1
  6
Continuous
100
AcDbLine
 10
268.461927
 20
304.312739
 30
0.0
 11
270.461927
 21
306.8337389999999
 31
0.0
  0
LINE
  5
B2D8
330
B16C
100
AcDbEntity
  8
1
  6
Continuous
100
AcDbLine
 10
270.461927
 20
304.312739
 30
0.0
 11
268.461927
 21
306.8337389999999
 31
0.0
  0
LINE
  5
B2D9
330
B16C
100
AcDbEntity
  8
1
  6
Continuous
100
AcDbLine
 10
264.219286
 20
304.312739
 30
0.0
 11
266.219286
 21
306.8337389999999
 31
0.0
  0
LINE
  5
B2DA
330
B16C
100
AcDbEntity
  8
1
  6
Continuous
100
AcDbLine
 10
264.805073
 20
304.312739
 30
0.0
 11
262.805073
 21
306.8337389999999
 31
0.0
  0
LINE
  5
B2DB
330
B16C
100
AcDbEntity
  8
1
  6
Continuous
100
AcDbLine
 10
257.855325
 20
304.312739
 30
0.0
 11
259.855325
 21
306.8337389999999
 31
0.0
  0
LINE
  5
B2DC
330
B16C
100
AcDbEntity
  8
1
  6
Continuous
100
AcDbLine
 10
259.976646
 20
304.312739
 30
0.0
 11
261.976646
 21
306.8337389999999
 31
0.0
  0
LINE
  5
B2DD
330
B16C
100
AcDbEntity
  8
1
  6
Continuous
100
AcDbLine
 10
259.1482189999999
 20
304.312739
 30
0.0
 11
257.1482189999999
 21
306.8337389999999
 31
0.0
  0
LINE
  5
B2DE
330
B16C
100
AcDbEntity
  8
1
  6
Continuous
100
AcDbLine
 10
261.976646
 20
304.312739
 30
0.0
 11
259.976646
 21
306.8337389999999
 31
0.0
  0
LINE
  5
B2DF
330
B16C
100
AcDbEntity
  8
1
  6
Continuous
100
AcDbLine
 10
251.491364
 20
304.312739
 30
0.0
 11
253.491364
 21
306.8337389999999
 31
0.0
  0
LINE
  5
B2E0
330
B16C
100
AcDbEntity
  8
1
  6
Continuous
100
AcDbLine
 10
253.612685
 20
304.312739
 30
0.0
 11
255.612685
 21
306.8337389999999
 31
0.0
  0
LINE
  5
B2E1
330
B16C
100
AcDbEntity
  8
1
  6
Continuous
100
AcDbLine
 10
253.491364
 20
304.312739
 30
0.0
 11
251.491364
 21
306.8337389999999
 31
0.0
  0
LINE
  5
B2E2
330
B16C
100
AcDbEntity
  8
1
  6
Continuous
100
AcDbLine
 10
256.3197919999999
 20
304.312739
 30
0.0
 11
254.319792
 21
306.8337389999999
 31
0.0
  0
LINE
  5
B2E3
330
B16C
100
AcDbEntity
  8
1
  6
Continuous
100
AcDbLine
 10
255.7340049999999
 20
304.312739
 30
0.0
 11
257.7340049999999
 21
306.8337389999999
 31
0.0
  0
LINE
  5
B2E4
330
B16C
100
AcDbEntity
  8
1
  6
Continuous
100
AcDbLine
 10
262.0979659999999
 20
304.312739
 30
0.0
 11
264.0979659999999
 21
306.8337389999999
 31
0.0
  0
LINE
  5
B2E5
330
B16C
100
AcDbEntity
  8
1
  6
Continuous
100
AcDbLine
 10
266.3406069999999
 20
304.312739
 30
0.0
 11
268.3406069999999
 21
306.8337389999999
 31
0.0
  0
LINE
  5
B2E6
330
B16C
100
AcDbEntity
  8
1
  6
Continuous
100
AcDbLine
 10
267.6335
 20
304.312739
 30
0.0
 11
265.6335
 21
306.8337389999999
 31
0.0
  0
ARC
  5
B2E7
330
B16C
100
AcDbEntity
  8
1
  6
Continuous
100
AcDbCircle
 10
270.819702
 20
301.4735769999999
 30
0.0
 40
2.839261999999998
100
AcDbArc
 50
86.26253100000004
 51
90.48175099999999
  0
LINE
  5
B2E8
330
B16C
100
AcDbEntity
  8
1
  6
Continuous
100
AcDbLine
 10
270.583248
 20
304.312739
 30
0.0
 11
271.9224389999999
 21
306.17293
 31
0.0
  0
LINE
  5
B2E9
330
B16C
100
AcDbEntity
  8
1
  6
Continuous
100
AcDbLine
 10
271.9224389999999
 20
306.201654
 30
0.0
 11
271.2903539999999
 21
306.8337389999999
 31
0.0
  0
LINE
  5
B2EA
330
B16C
100
AcDbEntity
  8
1
  6
Continuous
100
AcDbLine
 10
271.9224389999999
 20
308.127945
 30
0.0
 11
271.9224389999999
 21
304.312739
 31
0.0
  0
LINE
  5
B2EB
330
B16C
100
AcDbEntity
  8
1
  6
Continuous
100
AcDbLine
 10
251.2363779999998
 20
364.127923
 30
0.0
 11
249.7363779999998
 21
365.6279229999999
 31
0.0
  0
LINE
  5
B2EC
330
B16C
100
AcDbEntity
  8
1
  6
Continuous
100
AcDbLine
 10
235.986339
 20
363.7279229999998
 30
0.0
 11
254.4863389999999
 21
363.7279229999998
 31
0.0
  0
LINE
  5
B2ED
330
B16C
100
AcDbEntity
  8
1
  6
Continuous
100
AcDbLine
 10
239.2363779999998
 20
364.127923
 30
0.0
 11
251.2363779999998
 21
364.127923
 31
0.0
  0
LINE
  5
B2EE
330
B16C
100
AcDbEntity
  8
1
  6
Continuous
100
AcDbLine
 10
235.986339
 20
360.5279229999999
 30
0.0
 11
254.4863389999999
 21
360.5279229999999
 31
0.0
  0
LINE
  5
B2EF
330
B16C
100
AcDbEntity
  8
1
  6
Continuous
100
AcDbLine
 10
235.7363389999999
 20
319.527923
 30
0.0
 11
254.736339
 21
319.527923
 31
0.0
  0
LINE
  5
B2F0
330
B16C
100
AcDbEntity
  8
1
  6
Continuous
100
AcDbLine
 10
224.2363389999999
 20
312.127945
 30
0.0
 11
266.2363389999998
 21
312.127945
 31
0.0
  0
LINE
  5
B2F1
330
B16C
100
AcDbEntity
  8
1
  6
Continuous
100
AcDbLine
 10
261.402123
 20
315.6279229999999
 30
0.0
 11
229.070507
 21
315.6279229999999
 31
0.0
  0
LINE
  5
B2F2
330
B16C
100
AcDbEntity
  8
1
  6
Continuous
100
AcDbLine
 10
235.7363389999999
 20
317.127923
 30
0.0
 11
235.7363389999999
 21
359.527923
 31
0.0
  0
LINE
  5
B2F3
330
B16C
100
AcDbEntity
  8
1
  6
Continuous
100
AcDbLine
 10
229.070507
 20
312.127945
 30
0.0
 11
229.070507
 21
315.6279229999999
 31
0.0
  0
LINE
  5
B2F4
330
B16C
100
AcDbEntity
  8
1
  6
Continuous
100
AcDbLine
 10
237.1534109999998
 20
312.127945
 30
0.0
 11
237.1534109999998
 21
315.6279229999999
 31
0.0
  0
ARC
  5
B2F5
330
B16C
100
AcDbEntity
  8
1
  6
Continuous
100
AcDbCircle
 10
237.2363389999999
 20
317.127923
 30
0.0
 40
1.5
100
AcDbArc
 50
180.0
 51
270.0
  0
LINE
  5
B2F6
330
B16C
100
AcDbEntity
  8
1
  6
Continuous
100
AcDbLine
 10
249.2162889999999
 20
363.7279229999998
 30
0.0
 11
249.2162889999999
 21
360.5279229999999
 31
0.0
  0
LINE
  5
B2F7
330
B16C
100
AcDbEntity
  8
1
  6
Continuous
100
AcDbLine
 10
241.256389
 20
363.7279229999998
 30
0.0
 11
241.256389
 21
360.5279229999999
 31
0.0
  0
LINE
  5
B2F8
330
B16C
100
AcDbEntity
  8
1
  6
Continuous
100
AcDbLine
 10
239.2363779999998
 20
363.7279229999998
 30
0.0
 11
239.2363779999998
 21
364.127923
 31
0.0
  0
LINE
  5
B2F9
330
B16C
100
AcDbEntity
  8
1
  6
Continuous
100
AcDbLine
 10
235.986339
 20
363.7279229999998
 30
0.0
 11
235.986339
 21
360.5279229999999
 31
0.0
  0
LINE
  5
B2FA
330
B16C
100
AcDbEntity
  8
1
  6
Continuous
100
AcDbLine
 10
240.7363779999998
 20
365.6279229999999
 30
0.0
 11
239.2363779999998
 21
364.127923
 31
0.0
  0
LINE
  5
B2FB
330
B16C
100
AcDbEntity
  8
1
  6
Continuous
100
AcDbLine
 10
240.7363779999998
 20
365.6279229999999
 30
0.0
 11
249.7363779999998
 21
365.6279229999999
 31
0.0
  0
LINE
  5
B2FC
330
B16C
100
AcDbEntity
  8
2
  6
Continuous
100
AcDbLine
 10
240.1833389999999
 20
363.7279229999998
 30
0.0
 11
240.1833389999999
 21
365.0748839999998
 31
0.0
  0
LINE
  5
B2FD
330
B16C
100
AcDbEntity
  8
2
  6
Continuous
100
AcDbLine
 10
250.289339
 20
363.7279229999998
 30
0.0
 11
250.289339
 21
365.074962
 31
0.0
  0
ARC
  5
B2FE
330
B16C
100
AcDbEntity
  8
1
  6
Continuous
100
AcDbCircle
 10
236.7363389999999
 20
359.527923
 30
0.0
 40
1.0
100
AcDbArc
 50
90.0
 51
180.0
  0
LINE
  5
B2FF
330
B16C
100
AcDbEntity
  8
1
  6
Continuous
100
AcDbLine
 10
254.736339
 20
317.127923
 30
0.0
 11
254.736339
 21
359.527923
 31
0.0
  0
LINE
  5
B300
330
B16C
100
AcDbEntity
  8
1
  6
Continuous
100
AcDbLine
 10
261.402123
 20
312.127945
 30
0.0
 11
261.402123
 21
315.6279229999999
 31
0.0
  0
LINE
  5
B301
330
B16C
100
AcDbEntity
  8
1
  6
Continuous
100
AcDbLine
 10
253.319219
 20
312.127945
 30
0.0
 11
253.319219
 21
315.6279229999999
 31
0.0
  0
ARC
  5
B302
330
B16C
100
AcDbEntity
  8
1
  6
Continuous
100
AcDbCircle
 10
253.2363389999999
 20
317.127923
 30
0.0
 40
1.5
100
AcDbArc
 50
270.0
 51
0.0
  0
LINE
  5
B303
330
B16C
100
AcDbEntity
  8
1
  6
Continuous
100
AcDbLine
 10
251.2363779999998
 20
364.127923
 30
0.0
 11
251.2363779999998
 21
363.7279229999998
 31
0.0
  0
LINE
  5
B304
330
B16C
100
AcDbEntity
  8
1
  6
Continuous
100
AcDbLine
 10
254.4863389999999
 20
363.7279229999998
 30
0.0
 11
254.4863389999999
 21
360.5279229999999
 31
0.0
  0
ARC
  5
B305
330
B16C
100
AcDbEntity
  8
1
  6
Continuous
100
AcDbCircle
 10
253.7363389999999
 20
359.527923
 30
0.0
 40
1.0
100
AcDbArc
 50
0.0
 51
90.0
  0
ARC
  5
B306
330
B16C
100
AcDbEntity
  8
1
  6
Continuous
100
AcDbCircle
 10
372.233743
 20
308.127945
 30
0.0
 40
4.0
100
AcDbArc
 50
0.0
 51
90.0
  0
ARC
  5
B307
330
B16C
100
AcDbEntity
  8
1
  6
Continuous
100
AcDbCircle
 10
330.233743
 20
308.127945
 30
0.0
 40
4.0
100
AcDbArc
 50
90.0
 51
180.0
  0
LINE
  5
B308
330
B16C
100
AcDbEntity
  8
1
  6
Continuous
100
AcDbLine
 10
356.660341
 20
304.462739
 30
0.0
 11
354.660341
 21
306.8337389999999
 31
0.0
  0
LINE
  5
B309
330
B16C
100
AcDbEntity
  8
1
  6
Continuous
100
AcDbLine
 10
355.367448
 20
304.462739
 30
0.0
 11
357.367448
 21
306.8337389999999
 31
0.0
  0
LINE
  5
B30A
330
B16C
100
AcDbEntity
  8
1
  6
Continuous
100
AcDbLine
 10
324.547643
 20
306.8337389999999
 30
0.0
 11
377.919843
 21
306.8337389999999
 31
0.0
  0
LINE
  5
B30B
330
B16C
100
AcDbEntity
  8
1
  6
Continuous
100
AcDbLine
 10
377.919843
 20
308.127945
 30
0.0
 11
324.547643
 21
308.127945
 31
0.0
  0
LINE
  5
B30C
330
B16C
100
AcDbEntity
  8
1
  6
Continuous
100
AcDbLine
 10
336.2755649999999
 20
304.462739
 30
0.0
 11
338.275565
 21
306.8337389999999
 31
0.0
  0
LINE
  5
B30D
330
B16C
100
AcDbEntity
  8
1
  6
Continuous
100
AcDbLine
 10
334.1542449999999
 20
304.462739
 30
0.0
 11
336.1542449999999
 21
306.8337389999999
 31
0.0
  0
LINE
  5
B30E
330
B16C
100
AcDbEntity
  8
1
  6
Continuous
100
AcDbLine
 10
336.8613509999998
 20
304.462739
 30
0.0
 11
334.8613509999998
 21
306.8337389999999
 31
0.0
  0
LINE
  5
B30F
330
B16C
100
AcDbEntity
  8
1
  6
Continuous
100
AcDbLine
 10
329.911604
 20
304.462739
 30
0.0
 11
331.911604
 21
306.8337389999999
 31
0.0
  0
LINE
  5
B310
330
B16C
100
AcDbEntity
  8
1
  6
Continuous
100
AcDbLine
 10
331.204497
 20
304.462739
 30
0.0
 11
329.204497
 21
306.8337389999999
 31
0.0
  0
LINE
  5
B311
330
B16C
100
AcDbEntity
  8
1
  6
Continuous
100
AcDbLine
 10
325.5476429999998
 20
306.8337389999999
 30
0.0
 11
324.547643
 21
305.462739
 31
0.0
  0
LINE
  5
B312
330
B16C
100
AcDbEntity
  8
1
  6
Continuous
100
AcDbLine
 10
325.6689629999999
 20
304.462739
 30
0.0
 11
327.6689629999999
 21
306.8337389999999
 31
0.0
  0
LINE
  5
B313
330
B16C
100
AcDbEntity
  8
1
  6
Continuous
100
AcDbLine
 10
325.5476429999998
 20
304.462739
 30
0.0
 11
324.547643
 21
305.462739
 31
0.0
  0
LINE
  5
B314
330
B16C
100
AcDbEntity
  8
1
  6
Continuous
100
AcDbLine
 10
327.7902839999998
 20
304.462739
 30
0.0
 11
329.7902839999999
 21
306.8337389999999
 31
0.0
  0
LINE
  5
B315
330
B16C
100
AcDbEntity
  8
1
  6
Continuous
100
AcDbLine
 10
328.3760700000001
 20
304.462739
 30
0.0
 11
326.3760700000001
 21
306.8337389999999
 31
0.0
  0
LINE
  5
B316
330
B16C
100
AcDbEntity
  8
1
  6
Continuous
100
AcDbLine
 10
332.0329239999999
 20
304.462739
 30
0.0
 11
334.0329239999999
 21
306.8337389999999
 31
0.0
  0
LINE
  5
B317
330
B16C
100
AcDbEntity
  8
1
  6
Continuous
100
AcDbLine
 10
334.0329239999999
 20
304.462739
 30
0.0
 11
332.0329239999999
 21
306.8337389999999
 31
0.0
  0
LINE
  5
B318
330
B16C
100
AcDbEntity
  8
1
  6
Continuous
100
AcDbLine
 10
324.547643
 20
304.462739
 30
0.0
 11
324.547643
 21
308.127945
 31
0.0
  0
LINE
  5
B319
330
B16C
100
AcDbEntity
  8
1
  6
Continuous
100
AcDbLine
 10
346.882167
 20
304.462739
 30
0.0
 11
348.882167
 21
306.8337389999999
 31
0.0
  0
LINE
  5
B31A
330
B16C
100
AcDbEntity
  8
1
  6
Continuous
100
AcDbLine
 10
349.003487
 20
304.462739
 30
0.0
 11
351.003487
 21
306.8337389999999
 31
0.0
  0
LINE
  5
B31B
330
B16C
100
AcDbEntity
  8
1
  6
Continuous
100
AcDbLine
 10
348.1750599999998
 20
304.462739
 30
0.0
 11
346.1750599999998
 21
306.8337389999999
 31
0.0
  0
LINE
  5
B31C
330
B16C
100
AcDbEntity
  8
1
  6
Continuous
100
AcDbLine
 10
351.003487
 20
304.462739
 30
0.0
 11
349.003487
 21
306.8337389999999
 31
0.0
  0
LINE
  5
B31D
330
B16C
100
AcDbEntity
  8
1
  6
Continuous
100
AcDbLine
 10
351.1248069999999
 20
304.462739
 30
0.0
 11
353.1248069999999
 21
306.8337389999999
 31
0.0
  0
LINE
  5
B31E
330
B16C
100
AcDbEntity
  8
1
  6
Continuous
100
AcDbLine
 10
340.518206
 20
304.462739
 30
0.0
 11
342.518206
 21
306.8337389999999
 31
0.0
  0
LINE
  5
B31F
330
B16C
100
AcDbEntity
  8
1
  6
Continuous
100
AcDbLine
 10
342.639526
 20
304.462739
 30
0.0
 11
344.639526
 21
306.8337389999999
 31
0.0
  0
LINE
  5
B320
330
B16C
100
AcDbEntity
  8
1
  6
Continuous
100
AcDbLine
 10
342.518206
 20
304.462739
 30
0.0
 11
340.518206
 21
306.8337389999999
 31
0.0
  0
LINE
  5
B321
330
B16C
100
AcDbEntity
  8
1
  6
Continuous
100
AcDbLine
 10
345.3466329999998
 20
304.462739
 30
0.0
 11
343.3466329999999
 21
306.8337389999999
 31
0.0
  0
LINE
  5
B322
330
B16C
100
AcDbEntity
  8
1
  6
Continuous
100
AcDbLine
 10
339.689779
 20
304.462739
 30
0.0
 11
337.689779
 21
306.8337389999999
 31
0.0
  0
LINE
  5
B323
330
B16C
100
AcDbEntity
  8
1
  6
Continuous
100
AcDbLine
 10
338.396885
 20
304.462739
 30
0.0
 11
340.396885
 21
306.8337389999999
 31
0.0
  0
LINE
  5
B324
330
B16C
100
AcDbEntity
  8
1
  6
Continuous
100
AcDbLine
 10
344.760846
 20
304.462739
 30
0.0
 11
346.760846
 21
306.8337389999999
 31
0.0
  0
LINE
  5
B325
330
B16C
100
AcDbEntity
  8
1
  6
Continuous
100
AcDbLine
 10
353.246128
 20
304.462739
 30
0.0
 11
355.246128
 21
306.8337389999999
 31
0.0
  0
LINE
  5
B326
330
B16C
100
AcDbEntity
  8
1
  6
Continuous
100
AcDbLine
 10
353.831914
 20
304.462739
 30
0.0
 11
351.831914
 21
306.8337389999999
 31
0.0
  0
LINE
  5
B327
330
B16C
100
AcDbEntity
  8
1
  6
Continuous
100
AcDbLine
 10
374.459331
 20
304.462739
 30
0.0
 11
376.459331
 21
306.8337389999999
 31
0.0
  0
LINE
  5
B328
330
B16C
100
AcDbEntity
  8
1
  6
Continuous
100
AcDbLine
 10
376.459331
 20
304.462739
 30
0.0
 11
374.459331
 21
306.8337389999999
 31
0.0
  0
LINE
  5
B329
330
B16C
100
AcDbEntity
  8
1
  6
Continuous
100
AcDbLine
 10
370.2166899999999
 20
304.462739
 30
0.0
 11
372.2166899999999
 21
306.8337389999999
 31
0.0
  0
LINE
  5
B32A
330
B16C
100
AcDbEntity
  8
1
  6
Continuous
100
AcDbLine
 10
370.802477
 20
304.462739
 30
0.0
 11
368.802477
 21
306.8337389999999
 31
0.0
  0
LINE
  5
B32B
330
B16C
100
AcDbEntity
  8
1
  6
Continuous
100
AcDbLine
 10
363.852729
 20
304.462739
 30
0.0
 11
365.852729
 21
306.8337389999999
 31
0.0
  0
LINE
  5
B32C
330
B16C
100
AcDbEntity
  8
1
  6
Continuous
100
AcDbLine
 10
365.9740499999998
 20
304.462739
 30
0.0
 11
367.9740499999998
 21
306.8337389999999
 31
0.0
  0
LINE
  5
B32D
330
B16C
100
AcDbEntity
  8
1
  6
Continuous
100
AcDbLine
 10
365.1456229999998
 20
304.462739
 30
0.0
 11
363.1456229999998
 21
306.8337389999999
 31
0.0
  0
LINE
  5
B32E
330
B16C
100
AcDbEntity
  8
1
  6
Continuous
100
AcDbLine
 10
367.9740499999998
 20
304.462739
 30
0.0
 11
365.9740499999998
 21
306.8337389999999
 31
0.0
  0
LINE
  5
B32F
330
B16C
100
AcDbEntity
  8
1
  6
Continuous
100
AcDbLine
 10
357.4887679999998
 20
304.462739
 30
0.0
 11
359.4887679999998
 21
306.8337389999999
 31
0.0
  0
LINE
  5
B330
330
B16C
100
AcDbEntity
  8
1
  6
Continuous
100
AcDbLine
 10
359.610089
 20
304.462739
 30
0.0
 11
361.610089
 21
306.8337389999999
 31
0.0
  0
LINE
  5
B331
330
B16C
100
AcDbEntity
  8
1
  6
Continuous
100
AcDbLine
 10
359.4887679999998
 20
304.462739
 30
0.0
 11
357.4887679999998
 21
306.8337389999999
 31
0.0
  0
LINE
  5
B332
330
B16C
100
AcDbEntity
  8
1
  6
Continuous
100
AcDbLine
 10
362.317196
 20
304.462739
 30
0.0
 11
360.317196
 21
306.8337389999999
 31
0.0
  0
LINE
  5
B333
330
B16C
100
AcDbEntity
  8
1
  6
Continuous
100
AcDbLine
 10
361.7314089999999
 20
304.462739
 30
0.0
 11
363.7314089999999
 21
306.8337389999999
 31
0.0
  0
LINE
  5
B334
330
B16C
100
AcDbEntity
  8
1
  6
Continuous
100
AcDbLine
 10
368.0953699999998
 20
304.462739
 30
0.0
 11
370.0953699999999
 21
306.8337389999999
 31
0.0
  0
LINE
  5
B335
330
B16C
100
AcDbEntity
  8
1
  6
Continuous
100
AcDbLine
 10
372.3380109999998
 20
304.462739
 30
0.0
 11
374.3380109999998
 21
306.8337389999999
 31
0.0
  0
LINE
  5
B336
330
B16C
100
AcDbEntity
  8
1
  6
Continuous
100
AcDbLine
 10
373.630904
 20
304.462739
 30
0.0
 11
371.630904
 21
306.8337389999999
 31
0.0
  0
ARC
  5
B337
330
B16C
100
AcDbEntity
  8
1
  6
Continuous
100
AcDbCircle
 10
376.817106
 20
301.623577
 30
0.0
 40
2.839261999999998
100
AcDbArc
 50
86.26253100000004
 51
90.48175099999999
  0
LINE
  5
B338
330
B16C
100
AcDbEntity
  8
1
  6
Continuous
100
AcDbLine
 10
376.5806519999999
 20
304.462739
 30
0.0
 11
377.919843
 21
305.8019299999999
 31
0.0
  0
LINE
  5
B339
330
B16C
100
AcDbEntity
  8
1
  6
Continuous
100
AcDbLine
 10
377.919843
 20
305.8306539999999
 30
0.0
 11
377.2877579999998
 21
306.8337389999999
 31
0.0
  0
LINE
  5
B33A
330
B16C
100
AcDbEntity
  8
1
  6
Continuous
100
AcDbLine
 10
377.919843
 20
308.127945
 30
0.0
 11
377.919843
 21
304.462739
 31
0.0
  0
LINE
  5
B33B
330
B16C
100
AcDbEntity
  8
1
  6
Continuous
100
AcDbLine
 10
357.2337819999999
 20
364.127923
 30
0.0
 11
355.7337819999998
 21
365.6279229999999
 31
0.0
  0
LINE
  5
B33C
330
B16C
100
AcDbEntity
  8
1
  6
Continuous
100
AcDbLine
 10
342.8837429999999
 20
363.7279229999998
 30
0.0
 11
359.583743
 21
363.7279229999998
 31
0.0
  0
LINE
  5
B33D
330
B16C
100
AcDbEntity
  8
1
  6
Continuous
100
AcDbLine
 10
345.2337819999999
 20
364.127923
 30
0.0
 11
357.2337819999999
 21
364.127923
 31
0.0
  0
LINE
  5
B33E
330
B16C
100
AcDbEntity
  8
1
  6
Continuous
100
AcDbLine
 10
342.733743
 20
360.5279229999999
 30
0.0
 11
359.733743
 21
360.5279229999999
 31
0.0
  0
LINE
  5
B33F
330
B16C
100
AcDbEntity
  8
1
  6
Continuous
100
AcDbLine
 10
341.7337429999999
 20
319.527923
 30
0.0
 11
360.733743
 21
319.527923
 31
0.0
  0
LINE
  5
B340
330
B16C
100
AcDbEntity
  8
1
  6
Continuous
100
AcDbLine
 10
330.233743
 20
312.127945
 30
0.0
 11
372.233743
 21
312.127945
 31
0.0
  0
LINE
  5
B341
330
B16C
100
AcDbEntity
  8
1
  6
Continuous
100
AcDbLine
 10
365.233719
 20
315.6279229999999
 30
0.0
 11
337.233719
 21
315.6279229999999
 31
0.0
  0
LINE
  5
B342
330
B16C
100
AcDbEntity
  8
1
  6
Continuous
100
AcDbLine
 10
341.7337429999999
 20
317.127923
 30
0.0
 11
341.7337429999999
 21
359.527923
 31
0.0
  0
ARC
  5
B343
330
B16C
100
AcDbEntity
  8
1
  6
Continuous
100
AcDbCircle
 10
343.233743
 20
317.127923
 30
0.0
 40
1.5
100
AcDbArc
 50
180.0
 51
270.0
  0
LINE
  5
B344
330
B16C
100
AcDbEntity
  8
1
  6
Continuous
100
AcDbLine
 10
345.2337819999999
 20
363.7279229999998
 30
0.0
 11
345.2337819999999
 21
364.127923
 31
0.0
  0
LINE
  5
B345
330
B16C
100
AcDbEntity
  8
1
  6
Continuous
100
AcDbLine
 10
346.7337819999999
 20
365.6279229999999
 30
0.0
 11
345.2337819999999
 21
364.127923
 31
0.0
  0
LINE
  5
B346
330
B16C
100
AcDbEntity
  8
1
  6
Continuous
100
AcDbLine
 10
346.7337819999999
 20
365.6279229999999
 30
0.0
 11
355.7337819999998
 21
365.6279229999999
 31
0.0
  0
LINE
  5
B347
330
B16C
100
AcDbEntity
  8
2
  6
Continuous
100
AcDbLine
 10
346.180743
 20
363.7279229999998
 30
0.0
 11
346.180743
 21
365.0748839999998
 31
0.0
  0
LINE
  5
B348
330
B16C
100
AcDbEntity
  8
2
  6
Continuous
100
AcDbLine
 10
356.286743
 20
363.7279229999998
 30
0.0
 11
356.286743
 21
365.074962
 31
0.0
  0
ARC
  5
B349
330
B16C
100
AcDbEntity
  8
1
  6
Continuous
100
AcDbCircle
 10
342.733743
 20
359.527923
 30
0.0
 40
1.0
100
AcDbArc
 50
90.0
 51
180.0
  0
LINE
  5
B34A
330
B16C
100
AcDbEntity
  8
1
  6
Continuous
100
AcDbLine
 10
360.733743
 20
317.127923
 30
0.0
 11
360.733743
 21
359.527923
 31
0.0
  0
ARC
  5
B34B
330
B16C
100
AcDbEntity
  8
1
  6
Continuous
100
AcDbCircle
 10
359.233743
 20
317.127923
 30
0.0
 40
1.5
100
AcDbArc
 50
270.0
 51
0.0
  0
LINE
  5
B34C
330
B16C
100
AcDbEntity
  8
1
  6
Continuous
100
AcDbLine
 10
357.2337819999999
 20
364.127923
 30
0.0
 11
357.2337819999999
 21
363.7279229999998
 31
0.0
  0
ARC
  5
B34D
330
B16C
100
AcDbEntity
  8
1
  6
Continuous
100
AcDbCircle
 10
359.733743
 20
359.527923
 30
0.0
 40
1.0
100
AcDbArc
 50
0.0
 51
90.0
  0
CIRCLE
  5
B34E
330
B16C
100
AcDbEntity
  8
1
  6
Continuous
100
AcDbCircle
 10
188.0760699999999
 20
258.752351
 30
0.0
 40
3.7
  0
ARC
  5
B34F
330
B16C
100
AcDbEntity
  8
1
  6
Continuous
100
AcDbCircle
 10
245.2363389999999
 20
442.3442299999998
 30
0.0
 40
27.5
100
AcDbArc
 50
229.821137
 51
130.1788629999998
  0
LINE
  5
B350
330
B16C
100
AcDbEntity
  8
1
  6
Continuous
100
AcDbLine
 10
215.236352
 20
416.996235
 30
0.0
 11
215.236352
 21
421.9962349999998
 31
0.0
  0
LINE
  5
B351
330
B16C
100
AcDbEntity
  8
1
  6
Continuous
100
AcDbLine
 10
216.736352
 20
423.9962349999998
 30
0.0
 11
216.736352
 21
421.9962349999998
 31
0.0
  0
LINE
  5
B352
330
B16C
100
AcDbEntity
  8
1
  6
Continuous
100
AcDbLine
 10
212.2363519999999
 20
415.0962349999998
 30
0.0
 11
213.236352
 21
416.096235
 31
0.0
  0
LINE
  5
B353
330
B16C
100
AcDbEntity
  8
1
  6
Continuous
100
AcDbLine
 10
206.236352
 20
415.0962349999998
 30
0.0
 11
205.236352
 21
416.096235
 31
0.0
  0
LINE
  5
B354
330
B16C
100
AcDbEntity
  8
2
  6
Continuous
100
AcDbLine
 10
205.9128519999999
 20
416.996235
 30
0.0
 11
205.9128519999999
 21
415.419735
 31
0.0
  0
LINE
  5
B355
330
B16C
100
AcDbEntity
  8
2
  6
Continuous
100
AcDbLine
 10
212.559852
 20
416.996235
 30
0.0
 11
212.559852
 21
415.419735
 31
0.0
  0
LINE
  5
B356
330
B16C
100
AcDbEntity
  8
1
  6
Continuous
100
AcDbLine
 10
213.236352
 20
416.996235
 30
0.0
 11
213.236352
 21
416.096235
 31
0.0
  0
LINE
  5
B357
330
B16C
100
AcDbEntity
  8
1
  6
Continuous
100
AcDbLine
 10
205.236352
 20
416.996235
 30
0.0
 11
205.236352
 21
416.096235
 31
0.0
  0
LINE
  5
B358
330
B16C
100
AcDbEntity
  8
1
  6
Continuous
100
AcDbLine
 10
206.236352
 20
415.0962349999998
 30
0.0
 11
212.2363519999999
 21
415.0962349999998
 31
0.0
  0
LINE
  5
B359
330
B16C
100
AcDbEntity
  8
1
  6
Continuous
100
AcDbLine
 10
205.236352
 20
416.096235
 30
0.0
 11
213.236352
 21
416.096235
 31
0.0
  0
LINE
  5
B35A
330
B16C
100
AcDbEntity
  8
1
  6
Continuous
100
AcDbLine
 10
203.236352
 20
416.996235
 30
0.0
 11
203.236352
 21
421.9962349999998
 31
0.0
  0
LINE
  5
B35B
330
B16C
100
AcDbEntity
  8
1
  6
Continuous
100
AcDbLine
 10
209.236352
 20
421.4603369999998
 30
0.0
 11
209.236352
 21
417.5321339999999
 31
0.0
  0
ARC
  5
B35C
330
B16C
100
AcDbEntity
  8
1
  6
Continuous
100
AcDbCircle
 10
206.236352
 20
425.6612989999998
 30
0.0
 40
8.665063999999999
100
AcDbArc
 50
249.7438419999999
 51
290.256158
  0
ARC
  5
B35D
330
B16C
100
AcDbEntity
  8
1
  6
Continuous
100
AcDbCircle
 10
206.236352
 20
413.331172
 30
0.0
 40
8.665063999999999
100
AcDbArc
 50
69.743842
 51
110.256158
  0
LINE
  5
B35E
330
B16C
100
AcDbEntity
  8
1
  6
Continuous
100
AcDbLine
 10
209.236352
 20
423.988712
 30
0.0
 11
211.228828
 21
421.9962349999998
 31
0.0
  0
LINE
  5
B35F
330
B16C
100
AcDbEntity
  8
1
  6
Continuous
100
AcDbLine
 10
207.2418749999999
 20
423.9907119999998
 30
0.0
 11
209.236352
 21
421.9962349999998
 31
0.0
  0
LINE
  5
B360
330
B16C
100
AcDbEntity
  8
1
  6
Continuous
100
AcDbLine
 10
201.7363519999999
 20
423.9811879999998
 30
0.0
 11
201.7363519999999
 21
421.9962349999998
 31
0.0
  0
LINE
  5
B361
330
B16C
100
AcDbEntity
  8
1
  6
Continuous
100
AcDbLine
 10
203.236352
 20
416.996235
 30
0.0
 11
215.236352
 21
416.996235
 31
0.0
  0
ARC
  5
B362
330
B16C
100
AcDbEntity
  8
1
  6
Continuous
100
AcDbCircle
 10
212.2363519999999
 20
425.6612989999998
 30
0.0
 40
8.665063999999999
100
AcDbArc
 50
249.7438419999999
 51
290.256158
  0
ARC
  5
B363
330
B16C
100
AcDbEntity
  8
1
  6
Continuous
100
AcDbCircle
 10
212.2363519999999
 20
413.331172
 30
0.0
 40
8.665063999999999
100
AcDbArc
 50
69.743842
 51
110.256158
  0
LINE
  5
B364
330
B16C
100
AcDbEntity
  8
1
  6
Continuous
100
AcDbLine
 10
216.736352
 20
421.9962349999998
 30
0.0
 11
201.7363519999999
 21
421.9962349999998
 31
0.0
  0
LINE
  5
B365
330
B16C
100
AcDbEntity
  8
1
  6
Continuous
100
AcDbLine
 10
196.836339
 20
460.712188
 30
0.0
 11
196.836339
 21
458.112187
 31
0.0
  0
LINE
  5
B366
330
B16C
100
AcDbEntity
  8
1
  6
Continuous
100
AcDbLine
 10
196.836339
 20
460.712188
 30
0.0
 11
220.192179
 21
460.688759
 31
0.0
  0
LINE
  5
B367
330
B16C
100
AcDbEntity
  8
1
  6
Continuous
100
AcDbLine
 10
196.836339
 20
458.112187
 30
0.0
 11
210.30313
 21
458.0986779999998
 31
0.0
  0
LINE
  5
B368
330
B16C
100
AcDbEntity
  8
1
  6
Continuous
100
AcDbLine
 10
196.836339
 20
426.576275
 30
0.0
 11
210.3031249999999
 21
426.589784
 31
0.0
  0
LINE
  5
B369
330
B16C
100
AcDbEntity
  8
1
  6
Continuous
100
AcDbLine
 10
196.836339
 20
423.9762729999998
 30
0.0
 11
220.19218
 21
423.9997019999998
 31
0.0
  0
LINE
  5
B36A
330
B16C
100
AcDbEntity
  8
1
  6
Continuous
100
AcDbLine
 10
196.836339
 20
426.576275
 30
0.0
 11
196.836339
 21
423.9762729999998
 31
0.0
  0
ARC
  5
B36B
330
B16C
100
AcDbEntity
  8
1
  6
Continuous
100
AcDbCircle
 10
220.2035149999999
 20
471.988753
 30
0.0
 40
11.3
100
AcDbArc
 50
269.942524
 51
310.1788629999999
  0
ARC
  5
B36C
330
B16C
100
AcDbEntity
  8
1
  6
Continuous
100
AcDbCircle
 10
220.2035149999999
 20
412.6997079999998
 30
0.0
 40
11.3
100
AcDbArc
 50
49.821137
 51
90.05747500000003
  0
ARC
  5
B36D
330
B16C
100
AcDbEntity
  8
1
  6
Continuous
100
AcDbCircle
 10
220.2035149999999
 20
117.066891
 30
0.0
 40
11.3
100
AcDbArc
 50
269.942524
 51
310.1788629999999
  0
ARC
  5
B36E
330
B16C
100
AcDbEntity
  8
1
  6
Continuous
100
AcDbCircle
 10
220.2035149999999
 20
57.777846
 30
0.0
 40
11.3
100
AcDbArc
 50
49.821137
 51
90.05747500000003
  0
ARC
  5
B36F
330
B16C
100
AcDbEntity
  8
1
  6
Continuous
100
AcDbCircle
 10
220.2035149999999
 20
117.066892
 30
0.0
 40
13.9
100
AcDbArc
 50
269.9425249999998
 51
310.1788619999999
  0
ARC
  5
B370
330
B16C
100
AcDbEntity
  8
1
  6
Continuous
100
AcDbCircle
 10
220.203514
 20
57.777846
 30
0.0
 40
13.9
100
AcDbArc
 50
49.821135
 51
90.05747599999997
  0
ARC
  5
B371
330
B16C
100
AcDbEntity
  8
1
  6
Continuous
100
AcDbCircle
 10
493.231148
 20
229.6277389999999
 30
0.0
 40
65.0
100
AcDbArc
 50
140.165976
 51
93.30358600000002
  0
ARC
  5
B372
330
B16C
100
AcDbEntity
  8
1
  6
Continuous
100
AcDbCircle
 10
493.231148
 20
229.6277389999999
 30
0.0
 40
53.65
100
AcDbArc
 50
144.701094
 51
93.335895
  0
LINE
  5
B373
330
B16C
100
AcDbEntity
  8
4
  6
CENTER
100
AcDbLine
 10
420.231148
 20
229.6277389999999
 30
0.0
 11
566.2311479999998
 21
229.6277389999999
 31
0.0
  0
ARC
  5
B374
330
B16C
100
AcDbEntity
  8
1
  6
Continuous
100
AcDbCircle
 10
493.231148
 20
229.6277389999999
 30
0.0
 40
40.533539
100
AcDbArc
 50
151.7444649999999
 51
91.66824400000001
  0
ARC
  5
B375
330
B16C
100
AcDbEntity
  8
1
  6
Continuous
100
AcDbCircle
 10
493.231148
 20
229.6277389999999
 30
0.0
 40
31.415325
100
AcDbArc
 50
159.1214209999999
 51
88.20423499999998
  0
ARC
  5
B376
330
B16C
100
AcDbEntity
  8
1
  6
Continuous
100
AcDbCircle
 10
492.981148
 20
229.6277389999999
 30
0.0
 40
12.65
100
AcDbArc
 50
230.062209
 51
27.31443499999999
  0
LINE
  5
B377
330
B16C
100
AcDbEntity
  8
4
  6
CENTER
100
AcDbLine
 10
493.231148
 20
157.1487389999998
 30
0.0
 11
493.231148
 21
302.627739
 31
0.0
  0
ARC
  5
B378
330
B16C
100
AcDbEntity
  8
1
  6
Continuous
100
AcDbCircle
 10
595.147723
 20
351.653945
 30
0.0
 40
171.799
100
AcDbArc
 50
200.3009159999999
 51
230.062209
  0
LINE
  5
B379
330
B16C
100
AcDbEntity
  8
1
  6
Continuous
100
AcDbLine
 10
478.7034269999998
 20
300.798268
 30
0.0
 11
478.7034269999998
 21
230.793644
 31
0.0
  0
CIRCLE
  5
B37A
330
B16C
100
AcDbEntity
  8
1
  6
Continuous
100
AcDbCircle
 10
527.469183
 20
218.503127
 30
0.0
 40
3.7
  0
CIRCLE
  5
B37B
330
B16C
100
AcDbEntity
  8
1
  6
Continuous
100
AcDbCircle
 10
493.231148
 20
193.6277389999999
 30
0.0
 40
3.7
  0
CIRCLE
  5
B37C
330
B16C
100
AcDbEntity
  8
1
  6
Continuous
100
AcDbCircle
 10
458.993113
 20
218.503127
 30
0.0
 40
3.7
  0
LINE
  5
B37D
330
B16C
100
AcDbEntity
  8
4
  6
CENTER
100
AcDbLine
 10
457.231148
 20
249.214135
 30
0.0
 11
457.231148
 21
370.627923
 31
0.0
  0
LINE
  5
B37E
330
B16C
100
AcDbEntity
  8
1
  6
Continuous
100
AcDbLine
 10
447.731148
 20
317.127923
 30
0.0
 11
447.731148
 21
359.527923
 31
0.0
  0
LINE
  5
B37F
330
B16C
100
AcDbEntity
  8
1
  6
Continuous
100
AcDbLine
 10
466.731148
 20
317.127923
 30
0.0
 11
466.731148
 21
359.527923
 31
0.0
  0
LINE
  5
B380
330
B16C
100
AcDbEntity
  8
1
  6
Continuous
100
AcDbLine
 10
430.5450480000001
 20
304.312739
 30
0.0
 11
483.917248
 21
304.312739
 31
0.0
  0
LINE
  5
B381
330
B16C
100
AcDbEntity
  8
1
  6
Continuous
100
AcDbLine
 10
465.8253649999998
 20
304.312739
 30
0.0
 11
463.825365
 21
306.8337389999999
 31
0.0
  0
ARC
  5
B382
330
B16C
100
AcDbEntity
  8
1
  6
Continuous
100
AcDbCircle
 10
465.231148
 20
317.127923
 30
0.0
 40
1.5
100
AcDbArc
 50
270.0
 51
0.0
  0
LINE
  5
B383
330
B16C
100
AcDbEntity
  8
1
  6
Continuous
100
AcDbLine
 10
441.0653639999998
 20
315.6279229999999
 30
0.0
 11
473.3969799999998
 21
315.6279229999999
 31
0.0
  0
LINE
  5
B384
330
B16C
100
AcDbEntity
  8
1
  6
Continuous
100
AcDbLine
 10
478.231148
 20
312.127945
 30
0.0
 11
436.231148
 21
312.127945
 31
0.0
  0
LINE
  5
B385
330
B16C
100
AcDbEntity
  8
1
  6
Continuous
100
AcDbLine
 10
466.731148
 20
319.527923
 30
0.0
 11
447.731148
 21
319.527923
 31
0.0
  0
LINE
  5
B386
330
B16C
100
AcDbEntity
  8
1
  6
Continuous
100
AcDbLine
 10
430.5450480000001
 20
308.127945
 30
0.0
 11
483.917248
 21
308.127945
 31
0.0
  0
LINE
  5
B387
330
B16C
100
AcDbEntity
  8
1
  6
Continuous
100
AcDbLine
 10
483.917248
 20
306.8337389999999
 30
0.0
 11
430.5450480000001
 21
306.8337389999999
 31
0.0
  0
ARC
  5
B388
330
B16C
100
AcDbEntity
  8
1
  6
Continuous
100
AcDbCircle
 10
621.718975
 20
296.1153649999999
 30
0.0
 40
132.243177
100
AcDbArc
 50
177.4095369999998
 51
207.314435
  0
CIRCLE
  5
B389
330
B16C
100
AcDbEntity
  8
1
  6
Continuous
100
AcDbCircle
 10
514.391417
 20
258.752351
 30
0.0
 40
3.7
  0
LINE
  5
B38A
330
B16C
100
AcDbEntity
  8
1
  6
Continuous
100
AcDbLine
 10
472.1893259999998
 20
304.312739
 30
0.0
 11
470.189326
 21
306.8337389999999
 31
0.0
  0
LINE
  5
B38B
330
B16C
100
AcDbEntity
  8
1
  6
Continuous
100
AcDbLine
 10
474.3106459999999
 20
304.312739
 30
0.0
 11
472.310646
 21
306.8337389999999
 31
0.0
  0
LINE
  5
B38C
330
B16C
100
AcDbEntity
  8
1
  6
Continuous
100
AcDbLine
 10
471.6035399999998
 20
304.312739
 30
0.0
 11
473.60354
 21
306.8337389999999
 31
0.0
  0
LINE
  5
B38D
330
B16C
100
AcDbEntity
  8
1
  6
Continuous
100
AcDbLine
 10
478.5532869999998
 20
304.312739
 30
0.0
 11
476.553287
 21
306.8337389999999
 31
0.0
  0
LINE
  5
B38E
330
B16C
100
AcDbEntity
  8
1
  6
Continuous
100
AcDbLine
 10
477.260394
 20
304.312739
 30
0.0
 11
479.260394
 21
306.8337389999999
 31
0.0
  0
LINE
  5
B38F
330
B16C
100
AcDbEntity
  8
1
  6
Continuous
100
AcDbLine
 10
482.7959279999998
 20
304.312739
 30
0.0
 11
480.795928
 21
306.8337389999999
 31
0.0
  0
LINE
  5
B390
330
B16C
100
AcDbEntity
  8
1
  6
Continuous
100
AcDbLine
 10
482.9172479999998
 20
304.312739
 30
0.0
 11
483.917248
 21
305.312739
 31
0.0
  0
LINE
  5
B391
330
B16C
100
AcDbEntity
  8
1
  6
Continuous
100
AcDbLine
 10
480.6746069999999
 20
304.312739
 30
0.0
 11
478.6746069999998
 21
306.8337389999999
 31
0.0
  0
LINE
  5
B392
330
B16C
100
AcDbEntity
  8
1
  6
Continuous
100
AcDbLine
 10
480.088821
 20
304.312739
 30
0.0
 11
482.0888209999998
 21
306.8337389999999
 31
0.0
  0
LINE
  5
B393
330
B16C
100
AcDbEntity
  8
1
  6
Continuous
100
AcDbLine
 10
476.4319669999999
 20
304.312739
 30
0.0
 11
474.431967
 21
306.8337389999999
 31
0.0
  0
LINE
  5
B394
330
B16C
100
AcDbEntity
  8
1
  6
Continuous
100
AcDbLine
 10
474.431967
 20
304.312739
 30
0.0
 11
476.4319669999999
 21
306.8337389999999
 31
0.0
  0
LINE
  5
B395
330
B16C
100
AcDbEntity
  8
1
  6
Continuous
100
AcDbLine
 10
483.917248
 20
304.312739
 30
0.0
 11
483.917248
 21
308.127945
 31
0.0
  0
LINE
  5
B396
330
B16C
100
AcDbEntity
  8
1
  6
Continuous
100
AcDbLine
 10
467.9466849999998
 20
304.312739
 30
0.0
 11
465.9466849999998
 21
306.8337389999999
 31
0.0
  0
LINE
  5
B397
330
B16C
100
AcDbEntity
  8
1
  6
Continuous
100
AcDbLine
 10
465.9466849999998
 20
304.312739
 30
0.0
 11
467.9466849999998
 21
306.8337389999999
 31
0.0
  0
LINE
  5
B398
330
B16C
100
AcDbEntity
  8
1
  6
Continuous
100
AcDbLine
 10
468.7751119999998
 20
304.312739
 30
0.0
 11
470.775112
 21
306.8337389999999
 31
0.0
  0
LINE
  5
B399
330
B16C
100
AcDbEntity
  8
1
  6
Continuous
100
AcDbLine
 10
470.0680059999998
 20
304.312739
 30
0.0
 11
468.0680059999998
 21
306.8337389999999
 31
0.0
  0
ARC
  5
B39A
330
B16C
100
AcDbEntity
  8
1
  6
Continuous
100
AcDbCircle
 10
484.7421699999999
 20
303.2410889999998
 30
0.0
 40
1.188780999999998
100
AcDbArc
 50
177.8908409999999
 51
255.1922279999998
  0
LINE
  5
B39B
330
B16C
100
AcDbEntity
  8
1
  6
Continuous
100
AcDbLine
 10
493.048776
 20
302.091789
 30
0.0
 11
478.7038319999998
 21
302.091789
 31
0.0
  0
ARC
  5
B39C
330
B16C
100
AcDbEntity
  8
1
  6
Continuous
100
AcDbCircle
 10
493.048776
 20
298.5599509999999
 30
0.0
 40
3.531837999999998
100
AcDbArc
 50
71.205477
 51
90.0
  0
LINE
  5
B39D
330
B16C
100
AcDbEntity
  8
1
  6
Continuous
100
AcDbLine
 10
493.207383
 20
299.5381619999998
 30
0.0
 11
489.520101
 21
299.5381619999998
 31
0.0
  0
ARC
  5
B39E
330
B16C
100
AcDbEntity
  8
1
  6
Continuous
100
AcDbCircle
 10
492.3318039999998
 20
301.1713379999998
 30
0.0
 40
2.172123
100
AcDbArc
 50
357.762921
 51
16.515265
  0
ARC
  5
B39F
330
B16C
100
AcDbEntity
  8
1
  6
Continuous
100
AcDbCircle
 10
502.7317069999998
 20
299.1607989999998
 30
0.0
 40
8.451753
100
AcDbArc
 50
166.82934
 51
175.516763
  0
ARC
  5
B3A0
330
B16C
100
AcDbEntity
  8
1
  6
Continuous
100
AcDbCircle
 10
493.8892759999998
 20
301.029678
 30
0.0
 40
0.9230079999999999
100
AcDbArc
 50
55.331088
 51
71.205477
  0
LINE
  5
B3A1
330
B16C
100
AcDbEntity
  8
1
  6
Continuous
100
AcDbLine
 10
494.170113
 20
299.65751
 30
0.0
 11
494.305815
 21
299.821451
 31
0.0
  0
ARC
  5
B3A2
330
B16C
100
AcDbEntity
  8
1
  6
Continuous
100
AcDbCircle
 10
493.207383
 20
303.480799
 30
0.0
 40
3.942636999999998
100
AcDbArc
 50
270.0
 51
284.133642
  0
ARC
  5
B3A3
330
B16C
100
AcDbEntity
  8
1
  6
Continuous
100
AcDbCircle
 10
481.0495480000001
 20
302.519206
 30
0.0
 40
2.384338999999997
100
AcDbArc
 50
131.2174919999999
 51
190.32668
  0
ARC
  5
B3A4
330
B16C
100
AcDbEntity
  8
1
  6
Continuous
100
AcDbCircle
 10
481.3587639999998
 20
302.604599
 30
0.0
 40
2.298399999999999
100
AcDbArc
 50
17.21530399999998
 51
48.003581
  0
LINE
  5
B3A5
330
B16C
100
AcDbEntity
  8
1
  6
Continuous
100
AcDbLine
 10
482.9172479999998
 20
306.8337389999999
 30
0.0
 11
483.917248
 21
305.312739
 31
0.0
  0
LINE
  5
B3A6
330
B16C
100
AcDbEntity
  8
1
  6
Continuous
100
AcDbLine
 10
473.3969799999998
 20
312.127945
 30
0.0
 11
473.3969799999998
 21
315.6279229999999
 31
0.0
  0
ARC
  5
B3A7
330
B16C
100
AcDbEntity
  8
1
  6
Continuous
100
AcDbCircle
 10
478.231148
 20
308.127945
 30
0.0
 40
4.0
100
AcDbArc
 50
0.0
 51
90.0
  0
LINE
  5
B3A8
330
B16C
100
AcDbEntity
  8
1
  6
Continuous
100
AcDbLine
 10
451.80455
 20
304.312739
 30
0.0
 11
453.8045499999998
 21
306.8337389999999
 31
0.0
  0
LINE
  5
B3A9
330
B16C
100
AcDbEntity
  8
1
  6
Continuous
100
AcDbLine
 10
453.0974429999998
 20
304.312739
 30
0.0
 11
451.097443
 21
306.8337389999999
 31
0.0
  0
LINE
  5
B3AA
330
B16C
100
AcDbEntity
  8
1
  6
Continuous
100
AcDbLine
 10
461.5827239999998
 20
304.312739
 30
0.0
 11
459.582724
 21
306.8337389999999
 31
0.0
  0
LINE
  5
B3AB
330
B16C
100
AcDbEntity
  8
1
  6
Continuous
100
AcDbLine
 10
459.461404
 20
304.312739
 30
0.0
 11
457.461404
 21
306.8337389999999
 31
0.0
  0
LINE
  5
B3AC
330
B16C
100
AcDbEntity
  8
1
  6
Continuous
100
AcDbLine
 10
460.2898309999998
 20
304.312739
 30
0.0
 11
462.2898309999998
 21
306.8337389999999
 31
0.0
  0
LINE
  5
B3AD
330
B16C
100
AcDbEntity
  8
1
  6
Continuous
100
AcDbLine
 10
457.461404
 20
304.312739
 30
0.0
 11
459.461404
 21
306.8337389999999
 31
0.0
  0
LINE
  5
B3AE
330
B16C
100
AcDbEntity
  8
1
  6
Continuous
100
AcDbLine
 10
457.3400839999997
 20
304.312739
 30
0.0
 11
455.340084
 21
306.8337389999999
 31
0.0
  0
LINE
  5
B3AF
330
B16C
100
AcDbEntity
  8
1
  6
Continuous
100
AcDbLine
 10
463.1182579999999
 20
304.312739
 30
0.0
 11
465.118258
 21
306.8337389999999
 31
0.0
  0
LINE
  5
B3B0
330
B16C
100
AcDbEntity
  8
1
  6
Continuous
100
AcDbLine
 10
463.7040449999998
 20
304.312739
 30
0.0
 11
461.704045
 21
306.8337389999999
 31
0.0
  0
LINE
  5
B3B1
330
B16C
100
AcDbEntity
  8
1
  6
Continuous
100
AcDbLine
 10
455.2187629999998
 20
304.312739
 30
0.0
 11
453.218763
 21
306.8337389999999
 31
0.0
  0
LINE
  5
B3B2
330
B16C
100
AcDbEntity
  8
1
  6
Continuous
100
AcDbLine
 10
454.6329769999998
 20
304.312739
 30
0.0
 11
456.632977
 21
306.8337389999999
 31
0.0
  0
LINE
  5
B3B3
330
B16C
100
AcDbEntity
  8
1
  6
Continuous
100
AcDbLine
 10
434.0055599999998
 20
304.312739
 30
0.0
 11
432.0055599999998
 21
306.8337389999999
 31
0.0
  0
LINE
  5
B3B4
330
B16C
100
AcDbEntity
  8
1
  6
Continuous
100
AcDbLine
 10
432.0055599999998
 20
304.312739
 30
0.0
 11
434.0055599999998
 21
306.8337389999999
 31
0.0
  0
LINE
  5
B3B5
330
B16C
100
AcDbEntity
  8
1
  6
Continuous
100
AcDbLine
 10
438.248201
 20
304.312739
 30
0.0
 11
436.2482009999998
 21
306.8337389999999
 31
0.0
  0
LINE
  5
B3B6
330
B16C
100
AcDbEntity
  8
1
  6
Continuous
100
AcDbLine
 10
437.6624139999998
 20
304.312739
 30
0.0
 11
439.6624139999998
 21
306.8337389999999
 31
0.0
  0
LINE
  5
B3B7
330
B16C
100
AcDbEntity
  8
1
  6
Continuous
100
AcDbLine
 10
444.612162
 20
304.312739
 30
0.0
 11
442.6121619999998
 21
306.8337389999999
 31
0.0
  0
LINE
  5
B3B8
330
B16C
100
AcDbEntity
  8
1
  6
Continuous
100
AcDbLine
 10
442.4908409999998
 20
304.312739
 30
0.0
 11
440.4908409999999
 21
306.8337389999999
 31
0.0
  0
LINE
  5
B3B9
330
B16C
100
AcDbEntity
  8
1
  6
Continuous
100
AcDbLine
 10
443.3192679999998
 20
304.312739
 30
0.0
 11
445.3192679999999
 21
306.8337389999999
 31
0.0
  0
LINE
  5
B3BA
330
B16C
100
AcDbEntity
  8
1
  6
Continuous
100
AcDbLine
 10
440.4908409999999
 20
304.312739
 30
0.0
 11
442.4908409999998
 21
306.8337389999999
 31
0.0
  0
LINE
  5
B3BB
330
B16C
100
AcDbEntity
  8
1
  6
Continuous
100
AcDbLine
 10
450.9761229999998
 20
304.312739
 30
0.0
 11
448.976123
 21
306.8337389999999
 31
0.0
  0
LINE
  5
B3BC
330
B16C
100
AcDbEntity
  8
1
  6
Continuous
100
AcDbLine
 10
448.8548019999998
 20
304.312739
 30
0.0
 11
446.8548019999998
 21
306.8337389999999
 31
0.0
  0
LINE
  5
B3BD
330
B16C
100
AcDbEntity
  8
1
  6
Continuous
100
AcDbLine
 10
448.976123
 20
304.312739
 30
0.0
 11
450.9761229999998
 21
306.8337389999999
 31
0.0
  0
LINE
  5
B3BE
330
B16C
100
AcDbEntity
  8
1
  6
Continuous
100
AcDbLine
 10
446.1476949999997
 20
304.312739
 30
0.0
 11
448.147695
 21
306.8337389999999
 31
0.0
  0
LINE
  5
B3BF
330
B16C
100
AcDbEntity
  8
1
  6
Continuous
100
AcDbLine
 10
446.7334819999998
 20
304.312739
 30
0.0
 11
444.733482
 21
306.8337389999999
 31
0.0
  0
LINE
  5
B3C0
330
B16C
100
AcDbEntity
  8
1
  6
Continuous
100
AcDbLine
 10
440.369521
 20
304.312739
 30
0.0
 11
438.3695209999998
 21
306.8337389999999
 31
0.0
  0
LINE
  5
B3C1
330
B16C
100
AcDbEntity
  8
1
  6
Continuous
100
AcDbLine
 10
436.1268799999998
 20
304.312739
 30
0.0
 11
434.1268799999999
 21
306.8337389999999
 31
0.0
  0
LINE
  5
B3C2
330
B16C
100
AcDbEntity
  8
1
  6
Continuous
100
AcDbLine
 10
434.833987
 20
304.312739
 30
0.0
 11
436.8339869999998
 21
306.8337389999999
 31
0.0
  0
LINE
  5
B3C3
330
B16C
100
AcDbEntity
  8
1
  6
Continuous
100
AcDbLine
 10
431.8842389999998
 20
304.312739
 30
0.0
 11
430.5450480000001
 21
306.17293
 31
0.0
  0
LINE
  5
B3C4
330
B16C
100
AcDbEntity
  8
1
  6
Continuous
100
AcDbLine
 10
430.5450480000001
 20
308.127945
 30
0.0
 11
430.5450480000001
 21
304.312739
 31
0.0
  0
LINE
  5
B3C5
330
B16C
100
AcDbEntity
  8
1
  6
Continuous
100
AcDbLine
 10
429.731148
 20
294.7523229999998
 30
0.0
 11
429.731148
 21
302.0971829999999
 31
0.0
  0
ARC
  5
B3C6
330
B16C
100
AcDbEntity
  8
1
  6
Continuous
100
AcDbCircle
 10
429.879004
 20
290.2331859999998
 30
0.0
 40
4.521554
100
AcDbArc
 50
23.66618499999999
 51
91.87393099999995
  0
ARC
  5
B3C7
330
B16C
100
AcDbEntity
  8
1
  6
Continuous
100
AcDbCircle
 10
436.214565
 20
300.152624
 30
0.0
 40
6.768752
100
AcDbArc
 50
151.3767689999999
 51
163.3045389999998
  0
ARC
  5
B3C8
330
B16C
100
AcDbEntity
  8
1
  6
Continuous
100
AcDbCircle
 10
432.9578169999998
 20
301.929974
 30
0.0
 40
3.058577999999998
100
AcDbArc
 50
128.8269479999998
 51
151.3767689999999
  0
ARC
  5
B3C9
330
B16C
100
AcDbEntity
  8
1
  6
Continuous
100
AcDbCircle
 10
431.6477849999998
 20
301.4735769999999
 30
0.0
 40
2.839261999999998
100
AcDbArc
 50
89.51824899999998
 51
93.73746899999998
  0
ARC
  5
B3CA
330
B16C
100
AcDbEntity
  8
1
  6
Continuous
100
AcDbCircle
 10
449.231148
 20
317.127923
 30
0.0
 40
1.5
100
AcDbArc
 50
180.0
 51
270.0
  0
LINE
  5
B3CB
330
B16C
100
AcDbEntity
  8
1
  6
Continuous
100
AcDbLine
 10
449.1482679999998
 20
312.127945
 30
0.0
 11
449.1482679999998
 21
315.6279229999999
 31
0.0
  0
LINE
  5
B3CC
330
B16C
100
AcDbEntity
  8
1
  6
Continuous
100
AcDbLine
 10
465.314076
 20
312.127945
 30
0.0
 11
465.314076
 21
315.6279229999999
 31
0.0
  0
LINE
  5
B3CD
330
B16C
100
AcDbEntity
  8
1
  6
Continuous
100
AcDbLine
 10
441.0653639999998
 20
312.127945
 30
0.0
 11
441.0653639999998
 21
315.6279229999999
 31
0.0
  0
LINE
  5
B3CE
330
B16C
100
AcDbEntity
  8
1
  6
Continuous
100
AcDbLine
 10
430.5450480000001
 20
306.201654
 30
0.0
 11
431.177133
 21
306.8337389999999
 31
0.0
  0
ARC
  5
B3CF
330
B16C
100
AcDbEntity
  8
1
  6
Continuous
100
AcDbCircle
 10
436.231148
 20
308.127945
 30
0.0
 40
4.0
100
AcDbArc
 50
90.0
 51
180.0
  0
LINE
  5
B3D0
330
B16C
100
AcDbEntity
  8
1
  6
Continuous
100
AcDbLine
 10
466.481148
 20
360.5279229999999
 30
0.0
 11
447.981148
 21
360.5279229999999
 31
0.0
  0
LINE
  5
B3D1
330
B16C
100
AcDbEntity
  8
1
  6
Continuous
100
AcDbLine
 10
466.481148
 20
363.7279229999998
 30
0.0
 11
447.981148
 21
363.7279229999998
 31
0.0
  0
ARC
  5
B3D2
330
B16C
100
AcDbEntity
  8
1
  6
Continuous
100
AcDbCircle
 10
465.731148
 20
359.527923
 30
0.0
 40
1.0
100
AcDbArc
 50
0.0
 51
90.0
  0
LINE
  5
B3D3
330
B16C
100
AcDbEntity
  8
1
  6
Continuous
100
AcDbLine
 10
466.481148
 20
363.7279229999998
 30
0.0
 11
466.481148
 21
360.5279229999999
 31
0.0
  0
ARC
  5
B3D4
330
B16C
100
AcDbEntity
  8
1
  6
Continuous
100
AcDbCircle
 10
448.731148
 20
359.527923
 30
0.0
 40
1.0
100
AcDbArc
 50
90.0
 51
180.0
  0
LINE
  5
B3D5
330
B16C
100
AcDbEntity
  8
1
  6
Continuous
100
AcDbLine
 10
447.981148
 20
363.7279229999998
 30
0.0
 11
447.981148
 21
360.5279229999999
 31
0.0
  0
LINE
  5
B3D6
330
B16C
100
AcDbEntity
  8
1
  6
Continuous
100
AcDbLine
 10
451.2311089999998
 20
364.127923
 30
0.0
 11
451.2311089999998
 21
363.7279229999998
 31
0.0
  0
LINE
  5
B3D7
330
B16C
100
AcDbEntity
  8
2
  6
Continuous
100
AcDbLine
 10
452.178148
 20
363.7279229999998
 30
0.0
 11
452.178148
 21
365.074962
 31
0.0
  0
LINE
  5
B3D8
330
B16C
100
AcDbEntity
  8
2
  6
Continuous
100
AcDbLine
 10
462.2841479999998
 20
363.7279229999998
 30
0.0
 11
462.2841479999998
 21
365.0748839999998
 31
0.0
  0
LINE
  5
B3D9
330
B16C
100
AcDbEntity
  8
1
  6
Continuous
100
AcDbLine
 10
461.731109
 20
365.6279229999999
 30
0.0
 11
452.731109
 21
365.6279229999999
 31
0.0
  0
LINE
  5
B3DA
330
B16C
100
AcDbEntity
  8
1
  6
Continuous
100
AcDbLine
 10
461.731109
 20
365.6279229999999
 30
0.0
 11
463.2311089999998
 21
364.127923
 31
0.0
  0
LINE
  5
B3DB
330
B16C
100
AcDbEntity
  8
1
  6
Continuous
100
AcDbLine
 10
463.2311089999998
 20
363.7279229999998
 30
0.0
 11
463.2311089999998
 21
364.127923
 31
0.0
  0
LINE
  5
B3DC
330
B16C
100
AcDbEntity
  8
1
  6
Continuous
100
AcDbLine
 10
461.2110979999997
 20
363.7279229999998
 30
0.0
 11
461.2110979999997
 21
360.5279229999999
 31
0.0
  0
LINE
  5
B3DD
330
B16C
100
AcDbEntity
  8
1
  6
Continuous
100
AcDbLine
 10
453.2511979999998
 20
363.7279229999998
 30
0.0
 11
453.2511979999998
 21
360.5279229999999
 31
0.0
  0
LINE
  5
B3DE
330
B16C
100
AcDbEntity
  8
1
  6
Continuous
100
AcDbLine
 10
463.2311089999998
 20
364.127923
 30
0.0
 11
451.2311089999998
 21
364.127923
 31
0.0
  0
LINE
  5
B3DF
330
B16C
100
AcDbEntity
  8
1
  6
Continuous
100
AcDbLine
 10
451.2311089999998
 20
364.127923
 30
0.0
 11
452.731109
 21
365.6279229999999
 31
0.0
  0
CIRCLE
  5
B3E0
330
B16C
100
AcDbEntity
  8
1
  6
Continuous
100
AcDbCircle
 10
493.231148
 20
229.6277389999999
 30
0.0
 40
7.0
  0
LINE
  5
B3E1
330
B16C
100
AcDbEntity
  8
1
  6
Continuous
100
AcDbLine
 10
209.4338239999999
 20
429.7442299999998
 30
0.0
 11
150.419551
 21
429.7442299999998
 31
0.0
  0
LINE
  5
B3E2
330
B16C
100
AcDbEntity
  8
1
  6
Continuous
100
AcDbLine
 10
209.433828
 20
454.9442299999998
 30
0.0
 11
150.419551
 21
454.9442299999998
 31
0.0
  0
LINE
  5
B3E3
330
B16C
100
AcDbEntity
  8
1
  6
Continuous
100
AcDbLine
 10
202.1363519999999
 20
427.0942299999998
 30
0.0
 11
210.150052
 21
427.0942299999998
 31
0.0
  0
LINE
  5
B3E4
330
B16C
100
AcDbEntity
  8
1
  6
Continuous
100
AcDbLine
 10
209.8538459999998
 20
428.1257619999998
 30
0.0
 11
200.7113819999999
 21
428.1257619999998
 31
0.0
  0
ARC
  5
B3E5
330
B16C
100
AcDbEntity
  8
1
  6
Continuous
100
AcDbCircle
 10
201.3739109999999
 20
460.311004
 30
0.0
 40
32.05362499999999
100
AcDbArc
 50
252.4803279999999
 51
257.0615609999999
  0
ARC
  5
B3E6
330
B16C
100
AcDbEntity
  8
1
  6
Continuous
100
AcDbCircle
 10
202.1363519999999
 20
428.59423
 30
0.0
 40
1.5
100
AcDbArc
 50
198.1985919999999
 51
270.0
  0
ARC
  5
B3E7
330
B16C
100
AcDbEntity
  8
1
  6
Continuous
100
AcDbCircle
 10
202.214435
 20
457.7426049999998
 30
0.0
 40
29.654958
100
AcDbArc
 50
263.9302629999999
 51
267.0947369999999
  0
LINE
  5
B3E8
330
B16C
100
AcDbEntity
  8
1
  6
Continuous
100
AcDbLine
 10
203.7363519999999
 20
426.5831959999998
 30
0.0
 11
203.7363519999999
 21
427.0942299999998
 31
0.0
  0
ARC
  5
B3E9
330
B16C
100
AcDbEntity
  8
1
  6
Continuous
100
AcDbCircle
 10
203.4471609999999
 20
469.3354639999998
 30
0.0
 40
41.31317399999999
100
AcDbArc
 50
257.0615609999999
 51
263.9302629999999
  0
ARC
  5
B3EA
330
B16C
100
AcDbEntity
  8
1
  6
Continuous
100
AcDbCircle
 10
150.419551
 20
434.7442299999998
 30
0.0
 40
5.0
100
AcDbArc
 50
197.698012
 51
270.0
  0
ARC
  5
B3EB
330
B16C
100
AcDbEntity
  8
1
  6
Continuous
100
AcDbCircle
 10
174.236352
 20
442.3442299999998
 30
0.0
 40
30.0
100
AcDbArc
 50
162.299049
 51
197.698012
  0
LINE
  5
B3EC
330
B16C
100
AcDbEntity
  8
1
  6
Continuous
100
AcDbLine
 10
202.1363519999999
 20
457.59423
 30
0.0
 11
210.150056
 21
457.59423
 31
0.0
  0
LINE
  5
B3ED
330
B16C
100
AcDbEntity
  8
1
  6
Continuous
100
AcDbLine
 10
209.85385
 20
456.5626969999998
 30
0.0
 11
200.7113819999999
 21
456.5626969999998
 31
0.0
  0
ARC
  5
B3EE
330
B16C
100
AcDbEntity
  8
1
  6
Continuous
100
AcDbCircle
 10
201.3739109999999
 20
424.3774559999998
 30
0.0
 40
32.05362499999999
100
AcDbArc
 50
102.9384389999999
 51
107.519672
  0
ARC
  5
B3EF
330
B16C
100
AcDbEntity
  8
1
  6
Continuous
100
AcDbCircle
 10
202.1363519999999
 20
456.0942299999998
 30
0.0
 40
1.5
100
AcDbArc
 50
90.0
 51
161.801408
  0
ARC
  5
B3F0
330
B16C
100
AcDbEntity
  8
1
  6
Continuous
100
AcDbCircle
 10
202.214435
 20
426.945854
 30
0.0
 40
29.654958
100
AcDbArc
 50
92.90526300000001
 51
96.06973700000001
  0
LINE
  5
B3F1
330
B16C
100
AcDbEntity
  8
1
  6
Continuous
100
AcDbLine
 10
203.7363519999999
 20
458.105265
 30
0.0
 11
203.7363519999999
 21
457.59423
 31
0.0
  0
ARC
  5
B3F2
330
B16C
100
AcDbEntity
  8
1
  6
Continuous
100
AcDbCircle
 10
203.4471609999999
 20
415.352995
 30
0.0
 40
41.31317399999999
100
AcDbArc
 50
96.06973700000001
 51
102.9384389999999
  0
ARC
  5
B3F3
330
B16C
100
AcDbEntity
  8
1
  6
Continuous
100
AcDbCircle
 10
150.419551
 20
449.94423
 30
0.0
 40
5.0
100
AcDbArc
 50
90.0
 51
162.301988
  0
ARC
  5
B3F4
330
B16C
100
AcDbEntity
  8
1
  6
Continuous
100
AcDbCircle
 10
268.053153
 20
449.94423
 30
0.0
 40
5.0
100
AcDbArc
 50
17.69801199999999
 51
68.949792
  0
ARC
  5
B3F5
330
B16C
100
AcDbEntity
  8
1
  6
Continuous
100
AcDbCircle
 10
268.053153
 20
434.7442299999998
 30
0.0
 40
5.0
100
AcDbArc
 50
291.050208
 51
342.301988
  0
ARC
  5
B3F6
330
B16C
100
AcDbEntity
  8
1
  6
Continuous
100
AcDbCircle
 10
244.236352
 20
442.3442299999998
 30
0.0
 40
30.0
100
AcDbArc
 50
342.301988
 51
17.70095099999998
  0
LINE
  5
B3F7
330
B16C
100
AcDbEntity
  8
1
  6
Continuous
100
AcDbLine
 10
78.83893399999998
 20
170.8109519999999
 30
0.0
 11
78.83893399999998
 21
288.4445539999999
 31
0.0
  0
LINE
  5
B3F8
330
B16C
100
AcDbEntity
  8
1
  6
Continuous
100
AcDbLine
 10
53.638934
 20
170.8109519999999
 30
0.0
 11
53.638934
 21
288.4445539999999
 31
0.0
  0
ARC
  5
B3F9
330
B16C
100
AcDbEntity
  8
1
  6
Continuous
100
AcDbCircle
 10
66.238934
 20
194.627753
 30
0.0
 40
30.0
100
AcDbArc
 50
252.301988
 51
287.7009509999999
  0
ARC
  5
B3FA
330
B16C
100
AcDbEntity
  8
1
  6
Continuous
100
AcDbCircle
 10
58.638934
 20
170.8109519999999
 30
0.0
 40
5.0
100
AcDbArc
 50
180.0
 51
252.301988
  0
ARC
  5
B3FB
330
B16C
100
AcDbEntity
  8
1
  6
Continuous
100
AcDbCircle
 10
73.83893399999998
 20
170.8109519999999
 30
0.0
 40
5.0
100
AcDbArc
 50
287.698012
 51
0.0
  0
LINE
  5
B3FC
330
B16C
100
AcDbEntity
  8
1
  6
Continuous
100
AcDbLine
 10
80.45740100000001
 20
221.1027839999999
 30
0.0
 11
80.45740100000001
 21
238.152722
 31
0.0
  0
LINE
  5
B3FD
330
B16C
100
AcDbEntity
  8
1
  6
Continuous
100
AcDbLine
 10
81.488934
 20
236.7277529999999
 30
0.0
 11
81.488934
 21
222.527753
 31
0.0
  0
LINE
  5
B3FE
330
B16C
100
AcDbEntity
  8
1
  6
Continuous
100
AcDbLine
 10
50.988934
 20
236.7277529999999
 30
0.0
 11
50.988934
 21
222.527753
 31
0.0
  0
LINE
  5
B3FF
330
B16C
100
AcDbEntity
  8
1
  6
Continuous
100
AcDbLine
 10
52.020466
 20
221.1027839999999
 30
0.0
 11
52.020466
 21
238.152722
 31
0.0
  0
LINE
  5
B400
330
B16C
100
AcDbEntity
  8
1
  6
Continuous
100
AcDbLine
 10
50.488935
 20
224.127753
 30
0.0
 11
50.988934
 21
224.127753
 31
0.0
  0
ARC
  5
B401
330
B16C
100
AcDbEntity
  8
1
  6
Continuous
100
AcDbCircle
 10
93.23016800000001
 20
223.838562
 30
0.0
 40
41.31317399999999
100
AcDbArc
 50
186.069737
 51
192.9384389999999
  0
ARC
  5
B402
330
B16C
100
AcDbEntity
  8
1
  6
Continuous
100
AcDbCircle
 10
84.205708
 20
221.765312
 30
0.0
 40
32.05362499999999
100
AcDbArc
 50
192.9384389999999
 51
197.5196719999999
  0
ARC
  5
B403
330
B16C
100
AcDbEntity
  8
1
  6
Continuous
100
AcDbCircle
 10
81.637309
 20
222.6058359999999
 30
0.0
 40
29.654958
100
AcDbArc
 50
182.9052629999999
 51
186.069737
  0
ARC
  5
B404
330
B16C
100
AcDbEntity
  8
1
  6
Continuous
100
AcDbCircle
 10
52.488934
 20
222.527753
 30
0.0
 40
1.5
100
AcDbArc
 50
180.0
 51
251.801408
  0
ARC
  5
B405
330
B16C
100
AcDbEntity
  8
1
  6
Continuous
100
AcDbCircle
 10
39.24769899999999
 20
223.838562
 30
0.0
 40
41.31317399999999
100
AcDbArc
 50
347.0615609999999
 51
353.9302629999999
  0
ARC
  5
B406
330
B16C
100
AcDbEntity
  8
1
  6
Continuous
100
AcDbCircle
 10
48.27215999999999
 20
221.765312
 30
0.0
 40
32.05362499999999
100
AcDbArc
 50
342.4803279999999
 51
347.0615609999999
  0
ARC
  5
B407
330
B16C
100
AcDbEntity
  8
1
  6
Continuous
100
AcDbCircle
 10
50.840558
 20
222.6058359999999
 30
0.0
 40
29.654958
100
AcDbArc
 50
353.9302629999999
 51
357.094737
  0
LINE
  5
B408
330
B16C
100
AcDbEntity
  8
1
  6
Continuous
100
AcDbLine
 10
81.98893400000001
 20
224.127753
 30
0.0
 11
81.488934
 21
224.127753
 31
0.0
  0
ARC
  5
B409
330
B16C
100
AcDbEntity
  8
1
  6
Continuous
100
AcDbCircle
 10
79.988934
 20
222.527753
 30
0.0
 40
1.5
100
AcDbArc
 50
288.198592
 51
0.0
  0
ARC
  5
B40A
330
B16C
100
AcDbEntity
  8
1
  6
Continuous
100
AcDbCircle
 10
93.23016800000001
 20
235.416944
 30
0.0
 40
41.31317399999999
100
AcDbArc
 50
167.061561
 51
173.930263
  0
LINE
  5
B40B
330
B16C
100
AcDbEntity
  8
1
  6
Continuous
100
AcDbLine
 10
50.47789999999999
 20
235.1277529999999
 30
0.0
 11
50.988934
 21
235.1277529999999
 31
0.0
  0
ARC
  5
B40C
330
B16C
100
AcDbEntity
  8
1
  6
Continuous
100
AcDbCircle
 10
81.637309
 20
236.6496699999999
 30
0.0
 40
29.654958
100
AcDbArc
 50
173.930263
 51
177.094737
  0
ARC
  5
B40D
330
B16C
100
AcDbEntity
  8
1
  6
Continuous
100
AcDbCircle
 10
52.488934
 20
236.7277529999999
 30
0.0
 40
1.5
100
AcDbArc
 50
108.1985919999999
 51
180.0
  0
ARC
  5
B40E
330
B16C
100
AcDbEntity
  8
1
  6
Continuous
100
AcDbCircle
 10
84.205708
 20
237.4901939999999
 30
0.0
 40
32.05362499999999
100
AcDbArc
 50
162.4803279999999
 51
167.061561
  0
ARC
  5
B40F
330
B16C
100
AcDbEntity
  8
1
  6
Continuous
100
AcDbCircle
 10
39.24769899999999
 20
235.416944
 30
0.0
 40
41.31317399999999
100
AcDbArc
 50
6.069736999999999
 51
12.938439
  0
LINE
  5
B410
330
B16C
100
AcDbEntity
  8
1
  6
Continuous
100
AcDbLine
 10
81.99996899999998
 20
235.1277529999999
 30
0.0
 11
81.488934
 21
235.1277529999999
 31
0.0
  0
ARC
  5
B411
330
B16C
100
AcDbEntity
  8
1
  6
Continuous
100
AcDbCircle
 10
50.840558
 20
236.6496699999999
 30
0.0
 40
29.654958
100
AcDbArc
 50
2.905263
 51
6.069736999999999
  0
ARC
  5
B412
330
B16C
100
AcDbEntity
  8
1
  6
Continuous
100
AcDbCircle
 10
79.988934
 20
236.7277529999999
 30
0.0
 40
1.5
100
AcDbArc
 50
0.0
 51
71.801408
  0
ARC
  5
B413
330
B16C
100
AcDbEntity
  8
1
  6
Continuous
100
AcDbCircle
 10
48.27215999999999
 20
237.4901939999999
 30
0.0
 40
32.05362499999999
100
AcDbArc
 50
12.938439
 51
17.519672
  0
ARC
  5
B414
330
B16C
100
AcDbEntity
  8
1
  6
Continuous
100
AcDbCircle
 10
66.238934
 20
264.6277529999999
 30
0.0
 40
30.0
100
AcDbArc
 50
72.29904899999998
 51
107.6980119999999
  0
LINE
  5
B415
330
B16C
100
AcDbEntity
  8
1
  6
Continuous
100
AcDbLine
 10
54.78633399999999
 20
294.8733359999998
 30
0.0
 11
77.69153299999998
 21
294.8733359999998
 31
0.0
  0
ARC
  5
B416
330
B16C
100
AcDbEntity
  8
1
  6
Continuous
100
AcDbCircle
 10
58.638934
 20
288.4445539999999
 30
0.0
 40
5.0
100
AcDbArc
 50
107.6980119999999
 51
180.0
  0
ARC
  5
B417
330
B16C
100
AcDbEntity
  8
1
  6
Continuous
100
AcDbCircle
 10
55.4217
 20
289.976942
 30
0.0
 40
5.0
100
AcDbArc
 50
108.5228489999998
 51
159.4816529999999
  0
ARC
  5
B418
330
B16C
100
AcDbEntity
  8
1
  6
Continuous
100
AcDbCircle
 10
54.78633399999999
 20
291.873336
 30
0.0
 40
3.0
100
AcDbArc
 50
90.0
 51
108.5228489999998
  0
ARC
  5
B419
330
B16C
100
AcDbEntity
  8
1
  6
Continuous
100
AcDbCircle
 10
77.07048499999998
 20
289.9722049999999
 30
0.0
 40
5.0
100
AcDbArc
 50
20.984074
 51
71.909194
  0
ARC
  5
B41A
330
B16C
100
AcDbEntity
  8
1
  6
Continuous
100
AcDbCircle
 10
77.69153299999998
 20
291.873336
 30
0.0
 40
3.0
100
AcDbArc
 50
71.909194
 51
90.0
  0
ARC
  5
B41B
330
B16C
100
AcDbEntity
  8
1
  6
Continuous
100
AcDbCircle
 10
73.83893399999998
 20
288.4445539999999
 30
0.0
 40
5.0
100
AcDbArc
 50
0.0
 51
72.30198799999998
  0
LINE
  5
B41C
330
B16C
100
AcDbEntity
  8
1
  6
Continuous
100
AcDbLine
 10
338.6337429999999
 20
170.810934
 30
0.0
 11
338.6337429999999
 21
288.4445359999999
 31
0.0
  0
LINE
  5
B41D
330
B16C
100
AcDbEntity
  8
1
  6
Continuous
100
AcDbLine
 10
363.833743
 20
170.810934
 30
0.0
 11
363.833743
 21
288.4445359999999
 31
0.0
  0
ARC
  5
B41E
330
B16C
100
AcDbEntity
  8
1
  6
Continuous
100
AcDbCircle
 10
351.233743
 20
194.627735
 30
0.0
 40
30.0
100
AcDbArc
 50
252.301988
 51
287.7009509999999
  0
ARC
  5
B41F
330
B16C
100
AcDbEntity
  8
1
  6
Continuous
100
AcDbCircle
 10
343.633743
 20
170.810934
 30
0.0
 40
5.0
100
AcDbArc
 50
180.0
 51
252.301988
  0
ARC
  5
B420
330
B16C
100
AcDbEntity
  8
1
  6
Continuous
100
AcDbCircle
 10
358.8337430000001
 20
170.810934
 30
0.0
 40
5.0
100
AcDbArc
 50
287.698012
 51
0.0
  0
ARC
  5
B421
330
B16C
100
AcDbEntity
  8
1
  6
Continuous
100
AcDbCircle
 10
351.233743
 20
264.6277349999999
 30
0.0
 40
30.0
100
AcDbArc
 50
72.29904899999998
 51
107.6980119999999
  0
LINE
  5
B422
330
B16C
100
AcDbEntity
  8
1
  6
Continuous
100
AcDbLine
 10
337.0152749999999
 20
221.102766
 30
0.0
 11
337.0152749999999
 21
238.1527039999999
 31
0.0
  0
LINE
  5
B423
330
B16C
100
AcDbEntity
  8
1
  6
Continuous
100
AcDbLine
 10
335.983743
 20
236.727735
 30
0.0
 11
335.983743
 21
222.527735
 31
0.0
  0
ARC
  5
B424
330
B16C
100
AcDbEntity
  8
1
  6
Continuous
100
AcDbCircle
 10
337.4837429999999
 20
222.527735
 30
0.0
 40
1.5
100
AcDbArc
 50
180.0
 51
251.801408
  0
ARC
  5
B425
330
B16C
100
AcDbEntity
  8
1
  6
Continuous
100
AcDbCircle
 10
366.632118
 20
222.605818
 30
0.0
 40
29.654958
100
AcDbArc
 50
182.9052629999999
 51
186.069737
  0
ARC
  5
B426
330
B16C
100
AcDbEntity
  8
1
  6
Continuous
100
AcDbCircle
 10
369.2005169999998
 20
221.7652939999999
 30
0.0
 40
32.05362499999999
100
AcDbArc
 50
192.9384389999999
 51
197.5196719999999
  0
ARC
  5
B427
330
B16C
100
AcDbEntity
  8
1
  6
Continuous
100
AcDbCircle
 10
378.224977
 20
223.838544
 30
0.0
 40
41.31317399999999
100
AcDbArc
 50
186.069737
 51
192.9384389999999
  0
LINE
  5
B428
330
B16C
100
AcDbEntity
  8
1
  6
Continuous
100
AcDbLine
 10
335.483894
 20
224.127735
 30
0.0
 11
335.983743
 21
224.127735
 31
0.0
  0
ARC
  5
B429
330
B16C
100
AcDbEntity
  8
1
  6
Continuous
100
AcDbCircle
 10
369.2005169999998
 20
237.4901759999999
 30
0.0
 40
32.05362499999999
100
AcDbArc
 50
162.4803279999999
 51
167.061561
  0
ARC
  5
B42A
330
B16C
100
AcDbEntity
  8
1
  6
Continuous
100
AcDbCircle
 10
337.4837429999999
 20
236.727735
 30
0.0
 40
1.5
100
AcDbArc
 50
108.1985919999999
 51
180.0
  0
ARC
  5
B42B
330
B16C
100
AcDbEntity
  8
1
  6
Continuous
100
AcDbCircle
 10
366.632118
 20
236.649652
 30
0.0
 40
29.654958
100
AcDbArc
 50
173.930263
 51
177.094737
  0
LINE
  5
B42C
330
B16C
100
AcDbEntity
  8
1
  6
Continuous
100
AcDbLine
 10
335.4728589999999
 20
235.127735
 30
0.0
 11
335.983743
 21
235.127735
 31
0.0
  0
ARC
  5
B42D
330
B16C
100
AcDbEntity
  8
1
  6
Continuous
100
AcDbCircle
 10
378.224977
 20
235.4169259999999
 30
0.0
 40
41.31317399999999
100
AcDbArc
 50
167.061561
 51
173.930263
  0
ARC
  5
B42E
330
B16C
100
AcDbEntity
  8
1
  6
Continuous
100
AcDbCircle
 10
343.633743
 20
288.4445359999999
 30
0.0
 40
5.0
100
AcDbArc
 50
107.6980119999999
 51
180.0
  0
LINE
  5
B42F
330
B16C
100
AcDbEntity
  8
1
  6
Continuous
100
AcDbLine
 10
366.4837429999999
 20
236.727735
 30
0.0
 11
366.4837429999999
 21
222.527735
 31
0.0
  0
LINE
  5
B430
330
B16C
100
AcDbEntity
  8
1
  6
Continuous
100
AcDbLine
 10
365.4522099999998
 20
221.102766
 30
0.0
 11
365.4522099999998
 21
238.1527039999999
 31
0.0
  0
ARC
  5
B431
330
B16C
100
AcDbEntity
  8
1
  6
Continuous
100
AcDbCircle
 10
364.983743
 20
222.527735
 30
0.0
 40
1.5
100
AcDbArc
 50
288.198592
 51
0.0
  0
LINE
  5
B432
330
B16C
100
AcDbEntity
  8
1
  6
Continuous
100
AcDbLine
 10
366.983592
 20
224.127735
 30
0.0
 11
366.4837429999999
 21
224.127735
 31
0.0
  0
ARC
  5
B433
330
B16C
100
AcDbEntity
  8
1
  6
Continuous
100
AcDbCircle
 10
335.835367
 20
222.605818
 30
0.0
 40
29.654958
100
AcDbArc
 50
353.9302629999999
 51
357.094737
  0
ARC
  5
B434
330
B16C
100
AcDbEntity
  8
1
  6
Continuous
100
AcDbCircle
 10
333.266969
 20
221.7652939999999
 30
0.0
 40
32.05362499999999
100
AcDbArc
 50
342.4803279999999
 51
347.0615609999999
  0
ARC
  5
B435
330
B16C
100
AcDbEntity
  8
1
  6
Continuous
100
AcDbCircle
 10
324.2425079999998
 20
223.838544
 30
0.0
 40
41.31317399999999
100
AcDbArc
 50
347.0615609999999
 51
353.9302629999999
  0
ARC
  5
B436
330
B16C
100
AcDbEntity
  8
1
  6
Continuous
100
AcDbCircle
 10
333.266969
 20
237.4901759999999
 30
0.0
 40
32.05362499999999
100
AcDbArc
 50
12.938439
 51
17.519672
  0
ARC
  5
B437
330
B16C
100
AcDbEntity
  8
1
  6
Continuous
100
AcDbCircle
 10
364.983743
 20
236.727735
 30
0.0
 40
1.5
100
AcDbArc
 50
0.0
 51
71.801408
  0
ARC
  5
B438
330
B16C
100
AcDbEntity
  8
1
  6
Continuous
100
AcDbCircle
 10
335.835367
 20
236.649652
 30
0.0
 40
29.654958
100
AcDbArc
 50
2.905263
 51
6.069736999999999
  0
LINE
  5
B439
330
B16C
100
AcDbEntity
  8
1
  6
Continuous
100
AcDbLine
 10
366.994627
 20
235.127735
 30
0.0
 11
366.4837429999999
 21
235.127735
 31
0.0
  0
ARC
  5
B43A
330
B16C
100
AcDbEntity
  8
1
  6
Continuous
100
AcDbCircle
 10
324.2425079999998
 20
235.4169259999999
 30
0.0
 40
41.31317399999999
100
AcDbArc
 50
6.069736999999999
 51
12.938439
  0
ARC
  5
B43B
330
B16C
100
AcDbEntity
  8
1
  6
Continuous
100
AcDbCircle
 10
358.8337430000001
 20
288.4445359999999
 30
0.0
 40
5.0
100
AcDbArc
 50
0.0
 51
72.30198799999998
  0
ARC
  5
B43C
330
B16C
100
AcDbEntity
  8
1
  6
Continuous
100
AcDbCircle
 10
150.4195379999998
 20
79.82236800000002
 30
0.0
 40
5.0
100
AcDbArc
 50
197.698012
 51
270.0
  0
ARC
  5
B43D
330
B16C
100
AcDbEntity
  8
1
  6
Continuous
100
AcDbCircle
 10
268.05314
 20
79.82236800000002
 30
0.0
 40
5.0
100
AcDbArc
 50
270.0
 51
342.301988
  0
ARC
  5
B43E
330
B16C
100
AcDbEntity
  8
1
  6
Continuous
100
AcDbCircle
 10
203.447148
 20
114.4136019999999
 30
0.0
 40
41.31317399999999
100
AcDbArc
 50
257.0615609999999
 51
263.9302629999999
  0
LINE
  5
B43F
330
B16C
100
AcDbEntity
  8
1
  6
Continuous
100
AcDbLine
 10
268.05314
 20
74.82236800000002
 30
0.0
 11
150.4195379999998
 21
74.82236800000002
 31
0.0
  0
ARC
  5
B440
330
B16C
100
AcDbEntity
  8
1
  6
Continuous
100
AcDbCircle
 10
201.3738979999998
 20
105.389142
 30
0.0
 40
32.05362499999999
100
AcDbArc
 50
252.4803279999999
 51
257.0615609999999
  0
ARC
  5
B441
330
B16C
100
AcDbEntity
  8
1
  6
Continuous
100
AcDbCircle
 10
216.258256
 20
102.8207429999999
 30
0.0
 40
29.654958
100
AcDbArc
 50
272.9052629999998
 51
276.0697369999999
  0
LINE
  5
B442
330
B16C
100
AcDbEntity
  8
1
  6
Continuous
100
AcDbLine
 10
217.7613079999999
 20
73.2039
 30
0.0
 11
200.7113689999999
 21
73.2039
 31
0.0
  0
LINE
  5
B443
330
B16C
100
AcDbEntity
  8
1
  6
Continuous
100
AcDbLine
 10
202.1363389999999
 20
72.17236800000002
 30
0.0
 11
216.336339
 21
72.17236800000002
 31
0.0
  0
ARC
  5
B444
330
B16C
100
AcDbEntity
  8
1
  6
Continuous
100
AcDbCircle
 10
216.336339
 20
73.672368
 30
0.0
 40
1.5
100
AcDbArc
 50
270.0
 51
341.8014079999999
  0
LINE
  5
B445
330
B16C
100
AcDbEntity
  8
1
  6
Continuous
100
AcDbLine
 10
214.7363389999999
 20
71.67236899999998
 30
0.0
 11
214.7363389999999
 21
72.17236800000002
 31
0.0
  0
ARC
  5
B446
330
B16C
100
AcDbEntity
  8
1
  6
Continuous
100
AcDbCircle
 10
202.1363389999999
 20
73.672368
 30
0.0
 40
1.5
100
AcDbArc
 50
198.1985919999999
 51
270.0
  0
ARC
  5
B447
330
B16C
100
AcDbEntity
  8
1
  6
Continuous
100
AcDbCircle
 10
202.2144219999999
 20
102.8207429999999
 30
0.0
 40
29.654958
100
AcDbArc
 50
263.9302629999999
 51
267.0947369999999
  0
LINE
  5
B448
330
B16C
100
AcDbEntity
  8
1
  6
Continuous
100
AcDbLine
 10
203.7363389999999
 20
71.66133399999998
 30
0.0
 11
203.7363389999999
 21
72.17236800000002
 31
0.0
  0
ARC
  5
B449
330
B16C
100
AcDbEntity
  8
1
  6
Continuous
100
AcDbCircle
 10
217.0987799999998
 20
105.389142
 30
0.0
 40
32.05362499999999
100
AcDbArc
 50
282.938439
 51
287.519672
  0
ARC
  5
B44A
330
B16C
100
AcDbEntity
  8
1
  6
Continuous
100
AcDbCircle
 10
215.0255299999999
 20
114.4136019999999
 30
0.0
 40
41.31317399999999
100
AcDbArc
 50
276.0697369999999
 51
282.938439
  0
ARC
  5
B44B
330
B16C
100
AcDbEntity
  8
1
  6
Continuous
100
AcDbCircle
 10
203.447148
 20
60.43113299999999
 30
0.0
 40
41.31317399999999
100
AcDbArc
 50
96.06973700000001
 51
102.9384389999999
  0
LINE
  5
B44C
330
B16C
100
AcDbEntity
  8
1
  6
Continuous
100
AcDbLine
 10
268.05314
 20
100.0223679999999
 30
0.0
 11
150.4195379999998
 21
100.0223679999999
 31
0.0
  0
ARC
  5
B44D
330
B16C
100
AcDbEntity
  8
1
  6
Continuous
100
AcDbCircle
 10
174.2363389999999
 20
87.422368
 30
0.0
 40
30.0
100
AcDbArc
 50
162.299049
 51
197.698012
  0
ARC
  5
B44E
330
B16C
100
AcDbEntity
  8
1
  6
Continuous
100
AcDbCircle
 10
150.4195379999998
 20
95.022368
 30
0.0
 40
5.0
100
AcDbArc
 50
90.0
 51
162.301988
  0
ARC
  5
B44F
330
B16C
100
AcDbEntity
  8
1
  6
Continuous
100
AcDbCircle
 10
201.3738979999998
 20
69.45559399999999
 30
0.0
 40
32.05362499999999
100
AcDbArc
 50
102.9384389999999
 51
107.519672
  0
ARC
  5
B450
330
B16C
100
AcDbEntity
  8
1
  6
Continuous
100
AcDbCircle
 10
216.258256
 20
72.02399200000002
 30
0.0
 40
29.654958
100
AcDbArc
 50
83.93026299999998
 51
87.09473699999998
  0
LINE
  5
B451
330
B16C
100
AcDbEntity
  8
1
  6
Continuous
100
AcDbLine
 10
202.1363389999999
 20
102.672368
 30
0.0
 11
216.336339
 21
102.672368
 31
0.0
  0
LINE
  5
B452
330
B16C
100
AcDbEntity
  8
1
  6
Continuous
100
AcDbLine
 10
217.7613079999999
 20
101.640835
 30
0.0
 11
200.7113689999999
 21
101.640835
 31
0.0
  0
ARC
  5
B453
330
B16C
100
AcDbEntity
  8
1
  6
Continuous
100
AcDbCircle
 10
216.336339
 20
101.172368
 30
0.0
 40
1.5
100
AcDbArc
 50
18.198592
 51
90.0
  0
LINE
  5
B454
330
B16C
100
AcDbEntity
  8
1
  6
Continuous
100
AcDbLine
 10
214.7363389999999
 20
103.1723689999999
 30
0.0
 11
214.7363389999999
 21
102.672368
 31
0.0
  0
ARC
  5
B455
330
B16C
100
AcDbEntity
  8
1
  6
Continuous
100
AcDbCircle
 10
202.1363389999999
 20
101.172368
 30
0.0
 40
1.5
100
AcDbArc
 50
90.0
 51
161.801408
  0
ARC
  5
B456
330
B16C
100
AcDbEntity
  8
1
  6
Continuous
100
AcDbCircle
 10
202.2144219999999
 20
72.02399200000002
 30
0.0
 40
29.654958
100
AcDbArc
 50
92.90526300000001
 51
96.06973700000001
  0
LINE
  5
B457
330
B16C
100
AcDbEntity
  8
1
  6
Continuous
100
AcDbLine
 10
203.7363389999999
 20
103.1834029999999
 30
0.0
 11
203.7363389999999
 21
102.672368
 31
0.0
  0
ARC
  5
B458
330
B16C
100
AcDbEntity
  8
1
  6
Continuous
100
AcDbCircle
 10
217.0987799999998
 20
69.45559399999999
 30
0.0
 40
32.05362499999999
100
AcDbArc
 50
72.48032800000001
 51
77.06156100000002
  0
ARC
  5
B459
330
B16C
100
AcDbEntity
  8
1
  6
Continuous
100
AcDbCircle
 10
215.0255299999999
 20
60.43113299999999
 30
0.0
 40
41.31317399999999
100
AcDbArc
 50
77.06156100000002
 51
83.93026299999998
  0
ARC
  5
B45A
330
B16C
100
AcDbEntity
  8
1
  6
Continuous
100
AcDbCircle
 10
244.236339
 20
87.422368
 30
0.0
 40
30.0
100
AcDbArc
 50
342.301988
 51
17.70095099999998
  0
ARC
  5
B45B
330
B16C
100
AcDbEntity
  8
1
  6
Continuous
100
AcDbCircle
 10
268.05314
 20
95.022368
 30
0.0
 40
5.0
100
AcDbArc
 50
17.69801199999999
 51
90.0
  0
ARC
  5
B45C
330
B16C
100
AcDbEntity
  8
1
  6
Continuous
100
AcDbCircle
 10
209.236339
 20
229.6277389999999
 30
0.0
 40
17.511634
100
AcDbArc
 50
110.348909
 51
354.9636229999999
  0
ARC
  5
B45D
330
B16C
100
AcDbEntity
  8
1
  6
Continuous
100
AcDbCircle
 10
493.231148
 20
229.6277389999999
 30
0.0
 40
17.512
100
AcDbArc
 50
185.034997
 51
69.652191
  0
LINE
  5
B45E
330
B16C
100
AcDbEntity
  8
1
  6
Continuous
100
AcDbLine
 10
202.236352
 20
463.0259869999998
 30
0.0
 11
202.236352
 21
460.699749
 31
0.0
  0
LINE
  5
B45F
330
B16C
100
AcDbEntity
  8
1
  6
Continuous
100
AcDbLine
 10
216.2363519999999
 20
463.0259869999998
 30
0.0
 11
202.236352
 21
463.0259869999998
 31
0.0
  0
ARC
  5
B460
330
B16C
100
AcDbEntity
  8
1
  6
Continuous
100
AcDbCircle
 10
209.236352
 20
455.1997489999997
 30
0.0
 40
10.5
100
AcDbArc
 50
48.189685
 51
131.810315
  0
LINE
  5
B461
330
B16C
100
AcDbEntity
  8
1
  6
Continuous
100
AcDbLine
 10
216.2363519999999
 20
463.0259869999998
 30
0.0
 11
216.2363519999999
 21
460.699749
 31
0.0
  0
LINE
  5
B462
330
B16C
100
AcDbEntity
  8
1
  6
Continuous
100
AcDbLine
 10
45.557178
 20
236.627753
 30
0.0
 11
45.557178
 21
222.6277529999999
 31
0.0
  0
ARC
  5
B463
330
B16C
100
AcDbEntity
  8
1
  6
Continuous
100
AcDbCircle
 10
53.38341599999999
 20
229.6277529999999
 30
0.0
 40
10.5
100
AcDbArc
 50
138.1896849999999
 51
221.810315
  0
LINE
  5
B464
330
B16C
100
AcDbEntity
  8
1
  6
Continuous
100
AcDbLine
 10
45.557178
 20
222.6277529999999
 30
0.0
 11
47.88341599999998
 21
222.6277529999999
 31
0.0
  0
LINE
  5
B465
330
B16C
100
AcDbEntity
  8
1
  6
Continuous
100
AcDbLine
 10
45.557178
 20
236.627753
 30
0.0
 11
47.88341599999998
 21
236.627753
 31
0.0
  0
LINE
  5
B466
330
B16C
100
AcDbEntity
  8
1
  6
Continuous
100
AcDbLine
 10
371.9155009999998
 20
232.7726359999998
 30
0.0
 11
371.9155009999998
 21
222.627735
 31
0.0
  0
ARC
  5
B467
330
B16C
100
AcDbEntity
  8
1
  6
Continuous
100
AcDbCircle
 10
364.089263
 20
229.6277349999999
 30
0.0
 40
10.5
100
AcDbArc
 50
318.189685
 51
29.66984899999999
  0
LINE
  5
B468
330
B16C
100
AcDbEntity
  8
1
  6
Continuous
100
AcDbLine
 10
371.9155009999998
 20
222.627735
 30
0.0
 11
369.589263
 21
222.627735
 31
0.0
  0
LINE
  5
B469
330
B16C
100
AcDbEntity
  8
1
  6
Continuous
100
AcDbLine
 10
216.2363389999999
 20
66.740612
 30
0.0
 11
202.2363389999999
 21
66.740612
 31
0.0
  0
ARC
  5
B46A
330
B16C
100
AcDbEntity
  8
1
  6
Continuous
100
AcDbCircle
 10
209.236339
 20
74.56685
 30
0.0
 40
10.5
100
AcDbArc
 50
228.1896849999998
 51
311.810315
  0
LINE
  5
B46B
330
B16C
100
AcDbEntity
  8
1
  6
Continuous
100
AcDbLine
 10
202.2363389999999
 20
66.740612
 30
0.0
 11
202.2363389999999
 21
69.06685
 31
0.0
  0
LINE
  5
B46C
330
B16C
100
AcDbEntity
  8
1
  6
Continuous
100
AcDbLine
 10
216.2363389999999
 20
66.740612
 30
0.0
 11
216.2363389999999
 21
69.06685
 31
0.0
  0
ENDSEC
  0
SECTION
  2
OBJECTS
  0
DICTIONARY
  5
B15A
330
0
100
AcDbDictionary
281
     1
  3
ACAD_CIP_PREVIOUS_PRODUCT_INFO
350
B4CE
  3
ACAD_COLOR
350
B4B0
  3
ACAD_DETAILVIEWSTYLE
350
B4C9
  3
ACAD_GROUP
350
B15B
  3
ACAD_LAYOUT
350
B167
  3
ACAD_MATERIAL
350
B47E
  3
ACAD_MLEADERSTYLE
350
B4C5
  3
ACAD_MLINESTYLE
350
B164
  3
ACAD_PLOTSETTINGS
350
B166
  3
ACAD_PLOTSTYLENAME
350
B47C
  3
ACAD_SCALELIST
350
B4B3
  3
ACAD_SECTIONVIEWSTYLE
350
B4C7
  3
ACAD_TABLESTYLE
350
B4B1
  3
ACAD_VISUALSTYLE
350
B497
  3
ACDB_RECOMPOSE_DATA
350
B4EC
  3
AcDbVariableDictionary
350
B4DF
  3
DWGPROPS
350
B4ED
  0
DICTIONARY
  5
B4CF
330
B15E
100
AcDbDictionary
280
     1
281
     1
  3
ADSK_XREC_LAYER_RECONCILED
360
B4D0
  0
DICTIONARY
  5
B4D1
330
B174
100
AcDbDictionary
280
     1
281
     1
  3
ADSK_XREC_LAYER_RECONCILED
360
B4D2
  0
DICTIONARY
  5
B4D3
330
B175
100
AcDbDictionary
280
     1
281
     1
  3
ADSK_XREC_LAYER_RECONCILED
360
B4D4
  0
DICTIONARY
  5
B4D5
330
B176
100
AcDbDictionary
280
     1
281
     1
  3
ADSK_XREC_LAYER_RECONCILED
360
B4D6
  0
DICTIONARY
  5
B4D7
330
B177
100
AcDbDictionary
280
     1
281
     1
  3
ADSK_XREC_LAYER_RECONCILED
360
B4D8
  0
DICTIONARY
  5
B4D9
330
B178
100
AcDbDictionary
280
     1
281
     1
  3
ADSK_XREC_LAYER_RECONCILED
360
B4DA
  0
DICTIONARY
  5
B4DB
330
B179
100
AcDbDictionary
280
     1
281
     1
  3
ADSK_XREC_LAYER_RECONCILED
360
B4DC
  0
DICTIONARY
  5
B4DD
330
B17A
100
AcDbDictionary
280
     1
281
     1
  3
ADSK_XREC_LAYER_RECONCILED
360
B4DE
  0
DICTIONARY
  5
B477
330
B16C
100
AcDbDictionary
281
     1
  3
ACAD_LAYOUTSELFREF
350
B478
  0
DICTIONARY
  5
B475
330
B168
100
AcDbDictionary
281
     1
  3
ACAD_LAYOUTSELFREF
350
B476
  0
XRECORD
  5
B4CE
102
{ACAD_REACTORS
330
B15A
102
}
330
B15A
100
AcDbXrecord
280
     1
300
ACDLT
300
2014
300
ACDLT_F_S
  0
DICTIONARY
  5
B4B0
102
{ACAD_REACTORS
330
B15A
102
}
330
B15A
100
AcDbDictionary
281
     1
  0
DICTIONARY
  5
B4C9
102
{ACAD_REACTORS
330
B15A
102
}
330
B15A
100
AcDbDictionary
281
     1
  3
Imperial24
350
B4CA
  0
DICTIONARY
  5
B15B
102
{ACAD_REACTORS
330
B15A
102
}
330
B15A
100
AcDbDictionary
281
     1
  0
DICTIONARY
  5
B167
102
{ACAD_REACTORS
330
B15A
102
}
330
B15A
100
AcDbDictionary
281
     1
  3
Model
350
B4CB
  3
レイアウト1
350
B4CC
  0
DICTIONARY
  5
B47E
102
{ACAD_REACTORS
330
B15A
102
}
330
B15A
100
AcDbDictionary
281
     1
  3
ByBlock
350
B487
  3
ByLayer
350
B47F
  3
Global
350
B48F
  0
DICTIONARY
  5
B4C5
102
{ACAD_REACTORS
330
B15A
102
}
330
B15A
100
AcDbDictionary
281
     1
  3
Standard
350
B4C6
  0
DICTIONARY
  5
B164
102
{ACAD_REACTORS
330
B15A
102
}
330
B15A
100
AcDbDictionary
281
     1
  3
STANDARD
350
B165
  0
DICTIONARY
  5
B166
102
{ACAD_REACTORS
330
B15A
102
}
330
B15A
100
AcDbDictionary
281
     1
  0
ACDBDICTIONARYWDFLT
  5
B47C
102
{ACAD_REACTORS
330
B15A
102
}
330
B15A
100
AcDbDictionary
281
     1
  3
Normal
350
B47D
100
AcDbDictionaryWithDefault
340
B47D
  0
DICTIONARY
  5
B4B3
102
{ACAD_REACTORS
330
B15A
102
}
330
B15A
100
AcDbDictionary
281
     1
  3
A0
350
B4B4
  3
A1
350
B4B5
  3
A2
350
B4B6
  3
A3
350
B4B7
  3
A4
350
B4B8
  3
A5
350
B4B9
  3
A6
350
B4BA
  3
A7
350
B4BB
  3
A8
350
B4BC
  3
A9
350
B4BD
  3
B0
350
B4BE
  3
B1
350
B4BF
  3
B2
350
B4C0
  3
B3
350
B4C1
  3
B4
350
B4C2
  3
B5
350
B4C3
  3
B6
350
B4C4
  0
DICTIONARY
  5
B4C7
102
{ACAD_REACTORS
330
B15A
102
}
330
B15A
100
AcDbDictionary
281
     1
  3
Imperial24
350
B4C8
  0
DICTIONARY
  5
B4B1
102
{ACAD_REACTORS
330
B15A
102
}
330
B15A
100
AcDbDictionary
281
     1
  3
Standard
350
B4B2
  0
DICTIONARY
  5
B497
102
{ACAD_REACTORS
330
B15A
102
}
330
B15A
100
AcDbDictionary
281
     1
  3
2dWireframe
350
B49D
  3
Basic
350
B49C
  3
Brighten
350
B4A3
  3
ColorChange
350
B4A7
  3
Conceptual
350
B4A0
  3
Dim
350
B4A2
  3
EdgeColorOff
350
B4AF
  3
Facepattern
350
B4A6
  3
Flat
350
B498
  3
FlatWithEdges
350
B499
  3
Gouraud
350
B49A
  3
GouraudWithEdges
350
B49B
  3
Hidden
350
B49F
  3
JitterOff
350
B4AD
  3
Linepattern
350
B4A5
  3
OverhangOff
350
B4AE
  3
Realistic
350
B4A1
  3
Shaded
350
B4AC
  3
Shaded with edges
350
B4AB
  3
Shades of Gray
350
B4A8
  3
Sketchy
350
B4A9
  3
Thicken
350
B4A4
  3
Wireframe
350
B49E
  3
X-Ray
350
B4AA
  0
XRECORD
  5
B4EC
102
{ACAD_REACTORS
330
B15A
102
}
330
B15A
100
AcDbXrecord
280
     1
 90
        1
330
B4B2
  0
DICTIONARY
  5
B4DF
102
{ACAD_REACTORS
330
B15A
102
}
330
B15A
100
AcDbDictionary
281
     1
  3
CANNOSCALE
350
B4E4
  3
CMLEADERSTYLE
350
B4E1
  3
CTABLESTYLE
350
B4E0
  3
CVIEWDETAILSTYLE
350
B4E2
  3
CVIEWSECTIONSTYLE
350
B4E3
  3
DIMASSOC
350
B4E7
  3
INDEXCTL
350
B4E6
  3
SORTENTS
350
B4E5
  3
XCLIPFRAME
350
B4E8
  0
XRECORD
  5
B4ED
102
{ACAD_REACTORS
330
B15A
102
}
330
B15A
100
AcDbXrecord
280
     1
  1
DWGPROPS COOKIE
  2

  3

  4

  6

  7

  8
Yoshitsune
  9

300
=
301
=
302
=
303
=
304
=
305
=
306
=
307
=
308
=
309
=
 40
0.0000105208333333
 41
2451301.578011343
 42
2457192.687838044
  1

 90
        0
  0
XRECORD
  5
B4D0
102
{ACAD_REACTORS
330
B4CF
102
}
330
B4CF
100
AcDbXrecord
280
     1
290
     1
  0
XRECORD
  5
B4D2
102
{ACAD_REACTORS
330
B4D1
102
}
330
B4D1
100
AcDbXrecord
280
     1
290
     1
  0
XRECORD
  5
B4D4
102
{ACAD_REACTORS
330
B4D3
102
}
330
B4D3
100
AcDbXrecord
280
     1
290
     1
  0
XRECORD
  5
B4D6
102
{ACAD_REACTORS
330
B4D5
102
}
330
B4D5
100
AcDbXrecord
280
     1
290
     1
  0
XRECORD
  5
B4D8
102
{ACAD_REACTORS
330
B4D7
102
}
330
B4D7
100
AcDbXrecord
280
     1
290
     1
  0
XRECORD
  5
B4DA
102
{ACAD_REACTORS
330
B4D9
102
}
330
B4D9
100
AcDbXrecord
280
     1
290
     1
  0
XRECORD
  5
B4DC
102
{ACAD_REACTORS
330
B4DB
102
}
330
B4DB
100
AcDbXrecord
280
     1
290
     1
  0
XRECORD
  5
B4DE
102
{ACAD_REACTORS
330
B4DD
102
}
330
B4DD
100
AcDbXrecord
280
     1
290
     1
  0
XRECORD
  5
B478
102
{ACAD_REACTORS
330
B477
102
}
330
B477
100
AcDbXrecord
280
     1
340
B16C
  0
XRECORD
  5
B476
102
{ACAD_REACTORS
330
B475
102
}
330
B475
100
AcDbXrecord
280
     1
340
B168
  0
ACDBDETAILVIEWSTYLE
  5
B4CA
102
{ACAD_XDICTIONARY
360
B525
102
}
102
{ACAD_REACTORS
330
B4C9
102
}
330
B4C9
100
AcDbModelDocViewStyle
 70
     0
  3
Imperial24
290
     0
100
AcDbDetailViewStyle
 70
     0
 71
     0
 90
        3
 71
     1
340
B15F
 40
0.24
340
0
 40
0.24
300

 40
0.36
280
     3
 71
     2
340
B163
 90
       25
 71
     3
340
B15F
 40
0.24
 90
        1
 40
0.75
 90
        1
300
%<\AcVar ViewType \f "%tc1">% %<\AcVar ViewDetailId>%\PSCALE %<\AcVar ViewScale \f "%sn">%
 71
     4
340
B163
 90
       25
340
B163
 90
       25
280
     0
  0
LAYOUT
  5
B4CB
102
{ACAD_XDICTIONARY
360
B527
102
}
102
{ACAD_REACTORS
330
B167
102
}
330
B167
100
AcDbPlotSettings
  1

  2
Canon LBP9100C
  4

  6

 40
0.0
 41
0.0
 42
0.0
 43
0.0
 44
0.0
 45
0.0
 46
0.0
 47
0.0
 48
0.0
 49
0.0
140
0.0
141
0.0
142
1.0
143
1.0
 70
  1712
 72
     0
 73
     0
 74
     0
  7

 75
     0
147
1.0
148
0.0
149
0.0
100
AcDbLayout
  1
Model
 70
     1
 71
     0
 10
0.0
 20
0.0
 11
12.0
 21
9.0
 12
0.0
 22
0.0
 32
0.0
 14
0.0
 24
0.0
 34
0.0
 15
0.0
 25
0.0
 35
0.0
146
0.0
 13
0.0
 23
0.0
 33
0.0
 16
1.0
 26
0.0
 36
0.0
 17
0.0
 27
1.0
 37
0.0
 76
     0
330
B16C
331
B474
  0
LAYOUT
  5
B4CC
102
{ACAD_XDICTIONARY
360
B529
102
}
102
{ACAD_REACTORS
330
B167
102
}
330
B167
100
AcDbPlotSettings
  1

  2
Canon LBP9100C
  4

  6

 40
0.0
 41
0.0
 42
0.0
 43
0.0
 44
0.0
 45
0.0
 46
0.0
 47
0.0
 48
0.0
 49
0.0
140
0.0
141
0.0
142
1.0
143
1.0
 70
   688
 72
     0
 73
     0
 74
     5
  7

 75
    16
147
1.0
148
0.0
149
0.0
100
AcDbLayout
  1
レイアウト1
 70
     0
 71
     1
 10
0.0
 20
0.0
 11
420.0
 21
297.0
 12
0.0
 22
0.0
 32
0.0
 14
1.000000000000000E+20
 24
1.000000000000000E+20
 34
1.000000000000000E+20
 15
-1.000000000000000E+20
 25
-1.000000000000000E+20
 35
-1.000000000000000E+20
146
0.0
 13
0.0
 23
0.0
 33
0.0
 16
1.0
 26
0.0
 36
0.0
 17
0.0
 27
1.0
 37
0.0
 76
     0
330
B168
  0
MATERIAL
  5
B487
102
{ACAD_XDICTIONARY
360
B488
102
}
102
{ACAD_REACTORS
330
B47E
102
}
330
B47E
100
AcDbMaterial
  1
ByBlock
 72
     0
 43
0.0208333333333333
 43
0.0
 43
0.0
 43
0.0
 43
0.0
 43
0.0208333333333333
 43
0.0
 43
0.0
 43
0.0
 43
0.0
 43
1.0
 43
0.0
 43
0.0
 43
0.0
 43
0.0
 43
1.0
 77
     0
 47
0.0208333333333333
 47
0.0
 47
0.0
 47
0.0
 47
0.0
 47
0.0208333333333333
 47
0.0
 47
0.0
 47
0.0
 47
0.0
 47
1.0
 47
0.0
 47
0.0
 47
0.0
 47
0.0
 47
1.0
171
     0
 49
0.0208333333333333
 49
0.0
 49
0.0
 49
0.0
 49
0.0
 49
0.0208333333333333
 49
0.0
 49
0.0
 49
0.0
 49
0.0
 49
1.0
 49
0.0
 49
0.0
 49
0.0
 49
0.0
 49
1.0
175
     0
142
0.0208333333333333
142
0.0
142
0.0
142
0.0
142
0.0
142
0.0208333333333333
142
0.0
142
0.0
142
0.0
142
0.0
142
1.0
142
0.0
142
0.0
142
0.0
142
0.0
142
1.0
179
     0
144
0.0208333333333333
144
0.0
144
0.0
144
0.0
144
0.0
144
0.0208333333333333
144
0.0
144
0.0
144
0.0
144
0.0
144
1.0
144
0.0
144
0.0
144
0.0
144
0.0
144
1.0
147
0.0208333333333333
147
0.0
147
0.0
147
0.0
147
0.0
147
0.0208333333333333
147
0.0
147
0.0
147
0.0
147
0.0
147
1.0
147
0.0
147
0.0
147
0.0
147
0.0
147
1.0
  0
MATERIAL
  5
B47F
102
{ACAD_XDICTIONARY
360
B480
102
}
102
{ACAD_REACTORS
330
B47E
102
}
330
B47E
100
AcDbMaterial
  1
ByLayer
 72
     0
 43
0.0208333333333333
 43
0.0
 43
0.0
 43
0.0
 43
0.0
 43
0.0208333333333333
 43
0.0
 43
0.0
 43
0.0
 43
0.0
 43
1.0
 43
0.0
 43
0.0
 43
0.0
 43
0.0
 43
1.0
 77
     0
 47
0.0208333333333333
 47
0.0
 47
0.0
 47
0.0
 47
0.0
 47
0.0208333333333333
 47
0.0
 47
0.0
 47
0.0
 47
0.0
 47
1.0
 47
0.0
 47
0.0
 47
0.0
 47
0.0
 47
1.0
171
     0
 49
0.0208333333333333
 49
0.0
 49
0.0
 49
0.0
 49
0.0
 49
0.0208333333333333
 49
0.0
 49
0.0
 49
0.0
 49
0.0
 49
1.0
 49
0.0
 49
0.0
 49
0.0
 49
0.0
 49
1.0
175
     0
142
0.0208333333333333
142
0.0
142
0.0
142
0.0
142
0.0
142
0.0208333333333333
142
0.0
142
0.0
142
0.0
142
0.0
142
1.0
142
0.0
142
0.0
142
0.0
142
0.0
142
1.0
179
     0
144
0.0208333333333333
144
0.0
144
0.0
144
0.0
144
0.0
144
0.0208333333333333
144
0.0
144
0.0
144
0.0
144
0.0
144
1.0
144
0.0
144
0.0
144
0.0
144
0.0
144
1.0
147
0.0208333333333333
147
0.0
147
0.0
147
0.0
147
0.0
147
0.0208333333333333
147
0.0
147
0.0
147
0.0
147
0.0
147
1.0
147
0.0
147
0.0
147
0.0
147
0.0
147
1.0
  0
MATERIAL
  5
B48F
102
{ACAD_XDICTIONARY
360
B490
102
}
102
{ACAD_REACTORS
330
B47E
102
}
330
B47E
100
AcDbMaterial
  1
Global
 72
     0
 43
0.0208333333333333
 43
0.0
 43
0.0
 43
0.0
 43
0.0
 43
0.0208333333333333
 43
0.0
 43
0.0
 43
0.0
 43
0.0
 43
1.0
 43
0.0
 43
0.0
 43
0.0
 43
0.0
 43
1.0
 77
     0
 47
0.0208333333333333
 47
0.0
 47
0.0
 47
0.0
 47
0.0
 47
0.0208333333333333
 47
0.0
 47
0.0
 47
0.0
 47
0.0
 47
1.0
 47
0.0
 47
0.0
 47
0.0
 47
0.0
 47
1.0
171
     0
 49
0.0208333333333333
 49
0.0
 49
0.0
 49
0.0
 49
0.0
 49
0.0208333333333333
 49
0.0
 49
0.0
 49
0.0
 49
0.0
 49
1.0
 49
0.0
 49
0.0
 49
0.0
 49
0.0
 49
1.0
175
     0
142
0.0208333333333333
142
0.0
142
0.0
142
0.0
142
0.0
142
0.0208333333333333
142
0.0
142
0.0
142
0.0
142
0.0
142
1.0
142
0.0
142
0.0
142
0.0
142
0.0
142
1.0
179
     0
144
0.0208333333333333
144
0.0
144
0.0
144
0.0
144
0.0
144
0.0208333333333333
144
0.0
144
0.0
144
0.0
144
0.0
144
1.0
144
0.0
144
0.0
144
0.0
144
0.0
144
1.0
147
0.0208333333333333
147
0.0
147
0.0
147
0.0
147
0.0
147
0.0208333333333333
147
0.0
147
0.0
147
0.0
147
0.0
147
1.0
147
0.0
147
0.0
147
0.0
147
0.0
147
1.0
  0
MLEADERSTYLE
  5
B4C6
102
{ACAD_REACTORS
330
B4C5
102
}
330
B4C5
100
AcDbMLeaderStyle
170
     2
171
     1
172
     0
 90
        2
 40
0.0
 41
0.0
173
     1
 91
-1056964608
340
B161
 92
       -2
290
     1
 42
0.09
291
     1
 43
0.36
  3
Standard
 44
0.18
300

342
B15F
174
     1
178
     6
175
     1
176
     0
 93
-1056964608
 45
0.18
292
     0
297
     0
 46
0.18
 94
-1056964608
 47
1.0
 49
1.0
140
1.0
293
     1
141
0.0
294
     1
177
     0
142
1.0
295
     0
296
     0
143
0.125
1001
ACAD_MLEADERVER
1070
     2
  0
MLINESTYLE
  5
B165
102
{ACAD_REACTORS
330
B164
102
}
330
B164
100
AcDbMlineStyle
  2
STANDARD
 70
     0
  3

 62
   256
 51
90.0
 52
90.0
 71
     2
 49
0.5
 62
   256
  6
BYLAYER
 49
-0.5
 62
   256
  6
BYLAYER
  0
ACDBPLACEHOLDER
  5
B47D
102
{ACAD_REACTORS
330
B47C
102
}
330
B47C
  0
SCALE
  5
B4B4
102
{ACAD_REACTORS
330
B4B3
102
}
330
B4B3
100
AcDbScale
 70
     0
300
1:1
140
1.0
141
1.0
290
     1
  0
SCALE
  5
B4B5
102
{ACAD_REACTORS
330
B4B3
102
}
330
B4B3
100
AcDbScale
 70
     0
300
1/128" = 1'-0"
140
0.0078125
141
12.0
290
     0
  0
SCALE
  5
B4B6
102
{ACAD_REACTORS
330
B4B3
102
}
330
B4B3
100
AcDbScale
 70
     0
300
1/64" = 1'-0"
140
0.015625
141
12.0
290
     0
  0
SCALE
  5
B4B7
102
{ACAD_REACTORS
330
B4B3
102
}
330
B4B3
100
AcDbScale
 70
     0
300
1/32" = 1'-0"
140
0.03125
141
12.0
290
     0
  0
SCALE
  5
B4B8
102
{ACAD_REACTORS
330
B4B3
102
}
330
B4B3
100
AcDbScale
 70
     0
300
1/16" = 1'-0"
140
0.0625
141
12.0
290
     0
  0
SCALE
  5
B4B9
102
{ACAD_REACTORS
330
B4B3
102
}
330
B4B3
100
AcDbScale
 70
     0
300
3/32" = 1'-0"
140
0.09375
141
12.0
290
     0
  0
SCALE
  5
B4BA
102
{ACAD_REACTORS
330
B4B3
102
}
330
B4B3
100
AcDbScale
 70
     0
300
1/8" = 1'-0"
140
0.125
141
12.0
290
     0
  0
SCALE
  5
B4BB
102
{ACAD_REACTORS
330
B4B3
102
}
330
B4B3
100
AcDbScale
 70
     0
300
3/16" = 1'-0"
140
0.1875
141
12.0
290
     0
  0
SCALE
  5
B4BC
102
{ACAD_REACTORS
330
B4B3
102
}
330
B4B3
100
AcDbScale
 70
     0
300
1/4" = 1'-0"
140
0.25
141
12.0
290
     0
  0
SCALE
  5
B4BD
102
{ACAD_REACTORS
330
B4B3
102
}
330
B4B3
100
AcDbScale
 70
     0
300
3/8" = 1'-0"
140
0.375
141
12.0
290
     0
  0
SCALE
  5
B4BE
102
{ACAD_REACTORS
330
B4B3
102
}
330
B4B3
100
AcDbScale
 70
     0
300
1/2" = 1'-0"
140
0.5
141
12.0
290
     0
  0
SCALE
  5
B4BF
102
{ACAD_REACTORS
330
B4B3
102
}
330
B4B3
100
AcDbScale
 70
     0
300
3/4" = 1'-0"
140
0.75
141
12.0
290
     0
  0
SCALE
  5
B4C0
102
{ACAD_REACTORS
330
B4B3
102
}
330
B4B3
100
AcDbScale
 70
     0
300
1" = 1'-0"
140
1.0
141
12.0
290
     0
  0
SCALE
  5
B4C1
102
{ACAD_REACTORS
330
B4B3
102
}
330
B4B3
100
AcDbScale
 70
     0
300
1-1/2" = 1'-0"
140
1.5
141
12.0
290
     0
  0
SCALE
  5
B4C2
102
{ACAD_REACTORS
330
B4B3
102
}
330
B4B3
100
AcDbScale
 70
     0
300
3" = 1'-0"
140
3.0
141
12.0
290
     0
  0
SCALE
  5
B4C3
102
{ACAD_REACTORS
330
B4B3
102
}
330
B4B3
100
AcDbScale
 70
     0
300
6" = 1'-0"
140
6.0
141
12.0
290
     0
  0
SCALE
  5
B4C4
102
{ACAD_REACTORS
330
B4B3
102
}
330
B4B3
100
AcDbScale
 70
     0
300
1'-0" = 1'-0"
140
12.0
141
12.0
290
     0
  0
ACDBSECTIONVIEWSTYLE
  5
B4C8
102
{ACAD_XDICTIONARY
360
B523
102
}
102
{ACAD_REACTORS
330
B4C7
102
}
330
B4C7
100
AcDbModelDocViewStyle
 70
     0
  3
Imperial24
290
     0
100
AcDbSectionViewStyle
 70
     0
 71
     0
 90
       78
 71
     1
340
B15F
 40
0.24
340
0
340
0
 40
0.24
300
I, O, Q, S, X, Z
 40
0.48
 90
        3
 40
0.18
 90
        1
 71
     2
340
B163
 90
       25
340
B163
 90
       50
 40
0.24
 40
0.0
 40
0.24
 71
     3
340
B15F
 40
0.24
 90
        1
 40
0.75
 90
        1
300
%<\AcVar ViewType \f "%tc1">% %<\AcVar ViewSectionStartId>%-%<\AcVar ViewSectionEndId>%\PSCALE %<\AcVar ViewScale \f "%sn">%
 71
     4
300
ANSI31
 40
1.0
 90
        0
290
     0
290
     0
 90
        6
 40
0.0
 40
1.570796326794896
 40
0.2617993877991494
 40
1.308996938995747
 40
-0.2617993877991494
 40
1.832595714594046
  0
TABLESTYLE
  5
B4B2
102
{ACAD_XDICTIONARY
360
B4EA
102
}
102
{ACAD_REACTORS
330
B4B1
102
}
330
B4B1
100
AcDbTableStyle
  3
Standard
 70
     0
 71
     0
 40
0.06
 41
0.06
280
     0
281
     0
  7
STANDARD
140
0.18
170
     2
 62
     0
 63
     7
283
     0
274
    -2
284
     1
 64
     0
275
    -2
285
     1
 65
     0
276
    -2
286
     1
 66
     0
277
    -2
287
     1
 67
     0
278
    -2
288
     1
 68
     0
279
    -2
289
     1
 69
     0
  7
STANDARD
140
0.25
170
     5
 62
     0
 63
     7
283
     0
274
    -2
284
     1
 64
     0
275
    -2
285
     1
 65
     0
276
    -2
286
     1
 66
     0
277
    -2
287
     1
 67
     0
278
    -2
288
     1
 68
     0
279
    -2
289
     1
 69
     0
  7
STANDARD
140
0.18
170
     5
 62
     0
 63
     7
283
     0
274
    -2
284
     1
 64
     0
275
    -2
285
     1
 65
     0
276
    -2
286
     1
 66
     0
277
    -2
287
     1
 67
     0
278
    -2
288
     1
 68
     0
279
    -2
289
     1
 69
     0
  0
VISUALSTYLE
  5
B49D
102
{ACAD_XDICTIONARY
360
B4FB
102
}
102
{ACAD_REACTORS
330
B497
102
}
330
B497
100
AcDbVisualStyle
  2
2dWireframe
 70
     4
 71
     0
 72
     2
 73
     0
 90
        0
 40
-0.6
 41
-30.0
 62
     5
 63
     7
 74
     1
 91
        4
 64
     7
 65
   257
 75
     1
175
     1
 42
1.0
 92
        0
 66
   257
 43
1.0
 76
     1
 77
     6
 78
     2
 67
     7
 79
     5
170
     0
171
     0
290
     0
174
     0
 93
        1
 44
0.0
173
     0
291
     0
 45
0.0
1001
ACAD
1000
AcDbSavedByObjectVersion
1070
     0
  0
VISUALSTYLE
  5
B49C
102
{ACAD_XDICTIONARY
360
B4F9
102
}
102
{ACAD_REACTORS
330
B497
102
}
330
B497
100
AcDbVisualStyle
  2
Basic
 70
     7
 71
     1
 72
     0
 73
     1
 90
        0
 40
-0.6
 41
-30.0
 62
     5
 63
     7
 74
     0
 91
        4
 64
     7
 65
   257
 75
     1
175
     1
 42
1.0
 92
        8
 66
     7
 43
1.0
 76
     1
 77
     6
 78
     2
 67
     7
 79
     5
170
     0
171
     0
290
     0
174
     0
 93
        1
 44
0.0
173
     0
291
     1
 45
0.0
1001
ACAD
1000
AcDbSavedByObjectVersion
1070
     0
  0
VISUALSTYLE
  5
B4A3
102
{ACAD_XDICTIONARY
360
B507
102
}
102
{ACAD_REACTORS
330
B497
102
}
330
B497
100
AcDbVisualStyle
  2
Brighten
 70
    12
 71
     2
 72
     2
 73
     0
 90
        0
 40
-0.6
 41
-30.0
 62
     5
 63
     7
 74
     1
 91
        4
 64
     7
 65
   257
 75
     1
175
     1
 42
1.0
 92
        8
 66
     7
 43
1.0
 76
     1
 77
     6
 78
     2
 67
     7
 79
     5
170
     0
171
     0
290
     0
174
     0
 93
        1
 44
50.0
173
     0
291
     1
 45
0.0
1001
ACAD
1000
AcDbSavedByObjectVersion
1070
     0
  0
VISUALSTYLE
  5
B4A7
102
{ACAD_XDICTIONARY
360
B50F
102
}
102
{ACAD_REACTORS
330
B497
102
}
330
B497
100
AcDbVisualStyle
  2
ColorChange
 70
    16
 71
     2
 72
     2
 73
     3
 90
        0
 40
-0.6
 41
-30.0
 62
     5
 63
     8
 74
     1
 91
        4
 64
     7
 65
   257
 75
     1
175
     1
 42
1.0
 92
        8
 66
     8
 43
1.0
 76
     1
 77
     6
 78
     2
 67
     7
 79
     5
170
     0
171
     0
290
     0
174
     0
 93
        1
 44
0.0
173
     0
291
     1
 45
0.0
1001
ACAD
1000
AcDbSavedByObjectVersion
1070
     0
  0
VISUALSTYLE
  5
B4A0
102
{ACAD_XDICTIONARY
360
B501
102
}
102
{ACAD_REACTORS
330
B497
102
}
330
B497
100
AcDbVisualStyle
  2
Conceptual
 70
     9
 71
     3
 72
     2
 73
     0
 90
        0
 40
-0.6
 41
-30.0
 62
     5
 63
     7
 74
     2
 91
        2
 64
     7
 65
   257
 75
     1
175
     1
 42
179.0
 92
        8
 66
     7
 43
1.0
 76
     1
 77
     6
 78
     2
 67
     7
 79
     3
170
     0
171
     0
290
     0
174
     0
 93
        1
 44
0.0
173
     0
291
     0
 45
0.0
1001
ACAD
1000
AcDbSavedByObjectVersion
1070
     0
  0
VISUALSTYLE
  5
B4A2
102
{ACAD_XDICTIONARY
360
B505
102
}
102
{ACAD_REACTORS
330
B497
102
}
330
B497
100
AcDbVisualStyle
  2
Dim
 70
    11
 71
     2
 72
     2
 73
     0
 90
        0
 40
-0.6
 41
-30.0
 62
     5
 63
     7
 74
     1
 91
        4
 64
     7
 65
   257
 75
     1
175
     1
 42
1.0
 92
        8
 66
     7
 43
1.0
 76
     1
 77
     6
 78
     2
 67
     7
 79
     5
170
     0
171
     0
290
     0
174
     0
 93
        1
 44
-50.0
173
     0
291
     1
 45
0.0
1001
ACAD
1000
AcDbSavedByObjectVersion
1070
     0
  0
VISUALSTYLE
  5
B4AF
102
{ACAD_XDICTIONARY
360
B51F
102
}
102
{ACAD_REACTORS
330
B497
102
}
330
B497
100
AcDbVisualStyle
  2
EdgeColorOff
 70
    22
 71
     2
 72
     2
 73
     0
 90
        0
 40
-0.6
 41
-30.0
 62
     5
 63
     7
 74
     1
 91
        4
 64
     7
 65
   257
 75
     1
175
     1
 42
1.0
 92
        8
 66
     7
 43
1.0
 76
     1
 77
     6
 78
     2
 67
     7
 79
     5
170
     0
171
     0
290
     0
174
     0
 93
        1
 44
0.0
173
     0
291
     1
 45
0.0
1001
ACAD
1000
AcDbSavedByObjectVersion
1070
     0
  0
VISUALSTYLE
  5
B4A6
102
{ACAD_XDICTIONARY
360
B50D
102
}
102
{ACAD_REACTORS
330
B497
102
}
330
B497
100
AcDbVisualStyle
  2
Facepattern
 70
    15
 71
     2
 72
     2
 73
     0
 90
        0
 40
-0.6
 41
-30.0
 62
     5
 63
     7
 74
     1
 91
        4
 64
     7
 65
   257
 75
     1
175
     1
 42
1.0
 92
        8
 66
     7
 43
1.0
 76
     1
 77
     6
 78
     2
 67
     7
 79
     5
170
     0
171
     0
290
     0
174
     0
 93
        1
 44
0.0
173
     0
291
     1
 45
0.0
1001
ACAD
1000
AcDbSavedByObjectVersion
1070
     0
  0
VISUALSTYLE
  5
B498
102
{ACAD_XDICTIONARY
360
B4F1
102
}
102
{ACAD_REACTORS
330
B497
102
}
330
B497
100
AcDbVisualStyle
  2
Flat
 70
     0
 71
     2
 72
     1
 73
     1
 90
        2
 40
-0.6
 41
30.0
 62
     5
 63
     7
 74
     0
 91
        0
 64
     7
 65
   257
 75
     1
175
     1
 42
1.0
 92
        8
 66
     7
 43
1.0
 76
     1
 77
     6
 78
     2
 67
     7
 79
     5
170
     0
171
     0
290
     0
174
     0
 93
       13
 44
0.0
173
     0
291
     1
 45
0.0
1001
ACAD
1000
AcDbSavedByObjectVersion
1070
     0
  0
VISUALSTYLE
  5
B499
102
{ACAD_XDICTIONARY
360
B4F3
102
}
102
{ACAD_REACTORS
330
B497
102
}
330
B497
100
AcDbVisualStyle
  2
FlatWithEdges
 70
     1
 71
     2
 72
     1
 73
     1
 90
        2
 40
-0.6
 41
30.0
 62
     5
 63
     7
 74
     1
 91
        0
 64
     7
 65
   257
 75
     1
175
     1
 42
1.0
 92
        0
 66
   257
 43
1.0
 76
     1
 77
     6
 78
     2
 67
     7
 79
     5
170
     0
171
     0
290
     0
174
     0
 93
       13
 44
0.0
173
     0
291
     1
 45
0.0
1001
ACAD
1000
AcDbSavedByObjectVersion
1070
     0
  0
VISUALSTYLE
  5
B49A
102
{ACAD_XDICTIONARY
360
B4F5
102
}
102
{ACAD_REACTORS
330
B497
102
}
330
B497
100
AcDbVisualStyle
  2
Gouraud
 70
     2
 71
     2
 72
     2
 73
     1
 90
        2
 40
-0.6
 41
30.0
 62
     5
 63
     7
 74
     0
 91
        0
 64
     7
 65
   257
 75
     1
175
     1
 42
1.0
 92
        0
 66
     7
 43
1.0
 76
     1
 77
     6
 78
     2
 67
     7
 79
     5
170
     0
171
     0
290
     0
174
     0
 93
       13
 44
0.0
173
     0
291
     1
 45
0.0
1001
ACAD
1000
AcDbSavedByObjectVersion
1070
     0
  0
VISUALSTYLE
  5
B49B
102
{ACAD_XDICTIONARY
360
B4F7
102
}
102
{ACAD_REACTORS
330
B497
102
}
330
B497
100
AcDbVisualStyle
  2
GouraudWithEdges
 70
     3
 71
     2
 72
     2
 73
     1
 90
        2
 40
-0.6
 41
30.0
 62
     5
 63
     7
 74
     1
 91
        0
 64
     7
 65
   257
 75
     1
175
     1
 42
1.0
 92
        0
 66
   257
 43
1.0
 76
     1
 77
     6
 78
     2
 67
     7
 79
     5
170
     0
171
     0
290
     0
174
     0
 93
       13
 44
0.0
173
     0
291
     1
 45
0.0
1001
ACAD
1000
AcDbSavedByObjectVersion
1070
     0
  0
VISUALSTYLE
  5
B49F
102
{ACAD_XDICTIONARY
360
B4FF
102
}
102
{ACAD_REACTORS
330
B497
102
}
330
B497
100
AcDbVisualStyle
  2
Hidden
 70
     6
 71
     1
 72
     2
 73
     2
 90
        0
 40
-0.6
 41
-30.0
 62
     5
 63
     7
 74
     2
 91
        2
 64
     7
 65
   257
 75
     2
175
     1
 42
40.0
 92
        0
 66
   257
 43
1.0
 76
     1
 77
     6
 78
     2
 67
     7
 79
     3
170
     0
171
     0
290
     0
174
     0
 93
        1
 44
0.0
173
     0
291
     0
 45
0.0
1001
ACAD
1000
AcDbSavedByObjectVersion
1070
     0
  0
VISUALSTYLE
  5
B4AD
102
{ACAD_XDICTIONARY
360
B51B
102
}
102
{ACAD_REACTORS
330
B497
102
}
330
B497
100
AcDbVisualStyle
  2
JitterOff
 70
    20
 71
     2
 72
     2
 73
     0
 90
        0
 40
-0.6
 41
-30.0
 62
     5
 63
     7
 74
     1
 91
        4
 64
     7
 65
   257
 75
     1
175
     1
 42
1.0
 92
       10
 66
     7
 43
1.0
 76
     1
 77
     6
 78
     2
 67
     7
 79
     5
170
     0
171
     0
290
     0
174
     0
 93
        1
 44
0.0
173
     0
291
     1
 45
0.0
1001
ACAD
1000
AcDbSavedByObjectVersion
1070
     0
  0
VISUALSTYLE
  5
B4A5
102
{ACAD_XDICTIONARY
360
B50B
102
}
102
{ACAD_REACTORS
330
B497
102
}
330
B497
100
AcDbVisualStyle
  2
Linepattern
 70
    14
 71
     2
 72
     2
 73
     0
 90
        0
 40
-0.6
 41
-30.0
 62
     5
 63
     7
 74
     1
 91
        4
 64
     7
 65
   257
 75
     7
175
     7
 42
1.0
 92
        8
 66
     7
 43
1.0
 76
     1
 77
     6
 78
     2
 67
     7
 79
     5
170
     0
171
     0
290
     0
174
     0
 93
        1
 44
0.0
173
     0
291
     1
 45
0.0
1001
ACAD
1000
AcDbSavedByObjectVersion
1070
     0
  0
VISUALSTYLE
  5
B4AE
102
{ACAD_XDICTIONARY
360
B51D
102
}
102
{ACAD_REACTORS
330
B497
102
}
330
B497
100
AcDbVisualStyle
  2
OverhangOff
 70
    21
 71
     2
 72
     2
 73
     0
 90
        0
 40
-0.6
 41
-30.0
 62
     5
 63
     7
 74
     1
 91
        4
 64
     7
 65
   257
 75
     1
175
     1
 42
1.0
 92
        9
 66
     7
 43
1.0
 76
     1
 77
     6
 78
     2
 67
     7
 79
     5
170
     0
171
     0
290
     0
174
     0
 93
        1
 44
0.0
173
     0
291
     1
 45
0.0
1001
ACAD
1000
AcDbSavedByObjectVersion
1070
     0
  0
VISUALSTYLE
  5
B4A1
102
{ACAD_XDICTIONARY
360
B503
102
}
102
{ACAD_REACTORS
330
B497
102
}
330
B497
100
AcDbVisualStyle
  2
Realistic
 70
     8
 71
     2
 72
     3
 73
     0
 90
        2
 40
-0.6
 41
30.0
 62
     5
 63
     7
 74
     0
 91
        0
 64
     7
 65
   257
 75
     1
175
     1
 42
1.0
 92
        8
 66
   257
 43
1.0
 76
     1
 77
     6
 78
     2
 67
     7
 79
     3
170
     0
171
     0
290
     0
174
     0
 93
       13
 44
0.0
173
     0
291
     0
 45
0.0
1001
ACAD
1000
AcDbSavedByObjectVersion
1070
     0
  0
VISUALSTYLE
  5
B4AC
102
{ACAD_XDICTIONARY
360
B519
102
}
102
{ACAD_REACTORS
330
B497
102
}
330
B497
100
AcDbVisualStyle
  2
Shaded
 70
    27
 71
     2
 72
     2
 73
     1
 90
        2
 40
-0.6
 41
30.0
 62
     5
 63
     7
 74
     0
 91
        4
 64
     7
 65
   257
 75
     1
175
     1
 42
1.0
 92
        8
 66
   257
 43
1.0
 76
     1
 77
     6
 78
     2
 67
     8
 79
     3
170
     0
171
     0
290
     0
174
     0
 93
        5
 44
0.0
173
     0
291
     0
 45
0.0
1001
ACAD
1000
AcDbSavedByObjectVersion
1070
     0
  0
VISUALSTYLE
  5
B4AB
102
{ACAD_XDICTIONARY
360
B517
102
}
102
{ACAD_REACTORS
330
B497
102
}
330
B497
100
AcDbVisualStyle
  2
Shaded with edges
 70
    26
 71
     2
 72
     2
 73
     1
 90
        2
 40
-0.6
 41
30.0
 62
     5
 63
     7
 74
     1
 91
       10
 64
     7
 65
   257
 75
     2
175
     1
 42
1.0
 92
        8
 66
   257
 43
1.0
 76
     1
 77
     6
 78
     2
 67
     7
 79
     3
170
     0
171
     0
290
     0
174
     0
 93
        5
 44
0.0
173
     0
291
     0
 45
0.0
1001
ACAD
1000
AcDbSavedByObjectVersion
1070
     0
  0
VISUALSTYLE
  5
B4A8
102
{ACAD_XDICTIONARY
360
B511
102
}
102
{ACAD_REACTORS
330
B497
102
}
330
B497
100
AcDbVisualStyle
  2
Shades of Gray
 70
    23
 71
     2
 72
     2
 73
     3
 90
        0
 40
-0.6
 41
-30.0
 62
     5
 63
     7
 74
     2
 91
        2
 64
     7
 65
     7
 75
     1
175
     1
 42
40.0
 92
        8
 66
     7
 43
1.0
 76
     1
 77
     6
 78
     2
 67
     7
 79
     3
170
     0
171
     0
290
     0
174
     0
 93
        1
 44
0.0
173
     0
291
     0
 45
0.0
1001
ACAD
1000
AcDbSavedByObjectVersion
1070
     0
  0
VISUALSTYLE
  5
B4A9
102
{ACAD_XDICTIONARY
360
B513
102
}
102
{ACAD_REACTORS
330
B497
102
}
330
B497
100
AcDbVisualStyle
  2
Sketchy
 70
    24
 71
     1
 72
     2
 73
     2
 90
        0
 40
-0.6
 41
-30.0
 62
     5
 63
     7
 74
     2
 91
        2
 64
     7
 65
     7
 75
     1
175
     1
 42
40.0
 92
       11
 66
     7
 43
1.0
 76
     1
 77
     6
 78
     2
 67
     7
 79
     6
170
     0
171
     0
290
     0
174
     0
 93
        1
 44
0.0
173
     0
291
     0
 45
0.0
1001
ACAD
1000
AcDbSavedByObjectVersion
1070
     0
  0
VISUALSTYLE
  5
B4A4
102
{ACAD_XDICTIONARY
360
B509
102
}
102
{ACAD_REACTORS
330
B497
102
}
330
B497
100
AcDbVisualStyle
  2
Thicken
 70
    13
 71
     2
 72
     2
 73
     0
 90
        0
 40
-0.6
 41
-30.0
 62
     5
 63
     7
 74
     1
 91
        4
 64
     7
 65
   257
 75
     1
175
     1
 42
1.0
 92
       12
 66
     7
 43
1.0
 76
     1
 77
     6
 78
     2
 67
     7
 79
     5
170
     0
171
     0
290
     0
174
     0
 93
        1
 44
0.0
173
     0
291
     1
 45
0.0
1001
ACAD
1000
AcDbSavedByObjectVersion
1070
     0
  0
VISUALSTYLE
  5
B49E
102
{ACAD_XDICTIONARY
360
B4FD
102
}
102
{ACAD_REACTORS
330
B497
102
}
330
B497
100
AcDbVisualStyle
  2
Wireframe
 70
     5
 71
     0
 72
     2
 73
     0
 90
        0
 40
-0.6
 41
-30.0
 62
     5
 63
     7
 74
     1
 91
        4
 64
     7
 65
   257
 75
     1
175
     1
 42
1.0
 92
        0
 66
   257
 43
1.0
 76
     1
 77
     6
 78
     2
 67
     7
 79
     3
170
     0
171
     0
290
     0
174
     0
 93
        1
 44
0.0
173
     0
291
     0
 45
0.0
1001
ACAD
1000
AcDbSavedByObjectVersion
1070
     0
  0
VISUALSTYLE
  5
B4AA
102
{ACAD_XDICTIONARY
360
B515
102
}
102
{ACAD_REACTORS
330
B497
102
}
330
B497
100
AcDbVisualStyle
  2
X-Ray
 70
    25
 71
     2
 72
     2
 73
     1
 90
        1
 40
0.5
 41
-30.0
 62
     5
 63
     7
 74
     1
 91
        0
 64
     7
 65
   257
 75
     1
175
     1
 42
1.0
 92
        8
 66
     7
 43
1.0
 76
     1
 77
     6
 78
     2
 67
     7
 79
     3
170
     0
171
     0
290
     0
174
     0
 93
       13
 44
0.0
173
     0
291
     0
 45
0.0
1001
ACAD
1000
AcDbSavedByObjectVersion
1070
     0
  0
DICTIONARYVAR
  5
B4E4
102
{ACAD_REACTORS
330
B4DF
102
}
330
B4DF
100
DictionaryVariables
280
     0
  1
1:1
  0
DICTIONARYVAR
  5
B4E1
102
{ACAD_REACTORS
330
B4DF
102
}
330
B4DF
100
DictionaryVariables
280
     0
  1
STANDARD
  0
DICTIONARYVAR
  5
B4E0
102
{ACAD_REACTORS
330
B4DF
102
}
330
B4DF
100
DictionaryVariables
280
     0
  1
STANDARD
  0
DICTIONARYVAR
  5
B4E2
102
{ACAD_REACTORS
330
B4DF
102
}
330
B4DF
100
DictionaryVariables
280
     0
  1
Imperial24
  0
DICTIONARYVAR
  5
B4E3
102
{ACAD_REACTORS
330
B4DF
102
}
330
B4DF
100
DictionaryVariables
280
     0
  1
Imperial24
  0
DICTIONARYVAR
  5
B4E7
102
{ACAD_REACTORS
330
B4DF
102
}
330
B4DF
100
DictionaryVariables
280
     0
  1
1
  0
DICTIONARYVAR
  5
B4E6
102
{ACAD_REACTORS
330
B4DF
102
}
330
B4DF
100
DictionaryVariables
280
     0
  1
0
  0
DICTIONARYVAR
  5
B4E5
102
{ACAD_REACTORS
330
B4DF
102
}
330
B4DF
100
DictionaryVariables
280
     0
  1
127
  0
DICTIONARYVAR
  5
B4E8
102
{ACAD_REACTORS
330
B4DF
102
}
330
B4DF
100
DictionaryVariables
280
     0
  1
2
  0
DICTIONARY
  5
B525
330
B4CA
100
AcDbDictionary
280
     1
281
     1
  3
ACAD_XREC_ROUNDTRIP
360
B526
  0
DICTIONARY
  5
B527
330
B4CB
100
AcDbDictionary
280
     1
281
     1
  3
ACAD_XREC_ROUNDTRIP
360
B528
  0
DICTIONARY
  5
B529
330
B4CC
100
AcDbDictionary
280
     1
281
     1
  3
ACAD_XREC_ROUNDTRIP
360
B52A
  0
DICTIONARY
  5
B488
330
B487
100
AcDbDictionary
280
     1
281
     1
  3
ACAD_XREC_ROUNDTRIP
360
B4EF
  3
BUMPTILE
360
B48A
  3
DIFFUSETILE
360
B489
  3
OPACITYTILE
360
B48D
  3
REFLECTIONTILE
360
B48C
  3
REFRACTIONTILE
360
B48E
  3
SPECULARTILE
360
B48B
  0
DICTIONARY
  5
B480
330
B47F
100
AcDbDictionary
280
     1
281
     1
  3
ACAD_XREC_ROUNDTRIP
360
B4EE
  3
BUMPTILE
360
B482
  3
DIFFUSETILE
360
B481
  3
OPACITYTILE
360
B485
  3
REFLECTIONTILE
360
B484
  3
REFRACTIONTILE
360
B486
  3
SPECULARTILE
360
B483
  0
DICTIONARY
  5
B490
330
B48F
100
AcDbDictionary
280
     1
281
     1
  3
ACAD_XREC_ROUNDTRIP
360
B4F0
  3
BUMPTILE
360
B492
  3
DIFFUSETILE
360
B491
  3
OPACITYTILE
360
B495
  3
REFLECTIONTILE
360
B494
  3
REFRACTIONTILE
360
B496
  3
SPECULARTILE
360
B493
  0
DICTIONARY
  5
B523
330
B4C8
100
AcDbDictionary
280
     1
281
     1
  3
ACAD_XREC_ROUNDTRIP
360
B524
  0
DICTIONARY
  5
B4EA
330
B4B2
100
AcDbDictionary
280
     1
281
     1
  3
ACAD_ROUNDTRIP_2008_TABLESTYLE_CELLSTYLEMAP
360
B4EB
  3
ACAD_XREC_ROUNDTRIP
360
B521
  0
DICTIONARY
  5
B4FB
330
B49D
100
AcDbDictionary
280
     1
281
     1
  3
ACAD_XREC_ROUNDTRIP
360
B4FC
  0
DICTIONARY
  5
B4F9
330
B49C
100
AcDbDictionary
280
     1
281
     1
  3
ACAD_XREC_ROUNDTRIP
360
B4FA
  0
DICTIONARY
  5
B507
330
B4A3
100
AcDbDictionary
280
     1
281
     1
  3
ACAD_XREC_ROUNDTRIP
360
B508
  0
DICTIONARY
  5
B50F
330
B4A7
100
AcDbDictionary
280
     1
281
     1
  3
ACAD_XREC_ROUNDTRIP
360
B510
  0
DICTIONARY
  5
B501
330
B4A0
100
AcDbDictionary
280
     1
281
     1
  3
ACAD_XREC_ROUNDTRIP
360
B502
  0
DICTIONARY
  5
B505
330
B4A2
100
AcDbDictionary
280
     1
281
     1
  3
ACAD_XREC_ROUNDTRIP
360
B506
  0
DICTIONARY
  5
B51F
330
B4AF
100
AcDbDictionary
280
     1
281
     1
  3
ACAD_XREC_ROUNDTRIP
360
B520
  0
DICTIONARY
  5
B50D
330
B4A6
100
AcDbDictionary
280
     1
281
     1
  3
ACAD_XREC_ROUNDTRIP
360
B50E
  0
DICTIONARY
  5
B4F1
330
B498
100
AcDbDictionary
280
     1
281
     1
  3
ACAD_XREC_ROUNDTRIP
360
B4F2
  0
DICTIONARY
  5
B4F3
330
B499
100
AcDbDictionary
280
     1
281
     1
  3
ACAD_XREC_ROUNDTRIP
360
B4F4
  0
DICTIONARY
  5
B4F5
330
B49A
100
AcDbDictionary
280
     1
281
     1
  3
ACAD_XREC_ROUNDTRIP
360
B4F6
  0
DICTIONARY
  5
B4F7
330
B49B
100
AcDbDictionary
280
     1
281
     1
  3
ACAD_XREC_ROUNDTRIP
360
B4F8
  0
DICTIONARY
  5
B4FF
330
B49F
100
AcDbDictionary
280
     1
281
     1
  3
ACAD_XREC_ROUNDTRIP
360
B500
  0
DICTIONARY
  5
B51B
330
B4AD
100
AcDbDictionary
280
     1
281
     1
  3
ACAD_XREC_ROUNDTRIP
360
B51C
  0
DICTIONARY
  5
B50B
330
B4A5
100
AcDbDictionary
280
     1
281
     1
  3
ACAD_XREC_ROUNDTRIP
360
B50C
  0
DICTIONARY
  5
B51D
330
B4AE
100
AcDbDictionary
280
     1
281
     1
  3
ACAD_XREC_ROUNDTRIP
360
B51E
  0
DICTIONARY
  5
B503
330
B4A1
100
AcDbDictionary
280
     1
281
     1
  3
ACAD_XREC_ROUNDTRIP
360
B504
  0
DICTIONARY
  5
B519
330
B4AC
100
AcDbDictionary
280
     1
281
     1
  3
ACAD_XREC_ROUNDTRIP
360
B51A
  0
DICTIONARY
  5
B517
330
B4AB
100
AcDbDictionary
280
     1
281
     1
  3
ACAD_XREC_ROUNDTRIP
360
B518
  0
DICTIONARY
  5
B511
330
B4A8
100
AcDbDictionary
280
     1
281
     1
  3
ACAD_XREC_ROUNDTRIP
360
B512
  0
DICTIONARY
  5
B513
330
B4A9
100
AcDbDictionary
280
     1
281
     1
  3
ACAD_XREC_ROUNDTRIP
360
B514
  0
DICTIONARY
  5
B509
330
B4A4
100
AcDbDictionary
280
     1
281
     1
  3
ACAD_XREC_ROUNDTRIP
360
B50A
  0
DICTIONARY
  5
B4FD
330
B49E
100
AcDbDictionary
280
     1
281
     1
  3
ACAD_XREC_ROUNDTRIP
360
B4FE
  0
DICTIONARY
  5
B515
330
B4AA
100
AcDbDictionary
280
     1
281
     1
  3
ACAD_XREC_ROUNDTRIP
360
B516
  0
XRECORD
  5
B526
102
{ACAD_REACTORS
330
B525
102
}
330
B525
100
AcDbXrecord
280
     1
102
DISPLAYNAME
  1
Imperial24
102
FLAGS
 90
        0
  0
XRECORD
  5
B528
102
{ACAD_REACTORS
330
B527
102
}
330
B527
100
AcDbXrecord
280
     1
102
SHADEPLOT
 70
     0
102
SHADEPLOTRESLEVEL
 70
     2
102
SHADEPLOTCUSTOMDPI
 70
   300
  0
XRECORD
  5
B52A
102
{ACAD_REACTORS
330
B529
102
}
330
B529
100
AcDbXrecord
280
     1
102
SHADEPLOT
 70
     0
102
SHADEPLOTRESLEVEL
 70
     2
102
SHADEPLOTCUSTOMDPI
 70
   300
  0
XRECORD
  5
B4EF
102
{ACAD_REACTORS
330
B488
102
}
330
B488
100
AcDbXrecord
280
     1
102
MATERIAL
148
0.0
149
0.0
149
0.0
 93
        0
 94
      127
282
     0
 72
     0
 77
     0
171
     0
175
     0
179
     0
273
     0
  0
XRECORD
  5
B48A
102
{ACAD_REACTORS
330
B488
102
}
330
B488
100
AcDbXrecord
280
     1
270
     1
271
     1
  0
XRECORD
  5
B489
102
{ACAD_REACTORS
330
B488
102
}
330
B488
100
AcDbXrecord
280
     1
270
     1
271
     1
  0
XRECORD
  5
B48D
102
{ACAD_REACTORS
330
B488
102
}
330
B488
100
AcDbXrecord
280
     1
270
     1
271
     1
  0
XRECORD
  5
B48C
102
{ACAD_REACTORS
330
B488
102
}
330
B488
100
AcDbXrecord
280
     1
270
     1
271
     1
  0
XRECORD
  5
B48E
102
{ACAD_REACTORS
330
B488
102
}
330
B488
100
AcDbXrecord
280
     1
270
     1
271
     1
  0
XRECORD
  5
B48B
102
{ACAD_REACTORS
330
B488
102
}
330
B488
100
AcDbXrecord
280
     1
270
     1
271
     1
  0
XRECORD
  5
B4EE
102
{ACAD_REACTORS
330
B480
102
}
330
B480
100
AcDbXrecord
280
     1
102
MATERIAL
148
0.0
149
0.0
149
0.0
 93
        0
 94
      127
282
     0
 72
     0
 77
     0
171
     0
175
     0
179
     0
273
     0
  0
XRECORD
  5
B482
102
{ACAD_REACTORS
330
B480
102
}
330
B480
100
AcDbXrecord
280
     1
270
     1
271
     1
  0
XRECORD
  5
B481
102
{ACAD_REACTORS
330
B480
102
}
330
B480
100
AcDbXrecord
280
     1
270
     1
271
     1
  0
XRECORD
  5
B485
102
{ACAD_REACTORS
330
B480
102
}
330
B480
100
AcDbXrecord
280
     1
270
     1
271
     1
  0
XRECORD
  5
B484
102
{ACAD_REACTORS
330
B480
102
}
330
B480
100
AcDbXrecord
280
     1
270
     1
271
     1
  0
XRECORD
  5
B486
102
{ACAD_REACTORS
330
B480
102
}
330
B480
100
AcDbXrecord
280
     1
270
     1
271
     1
  0
XRECORD
  5
B483
102
{ACAD_REACTORS
330
B480
102
}
330
B480
100
AcDbXrecord
280
     1
270
     1
271
     1
  0
XRECORD
  5
B4F0
102
{ACAD_REACTORS
330
B490
102
}
330
B490
100
AcDbXrecord
280
     1
102
MATERIAL
148
0.0
149
0.0
149
0.0
 93
        0
 94
      127
282
     0
 72
     0
 77
     0
171
     0
175
     0
179
     0
273
     0
  0
XRECORD
  5
B492
102
{ACAD_REACTORS
330
B490
102
}
330
B490
100
AcDbXrecord
280
     1
270
     1
271
     1
  0
XRECORD
  5
B491
102
{ACAD_REACTORS
330
B490
102
}
330
B490
100
AcDbXrecord
280
     1
270
     1
271
     1
  0
XRECORD
  5
B495
102
{ACAD_REACTORS
330
B490
102
}
330
B490
100
AcDbXrecord
280
     1
270
     1
271
     1
  0
XRECORD
  5
B494
102
{ACAD_REACTORS
330
B490
102
}
330
B490
100
AcDbXrecord
280
     1
270
     1
271
     1
  0
XRECORD
  5
B496
102
{ACAD_REACTORS
330
B490
102
}
330
B490
100
AcDbXrecord
280
     1
270
     1
271
     1
  0
XRECORD
  5
B493
102
{ACAD_REACTORS
330
B490
102
}
330
B490
100
AcDbXrecord
280
     1
270
     1
271
     1
  0
XRECORD
  5
B524
102
{ACAD_REACTORS
330
B523
102
}
330
B523
100
AcDbXrecord
280
     1
102
DISPLAYNAME
  1
Imperial24
102
FLAGS
 90
        0
  0
CELLSTYLEMAP
  5
B4EB
102
{ACAD_REACTORS
330
B4EA
102
}
330
B4EA
100
AcDbCellStyleMap
 90
        3
300
CELLSTYLE
  1
TABLEFORMAT_BEGIN
 90
        5
170
     1
 91
        0
 92
    32768
 62
   257
 93
        1
300
CONTENTFORMAT
  1
CONTENTFORMAT_BEGIN
 90
        0
 91
        0
 92
      512
 93
        0
300

 40
0.0
140
1.0
 94
        5
 62
     0
340
B15F
144
0.25
309
CONTENTFORMAT_END
171
     0
 94
        0
309
TABLEFORMAT_END
  1
CELLSTYLE_BEGIN
 90
        1
 91
        1
300
_TITLE
309
CELLSTYLE_END
300
CELLSTYLE
  1
TABLEFORMAT_BEGIN
 90
        5
170
     1
 91
        0
 92
        0
 62
   257
 93
        1
300
CONTENTFORMAT
  1
CONTENTFORMAT_BEGIN
 90
        0
 91
        0
 92
      512
 93
        0
300

 40
0.0
140
1.0
 94
        5
 62
     0
340
B15F
144
0.18
309
CONTENTFORMAT_END
171
     0
 94
        0
309
TABLEFORMAT_END
  1
CELLSTYLE_BEGIN
 90
        2
 91
        1
300
_HEADER
309
CELLSTYLE_END
300
CELLSTYLE
  1
TABLEFORMAT_BEGIN
 90
        5
170
     1
 91
        0
 92
        0
 62
   257
 93
        1
300
CONTENTFORMAT
  1
CONTENTFORMAT_BEGIN
 90
        0
 91
        0
 92
      512
 93
        0
300

 40
0.0
140
1.0
 94
        2
 62
     0
340
B15F
144
0.18
309
CONTENTFORMAT_END
171
     0
 94
        0
309
TABLEFORMAT_END
  1
CELLSTYLE_BEGIN
 90
        3
 91
        2
300
_DATA
309
CELLSTYLE_END
  0
XRECORD
  5
B521
102
{ACAD_REACTORS
330
B4EA
102
}
330
B4EA
100
AcDbXrecord
280
     1
102
ACAD_ROUNDTRIP_PRE2007_TABLESTYLE
 90
      512
 91
        0
  1

 92
      512
 93
        0
  2

 94
      512
 95
        0
  3

  0
XRECORD
  5
B4FC
102
{ACAD_REACTORS
330
B4FB
102
}
330
B4FB
100
AcDbXrecord
280
     1
102
RTVSPost2010Prop28
280
     1
102
RTVSPost2010PropOp28
 70
     1
102
RTVSPost2010Prop29
280
     1
102
RTVSPost2010PropOp29
 70
     1
102
RTVSPost2010Prop30
280
     0
102
RTVSPost2010PropOp30
 70
     1
102
RTVSPost2010Prop31
280
     0
102
RTVSPost2010PropOp31
 70
     1
102
RTVSPost2010Prop32
280
     0
102
RTVSPost2010PropOp32
 70
     1
102
RTVSPost2010Prop33
280
     0
102
RTVSPost2010PropOp33
 70
     1
102
RTVSPost2010Prop34
280
     0
102
RTVSPost2010PropOp34
 70
     1
102
RTVSPost2010Prop35
280
     0
102
RTVSPost2010PropOp35
 70
     1
102
RTVSPost2010Prop36
280
     0
102
RTVSPost2010PropOp36
 70
     1
102
RTVSPost2010Prop37
 90
       50
102
RTVSPost2010PropOp37
 70
     1
102
RTVSPost2010Prop38
140
0.0
102
RTVSPost2010PropOp38
 70
     1
102
RTVSPost2010Prop39
140
1.0
102
RTVSPost2010PropOp39
 70
     1
102
RTVSPost2010Prop40
 90
        0
102
RTVSPost2010PropOp40
 70
     1
102
RTVSPost2010Prop41ColorIndex
 90
       18
102
RTVSPost2010Prop41ColorRGB
 90
        0
102
RTVSPost2010PropOp41
 70
     1
102
RTVSPost2010Prop42
 90
       50
102
RTVSPost2010PropOp42
 70
     1
102
RTVSPost2010Prop43
 90
        3
102
RTVSPost2010PropOp43
 70
     1
102
RTVSPost2010Prop44ColorIndex
 90
        5
102
RTVSPost2010Prop44ColorRGB
 90
      255
102
RTVSPost2010PropOp44
 70
     1
102
RTVSPost2010Prop45
280
     0
102
RTVSPost2010PropOp45
 70
     1
102
RTVSPost2010Prop46
 90
       50
102
RTVSPost2010PropOp46
 70
     1
102
RTVSPost2010Prop47
 90
       50
102
RTVSPost2010PropOp47
 70
     1
102
RTVSPost2010Prop48
 90
       50
102
RTVSPost2010PropOp48
 70
     1
102
RTVSPost2010Prop49
280
     0
102
RTVSPost2010PropOp49
 70
     1
102
RTVSPost2010Prop50
 90
       50
102
RTVSPost2010PropOp50
 70
     1
102
RTVSPost2010Prop51ColorIndex
 90
      256
102
RTVSPost2010Prop51ColorRGB
 90
-16777216
102
RTVSPost2010PropOp51
 70
     0
102
RTVSPost2010Prop52
140
1.0
102
RTVSPost2010PropOp52
 70
     0
102
RTVSPost2010Prop53
 90
        2
102
RTVSPost2010PropOp53
 70
     1
102
RTVSPost2010Prop54
  1
strokes_ogs.tif
102
RTVSPost2010PropOp54
 70
     1
102
RTVSPost2010Prop55
280
     0
102
RTVSPost2010PropOp55
 70
     1
102
RTVSPost2010Prop56
140
1.0
102
RTVSPost2010PropOp56
 70
     1
102
RTVSPost2010Prop57
140
1.0
102
RTVSPost2010PropOp57
 70
     1
102
RTVSPropertyOp0
 70
     1
102
RTVSPropertyOp1
 70
     1
102
RTVSPropertyOp2
 70
     1
102
RTVSPropertyOp3
 70
     1
102
RTVSPropertyOp4
 70
     1
102
RTVSPropertyOp5
 70
     1
102
RTVSPropertyOp6
 70
     1
102
RTVSPropertyOp7
 70
     1
102
RTVSPropertyOp8
 70
     1
102
RTVSPropertyOp9
 70
     1
102
RTVSPropertyOp10
 70
     1
102
RTVSPropertyOp11
 70
     1
102
RTVSPropertyOp12
 70
     1
102
RTVSPropertyOp13
 70
     1
102
RTVSPropertyOp14
 70
     1
102
RTVSPropertyOp15
 70
     1
102
RTVSPropertyOp16
 70
     1
102
RTVSPropertyOp17
 70
     1
102
RTVSPropertyOp18
 70
     1
102
RTVSPropertyOp19
 70
     1
102
RTVSPropertyOp20
 70
     1
102
RTVSPropertyOp21
 70
     1
102
RTVSPropertyOp22
 70
     1
102
RTVSPropertyOp23
 70
     1
102
RTVSPropertyOp24
 70
     1
102
RTVSPropertyOp25
 70
     1
102
RTVSPropertyOp26
 70
     1
102
RTVSPropertyOp27
 70
     1
102
RTVSPropertyOp28
 70
     1
102
RTVSPropertyOp29
 70
     1
102
RTVSPropertyOp30
 70
     1
102
RTVSPropertyOp31
 70
     1
102
RTVSPropertyOp32
 70
     1
102
RTVSPropertyOp33
 70
     1
102
RTVSPropertyOp34
 70
     1
102
RTVSPropertyOp35
 70
     1
102
RTVSPropertyOp36
 70
     1
102
RTVSPropertyOp37
 70
     1
102
RTVSPropertyOp38
 70
     1
102
RTVSPropertyOp39
 70
     1
102
RTVSPropertyOp40
 70
     1
102
RTVSPropertyOp41
 70
     1
102
RTVSPropertyOp42
 70
     1
102
RTVSPropertyOp43
 70
     1
102
RTVSPropertyOp44
 70
     1
102
RTVSPropertyOp45
 70
     1
102
RTVSPropertyOp46
 70
     1
102
RTVSPropertyOp47
 70
     1
102
RTVSPropertyOp48
 70
     1
102
RTVSPropertyOp49
 70
     1
102
RTVSPropertyOp50
 70
     1
102
RTVSPropertyOp51
 70
     0
102
RTVSPropertyOp52
 70
     0
102
RTVSPropertyOp53
 70
     1
102
RTVSPropertyOp54
 70
     1
102
RTVSPropertyOp55
 70
     1
102
RTVSPropertyOp56
 70
     1
102
RTVSPropertyOp57
 70
     1
102
RTVSPropertyOp58
 70
     1
102
RTVSPropertyOp59
 70
     1
102
RTVSPropertyOp60
 70
     1
102
RTVSPropertyOp61
 70
     1
102
RTVSPropertyOp62
 70
     1
  0
XRECORD
  5
B4FA
102
{ACAD_REACTORS
330
B4F9
102
}
330
B4F9
100
AcDbXrecord
280
     1
102
RTVSPost2010Prop28
280
     0
102
RTVSPost2010PropOp28
 70
     1
102
RTVSPost2010Prop29
280
     1
102
RTVSPost2010PropOp29
 70
     1
102
RTVSPost2010Prop30
280
     1
102
RTVSPost2010PropOp30
 70
     1
102
RTVSPost2010Prop31
280
     0
102
RTVSPost2010PropOp31
 70
     1
102
RTVSPost2010Prop32
280
     0
102
RTVSPost2010PropOp32
 70
     1
102
RTVSPost2010Prop33
280
     0
102
RTVSPost2010PropOp33
 70
     1
102
RTVSPost2010Prop34
280
     0
102
RTVSPost2010PropOp34
 70
     1
102
RTVSPost2010Prop35
280
     0
102
RTVSPost2010PropOp35
 70
     1
102
RTVSPost2010Prop36
280
     0
102
RTVSPost2010PropOp36
 70
     1
102
RTVSPost2010Prop37
 90
       50
102
RTVSPost2010PropOp37
 70
     1
102
RTVSPost2010Prop38
140
0.0
102
RTVSPost2010PropOp38
 70
     1
102
RTVSPost2010Prop39
140
1.0
102
RTVSPost2010PropOp39
 70
     1
102
RTVSPost2010Prop40
 90
        0
102
RTVSPost2010PropOp40
 70
     1
102
RTVSPost2010Prop41ColorIndex
 90
       18
102
RTVSPost2010Prop41ColorRGB
 90
        0
102
RTVSPost2010PropOp41
 70
     1
102
RTVSPost2010Prop42
 90
       50
102
RTVSPost2010PropOp42
 70
     1
102
RTVSPost2010Prop43
 90
        3
102
RTVSPost2010PropOp43
 70
     1
102
RTVSPost2010Prop44ColorIndex
 90
        5
102
RTVSPost2010Prop44ColorRGB
 90
      255
102
RTVSPost2010PropOp44
 70
     1
102
RTVSPost2010Prop45
280
     0
102
RTVSPost2010PropOp45
 70
     1
102
RTVSPost2010Prop46
 90
       50
102
RTVSPost2010PropOp46
 70
     1
102
RTVSPost2010Prop47
 90
       50
102
RTVSPost2010PropOp47
 70
     1
102
RTVSPost2010Prop48
 90
       50
102
RTVSPost2010PropOp48
 70
     1
102
RTVSPost2010Prop49
280
     0
102
RTVSPost2010PropOp49
 70
     1
102
RTVSPost2010Prop50
 90
       50
102
RTVSPost2010PropOp50
 70
     1
102
RTVSPost2010Prop51ColorIndex
 90
      256
102
RTVSPost2010Prop51ColorRGB
 90
-16777216
102
RTVSPost2010PropOp51
 70
     0
102
RTVSPost2010Prop52
140
1.0
102
RTVSPost2010PropOp52
 70
     0
102
RTVSPost2010Prop53
 90
        2
102
RTVSPost2010PropOp53
 70
     1
102
RTVSPost2010Prop54
  1
strokes_ogs.tif
102
RTVSPost2010PropOp54
 70
     1
102
RTVSPost2010Prop55
280
     0
102
RTVSPost2010PropOp55
 70
     1
102
RTVSPost2010Prop56
140
1.0
102
RTVSPost2010PropOp56
 70
     1
102
RTVSPost2010Prop57
140
1.0
102
RTVSPost2010PropOp57
 70
     1
102
RTVSPropertyOp0
 70
     1
102
RTVSPropertyOp1
 70
     1
102
RTVSPropertyOp2
 70
     1
102
RTVSPropertyOp3
 70
     1
102
RTVSPropertyOp4
 70
     1
102
RTVSPropertyOp5
 70
     1
102
RTVSPropertyOp6
 70
     1
102
RTVSPropertyOp7
 70
     1
102
RTVSPropertyOp8
 70
     1
102
RTVSPropertyOp9
 70
     1
102
RTVSPropertyOp10
 70
     1
102
RTVSPropertyOp11
 70
     1
102
RTVSPropertyOp12
 70
     1
102
RTVSPropertyOp13
 70
     1
102
RTVSPropertyOp14
 70
     1
102
RTVSPropertyOp15
 70
     1
102
RTVSPropertyOp16
 70
     1
102
RTVSPropertyOp17
 70
     1
102
RTVSPropertyOp18
 70
     1
102
RTVSPropertyOp19
 70
     1
102
RTVSPropertyOp20
 70
     1
102
RTVSPropertyOp21
 70
     1
102
RTVSPropertyOp22
 70
     1
102
RTVSPropertyOp23
 70
     1
102
RTVSPropertyOp24
 70
     1
102
RTVSPropertyOp25
 70
     1
102
RTVSPropertyOp26
 70
     1
102
RTVSPropertyOp27
 70
     1
102
RTVSPropertyOp28
 70
     1
102
RTVSPropertyOp29
 70
     1
102
RTVSPropertyOp30
 70
     1
102
RTVSPropertyOp31
 70
     1
102
RTVSPropertyOp32
 70
     1
102
RTVSPropertyOp33
 70
     1
102
RTVSPropertyOp34
 70
     1
102
RTVSPropertyOp35
 70
     1
102
RTVSPropertyOp36
 70
     1
102
RTVSPropertyOp37
 70
     1
102
RTVSPropertyOp38
 70
     1
102
RTVSPropertyOp39
 70
     1
102
RTVSPropertyOp40
 70
     1
102
RTVSPropertyOp41
 70
     1
102
RTVSPropertyOp42
 70
     1
102
RTVSPropertyOp43
 70
     1
102
RTVSPropertyOp44
 70
     1
102
RTVSPropertyOp45
 70
     1
102
RTVSPropertyOp46
 70
     1
102
RTVSPropertyOp47
 70
     1
102
RTVSPropertyOp48
 70
     1
102
RTVSPropertyOp49
 70
     1
102
RTVSPropertyOp50
 70
     1
102
RTVSPropertyOp51
 70
     0
102
RTVSPropertyOp52
 70
     0
102
RTVSPropertyOp53
 70
     1
102
RTVSPropertyOp54
 70
     1
102
RTVSPropertyOp55
 70
     1
102
RTVSPropertyOp56
 70
     1
102
RTVSPropertyOp57
 70
     1
102
RTVSPropertyOp58
 70
     1
102
RTVSPropertyOp59
 70
     1
102
RTVSPropertyOp60
 70
     1
102
RTVSPropertyOp61
 70
     1
102
RTVSPropertyOp62
 70
     1
  0
XRECORD
  5
B508
102
{ACAD_REACTORS
330
B507
102
}
330
B507
100
AcDbXrecord
280
     1
102
RTVSPost2010Prop28
280
     0
102
RTVSPost2010PropOp28
 70
     1
102
RTVSPost2010Prop29
280
     1
102
RTVSPost2010PropOp29
 70
     1
102
RTVSPost2010Prop30
280
     1
102
RTVSPost2010PropOp30
 70
     1
102
RTVSPost2010Prop31
280
     0
102
RTVSPost2010PropOp31
 70
     1
102
RTVSPost2010Prop32
280
     0
102
RTVSPost2010PropOp32
 70
     1
102
RTVSPost2010Prop33
280
     0
102
RTVSPost2010PropOp33
 70
     1
102
RTVSPost2010Prop34
280
     0
102
RTVSPost2010PropOp34
 70
     1
102
RTVSPost2010Prop35
280
     0
102
RTVSPost2010PropOp35
 70
     1
102
RTVSPost2010Prop36
280
     0
102
RTVSPost2010PropOp36
 70
     1
102
RTVSPost2010Prop37
 90
       50
102
RTVSPost2010PropOp37
 70
     1
102
RTVSPost2010Prop38
140
0.0
102
RTVSPost2010PropOp38
 70
     1
102
RTVSPost2010Prop39
140
1.0
102
RTVSPost2010PropOp39
 70
     1
102
RTVSPost2010Prop40
 90
        0
102
RTVSPost2010PropOp40
 70
     1
102
RTVSPost2010Prop41ColorIndex
 90
       18
102
RTVSPost2010Prop41ColorRGB
 90
        0
102
RTVSPost2010PropOp41
 70
     1
102
RTVSPost2010Prop42
 90
       50
102
RTVSPost2010PropOp42
 70
     1
102
RTVSPost2010Prop43
 90
        3
102
RTVSPost2010PropOp43
 70
     1
102
RTVSPost2010Prop44ColorIndex
 90
        5
102
RTVSPost2010Prop44ColorRGB
 90
      255
102
RTVSPost2010PropOp44
 70
     1
102
RTVSPost2010Prop45
280
     0
102
RTVSPost2010PropOp45
 70
     1
102
RTVSPost2010Prop46
 90
       50
102
RTVSPost2010PropOp46
 70
     1
102
RTVSPost2010Prop47
 90
       50
102
RTVSPost2010PropOp47
 70
     1
102
RTVSPost2010Prop48
 90
       50
102
RTVSPost2010PropOp48
 70
     1
102
RTVSPost2010Prop49
280
     0
102
RTVSPost2010PropOp49
 70
     1
102
RTVSPost2010Prop50
 90
       50
102
RTVSPost2010PropOp50
 70
     1
102
RTVSPost2010Prop51ColorIndex
 90
      256
102
RTVSPost2010Prop51ColorRGB
 90
-16777216
102
RTVSPost2010PropOp51
 70
     0
102
RTVSPost2010Prop52
140
1.0
102
RTVSPost2010PropOp52
 70
     0
102
RTVSPost2010Prop53
 90
        2
102
RTVSPost2010PropOp53
 70
     1
102
RTVSPost2010Prop54
  1
strokes_ogs.tif
102
RTVSPost2010PropOp54
 70
     1
102
RTVSPost2010Prop55
280
     0
102
RTVSPost2010PropOp55
 70
     1
102
RTVSPost2010Prop56
140
1.0
102
RTVSPost2010PropOp56
 70
     1
102
RTVSPost2010Prop57
140
1.0
102
RTVSPost2010PropOp57
 70
     1
102
RTVSPropertyOp0
 70
     1
102
RTVSPropertyOp1
 70
     1
102
RTVSPropertyOp2
 70
     1
102
RTVSPropertyOp3
 70
     1
102
RTVSPropertyOp4
 70
     1
102
RTVSPropertyOp5
 70
     1
102
RTVSPropertyOp6
 70
     1
102
RTVSPropertyOp7
 70
     1
102
RTVSPropertyOp8
 70
     1
102
RTVSPropertyOp9
 70
     1
102
RTVSPropertyOp10
 70
     1
102
RTVSPropertyOp11
 70
     1
102
RTVSPropertyOp12
 70
     1
102
RTVSPropertyOp13
 70
     1
102
RTVSPropertyOp14
 70
     1
102
RTVSPropertyOp15
 70
     1
102
RTVSPropertyOp16
 70
     1
102
RTVSPropertyOp17
 70
     1
102
RTVSPropertyOp18
 70
     1
102
RTVSPropertyOp19
 70
     1
102
RTVSPropertyOp20
 70
     1
102
RTVSPropertyOp21
 70
     1
102
RTVSPropertyOp22
 70
     1
102
RTVSPropertyOp23
 70
     1
102
RTVSPropertyOp24
 70
     1
102
RTVSPropertyOp25
 70
     1
102
RTVSPropertyOp26
 70
     1
102
RTVSPropertyOp27
 70
     1
102
RTVSPropertyOp28
 70
     1
102
RTVSPropertyOp29
 70
     1
102
RTVSPropertyOp30
 70
     1
102
RTVSPropertyOp31
 70
     1
102
RTVSPropertyOp32
 70
     1
102
RTVSPropertyOp33
 70
     1
102
RTVSPropertyOp34
 70
     1
102
RTVSPropertyOp35
 70
     1
102
RTVSPropertyOp36
 70
     1
102
RTVSPropertyOp37
 70
     1
102
RTVSPropertyOp38
 70
     1
102
RTVSPropertyOp39
 70
     1
102
RTVSPropertyOp40
 70
     1
102
RTVSPropertyOp41
 70
     1
102
RTVSPropertyOp42
 70
     1
102
RTVSPropertyOp43
 70
     1
102
RTVSPropertyOp44
 70
     1
102
RTVSPropertyOp45
 70
     1
102
RTVSPropertyOp46
 70
     1
102
RTVSPropertyOp47
 70
     1
102
RTVSPropertyOp48
 70
     1
102
RTVSPropertyOp49
 70
     1
102
RTVSPropertyOp50
 70
     1
102
RTVSPropertyOp51
 70
     0
102
RTVSPropertyOp52
 70
     0
102
RTVSPropertyOp53
 70
     1
102
RTVSPropertyOp54
 70
     1
102
RTVSPropertyOp55
 70
     1
102
RTVSPropertyOp56
 70
     1
102
RTVSPropertyOp57
 70
     1
102
RTVSPropertyOp58
 70
     1
102
RTVSPropertyOp59
 70
     1
102
RTVSPropertyOp60
 70
     1
102
RTVSPropertyOp61
 70
     1
102
RTVSPropertyOp62
 70
     1
  0
XRECORD
  5
B510
102
{ACAD_REACTORS
330
B50F
102
}
330
B50F
100
AcDbXrecord
280
     1
102
RTVSPost2010Prop28
280
     0
102
RTVSPost2010PropOp28
 70
     1
102
RTVSPost2010Prop29
280
     1
102
RTVSPost2010PropOp29
 70
     1
102
RTVSPost2010Prop30
280
     1
102
RTVSPost2010PropOp30
 70
     1
102
RTVSPost2010Prop31
280
     0
102
RTVSPost2010PropOp31
 70
     1
102
RTVSPost2010Prop32
280
     0
102
RTVSPost2010PropOp32
 70
     1
102
RTVSPost2010Prop33
280
     0
102
RTVSPost2010PropOp33
 70
     1
102
RTVSPost2010Prop34
280
     0
102
RTVSPost2010PropOp34
 70
     1
102
RTVSPost2010Prop35
280
     0
102
RTVSPost2010PropOp35
 70
     1
102
RTVSPost2010Prop36
280
     0
102
RTVSPost2010PropOp36
 70
     1
102
RTVSPost2010Prop37
 90
       50
102
RTVSPost2010PropOp37
 70
     1
102
RTVSPost2010Prop38
140
0.0
102
RTVSPost2010PropOp38
 70
     1
102
RTVSPost2010Prop39
140
1.0
102
RTVSPost2010PropOp39
 70
     1
102
RTVSPost2010Prop40
 90
        0
102
RTVSPost2010PropOp40
 70
     1
102
RTVSPost2010Prop41ColorIndex
 90
       18
102
RTVSPost2010Prop41ColorRGB
 90
        0
102
RTVSPost2010PropOp41
 70
     1
102
RTVSPost2010Prop42
 90
       50
102
RTVSPost2010PropOp42
 70
     1
102
RTVSPost2010Prop43
 90
        3
102
RTVSPost2010PropOp43
 70
     1
102
RTVSPost2010Prop44ColorIndex
 90
        5
102
RTVSPost2010Prop44ColorRGB
 90
      255
102
RTVSPost2010PropOp44
 70
     1
102
RTVSPost2010Prop45
280
     0
102
RTVSPost2010PropOp45
 70
     1
102
RTVSPost2010Prop46
 90
       50
102
RTVSPost2010PropOp46
 70
     1
102
RTVSPost2010Prop47
 90
       50
102
RTVSPost2010PropOp47
 70
     1
102
RTVSPost2010Prop48
 90
       50
102
RTVSPost2010PropOp48
 70
     1
102
RTVSPost2010Prop49
280
     0
102
RTVSPost2010PropOp49
 70
     1
102
RTVSPost2010Prop50
 90
       50
102
RTVSPost2010PropOp50
 70
     1
102
RTVSPost2010Prop51ColorIndex
 90
      256
102
RTVSPost2010Prop51ColorRGB
 90
-16777216
102
RTVSPost2010PropOp51
 70
     0
102
RTVSPost2010Prop52
140
1.0
102
RTVSPost2010PropOp52
 70
     0
102
RTVSPost2010Prop53
 90
        2
102
RTVSPost2010PropOp53
 70
     1
102
RTVSPost2010Prop54
  1
strokes_ogs.tif
102
RTVSPost2010PropOp54
 70
     1
102
RTVSPost2010Prop55
280
     0
102
RTVSPost2010PropOp55
 70
     1
102
RTVSPost2010Prop56
140
1.0
102
RTVSPost2010PropOp56
 70
     1
102
RTVSPost2010Prop57
140
1.0
102
RTVSPost2010PropOp57
 70
     1
102
RTVSPropertyOp0
 70
     1
102
RTVSPropertyOp1
 70
     1
102
RTVSPropertyOp2
 70
     1
102
RTVSPropertyOp3
 70
     1
102
RTVSPropertyOp4
 70
     1
102
RTVSPropertyOp5
 70
     1
102
RTVSPropertyOp6
 70
     1
102
RTVSPropertyOp7
 70
     1
102
RTVSPropertyOp8
 70
     1
102
RTVSPropertyOp9
 70
     1
102
RTVSPropertyOp10
 70
     1
102
RTVSPropertyOp11
 70
     1
102
RTVSPropertyOp12
 70
     1
102
RTVSPropertyOp13
 70
     1
102
RTVSPropertyOp14
 70
     1
102
RTVSPropertyOp15
 70
     1
102
RTVSPropertyOp16
 70
     1
102
RTVSPropertyOp17
 70
     1
102
RTVSPropertyOp18
 70
     1
102
RTVSPropertyOp19
 70
     1
102
RTVSPropertyOp20
 70
     1
102
RTVSPropertyOp21
 70
     1
102
RTVSPropertyOp22
 70
     1
102
RTVSPropertyOp23
 70
     1
102
RTVSPropertyOp24
 70
     1
102
RTVSPropertyOp25
 70
     1
102
RTVSPropertyOp26
 70
     1
102
RTVSPropertyOp27
 70
     1
102
RTVSPropertyOp28
 70
     1
102
RTVSPropertyOp29
 70
     1
102
RTVSPropertyOp30
 70
     1
102
RTVSPropertyOp31
 70
     1
102
RTVSPropertyOp32
 70
     1
102
RTVSPropertyOp33
 70
     1
102
RTVSPropertyOp34
 70
     1
102
RTVSPropertyOp35
 70
     1
102
RTVSPropertyOp36
 70
     1
102
RTVSPropertyOp37
 70
     1
102
RTVSPropertyOp38
 70
     1
102
RTVSPropertyOp39
 70
     1
102
RTVSPropertyOp40
 70
     1
102
RTVSPropertyOp41
 70
     1
102
RTVSPropertyOp42
 70
     1
102
RTVSPropertyOp43
 70
     1
102
RTVSPropertyOp44
 70
     1
102
RTVSPropertyOp45
 70
     1
102
RTVSPropertyOp46
 70
     1
102
RTVSPropertyOp47
 70
     1
102
RTVSPropertyOp48
 70
     1
102
RTVSPropertyOp49
 70
     1
102
RTVSPropertyOp50
 70
     1
102
RTVSPropertyOp51
 70
     0
102
RTVSPropertyOp52
 70
     0
102
RTVSPropertyOp53
 70
     1
102
RTVSPropertyOp54
 70
     1
102
RTVSPropertyOp55
 70
     1
102
RTVSPropertyOp56
 70
     1
102
RTVSPropertyOp57
 70
     1
102
RTVSPropertyOp58
 70
     1
102
RTVSPropertyOp59
 70
     1
102
RTVSPropertyOp60
 70
     1
102
RTVSPropertyOp61
 70
     1
102
RTVSPropertyOp62
 70
     1
  0
XRECORD
  5
B502
102
{ACAD_REACTORS
330
B501
102
}
330
B501
100
AcDbXrecord
280
     1
102
RTVSPost2010Prop28
280
     0
102
RTVSPost2010PropOp28
 70
     1
102
RTVSPost2010Prop29
280
     1
102
RTVSPost2010PropOp29
 70
     1
102
RTVSPost2010Prop30
280
     1
102
RTVSPost2010PropOp30
 70
     1
102
RTVSPost2010Prop31
280
     0
102
RTVSPost2010PropOp31
 70
     1
102
RTVSPost2010Prop32
280
     0
102
RTVSPost2010PropOp32
 70
     1
102
RTVSPost2010Prop33
280
     0
102
RTVSPost2010PropOp33
 70
     1
102
RTVSPost2010Prop34
280
     0
102
RTVSPost2010PropOp34
 70
     1
102
RTVSPost2010Prop35
280
     0
102
RTVSPost2010PropOp35
 70
     1
102
RTVSPost2010Prop36
280
     0
102
RTVSPost2010PropOp36
 70
     1
102
RTVSPost2010Prop37
 90
       50
102
RTVSPost2010PropOp37
 70
     1
102
RTVSPost2010Prop38
140
0.0
102
RTVSPost2010PropOp38
 70
     1
102
RTVSPost2010Prop39
140
1.0
102
RTVSPost2010PropOp39
 70
     1
102
RTVSPost2010Prop40
 90
        0
102
RTVSPost2010PropOp40
 70
     1
102
RTVSPost2010Prop41ColorIndex
 90
       18
102
RTVSPost2010Prop41ColorRGB
 90
        0
102
RTVSPost2010PropOp41
 70
     1
102
RTVSPost2010Prop42
 90
       50
102
RTVSPost2010PropOp42
 70
     1
102
RTVSPost2010Prop43
 90
        3
102
RTVSPost2010PropOp43
 70
     1
102
RTVSPost2010Prop44ColorIndex
 90
        5
102
RTVSPost2010Prop44ColorRGB
 90
      255
102
RTVSPost2010PropOp44
 70
     1
102
RTVSPost2010Prop45
280
     0
102
RTVSPost2010PropOp45
 70
     1
102
RTVSPost2010Prop46
 90
       50
102
RTVSPost2010PropOp46
 70
     1
102
RTVSPost2010Prop47
 90
       50
102
RTVSPost2010PropOp47
 70
     1
102
RTVSPost2010Prop48
 90
       50
102
RTVSPost2010PropOp48
 70
     1
102
RTVSPost2010Prop49
280
     0
102
RTVSPost2010PropOp49
 70
     1
102
RTVSPost2010Prop50
 90
       50
102
RTVSPost2010PropOp50
 70
     1
102
RTVSPost2010Prop51ColorIndex
 90
      256
102
RTVSPost2010Prop51ColorRGB
 90
-16777216
102
RTVSPost2010PropOp51
 70
     0
102
RTVSPost2010Prop52
140
1.0
102
RTVSPost2010PropOp52
 70
     0
102
RTVSPost2010Prop53
 90
        2
102
RTVSPost2010PropOp53
 70
     1
102
RTVSPost2010Prop54
  1
strokes_ogs.tif
102
RTVSPost2010PropOp54
 70
     1
102
RTVSPost2010Prop55
280
     0
102
RTVSPost2010PropOp55
 70
     1
102
RTVSPost2010Prop56
140
1.0
102
RTVSPost2010PropOp56
 70
     1
102
RTVSPost2010Prop57
140
1.0
102
RTVSPost2010PropOp57
 70
     1
102
RTVSPropertyOp0
 70
     1
102
RTVSPropertyOp1
 70
     1
102
RTVSPropertyOp2
 70
     1
102
RTVSPropertyOp3
 70
     1
102
RTVSPropertyOp4
 70
     1
102
RTVSPropertyOp5
 70
     1
102
RTVSPropertyOp6
 70
     1
102
RTVSPropertyOp7
 70
     1
102
RTVSPropertyOp8
 70
     1
102
RTVSPropertyOp9
 70
     1
102
RTVSPropertyOp10
 70
     1
102
RTVSPropertyOp11
 70
     1
102
RTVSPropertyOp12
 70
     1
102
RTVSPropertyOp13
 70
     1
102
RTVSPropertyOp14
 70
     1
102
RTVSPropertyOp15
 70
     1
102
RTVSPropertyOp16
 70
     1
102
RTVSPropertyOp17
 70
     1
102
RTVSPropertyOp18
 70
     1
102
RTVSPropertyOp19
 70
     1
102
RTVSPropertyOp20
 70
     1
102
RTVSPropertyOp21
 70
     1
102
RTVSPropertyOp22
 70
     1
102
RTVSPropertyOp23
 70
     1
102
RTVSPropertyOp24
 70
     1
102
RTVSPropertyOp25
 70
     1
102
RTVSPropertyOp26
 70
     1
102
RTVSPropertyOp27
 70
     1
102
RTVSPropertyOp28
 70
     1
102
RTVSPropertyOp29
 70
     1
102
RTVSPropertyOp30
 70
     1
102
RTVSPropertyOp31
 70
     1
102
RTVSPropertyOp32
 70
     1
102
RTVSPropertyOp33
 70
     1
102
RTVSPropertyOp34
 70
     1
102
RTVSPropertyOp35
 70
     1
102
RTVSPropertyOp36
 70
     1
102
RTVSPropertyOp37
 70
     1
102
RTVSPropertyOp38
 70
     1
102
RTVSPropertyOp39
 70
     1
102
RTVSPropertyOp40
 70
     1
102
RTVSPropertyOp41
 70
     1
102
RTVSPropertyOp42
 70
     1
102
RTVSPropertyOp43
 70
     1
102
RTVSPropertyOp44
 70
     1
102
RTVSPropertyOp45
 70
     1
102
RTVSPropertyOp46
 70
     1
102
RTVSPropertyOp47
 70
     1
102
RTVSPropertyOp48
 70
     1
102
RTVSPropertyOp49
 70
     1
102
RTVSPropertyOp50
 70
     1
102
RTVSPropertyOp51
 70
     0
102
RTVSPropertyOp52
 70
     0
102
RTVSPropertyOp53
 70
     1
102
RTVSPropertyOp54
 70
     1
102
RTVSPropertyOp55
 70
     1
102
RTVSPropertyOp56
 70
     1
102
RTVSPropertyOp57
 70
     1
102
RTVSPropertyOp58
 70
     1
102
RTVSPropertyOp59
 70
     1
102
RTVSPropertyOp60
 70
     1
102
RTVSPropertyOp61
 70
     1
102
RTVSPropertyOp62
 70
     1
  0
XRECORD
  5
B506
102
{ACAD_REACTORS
330
B505
102
}
330
B505
100
AcDbXrecord
280
     1
102
RTVSPost2010Prop28
280
     0
102
RTVSPost2010PropOp28
 70
     1
102
RTVSPost2010Prop29
280
     1
102
RTVSPost2010PropOp29
 70
     1
102
RTVSPost2010Prop30
280
     1
102
RTVSPost2010PropOp30
 70
     1
102
RTVSPost2010Prop31
280
     0
102
RTVSPost2010PropOp31
 70
     1
102
RTVSPost2010Prop32
280
     0
102
RTVSPost2010PropOp32
 70
     1
102
RTVSPost2010Prop33
280
     0
102
RTVSPost2010PropOp33
 70
     1
102
RTVSPost2010Prop34
280
     0
102
RTVSPost2010PropOp34
 70
     1
102
RTVSPost2010Prop35
280
     0
102
RTVSPost2010PropOp35
 70
     1
102
RTVSPost2010Prop36
280
     0
102
RTVSPost2010PropOp36
 70
     1
102
RTVSPost2010Prop37
 90
       50
102
RTVSPost2010PropOp37
 70
     1
102
RTVSPost2010Prop38
140
0.0
102
RTVSPost2010PropOp38
 70
     1
102
RTVSPost2010Prop39
140
1.0
102
RTVSPost2010PropOp39
 70
     1
102
RTVSPost2010Prop40
 90
        0
102
RTVSPost2010PropOp40
 70
     1
102
RTVSPost2010Prop41ColorIndex
 90
       18
102
RTVSPost2010Prop41ColorRGB
 90
        0
102
RTVSPost2010PropOp41
 70
     1
102
RTVSPost2010Prop42
 90
       50
102
RTVSPost2010PropOp42
 70
     1
102
RTVSPost2010Prop43
 90
        3
102
RTVSPost2010PropOp43
 70
     1
102
RTVSPost2010Prop44ColorIndex
 90
        5
102
RTVSPost2010Prop44ColorRGB
 90
      255
102
RTVSPost2010PropOp44
 70
     1
102
RTVSPost2010Prop45
280
     0
102
RTVSPost2010PropOp45
 70
     1
102
RTVSPost2010Prop46
 90
       50
102
RTVSPost2010PropOp46
 70
     1
102
RTVSPost2010Prop47
 90
       50
102
RTVSPost2010PropOp47
 70
     1
102
RTVSPost2010Prop48
 90
       50
102
RTVSPost2010PropOp48
 70
     1
102
RTVSPost2010Prop49
280
     0
102
RTVSPost2010PropOp49
 70
     1
102
RTVSPost2010Prop50
 90
       50
102
RTVSPost2010PropOp50
 70
     1
102
RTVSPost2010Prop51ColorIndex
 90
      256
102
RTVSPost2010Prop51ColorRGB
 90
-16777216
102
RTVSPost2010PropOp51
 70
     0
102
RTVSPost2010Prop52
140
1.0
102
RTVSPost2010PropOp52
 70
     0
102
RTVSPost2010Prop53
 90
        2
102
RTVSPost2010PropOp53
 70
     1
102
RTVSPost2010Prop54
  1
strokes_ogs.tif
102
RTVSPost2010PropOp54
 70
     1
102
RTVSPost2010Prop55
280
     0
102
RTVSPost2010PropOp55
 70
     1
102
RTVSPost2010Prop56
140
1.0
102
RTVSPost2010PropOp56
 70
     1
102
RTVSPost2010Prop57
140
1.0
102
RTVSPost2010PropOp57
 70
     1
102
RTVSPropertyOp0
 70
     1
102
RTVSPropertyOp1
 70
     1
102
RTVSPropertyOp2
 70
     1
102
RTVSPropertyOp3
 70
     1
102
RTVSPropertyOp4
 70
     1
102
RTVSPropertyOp5
 70
     1
102
RTVSPropertyOp6
 70
     1
102
RTVSPropertyOp7
 70
     1
102
RTVSPropertyOp8
 70
     1
102
RTVSPropertyOp9
 70
     1
102
RTVSPropertyOp10
 70
     1
102
RTVSPropertyOp11
 70
     1
102
RTVSPropertyOp12
 70
     1
102
RTVSPropertyOp13
 70
     1
102
RTVSPropertyOp14
 70
     1
102
RTVSPropertyOp15
 70
     1
102
RTVSPropertyOp16
 70
     1
102
RTVSPropertyOp17
 70
     1
102
RTVSPropertyOp18
 70
     1
102
RTVSPropertyOp19
 70
     1
102
RTVSPropertyOp20
 70
     1
102
RTVSPropertyOp21
 70
     1
102
RTVSPropertyOp22
 70
     1
102
RTVSPropertyOp23
 70
     1
102
RTVSPropertyOp24
 70
     1
102
RTVSPropertyOp25
 70
     1
102
RTVSPropertyOp26
 70
     1
102
RTVSPropertyOp27
 70
     1
102
RTVSPropertyOp28
 70
     1
102
RTVSPropertyOp29
 70
     1
102
RTVSPropertyOp30
 70
     1
102
RTVSPropertyOp31
 70
     1
102
RTVSPropertyOp32
 70
     1
102
RTVSPropertyOp33
 70
     1
102
RTVSPropertyOp34
 70
     1
102
RTVSPropertyOp35
 70
     1
102
RTVSPropertyOp36
 70
     1
102
RTVSPropertyOp37
 70
     1
102
RTVSPropertyOp38
 70
     1
102
RTVSPropertyOp39
 70
     1
102
RTVSPropertyOp40
 70
     1
102
RTVSPropertyOp41
 70
     1
102
RTVSPropertyOp42
 70
     1
102
RTVSPropertyOp43
 70
     1
102
RTVSPropertyOp44
 70
     1
102
RTVSPropertyOp45
 70
     1
102
RTVSPropertyOp46
 70
     1
102
RTVSPropertyOp47
 70
     1
102
RTVSPropertyOp48
 70
     1
102
RTVSPropertyOp49
 70
     1
102
RTVSPropertyOp50
 70
     1
102
RTVSPropertyOp51
 70
     0
102
RTVSPropertyOp52
 70
     0
102
RTVSPropertyOp53
 70
     1
102
RTVSPropertyOp54
 70
     1
102
RTVSPropertyOp55
 70
     1
102
RTVSPropertyOp56
 70
     1
102
RTVSPropertyOp57
 70
     1
102
RTVSPropertyOp58
 70
     1
102
RTVSPropertyOp59
 70
     1
102
RTVSPropertyOp60
 70
     1
102
RTVSPropertyOp61
 70
     1
102
RTVSPropertyOp62
 70
     1
  0
XRECORD
  5
B520
102
{ACAD_REACTORS
330
B51F
102
}
330
B51F
100
AcDbXrecord
280
     1
102
RTVSPost2010Prop28
280
     0
102
RTVSPost2010PropOp28
 70
     1
102
RTVSPost2010Prop29
280
     1
102
RTVSPost2010PropOp29
 70
     1
102
RTVSPost2010Prop30
280
     1
102
RTVSPost2010PropOp30
 70
     1
102
RTVSPost2010Prop31
280
     0
102
RTVSPost2010PropOp31
 70
     1
102
RTVSPost2010Prop32
280
     0
102
RTVSPost2010PropOp32
 70
     1
102
RTVSPost2010Prop33
280
     0
102
RTVSPost2010PropOp33
 70
     1
102
RTVSPost2010Prop34
280
     0
102
RTVSPost2010PropOp34
 70
     1
102
RTVSPost2010Prop35
280
     0
102
RTVSPost2010PropOp35
 70
     1
102
RTVSPost2010Prop36
280
     0
102
RTVSPost2010PropOp36
 70
     1
102
RTVSPost2010Prop37
 90
       50
102
RTVSPost2010PropOp37
 70
     0
102
RTVSPost2010Prop38
140
0.0
102
RTVSPost2010PropOp38
 70
     0
102
RTVSPost2010Prop39
140
1.0
102
RTVSPost2010PropOp39
 70
     0
102
RTVSPost2010Prop40
 90
        0
102
RTVSPost2010PropOp40
 70
     0
102
RTVSPost2010Prop41ColorIndex
 90
       18
102
RTVSPost2010Prop41ColorRGB
 90
        0
102
RTVSPost2010PropOp41
 70
     0
102
RTVSPost2010Prop42
 90
       50
102
RTVSPost2010PropOp42
 70
     0
102
RTVSPost2010Prop43
 90
        3
102
RTVSPost2010PropOp43
 70
     0
102
RTVSPost2010Prop44ColorIndex
 90
        5
102
RTVSPost2010Prop44ColorRGB
 90
      255
102
RTVSPost2010PropOp44
 70
     0
102
RTVSPost2010Prop45
280
     0
102
RTVSPost2010PropOp45
 70
     1
102
RTVSPost2010Prop46
 90
       50
102
RTVSPost2010PropOp46
 70
     0
102
RTVSPost2010Prop47
 90
       50
102
RTVSPost2010PropOp47
 70
     0
102
RTVSPost2010Prop48
 90
       50
102
RTVSPost2010PropOp48
 70
     0
102
RTVSPost2010Prop49
280
     0
102
RTVSPost2010PropOp49
 70
     1
102
RTVSPost2010Prop50
 90
       50
102
RTVSPost2010PropOp50
 70
     0
102
RTVSPost2010Prop51ColorIndex
 90
      256
102
RTVSPost2010Prop51ColorRGB
 90
-16777216
102
RTVSPost2010PropOp51
 70
     0
102
RTVSPost2010Prop52
140
1.0
102
RTVSPost2010PropOp52
 70
     0
102
RTVSPost2010Prop53
 90
        2
102
RTVSPost2010PropOp53
 70
     0
102
RTVSPost2010Prop54
  1
strokes_ogs.tif
102
RTVSPost2010PropOp54
 70
     0
102
RTVSPost2010Prop55
280
     0
102
RTVSPost2010PropOp55
 70
     1
102
RTVSPost2010Prop56
140
1.0
102
RTVSPost2010PropOp56
 70
     0
102
RTVSPost2010Prop57
140
1.0
102
RTVSPost2010PropOp57
 70
     0
102
RTVSPropertyOp0
 70
     0
102
RTVSPropertyOp1
 70
     0
102
RTVSPropertyOp2
 70
     0
102
RTVSPropertyOp3
 70
     0
102
RTVSPropertyOp4
 70
     0
102
RTVSPropertyOp5
 70
     0
102
RTVSPropertyOp6
 70
     0
102
RTVSPropertyOp7
 70
     0
102
RTVSPropertyOp8
 70
     0
102
RTVSPropertyOp9
 70
     0
102
RTVSPropertyOp10
 70
     0
102
RTVSPropertyOp11
 70
     0
102
RTVSPropertyOp12
 70
     0
102
RTVSPropertyOp13
 70
     0
102
RTVSPropertyOp14
 70
     2
102
RTVSPropertyOp15
 70
     0
102
RTVSPropertyOp16
 70
     0
102
RTVSPropertyOp17
 70
     0
102
RTVSPropertyOp18
 70
     0
102
RTVSPropertyOp19
 70
     0
102
RTVSPropertyOp20
 70
     0
102
RTVSPropertyOp21
 70
     0
102
RTVSPropertyOp22
 70
     0
102
RTVSPropertyOp23
 70
     0
102
RTVSPropertyOp24
 70
     0
102
RTVSPropertyOp25
 70
     0
102
RTVSPropertyOp26
 70
     0
102
RTVSPropertyOp27
 70
     0
102
RTVSPropertyOp28
 70
     1
102
RTVSPropertyOp29
 70
     1
102
RTVSPropertyOp30
 70
     1
102
RTVSPropertyOp31
 70
     1
102
RTVSPropertyOp32
 70
     1
102
RTVSPropertyOp33
 70
     1
102
RTVSPropertyOp34
 70
     1
102
RTVSPropertyOp35
 70
     1
102
RTVSPropertyOp36
 70
     1
102
RTVSPropertyOp37
 70
     0
102
RTVSPropertyOp38
 70
     0
102
RTVSPropertyOp39
 70
     0
102
RTVSPropertyOp40
 70
     0
102
RTVSPropertyOp41
 70
     0
102
RTVSPropertyOp42
 70
     0
102
RTVSPropertyOp43
 70
     0
102
RTVSPropertyOp44
 70
     0
102
RTVSPropertyOp45
 70
     1
102
RTVSPropertyOp46
 70
     0
102
RTVSPropertyOp47
 70
     0
102
RTVSPropertyOp48
 70
     0
102
RTVSPropertyOp49
 70
     1
102
RTVSPropertyOp50
 70
     0
102
RTVSPropertyOp51
 70
     0
102
RTVSPropertyOp52
 70
     0
102
RTVSPropertyOp53
 70
     0
102
RTVSPropertyOp54
 70
     0
102
RTVSPropertyOp55
 70
     1
102
RTVSPropertyOp56
 70
     0
102
RTVSPropertyOp57
 70
     0
102
RTVSPropertyOp58
 70
     0
102
RTVSPropertyOp59
 70
     0
102
RTVSPropertyOp60
 70
     0
102
RTVSPropertyOp61
 70
     0
102
RTVSPropertyOp62
 70
     0
  0
XRECORD
  5
B50E
102
{ACAD_REACTORS
330
B50D
102
}
330
B50D
100
AcDbXrecord
280
     1
102
RTVSPost2010Prop28
280
     0
102
RTVSPost2010PropOp28
 70
     1
102
RTVSPost2010Prop29
280
     1
102
RTVSPost2010PropOp29
 70
     1
102
RTVSPost2010Prop30
280
     1
102
RTVSPost2010PropOp30
 70
     1
102
RTVSPost2010Prop31
280
     0
102
RTVSPost2010PropOp31
 70
     1
102
RTVSPost2010Prop32
280
     0
102
RTVSPost2010PropOp32
 70
     1
102
RTVSPost2010Prop33
280
     0
102
RTVSPost2010PropOp33
 70
     1
102
RTVSPost2010Prop34
280
     0
102
RTVSPost2010PropOp34
 70
     1
102
RTVSPost2010Prop35
280
     0
102
RTVSPost2010PropOp35
 70
     1
102
RTVSPost2010Prop36
280
     0
102
RTVSPost2010PropOp36
 70
     1
102
RTVSPost2010Prop37
 90
       50
102
RTVSPost2010PropOp37
 70
     1
102
RTVSPost2010Prop38
140
0.0
102
RTVSPost2010PropOp38
 70
     1
102
RTVSPost2010Prop39
140
1.0
102
RTVSPost2010PropOp39
 70
     1
102
RTVSPost2010Prop40
 90
        0
102
RTVSPost2010PropOp40
 70
     1
102
RTVSPost2010Prop41ColorIndex
 90
       18
102
RTVSPost2010Prop41ColorRGB
 90
        0
102
RTVSPost2010PropOp41
 70
     1
102
RTVSPost2010Prop42
 90
       50
102
RTVSPost2010PropOp42
 70
     1
102
RTVSPost2010Prop43
 90
        3
102
RTVSPost2010PropOp43
 70
     1
102
RTVSPost2010Prop44ColorIndex
 90
        5
102
RTVSPost2010Prop44ColorRGB
 90
      255
102
RTVSPost2010PropOp44
 70
     1
102
RTVSPost2010Prop45
280
     0
102
RTVSPost2010PropOp45
 70
     1
102
RTVSPost2010Prop46
 90
       50
102
RTVSPost2010PropOp46
 70
     1
102
RTVSPost2010Prop47
 90
       50
102
RTVSPost2010PropOp47
 70
     1
102
RTVSPost2010Prop48
 90
       50
102
RTVSPost2010PropOp48
 70
     1
102
RTVSPost2010Prop49
280
     0
102
RTVSPost2010PropOp49
 70
     1
102
RTVSPost2010Prop50
 90
       50
102
RTVSPost2010PropOp50
 70
     1
102
RTVSPost2010Prop51ColorIndex
 90
      256
102
RTVSPost2010Prop51ColorRGB
 90
-16777216
102
RTVSPost2010PropOp51
 70
     0
102
RTVSPost2010Prop52
140
1.0
102
RTVSPost2010PropOp52
 70
     0
102
RTVSPost2010Prop53
 90
        2
102
RTVSPost2010PropOp53
 70
     1
102
RTVSPost2010Prop54
  1
strokes_ogs.tif
102
RTVSPost2010PropOp54
 70
     1
102
RTVSPost2010Prop55
280
     0
102
RTVSPost2010PropOp55
 70
     1
102
RTVSPost2010Prop56
140
1.0
102
RTVSPost2010PropOp56
 70
     1
102
RTVSPost2010Prop57
140
1.0
102
RTVSPost2010PropOp57
 70
     1
102
RTVSPropertyOp0
 70
     1
102
RTVSPropertyOp1
 70
     1
102
RTVSPropertyOp2
 70
     1
102
RTVSPropertyOp3
 70
     1
102
RTVSPropertyOp4
 70
     1
102
RTVSPropertyOp5
 70
     1
102
RTVSPropertyOp6
 70
     1
102
RTVSPropertyOp7
 70
     1
102
RTVSPropertyOp8
 70
     1
102
RTVSPropertyOp9
 70
     1
102
RTVSPropertyOp10
 70
     1
102
RTVSPropertyOp11
 70
     1
102
RTVSPropertyOp12
 70
     1
102
RTVSPropertyOp13
 70
     1
102
RTVSPropertyOp14
 70
     1
102
RTVSPropertyOp15
 70
     1
102
RTVSPropertyOp16
 70
     1
102
RTVSPropertyOp17
 70
     1
102
RTVSPropertyOp18
 70
     1
102
RTVSPropertyOp19
 70
     1
102
RTVSPropertyOp20
 70
     1
102
RTVSPropertyOp21
 70
     1
102
RTVSPropertyOp22
 70
     1
102
RTVSPropertyOp23
 70
     1
102
RTVSPropertyOp24
 70
     1
102
RTVSPropertyOp25
 70
     1
102
RTVSPropertyOp26
 70
     1
102
RTVSPropertyOp27
 70
     1
102
RTVSPropertyOp28
 70
     1
102
RTVSPropertyOp29
 70
     1
102
RTVSPropertyOp30
 70
     1
102
RTVSPropertyOp31
 70
     1
102
RTVSPropertyOp32
 70
     1
102
RTVSPropertyOp33
 70
     1
102
RTVSPropertyOp34
 70
     1
102
RTVSPropertyOp35
 70
     1
102
RTVSPropertyOp36
 70
     1
102
RTVSPropertyOp37
 70
     1
102
RTVSPropertyOp38
 70
     1
102
RTVSPropertyOp39
 70
     1
102
RTVSPropertyOp40
 70
     1
102
RTVSPropertyOp41
 70
     1
102
RTVSPropertyOp42
 70
     1
102
RTVSPropertyOp43
 70
     1
102
RTVSPropertyOp44
 70
     1
102
RTVSPropertyOp45
 70
     1
102
RTVSPropertyOp46
 70
     1
102
RTVSPropertyOp47
 70
     1
102
RTVSPropertyOp48
 70
     1
102
RTVSPropertyOp49
 70
     1
102
RTVSPropertyOp50
 70
     1
102
RTVSPropertyOp51
 70
     0
102
RTVSPropertyOp52
 70
     0
102
RTVSPropertyOp53
 70
     1
102
RTVSPropertyOp54
 70
     1
102
RTVSPropertyOp55
 70
     1
102
RTVSPropertyOp56
 70
     1
102
RTVSPropertyOp57
 70
     1
102
RTVSPropertyOp58
 70
     1
102
RTVSPropertyOp59
 70
     1
102
RTVSPropertyOp60
 70
     1
102
RTVSPropertyOp61
 70
     1
102
RTVSPropertyOp62
 70
     1
  0
XRECORD
  5
B4F2
102
{ACAD_REACTORS
330
B4F1
102
}
330
B4F1
100
AcDbXrecord
280
     1
102
RTVSPost2010Prop28
280
     0
102
RTVSPost2010PropOp28
 70
     1
102
RTVSPost2010Prop29
280
     1
102
RTVSPost2010PropOp29
 70
     1
102
RTVSPost2010Prop30
280
     1
102
RTVSPost2010PropOp30
 70
     1
102
RTVSPost2010Prop31
280
     0
102
RTVSPost2010PropOp31
 70
     1
102
RTVSPost2010Prop32
280
     0
102
RTVSPost2010PropOp32
 70
     1
102
RTVSPost2010Prop33
280
     0
102
RTVSPost2010PropOp33
 70
     1
102
RTVSPost2010Prop34
280
     0
102
RTVSPost2010PropOp34
 70
     1
102
RTVSPost2010Prop35
280
     0
102
RTVSPost2010PropOp35
 70
     1
102
RTVSPost2010Prop36
280
     0
102
RTVSPost2010PropOp36
 70
     1
102
RTVSPost2010Prop37
 90
       50
102
RTVSPost2010PropOp37
 70
     1
102
RTVSPost2010Prop38
140
0.0
102
RTVSPost2010PropOp38
 70
     1
102
RTVSPost2010Prop39
140
1.0
102
RTVSPost2010PropOp39
 70
     1
102
RTVSPost2010Prop40
 90
        0
102
RTVSPost2010PropOp40
 70
     1
102
RTVSPost2010Prop41ColorIndex
 90
       18
102
RTVSPost2010Prop41ColorRGB
 90
        0
102
RTVSPost2010PropOp41
 70
     1
102
RTVSPost2010Prop42
 90
       50
102
RTVSPost2010PropOp42
 70
     1
102
RTVSPost2010Prop43
 90
        3
102
RTVSPost2010PropOp43
 70
     1
102
RTVSPost2010Prop44ColorIndex
 90
        5
102
RTVSPost2010Prop44ColorRGB
 90
      255
102
RTVSPost2010PropOp44
 70
     1
102
RTVSPost2010Prop45
280
     0
102
RTVSPost2010PropOp45
 70
     1
102
RTVSPost2010Prop46
 90
       50
102
RTVSPost2010PropOp46
 70
     1
102
RTVSPost2010Prop47
 90
       50
102
RTVSPost2010PropOp47
 70
     1
102
RTVSPost2010Prop48
 90
       50
102
RTVSPost2010PropOp48
 70
     1
102
RTVSPost2010Prop49
280
     0
102
RTVSPost2010PropOp49
 70
     1
102
RTVSPost2010Prop50
 90
       50
102
RTVSPost2010PropOp50
 70
     1
102
RTVSPost2010Prop51ColorIndex
 90
      256
102
RTVSPost2010Prop51ColorRGB
 90
-16777216
102
RTVSPost2010PropOp51
 70
     0
102
RTVSPost2010Prop52
140
1.0
102
RTVSPost2010PropOp52
 70
     0
102
RTVSPost2010Prop53
 90
        2
102
RTVSPost2010PropOp53
 70
     1
102
RTVSPost2010Prop54
  1
strokes_ogs.tif
102
RTVSPost2010PropOp54
 70
     1
102
RTVSPost2010Prop55
280
     0
102
RTVSPost2010PropOp55
 70
     1
102
RTVSPost2010Prop56
140
1.0
102
RTVSPost2010PropOp56
 70
     1
102
RTVSPost2010Prop57
140
1.0
102
RTVSPost2010PropOp57
 70
     1
102
RTVSPropertyOp0
 70
     1
102
RTVSPropertyOp1
 70
     1
102
RTVSPropertyOp2
 70
     1
102
RTVSPropertyOp3
 70
     1
102
RTVSPropertyOp4
 70
     1
102
RTVSPropertyOp5
 70
     1
102
RTVSPropertyOp6
 70
     1
102
RTVSPropertyOp7
 70
     1
102
RTVSPropertyOp8
 70
     1
102
RTVSPropertyOp9
 70
     1
102
RTVSPropertyOp10
 70
     1
102
RTVSPropertyOp11
 70
     1
102
RTVSPropertyOp12
 70
     1
102
RTVSPropertyOp13
 70
     1
102
RTVSPropertyOp14
 70
     1
102
RTVSPropertyOp15
 70
     1
102
RTVSPropertyOp16
 70
     1
102
RTVSPropertyOp17
 70
     1
102
RTVSPropertyOp18
 70
     1
102
RTVSPropertyOp19
 70
     1
102
RTVSPropertyOp20
 70
     1
102
RTVSPropertyOp21
 70
     1
102
RTVSPropertyOp22
 70
     1
102
RTVSPropertyOp23
 70
     1
102
RTVSPropertyOp24
 70
     1
102
RTVSPropertyOp25
 70
     1
102
RTVSPropertyOp26
 70
     1
102
RTVSPropertyOp27
 70
     1
102
RTVSPropertyOp28
 70
     1
102
RTVSPropertyOp29
 70
     1
102
RTVSPropertyOp30
 70
     1
102
RTVSPropertyOp31
 70
     1
102
RTVSPropertyOp32
 70
     1
102
RTVSPropertyOp33
 70
     1
102
RTVSPropertyOp34
 70
     1
102
RTVSPropertyOp35
 70
     1
102
RTVSPropertyOp36
 70
     1
102
RTVSPropertyOp37
 70
     1
102
RTVSPropertyOp38
 70
     1
102
RTVSPropertyOp39
 70
     1
102
RTVSPropertyOp40
 70
     1
102
RTVSPropertyOp41
 70
     1
102
RTVSPropertyOp42
 70
     1
102
RTVSPropertyOp43
 70
     1
102
RTVSPropertyOp44
 70
     1
102
RTVSPropertyOp45
 70
     1
102
RTVSPropertyOp46
 70
     1
102
RTVSPropertyOp47
 70
     1
102
RTVSPropertyOp48
 70
     1
102
RTVSPropertyOp49
 70
     1
102
RTVSPropertyOp50
 70
     1
102
RTVSPropertyOp51
 70
     0
102
RTVSPropertyOp52
 70
     0
102
RTVSPropertyOp53
 70
     1
102
RTVSPropertyOp54
 70
     1
102
RTVSPropertyOp55
 70
     1
102
RTVSPropertyOp56
 70
     1
102
RTVSPropertyOp57
 70
     1
102
RTVSPropertyOp58
 70
     1
102
RTVSPropertyOp59
 70
     1
102
RTVSPropertyOp60
 70
     1
102
RTVSPropertyOp61
 70
     1
102
RTVSPropertyOp62
 70
     1
  0
XRECORD
  5
B4F4
102
{ACAD_REACTORS
330
B4F3
102
}
330
B4F3
100
AcDbXrecord
280
     1
102
RTVSPost2010Prop28
280
     0
102
RTVSPost2010PropOp28
 70
     1
102
RTVSPost2010Prop29
280
     1
102
RTVSPost2010PropOp29
 70
     1
102
RTVSPost2010Prop30
280
     1
102
RTVSPost2010PropOp30
 70
     1
102
RTVSPost2010Prop31
280
     0
102
RTVSPost2010PropOp31
 70
     1
102
RTVSPost2010Prop32
280
     0
102
RTVSPost2010PropOp32
 70
     1
102
RTVSPost2010Prop33
280
     0
102
RTVSPost2010PropOp33
 70
     1
102
RTVSPost2010Prop34
280
     0
102
RTVSPost2010PropOp34
 70
     1
102
RTVSPost2010Prop35
280
     0
102
RTVSPost2010PropOp35
 70
     1
102
RTVSPost2010Prop36
280
     0
102
RTVSPost2010PropOp36
 70
     1
102
RTVSPost2010Prop37
 90
       50
102
RTVSPost2010PropOp37
 70
     1
102
RTVSPost2010Prop38
140
0.0
102
RTVSPost2010PropOp38
 70
     1
102
RTVSPost2010Prop39
140
1.0
102
RTVSPost2010PropOp39
 70
     1
102
RTVSPost2010Prop40
 90
        0
102
RTVSPost2010PropOp40
 70
     1
102
RTVSPost2010Prop41ColorIndex
 90
       18
102
RTVSPost2010Prop41ColorRGB
 90
        0
102
RTVSPost2010PropOp41
 70
     1
102
RTVSPost2010Prop42
 90
       50
102
RTVSPost2010PropOp42
 70
     1
102
RTVSPost2010Prop43
 90
        3
102
RTVSPost2010PropOp43
 70
     1
102
RTVSPost2010Prop44ColorIndex
 90
        5
102
RTVSPost2010Prop44ColorRGB
 90
      255
102
RTVSPost2010PropOp44
 70
     1
102
RTVSPost2010Prop45
280
     0
102
RTVSPost2010PropOp45
 70
     1
102
RTVSPost2010Prop46
 90
       50
102
RTVSPost2010PropOp46
 70
     1
102
RTVSPost2010Prop47
 90
       50
102
RTVSPost2010PropOp47
 70
     1
102
RTVSPost2010Prop48
 90
       50
102
RTVSPost2010PropOp48
 70
     1
102
RTVSPost2010Prop49
280
     0
102
RTVSPost2010PropOp49
 70
     1
102
RTVSPost2010Prop50
 90
       50
102
RTVSPost2010PropOp50
 70
     1
102
RTVSPost2010Prop51ColorIndex
 90
      256
102
RTVSPost2010Prop51ColorRGB
 90
-16777216
102
RTVSPost2010PropOp51
 70
     0
102
RTVSPost2010Prop52
140
1.0
102
RTVSPost2010PropOp52
 70
     0
102
RTVSPost2010Prop53
 90
        2
102
RTVSPost2010PropOp53
 70
     1
102
RTVSPost2010Prop54
  1
strokes_ogs.tif
102
RTVSPost2010PropOp54
 70
     1
102
RTVSPost2010Prop55
280
     0
102
RTVSPost2010PropOp55
 70
     1
102
RTVSPost2010Prop56
140
1.0
102
RTVSPost2010PropOp56
 70
     1
102
RTVSPost2010Prop57
140
1.0
102
RTVSPost2010PropOp57
 70
     1
102
RTVSPropertyOp0
 70
     1
102
RTVSPropertyOp1
 70
     1
102
RTVSPropertyOp2
 70
     1
102
RTVSPropertyOp3
 70
     1
102
RTVSPropertyOp4
 70
     1
102
RTVSPropertyOp5
 70
     1
102
RTVSPropertyOp6
 70
     1
102
RTVSPropertyOp7
 70
     1
102
RTVSPropertyOp8
 70
     1
102
RTVSPropertyOp9
 70
     1
102
RTVSPropertyOp10
 70
     1
102
RTVSPropertyOp11
 70
     1
102
RTVSPropertyOp12
 70
     1
102
RTVSPropertyOp13
 70
     1
102
RTVSPropertyOp14
 70
     1
102
RTVSPropertyOp15
 70
     1
102
RTVSPropertyOp16
 70
     1
102
RTVSPropertyOp17
 70
     1
102
RTVSPropertyOp18
 70
     1
102
RTVSPropertyOp19
 70
     1
102
RTVSPropertyOp20
 70
     1
102
RTVSPropertyOp21
 70
     1
102
RTVSPropertyOp22
 70
     1
102
RTVSPropertyOp23
 70
     1
102
RTVSPropertyOp24
 70
     1
102
RTVSPropertyOp25
 70
     1
102
RTVSPropertyOp26
 70
     1
102
RTVSPropertyOp27
 70
     1
102
RTVSPropertyOp28
 70
     1
102
RTVSPropertyOp29
 70
     1
102
RTVSPropertyOp30
 70
     1
102
RTVSPropertyOp31
 70
     1
102
RTVSPropertyOp32
 70
     1
102
RTVSPropertyOp33
 70
     1
102
RTVSPropertyOp34
 70
     1
102
RTVSPropertyOp35
 70
     1
102
RTVSPropertyOp36
 70
     1
102
RTVSPropertyOp37
 70
     1
102
RTVSPropertyOp38
 70
     1
102
RTVSPropertyOp39
 70
     1
102
RTVSPropertyOp40
 70
     1
102
RTVSPropertyOp41
 70
     1
102
RTVSPropertyOp42
 70
     1
102
RTVSPropertyOp43
 70
     1
102
RTVSPropertyOp44
 70
     1
102
RTVSPropertyOp45
 70
     1
102
RTVSPropertyOp46
 70
     1
102
RTVSPropertyOp47
 70
     1
102
RTVSPropertyOp48
 70
     1
102
RTVSPropertyOp49
 70
     1
102
RTVSPropertyOp50
 70
     1
102
RTVSPropertyOp51
 70
     0
102
RTVSPropertyOp52
 70
     0
102
RTVSPropertyOp53
 70
     1
102
RTVSPropertyOp54
 70
     1
102
RTVSPropertyOp55
 70
     1
102
RTVSPropertyOp56
 70
     1
102
RTVSPropertyOp57
 70
     1
102
RTVSPropertyOp58
 70
     1
102
RTVSPropertyOp59
 70
     1
102
RTVSPropertyOp60
 70
     1
102
RTVSPropertyOp61
 70
     1
102
RTVSPropertyOp62
 70
     1
  0
XRECORD
  5
B4F6
102
{ACAD_REACTORS
330
B4F5
102
}
330
B4F5
100
AcDbXrecord
280
     1
102
RTVSPost2010Prop28
280
     0
102
RTVSPost2010PropOp28
 70
     1
102
RTVSPost2010Prop29
280
     1
102
RTVSPost2010PropOp29
 70
     1
102
RTVSPost2010Prop30
280
     1
102
RTVSPost2010PropOp30
 70
     1
102
RTVSPost2010Prop31
280
     0
102
RTVSPost2010PropOp31
 70
     1
102
RTVSPost2010Prop32
280
     0
102
RTVSPost2010PropOp32
 70
     1
102
RTVSPost2010Prop33
280
     0
102
RTVSPost2010PropOp33
 70
     1
102
RTVSPost2010Prop34
280
     0
102
RTVSPost2010PropOp34
 70
     1
102
RTVSPost2010Prop35
280
     0
102
RTVSPost2010PropOp35
 70
     1
102
RTVSPost2010Prop36
280
     0
102
RTVSPost2010PropOp36
 70
     1
102
RTVSPost2010Prop37
 90
       50
102
RTVSPost2010PropOp37
 70
     1
102
RTVSPost2010Prop38
140
0.0
102
RTVSPost2010PropOp38
 70
     1
102
RTVSPost2010Prop39
140
1.0
102
RTVSPost2010PropOp39
 70
     1
102
RTVSPost2010Prop40
 90
        0
102
RTVSPost2010PropOp40
 70
     1
102
RTVSPost2010Prop41ColorIndex
 90
       18
102
RTVSPost2010Prop41ColorRGB
 90
        0
102
RTVSPost2010PropOp41
 70
     1
102
RTVSPost2010Prop42
 90
       50
102
RTVSPost2010PropOp42
 70
     1
102
RTVSPost2010Prop43
 90
        3
102
RTVSPost2010PropOp43
 70
     1
102
RTVSPost2010Prop44ColorIndex
 90
        5
102
RTVSPost2010Prop44ColorRGB
 90
      255
102
RTVSPost2010PropOp44
 70
     1
102
RTVSPost2010Prop45
280
     0
102
RTVSPost2010PropOp45
 70
     1
102
RTVSPost2010Prop46
 90
       50
102
RTVSPost2010PropOp46
 70
     1
102
RTVSPost2010Prop47
 90
       50
102
RTVSPost2010PropOp47
 70
     1
102
RTVSPost2010Prop48
 90
       50
102
RTVSPost2010PropOp48
 70
     1
102
RTVSPost2010Prop49
280
     0
102
RTVSPost2010PropOp49
 70
     1
102
RTVSPost2010Prop50
 90
       50
102
RTVSPost2010PropOp50
 70
     1
102
RTVSPost2010Prop51ColorIndex
 90
      256
102
RTVSPost2010Prop51ColorRGB
 90
-16777216
102
RTVSPost2010PropOp51
 70
     0
102
RTVSPost2010Prop52
140
1.0
102
RTVSPost2010PropOp52
 70
     0
102
RTVSPost2010Prop53
 90
        2
102
RTVSPost2010PropOp53
 70
     1
102
RTVSPost2010Prop54
  1
strokes_ogs.tif
102
RTVSPost2010PropOp54
 70
     1
102
RTVSPost2010Prop55
280
     0
102
RTVSPost2010PropOp55
 70
     1
102
RTVSPost2010Prop56
140
1.0
102
RTVSPost2010PropOp56
 70
     1
102
RTVSPost2010Prop57
140
1.0
102
RTVSPost2010PropOp57
 70
     1
102
RTVSPropertyOp0
 70
     1
102
RTVSPropertyOp1
 70
     1
102
RTVSPropertyOp2
 70
     1
102
RTVSPropertyOp3
 70
     1
102
RTVSPropertyOp4
 70
     1
102
RTVSPropertyOp5
 70
     1
102
RTVSPropertyOp6
 70
     1
102
RTVSPropertyOp7
 70
     1
102
RTVSPropertyOp8
 70
     1
102
RTVSPropertyOp9
 70
     1
102
RTVSPropertyOp10
 70
     1
102
RTVSPropertyOp11
 70
     1
102
RTVSPropertyOp12
 70
     1
102
RTVSPropertyOp13
 70
     1
102
RTVSPropertyOp14
 70
     1
102
RTVSPropertyOp15
 70
     1
102
RTVSPropertyOp16
 70
     1
102
RTVSPropertyOp17
 70
     1
102
RTVSPropertyOp18
 70
     1
102
RTVSPropertyOp19
 70
     1
102
RTVSPropertyOp20
 70
     1
102
RTVSPropertyOp21
 70
     1
102
RTVSPropertyOp22
 70
     1
102
RTVSPropertyOp23
 70
     1
102
RTVSPropertyOp24
 70
     1
102
RTVSPropertyOp25
 70
     1
102
RTVSPropertyOp26
 70
     1
102
RTVSPropertyOp27
 70
     1
102
RTVSPropertyOp28
 70
     1
102
RTVSPropertyOp29
 70
     1
102
RTVSPropertyOp30
 70
     1
102
RTVSPropertyOp31
 70
     1
102
RTVSPropertyOp32
 70
     1
102
RTVSPropertyOp33
 70
     1
102
RTVSPropertyOp34
 70
     1
102
RTVSPropertyOp35
 70
     1
102
RTVSPropertyOp36
 70
     1
102
RTVSPropertyOp37
 70
     1
102
RTVSPropertyOp38
 70
     1
102
RTVSPropertyOp39
 70
     1
102
RTVSPropertyOp40
 70
     1
102
RTVSPropertyOp41
 70
     1
102
RTVSPropertyOp42
 70
     1
102
RTVSPropertyOp43
 70
     1
102
RTVSPropertyOp44
 70
     1
102
RTVSPropertyOp45
 70
     1
102
RTVSPropertyOp46
 70
     1
102
RTVSPropertyOp47
 70
     1
102
RTVSPropertyOp48
 70
     1
102
RTVSPropertyOp49
 70
     1
102
RTVSPropertyOp50
 70
     1
102
RTVSPropertyOp51
 70
     0
102
RTVSPropertyOp52
 70
     0
102
RTVSPropertyOp53
 70
     1
102
RTVSPropertyOp54
 70
     1
102
RTVSPropertyOp55
 70
     1
102
RTVSPropertyOp56
 70
     1
102
RTVSPropertyOp57
 70
     1
102
RTVSPropertyOp58
 70
     1
102
RTVSPropertyOp59
 70
     1
102
RTVSPropertyOp60
 70
     1
102
RTVSPropertyOp61
 70
     1
102
RTVSPropertyOp62
 70
     1
  0
XRECORD
  5
B4F8
102
{ACAD_REACTORS
330
B4F7
102
}
330
B4F7
100
AcDbXrecord
280
     1
102
RTVSPost2010Prop28
280
     0
102
RTVSPost2010PropOp28
 70
     1
102
RTVSPost2010Prop29
280
     1
102
RTVSPost2010PropOp29
 70
     1
102
RTVSPost2010Prop30
280
     1
102
RTVSPost2010PropOp30
 70
     1
102
RTVSPost2010Prop31
280
     0
102
RTVSPost2010PropOp31
 70
     1
102
RTVSPost2010Prop32
280
     0
102
RTVSPost2010PropOp32
 70
     1
102
RTVSPost2010Prop33
280
     0
102
RTVSPost2010PropOp33
 70
     1
102
RTVSPost2010Prop34
280
     0
102
RTVSPost2010PropOp34
 70
     1
102
RTVSPost2010Prop35
280
     0
102
RTVSPost2010PropOp35
 70
     1
102
RTVSPost2010Prop36
280
     0
102
RTVSPost2010PropOp36
 70
     1
102
RTVSPost2010Prop37
 90
       50
102
RTVSPost2010PropOp37
 70
     1
102
RTVSPost2010Prop38
140
0.0
102
RTVSPost2010PropOp38
 70
     1
102
RTVSPost2010Prop39
140
1.0
102
RTVSPost2010PropOp39
 70
     1
102
RTVSPost2010Prop40
 90
        0
102
RTVSPost2010PropOp40
 70
     1
102
RTVSPost2010Prop41ColorIndex
 90
       18
102
RTVSPost2010Prop41ColorRGB
 90
        0
102
RTVSPost2010PropOp41
 70
     1
102
RTVSPost2010Prop42
 90
       50
102
RTVSPost2010PropOp42
 70
     1
102
RTVSPost2010Prop43
 90
        3
102
RTVSPost2010PropOp43
 70
     1
102
RTVSPost2010Prop44ColorIndex
 90
        5
102
RTVSPost2010Prop44ColorRGB
 90
      255
102
RTVSPost2010PropOp44
 70
     1
102
RTVSPost2010Prop45
280
     0
102
RTVSPost2010PropOp45
 70
     1
102
RTVSPost2010Prop46
 90
       50
102
RTVSPost2010PropOp46
 70
     1
102
RTVSPost2010Prop47
 90
       50
102
RTVSPost2010PropOp47
 70
     1
102
RTVSPost2010Prop48
 90
       50
102
RTVSPost2010PropOp48
 70
     1
102
RTVSPost2010Prop49
280
     0
102
RTVSPost2010PropOp49
 70
     1
102
RTVSPost2010Prop50
 90
       50
102
RTVSPost2010PropOp50
 70
     1
102
RTVSPost2010Prop51ColorIndex
 90
      256
102
RTVSPost2010Prop51ColorRGB
 90
-16777216
102
RTVSPost2010PropOp51
 70
     0
102
RTVSPost2010Prop52
140
1.0
102
RTVSPost2010PropOp52
 70
     0
102
RTVSPost2010Prop53
 90
        2
102
RTVSPost2010PropOp53
 70
     1
102
RTVSPost2010Prop54
  1
strokes_ogs.tif
102
RTVSPost2010PropOp54
 70
     1
102
RTVSPost2010Prop55
280
     0
102
RTVSPost2010PropOp55
 70
     1
102
RTVSPost2010Prop56
140
1.0
102
RTVSPost2010PropOp56
 70
     1
102
RTVSPost2010Prop57
140
1.0
102
RTVSPost2010PropOp57
 70
     1
102
RTVSPropertyOp0
 70
     1
102
RTVSPropertyOp1
 70
     1
102
RTVSPropertyOp2
 70
     1
102
RTVSPropertyOp3
 70
     1
102
RTVSPropertyOp4
 70
     1
102
RTVSPropertyOp5
 70
     1
102
RTVSPropertyOp6
 70
     1
102
RTVSPropertyOp7
 70
     1
102
RTVSPropertyOp8
 70
     1
102
RTVSPropertyOp9
 70
     1
102
RTVSPropertyOp10
 70
     1
102
RTVSPropertyOp11
 70
     1
102
RTVSPropertyOp12
 70
     1
102
RTVSPropertyOp13
 70
     1
102
RTVSPropertyOp14
 70
     1
102
RTVSPropertyOp15
 70
     1
102
RTVSPropertyOp16
 70
     1
102
RTVSPropertyOp17
 70
     1
102
RTVSPropertyOp18
 70
     1
102
RTVSPropertyOp19
 70
     1
102
RTVSPropertyOp20
 70
     1
102
RTVSPropertyOp21
 70
     1
102
RTVSPropertyOp22
 70
     1
102
RTVSPropertyOp23
 70
     1
102
RTVSPropertyOp24
 70
     1
102
RTVSPropertyOp25
 70
     1
102
RTVSPropertyOp26
 70
     1
102
RTVSPropertyOp27
 70
     1
102
RTVSPropertyOp28
 70
     1
102
RTVSPropertyOp29
 70
     1
102
RTVSPropertyOp30
 70
     1
102
RTVSPropertyOp31
 70
     1
102
RTVSPropertyOp32
 70
     1
102
RTVSPropertyOp33
 70
     1
102
RTVSPropertyOp34
 70
     1
102
RTVSPropertyOp35
 70
     1
102
RTVSPropertyOp36
 70
     1
102
RTVSPropertyOp37
 70
     1
102
RTVSPropertyOp38
 70
     1
102
RTVSPropertyOp39
 70
     1
102
RTVSPropertyOp40
 70
     1
102
RTVSPropertyOp41
 70
     1
102
RTVSPropertyOp42
 70
     1
102
RTVSPropertyOp43
 70
     1
102
RTVSPropertyOp44
 70
     1
102
RTVSPropertyOp45
 70
     1
102
RTVSPropertyOp46
 70
     1
102
RTVSPropertyOp47
 70
     1
102
RTVSPropertyOp48
 70
     1
102
RTVSPropertyOp49
 70
     1
102
RTVSPropertyOp50
 70
     1
102
RTVSPropertyOp51
 70
     0
102
RTVSPropertyOp52
 70
     0
102
RTVSPropertyOp53
 70
     1
102
RTVSPropertyOp54
 70
     1
102
RTVSPropertyOp55
 70
     1
102
RTVSPropertyOp56
 70
     1
102
RTVSPropertyOp57
 70
     1
102
RTVSPropertyOp58
 70
     1
102
RTVSPropertyOp59
 70
     1
102
RTVSPropertyOp60
 70
     1
102
RTVSPropertyOp61
 70
     1
102
RTVSPropertyOp62
 70
     1
  0
XRECORD
  5
B500
102
{ACAD_REACTORS
330
B4FF
102
}
330
B4FF
100
AcDbXrecord
280
     1
102
RTVSPost2010Prop28
280
     0
102
RTVSPost2010PropOp28
 70
     1
102
RTVSPost2010Prop29
280
     1
102
RTVSPost2010PropOp29
 70
     1
102
RTVSPost2010Prop30
280
     1
102
RTVSPost2010PropOp30
 70
     1
102
RTVSPost2010Prop31
280
     0
102
RTVSPost2010PropOp31
 70
     1
102
RTVSPost2010Prop32
280
     0
102
RTVSPost2010PropOp32
 70
     1
102
RTVSPost2010Prop33
280
     0
102
RTVSPost2010PropOp33
 70
     1
102
RTVSPost2010Prop34
280
     0
102
RTVSPost2010PropOp34
 70
     1
102
RTVSPost2010Prop35
280
     0
102
RTVSPost2010PropOp35
 70
     1
102
RTVSPost2010Prop36
280
     0
102
RTVSPost2010PropOp36
 70
     1
102
RTVSPost2010Prop37
 90
       50
102
RTVSPost2010PropOp37
 70
     1
102
RTVSPost2010Prop38
140
0.0
102
RTVSPost2010PropOp38
 70
     1
102
RTVSPost2010Prop39
140
1.0
102
RTVSPost2010PropOp39
 70
     1
102
RTVSPost2010Prop40
 90
        0
102
RTVSPost2010PropOp40
 70
     1
102
RTVSPost2010Prop41ColorIndex
 90
       18
102
RTVSPost2010Prop41ColorRGB
 90
        0
102
RTVSPost2010PropOp41
 70
     1
102
RTVSPost2010Prop42
 90
       50
102
RTVSPost2010PropOp42
 70
     1
102
RTVSPost2010Prop43
 90
        3
102
RTVSPost2010PropOp43
 70
     1
102
RTVSPost2010Prop44ColorIndex
 90
        5
102
RTVSPost2010Prop44ColorRGB
 90
      255
102
RTVSPost2010PropOp44
 70
     1
102
RTVSPost2010Prop45
280
     0
102
RTVSPost2010PropOp45
 70
     1
102
RTVSPost2010Prop46
 90
       50
102
RTVSPost2010PropOp46
 70
     1
102
RTVSPost2010Prop47
 90
       50
102
RTVSPost2010PropOp47
 70
     1
102
RTVSPost2010Prop48
 90
       50
102
RTVSPost2010PropOp48
 70
     1
102
RTVSPost2010Prop49
280
     0
102
RTVSPost2010PropOp49
 70
     1
102
RTVSPost2010Prop50
 90
       50
102
RTVSPost2010PropOp50
 70
     1
102
RTVSPost2010Prop51ColorIndex
 90
      256
102
RTVSPost2010Prop51ColorRGB
 90
-16777216
102
RTVSPost2010PropOp51
 70
     0
102
RTVSPost2010Prop52
140
1.0
102
RTVSPost2010PropOp52
 70
     0
102
RTVSPost2010Prop53
 90
        2
102
RTVSPost2010PropOp53
 70
     1
102
RTVSPost2010Prop54
  1
strokes_ogs.tif
102
RTVSPost2010PropOp54
 70
     1
102
RTVSPost2010Prop55
280
     0
102
RTVSPost2010PropOp55
 70
     1
102
RTVSPost2010Prop56
140
1.0
102
RTVSPost2010PropOp56
 70
     1
102
RTVSPost2010Prop57
140
1.0
102
RTVSPost2010PropOp57
 70
     1
102
RTVSPropertyOp0
 70
     1
102
RTVSPropertyOp1
 70
     1
102
RTVSPropertyOp2
 70
     1
102
RTVSPropertyOp3
 70
     1
102
RTVSPropertyOp4
 70
     1
102
RTVSPropertyOp5
 70
     1
102
RTVSPropertyOp6
 70
     1
102
RTVSPropertyOp7
 70
     1
102
RTVSPropertyOp8
 70
     1
102
RTVSPropertyOp9
 70
     1
102
RTVSPropertyOp10
 70
     1
102
RTVSPropertyOp11
 70
     1
102
RTVSPropertyOp12
 70
     1
102
RTVSPropertyOp13
 70
     1
102
RTVSPropertyOp14
 70
     1
102
RTVSPropertyOp15
 70
     1
102
RTVSPropertyOp16
 70
     1
102
RTVSPropertyOp17
 70
     1
102
RTVSPropertyOp18
 70
     1
102
RTVSPropertyOp19
 70
     1
102
RTVSPropertyOp20
 70
     1
102
RTVSPropertyOp21
 70
     1
102
RTVSPropertyOp22
 70
     1
102
RTVSPropertyOp23
 70
     1
102
RTVSPropertyOp24
 70
     1
102
RTVSPropertyOp25
 70
     1
102
RTVSPropertyOp26
 70
     1
102
RTVSPropertyOp27
 70
     1
102
RTVSPropertyOp28
 70
     1
102
RTVSPropertyOp29
 70
     1
102
RTVSPropertyOp30
 70
     1
102
RTVSPropertyOp31
 70
     1
102
RTVSPropertyOp32
 70
     1
102
RTVSPropertyOp33
 70
     1
102
RTVSPropertyOp34
 70
     1
102
RTVSPropertyOp35
 70
     1
102
RTVSPropertyOp36
 70
     1
102
RTVSPropertyOp37
 70
     1
102
RTVSPropertyOp38
 70
     1
102
RTVSPropertyOp39
 70
     1
102
RTVSPropertyOp40
 70
     1
102
RTVSPropertyOp41
 70
     1
102
RTVSPropertyOp42
 70
     1
102
RTVSPropertyOp43
 70
     1
102
RTVSPropertyOp44
 70
     1
102
RTVSPropertyOp45
 70
     1
102
RTVSPropertyOp46
 70
     1
102
RTVSPropertyOp47
 70
     1
102
RTVSPropertyOp48
 70
     1
102
RTVSPropertyOp49
 70
     1
102
RTVSPropertyOp50
 70
     1
102
RTVSPropertyOp51
 70
     0
102
RTVSPropertyOp52
 70
     0
102
RTVSPropertyOp53
 70
     1
102
RTVSPropertyOp54
 70
     1
102
RTVSPropertyOp55
 70
     1
102
RTVSPropertyOp56
 70
     1
102
RTVSPropertyOp57
 70
     1
102
RTVSPropertyOp58
 70
     1
102
RTVSPropertyOp59
 70
     1
102
RTVSPropertyOp60
 70
     1
102
RTVSPropertyOp61
 70
     1
102
RTVSPropertyOp62
 70
     1
  0
XRECORD
  5
B51C
102
{ACAD_REACTORS
330
B51B
102
}
330
B51B
100
AcDbXrecord
280
     1
102
RTVSPost2010Prop28
280
     0
102
RTVSPost2010PropOp28
 70
     1
102
RTVSPost2010Prop29
280
     1
102
RTVSPost2010PropOp29
 70
     1
102
RTVSPost2010Prop30
280
     1
102
RTVSPost2010PropOp30
 70
     1
102
RTVSPost2010Prop31
280
     0
102
RTVSPost2010PropOp31
 70
     1
102
RTVSPost2010Prop32
280
     0
102
RTVSPost2010PropOp32
 70
     1
102
RTVSPost2010Prop33
280
     0
102
RTVSPost2010PropOp33
 70
     1
102
RTVSPost2010Prop34
280
     0
102
RTVSPost2010PropOp34
 70
     1
102
RTVSPost2010Prop35
280
     0
102
RTVSPost2010PropOp35
 70
     1
102
RTVSPost2010Prop36
280
     0
102
RTVSPost2010PropOp36
 70
     1
102
RTVSPost2010Prop37
 90
       50
102
RTVSPost2010PropOp37
 70
     0
102
RTVSPost2010Prop38
140
0.0
102
RTVSPost2010PropOp38
 70
     0
102
RTVSPost2010Prop39
140
1.0
102
RTVSPost2010PropOp39
 70
     0
102
RTVSPost2010Prop40
 90
        0
102
RTVSPost2010PropOp40
 70
     0
102
RTVSPost2010Prop41ColorIndex
 90
       18
102
RTVSPost2010Prop41ColorRGB
 90
        0
102
RTVSPost2010PropOp41
 70
     0
102
RTVSPost2010Prop42
 90
       50
102
RTVSPost2010PropOp42
 70
     0
102
RTVSPost2010Prop43
 90
        3
102
RTVSPost2010PropOp43
 70
     0
102
RTVSPost2010Prop44ColorIndex
 90
        5
102
RTVSPost2010Prop44ColorRGB
 90
      255
102
RTVSPost2010PropOp44
 70
     0
102
RTVSPost2010Prop45
280
     0
102
RTVSPost2010PropOp45
 70
     1
102
RTVSPost2010Prop46
 90
       50
102
RTVSPost2010PropOp46
 70
     0
102
RTVSPost2010Prop47
 90
       50
102
RTVSPost2010PropOp47
 70
     0
102
RTVSPost2010Prop48
 90
       50
102
RTVSPost2010PropOp48
 70
     0
102
RTVSPost2010Prop49
280
     0
102
RTVSPost2010PropOp49
 70
     1
102
RTVSPost2010Prop50
 90
       50
102
RTVSPost2010PropOp50
 70
     0
102
RTVSPost2010Prop51ColorIndex
 90
      256
102
RTVSPost2010Prop51ColorRGB
 90
-16777216
102
RTVSPost2010PropOp51
 70
     0
102
RTVSPost2010Prop52
140
1.0
102
RTVSPost2010PropOp52
 70
     0
102
RTVSPost2010Prop53
 90
        2
102
RTVSPost2010PropOp53
 70
     0
102
RTVSPost2010Prop54
  1
strokes_ogs.tif
102
RTVSPost2010PropOp54
 70
     0
102
RTVSPost2010Prop55
280
     0
102
RTVSPost2010PropOp55
 70
     1
102
RTVSPost2010Prop56
140
1.0
102
RTVSPost2010PropOp56
 70
     0
102
RTVSPost2010Prop57
140
1.0
102
RTVSPost2010PropOp57
 70
     0
102
RTVSPropertyOp0
 70
     0
102
RTVSPropertyOp1
 70
     0
102
RTVSPropertyOp2
 70
     0
102
RTVSPropertyOp3
 70
     0
102
RTVSPropertyOp4
 70
     0
102
RTVSPropertyOp5
 70
     0
102
RTVSPropertyOp6
 70
     0
102
RTVSPropertyOp7
 70
     0
102
RTVSPropertyOp8
 70
     0
102
RTVSPropertyOp9
 70
     0
102
RTVSPropertyOp10
 70
     0
102
RTVSPropertyOp11
 70
     0
102
RTVSPropertyOp12
 70
     0
102
RTVSPropertyOp13
 70
     0
102
RTVSPropertyOp14
 70
     2
102
RTVSPropertyOp15
 70
     0
102
RTVSPropertyOp16
 70
     0
102
RTVSPropertyOp17
 70
     0
102
RTVSPropertyOp18
 70
     0
102
RTVSPropertyOp19
 70
     0
102
RTVSPropertyOp20
 70
     0
102
RTVSPropertyOp21
 70
     0
102
RTVSPropertyOp22
 70
     0
102
RTVSPropertyOp23
 70
     0
102
RTVSPropertyOp24
 70
     0
102
RTVSPropertyOp25
 70
     0
102
RTVSPropertyOp26
 70
     0
102
RTVSPropertyOp27
 70
     0
102
RTVSPropertyOp28
 70
     1
102
RTVSPropertyOp29
 70
     1
102
RTVSPropertyOp30
 70
     1
102
RTVSPropertyOp31
 70
     1
102
RTVSPropertyOp32
 70
     1
102
RTVSPropertyOp33
 70
     1
102
RTVSPropertyOp34
 70
     1
102
RTVSPropertyOp35
 70
     1
102
RTVSPropertyOp36
 70
     1
102
RTVSPropertyOp37
 70
     0
102
RTVSPropertyOp38
 70
     0
102
RTVSPropertyOp39
 70
     0
102
RTVSPropertyOp40
 70
     0
102
RTVSPropertyOp41
 70
     0
102
RTVSPropertyOp42
 70
     0
102
RTVSPropertyOp43
 70
     0
102
RTVSPropertyOp44
 70
     0
102
RTVSPropertyOp45
 70
     1
102
RTVSPropertyOp46
 70
     0
102
RTVSPropertyOp47
 70
     0
102
RTVSPropertyOp48
 70
     0
102
RTVSPropertyOp49
 70
     1
102
RTVSPropertyOp50
 70
     0
102
RTVSPropertyOp51
 70
     0
102
RTVSPropertyOp52
 70
     0
102
RTVSPropertyOp53
 70
     0
102
RTVSPropertyOp54
 70
     0
102
RTVSPropertyOp55
 70
     1
102
RTVSPropertyOp56
 70
     0
102
RTVSPropertyOp57
 70
     0
102
RTVSPropertyOp58
 70
     0
102
RTVSPropertyOp59
 70
     0
102
RTVSPropertyOp60
 70
     0
102
RTVSPropertyOp61
 70
     0
102
RTVSPropertyOp62
 70
     0
  0
XRECORD
  5
B50C
102
{ACAD_REACTORS
330
B50B
102
}
330
B50B
100
AcDbXrecord
280
     1
102
RTVSPost2010Prop28
280
     0
102
RTVSPost2010PropOp28
 70
     1
102
RTVSPost2010Prop29
280
     1
102
RTVSPost2010PropOp29
 70
     1
102
RTVSPost2010Prop30
280
     1
102
RTVSPost2010PropOp30
 70
     1
102
RTVSPost2010Prop31
280
     0
102
RTVSPost2010PropOp31
 70
     1
102
RTVSPost2010Prop32
280
     0
102
RTVSPost2010PropOp32
 70
     1
102
RTVSPost2010Prop33
280
     0
102
RTVSPost2010PropOp33
 70
     1
102
RTVSPost2010Prop34
280
     0
102
RTVSPost2010PropOp34
 70
     1
102
RTVSPost2010Prop35
280
     0
102
RTVSPost2010PropOp35
 70
     1
102
RTVSPost2010Prop36
280
     0
102
RTVSPost2010PropOp36
 70
     1
102
RTVSPost2010Prop37
 90
       50
102
RTVSPost2010PropOp37
 70
     1
102
RTVSPost2010Prop38
140
0.0
102
RTVSPost2010PropOp38
 70
     1
102
RTVSPost2010Prop39
140
1.0
102
RTVSPost2010PropOp39
 70
     1
102
RTVSPost2010Prop40
 90
        0
102
RTVSPost2010PropOp40
 70
     1
102
RTVSPost2010Prop41ColorIndex
 90
       18
102
RTVSPost2010Prop41ColorRGB
 90
        0
102
RTVSPost2010PropOp41
 70
     1
102
RTVSPost2010Prop42
 90
       50
102
RTVSPost2010PropOp42
 70
     1
102
RTVSPost2010Prop43
 90
        3
102
RTVSPost2010PropOp43
 70
     1
102
RTVSPost2010Prop44ColorIndex
 90
        5
102
RTVSPost2010Prop44ColorRGB
 90
      255
102
RTVSPost2010PropOp44
 70
     1
102
RTVSPost2010Prop45
280
     0
102
RTVSPost2010PropOp45
 70
     1
102
RTVSPost2010Prop46
 90
       50
102
RTVSPost2010PropOp46
 70
     1
102
RTVSPost2010Prop47
 90
       50
102
RTVSPost2010PropOp47
 70
     1
102
RTVSPost2010Prop48
 90
       50
102
RTVSPost2010PropOp48
 70
     1
102
RTVSPost2010Prop49
280
     0
102
RTVSPost2010PropOp49
 70
     1
102
RTVSPost2010Prop50
 90
       50
102
RTVSPost2010PropOp50
 70
     1
102
RTVSPost2010Prop51ColorIndex
 90
      256
102
RTVSPost2010Prop51ColorRGB
 90
-16777216
102
RTVSPost2010PropOp51
 70
     0
102
RTVSPost2010Prop52
140
1.0
102
RTVSPost2010PropOp52
 70
     0
102
RTVSPost2010Prop53
 90
        2
102
RTVSPost2010PropOp53
 70
     1
102
RTVSPost2010Prop54
  1
strokes_ogs.tif
102
RTVSPost2010PropOp54
 70
     1
102
RTVSPost2010Prop55
280
     0
102
RTVSPost2010PropOp55
 70
     1
102
RTVSPost2010Prop56
140
1.0
102
RTVSPost2010PropOp56
 70
     1
102
RTVSPost2010Prop57
140
1.0
102
RTVSPost2010PropOp57
 70
     1
102
RTVSPropertyOp0
 70
     1
102
RTVSPropertyOp1
 70
     1
102
RTVSPropertyOp2
 70
     1
102
RTVSPropertyOp3
 70
     1
102
RTVSPropertyOp4
 70
     1
102
RTVSPropertyOp5
 70
     1
102
RTVSPropertyOp6
 70
     1
102
RTVSPropertyOp7
 70
     1
102
RTVSPropertyOp8
 70
     1
102
RTVSPropertyOp9
 70
     1
102
RTVSPropertyOp10
 70
     1
102
RTVSPropertyOp11
 70
     1
102
RTVSPropertyOp12
 70
     1
102
RTVSPropertyOp13
 70
     1
102
RTVSPropertyOp14
 70
     1
102
RTVSPropertyOp15
 70
     1
102
RTVSPropertyOp16
 70
     1
102
RTVSPropertyOp17
 70
     1
102
RTVSPropertyOp18
 70
     1
102
RTVSPropertyOp19
 70
     1
102
RTVSPropertyOp20
 70
     1
102
RTVSPropertyOp21
 70
     1
102
RTVSPropertyOp22
 70
     1
102
RTVSPropertyOp23
 70
     1
102
RTVSPropertyOp24
 70
     1
102
RTVSPropertyOp25
 70
     1
102
RTVSPropertyOp26
 70
     1
102
RTVSPropertyOp27
 70
     1
102
RTVSPropertyOp28
 70
     1
102
RTVSPropertyOp29
 70
     1
102
RTVSPropertyOp30
 70
     1
102
RTVSPropertyOp31
 70
     1
102
RTVSPropertyOp32
 70
     1
102
RTVSPropertyOp33
 70
     1
102
RTVSPropertyOp34
 70
     1
102
RTVSPropertyOp35
 70
     1
102
RTVSPropertyOp36
 70
     1
102
RTVSPropertyOp37
 70
     1
102
RTVSPropertyOp38
 70
     1
102
RTVSPropertyOp39
 70
     1
102
RTVSPropertyOp40
 70
     1
102
RTVSPropertyOp41
 70
     1
102
RTVSPropertyOp42
 70
     1
102
RTVSPropertyOp43
 70
     1
102
RTVSPropertyOp44
 70
     1
102
RTVSPropertyOp45
 70
     1
102
RTVSPropertyOp46
 70
     1
102
RTVSPropertyOp47
 70
     1
102
RTVSPropertyOp48
 70
     1
102
RTVSPropertyOp49
 70
     1
102
RTVSPropertyOp50
 70
     1
102
RTVSPropertyOp51
 70
     0
102
RTVSPropertyOp52
 70
     0
102
RTVSPropertyOp53
 70
     1
102
RTVSPropertyOp54
 70
     1
102
RTVSPropertyOp55
 70
     1
102
RTVSPropertyOp56
 70
     1
102
RTVSPropertyOp57
 70
     1
102
RTVSPropertyOp58
 70
     1
102
RTVSPropertyOp59
 70
     1
102
RTVSPropertyOp60
 70
     1
102
RTVSPropertyOp61
 70
     1
102
RTVSPropertyOp62
 70
     1
  0
XRECORD
  5
B51E
102
{ACAD_REACTORS
330
B51D
102
}
330
B51D
100
AcDbXrecord
280
     1
102
RTVSPost2010Prop28
280
     0
102
RTVSPost2010PropOp28
 70
     1
102
RTVSPost2010Prop29
280
     1
102
RTVSPost2010PropOp29
 70
     1
102
RTVSPost2010Prop30
280
     1
102
RTVSPost2010PropOp30
 70
     1
102
RTVSPost2010Prop31
280
     0
102
RTVSPost2010PropOp31
 70
     1
102
RTVSPost2010Prop32
280
     0
102
RTVSPost2010PropOp32
 70
     1
102
RTVSPost2010Prop33
280
     0
102
RTVSPost2010PropOp33
 70
     1
102
RTVSPost2010Prop34
280
     0
102
RTVSPost2010PropOp34
 70
     1
102
RTVSPost2010Prop35
280
     0
102
RTVSPost2010PropOp35
 70
     1
102
RTVSPost2010Prop36
280
     0
102
RTVSPost2010PropOp36
 70
     1
102
RTVSPost2010Prop37
 90
       50
102
RTVSPost2010PropOp37
 70
     0
102
RTVSPost2010Prop38
140
0.0
102
RTVSPost2010PropOp38
 70
     0
102
RTVSPost2010Prop39
140
1.0
102
RTVSPost2010PropOp39
 70
     0
102
RTVSPost2010Prop40
 90
        0
102
RTVSPost2010PropOp40
 70
     0
102
RTVSPost2010Prop41ColorIndex
 90
       18
102
RTVSPost2010Prop41ColorRGB
 90
        0
102
RTVSPost2010PropOp41
 70
     0
102
RTVSPost2010Prop42
 90
       50
102
RTVSPost2010PropOp42
 70
     0
102
RTVSPost2010Prop43
 90
        3
102
RTVSPost2010PropOp43
 70
     0
102
RTVSPost2010Prop44ColorIndex
 90
        5
102
RTVSPost2010Prop44ColorRGB
 90
      255
102
RTVSPost2010PropOp44
 70
     0
102
RTVSPost2010Prop45
280
     0
102
RTVSPost2010PropOp45
 70
     1
102
RTVSPost2010Prop46
 90
       50
102
RTVSPost2010PropOp46
 70
     0
102
RTVSPost2010Prop47
 90
       50
102
RTVSPost2010PropOp47
 70
     0
102
RTVSPost2010Prop48
 90
       50
102
RTVSPost2010PropOp48
 70
     0
102
RTVSPost2010Prop49
280
     0
102
RTVSPost2010PropOp49
 70
     1
102
RTVSPost2010Prop50
 90
       50
102
RTVSPost2010PropOp50
 70
     0
102
RTVSPost2010Prop51ColorIndex
 90
      256
102
RTVSPost2010Prop51ColorRGB
 90
-16777216
102
RTVSPost2010PropOp51
 70
     0
102
RTVSPost2010Prop52
140
1.0
102
RTVSPost2010PropOp52
 70
     0
102
RTVSPost2010Prop53
 90
        2
102
RTVSPost2010PropOp53
 70
     0
102
RTVSPost2010Prop54
  1
strokes_ogs.tif
102
RTVSPost2010PropOp54
 70
     0
102
RTVSPost2010Prop55
280
     0
102
RTVSPost2010PropOp55
 70
     1
102
RTVSPost2010Prop56
140
1.0
102
RTVSPost2010PropOp56
 70
     0
102
RTVSPost2010Prop57
140
1.0
102
RTVSPost2010PropOp57
 70
     0
102
RTVSPropertyOp0
 70
     0
102
RTVSPropertyOp1
 70
     0
102
RTVSPropertyOp2
 70
     0
102
RTVSPropertyOp3
 70
     0
102
RTVSPropertyOp4
 70
     0
102
RTVSPropertyOp5
 70
     0
102
RTVSPropertyOp6
 70
     0
102
RTVSPropertyOp7
 70
     0
102
RTVSPropertyOp8
 70
     0
102
RTVSPropertyOp9
 70
     0
102
RTVSPropertyOp10
 70
     0
102
RTVSPropertyOp11
 70
     0
102
RTVSPropertyOp12
 70
     0
102
RTVSPropertyOp13
 70
     0
102
RTVSPropertyOp14
 70
     2
102
RTVSPropertyOp15
 70
     0
102
RTVSPropertyOp16
 70
     0
102
RTVSPropertyOp17
 70
     0
102
RTVSPropertyOp18
 70
     0
102
RTVSPropertyOp19
 70
     0
102
RTVSPropertyOp20
 70
     0
102
RTVSPropertyOp21
 70
     0
102
RTVSPropertyOp22
 70
     0
102
RTVSPropertyOp23
 70
     0
102
RTVSPropertyOp24
 70
     0
102
RTVSPropertyOp25
 70
     0
102
RTVSPropertyOp26
 70
     0
102
RTVSPropertyOp27
 70
     0
102
RTVSPropertyOp28
 70
     1
102
RTVSPropertyOp29
 70
     1
102
RTVSPropertyOp30
 70
     1
102
RTVSPropertyOp31
 70
     1
102
RTVSPropertyOp32
 70
     1
102
RTVSPropertyOp33
 70
     1
102
RTVSPropertyOp34
 70
     1
102
RTVSPropertyOp35
 70
     1
102
RTVSPropertyOp36
 70
     1
102
RTVSPropertyOp37
 70
     0
102
RTVSPropertyOp38
 70
     0
102
RTVSPropertyOp39
 70
     0
102
RTVSPropertyOp40
 70
     0
102
RTVSPropertyOp41
 70
     0
102
RTVSPropertyOp42
 70
     0
102
RTVSPropertyOp43
 70
     0
102
RTVSPropertyOp44
 70
     0
102
RTVSPropertyOp45
 70
     1
102
RTVSPropertyOp46
 70
     0
102
RTVSPropertyOp47
 70
     0
102
RTVSPropertyOp48
 70
     0
102
RTVSPropertyOp49
 70
     1
102
RTVSPropertyOp50
 70
     0
102
RTVSPropertyOp51
 70
     0
102
RTVSPropertyOp52
 70
     0
102
RTVSPropertyOp53
 70
     0
102
RTVSPropertyOp54
 70
     0
102
RTVSPropertyOp55
 70
     1
102
RTVSPropertyOp56
 70
     0
102
RTVSPropertyOp57
 70
     0
102
RTVSPropertyOp58
 70
     0
102
RTVSPropertyOp59
 70
     0
102
RTVSPropertyOp60
 70
     0
102
RTVSPropertyOp61
 70
     0
102
RTVSPropertyOp62
 70
     0
  0
XRECORD
  5
B504
102
{ACAD_REACTORS
330
B503
102
}
330
B503
100
AcDbXrecord
280
     1
102
RTVSPost2010Prop28
280
     0
102
RTVSPost2010PropOp28
 70
     1
102
RTVSPost2010Prop29
280
     1
102
RTVSPost2010PropOp29
 70
     1
102
RTVSPost2010Prop30
280
     1
102
RTVSPost2010PropOp30
 70
     1
102
RTVSPost2010Prop31
280
     0
102
RTVSPost2010PropOp31
 70
     1
102
RTVSPost2010Prop32
280
     0
102
RTVSPost2010PropOp32
 70
     1
102
RTVSPost2010Prop33
280
     0
102
RTVSPost2010PropOp33
 70
     1
102
RTVSPost2010Prop34
280
     0
102
RTVSPost2010PropOp34
 70
     1
102
RTVSPost2010Prop35
280
     0
102
RTVSPost2010PropOp35
 70
     1
102
RTVSPost2010Prop36
280
     0
102
RTVSPost2010PropOp36
 70
     1
102
RTVSPost2010Prop37
 90
       50
102
RTVSPost2010PropOp37
 70
     1
102
RTVSPost2010Prop38
140
0.0
102
RTVSPost2010PropOp38
 70
     1
102
RTVSPost2010Prop39
140
1.0
102
RTVSPost2010PropOp39
 70
     1
102
RTVSPost2010Prop40
 90
        0
102
RTVSPost2010PropOp40
 70
     1
102
RTVSPost2010Prop41ColorIndex
 90
       18
102
RTVSPost2010Prop41ColorRGB
 90
        0
102
RTVSPost2010PropOp41
 70
     1
102
RTVSPost2010Prop42
 90
       50
102
RTVSPost2010PropOp42
 70
     1
102
RTVSPost2010Prop43
 90
        3
102
RTVSPost2010PropOp43
 70
     1
102
RTVSPost2010Prop44ColorIndex
 90
        5
102
RTVSPost2010Prop44ColorRGB
 90
      255
102
RTVSPost2010PropOp44
 70
     1
102
RTVSPost2010Prop45
280
     0
102
RTVSPost2010PropOp45
 70
     1
102
RTVSPost2010Prop46
 90
       50
102
RTVSPost2010PropOp46
 70
     1
102
RTVSPost2010Prop47
 90
       50
102
RTVSPost2010PropOp47
 70
     1
102
RTVSPost2010Prop48
 90
       50
102
RTVSPost2010PropOp48
 70
     1
102
RTVSPost2010Prop49
280
     0
102
RTVSPost2010PropOp49
 70
     1
102
RTVSPost2010Prop50
 90
       50
102
RTVSPost2010PropOp50
 70
     1
102
RTVSPost2010Prop51ColorIndex
 90
      256
102
RTVSPost2010Prop51ColorRGB
 90
-16777216
102
RTVSPost2010PropOp51
 70
     0
102
RTVSPost2010Prop52
140
1.0
102
RTVSPost2010PropOp52
 70
     0
102
RTVSPost2010Prop53
 90
        2
102
RTVSPost2010PropOp53
 70
     1
102
RTVSPost2010Prop54
  1
strokes_ogs.tif
102
RTVSPost2010PropOp54
 70
     1
102
RTVSPost2010Prop55
280
     0
102
RTVSPost2010PropOp55
 70
     1
102
RTVSPost2010Prop56
140
1.0
102
RTVSPost2010PropOp56
 70
     1
102
RTVSPost2010Prop57
140
1.0
102
RTVSPost2010PropOp57
 70
     1
102
RTVSPropertyOp0
 70
     1
102
RTVSPropertyOp1
 70
     1
102
RTVSPropertyOp2
 70
     1
102
RTVSPropertyOp3
 70
     1
102
RTVSPropertyOp4
 70
     1
102
RTVSPropertyOp5
 70
     1
102
RTVSPropertyOp6
 70
     1
102
RTVSPropertyOp7
 70
     1
102
RTVSPropertyOp8
 70
     1
102
RTVSPropertyOp9
 70
     1
102
RTVSPropertyOp10
 70
     1
102
RTVSPropertyOp11
 70
     1
102
RTVSPropertyOp12
 70
     1
102
RTVSPropertyOp13
 70
     1
102
RTVSPropertyOp14
 70
     1
102
RTVSPropertyOp15
 70
     1
102
RTVSPropertyOp16
 70
     1
102
RTVSPropertyOp17
 70
     1
102
RTVSPropertyOp18
 70
     1
102
RTVSPropertyOp19
 70
     1
102
RTVSPropertyOp20
 70
     1
102
RTVSPropertyOp21
 70
     1
102
RTVSPropertyOp22
 70
     1
102
RTVSPropertyOp23
 70
     1
102
RTVSPropertyOp24
 70
     1
102
RTVSPropertyOp25
 70
     1
102
RTVSPropertyOp26
 70
     1
102
RTVSPropertyOp27
 70
     1
102
RTVSPropertyOp28
 70
     1
102
RTVSPropertyOp29
 70
     1
102
RTVSPropertyOp30
 70
     1
102
RTVSPropertyOp31
 70
     1
102
RTVSPropertyOp32
 70
     1
102
RTVSPropertyOp33
 70
     1
102
RTVSPropertyOp34
 70
     1
102
RTVSPropertyOp35
 70
     1
102
RTVSPropertyOp36
 70
     1
102
RTVSPropertyOp37
 70
     1
102
RTVSPropertyOp38
 70
     1
102
RTVSPropertyOp39
 70
     1
102
RTVSPropertyOp40
 70
     1
102
RTVSPropertyOp41
 70
     1
102
RTVSPropertyOp42
 70
     1
102
RTVSPropertyOp43
 70
     1
102
RTVSPropertyOp44
 70
     1
102
RTVSPropertyOp45
 70
     1
102
RTVSPropertyOp46
 70
     1
102
RTVSPropertyOp47
 70
     1
102
RTVSPropertyOp48
 70
     1
102
RTVSPropertyOp49
 70
     1
102
RTVSPropertyOp50
 70
     1
102
RTVSPropertyOp51
 70
     0
102
RTVSPropertyOp52
 70
     0
102
RTVSPropertyOp53
 70
     1
102
RTVSPropertyOp54
 70
     1
102
RTVSPropertyOp55
 70
     1
102
RTVSPropertyOp56
 70
     1
102
RTVSPropertyOp57
 70
     1
102
RTVSPropertyOp58
 70
     1
102
RTVSPropertyOp59
 70
     1
102
RTVSPropertyOp60
 70
     1
102
RTVSPropertyOp61
 70
     1
102
RTVSPropertyOp62
 70
     1
  0
XRECORD
  5
B51A
102
{ACAD_REACTORS
330
B519
102
}
330
B519
100
AcDbXrecord
280
     1
102
RTVSPost2010Prop28
280
     0
102
RTVSPost2010PropOp28
 70
     1
102
RTVSPost2010Prop29
280
     1
102
RTVSPost2010PropOp29
 70
     1
102
RTVSPost2010Prop30
280
     1
102
RTVSPost2010PropOp30
 70
     1
102
RTVSPost2010Prop31
280
     0
102
RTVSPost2010PropOp31
 70
     1
102
RTVSPost2010Prop32
280
     0
102
RTVSPost2010PropOp32
 70
     1
102
RTVSPost2010Prop33
280
     0
102
RTVSPost2010PropOp33
 70
     1
102
RTVSPost2010Prop34
280
     0
102
RTVSPost2010PropOp34
 70
     1
102
RTVSPost2010Prop35
280
     0
102
RTVSPost2010PropOp35
 70
     1
102
RTVSPost2010Prop36
280
     0
102
RTVSPost2010PropOp36
 70
     1
102
RTVSPost2010Prop37
 90
       50
102
RTVSPost2010PropOp37
 70
     1
102
RTVSPost2010Prop38
140
0.0
102
RTVSPost2010PropOp38
 70
     1
102
RTVSPost2010Prop39
140
1.0
102
RTVSPost2010PropOp39
 70
     1
102
RTVSPost2010Prop40
 90
        0
102
RTVSPost2010PropOp40
 70
     1
102
RTVSPost2010Prop41ColorIndex
 90
       18
102
RTVSPost2010Prop41ColorRGB
 90
        0
102
RTVSPost2010PropOp41
 70
     1
102
RTVSPost2010Prop42
 90
       50
102
RTVSPost2010PropOp42
 70
     1
102
RTVSPost2010Prop43
 90
        3
102
RTVSPost2010PropOp43
 70
     1
102
RTVSPost2010Prop44ColorIndex
 90
        5
102
RTVSPost2010Prop44ColorRGB
 90
      255
102
RTVSPost2010PropOp44
 70
     1
102
RTVSPost2010Prop45
280
     0
102
RTVSPost2010PropOp45
 70
     1
102
RTVSPost2010Prop46
 90
       50
102
RTVSPost2010PropOp46
 70
     1
102
RTVSPost2010Prop47
 90
       50
102
RTVSPost2010PropOp47
 70
     1
102
RTVSPost2010Prop48
 90
       50
102
RTVSPost2010PropOp48
 70
     1
102
RTVSPost2010Prop49
280
     0
102
RTVSPost2010PropOp49
 70
     1
102
RTVSPost2010Prop50
 90
       50
102
RTVSPost2010PropOp50
 70
     1
102
RTVSPost2010Prop51ColorIndex
 90
      256
102
RTVSPost2010Prop51ColorRGB
 90
-16777216
102
RTVSPost2010PropOp51
 70
     0
102
RTVSPost2010Prop52
140
1.0
102
RTVSPost2010PropOp52
 70
     0
102
RTVSPost2010Prop53
 90
        2
102
RTVSPost2010PropOp53
 70
     1
102
RTVSPost2010Prop54
  1
strokes_ogs.tif
102
RTVSPost2010PropOp54
 70
     1
102
RTVSPost2010Prop55
280
     0
102
RTVSPost2010PropOp55
 70
     1
102
RTVSPost2010Prop56
140
1.0
102
RTVSPost2010PropOp56
 70
     1
102
RTVSPost2010Prop57
140
1.0
102
RTVSPost2010PropOp57
 70
     1
102
RTVSPropertyOp0
 70
     1
102
RTVSPropertyOp1
 70
     1
102
RTVSPropertyOp2
 70
     1
102
RTVSPropertyOp3
 70
     1
102
RTVSPropertyOp4
 70
     1
102
RTVSPropertyOp5
 70
     1
102
RTVSPropertyOp6
 70
     1
102
RTVSPropertyOp7
 70
     1
102
RTVSPropertyOp8
 70
     1
102
RTVSPropertyOp9
 70
     1
102
RTVSPropertyOp10
 70
     1
102
RTVSPropertyOp11
 70
     1
102
RTVSPropertyOp12
 70
     1
102
RTVSPropertyOp13
 70
     1
102
RTVSPropertyOp14
 70
     1
102
RTVSPropertyOp15
 70
     1
102
RTVSPropertyOp16
 70
     1
102
RTVSPropertyOp17
 70
     1
102
RTVSPropertyOp18
 70
     1
102
RTVSPropertyOp19
 70
     1
102
RTVSPropertyOp20
 70
     1
102
RTVSPropertyOp21
 70
     1
102
RTVSPropertyOp22
 70
     1
102
RTVSPropertyOp23
 70
     1
102
RTVSPropertyOp24
 70
     1
102
RTVSPropertyOp25
 70
     1
102
RTVSPropertyOp26
 70
     1
102
RTVSPropertyOp27
 70
     1
102
RTVSPropertyOp28
 70
     1
102
RTVSPropertyOp29
 70
     1
102
RTVSPropertyOp30
 70
     1
102
RTVSPropertyOp31
 70
     1
102
RTVSPropertyOp32
 70
     1
102
RTVSPropertyOp33
 70
     1
102
RTVSPropertyOp34
 70
     1
102
RTVSPropertyOp35
 70
     1
102
RTVSPropertyOp36
 70
     1
102
RTVSPropertyOp37
 70
     1
102
RTVSPropertyOp38
 70
     1
102
RTVSPropertyOp39
 70
     1
102
RTVSPropertyOp40
 70
     1
102
RTVSPropertyOp41
 70
     1
102
RTVSPropertyOp42
 70
     1
102
RTVSPropertyOp43
 70
     1
102
RTVSPropertyOp44
 70
     1
102
RTVSPropertyOp45
 70
     1
102
RTVSPropertyOp46
 70
     1
102
RTVSPropertyOp47
 70
     1
102
RTVSPropertyOp48
 70
     1
102
RTVSPropertyOp49
 70
     1
102
RTVSPropertyOp50
 70
     1
102
RTVSPropertyOp51
 70
     0
102
RTVSPropertyOp52
 70
     0
102
RTVSPropertyOp53
 70
     1
102
RTVSPropertyOp54
 70
     1
102
RTVSPropertyOp55
 70
     1
102
RTVSPropertyOp56
 70
     1
102
RTVSPropertyOp57
 70
     1
102
RTVSPropertyOp58
 70
     1
102
RTVSPropertyOp59
 70
     1
102
RTVSPropertyOp60
 70
     1
102
RTVSPropertyOp61
 70
     1
102
RTVSPropertyOp62
 70
     1
  0
XRECORD
  5
B518
102
{ACAD_REACTORS
330
B517
102
}
330
B517
100
AcDbXrecord
280
     1
102
RTVSPost2010Prop28
280
     0
102
RTVSPost2010PropOp28
 70
     1
102
RTVSPost2010Prop29
280
     1
102
RTVSPost2010PropOp29
 70
     1
102
RTVSPost2010Prop30
280
     1
102
RTVSPost2010PropOp30
 70
     1
102
RTVSPost2010Prop31
280
     0
102
RTVSPost2010PropOp31
 70
     1
102
RTVSPost2010Prop32
280
     0
102
RTVSPost2010PropOp32
 70
     1
102
RTVSPost2010Prop33
280
     0
102
RTVSPost2010PropOp33
 70
     1
102
RTVSPost2010Prop34
280
     0
102
RTVSPost2010PropOp34
 70
     1
102
RTVSPost2010Prop35
280
     0
102
RTVSPost2010PropOp35
 70
     1
102
RTVSPost2010Prop36
280
     0
102
RTVSPost2010PropOp36
 70
     1
102
RTVSPost2010Prop37
 90
       50
102
RTVSPost2010PropOp37
 70
     1
102
RTVSPost2010Prop38
140
0.0
102
RTVSPost2010PropOp38
 70
     1
102
RTVSPost2010Prop39
140
1.0
102
RTVSPost2010PropOp39
 70
     1
102
RTVSPost2010Prop40
 90
        0
102
RTVSPost2010PropOp40
 70
     1
102
RTVSPost2010Prop41ColorIndex
 90
       18
102
RTVSPost2010Prop41ColorRGB
 90
        0
102
RTVSPost2010PropOp41
 70
     1
102
RTVSPost2010Prop42
 90
       50
102
RTVSPost2010PropOp42
 70
     1
102
RTVSPost2010Prop43
 90
        3
102
RTVSPost2010PropOp43
 70
     1
102
RTVSPost2010Prop44ColorIndex
 90
        5
102
RTVSPost2010Prop44ColorRGB
 90
      255
102
RTVSPost2010PropOp44
 70
     1
102
RTVSPost2010Prop45
280
     0
102
RTVSPost2010PropOp45
 70
     1
102
RTVSPost2010Prop46
 90
       50
102
RTVSPost2010PropOp46
 70
     1
102
RTVSPost2010Prop47
 90
       50
102
RTVSPost2010PropOp47
 70
     1
102
RTVSPost2010Prop48
 90
       50
102
RTVSPost2010PropOp48
 70
     1
102
RTVSPost2010Prop49
280
     0
102
RTVSPost2010PropOp49
 70
     1
102
RTVSPost2010Prop50
 90
       50
102
RTVSPost2010PropOp50
 70
     1
102
RTVSPost2010Prop51ColorIndex
 90
      256
102
RTVSPost2010Prop51ColorRGB
 90
-16777216
102
RTVSPost2010PropOp51
 70
     0
102
RTVSPost2010Prop52
140
1.0
102
RTVSPost2010PropOp52
 70
     0
102
RTVSPost2010Prop53
 90
        2
102
RTVSPost2010PropOp53
 70
     1
102
RTVSPost2010Prop54
  1
strokes_ogs.tif
102
RTVSPost2010PropOp54
 70
     1
102
RTVSPost2010Prop55
280
     0
102
RTVSPost2010PropOp55
 70
     1
102
RTVSPost2010Prop56
140
1.0
102
RTVSPost2010PropOp56
 70
     1
102
RTVSPost2010Prop57
140
1.0
102
RTVSPost2010PropOp57
 70
     1
102
RTVSPropertyOp0
 70
     1
102
RTVSPropertyOp1
 70
     1
102
RTVSPropertyOp2
 70
     1
102
RTVSPropertyOp3
 70
     1
102
RTVSPropertyOp4
 70
     1
102
RTVSPropertyOp5
 70
     1
102
RTVSPropertyOp6
 70
     1
102
RTVSPropertyOp7
 70
     1
102
RTVSPropertyOp8
 70
     1
102
RTVSPropertyOp9
 70
     1
102
RTVSPropertyOp10
 70
     1
102
RTVSPropertyOp11
 70
     1
102
RTVSPropertyOp12
 70
     1
102
RTVSPropertyOp13
 70
     1
102
RTVSPropertyOp14
 70
     1
102
RTVSPropertyOp15
 70
     1
102
RTVSPropertyOp16
 70
     1
102
RTVSPropertyOp17
 70
     1
102
RTVSPropertyOp18
 70
     1
102
RTVSPropertyOp19
 70
     1
102
RTVSPropertyOp20
 70
     1
102
RTVSPropertyOp21
 70
     1
102
RTVSPropertyOp22
 70
     1
102
RTVSPropertyOp23
 70
     1
102
RTVSPropertyOp24
 70
     1
102
RTVSPropertyOp25
 70
     1
102
RTVSPropertyOp26
 70
     1
102
RTVSPropertyOp27
 70
     1
102
RTVSPropertyOp28
 70
     1
102
RTVSPropertyOp29
 70
     1
102
RTVSPropertyOp30
 70
     1
102
RTVSPropertyOp31
 70
     1
102
RTVSPropertyOp32
 70
     1
102
RTVSPropertyOp33
 70
     1
102
RTVSPropertyOp34
 70
     1
102
RTVSPropertyOp35
 70
     1
102
RTVSPropertyOp36
 70
     1
102
RTVSPropertyOp37
 70
     1
102
RTVSPropertyOp38
 70
     1
102
RTVSPropertyOp39
 70
     1
102
RTVSPropertyOp40
 70
     1
102
RTVSPropertyOp41
 70
     1
102
RTVSPropertyOp42
 70
     1
102
RTVSPropertyOp43
 70
     1
102
RTVSPropertyOp44
 70
     1
102
RTVSPropertyOp45
 70
     1
102
RTVSPropertyOp46
 70
     1
102
RTVSPropertyOp47
 70
     1
102
RTVSPropertyOp48
 70
     1
102
RTVSPropertyOp49
 70
     1
102
RTVSPropertyOp50
 70
     1
102
RTVSPropertyOp51
 70
     0
102
RTVSPropertyOp52
 70
     0
102
RTVSPropertyOp53
 70
     1
102
RTVSPropertyOp54
 70
     1
102
RTVSPropertyOp55
 70
     1
102
RTVSPropertyOp56
 70
     1
102
RTVSPropertyOp57
 70
     1
102
RTVSPropertyOp58
 70
     1
102
RTVSPropertyOp59
 70
     1
102
RTVSPropertyOp60
 70
     1
102
RTVSPropertyOp61
 70
     1
102
RTVSPropertyOp62
 70
     1
  0
XRECORD
  5
B512
102
{ACAD_REACTORS
330
B511
102
}
330
B511
100
AcDbXrecord
280
     1
102
RTVSPost2010Prop28
280
     0
102
RTVSPost2010PropOp28
 70
     1
102
RTVSPost2010Prop29
280
     1
102
RTVSPost2010PropOp29
 70
     1
102
RTVSPost2010Prop30
280
     1
102
RTVSPost2010PropOp30
 70
     1
102
RTVSPost2010Prop31
280
     0
102
RTVSPost2010PropOp31
 70
     1
102
RTVSPost2010Prop32
280
     0
102
RTVSPost2010PropOp32
 70
     1
102
RTVSPost2010Prop33
280
     0
102
RTVSPost2010PropOp33
 70
     1
102
RTVSPost2010Prop34
280
     0
102
RTVSPost2010PropOp34
 70
     1
102
RTVSPost2010Prop35
280
     0
102
RTVSPost2010PropOp35
 70
     1
102
RTVSPost2010Prop36
280
     0
102
RTVSPost2010PropOp36
 70
     1
102
RTVSPost2010Prop37
 90
       50
102
RTVSPost2010PropOp37
 70
     1
102
RTVSPost2010Prop38
140
0.0
102
RTVSPost2010PropOp38
 70
     1
102
RTVSPost2010Prop39
140
1.0
102
RTVSPost2010PropOp39
 70
     1
102
RTVSPost2010Prop40
 90
        0
102
RTVSPost2010PropOp40
 70
     1
102
RTVSPost2010Prop41ColorIndex
 90
       18
102
RTVSPost2010Prop41ColorRGB
 90
        0
102
RTVSPost2010PropOp41
 70
     1
102
RTVSPost2010Prop42
 90
       50
102
RTVSPost2010PropOp42
 70
     1
102
RTVSPost2010Prop43
 90
        3
102
RTVSPost2010PropOp43
 70
     1
102
RTVSPost2010Prop44ColorIndex
 90
        5
102
RTVSPost2010Prop44ColorRGB
 90
      255
102
RTVSPost2010PropOp44
 70
     1
102
RTVSPost2010Prop45
280
     0
102
RTVSPost2010PropOp45
 70
     1
102
RTVSPost2010Prop46
 90
       50
102
RTVSPost2010PropOp46
 70
     1
102
RTVSPost2010Prop47
 90
       50
102
RTVSPost2010PropOp47
 70
     1
102
RTVSPost2010Prop48
 90
       50
102
RTVSPost2010PropOp48
 70
     1
102
RTVSPost2010Prop49
280
     0
102
RTVSPost2010PropOp49
 70
     1
102
RTVSPost2010Prop50
 90
       50
102
RTVSPost2010PropOp50
 70
     1
102
RTVSPost2010Prop51ColorIndex
 90
      256
102
RTVSPost2010Prop51ColorRGB
 90
-16777216
102
RTVSPost2010PropOp51
 70
     0
102
RTVSPost2010Prop52
140
1.0
102
RTVSPost2010PropOp52
 70
     0
102
RTVSPost2010Prop53
 90
        2
102
RTVSPost2010PropOp53
 70
     1
102
RTVSPost2010Prop54
  1
strokes_ogs.tif
102
RTVSPost2010PropOp54
 70
     1
102
RTVSPost2010Prop55
280
     0
102
RTVSPost2010PropOp55
 70
     1
102
RTVSPost2010Prop56
140
1.0
102
RTVSPost2010PropOp56
 70
     1
102
RTVSPost2010Prop57
140
1.0
102
RTVSPost2010PropOp57
 70
     1
102
RTVSPropertyOp0
 70
     1
102
RTVSPropertyOp1
 70
     1
102
RTVSPropertyOp2
 70
     1
102
RTVSPropertyOp3
 70
     1
102
RTVSPropertyOp4
 70
     1
102
RTVSPropertyOp5
 70
     1
102
RTVSPropertyOp6
 70
     1
102
RTVSPropertyOp7
 70
     1
102
RTVSPropertyOp8
 70
     1
102
RTVSPropertyOp9
 70
     1
102
RTVSPropertyOp10
 70
     1
102
RTVSPropertyOp11
 70
     1
102
RTVSPropertyOp12
 70
     1
102
RTVSPropertyOp13
 70
     1
102
RTVSPropertyOp14
 70
     1
102
RTVSPropertyOp15
 70
     1
102
RTVSPropertyOp16
 70
     1
102
RTVSPropertyOp17
 70
     1
102
RTVSPropertyOp18
 70
     1
102
RTVSPropertyOp19
 70
     1
102
RTVSPropertyOp20
 70
     1
102
RTVSPropertyOp21
 70
     1
102
RTVSPropertyOp22
 70
     1
102
RTVSPropertyOp23
 70
     1
102
RTVSPropertyOp24
 70
     1
102
RTVSPropertyOp25
 70
     1
102
RTVSPropertyOp26
 70
     1
102
RTVSPropertyOp27
 70
     1
102
RTVSPropertyOp28
 70
     1
102
RTVSPropertyOp29
 70
     1
102
RTVSPropertyOp30
 70
     1
102
RTVSPropertyOp31
 70
     1
102
RTVSPropertyOp32
 70
     1
102
RTVSPropertyOp33
 70
     1
102
RTVSPropertyOp34
 70
     1
102
RTVSPropertyOp35
 70
     1
102
RTVSPropertyOp36
 70
     1
102
RTVSPropertyOp37
 70
     1
102
RTVSPropertyOp38
 70
     1
102
RTVSPropertyOp39
 70
     1
102
RTVSPropertyOp40
 70
     1
102
RTVSPropertyOp41
 70
     1
102
RTVSPropertyOp42
 70
     1
102
RTVSPropertyOp43
 70
     1
102
RTVSPropertyOp44
 70
     1
102
RTVSPropertyOp45
 70
     1
102
RTVSPropertyOp46
 70
     1
102
RTVSPropertyOp47
 70
     1
102
RTVSPropertyOp48
 70
     1
102
RTVSPropertyOp49
 70
     1
102
RTVSPropertyOp50
 70
     1
102
RTVSPropertyOp51
 70
     0
102
RTVSPropertyOp52
 70
     0
102
RTVSPropertyOp53
 70
     1
102
RTVSPropertyOp54
 70
     1
102
RTVSPropertyOp55
 70
     1
102
RTVSPropertyOp56
 70
     1
102
RTVSPropertyOp57
 70
     1
102
RTVSPropertyOp58
 70
     1
102
RTVSPropertyOp59
 70
     1
102
RTVSPropertyOp60
 70
     1
102
RTVSPropertyOp61
 70
     1
102
RTVSPropertyOp62
 70
     1
  0
XRECORD
  5
B514
102
{ACAD_REACTORS
330
B513
102
}
330
B513
100
AcDbXrecord
280
     1
102
RTVSPost2010Prop28
280
     0
102
RTVSPost2010PropOp28
 70
     1
102
RTVSPost2010Prop29
280
     1
102
RTVSPost2010PropOp29
 70
     1
102
RTVSPost2010Prop30
280
     1
102
RTVSPost2010PropOp30
 70
     1
102
RTVSPost2010Prop31
280
     0
102
RTVSPost2010PropOp31
 70
     1
102
RTVSPost2010Prop32
280
     0
102
RTVSPost2010PropOp32
 70
     1
102
RTVSPost2010Prop33
280
     0
102
RTVSPost2010PropOp33
 70
     1
102
RTVSPost2010Prop34
280
     0
102
RTVSPost2010PropOp34
 70
     1
102
RTVSPost2010Prop35
280
     0
102
RTVSPost2010PropOp35
 70
     1
102
RTVSPost2010Prop36
280
     0
102
RTVSPost2010PropOp36
 70
     1
102
RTVSPost2010Prop37
 90
       50
102
RTVSPost2010PropOp37
 70
     1
102
RTVSPost2010Prop38
140
0.0
102
RTVSPost2010PropOp38
 70
     1
102
RTVSPost2010Prop39
140
1.0
102
RTVSPost2010PropOp39
 70
     1
102
RTVSPost2010Prop40
 90
        0
102
RTVSPost2010PropOp40
 70
     1
102
RTVSPost2010Prop41ColorIndex
 90
       18
102
RTVSPost2010Prop41ColorRGB
 90
        0
102
RTVSPost2010PropOp41
 70
     1
102
RTVSPost2010Prop42
 90
       50
102
RTVSPost2010PropOp42
 70
     1
102
RTVSPost2010Prop43
 90
        3
102
RTVSPost2010PropOp43
 70
     1
102
RTVSPost2010Prop44ColorIndex
 90
        5
102
RTVSPost2010Prop44ColorRGB
 90
      255
102
RTVSPost2010PropOp44
 70
     1
102
RTVSPost2010Prop45
280
     0
102
RTVSPost2010PropOp45
 70
     1
102
RTVSPost2010Prop46
 90
       50
102
RTVSPost2010PropOp46
 70
     1
102
RTVSPost2010Prop47
 90
       50
102
RTVSPost2010PropOp47
 70
     1
102
RTVSPost2010Prop48
 90
       50
102
RTVSPost2010PropOp48
 70
     1
102
RTVSPost2010Prop49
280
     0
102
RTVSPost2010PropOp49
 70
     1
102
RTVSPost2010Prop50
 90
       50
102
RTVSPost2010PropOp50
 70
     1
102
RTVSPost2010Prop51ColorIndex
 90
      256
102
RTVSPost2010Prop51ColorRGB
 90
-16777216
102
RTVSPost2010PropOp51
 70
     0
102
RTVSPost2010Prop52
140
1.0
102
RTVSPost2010PropOp52
 70
     0
102
RTVSPost2010Prop53
 90
        2
102
RTVSPost2010PropOp53
 70
     1
102
RTVSPost2010Prop54
  1
strokes_ogs.tif
102
RTVSPost2010PropOp54
 70
     1
102
RTVSPost2010Prop55
280
     0
102
RTVSPost2010PropOp55
 70
     1
102
RTVSPost2010Prop56
140
1.0
102
RTVSPost2010PropOp56
 70
     1
102
RTVSPost2010Prop57
140
1.0
102
RTVSPost2010PropOp57
 70
     1
102
RTVSPropertyOp0
 70
     1
102
RTVSPropertyOp1
 70
     1
102
RTVSPropertyOp2
 70
     1
102
RTVSPropertyOp3
 70
     1
102
RTVSPropertyOp4
 70
     1
102
RTVSPropertyOp5
 70
     1
102
RTVSPropertyOp6
 70
     1
102
RTVSPropertyOp7
 70
     1
102
RTVSPropertyOp8
 70
     1
102
RTVSPropertyOp9
 70
     1
102
RTVSPropertyOp10
 70
     1
102
RTVSPropertyOp11
 70
     1
102
RTVSPropertyOp12
 70
     1
102
RTVSPropertyOp13
 70
     1
102
RTVSPropertyOp14
 70
     1
102
RTVSPropertyOp15
 70
     1
102
RTVSPropertyOp16
 70
     1
102
RTVSPropertyOp17
 70
     1
102
RTVSPropertyOp18
 70
     1
102
RTVSPropertyOp19
 70
     1
102
RTVSPropertyOp20
 70
     1
102
RTVSPropertyOp21
 70
     1
102
RTVSPropertyOp22
 70
     1
102
RTVSPropertyOp23
 70
     1
102
RTVSPropertyOp24
 70
     1
102
RTVSPropertyOp25
 70
     1
102
RTVSPropertyOp26
 70
     1
102
RTVSPropertyOp27
 70
     1
102
RTVSPropertyOp28
 70
     1
102
RTVSPropertyOp29
 70
     1
102
RTVSPropertyOp30
 70
     1
102
RTVSPropertyOp31
 70
     1
102
RTVSPropertyOp32
 70
     1
102
RTVSPropertyOp33
 70
     1
102
RTVSPropertyOp34
 70
     1
102
RTVSPropertyOp35
 70
     1
102
RTVSPropertyOp36
 70
     1
102
RTVSPropertyOp37
 70
     1
102
RTVSPropertyOp38
 70
     1
102
RTVSPropertyOp39
 70
     1
102
RTVSPropertyOp40
 70
     1
102
RTVSPropertyOp41
 70
     1
102
RTVSPropertyOp42
 70
     1
102
RTVSPropertyOp43
 70
     1
102
RTVSPropertyOp44
 70
     1
102
RTVSPropertyOp45
 70
     1
102
RTVSPropertyOp46
 70
     1
102
RTVSPropertyOp47
 70
     1
102
RTVSPropertyOp48
 70
     1
102
RTVSPropertyOp49
 70
     1
102
RTVSPropertyOp50
 70
     1
102
RTVSPropertyOp51
 70
     0
102
RTVSPropertyOp52
 70
     0
102
RTVSPropertyOp53
 70
     1
102
RTVSPropertyOp54
 70
     1
102
RTVSPropertyOp55
 70
     1
102
RTVSPropertyOp56
 70
     1
102
RTVSPropertyOp57
 70
     1
102
RTVSPropertyOp58
 70
     1
102
RTVSPropertyOp59
 70
     1
102
RTVSPropertyOp60
 70
     1
102
RTVSPropertyOp61
 70
     1
102
RTVSPropertyOp62
 70
     1
  0
XRECORD
  5
B50A
102
{ACAD_REACTORS
330
B509
102
}
330
B509
100
AcDbXrecord
280
     1
102
RTVSPost2010Prop28
280
     0
102
RTVSPost2010PropOp28
 70
     1
102
RTVSPost2010Prop29
280
     1
102
RTVSPost2010PropOp29
 70
     1
102
RTVSPost2010Prop30
280
     1
102
RTVSPost2010PropOp30
 70
     1
102
RTVSPost2010Prop31
280
     0
102
RTVSPost2010PropOp31
 70
     1
102
RTVSPost2010Prop32
280
     0
102
RTVSPost2010PropOp32
 70
     1
102
RTVSPost2010Prop33
280
     0
102
RTVSPost2010PropOp33
 70
     1
102
RTVSPost2010Prop34
280
     0
102
RTVSPost2010PropOp34
 70
     1
102
RTVSPost2010Prop35
280
     0
102
RTVSPost2010PropOp35
 70
     1
102
RTVSPost2010Prop36
280
     0
102
RTVSPost2010PropOp36
 70
     1
102
RTVSPost2010Prop37
 90
       50
102
RTVSPost2010PropOp37
 70
     1
102
RTVSPost2010Prop38
140
0.0
102
RTVSPost2010PropOp38
 70
     1
102
RTVSPost2010Prop39
140
1.0
102
RTVSPost2010PropOp39
 70
     1
102
RTVSPost2010Prop40
 90
        0
102
RTVSPost2010PropOp40
 70
     1
102
RTVSPost2010Prop41ColorIndex
 90
       18
102
RTVSPost2010Prop41ColorRGB
 90
        0
102
RTVSPost2010PropOp41
 70
     1
102
RTVSPost2010Prop42
 90
       50
102
RTVSPost2010PropOp42
 70
     1
102
RTVSPost2010Prop43
 90
        3
102
RTVSPost2010PropOp43
 70
     1
102
RTVSPost2010Prop44ColorIndex
 90
        5
102
RTVSPost2010Prop44ColorRGB
 90
      255
102
RTVSPost2010PropOp44
 70
     1
102
RTVSPost2010Prop45
280
     0
102
RTVSPost2010PropOp45
 70
     1
102
RTVSPost2010Prop46
 90
       50
102
RTVSPost2010PropOp46
 70
     1
102
RTVSPost2010Prop47
 90
       50
102
RTVSPost2010PropOp47
 70
     1
102
RTVSPost2010Prop48
 90
       50
102
RTVSPost2010PropOp48
 70
     1
102
RTVSPost2010Prop49
280
     0
102
RTVSPost2010PropOp49
 70
     1
102
RTVSPost2010Prop50
 90
       50
102
RTVSPost2010PropOp50
 70
     1
102
RTVSPost2010Prop51ColorIndex
 90
      256
102
RTVSPost2010Prop51ColorRGB
 90
-16777216
102
RTVSPost2010PropOp51
 70
     0
102
RTVSPost2010Prop52
140
1.0
102
RTVSPost2010PropOp52
 70
     0
102
RTVSPost2010Prop53
 90
        2
102
RTVSPost2010PropOp53
 70
     1
102
RTVSPost2010Prop54
  1
strokes_ogs.tif
102
RTVSPost2010PropOp54
 70
     1
102
RTVSPost2010Prop55
280
     0
102
RTVSPost2010PropOp55
 70
     1
102
RTVSPost2010Prop56
140
1.0
102
RTVSPost2010PropOp56
 70
     1
102
RTVSPost2010Prop57
140
1.0
102
RTVSPost2010PropOp57
 70
     1
102
RTVSPropertyOp0
 70
     1
102
RTVSPropertyOp1
 70
     1
102
RTVSPropertyOp2
 70
     1
102
RTVSPropertyOp3
 70
     1
102
RTVSPropertyOp4
 70
     1
102
RTVSPropertyOp5
 70
     1
102
RTVSPropertyOp6
 70
     1
102
RTVSPropertyOp7
 70
     1
102
RTVSPropertyOp8
 70
     1
102
RTVSPropertyOp9
 70
     1
102
RTVSPropertyOp10
 70
     1
102
RTVSPropertyOp11
 70
     1
102
RTVSPropertyOp12
 70
     1
102
RTVSPropertyOp13
 70
     1
102
RTVSPropertyOp14
 70
     1
102
RTVSPropertyOp15
 70
     1
102
RTVSPropertyOp16
 70
     1
102
RTVSPropertyOp17
 70
     1
102
RTVSPropertyOp18
 70
     1
102
RTVSPropertyOp19
 70
     1
102
RTVSPropertyOp20
 70
     1
102
RTVSPropertyOp21
 70
     1
102
RTVSPropertyOp22
 70
     1
102
RTVSPropertyOp23
 70
     1
102
RTVSPropertyOp24
 70
     1
102
RTVSPropertyOp25
 70
     1
102
RTVSPropertyOp26
 70
     1
102
RTVSPropertyOp27
 70
     1
102
RTVSPropertyOp28
 70
     1
102
RTVSPropertyOp29
 70
     1
102
RTVSPropertyOp30
 70
     1
102
RTVSPropertyOp31
 70
     1
102
RTVSPropertyOp32
 70
     1
102
RTVSPropertyOp33
 70
     1
102
RTVSPropertyOp34
 70
     1
102
RTVSPropertyOp35
 70
     1
102
RTVSPropertyOp36
 70
     1
102
RTVSPropertyOp37
 70
     1
102
RTVSPropertyOp38
 70
     1
102
RTVSPropertyOp39
 70
     1
102
RTVSPropertyOp40
 70
     1
102
RTVSPropertyOp41
 70
     1
102
RTVSPropertyOp42
 70
     1
102
RTVSPropertyOp43
 70
     1
102
RTVSPropertyOp44
 70
     1
102
RTVSPropertyOp45
 70
     1
102
RTVSPropertyOp46
 70
     1
102
RTVSPropertyOp47
 70
     1
102
RTVSPropertyOp48
 70
     1
102
RTVSPropertyOp49
 70
     1
102
RTVSPropertyOp50
 70
     1
102
RTVSPropertyOp51
 70
     0
102
RTVSPropertyOp52
 70
     0
102
RTVSPropertyOp53
 70
     1
102
RTVSPropertyOp54
 70
     1
102
RTVSPropertyOp55
 70
     1
102
RTVSPropertyOp56
 70
     1
102
RTVSPropertyOp57
 70
     1
102
RTVSPropertyOp58
 70
     1
102
RTVSPropertyOp59
 70
     1
102
RTVSPropertyOp60
 70
     1
102
RTVSPropertyOp61
 70
     1
102
RTVSPropertyOp62
 70
     1
  0
XRECORD
  5
B4FE
102
{ACAD_REACTORS
330
B4FD
102
}
330
B4FD
100
AcDbXrecord
280
     1
102
RTVSPost2010Prop28
280
     0
102
RTVSPost2010PropOp28
 70
     1
102
RTVSPost2010Prop29
280
     1
102
RTVSPost2010PropOp29
 70
     1
102
RTVSPost2010Prop30
280
     1
102
RTVSPost2010PropOp30
 70
     1
102
RTVSPost2010Prop31
280
     0
102
RTVSPost2010PropOp31
 70
     1
102
RTVSPost2010Prop32
280
     0
102
RTVSPost2010PropOp32
 70
     1
102
RTVSPost2010Prop33
280
     0
102
RTVSPost2010PropOp33
 70
     1
102
RTVSPost2010Prop34
280
     0
102
RTVSPost2010PropOp34
 70
     1
102
RTVSPost2010Prop35
280
     0
102
RTVSPost2010PropOp35
 70
     1
102
RTVSPost2010Prop36
280
     0
102
RTVSPost2010PropOp36
 70
     1
102
RTVSPost2010Prop37
 90
       50
102
RTVSPost2010PropOp37
 70
     1
102
RTVSPost2010Prop38
140
0.0
102
RTVSPost2010PropOp38
 70
     1
102
RTVSPost2010Prop39
140
1.0
102
RTVSPost2010PropOp39
 70
     1
102
RTVSPost2010Prop40
 90
        0
102
RTVSPost2010PropOp40
 70
     1
102
RTVSPost2010Prop41ColorIndex
 90
       18
102
RTVSPost2010Prop41ColorRGB
 90
        0
102
RTVSPost2010PropOp41
 70
     1
102
RTVSPost2010Prop42
 90
       50
102
RTVSPost2010PropOp42
 70
     1
102
RTVSPost2010Prop43
 90
        3
102
RTVSPost2010PropOp43
 70
     1
102
RTVSPost2010Prop44ColorIndex
 90
        5
102
RTVSPost2010Prop44ColorRGB
 90
      255
102
RTVSPost2010PropOp44
 70
     1
102
RTVSPost2010Prop45
280
     0
102
RTVSPost2010PropOp45
 70
     1
102
RTVSPost2010Prop46
 90
       50
102
RTVSPost2010PropOp46
 70
     1
102
RTVSPost2010Prop47
 90
       50
102
RTVSPost2010PropOp47
 70
     1
102
RTVSPost2010Prop48
 90
       50
102
RTVSPost2010PropOp48
 70
     1
102
RTVSPost2010Prop49
280
     0
102
RTVSPost2010PropOp49
 70
     1
102
RTVSPost2010Prop50
 90
       50
102
RTVSPost2010PropOp50
 70
     1
102
RTVSPost2010Prop51ColorIndex
 90
      256
102
RTVSPost2010Prop51ColorRGB
 90
-16777216
102
RTVSPost2010PropOp51
 70
     0
102
RTVSPost2010Prop52
140
1.0
102
RTVSPost2010PropOp52
 70
     0
102
RTVSPost2010Prop53
 90
        2
102
RTVSPost2010PropOp53
 70
     1
102
RTVSPost2010Prop54
  1
strokes_ogs.tif
102
RTVSPost2010PropOp54
 70
     1
102
RTVSPost2010Prop55
280
     0
102
RTVSPost2010PropOp55
 70
     1
102
RTVSPost2010Prop56
140
1.0
102
RTVSPost2010PropOp56
 70
     1
102
RTVSPost2010Prop57
140
1.0
102
RTVSPost2010PropOp57
 70
     1
102
RTVSPropertyOp0
 70
     1
102
RTVSPropertyOp1
 70
     1
102
RTVSPropertyOp2
 70
     1
102
RTVSPropertyOp3
 70
     1
102
RTVSPropertyOp4
 70
     1
102
RTVSPropertyOp5
 70
     1
102
RTVSPropertyOp6
 70
     1
102
RTVSPropertyOp7
 70
     1
102
RTVSPropertyOp8
 70
     1
102
RTVSPropertyOp9
 70
     1
102
RTVSPropertyOp10
 70
     1
102
RTVSPropertyOp11
 70
     1
102
RTVSPropertyOp12
 70
     1
102
RTVSPropertyOp13
 70
     1
102
RTVSPropertyOp14
 70
     1
102
RTVSPropertyOp15
 70
     1
102
RTVSPropertyOp16
 70
     1
102
RTVSPropertyOp17
 70
     1
102
RTVSPropertyOp18
 70
     1
102
RTVSPropertyOp19
 70
     1
102
RTVSPropertyOp20
 70
     1
102
RTVSPropertyOp21
 70
     1
102
RTVSPropertyOp22
 70
     1
102
RTVSPropertyOp23
 70
     1
102
RTVSPropertyOp24
 70
     1
102
RTVSPropertyOp25
 70
     1
102
RTVSPropertyOp26
 70
     1
102
RTVSPropertyOp27
 70
     1
102
RTVSPropertyOp28
 70
     1
102
RTVSPropertyOp29
 70
     1
102
RTVSPropertyOp30
 70
     1
102
RTVSPropertyOp31
 70
     1
102
RTVSPropertyOp32
 70
     1
102
RTVSPropertyOp33
 70
     1
102
RTVSPropertyOp34
 70
     1
102
RTVSPropertyOp35
 70
     1
102
RTVSPropertyOp36
 70
     1
102
RTVSPropertyOp37
 70
     1
102
RTVSPropertyOp38
 70
     1
102
RTVSPropertyOp39
 70
     1
102
RTVSPropertyOp40
 70
     1
102
RTVSPropertyOp41
 70
     1
102
RTVSPropertyOp42
 70
     1
102
RTVSPropertyOp43
 70
     1
102
RTVSPropertyOp44
 70
     1
102
RTVSPropertyOp45
 70
     1
102
RTVSPropertyOp46
 70
     1
102
RTVSPropertyOp47
 70
     1
102
RTVSPropertyOp48
 70
     1
102
RTVSPropertyOp49
 70
     1
102
RTVSPropertyOp50
 70
     1
102
RTVSPropertyOp51
 70
     0
102
RTVSPropertyOp52
 70
     0
102
RTVSPropertyOp53
 70
     1
102
RTVSPropertyOp54
 70
     1
102
RTVSPropertyOp55
 70
     1
102
RTVSPropertyOp56
 70
     1
102
RTVSPropertyOp57
 70
     1
102
RTVSPropertyOp58
 70
     1
102
RTVSPropertyOp59
 70
     1
102
RTVSPropertyOp60
 70
     1
102
RTVSPropertyOp61
 70
     1
102
RTVSPropertyOp62
 70
     1
  0
XRECORD
  5
B516
102
{ACAD_REACTORS
330
B515
102
}
330
B515
100
AcDbXrecord
280
     1
102
RTVSPost2010Prop28
280
     0
102
RTVSPost2010PropOp28
 70
     1
102
RTVSPost2010Prop29
280
     1
102
RTVSPost2010PropOp29
 70
     1
102
RTVSPost2010Prop30
280
     1
102
RTVSPost2010PropOp30
 70
     1
102
RTVSPost2010Prop31
280
     0
102
RTVSPost2010PropOp31
 70
     1
102
RTVSPost2010Prop32
280
     0
102
RTVSPost2010PropOp32
 70
     1
102
RTVSPost2010Prop33
280
     0
102
RTVSPost2010PropOp33
 70
     1
102
RTVSPost2010Prop34
280
     0
102
RTVSPost2010PropOp34
 70
     1
102
RTVSPost2010Prop35
280
     0
102
RTVSPost2010PropOp35
 70
     1
102
RTVSPost2010Prop36
280
     0
102
RTVSPost2010PropOp36
 70
     1
102
RTVSPost2010Prop37
 90
       50
102
RTVSPost2010PropOp37
 70
     1
102
RTVSPost2010Prop38
140
0.0
102
RTVSPost2010PropOp38
 70
     1
102
RTVSPost2010Prop39
140
1.0
102
RTVSPost2010PropOp39
 70
     1
102
RTVSPost2010Prop40
 90
        0
102
RTVSPost2010PropOp40
 70
     1
102
RTVSPost2010Prop41ColorIndex
 90
       18
102
RTVSPost2010Prop41ColorRGB
 90
        0
102
RTVSPost2010PropOp41
 70
     1
102
RTVSPost2010Prop42
 90
       50
102
RTVSPost2010PropOp42
 70
     1
102
RTVSPost2010Prop43
 90
        3
102
RTVSPost2010PropOp43
 70
     1
102
RTVSPost2010Prop44ColorIndex
 90
        5
102
RTVSPost2010Prop44ColorRGB
 90
      255
102
RTVSPost2010PropOp44
 70
     1
102
RTVSPost2010Prop45
280
     0
102
RTVSPost2010PropOp45
 70
     1
102
RTVSPost2010Prop46
 90
       50
102
RTVSPost2010PropOp46
 70
     1
102
RTVSPost2010Prop47
 90
       50
102
RTVSPost2010PropOp47
 70
     1
102
RTVSPost2010Prop48
 90
       50
102
RTVSPost2010PropOp48
 70
     1
102
RTVSPost2010Prop49
280
     0
102
RTVSPost2010PropOp49
 70
     1
102
RTVSPost2010Prop50
 90
       50
102
RTVSPost2010PropOp50
 70
     1
102
RTVSPost2010Prop51ColorIndex
 90
      256
102
RTVSPost2010Prop51ColorRGB
 90
-16777216
102
RTVSPost2010PropOp51
 70
     0
102
RTVSPost2010Prop52
140
1.0
102
RTVSPost2010PropOp52
 70
     0
102
RTVSPost2010Prop53
 90
        2
102
RTVSPost2010PropOp53
 70
     1
102
RTVSPost2010Prop54
  1
strokes_ogs.tif
102
RTVSPost2010PropOp54
 70
     1
102
RTVSPost2010Prop55
280
     0
102
RTVSPost2010PropOp55
 70
     1
102
RTVSPost2010Prop56
140
1.0
102
RTVSPost2010PropOp56
 70
     1
102
RTVSPost2010Prop57
140
1.0
102
RTVSPost2010PropOp57
 70
     1
102
RTVSPropertyOp0
 70
     1
102
RTVSPropertyOp1
 70
     1
102
RTVSPropertyOp2
 70
     1
102
RTVSPropertyOp3
 70
     1
102
RTVSPropertyOp4
 70
     1
102
RTVSPropertyOp5
 70
     1
102
RTVSPropertyOp6
 70
     1
102
RTVSPropertyOp7
 70
     1
102
RTVSPropertyOp8
 70
     1
102
RTVSPropertyOp9
 70
     1
102
RTVSPropertyOp10
 70
     1
102
RTVSPropertyOp11
 70
     1
102
RTVSPropertyOp12
 70
     1
102
RTVSPropertyOp13
 70
     1
102
RTVSPropertyOp14
 70
     1
102
RTVSPropertyOp15
 70
     1
102
RTVSPropertyOp16
 70
     1
102
RTVSPropertyOp17
 70
     1
102
RTVSPropertyOp18
 70
     1
102
RTVSPropertyOp19
 70
     1
102
RTVSPropertyOp20
 70
     1
102
RTVSPropertyOp21
 70
     1
102
RTVSPropertyOp22
 70
     1
102
RTVSPropertyOp23
 70
     1
102
RTVSPropertyOp24
 70
     1
102
RTVSPropertyOp25
 70
     1
102
RTVSPropertyOp26
 70
     1
102
RTVSPropertyOp27
 70
     1
102
RTVSPropertyOp28
 70
     1
102
RTVSPropertyOp29
 70
     1
102
RTVSPropertyOp30
 70
     1
102
RTVSPropertyOp31
 70
     1
102
RTVSPropertyOp32
 70
     1
102
RTVSPropertyOp33
 70
     1
102
RTVSPropertyOp34
 70
     1
102
RTVSPropertyOp35
 70
     1
102
RTVSPropertyOp36
 70
     1
102
RTVSPropertyOp37
 70
     1
102
RTVSPropertyOp38
 70
     1
102
RTVSPropertyOp39
 70
     1
102
RTVSPropertyOp40
 70
     1
102
RTVSPropertyOp41
 70
     1
102
RTVSPropertyOp42
 70
     1
102
RTVSPropertyOp43
 70
     1
102
RTVSPropertyOp44
 70
     1
102
RTVSPropertyOp45
 70
     1
102
RTVSPropertyOp46
 70
     1
102
RTVSPropertyOp47
 70
     1
102
RTVSPropertyOp48
 70
     1
102
RTVSPropertyOp49
 70
     1
102
RTVSPropertyOp50
 70
     1
102
RTVSPropertyOp51
 70
     0
102
RTVSPropertyOp52
 70
     0
102
RTVSPropertyOp53
 70
     1
102
RTVSPropertyOp54
 70
     1
102
RTVSPropertyOp55
 70
     1
102
RTVSPropertyOp56
 70
     1
102
RTVSPropertyOp57
 70
     1
102
RTVSPropertyOp58
 70
     1
102
RTVSPropertyOp59
 70
     1
102
RTVSPropertyOp60
 70
     1
102
RTVSPropertyOp61
 70
     1
102
RTVSPropertyOp62
 70
     1
  0
ENDSEC
  0
EOF
