  0
SECTION
  2
HEADER
  9
$ACADVER
  1
AC1015
  9
$ACADMAINTVER
 70
    20
  9
$DWGCODEPAGE
  3
ANSI_932
  9
$INSBASE
 10
0.0
 20
0.0
 30
0.0
  9
$EXTMIN
 10
10.0
 20
9.999999999999998
 30
0.0
  9
$EXTMAX
 10
566.2311479999998
 20
474.8442299999998
 30
0.0
  9
$LIMMIN
 10
0.0
 20
0.0
  9
$LIMMAX
 10
792.0
 20
546.0
  9
$ORTHOMODE
 70
     1
  9
$REGENMODE
 70
     1
  9
$FILLMODE
 70
     1
  9
$QTEXTMODE
 70
     0
  9
$MIRRTEXT
 70
     1
  9
$LTSCALE
 40
20.0
  9
$ATTMODE
 70
     1
  9
$TEXTSIZE
 40
5.0
  9
$TRACEWID
 40
1.0
  9
$TEXTSTYLE
  7
STANDARD
  9
$CLAYER
  8
0
  9
$CELTYPE
  6
BYLAYER
  9
$CECOLOR
 62
   256
  9
$CELTSCALE
 40
1.0
  9
$DISPSILH
 70
     0
  9
$DIMSCALE
 40
1.0
  9
$DIMASZ
 40
3.0
  9
$DIMEXO
 40
1.0
  9
$DIMDLI
 40
10.0
  9
$DIMRND
 40
0.0
  9
$DIMDLE
 40
0.0
  9
$DIMEXE
 40
1.0
  9
$DIMTP
 40
0.0
  9
$DIMTM
 40
0.0
  9
$DIMTXT
 40
3.2
  9
$DIMCEN
 40
0.0
  9
$DIMTSZ
 40
0.0
  9
$DIMTOL
 70
     0
  9
$DIMLIM
 70
     0
  9
$DIMTIH
 70
     0
  9
$DIMTOH
 70
     0
  9
$DIMSE1
 70
     0
  9
$DIMSE2
 70
     0
  9
$DIMTAD
 70
     3
  9
$DIMZIN
 70
     8
  9
$DIMBLK
  1

  9
$DIMASO
 70
     1
  9
$DIMSHO
 70
     1
  9
$DIMPOST
  1

  9
$DIMAPOST
  1

  9
$DIMALT
 70
     0
  9
$DIMALTD
 70
     2
  9
$DIMALTF
 40
25.4
  9
$DIMLFAC
 40
1.0
  9
$DIMTOFL
 70
     1
  9
$DIMTVP
 40
0.0
  9
$DIMTIX
 70
     0
  9
$DIMSOXD
 70
     0
  9
$DIMSAH
 70
     1
  9
$DIMBLK1
  1
OPEN
  9
$DIMBLK2
  1
OPEN
  9
$DIMSTYLE
  2
STANDARD
  9
$DIMCLRD
 70
     0
  9
$DIMCLRE
 70
     0
  9
$DIMCLRT
 70
     0
  9
$DIMTFAC
 40
1.0
  9
$DIMGAP
 40
1.0
  9
$DIMJUST
 70
     0
  9
$DIMSD1
 70
     0
  9
$DIMSD2
 70
     0
  9
$DIMTOLJ
 70
     1
  9
$DIMTZIN
 70
     0
  9
$DIMALTZ
 70
     0
  9
$DIMALTTZ
 70
     0
  9
$DIMUPT
 70
     0
  9
$DIMDEC
 70
     4
  9
$DIMTDEC
 70
     4
  9
$DIMALTU
 70
     2
  9
$DIMALTTD
 70
     2
  9
$DIMTXSTY
  7
STANDARD
  9
$DIMAUNIT
 70
     0
  9
$DIMADEC
 70
     0
  9
$DIMALTRND
 40
0.0
  9
$DIMAZIN
 70
     0
  9
$DIMDSEP
 70
    46
  9
$DIMATFIT
 70
     3
  9
$DIMFRAC
 70
     0
  9
$DIMLDRBLK
  1
OPEN
  9
$DIMLUNIT
 70
     2
  9
$DIMLWD
 70
    -2
  9
$DIMLWE
 70
    -2
  9
$DIMTMOVE
 70
     0
  9
$LUNITS
 70
     2
  9
$LUPREC
 70
     4
  9
$SKETCHINC
 40
1.0
  9
$FILLETRAD
 40
1.0
  9
$AUNITS
 70
     0
  9
$AUPREC
 70
     2
  9
$MENU
  1
.
  9
$ELEVATION
 40
0.0
  9
$PELEVATION
 40
0.0
  9
$THICKNESS
 40
0.0
  9
$LIMCHECK
 70
     0
  9
$CHAMFERA
 40
10.0
  9
$CHAMFERB
 40
10.0
  9
$CHAMFERC
 40
0.0
  9
$CHAMFERD
 40
0.0
  9
$SKPOLY
 70
     0
  9
$TDCREATE
 40
2451301.578586575
  9
$TDUCREATE
 40
2451301.203586574
  9
$TDUPDATE
 40
2457192.687849039
  9
$TDUUPDATE
 40
2457192.312849040
  9
$TDINDWG
 40
0.0000110764
  9
$TDUSRTIMER
 40
0.0000107523
  9
$USRTIMER
 70
     1
  9
$ANGBASE
 50
0.0
  9
$ANGDIR
 70
     0
  9
$PDMODE
 70
     0
  9
$PDSIZE
 40
0.0
  9
$PLINEWID
 40
0.0
  9
$SPLFRAME
 70
     0
  9
$SPLINETYPE
 70
     6
  9
$SPLINESEGS
 70
     8
  9
$HANDSEED
  5
B72A
  9
$SURFTAB1
 70
     6
  9
$SURFTAB2
 70
     6
  9
$SURFTYPE
 70
     6
  9
$SURFU
 70
     6
  9
$SURFV
 70
     6
  9
$UCSBASE
  2

  9
$UCSNAME
  2

  9
$UCSORG
 10
0.0
 20
0.0
 30
0.0
  9
$UCSXDIR
 10
1.0
 20
0.0
 30
0.0
  9
$UCSYDIR
 10
0.0
 20
1.0
 30
0.0
  9
$UCSORTHOREF
  2

  9
$UCSORTHOVIEW
 70
     0
  9
$UCSORGTOP
 10
0.0
 20
0.0
 30
0.0
  9
$UCSORGBOTTOM
 10
0.0
 20
0.0
 30
0.0
  9
$UCSORGLEFT
 10
0.0
 20
0.0
 30
0.0
  9
$UCSORGRIGHT
 10
0.0
 20
0.0
 30
0.0
  9
$UCSORGFRONT
 10
0.0
 20
0.0
 30
0.0
  9
$UCSORGBACK
 10
0.0
 20
0.0
 30
0.0
  9
$PUCSBASE
  2

  9
$PUCSNAME
  2

  9
$PUCSORG
 10
0.0
 20
0.0
 30
0.0
  9
$PUCSXDIR
 10
1.0
 20
0.0
 30
0.0
  9
$PUCSYDIR
 10
0.0
 20
1.0
 30
0.0
  9
$PUCSORTHOREF
  2

  9
$PUCSORTHOVIEW
 70
     0
  9
$PUCSORGTOP
 10
0.0
 20
0.0
 30
0.0
  9
$PUCSORGBOTTOM
 10
0.0
 20
0.0
 30
0.0
  9
$PUCSORGLEFT
 10
0.0
 20
0.0
 30
0.0
  9
$PUCSORGRIGHT
 10
0.0
 20
0.0
 30
0.0
  9
$PUCSORGFRONT
 10
0.0
 20
0.0
 30
0.0
  9
$PUCSORGBACK
 10
0.0
 20
0.0
 30
0.0
  9
$USERI1
 70
     0
  9
$USERI2
 70
     0
  9
$USERI3
 70
     0
  9
$USERI4
 70
     0
  9
$USERI5
 70
     0
  9
$USERR1
 40
0.0
  9
$USERR2
 40
0.0
  9
$USERR3
 40
0.0
  9
$USERR4
 40
0.0
  9
$USERR5
 40
0.0
  9
$WORLDVIEW
 70
     1
  9
$SHADEDGE
 70
     3
  9
$SHADEDIF
 70
    70
  9
$TILEMODE
 70
     1
  9
$MAXACTVP
 70
    16
  9
$PINSBASE
 10
0.0
 20
0.0
 30
0.0
  9
$PLIMCHECK
 70
     0
  9
$PEXTMIN
 10
1.000000000000000E+20
 20
1.000000000000000E+20
 30
1.000000000000000E+20
  9
$PEXTMAX
 10
-1.000000000000000E+20
 20
-1.000000000000000E+20
 30
-1.000000000000000E+20
  9
$PLIMMIN
 10
0.0
 20
0.0
  9
$PLIMMAX
 10
420.0
 20
297.0
  9
$UNITMODE
 70
     0
  9
$VISRETAIN
 70
     0
  9
$PLINEGEN
 70
     0
  9
$PSLTSCALE
 70
     0
  9
$TREEDEPTH
 70
  3020
  9
$CMLSTYLE
  2
STANDARD
  9
$CMLJUST
 70
     0
  9
$CMLSCALE
 40
1.0
  9
$PROXYGRAPHICS
 70
     1
  9
$MEASUREMENT
 70
     0
  9
$CELWEIGHT
370
    -1
  9
$ENDCAPS
280
     0
  9
$JOINSTYLE
280
     0
  9
$LWDISPLAY
290
     0
  9
$INSUNITS
 70
     0
  9
$HYPERLINKBASE
  1

  9
$STYLESHEET
  1

  9
$XEDIT
290
     1
  9
$CEPSNTYPE
380
     0
  9
$PSTYLEMODE
290
     1
  9
$FINGERPRINTGUID
  2
{EB0C2DE1-B02B-4A48-8ED6-3AE1A5C45937}
  9
$VERSIONGUID
  2
{B0FA7B3E-C9A2-4273-8738-016AE2028F29}
  9
$EXTNAMES
290
     1
  9
$PSVPSCALE
 40
0.0
  9
$OLESTARTUP
290
     0
  0
ENDSEC
  0
SECTION
  2
CLASSES
  0
CLASS
  1
ACDBDICTIONARYWDFLT
  2
AcDbDictionaryWithDefault
  3
ObjectDBX Classes
 90
        0
280
     0
281
     0
  0
CLASS
  1
ACDBPLACEHOLDER
  2
AcDbPlaceHolder
  3
ObjectDBX Classes
 90
        0
280
     0
281
     0
  0
CLASS
  1
LAYOUT
  2
AcDbLayout
  3
ObjectDBX Classes
 90
        0
280
     0
281
     0
  0
CLASS
  1
DICTIONARYVAR
  2
AcDbDictionaryVar
  3
ObjectDBX Classes
 90
        0
280
     0
281
     0
  0
CLASS
  1
MATERIAL
  2
AcDbMaterial
  3
ObjectDBX Classes
 90
     1153
280
     0
281
     0
  0
CLASS
  1
VISUALSTYLE
  2
AcDbVisualStyle
  3
ObjectDBX Classes
 90
     4095
280
     0
281
     0
  0
CLASS
  1
TABLESTYLE
  2
AcDbTableStyle
  3
ObjectDBX Classes
 90
     4095
280
     0
281
     0
  0
CLASS
  1
SCALE
  2
AcDbScale
  3
ObjectDBX Classes
 90
     1153
280
     0
281
     0
  0
CLASS
  1
MLEADERSTYLE
  2
AcDbMLeaderStyle
  3
ACDB_MLEADERSTYLE_CLASS
 90
     4095
280
     0
281
     0
  0
CLASS
  1
ACDBSECTIONVIEWSTYLE
  2
AcDbSectionViewStyle
  3
ObjectDBX Classes
 90
     1025
280
     0
281
     0
  0
CLASS
  1
ACDBDETAILVIEWSTYLE
  2
AcDbDetailViewStyle
  3
ObjectDBX Classes
 90
     1025
280
     0
281
     0
  0
CLASS
  1
CELLSTYLEMAP
  2
AcDbCellStyleMap
  3
ObjectDBX Classes
 90
     1152
280
     0
281
     0
  0
ENDSEC
  0
SECTION
  2
TABLES
  0
TABLE
  2
VPORT
  5
B354
330
0
100
AcDbSymbolTable
 70
     1
  0
VPORT
  5
B673
330
B354
100
AcDbSymbolTableRecord
100
AcDbViewportTableRecord
  2
*ACTIVE
 70
     0
 10
0.0
 20
0.0
 11
1.0
 21
1.0
 12
428.9172375729775
 22
242.4241345364414
 13
0.0
 23
0.0
 14
10.0
 24
10.0
 15
10.0
 25
10.0
 16
0.0
 26
0.0
 36
1.0
 17
0.0
 27
0.0
 37
0.0
 40
470.0233416366584
 41
2.35006605019815
 42
50.0
 43
0.0
 44
0.0
 50
0.0
 51
0.0
 71
     0
 72
   100
 73
     1
 74
     0
 75
     0
 76
     0
 77
     0
 78
     0
281
     0
 65
     1
110
0.0
120
0.0
130
0.0
111
1.0
121
0.0
131
0.0
112
0.0
122
1.0
132
0.0
 79
     0
146
0.0
1001
ACAD_NAV_VCDISPLAY
1070
     3
  0
ENDTAB
  0
TABLE
  2
LTYPE
  5
B351
330
0
100
AcDbSymbolTable
 70
     4
  0
LTYPE
  5
B35F
330
B351
100
AcDbSymbolTableRecord
100
AcDbLinetypeTableRecord
  2
BYBLOCK
 70
     0
  3

 72
    65
 73
     0
 40
0.0
  0
LTYPE
  5
B360
330
B351
100
AcDbSymbolTableRecord
100
AcDbLinetypeTableRecord
  2
BYLAYER
 70
     0
  3

 72
    65
 73
     0
 40
0.0
  0
LTYPE
  5
B361
330
B351
100
AcDbSymbolTableRecord
100
AcDbLinetypeTableRecord
  2
CONTINUOUS
 70
     0
  3
Solid line
 72
    65
 73
     0
 40
0.0
  0
LTYPE
  5
B36F
330
B351
100
AcDbSymbolTableRecord
100
AcDbLinetypeTableRecord
  2
DASHED
 70
     0
  3
__ __ __ __ __ __ __ __ __ __ __ __ __ __ __ __
 72
    65
 73
     2
 40
0.75
 49
0.5
 74
     0
 49
-0.25
 74
     0
  0
LTYPE
  5
B370
330
B351
100
AcDbSymbolTableRecord
100
AcDbLinetypeTableRecord
  2
CENTER
 70
     0
  3
____ _ ____ _ ____ _ ____ _ ____ _ ____ _ ____ 
 72
    65
 73
     4
 40
2.0
 49
1.25
 74
     0
 49
-0.25
 74
     0
 49
0.25
 74
     0
 49
-0.25
 74
     0
  0
LTYPE
  5
B371
330
B351
100
AcDbSymbolTableRecord
100
AcDbLinetypeTableRecord
  2
PHANTOM
 70
     0
  3
______  __  __  ______  __  __  ______  __  __ 
 72
    65
 73
     6
 40
2.5
 49
1.25
 74
     0
 49
-0.25
 74
     0
 49
0.25
 74
     0
 49
-0.25
 74
     0
 49
0.25
 74
     0
 49
-0.25
 74
     0
  0
ENDTAB
  0
TABLE
  2
LAYER
  5
B34E
330
0
100
AcDbSymbolTable
 70
     8
  0
LAYER
  5
B35C
102
{ACAD_XDICTIONARY
360
B6CE
102
}
330
B34E
100
AcDbSymbolTableRecord
100
AcDbLayerTableRecord
  2
0
 70
     0
 62
     7
  6
CONTINUOUS
370
    -3
390
B67C
  0
LAYER
  5
B372
102
{ACAD_XDICTIONARY
360
B6D0
102
}
330
B34E
100
AcDbSymbolTableRecord
100
AcDbLayerTableRecord
  2
4
 70
     0
 62
     1
  6
CENTER
370
    -3
390
B67C
  0
LAYER
  5
B373
102
{ACAD_XDICTIONARY
360
B6D2
102
}
330
B34E
100
AcDbSymbolTableRecord
100
AcDbLayerTableRecord
  2
5
 70
     0
 62
     6
  6
PHANTOM
370
    -3
390
B67C
  0
LAYER
  5
B374
102
{ACAD_XDICTIONARY
360
B6D4
102
}
330
B34E
100
AcDbSymbolTableRecord
100
AcDbLayerTableRecord
  2
1
 70
     0
 62
     7
  6
CONTINUOUS
370
    -3
390
B67C
  0
LAYER
  5
B375
102
{ACAD_XDICTIONARY
360
B6D6
102
}
330
B34E
100
AcDbSymbolTableRecord
100
AcDbLayerTableRecord
  2
2
 70
     0
 62
     4
  6
CONTINUOUS
370
    -3
390
B67C
  0
LAYER
  5
B376
102
{ACAD_XDICTIONARY
360
B6D8
102
}
330
B34E
100
AcDbSymbolTableRecord
100
AcDbLayerTableRecord
  2
3
 70
     0
 62
     2
  6
DASHED
370
    -3
390
B67C
  0
LAYER
  5
B377
102
{ACAD_XDICTIONARY
360
B6DA
102
}
330
B34E
100
AcDbSymbolTableRecord
100
AcDbLayerTableRecord
  2
6
 70
     0
 62
     5
  6
CONTINUOUS
370
    -3
390
B67C
  0
LAYER
  5
B378
102
{ACAD_XDICTIONARY
360
B6DC
102
}
330
B34E
100
AcDbSymbolTableRecord
100
AcDbLayerTableRecord
  2
7
 70
     0
 62
     3
  6
CONTINUOUS
370
    -3
390
B67C
  0
ENDTAB
  0
TABLE
  2
STYLE
  5
B34F
330
0
100
AcDbSymbolTable
 70
     1
  0
STYLE
  5
B35D
330
B34F
100
AcDbSymbolTableRecord
100
AcDbTextStyleTableRecord
  2
STANDARD
 70
     0
 40
0.0
 41
1.0
 50
0.0
 71
     0
 42
5.0
  3
txt
  4

  0
ENDTAB
  0
TABLE
  2
VIEW
  5
B352
330
0
100
AcDbSymbolTable
 70
     0
  0
ENDTAB
  0
TABLE
  2
UCS
  5
B353
330
0
100
AcDbSymbolTable
 70
     0
  0
ENDTAB
  0
TABLE
  2
APPID
  5
B355
330
0
100
AcDbSymbolTable
 70
     3
  0
APPID
  5
B35E
330
B355
100
AcDbSymbolTableRecord
100
AcDbRegAppTableRecord
  2
ACAD
 70
     0
  0
APPID
  5
B6E8
330
B355
100
AcDbSymbolTableRecord
100
AcDbRegAppTableRecord
  2
ACAD_NAV_VCDISPLAY
 70
     0
  0
APPID
  5
B721
330
B355
100
AcDbSymbolTableRecord
100
AcDbRegAppTableRecord
  2
ACAD_MLEADERVER
 70
     0
  0
ENDTAB
  0
TABLE
  2
DIMSTYLE
  5
B356
330
0
100
AcDbSymbolTable
 70
     1
100
AcDbDimStyleTable
 71
     0
  0
DIMSTYLE
105
B37A
330
B356
100
AcDbSymbolTableRecord
100
AcDbDimStyleTableRecord
  2
STANDARD
 70
     0
 41
3.0
 42
1.0
 43
10.0
 44
1.0
 73
     0
 74
     0
 77
     3
 78
     8
140
3.2
141
0.0
147
1.0
172
     1
173
     1
284
     8
285
     8
286
     8
340
B35D
  0
ENDTAB
  0
TABLE
  2
BLOCK_RECORD
  5
B34D
330
0
100
AcDbSymbolTable
 70
     1
  0
BLOCK_RECORD
  5
B36A
102
{ACAD_XDICTIONARY
360
B676
102
}
330
B34D
100
AcDbSymbolTableRecord
100
AcDbBlockTableRecord
  2
*MODEL_SPACE
340
B6CA
  0
BLOCK_RECORD
  5
B366
102
{ACAD_XDICTIONARY
360
B674
102
}
330
B34D
100
AcDbSymbolTableRecord
100
AcDbBlockTableRecord
  2
*PAPER_SPACE
340
B6CB
  0
BLOCK_RECORD
  5
B382
330
B34D
100
AcDbSymbolTableRecord
100
AcDbBlockTableRecord
  2
_OPEN
340
0
  0
ENDTAB
  0
ENDSEC
  0
SECTION
  2
BLOCKS
  0
BLOCK
  5
B36B
330
B36A
100
AcDbEntity
  8
0
100
AcDbBlockBegin
  2
*MODEL_SPACE
 70
     0
 10
0.0
 20
0.0
 30
0.0
  3
*MODEL_SPACE
  1

  0
ENDBLK
  5
B36C
330
B36A
100
AcDbEntity
  8
0
100
AcDbBlockEnd
  0
BLOCK
  5
B367
330
B366
100
AcDbEntity
 67
     1
  8
0
100
AcDbBlockBegin
  2
*PAPER_SPACE
 70
     0
 10
0.0
 20
0.0
 30
0.0
  3
*PAPER_SPACE
  1

  0
ENDBLK
  5
B368
330
B366
100
AcDbEntity
 67
     1
  8
0
100
AcDbBlockEnd
  0
BLOCK
  5
B383
330
B382
100
AcDbEntity
  8
0
100
AcDbBlockBegin
  2
_OPEN
 70
     0
 10
0.0
 20
0.0
 30
0.0
  3
_OPEN
  1

  0
LINE
  5
B384
330
B382
100
AcDbEntity
  8
0
  6
ByBlock
 62
     0
100
AcDbLine
 10
-1.0
 20
0.166667
 30
0.0
 11
0.0
 21
0.0
 31
0.0
  0
LINE
  5
B385
330
B382
100
AcDbEntity
  8
0
  6
ByBlock
 62
     0
100
AcDbLine
 10
0.0
 20
0.0
 30
0.0
 11
-1.0
 21
-0.166667
 31
0.0
  0
LINE
  5
B386
330
B382
100
AcDbEntity
  8
0
  6
ByBlock
 62
     0
100
AcDbLine
 10
0.0
 20
0.0
 30
0.0
 11
-1.0
 21
0.0
 31
0.0
  0
ENDBLK
  5
B387
330
B382
100
AcDbEntity
  8
0
100
AcDbBlockEnd
  0
ENDSEC
  0
SECTION
  2
ENTITIES
  0
TEXT
  5
B388
330
B36A
100
AcDbEntity
  8
7
  6
Continuous
100
AcDbText
 10
10.0
 20
18.0
 30
0.0
 40
3.0
  1
TYPE No.208 d=21
100
AcDbText
  0
TEXT
  5
B389
330
B36A
100
AcDbEntity
  8
7
  6
Continuous
100
AcDbText
 10
10.0
 20
26.0
 30
0.0
 40
3.0
  1
CODE No.9170
100
AcDbText
  0
TEXT
  5
B38A
330
B36A
100
AcDbEntity
  8
1
  6
Continuous
100
AcDbText
 10
10.0
 20
10.0
 30
0.0
 40
1.399999999999999
  1
LAYER
100
AcDbText
  0
TEXT
  5
B38B
330
B36A
100
AcDbEntity
  8
1
  6
Continuous
100
AcDbText
 10
17.97951099999998
 20
10.04873699999998
 30
0.0
 40
1.399999999999999
  1
1
100
AcDbText
  0
TEXT
  5
B38C
330
B36A
100
AcDbEntity
  8
7
  6
Continuous
100
AcDbText
 10
29.97951099999999
 20
10.04873699999998
 30
0.0
 40
1.399999999999999
  1
7
100
AcDbText
  0
TEXT
  5
B38D
330
B36A
100
AcDbEntity
  8
4
  6
CENTER
100
AcDbText
 10
23.97951099999999
 20
10.04873699999998
 30
0.0
 40
1.399999999999999
  1
4
100
AcDbText
  0
TEXT
  5
B38E
330
B36A
100
AcDbEntity
  8
3
  6
DASHED
100
AcDbText
 10
21.979511
 20
10.04873699999998
 30
0.0
 40
1.399999999999999
  1
3
100
AcDbText
  0
TEXT
  5
B38F
330
B36A
100
AcDbEntity
  8
2
  6
Continuous
100
AcDbText
 10
19.97951099999999
 20
10.04873699999998
 30
0.0
 40
1.399999999999999
  1
2
100
AcDbText
  0
TEXT
  5
B390
330
B36A
100
AcDbEntity
  8
6
  6
Continuous
100
AcDbText
 10
27.979511
 20
10.04873699999998
 30
0.0
 40
1.399999999999999
  1
6
100
AcDbText
  0
TEXT
  5
B391
330
B36A
100
AcDbEntity
  8
5
  6
PHANTOM
100
AcDbText
 10
25.97951099999999
 20
10.04873699999998
 30
0.0
 40
1.399999999999999
  1
5
100
AcDbText
  0
LINE
  5
B392
330
B36A
100
AcDbEntity
  8
4
  6
CENTER
100
AcDbLine
 10
318.0098619999998
 20
229.6277349999999
 30
0.0
 11
378.6262299999998
 21
229.6277349999999
 31
0.0
  0
LINE
  5
B393
330
B36A
100
AcDbEntity
  8
1
  6
Continuous
100
AcDbLine
 10
324.6976399999998
 20
304.462739
 30
0.0
 11
378.0698399999999
 21
304.462739
 31
0.0
  0
LINE
  5
B394
330
B36A
100
AcDbEntity
  8
4
  6
CENTER
100
AcDbLine
 10
282.2363389999998
 20
229.6277389999999
 30
0.0
 11
136.2363389999998
 21
229.6277389999999
 31
0.0
  0
LINE
  5
B395
330
B36A
100
AcDbEntity
  8
4
  6
CENTER
100
AcDbLine
 10
209.236339
 20
157.1487389999998
 30
0.0
 11
209.236339
 21
302.627739
 31
0.0
  0
LINE
  5
B396
330
B36A
100
AcDbEntity
  8
4
  6
CENTER
100
AcDbLine
 10
351.233743
 20
370.627923
 30
0.0
 11
351.233743
 21
156.777739
 31
0.0
  0
ARC
  5
B397
330
B36A
100
AcDbEntity
  8
1
  6
Continuous
100
AcDbCircle
 10
104.985169
 20
195.920948
 30
0.0
 40
277.8421779999998
100
AcDbArc
 50
13.58600199999999
 51
19.83204999999999
  0
ARC
  5
B398
330
B36A
100
AcDbEntity
  8
1
  6
Continuous
100
AcDbCircle
 10
104.9496709999999
 20
195.752224
 30
0.0
 40
280.2147699999999
100
AcDbArc
 50
13.044057
 51
19.16351999999999
  0
ARC
  5
B399
330
B36A
100
AcDbEntity
  8
1
  6
Continuous
100
AcDbCircle
 10
346.197645
 20
251.827299
 30
0.0
 40
32.53609799999999
100
AcDbArc
 50
2.672433999999999
 51
12.72982799999999
  0
LINE
  5
B39A
330
B36A
100
AcDbEntity
  8
1
  6
Continuous
100
AcDbLine
 10
369.586525
 20
226.8988069999998
 30
0.0
 11
369.576723
 21
217.1277529999999
 31
0.0
  0
ARC
  5
B39B
330
B36A
100
AcDbEntity
  8
1
  6
Continuous
100
AcDbCircle
 10
360.7812739999998
 20
288.20501
 30
0.0
 40
5.908440999999998
100
AcDbArc
 50
19.557187
 51
71.279225
  0
ARC
  5
B39C
330
B36A
100
AcDbEntity
  8
1
  6
Continuous
100
AcDbCircle
 10
360.921012
 20
284.7600429999999
 30
0.0
 40
9.209889
100
AcDbArc
 50
18.85874099999998
 51
79.00453
  0
ARC
  5
B39D
330
B36A
100
AcDbEntity
  8
1
  6
Continuous
100
AcDbCircle
 10
351.233743
 20
234.9023229999999
 30
0.0
 40
60.0
100
AcDbArc
 50
79.00453
 51
100.9954699999999
  0
LINE
  5
B39E
330
B36A
100
AcDbEntity
  8
4
  6
CENTER
100
AcDbLine
 10
245.2363389999999
 20
249.214135
 30
0.0
 11
245.2363389999999
 21
370.627923
 31
0.0
  0
LINE
  5
B39F
330
B36A
100
AcDbEntity
  8
1
  6
Continuous
100
AcDbLine
 10
223.76406
 20
300.798268
 30
0.0
 11
223.76406
 21
230.793644
 31
0.0
  0
ARC
  5
B3A0
330
B36A
100
AcDbEntity
  8
1
  6
Continuous
100
AcDbCircle
 10
107.3197639999999
 20
351.653945
 30
0.0
 40
171.799
100
AcDbArc
 50
309.937791
 51
339.6990839999999
  0
ARC
  5
B3A1
330
B36A
100
AcDbEntity
  8
1
  6
Continuous
100
AcDbCircle
 10
80.74851200000003
 20
296.1153649999999
 30
0.0
 40
132.243177
100
AcDbArc
 50
332.685565
 51
2.590463
  0
ARC
  5
B3A2
330
B36A
100
AcDbEntity
  8
1
  6
Continuous
100
AcDbCircle
 10
209.4863389999999
 20
229.6277389999999
 30
0.0
 40
12.65
100
AcDbArc
 50
152.6855649999999
 51
309.937791
  0
LINE
  5
B3A3
330
B36A
100
AcDbEntity
  8
1
  6
Continuous
100
AcDbLine
 10
271.9224389999999
 20
304.312739
 30
0.0
 11
218.5502389999999
 21
304.312739
 31
0.0
  0
ARC
  5
B3A4
330
B36A
100
AcDbEntity
  8
1
  6
Continuous
100
AcDbCircle
 10
266.252922
 20
300.152624
 30
0.0
 40
6.768752
100
AcDbArc
 50
16.69546099999999
 51
28.62323099999998
  0
ARC
  5
B3A5
330
B36A
100
AcDbEntity
  8
1
  6
Continuous
100
AcDbCircle
 10
269.50967
 20
301.929974
 30
0.0
 40
3.058577999999998
100
AcDbArc
 50
28.62323099999998
 51
51.173052
  0
LINE
  5
B3A6
330
B36A
100
AcDbEntity
  8
1
  6
Continuous
100
AcDbLine
 10
209.418711
 20
302.091789
 30
0.0
 11
223.7636549999999
 21
302.091789
 31
0.0
  0
ARC
  5
B3A7
330
B36A
100
AcDbEntity
  8
1
  6
Continuous
100
AcDbCircle
 10
221.4179389999999
 20
302.519206
 30
0.0
 40
2.384338999999997
100
AcDbArc
 50
349.6733199999998
 51
48.78250799999999
  0
ARC
  5
B3A8
330
B36A
100
AcDbEntity
  8
1
  6
Continuous
100
AcDbCircle
 10
217.7253169999999
 20
303.2410889999998
 30
0.0
 40
1.188780999999998
100
AcDbArc
 50
284.807772
 51
2.109159
  0
ARC
  5
B3A9
330
B36A
100
AcDbEntity
  8
1
  6
Continuous
100
AcDbCircle
 10
221.1087229999999
 20
302.604599
 30
0.0
 40
2.298399999999999
100
AcDbArc
 50
131.996419
 51
162.784696
  0
LINE
  5
B3AA
330
B36A
100
AcDbEntity
  8
1
  6
Continuous
100
AcDbLine
 10
209.260104
 20
299.5381619999998
 30
0.0
 11
212.947386
 21
299.5381619999998
 31
0.0
  0
ARC
  5
B3AB
330
B36A
100
AcDbEntity
  8
1
  6
Continuous
100
AcDbCircle
 10
210.1356829999998
 20
301.1713379999998
 30
0.0
 40
2.172123
100
AcDbArc
 50
163.484735
 51
182.237079
  0
ARC
  5
B3AC
330
B36A
100
AcDbEntity
  8
1
  6
Continuous
100
AcDbCircle
 10
199.7357799999998
 20
299.1607989999998
 30
0.0
 40
8.451753
100
AcDbArc
 50
4.483236999999999
 51
13.17066
  0
ARC
  5
B3AD
330
B36A
100
AcDbEntity
  8
1
  6
Continuous
100
AcDbCircle
 10
208.578211
 20
301.029678
 30
0.0
 40
0.9230079999999999
100
AcDbArc
 50
108.7945229999998
 51
124.668912
  0
LINE
  5
B3AE
330
B36A
100
AcDbEntity
  8
1
  6
Continuous
100
AcDbLine
 10
208.2973739999999
 20
299.65751
 30
0.0
 11
208.1616719999999
 21
299.821451
 31
0.0
  0
ARC
  5
B3AF
330
B36A
100
AcDbEntity
  8
1
  6
Continuous
100
AcDbCircle
 10
209.260104
 20
303.480799
 30
0.0
 40
3.942636999999998
100
AcDbArc
 50
255.866358
 51
270.0
  0
ARC
  5
B3B0
330
B36A
100
AcDbEntity
  8
1
  6
Continuous
100
AcDbCircle
 10
209.418711
 20
298.5599509999999
 30
0.0
 40
3.531837999999998
100
AcDbArc
 50
90.0
 51
108.7945229999998
  0
LINE
  5
B3B1
330
B36A
100
AcDbEntity
  8
4
  6
CENTER
100
AcDbLine
 10
66.238934
 20
370.6279369999998
 30
0.0
 11
66.238934
 21
156.6277389999999
 31
0.0
  0
LINE
  5
B3B2
330
B36A
100
AcDbEntity
  8
1
  6
Continuous
100
AcDbLine
 10
84.663128
 20
298.0877899999999
 30
0.0
 11
84.58176299999998
 21
216.9777529999998
 31
0.0
  0
LINE
  5
B3B3
330
B36A
100
AcDbEntity
  8
1
  6
Continuous
100
AcDbLine
 10
82.06357699999998
 20
298.537173
 30
0.0
 11
81.99445199999997
 21
229.6277529999999
 31
0.0
  0
LINE
  5
B3B4
330
B36A
100
AcDbEntity
  8
1
  6
Continuous
100
AcDbLine
 10
47.81474099999999
 20
298.0877899999999
 30
0.0
 11
47.896105
 21
216.9777529999998
 31
0.0
  0
LINE
  5
B3B5
330
B36A
100
AcDbEntity
  8
1
  6
Continuous
100
AcDbLine
 10
50.414291
 20
298.537173
 30
0.0
 11
50.496107
 21
216.9777529999998
 31
0.0
  0
ARC
  5
B3B6
330
B36A
100
AcDbEntity
  8
1
  6
Continuous
100
AcDbCircle
 10
53.938665
 20
254.901466
 30
0.0
 40
39.801511
100
AcDbArc
 50
332.553191
 51
359.5473579999999
  0
ARC
  5
B3B7
330
B36A
100
AcDbEntity
  8
1
  6
Continuous
100
AcDbCircle
 10
78.539203
 20
254.901466
 30
0.0
 40
39.801511
100
AcDbArc
 50
180.452642
 51
210.446211
  0
LINE
  5
B3B8
330
B36A
100
AcDbEntity
  8
4
  6
CENTER
100
AcDbLine
 10
38.33146
 20
229.6277529999999
 30
0.0
 11
98.48692900000001
 21
229.6277529999999
 31
0.0
  0
LINE
  5
B3B9
330
B36A
100
AcDbEntity
  8
1
  6
Continuous
100
AcDbLine
 10
47.896105
 20
216.9777529999998
 30
0.0
 11
50.496107
 21
216.9777529999998
 31
0.0
  0
LINE
  5
B3BA
330
B36A
100
AcDbEntity
  8
1
  6
Continuous
100
AcDbLine
 10
50.488934
 20
224.127753
 30
0.0
 11
50.488934
 21
229.6277529999999
 31
0.0
  0
LINE
  5
B3BB
330
B36A
100
AcDbEntity
  8
1
  6
Continuous
100
AcDbLine
 10
81.98893400000001
 20
216.9777529999998
 30
0.0
 11
81.98893400000001
 21
229.6277529999999
 31
0.0
  0
LINE
  5
B3BC
330
B36A
100
AcDbEntity
  8
1
  6
Continuous
100
AcDbLine
 10
86.586929
 20
222.127753
 30
0.0
 11
86.586929
 21
237.1277529999999
 31
0.0
  0
LINE
  5
B3BD
330
B36A
100
AcDbEntity
  8
1
  6
Continuous
100
AcDbLine
 10
81.981762
 20
216.9777529999998
 30
0.0
 11
84.58176299999998
 21
216.9777529999998
 31
0.0
  0
LINE
  5
B3BE
330
B36A
100
AcDbEntity
  8
1
  6
Continuous
100
AcDbLine
 10
84.586929
 20
222.127753
 30
0.0
 11
86.586929
 21
222.127753
 31
0.0
  0
LINE
  5
B3BF
330
B36A
100
AcDbEntity
  8
1
  6
Continuous
100
AcDbLine
 10
84.60197599999998
 20
237.1277529999999
 30
0.0
 11
86.586929
 21
237.1277529999999
 31
0.0
  0
LINE
  5
B3C0
330
B36A
100
AcDbEntity
  8
1
  6
Continuous
100
AcDbLine
 10
51.41429099999999
 20
299.5381759999999
 30
0.0
 11
81.06357800000003
 21
299.5381759999999
 31
0.0
  0
LINE
  5
B3C1
330
B36A
100
AcDbEntity
  8
1
  6
Continuous
100
AcDbLine
 10
51.814739
 20
302.0918029999999
 30
0.0
 11
80.66312999999999
 21
302.0918029999999
 31
0.0
  0
LINE
  5
B3C2
330
B36A
100
AcDbEntity
  8
1
  6
Continuous
100
AcDbLine
 10
39.552826
 20
304.312753
 30
0.0
 11
92.925026
 21
304.312753
 31
0.0
  0
ARC
  5
B3C3
330
B36A
100
AcDbEntity
  8
1
  6
Continuous
100
AcDbCircle
 10
51.814739
 20
298.0918029999999
 30
0.0
 40
4.0
100
AcDbArc
 50
90.0
 51
180.057476
  0
ARC
  5
B3C4
330
B36A
100
AcDbEntity
  8
1
  6
Continuous
100
AcDbCircle
 10
51.41429099999999
 20
298.5381759999999
 30
0.0
 40
1.0
100
AcDbArc
 50
90.0
 51
180.057476
  0
ARC
  5
B3C5
330
B36A
100
AcDbEntity
  8
1
  6
Continuous
100
AcDbCircle
 10
81.06357800000003
 20
298.5381759999999
 30
0.0
 40
1.0
100
AcDbArc
 50
359.9425239999998
 51
90.0
  0
ARC
  5
B3C6
330
B36A
100
AcDbEntity
  8
1
  6
Continuous
100
AcDbCircle
 10
80.66312999999999
 20
298.0918029999999
 30
0.0
 40
4.0
100
AcDbArc
 50
359.9425239999998
 51
90.0
  0
LINE
  5
B3C7
330
B36A
100
AcDbEntity
  8
1
  6
Continuous
100
AcDbLine
 10
38.738934
 20
297.5437529999999
 30
0.0
 11
38.738934
 21
254.587033
 31
0.0
  0
LINE
  5
B3C8
330
B36A
100
AcDbEntity
  8
1
  6
Continuous
100
AcDbLine
 10
93.738934
 20
297.5437529999999
 30
0.0
 11
93.738934
 21
254.587033
 31
0.0
  0
ARC
  5
B3C9
330
B36A
100
AcDbEntity
  8
1
  6
Continuous
100
AcDbCircle
 10
45.50793399999998
 20
297.5437529999999
 30
0.0
 40
6.769
100
AcDbArc
 50
90.0
 51
180.0
  0
ARC
  5
B3CA
330
B36A
100
AcDbEntity
  8
1
  6
Continuous
100
AcDbCircle
 10
86.96993399999998
 20
297.5437529999999
 30
0.0
 40
6.769
100
AcDbArc
 50
0.0
 51
90.0
  0
LINE
  5
B3CB
330
B36A
100
AcDbEntity
  8
1
  6
Continuous
100
AcDbLine
 10
84.594453
 20
229.6277529999999
 30
0.0
 11
86.586929
 21
231.620229
 31
0.0
  0
LINE
  5
B3CC
330
B36A
100
AcDbEntity
  8
1
  6
Continuous
100
AcDbLine
 10
84.59245200000003
 20
227.6332759999998
 30
0.0
 11
86.586929
 21
229.6277529999999
 31
0.0
  0
LINE
  5
B3CD
330
B36A
100
AcDbEntity
  8
1
  6
Continuous
100
AcDbLine
 10
378.733743
 20
297.336739
 30
0.0
 11
378.733743
 21
254.7370059999999
 31
0.0
  0
LINE
  5
B3CE
330
B36A
100
AcDbEntity
  8
1
  6
Continuous
100
AcDbLine
 10
323.733743
 20
297.336739
 30
0.0
 11
323.733743
 21
254.73706
 31
0.0
  0
ARC
  5
B3CF
330
B36A
100
AcDbEntity
  8
1
  6
Continuous
100
AcDbCircle
 10
330.8597429999999
 20
297.336739
 30
0.0
 40
7.126
100
AcDbArc
 50
90.0
 51
180.0
  0
ARC
  5
B3D0
330
B36A
100
AcDbEntity
  8
1
  6
Continuous
100
AcDbCircle
 10
371.607743
 20
297.336739
 30
0.0
 40
7.126
100
AcDbArc
 50
0.0
 51
90.0
  0
ARC
  5
B3D1
330
B36A
100
AcDbEntity
  8
1
  6
Continuous
100
AcDbCircle
 10
597.4823169999997
 20
195.920948
 30
0.0
 40
277.8421779999998
100
AcDbArc
 50
160.1679499999999
 51
166.985586
  0
ARC
  5
B3D2
330
B36A
100
AcDbEntity
  8
1
  6
Continuous
100
AcDbCircle
 10
597.517816
 20
195.752224
 30
0.0
 40
280.2147699999999
100
AcDbArc
 50
160.8364799999999
 51
166.9559429999999
  0
ARC
  5
B3D3
330
B36A
100
AcDbEntity
  8
1
  6
Continuous
100
AcDbCircle
 10
341.5464739999999
 20
284.7600429999999
 30
0.0
 40
9.209889
100
AcDbArc
 50
100.9954699999999
 51
161.141259
  0
ARC
  5
B3D4
330
B36A
100
AcDbEntity
  8
1
  6
Continuous
100
AcDbCircle
 10
341.686212
 20
288.20501
 30
0.0
 40
5.908440999999998
100
AcDbArc
 50
108.720775
 51
160.442813
  0
ARC
  5
B3D5
330
B36A
100
AcDbEntity
  8
1
  6
Continuous
100
AcDbCircle
 10
338.9334739999999
 20
255.051466
 30
0.0
 40
39.801511
100
AcDbArc
 50
324.005645
 51
359.5473579999999
  0
LINE
  5
B3D6
330
B36A
100
AcDbEntity
  8
1
  6
Continuous
100
AcDbLine
 10
335.419599
 20
288.221586
 30
0.0
 11
335.4909149999999
 21
217.1277529999999
 31
0.0
  0
LINE
  5
B3D7
330
B36A
100
AcDbEntity
  8
1
  6
Continuous
100
AcDbLine
 10
367.047888
 20
288.221585
 30
0.0
 11
366.9765699999999
 21
217.1277529999999
 31
0.0
  0
LINE
  5
B3D8
330
B36A
100
AcDbEntity
  8
1
  6
Continuous
100
AcDbLine
 10
369.576723
 20
217.1277529999999
 30
0.0
 11
366.9765699999999
 21
217.1277529999999
 31
0.0
  0
LINE
  5
B3D9
330
B36A
100
AcDbEntity
  8
1
  6
Continuous
100
AcDbLine
 10
335.4909149999999
 20
217.1277529999999
 30
0.0
 11
332.890914
 21
217.1277529999999
 31
0.0
  0
ARC
  5
B3DA
330
B36A
100
AcDbEntity
  8
1
  6
Continuous
100
AcDbCircle
 10
377.701521
 20
226.890666
 30
0.0
 40
8.115
100
AcDbArc
 50
144.0056449999999
 51
179.942522
  0
ARC
  5
B3DB
330
B36A
100
AcDbEntity
  8
1
  6
Continuous
100
AcDbCircle
 10
338.9334739999999
 20
255.051466
 30
0.0
 40
37.20151099999998
100
AcDbArc
 50
324.005645
 51
344.602802
  0
ARC
  5
B3DC
330
B36A
100
AcDbEntity
  8
1
  6
Continuous
100
AcDbCircle
 10
377.701521
 20
226.890666
 30
0.0
 40
10.715
100
AcDbArc
 50
144.0056449999999
 51
179.942522
  0
ARC
  5
B3DD
330
B36A
100
AcDbEntity
  8
1
  6
Continuous
100
AcDbCircle
 10
343.9482949999999
 20
253.670418
 30
0.0
 40
32.0
100
AcDbArc
 50
344.602802
 51
13.58600199999999
  0
ARC
  5
B3DE
330
B36A
100
AcDbEntity
  8
1
  6
Continuous
100
AcDbCircle
 10
358.5191919999999
 20
253.670418
 30
0.0
 40
32.0
100
AcDbArc
 50
166.4139979999999
 51
195.3971979999998
  0
ARC
  5
B3DF
330
B36A
100
AcDbEntity
  8
1
  6
Continuous
100
AcDbCircle
 10
356.2698409999999
 20
251.827299
 30
0.0
 40
32.53609799999999
100
AcDbArc
 50
167.270172
 51
177.3275659999999
  0
ARC
  5
B3E0
330
B36A
100
AcDbEntity
  8
1
  6
Continuous
100
AcDbCircle
 10
363.534012
 20
255.051466
 30
0.0
 40
39.801511
100
AcDbArc
 50
180.452642
 51
215.9943549999999
  0
ARC
  5
B3E1
330
B36A
100
AcDbEntity
  8
1
  6
Continuous
100
AcDbCircle
 10
363.534012
 20
255.051466
 30
0.0
 40
37.20151099999998
100
AcDbArc
 50
195.3971979999998
 51
215.9943549999999
  0
ARC
  5
B3E2
330
B36A
100
AcDbEntity
  8
1
  6
Continuous
100
AcDbCircle
 10
324.765966
 20
226.890666
 30
0.0
 40
10.715
100
AcDbArc
 50
0.057478
 51
35.994355
  0
ARC
  5
B3E3
330
B36A
100
AcDbEntity
  8
1
  6
Continuous
100
AcDbCircle
 10
324.765966
 20
226.890666
 30
0.0
 40
8.115
100
AcDbArc
 50
0.057478
 51
35.994355
  0
LINE
  5
B3E4
330
B36A
100
AcDbEntity
  8
1
  6
Continuous
100
AcDbLine
 10
332.880962
 20
226.8988069999998
 30
0.0
 11
332.890764
 21
217.1277529999999
 31
0.0
  0
LINE
  5
B3E5
330
B36A
100
AcDbEntity
  8
1
  6
Continuous
100
AcDbLine
 10
272.7363389999998
 20
294.7523229999998
 30
0.0
 11
272.7363389999998
 21
302.0971829999999
 31
0.0
  0
ARC
  5
B3E6
330
B36A
100
AcDbEntity
  8
1
  6
Continuous
100
AcDbCircle
 10
272.588482
 20
290.2331859999998
 30
0.0
 40
4.521554
100
AcDbArc
 50
88.126069
 51
156.3338149999998
  0
LINE
  5
B3E7
330
B36A
100
AcDbEntity
  8
4
  6
CENTER
100
AcDbLine
 10
279.236357
 20
87.422368
 30
0.0
 11
139.2363389999998
 21
87.422368
 31
0.0
  0
LINE
  5
B3E8
330
B36A
100
AcDbEntity
  8
4
  6
CENTER
100
AcDbLine
 10
245.2363389999999
 20
119.922368
 30
0.0
 11
245.2363389999999
 21
54.922368
 31
0.0
  0
LINE
  5
B3E9
330
B36A
100
AcDbEntity
  8
1
  6
Continuous
100
AcDbLine
 10
196.836339
 20
71.65441300000002
 30
0.0
 11
220.1895700000001
 21
71.67783900000002
 31
0.0
  0
LINE
  5
B3EA
330
B36A
100
AcDbEntity
  8
1
  6
Continuous
100
AcDbLine
 10
196.836339
 20
69.054411
 30
0.0
 11
220.19218
 21
69.07784000000001
 31
0.0
  0
LINE
  5
B3EB
330
B36A
100
AcDbEntity
  8
1
  6
Continuous
100
AcDbLine
 10
196.836339
 20
103.190325
 30
0.0
 11
220.189572
 21
103.166898
 31
0.0
  0
LINE
  5
B3EC
330
B36A
100
AcDbEntity
  8
1
  6
Continuous
100
AcDbLine
 10
196.836339
 20
105.790326
 30
0.0
 11
220.192179
 21
105.7668969999999
 31
0.0
  0
LINE
  5
B3ED
330
B36A
100
AcDbEntity
  8
1
  6
Continuous
100
AcDbLine
 10
201.7363389999999
 20
105.78541
 30
0.0
 11
201.7363389999999
 21
107.770363
 31
0.0
  0
LINE
  5
B3EE
330
B36A
100
AcDbEntity
  8
1
  6
Continuous
100
AcDbLine
 10
211.2308159999999
 20
105.775886
 30
0.0
 11
209.236339
 21
107.770363
 31
0.0
  0
LINE
  5
B3EF
330
B36A
100
AcDbEntity
  8
1
  6
Continuous
100
AcDbLine
 10
216.7363389999999
 20
105.770363
 30
0.0
 11
216.7363389999999
 21
107.770363
 31
0.0
  0
LINE
  5
B3F0
330
B36A
100
AcDbEntity
  8
1
  6
Continuous
100
AcDbLine
 10
209.236339
 20
105.777887
 30
0.0
 11
207.2438629999998
 21
107.770363
 31
0.0
  0
LINE
  5
B3F1
330
B36A
100
AcDbEntity
  8
1
  6
Continuous
100
AcDbLine
 10
216.7363389999999
 20
107.770363
 30
0.0
 11
201.7363389999999
 21
107.770363
 31
0.0
  0
LINE
  5
B3F2
330
B36A
100
AcDbEntity
  8
4
  6
CENTER
100
AcDbLine
 10
209.236339
 20
119.670363
 30
0.0
 11
209.236339
 21
59.51489399999999
 31
0.0
  0
ARC
  5
B3F3
330
B36A
100
AcDbEntity
  8
1
  6
Continuous
100
AcDbCircle
 10
245.2363389999999
 20
87.422368
 30
0.0
 40
27.5
100
AcDbArc
 50
229.821137
 51
333.762068
  0
ARC
  5
B3F4
330
B36A
100
AcDbEntity
  8
1
  6
Continuous
100
AcDbCircle
 10
245.2363389999999
 20
87.422368
 30
0.0
 40
24.9
100
AcDbArc
 50
229.8211349999999
 51
329.8670609999998
  0
LINE
  5
B3F5
330
B36A
100
AcDbEntity
  8
1
  6
Continuous
100
AcDbLine
 10
196.836339
 20
105.790326
 30
0.0
 11
196.836339
 21
103.190325
 31
0.0
  0
LINE
  5
B3F6
330
B36A
100
AcDbEntity
  8
1
  6
Continuous
100
AcDbLine
 10
196.836339
 20
71.65441300000002
 30
0.0
 11
196.836339
 21
69.054411
 31
0.0
  0
LINE
  5
B3F7
330
B36A
100
AcDbEntity
  8
1
  6
Continuous
100
AcDbLine
 10
221.431643
 20
69.07908299999999
 30
0.0
 11
221.447699
 21
69.07908299999999
 31
0.0
  0
ARC
  5
B3F8
330
B36A
100
AcDbEntity
  8
1
  6
Continuous
100
AcDbCircle
 10
245.2363389999999
 20
87.422368
 30
0.0
 40
24.9
100
AcDbArc
 50
30.132939
 51
130.178862
  0
ARC
  5
B3F9
330
B36A
100
AcDbEntity
  8
1
  6
Continuous
100
AcDbCircle
 10
245.2363389999999
 20
87.422368
 30
0.0
 40
27.5
100
AcDbArc
 50
26.237932
 51
130.1788629999998
  0
ARC
  5
B3FA
330
B36A
100
AcDbEntity
  8
1
  6
Continuous
100
AcDbCircle
 10
245.2363389999999
 20
87.422368
 30
0.0
 40
20.89999999999999
100
AcDbArc
 50
36.732949
 51
142.9242179999999
  0
ARC
  5
B3FB
330
B36A
100
AcDbEntity
  8
1
  6
Continuous
100
AcDbCircle
 10
245.2363389999999
 20
87.422368
 30
0.0
 40
20.89999999999999
100
AcDbArc
 50
217.0757819999999
 51
323.267051
  0
LINE
  5
B3FC
330
B36A
100
AcDbEntity
  8
1
  6
Continuous
100
AcDbLine
 10
91.586929
 20
235.6277529999999
 30
0.0
 11
91.586929
 21
223.6277529999999
 31
0.0
  0
ARC
  5
B3FD
330
B36A
100
AcDbEntity
  8
1
  6
Continuous
100
AcDbCircle
 10
80.12282799999999
 20
229.6277529999999
 30
0.0
 40
11.464102
100
AcDbArc
 50
342.4120459999999
 51
17.587954
  0
ARC
  5
B3FE
330
B36A
100
AcDbEntity
  8
1
  6
Continuous
100
AcDbCircle
 10
98.05103100000003
 20
229.6277529999999
 30
0.0
 40
11.464102
100
AcDbArc
 50
162.412046
 51
197.5879539999999
  0
LINE
  5
B3FF
330
B36A
100
AcDbEntity
  8
1
  6
Continuous
100
AcDbLine
 10
86.586929
 20
235.6277529999999
 30
0.0
 11
86.586929
 21
223.6277529999999
 31
0.0
  0
LINE
  5
B400
330
B36A
100
AcDbEntity
  8
1
  6
Continuous
100
AcDbLine
 10
91.05103099999999
 20
222.6995489999999
 30
0.0
 11
91.586929
 21
223.6277529999999
 31
0.0
  0
LINE
  5
B401
330
B36A
100
AcDbEntity
  8
1
  6
Continuous
100
AcDbLine
 10
87.122828
 20
222.6995489999999
 30
0.0
 11
86.586929
 21
223.6277529999999
 31
0.0
  0
LINE
  5
B402
330
B36A
100
AcDbEntity
  8
1
  6
Continuous
100
AcDbLine
 10
87.122828
 20
222.6995489999999
 30
0.0
 11
91.05103099999999
 21
222.6995489999999
 31
0.0
  0
LINE
  5
B403
330
B36A
100
AcDbEntity
  8
1
  6
Continuous
100
AcDbLine
 10
87.122828
 20
226.1636509999999
 30
0.0
 11
91.05103099999999
 21
226.1636509999999
 31
0.0
  0
ARC
  5
B404
330
B36A
100
AcDbEntity
  8
1
  6
Continuous
100
AcDbCircle
 10
89.65391600000002
 20
224.4315999999999
 30
0.0
 40
3.066986999999998
100
AcDbArc
 50
145.615753
 51
205.615753
  0
ARC
  5
B405
330
B36A
100
AcDbEntity
  8
1
  6
Continuous
100
AcDbCircle
 10
88.519942
 20
224.4315999999999
 30
0.0
 40
3.066986999999998
100
AcDbArc
 50
334.384247
 51
34.38424699999998
  0
ARC
  5
B406
330
B36A
100
AcDbEntity
  8
1
  6
Continuous
100
AcDbCircle
 10
88.519942
 20
234.8239049999999
 30
0.0
 40
3.066986999999998
100
AcDbArc
 50
325.6157529999999
 51
25.615753
  0
ARC
  5
B407
330
B36A
100
AcDbEntity
  8
1
  6
Continuous
100
AcDbCircle
 10
89.65391600000002
 20
234.8239049999999
 30
0.0
 40
3.066986999999998
100
AcDbArc
 50
154.3842469999999
 51
214.384247
  0
LINE
  5
B408
330
B36A
100
AcDbEntity
  8
1
  6
Continuous
100
AcDbLine
 10
87.122828
 20
233.091854
 30
0.0
 11
91.05103099999999
 21
233.091854
 31
0.0
  0
LINE
  5
B409
330
B36A
100
AcDbEntity
  8
1
  6
Continuous
100
AcDbLine
 10
87.122828
 20
236.555956
 30
0.0
 11
91.05103099999999
 21
236.555956
 31
0.0
  0
LINE
  5
B40A
330
B36A
100
AcDbEntity
  8
1
  6
Continuous
100
AcDbLine
 10
87.122828
 20
236.555956
 30
0.0
 11
86.586929
 21
235.6277529999999
 31
0.0
  0
LINE
  5
B40B
330
B36A
100
AcDbEntity
  8
1
  6
Continuous
100
AcDbLine
 10
91.05103099999999
 20
236.555956
 30
0.0
 11
91.586929
 21
235.6277529999999
 31
0.0
  0
ARC
  5
B40C
330
B36A
100
AcDbEntity
  8
1
  6
Continuous
100
AcDbCircle
 10
212.2363389999999
 20
116.435427
 30
0.0
 40
8.665063999999999
100
AcDbArc
 50
249.7438419999999
 51
290.256158
  0
ARC
  5
B40D
330
B36A
100
AcDbEntity
  8
1
  6
Continuous
100
AcDbCircle
 10
212.2363389999999
 20
104.1053
 30
0.0
 40
8.665063999999999
100
AcDbArc
 50
69.743842
 51
110.256158
  0
LINE
  5
B40E
330
B36A
100
AcDbEntity
  8
1
  6
Continuous
100
AcDbLine
 10
203.2363389999999
 20
112.7703629999998
 30
0.0
 11
215.236339
 21
112.7703629999998
 31
0.0
  0
LINE
  5
B40F
330
B36A
100
AcDbEntity
  8
1
  6
Continuous
100
AcDbLine
 10
215.236339
 20
112.7703629999998
 30
0.0
 11
215.236339
 21
107.770363
 31
0.0
  0
ARC
  5
B410
330
B36A
100
AcDbEntity
  8
1
  6
Continuous
100
AcDbCircle
 10
206.2363389999999
 20
116.435427
 30
0.0
 40
8.665063999999999
100
AcDbArc
 50
249.7438419999999
 51
290.256158
  0
ARC
  5
B411
330
B36A
100
AcDbEntity
  8
1
  6
Continuous
100
AcDbCircle
 10
206.2363389999999
 20
104.1053
 30
0.0
 40
8.665063999999999
100
AcDbArc
 50
69.743842
 51
110.256158
  0
LINE
  5
B412
330
B36A
100
AcDbEntity
  8
1
  6
Continuous
100
AcDbLine
 10
209.236339
 20
108.306262
 30
0.0
 11
209.236339
 21
112.2344649999998
 31
0.0
  0
LINE
  5
B413
330
B36A
100
AcDbEntity
  8
1
  6
Continuous
100
AcDbLine
 10
203.2363389999999
 20
112.7703629999998
 30
0.0
 11
203.2363389999999
 21
107.770363
 31
0.0
  0
LINE
  5
B414
330
B36A
100
AcDbEntity
  8
1
  6
Continuous
100
AcDbLine
 10
203.2363389999999
 20
233.0918409999999
 30
0.0
 11
203.2363389999999
 21
226.163638
 31
0.0
  0
LINE
  5
B415
330
B36A
100
AcDbEntity
  8
1
  6
Continuous
100
AcDbLine
 10
215.236339
 20
233.0918409999999
 30
0.0
 11
215.236339
 21
226.163638
 31
0.0
  0
CIRCLE
  5
B416
330
B36A
100
AcDbEntity
  8
1
  6
Continuous
100
AcDbCircle
 10
209.236339
 20
229.6277389999999
 30
0.0
 40
6.0
  0
LINE
  5
B417
330
B36A
100
AcDbEntity
  8
1
  6
Continuous
100
AcDbLine
 10
209.236339
 20
222.699536
 30
0.0
 11
215.236339
 21
226.163638
 31
0.0
  0
LINE
  5
B418
330
B36A
100
AcDbEntity
  8
1
  6
Continuous
100
AcDbLine
 10
209.236339
 20
222.699536
 30
0.0
 11
203.2363389999999
 21
226.163638
 31
0.0
  0
LINE
  5
B419
330
B36A
100
AcDbEntity
  8
1
  6
Continuous
100
AcDbLine
 10
215.236339
 20
233.0918409999999
 30
0.0
 11
209.236339
 21
236.5559419999999
 31
0.0
  0
LINE
  5
B41A
330
B36A
100
AcDbEntity
  8
1
  6
Continuous
100
AcDbLine
 10
203.2363389999999
 20
233.0918409999999
 30
0.0
 11
209.236339
 21
236.5559419999999
 31
0.0
  0
CIRCLE
  5
B41B
330
B36A
100
AcDbEntity
  8
1
  6
Continuous
100
AcDbCircle
 10
209.236339
 20
229.6277389999999
 30
0.0
 40
4.0
  0
CIRCLE
  5
B41C
330
B36A
100
AcDbEntity
  8
2
  6
Continuous
100
AcDbCircle
 10
209.236339
 20
229.6277389999999
 30
0.0
 40
3.3235
  0
LINE
  5
B41D
330
B36A
100
AcDbEntity
  8
1
  6
Continuous
100
AcDbLine
 10
326.434365
 20
236.555938
 30
0.0
 11
325.8984669999999
 21
235.627735
 31
0.0
  0
LINE
  5
B41E
330
B36A
100
AcDbEntity
  8
1
  6
Continuous
100
AcDbLine
 10
328.2909169999999
 20
236.555938
 30
0.0
 11
326.434365
 21
236.555938
 31
0.0
  0
LINE
  5
B41F
330
B36A
100
AcDbEntity
  8
1
  6
Continuous
100
AcDbLine
 10
330.362568
 20
233.091836
 30
0.0
 11
326.434365
 21
233.091836
 31
0.0
  0
ARC
  5
B420
330
B36A
100
AcDbEntity
  8
1
  6
Continuous
100
AcDbCircle
 10
328.965454
 20
234.823887
 30
0.0
 40
3.066986999999998
100
AcDbArc
 50
154.3842469999999
 51
214.384247
  0
ARC
  5
B421
330
B36A
100
AcDbEntity
  8
1
  6
Continuous
100
AcDbCircle
 10
328.965454
 20
224.431582
 30
0.0
 40
3.066986999999998
100
AcDbArc
 50
145.615753
 51
205.615753
  0
ARC
  5
B422
330
B36A
100
AcDbEntity
  8
1
  6
Continuous
100
AcDbCircle
 10
327.831479
 20
224.431582
 30
0.0
 40
3.066986999999998
100
AcDbArc
 50
334.384247
 51
34.38424699999998
  0
LINE
  5
B423
330
B36A
100
AcDbEntity
  8
1
  6
Continuous
100
AcDbLine
 10
330.362568
 20
226.1636329999999
 30
0.0
 11
326.434365
 21
226.1636329999999
 31
0.0
  0
LINE
  5
B424
330
B36A
100
AcDbEntity
  8
1
  6
Continuous
100
AcDbLine
 10
330.362568
 20
222.6995309999999
 30
0.0
 11
326.434365
 21
222.6995309999999
 31
0.0
  0
LINE
  5
B425
330
B36A
100
AcDbEntity
  8
1
  6
Continuous
100
AcDbLine
 10
330.362568
 20
222.6995309999999
 30
0.0
 11
330.898467
 21
223.6277349999999
 31
0.0
  0
LINE
  5
B426
330
B36A
100
AcDbEntity
  8
1
  6
Continuous
100
AcDbLine
 10
326.434365
 20
222.6995309999999
 30
0.0
 11
325.8984669999999
 21
223.6277349999999
 31
0.0
  0
LINE
  5
B427
330
B36A
100
AcDbEntity
  8
1
  6
Continuous
100
AcDbLine
 10
330.898467
 20
232.2681059999999
 30
0.0
 11
330.898467
 21
223.6277349999999
 31
0.0
  0
ARC
  5
B428
330
B36A
100
AcDbEntity
  8
1
  6
Continuous
100
AcDbCircle
 10
319.434365
 20
229.6277349999999
 30
0.0
 40
11.464102
100
AcDbArc
 50
342.4120459999999
 51
17.587954
  0
ARC
  5
B429
330
B36A
100
AcDbEntity
  8
1
  6
Continuous
100
AcDbCircle
 10
337.3625679999999
 20
229.6277349999999
 30
0.0
 40
11.464102
100
AcDbArc
 50
162.412046
 51
197.5879539999999
  0
LINE
  5
B42A
330
B36A
100
AcDbEntity
  8
1
  6
Continuous
100
AcDbLine
 10
325.8984669999999
 20
235.627735
 30
0.0
 11
325.8984669999999
 21
223.6277349999999
 31
0.0
  0
LINE
  5
B42B
330
B36A
100
AcDbEntity
  8
1
  6
Continuous
100
AcDbLine
 10
332.898467
 20
222.127735
 30
0.0
 11
330.898467
 21
222.127735
 31
0.0
  0
LINE
  5
B42C
330
B36A
100
AcDbEntity
  8
1
  6
Continuous
100
AcDbLine
 10
330.898467
 20
222.127735
 30
0.0
 11
330.898467
 21
232.2681059999999
 31
0.0
  0
LINE
  5
B42D
330
B36A
100
AcDbEntity
  8
1
  6
Continuous
100
AcDbLine
 10
331.9449569999998
 20
230.674225
 30
0.0
 11
330.898467
 21
229.6277349999999
 31
0.0
  0
LINE
  5
B42E
330
B36A
100
AcDbEntity
  8
1
  6
Continuous
100
AcDbLine
 10
332.5234169999998
 20
229.2729279999999
 30
0.0
 11
330.898467
 21
227.6479769999999
 31
0.0
  0
CIRCLE
  5
B42F
330
B36A
100
AcDbEntity
  8
1
  6
Continuous
100
AcDbCircle
 10
209.236339
 20
229.6277389999999
 30
0.0
 40
7.5
  0
LINE
  5
B430
330
B36A
100
AcDbEntity
  8
1
  6
Continuous
100
AcDbLine
 10
205.236339
 20
113.6703629999999
 30
0.0
 11
213.236339
 21
113.6703629999999
 31
0.0
  0
LINE
  5
B431
330
B36A
100
AcDbEntity
  8
1
  6
Continuous
100
AcDbLine
 10
206.2363389999999
 20
114.6703629999999
 30
0.0
 11
212.2363389999999
 21
114.6703629999999
 31
0.0
  0
LINE
  5
B432
330
B36A
100
AcDbEntity
  8
1
  6
Continuous
100
AcDbLine
 10
205.236339
 20
112.7703629999998
 30
0.0
 11
205.236339
 21
113.6703629999999
 31
0.0
  0
LINE
  5
B433
330
B36A
100
AcDbEntity
  8
1
  6
Continuous
100
AcDbLine
 10
213.236339
 20
112.7703629999998
 30
0.0
 11
213.236339
 21
113.6703629999999
 31
0.0
  0
LINE
  5
B434
330
B36A
100
AcDbEntity
  8
2
  6
Continuous
100
AcDbLine
 10
212.5598389999999
 20
112.7703629999998
 30
0.0
 11
212.5598389999999
 21
114.3468629999998
 31
0.0
  0
LINE
  5
B435
330
B36A
100
AcDbEntity
  8
2
  6
Continuous
100
AcDbLine
 10
205.912839
 20
112.7703629999998
 30
0.0
 11
205.912839
 21
114.3468629999998
 31
0.0
  0
LINE
  5
B436
330
B36A
100
AcDbEntity
  8
1
  6
Continuous
100
AcDbLine
 10
206.2363389999999
 20
114.6703629999999
 30
0.0
 11
205.236339
 21
113.6703629999999
 31
0.0
  0
LINE
  5
B437
330
B36A
100
AcDbEntity
  8
1
  6
Continuous
100
AcDbLine
 10
212.2363389999999
 20
114.6703629999999
 30
0.0
 11
213.236339
 21
113.6703629999999
 31
0.0
  0
LINE
  5
B438
330
B36A
100
AcDbEntity
  8
1
  6
Continuous
100
AcDbLine
 10
93.48692900000001
 20
232.627753
 30
0.0
 11
92.48692899999999
 21
233.6277529999999
 31
0.0
  0
LINE
  5
B439
330
B36A
100
AcDbEntity
  8
1
  6
Continuous
100
AcDbLine
 10
93.48692900000001
 20
226.6277529999999
 30
0.0
 11
92.48692899999999
 21
225.6277529999999
 31
0.0
  0
LINE
  5
B43A
330
B36A
100
AcDbEntity
  8
2
  6
Continuous
100
AcDbLine
 10
91.586929
 20
226.3042529999999
 30
0.0
 11
93.163429
 21
226.3042529999999
 31
0.0
  0
LINE
  5
B43B
330
B36A
100
AcDbEntity
  8
2
  6
Continuous
100
AcDbLine
 10
91.586929
 20
232.9512529999998
 30
0.0
 11
93.163429
 21
232.9512529999998
 31
0.0
  0
LINE
  5
B43C
330
B36A
100
AcDbEntity
  8
1
  6
Continuous
100
AcDbLine
 10
91.586929
 20
233.6277529999999
 30
0.0
 11
92.48692899999999
 21
233.6277529999999
 31
0.0
  0
LINE
  5
B43D
330
B36A
100
AcDbEntity
  8
1
  6
Continuous
100
AcDbLine
 10
91.586929
 20
225.6277529999999
 30
0.0
 11
92.48692899999999
 21
225.6277529999999
 31
0.0
  0
LINE
  5
B43E
330
B36A
100
AcDbEntity
  8
1
  6
Continuous
100
AcDbLine
 10
93.48692900000001
 20
226.6277529999999
 30
0.0
 11
93.48692900000001
 21
232.627753
 31
0.0
  0
LINE
  5
B43F
330
B36A
100
AcDbEntity
  8
1
  6
Continuous
100
AcDbLine
 10
92.48692899999999
 20
225.6277529999999
 30
0.0
 11
92.48692899999999
 21
233.6277529999999
 31
0.0
  0
LINE
  5
B440
330
B36A
100
AcDbEntity
  8
1
  6
Continuous
100
AcDbLine
 10
323.998467
 20
226.627735
 30
0.0
 11
323.998467
 21
232.627735
 31
0.0
  0
LINE
  5
B441
330
B36A
100
AcDbEntity
  8
1
  6
Continuous
100
AcDbLine
 10
325.8984669999999
 20
233.627735
 30
0.0
 11
324.9984669999999
 21
233.627735
 31
0.0
  0
LINE
  5
B442
330
B36A
100
AcDbEntity
  8
1
  6
Continuous
100
AcDbLine
 10
325.8984669999999
 20
225.6277349999999
 30
0.0
 11
324.9984669999999
 21
225.6277349999999
 31
0.0
  0
LINE
  5
B443
330
B36A
100
AcDbEntity
  8
1
  6
Continuous
100
AcDbLine
 10
324.9984669999999
 20
225.6277349999999
 30
0.0
 11
324.9984669999999
 21
233.627735
 31
0.0
  0
LINE
  5
B444
330
B36A
100
AcDbEntity
  8
1
  6
Continuous
100
AcDbLine
 10
323.998467
 20
232.627735
 30
0.0
 11
324.9984669999999
 21
233.627735
 31
0.0
  0
LINE
  5
B445
330
B36A
100
AcDbEntity
  8
1
  6
Continuous
100
AcDbLine
 10
323.998467
 20
226.627735
 30
0.0
 11
324.9984669999999
 21
225.6277349999999
 31
0.0
  0
LINE
  5
B446
330
B36A
100
AcDbEntity
  8
2
  6
Continuous
100
AcDbLine
 10
325.8984669999999
 20
226.304235
 30
0.0
 11
324.3219669999998
 21
226.304235
 31
0.0
  0
LINE
  5
B447
330
B36A
100
AcDbEntity
  8
2
  6
Continuous
100
AcDbLine
 10
325.8984669999999
 20
232.9512349999999
 30
0.0
 11
324.3219669999998
 21
232.9512349999999
 31
0.0
  0
ARC
  5
B448
330
B36A
100
AcDbEntity
  8
1
  6
Continuous
100
AcDbCircle
 10
209.236339
 20
229.6277389999999
 30
0.0
 40
40.533539
100
AcDbArc
 50
88.331756
 51
28.25553499999999
  0
ARC
  5
B449
330
B36A
100
AcDbEntity
  8
1
  6
Continuous
100
AcDbCircle
 10
209.236339
 20
229.6277389999999
 30
0.0
 40
53.65
100
AcDbArc
 50
86.66410500000003
 51
35.298906
  0
ARC
  5
B44A
330
B36A
100
AcDbEntity
  8
1
  6
Continuous
100
AcDbCircle
 10
209.236339
 20
229.6277389999999
 30
0.0
 40
65.0
100
AcDbArc
 50
86.69641400000001
 51
39.834024
  0
CIRCLE
  5
B44B
330
B36A
100
AcDbEntity
  8
1
  6
Continuous
100
AcDbCircle
 10
209.236339
 20
193.6277389999999
 30
0.0
 40
3.7
  0
ARC
  5
B44C
330
B36A
100
AcDbEntity
  8
1
  6
Continuous
100
AcDbCircle
 10
209.236339
 20
229.6277389999999
 30
0.0
 40
31.415325
100
AcDbArc
 50
91.79576500000001
 51
20.878579
  0
CIRCLE
  5
B44D
330
B36A
100
AcDbEntity
  8
1
  6
Continuous
100
AcDbCircle
 10
174.998304
 20
218.503127
 30
0.0
 40
3.7
  0
CIRCLE
  5
B44E
330
B36A
100
AcDbEntity
  8
1
  6
Continuous
100
AcDbCircle
 10
243.474374
 20
218.503127
 30
0.0
 40
3.7
  0
LINE
  5
B44F
330
B36A
100
AcDbEntity
  8
4
  6
CENTER
100
AcDbLine
 10
245.2363389999999
 20
409.84423
 30
0.0
 11
245.2363389999999
 21
474.8442299999998
 31
0.0
  0
CIRCLE
  5
B450
330
B36A
100
AcDbEntity
  8
1
  6
Continuous
100
AcDbCircle
 10
245.2363389999999
 20
442.3442299999998
 30
0.0
 40
25.0
  0
CIRCLE
  5
B451
330
B36A
100
AcDbEntity
  8
1
  6
Continuous
100
AcDbCircle
 10
245.2363389999999
 20
442.3442299999998
 30
0.0
 40
26.6861
  0
LINE
  5
B452
330
B36A
100
AcDbEntity
  8
4
  6
CENTER
100
AcDbLine
 10
279.2363689999999
 20
442.3442299999998
 30
0.0
 11
139.2363349999999
 21
442.3442299999998
 31
0.0
  0
ARC
  5
B453
330
B36A
100
AcDbEntity
  8
1
  6
Continuous
100
AcDbCircle
 10
245.354157
 20
442.3442299999998
 30
0.0
 40
28.865452
100
AcDbArc
 50
139.838719
 51
220.5077509999999
  0
LINE
  5
B454
330
B36A
100
AcDbEntity
  8
1
  6
Continuous
100
AcDbLine
 10
229.0705319999999
 20
442.3442299999998
 30
0.0
 11
237.153435
 21
428.3442299999999
 31
0.0
  0
LINE
  5
B455
330
B36A
100
AcDbEntity
  8
1
  6
Continuous
100
AcDbLine
 10
261.402147
 20
442.3442299999998
 30
0.0
 11
253.319243
 21
428.3442299999999
 31
0.0
  0
LINE
  5
B456
330
B36A
100
AcDbEntity
  8
1
  6
Continuous
100
AcDbLine
 10
237.153435
 20
428.3442299999999
 30
0.0
 11
253.319243
 21
428.3442299999999
 31
0.0
  0
LINE
  5
B457
330
B36A
100
AcDbEntity
  8
1
  6
Continuous
100
AcDbLine
 10
237.153435
 20
456.34423
 30
0.0
 11
253.319243
 21
456.34423
 31
0.0
  0
CIRCLE
  5
B458
330
B36A
100
AcDbEntity
  8
1
  6
Continuous
100
AcDbCircle
 10
245.2363389999999
 20
442.3442299999998
 30
0.0
 40
6.0
  0
LINE
  5
B459
330
B36A
100
AcDbEntity
  8
1
  6
Continuous
100
AcDbLine
 10
261.402147
 20
442.3442299999998
 30
0.0
 11
253.319243
 21
456.34423
 31
0.0
  0
CIRCLE
  5
B45A
330
B36A
100
AcDbEntity
  8
1
  6
Continuous
100
AcDbCircle
 10
245.2363389999999
 20
442.3442299999998
 30
0.0
 40
4.499976
  0
LINE
  5
B45B
330
B36A
100
AcDbEntity
  8
1
  6
Continuous
100
AcDbLine
 10
229.0705319999999
 20
442.3442299999998
 30
0.0
 11
237.153435
 21
456.34423
 31
0.0
  0
LINE
  5
B45C
330
B36A
100
AcDbEntity
  8
4
  6
CENTER
100
AcDbLine
 10
209.236352
 20
410.0962349999998
 30
0.0
 11
209.236352
 21
470.251704
 31
0.0
  0
ARC
  5
B45D
330
B36A
100
AcDbEntity
  8
1
  6
Continuous
100
AcDbCircle
 10
261.313613
 20
442.344222
 30
0.0
 40
53.38794100000001
100
AcDbArc
 50
159.892807
 51
200.1071739999999
  0
LINE
  5
B45F
330
B36A
100
AcDbEntity
  8
1
  6
Continuous
100
AcDbLine
 10
337.233719
 20
315.6279229999999
 30
0.0
 11
337.233719
 21
312.127945
 31
0.0
  0
LINE
  5
B460
330
B36A
100
AcDbEntity
  8
1
  6
Continuous
100
AcDbLine
 10
365.233719
 20
315.6279229999999
 30
0.0
 11
365.233719
 21
312.127945
 31
0.0
  0
CIRCLE
  5
B461
330
B36A
100
AcDbEntity
  8
2
  6
Continuous
100
AcDbCircle
 10
245.2363389999999
 20
442.3442299999998
 30
0.0
 40
5.052999999999999
  0
ARC
  5
B462
330
B36A
100
AcDbEntity
  8
1
  6
Continuous
100
AcDbCircle
 10
87.23893399999999
 20
308.1279589999998
 30
0.0
 40
4.0
100
AcDbArc
 50
0.0
 51
90.0
  0
ARC
  5
B463
330
B36A
100
AcDbEntity
  8
1
  6
Continuous
100
AcDbCircle
 10
45.238934
 20
308.1279589999998
 30
0.0
 40
4.0
100
AcDbArc
 50
90.0
 51
180.0
  0
LINE
  5
B464
330
B36A
100
AcDbEntity
  8
1
  6
Continuous
100
AcDbLine
 10
71.665532
 20
304.312753
 30
0.0
 11
69.66553199999999
 21
306.8337529999999
 31
0.0
  0
LINE
  5
B465
330
B36A
100
AcDbEntity
  8
1
  6
Continuous
100
AcDbLine
 10
70.37263900000002
 20
304.312753
 30
0.0
 11
72.37263900000002
 21
306.8337529999999
 31
0.0
  0
LINE
  5
B466
330
B36A
100
AcDbEntity
  8
1
  6
Continuous
100
AcDbLine
 10
39.55283399999999
 20
306.8337529999999
 30
0.0
 11
92.92503399999999
 21
306.8337529999999
 31
0.0
  0
LINE
  5
B467
330
B36A
100
AcDbEntity
  8
1
  6
Continuous
100
AcDbLine
 10
92.92503399999999
 20
308.1279589999998
 30
0.0
 11
39.55283399999999
 21
308.1279589999998
 31
0.0
  0
LINE
  5
B468
330
B36A
100
AcDbEntity
  8
1
  6
Continuous
100
AcDbLine
 10
51.28075599999998
 20
304.312753
 30
0.0
 11
53.280756
 21
306.8337529999999
 31
0.0
  0
LINE
  5
B469
330
B36A
100
AcDbEntity
  8
1
  6
Continuous
100
AcDbLine
 10
49.159436
 20
304.312753
 30
0.0
 11
51.159436
 21
306.8337529999999
 31
0.0
  0
LINE
  5
B46A
330
B36A
100
AcDbEntity
  8
1
  6
Continuous
100
AcDbLine
 10
51.86654199999999
 20
304.312753
 30
0.0
 11
49.866542
 21
306.8337529999999
 31
0.0
  0
LINE
  5
B46B
330
B36A
100
AcDbEntity
  8
1
  6
Continuous
100
AcDbLine
 10
44.916795
 20
304.312753
 30
0.0
 11
46.916795
 21
306.8337529999999
 31
0.0
  0
LINE
  5
B46C
330
B36A
100
AcDbEntity
  8
1
  6
Continuous
100
AcDbLine
 10
46.20968799999999
 20
304.312753
 30
0.0
 11
44.20968799999999
 21
306.8337529999999
 31
0.0
  0
LINE
  5
B46D
330
B36A
100
AcDbEntity
  8
1
  6
Continuous
100
AcDbLine
 10
40.55283399999999
 20
306.8337529999999
 30
0.0
 11
39.55283399999999
 21
305.3127529999998
 31
0.0
  0
LINE
  5
B46E
330
B36A
100
AcDbEntity
  8
1
  6
Continuous
100
AcDbLine
 10
40.67415399999997
 20
304.312753
 30
0.0
 11
42.67415399999999
 21
306.8337529999999
 31
0.0
  0
LINE
  5
B46F
330
B36A
100
AcDbEntity
  8
1
  6
Continuous
100
AcDbLine
 10
40.55283399999999
 20
304.312753
 30
0.0
 11
39.55283399999999
 21
305.3127529999998
 31
0.0
  0
LINE
  5
B470
330
B36A
100
AcDbEntity
  8
1
  6
Continuous
100
AcDbLine
 10
42.795475
 20
304.312753
 30
0.0
 11
44.795475
 21
306.8337529999999
 31
0.0
  0
LINE
  5
B471
330
B36A
100
AcDbEntity
  8
1
  6
Continuous
100
AcDbLine
 10
43.381261
 20
304.312753
 30
0.0
 11
41.381261
 21
306.8337529999999
 31
0.0
  0
LINE
  5
B472
330
B36A
100
AcDbEntity
  8
1
  6
Continuous
100
AcDbLine
 10
47.03811499999999
 20
304.312753
 30
0.0
 11
49.03811499999999
 21
306.8337529999999
 31
0.0
  0
LINE
  5
B473
330
B36A
100
AcDbEntity
  8
1
  6
Continuous
100
AcDbLine
 10
49.03811499999999
 20
304.312753
 30
0.0
 11
47.03811499999999
 21
306.8337529999999
 31
0.0
  0
LINE
  5
B474
330
B36A
100
AcDbEntity
  8
1
  6
Continuous
100
AcDbLine
 10
39.55283399999999
 20
304.312753
 30
0.0
 11
39.55283399999999
 21
308.1279589999998
 31
0.0
  0
LINE
  5
B475
330
B36A
100
AcDbEntity
  8
1
  6
Continuous
100
AcDbLine
 10
61.88735799999999
 20
304.312753
 30
0.0
 11
63.887358
 21
306.8337529999999
 31
0.0
  0
LINE
  5
B476
330
B36A
100
AcDbEntity
  8
1
  6
Continuous
100
AcDbLine
 10
64.008678
 20
304.312753
 30
0.0
 11
66.008678
 21
306.8337529999999
 31
0.0
  0
LINE
  5
B477
330
B36A
100
AcDbEntity
  8
1
  6
Continuous
100
AcDbLine
 10
63.18025099999999
 20
304.312753
 30
0.0
 11
61.180251
 21
306.8337529999999
 31
0.0
  0
LINE
  5
B478
330
B36A
100
AcDbEntity
  8
1
  6
Continuous
100
AcDbLine
 10
66.008678
 20
304.312753
 30
0.0
 11
64.008678
 21
306.8337529999999
 31
0.0
  0
LINE
  5
B479
330
B36A
100
AcDbEntity
  8
1
  6
Continuous
100
AcDbLine
 10
66.129998
 20
304.312753
 30
0.0
 11
68.129998
 21
306.8337529999999
 31
0.0
  0
LINE
  5
B47A
330
B36A
100
AcDbEntity
  8
1
  6
Continuous
100
AcDbLine
 10
55.523397
 20
304.312753
 30
0.0
 11
57.523397
 21
306.8337529999999
 31
0.0
  0
LINE
  5
B47B
330
B36A
100
AcDbEntity
  8
1
  6
Continuous
100
AcDbLine
 10
57.64471700000001
 20
304.312753
 30
0.0
 11
59.644717
 21
306.8337529999999
 31
0.0
  0
LINE
  5
B47C
330
B36A
100
AcDbEntity
  8
1
  6
Continuous
100
AcDbLine
 10
57.523397
 20
304.312753
 30
0.0
 11
55.523397
 21
306.8337529999999
 31
0.0
  0
LINE
  5
B47D
330
B36A
100
AcDbEntity
  8
1
  6
Continuous
100
AcDbLine
 10
60.351824
 20
304.312753
 30
0.0
 11
58.351824
 21
306.8337529999999
 31
0.0
  0
LINE
  5
B47E
330
B36A
100
AcDbEntity
  8
1
  6
Continuous
100
AcDbLine
 10
54.69497
 20
304.312753
 30
0.0
 11
52.69497
 21
306.8337529999999
 31
0.0
  0
LINE
  5
B47F
330
B36A
100
AcDbEntity
  8
1
  6
Continuous
100
AcDbLine
 10
53.402076
 20
304.312753
 30
0.0
 11
55.402076
 21
306.8337529999999
 31
0.0
  0
LINE
  5
B480
330
B36A
100
AcDbEntity
  8
1
  6
Continuous
100
AcDbLine
 10
59.766037
 20
304.312753
 30
0.0
 11
61.766037
 21
306.8337529999999
 31
0.0
  0
LINE
  5
B481
330
B36A
100
AcDbEntity
  8
1
  6
Continuous
100
AcDbLine
 10
68.25131899999999
 20
304.312753
 30
0.0
 11
70.25131899999999
 21
306.8337529999999
 31
0.0
  0
LINE
  5
B482
330
B36A
100
AcDbEntity
  8
1
  6
Continuous
100
AcDbLine
 10
68.83710500000001
 20
304.312753
 30
0.0
 11
66.837105
 21
306.8337529999999
 31
0.0
  0
LINE
  5
B483
330
B36A
100
AcDbEntity
  8
1
  6
Continuous
100
AcDbLine
 10
89.46452200000001
 20
304.312753
 30
0.0
 11
91.464522
 21
306.8337529999999
 31
0.0
  0
LINE
  5
B484
330
B36A
100
AcDbEntity
  8
1
  6
Continuous
100
AcDbLine
 10
91.464522
 20
304.312753
 30
0.0
 11
89.46452200000001
 21
306.8337529999999
 31
0.0
  0
LINE
  5
B485
330
B36A
100
AcDbEntity
  8
1
  6
Continuous
100
AcDbLine
 10
85.22188100000002
 20
304.312753
 30
0.0
 11
87.22188100000002
 21
306.8337529999999
 31
0.0
  0
LINE
  5
B486
330
B36A
100
AcDbEntity
  8
1
  6
Continuous
100
AcDbLine
 10
85.80766800000002
 20
304.312753
 30
0.0
 11
83.80766800000001
 21
306.8337529999999
 31
0.0
  0
LINE
  5
B487
330
B36A
100
AcDbEntity
  8
1
  6
Continuous
100
AcDbLine
 10
78.85791999999998
 20
304.312753
 30
0.0
 11
80.85791999999996
 21
306.8337529999999
 31
0.0
  0
LINE
  5
B488
330
B36A
100
AcDbEntity
  8
1
  6
Continuous
100
AcDbLine
 10
80.979241
 20
304.312753
 30
0.0
 11
82.97924100000001
 21
306.8337529999999
 31
0.0
  0
LINE
  5
B489
330
B36A
100
AcDbEntity
  8
1
  6
Continuous
100
AcDbLine
 10
80.15081399999997
 20
304.312753
 30
0.0
 11
78.15081399999998
 21
306.8337529999999
 31
0.0
  0
LINE
  5
B48A
330
B36A
100
AcDbEntity
  8
1
  6
Continuous
100
AcDbLine
 10
82.97924100000001
 20
304.312753
 30
0.0
 11
80.979241
 21
306.8337529999999
 31
0.0
  0
LINE
  5
B48B
330
B36A
100
AcDbEntity
  8
1
  6
Continuous
100
AcDbLine
 10
72.493959
 20
304.312753
 30
0.0
 11
74.493959
 21
306.8337529999999
 31
0.0
  0
LINE
  5
B48C
330
B36A
100
AcDbEntity
  8
1
  6
Continuous
100
AcDbLine
 10
74.61528
 20
304.312753
 30
0.0
 11
76.61528
 21
306.8337529999999
 31
0.0
  0
LINE
  5
B48D
330
B36A
100
AcDbEntity
  8
1
  6
Continuous
100
AcDbLine
 10
74.493959
 20
304.312753
 30
0.0
 11
72.493959
 21
306.8337529999999
 31
0.0
  0
LINE
  5
B48E
330
B36A
100
AcDbEntity
  8
1
  6
Continuous
100
AcDbLine
 10
77.322387
 20
304.312753
 30
0.0
 11
75.322387
 21
306.8337529999999
 31
0.0
  0
LINE
  5
B48F
330
B36A
100
AcDbEntity
  8
1
  6
Continuous
100
AcDbLine
 10
76.73659999999998
 20
304.312753
 30
0.0
 11
78.73659999999998
 21
306.8337529999999
 31
0.0
  0
LINE
  5
B490
330
B36A
100
AcDbEntity
  8
1
  6
Continuous
100
AcDbLine
 10
83.100561
 20
304.312753
 30
0.0
 11
85.10056099999998
 21
306.8337529999999
 31
0.0
  0
LINE
  5
B491
330
B36A
100
AcDbEntity
  8
1
  6
Continuous
100
AcDbLine
 10
87.343202
 20
304.312753
 30
0.0
 11
89.343202
 21
306.8337529999999
 31
0.0
  0
LINE
  5
B492
330
B36A
100
AcDbEntity
  8
1
  6
Continuous
100
AcDbLine
 10
88.63609499999999
 20
304.312753
 30
0.0
 11
86.63609499999996
 21
306.8337529999999
 31
0.0
  0
ARC
  5
B493
330
B36A
100
AcDbEntity
  8
1
  6
Continuous
100
AcDbCircle
 10
91.82229699999997
 20
301.473591
 30
0.0
 40
2.839261999999998
100
AcDbArc
 50
86.26253100000004
 51
90.48175099999999
  0
LINE
  5
B494
330
B36A
100
AcDbEntity
  8
1
  6
Continuous
100
AcDbLine
 10
91.58584299999999
 20
304.312753
 30
0.0
 11
92.92503399999999
 21
306.1729439999999
 31
0.0
  0
LINE
  5
B495
330
B36A
100
AcDbEntity
  8
1
  6
Continuous
100
AcDbLine
 10
92.92503399999999
 20
306.2016679999999
 30
0.0
 11
92.29294899999999
 21
306.8337529999999
 31
0.0
  0
LINE
  5
B496
330
B36A
100
AcDbEntity
  8
1
  6
Continuous
100
AcDbLine
 10
92.92503399999999
 20
308.1279589999998
 30
0.0
 11
92.92503399999999
 21
304.312753
 31
0.0
  0
LINE
  5
B497
330
B36A
100
AcDbEntity
  8
1
  6
Continuous
100
AcDbLine
 10
72.238973
 20
364.1279369999999
 30
0.0
 11
70.738973
 21
365.627937
 31
0.0
  0
LINE
  5
B498
330
B36A
100
AcDbEntity
  8
1
  6
Continuous
100
AcDbLine
 10
56.48893399999999
 20
363.7279369999998
 30
0.0
 11
75.988934
 21
363.7279369999998
 31
0.0
  0
LINE
  5
B499
330
B36A
100
AcDbEntity
  8
1
  6
Continuous
100
AcDbLine
 10
60.238973
 20
364.1279369999999
 30
0.0
 11
72.238973
 21
364.1279369999999
 31
0.0
  0
LINE
  5
B49A
330
B36A
100
AcDbEntity
  8
1
  6
Continuous
100
AcDbLine
 10
45.238934
 20
312.1279589999998
 30
0.0
 11
87.23893399999999
 21
312.1279589999998
 31
0.0
  0
LINE
  5
B49B
330
B36A
100
AcDbEntity
  8
1
  6
Continuous
100
AcDbLine
 10
80.238934
 20
315.627937
 30
0.0
 11
52.238934
 21
315.627937
 31
0.0
  0
LINE
  5
B49C
330
B36A
100
AcDbEntity
  8
1
  6
Continuous
100
AcDbLine
 10
60.238973
 20
363.7279369999998
 30
0.0
 11
60.238973
 21
364.1279369999999
 31
0.0
  0
LINE
  5
B49D
330
B36A
100
AcDbEntity
  8
1
  6
Continuous
100
AcDbLine
 10
61.738973
 20
365.627937
 30
0.0
 11
60.238973
 21
364.1279369999999
 31
0.0
  0
LINE
  5
B49E
330
B36A
100
AcDbEntity
  8
1
  6
Continuous
100
AcDbLine
 10
61.738973
 20
365.627937
 30
0.0
 11
70.738973
 21
365.627937
 31
0.0
  0
LINE
  5
B49F
330
B36A
100
AcDbEntity
  8
2
  6
Continuous
100
AcDbLine
 10
61.18593399999999
 20
363.7279369999998
 30
0.0
 11
61.18593399999999
 21
365.074898
 31
0.0
  0
LINE
  5
B4A0
330
B36A
100
AcDbEntity
  8
2
  6
Continuous
100
AcDbLine
 10
71.291934
 20
363.7279369999998
 30
0.0
 11
71.291934
 21
365.074976
 31
0.0
  0
LINE
  5
B4A1
330
B36A
100
AcDbEntity
  8
1
  6
Continuous
100
AcDbLine
 10
72.238973
 20
364.1279369999999
 30
0.0
 11
72.238973
 21
363.7279369999998
 31
0.0
  0
LINE
  5
B4A2
330
B36A
100
AcDbEntity
  8
1
  6
Continuous
100
AcDbLine
 10
52.238934
 20
315.627937
 30
0.0
 11
52.238934
 21
312.1279589999998
 31
0.0
  0
LINE
  5
B4A3
330
B36A
100
AcDbEntity
  8
1
  6
Continuous
100
AcDbLine
 10
80.238934
 20
315.627937
 30
0.0
 11
80.238934
 21
312.1279589999998
 31
0.0
  0
LINE
  5
B4A4
330
B36A
100
AcDbEntity
  8
1
  6
Continuous
100
AcDbLine
 10
351.233719
 20
315.6279229999999
 30
0.0
 11
351.233719
 21
312.127945
 31
0.0
  0
LINE
  5
B4A5
330
B36A
100
AcDbEntity
  8
1
  6
Continuous
100
AcDbLine
 10
66.238934
 20
315.627937
 30
0.0
 11
66.238934
 21
312.1279589999998
 31
0.0
  0
ARC
  5
B4A6
330
B36A
100
AcDbEntity
  8
1
  6
Continuous
100
AcDbCircle
 10
266.2363389999998
 20
308.127945
 30
0.0
 40
4.0
100
AcDbArc
 50
0.0
 51
90.0
  0
ARC
  5
B4A7
330
B36A
100
AcDbEntity
  8
1
  6
Continuous
100
AcDbCircle
 10
224.2363389999999
 20
308.127945
 30
0.0
 40
4.0
100
AcDbArc
 50
90.0
 51
180.0
  0
LINE
  5
B4A8
330
B36A
100
AcDbEntity
  8
1
  6
Continuous
100
AcDbLine
 10
250.662937
 20
304.312739
 30
0.0
 11
248.662937
 21
306.8337389999999
 31
0.0
  0
LINE
  5
B4A9
330
B36A
100
AcDbEntity
  8
1
  6
Continuous
100
AcDbLine
 10
249.370044
 20
304.312739
 30
0.0
 11
251.370044
 21
306.8337389999999
 31
0.0
  0
LINE
  5
B4AA
330
B36A
100
AcDbEntity
  8
1
  6
Continuous
100
AcDbLine
 10
218.5502389999999
 20
306.8337389999999
 30
0.0
 11
271.9224389999999
 21
306.8337389999999
 31
0.0
  0
LINE
  5
B4AB
330
B36A
100
AcDbEntity
  8
1
  6
Continuous
100
AcDbLine
 10
271.9224389999999
 20
308.127945
 30
0.0
 11
218.5502389999999
 21
308.127945
 31
0.0
  0
LINE
  5
B4AC
330
B36A
100
AcDbEntity
  8
1
  6
Continuous
100
AcDbLine
 10
230.2781609999999
 20
304.312739
 30
0.0
 11
232.2781609999999
 21
306.8337389999999
 31
0.0
  0
LINE
  5
B4AD
330
B36A
100
AcDbEntity
  8
1
  6
Continuous
100
AcDbLine
 10
228.1568409999999
 20
304.312739
 30
0.0
 11
230.1568409999999
 21
306.8337389999999
 31
0.0
  0
LINE
  5
B4AE
330
B36A
100
AcDbEntity
  8
1
  6
Continuous
100
AcDbLine
 10
230.863947
 20
304.312739
 30
0.0
 11
228.863947
 21
306.8337389999999
 31
0.0
  0
LINE
  5
B4AF
330
B36A
100
AcDbEntity
  8
1
  6
Continuous
100
AcDbLine
 10
223.9142
 20
304.312739
 30
0.0
 11
225.9142
 21
306.8337389999999
 31
0.0
  0
LINE
  5
B4B0
330
B36A
100
AcDbEntity
  8
1
  6
Continuous
100
AcDbLine
 10
225.2070929999999
 20
304.312739
 30
0.0
 11
223.2070929999999
 21
306.8337389999999
 31
0.0
  0
LINE
  5
B4B1
330
B36A
100
AcDbEntity
  8
1
  6
Continuous
100
AcDbLine
 10
219.550239
 20
306.8337389999999
 30
0.0
 11
218.5502389999999
 21
305.312739
 31
0.0
  0
LINE
  5
B4B2
330
B36A
100
AcDbEntity
  8
1
  6
Continuous
100
AcDbLine
 10
219.6715589999998
 20
304.312739
 30
0.0
 11
221.6715589999998
 21
306.8337389999999
 31
0.0
  0
LINE
  5
B4B3
330
B36A
100
AcDbEntity
  8
1
  6
Continuous
100
AcDbLine
 10
219.550239
 20
304.312739
 30
0.0
 11
218.5502389999999
 21
305.312739
 31
0.0
  0
LINE
  5
B4B4
330
B36A
100
AcDbEntity
  8
1
  6
Continuous
100
AcDbLine
 10
221.7928799999999
 20
304.312739
 30
0.0
 11
223.7928799999999
 21
306.8337389999999
 31
0.0
  0
LINE
  5
B4B5
330
B36A
100
AcDbEntity
  8
1
  6
Continuous
100
AcDbLine
 10
222.378666
 20
304.312739
 30
0.0
 11
220.378666
 21
306.8337389999999
 31
0.0
  0
LINE
  5
B4B6
330
B36A
100
AcDbEntity
  8
1
  6
Continuous
100
AcDbLine
 10
226.0355199999999
 20
304.312739
 30
0.0
 11
228.0355199999999
 21
306.8337389999999
 31
0.0
  0
LINE
  5
B4B7
330
B36A
100
AcDbEntity
  8
1
  6
Continuous
100
AcDbLine
 10
228.0355199999999
 20
304.312739
 30
0.0
 11
226.0355199999999
 21
306.8337389999999
 31
0.0
  0
LINE
  5
B4B8
330
B36A
100
AcDbEntity
  8
1
  6
Continuous
100
AcDbLine
 10
218.5502389999999
 20
304.312739
 30
0.0
 11
218.5502389999999
 21
308.127945
 31
0.0
  0
LINE
  5
B4B9
330
B36A
100
AcDbEntity
  8
1
  6
Continuous
100
AcDbLine
 10
240.8847629999999
 20
304.312739
 30
0.0
 11
242.8847629999999
 21
306.8337389999999
 31
0.0
  0
LINE
  5
B4BA
330
B36A
100
AcDbEntity
  8
1
  6
Continuous
100
AcDbLine
 10
243.0060829999999
 20
304.312739
 30
0.0
 11
245.0060829999999
 21
306.8337389999999
 31
0.0
  0
LINE
  5
B4BB
330
B36A
100
AcDbEntity
  8
1
  6
Continuous
100
AcDbLine
 10
242.177656
 20
304.312739
 30
0.0
 11
240.177656
 21
306.8337389999999
 31
0.0
  0
LINE
  5
B4BC
330
B36A
100
AcDbEntity
  8
1
  6
Continuous
100
AcDbLine
 10
245.0060829999999
 20
304.312739
 30
0.0
 11
243.0060829999999
 21
306.8337389999999
 31
0.0
  0
LINE
  5
B4BD
330
B36A
100
AcDbEntity
  8
1
  6
Continuous
100
AcDbLine
 10
245.1274029999999
 20
304.312739
 30
0.0
 11
247.127403
 21
306.8337389999999
 31
0.0
  0
LINE
  5
B4BE
330
B36A
100
AcDbEntity
  8
1
  6
Continuous
100
AcDbLine
 10
234.520802
 20
304.312739
 30
0.0
 11
236.520802
 21
306.8337389999999
 31
0.0
  0
LINE
  5
B4BF
330
B36A
100
AcDbEntity
  8
1
  6
Continuous
100
AcDbLine
 10
236.642122
 20
304.312739
 30
0.0
 11
238.642122
 21
306.8337389999999
 31
0.0
  0
LINE
  5
B4C0
330
B36A
100
AcDbEntity
  8
1
  6
Continuous
100
AcDbLine
 10
236.520802
 20
304.312739
 30
0.0
 11
234.520802
 21
306.8337389999999
 31
0.0
  0
LINE
  5
B4C1
330
B36A
100
AcDbEntity
  8
1
  6
Continuous
100
AcDbLine
 10
239.349229
 20
304.312739
 30
0.0
 11
237.349229
 21
306.8337389999999
 31
0.0
  0
LINE
  5
B4C2
330
B36A
100
AcDbEntity
  8
1
  6
Continuous
100
AcDbLine
 10
233.6923749999999
 20
304.312739
 30
0.0
 11
231.6923749999999
 21
306.8337389999999
 31
0.0
  0
LINE
  5
B4C3
330
B36A
100
AcDbEntity
  8
1
  6
Continuous
100
AcDbLine
 10
232.399481
 20
304.312739
 30
0.0
 11
234.399481
 21
306.8337389999999
 31
0.0
  0
LINE
  5
B4C4
330
B36A
100
AcDbEntity
  8
1
  6
Continuous
100
AcDbLine
 10
238.7634419999999
 20
304.312739
 30
0.0
 11
240.7634419999999
 21
306.8337389999999
 31
0.0
  0
LINE
  5
B4C5
330
B36A
100
AcDbEntity
  8
1
  6
Continuous
100
AcDbLine
 10
247.2487239999999
 20
304.312739
 30
0.0
 11
249.2487239999999
 21
306.8337389999999
 31
0.0
  0
LINE
  5
B4C6
330
B36A
100
AcDbEntity
  8
1
  6
Continuous
100
AcDbLine
 10
247.8345099999999
 20
304.312739
 30
0.0
 11
245.8345099999999
 21
306.8337389999999
 31
0.0
  0
LINE
  5
B4C7
330
B36A
100
AcDbEntity
  8
1
  6
Continuous
100
AcDbLine
 10
268.461927
 20
304.312739
 30
0.0
 11
270.461927
 21
306.8337389999999
 31
0.0
  0
LINE
  5
B4C8
330
B36A
100
AcDbEntity
  8
1
  6
Continuous
100
AcDbLine
 10
270.461927
 20
304.312739
 30
0.0
 11
268.461927
 21
306.8337389999999
 31
0.0
  0
LINE
  5
B4C9
330
B36A
100
AcDbEntity
  8
1
  6
Continuous
100
AcDbLine
 10
264.219286
 20
304.312739
 30
0.0
 11
266.219286
 21
306.8337389999999
 31
0.0
  0
LINE
  5
B4CA
330
B36A
100
AcDbEntity
  8
1
  6
Continuous
100
AcDbLine
 10
264.805073
 20
304.312739
 30
0.0
 11
262.805073
 21
306.8337389999999
 31
0.0
  0
LINE
  5
B4CB
330
B36A
100
AcDbEntity
  8
1
  6
Continuous
100
AcDbLine
 10
257.855325
 20
304.312739
 30
0.0
 11
259.855325
 21
306.8337389999999
 31
0.0
  0
LINE
  5
B4CC
330
B36A
100
AcDbEntity
  8
1
  6
Continuous
100
AcDbLine
 10
259.976646
 20
304.312739
 30
0.0
 11
261.976646
 21
306.8337389999999
 31
0.0
  0
LINE
  5
B4CD
330
B36A
100
AcDbEntity
  8
1
  6
Continuous
100
AcDbLine
 10
259.1482189999999
 20
304.312739
 30
0.0
 11
257.1482189999999
 21
306.8337389999999
 31
0.0
  0
LINE
  5
B4CE
330
B36A
100
AcDbEntity
  8
1
  6
Continuous
100
AcDbLine
 10
261.976646
 20
304.312739
 30
0.0
 11
259.976646
 21
306.8337389999999
 31
0.0
  0
LINE
  5
B4CF
330
B36A
100
AcDbEntity
  8
1
  6
Continuous
100
AcDbLine
 10
251.491364
 20
304.312739
 30
0.0
 11
253.491364
 21
306.8337389999999
 31
0.0
  0
LINE
  5
B4D0
330
B36A
100
AcDbEntity
  8
1
  6
Continuous
100
AcDbLine
 10
253.612685
 20
304.312739
 30
0.0
 11
255.612685
 21
306.8337389999999
 31
0.0
  0
LINE
  5
B4D1
330
B36A
100
AcDbEntity
  8
1
  6
Continuous
100
AcDbLine
 10
253.491364
 20
304.312739
 30
0.0
 11
251.491364
 21
306.8337389999999
 31
0.0
  0
LINE
  5
B4D2
330
B36A
100
AcDbEntity
  8
1
  6
Continuous
100
AcDbLine
 10
256.3197919999999
 20
304.312739
 30
0.0
 11
254.319792
 21
306.8337389999999
 31
0.0
  0
LINE
  5
B4D3
330
B36A
100
AcDbEntity
  8
1
  6
Continuous
100
AcDbLine
 10
255.7340049999999
 20
304.312739
 30
0.0
 11
257.7340049999999
 21
306.8337389999999
 31
0.0
  0
LINE
  5
B4D4
330
B36A
100
AcDbEntity
  8
1
  6
Continuous
100
AcDbLine
 10
262.0979659999999
 20
304.312739
 30
0.0
 11
264.0979659999999
 21
306.8337389999999
 31
0.0
  0
LINE
  5
B4D5
330
B36A
100
AcDbEntity
  8
1
  6
Continuous
100
AcDbLine
 10
266.3406069999999
 20
304.312739
 30
0.0
 11
268.3406069999999
 21
306.8337389999999
 31
0.0
  0
LINE
  5
B4D6
330
B36A
100
AcDbEntity
  8
1
  6
Continuous
100
AcDbLine
 10
267.6335
 20
304.312739
 30
0.0
 11
265.6335
 21
306.8337389999999
 31
0.0
  0
ARC
  5
B4D7
330
B36A
100
AcDbEntity
  8
1
  6
Continuous
100
AcDbCircle
 10
270.819702
 20
301.4735769999999
 30
0.0
 40
2.839261999999998
100
AcDbArc
 50
86.26253100000004
 51
90.48175099999999
  0
LINE
  5
B4D8
330
B36A
100
AcDbEntity
  8
1
  6
Continuous
100
AcDbLine
 10
270.583248
 20
304.312739
 30
0.0
 11
271.9224389999999
 21
306.17293
 31
0.0
  0
LINE
  5
B4D9
330
B36A
100
AcDbEntity
  8
1
  6
Continuous
100
AcDbLine
 10
271.9224389999999
 20
306.201654
 30
0.0
 11
271.2903539999999
 21
306.8337389999999
 31
0.0
  0
LINE
  5
B4DA
330
B36A
100
AcDbEntity
  8
1
  6
Continuous
100
AcDbLine
 10
271.9224389999999
 20
308.127945
 30
0.0
 11
271.9224389999999
 21
304.312739
 31
0.0
  0
LINE
  5
B4DB
330
B36A
100
AcDbEntity
  8
1
  6
Continuous
100
AcDbLine
 10
251.2363779999998
 20
364.127923
 30
0.0
 11
249.7363779999998
 21
365.6279229999999
 31
0.0
  0
LINE
  5
B4DC
330
B36A
100
AcDbEntity
  8
1
  6
Continuous
100
AcDbLine
 10
234.536339
 20
363.7279229999998
 30
0.0
 11
255.936339
 21
363.7279229999998
 31
0.0
  0
LINE
  5
B4DD
330
B36A
100
AcDbEntity
  8
1
  6
Continuous
100
AcDbLine
 10
239.2363779999998
 20
364.127923
 30
0.0
 11
251.2363779999998
 21
364.127923
 31
0.0
  0
LINE
  5
B4DE
330
B36A
100
AcDbEntity
  8
1
  6
Continuous
100
AcDbLine
 10
224.2363389999999
 20
312.127945
 30
0.0
 11
266.2363389999998
 21
312.127945
 31
0.0
  0
LINE
  5
B4DF
330
B36A
100
AcDbEntity
  8
1
  6
Continuous
100
AcDbLine
 10
261.402123
 20
315.6279229999999
 30
0.0
 11
229.070507
 21
315.6279229999999
 31
0.0
  0
LINE
  5
B4E0
330
B36A
100
AcDbEntity
  8
1
  6
Continuous
100
AcDbLine
 10
229.070507
 20
312.127945
 30
0.0
 11
229.070507
 21
315.6279229999999
 31
0.0
  0
LINE
  5
B4E1
330
B36A
100
AcDbEntity
  8
1
  6
Continuous
100
AcDbLine
 10
237.1534109999998
 20
312.127945
 30
0.0
 11
237.1534109999998
 21
315.6279229999999
 31
0.0
  0
LINE
  5
B4E2
330
B36A
100
AcDbEntity
  8
1
  6
Continuous
100
AcDbLine
 10
239.2363779999998
 20
363.7279229999998
 30
0.0
 11
239.2363779999998
 21
364.127923
 31
0.0
  0
LINE
  5
B4E3
330
B36A
100
AcDbEntity
  8
1
  6
Continuous
100
AcDbLine
 10
240.7363779999998
 20
365.6279229999999
 30
0.0
 11
239.2363779999998
 21
364.127923
 31
0.0
  0
LINE
  5
B4E4
330
B36A
100
AcDbEntity
  8
1
  6
Continuous
100
AcDbLine
 10
240.7363779999998
 20
365.6279229999999
 30
0.0
 11
249.7363779999998
 21
365.6279229999999
 31
0.0
  0
LINE
  5
B4E5
330
B36A
100
AcDbEntity
  8
2
  6
Continuous
100
AcDbLine
 10
240.1833389999999
 20
363.7279229999998
 30
0.0
 11
240.1833389999999
 21
365.0748839999998
 31
0.0
  0
LINE
  5
B4E6
330
B36A
100
AcDbEntity
  8
2
  6
Continuous
100
AcDbLine
 10
250.289339
 20
363.7279229999998
 30
0.0
 11
250.289339
 21
365.074962
 31
0.0
  0
LINE
  5
B4E7
330
B36A
100
AcDbEntity
  8
1
  6
Continuous
100
AcDbLine
 10
261.402123
 20
312.127945
 30
0.0
 11
261.402123
 21
315.6279229999999
 31
0.0
  0
LINE
  5
B4E8
330
B36A
100
AcDbEntity
  8
1
  6
Continuous
100
AcDbLine
 10
253.319219
 20
312.127945
 30
0.0
 11
253.319219
 21
315.6279229999999
 31
0.0
  0
LINE
  5
B4E9
330
B36A
100
AcDbEntity
  8
1
  6
Continuous
100
AcDbLine
 10
251.2363779999998
 20
364.127923
 30
0.0
 11
251.2363779999998
 21
363.7279229999998
 31
0.0
  0
ARC
  5
B4EA
330
B36A
100
AcDbEntity
  8
1
  6
Continuous
100
AcDbCircle
 10
372.233743
 20
308.127945
 30
0.0
 40
4.0
100
AcDbArc
 50
0.0
 51
90.0
  0
ARC
  5
B4EB
330
B36A
100
AcDbEntity
  8
1
  6
Continuous
100
AcDbCircle
 10
330.233743
 20
308.127945
 30
0.0
 40
4.0
100
AcDbArc
 50
90.0
 51
180.0
  0
LINE
  5
B4EC
330
B36A
100
AcDbEntity
  8
1
  6
Continuous
100
AcDbLine
 10
356.660341
 20
304.462739
 30
0.0
 11
354.660341
 21
306.8337389999999
 31
0.0
  0
LINE
  5
B4ED
330
B36A
100
AcDbEntity
  8
1
  6
Continuous
100
AcDbLine
 10
355.367448
 20
304.462739
 30
0.0
 11
357.367448
 21
306.8337389999999
 31
0.0
  0
LINE
  5
B4EE
330
B36A
100
AcDbEntity
  8
1
  6
Continuous
100
AcDbLine
 10
324.547643
 20
306.8337389999999
 30
0.0
 11
377.919843
 21
306.8337389999999
 31
0.0
  0
LINE
  5
B4EF
330
B36A
100
AcDbEntity
  8
1
  6
Continuous
100
AcDbLine
 10
377.919843
 20
308.127945
 30
0.0
 11
324.547643
 21
308.127945
 31
0.0
  0
LINE
  5
B4F0
330
B36A
100
AcDbEntity
  8
1
  6
Continuous
100
AcDbLine
 10
336.2755649999999
 20
304.462739
 30
0.0
 11
338.275565
 21
306.8337389999999
 31
0.0
  0
LINE
  5
B4F1
330
B36A
100
AcDbEntity
  8
1
  6
Continuous
100
AcDbLine
 10
334.1542449999999
 20
304.462739
 30
0.0
 11
336.1542449999999
 21
306.8337389999999
 31
0.0
  0
LINE
  5
B4F2
330
B36A
100
AcDbEntity
  8
1
  6
Continuous
100
AcDbLine
 10
336.8613509999998
 20
304.462739
 30
0.0
 11
334.8613509999998
 21
306.8337389999999
 31
0.0
  0
LINE
  5
B4F3
330
B36A
100
AcDbEntity
  8
1
  6
Continuous
100
AcDbLine
 10
329.911604
 20
304.462739
 30
0.0
 11
331.911604
 21
306.8337389999999
 31
0.0
  0
LINE
  5
B4F4
330
B36A
100
AcDbEntity
  8
1
  6
Continuous
100
AcDbLine
 10
331.204497
 20
304.462739
 30
0.0
 11
329.204497
 21
306.8337389999999
 31
0.0
  0
LINE
  5
B4F5
330
B36A
100
AcDbEntity
  8
1
  6
Continuous
100
AcDbLine
 10
325.5476429999998
 20
306.8337389999999
 30
0.0
 11
324.547643
 21
305.462739
 31
0.0
  0
LINE
  5
B4F6
330
B36A
100
AcDbEntity
  8
1
  6
Continuous
100
AcDbLine
 10
325.6689629999999
 20
304.462739
 30
0.0
 11
327.6689629999999
 21
306.8337389999999
 31
0.0
  0
LINE
  5
B4F7
330
B36A
100
AcDbEntity
  8
1
  6
Continuous
100
AcDbLine
 10
325.5476429999998
 20
304.462739
 30
0.0
 11
324.547643
 21
305.462739
 31
0.0
  0
LINE
  5
B4F8
330
B36A
100
AcDbEntity
  8
1
  6
Continuous
100
AcDbLine
 10
327.7902839999998
 20
304.462739
 30
0.0
 11
329.7902839999999
 21
306.8337389999999
 31
0.0
  0
LINE
  5
B4F9
330
B36A
100
AcDbEntity
  8
1
  6
Continuous
100
AcDbLine
 10
328.3760700000001
 20
304.462739
 30
0.0
 11
326.3760700000001
 21
306.8337389999999
 31
0.0
  0
LINE
  5
B4FA
330
B36A
100
AcDbEntity
  8
1
  6
Continuous
100
AcDbLine
 10
332.0329239999999
 20
304.462739
 30
0.0
 11
334.0329239999999
 21
306.8337389999999
 31
0.0
  0
LINE
  5
B4FB
330
B36A
100
AcDbEntity
  8
1
  6
Continuous
100
AcDbLine
 10
334.0329239999999
 20
304.462739
 30
0.0
 11
332.0329239999999
 21
306.8337389999999
 31
0.0
  0
LINE
  5
B4FC
330
B36A
100
AcDbEntity
  8
1
  6
Continuous
100
AcDbLine
 10
324.547643
 20
304.462739
 30
0.0
 11
324.547643
 21
308.127945
 31
0.0
  0
LINE
  5
B4FD
330
B36A
100
AcDbEntity
  8
1
  6
Continuous
100
AcDbLine
 10
346.882167
 20
304.462739
 30
0.0
 11
348.882167
 21
306.8337389999999
 31
0.0
  0
LINE
  5
B4FE
330
B36A
100
AcDbEntity
  8
1
  6
Continuous
100
AcDbLine
 10
349.003487
 20
304.462739
 30
0.0
 11
351.003487
 21
306.8337389999999
 31
0.0
  0
LINE
  5
B4FF
330
B36A
100
AcDbEntity
  8
1
  6
Continuous
100
AcDbLine
 10
348.1750599999998
 20
304.462739
 30
0.0
 11
346.1750599999998
 21
306.8337389999999
 31
0.0
  0
LINE
  5
B500
330
B36A
100
AcDbEntity
  8
1
  6
Continuous
100
AcDbLine
 10
351.003487
 20
304.462739
 30
0.0
 11
349.003487
 21
306.8337389999999
 31
0.0
  0
LINE
  5
B501
330
B36A
100
AcDbEntity
  8
1
  6
Continuous
100
AcDbLine
 10
351.1248069999999
 20
304.462739
 30
0.0
 11
353.1248069999999
 21
306.8337389999999
 31
0.0
  0
LINE
  5
B502
330
B36A
100
AcDbEntity
  8
1
  6
Continuous
100
AcDbLine
 10
340.518206
 20
304.462739
 30
0.0
 11
342.518206
 21
306.8337389999999
 31
0.0
  0
LINE
  5
B503
330
B36A
100
AcDbEntity
  8
1
  6
Continuous
100
AcDbLine
 10
342.639526
 20
304.462739
 30
0.0
 11
344.639526
 21
306.8337389999999
 31
0.0
  0
LINE
  5
B504
330
B36A
100
AcDbEntity
  8
1
  6
Continuous
100
AcDbLine
 10
342.518206
 20
304.462739
 30
0.0
 11
340.518206
 21
306.8337389999999
 31
0.0
  0
LINE
  5
B505
330
B36A
100
AcDbEntity
  8
1
  6
Continuous
100
AcDbLine
 10
345.3466329999998
 20
304.462739
 30
0.0
 11
343.3466329999999
 21
306.8337389999999
 31
0.0
  0
LINE
  5
B506
330
B36A
100
AcDbEntity
  8
1
  6
Continuous
100
AcDbLine
 10
339.689779
 20
304.462739
 30
0.0
 11
337.689779
 21
306.8337389999999
 31
0.0
  0
LINE
  5
B507
330
B36A
100
AcDbEntity
  8
1
  6
Continuous
100
AcDbLine
 10
338.396885
 20
304.462739
 30
0.0
 11
340.396885
 21
306.8337389999999
 31
0.0
  0
LINE
  5
B508
330
B36A
100
AcDbEntity
  8
1
  6
Continuous
100
AcDbLine
 10
344.760846
 20
304.462739
 30
0.0
 11
346.760846
 21
306.8337389999999
 31
0.0
  0
LINE
  5
B509
330
B36A
100
AcDbEntity
  8
1
  6
Continuous
100
AcDbLine
 10
353.246128
 20
304.462739
 30
0.0
 11
355.246128
 21
306.8337389999999
 31
0.0
  0
LINE
  5
B50A
330
B36A
100
AcDbEntity
  8
1
  6
Continuous
100
AcDbLine
 10
353.831914
 20
304.462739
 30
0.0
 11
351.831914
 21
306.8337389999999
 31
0.0
  0
LINE
  5
B50B
330
B36A
100
AcDbEntity
  8
1
  6
Continuous
100
AcDbLine
 10
374.459331
 20
304.462739
 30
0.0
 11
376.459331
 21
306.8337389999999
 31
0.0
  0
LINE
  5
B50C
330
B36A
100
AcDbEntity
  8
1
  6
Continuous
100
AcDbLine
 10
376.459331
 20
304.462739
 30
0.0
 11
374.459331
 21
306.8337389999999
 31
0.0
  0
LINE
  5
B50D
330
B36A
100
AcDbEntity
  8
1
  6
Continuous
100
AcDbLine
 10
370.2166899999999
 20
304.462739
 30
0.0
 11
372.2166899999999
 21
306.8337389999999
 31
0.0
  0
LINE
  5
B50E
330
B36A
100
AcDbEntity
  8
1
  6
Continuous
100
AcDbLine
 10
370.802477
 20
304.462739
 30
0.0
 11
368.802477
 21
306.8337389999999
 31
0.0
  0
LINE
  5
B50F
330
B36A
100
AcDbEntity
  8
1
  6
Continuous
100
AcDbLine
 10
363.852729
 20
304.462739
 30
0.0
 11
365.852729
 21
306.8337389999999
 31
0.0
  0
LINE
  5
B510
330
B36A
100
AcDbEntity
  8
1
  6
Continuous
100
AcDbLine
 10
365.9740499999998
 20
304.462739
 30
0.0
 11
367.9740499999998
 21
306.8337389999999
 31
0.0
  0
LINE
  5
B511
330
B36A
100
AcDbEntity
  8
1
  6
Continuous
100
AcDbLine
 10
365.1456229999998
 20
304.462739
 30
0.0
 11
363.1456229999998
 21
306.8337389999999
 31
0.0
  0
LINE
  5
B512
330
B36A
100
AcDbEntity
  8
1
  6
Continuous
100
AcDbLine
 10
367.9740499999998
 20
304.462739
 30
0.0
 11
365.9740499999998
 21
306.8337389999999
 31
0.0
  0
LINE
  5
B513
330
B36A
100
AcDbEntity
  8
1
  6
Continuous
100
AcDbLine
 10
357.4887679999998
 20
304.462739
 30
0.0
 11
359.4887679999998
 21
306.8337389999999
 31
0.0
  0
LINE
  5
B514
330
B36A
100
AcDbEntity
  8
1
  6
Continuous
100
AcDbLine
 10
359.610089
 20
304.462739
 30
0.0
 11
361.610089
 21
306.8337389999999
 31
0.0
  0
LINE
  5
B515
330
B36A
100
AcDbEntity
  8
1
  6
Continuous
100
AcDbLine
 10
359.4887679999998
 20
304.462739
 30
0.0
 11
357.4887679999998
 21
306.8337389999999
 31
0.0
  0
LINE
  5
B516
330
B36A
100
AcDbEntity
  8
1
  6
Continuous
100
AcDbLine
 10
362.317196
 20
304.462739
 30
0.0
 11
360.317196
 21
306.8337389999999
 31
0.0
  0
LINE
  5
B517
330
B36A
100
AcDbEntity
  8
1
  6
Continuous
100
AcDbLine
 10
361.7314089999999
 20
304.462739
 30
0.0
 11
363.7314089999999
 21
306.8337389999999
 31
0.0
  0
LINE
  5
B518
330
B36A
100
AcDbEntity
  8
1
  6
Continuous
100
AcDbLine
 10
368.0953699999998
 20
304.462739
 30
0.0
 11
370.0953699999999
 21
306.8337389999999
 31
0.0
  0
LINE
  5
B519
330
B36A
100
AcDbEntity
  8
1
  6
Continuous
100
AcDbLine
 10
372.3380109999998
 20
304.462739
 30
0.0
 11
374.3380109999998
 21
306.8337389999999
 31
0.0
  0
LINE
  5
B51A
330
B36A
100
AcDbEntity
  8
1
  6
Continuous
100
AcDbLine
 10
373.630904
 20
304.462739
 30
0.0
 11
371.630904
 21
306.8337389999999
 31
0.0
  0
ARC
  5
B51B
330
B36A
100
AcDbEntity
  8
1
  6
Continuous
100
AcDbCircle
 10
376.817106
 20
301.623577
 30
0.0
 40
2.839261999999998
100
AcDbArc
 50
86.26253100000004
 51
90.48175099999999
  0
LINE
  5
B51C
330
B36A
100
AcDbEntity
  8
1
  6
Continuous
100
AcDbLine
 10
376.5806519999999
 20
304.462739
 30
0.0
 11
377.919843
 21
305.8019299999999
 31
0.0
  0
LINE
  5
B51D
330
B36A
100
AcDbEntity
  8
1
  6
Continuous
100
AcDbLine
 10
377.919843
 20
305.8306539999999
 30
0.0
 11
377.2877579999998
 21
306.8337389999999
 31
0.0
  0
LINE
  5
B51E
330
B36A
100
AcDbEntity
  8
1
  6
Continuous
100
AcDbLine
 10
377.919843
 20
308.127945
 30
0.0
 11
377.919843
 21
304.462739
 31
0.0
  0
LINE
  5
B51F
330
B36A
100
AcDbEntity
  8
1
  6
Continuous
100
AcDbLine
 10
357.2337819999999
 20
364.127923
 30
0.0
 11
355.7337819999998
 21
365.6279229999999
 31
0.0
  0
LINE
  5
B520
330
B36A
100
AcDbEntity
  8
1
  6
Continuous
100
AcDbLine
 10
341.4837429999999
 20
363.7279229999998
 30
0.0
 11
360.983743
 21
363.7279229999998
 31
0.0
  0
LINE
  5
B521
330
B36A
100
AcDbEntity
  8
1
  6
Continuous
100
AcDbLine
 10
345.2337819999999
 20
364.127923
 30
0.0
 11
357.2337819999999
 21
364.127923
 31
0.0
  0
LINE
  5
B522
330
B36A
100
AcDbEntity
  8
1
  6
Continuous
100
AcDbLine
 10
330.233743
 20
312.127945
 30
0.0
 11
372.233743
 21
312.127945
 31
0.0
  0
LINE
  5
B523
330
B36A
100
AcDbEntity
  8
1
  6
Continuous
100
AcDbLine
 10
365.233719
 20
315.6279229999999
 30
0.0
 11
337.233719
 21
315.6279229999999
 31
0.0
  0
LINE
  5
B524
330
B36A
100
AcDbEntity
  8
1
  6
Continuous
100
AcDbLine
 10
345.2337819999999
 20
363.7279229999998
 30
0.0
 11
345.2337819999999
 21
364.127923
 31
0.0
  0
LINE
  5
B525
330
B36A
100
AcDbEntity
  8
1
  6
Continuous
100
AcDbLine
 10
346.7337819999999
 20
365.6279229999999
 30
0.0
 11
345.2337819999999
 21
364.127923
 31
0.0
  0
LINE
  5
B526
330
B36A
100
AcDbEntity
  8
1
  6
Continuous
100
AcDbLine
 10
346.7337819999999
 20
365.6279229999999
 30
0.0
 11
355.7337819999998
 21
365.6279229999999
 31
0.0
  0
LINE
  5
B527
330
B36A
100
AcDbEntity
  8
2
  6
Continuous
100
AcDbLine
 10
346.180743
 20
363.7279229999998
 30
0.0
 11
346.180743
 21
365.0748839999998
 31
0.0
  0
LINE
  5
B528
330
B36A
100
AcDbEntity
  8
2
  6
Continuous
100
AcDbLine
 10
356.286743
 20
363.7279229999998
 30
0.0
 11
356.286743
 21
365.074962
 31
0.0
  0
LINE
  5
B529
330
B36A
100
AcDbEntity
  8
1
  6
Continuous
100
AcDbLine
 10
357.2337819999999
 20
364.127923
 30
0.0
 11
357.2337819999999
 21
363.7279229999998
 31
0.0
  0
CIRCLE
  5
B52A
330
B36A
100
AcDbEntity
  8
1
  6
Continuous
100
AcDbCircle
 10
188.0760699999999
 20
258.752351
 30
0.0
 40
3.7
  0
ARC
  5
B52B
330
B36A
100
AcDbEntity
  8
1
  6
Continuous
100
AcDbCircle
 10
245.2363389999999
 20
442.3442299999998
 30
0.0
 40
27.5
100
AcDbArc
 50
229.821137
 51
130.1788629999998
  0
LINE
  5
B52C
330
B36A
100
AcDbEntity
  8
1
  6
Continuous
100
AcDbLine
 10
215.236352
 20
416.996235
 30
0.0
 11
215.236352
 21
421.9962349999998
 31
0.0
  0
LINE
  5
B52D
330
B36A
100
AcDbEntity
  8
1
  6
Continuous
100
AcDbLine
 10
216.736352
 20
423.9962349999998
 30
0.0
 11
216.736352
 21
421.9962349999998
 31
0.0
  0
LINE
  5
B52E
330
B36A
100
AcDbEntity
  8
1
  6
Continuous
100
AcDbLine
 10
212.2363519999999
 20
415.0962349999998
 30
0.0
 11
213.236352
 21
416.096235
 31
0.0
  0
LINE
  5
B52F
330
B36A
100
AcDbEntity
  8
1
  6
Continuous
100
AcDbLine
 10
206.236352
 20
415.0962349999998
 30
0.0
 11
205.236352
 21
416.096235
 31
0.0
  0
LINE
  5
B530
330
B36A
100
AcDbEntity
  8
2
  6
Continuous
100
AcDbLine
 10
205.9128519999999
 20
416.996235
 30
0.0
 11
205.9128519999999
 21
415.419735
 31
0.0
  0
LINE
  5
B531
330
B36A
100
AcDbEntity
  8
2
  6
Continuous
100
AcDbLine
 10
212.559852
 20
416.996235
 30
0.0
 11
212.559852
 21
415.419735
 31
0.0
  0
LINE
  5
B532
330
B36A
100
AcDbEntity
  8
1
  6
Continuous
100
AcDbLine
 10
213.236352
 20
416.996235
 30
0.0
 11
213.236352
 21
416.096235
 31
0.0
  0
LINE
  5
B533
330
B36A
100
AcDbEntity
  8
1
  6
Continuous
100
AcDbLine
 10
205.236352
 20
416.996235
 30
0.0
 11
205.236352
 21
416.096235
 31
0.0
  0
LINE
  5
B534
330
B36A
100
AcDbEntity
  8
1
  6
Continuous
100
AcDbLine
 10
206.236352
 20
415.0962349999998
 30
0.0
 11
212.2363519999999
 21
415.0962349999998
 31
0.0
  0
LINE
  5
B535
330
B36A
100
AcDbEntity
  8
1
  6
Continuous
100
AcDbLine
 10
205.236352
 20
416.096235
 30
0.0
 11
213.236352
 21
416.096235
 31
0.0
  0
LINE
  5
B536
330
B36A
100
AcDbEntity
  8
1
  6
Continuous
100
AcDbLine
 10
203.236352
 20
416.996235
 30
0.0
 11
203.236352
 21
421.9962349999998
 31
0.0
  0
LINE
  5
B537
330
B36A
100
AcDbEntity
  8
1
  6
Continuous
100
AcDbLine
 10
209.236352
 20
421.4603369999998
 30
0.0
 11
209.236352
 21
417.5321339999999
 31
0.0
  0
ARC
  5
B538
330
B36A
100
AcDbEntity
  8
1
  6
Continuous
100
AcDbCircle
 10
206.236352
 20
425.6612989999998
 30
0.0
 40
8.665063999999999
100
AcDbArc
 50
249.7438419999999
 51
290.256158
  0
ARC
  5
B539
330
B36A
100
AcDbEntity
  8
1
  6
Continuous
100
AcDbCircle
 10
206.236352
 20
413.331172
 30
0.0
 40
8.665063999999999
100
AcDbArc
 50
69.743842
 51
110.256158
  0
LINE
  5
B53A
330
B36A
100
AcDbEntity
  8
1
  6
Continuous
100
AcDbLine
 10
209.236352
 20
423.988712
 30
0.0
 11
211.228828
 21
421.9962349999998
 31
0.0
  0
LINE
  5
B53B
330
B36A
100
AcDbEntity
  8
1
  6
Continuous
100
AcDbLine
 10
207.2418749999999
 20
423.9907119999998
 30
0.0
 11
209.236352
 21
421.9962349999998
 31
0.0
  0
LINE
  5
B53C
330
B36A
100
AcDbEntity
  8
1
  6
Continuous
100
AcDbLine
 10
201.7363519999999
 20
423.9811879999998
 30
0.0
 11
201.7363519999999
 21
421.9962349999998
 31
0.0
  0
LINE
  5
B53D
330
B36A
100
AcDbEntity
  8
1
  6
Continuous
100
AcDbLine
 10
203.236352
 20
416.996235
 30
0.0
 11
215.236352
 21
416.996235
 31
0.0
  0
ARC
  5
B53E
330
B36A
100
AcDbEntity
  8
1
  6
Continuous
100
AcDbCircle
 10
212.2363519999999
 20
425.6612989999998
 30
0.0
 40
8.665063999999999
100
AcDbArc
 50
249.7438419999999
 51
290.256158
  0
ARC
  5
B53F
330
B36A
100
AcDbEntity
  8
1
  6
Continuous
100
AcDbCircle
 10
212.2363519999999
 20
413.331172
 30
0.0
 40
8.665063999999999
100
AcDbArc
 50
69.743842
 51
110.256158
  0
LINE
  5
B540
330
B36A
100
AcDbEntity
  8
1
  6
Continuous
100
AcDbLine
 10
216.736352
 20
421.9962349999998
 30
0.0
 11
201.7363519999999
 21
421.9962349999998
 31
0.0
  0
LINE
  5
B541
330
B36A
100
AcDbEntity
  8
1
  6
Continuous
100
AcDbLine
 10
196.836339
 20
460.712188
 30
0.0
 11
196.836339
 21
458.112187
 31
0.0
  0
LINE
  5
B542
330
B36A
100
AcDbEntity
  8
1
  6
Continuous
100
AcDbLine
 10
196.836339
 20
460.712188
 30
0.0
 11
220.192179
 21
460.688759
 31
0.0
  0
LINE
  5
B543
330
B36A
100
AcDbEntity
  8
1
  6
Continuous
100
AcDbLine
 10
196.836339
 20
458.112187
 30
0.0
 11
210.30313
 21
458.0986779999998
 31
0.0
  0
LINE
  5
B544
330
B36A
100
AcDbEntity
  8
1
  6
Continuous
100
AcDbLine
 10
196.836339
 20
426.576275
 30
0.0
 11
210.3031249999999
 21
426.589784
 31
0.0
  0
LINE
  5
B545
330
B36A
100
AcDbEntity
  8
1
  6
Continuous
100
AcDbLine
 10
196.836339
 20
423.9762729999998
 30
0.0
 11
220.19218
 21
423.9997019999998
 31
0.0
  0
LINE
  5
B546
330
B36A
100
AcDbEntity
  8
1
  6
Continuous
100
AcDbLine
 10
196.836339
 20
426.576275
 30
0.0
 11
196.836339
 21
423.9762729999998
 31
0.0
  0
ARC
  5
B547
330
B36A
100
AcDbEntity
  8
1
  6
Continuous
100
AcDbCircle
 10
220.2035149999999
 20
471.988753
 30
0.0
 40
11.3
100
AcDbArc
 50
269.942524
 51
310.1788629999999
  0
ARC
  5
B548
330
B36A
100
AcDbEntity
  8
1
  6
Continuous
100
AcDbCircle
 10
220.2035149999999
 20
412.6997079999998
 30
0.0
 40
11.3
100
AcDbArc
 50
49.821137
 51
90.05747500000003
  0
ARC
  5
B549
330
B36A
100
AcDbEntity
  8
1
  6
Continuous
100
AcDbCircle
 10
220.2035149999999
 20
117.066891
 30
0.0
 40
11.3
100
AcDbArc
 50
269.942524
 51
310.1788629999999
  0
ARC
  5
B54A
330
B36A
100
AcDbEntity
  8
1
  6
Continuous
100
AcDbCircle
 10
220.2035149999999
 20
57.777846
 30
0.0
 40
11.3
100
AcDbArc
 50
49.821137
 51
90.05747500000003
  0
ARC
  5
B54B
330
B36A
100
AcDbEntity
  8
1
  6
Continuous
100
AcDbCircle
 10
220.2035149999999
 20
117.066892
 30
0.0
 40
13.9
100
AcDbArc
 50
269.9425249999998
 51
310.1788619999999
  0
ARC
  5
B54C
330
B36A
100
AcDbEntity
  8
1
  6
Continuous
100
AcDbCircle
 10
220.203514
 20
57.777846
 30
0.0
 40
13.9
100
AcDbArc
 50
49.821135
 51
90.05747599999997
  0
LINE
  5
B54D
330
B36A
100
AcDbEntity
  8
1
  6
Continuous
100
AcDbLine
 10
255.7363779999998
 20
320.927223
 30
0.0
 11
234.7363779999998
 21
320.927223
 31
0.0
  0
LINE
  5
B54E
330
B36A
100
AcDbEntity
  8
1
  6
Continuous
100
AcDbLine
 10
234.536339
 20
359.7279229999998
 30
0.0
 11
255.936339
 21
359.7279229999998
 31
0.0
  0
LINE
  5
B54F
330
B36A
100
AcDbEntity
  8
1
  6
Continuous
100
AcDbLine
 10
234.536339
 20
359.7279229999998
 30
0.0
 11
234.536339
 21
363.7279229999998
 31
0.0
  0
LINE
  5
B550
330
B36A
100
AcDbEntity
  8
1
  6
Continuous
100
AcDbLine
 10
240.828675
 20
363.7279229999998
 30
0.0
 11
240.828675
 21
359.7279229999998
 31
0.0
  0
LINE
  5
B551
330
B36A
100
AcDbEntity
  8
1
  6
Continuous
100
AcDbLine
 10
249.6440029999999
 20
363.7279229999998
 30
0.0
 11
249.6440029999999
 21
359.7279229999998
 31
0.0
  0
LINE
  5
B552
330
B36A
100
AcDbEntity
  8
1
  6
Continuous
100
AcDbLine
 10
255.936339
 20
363.7279229999998
 30
0.0
 11
255.936339
 21
359.7279229999998
 31
0.0
  0
ARC
  5
B553
330
B36A
100
AcDbEntity
  8
1
  6
Continuous
100
AcDbCircle
 10
245.2363389999999
 20
442.3442299999998
 30
0.0
 40
10.7
100
AcDbArc
 50
294.326207
 51
65.673793
  0
ARC
  5
B554
330
B36A
100
AcDbEntity
  8
1
  6
Continuous
100
AcDbCircle
 10
245.2363389999999
 20
442.3442299999998
 30
0.0
 40
10.7
100
AcDbArc
 50
114.326207
 51
245.673793
  0
LINE
  5
B555
330
B36A
100
AcDbEntity
  8
1
  6
Continuous
100
AcDbLine
 10
249.6440029999999
 20
432.59423
 30
0.0
 11
240.828675
 21
432.59423
 31
0.0
  0
LINE
  5
B556
330
B36A
100
AcDbEntity
  8
1
  6
Continuous
100
AcDbLine
 10
249.6440029999999
 20
452.0942299999998
 30
0.0
 11
240.828675
 21
452.0942299999998
 31
0.0
  0
LINE
  5
B557
330
B36A
100
AcDbEntity
  8
1
  6
Continuous
100
AcDbLine
 10
209.433828
 20
454.9442299999998
 30
0.0
 11
150.419551
 21
454.9442299999998
 31
0.0
  0
LINE
  5
B558
330
B36A
100
AcDbEntity
  8
1
  6
Continuous
100
AcDbLine
 10
209.4338239999999
 20
429.7442299999998
 30
0.0
 11
150.419551
 21
429.7442299999998
 31
0.0
  0
ARC
  5
B559
330
B36A
100
AcDbEntity
  8
1
  6
Continuous
100
AcDbCircle
 10
244.236352
 20
442.3442299999998
 30
0.0
 40
30.0
100
AcDbArc
 50
342.301988
 51
17.70095099999998
  0
ARC
  5
B55A
330
B36A
100
AcDbEntity
  8
1
  6
Continuous
100
AcDbCircle
 10
268.053153
 20
434.7442299999998
 30
0.0
 40
5.0
100
AcDbArc
 50
291.050208
 51
342.301988
  0
ARC
  5
B55B
330
B36A
100
AcDbEntity
  8
1
  6
Continuous
100
AcDbCircle
 10
268.053153
 20
449.94423
 30
0.0
 40
5.0
100
AcDbArc
 50
17.69801199999999
 51
68.949792
  0
ARC
  5
B55C
330
B36A
100
AcDbEntity
  8
1
  6
Continuous
100
AcDbCircle
 10
174.236352
 20
442.3442299999998
 30
0.0
 40
30.0
100
AcDbArc
 50
162.299049
 51
197.698012
  0
LINE
  5
B55D
330
B36A
100
AcDbEntity
  8
1
  6
Continuous
100
AcDbLine
 10
209.8538459999998
 20
428.1257619999998
 30
0.0
 11
200.7113819999999
 21
428.1257619999998
 31
0.0
  0
LINE
  5
B55E
330
B36A
100
AcDbEntity
  8
1
  6
Continuous
100
AcDbLine
 10
202.1363519999999
 20
427.0942299999998
 30
0.0
 11
210.150052
 21
427.0942299999998
 31
0.0
  0
ARC
  5
B55F
330
B36A
100
AcDbEntity
  8
1
  6
Continuous
100
AcDbCircle
 10
203.4471609999999
 20
469.3354639999998
 30
0.0
 40
41.31317399999999
100
AcDbArc
 50
257.0615609999999
 51
263.9302629999999
  0
LINE
  5
B560
330
B36A
100
AcDbEntity
  8
1
  6
Continuous
100
AcDbLine
 10
203.7363519999999
 20
426.5831959999998
 30
0.0
 11
203.7363519999999
 21
427.0942299999998
 31
0.0
  0
ARC
  5
B561
330
B36A
100
AcDbEntity
  8
1
  6
Continuous
100
AcDbCircle
 10
202.214435
 20
457.7426049999998
 30
0.0
 40
29.654958
100
AcDbArc
 50
263.9302629999999
 51
267.0947369999999
  0
ARC
  5
B562
330
B36A
100
AcDbEntity
  8
1
  6
Continuous
100
AcDbCircle
 10
202.1363519999999
 20
428.59423
 30
0.0
 40
1.5
100
AcDbArc
 50
198.1985919999999
 51
270.0
  0
ARC
  5
B563
330
B36A
100
AcDbEntity
  8
1
  6
Continuous
100
AcDbCircle
 10
201.3739109999999
 20
460.311004
 30
0.0
 40
32.05362499999999
100
AcDbArc
 50
252.4803279999999
 51
257.0615609999999
  0
ARC
  5
B564
330
B36A
100
AcDbEntity
  8
1
  6
Continuous
100
AcDbCircle
 10
150.419551
 20
434.7442299999998
 30
0.0
 40
5.0
100
AcDbArc
 50
197.698012
 51
270.0
  0
LINE
  5
B565
330
B36A
100
AcDbEntity
  8
1
  6
Continuous
100
AcDbLine
 10
209.85385
 20
456.5626969999998
 30
0.0
 11
200.7113819999999
 21
456.5626969999998
 31
0.0
  0
LINE
  5
B566
330
B36A
100
AcDbEntity
  8
1
  6
Continuous
100
AcDbLine
 10
202.1363519999999
 20
457.59423
 30
0.0
 11
210.150056
 21
457.59423
 31
0.0
  0
ARC
  5
B567
330
B36A
100
AcDbEntity
  8
1
  6
Continuous
100
AcDbCircle
 10
203.4471609999999
 20
415.352995
 30
0.0
 40
41.31317399999999
100
AcDbArc
 50
96.06973700000001
 51
102.9384389999999
  0
LINE
  5
B568
330
B36A
100
AcDbEntity
  8
1
  6
Continuous
100
AcDbLine
 10
203.7363519999999
 20
458.105265
 30
0.0
 11
203.7363519999999
 21
457.59423
 31
0.0
  0
ARC
  5
B569
330
B36A
100
AcDbEntity
  8
1
  6
Continuous
100
AcDbCircle
 10
202.214435
 20
426.945854
 30
0.0
 40
29.654958
100
AcDbArc
 50
92.90526300000001
 51
96.06973700000001
  0
ARC
  5
B56A
330
B36A
100
AcDbEntity
  8
1
  6
Continuous
100
AcDbCircle
 10
202.1363519999999
 20
456.0942299999998
 30
0.0
 40
1.5
100
AcDbArc
 50
90.0
 51
161.801408
  0
ARC
  5
B56B
330
B36A
100
AcDbEntity
  8
1
  6
Continuous
100
AcDbCircle
 10
201.3739109999999
 20
424.3774559999998
 30
0.0
 40
32.05362499999999
100
AcDbArc
 50
102.9384389999999
 51
107.519672
  0
ARC
  5
B56C
330
B36A
100
AcDbEntity
  8
1
  6
Continuous
100
AcDbCircle
 10
150.419551
 20
449.94423
 30
0.0
 40
5.0
100
AcDbArc
 50
90.0
 51
162.301988
  0
LINE
  5
B56D
330
B36A
100
AcDbEntity
  8
1
  6
Continuous
100
AcDbLine
 10
234.7363389999999
 20
316.627923
 30
0.0
 11
234.7363389999999
 21
358.727923
 31
0.0
  0
LINE
  5
B56E
330
B36A
100
AcDbEntity
  8
1
  6
Continuous
100
AcDbLine
 10
255.7363389999999
 20
316.627923
 30
0.0
 11
255.7363389999999
 21
358.727923
 31
0.0
  0
ARC
  5
B56F
330
B36A
100
AcDbEntity
  8
1
  6
Continuous
100
AcDbCircle
 10
254.736339
 20
358.727923
 30
0.0
 40
1.0
100
AcDbArc
 50
0.0
 51
90.0
  0
ARC
  5
B570
330
B36A
100
AcDbEntity
  8
1
  6
Continuous
100
AcDbCircle
 10
235.7363389999999
 20
358.727923
 30
0.0
 40
1.0
100
AcDbArc
 50
90.0
 51
180.0
  0
ARC
  5
B571
330
B36A
100
AcDbEntity
  8
1
  6
Continuous
100
AcDbCircle
 10
254.736339
 20
316.627923
 30
0.0
 40
1.0
100
AcDbArc
 50
270.0
 51
0.0
  0
ARC
  5
B572
330
B36A
100
AcDbEntity
  8
1
  6
Continuous
100
AcDbCircle
 10
235.7363389999999
 20
316.627923
 30
0.0
 40
1.0
100
AcDbArc
 50
180.0
 51
270.0
  0
ARC
  5
B573
330
B36A
100
AcDbEntity
  8
1
  6
Continuous
100
AcDbCircle
 10
245.2363389999999
 20
442.3442299999998
 30
0.0
 40
10.5
100
AcDbArc
 50
68.213211
 51
111.7867889999999
  0
ARC
  5
B574
330
B36A
100
AcDbEntity
  8
1
  6
Continuous
100
AcDbCircle
 10
245.2363389999999
 20
442.3442299999998
 30
0.0
 40
10.5
100
AcDbArc
 50
248.213211
 51
291.786789
  0
LINE
  5
B575
330
B36A
100
AcDbEntity
  8
1
  6
Continuous
100
AcDbLine
 10
56.48893399999999
 20
359.7279369999998
 30
0.0
 11
56.48893399999999
 21
363.7279369999998
 31
0.0
  0
LINE
  5
B576
330
B36A
100
AcDbEntity
  8
1
  6
Continuous
100
AcDbLine
 10
75.988934
 20
359.7279369999998
 30
0.0
 11
75.988934
 21
363.7279369999998
 31
0.0
  0
LINE
  5
B577
330
B36A
100
AcDbEntity
  8
1
  6
Continuous
100
AcDbLine
 10
56.48893399999999
 20
359.7279369999998
 30
0.0
 11
75.988934
 21
359.7279369999998
 31
0.0
  0
LINE
  5
B578
330
B36A
100
AcDbEntity
  8
1
  6
Continuous
100
AcDbLine
 10
76.738934
 20
316.6279369999998
 30
0.0
 11
76.738934
 21
358.727937
 31
0.0
  0
LINE
  5
B579
330
B36A
100
AcDbEntity
  8
1
  6
Continuous
100
AcDbLine
 10
55.73893399999999
 20
316.6279369999998
 30
0.0
 11
55.73893399999999
 21
358.727937
 31
0.0
  0
LINE
  5
B57A
330
B36A
100
AcDbEntity
  8
1
  6
Continuous
100
AcDbLine
 10
76.738973
 20
320.9272369999998
 30
0.0
 11
55.738973
 21
320.9272369999998
 31
0.0
  0
ARC
  5
B57B
330
B36A
100
AcDbEntity
  8
1
  6
Continuous
100
AcDbCircle
 10
56.73893399999999
 20
316.6279369999998
 30
0.0
 40
1.0
100
AcDbArc
 50
180.0
 51
270.0
  0
ARC
  5
B57C
330
B36A
100
AcDbEntity
  8
1
  6
Continuous
100
AcDbCircle
 10
75.738934
 20
316.6279369999998
 30
0.0
 40
1.0
100
AcDbArc
 50
270.0
 51
0.0
  0
ARC
  5
B57D
330
B36A
100
AcDbEntity
  8
1
  6
Continuous
100
AcDbCircle
 10
56.73893399999999
 20
358.727937
 30
0.0
 40
1.0
100
AcDbArc
 50
90.0
 51
180.0
  0
ARC
  5
B57E
330
B36A
100
AcDbEntity
  8
1
  6
Continuous
100
AcDbCircle
 10
75.738934
 20
358.727937
 30
0.0
 40
1.0
100
AcDbArc
 50
0.0
 51
90.0
  0
LINE
  5
B57F
330
B36A
100
AcDbEntity
  8
1
  6
Continuous
100
AcDbLine
 10
340.733743
 20
316.627923
 30
0.0
 11
340.733743
 21
358.727923
 31
0.0
  0
LINE
  5
B580
330
B36A
100
AcDbEntity
  8
1
  6
Continuous
100
AcDbLine
 10
341.4837429999999
 20
359.7279229999998
 30
0.0
 11
360.983743
 21
359.7279229999998
 31
0.0
  0
ARC
  5
B581
330
B36A
100
AcDbEntity
  8
1
  6
Continuous
100
AcDbCircle
 10
341.7337429999999
 20
358.727923
 30
0.0
 40
1.0
100
AcDbArc
 50
90.0
 51
180.0
  0
LINE
  5
B582
330
B36A
100
AcDbEntity
  8
1
  6
Continuous
100
AcDbLine
 10
341.4837429999999
 20
359.7279229999998
 30
0.0
 11
341.4837429999999
 21
363.7279229999998
 31
0.0
  0
LINE
  5
B583
330
B36A
100
AcDbEntity
  8
1
  6
Continuous
100
AcDbLine
 10
361.733743
 20
316.627923
 30
0.0
 11
361.733743
 21
358.727923
 31
0.0
  0
ARC
  5
B584
330
B36A
100
AcDbEntity
  8
1
  6
Continuous
100
AcDbCircle
 10
360.733743
 20
358.727923
 30
0.0
 40
1.0
100
AcDbArc
 50
0.0
 51
90.0
  0
LINE
  5
B585
330
B36A
100
AcDbEntity
  8
1
  6
Continuous
100
AcDbLine
 10
360.983743
 20
359.7279229999998
 30
0.0
 11
360.983743
 21
363.7279229999998
 31
0.0
  0
LINE
  5
B586
330
B36A
100
AcDbEntity
  8
1
  6
Continuous
100
AcDbLine
 10
361.7337819999999
 20
320.927223
 30
0.0
 11
340.7337819999999
 21
320.927223
 31
0.0
  0
ARC
  5
B587
330
B36A
100
AcDbEntity
  8
1
  6
Continuous
100
AcDbCircle
 10
341.7337429999999
 20
316.627923
 30
0.0
 40
1.0
100
AcDbArc
 50
180.0
 51
270.0
  0
ARC
  5
B588
330
B36A
100
AcDbEntity
  8
1
  6
Continuous
100
AcDbCircle
 10
360.733743
 20
316.627923
 30
0.0
 40
1.0
100
AcDbArc
 50
270.0
 51
0.0
  0
ARC
  5
B589
330
B36A
100
AcDbEntity
  8
1
  6
Continuous
100
AcDbCircle
 10
493.231148
 20
229.6277389999999
 30
0.0
 40
65.0
100
AcDbArc
 50
140.165976
 51
93.30358600000002
  0
ARC
  5
B58A
330
B36A
100
AcDbEntity
  8
1
  6
Continuous
100
AcDbCircle
 10
493.231148
 20
229.6277389999999
 30
0.0
 40
53.65
100
AcDbArc
 50
144.701094
 51
93.335895
  0
LINE
  5
B58B
330
B36A
100
AcDbEntity
  8
4
  6
CENTER
100
AcDbLine
 10
420.231148
 20
229.6277389999999
 30
0.0
 11
566.2311479999998
 21
229.6277389999999
 31
0.0
  0
ARC
  5
B58C
330
B36A
100
AcDbEntity
  8
1
  6
Continuous
100
AcDbCircle
 10
493.231148
 20
229.6277389999999
 30
0.0
 40
40.533539
100
AcDbArc
 50
151.7444649999999
 51
91.66824400000001
  0
ARC
  5
B58D
330
B36A
100
AcDbEntity
  8
1
  6
Continuous
100
AcDbCircle
 10
493.231148
 20
229.6277389999999
 30
0.0
 40
31.415325
100
AcDbArc
 50
159.1214209999999
 51
88.20423499999998
  0
ARC
  5
B58E
330
B36A
100
AcDbEntity
  8
1
  6
Continuous
100
AcDbCircle
 10
492.981148
 20
229.6277389999999
 30
0.0
 40
12.65
100
AcDbArc
 50
230.062209
 51
27.31443499999999
  0
LINE
  5
B58F
330
B36A
100
AcDbEntity
  8
4
  6
CENTER
100
AcDbLine
 10
493.231148
 20
157.1487389999998
 30
0.0
 11
493.231148
 21
302.627739
 31
0.0
  0
ARC
  5
B590
330
B36A
100
AcDbEntity
  8
1
  6
Continuous
100
AcDbCircle
 10
595.147723
 20
351.653945
 30
0.0
 40
171.799
100
AcDbArc
 50
200.3009159999999
 51
230.062209
  0
LINE
  5
B591
330
B36A
100
AcDbEntity
  8
1
  6
Continuous
100
AcDbLine
 10
478.7034269999998
 20
300.798268
 30
0.0
 11
478.7034269999998
 21
230.793644
 31
0.0
  0
CIRCLE
  5
B592
330
B36A
100
AcDbEntity
  8
1
  6
Continuous
100
AcDbCircle
 10
527.469183
 20
218.503127
 30
0.0
 40
3.7
  0
CIRCLE
  5
B593
330
B36A
100
AcDbEntity
  8
1
  6
Continuous
100
AcDbCircle
 10
493.231148
 20
193.6277389999999
 30
0.0
 40
3.7
  0
CIRCLE
  5
B594
330
B36A
100
AcDbEntity
  8
1
  6
Continuous
100
AcDbCircle
 10
458.993113
 20
218.503127
 30
0.0
 40
3.7
  0
LINE
  5
B595
330
B36A
100
AcDbEntity
  8
1
  6
Continuous
100
AcDbLine
 10
446.731148
 20
316.627923
 30
0.0
 11
446.731148
 21
358.727923
 31
0.0
  0
LINE
  5
B596
330
B36A
100
AcDbEntity
  8
1
  6
Continuous
100
AcDbLine
 10
467.731148
 20
316.627923
 30
0.0
 11
467.731148
 21
358.727923
 31
0.0
  0
LINE
  5
B597
330
B36A
100
AcDbEntity
  8
4
  6
CENTER
100
AcDbLine
 10
457.231148
 20
249.214135
 30
0.0
 11
457.231148
 21
370.627923
 31
0.0
  0
LINE
  5
B598
330
B36A
100
AcDbEntity
  8
1
  6
Continuous
100
AcDbLine
 10
446.7311089999998
 20
320.927223
 30
0.0
 11
467.7311089999998
 21
320.927223
 31
0.0
  0
LINE
  5
B599
330
B36A
100
AcDbEntity
  8
1
  6
Continuous
100
AcDbLine
 10
430.5450480000001
 20
304.312739
 30
0.0
 11
483.917248
 21
304.312739
 31
0.0
  0
LINE
  5
B59A
330
B36A
100
AcDbEntity
  8
1
  6
Continuous
100
AcDbLine
 10
465.8253649999998
 20
304.312739
 30
0.0
 11
463.825365
 21
306.8337389999999
 31
0.0
  0
LINE
  5
B59B
330
B36A
100
AcDbEntity
  8
1
  6
Continuous
100
AcDbLine
 10
441.0653639999998
 20
315.6279229999999
 30
0.0
 11
473.3969799999998
 21
315.6279229999999
 31
0.0
  0
LINE
  5
B59C
330
B36A
100
AcDbEntity
  8
1
  6
Continuous
100
AcDbLine
 10
478.231148
 20
312.127945
 30
0.0
 11
436.231148
 21
312.127945
 31
0.0
  0
LINE
  5
B59D
330
B36A
100
AcDbEntity
  8
1
  6
Continuous
100
AcDbLine
 10
430.5450480000001
 20
308.127945
 30
0.0
 11
483.917248
 21
308.127945
 31
0.0
  0
LINE
  5
B59E
330
B36A
100
AcDbEntity
  8
1
  6
Continuous
100
AcDbLine
 10
483.917248
 20
306.8337389999999
 30
0.0
 11
430.5450480000001
 21
306.8337389999999
 31
0.0
  0
ARC
  5
B59F
330
B36A
100
AcDbEntity
  8
1
  6
Continuous
100
AcDbCircle
 10
621.718975
 20
296.1153649999999
 30
0.0
 40
132.243177
100
AcDbArc
 50
177.4095369999998
 51
207.314435
  0
CIRCLE
  5
B5A0
330
B36A
100
AcDbEntity
  8
1
  6
Continuous
100
AcDbCircle
 10
514.391417
 20
258.752351
 30
0.0
 40
3.7
  0
LINE
  5
B5A1
330
B36A
100
AcDbEntity
  8
1
  6
Continuous
100
AcDbLine
 10
472.1893259999998
 20
304.312739
 30
0.0
 11
470.189326
 21
306.8337389999999
 31
0.0
  0
LINE
  5
B5A2
330
B36A
100
AcDbEntity
  8
1
  6
Continuous
100
AcDbLine
 10
474.3106459999999
 20
304.312739
 30
0.0
 11
472.310646
 21
306.8337389999999
 31
0.0
  0
LINE
  5
B5A3
330
B36A
100
AcDbEntity
  8
1
  6
Continuous
100
AcDbLine
 10
471.6035399999998
 20
304.312739
 30
0.0
 11
473.60354
 21
306.8337389999999
 31
0.0
  0
LINE
  5
B5A4
330
B36A
100
AcDbEntity
  8
1
  6
Continuous
100
AcDbLine
 10
478.5532869999998
 20
304.312739
 30
0.0
 11
476.553287
 21
306.8337389999999
 31
0.0
  0
LINE
  5
B5A5
330
B36A
100
AcDbEntity
  8
1
  6
Continuous
100
AcDbLine
 10
477.260394
 20
304.312739
 30
0.0
 11
479.260394
 21
306.8337389999999
 31
0.0
  0
LINE
  5
B5A6
330
B36A
100
AcDbEntity
  8
1
  6
Continuous
100
AcDbLine
 10
482.7959279999998
 20
304.312739
 30
0.0
 11
480.795928
 21
306.8337389999999
 31
0.0
  0
LINE
  5
B5A7
330
B36A
100
AcDbEntity
  8
1
  6
Continuous
100
AcDbLine
 10
482.9172479999998
 20
304.312739
 30
0.0
 11
483.917248
 21
305.312739
 31
0.0
  0
LINE
  5
B5A8
330
B36A
100
AcDbEntity
  8
1
  6
Continuous
100
AcDbLine
 10
480.6746069999999
 20
304.312739
 30
0.0
 11
478.6746069999998
 21
306.8337389999999
 31
0.0
  0
LINE
  5
B5A9
330
B36A
100
AcDbEntity
  8
1
  6
Continuous
100
AcDbLine
 10
480.088821
 20
304.312739
 30
0.0
 11
482.0888209999998
 21
306.8337389999999
 31
0.0
  0
LINE
  5
B5AA
330
B36A
100
AcDbEntity
  8
1
  6
Continuous
100
AcDbLine
 10
476.4319669999999
 20
304.312739
 30
0.0
 11
474.431967
 21
306.8337389999999
 31
0.0
  0
LINE
  5
B5AB
330
B36A
100
AcDbEntity
  8
1
  6
Continuous
100
AcDbLine
 10
474.431967
 20
304.312739
 30
0.0
 11
476.4319669999999
 21
306.8337389999999
 31
0.0
  0
LINE
  5
B5AC
330
B36A
100
AcDbEntity
  8
1
  6
Continuous
100
AcDbLine
 10
483.917248
 20
304.312739
 30
0.0
 11
483.917248
 21
308.127945
 31
0.0
  0
LINE
  5
B5AD
330
B36A
100
AcDbEntity
  8
1
  6
Continuous
100
AcDbLine
 10
467.9466849999998
 20
304.312739
 30
0.0
 11
465.9466849999998
 21
306.8337389999999
 31
0.0
  0
LINE
  5
B5AE
330
B36A
100
AcDbEntity
  8
1
  6
Continuous
100
AcDbLine
 10
465.9466849999998
 20
304.312739
 30
0.0
 11
467.9466849999998
 21
306.8337389999999
 31
0.0
  0
LINE
  5
B5AF
330
B36A
100
AcDbEntity
  8
1
  6
Continuous
100
AcDbLine
 10
468.7751119999998
 20
304.312739
 30
0.0
 11
470.775112
 21
306.8337389999999
 31
0.0
  0
LINE
  5
B5B0
330
B36A
100
AcDbEntity
  8
1
  6
Continuous
100
AcDbLine
 10
470.0680059999998
 20
304.312739
 30
0.0
 11
468.0680059999998
 21
306.8337389999999
 31
0.0
  0
ARC
  5
B5B1
330
B36A
100
AcDbEntity
  8
1
  6
Continuous
100
AcDbCircle
 10
484.7421699999999
 20
303.2410889999998
 30
0.0
 40
1.188780999999998
100
AcDbArc
 50
177.8908409999999
 51
255.1922279999998
  0
LINE
  5
B5B2
330
B36A
100
AcDbEntity
  8
1
  6
Continuous
100
AcDbLine
 10
493.048776
 20
302.091789
 30
0.0
 11
478.7038319999998
 21
302.091789
 31
0.0
  0
ARC
  5
B5B3
330
B36A
100
AcDbEntity
  8
1
  6
Continuous
100
AcDbCircle
 10
493.048776
 20
298.5599509999999
 30
0.0
 40
3.531837999999998
100
AcDbArc
 50
71.205477
 51
90.0
  0
LINE
  5
B5B4
330
B36A
100
AcDbEntity
  8
1
  6
Continuous
100
AcDbLine
 10
493.207383
 20
299.5381619999998
 30
0.0
 11
489.520101
 21
299.5381619999998
 31
0.0
  0
ARC
  5
B5B5
330
B36A
100
AcDbEntity
  8
1
  6
Continuous
100
AcDbCircle
 10
492.3318039999998
 20
301.1713379999998
 30
0.0
 40
2.172123
100
AcDbArc
 50
357.762921
 51
16.515265
  0
ARC
  5
B5B6
330
B36A
100
AcDbEntity
  8
1
  6
Continuous
100
AcDbCircle
 10
502.7317069999998
 20
299.1607989999998
 30
0.0
 40
8.451753
100
AcDbArc
 50
166.82934
 51
175.516763
  0
ARC
  5
B5B7
330
B36A
100
AcDbEntity
  8
1
  6
Continuous
100
AcDbCircle
 10
493.8892759999998
 20
301.029678
 30
0.0
 40
0.9230079999999999
100
AcDbArc
 50
55.331088
 51
71.205477
  0
LINE
  5
B5B8
330
B36A
100
AcDbEntity
  8
1
  6
Continuous
100
AcDbLine
 10
494.170113
 20
299.65751
 30
0.0
 11
494.305815
 21
299.821451
 31
0.0
  0
ARC
  5
B5B9
330
B36A
100
AcDbEntity
  8
1
  6
Continuous
100
AcDbCircle
 10
493.207383
 20
303.480799
 30
0.0
 40
3.942636999999998
100
AcDbArc
 50
270.0
 51
284.133642
  0
ARC
  5
B5BA
330
B36A
100
AcDbEntity
  8
1
  6
Continuous
100
AcDbCircle
 10
481.0495480000001
 20
302.519206
 30
0.0
 40
2.384338999999997
100
AcDbArc
 50
131.2174919999999
 51
190.32668
  0
ARC
  5
B5BB
330
B36A
100
AcDbEntity
  8
1
  6
Continuous
100
AcDbCircle
 10
481.3587639999998
 20
302.604599
 30
0.0
 40
2.298399999999999
100
AcDbArc
 50
17.21530399999998
 51
48.003581
  0
ARC
  5
B5BC
330
B36A
100
AcDbEntity
  8
1
  6
Continuous
100
AcDbCircle
 10
466.731148
 20
316.627923
 30
0.0
 40
1.0
100
AcDbArc
 50
270.0
 51
0.0
  0
LINE
  5
B5BD
330
B36A
100
AcDbEntity
  8
1
  6
Continuous
100
AcDbLine
 10
482.9172479999998
 20
306.8337389999999
 30
0.0
 11
483.917248
 21
305.312739
 31
0.0
  0
LINE
  5
B5BE
330
B36A
100
AcDbEntity
  8
1
  6
Continuous
100
AcDbLine
 10
473.3969799999998
 20
312.127945
 30
0.0
 11
473.3969799999998
 21
315.6279229999999
 31
0.0
  0
ARC
  5
B5BF
330
B36A
100
AcDbEntity
  8
1
  6
Continuous
100
AcDbCircle
 10
478.231148
 20
308.127945
 30
0.0
 40
4.0
100
AcDbArc
 50
0.0
 51
90.0
  0
LINE
  5
B5C0
330
B36A
100
AcDbEntity
  8
1
  6
Continuous
100
AcDbLine
 10
451.80455
 20
304.312739
 30
0.0
 11
453.8045499999998
 21
306.8337389999999
 31
0.0
  0
LINE
  5
B5C1
330
B36A
100
AcDbEntity
  8
1
  6
Continuous
100
AcDbLine
 10
453.0974429999998
 20
304.312739
 30
0.0
 11
451.097443
 21
306.8337389999999
 31
0.0
  0
LINE
  5
B5C2
330
B36A
100
AcDbEntity
  8
1
  6
Continuous
100
AcDbLine
 10
461.5827239999998
 20
304.312739
 30
0.0
 11
459.582724
 21
306.8337389999999
 31
0.0
  0
LINE
  5
B5C3
330
B36A
100
AcDbEntity
  8
1
  6
Continuous
100
AcDbLine
 10
459.461404
 20
304.312739
 30
0.0
 11
457.461404
 21
306.8337389999999
 31
0.0
  0
LINE
  5
B5C4
330
B36A
100
AcDbEntity
  8
1
  6
Continuous
100
AcDbLine
 10
460.2898309999998
 20
304.312739
 30
0.0
 11
462.2898309999998
 21
306.8337389999999
 31
0.0
  0
LINE
  5
B5C5
330
B36A
100
AcDbEntity
  8
1
  6
Continuous
100
AcDbLine
 10
457.461404
 20
304.312739
 30
0.0
 11
459.461404
 21
306.8337389999999
 31
0.0
  0
LINE
  5
B5C6
330
B36A
100
AcDbEntity
  8
1
  6
Continuous
100
AcDbLine
 10
457.3400839999997
 20
304.312739
 30
0.0
 11
455.340084
 21
306.8337389999999
 31
0.0
  0
LINE
  5
B5C7
330
B36A
100
AcDbEntity
  8
1
  6
Continuous
100
AcDbLine
 10
463.1182579999999
 20
304.312739
 30
0.0
 11
465.118258
 21
306.8337389999999
 31
0.0
  0
LINE
  5
B5C8
330
B36A
100
AcDbEntity
  8
1
  6
Continuous
100
AcDbLine
 10
463.7040449999998
 20
304.312739
 30
0.0
 11
461.704045
 21
306.8337389999999
 31
0.0
  0
LINE
  5
B5C9
330
B36A
100
AcDbEntity
  8
1
  6
Continuous
100
AcDbLine
 10
455.2187629999998
 20
304.312739
 30
0.0
 11
453.218763
 21
306.8337389999999
 31
0.0
  0
LINE
  5
B5CA
330
B36A
100
AcDbEntity
  8
1
  6
Continuous
100
AcDbLine
 10
454.6329769999998
 20
304.312739
 30
0.0
 11
456.632977
 21
306.8337389999999
 31
0.0
  0
LINE
  5
B5CB
330
B36A
100
AcDbEntity
  8
1
  6
Continuous
100
AcDbLine
 10
434.0055599999998
 20
304.312739
 30
0.0
 11
432.0055599999998
 21
306.8337389999999
 31
0.0
  0
LINE
  5
B5CC
330
B36A
100
AcDbEntity
  8
1
  6
Continuous
100
AcDbLine
 10
432.0055599999998
 20
304.312739
 30
0.0
 11
434.0055599999998
 21
306.8337389999999
 31
0.0
  0
LINE
  5
B5CD
330
B36A
100
AcDbEntity
  8
1
  6
Continuous
100
AcDbLine
 10
438.248201
 20
304.312739
 30
0.0
 11
436.2482009999998
 21
306.8337389999999
 31
0.0
  0
LINE
  5
B5CE
330
B36A
100
AcDbEntity
  8
1
  6
Continuous
100
AcDbLine
 10
437.6624139999998
 20
304.312739
 30
0.0
 11
439.6624139999998
 21
306.8337389999999
 31
0.0
  0
LINE
  5
B5CF
330
B36A
100
AcDbEntity
  8
1
  6
Continuous
100
AcDbLine
 10
444.612162
 20
304.312739
 30
0.0
 11
442.6121619999998
 21
306.8337389999999
 31
0.0
  0
LINE
  5
B5D0
330
B36A
100
AcDbEntity
  8
1
  6
Continuous
100
AcDbLine
 10
442.4908409999998
 20
304.312739
 30
0.0
 11
440.4908409999999
 21
306.8337389999999
 31
0.0
  0
LINE
  5
B5D1
330
B36A
100
AcDbEntity
  8
1
  6
Continuous
100
AcDbLine
 10
443.3192679999998
 20
304.312739
 30
0.0
 11
445.3192679999999
 21
306.8337389999999
 31
0.0
  0
LINE
  5
B5D2
330
B36A
100
AcDbEntity
  8
1
  6
Continuous
100
AcDbLine
 10
440.4908409999999
 20
304.312739
 30
0.0
 11
442.4908409999998
 21
306.8337389999999
 31
0.0
  0
LINE
  5
B5D3
330
B36A
100
AcDbEntity
  8
1
  6
Continuous
100
AcDbLine
 10
450.9761229999998
 20
304.312739
 30
0.0
 11
448.976123
 21
306.8337389999999
 31
0.0
  0
LINE
  5
B5D4
330
B36A
100
AcDbEntity
  8
1
  6
Continuous
100
AcDbLine
 10
448.8548019999998
 20
304.312739
 30
0.0
 11
446.8548019999998
 21
306.8337389999999
 31
0.0
  0
LINE
  5
B5D5
330
B36A
100
AcDbEntity
  8
1
  6
Continuous
100
AcDbLine
 10
448.976123
 20
304.312739
 30
0.0
 11
450.9761229999998
 21
306.8337389999999
 31
0.0
  0
LINE
  5
B5D6
330
B36A
100
AcDbEntity
  8
1
  6
Continuous
100
AcDbLine
 10
446.1476949999997
 20
304.312739
 30
0.0
 11
448.147695
 21
306.8337389999999
 31
0.0
  0
LINE
  5
B5D7
330
B36A
100
AcDbEntity
  8
1
  6
Continuous
100
AcDbLine
 10
446.7334819999998
 20
304.312739
 30
0.0
 11
444.733482
 21
306.8337389999999
 31
0.0
  0
LINE
  5
B5D8
330
B36A
100
AcDbEntity
  8
1
  6
Continuous
100
AcDbLine
 10
440.369521
 20
304.312739
 30
0.0
 11
438.3695209999998
 21
306.8337389999999
 31
0.0
  0
LINE
  5
B5D9
330
B36A
100
AcDbEntity
  8
1
  6
Continuous
100
AcDbLine
 10
436.1268799999998
 20
304.312739
 30
0.0
 11
434.1268799999999
 21
306.8337389999999
 31
0.0
  0
LINE
  5
B5DA
330
B36A
100
AcDbEntity
  8
1
  6
Continuous
100
AcDbLine
 10
434.833987
 20
304.312739
 30
0.0
 11
436.8339869999998
 21
306.8337389999999
 31
0.0
  0
LINE
  5
B5DB
330
B36A
100
AcDbEntity
  8
1
  6
Continuous
100
AcDbLine
 10
431.8842389999998
 20
304.312739
 30
0.0
 11
430.5450480000001
 21
306.17293
 31
0.0
  0
LINE
  5
B5DC
330
B36A
100
AcDbEntity
  8
1
  6
Continuous
100
AcDbLine
 10
430.5450480000001
 20
308.127945
 30
0.0
 11
430.5450480000001
 21
304.312739
 31
0.0
  0
LINE
  5
B5DD
330
B36A
100
AcDbEntity
  8
1
  6
Continuous
100
AcDbLine
 10
429.731148
 20
294.7523229999998
 30
0.0
 11
429.731148
 21
302.0971829999999
 31
0.0
  0
ARC
  5
B5DE
330
B36A
100
AcDbEntity
  8
1
  6
Continuous
100
AcDbCircle
 10
429.879004
 20
290.2331859999998
 30
0.0
 40
4.521554
100
AcDbArc
 50
23.66618499999999
 51
91.87393099999995
  0
ARC
  5
B5DF
330
B36A
100
AcDbEntity
  8
1
  6
Continuous
100
AcDbCircle
 10
436.214565
 20
300.152624
 30
0.0
 40
6.768752
100
AcDbArc
 50
151.3767689999999
 51
163.3045389999998
  0
ARC
  5
B5E0
330
B36A
100
AcDbEntity
  8
1
  6
Continuous
100
AcDbCircle
 10
432.9578169999998
 20
301.929974
 30
0.0
 40
3.058577999999998
100
AcDbArc
 50
128.8269479999998
 51
151.3767689999999
  0
ARC
  5
B5E1
330
B36A
100
AcDbEntity
  8
1
  6
Continuous
100
AcDbCircle
 10
431.6477849999998
 20
301.4735769999999
 30
0.0
 40
2.839261999999998
100
AcDbArc
 50
89.51824899999998
 51
93.73746899999998
  0
ARC
  5
B5E2
330
B36A
100
AcDbEntity
  8
1
  6
Continuous
100
AcDbCircle
 10
447.731148
 20
316.627923
 30
0.0
 40
1.0
100
AcDbArc
 50
180.0
 51
270.0
  0
LINE
  5
B5E3
330
B36A
100
AcDbEntity
  8
1
  6
Continuous
100
AcDbLine
 10
449.1482679999998
 20
312.127945
 30
0.0
 11
449.1482679999998
 21
315.6279229999999
 31
0.0
  0
LINE
  5
B5E4
330
B36A
100
AcDbEntity
  8
1
  6
Continuous
100
AcDbLine
 10
465.314076
 20
312.127945
 30
0.0
 11
465.314076
 21
315.6279229999999
 31
0.0
  0
LINE
  5
B5E5
330
B36A
100
AcDbEntity
  8
1
  6
Continuous
100
AcDbLine
 10
441.0653639999998
 20
312.127945
 30
0.0
 11
441.0653639999998
 21
315.6279229999999
 31
0.0
  0
LINE
  5
B5E6
330
B36A
100
AcDbEntity
  8
1
  6
Continuous
100
AcDbLine
 10
430.5450480000001
 20
306.201654
 30
0.0
 11
431.177133
 21
306.8337389999999
 31
0.0
  0
ARC
  5
B5E7
330
B36A
100
AcDbEntity
  8
1
  6
Continuous
100
AcDbCircle
 10
436.231148
 20
308.127945
 30
0.0
 40
4.0
100
AcDbArc
 50
90.0
 51
180.0
  0
LINE
  5
B5E8
330
B36A
100
AcDbEntity
  8
1
  6
Continuous
100
AcDbLine
 10
467.9311479999998
 20
363.7279229999998
 30
0.0
 11
446.5311479999998
 21
363.7279229999998
 31
0.0
  0
LINE
  5
B5E9
330
B36A
100
AcDbEntity
  8
1
  6
Continuous
100
AcDbLine
 10
467.9311479999998
 20
359.7279229999998
 30
0.0
 11
446.5311479999998
 21
359.7279229999998
 31
0.0
  0
LINE
  5
B5EA
330
B36A
100
AcDbEntity
  8
1
  6
Continuous
100
AcDbLine
 10
467.9311479999998
 20
359.7279229999998
 30
0.0
 11
467.9311479999998
 21
363.7279229999998
 31
0.0
  0
ARC
  5
B5EB
330
B36A
100
AcDbEntity
  8
1
  6
Continuous
100
AcDbCircle
 10
466.731148
 20
358.727923
 30
0.0
 40
1.0
100
AcDbArc
 50
0.0
 51
90.0
  0
LINE
  5
B5EC
330
B36A
100
AcDbEntity
  8
1
  6
Continuous
100
AcDbLine
 10
452.823484
 20
363.7279229999998
 30
0.0
 11
452.823484
 21
359.7279229999998
 31
0.0
  0
LINE
  5
B5ED
330
B36A
100
AcDbEntity
  8
1
  6
Continuous
100
AcDbLine
 10
446.5311479999998
 20
363.7279229999998
 30
0.0
 11
446.5311479999998
 21
359.7279229999998
 31
0.0
  0
ARC
  5
B5EE
330
B36A
100
AcDbEntity
  8
1
  6
Continuous
100
AcDbCircle
 10
447.731148
 20
358.727923
 30
0.0
 40
1.0
100
AcDbArc
 50
90.0
 51
180.0
  0
LINE
  5
B5EF
330
B36A
100
AcDbEntity
  8
1
  6
Continuous
100
AcDbLine
 10
461.6388119999998
 20
363.7279229999998
 30
0.0
 11
461.6388119999998
 21
359.7279229999998
 31
0.0
  0
LINE
  5
B5F0
330
B36A
100
AcDbEntity
  8
1
  6
Continuous
100
AcDbLine
 10
451.2311089999998
 20
364.127923
 30
0.0
 11
451.2311089999998
 21
363.7279229999998
 31
0.0
  0
LINE
  5
B5F1
330
B36A
100
AcDbEntity
  8
2
  6
Continuous
100
AcDbLine
 10
452.178148
 20
363.7279229999998
 30
0.0
 11
452.178148
 21
365.074962
 31
0.0
  0
LINE
  5
B5F2
330
B36A
100
AcDbEntity
  8
2
  6
Continuous
100
AcDbLine
 10
462.2841479999998
 20
363.7279229999998
 30
0.0
 11
462.2841479999998
 21
365.0748839999998
 31
0.0
  0
LINE
  5
B5F3
330
B36A
100
AcDbEntity
  8
1
  6
Continuous
100
AcDbLine
 10
461.731109
 20
365.6279229999999
 30
0.0
 11
452.731109
 21
365.6279229999999
 31
0.0
  0
LINE
  5
B5F4
330
B36A
100
AcDbEntity
  8
1
  6
Continuous
100
AcDbLine
 10
461.731109
 20
365.6279229999999
 30
0.0
 11
463.2311089999998
 21
364.127923
 31
0.0
  0
LINE
  5
B5F5
330
B36A
100
AcDbEntity
  8
1
  6
Continuous
100
AcDbLine
 10
463.2311089999998
 20
363.7279229999998
 30
0.0
 11
463.2311089999998
 21
364.127923
 31
0.0
  0
LINE
  5
B5F6
330
B36A
100
AcDbEntity
  8
1
  6
Continuous
100
AcDbLine
 10
463.2311089999998
 20
364.127923
 30
0.0
 11
451.2311089999998
 21
364.127923
 31
0.0
  0
LINE
  5
B5F7
330
B36A
100
AcDbEntity
  8
1
  6
Continuous
100
AcDbLine
 10
451.2311089999998
 20
364.127923
 30
0.0
 11
452.731109
 21
365.6279229999999
 31
0.0
  0
CIRCLE
  5
B5F8
330
B36A
100
AcDbEntity
  8
1
  6
Continuous
100
AcDbCircle
 10
493.231148
 20
229.6277389999999
 30
0.0
 40
7.0
  0
LINE
  5
B5F9
330
B36A
100
AcDbEntity
  8
1
  6
Continuous
100
AcDbLine
 10
80.45740100000001
 20
221.1027839999999
 30
0.0
 11
80.45740100000001
 21
238.152722
 31
0.0
  0
LINE
  5
B5FA
330
B36A
100
AcDbEntity
  8
1
  6
Continuous
100
AcDbLine
 10
81.488934
 20
236.7277529999999
 30
0.0
 11
81.488934
 21
222.527753
 31
0.0
  0
LINE
  5
B5FB
330
B36A
100
AcDbEntity
  8
1
  6
Continuous
100
AcDbLine
 10
50.988934
 20
236.7277529999999
 30
0.0
 11
50.988934
 21
222.527753
 31
0.0
  0
LINE
  5
B5FC
330
B36A
100
AcDbEntity
  8
1
  6
Continuous
100
AcDbLine
 10
52.020466
 20
221.1027839999999
 30
0.0
 11
52.020466
 21
238.152722
 31
0.0
  0
LINE
  5
B5FD
330
B36A
100
AcDbEntity
  8
1
  6
Continuous
100
AcDbLine
 10
53.638934
 20
170.8109519999999
 30
0.0
 11
53.638934
 21
288.4445539999999
 31
0.0
  0
LINE
  5
B5FE
330
B36A
100
AcDbEntity
  8
1
  6
Continuous
100
AcDbLine
 10
78.83893399999998
 20
170.8109519999999
 30
0.0
 11
78.83893399999998
 21
288.4445539999999
 31
0.0
  0
ARC
  5
B5FF
330
B36A
100
AcDbEntity
  8
1
  6
Continuous
100
AcDbCircle
 10
79.988934
 20
222.527753
 30
0.0
 40
1.5
100
AcDbArc
 50
288.198592
 51
0.0
  0
ARC
  5
B600
330
B36A
100
AcDbEntity
  8
1
  6
Continuous
100
AcDbCircle
 10
66.238934
 20
194.627753
 30
0.0
 40
30.0
100
AcDbArc
 50
252.301988
 51
287.7009509999999
  0
ARC
  5
B601
330
B36A
100
AcDbEntity
  8
1
  6
Continuous
100
AcDbCircle
 10
58.638934
 20
170.8109519999999
 30
0.0
 40
5.0
100
AcDbArc
 50
180.0
 51
252.301988
  0
ARC
  5
B602
330
B36A
100
AcDbEntity
  8
1
  6
Continuous
100
AcDbCircle
 10
73.83893399999998
 20
170.8109519999999
 30
0.0
 40
5.0
100
AcDbArc
 50
287.698012
 51
0.0
  0
ARC
  5
B603
330
B36A
100
AcDbEntity
  8
1
  6
Continuous
100
AcDbCircle
 10
48.27215999999999
 20
221.765312
 30
0.0
 40
32.05362499999999
100
AcDbArc
 50
342.4803279999999
 51
347.0615609999999
  0
ARC
  5
B604
330
B36A
100
AcDbEntity
  8
1
  6
Continuous
100
AcDbCircle
 10
84.205708
 20
221.765312
 30
0.0
 40
32.05362499999999
100
AcDbArc
 50
192.9384389999999
 51
197.5196719999999
  0
ARC
  5
B605
330
B36A
100
AcDbEntity
  8
1
  6
Continuous
100
AcDbCircle
 10
52.488934
 20
222.527753
 30
0.0
 40
1.5
100
AcDbArc
 50
180.0
 51
251.801408
  0
LINE
  5
B606
330
B36A
100
AcDbEntity
  8
1
  6
Continuous
100
AcDbLine
 10
50.488935
 20
224.127753
 30
0.0
 11
50.988934
 21
224.127753
 31
0.0
  0
ARC
  5
B607
330
B36A
100
AcDbEntity
  8
1
  6
Continuous
100
AcDbCircle
 10
81.637309
 20
222.6058359999999
 30
0.0
 40
29.654958
100
AcDbArc
 50
182.9052629999999
 51
186.069737
  0
ARC
  5
B608
330
B36A
100
AcDbEntity
  8
1
  6
Continuous
100
AcDbCircle
 10
93.23016800000001
 20
223.838562
 30
0.0
 40
41.31317399999999
100
AcDbArc
 50
186.069737
 51
192.9384389999999
  0
LINE
  5
B609
330
B36A
100
AcDbEntity
  8
1
  6
Continuous
100
AcDbLine
 10
50.47789999999999
 20
235.1277529999999
 30
0.0
 11
50.988934
 21
235.1277529999999
 31
0.0
  0
ARC
  5
B60A
330
B36A
100
AcDbEntity
  8
1
  6
Continuous
100
AcDbCircle
 10
50.840558
 20
222.6058359999999
 30
0.0
 40
29.654958
100
AcDbArc
 50
353.9302629999999
 51
357.094737
  0
ARC
  5
B60B
330
B36A
100
AcDbEntity
  8
1
  6
Continuous
100
AcDbCircle
 10
39.24769899999999
 20
223.838562
 30
0.0
 40
41.31317399999999
100
AcDbArc
 50
347.0615609999999
 51
353.9302629999999
  0
LINE
  5
B60C
330
B36A
100
AcDbEntity
  8
1
  6
Continuous
100
AcDbLine
 10
81.738934
 20
224.127753
 30
0.0
 11
81.488934
 21
224.127753
 31
0.0
  0
LINE
  5
B60D
330
B36A
100
AcDbEntity
  8
1
  6
Continuous
100
AcDbLine
 10
81.738934
 20
235.1277529999999
 30
0.0
 11
81.488934
 21
235.1277529999999
 31
0.0
  0
ARC
  5
B60E
330
B36A
100
AcDbEntity
  8
1
  6
Continuous
100
AcDbCircle
 10
79.988934
 20
236.7277529999999
 30
0.0
 40
1.5
100
AcDbArc
 50
0.0
 51
71.801408
  0
ARC
  5
B60F
330
B36A
100
AcDbEntity
  8
1
  6
Continuous
100
AcDbCircle
 10
84.205708
 20
237.4901939999999
 30
0.0
 40
32.05362499999999
100
AcDbArc
 50
162.4803279999999
 51
167.061561
  0
ARC
  5
B610
330
B36A
100
AcDbEntity
  8
1
  6
Continuous
100
AcDbCircle
 10
52.488934
 20
236.7277529999999
 30
0.0
 40
1.5
100
AcDbArc
 50
108.1985919999999
 51
180.0
  0
ARC
  5
B611
330
B36A
100
AcDbEntity
  8
1
  6
Continuous
100
AcDbCircle
 10
81.637309
 20
236.6496699999999
 30
0.0
 40
29.654958
100
AcDbArc
 50
173.930263
 51
177.094737
  0
ARC
  5
B612
330
B36A
100
AcDbEntity
  8
1
  6
Continuous
100
AcDbCircle
 10
93.23016800000001
 20
235.416944
 30
0.0
 40
41.31317399999999
100
AcDbArc
 50
167.061561
 51
173.930263
  0
ARC
  5
B613
330
B36A
100
AcDbEntity
  8
1
  6
Continuous
100
AcDbCircle
 10
50.840558
 20
236.6496699999999
 30
0.0
 40
29.654958
100
AcDbArc
 50
2.905263
 51
6.069736999999999
  0
ARC
  5
B614
330
B36A
100
AcDbEntity
  8
1
  6
Continuous
100
AcDbCircle
 10
48.27215999999999
 20
237.4901939999999
 30
0.0
 40
32.05362499999999
100
AcDbArc
 50
12.938439
 51
17.519672
  0
ARC
  5
B615
330
B36A
100
AcDbEntity
  8
1
  6
Continuous
100
AcDbCircle
 10
39.24769899999999
 20
235.416944
 30
0.0
 40
41.31317399999999
100
AcDbArc
 50
6.069736999999999
 51
12.938439
  0
ARC
  5
B616
330
B36A
100
AcDbEntity
  8
1
  6
Continuous
100
AcDbCircle
 10
66.238934
 20
264.6277529999999
 30
0.0
 40
30.0
100
AcDbArc
 50
72.29904899999998
 51
107.6980119999999
  0
ARC
  5
B617
330
B36A
100
AcDbEntity
  8
1
  6
Continuous
100
AcDbCircle
 10
58.638934
 20
288.4445539999999
 30
0.0
 40
5.0
100
AcDbArc
 50
107.6980119999999
 51
180.0
  0
ARC
  5
B618
330
B36A
100
AcDbEntity
  8
1
  6
Continuous
100
AcDbCircle
 10
73.83893399999998
 20
288.4445539999999
 30
0.0
 40
5.0
100
AcDbArc
 50
0.0
 51
72.30198799999998
  0
LINE
  5
B619
330
B36A
100
AcDbEntity
  8
1
  6
Continuous
100
AcDbLine
 10
363.833743
 20
170.810934
 30
0.0
 11
363.833743
 21
288.4445359999999
 31
0.0
  0
LINE
  5
B61A
330
B36A
100
AcDbEntity
  8
1
  6
Continuous
100
AcDbLine
 10
338.6337429999999
 20
170.810934
 30
0.0
 11
338.6337429999999
 21
288.4445359999999
 31
0.0
  0
ARC
  5
B61B
330
B36A
100
AcDbEntity
  8
1
  6
Continuous
100
AcDbCircle
 10
333.266969
 20
237.4901759999999
 30
0.0
 40
32.05362499999999
100
AcDbArc
 50
12.938439
 51
17.519672
  0
ARC
  5
B61C
330
B36A
100
AcDbEntity
  8
1
  6
Continuous
100
AcDbCircle
 10
333.266969
 20
221.7652939999999
 30
0.0
 40
32.05362499999999
100
AcDbArc
 50
342.4803279999999
 51
347.0615609999999
  0
ARC
  5
B61D
330
B36A
100
AcDbEntity
  8
1
  6
Continuous
100
AcDbCircle
 10
358.8337430000001
 20
170.810934
 30
0.0
 40
5.0
100
AcDbArc
 50
287.698012
 51
0.0
  0
ARC
  5
B61E
330
B36A
100
AcDbEntity
  8
1
  6
Continuous
100
AcDbCircle
 10
351.233743
 20
194.627735
 30
0.0
 40
30.0
100
AcDbArc
 50
252.301988
 51
287.7009509999999
  0
ARC
  5
B61F
330
B36A
100
AcDbEntity
  8
1
  6
Continuous
100
AcDbCircle
 10
343.633743
 20
170.810934
 30
0.0
 40
5.0
100
AcDbArc
 50
180.0
 51
252.301988
  0
LINE
  5
B620
330
B36A
100
AcDbEntity
  8
1
  6
Continuous
100
AcDbLine
 10
337.0152749999999
 20
221.102766
 30
0.0
 11
337.0152749999999
 21
238.1527039999999
 31
0.0
  0
LINE
  5
B621
330
B36A
100
AcDbEntity
  8
1
  6
Continuous
100
AcDbLine
 10
335.983743
 20
236.727735
 30
0.0
 11
335.983743
 21
222.527735
 31
0.0
  0
ARC
  5
B622
330
B36A
100
AcDbEntity
  8
1
  6
Continuous
100
AcDbCircle
 10
378.224977
 20
223.838544
 30
0.0
 40
41.31317399999999
100
AcDbArc
 50
186.069737
 51
192.9384389999999
  0
ARC
  5
B623
330
B36A
100
AcDbEntity
  8
1
  6
Continuous
100
AcDbCircle
 10
366.632118
 20
222.605818
 30
0.0
 40
29.654958
100
AcDbArc
 50
182.9052629999999
 51
186.069737
  0
LINE
  5
B624
330
B36A
100
AcDbEntity
  8
1
  6
Continuous
100
AcDbLine
 10
335.483894
 20
224.127735
 30
0.0
 11
335.983743
 21
224.127735
 31
0.0
  0
ARC
  5
B625
330
B36A
100
AcDbEntity
  8
1
  6
Continuous
100
AcDbCircle
 10
337.4837429999999
 20
222.527735
 30
0.0
 40
1.5
100
AcDbArc
 50
180.0
 51
251.801408
  0
ARC
  5
B626
330
B36A
100
AcDbEntity
  8
1
  6
Continuous
100
AcDbCircle
 10
369.2005169999998
 20
221.7652939999999
 30
0.0
 40
32.05362499999999
100
AcDbArc
 50
192.9384389999999
 51
197.5196719999999
  0
ARC
  5
B627
330
B36A
100
AcDbEntity
  8
1
  6
Continuous
100
AcDbCircle
 10
378.224977
 20
235.4169259999999
 30
0.0
 40
41.31317399999999
100
AcDbArc
 50
167.061561
 51
173.930263
  0
ARC
  5
B628
330
B36A
100
AcDbEntity
  8
1
  6
Continuous
100
AcDbCircle
 10
366.632118
 20
236.649652
 30
0.0
 40
29.654958
100
AcDbArc
 50
173.930263
 51
177.094737
  0
ARC
  5
B629
330
B36A
100
AcDbEntity
  8
1
  6
Continuous
100
AcDbCircle
 10
337.4837429999999
 20
236.727735
 30
0.0
 40
1.5
100
AcDbArc
 50
108.1985919999999
 51
180.0
  0
ARC
  5
B62A
330
B36A
100
AcDbEntity
  8
1
  6
Continuous
100
AcDbCircle
 10
369.2005169999998
 20
237.4901759999999
 30
0.0
 40
32.05362499999999
100
AcDbArc
 50
162.4803279999999
 51
167.061561
  0
LINE
  5
B62B
330
B36A
100
AcDbEntity
  8
1
  6
Continuous
100
AcDbLine
 10
335.4728589999999
 20
235.127735
 30
0.0
 11
335.983743
 21
235.127735
 31
0.0
  0
LINE
  5
B62C
330
B36A
100
AcDbEntity
  8
1
  6
Continuous
100
AcDbLine
 10
366.4837429999999
 20
236.727735
 30
0.0
 11
366.4837429999999
 21
222.527735
 31
0.0
  0
LINE
  5
B62D
330
B36A
100
AcDbEntity
  8
1
  6
Continuous
100
AcDbLine
 10
365.4522099999998
 20
221.102766
 30
0.0
 11
365.4522099999998
 21
238.1527039999999
 31
0.0
  0
LINE
  5
B62E
330
B36A
100
AcDbEntity
  8
1
  6
Continuous
100
AcDbLine
 10
366.983592
 20
224.127735
 30
0.0
 11
366.4837429999999
 21
224.127735
 31
0.0
  0
ARC
  5
B62F
330
B36A
100
AcDbEntity
  8
1
  6
Continuous
100
AcDbCircle
 10
324.2425079999998
 20
223.838544
 30
0.0
 40
41.31317399999999
100
AcDbArc
 50
347.0615609999999
 51
353.9302629999999
  0
ARC
  5
B630
330
B36A
100
AcDbEntity
  8
1
  6
Continuous
100
AcDbCircle
 10
335.835367
 20
222.605818
 30
0.0
 40
29.654958
100
AcDbArc
 50
353.9302629999999
 51
357.094737
  0
ARC
  5
B631
330
B36A
100
AcDbEntity
  8
1
  6
Continuous
100
AcDbCircle
 10
364.983743
 20
222.527735
 30
0.0
 40
1.5
100
AcDbArc
 50
288.198592
 51
0.0
  0
ARC
  5
B632
330
B36A
100
AcDbEntity
  8
1
  6
Continuous
100
AcDbCircle
 10
324.2425079999998
 20
235.4169259999999
 30
0.0
 40
41.31317399999999
100
AcDbArc
 50
6.069736999999999
 51
12.938439
  0
ARC
  5
B633
330
B36A
100
AcDbEntity
  8
1
  6
Continuous
100
AcDbCircle
 10
335.835367
 20
236.649652
 30
0.0
 40
29.654958
100
AcDbArc
 50
2.905263
 51
6.069736999999999
  0
ARC
  5
B634
330
B36A
100
AcDbEntity
  8
1
  6
Continuous
100
AcDbCircle
 10
364.983743
 20
236.727735
 30
0.0
 40
1.5
100
AcDbArc
 50
0.0
 51
71.801408
  0
LINE
  5
B635
330
B36A
100
AcDbEntity
  8
1
  6
Continuous
100
AcDbLine
 10
366.994627
 20
235.127735
 30
0.0
 11
366.4837429999999
 21
235.127735
 31
0.0
  0
ARC
  5
B636
330
B36A
100
AcDbEntity
  8
1
  6
Continuous
100
AcDbCircle
 10
358.8337430000001
 20
288.4445359999999
 30
0.0
 40
5.0
100
AcDbArc
 50
0.0
 51
72.30198799999998
  0
ARC
  5
B637
330
B36A
100
AcDbEntity
  8
1
  6
Continuous
100
AcDbCircle
 10
351.233743
 20
264.6277349999999
 30
0.0
 40
30.0
100
AcDbArc
 50
72.29904899999998
 51
107.6980119999999
  0
ARC
  5
B638
330
B36A
100
AcDbEntity
  8
1
  6
Continuous
100
AcDbCircle
 10
343.633743
 20
288.4445359999999
 30
0.0
 40
5.0
100
AcDbArc
 50
107.6980119999999
 51
180.0
  0
LINE
  5
B639
330
B36A
100
AcDbEntity
  8
1
  6
Continuous
100
AcDbLine
 10
202.1363389999999
 20
102.672368
 30
0.0
 11
216.336339
 21
102.672368
 31
0.0
  0
LINE
  5
B63A
330
B36A
100
AcDbEntity
  8
1
  6
Continuous
100
AcDbLine
 10
217.7613079999999
 20
101.640835
 30
0.0
 11
200.7113689999999
 21
101.640835
 31
0.0
  0
LINE
  5
B63B
330
B36A
100
AcDbEntity
  8
1
  6
Continuous
100
AcDbLine
 10
268.05314
 20
100.0223679999999
 30
0.0
 11
150.4195379999998
 21
100.0223679999999
 31
0.0
  0
LINE
  5
B63C
330
B36A
100
AcDbEntity
  8
1
  6
Continuous
100
AcDbLine
 10
217.7613079999999
 20
73.2039
 30
0.0
 11
200.7113689999999
 21
73.2039
 31
0.0
  0
LINE
  5
B63D
330
B36A
100
AcDbEntity
  8
1
  6
Continuous
100
AcDbLine
 10
202.1363389999999
 20
72.17236800000002
 30
0.0
 11
216.336339
 21
72.17236800000002
 31
0.0
  0
LINE
  5
B63E
330
B36A
100
AcDbEntity
  8
1
  6
Continuous
100
AcDbLine
 10
268.05314
 20
74.82236800000002
 30
0.0
 11
150.4195379999998
 21
74.82236800000002
 31
0.0
  0
ARC
  5
B63F
330
B36A
100
AcDbEntity
  8
1
  6
Continuous
100
AcDbCircle
 10
174.2363389999999
 20
87.422368
 30
0.0
 40
30.0
100
AcDbArc
 50
162.299049
 51
197.698012
  0
ARC
  5
B640
330
B36A
100
AcDbEntity
  8
1
  6
Continuous
100
AcDbCircle
 10
150.4195379999998
 20
79.82236800000002
 30
0.0
 40
5.0
100
AcDbArc
 50
197.698012
 51
270.0
  0
ARC
  5
B641
330
B36A
100
AcDbEntity
  8
1
  6
Continuous
100
AcDbCircle
 10
150.4195379999998
 20
95.022368
 30
0.0
 40
5.0
100
AcDbArc
 50
90.0
 51
162.301988
  0
ARC
  5
B642
330
B36A
100
AcDbEntity
  8
1
  6
Continuous
100
AcDbCircle
 10
203.447148
 20
114.4136019999999
 30
0.0
 40
41.31317399999999
100
AcDbArc
 50
257.0615609999999
 51
263.9302629999999
  0
ARC
  5
B643
330
B36A
100
AcDbEntity
  8
1
  6
Continuous
100
AcDbCircle
 10
202.2144219999999
 20
102.8207429999999
 30
0.0
 40
29.654958
100
AcDbArc
 50
263.9302629999999
 51
267.0947369999999
  0
ARC
  5
B644
330
B36A
100
AcDbEntity
  8
1
  6
Continuous
100
AcDbCircle
 10
202.1363389999999
 20
73.672368
 30
0.0
 40
1.5
100
AcDbArc
 50
198.1985919999999
 51
270.0
  0
ARC
  5
B645
330
B36A
100
AcDbEntity
  8
1
  6
Continuous
100
AcDbCircle
 10
201.3738979999998
 20
105.389142
 30
0.0
 40
32.05362499999999
100
AcDbArc
 50
252.4803279999999
 51
257.0615609999999
  0
LINE
  5
B646
330
B36A
100
AcDbEntity
  8
1
  6
Continuous
100
AcDbLine
 10
203.7363389999999
 20
71.66133399999998
 30
0.0
 11
203.7363389999999
 21
72.17236800000002
 31
0.0
  0
ARC
  5
B647
330
B36A
100
AcDbEntity
  8
1
  6
Continuous
100
AcDbCircle
 10
201.3738979999998
 20
69.45559399999999
 30
0.0
 40
32.05362499999999
100
AcDbArc
 50
102.9384389999999
 51
107.519672
  0
ARC
  5
B648
330
B36A
100
AcDbEntity
  8
1
  6
Continuous
100
AcDbCircle
 10
203.447148
 20
60.43113299999999
 30
0.0
 40
41.31317399999999
100
AcDbArc
 50
96.06973700000001
 51
102.9384389999999
  0
ARC
  5
B649
330
B36A
100
AcDbEntity
  8
1
  6
Continuous
100
AcDbCircle
 10
202.2144219999999
 20
72.02399200000002
 30
0.0
 40
29.654958
100
AcDbArc
 50
92.90526300000001
 51
96.06973700000001
  0
ARC
  5
B64A
330
B36A
100
AcDbEntity
  8
1
  6
Continuous
100
AcDbCircle
 10
202.1363389999999
 20
101.172368
 30
0.0
 40
1.5
100
AcDbArc
 50
90.0
 51
161.801408
  0
LINE
  5
B64B
330
B36A
100
AcDbEntity
  8
1
  6
Continuous
100
AcDbLine
 10
203.7363389999999
 20
103.1834029999999
 30
0.0
 11
203.7363389999999
 21
102.672368
 31
0.0
  0
ARC
  5
B64C
330
B36A
100
AcDbEntity
  8
1
  6
Continuous
100
AcDbCircle
 10
217.0987799999998
 20
105.389142
 30
0.0
 40
32.05362499999999
100
AcDbArc
 50
282.938439
 51
287.519672
  0
ARC
  5
B64D
330
B36A
100
AcDbEntity
  8
1
  6
Continuous
100
AcDbCircle
 10
215.0255299999999
 20
114.4136019999999
 30
0.0
 40
41.31317399999999
100
AcDbArc
 50
276.0697369999999
 51
282.938439
  0
ARC
  5
B64E
330
B36A
100
AcDbEntity
  8
1
  6
Continuous
100
AcDbCircle
 10
216.258256
 20
102.8207429999999
 30
0.0
 40
29.654958
100
AcDbArc
 50
272.9052629999998
 51
276.0697369999999
  0
LINE
  5
B64F
330
B36A
100
AcDbEntity
  8
1
  6
Continuous
100
AcDbLine
 10
214.7363389999999
 20
71.67236899999998
 30
0.0
 11
214.7363389999999
 21
72.17236800000002
 31
0.0
  0
ARC
  5
B650
330
B36A
100
AcDbEntity
  8
1
  6
Continuous
100
AcDbCircle
 10
216.336339
 20
73.672368
 30
0.0
 40
1.5
100
AcDbArc
 50
270.0
 51
341.8014079999999
  0
ARC
  5
B651
330
B36A
100
AcDbEntity
  8
1
  6
Continuous
100
AcDbCircle
 10
217.0987799999998
 20
69.45559399999999
 30
0.0
 40
32.05362499999999
100
AcDbArc
 50
72.48032800000001
 51
77.06156100000002
  0
ARC
  5
B652
330
B36A
100
AcDbEntity
  8
1
  6
Continuous
100
AcDbCircle
 10
215.0255299999999
 20
60.43113299999999
 30
0.0
 40
41.31317399999999
100
AcDbArc
 50
77.06156100000002
 51
83.93026299999998
  0
ARC
  5
B653
330
B36A
100
AcDbEntity
  8
1
  6
Continuous
100
AcDbCircle
 10
216.258256
 20
72.02399200000002
 30
0.0
 40
29.654958
100
AcDbArc
 50
83.93026299999998
 51
87.09473699999998
  0
ARC
  5
B654
330
B36A
100
AcDbEntity
  8
1
  6
Continuous
100
AcDbCircle
 10
216.336339
 20
101.172368
 30
0.0
 40
1.5
100
AcDbArc
 50
18.198592
 51
90.0
  0
LINE
  5
B655
330
B36A
100
AcDbEntity
  8
1
  6
Continuous
100
AcDbLine
 10
214.7363389999999
 20
103.1723689999999
 30
0.0
 11
214.7363389999999
 21
102.672368
 31
0.0
  0
ARC
  5
B656
330
B36A
100
AcDbEntity
  8
1
  6
Continuous
100
AcDbCircle
 10
244.236339
 20
87.422368
 30
0.0
 40
30.0
100
AcDbArc
 50
342.301988
 51
17.70095099999998
  0
ARC
  5
B657
330
B36A
100
AcDbEntity
  8
1
  6
Continuous
100
AcDbCircle
 10
268.05314
 20
79.82236800000002
 30
0.0
 40
5.0
100
AcDbArc
 50
270.0
 51
342.301988
  0
ARC
  5
B658
330
B36A
100
AcDbEntity
  8
1
  6
Continuous
100
AcDbCircle
 10
268.05314
 20
95.022368
 30
0.0
 40
5.0
100
AcDbArc
 50
17.69801199999999
 51
90.0
  0
ARC
  5
B659
330
B36A
100
AcDbEntity
  8
1
  6
Continuous
100
AcDbCircle
 10
209.236339
 20
229.6277389999999
 30
0.0
 40
17.51163499999999
100
AcDbArc
 50
110.348906
 51
354.9636269999999
  0
ARC
  5
B65A
330
B36A
100
AcDbEntity
  8
1
  6
Continuous
100
AcDbCircle
 10
493.231148
 20
229.6277389999999
 30
0.0
 40
17.512
100
AcDbArc
 50
185.034997
 51
69.652191
  0
LINE
  5
B65B
330
B36A
100
AcDbEntity
  8
1
  6
Continuous
100
AcDbLine
 10
202.236352
 20
463.0259869999998
 30
0.0
 11
202.236352
 21
460.699749
 31
0.0
  0
LINE
  5
B65C
330
B36A
100
AcDbEntity
  8
1
  6
Continuous
100
AcDbLine
 10
216.2363519999999
 20
463.0259869999998
 30
0.0
 11
202.236352
 21
463.0259869999998
 31
0.0
  0
ARC
  5
B65D
330
B36A
100
AcDbEntity
  8
1
  6
Continuous
100
AcDbCircle
 10
209.236352
 20
455.1997489999997
 30
0.0
 40
10.5
100
AcDbArc
 50
48.189685
 51
131.810315
  0
LINE
  5
B65E
330
B36A
100
AcDbEntity
  8
1
  6
Continuous
100
AcDbLine
 10
216.2363519999999
 20
463.0259869999998
 30
0.0
 11
216.2363519999999
 21
460.699749
 31
0.0
  0
LINE
  5
B65F
330
B36A
100
AcDbEntity
  8
1
  6
Continuous
100
AcDbLine
 10
81.99996799999999
 20
235.1277529999999
 30
0.0
 11
81.488934
 21
235.1277529999999
 31
0.0
  0
LINE
  5
B660
330
B36A
100
AcDbEntity
  8
1
  6
Continuous
100
AcDbLine
 10
81.98893400000001
 20
224.127753
 30
0.0
 11
81.488934
 21
224.127753
 31
0.0
  0
LINE
  5
B661
330
B36A
100
AcDbEntity
  8
1
  6
Continuous
100
AcDbLine
 10
45.557178
 20
236.627753
 30
0.0
 11
45.557178
 21
222.6277529999999
 31
0.0
  0
ARC
  5
B662
330
B36A
100
AcDbEntity
  8
1
  6
Continuous
100
AcDbCircle
 10
53.38341599999999
 20
229.6277529999999
 30
0.0
 40
10.5
100
AcDbArc
 50
138.1896849999999
 51
221.810315
  0
LINE
  5
B663
330
B36A
100
AcDbEntity
  8
1
  6
Continuous
100
AcDbLine
 10
45.557178
 20
222.6277529999999
 30
0.0
 11
47.88341599999998
 21
222.6277529999999
 31
0.0
  0
LINE
  5
B664
330
B36A
100
AcDbEntity
  8
1
  6
Continuous
100
AcDbLine
 10
45.557178
 20
236.627753
 30
0.0
 11
47.88341599999998
 21
236.627753
 31
0.0
  0
ARC
  5
B665
330
B36A
100
AcDbEntity
  8
1
  6
Continuous
100
AcDbCircle
 10
364.089263
 20
229.6277349999999
 30
0.0
 40
10.5
100
AcDbArc
 50
318.189685
 51
29.66984899999999
  0
LINE
  5
B666
330
B36A
100
AcDbEntity
  8
1
  6
Continuous
100
AcDbLine
 10
371.9155009999998
 20
232.7726359999998
 30
0.0
 11
371.9155009999998
 21
222.627735
 31
0.0
  0
LINE
  5
B667
330
B36A
100
AcDbEntity
  8
1
  6
Continuous
100
AcDbLine
 10
371.9155009999998
 20
222.627735
 30
0.0
 11
369.589263
 21
222.627735
 31
0.0
  0
LINE
  5
B668
330
B36A
100
AcDbEntity
  8
1
  6
Continuous
100
AcDbLine
 10
216.2363389999999
 20
66.740612
 30
0.0
 11
202.2363389999999
 21
66.740612
 31
0.0
  0
ARC
  5
B669
330
B36A
100
AcDbEntity
  8
1
  6
Continuous
100
AcDbCircle
 10
209.236339
 20
74.56685
 30
0.0
 40
10.5
100
AcDbArc
 50
228.1896849999998
 51
311.810315
  0
LINE
  5
B66A
330
B36A
100
AcDbEntity
  8
1
  6
Continuous
100
AcDbLine
 10
202.2363389999999
 20
66.740612
 30
0.0
 11
202.2363389999999
 21
69.06685
 31
0.0
  0
LINE
  5
B66B
330
B36A
100
AcDbEntity
  8
1
  6
Continuous
100
AcDbLine
 10
216.2363389999999
 20
66.740612
 30
0.0
 11
216.2363389999999
 21
69.06685
 31
0.0
  0
ENDSEC
  0
SECTION
  2
OBJECTS
  0
DICTIONARY
  5
B358
330
0
100
AcDbDictionary
281
     1
  3
ACAD_CIP_PREVIOUS_PRODUCT_INFO
350
B6CD
  3
ACAD_COLOR
350
B6AF
  3
ACAD_DETAILVIEWSTYLE
350
B6C8
  3
ACAD_GROUP
350
B359
  3
ACAD_LAYOUT
350
B365
  3
ACAD_MATERIAL
350
B67D
  3
ACAD_MLEADERSTYLE
350
B6C4
  3
ACAD_MLINESTYLE
350
B362
  3
ACAD_PLOTSETTINGS
350
B364
  3
ACAD_PLOTSTYLENAME
350
B67B
  3
ACAD_SCALELIST
350
B6B2
  3
ACAD_SECTIONVIEWSTYLE
350
B6C6
  3
ACAD_TABLESTYLE
350
B6B0
  3
ACAD_VISUALSTYLE
350
B696
  3
ACDB_RECOMPOSE_DATA
350
B6EB
  3
AcDbVariableDictionary
350
B6DE
  3
DWGPROPS
350
B6EC
  0
DICTIONARY
  5
B6CE
330
B35C
100
AcDbDictionary
280
     1
281
     1
  3
ADSK_XREC_LAYER_RECONCILED
360
B6CF
  0
DICTIONARY
  5
B6D0
330
B372
100
AcDbDictionary
280
     1
281
     1
  3
ADSK_XREC_LAYER_RECONCILED
360
B6D1
  0
DICTIONARY
  5
B6D2
330
B373
100
AcDbDictionary
280
     1
281
     1
  3
ADSK_XREC_LAYER_RECONCILED
360
B6D3
  0
DICTIONARY
  5
B6D4
330
B374
100
AcDbDictionary
280
     1
281
     1
  3
ADSK_XREC_LAYER_RECONCILED
360
B6D5
  0
DICTIONARY
  5
B6D6
330
B375
100
AcDbDictionary
280
     1
281
     1
  3
ADSK_XREC_LAYER_RECONCILED
360
B6D7
  0
DICTIONARY
  5
B6D8
330
B376
100
AcDbDictionary
280
     1
281
     1
  3
ADSK_XREC_LAYER_RECONCILED
360
B6D9
  0
DICTIONARY
  5
B6DA
330
B377
100
AcDbDictionary
280
     1
281
     1
  3
ADSK_XREC_LAYER_RECONCILED
360
B6DB
  0
DICTIONARY
  5
B6DC
330
B378
100
AcDbDictionary
280
     1
281
     1
  3
ADSK_XREC_LAYER_RECONCILED
360
B6DD
  0
DICTIONARY
  5
B676
330
B36A
100
AcDbDictionary
281
     1
  3
ACAD_LAYOUTSELFREF
350
B677
  0
DICTIONARY
  5
B674
330
B366
100
AcDbDictionary
281
     1
  3
ACAD_LAYOUTSELFREF
350
B675
  0
XRECORD
  5
B6CD
102
{ACAD_REACTORS
330
B358
102
}
330
B358
100
AcDbXrecord
280
     1
300
ACDLT
300
2014
300
ACDLT_F_S
  0
DICTIONARY
  5
B6AF
102
{ACAD_REACTORS
330
B358
102
}
330
B358
100
AcDbDictionary
281
     1
  0
DICTIONARY
  5
B6C8
102
{ACAD_REACTORS
330
B358
102
}
330
B358
100
AcDbDictionary
281
     1
  3
Imperial24
350
B6C9
  0
DICTIONARY
  5
B359
102
{ACAD_REACTORS
330
B358
102
}
330
B358
100
AcDbDictionary
281
     1
  0
DICTIONARY
  5
B365
102
{ACAD_REACTORS
330
B358
102
}
330
B358
100
AcDbDictionary
281
     1
  3
Model
350
B6CA
  3
レイアウト1
350
B6CB
  0
DICTIONARY
  5
B67D
102
{ACAD_REACTORS
330
B358
102
}
330
B358
100
AcDbDictionary
281
     1
  3
ByBlock
350
B686
  3
ByLayer
350
B67E
  3
Global
350
B68E
  0
DICTIONARY
  5
B6C4
102
{ACAD_REACTORS
330
B358
102
}
330
B358
100
AcDbDictionary
281
     1
  3
Standard
350
B6C5
  0
DICTIONARY
  5
B362
102
{ACAD_REACTORS
330
B358
102
}
330
B358
100
AcDbDictionary
281
     1
  3
STANDARD
350
B363
  0
DICTIONARY
  5
B364
102
{ACAD_REACTORS
330
B358
102
}
330
B358
100
AcDbDictionary
281
     1
  0
ACDBDICTIONARYWDFLT
  5
B67B
102
{ACAD_REACTORS
330
B358
102
}
330
B358
100
AcDbDictionary
281
     1
  3
Normal
350
B67C
100
AcDbDictionaryWithDefault
340
B67C
  0
DICTIONARY
  5
B6B2
102
{ACAD_REACTORS
330
B358
102
}
330
B358
100
AcDbDictionary
281
     1
  3
A0
350
B6B3
  3
A1
350
B6B4
  3
A2
350
B6B5
  3
A3
350
B6B6
  3
A4
350
B6B7
  3
A5
350
B6B8
  3
A6
350
B6B9
  3
A7
350
B6BA
  3
A8
350
B6BB
  3
A9
350
B6BC
  3
B0
350
B6BD
  3
B1
350
B6BE
  3
B2
350
B6BF
  3
B3
350
B6C0
  3
B4
350
B6C1
  3
B5
350
B6C2
  3
B6
350
B6C3
  0
DICTIONARY
  5
B6C6
102
{ACAD_REACTORS
330
B358
102
}
330
B358
100
AcDbDictionary
281
     1
  3
Imperial24
350
B6C7
  0
DICTIONARY
  5
B6B0
102
{ACAD_REACTORS
330
B358
102
}
330
B358
100
AcDbDictionary
281
     1
  3
Standard
350
B6B1
  0
DICTIONARY
  5
B696
102
{ACAD_REACTORS
330
B358
102
}
330
B358
100
AcDbDictionary
281
     1
  3
2dWireframe
350
B69C
  3
Basic
350
B69B
  3
Brighten
350
B6A2
  3
ColorChange
350
B6A6
  3
Conceptual
350
B69F
  3
Dim
350
B6A1
  3
EdgeColorOff
350
B6AE
  3
Facepattern
350
B6A5
  3
Flat
350
B697
  3
FlatWithEdges
350
B698
  3
Gouraud
350
B699
  3
GouraudWithEdges
350
B69A
  3
Hidden
350
B69E
  3
JitterOff
350
B6AC
  3
Linepattern
350
B6A4
  3
OverhangOff
350
B6AD
  3
Realistic
350
B6A0
  3
Shaded
350
B6AB
  3
Shaded with edges
350
B6AA
  3
Shades of Gray
350
B6A7
  3
Sketchy
350
B6A8
  3
Thicken
350
B6A3
  3
Wireframe
350
B69D
  3
X-Ray
350
B6A9
  0
XRECORD
  5
B6EB
102
{ACAD_REACTORS
330
B358
102
}
330
B358
100
AcDbXrecord
280
     1
 90
        1
330
B6B1
  0
DICTIONARY
  5
B6DE
102
{ACAD_REACTORS
330
B358
102
}
330
B358
100
AcDbDictionary
281
     1
  3
CANNOSCALE
350
B6E3
  3
CMLEADERSTYLE
350
B6E0
  3
CTABLESTYLE
350
B6DF
  3
CVIEWDETAILSTYLE
350
B6E1
  3
CVIEWSECTIONSTYLE
350
B6E2
  3
DIMASSOC
350
B6E6
  3
INDEXCTL
350
B6E5
  3
SORTENTS
350
B6E4
  3
XCLIPFRAME
350
B6E7
  0
XRECORD
  5
B6EC
102
{ACAD_REACTORS
330
B358
102
}
330
B358
100
AcDbXrecord
280
     1
  1
DWGPROPS COOKIE
  2

  3

  4

  6

  7

  8
Yoshitsune
  9

300
=
301
=
302
=
303
=
304
=
305
=
306
=
307
=
308
=
309
=
 40
0.0000104050925926
 41
2451301.578586575
 42
2457192.687849039
  1

 90
        0
  0
XRECORD
  5
B6CF
102
{ACAD_REACTORS
330
B6CE
102
}
330
B6CE
100
AcDbXrecord
280
     1
290
     1
  0
XRECORD
  5
B6D1
102
{ACAD_REACTORS
330
B6D0
102
}
330
B6D0
100
AcDbXrecord
280
     1
290
     1
  0
XRECORD
  5
B6D3
102
{ACAD_REACTORS
330
B6D2
102
}
330
B6D2
100
AcDbXrecord
280
     1
290
     1
  0
XRECORD
  5
B6D5
102
{ACAD_REACTORS
330
B6D4
102
}
330
B6D4
100
AcDbXrecord
280
     1
290
     1
  0
XRECORD
  5
B6D7
102
{ACAD_REACTORS
330
B6D6
102
}
330
B6D6
100
AcDbXrecord
280
     1
290
     1
  0
XRECORD
  5
B6D9
102
{ACAD_REACTORS
330
B6D8
102
}
330
B6D8
100
AcDbXrecord
280
     1
290
     1
  0
XRECORD
  5
B6DB
102
{ACAD_REACTORS
330
B6DA
102
}
330
B6DA
100
AcDbXrecord
280
     1
290
     1
  0
XRECORD
  5
B6DD
102
{ACAD_REACTORS
330
B6DC
102
}
330
B6DC
100
AcDbXrecord
280
     1
290
     1
  0
XRECORD
  5
B677
102
{ACAD_REACTORS
330
B676
102
}
330
B676
100
AcDbXrecord
280
     1
340
B36A
  0
XRECORD
  5
B675
102
{ACAD_REACTORS
330
B674
102
}
330
B674
100
AcDbXrecord
280
     1
340
B366
  0
ACDBDETAILVIEWSTYLE
  5
B6C9
102
{ACAD_XDICTIONARY
360
B724
102
}
102
{ACAD_REACTORS
330
B6C8
102
}
330
B6C8
100
AcDbModelDocViewStyle
 70
     0
  3
Imperial24
290
     0
100
AcDbDetailViewStyle
 70
     0
 71
     0
 90
        3
 71
     1
340
B35D
 40
0.24
340
0
 40
0.24
300

 40
0.36
280
     3
 71
     2
340
B361
 90
       25
 71
     3
340
B35D
 40
0.24
 90
        1
 40
0.75
 90
        1
300
%<\AcVar ViewType \f "%tc1">% %<\AcVar ViewDetailId>%\PSCALE %<\AcVar ViewScale \f "%sn">%
 71
     4
340
B361
 90
       25
340
B361
 90
       25
280
     0
  0
LAYOUT
  5
B6CA
102
{ACAD_XDICTIONARY
360
B726
102
}
102
{ACAD_REACTORS
330
B365
102
}
330
B365
100
AcDbPlotSettings
  1

  2
Canon LBP9100C
  4

  6

 40
0.0
 41
0.0
 42
0.0
 43
0.0
 44
0.0
 45
0.0
 46
0.0
 47
0.0
 48
0.0
 49
0.0
140
0.0
141
0.0
142
1.0
143
1.0
 70
  1712
 72
     0
 73
     0
 74
     0
  7

 75
     0
147
1.0
148
0.0
149
0.0
100
AcDbLayout
  1
Model
 70
     1
 71
     0
 10
0.0
 20
0.0
 11
12.0
 21
9.0
 12
0.0
 22
0.0
 32
0.0
 14
0.0
 24
0.0
 34
0.0
 15
0.0
 25
0.0
 35
0.0
146
0.0
 13
0.0
 23
0.0
 33
0.0
 16
1.0
 26
0.0
 36
0.0
 17
0.0
 27
1.0
 37
0.0
 76
     0
330
B36A
331
B673
  0
LAYOUT
  5
B6CB
102
{ACAD_XDICTIONARY
360
B728
102
}
102
{ACAD_REACTORS
330
B365
102
}
330
B365
100
AcDbPlotSettings
  1

  2
Canon LBP9100C
  4

  6

 40
0.0
 41
0.0
 42
0.0
 43
0.0
 44
0.0
 45
0.0
 46
0.0
 47
0.0
 48
0.0
 49
0.0
140
0.0
141
0.0
142
1.0
143
1.0
 70
   688
 72
     0
 73
     0
 74
     5
  7

 75
    16
147
1.0
148
0.0
149
0.0
100
AcDbLayout
  1
レイアウト1
 70
     0
 71
     1
 10
0.0
 20
0.0
 11
420.0
 21
297.0
 12
0.0
 22
0.0
 32
0.0
 14
1.000000000000000E+20
 24
1.000000000000000E+20
 34
1.000000000000000E+20
 15
-1.000000000000000E+20
 25
-1.000000000000000E+20
 35
-1.000000000000000E+20
146
0.0
 13
0.0
 23
0.0
 33
0.0
 16
1.0
 26
0.0
 36
0.0
 17
0.0
 27
1.0
 37
0.0
 76
     0
330
B366
  0
MATERIAL
  5
B686
102
{ACAD_XDICTIONARY
360
B687
102
}
102
{ACAD_REACTORS
330
B67D
102
}
330
B67D
100
AcDbMaterial
  1
ByBlock
 72
     0
 43
0.0208333333333333
 43
0.0
 43
0.0
 43
0.0
 43
0.0
 43
0.0208333333333333
 43
0.0
 43
0.0
 43
0.0
 43
0.0
 43
1.0
 43
0.0
 43
0.0
 43
0.0
 43
0.0
 43
1.0
 77
     0
 47
0.0208333333333333
 47
0.0
 47
0.0
 47
0.0
 47
0.0
 47
0.0208333333333333
 47
0.0
 47
0.0
 47
0.0
 47
0.0
 47
1.0
 47
0.0
 47
0.0
 47
0.0
 47
0.0
 47
1.0
171
     0
 49
0.0208333333333333
 49
0.0
 49
0.0
 49
0.0
 49
0.0
 49
0.0208333333333333
 49
0.0
 49
0.0
 49
0.0
 49
0.0
 49
1.0
 49
0.0
 49
0.0
 49
0.0
 49
0.0
 49
1.0
175
     0
142
0.0208333333333333
142
0.0
142
0.0
142
0.0
142
0.0
142
0.0208333333333333
142
0.0
142
0.0
142
0.0
142
0.0
142
1.0
142
0.0
142
0.0
142
0.0
142
0.0
142
1.0
179
     0
144
0.0208333333333333
144
0.0
144
0.0
144
0.0
144
0.0
144
0.0208333333333333
144
0.0
144
0.0
144
0.0
144
0.0
144
1.0
144
0.0
144
0.0
144
0.0
144
0.0
144
1.0
147
0.0208333333333333
147
0.0
147
0.0
147
0.0
147
0.0
147
0.0208333333333333
147
0.0
147
0.0
147
0.0
147
0.0
147
1.0
147
0.0
147
0.0
147
0.0
147
0.0
147
1.0
  0
MATERIAL
  5
B67E
102
{ACAD_XDICTIONARY
360
B67F
102
}
102
{ACAD_REACTORS
330
B67D
102
}
330
B67D
100
AcDbMaterial
  1
ByLayer
 72
     0
 43
0.0208333333333333
 43
0.0
 43
0.0
 43
0.0
 43
0.0
 43
0.0208333333333333
 43
0.0
 43
0.0
 43
0.0
 43
0.0
 43
1.0
 43
0.0
 43
0.0
 43
0.0
 43
0.0
 43
1.0
 77
     0
 47
0.0208333333333333
 47
0.0
 47
0.0
 47
0.0
 47
0.0
 47
0.0208333333333333
 47
0.0
 47
0.0
 47
0.0
 47
0.0
 47
1.0
 47
0.0
 47
0.0
 47
0.0
 47
0.0
 47
1.0
171
     0
 49
0.0208333333333333
 49
0.0
 49
0.0
 49
0.0
 49
0.0
 49
0.0208333333333333
 49
0.0
 49
0.0
 49
0.0
 49
0.0
 49
1.0
 49
0.0
 49
0.0
 49
0.0
 49
0.0
 49
1.0
175
     0
142
0.0208333333333333
142
0.0
142
0.0
142
0.0
142
0.0
142
0.0208333333333333
142
0.0
142
0.0
142
0.0
142
0.0
142
1.0
142
0.0
142
0.0
142
0.0
142
0.0
142
1.0
179
     0
144
0.0208333333333333
144
0.0
144
0.0
144
0.0
144
0.0
144
0.0208333333333333
144
0.0
144
0.0
144
0.0
144
0.0
144
1.0
144
0.0
144
0.0
144
0.0
144
0.0
144
1.0
147
0.0208333333333333
147
0.0
147
0.0
147
0.0
147
0.0
147
0.0208333333333333
147
0.0
147
0.0
147
0.0
147
0.0
147
1.0
147
0.0
147
0.0
147
0.0
147
0.0
147
1.0
  0
MATERIAL
  5
B68E
102
{ACAD_XDICTIONARY
360
B68F
102
}
102
{ACAD_REACTORS
330
B67D
102
}
330
B67D
100
AcDbMaterial
  1
Global
 72
     0
 43
0.0208333333333333
 43
0.0
 43
0.0
 43
0.0
 43
0.0
 43
0.0208333333333333
 43
0.0
 43
0.0
 43
0.0
 43
0.0
 43
1.0
 43
0.0
 43
0.0
 43
0.0
 43
0.0
 43
1.0
 77
     0
 47
0.0208333333333333
 47
0.0
 47
0.0
 47
0.0
 47
0.0
 47
0.0208333333333333
 47
0.0
 47
0.0
 47
0.0
 47
0.0
 47
1.0
 47
0.0
 47
0.0
 47
0.0
 47
0.0
 47
1.0
171
     0
 49
0.0208333333333333
 49
0.0
 49
0.0
 49
0.0
 49
0.0
 49
0.0208333333333333
 49
0.0
 49
0.0
 49
0.0
 49
0.0
 49
1.0
 49
0.0
 49
0.0
 49
0.0
 49
0.0
 49
1.0
175
     0
142
0.0208333333333333
142
0.0
142
0.0
142
0.0
142
0.0
142
0.0208333333333333
142
0.0
142
0.0
142
0.0
142
0.0
142
1.0
142
0.0
142
0.0
142
0.0
142
0.0
142
1.0
179
     0
144
0.0208333333333333
144
0.0
144
0.0
144
0.0
144
0.0
144
0.0208333333333333
144
0.0
144
0.0
144
0.0
144
0.0
144
1.0
144
0.0
144
0.0
144
0.0
144
0.0
144
1.0
147
0.0208333333333333
147
0.0
147
0.0
147
0.0
147
0.0
147
0.0208333333333333
147
0.0
147
0.0
147
0.0
147
0.0
147
1.0
147
0.0
147
0.0
147
0.0
147
0.0
147
1.0
  0
MLEADERSTYLE
  5
B6C5
102
{ACAD_REACTORS
330
B6C4
102
}
330
B6C4
100
AcDbMLeaderStyle
170
     2
171
     1
172
     0
 90
        2
 40
0.0
 41
0.0
173
     1
 91
-1056964608
340
B35F
 92
       -2
290
     1
 42
0.09
291
     1
 43
0.36
  3
Standard
 44
0.18
300

342
B35D
174
     1
178
     6
175
     1
176
     0
 93
-1056964608
 45
0.18
292
     0
297
     0
 46
0.18
 94
-1056964608
 47
1.0
 49
1.0
140
1.0
293
     1
141
0.0
294
     1
177
     0
142
1.0
295
     0
296
     0
143
0.125
1001
ACAD_MLEADERVER
1070
     2
  0
MLINESTYLE
  5
B363
102
{ACAD_REACTORS
330
B362
102
}
330
B362
100
AcDbMlineStyle
  2
STANDARD
 70
     0
  3

 62
   256
 51
90.0
 52
90.0
 71
     2
 49
0.5
 62
   256
  6
BYLAYER
 49
-0.5
 62
   256
  6
BYLAYER
  0
ACDBPLACEHOLDER
  5
B67C
102
{ACAD_REACTORS
330
B67B
102
}
330
B67B
  0
SCALE
  5
B6B3
102
{ACAD_REACTORS
330
B6B2
102
}
330
B6B2
100
AcDbScale
 70
     0
300
1:1
140
1.0
141
1.0
290
     1
  0
SCALE
  5
B6B4
102
{ACAD_REACTORS
330
B6B2
102
}
330
B6B2
100
AcDbScale
 70
     0
300
1/128" = 1'-0"
140
0.0078125
141
12.0
290
     0
  0
SCALE
  5
B6B5
102
{ACAD_REACTORS
330
B6B2
102
}
330
B6B2
100
AcDbScale
 70
     0
300
1/64" = 1'-0"
140
0.015625
141
12.0
290
     0
  0
SCALE
  5
B6B6
102
{ACAD_REACTORS
330
B6B2
102
}
330
B6B2
100
AcDbScale
 70
     0
300
1/32" = 1'-0"
140
0.03125
141
12.0
290
     0
  0
SCALE
  5
B6B7
102
{ACAD_REACTORS
330
B6B2
102
}
330
B6B2
100
AcDbScale
 70
     0
300
1/16" = 1'-0"
140
0.0625
141
12.0
290
     0
  0
SCALE
  5
B6B8
102
{ACAD_REACTORS
330
B6B2
102
}
330
B6B2
100
AcDbScale
 70
     0
300
3/32" = 1'-0"
140
0.09375
141
12.0
290
     0
  0
SCALE
  5
B6B9
102
{ACAD_REACTORS
330
B6B2
102
}
330
B6B2
100
AcDbScale
 70
     0
300
1/8" = 1'-0"
140
0.125
141
12.0
290
     0
  0
SCALE
  5
B6BA
102
{ACAD_REACTORS
330
B6B2
102
}
330
B6B2
100
AcDbScale
 70
     0
300
3/16" = 1'-0"
140
0.1875
141
12.0
290
     0
  0
SCALE
  5
B6BB
102
{ACAD_REACTORS
330
B6B2
102
}
330
B6B2
100
AcDbScale
 70
     0
300
1/4" = 1'-0"
140
0.25
141
12.0
290
     0
  0
SCALE
  5
B6BC
102
{ACAD_REACTORS
330
B6B2
102
}
330
B6B2
100
AcDbScale
 70
     0
300
3/8" = 1'-0"
140
0.375
141
12.0
290
     0
  0
SCALE
  5
B6BD
102
{ACAD_REACTORS
330
B6B2
102
}
330
B6B2
100
AcDbScale
 70
     0
300
1/2" = 1'-0"
140
0.5
141
12.0
290
     0
  0
SCALE
  5
B6BE
102
{ACAD_REACTORS
330
B6B2
102
}
330
B6B2
100
AcDbScale
 70
     0
300
3/4" = 1'-0"
140
0.75
141
12.0
290
     0
  0
SCALE
  5
B6BF
102
{ACAD_REACTORS
330
B6B2
102
}
330
B6B2
100
AcDbScale
 70
     0
300
1" = 1'-0"
140
1.0
141
12.0
290
     0
  0
SCALE
  5
B6C0
102
{ACAD_REACTORS
330
B6B2
102
}
330
B6B2
100
AcDbScale
 70
     0
300
1-1/2" = 1'-0"
140
1.5
141
12.0
290
     0
  0
SCALE
  5
B6C1
102
{ACAD_REACTORS
330
B6B2
102
}
330
B6B2
100
AcDbScale
 70
     0
300
3" = 1'-0"
140
3.0
141
12.0
290
     0
  0
SCALE
  5
B6C2
102
{ACAD_REACTORS
330
B6B2
102
}
330
B6B2
100
AcDbScale
 70
     0
300
6" = 1'-0"
140
6.0
141
12.0
290
     0
  0
SCALE
  5
B6C3
102
{ACAD_REACTORS
330
B6B2
102
}
330
B6B2
100
AcDbScale
 70
     0
300
1'-0" = 1'-0"
140
12.0
141
12.0
290
     0
  0
ACDBSECTIONVIEWSTYLE
  5
B6C7
102
{ACAD_XDICTIONARY
360
B722
102
}
102
{ACAD_REACTORS
330
B6C6
102
}
330
B6C6
100
AcDbModelDocViewStyle
 70
     0
  3
Imperial24
290
     0
100
AcDbSectionViewStyle
 70
     0
 71
     0
 90
       78
 71
     1
340
B35D
 40
0.24
340
0
340
0
 40
0.24
300
I, O, Q, S, X, Z
 40
0.48
 90
        3
 40
0.18
 90
        1
 71
     2
340
B361
 90
       25
340
B361
 90
       50
 40
0.24
 40
0.0
 40
0.24
 71
     3
340
B35D
 40
0.24
 90
        1
 40
0.75
 90
        1
300
%<\AcVar ViewType \f "%tc1">% %<\AcVar ViewSectionStartId>%-%<\AcVar ViewSectionEndId>%\PSCALE %<\AcVar ViewScale \f "%sn">%
 71
     4
300
ANSI31
 40
1.0
 90
        0
290
     0
290
     0
 90
        6
 40
0.0
 40
1.570796326794896
 40
0.2617993877991494
 40
1.308996938995747
 40
-0.2617993877991494
 40
1.832595714594046
  0
TABLESTYLE
  5
B6B1
102
{ACAD_XDICTIONARY
360
B6E9
102
}
102
{ACAD_REACTORS
330
B6B0
102
}
330
B6B0
100
AcDbTableStyle
  3
Standard
 70
     0
 71
     0
 40
0.06
 41
0.06
280
     0
281
     0
  7
STANDARD
140
0.18
170
     2
 62
     0
 63
     7
283
     0
274
    -2
284
     1
 64
     0
275
    -2
285
     1
 65
     0
276
    -2
286
     1
 66
     0
277
    -2
287
     1
 67
     0
278
    -2
288
     1
 68
     0
279
    -2
289
     1
 69
     0
  7
STANDARD
140
0.25
170
     5
 62
     0
 63
     7
283
     0
274
    -2
284
     1
 64
     0
275
    -2
285
     1
 65
     0
276
    -2
286
     1
 66
     0
277
    -2
287
     1
 67
     0
278
    -2
288
     1
 68
     0
279
    -2
289
     1
 69
     0
  7
STANDARD
140
0.18
170
     5
 62
     0
 63
     7
283
     0
274
    -2
284
     1
 64
     0
275
    -2
285
     1
 65
     0
276
    -2
286
     1
 66
     0
277
    -2
287
     1
 67
     0
278
    -2
288
     1
 68
     0
279
    -2
289
     1
 69
     0
  0
VISUALSTYLE
  5
B69C
102
{ACAD_XDICTIONARY
360
B6FA
102
}
102
{ACAD_REACTORS
330
B696
102
}
330
B696
100
AcDbVisualStyle
  2
2dWireframe
 70
     4
 71
     0
 72
     2
 73
     0
 90
        0
 40
-0.6
 41
-30.0
 62
     5
 63
     7
 74
     1
 91
        4
 64
     7
 65
   257
 75
     1
175
     1
 42
1.0
 92
        0
 66
   257
 43
1.0
 76
     1
 77
     6
 78
     2
 67
     7
 79
     5
170
     0
171
     0
290
     0
174
     0
 93
        1
 44
0.0
173
     0
291
     0
 45
0.0
1001
ACAD
1000
AcDbSavedByObjectVersion
1070
     0
  0
VISUALSTYLE
  5
B69B
102
{ACAD_XDICTIONARY
360
B6F8
102
}
102
{ACAD_REACTORS
330
B696
102
}
330
B696
100
AcDbVisualStyle
  2
Basic
 70
     7
 71
     1
 72
     0
 73
     1
 90
        0
 40
-0.6
 41
-30.0
 62
     5
 63
     7
 74
     0
 91
        4
 64
     7
 65
   257
 75
     1
175
     1
 42
1.0
 92
        8
 66
     7
 43
1.0
 76
     1
 77
     6
 78
     2
 67
     7
 79
     5
170
     0
171
     0
290
     0
174
     0
 93
        1
 44
0.0
173
     0
291
     1
 45
0.0
1001
ACAD
1000
AcDbSavedByObjectVersion
1070
     0
  0
VISUALSTYLE
  5
B6A2
102
{ACAD_XDICTIONARY
360
B706
102
}
102
{ACAD_REACTORS
330
B696
102
}
330
B696
100
AcDbVisualStyle
  2
Brighten
 70
    12
 71
     2
 72
     2
 73
     0
 90
        0
 40
-0.6
 41
-30.0
 62
     5
 63
     7
 74
     1
 91
        4
 64
     7
 65
   257
 75
     1
175
     1
 42
1.0
 92
        8
 66
     7
 43
1.0
 76
     1
 77
     6
 78
     2
 67
     7
 79
     5
170
     0
171
     0
290
     0
174
     0
 93
        1
 44
50.0
173
     0
291
     1
 45
0.0
1001
ACAD
1000
AcDbSavedByObjectVersion
1070
     0
  0
VISUALSTYLE
  5
B6A6
102
{ACAD_XDICTIONARY
360
B70E
102
}
102
{ACAD_REACTORS
330
B696
102
}
330
B696
100
AcDbVisualStyle
  2
ColorChange
 70
    16
 71
     2
 72
     2
 73
     3
 90
        0
 40
-0.6
 41
-30.0
 62
     5
 63
     8
 74
     1
 91
        4
 64
     7
 65
   257
 75
     1
175
     1
 42
1.0
 92
        8
 66
     8
 43
1.0
 76
     1
 77
     6
 78
     2
 67
     7
 79
     5
170
     0
171
     0
290
     0
174
     0
 93
        1
 44
0.0
173
     0
291
     1
 45
0.0
1001
ACAD
1000
AcDbSavedByObjectVersion
1070
     0
  0
VISUALSTYLE
  5
B69F
102
{ACAD_XDICTIONARY
360
B700
102
}
102
{ACAD_REACTORS
330
B696
102
}
330
B696
100
AcDbVisualStyle
  2
Conceptual
 70
     9
 71
     3
 72
     2
 73
     0
 90
        0
 40
-0.6
 41
-30.0
 62
     5
 63
     7
 74
     2
 91
        2
 64
     7
 65
   257
 75
     1
175
     1
 42
179.0
 92
        8
 66
     7
 43
1.0
 76
     1
 77
     6
 78
     2
 67
     7
 79
     3
170
     0
171
     0
290
     0
174
     0
 93
        1
 44
0.0
173
     0
291
     0
 45
0.0
1001
ACAD
1000
AcDbSavedByObjectVersion
1070
     0
  0
VISUALSTYLE
  5
B6A1
102
{ACAD_XDICTIONARY
360
B704
102
}
102
{ACAD_REACTORS
330
B696
102
}
330
B696
100
AcDbVisualStyle
  2
Dim
 70
    11
 71
     2
 72
     2
 73
     0
 90
        0
 40
-0.6
 41
-30.0
 62
     5
 63
     7
 74
     1
 91
        4
 64
     7
 65
   257
 75
     1
175
     1
 42
1.0
 92
        8
 66
     7
 43
1.0
 76
     1
 77
     6
 78
     2
 67
     7
 79
     5
170
     0
171
     0
290
     0
174
     0
 93
        1
 44
-50.0
173
     0
291
     1
 45
0.0
1001
ACAD
1000
AcDbSavedByObjectVersion
1070
     0
  0
VISUALSTYLE
  5
B6AE
102
{ACAD_XDICTIONARY
360
B71E
102
}
102
{ACAD_REACTORS
330
B696
102
}
330
B696
100
AcDbVisualStyle
  2
EdgeColorOff
 70
    22
 71
     2
 72
     2
 73
     0
 90
        0
 40
-0.6
 41
-30.0
 62
     5
 63
     7
 74
     1
 91
        4
 64
     7
 65
   257
 75
     1
175
     1
 42
1.0
 92
        8
 66
     7
 43
1.0
 76
     1
 77
     6
 78
     2
 67
     7
 79
     5
170
     0
171
     0
290
     0
174
     0
 93
        1
 44
0.0
173
     0
291
     1
 45
0.0
1001
ACAD
1000
AcDbSavedByObjectVersion
1070
     0
  0
VISUALSTYLE
  5
B6A5
102
{ACAD_XDICTIONARY
360
B70C
102
}
102
{ACAD_REACTORS
330
B696
102
}
330
B696
100
AcDbVisualStyle
  2
Facepattern
 70
    15
 71
     2
 72
     2
 73
     0
 90
        0
 40
-0.6
 41
-30.0
 62
     5
 63
     7
 74
     1
 91
        4
 64
     7
 65
   257
 75
     1
175
     1
 42
1.0
 92
        8
 66
     7
 43
1.0
 76
     1
 77
     6
 78
     2
 67
     7
 79
     5
170
     0
171
     0
290
     0
174
     0
 93
        1
 44
0.0
173
     0
291
     1
 45
0.0
1001
ACAD
1000
AcDbSavedByObjectVersion
1070
     0
  0
VISUALSTYLE
  5
B697
102
{ACAD_XDICTIONARY
360
B6F0
102
}
102
{ACAD_REACTORS
330
B696
102
}
330
B696
100
AcDbVisualStyle
  2
Flat
 70
     0
 71
     2
 72
     1
 73
     1
 90
        2
 40
-0.6
 41
30.0
 62
     5
 63
     7
 74
     0
 91
        0
 64
     7
 65
   257
 75
     1
175
     1
 42
1.0
 92
        8
 66
     7
 43
1.0
 76
     1
 77
     6
 78
     2
 67
     7
 79
     5
170
     0
171
     0
290
     0
174
     0
 93
       13
 44
0.0
173
     0
291
     1
 45
0.0
1001
ACAD
1000
AcDbSavedByObjectVersion
1070
     0
  0
VISUALSTYLE
  5
B698
102
{ACAD_XDICTIONARY
360
B6F2
102
}
102
{ACAD_REACTORS
330
B696
102
}
330
B696
100
AcDbVisualStyle
  2
FlatWithEdges
 70
     1
 71
     2
 72
     1
 73
     1
 90
        2
 40
-0.6
 41
30.0
 62
     5
 63
     7
 74
     1
 91
        0
 64
     7
 65
   257
 75
     1
175
     1
 42
1.0
 92
        0
 66
   257
 43
1.0
 76
     1
 77
     6
 78
     2
 67
     7
 79
     5
170
     0
171
     0
290
     0
174
     0
 93
       13
 44
0.0
173
     0
291
     1
 45
0.0
1001
ACAD
1000
AcDbSavedByObjectVersion
1070
     0
  0
VISUALSTYLE
  5
B699
102
{ACAD_XDICTIONARY
360
B6F4
102
}
102
{ACAD_REACTORS
330
B696
102
}
330
B696
100
AcDbVisualStyle
  2
Gouraud
 70
     2
 71
     2
 72
     2
 73
     1
 90
        2
 40
-0.6
 41
30.0
 62
     5
 63
     7
 74
     0
 91
        0
 64
     7
 65
   257
 75
     1
175
     1
 42
1.0
 92
        0
 66
     7
 43
1.0
 76
     1
 77
     6
 78
     2
 67
     7
 79
     5
170
     0
171
     0
290
     0
174
     0
 93
       13
 44
0.0
173
     0
291
     1
 45
0.0
1001
ACAD
1000
AcDbSavedByObjectVersion
1070
     0
  0
VISUALSTYLE
  5
B69A
102
{ACAD_XDICTIONARY
360
B6F6
102
}
102
{ACAD_REACTORS
330
B696
102
}
330
B696
100
AcDbVisualStyle
  2
GouraudWithEdges
 70
     3
 71
     2
 72
     2
 73
     1
 90
        2
 40
-0.6
 41
30.0
 62
     5
 63
     7
 74
     1
 91
        0
 64
     7
 65
   257
 75
     1
175
     1
 42
1.0
 92
        0
 66
   257
 43
1.0
 76
     1
 77
     6
 78
     2
 67
     7
 79
     5
170
     0
171
     0
290
     0
174
     0
 93
       13
 44
0.0
173
     0
291
     1
 45
0.0
1001
ACAD
1000
AcDbSavedByObjectVersion
1070
     0
  0
VISUALSTYLE
  5
B69E
102
{ACAD_XDICTIONARY
360
B6FE
102
}
102
{ACAD_REACTORS
330
B696
102
}
330
B696
100
AcDbVisualStyle
  2
Hidden
 70
     6
 71
     1
 72
     2
 73
     2
 90
        0
 40
-0.6
 41
-30.0
 62
     5
 63
     7
 74
     2
 91
        2
 64
     7
 65
   257
 75
     2
175
     1
 42
40.0
 92
        0
 66
   257
 43
1.0
 76
     1
 77
     6
 78
     2
 67
     7
 79
     3
170
     0
171
     0
290
     0
174
     0
 93
        1
 44
0.0
173
     0
291
     0
 45
0.0
1001
ACAD
1000
AcDbSavedByObjectVersion
1070
     0
  0
VISUALSTYLE
  5
B6AC
102
{ACAD_XDICTIONARY
360
B71A
102
}
102
{ACAD_REACTORS
330
B696
102
}
330
B696
100
AcDbVisualStyle
  2
JitterOff
 70
    20
 71
     2
 72
     2
 73
     0
 90
        0
 40
-0.6
 41
-30.0
 62
     5
 63
     7
 74
     1
 91
        4
 64
     7
 65
   257
 75
     1
175
     1
 42
1.0
 92
       10
 66
     7
 43
1.0
 76
     1
 77
     6
 78
     2
 67
     7
 79
     5
170
     0
171
     0
290
     0
174
     0
 93
        1
 44
0.0
173
     0
291
     1
 45
0.0
1001
ACAD
1000
AcDbSavedByObjectVersion
1070
     0
  0
VISUALSTYLE
  5
B6A4
102
{ACAD_XDICTIONARY
360
B70A
102
}
102
{ACAD_REACTORS
330
B696
102
}
330
B696
100
AcDbVisualStyle
  2
Linepattern
 70
    14
 71
     2
 72
     2
 73
     0
 90
        0
 40
-0.6
 41
-30.0
 62
     5
 63
     7
 74
     1
 91
        4
 64
     7
 65
   257
 75
     7
175
     7
 42
1.0
 92
        8
 66
     7
 43
1.0
 76
     1
 77
     6
 78
     2
 67
     7
 79
     5
170
     0
171
     0
290
     0
174
     0
 93
        1
 44
0.0
173
     0
291
     1
 45
0.0
1001
ACAD
1000
AcDbSavedByObjectVersion
1070
     0
  0
VISUALSTYLE
  5
B6AD
102
{ACAD_XDICTIONARY
360
B71C
102
}
102
{ACAD_REACTORS
330
B696
102
}
330
B696
100
AcDbVisualStyle
  2
OverhangOff
 70
    21
 71
     2
 72
     2
 73
     0
 90
        0
 40
-0.6
 41
-30.0
 62
     5
 63
     7
 74
     1
 91
        4
 64
     7
 65
   257
 75
     1
175
     1
 42
1.0
 92
        9
 66
     7
 43
1.0
 76
     1
 77
     6
 78
     2
 67
     7
 79
     5
170
     0
171
     0
290
     0
174
     0
 93
        1
 44
0.0
173
     0
291
     1
 45
0.0
1001
ACAD
1000
AcDbSavedByObjectVersion
1070
     0
  0
VISUALSTYLE
  5
B6A0
102
{ACAD_XDICTIONARY
360
B702
102
}
102
{ACAD_REACTORS
330
B696
102
}
330
B696
100
AcDbVisualStyle
  2
Realistic
 70
     8
 71
     2
 72
     3
 73
     0
 90
        2
 40
-0.6
 41
30.0
 62
     5
 63
     7
 74
     0
 91
        0
 64
     7
 65
   257
 75
     1
175
     1
 42
1.0
 92
        8
 66
   257
 43
1.0
 76
     1
 77
     6
 78
     2
 67
     7
 79
     3
170
     0
171
     0
290
     0
174
     0
 93
       13
 44
0.0
173
     0
291
     0
 45
0.0
1001
ACAD
1000
AcDbSavedByObjectVersion
1070
     0
  0
VISUALSTYLE
  5
B6AB
102
{ACAD_XDICTIONARY
360
B718
102
}
102
{ACAD_REACTORS
330
B696
102
}
330
B696
100
AcDbVisualStyle
  2
Shaded
 70
    27
 71
     2
 72
     2
 73
     1
 90
        2
 40
-0.6
 41
30.0
 62
     5
 63
     7
 74
     0
 91
        4
 64
     7
 65
   257
 75
     1
175
     1
 42
1.0
 92
        8
 66
   257
 43
1.0
 76
     1
 77
     6
 78
     2
 67
     8
 79
     3
170
     0
171
     0
290
     0
174
     0
 93
        5
 44
0.0
173
     0
291
     0
 45
0.0
1001
ACAD
1000
AcDbSavedByObjectVersion
1070
     0
  0
VISUALSTYLE
  5
B6AA
102
{ACAD_XDICTIONARY
360
B716
102
}
102
{ACAD_REACTORS
330
B696
102
}
330
B696
100
AcDbVisualStyle
  2
Shaded with edges
 70
    26
 71
     2
 72
     2
 73
     1
 90
        2
 40
-0.6
 41
30.0
 62
     5
 63
     7
 74
     1
 91
       10
 64
     7
 65
   257
 75
     2
175
     1
 42
1.0
 92
        8
 66
   257
 43
1.0
 76
     1
 77
     6
 78
     2
 67
     7
 79
     3
170
     0
171
     0
290
     0
174
     0
 93
        5
 44
0.0
173
     0
291
     0
 45
0.0
1001
ACAD
1000
AcDbSavedByObjectVersion
1070
     0
  0
VISUALSTYLE
  5
B6A7
102
{ACAD_XDICTIONARY
360
B710
102
}
102
{ACAD_REACTORS
330
B696
102
}
330
B696
100
AcDbVisualStyle
  2
Shades of Gray
 70
    23
 71
     2
 72
     2
 73
     3
 90
        0
 40
-0.6
 41
-30.0
 62
     5
 63
     7
 74
     2
 91
        2
 64
     7
 65
     7
 75
     1
175
     1
 42
40.0
 92
        8
 66
     7
 43
1.0
 76
     1
 77
     6
 78
     2
 67
     7
 79
     3
170
     0
171
     0
290
     0
174
     0
 93
        1
 44
0.0
173
     0
291
     0
 45
0.0
1001
ACAD
1000
AcDbSavedByObjectVersion
1070
     0
  0
VISUALSTYLE
  5
B6A8
102
{ACAD_XDICTIONARY
360
B712
102
}
102
{ACAD_REACTORS
330
B696
102
}
330
B696
100
AcDbVisualStyle
  2
Sketchy
 70
    24
 71
     1
 72
     2
 73
     2
 90
        0
 40
-0.6
 41
-30.0
 62
     5
 63
     7
 74
     2
 91
        2
 64
     7
 65
     7
 75
     1
175
     1
 42
40.0
 92
       11
 66
     7
 43
1.0
 76
     1
 77
     6
 78
     2
 67
     7
 79
     6
170
     0
171
     0
290
     0
174
     0
 93
        1
 44
0.0
173
     0
291
     0
 45
0.0
1001
ACAD
1000
AcDbSavedByObjectVersion
1070
     0
  0
VISUALSTYLE
  5
B6A3
102
{ACAD_XDICTIONARY
360
B708
102
}
102
{ACAD_REACTORS
330
B696
102
}
330
B696
100
AcDbVisualStyle
  2
Thicken
 70
    13
 71
     2
 72
     2
 73
     0
 90
        0
 40
-0.6
 41
-30.0
 62
     5
 63
     7
 74
     1
 91
        4
 64
     7
 65
   257
 75
     1
175
     1
 42
1.0
 92
       12
 66
     7
 43
1.0
 76
     1
 77
     6
 78
     2
 67
     7
 79
     5
170
     0
171
     0
290
     0
174
     0
 93
        1
 44
0.0
173
     0
291
     1
 45
0.0
1001
ACAD
1000
AcDbSavedByObjectVersion
1070
     0
  0
VISUALSTYLE
  5
B69D
102
{ACAD_XDICTIONARY
360
B6FC
102
}
102
{ACAD_REACTORS
330
B696
102
}
330
B696
100
AcDbVisualStyle
  2
Wireframe
 70
     5
 71
     0
 72
     2
 73
     0
 90
        0
 40
-0.6
 41
-30.0
 62
     5
 63
     7
 74
     1
 91
        4
 64
     7
 65
   257
 75
     1
175
     1
 42
1.0
 92
        0
 66
   257
 43
1.0
 76
     1
 77
     6
 78
     2
 67
     7
 79
     3
170
     0
171
     0
290
     0
174
     0
 93
        1
 44
0.0
173
     0
291
     0
 45
0.0
1001
ACAD
1000
AcDbSavedByObjectVersion
1070
     0
  0
VISUALSTYLE
  5
B6A9
102
{ACAD_XDICTIONARY
360
B714
102
}
102
{ACAD_REACTORS
330
B696
102
}
330
B696
100
AcDbVisualStyle
  2
X-Ray
 70
    25
 71
     2
 72
     2
 73
     1
 90
        1
 40
0.5
 41
-30.0
 62
     5
 63
     7
 74
     1
 91
        0
 64
     7
 65
   257
 75
     1
175
     1
 42
1.0
 92
        8
 66
     7
 43
1.0
 76
     1
 77
     6
 78
     2
 67
     7
 79
     3
170
     0
171
     0
290
     0
174
     0
 93
       13
 44
0.0
173
     0
291
     0
 45
0.0
1001
ACAD
1000
AcDbSavedByObjectVersion
1070
     0
  0
DICTIONARYVAR
  5
B6E3
102
{ACAD_REACTORS
330
B6DE
102
}
330
B6DE
100
DictionaryVariables
280
     0
  1
1:1
  0
DICTIONARYVAR
  5
B6E0
102
{ACAD_REACTORS
330
B6DE
102
}
330
B6DE
100
DictionaryVariables
280
     0
  1
STANDARD
  0
DICTIONARYVAR
  5
B6DF
102
{ACAD_REACTORS
330
B6DE
102
}
330
B6DE
100
DictionaryVariables
280
     0
  1
STANDARD
  0
DICTIONARYVAR
  5
B6E1
102
{ACAD_REACTORS
330
B6DE
102
}
330
B6DE
100
DictionaryVariables
280
     0
  1
Imperial24
  0
DICTIONARYVAR
  5
B6E2
102
{ACAD_REACTORS
330
B6DE
102
}
330
B6DE
100
DictionaryVariables
280
     0
  1
Imperial24
  0
DICTIONARYVAR
  5
B6E6
102
{ACAD_REACTORS
330
B6DE
102
}
330
B6DE
100
DictionaryVariables
280
     0
  1
1
  0
DICTIONARYVAR
  5
B6E5
102
{ACAD_REACTORS
330
B6DE
102
}
330
B6DE
100
DictionaryVariables
280
     0
  1
0
  0
DICTIONARYVAR
  5
B6E4
102
{ACAD_REACTORS
330
B6DE
102
}
330
B6DE
100
DictionaryVariables
280
     0
  1
127
  0
DICTIONARYVAR
  5
B6E7
102
{ACAD_REACTORS
330
B6DE
102
}
330
B6DE
100
DictionaryVariables
280
     0
  1
2
  0
DICTIONARY
  5
B724
330
B6C9
100
AcDbDictionary
280
     1
281
     1
  3
ACAD_XREC_ROUNDTRIP
360
B725
  0
DICTIONARY
  5
B726
330
B6CA
100
AcDbDictionary
280
     1
281
     1
  3
ACAD_XREC_ROUNDTRIP
360
B727
  0
DICTIONARY
  5
B728
330
B6CB
100
AcDbDictionary
280
     1
281
     1
  3
ACAD_XREC_ROUNDTRIP
360
B729
  0
DICTIONARY
  5
B687
330
B686
100
AcDbDictionary
280
     1
281
     1
  3
ACAD_XREC_ROUNDTRIP
360
B6EE
  3
BUMPTILE
360
B689
  3
DIFFUSETILE
360
B688
  3
OPACITYTILE
360
B68C
  3
REFLECTIONTILE
360
B68B
  3
REFRACTIONTILE
360
B68D
  3
SPECULARTILE
360
B68A
  0
DICTIONARY
  5
B67F
330
B67E
100
AcDbDictionary
280
     1
281
     1
  3
ACAD_XREC_ROUNDTRIP
360
B6ED
  3
BUMPTILE
360
B681
  3
DIFFUSETILE
360
B680
  3
OPACITYTILE
360
B684
  3
REFLECTIONTILE
360
B683
  3
REFRACTIONTILE
360
B685
  3
SPECULARTILE
360
B682
  0
DICTIONARY
  5
B68F
330
B68E
100
AcDbDictionary
280
     1
281
     1
  3
ACAD_XREC_ROUNDTRIP
360
B6EF
  3
BUMPTILE
360
B691
  3
DIFFUSETILE
360
B690
  3
OPACITYTILE
360
B694
  3
REFLECTIONTILE
360
B693
  3
REFRACTIONTILE
360
B695
  3
SPECULARTILE
360
B692
  0
DICTIONARY
  5
B722
330
B6C7
100
AcDbDictionary
280
     1
281
     1
  3
ACAD_XREC_ROUNDTRIP
360
B723
  0
DICTIONARY
  5
B6E9
330
B6B1
100
AcDbDictionary
280
     1
281
     1
  3
ACAD_ROUNDTRIP_2008_TABLESTYLE_CELLSTYLEMAP
360
B6EA
  3
ACAD_XREC_ROUNDTRIP
360
B720
  0
DICTIONARY
  5
B6FA
330
B69C
100
AcDbDictionary
280
     1
281
     1
  3
ACAD_XREC_ROUNDTRIP
360
B6FB
  0
DICTIONARY
  5
B6F8
330
B69B
100
AcDbDictionary
280
     1
281
     1
  3
ACAD_XREC_ROUNDTRIP
360
B6F9
  0
DICTIONARY
  5
B706
330
B6A2
100
AcDbDictionary
280
     1
281
     1
  3
ACAD_XREC_ROUNDTRIP
360
B707
  0
DICTIONARY
  5
B70E
330
B6A6
100
AcDbDictionary
280
     1
281
     1
  3
ACAD_XREC_ROUNDTRIP
360
B70F
  0
DICTIONARY
  5
B700
330
B69F
100
AcDbDictionary
280
     1
281
     1
  3
ACAD_XREC_ROUNDTRIP
360
B701
  0
DICTIONARY
  5
B704
330
B6A1
100
AcDbDictionary
280
     1
281
     1
  3
ACAD_XREC_ROUNDTRIP
360
B705
  0
DICTIONARY
  5
B71E
330
B6AE
100
AcDbDictionary
280
     1
281
     1
  3
ACAD_XREC_ROUNDTRIP
360
B71F
  0
DICTIONARY
  5
B70C
330
B6A5
100
AcDbDictionary
280
     1
281
     1
  3
ACAD_XREC_ROUNDTRIP
360
B70D
  0
DICTIONARY
  5
B6F0
330
B697
100
AcDbDictionary
280
     1
281
     1
  3
ACAD_XREC_ROUNDTRIP
360
B6F1
  0
DICTIONARY
  5
B6F2
330
B698
100
AcDbDictionary
280
     1
281
     1
  3
ACAD_XREC_ROUNDTRIP
360
B6F3
  0
DICTIONARY
  5
B6F4
330
B699
100
AcDbDictionary
280
     1
281
     1
  3
ACAD_XREC_ROUNDTRIP
360
B6F5
  0
DICTIONARY
  5
B6F6
330
B69A
100
AcDbDictionary
280
     1
281
     1
  3
ACAD_XREC_ROUNDTRIP
360
B6F7
  0
DICTIONARY
  5
B6FE
330
B69E
100
AcDbDictionary
280
     1
281
     1
  3
ACAD_XREC_ROUNDTRIP
360
B6FF
  0
DICTIONARY
  5
B71A
330
B6AC
100
AcDbDictionary
280
     1
281
     1
  3
ACAD_XREC_ROUNDTRIP
360
B71B
  0
DICTIONARY
  5
B70A
330
B6A4
100
AcDbDictionary
280
     1
281
     1
  3
ACAD_XREC_ROUNDTRIP
360
B70B
  0
DICTIONARY
  5
B71C
330
B6AD
100
AcDbDictionary
280
     1
281
     1
  3
ACAD_XREC_ROUNDTRIP
360
B71D
  0
DICTIONARY
  5
B702
330
B6A0
100
AcDbDictionary
280
     1
281
     1
  3
ACAD_XREC_ROUNDTRIP
360
B703
  0
DICTIONARY
  5
B718
330
B6AB
100
AcDbDictionary
280
     1
281
     1
  3
ACAD_XREC_ROUNDTRIP
360
B719
  0
DICTIONARY
  5
B716
330
B6AA
100
AcDbDictionary
280
     1
281
     1
  3
ACAD_XREC_ROUNDTRIP
360
B717
  0
DICTIONARY
  5
B710
330
B6A7
100
AcDbDictionary
280
     1
281
     1
  3
ACAD_XREC_ROUNDTRIP
360
B711
  0
DICTIONARY
  5
B712
330
B6A8
100
AcDbDictionary
280
     1
281
     1
  3
ACAD_XREC_ROUNDTRIP
360
B713
  0
DICTIONARY
  5
B708
330
B6A3
100
AcDbDictionary
280
     1
281
     1
  3
ACAD_XREC_ROUNDTRIP
360
B709
  0
DICTIONARY
  5
B6FC
330
B69D
100
AcDbDictionary
280
     1
281
     1
  3
ACAD_XREC_ROUNDTRIP
360
B6FD
  0
DICTIONARY
  5
B714
330
B6A9
100
AcDbDictionary
280
     1
281
     1
  3
ACAD_XREC_ROUNDTRIP
360
B715
  0
XRECORD
  5
B725
102
{ACAD_REACTORS
330
B724
102
}
330
B724
100
AcDbXrecord
280
     1
102
DISPLAYNAME
  1
Imperial24
102
FLAGS
 90
        0
  0
XRECORD
  5
B727
102
{ACAD_REACTORS
330
B726
102
}
330
B726
100
AcDbXrecord
280
     1
102
SHADEPLOT
 70
     0
102
SHADEPLOTRESLEVEL
 70
     2
102
SHADEPLOTCUSTOMDPI
 70
   300
  0
XRECORD
  5
B729
102
{ACAD_REACTORS
330
B728
102
}
330
B728
100
AcDbXrecord
280
     1
102
SHADEPLOT
 70
     0
102
SHADEPLOTRESLEVEL
 70
     2
102
SHADEPLOTCUSTOMDPI
 70
   300
  0
XRECORD
  5
B6EE
102
{ACAD_REACTORS
330
B687
102
}
330
B687
100
AcDbXrecord
280
     1
102
MATERIAL
148
0.0
149
0.0
149
0.0
 93
        0
 94
      127
282
     0
 72
     0
 77
     0
171
     0
175
     0
179
     0
273
     0
  0
XRECORD
  5
B689
102
{ACAD_REACTORS
330
B687
102
}
330
B687
100
AcDbXrecord
280
     1
270
     1
271
     1
  0
XRECORD
  5
B688
102
{ACAD_REACTORS
330
B687
102
}
330
B687
100
AcDbXrecord
280
     1
270
     1
271
     1
  0
XRECORD
  5
B68C
102
{ACAD_REACTORS
330
B687
102
}
330
B687
100
AcDbXrecord
280
     1
270
     1
271
     1
  0
XRECORD
  5
B68B
102
{ACAD_REACTORS
330
B687
102
}
330
B687
100
AcDbXrecord
280
     1
270
     1
271
     1
  0
XRECORD
  5
B68D
102
{ACAD_REACTORS
330
B687
102
}
330
B687
100
AcDbXrecord
280
     1
270
     1
271
     1
  0
XRECORD
  5
B68A
102
{ACAD_REACTORS
330
B687
102
}
330
B687
100
AcDbXrecord
280
     1
270
     1
271
     1
  0
XRECORD
  5
B6ED
102
{ACAD_REACTORS
330
B67F
102
}
330
B67F
100
AcDbXrecord
280
     1
102
MATERIAL
148
0.0
149
0.0
149
0.0
 93
        0
 94
      127
282
     0
 72
     0
 77
     0
171
     0
175
     0
179
     0
273
     0
  0
XRECORD
  5
B681
102
{ACAD_REACTORS
330
B67F
102
}
330
B67F
100
AcDbXrecord
280
     1
270
     1
271
     1
  0
XRECORD
  5
B680
102
{ACAD_REACTORS
330
B67F
102
}
330
B67F
100
AcDbXrecord
280
     1
270
     1
271
     1
  0
XRECORD
  5
B684
102
{ACAD_REACTORS
330
B67F
102
}
330
B67F
100
AcDbXrecord
280
     1
270
     1
271
     1
  0
XRECORD
  5
B683
102
{ACAD_REACTORS
330
B67F
102
}
330
B67F
100
AcDbXrecord
280
     1
270
     1
271
     1
  0
XRECORD
  5
B685
102
{ACAD_REACTORS
330
B67F
102
}
330
B67F
100
AcDbXrecord
280
     1
270
     1
271
     1
  0
XRECORD
  5
B682
102
{ACAD_REACTORS
330
B67F
102
}
330
B67F
100
AcDbXrecord
280
     1
270
     1
271
     1
  0
XRECORD
  5
B6EF
102
{ACAD_REACTORS
330
B68F
102
}
330
B68F
100
AcDbXrecord
280
     1
102
MATERIAL
148
0.0
149
0.0
149
0.0
 93
        0
 94
      127
282
     0
 72
     0
 77
     0
171
     0
175
     0
179
     0
273
     0
  0
XRECORD
  5
B691
102
{ACAD_REACTORS
330
B68F
102
}
330
B68F
100
AcDbXrecord
280
     1
270
     1
271
     1
  0
XRECORD
  5
B690
102
{ACAD_REACTORS
330
B68F
102
}
330
B68F
100
AcDbXrecord
280
     1
270
     1
271
     1
  0
XRECORD
  5
B694
102
{ACAD_REACTORS
330
B68F
102
}
330
B68F
100
AcDbXrecord
280
     1
270
     1
271
     1
  0
XRECORD
  5
B693
102
{ACAD_REACTORS
330
B68F
102
}
330
B68F
100
AcDbXrecord
280
     1
270
     1
271
     1
  0
XRECORD
  5
B695
102
{ACAD_REACTORS
330
B68F
102
}
330
B68F
100
AcDbXrecord
280
     1
270
     1
271
     1
  0
XRECORD
  5
B692
102
{ACAD_REACTORS
330
B68F
102
}
330
B68F
100
AcDbXrecord
280
     1
270
     1
271
     1
  0
XRECORD
  5
B723
102
{ACAD_REACTORS
330
B722
102
}
330
B722
100
AcDbXrecord
280
     1
102
DISPLAYNAME
  1
Imperial24
102
FLAGS
 90
        0
  0
CELLSTYLEMAP
  5
B6EA
102
{ACAD_REACTORS
330
B6E9
102
}
330
B6E9
100
AcDbCellStyleMap
 90
        3
300
CELLSTYLE
  1
TABLEFORMAT_BEGIN
 90
        5
170
     1
 91
        0
 92
    32768
 62
   257
 93
        1
300
CONTENTFORMAT
  1
CONTENTFORMAT_BEGIN
 90
        0
 91
        0
 92
      512
 93
        0
300

 40
0.0
140
1.0
 94
        5
 62
     0
340
B35D
144
0.25
309
CONTENTFORMAT_END
171
     0
 94
        0
309
TABLEFORMAT_END
  1
CELLSTYLE_BEGIN
 90
        1
 91
        1
300
_TITLE
309
CELLSTYLE_END
300
CELLSTYLE
  1
TABLEFORMAT_BEGIN
 90
        5
170
     1
 91
        0
 92
        0
 62
   257
 93
        1
300
CONTENTFORMAT
  1
CONTENTFORMAT_BEGIN
 90
        0
 91
        0
 92
      512
 93
        0
300

 40
0.0
140
1.0
 94
        5
 62
     0
340
B35D
144
0.18
309
CONTENTFORMAT_END
171
     0
 94
        0
309
TABLEFORMAT_END
  1
CELLSTYLE_BEGIN
 90
        2
 91
        1
300
_HEADER
309
CELLSTYLE_END
300
CELLSTYLE
  1
TABLEFORMAT_BEGIN
 90
        5
170
     1
 91
        0
 92
        0
 62
   257
 93
        1
300
CONTENTFORMAT
  1
CONTENTFORMAT_BEGIN
 90
        0
 91
        0
 92
      512
 93
        0
300

 40
0.0
140
1.0
 94
        2
 62
     0
340
B35D
144
0.18
309
CONTENTFORMAT_END
171
     0
 94
        0
309
TABLEFORMAT_END
  1
CELLSTYLE_BEGIN
 90
        3
 91
        2
300
_DATA
309
CELLSTYLE_END
  0
XRECORD
  5
B720
102
{ACAD_REACTORS
330
B6E9
102
}
330
B6E9
100
AcDbXrecord
280
     1
102
ACAD_ROUNDTRIP_PRE2007_TABLESTYLE
 90
      512
 91
        0
  1

 92
      512
 93
        0
  2

 94
      512
 95
        0
  3

  0
XRECORD
  5
B6FB
102
{ACAD_REACTORS
330
B6FA
102
}
330
B6FA
100
AcDbXrecord
280
     1
102
RTVSPost2010Prop28
280
     1
102
RTVSPost2010PropOp28
 70
     1
102
RTVSPost2010Prop29
280
     1
102
RTVSPost2010PropOp29
 70
     1
102
RTVSPost2010Prop30
280
     0
102
RTVSPost2010PropOp30
 70
     1
102
RTVSPost2010Prop31
280
     0
102
RTVSPost2010PropOp31
 70
     1
102
RTVSPost2010Prop32
280
     0
102
RTVSPost2010PropOp32
 70
     1
102
RTVSPost2010Prop33
280
     0
102
RTVSPost2010PropOp33
 70
     1
102
RTVSPost2010Prop34
280
     0
102
RTVSPost2010PropOp34
 70
     1
102
RTVSPost2010Prop35
280
     0
102
RTVSPost2010PropOp35
 70
     1
102
RTVSPost2010Prop36
280
     0
102
RTVSPost2010PropOp36
 70
     1
102
RTVSPost2010Prop37
 90
       50
102
RTVSPost2010PropOp37
 70
     1
102
RTVSPost2010Prop38
140
0.0
102
RTVSPost2010PropOp38
 70
     1
102
RTVSPost2010Prop39
140
1.0
102
RTVSPost2010PropOp39
 70
     1
102
RTVSPost2010Prop40
 90
        0
102
RTVSPost2010PropOp40
 70
     1
102
RTVSPost2010Prop41ColorIndex
 90
       18
102
RTVSPost2010Prop41ColorRGB
 90
        0
102
RTVSPost2010PropOp41
 70
     1
102
RTVSPost2010Prop42
 90
       50
102
RTVSPost2010PropOp42
 70
     1
102
RTVSPost2010Prop43
 90
        3
102
RTVSPost2010PropOp43
 70
     1
102
RTVSPost2010Prop44ColorIndex
 90
        5
102
RTVSPost2010Prop44ColorRGB
 90
      255
102
RTVSPost2010PropOp44
 70
     1
102
RTVSPost2010Prop45
280
     0
102
RTVSPost2010PropOp45
 70
     1
102
RTVSPost2010Prop46
 90
       50
102
RTVSPost2010PropOp46
 70
     1
102
RTVSPost2010Prop47
 90
       50
102
RTVSPost2010PropOp47
 70
     1
102
RTVSPost2010Prop48
 90
       50
102
RTVSPost2010PropOp48
 70
     1
102
RTVSPost2010Prop49
280
     0
102
RTVSPost2010PropOp49
 70
     1
102
RTVSPost2010Prop50
 90
       50
102
RTVSPost2010PropOp50
 70
     1
102
RTVSPost2010Prop51ColorIndex
 90
      256
102
RTVSPost2010Prop51ColorRGB
 90
-16777216
102
RTVSPost2010PropOp51
 70
     0
102
RTVSPost2010Prop52
140
1.0
102
RTVSPost2010PropOp52
 70
     0
102
RTVSPost2010Prop53
 90
        2
102
RTVSPost2010PropOp53
 70
     1
102
RTVSPost2010Prop54
  1
strokes_ogs.tif
102
RTVSPost2010PropOp54
 70
     1
102
RTVSPost2010Prop55
280
     0
102
RTVSPost2010PropOp55
 70
     1
102
RTVSPost2010Prop56
140
1.0
102
RTVSPost2010PropOp56
 70
     1
102
RTVSPost2010Prop57
140
1.0
102
RTVSPost2010PropOp57
 70
     1
102
RTVSPropertyOp0
 70
     1
102
RTVSPropertyOp1
 70
     1
102
RTVSPropertyOp2
 70
     1
102
RTVSPropertyOp3
 70
     1
102
RTVSPropertyOp4
 70
     1
102
RTVSPropertyOp5
 70
     1
102
RTVSPropertyOp6
 70
     1
102
RTVSPropertyOp7
 70
     1
102
RTVSPropertyOp8
 70
     1
102
RTVSPropertyOp9
 70
     1
102
RTVSPropertyOp10
 70
     1
102
RTVSPropertyOp11
 70
     1
102
RTVSPropertyOp12
 70
     1
102
RTVSPropertyOp13
 70
     1
102
RTVSPropertyOp14
 70
     1
102
RTVSPropertyOp15
 70
     1
102
RTVSPropertyOp16
 70
     1
102
RTVSPropertyOp17
 70
     1
102
RTVSPropertyOp18
 70
     1
102
RTVSPropertyOp19
 70
     1
102
RTVSPropertyOp20
 70
     1
102
RTVSPropertyOp21
 70
     1
102
RTVSPropertyOp22
 70
     1
102
RTVSPropertyOp23
 70
     1
102
RTVSPropertyOp24
 70
     1
102
RTVSPropertyOp25
 70
     1
102
RTVSPropertyOp26
 70
     1
102
RTVSPropertyOp27
 70
     1
102
RTVSPropertyOp28
 70
     1
102
RTVSPropertyOp29
 70
     1
102
RTVSPropertyOp30
 70
     1
102
RTVSPropertyOp31
 70
     1
102
RTVSPropertyOp32
 70
     1
102
RTVSPropertyOp33
 70
     1
102
RTVSPropertyOp34
 70
     1
102
RTVSPropertyOp35
 70
     1
102
RTVSPropertyOp36
 70
     1
102
RTVSPropertyOp37
 70
     1
102
RTVSPropertyOp38
 70
     1
102
RTVSPropertyOp39
 70
     1
102
RTVSPropertyOp40
 70
     1
102
RTVSPropertyOp41
 70
     1
102
RTVSPropertyOp42
 70
     1
102
RTVSPropertyOp43
 70
     1
102
RTVSPropertyOp44
 70
     1
102
RTVSPropertyOp45
 70
     1
102
RTVSPropertyOp46
 70
     1
102
RTVSPropertyOp47
 70
     1
102
RTVSPropertyOp48
 70
     1
102
RTVSPropertyOp49
 70
     1
102
RTVSPropertyOp50
 70
     1
102
RTVSPropertyOp51
 70
     0
102
RTVSPropertyOp52
 70
     0
102
RTVSPropertyOp53
 70
     1
102
RTVSPropertyOp54
 70
     1
102
RTVSPropertyOp55
 70
     1
102
RTVSPropertyOp56
 70
     1
102
RTVSPropertyOp57
 70
     1
102
RTVSPropertyOp58
 70
     1
102
RTVSPropertyOp59
 70
     1
102
RTVSPropertyOp60
 70
     1
102
RTVSPropertyOp61
 70
     1
102
RTVSPropertyOp62
 70
     1
  0
XRECORD
  5
B6F9
102
{ACAD_REACTORS
330
B6F8
102
}
330
B6F8
100
AcDbXrecord
280
     1
102
RTVSPost2010Prop28
280
     0
102
RTVSPost2010PropOp28
 70
     1
102
RTVSPost2010Prop29
280
     1
102
RTVSPost2010PropOp29
 70
     1
102
RTVSPost2010Prop30
280
     1
102
RTVSPost2010PropOp30
 70
     1
102
RTVSPost2010Prop31
280
     0
102
RTVSPost2010PropOp31
 70
     1
102
RTVSPost2010Prop32
280
     0
102
RTVSPost2010PropOp32
 70
     1
102
RTVSPost2010Prop33
280
     0
102
RTVSPost2010PropOp33
 70
     1
102
RTVSPost2010Prop34
280
     0
102
RTVSPost2010PropOp34
 70
     1
102
RTVSPost2010Prop35
280
     0
102
RTVSPost2010PropOp35
 70
     1
102
RTVSPost2010Prop36
280
     0
102
RTVSPost2010PropOp36
 70
     1
102
RTVSPost2010Prop37
 90
       50
102
RTVSPost2010PropOp37
 70
     1
102
RTVSPost2010Prop38
140
0.0
102
RTVSPost2010PropOp38
 70
     1
102
RTVSPost2010Prop39
140
1.0
102
RTVSPost2010PropOp39
 70
     1
102
RTVSPost2010Prop40
 90
        0
102
RTVSPost2010PropOp40
 70
     1
102
RTVSPost2010Prop41ColorIndex
 90
       18
102
RTVSPost2010Prop41ColorRGB
 90
        0
102
RTVSPost2010PropOp41
 70
     1
102
RTVSPost2010Prop42
 90
       50
102
RTVSPost2010PropOp42
 70
     1
102
RTVSPost2010Prop43
 90
        3
102
RTVSPost2010PropOp43
 70
     1
102
RTVSPost2010Prop44ColorIndex
 90
        5
102
RTVSPost2010Prop44ColorRGB
 90
      255
102
RTVSPost2010PropOp44
 70
     1
102
RTVSPost2010Prop45
280
     0
102
RTVSPost2010PropOp45
 70
     1
102
RTVSPost2010Prop46
 90
       50
102
RTVSPost2010PropOp46
 70
     1
102
RTVSPost2010Prop47
 90
       50
102
RTVSPost2010PropOp47
 70
     1
102
RTVSPost2010Prop48
 90
       50
102
RTVSPost2010PropOp48
 70
     1
102
RTVSPost2010Prop49
280
     0
102
RTVSPost2010PropOp49
 70
     1
102
RTVSPost2010Prop50
 90
       50
102
RTVSPost2010PropOp50
 70
     1
102
RTVSPost2010Prop51ColorIndex
 90
      256
102
RTVSPost2010Prop51ColorRGB
 90
-16777216
102
RTVSPost2010PropOp51
 70
     0
102
RTVSPost2010Prop52
140
1.0
102
RTVSPost2010PropOp52
 70
     0
102
RTVSPost2010Prop53
 90
        2
102
RTVSPost2010PropOp53
 70
     1
102
RTVSPost2010Prop54
  1
strokes_ogs.tif
102
RTVSPost2010PropOp54
 70
     1
102
RTVSPost2010Prop55
280
     0
102
RTVSPost2010PropOp55
 70
     1
102
RTVSPost2010Prop56
140
1.0
102
RTVSPost2010PropOp56
 70
     1
102
RTVSPost2010Prop57
140
1.0
102
RTVSPost2010PropOp57
 70
     1
102
RTVSPropertyOp0
 70
     1
102
RTVSPropertyOp1
 70
     1
102
RTVSPropertyOp2
 70
     1
102
RTVSPropertyOp3
 70
     1
102
RTVSPropertyOp4
 70
     1
102
RTVSPropertyOp5
 70
     1
102
RTVSPropertyOp6
 70
     1
102
RTVSPropertyOp7
 70
     1
102
RTVSPropertyOp8
 70
     1
102
RTVSPropertyOp9
 70
     1
102
RTVSPropertyOp10
 70
     1
102
RTVSPropertyOp11
 70
     1
102
RTVSPropertyOp12
 70
     1
102
RTVSPropertyOp13
 70
     1
102
RTVSPropertyOp14
 70
     1
102
RTVSPropertyOp15
 70
     1
102
RTVSPropertyOp16
 70
     1
102
RTVSPropertyOp17
 70
     1
102
RTVSPropertyOp18
 70
     1
102
RTVSPropertyOp19
 70
     1
102
RTVSPropertyOp20
 70
     1
102
RTVSPropertyOp21
 70
     1
102
RTVSPropertyOp22
 70
     1
102
RTVSPropertyOp23
 70
     1
102
RTVSPropertyOp24
 70
     1
102
RTVSPropertyOp25
 70
     1
102
RTVSPropertyOp26
 70
     1
102
RTVSPropertyOp27
 70
     1
102
RTVSPropertyOp28
 70
     1
102
RTVSPropertyOp29
 70
     1
102
RTVSPropertyOp30
 70
     1
102
RTVSPropertyOp31
 70
     1
102
RTVSPropertyOp32
 70
     1
102
RTVSPropertyOp33
 70
     1
102
RTVSPropertyOp34
 70
     1
102
RTVSPropertyOp35
 70
     1
102
RTVSPropertyOp36
 70
     1
102
RTVSPropertyOp37
 70
     1
102
RTVSPropertyOp38
 70
     1
102
RTVSPropertyOp39
 70
     1
102
RTVSPropertyOp40
 70
     1
102
RTVSPropertyOp41
 70
     1
102
RTVSPropertyOp42
 70
     1
102
RTVSPropertyOp43
 70
     1
102
RTVSPropertyOp44
 70
     1
102
RTVSPropertyOp45
 70
     1
102
RTVSPropertyOp46
 70
     1
102
RTVSPropertyOp47
 70
     1
102
RTVSPropertyOp48
 70
     1
102
RTVSPropertyOp49
 70
     1
102
RTVSPropertyOp50
 70
     1
102
RTVSPropertyOp51
 70
     0
102
RTVSPropertyOp52
 70
     0
102
RTVSPropertyOp53
 70
     1
102
RTVSPropertyOp54
 70
     1
102
RTVSPropertyOp55
 70
     1
102
RTVSPropertyOp56
 70
     1
102
RTVSPropertyOp57
 70
     1
102
RTVSPropertyOp58
 70
     1
102
RTVSPropertyOp59
 70
     1
102
RTVSPropertyOp60
 70
     1
102
RTVSPropertyOp61
 70
     1
102
RTVSPropertyOp62
 70
     1
  0
XRECORD
  5
B707
102
{ACAD_REACTORS
330
B706
102
}
330
B706
100
AcDbXrecord
280
     1
102
RTVSPost2010Prop28
280
     0
102
RTVSPost2010PropOp28
 70
     1
102
RTVSPost2010Prop29
280
     1
102
RTVSPost2010PropOp29
 70
     1
102
RTVSPost2010Prop30
280
     1
102
RTVSPost2010PropOp30
 70
     1
102
RTVSPost2010Prop31
280
     0
102
RTVSPost2010PropOp31
 70
     1
102
RTVSPost2010Prop32
280
     0
102
RTVSPost2010PropOp32
 70
     1
102
RTVSPost2010Prop33
280
     0
102
RTVSPost2010PropOp33
 70
     1
102
RTVSPost2010Prop34
280
     0
102
RTVSPost2010PropOp34
 70
     1
102
RTVSPost2010Prop35
280
     0
102
RTVSPost2010PropOp35
 70
     1
102
RTVSPost2010Prop36
280
     0
102
RTVSPost2010PropOp36
 70
     1
102
RTVSPost2010Prop37
 90
       50
102
RTVSPost2010PropOp37
 70
     1
102
RTVSPost2010Prop38
140
0.0
102
RTVSPost2010PropOp38
 70
     1
102
RTVSPost2010Prop39
140
1.0
102
RTVSPost2010PropOp39
 70
     1
102
RTVSPost2010Prop40
 90
        0
102
RTVSPost2010PropOp40
 70
     1
102
RTVSPost2010Prop41ColorIndex
 90
       18
102
RTVSPost2010Prop41ColorRGB
 90
        0
102
RTVSPost2010PropOp41
 70
     1
102
RTVSPost2010Prop42
 90
       50
102
RTVSPost2010PropOp42
 70
     1
102
RTVSPost2010Prop43
 90
        3
102
RTVSPost2010PropOp43
 70
     1
102
RTVSPost2010Prop44ColorIndex
 90
        5
102
RTVSPost2010Prop44ColorRGB
 90
      255
102
RTVSPost2010PropOp44
 70
     1
102
RTVSPost2010Prop45
280
     0
102
RTVSPost2010PropOp45
 70
     1
102
RTVSPost2010Prop46
 90
       50
102
RTVSPost2010PropOp46
 70
     1
102
RTVSPost2010Prop47
 90
       50
102
RTVSPost2010PropOp47
 70
     1
102
RTVSPost2010Prop48
 90
       50
102
RTVSPost2010PropOp48
 70
     1
102
RTVSPost2010Prop49
280
     0
102
RTVSPost2010PropOp49
 70
     1
102
RTVSPost2010Prop50
 90
       50
102
RTVSPost2010PropOp50
 70
     1
102
RTVSPost2010Prop51ColorIndex
 90
      256
102
RTVSPost2010Prop51ColorRGB
 90
-16777216
102
RTVSPost2010PropOp51
 70
     0
102
RTVSPost2010Prop52
140
1.0
102
RTVSPost2010PropOp52
 70
     0
102
RTVSPost2010Prop53
 90
        2
102
RTVSPost2010PropOp53
 70
     1
102
RTVSPost2010Prop54
  1
strokes_ogs.tif
102
RTVSPost2010PropOp54
 70
     1
102
RTVSPost2010Prop55
280
     0
102
RTVSPost2010PropOp55
 70
     1
102
RTVSPost2010Prop56
140
1.0
102
RTVSPost2010PropOp56
 70
     1
102
RTVSPost2010Prop57
140
1.0
102
RTVSPost2010PropOp57
 70
     1
102
RTVSPropertyOp0
 70
     1
102
RTVSPropertyOp1
 70
     1
102
RTVSPropertyOp2
 70
     1
102
RTVSPropertyOp3
 70
     1
102
RTVSPropertyOp4
 70
     1
102
RTVSPropertyOp5
 70
     1
102
RTVSPropertyOp6
 70
     1
102
RTVSPropertyOp7
 70
     1
102
RTVSPropertyOp8
 70
     1
102
RTVSPropertyOp9
 70
     1
102
RTVSPropertyOp10
 70
     1
102
RTVSPropertyOp11
 70
     1
102
RTVSPropertyOp12
 70
     1
102
RTVSPropertyOp13
 70
     1
102
RTVSPropertyOp14
 70
     1
102
RTVSPropertyOp15
 70
     1
102
RTVSPropertyOp16
 70
     1
102
RTVSPropertyOp17
 70
     1
102
RTVSPropertyOp18
 70
     1
102
RTVSPropertyOp19
 70
     1
102
RTVSPropertyOp20
 70
     1
102
RTVSPropertyOp21
 70
     1
102
RTVSPropertyOp22
 70
     1
102
RTVSPropertyOp23
 70
     1
102
RTVSPropertyOp24
 70
     1
102
RTVSPropertyOp25
 70
     1
102
RTVSPropertyOp26
 70
     1
102
RTVSPropertyOp27
 70
     1
102
RTVSPropertyOp28
 70
     1
102
RTVSPropertyOp29
 70
     1
102
RTVSPropertyOp30
 70
     1
102
RTVSPropertyOp31
 70
     1
102
RTVSPropertyOp32
 70
     1
102
RTVSPropertyOp33
 70
     1
102
RTVSPropertyOp34
 70
     1
102
RTVSPropertyOp35
 70
     1
102
RTVSPropertyOp36
 70
     1
102
RTVSPropertyOp37
 70
     1
102
RTVSPropertyOp38
 70
     1
102
RTVSPropertyOp39
 70
     1
102
RTVSPropertyOp40
 70
     1
102
RTVSPropertyOp41
 70
     1
102
RTVSPropertyOp42
 70
     1
102
RTVSPropertyOp43
 70
     1
102
RTVSPropertyOp44
 70
     1
102
RTVSPropertyOp45
 70
     1
102
RTVSPropertyOp46
 70
     1
102
RTVSPropertyOp47
 70
     1
102
RTVSPropertyOp48
 70
     1
102
RTVSPropertyOp49
 70
     1
102
RTVSPropertyOp50
 70
     1
102
RTVSPropertyOp51
 70
     0
102
RTVSPropertyOp52
 70
     0
102
RTVSPropertyOp53
 70
     1
102
RTVSPropertyOp54
 70
     1
102
RTVSPropertyOp55
 70
     1
102
RTVSPropertyOp56
 70
     1
102
RTVSPropertyOp57
 70
     1
102
RTVSPropertyOp58
 70
     1
102
RTVSPropertyOp59
 70
     1
102
RTVSPropertyOp60
 70
     1
102
RTVSPropertyOp61
 70
     1
102
RTVSPropertyOp62
 70
     1
  0
XRECORD
  5
B70F
102
{ACAD_REACTORS
330
B70E
102
}
330
B70E
100
AcDbXrecord
280
     1
102
RTVSPost2010Prop28
280
     0
102
RTVSPost2010PropOp28
 70
     1
102
RTVSPost2010Prop29
280
     1
102
RTVSPost2010PropOp29
 70
     1
102
RTVSPost2010Prop30
280
     1
102
RTVSPost2010PropOp30
 70
     1
102
RTVSPost2010Prop31
280
     0
102
RTVSPost2010PropOp31
 70
     1
102
RTVSPost2010Prop32
280
     0
102
RTVSPost2010PropOp32
 70
     1
102
RTVSPost2010Prop33
280
     0
102
RTVSPost2010PropOp33
 70
     1
102
RTVSPost2010Prop34
280
     0
102
RTVSPost2010PropOp34
 70
     1
102
RTVSPost2010Prop35
280
     0
102
RTVSPost2010PropOp35
 70
     1
102
RTVSPost2010Prop36
280
     0
102
RTVSPost2010PropOp36
 70
     1
102
RTVSPost2010Prop37
 90
       50
102
RTVSPost2010PropOp37
 70
     1
102
RTVSPost2010Prop38
140
0.0
102
RTVSPost2010PropOp38
 70
     1
102
RTVSPost2010Prop39
140
1.0
102
RTVSPost2010PropOp39
 70
     1
102
RTVSPost2010Prop40
 90
        0
102
RTVSPost2010PropOp40
 70
     1
102
RTVSPost2010Prop41ColorIndex
 90
       18
102
RTVSPost2010Prop41ColorRGB
 90
        0
102
RTVSPost2010PropOp41
 70
     1
102
RTVSPost2010Prop42
 90
       50
102
RTVSPost2010PropOp42
 70
     1
102
RTVSPost2010Prop43
 90
        3
102
RTVSPost2010PropOp43
 70
     1
102
RTVSPost2010Prop44ColorIndex
 90
        5
102
RTVSPost2010Prop44ColorRGB
 90
      255
102
RTVSPost2010PropOp44
 70
     1
102
RTVSPost2010Prop45
280
     0
102
RTVSPost2010PropOp45
 70
     1
102
RTVSPost2010Prop46
 90
       50
102
RTVSPost2010PropOp46
 70
     1
102
RTVSPost2010Prop47
 90
       50
102
RTVSPost2010PropOp47
 70
     1
102
RTVSPost2010Prop48
 90
       50
102
RTVSPost2010PropOp48
 70
     1
102
RTVSPost2010Prop49
280
     0
102
RTVSPost2010PropOp49
 70
     1
102
RTVSPost2010Prop50
 90
       50
102
RTVSPost2010PropOp50
 70
     1
102
RTVSPost2010Prop51ColorIndex
 90
      256
102
RTVSPost2010Prop51ColorRGB
 90
-16777216
102
RTVSPost2010PropOp51
 70
     0
102
RTVSPost2010Prop52
140
1.0
102
RTVSPost2010PropOp52
 70
     0
102
RTVSPost2010Prop53
 90
        2
102
RTVSPost2010PropOp53
 70
     1
102
RTVSPost2010Prop54
  1
strokes_ogs.tif
102
RTVSPost2010PropOp54
 70
     1
102
RTVSPost2010Prop55
280
     0
102
RTVSPost2010PropOp55
 70
     1
102
RTVSPost2010Prop56
140
1.0
102
RTVSPost2010PropOp56
 70
     1
102
RTVSPost2010Prop57
140
1.0
102
RTVSPost2010PropOp57
 70
     1
102
RTVSPropertyOp0
 70
     1
102
RTVSPropertyOp1
 70
     1
102
RTVSPropertyOp2
 70
     1
102
RTVSPropertyOp3
 70
     1
102
RTVSPropertyOp4
 70
     1
102
RTVSPropertyOp5
 70
     1
102
RTVSPropertyOp6
 70
     1
102
RTVSPropertyOp7
 70
     1
102
RTVSPropertyOp8
 70
     1
102
RTVSPropertyOp9
 70
     1
102
RTVSPropertyOp10
 70
     1
102
RTVSPropertyOp11
 70
     1
102
RTVSPropertyOp12
 70
     1
102
RTVSPropertyOp13
 70
     1
102
RTVSPropertyOp14
 70
     1
102
RTVSPropertyOp15
 70
     1
102
RTVSPropertyOp16
 70
     1
102
RTVSPropertyOp17
 70
     1
102
RTVSPropertyOp18
 70
     1
102
RTVSPropertyOp19
 70
     1
102
RTVSPropertyOp20
 70
     1
102
RTVSPropertyOp21
 70
     1
102
RTVSPropertyOp22
 70
     1
102
RTVSPropertyOp23
 70
     1
102
RTVSPropertyOp24
 70
     1
102
RTVSPropertyOp25
 70
     1
102
RTVSPropertyOp26
 70
     1
102
RTVSPropertyOp27
 70
     1
102
RTVSPropertyOp28
 70
     1
102
RTVSPropertyOp29
 70
     1
102
RTVSPropertyOp30
 70
     1
102
RTVSPropertyOp31
 70
     1
102
RTVSPropertyOp32
 70
     1
102
RTVSPropertyOp33
 70
     1
102
RTVSPropertyOp34
 70
     1
102
RTVSPropertyOp35
 70
     1
102
RTVSPropertyOp36
 70
     1
102
RTVSPropertyOp37
 70
     1
102
RTVSPropertyOp38
 70
     1
102
RTVSPropertyOp39
 70
     1
102
RTVSPropertyOp40
 70
     1
102
RTVSPropertyOp41
 70
     1
102
RTVSPropertyOp42
 70
     1
102
RTVSPropertyOp43
 70
     1
102
RTVSPropertyOp44
 70
     1
102
RTVSPropertyOp45
 70
     1
102
RTVSPropertyOp46
 70
     1
102
RTVSPropertyOp47
 70
     1
102
RTVSPropertyOp48
 70
     1
102
RTVSPropertyOp49
 70
     1
102
RTVSPropertyOp50
 70
     1
102
RTVSPropertyOp51
 70
     0
102
RTVSPropertyOp52
 70
     0
102
RTVSPropertyOp53
 70
     1
102
RTVSPropertyOp54
 70
     1
102
RTVSPropertyOp55
 70
     1
102
RTVSPropertyOp56
 70
     1
102
RTVSPropertyOp57
 70
     1
102
RTVSPropertyOp58
 70
     1
102
RTVSPropertyOp59
 70
     1
102
RTVSPropertyOp60
 70
     1
102
RTVSPropertyOp61
 70
     1
102
RTVSPropertyOp62
 70
     1
  0
XRECORD
  5
B701
102
{ACAD_REACTORS
330
B700
102
}
330
B700
100
AcDbXrecord
280
     1
102
RTVSPost2010Prop28
280
     0
102
RTVSPost2010PropOp28
 70
     1
102
RTVSPost2010Prop29
280
     1
102
RTVSPost2010PropOp29
 70
     1
102
RTVSPost2010Prop30
280
     1
102
RTVSPost2010PropOp30
 70
     1
102
RTVSPost2010Prop31
280
     0
102
RTVSPost2010PropOp31
 70
     1
102
RTVSPost2010Prop32
280
     0
102
RTVSPost2010PropOp32
 70
     1
102
RTVSPost2010Prop33
280
     0
102
RTVSPost2010PropOp33
 70
     1
102
RTVSPost2010Prop34
280
     0
102
RTVSPost2010PropOp34
 70
     1
102
RTVSPost2010Prop35
280
     0
102
RTVSPost2010PropOp35
 70
     1
102
RTVSPost2010Prop36
280
     0
102
RTVSPost2010PropOp36
 70
     1
102
RTVSPost2010Prop37
 90
       50
102
RTVSPost2010PropOp37
 70
     1
102
RTVSPost2010Prop38
140
0.0
102
RTVSPost2010PropOp38
 70
     1
102
RTVSPost2010Prop39
140
1.0
102
RTVSPost2010PropOp39
 70
     1
102
RTVSPost2010Prop40
 90
        0
102
RTVSPost2010PropOp40
 70
     1
102
RTVSPost2010Prop41ColorIndex
 90
       18
102
RTVSPost2010Prop41ColorRGB
 90
        0
102
RTVSPost2010PropOp41
 70
     1
102
RTVSPost2010Prop42
 90
       50
102
RTVSPost2010PropOp42
 70
     1
102
RTVSPost2010Prop43
 90
        3
102
RTVSPost2010PropOp43
 70
     1
102
RTVSPost2010Prop44ColorIndex
 90
        5
102
RTVSPost2010Prop44ColorRGB
 90
      255
102
RTVSPost2010PropOp44
 70
     1
102
RTVSPost2010Prop45
280
     0
102
RTVSPost2010PropOp45
 70
     1
102
RTVSPost2010Prop46
 90
       50
102
RTVSPost2010PropOp46
 70
     1
102
RTVSPost2010Prop47
 90
       50
102
RTVSPost2010PropOp47
 70
     1
102
RTVSPost2010Prop48
 90
       50
102
RTVSPost2010PropOp48
 70
     1
102
RTVSPost2010Prop49
280
     0
102
RTVSPost2010PropOp49
 70
     1
102
RTVSPost2010Prop50
 90
       50
102
RTVSPost2010PropOp50
 70
     1
102
RTVSPost2010Prop51ColorIndex
 90
      256
102
RTVSPost2010Prop51ColorRGB
 90
-16777216
102
RTVSPost2010PropOp51
 70
     0
102
RTVSPost2010Prop52
140
1.0
102
RTVSPost2010PropOp52
 70
     0
102
RTVSPost2010Prop53
 90
        2
102
RTVSPost2010PropOp53
 70
     1
102
RTVSPost2010Prop54
  1
strokes_ogs.tif
102
RTVSPost2010PropOp54
 70
     1
102
RTVSPost2010Prop55
280
     0
102
RTVSPost2010PropOp55
 70
     1
102
RTVSPost2010Prop56
140
1.0
102
RTVSPost2010PropOp56
 70
     1
102
RTVSPost2010Prop57
140
1.0
102
RTVSPost2010PropOp57
 70
     1
102
RTVSPropertyOp0
 70
     1
102
RTVSPropertyOp1
 70
     1
102
RTVSPropertyOp2
 70
     1
102
RTVSPropertyOp3
 70
     1
102
RTVSPropertyOp4
 70
     1
102
RTVSPropertyOp5
 70
     1
102
RTVSPropertyOp6
 70
     1
102
RTVSPropertyOp7
 70
     1
102
RTVSPropertyOp8
 70
     1
102
RTVSPropertyOp9
 70
     1
102
RTVSPropertyOp10
 70
     1
102
RTVSPropertyOp11
 70
     1
102
RTVSPropertyOp12
 70
     1
102
RTVSPropertyOp13
 70
     1
102
RTVSPropertyOp14
 70
     1
102
RTVSPropertyOp15
 70
     1
102
RTVSPropertyOp16
 70
     1
102
RTVSPropertyOp17
 70
     1
102
RTVSPropertyOp18
 70
     1
102
RTVSPropertyOp19
 70
     1
102
RTVSPropertyOp20
 70
     1
102
RTVSPropertyOp21
 70
     1
102
RTVSPropertyOp22
 70
     1
102
RTVSPropertyOp23
 70
     1
102
RTVSPropertyOp24
 70
     1
102
RTVSPropertyOp25
 70
     1
102
RTVSPropertyOp26
 70
     1
102
RTVSPropertyOp27
 70
     1
102
RTVSPropertyOp28
 70
     1
102
RTVSPropertyOp29
 70
     1
102
RTVSPropertyOp30
 70
     1
102
RTVSPropertyOp31
 70
     1
102
RTVSPropertyOp32
 70
     1
102
RTVSPropertyOp33
 70
     1
102
RTVSPropertyOp34
 70
     1
102
RTVSPropertyOp35
 70
     1
102
RTVSPropertyOp36
 70
     1
102
RTVSPropertyOp37
 70
     1
102
RTVSPropertyOp38
 70
     1
102
RTVSPropertyOp39
 70
     1
102
RTVSPropertyOp40
 70
     1
102
RTVSPropertyOp41
 70
     1
102
RTVSPropertyOp42
 70
     1
102
RTVSPropertyOp43
 70
     1
102
RTVSPropertyOp44
 70
     1
102
RTVSPropertyOp45
 70
     1
102
RTVSPropertyOp46
 70
     1
102
RTVSPropertyOp47
 70
     1
102
RTVSPropertyOp48
 70
     1
102
RTVSPropertyOp49
 70
     1
102
RTVSPropertyOp50
 70
     1
102
RTVSPropertyOp51
 70
     0
102
RTVSPropertyOp52
 70
     0
102
RTVSPropertyOp53
 70
     1
102
RTVSPropertyOp54
 70
     1
102
RTVSPropertyOp55
 70
     1
102
RTVSPropertyOp56
 70
     1
102
RTVSPropertyOp57
 70
     1
102
RTVSPropertyOp58
 70
     1
102
RTVSPropertyOp59
 70
     1
102
RTVSPropertyOp60
 70
     1
102
RTVSPropertyOp61
 70
     1
102
RTVSPropertyOp62
 70
     1
  0
XRECORD
  5
B705
102
{ACAD_REACTORS
330
B704
102
}
330
B704
100
AcDbXrecord
280
     1
102
RTVSPost2010Prop28
280
     0
102
RTVSPost2010PropOp28
 70
     1
102
RTVSPost2010Prop29
280
     1
102
RTVSPost2010PropOp29
 70
     1
102
RTVSPost2010Prop30
280
     1
102
RTVSPost2010PropOp30
 70
     1
102
RTVSPost2010Prop31
280
     0
102
RTVSPost2010PropOp31
 70
     1
102
RTVSPost2010Prop32
280
     0
102
RTVSPost2010PropOp32
 70
     1
102
RTVSPost2010Prop33
280
     0
102
RTVSPost2010PropOp33
 70
     1
102
RTVSPost2010Prop34
280
     0
102
RTVSPost2010PropOp34
 70
     1
102
RTVSPost2010Prop35
280
     0
102
RTVSPost2010PropOp35
 70
     1
102
RTVSPost2010Prop36
280
     0
102
RTVSPost2010PropOp36
 70
     1
102
RTVSPost2010Prop37
 90
       50
102
RTVSPost2010PropOp37
 70
     1
102
RTVSPost2010Prop38
140
0.0
102
RTVSPost2010PropOp38
 70
     1
102
RTVSPost2010Prop39
140
1.0
102
RTVSPost2010PropOp39
 70
     1
102
RTVSPost2010Prop40
 90
        0
102
RTVSPost2010PropOp40
 70
     1
102
RTVSPost2010Prop41ColorIndex
 90
       18
102
RTVSPost2010Prop41ColorRGB
 90
        0
102
RTVSPost2010PropOp41
 70
     1
102
RTVSPost2010Prop42
 90
       50
102
RTVSPost2010PropOp42
 70
     1
102
RTVSPost2010Prop43
 90
        3
102
RTVSPost2010PropOp43
 70
     1
102
RTVSPost2010Prop44ColorIndex
 90
        5
102
RTVSPost2010Prop44ColorRGB
 90
      255
102
RTVSPost2010PropOp44
 70
     1
102
RTVSPost2010Prop45
280
     0
102
RTVSPost2010PropOp45
 70
     1
102
RTVSPost2010Prop46
 90
       50
102
RTVSPost2010PropOp46
 70
     1
102
RTVSPost2010Prop47
 90
       50
102
RTVSPost2010PropOp47
 70
     1
102
RTVSPost2010Prop48
 90
       50
102
RTVSPost2010PropOp48
 70
     1
102
RTVSPost2010Prop49
280
     0
102
RTVSPost2010PropOp49
 70
     1
102
RTVSPost2010Prop50
 90
       50
102
RTVSPost2010PropOp50
 70
     1
102
RTVSPost2010Prop51ColorIndex
 90
      256
102
RTVSPost2010Prop51ColorRGB
 90
-16777216
102
RTVSPost2010PropOp51
 70
     0
102
RTVSPost2010Prop52
140
1.0
102
RTVSPost2010PropOp52
 70
     0
102
RTVSPost2010Prop53
 90
        2
102
RTVSPost2010PropOp53
 70
     1
102
RTVSPost2010Prop54
  1
strokes_ogs.tif
102
RTVSPost2010PropOp54
 70
     1
102
RTVSPost2010Prop55
280
     0
102
RTVSPost2010PropOp55
 70
     1
102
RTVSPost2010Prop56
140
1.0
102
RTVSPost2010PropOp56
 70
     1
102
RTVSPost2010Prop57
140
1.0
102
RTVSPost2010PropOp57
 70
     1
102
RTVSPropertyOp0
 70
     1
102
RTVSPropertyOp1
 70
     1
102
RTVSPropertyOp2
 70
     1
102
RTVSPropertyOp3
 70
     1
102
RTVSPropertyOp4
 70
     1
102
RTVSPropertyOp5
 70
     1
102
RTVSPropertyOp6
 70
     1
102
RTVSPropertyOp7
 70
     1
102
RTVSPropertyOp8
 70
     1
102
RTVSPropertyOp9
 70
     1
102
RTVSPropertyOp10
 70
     1
102
RTVSPropertyOp11
 70
     1
102
RTVSPropertyOp12
 70
     1
102
RTVSPropertyOp13
 70
     1
102
RTVSPropertyOp14
 70
     1
102
RTVSPropertyOp15
 70
     1
102
RTVSPropertyOp16
 70
     1
102
RTVSPropertyOp17
 70
     1
102
RTVSPropertyOp18
 70
     1
102
RTVSPropertyOp19
 70
     1
102
RTVSPropertyOp20
 70
     1
102
RTVSPropertyOp21
 70
     1
102
RTVSPropertyOp22
 70
     1
102
RTVSPropertyOp23
 70
     1
102
RTVSPropertyOp24
 70
     1
102
RTVSPropertyOp25
 70
     1
102
RTVSPropertyOp26
 70
     1
102
RTVSPropertyOp27
 70
     1
102
RTVSPropertyOp28
 70
     1
102
RTVSPropertyOp29
 70
     1
102
RTVSPropertyOp30
 70
     1
102
RTVSPropertyOp31
 70
     1
102
RTVSPropertyOp32
 70
     1
102
RTVSPropertyOp33
 70
     1
102
RTVSPropertyOp34
 70
     1
102
RTVSPropertyOp35
 70
     1
102
RTVSPropertyOp36
 70
     1
102
RTVSPropertyOp37
 70
     1
102
RTVSPropertyOp38
 70
     1
102
RTVSPropertyOp39
 70
     1
102
RTVSPropertyOp40
 70
     1
102
RTVSPropertyOp41
 70
     1
102
RTVSPropertyOp42
 70
     1
102
RTVSPropertyOp43
 70
     1
102
RTVSPropertyOp44
 70
     1
102
RTVSPropertyOp45
 70
     1
102
RTVSPropertyOp46
 70
     1
102
RTVSPropertyOp47
 70
     1
102
RTVSPropertyOp48
 70
     1
102
RTVSPropertyOp49
 70
     1
102
RTVSPropertyOp50
 70
     1
102
RTVSPropertyOp51
 70
     0
102
RTVSPropertyOp52
 70
     0
102
RTVSPropertyOp53
 70
     1
102
RTVSPropertyOp54
 70
     1
102
RTVSPropertyOp55
 70
     1
102
RTVSPropertyOp56
 70
     1
102
RTVSPropertyOp57
 70
     1
102
RTVSPropertyOp58
 70
     1
102
RTVSPropertyOp59
 70
     1
102
RTVSPropertyOp60
 70
     1
102
RTVSPropertyOp61
 70
     1
102
RTVSPropertyOp62
 70
     1
  0
XRECORD
  5
B71F
102
{ACAD_REACTORS
330
B71E
102
}
330
B71E
100
AcDbXrecord
280
     1
102
RTVSPost2010Prop28
280
     0
102
RTVSPost2010PropOp28
 70
     1
102
RTVSPost2010Prop29
280
     1
102
RTVSPost2010PropOp29
 70
     1
102
RTVSPost2010Prop30
280
     1
102
RTVSPost2010PropOp30
 70
     1
102
RTVSPost2010Prop31
280
     0
102
RTVSPost2010PropOp31
 70
     1
102
RTVSPost2010Prop32
280
     0
102
RTVSPost2010PropOp32
 70
     1
102
RTVSPost2010Prop33
280
     0
102
RTVSPost2010PropOp33
 70
     1
102
RTVSPost2010Prop34
280
     0
102
RTVSPost2010PropOp34
 70
     1
102
RTVSPost2010Prop35
280
     0
102
RTVSPost2010PropOp35
 70
     1
102
RTVSPost2010Prop36
280
     0
102
RTVSPost2010PropOp36
 70
     1
102
RTVSPost2010Prop37
 90
       50
102
RTVSPost2010PropOp37
 70
     0
102
RTVSPost2010Prop38
140
0.0
102
RTVSPost2010PropOp38
 70
     0
102
RTVSPost2010Prop39
140
1.0
102
RTVSPost2010PropOp39
 70
     0
102
RTVSPost2010Prop40
 90
        0
102
RTVSPost2010PropOp40
 70
     0
102
RTVSPost2010Prop41ColorIndex
 90
       18
102
RTVSPost2010Prop41ColorRGB
 90
        0
102
RTVSPost2010PropOp41
 70
     0
102
RTVSPost2010Prop42
 90
       50
102
RTVSPost2010PropOp42
 70
     0
102
RTVSPost2010Prop43
 90
        3
102
RTVSPost2010PropOp43
 70
     0
102
RTVSPost2010Prop44ColorIndex
 90
        5
102
RTVSPost2010Prop44ColorRGB
 90
      255
102
RTVSPost2010PropOp44
 70
     0
102
RTVSPost2010Prop45
280
     0
102
RTVSPost2010PropOp45
 70
     1
102
RTVSPost2010Prop46
 90
       50
102
RTVSPost2010PropOp46
 70
     0
102
RTVSPost2010Prop47
 90
       50
102
RTVSPost2010PropOp47
 70
     0
102
RTVSPost2010Prop48
 90
       50
102
RTVSPost2010PropOp48
 70
     0
102
RTVSPost2010Prop49
280
     0
102
RTVSPost2010PropOp49
 70
     1
102
RTVSPost2010Prop50
 90
       50
102
RTVSPost2010PropOp50
 70
     0
102
RTVSPost2010Prop51ColorIndex
 90
      256
102
RTVSPost2010Prop51ColorRGB
 90
-16777216
102
RTVSPost2010PropOp51
 70
     0
102
RTVSPost2010Prop52
140
1.0
102
RTVSPost2010PropOp52
 70
     0
102
RTVSPost2010Prop53
 90
        2
102
RTVSPost2010PropOp53
 70
     0
102
RTVSPost2010Prop54
  1
strokes_ogs.tif
102
RTVSPost2010PropOp54
 70
     0
102
RTVSPost2010Prop55
280
     0
102
RTVSPost2010PropOp55
 70
     1
102
RTVSPost2010Prop56
140
1.0
102
RTVSPost2010PropOp56
 70
     0
102
RTVSPost2010Prop57
140
1.0
102
RTVSPost2010PropOp57
 70
     0
102
RTVSPropertyOp0
 70
     0
102
RTVSPropertyOp1
 70
     0
102
RTVSPropertyOp2
 70
     0
102
RTVSPropertyOp3
 70
     0
102
RTVSPropertyOp4
 70
     0
102
RTVSPropertyOp5
 70
     0
102
RTVSPropertyOp6
 70
     0
102
RTVSPropertyOp7
 70
     0
102
RTVSPropertyOp8
 70
     0
102
RTVSPropertyOp9
 70
     0
102
RTVSPropertyOp10
 70
     0
102
RTVSPropertyOp11
 70
     0
102
RTVSPropertyOp12
 70
     0
102
RTVSPropertyOp13
 70
     0
102
RTVSPropertyOp14
 70
     2
102
RTVSPropertyOp15
 70
     0
102
RTVSPropertyOp16
 70
     0
102
RTVSPropertyOp17
 70
     0
102
RTVSPropertyOp18
 70
     0
102
RTVSPropertyOp19
 70
     0
102
RTVSPropertyOp20
 70
     0
102
RTVSPropertyOp21
 70
     0
102
RTVSPropertyOp22
 70
     0
102
RTVSPropertyOp23
 70
     0
102
RTVSPropertyOp24
 70
     0
102
RTVSPropertyOp25
 70
     0
102
RTVSPropertyOp26
 70
     0
102
RTVSPropertyOp27
 70
     0
102
RTVSPropertyOp28
 70
     1
102
RTVSPropertyOp29
 70
     1
102
RTVSPropertyOp30
 70
     1
102
RTVSPropertyOp31
 70
     1
102
RTVSPropertyOp32
 70
     1
102
RTVSPropertyOp33
 70
     1
102
RTVSPropertyOp34
 70
     1
102
RTVSPropertyOp35
 70
     1
102
RTVSPropertyOp36
 70
     1
102
RTVSPropertyOp37
 70
     0
102
RTVSPropertyOp38
 70
     0
102
RTVSPropertyOp39
 70
     0
102
RTVSPropertyOp40
 70
     0
102
RTVSPropertyOp41
 70
     0
102
RTVSPropertyOp42
 70
     0
102
RTVSPropertyOp43
 70
     0
102
RTVSPropertyOp44
 70
     0
102
RTVSPropertyOp45
 70
     1
102
RTVSPropertyOp46
 70
     0
102
RTVSPropertyOp47
 70
     0
102
RTVSPropertyOp48
 70
     0
102
RTVSPropertyOp49
 70
     1
102
RTVSPropertyOp50
 70
     0
102
RTVSPropertyOp51
 70
     0
102
RTVSPropertyOp52
 70
     0
102
RTVSPropertyOp53
 70
     0
102
RTVSPropertyOp54
 70
     0
102
RTVSPropertyOp55
 70
     1
102
RTVSPropertyOp56
 70
     0
102
RTVSPropertyOp57
 70
     0
102
RTVSPropertyOp58
 70
     0
102
RTVSPropertyOp59
 70
     0
102
RTVSPropertyOp60
 70
     0
102
RTVSPropertyOp61
 70
     0
102
RTVSPropertyOp62
 70
     0
  0
XRECORD
  5
B70D
102
{ACAD_REACTORS
330
B70C
102
}
330
B70C
100
AcDbXrecord
280
     1
102
RTVSPost2010Prop28
280
     0
102
RTVSPost2010PropOp28
 70
     1
102
RTVSPost2010Prop29
280
     1
102
RTVSPost2010PropOp29
 70
     1
102
RTVSPost2010Prop30
280
     1
102
RTVSPost2010PropOp30
 70
     1
102
RTVSPost2010Prop31
280
     0
102
RTVSPost2010PropOp31
 70
     1
102
RTVSPost2010Prop32
280
     0
102
RTVSPost2010PropOp32
 70
     1
102
RTVSPost2010Prop33
280
     0
102
RTVSPost2010PropOp33
 70
     1
102
RTVSPost2010Prop34
280
     0
102
RTVSPost2010PropOp34
 70
     1
102
RTVSPost2010Prop35
280
     0
102
RTVSPost2010PropOp35
 70
     1
102
RTVSPost2010Prop36
280
     0
102
RTVSPost2010PropOp36
 70
     1
102
RTVSPost2010Prop37
 90
       50
102
RTVSPost2010PropOp37
 70
     1
102
RTVSPost2010Prop38
140
0.0
102
RTVSPost2010PropOp38
 70
     1
102
RTVSPost2010Prop39
140
1.0
102
RTVSPost2010PropOp39
 70
     1
102
RTVSPost2010Prop40
 90
        0
102
RTVSPost2010PropOp40
 70
     1
102
RTVSPost2010Prop41ColorIndex
 90
       18
102
RTVSPost2010Prop41ColorRGB
 90
        0
102
RTVSPost2010PropOp41
 70
     1
102
RTVSPost2010Prop42
 90
       50
102
RTVSPost2010PropOp42
 70
     1
102
RTVSPost2010Prop43
 90
        3
102
RTVSPost2010PropOp43
 70
     1
102
RTVSPost2010Prop44ColorIndex
 90
        5
102
RTVSPost2010Prop44ColorRGB
 90
      255
102
RTVSPost2010PropOp44
 70
     1
102
RTVSPost2010Prop45
280
     0
102
RTVSPost2010PropOp45
 70
     1
102
RTVSPost2010Prop46
 90
       50
102
RTVSPost2010PropOp46
 70
     1
102
RTVSPost2010Prop47
 90
       50
102
RTVSPost2010PropOp47
 70
     1
102
RTVSPost2010Prop48
 90
       50
102
RTVSPost2010PropOp48
 70
     1
102
RTVSPost2010Prop49
280
     0
102
RTVSPost2010PropOp49
 70
     1
102
RTVSPost2010Prop50
 90
       50
102
RTVSPost2010PropOp50
 70
     1
102
RTVSPost2010Prop51ColorIndex
 90
      256
102
RTVSPost2010Prop51ColorRGB
 90
-16777216
102
RTVSPost2010PropOp51
 70
     0
102
RTVSPost2010Prop52
140
1.0
102
RTVSPost2010PropOp52
 70
     0
102
RTVSPost2010Prop53
 90
        2
102
RTVSPost2010PropOp53
 70
     1
102
RTVSPost2010Prop54
  1
strokes_ogs.tif
102
RTVSPost2010PropOp54
 70
     1
102
RTVSPost2010Prop55
280
     0
102
RTVSPost2010PropOp55
 70
     1
102
RTVSPost2010Prop56
140
1.0
102
RTVSPost2010PropOp56
 70
     1
102
RTVSPost2010Prop57
140
1.0
102
RTVSPost2010PropOp57
 70
     1
102
RTVSPropertyOp0
 70
     1
102
RTVSPropertyOp1
 70
     1
102
RTVSPropertyOp2
 70
     1
102
RTVSPropertyOp3
 70
     1
102
RTVSPropertyOp4
 70
     1
102
RTVSPropertyOp5
 70
     1
102
RTVSPropertyOp6
 70
     1
102
RTVSPropertyOp7
 70
     1
102
RTVSPropertyOp8
 70
     1
102
RTVSPropertyOp9
 70
     1
102
RTVSPropertyOp10
 70
     1
102
RTVSPropertyOp11
 70
     1
102
RTVSPropertyOp12
 70
     1
102
RTVSPropertyOp13
 70
     1
102
RTVSPropertyOp14
 70
     1
102
RTVSPropertyOp15
 70
     1
102
RTVSPropertyOp16
 70
     1
102
RTVSPropertyOp17
 70
     1
102
RTVSPropertyOp18
 70
     1
102
RTVSPropertyOp19
 70
     1
102
RTVSPropertyOp20
 70
     1
102
RTVSPropertyOp21
 70
     1
102
RTVSPropertyOp22
 70
     1
102
RTVSPropertyOp23
 70
     1
102
RTVSPropertyOp24
 70
     1
102
RTVSPropertyOp25
 70
     1
102
RTVSPropertyOp26
 70
     1
102
RTVSPropertyOp27
 70
     1
102
RTVSPropertyOp28
 70
     1
102
RTVSPropertyOp29
 70
     1
102
RTVSPropertyOp30
 70
     1
102
RTVSPropertyOp31
 70
     1
102
RTVSPropertyOp32
 70
     1
102
RTVSPropertyOp33
 70
     1
102
RTVSPropertyOp34
 70
     1
102
RTVSPropertyOp35
 70
     1
102
RTVSPropertyOp36
 70
     1
102
RTVSPropertyOp37
 70
     1
102
RTVSPropertyOp38
 70
     1
102
RTVSPropertyOp39
 70
     1
102
RTVSPropertyOp40
 70
     1
102
RTVSPropertyOp41
 70
     1
102
RTVSPropertyOp42
 70
     1
102
RTVSPropertyOp43
 70
     1
102
RTVSPropertyOp44
 70
     1
102
RTVSPropertyOp45
 70
     1
102
RTVSPropertyOp46
 70
     1
102
RTVSPropertyOp47
 70
     1
102
RTVSPropertyOp48
 70
     1
102
RTVSPropertyOp49
 70
     1
102
RTVSPropertyOp50
 70
     1
102
RTVSPropertyOp51
 70
     0
102
RTVSPropertyOp52
 70
     0
102
RTVSPropertyOp53
 70
     1
102
RTVSPropertyOp54
 70
     1
102
RTVSPropertyOp55
 70
     1
102
RTVSPropertyOp56
 70
     1
102
RTVSPropertyOp57
 70
     1
102
RTVSPropertyOp58
 70
     1
102
RTVSPropertyOp59
 70
     1
102
RTVSPropertyOp60
 70
     1
102
RTVSPropertyOp61
 70
     1
102
RTVSPropertyOp62
 70
     1
  0
XRECORD
  5
B6F1
102
{ACAD_REACTORS
330
B6F0
102
}
330
B6F0
100
AcDbXrecord
280
     1
102
RTVSPost2010Prop28
280
     0
102
RTVSPost2010PropOp28
 70
     1
102
RTVSPost2010Prop29
280
     1
102
RTVSPost2010PropOp29
 70
     1
102
RTVSPost2010Prop30
280
     1
102
RTVSPost2010PropOp30
 70
     1
102
RTVSPost2010Prop31
280
     0
102
RTVSPost2010PropOp31
 70
     1
102
RTVSPost2010Prop32
280
     0
102
RTVSPost2010PropOp32
 70
     1
102
RTVSPost2010Prop33
280
     0
102
RTVSPost2010PropOp33
 70
     1
102
RTVSPost2010Prop34
280
     0
102
RTVSPost2010PropOp34
 70
     1
102
RTVSPost2010Prop35
280
     0
102
RTVSPost2010PropOp35
 70
     1
102
RTVSPost2010Prop36
280
     0
102
RTVSPost2010PropOp36
 70
     1
102
RTVSPost2010Prop37
 90
       50
102
RTVSPost2010PropOp37
 70
     1
102
RTVSPost2010Prop38
140
0.0
102
RTVSPost2010PropOp38
 70
     1
102
RTVSPost2010Prop39
140
1.0
102
RTVSPost2010PropOp39
 70
     1
102
RTVSPost2010Prop40
 90
        0
102
RTVSPost2010PropOp40
 70
     1
102
RTVSPost2010Prop41ColorIndex
 90
       18
102
RTVSPost2010Prop41ColorRGB
 90
        0
102
RTVSPost2010PropOp41
 70
     1
102
RTVSPost2010Prop42
 90
       50
102
RTVSPost2010PropOp42
 70
     1
102
RTVSPost2010Prop43
 90
        3
102
RTVSPost2010PropOp43
 70
     1
102
RTVSPost2010Prop44ColorIndex
 90
        5
102
RTVSPost2010Prop44ColorRGB
 90
      255
102
RTVSPost2010PropOp44
 70
     1
102
RTVSPost2010Prop45
280
     0
102
RTVSPost2010PropOp45
 70
     1
102
RTVSPost2010Prop46
 90
       50
102
RTVSPost2010PropOp46
 70
     1
102
RTVSPost2010Prop47
 90
       50
102
RTVSPost2010PropOp47
 70
     1
102
RTVSPost2010Prop48
 90
       50
102
RTVSPost2010PropOp48
 70
     1
102
RTVSPost2010Prop49
280
     0
102
RTVSPost2010PropOp49
 70
     1
102
RTVSPost2010Prop50
 90
       50
102
RTVSPost2010PropOp50
 70
     1
102
RTVSPost2010Prop51ColorIndex
 90
      256
102
RTVSPost2010Prop51ColorRGB
 90
-16777216
102
RTVSPost2010PropOp51
 70
     0
102
RTVSPost2010Prop52
140
1.0
102
RTVSPost2010PropOp52
 70
     0
102
RTVSPost2010Prop53
 90
        2
102
RTVSPost2010PropOp53
 70
     1
102
RTVSPost2010Prop54
  1
strokes_ogs.tif
102
RTVSPost2010PropOp54
 70
     1
102
RTVSPost2010Prop55
280
     0
102
RTVSPost2010PropOp55
 70
     1
102
RTVSPost2010Prop56
140
1.0
102
RTVSPost2010PropOp56
 70
     1
102
RTVSPost2010Prop57
140
1.0
102
RTVSPost2010PropOp57
 70
     1
102
RTVSPropertyOp0
 70
     1
102
RTVSPropertyOp1
 70
     1
102
RTVSPropertyOp2
 70
     1
102
RTVSPropertyOp3
 70
     1
102
RTVSPropertyOp4
 70
     1
102
RTVSPropertyOp5
 70
     1
102
RTVSPropertyOp6
 70
     1
102
RTVSPropertyOp7
 70
     1
102
RTVSPropertyOp8
 70
     1
102
RTVSPropertyOp9
 70
     1
102
RTVSPropertyOp10
 70
     1
102
RTVSPropertyOp11
 70
     1
102
RTVSPropertyOp12
 70
     1
102
RTVSPropertyOp13
 70
     1
102
RTVSPropertyOp14
 70
     1
102
RTVSPropertyOp15
 70
     1
102
RTVSPropertyOp16
 70
     1
102
RTVSPropertyOp17
 70
     1
102
RTVSPropertyOp18
 70
     1
102
RTVSPropertyOp19
 70
     1
102
RTVSPropertyOp20
 70
     1
102
RTVSPropertyOp21
 70
     1
102
RTVSPropertyOp22
 70
     1
102
RTVSPropertyOp23
 70
     1
102
RTVSPropertyOp24
 70
     1
102
RTVSPropertyOp25
 70
     1
102
RTVSPropertyOp26
 70
     1
102
RTVSPropertyOp27
 70
     1
102
RTVSPropertyOp28
 70
     1
102
RTVSPropertyOp29
 70
     1
102
RTVSPropertyOp30
 70
     1
102
RTVSPropertyOp31
 70
     1
102
RTVSPropertyOp32
 70
     1
102
RTVSPropertyOp33
 70
     1
102
RTVSPropertyOp34
 70
     1
102
RTVSPropertyOp35
 70
     1
102
RTVSPropertyOp36
 70
     1
102
RTVSPropertyOp37
 70
     1
102
RTVSPropertyOp38
 70
     1
102
RTVSPropertyOp39
 70
     1
102
RTVSPropertyOp40
 70
     1
102
RTVSPropertyOp41
 70
     1
102
RTVSPropertyOp42
 70
     1
102
RTVSPropertyOp43
 70
     1
102
RTVSPropertyOp44
 70
     1
102
RTVSPropertyOp45
 70
     1
102
RTVSPropertyOp46
 70
     1
102
RTVSPropertyOp47
 70
     1
102
RTVSPropertyOp48
 70
     1
102
RTVSPropertyOp49
 70
     1
102
RTVSPropertyOp50
 70
     1
102
RTVSPropertyOp51
 70
     0
102
RTVSPropertyOp52
 70
     0
102
RTVSPropertyOp53
 70
     1
102
RTVSPropertyOp54
 70
     1
102
RTVSPropertyOp55
 70
     1
102
RTVSPropertyOp56
 70
     1
102
RTVSPropertyOp57
 70
     1
102
RTVSPropertyOp58
 70
     1
102
RTVSPropertyOp59
 70
     1
102
RTVSPropertyOp60
 70
     1
102
RTVSPropertyOp61
 70
     1
102
RTVSPropertyOp62
 70
     1
  0
XRECORD
  5
B6F3
102
{ACAD_REACTORS
330
B6F2
102
}
330
B6F2
100
AcDbXrecord
280
     1
102
RTVSPost2010Prop28
280
     0
102
RTVSPost2010PropOp28
 70
     1
102
RTVSPost2010Prop29
280
     1
102
RTVSPost2010PropOp29
 70
     1
102
RTVSPost2010Prop30
280
     1
102
RTVSPost2010PropOp30
 70
     1
102
RTVSPost2010Prop31
280
     0
102
RTVSPost2010PropOp31
 70
     1
102
RTVSPost2010Prop32
280
     0
102
RTVSPost2010PropOp32
 70
     1
102
RTVSPost2010Prop33
280
     0
102
RTVSPost2010PropOp33
 70
     1
102
RTVSPost2010Prop34
280
     0
102
RTVSPost2010PropOp34
 70
     1
102
RTVSPost2010Prop35
280
     0
102
RTVSPost2010PropOp35
 70
     1
102
RTVSPost2010Prop36
280
     0
102
RTVSPost2010PropOp36
 70
     1
102
RTVSPost2010Prop37
 90
       50
102
RTVSPost2010PropOp37
 70
     1
102
RTVSPost2010Prop38
140
0.0
102
RTVSPost2010PropOp38
 70
     1
102
RTVSPost2010Prop39
140
1.0
102
RTVSPost2010PropOp39
 70
     1
102
RTVSPost2010Prop40
 90
        0
102
RTVSPost2010PropOp40
 70
     1
102
RTVSPost2010Prop41ColorIndex
 90
       18
102
RTVSPost2010Prop41ColorRGB
 90
        0
102
RTVSPost2010PropOp41
 70
     1
102
RTVSPost2010Prop42
 90
       50
102
RTVSPost2010PropOp42
 70
     1
102
RTVSPost2010Prop43
 90
        3
102
RTVSPost2010PropOp43
 70
     1
102
RTVSPost2010Prop44ColorIndex
 90
        5
102
RTVSPost2010Prop44ColorRGB
 90
      255
102
RTVSPost2010PropOp44
 70
     1
102
RTVSPost2010Prop45
280
     0
102
RTVSPost2010PropOp45
 70
     1
102
RTVSPost2010Prop46
 90
       50
102
RTVSPost2010PropOp46
 70
     1
102
RTVSPost2010Prop47
 90
       50
102
RTVSPost2010PropOp47
 70
     1
102
RTVSPost2010Prop48
 90
       50
102
RTVSPost2010PropOp48
 70
     1
102
RTVSPost2010Prop49
280
     0
102
RTVSPost2010PropOp49
 70
     1
102
RTVSPost2010Prop50
 90
       50
102
RTVSPost2010PropOp50
 70
     1
102
RTVSPost2010Prop51ColorIndex
 90
      256
102
RTVSPost2010Prop51ColorRGB
 90
-16777216
102
RTVSPost2010PropOp51
 70
     0
102
RTVSPost2010Prop52
140
1.0
102
RTVSPost2010PropOp52
 70
     0
102
RTVSPost2010Prop53
 90
        2
102
RTVSPost2010PropOp53
 70
     1
102
RTVSPost2010Prop54
  1
strokes_ogs.tif
102
RTVSPost2010PropOp54
 70
     1
102
RTVSPost2010Prop55
280
     0
102
RTVSPost2010PropOp55
 70
     1
102
RTVSPost2010Prop56
140
1.0
102
RTVSPost2010PropOp56
 70
     1
102
RTVSPost2010Prop57
140
1.0
102
RTVSPost2010PropOp57
 70
     1
102
RTVSPropertyOp0
 70
     1
102
RTVSPropertyOp1
 70
     1
102
RTVSPropertyOp2
 70
     1
102
RTVSPropertyOp3
 70
     1
102
RTVSPropertyOp4
 70
     1
102
RTVSPropertyOp5
 70
     1
102
RTVSPropertyOp6
 70
     1
102
RTVSPropertyOp7
 70
     1
102
RTVSPropertyOp8
 70
     1
102
RTVSPropertyOp9
 70
     1
102
RTVSPropertyOp10
 70
     1
102
RTVSPropertyOp11
 70
     1
102
RTVSPropertyOp12
 70
     1
102
RTVSPropertyOp13
 70
     1
102
RTVSPropertyOp14
 70
     1
102
RTVSPropertyOp15
 70
     1
102
RTVSPropertyOp16
 70
     1
102
RTVSPropertyOp17
 70
     1
102
RTVSPropertyOp18
 70
     1
102
RTVSPropertyOp19
 70
     1
102
RTVSPropertyOp20
 70
     1
102
RTVSPropertyOp21
 70
     1
102
RTVSPropertyOp22
 70
     1
102
RTVSPropertyOp23
 70
     1
102
RTVSPropertyOp24
 70
     1
102
RTVSPropertyOp25
 70
     1
102
RTVSPropertyOp26
 70
     1
102
RTVSPropertyOp27
 70
     1
102
RTVSPropertyOp28
 70
     1
102
RTVSPropertyOp29
 70
     1
102
RTVSPropertyOp30
 70
     1
102
RTVSPropertyOp31
 70
     1
102
RTVSPropertyOp32
 70
     1
102
RTVSPropertyOp33
 70
     1
102
RTVSPropertyOp34
 70
     1
102
RTVSPropertyOp35
 70
     1
102
RTVSPropertyOp36
 70
     1
102
RTVSPropertyOp37
 70
     1
102
RTVSPropertyOp38
 70
     1
102
RTVSPropertyOp39
 70
     1
102
RTVSPropertyOp40
 70
     1
102
RTVSPropertyOp41
 70
     1
102
RTVSPropertyOp42
 70
     1
102
RTVSPropertyOp43
 70
     1
102
RTVSPropertyOp44
 70
     1
102
RTVSPropertyOp45
 70
     1
102
RTVSPropertyOp46
 70
     1
102
RTVSPropertyOp47
 70
     1
102
RTVSPropertyOp48
 70
     1
102
RTVSPropertyOp49
 70
     1
102
RTVSPropertyOp50
 70
     1
102
RTVSPropertyOp51
 70
     0
102
RTVSPropertyOp52
 70
     0
102
RTVSPropertyOp53
 70
     1
102
RTVSPropertyOp54
 70
     1
102
RTVSPropertyOp55
 70
     1
102
RTVSPropertyOp56
 70
     1
102
RTVSPropertyOp57
 70
     1
102
RTVSPropertyOp58
 70
     1
102
RTVSPropertyOp59
 70
     1
102
RTVSPropertyOp60
 70
     1
102
RTVSPropertyOp61
 70
     1
102
RTVSPropertyOp62
 70
     1
  0
XRECORD
  5
B6F5
102
{ACAD_REACTORS
330
B6F4
102
}
330
B6F4
100
AcDbXrecord
280
     1
102
RTVSPost2010Prop28
280
     0
102
RTVSPost2010PropOp28
 70
     1
102
RTVSPost2010Prop29
280
     1
102
RTVSPost2010PropOp29
 70
     1
102
RTVSPost2010Prop30
280
     1
102
RTVSPost2010PropOp30
 70
     1
102
RTVSPost2010Prop31
280
     0
102
RTVSPost2010PropOp31
 70
     1
102
RTVSPost2010Prop32
280
     0
102
RTVSPost2010PropOp32
 70
     1
102
RTVSPost2010Prop33
280
     0
102
RTVSPost2010PropOp33
 70
     1
102
RTVSPost2010Prop34
280
     0
102
RTVSPost2010PropOp34
 70
     1
102
RTVSPost2010Prop35
280
     0
102
RTVSPost2010PropOp35
 70
     1
102
RTVSPost2010Prop36
280
     0
102
RTVSPost2010PropOp36
 70
     1
102
RTVSPost2010Prop37
 90
       50
102
RTVSPost2010PropOp37
 70
     1
102
RTVSPost2010Prop38
140
0.0
102
RTVSPost2010PropOp38
 70
     1
102
RTVSPost2010Prop39
140
1.0
102
RTVSPost2010PropOp39
 70
     1
102
RTVSPost2010Prop40
 90
        0
102
RTVSPost2010PropOp40
 70
     1
102
RTVSPost2010Prop41ColorIndex
 90
       18
102
RTVSPost2010Prop41ColorRGB
 90
        0
102
RTVSPost2010PropOp41
 70
     1
102
RTVSPost2010Prop42
 90
       50
102
RTVSPost2010PropOp42
 70
     1
102
RTVSPost2010Prop43
 90
        3
102
RTVSPost2010PropOp43
 70
     1
102
RTVSPost2010Prop44ColorIndex
 90
        5
102
RTVSPost2010Prop44ColorRGB
 90
      255
102
RTVSPost2010PropOp44
 70
     1
102
RTVSPost2010Prop45
280
     0
102
RTVSPost2010PropOp45
 70
     1
102
RTVSPost2010Prop46
 90
       50
102
RTVSPost2010PropOp46
 70
     1
102
RTVSPost2010Prop47
 90
       50
102
RTVSPost2010PropOp47
 70
     1
102
RTVSPost2010Prop48
 90
       50
102
RTVSPost2010PropOp48
 70
     1
102
RTVSPost2010Prop49
280
     0
102
RTVSPost2010PropOp49
 70
     1
102
RTVSPost2010Prop50
 90
       50
102
RTVSPost2010PropOp50
 70
     1
102
RTVSPost2010Prop51ColorIndex
 90
      256
102
RTVSPost2010Prop51ColorRGB
 90
-16777216
102
RTVSPost2010PropOp51
 70
     0
102
RTVSPost2010Prop52
140
1.0
102
RTVSPost2010PropOp52
 70
     0
102
RTVSPost2010Prop53
 90
        2
102
RTVSPost2010PropOp53
 70
     1
102
RTVSPost2010Prop54
  1
strokes_ogs.tif
102
RTVSPost2010PropOp54
 70
     1
102
RTVSPost2010Prop55
280
     0
102
RTVSPost2010PropOp55
 70
     1
102
RTVSPost2010Prop56
140
1.0
102
RTVSPost2010PropOp56
 70
     1
102
RTVSPost2010Prop57
140
1.0
102
RTVSPost2010PropOp57
 70
     1
102
RTVSPropertyOp0
 70
     1
102
RTVSPropertyOp1
 70
     1
102
RTVSPropertyOp2
 70
     1
102
RTVSPropertyOp3
 70
     1
102
RTVSPropertyOp4
 70
     1
102
RTVSPropertyOp5
 70
     1
102
RTVSPropertyOp6
 70
     1
102
RTVSPropertyOp7
 70
     1
102
RTVSPropertyOp8
 70
     1
102
RTVSPropertyOp9
 70
     1
102
RTVSPropertyOp10
 70
     1
102
RTVSPropertyOp11
 70
     1
102
RTVSPropertyOp12
 70
     1
102
RTVSPropertyOp13
 70
     1
102
RTVSPropertyOp14
 70
     1
102
RTVSPropertyOp15
 70
     1
102
RTVSPropertyOp16
 70
     1
102
RTVSPropertyOp17
 70
     1
102
RTVSPropertyOp18
 70
     1
102
RTVSPropertyOp19
 70
     1
102
RTVSPropertyOp20
 70
     1
102
RTVSPropertyOp21
 70
     1
102
RTVSPropertyOp22
 70
     1
102
RTVSPropertyOp23
 70
     1
102
RTVSPropertyOp24
 70
     1
102
RTVSPropertyOp25
 70
     1
102
RTVSPropertyOp26
 70
     1
102
RTVSPropertyOp27
 70
     1
102
RTVSPropertyOp28
 70
     1
102
RTVSPropertyOp29
 70
     1
102
RTVSPropertyOp30
 70
     1
102
RTVSPropertyOp31
 70
     1
102
RTVSPropertyOp32
 70
     1
102
RTVSPropertyOp33
 70
     1
102
RTVSPropertyOp34
 70
     1
102
RTVSPropertyOp35
 70
     1
102
RTVSPropertyOp36
 70
     1
102
RTVSPropertyOp37
 70
     1
102
RTVSPropertyOp38
 70
     1
102
RTVSPropertyOp39
 70
     1
102
RTVSPropertyOp40
 70
     1
102
RTVSPropertyOp41
 70
     1
102
RTVSPropertyOp42
 70
     1
102
RTVSPropertyOp43
 70
     1
102
RTVSPropertyOp44
 70
     1
102
RTVSPropertyOp45
 70
     1
102
RTVSPropertyOp46
 70
     1
102
RTVSPropertyOp47
 70
     1
102
RTVSPropertyOp48
 70
     1
102
RTVSPropertyOp49
 70
     1
102
RTVSPropertyOp50
 70
     1
102
RTVSPropertyOp51
 70
     0
102
RTVSPropertyOp52
 70
     0
102
RTVSPropertyOp53
 70
     1
102
RTVSPropertyOp54
 70
     1
102
RTVSPropertyOp55
 70
     1
102
RTVSPropertyOp56
 70
     1
102
RTVSPropertyOp57
 70
     1
102
RTVSPropertyOp58
 70
     1
102
RTVSPropertyOp59
 70
     1
102
RTVSPropertyOp60
 70
     1
102
RTVSPropertyOp61
 70
     1
102
RTVSPropertyOp62
 70
     1
  0
XRECORD
  5
B6F7
102
{ACAD_REACTORS
330
B6F6
102
}
330
B6F6
100
AcDbXrecord
280
     1
102
RTVSPost2010Prop28
280
     0
102
RTVSPost2010PropOp28
 70
     1
102
RTVSPost2010Prop29
280
     1
102
RTVSPost2010PropOp29
 70
     1
102
RTVSPost2010Prop30
280
     1
102
RTVSPost2010PropOp30
 70
     1
102
RTVSPost2010Prop31
280
     0
102
RTVSPost2010PropOp31
 70
     1
102
RTVSPost2010Prop32
280
     0
102
RTVSPost2010PropOp32
 70
     1
102
RTVSPost2010Prop33
280
     0
102
RTVSPost2010PropOp33
 70
     1
102
RTVSPost2010Prop34
280
     0
102
RTVSPost2010PropOp34
 70
     1
102
RTVSPost2010Prop35
280
     0
102
RTVSPost2010PropOp35
 70
     1
102
RTVSPost2010Prop36
280
     0
102
RTVSPost2010PropOp36
 70
     1
102
RTVSPost2010Prop37
 90
       50
102
RTVSPost2010PropOp37
 70
     1
102
RTVSPost2010Prop38
140
0.0
102
RTVSPost2010PropOp38
 70
     1
102
RTVSPost2010Prop39
140
1.0
102
RTVSPost2010PropOp39
 70
     1
102
RTVSPost2010Prop40
 90
        0
102
RTVSPost2010PropOp40
 70
     1
102
RTVSPost2010Prop41ColorIndex
 90
       18
102
RTVSPost2010Prop41ColorRGB
 90
        0
102
RTVSPost2010PropOp41
 70
     1
102
RTVSPost2010Prop42
 90
       50
102
RTVSPost2010PropOp42
 70
     1
102
RTVSPost2010Prop43
 90
        3
102
RTVSPost2010PropOp43
 70
     1
102
RTVSPost2010Prop44ColorIndex
 90
        5
102
RTVSPost2010Prop44ColorRGB
 90
      255
102
RTVSPost2010PropOp44
 70
     1
102
RTVSPost2010Prop45
280
     0
102
RTVSPost2010PropOp45
 70
     1
102
RTVSPost2010Prop46
 90
       50
102
RTVSPost2010PropOp46
 70
     1
102
RTVSPost2010Prop47
 90
       50
102
RTVSPost2010PropOp47
 70
     1
102
RTVSPost2010Prop48
 90
       50
102
RTVSPost2010PropOp48
 70
     1
102
RTVSPost2010Prop49
280
     0
102
RTVSPost2010PropOp49
 70
     1
102
RTVSPost2010Prop50
 90
       50
102
RTVSPost2010PropOp50
 70
     1
102
RTVSPost2010Prop51ColorIndex
 90
      256
102
RTVSPost2010Prop51ColorRGB
 90
-16777216
102
RTVSPost2010PropOp51
 70
     0
102
RTVSPost2010Prop52
140
1.0
102
RTVSPost2010PropOp52
 70
     0
102
RTVSPost2010Prop53
 90
        2
102
RTVSPost2010PropOp53
 70
     1
102
RTVSPost2010Prop54
  1
strokes_ogs.tif
102
RTVSPost2010PropOp54
 70
     1
102
RTVSPost2010Prop55
280
     0
102
RTVSPost2010PropOp55
 70
     1
102
RTVSPost2010Prop56
140
1.0
102
RTVSPost2010PropOp56
 70
     1
102
RTVSPost2010Prop57
140
1.0
102
RTVSPost2010PropOp57
 70
     1
102
RTVSPropertyOp0
 70
     1
102
RTVSPropertyOp1
 70
     1
102
RTVSPropertyOp2
 70
     1
102
RTVSPropertyOp3
 70
     1
102
RTVSPropertyOp4
 70
     1
102
RTVSPropertyOp5
 70
     1
102
RTVSPropertyOp6
 70
     1
102
RTVSPropertyOp7
 70
     1
102
RTVSPropertyOp8
 70
     1
102
RTVSPropertyOp9
 70
     1
102
RTVSPropertyOp10
 70
     1
102
RTVSPropertyOp11
 70
     1
102
RTVSPropertyOp12
 70
     1
102
RTVSPropertyOp13
 70
     1
102
RTVSPropertyOp14
 70
     1
102
RTVSPropertyOp15
 70
     1
102
RTVSPropertyOp16
 70
     1
102
RTVSPropertyOp17
 70
     1
102
RTVSPropertyOp18
 70
     1
102
RTVSPropertyOp19
 70
     1
102
RTVSPropertyOp20
 70
     1
102
RTVSPropertyOp21
 70
     1
102
RTVSPropertyOp22
 70
     1
102
RTVSPropertyOp23
 70
     1
102
RTVSPropertyOp24
 70
     1
102
RTVSPropertyOp25
 70
     1
102
RTVSPropertyOp26
 70
     1
102
RTVSPropertyOp27
 70
     1
102
RTVSPropertyOp28
 70
     1
102
RTVSPropertyOp29
 70
     1
102
RTVSPropertyOp30
 70
     1
102
RTVSPropertyOp31
 70
     1
102
RTVSPropertyOp32
 70
     1
102
RTVSPropertyOp33
 70
     1
102
RTVSPropertyOp34
 70
     1
102
RTVSPropertyOp35
 70
     1
102
RTVSPropertyOp36
 70
     1
102
RTVSPropertyOp37
 70
     1
102
RTVSPropertyOp38
 70
     1
102
RTVSPropertyOp39
 70
     1
102
RTVSPropertyOp40
 70
     1
102
RTVSPropertyOp41
 70
     1
102
RTVSPropertyOp42
 70
     1
102
RTVSPropertyOp43
 70
     1
102
RTVSPropertyOp44
 70
     1
102
RTVSPropertyOp45
 70
     1
102
RTVSPropertyOp46
 70
     1
102
RTVSPropertyOp47
 70
     1
102
RTVSPropertyOp48
 70
     1
102
RTVSPropertyOp49
 70
     1
102
RTVSPropertyOp50
 70
     1
102
RTVSPropertyOp51
 70
     0
102
RTVSPropertyOp52
 70
     0
102
RTVSPropertyOp53
 70
     1
102
RTVSPropertyOp54
 70
     1
102
RTVSPropertyOp55
 70
     1
102
RTVSPropertyOp56
 70
     1
102
RTVSPropertyOp57
 70
     1
102
RTVSPropertyOp58
 70
     1
102
RTVSPropertyOp59
 70
     1
102
RTVSPropertyOp60
 70
     1
102
RTVSPropertyOp61
 70
     1
102
RTVSPropertyOp62
 70
     1
  0
XRECORD
  5
B6FF
102
{ACAD_REACTORS
330
B6FE
102
}
330
B6FE
100
AcDbXrecord
280
     1
102
RTVSPost2010Prop28
280
     0
102
RTVSPost2010PropOp28
 70
     1
102
RTVSPost2010Prop29
280
     1
102
RTVSPost2010PropOp29
 70
     1
102
RTVSPost2010Prop30
280
     1
102
RTVSPost2010PropOp30
 70
     1
102
RTVSPost2010Prop31
280
     0
102
RTVSPost2010PropOp31
 70
     1
102
RTVSPost2010Prop32
280
     0
102
RTVSPost2010PropOp32
 70
     1
102
RTVSPost2010Prop33
280
     0
102
RTVSPost2010PropOp33
 70
     1
102
RTVSPost2010Prop34
280
     0
102
RTVSPost2010PropOp34
 70
     1
102
RTVSPost2010Prop35
280
     0
102
RTVSPost2010PropOp35
 70
     1
102
RTVSPost2010Prop36
280
     0
102
RTVSPost2010PropOp36
 70
     1
102
RTVSPost2010Prop37
 90
       50
102
RTVSPost2010PropOp37
 70
     1
102
RTVSPost2010Prop38
140
0.0
102
RTVSPost2010PropOp38
 70
     1
102
RTVSPost2010Prop39
140
1.0
102
RTVSPost2010PropOp39
 70
     1
102
RTVSPost2010Prop40
 90
        0
102
RTVSPost2010PropOp40
 70
     1
102
RTVSPost2010Prop41ColorIndex
 90
       18
102
RTVSPost2010Prop41ColorRGB
 90
        0
102
RTVSPost2010PropOp41
 70
     1
102
RTVSPost2010Prop42
 90
       50
102
RTVSPost2010PropOp42
 70
     1
102
RTVSPost2010Prop43
 90
        3
102
RTVSPost2010PropOp43
 70
     1
102
RTVSPost2010Prop44ColorIndex
 90
        5
102
RTVSPost2010Prop44ColorRGB
 90
      255
102
RTVSPost2010PropOp44
 70
     1
102
RTVSPost2010Prop45
280
     0
102
RTVSPost2010PropOp45
 70
     1
102
RTVSPost2010Prop46
 90
       50
102
RTVSPost2010PropOp46
 70
     1
102
RTVSPost2010Prop47
 90
       50
102
RTVSPost2010PropOp47
 70
     1
102
RTVSPost2010Prop48
 90
       50
102
RTVSPost2010PropOp48
 70
     1
102
RTVSPost2010Prop49
280
     0
102
RTVSPost2010PropOp49
 70
     1
102
RTVSPost2010Prop50
 90
       50
102
RTVSPost2010PropOp50
 70
     1
102
RTVSPost2010Prop51ColorIndex
 90
      256
102
RTVSPost2010Prop51ColorRGB
 90
-16777216
102
RTVSPost2010PropOp51
 70
     0
102
RTVSPost2010Prop52
140
1.0
102
RTVSPost2010PropOp52
 70
     0
102
RTVSPost2010Prop53
 90
        2
102
RTVSPost2010PropOp53
 70
     1
102
RTVSPost2010Prop54
  1
strokes_ogs.tif
102
RTVSPost2010PropOp54
 70
     1
102
RTVSPost2010Prop55
280
     0
102
RTVSPost2010PropOp55
 70
     1
102
RTVSPost2010Prop56
140
1.0
102
RTVSPost2010PropOp56
 70
     1
102
RTVSPost2010Prop57
140
1.0
102
RTVSPost2010PropOp57
 70
     1
102
RTVSPropertyOp0
 70
     1
102
RTVSPropertyOp1
 70
     1
102
RTVSPropertyOp2
 70
     1
102
RTVSPropertyOp3
 70
     1
102
RTVSPropertyOp4
 70
     1
102
RTVSPropertyOp5
 70
     1
102
RTVSPropertyOp6
 70
     1
102
RTVSPropertyOp7
 70
     1
102
RTVSPropertyOp8
 70
     1
102
RTVSPropertyOp9
 70
     1
102
RTVSPropertyOp10
 70
     1
102
RTVSPropertyOp11
 70
     1
102
RTVSPropertyOp12
 70
     1
102
RTVSPropertyOp13
 70
     1
102
RTVSPropertyOp14
 70
     1
102
RTVSPropertyOp15
 70
     1
102
RTVSPropertyOp16
 70
     1
102
RTVSPropertyOp17
 70
     1
102
RTVSPropertyOp18
 70
     1
102
RTVSPropertyOp19
 70
     1
102
RTVSPropertyOp20
 70
     1
102
RTVSPropertyOp21
 70
     1
102
RTVSPropertyOp22
 70
     1
102
RTVSPropertyOp23
 70
     1
102
RTVSPropertyOp24
 70
     1
102
RTVSPropertyOp25
 70
     1
102
RTVSPropertyOp26
 70
     1
102
RTVSPropertyOp27
 70
     1
102
RTVSPropertyOp28
 70
     1
102
RTVSPropertyOp29
 70
     1
102
RTVSPropertyOp30
 70
     1
102
RTVSPropertyOp31
 70
     1
102
RTVSPropertyOp32
 70
     1
102
RTVSPropertyOp33
 70
     1
102
RTVSPropertyOp34
 70
     1
102
RTVSPropertyOp35
 70
     1
102
RTVSPropertyOp36
 70
     1
102
RTVSPropertyOp37
 70
     1
102
RTVSPropertyOp38
 70
     1
102
RTVSPropertyOp39
 70
     1
102
RTVSPropertyOp40
 70
     1
102
RTVSPropertyOp41
 70
     1
102
RTVSPropertyOp42
 70
     1
102
RTVSPropertyOp43
 70
     1
102
RTVSPropertyOp44
 70
     1
102
RTVSPropertyOp45
 70
     1
102
RTVSPropertyOp46
 70
     1
102
RTVSPropertyOp47
 70
     1
102
RTVSPropertyOp48
 70
     1
102
RTVSPropertyOp49
 70
     1
102
RTVSPropertyOp50
 70
     1
102
RTVSPropertyOp51
 70
     0
102
RTVSPropertyOp52
 70
     0
102
RTVSPropertyOp53
 70
     1
102
RTVSPropertyOp54
 70
     1
102
RTVSPropertyOp55
 70
     1
102
RTVSPropertyOp56
 70
     1
102
RTVSPropertyOp57
 70
     1
102
RTVSPropertyOp58
 70
     1
102
RTVSPropertyOp59
 70
     1
102
RTVSPropertyOp60
 70
     1
102
RTVSPropertyOp61
 70
     1
102
RTVSPropertyOp62
 70
     1
  0
XRECORD
  5
B71B
102
{ACAD_REACTORS
330
B71A
102
}
330
B71A
100
AcDbXrecord
280
     1
102
RTVSPost2010Prop28
280
     0
102
RTVSPost2010PropOp28
 70
     1
102
RTVSPost2010Prop29
280
     1
102
RTVSPost2010PropOp29
 70
     1
102
RTVSPost2010Prop30
280
     1
102
RTVSPost2010PropOp30
 70
     1
102
RTVSPost2010Prop31
280
     0
102
RTVSPost2010PropOp31
 70
     1
102
RTVSPost2010Prop32
280
     0
102
RTVSPost2010PropOp32
 70
     1
102
RTVSPost2010Prop33
280
     0
102
RTVSPost2010PropOp33
 70
     1
102
RTVSPost2010Prop34
280
     0
102
RTVSPost2010PropOp34
 70
     1
102
RTVSPost2010Prop35
280
     0
102
RTVSPost2010PropOp35
 70
     1
102
RTVSPost2010Prop36
280
     0
102
RTVSPost2010PropOp36
 70
     1
102
RTVSPost2010Prop37
 90
       50
102
RTVSPost2010PropOp37
 70
     0
102
RTVSPost2010Prop38
140
0.0
102
RTVSPost2010PropOp38
 70
     0
102
RTVSPost2010Prop39
140
1.0
102
RTVSPost2010PropOp39
 70
     0
102
RTVSPost2010Prop40
 90
        0
102
RTVSPost2010PropOp40
 70
     0
102
RTVSPost2010Prop41ColorIndex
 90
       18
102
RTVSPost2010Prop41ColorRGB
 90
        0
102
RTVSPost2010PropOp41
 70
     0
102
RTVSPost2010Prop42
 90
       50
102
RTVSPost2010PropOp42
 70
     0
102
RTVSPost2010Prop43
 90
        3
102
RTVSPost2010PropOp43
 70
     0
102
RTVSPost2010Prop44ColorIndex
 90
        5
102
RTVSPost2010Prop44ColorRGB
 90
      255
102
RTVSPost2010PropOp44
 70
     0
102
RTVSPost2010Prop45
280
     0
102
RTVSPost2010PropOp45
 70
     1
102
RTVSPost2010Prop46
 90
       50
102
RTVSPost2010PropOp46
 70
     0
102
RTVSPost2010Prop47
 90
       50
102
RTVSPost2010PropOp47
 70
     0
102
RTVSPost2010Prop48
 90
       50
102
RTVSPost2010PropOp48
 70
     0
102
RTVSPost2010Prop49
280
     0
102
RTVSPost2010PropOp49
 70
     1
102
RTVSPost2010Prop50
 90
       50
102
RTVSPost2010PropOp50
 70
     0
102
RTVSPost2010Prop51ColorIndex
 90
      256
102
RTVSPost2010Prop51ColorRGB
 90
-16777216
102
RTVSPost2010PropOp51
 70
     0
102
RTVSPost2010Prop52
140
1.0
102
RTVSPost2010PropOp52
 70
     0
102
RTVSPost2010Prop53
 90
        2
102
RTVSPost2010PropOp53
 70
     0
102
RTVSPost2010Prop54
  1
strokes_ogs.tif
102
RTVSPost2010PropOp54
 70
     0
102
RTVSPost2010Prop55
280
     0
102
RTVSPost2010PropOp55
 70
     1
102
RTVSPost2010Prop56
140
1.0
102
RTVSPost2010PropOp56
 70
     0
102
RTVSPost2010Prop57
140
1.0
102
RTVSPost2010PropOp57
 70
     0
102
RTVSPropertyOp0
 70
     0
102
RTVSPropertyOp1
 70
     0
102
RTVSPropertyOp2
 70
     0
102
RTVSPropertyOp3
 70
     0
102
RTVSPropertyOp4
 70
     0
102
RTVSPropertyOp5
 70
     0
102
RTVSPropertyOp6
 70
     0
102
RTVSPropertyOp7
 70
     0
102
RTVSPropertyOp8
 70
     0
102
RTVSPropertyOp9
 70
     0
102
RTVSPropertyOp10
 70
     0
102
RTVSPropertyOp11
 70
     0
102
RTVSPropertyOp12
 70
     0
102
RTVSPropertyOp13
 70
     0
102
RTVSPropertyOp14
 70
     2
102
RTVSPropertyOp15
 70
     0
102
RTVSPropertyOp16
 70
     0
102
RTVSPropertyOp17
 70
     0
102
RTVSPropertyOp18
 70
     0
102
RTVSPropertyOp19
 70
     0
102
RTVSPropertyOp20
 70
     0
102
RTVSPropertyOp21
 70
     0
102
RTVSPropertyOp22
 70
     0
102
RTVSPropertyOp23
 70
     0
102
RTVSPropertyOp24
 70
     0
102
RTVSPropertyOp25
 70
     0
102
RTVSPropertyOp26
 70
     0
102
RTVSPropertyOp27
 70
     0
102
RTVSPropertyOp28
 70
     1
102
RTVSPropertyOp29
 70
     1
102
RTVSPropertyOp30
 70
     1
102
RTVSPropertyOp31
 70
     1
102
RTVSPropertyOp32
 70
     1
102
RTVSPropertyOp33
 70
     1
102
RTVSPropertyOp34
 70
     1
102
RTVSPropertyOp35
 70
     1
102
RTVSPropertyOp36
 70
     1
102
RTVSPropertyOp37
 70
     0
102
RTVSPropertyOp38
 70
     0
102
RTVSPropertyOp39
 70
     0
102
RTVSPropertyOp40
 70
     0
102
RTVSPropertyOp41
 70
     0
102
RTVSPropertyOp42
 70
     0
102
RTVSPropertyOp43
 70
     0
102
RTVSPropertyOp44
 70
     0
102
RTVSPropertyOp45
 70
     1
102
RTVSPropertyOp46
 70
     0
102
RTVSPropertyOp47
 70
     0
102
RTVSPropertyOp48
 70
     0
102
RTVSPropertyOp49
 70
     1
102
RTVSPropertyOp50
 70
     0
102
RTVSPropertyOp51
 70
     0
102
RTVSPropertyOp52
 70
     0
102
RTVSPropertyOp53
 70
     0
102
RTVSPropertyOp54
 70
     0
102
RTVSPropertyOp55
 70
     1
102
RTVSPropertyOp56
 70
     0
102
RTVSPropertyOp57
 70
     0
102
RTVSPropertyOp58
 70
     0
102
RTVSPropertyOp59
 70
     0
102
RTVSPropertyOp60
 70
     0
102
RTVSPropertyOp61
 70
     0
102
RTVSPropertyOp62
 70
     0
  0
XRECORD
  5
B70B
102
{ACAD_REACTORS
330
B70A
102
}
330
B70A
100
AcDbXrecord
280
     1
102
RTVSPost2010Prop28
280
     0
102
RTVSPost2010PropOp28
 70
     1
102
RTVSPost2010Prop29
280
     1
102
RTVSPost2010PropOp29
 70
     1
102
RTVSPost2010Prop30
280
     1
102
RTVSPost2010PropOp30
 70
     1
102
RTVSPost2010Prop31
280
     0
102
RTVSPost2010PropOp31
 70
     1
102
RTVSPost2010Prop32
280
     0
102
RTVSPost2010PropOp32
 70
     1
102
RTVSPost2010Prop33
280
     0
102
RTVSPost2010PropOp33
 70
     1
102
RTVSPost2010Prop34
280
     0
102
RTVSPost2010PropOp34
 70
     1
102
RTVSPost2010Prop35
280
     0
102
RTVSPost2010PropOp35
 70
     1
102
RTVSPost2010Prop36
280
     0
102
RTVSPost2010PropOp36
 70
     1
102
RTVSPost2010Prop37
 90
       50
102
RTVSPost2010PropOp37
 70
     1
102
RTVSPost2010Prop38
140
0.0
102
RTVSPost2010PropOp38
 70
     1
102
RTVSPost2010Prop39
140
1.0
102
RTVSPost2010PropOp39
 70
     1
102
RTVSPost2010Prop40
 90
        0
102
RTVSPost2010PropOp40
 70
     1
102
RTVSPost2010Prop41ColorIndex
 90
       18
102
RTVSPost2010Prop41ColorRGB
 90
        0
102
RTVSPost2010PropOp41
 70
     1
102
RTVSPost2010Prop42
 90
       50
102
RTVSPost2010PropOp42
 70
     1
102
RTVSPost2010Prop43
 90
        3
102
RTVSPost2010PropOp43
 70
     1
102
RTVSPost2010Prop44ColorIndex
 90
        5
102
RTVSPost2010Prop44ColorRGB
 90
      255
102
RTVSPost2010PropOp44
 70
     1
102
RTVSPost2010Prop45
280
     0
102
RTVSPost2010PropOp45
 70
     1
102
RTVSPost2010Prop46
 90
       50
102
RTVSPost2010PropOp46
 70
     1
102
RTVSPost2010Prop47
 90
       50
102
RTVSPost2010PropOp47
 70
     1
102
RTVSPost2010Prop48
 90
       50
102
RTVSPost2010PropOp48
 70
     1
102
RTVSPost2010Prop49
280
     0
102
RTVSPost2010PropOp49
 70
     1
102
RTVSPost2010Prop50
 90
       50
102
RTVSPost2010PropOp50
 70
     1
102
RTVSPost2010Prop51ColorIndex
 90
      256
102
RTVSPost2010Prop51ColorRGB
 90
-16777216
102
RTVSPost2010PropOp51
 70
     0
102
RTVSPost2010Prop52
140
1.0
102
RTVSPost2010PropOp52
 70
     0
102
RTVSPost2010Prop53
 90
        2
102
RTVSPost2010PropOp53
 70
     1
102
RTVSPost2010Prop54
  1
strokes_ogs.tif
102
RTVSPost2010PropOp54
 70
     1
102
RTVSPost2010Prop55
280
     0
102
RTVSPost2010PropOp55
 70
     1
102
RTVSPost2010Prop56
140
1.0
102
RTVSPost2010PropOp56
 70
     1
102
RTVSPost2010Prop57
140
1.0
102
RTVSPost2010PropOp57
 70
     1
102
RTVSPropertyOp0
 70
     1
102
RTVSPropertyOp1
 70
     1
102
RTVSPropertyOp2
 70
     1
102
RTVSPropertyOp3
 70
     1
102
RTVSPropertyOp4
 70
     1
102
RTVSPropertyOp5
 70
     1
102
RTVSPropertyOp6
 70
     1
102
RTVSPropertyOp7
 70
     1
102
RTVSPropertyOp8
 70
     1
102
RTVSPropertyOp9
 70
     1
102
RTVSPropertyOp10
 70
     1
102
RTVSPropertyOp11
 70
     1
102
RTVSPropertyOp12
 70
     1
102
RTVSPropertyOp13
 70
     1
102
RTVSPropertyOp14
 70
     1
102
RTVSPropertyOp15
 70
     1
102
RTVSPropertyOp16
 70
     1
102
RTVSPropertyOp17
 70
     1
102
RTVSPropertyOp18
 70
     1
102
RTVSPropertyOp19
 70
     1
102
RTVSPropertyOp20
 70
     1
102
RTVSPropertyOp21
 70
     1
102
RTVSPropertyOp22
 70
     1
102
RTVSPropertyOp23
 70
     1
102
RTVSPropertyOp24
 70
     1
102
RTVSPropertyOp25
 70
     1
102
RTVSPropertyOp26
 70
     1
102
RTVSPropertyOp27
 70
     1
102
RTVSPropertyOp28
 70
     1
102
RTVSPropertyOp29
 70
     1
102
RTVSPropertyOp30
 70
     1
102
RTVSPropertyOp31
 70
     1
102
RTVSPropertyOp32
 70
     1
102
RTVSPropertyOp33
 70
     1
102
RTVSPropertyOp34
 70
     1
102
RTVSPropertyOp35
 70
     1
102
RTVSPropertyOp36
 70
     1
102
RTVSPropertyOp37
 70
     1
102
RTVSPropertyOp38
 70
     1
102
RTVSPropertyOp39
 70
     1
102
RTVSPropertyOp40
 70
     1
102
RTVSPropertyOp41
 70
     1
102
RTVSPropertyOp42
 70
     1
102
RTVSPropertyOp43
 70
     1
102
RTVSPropertyOp44
 70
     1
102
RTVSPropertyOp45
 70
     1
102
RTVSPropertyOp46
 70
     1
102
RTVSPropertyOp47
 70
     1
102
RTVSPropertyOp48
 70
     1
102
RTVSPropertyOp49
 70
     1
102
RTVSPropertyOp50
 70
     1
102
RTVSPropertyOp51
 70
     0
102
RTVSPropertyOp52
 70
     0
102
RTVSPropertyOp53
 70
     1
102
RTVSPropertyOp54
 70
     1
102
RTVSPropertyOp55
 70
     1
102
RTVSPropertyOp56
 70
     1
102
RTVSPropertyOp57
 70
     1
102
RTVSPropertyOp58
 70
     1
102
RTVSPropertyOp59
 70
     1
102
RTVSPropertyOp60
 70
     1
102
RTVSPropertyOp61
 70
     1
102
RTVSPropertyOp62
 70
     1
  0
XRECORD
  5
B71D
102
{ACAD_REACTORS
330
B71C
102
}
330
B71C
100
AcDbXrecord
280
     1
102
RTVSPost2010Prop28
280
     0
102
RTVSPost2010PropOp28
 70
     1
102
RTVSPost2010Prop29
280
     1
102
RTVSPost2010PropOp29
 70
     1
102
RTVSPost2010Prop30
280
     1
102
RTVSPost2010PropOp30
 70
     1
102
RTVSPost2010Prop31
280
     0
102
RTVSPost2010PropOp31
 70
     1
102
RTVSPost2010Prop32
280
     0
102
RTVSPost2010PropOp32
 70
     1
102
RTVSPost2010Prop33
280
     0
102
RTVSPost2010PropOp33
 70
     1
102
RTVSPost2010Prop34
280
     0
102
RTVSPost2010PropOp34
 70
     1
102
RTVSPost2010Prop35
280
     0
102
RTVSPost2010PropOp35
 70
     1
102
RTVSPost2010Prop36
280
     0
102
RTVSPost2010PropOp36
 70
     1
102
RTVSPost2010Prop37
 90
       50
102
RTVSPost2010PropOp37
 70
     0
102
RTVSPost2010Prop38
140
0.0
102
RTVSPost2010PropOp38
 70
     0
102
RTVSPost2010Prop39
140
1.0
102
RTVSPost2010PropOp39
 70
     0
102
RTVSPost2010Prop40
 90
        0
102
RTVSPost2010PropOp40
 70
     0
102
RTVSPost2010Prop41ColorIndex
 90
       18
102
RTVSPost2010Prop41ColorRGB
 90
        0
102
RTVSPost2010PropOp41
 70
     0
102
RTVSPost2010Prop42
 90
       50
102
RTVSPost2010PropOp42
 70
     0
102
RTVSPost2010Prop43
 90
        3
102
RTVSPost2010PropOp43
 70
     0
102
RTVSPost2010Prop44ColorIndex
 90
        5
102
RTVSPost2010Prop44ColorRGB
 90
      255
102
RTVSPost2010PropOp44
 70
     0
102
RTVSPost2010Prop45
280
     0
102
RTVSPost2010PropOp45
 70
     1
102
RTVSPost2010Prop46
 90
       50
102
RTVSPost2010PropOp46
 70
     0
102
RTVSPost2010Prop47
 90
       50
102
RTVSPost2010PropOp47
 70
     0
102
RTVSPost2010Prop48
 90
       50
102
RTVSPost2010PropOp48
 70
     0
102
RTVSPost2010Prop49
280
     0
102
RTVSPost2010PropOp49
 70
     1
102
RTVSPost2010Prop50
 90
       50
102
RTVSPost2010PropOp50
 70
     0
102
RTVSPost2010Prop51ColorIndex
 90
      256
102
RTVSPost2010Prop51ColorRGB
 90
-16777216
102
RTVSPost2010PropOp51
 70
     0
102
RTVSPost2010Prop52
140
1.0
102
RTVSPost2010PropOp52
 70
     0
102
RTVSPost2010Prop53
 90
        2
102
RTVSPost2010PropOp53
 70
     0
102
RTVSPost2010Prop54
  1
strokes_ogs.tif
102
RTVSPost2010PropOp54
 70
     0
102
RTVSPost2010Prop55
280
     0
102
RTVSPost2010PropOp55
 70
     1
102
RTVSPost2010Prop56
140
1.0
102
RTVSPost2010PropOp56
 70
     0
102
RTVSPost2010Prop57
140
1.0
102
RTVSPost2010PropOp57
 70
     0
102
RTVSPropertyOp0
 70
     0
102
RTVSPropertyOp1
 70
     0
102
RTVSPropertyOp2
 70
     0
102
RTVSPropertyOp3
 70
     0
102
RTVSPropertyOp4
 70
     0
102
RTVSPropertyOp5
 70
     0
102
RTVSPropertyOp6
 70
     0
102
RTVSPropertyOp7
 70
     0
102
RTVSPropertyOp8
 70
     0
102
RTVSPropertyOp9
 70
     0
102
RTVSPropertyOp10
 70
     0
102
RTVSPropertyOp11
 70
     0
102
RTVSPropertyOp12
 70
     0
102
RTVSPropertyOp13
 70
     0
102
RTVSPropertyOp14
 70
     2
102
RTVSPropertyOp15
 70
     0
102
RTVSPropertyOp16
 70
     0
102
RTVSPropertyOp17
 70
     0
102
RTVSPropertyOp18
 70
     0
102
RTVSPropertyOp19
 70
     0
102
RTVSPropertyOp20
 70
     0
102
RTVSPropertyOp21
 70
     0
102
RTVSPropertyOp22
 70
     0
102
RTVSPropertyOp23
 70
     0
102
RTVSPropertyOp24
 70
     0
102
RTVSPropertyOp25
 70
     0
102
RTVSPropertyOp26
 70
     0
102
RTVSPropertyOp27
 70
     0
102
RTVSPropertyOp28
 70
     1
102
RTVSPropertyOp29
 70
     1
102
RTVSPropertyOp30
 70
     1
102
RTVSPropertyOp31
 70
     1
102
RTVSPropertyOp32
 70
     1
102
RTVSPropertyOp33
 70
     1
102
RTVSPropertyOp34
 70
     1
102
RTVSPropertyOp35
 70
     1
102
RTVSPropertyOp36
 70
     1
102
RTVSPropertyOp37
 70
     0
102
RTVSPropertyOp38
 70
     0
102
RTVSPropertyOp39
 70
     0
102
RTVSPropertyOp40
 70
     0
102
RTVSPropertyOp41
 70
     0
102
RTVSPropertyOp42
 70
     0
102
RTVSPropertyOp43
 70
     0
102
RTVSPropertyOp44
 70
     0
102
RTVSPropertyOp45
 70
     1
102
RTVSPropertyOp46
 70
     0
102
RTVSPropertyOp47
 70
     0
102
RTVSPropertyOp48
 70
     0
102
RTVSPropertyOp49
 70
     1
102
RTVSPropertyOp50
 70
     0
102
RTVSPropertyOp51
 70
     0
102
RTVSPropertyOp52
 70
     0
102
RTVSPropertyOp53
 70
     0
102
RTVSPropertyOp54
 70
     0
102
RTVSPropertyOp55
 70
     1
102
RTVSPropertyOp56
 70
     0
102
RTVSPropertyOp57
 70
     0
102
RTVSPropertyOp58
 70
     0
102
RTVSPropertyOp59
 70
     0
102
RTVSPropertyOp60
 70
     0
102
RTVSPropertyOp61
 70
     0
102
RTVSPropertyOp62
 70
     0
  0
XRECORD
  5
B703
102
{ACAD_REACTORS
330
B702
102
}
330
B702
100
AcDbXrecord
280
     1
102
RTVSPost2010Prop28
280
     0
102
RTVSPost2010PropOp28
 70
     1
102
RTVSPost2010Prop29
280
     1
102
RTVSPost2010PropOp29
 70
     1
102
RTVSPost2010Prop30
280
     1
102
RTVSPost2010PropOp30
 70
     1
102
RTVSPost2010Prop31
280
     0
102
RTVSPost2010PropOp31
 70
     1
102
RTVSPost2010Prop32
280
     0
102
RTVSPost2010PropOp32
 70
     1
102
RTVSPost2010Prop33
280
     0
102
RTVSPost2010PropOp33
 70
     1
102
RTVSPost2010Prop34
280
     0
102
RTVSPost2010PropOp34
 70
     1
102
RTVSPost2010Prop35
280
     0
102
RTVSPost2010PropOp35
 70
     1
102
RTVSPost2010Prop36
280
     0
102
RTVSPost2010PropOp36
 70
     1
102
RTVSPost2010Prop37
 90
       50
102
RTVSPost2010PropOp37
 70
     1
102
RTVSPost2010Prop38
140
0.0
102
RTVSPost2010PropOp38
 70
     1
102
RTVSPost2010Prop39
140
1.0
102
RTVSPost2010PropOp39
 70
     1
102
RTVSPost2010Prop40
 90
        0
102
RTVSPost2010PropOp40
 70
     1
102
RTVSPost2010Prop41ColorIndex
 90
       18
102
RTVSPost2010Prop41ColorRGB
 90
        0
102
RTVSPost2010PropOp41
 70
     1
102
RTVSPost2010Prop42
 90
       50
102
RTVSPost2010PropOp42
 70
     1
102
RTVSPost2010Prop43
 90
        3
102
RTVSPost2010PropOp43
 70
     1
102
RTVSPost2010Prop44ColorIndex
 90
        5
102
RTVSPost2010Prop44ColorRGB
 90
      255
102
RTVSPost2010PropOp44
 70
     1
102
RTVSPost2010Prop45
280
     0
102
RTVSPost2010PropOp45
 70
     1
102
RTVSPost2010Prop46
 90
       50
102
RTVSPost2010PropOp46
 70
     1
102
RTVSPost2010Prop47
 90
       50
102
RTVSPost2010PropOp47
 70
     1
102
RTVSPost2010Prop48
 90
       50
102
RTVSPost2010PropOp48
 70
     1
102
RTVSPost2010Prop49
280
     0
102
RTVSPost2010PropOp49
 70
     1
102
RTVSPost2010Prop50
 90
       50
102
RTVSPost2010PropOp50
 70
     1
102
RTVSPost2010Prop51ColorIndex
 90
      256
102
RTVSPost2010Prop51ColorRGB
 90
-16777216
102
RTVSPost2010PropOp51
 70
     0
102
RTVSPost2010Prop52
140
1.0
102
RTVSPost2010PropOp52
 70
     0
102
RTVSPost2010Prop53
 90
        2
102
RTVSPost2010PropOp53
 70
     1
102
RTVSPost2010Prop54
  1
strokes_ogs.tif
102
RTVSPost2010PropOp54
 70
     1
102
RTVSPost2010Prop55
280
     0
102
RTVSPost2010PropOp55
 70
     1
102
RTVSPost2010Prop56
140
1.0
102
RTVSPost2010PropOp56
 70
     1
102
RTVSPost2010Prop57
140
1.0
102
RTVSPost2010PropOp57
 70
     1
102
RTVSPropertyOp0
 70
     1
102
RTVSPropertyOp1
 70
     1
102
RTVSPropertyOp2
 70
     1
102
RTVSPropertyOp3
 70
     1
102
RTVSPropertyOp4
 70
     1
102
RTVSPropertyOp5
 70
     1
102
RTVSPropertyOp6
 70
     1
102
RTVSPropertyOp7
 70
     1
102
RTVSPropertyOp8
 70
     1
102
RTVSPropertyOp9
 70
     1
102
RTVSPropertyOp10
 70
     1
102
RTVSPropertyOp11
 70
     1
102
RTVSPropertyOp12
 70
     1
102
RTVSPropertyOp13
 70
     1
102
RTVSPropertyOp14
 70
     1
102
RTVSPropertyOp15
 70
     1
102
RTVSPropertyOp16
 70
     1
102
RTVSPropertyOp17
 70
     1
102
RTVSPropertyOp18
 70
     1
102
RTVSPropertyOp19
 70
     1
102
RTVSPropertyOp20
 70
     1
102
RTVSPropertyOp21
 70
     1
102
RTVSPropertyOp22
 70
     1
102
RTVSPropertyOp23
 70
     1
102
RTVSPropertyOp24
 70
     1
102
RTVSPropertyOp25
 70
     1
102
RTVSPropertyOp26
 70
     1
102
RTVSPropertyOp27
 70
     1
102
RTVSPropertyOp28
 70
     1
102
RTVSPropertyOp29
 70
     1
102
RTVSPropertyOp30
 70
     1
102
RTVSPropertyOp31
 70
     1
102
RTVSPropertyOp32
 70
     1
102
RTVSPropertyOp33
 70
     1
102
RTVSPropertyOp34
 70
     1
102
RTVSPropertyOp35
 70
     1
102
RTVSPropertyOp36
 70
     1
102
RTVSPropertyOp37
 70
     1
102
RTVSPropertyOp38
 70
     1
102
RTVSPropertyOp39
 70
     1
102
RTVSPropertyOp40
 70
     1
102
RTVSPropertyOp41
 70
     1
102
RTVSPropertyOp42
 70
     1
102
RTVSPropertyOp43
 70
     1
102
RTVSPropertyOp44
 70
     1
102
RTVSPropertyOp45
 70
     1
102
RTVSPropertyOp46
 70
     1
102
RTVSPropertyOp47
 70
     1
102
RTVSPropertyOp48
 70
     1
102
RTVSPropertyOp49
 70
     1
102
RTVSPropertyOp50
 70
     1
102
RTVSPropertyOp51
 70
     0
102
RTVSPropertyOp52
 70
     0
102
RTVSPropertyOp53
 70
     1
102
RTVSPropertyOp54
 70
     1
102
RTVSPropertyOp55
 70
     1
102
RTVSPropertyOp56
 70
     1
102
RTVSPropertyOp57
 70
     1
102
RTVSPropertyOp58
 70
     1
102
RTVSPropertyOp59
 70
     1
102
RTVSPropertyOp60
 70
     1
102
RTVSPropertyOp61
 70
     1
102
RTVSPropertyOp62
 70
     1
  0
XRECORD
  5
B719
102
{ACAD_REACTORS
330
B718
102
}
330
B718
100
AcDbXrecord
280
     1
102
RTVSPost2010Prop28
280
     0
102
RTVSPost2010PropOp28
 70
     1
102
RTVSPost2010Prop29
280
     1
102
RTVSPost2010PropOp29
 70
     1
102
RTVSPost2010Prop30
280
     1
102
RTVSPost2010PropOp30
 70
     1
102
RTVSPost2010Prop31
280
     0
102
RTVSPost2010PropOp31
 70
     1
102
RTVSPost2010Prop32
280
     0
102
RTVSPost2010PropOp32
 70
     1
102
RTVSPost2010Prop33
280
     0
102
RTVSPost2010PropOp33
 70
     1
102
RTVSPost2010Prop34
280
     0
102
RTVSPost2010PropOp34
 70
     1
102
RTVSPost2010Prop35
280
     0
102
RTVSPost2010PropOp35
 70
     1
102
RTVSPost2010Prop36
280
     0
102
RTVSPost2010PropOp36
 70
     1
102
RTVSPost2010Prop37
 90
       50
102
RTVSPost2010PropOp37
 70
     1
102
RTVSPost2010Prop38
140
0.0
102
RTVSPost2010PropOp38
 70
     1
102
RTVSPost2010Prop39
140
1.0
102
RTVSPost2010PropOp39
 70
     1
102
RTVSPost2010Prop40
 90
        0
102
RTVSPost2010PropOp40
 70
     1
102
RTVSPost2010Prop41ColorIndex
 90
       18
102
RTVSPost2010Prop41ColorRGB
 90
        0
102
RTVSPost2010PropOp41
 70
     1
102
RTVSPost2010Prop42
 90
       50
102
RTVSPost2010PropOp42
 70
     1
102
RTVSPost2010Prop43
 90
        3
102
RTVSPost2010PropOp43
 70
     1
102
RTVSPost2010Prop44ColorIndex
 90
        5
102
RTVSPost2010Prop44ColorRGB
 90
      255
102
RTVSPost2010PropOp44
 70
     1
102
RTVSPost2010Prop45
280
     0
102
RTVSPost2010PropOp45
 70
     1
102
RTVSPost2010Prop46
 90
       50
102
RTVSPost2010PropOp46
 70
     1
102
RTVSPost2010Prop47
 90
       50
102
RTVSPost2010PropOp47
 70
     1
102
RTVSPost2010Prop48
 90
       50
102
RTVSPost2010PropOp48
 70
     1
102
RTVSPost2010Prop49
280
     0
102
RTVSPost2010PropOp49
 70
     1
102
RTVSPost2010Prop50
 90
       50
102
RTVSPost2010PropOp50
 70
     1
102
RTVSPost2010Prop51ColorIndex
 90
      256
102
RTVSPost2010Prop51ColorRGB
 90
-16777216
102
RTVSPost2010PropOp51
 70
     0
102
RTVSPost2010Prop52
140
1.0
102
RTVSPost2010PropOp52
 70
     0
102
RTVSPost2010Prop53
 90
        2
102
RTVSPost2010PropOp53
 70
     1
102
RTVSPost2010Prop54
  1
strokes_ogs.tif
102
RTVSPost2010PropOp54
 70
     1
102
RTVSPost2010Prop55
280
     0
102
RTVSPost2010PropOp55
 70
     1
102
RTVSPost2010Prop56
140
1.0
102
RTVSPost2010PropOp56
 70
     1
102
RTVSPost2010Prop57
140
1.0
102
RTVSPost2010PropOp57
 70
     1
102
RTVSPropertyOp0
 70
     1
102
RTVSPropertyOp1
 70
     1
102
RTVSPropertyOp2
 70
     1
102
RTVSPropertyOp3
 70
     1
102
RTVSPropertyOp4
 70
     1
102
RTVSPropertyOp5
 70
     1
102
RTVSPropertyOp6
 70
     1
102
RTVSPropertyOp7
 70
     1
102
RTVSPropertyOp8
 70
     1
102
RTVSPropertyOp9
 70
     1
102
RTVSPropertyOp10
 70
     1
102
RTVSPropertyOp11
 70
     1
102
RTVSPropertyOp12
 70
     1
102
RTVSPropertyOp13
 70
     1
102
RTVSPropertyOp14
 70
     1
102
RTVSPropertyOp15
 70
     1
102
RTVSPropertyOp16
 70
     1
102
RTVSPropertyOp17
 70
     1
102
RTVSPropertyOp18
 70
     1
102
RTVSPropertyOp19
 70
     1
102
RTVSPropertyOp20
 70
     1
102
RTVSPropertyOp21
 70
     1
102
RTVSPropertyOp22
 70
     1
102
RTVSPropertyOp23
 70
     1
102
RTVSPropertyOp24
 70
     1
102
RTVSPropertyOp25
 70
     1
102
RTVSPropertyOp26
 70
     1
102
RTVSPropertyOp27
 70
     1
102
RTVSPropertyOp28
 70
     1
102
RTVSPropertyOp29
 70
     1
102
RTVSPropertyOp30
 70
     1
102
RTVSPropertyOp31
 70
     1
102
RTVSPropertyOp32
 70
     1
102
RTVSPropertyOp33
 70
     1
102
RTVSPropertyOp34
 70
     1
102
RTVSPropertyOp35
 70
     1
102
RTVSPropertyOp36
 70
     1
102
RTVSPropertyOp37
 70
     1
102
RTVSPropertyOp38
 70
     1
102
RTVSPropertyOp39
 70
     1
102
RTVSPropertyOp40
 70
     1
102
RTVSPropertyOp41
 70
     1
102
RTVSPropertyOp42
 70
     1
102
RTVSPropertyOp43
 70
     1
102
RTVSPropertyOp44
 70
     1
102
RTVSPropertyOp45
 70
     1
102
RTVSPropertyOp46
 70
     1
102
RTVSPropertyOp47
 70
     1
102
RTVSPropertyOp48
 70
     1
102
RTVSPropertyOp49
 70
     1
102
RTVSPropertyOp50
 70
     1
102
RTVSPropertyOp51
 70
     0
102
RTVSPropertyOp52
 70
     0
102
RTVSPropertyOp53
 70
     1
102
RTVSPropertyOp54
 70
     1
102
RTVSPropertyOp55
 70
     1
102
RTVSPropertyOp56
 70
     1
102
RTVSPropertyOp57
 70
     1
102
RTVSPropertyOp58
 70
     1
102
RTVSPropertyOp59
 70
     1
102
RTVSPropertyOp60
 70
     1
102
RTVSPropertyOp61
 70
     1
102
RTVSPropertyOp62
 70
     1
  0
XRECORD
  5
B717
102
{ACAD_REACTORS
330
B716
102
}
330
B716
100
AcDbXrecord
280
     1
102
RTVSPost2010Prop28
280
     0
102
RTVSPost2010PropOp28
 70
     1
102
RTVSPost2010Prop29
280
     1
102
RTVSPost2010PropOp29
 70
     1
102
RTVSPost2010Prop30
280
     1
102
RTVSPost2010PropOp30
 70
     1
102
RTVSPost2010Prop31
280
     0
102
RTVSPost2010PropOp31
 70
     1
102
RTVSPost2010Prop32
280
     0
102
RTVSPost2010PropOp32
 70
     1
102
RTVSPost2010Prop33
280
     0
102
RTVSPost2010PropOp33
 70
     1
102
RTVSPost2010Prop34
280
     0
102
RTVSPost2010PropOp34
 70
     1
102
RTVSPost2010Prop35
280
     0
102
RTVSPost2010PropOp35
 70
     1
102
RTVSPost2010Prop36
280
     0
102
RTVSPost2010PropOp36
 70
     1
102
RTVSPost2010Prop37
 90
       50
102
RTVSPost2010PropOp37
 70
     1
102
RTVSPost2010Prop38
140
0.0
102
RTVSPost2010PropOp38
 70
     1
102
RTVSPost2010Prop39
140
1.0
102
RTVSPost2010PropOp39
 70
     1
102
RTVSPost2010Prop40
 90
        0
102
RTVSPost2010PropOp40
 70
     1
102
RTVSPost2010Prop41ColorIndex
 90
       18
102
RTVSPost2010Prop41ColorRGB
 90
        0
102
RTVSPost2010PropOp41
 70
     1
102
RTVSPost2010Prop42
 90
       50
102
RTVSPost2010PropOp42
 70
     1
102
RTVSPost2010Prop43
 90
        3
102
RTVSPost2010PropOp43
 70
     1
102
RTVSPost2010Prop44ColorIndex
 90
        5
102
RTVSPost2010Prop44ColorRGB
 90
      255
102
RTVSPost2010PropOp44
 70
     1
102
RTVSPost2010Prop45
280
     0
102
RTVSPost2010PropOp45
 70
     1
102
RTVSPost2010Prop46
 90
       50
102
RTVSPost2010PropOp46
 70
     1
102
RTVSPost2010Prop47
 90
       50
102
RTVSPost2010PropOp47
 70
     1
102
RTVSPost2010Prop48
 90
       50
102
RTVSPost2010PropOp48
 70
     1
102
RTVSPost2010Prop49
280
     0
102
RTVSPost2010PropOp49
 70
     1
102
RTVSPost2010Prop50
 90
       50
102
RTVSPost2010PropOp50
 70
     1
102
RTVSPost2010Prop51ColorIndex
 90
      256
102
RTVSPost2010Prop51ColorRGB
 90
-16777216
102
RTVSPost2010PropOp51
 70
     0
102
RTVSPost2010Prop52
140
1.0
102
RTVSPost2010PropOp52
 70
     0
102
RTVSPost2010Prop53
 90
        2
102
RTVSPost2010PropOp53
 70
     1
102
RTVSPost2010Prop54
  1
strokes_ogs.tif
102
RTVSPost2010PropOp54
 70
     1
102
RTVSPost2010Prop55
280
     0
102
RTVSPost2010PropOp55
 70
     1
102
RTVSPost2010Prop56
140
1.0
102
RTVSPost2010PropOp56
 70
     1
102
RTVSPost2010Prop57
140
1.0
102
RTVSPost2010PropOp57
 70
     1
102
RTVSPropertyOp0
 70
     1
102
RTVSPropertyOp1
 70
     1
102
RTVSPropertyOp2
 70
     1
102
RTVSPropertyOp3
 70
     1
102
RTVSPropertyOp4
 70
     1
102
RTVSPropertyOp5
 70
     1
102
RTVSPropertyOp6
 70
     1
102
RTVSPropertyOp7
 70
     1
102
RTVSPropertyOp8
 70
     1
102
RTVSPropertyOp9
 70
     1
102
RTVSPropertyOp10
 70
     1
102
RTVSPropertyOp11
 70
     1
102
RTVSPropertyOp12
 70
     1
102
RTVSPropertyOp13
 70
     1
102
RTVSPropertyOp14
 70
     1
102
RTVSPropertyOp15
 70
     1
102
RTVSPropertyOp16
 70
     1
102
RTVSPropertyOp17
 70
     1
102
RTVSPropertyOp18
 70
     1
102
RTVSPropertyOp19
 70
     1
102
RTVSPropertyOp20
 70
     1
102
RTVSPropertyOp21
 70
     1
102
RTVSPropertyOp22
 70
     1
102
RTVSPropertyOp23
 70
     1
102
RTVSPropertyOp24
 70
     1
102
RTVSPropertyOp25
 70
     1
102
RTVSPropertyOp26
 70
     1
102
RTVSPropertyOp27
 70
     1
102
RTVSPropertyOp28
 70
     1
102
RTVSPropertyOp29
 70
     1
102
RTVSPropertyOp30
 70
     1
102
RTVSPropertyOp31
 70
     1
102
RTVSPropertyOp32
 70
     1
102
RTVSPropertyOp33
 70
     1
102
RTVSPropertyOp34
 70
     1
102
RTVSPropertyOp35
 70
     1
102
RTVSPropertyOp36
 70
     1
102
RTVSPropertyOp37
 70
     1
102
RTVSPropertyOp38
 70
     1
102
RTVSPropertyOp39
 70
     1
102
RTVSPropertyOp40
 70
     1
102
RTVSPropertyOp41
 70
     1
102
RTVSPropertyOp42
 70
     1
102
RTVSPropertyOp43
 70
     1
102
RTVSPropertyOp44
 70
     1
102
RTVSPropertyOp45
 70
     1
102
RTVSPropertyOp46
 70
     1
102
RTVSPropertyOp47
 70
     1
102
RTVSPropertyOp48
 70
     1
102
RTVSPropertyOp49
 70
     1
102
RTVSPropertyOp50
 70
     1
102
RTVSPropertyOp51
 70
     0
102
RTVSPropertyOp52
 70
     0
102
RTVSPropertyOp53
 70
     1
102
RTVSPropertyOp54
 70
     1
102
RTVSPropertyOp55
 70
     1
102
RTVSPropertyOp56
 70
     1
102
RTVSPropertyOp57
 70
     1
102
RTVSPropertyOp58
 70
     1
102
RTVSPropertyOp59
 70
     1
102
RTVSPropertyOp60
 70
     1
102
RTVSPropertyOp61
 70
     1
102
RTVSPropertyOp62
 70
     1
  0
XRECORD
  5
B711
102
{ACAD_REACTORS
330
B710
102
}
330
B710
100
AcDbXrecord
280
     1
102
RTVSPost2010Prop28
280
     0
102
RTVSPost2010PropOp28
 70
     1
102
RTVSPost2010Prop29
280
     1
102
RTVSPost2010PropOp29
 70
     1
102
RTVSPost2010Prop30
280
     1
102
RTVSPost2010PropOp30
 70
     1
102
RTVSPost2010Prop31
280
     0
102
RTVSPost2010PropOp31
 70
     1
102
RTVSPost2010Prop32
280
     0
102
RTVSPost2010PropOp32
 70
     1
102
RTVSPost2010Prop33
280
     0
102
RTVSPost2010PropOp33
 70
     1
102
RTVSPost2010Prop34
280
     0
102
RTVSPost2010PropOp34
 70
     1
102
RTVSPost2010Prop35
280
     0
102
RTVSPost2010PropOp35
 70
     1
102
RTVSPost2010Prop36
280
     0
102
RTVSPost2010PropOp36
 70
     1
102
RTVSPost2010Prop37
 90
       50
102
RTVSPost2010PropOp37
 70
     1
102
RTVSPost2010Prop38
140
0.0
102
RTVSPost2010PropOp38
 70
     1
102
RTVSPost2010Prop39
140
1.0
102
RTVSPost2010PropOp39
 70
     1
102
RTVSPost2010Prop40
 90
        0
102
RTVSPost2010PropOp40
 70
     1
102
RTVSPost2010Prop41ColorIndex
 90
       18
102
RTVSPost2010Prop41ColorRGB
 90
        0
102
RTVSPost2010PropOp41
 70
     1
102
RTVSPost2010Prop42
 90
       50
102
RTVSPost2010PropOp42
 70
     1
102
RTVSPost2010Prop43
 90
        3
102
RTVSPost2010PropOp43
 70
     1
102
RTVSPost2010Prop44ColorIndex
 90
        5
102
RTVSPost2010Prop44ColorRGB
 90
      255
102
RTVSPost2010PropOp44
 70
     1
102
RTVSPost2010Prop45
280
     0
102
RTVSPost2010PropOp45
 70
     1
102
RTVSPost2010Prop46
 90
       50
102
RTVSPost2010PropOp46
 70
     1
102
RTVSPost2010Prop47
 90
       50
102
RTVSPost2010PropOp47
 70
     1
102
RTVSPost2010Prop48
 90
       50
102
RTVSPost2010PropOp48
 70
     1
102
RTVSPost2010Prop49
280
     0
102
RTVSPost2010PropOp49
 70
     1
102
RTVSPost2010Prop50
 90
       50
102
RTVSPost2010PropOp50
 70
     1
102
RTVSPost2010Prop51ColorIndex
 90
      256
102
RTVSPost2010Prop51ColorRGB
 90
-16777216
102
RTVSPost2010PropOp51
 70
     0
102
RTVSPost2010Prop52
140
1.0
102
RTVSPost2010PropOp52
 70
     0
102
RTVSPost2010Prop53
 90
        2
102
RTVSPost2010PropOp53
 70
     1
102
RTVSPost2010Prop54
  1
strokes_ogs.tif
102
RTVSPost2010PropOp54
 70
     1
102
RTVSPost2010Prop55
280
     0
102
RTVSPost2010PropOp55
 70
     1
102
RTVSPost2010Prop56
140
1.0
102
RTVSPost2010PropOp56
 70
     1
102
RTVSPost2010Prop57
140
1.0
102
RTVSPost2010PropOp57
 70
     1
102
RTVSPropertyOp0
 70
     1
102
RTVSPropertyOp1
 70
     1
102
RTVSPropertyOp2
 70
     1
102
RTVSPropertyOp3
 70
     1
102
RTVSPropertyOp4
 70
     1
102
RTVSPropertyOp5
 70
     1
102
RTVSPropertyOp6
 70
     1
102
RTVSPropertyOp7
 70
     1
102
RTVSPropertyOp8
 70
     1
102
RTVSPropertyOp9
 70
     1
102
RTVSPropertyOp10
 70
     1
102
RTVSPropertyOp11
 70
     1
102
RTVSPropertyOp12
 70
     1
102
RTVSPropertyOp13
 70
     1
102
RTVSPropertyOp14
 70
     1
102
RTVSPropertyOp15
 70
     1
102
RTVSPropertyOp16
 70
     1
102
RTVSPropertyOp17
 70
     1
102
RTVSPropertyOp18
 70
     1
102
RTVSPropertyOp19
 70
     1
102
RTVSPropertyOp20
 70
     1
102
RTVSPropertyOp21
 70
     1
102
RTVSPropertyOp22
 70
     1
102
RTVSPropertyOp23
 70
     1
102
RTVSPropertyOp24
 70
     1
102
RTVSPropertyOp25
 70
     1
102
RTVSPropertyOp26
 70
     1
102
RTVSPropertyOp27
 70
     1
102
RTVSPropertyOp28
 70
     1
102
RTVSPropertyOp29
 70
     1
102
RTVSPropertyOp30
 70
     1
102
RTVSPropertyOp31
 70
     1
102
RTVSPropertyOp32
 70
     1
102
RTVSPropertyOp33
 70
     1
102
RTVSPropertyOp34
 70
     1
102
RTVSPropertyOp35
 70
     1
102
RTVSPropertyOp36
 70
     1
102
RTVSPropertyOp37
 70
     1
102
RTVSPropertyOp38
 70
     1
102
RTVSPropertyOp39
 70
     1
102
RTVSPropertyOp40
 70
     1
102
RTVSPropertyOp41
 70
     1
102
RTVSPropertyOp42
 70
     1
102
RTVSPropertyOp43
 70
     1
102
RTVSPropertyOp44
 70
     1
102
RTVSPropertyOp45
 70
     1
102
RTVSPropertyOp46
 70
     1
102
RTVSPropertyOp47
 70
     1
102
RTVSPropertyOp48
 70
     1
102
RTVSPropertyOp49
 70
     1
102
RTVSPropertyOp50
 70
     1
102
RTVSPropertyOp51
 70
     0
102
RTVSPropertyOp52
 70
     0
102
RTVSPropertyOp53
 70
     1
102
RTVSPropertyOp54
 70
     1
102
RTVSPropertyOp55
 70
     1
102
RTVSPropertyOp56
 70
     1
102
RTVSPropertyOp57
 70
     1
102
RTVSPropertyOp58
 70
     1
102
RTVSPropertyOp59
 70
     1
102
RTVSPropertyOp60
 70
     1
102
RTVSPropertyOp61
 70
     1
102
RTVSPropertyOp62
 70
     1
  0
XRECORD
  5
B713
102
{ACAD_REACTORS
330
B712
102
}
330
B712
100
AcDbXrecord
280
     1
102
RTVSPost2010Prop28
280
     0
102
RTVSPost2010PropOp28
 70
     1
102
RTVSPost2010Prop29
280
     1
102
RTVSPost2010PropOp29
 70
     1
102
RTVSPost2010Prop30
280
     1
102
RTVSPost2010PropOp30
 70
     1
102
RTVSPost2010Prop31
280
     0
102
RTVSPost2010PropOp31
 70
     1
102
RTVSPost2010Prop32
280
     0
102
RTVSPost2010PropOp32
 70
     1
102
RTVSPost2010Prop33
280
     0
102
RTVSPost2010PropOp33
 70
     1
102
RTVSPost2010Prop34
280
     0
102
RTVSPost2010PropOp34
 70
     1
102
RTVSPost2010Prop35
280
     0
102
RTVSPost2010PropOp35
 70
     1
102
RTVSPost2010Prop36
280
     0
102
RTVSPost2010PropOp36
 70
     1
102
RTVSPost2010Prop37
 90
       50
102
RTVSPost2010PropOp37
 70
     1
102
RTVSPost2010Prop38
140
0.0
102
RTVSPost2010PropOp38
 70
     1
102
RTVSPost2010Prop39
140
1.0
102
RTVSPost2010PropOp39
 70
     1
102
RTVSPost2010Prop40
 90
        0
102
RTVSPost2010PropOp40
 70
     1
102
RTVSPost2010Prop41ColorIndex
 90
       18
102
RTVSPost2010Prop41ColorRGB
 90
        0
102
RTVSPost2010PropOp41
 70
     1
102
RTVSPost2010Prop42
 90
       50
102
RTVSPost2010PropOp42
 70
     1
102
RTVSPost2010Prop43
 90
        3
102
RTVSPost2010PropOp43
 70
     1
102
RTVSPost2010Prop44ColorIndex
 90
        5
102
RTVSPost2010Prop44ColorRGB
 90
      255
102
RTVSPost2010PropOp44
 70
     1
102
RTVSPost2010Prop45
280
     0
102
RTVSPost2010PropOp45
 70
     1
102
RTVSPost2010Prop46
 90
       50
102
RTVSPost2010PropOp46
 70
     1
102
RTVSPost2010Prop47
 90
       50
102
RTVSPost2010PropOp47
 70
     1
102
RTVSPost2010Prop48
 90
       50
102
RTVSPost2010PropOp48
 70
     1
102
RTVSPost2010Prop49
280
     0
102
RTVSPost2010PropOp49
 70
     1
102
RTVSPost2010Prop50
 90
       50
102
RTVSPost2010PropOp50
 70
     1
102
RTVSPost2010Prop51ColorIndex
 90
      256
102
RTVSPost2010Prop51ColorRGB
 90
-16777216
102
RTVSPost2010PropOp51
 70
     0
102
RTVSPost2010Prop52
140
1.0
102
RTVSPost2010PropOp52
 70
     0
102
RTVSPost2010Prop53
 90
        2
102
RTVSPost2010PropOp53
 70
     1
102
RTVSPost2010Prop54
  1
strokes_ogs.tif
102
RTVSPost2010PropOp54
 70
     1
102
RTVSPost2010Prop55
280
     0
102
RTVSPost2010PropOp55
 70
     1
102
RTVSPost2010Prop56
140
1.0
102
RTVSPost2010PropOp56
 70
     1
102
RTVSPost2010Prop57
140
1.0
102
RTVSPost2010PropOp57
 70
     1
102
RTVSPropertyOp0
 70
     1
102
RTVSPropertyOp1
 70
     1
102
RTVSPropertyOp2
 70
     1
102
RTVSPropertyOp3
 70
     1
102
RTVSPropertyOp4
 70
     1
102
RTVSPropertyOp5
 70
     1
102
RTVSPropertyOp6
 70
     1
102
RTVSPropertyOp7
 70
     1
102
RTVSPropertyOp8
 70
     1
102
RTVSPropertyOp9
 70
     1
102
RTVSPropertyOp10
 70
     1
102
RTVSPropertyOp11
 70
     1
102
RTVSPropertyOp12
 70
     1
102
RTVSPropertyOp13
 70
     1
102
RTVSPropertyOp14
 70
     1
102
RTVSPropertyOp15
 70
     1
102
RTVSPropertyOp16
 70
     1
102
RTVSPropertyOp17
 70
     1
102
RTVSPropertyOp18
 70
     1
102
RTVSPropertyOp19
 70
     1
102
RTVSPropertyOp20
 70
     1
102
RTVSPropertyOp21
 70
     1
102
RTVSPropertyOp22
 70
     1
102
RTVSPropertyOp23
 70
     1
102
RTVSPropertyOp24
 70
     1
102
RTVSPropertyOp25
 70
     1
102
RTVSPropertyOp26
 70
     1
102
RTVSPropertyOp27
 70
     1
102
RTVSPropertyOp28
 70
     1
102
RTVSPropertyOp29
 70
     1
102
RTVSPropertyOp30
 70
     1
102
RTVSPropertyOp31
 70
     1
102
RTVSPropertyOp32
 70
     1
102
RTVSPropertyOp33
 70
     1
102
RTVSPropertyOp34
 70
     1
102
RTVSPropertyOp35
 70
     1
102
RTVSPropertyOp36
 70
     1
102
RTVSPropertyOp37
 70
     1
102
RTVSPropertyOp38
 70
     1
102
RTVSPropertyOp39
 70
     1
102
RTVSPropertyOp40
 70
     1
102
RTVSPropertyOp41
 70
     1
102
RTVSPropertyOp42
 70
     1
102
RTVSPropertyOp43
 70
     1
102
RTVSPropertyOp44
 70
     1
102
RTVSPropertyOp45
 70
     1
102
RTVSPropertyOp46
 70
     1
102
RTVSPropertyOp47
 70
     1
102
RTVSPropertyOp48
 70
     1
102
RTVSPropertyOp49
 70
     1
102
RTVSPropertyOp50
 70
     1
102
RTVSPropertyOp51
 70
     0
102
RTVSPropertyOp52
 70
     0
102
RTVSPropertyOp53
 70
     1
102
RTVSPropertyOp54
 70
     1
102
RTVSPropertyOp55
 70
     1
102
RTVSPropertyOp56
 70
     1
102
RTVSPropertyOp57
 70
     1
102
RTVSPropertyOp58
 70
     1
102
RTVSPropertyOp59
 70
     1
102
RTVSPropertyOp60
 70
     1
102
RTVSPropertyOp61
 70
     1
102
RTVSPropertyOp62
 70
     1
  0
XRECORD
  5
B709
102
{ACAD_REACTORS
330
B708
102
}
330
B708
100
AcDbXrecord
280
     1
102
RTVSPost2010Prop28
280
     0
102
RTVSPost2010PropOp28
 70
     1
102
RTVSPost2010Prop29
280
     1
102
RTVSPost2010PropOp29
 70
     1
102
RTVSPost2010Prop30
280
     1
102
RTVSPost2010PropOp30
 70
     1
102
RTVSPost2010Prop31
280
     0
102
RTVSPost2010PropOp31
 70
     1
102
RTVSPost2010Prop32
280
     0
102
RTVSPost2010PropOp32
 70
     1
102
RTVSPost2010Prop33
280
     0
102
RTVSPost2010PropOp33
 70
     1
102
RTVSPost2010Prop34
280
     0
102
RTVSPost2010PropOp34
 70
     1
102
RTVSPost2010Prop35
280
     0
102
RTVSPost2010PropOp35
 70
     1
102
RTVSPost2010Prop36
280
     0
102
RTVSPost2010PropOp36
 70
     1
102
RTVSPost2010Prop37
 90
       50
102
RTVSPost2010PropOp37
 70
     1
102
RTVSPost2010Prop38
140
0.0
102
RTVSPost2010PropOp38
 70
     1
102
RTVSPost2010Prop39
140
1.0
102
RTVSPost2010PropOp39
 70
     1
102
RTVSPost2010Prop40
 90
        0
102
RTVSPost2010PropOp40
 70
     1
102
RTVSPost2010Prop41ColorIndex
 90
       18
102
RTVSPost2010Prop41ColorRGB
 90
        0
102
RTVSPost2010PropOp41
 70
     1
102
RTVSPost2010Prop42
 90
       50
102
RTVSPost2010PropOp42
 70
     1
102
RTVSPost2010Prop43
 90
        3
102
RTVSPost2010PropOp43
 70
     1
102
RTVSPost2010Prop44ColorIndex
 90
        5
102
RTVSPost2010Prop44ColorRGB
 90
      255
102
RTVSPost2010PropOp44
 70
     1
102
RTVSPost2010Prop45
280
     0
102
RTVSPost2010PropOp45
 70
     1
102
RTVSPost2010Prop46
 90
       50
102
RTVSPost2010PropOp46
 70
     1
102
RTVSPost2010Prop47
 90
       50
102
RTVSPost2010PropOp47
 70
     1
102
RTVSPost2010Prop48
 90
       50
102
RTVSPost2010PropOp48
 70
     1
102
RTVSPost2010Prop49
280
     0
102
RTVSPost2010PropOp49
 70
     1
102
RTVSPost2010Prop50
 90
       50
102
RTVSPost2010PropOp50
 70
     1
102
RTVSPost2010Prop51ColorIndex
 90
      256
102
RTVSPost2010Prop51ColorRGB
 90
-16777216
102
RTVSPost2010PropOp51
 70
     0
102
RTVSPost2010Prop52
140
1.0
102
RTVSPost2010PropOp52
 70
     0
102
RTVSPost2010Prop53
 90
        2
102
RTVSPost2010PropOp53
 70
     1
102
RTVSPost2010Prop54
  1
strokes_ogs.tif
102
RTVSPost2010PropOp54
 70
     1
102
RTVSPost2010Prop55
280
     0
102
RTVSPost2010PropOp55
 70
     1
102
RTVSPost2010Prop56
140
1.0
102
RTVSPost2010PropOp56
 70
     1
102
RTVSPost2010Prop57
140
1.0
102
RTVSPost2010PropOp57
 70
     1
102
RTVSPropertyOp0
 70
     1
102
RTVSPropertyOp1
 70
     1
102
RTVSPropertyOp2
 70
     1
102
RTVSPropertyOp3
 70
     1
102
RTVSPropertyOp4
 70
     1
102
RTVSPropertyOp5
 70
     1
102
RTVSPropertyOp6
 70
     1
102
RTVSPropertyOp7
 70
     1
102
RTVSPropertyOp8
 70
     1
102
RTVSPropertyOp9
 70
     1
102
RTVSPropertyOp10
 70
     1
102
RTVSPropertyOp11
 70
     1
102
RTVSPropertyOp12
 70
     1
102
RTVSPropertyOp13
 70
     1
102
RTVSPropertyOp14
 70
     1
102
RTVSPropertyOp15
 70
     1
102
RTVSPropertyOp16
 70
     1
102
RTVSPropertyOp17
 70
     1
102
RTVSPropertyOp18
 70
     1
102
RTVSPropertyOp19
 70
     1
102
RTVSPropertyOp20
 70
     1
102
RTVSPropertyOp21
 70
     1
102
RTVSPropertyOp22
 70
     1
102
RTVSPropertyOp23
 70
     1
102
RTVSPropertyOp24
 70
     1
102
RTVSPropertyOp25
 70
     1
102
RTVSPropertyOp26
 70
     1
102
RTVSPropertyOp27
 70
     1
102
RTVSPropertyOp28
 70
     1
102
RTVSPropertyOp29
 70
     1
102
RTVSPropertyOp30
 70
     1
102
RTVSPropertyOp31
 70
     1
102
RTVSPropertyOp32
 70
     1
102
RTVSPropertyOp33
 70
     1
102
RTVSPropertyOp34
 70
     1
102
RTVSPropertyOp35
 70
     1
102
RTVSPropertyOp36
 70
     1
102
RTVSPropertyOp37
 70
     1
102
RTVSPropertyOp38
 70
     1
102
RTVSPropertyOp39
 70
     1
102
RTVSPropertyOp40
 70
     1
102
RTVSPropertyOp41
 70
     1
102
RTVSPropertyOp42
 70
     1
102
RTVSPropertyOp43
 70
     1
102
RTVSPropertyOp44
 70
     1
102
RTVSPropertyOp45
 70
     1
102
RTVSPropertyOp46
 70
     1
102
RTVSPropertyOp47
 70
     1
102
RTVSPropertyOp48
 70
     1
102
RTVSPropertyOp49
 70
     1
102
RTVSPropertyOp50
 70
     1
102
RTVSPropertyOp51
 70
     0
102
RTVSPropertyOp52
 70
     0
102
RTVSPropertyOp53
 70
     1
102
RTVSPropertyOp54
 70
     1
102
RTVSPropertyOp55
 70
     1
102
RTVSPropertyOp56
 70
     1
102
RTVSPropertyOp57
 70
     1
102
RTVSPropertyOp58
 70
     1
102
RTVSPropertyOp59
 70
     1
102
RTVSPropertyOp60
 70
     1
102
RTVSPropertyOp61
 70
     1
102
RTVSPropertyOp62
 70
     1
  0
XRECORD
  5
B6FD
102
{ACAD_REACTORS
330
B6FC
102
}
330
B6FC
100
AcDbXrecord
280
     1
102
RTVSPost2010Prop28
280
     0
102
RTVSPost2010PropOp28
 70
     1
102
RTVSPost2010Prop29
280
     1
102
RTVSPost2010PropOp29
 70
     1
102
RTVSPost2010Prop30
280
     1
102
RTVSPost2010PropOp30
 70
     1
102
RTVSPost2010Prop31
280
     0
102
RTVSPost2010PropOp31
 70
     1
102
RTVSPost2010Prop32
280
     0
102
RTVSPost2010PropOp32
 70
     1
102
RTVSPost2010Prop33
280
     0
102
RTVSPost2010PropOp33
 70
     1
102
RTVSPost2010Prop34
280
     0
102
RTVSPost2010PropOp34
 70
     1
102
RTVSPost2010Prop35
280
     0
102
RTVSPost2010PropOp35
 70
     1
102
RTVSPost2010Prop36
280
     0
102
RTVSPost2010PropOp36
 70
     1
102
RTVSPost2010Prop37
 90
       50
102
RTVSPost2010PropOp37
 70
     1
102
RTVSPost2010Prop38
140
0.0
102
RTVSPost2010PropOp38
 70
     1
102
RTVSPost2010Prop39
140
1.0
102
RTVSPost2010PropOp39
 70
     1
102
RTVSPost2010Prop40
 90
        0
102
RTVSPost2010PropOp40
 70
     1
102
RTVSPost2010Prop41ColorIndex
 90
       18
102
RTVSPost2010Prop41ColorRGB
 90
        0
102
RTVSPost2010PropOp41
 70
     1
102
RTVSPost2010Prop42
 90
       50
102
RTVSPost2010PropOp42
 70
     1
102
RTVSPost2010Prop43
 90
        3
102
RTVSPost2010PropOp43
 70
     1
102
RTVSPost2010Prop44ColorIndex
 90
        5
102
RTVSPost2010Prop44ColorRGB
 90
      255
102
RTVSPost2010PropOp44
 70
     1
102
RTVSPost2010Prop45
280
     0
102
RTVSPost2010PropOp45
 70
     1
102
RTVSPost2010Prop46
 90
       50
102
RTVSPost2010PropOp46
 70
     1
102
RTVSPost2010Prop47
 90
       50
102
RTVSPost2010PropOp47
 70
     1
102
RTVSPost2010Prop48
 90
       50
102
RTVSPost2010PropOp48
 70
     1
102
RTVSPost2010Prop49
280
     0
102
RTVSPost2010PropOp49
 70
     1
102
RTVSPost2010Prop50
 90
       50
102
RTVSPost2010PropOp50
 70
     1
102
RTVSPost2010Prop51ColorIndex
 90
      256
102
RTVSPost2010Prop51ColorRGB
 90
-16777216
102
RTVSPost2010PropOp51
 70
     0
102
RTVSPost2010Prop52
140
1.0
102
RTVSPost2010PropOp52
 70
     0
102
RTVSPost2010Prop53
 90
        2
102
RTVSPost2010PropOp53
 70
     1
102
RTVSPost2010Prop54
  1
strokes_ogs.tif
102
RTVSPost2010PropOp54
 70
     1
102
RTVSPost2010Prop55
280
     0
102
RTVSPost2010PropOp55
 70
     1
102
RTVSPost2010Prop56
140
1.0
102
RTVSPost2010PropOp56
 70
     1
102
RTVSPost2010Prop57
140
1.0
102
RTVSPost2010PropOp57
 70
     1
102
RTVSPropertyOp0
 70
     1
102
RTVSPropertyOp1
 70
     1
102
RTVSPropertyOp2
 70
     1
102
RTVSPropertyOp3
 70
     1
102
RTVSPropertyOp4
 70
     1
102
RTVSPropertyOp5
 70
     1
102
RTVSPropertyOp6
 70
     1
102
RTVSPropertyOp7
 70
     1
102
RTVSPropertyOp8
 70
     1
102
RTVSPropertyOp9
 70
     1
102
RTVSPropertyOp10
 70
     1
102
RTVSPropertyOp11
 70
     1
102
RTVSPropertyOp12
 70
     1
102
RTVSPropertyOp13
 70
     1
102
RTVSPropertyOp14
 70
     1
102
RTVSPropertyOp15
 70
     1
102
RTVSPropertyOp16
 70
     1
102
RTVSPropertyOp17
 70
     1
102
RTVSPropertyOp18
 70
     1
102
RTVSPropertyOp19
 70
     1
102
RTVSPropertyOp20
 70
     1
102
RTVSPropertyOp21
 70
     1
102
RTVSPropertyOp22
 70
     1
102
RTVSPropertyOp23
 70
     1
102
RTVSPropertyOp24
 70
     1
102
RTVSPropertyOp25
 70
     1
102
RTVSPropertyOp26
 70
     1
102
RTVSPropertyOp27
 70
     1
102
RTVSPropertyOp28
 70
     1
102
RTVSPropertyOp29
 70
     1
102
RTVSPropertyOp30
 70
     1
102
RTVSPropertyOp31
 70
     1
102
RTVSPropertyOp32
 70
     1
102
RTVSPropertyOp33
 70
     1
102
RTVSPropertyOp34
 70
     1
102
RTVSPropertyOp35
 70
     1
102
RTVSPropertyOp36
 70
     1
102
RTVSPropertyOp37
 70
     1
102
RTVSPropertyOp38
 70
     1
102
RTVSPropertyOp39
 70
     1
102
RTVSPropertyOp40
 70
     1
102
RTVSPropertyOp41
 70
     1
102
RTVSPropertyOp42
 70
     1
102
RTVSPropertyOp43
 70
     1
102
RTVSPropertyOp44
 70
     1
102
RTVSPropertyOp45
 70
     1
102
RTVSPropertyOp46
 70
     1
102
RTVSPropertyOp47
 70
     1
102
RTVSPropertyOp48
 70
     1
102
RTVSPropertyOp49
 70
     1
102
RTVSPropertyOp50
 70
     1
102
RTVSPropertyOp51
 70
     0
102
RTVSPropertyOp52
 70
     0
102
RTVSPropertyOp53
 70
     1
102
RTVSPropertyOp54
 70
     1
102
RTVSPropertyOp55
 70
     1
102
RTVSPropertyOp56
 70
     1
102
RTVSPropertyOp57
 70
     1
102
RTVSPropertyOp58
 70
     1
102
RTVSPropertyOp59
 70
     1
102
RTVSPropertyOp60
 70
     1
102
RTVSPropertyOp61
 70
     1
102
RTVSPropertyOp62
 70
     1
  0
XRECORD
  5
B715
102
{ACAD_REACTORS
330
B714
102
}
330
B714
100
AcDbXrecord
280
     1
102
RTVSPost2010Prop28
280
     0
102
RTVSPost2010PropOp28
 70
     1
102
RTVSPost2010Prop29
280
     1
102
RTVSPost2010PropOp29
 70
     1
102
RTVSPost2010Prop30
280
     1
102
RTVSPost2010PropOp30
 70
     1
102
RTVSPost2010Prop31
280
     0
102
RTVSPost2010PropOp31
 70
     1
102
RTVSPost2010Prop32
280
     0
102
RTVSPost2010PropOp32
 70
     1
102
RTVSPost2010Prop33
280
     0
102
RTVSPost2010PropOp33
 70
     1
102
RTVSPost2010Prop34
280
     0
102
RTVSPost2010PropOp34
 70
     1
102
RTVSPost2010Prop35
280
     0
102
RTVSPost2010PropOp35
 70
     1
102
RTVSPost2010Prop36
280
     0
102
RTVSPost2010PropOp36
 70
     1
102
RTVSPost2010Prop37
 90
       50
102
RTVSPost2010PropOp37
 70
     1
102
RTVSPost2010Prop38
140
0.0
102
RTVSPost2010PropOp38
 70
     1
102
RTVSPost2010Prop39
140
1.0
102
RTVSPost2010PropOp39
 70
     1
102
RTVSPost2010Prop40
 90
        0
102
RTVSPost2010PropOp40
 70
     1
102
RTVSPost2010Prop41ColorIndex
 90
       18
102
RTVSPost2010Prop41ColorRGB
 90
        0
102
RTVSPost2010PropOp41
 70
     1
102
RTVSPost2010Prop42
 90
       50
102
RTVSPost2010PropOp42
 70
     1
102
RTVSPost2010Prop43
 90
        3
102
RTVSPost2010PropOp43
 70
     1
102
RTVSPost2010Prop44ColorIndex
 90
        5
102
RTVSPost2010Prop44ColorRGB
 90
      255
102
RTVSPost2010PropOp44
 70
     1
102
RTVSPost2010Prop45
280
     0
102
RTVSPost2010PropOp45
 70
     1
102
RTVSPost2010Prop46
 90
       50
102
RTVSPost2010PropOp46
 70
     1
102
RTVSPost2010Prop47
 90
       50
102
RTVSPost2010PropOp47
 70
     1
102
RTVSPost2010Prop48
 90
       50
102
RTVSPost2010PropOp48
 70
     1
102
RTVSPost2010Prop49
280
     0
102
RTVSPost2010PropOp49
 70
     1
102
RTVSPost2010Prop50
 90
       50
102
RTVSPost2010PropOp50
 70
     1
102
RTVSPost2010Prop51ColorIndex
 90
      256
102
RTVSPost2010Prop51ColorRGB
 90
-16777216
102
RTVSPost2010PropOp51
 70
     0
102
RTVSPost2010Prop52
140
1.0
102
RTVSPost2010PropOp52
 70
     0
102
RTVSPost2010Prop53
 90
        2
102
RTVSPost2010PropOp53
 70
     1
102
RTVSPost2010Prop54
  1
strokes_ogs.tif
102
RTVSPost2010PropOp54
 70
     1
102
RTVSPost2010Prop55
280
     0
102
RTVSPost2010PropOp55
 70
     1
102
RTVSPost2010Prop56
140
1.0
102
RTVSPost2010PropOp56
 70
     1
102
RTVSPost2010Prop57
140
1.0
102
RTVSPost2010PropOp57
 70
     1
102
RTVSPropertyOp0
 70
     1
102
RTVSPropertyOp1
 70
     1
102
RTVSPropertyOp2
 70
     1
102
RTVSPropertyOp3
 70
     1
102
RTVSPropertyOp4
 70
     1
102
RTVSPropertyOp5
 70
     1
102
RTVSPropertyOp6
 70
     1
102
RTVSPropertyOp7
 70
     1
102
RTVSPropertyOp8
 70
     1
102
RTVSPropertyOp9
 70
     1
102
RTVSPropertyOp10
 70
     1
102
RTVSPropertyOp11
 70
     1
102
RTVSPropertyOp12
 70
     1
102
RTVSPropertyOp13
 70
     1
102
RTVSPropertyOp14
 70
     1
102
RTVSPropertyOp15
 70
     1
102
RTVSPropertyOp16
 70
     1
102
RTVSPropertyOp17
 70
     1
102
RTVSPropertyOp18
 70
     1
102
RTVSPropertyOp19
 70
     1
102
RTVSPropertyOp20
 70
     1
102
RTVSPropertyOp21
 70
     1
102
RTVSPropertyOp22
 70
     1
102
RTVSPropertyOp23
 70
     1
102
RTVSPropertyOp24
 70
     1
102
RTVSPropertyOp25
 70
     1
102
RTVSPropertyOp26
 70
     1
102
RTVSPropertyOp27
 70
     1
102
RTVSPropertyOp28
 70
     1
102
RTVSPropertyOp29
 70
     1
102
RTVSPropertyOp30
 70
     1
102
RTVSPropertyOp31
 70
     1
102
RTVSPropertyOp32
 70
     1
102
RTVSPropertyOp33
 70
     1
102
RTVSPropertyOp34
 70
     1
102
RTVSPropertyOp35
 70
     1
102
RTVSPropertyOp36
 70
     1
102
RTVSPropertyOp37
 70
     1
102
RTVSPropertyOp38
 70
     1
102
RTVSPropertyOp39
 70
     1
102
RTVSPropertyOp40
 70
     1
102
RTVSPropertyOp41
 70
     1
102
RTVSPropertyOp42
 70
     1
102
RTVSPropertyOp43
 70
     1
102
RTVSPropertyOp44
 70
     1
102
RTVSPropertyOp45
 70
     1
102
RTVSPropertyOp46
 70
     1
102
RTVSPropertyOp47
 70
     1
102
RTVSPropertyOp48
 70
     1
102
RTVSPropertyOp49
 70
     1
102
RTVSPropertyOp50
 70
     1
102
RTVSPropertyOp51
 70
     0
102
RTVSPropertyOp52
 70
     0
102
RTVSPropertyOp53
 70
     1
102
RTVSPropertyOp54
 70
     1
102
RTVSPropertyOp55
 70
     1
102
RTVSPropertyOp56
 70
     1
102
RTVSPropertyOp57
 70
     1
102
RTVSPropertyOp58
 70
     1
102
RTVSPropertyOp59
 70
     1
102
RTVSPropertyOp60
 70
     1
102
RTVSPropertyOp61
 70
     1
102
RTVSPropertyOp62
 70
     1
  0
ENDSEC
  0
EOF
