  0
SECTION
  2
HEADER
  9
$ACADVER
  1
AC1015
  9
$ACADMAINTVER
 70
    20
  9
$DWGCODEPAGE
  3
ANSI_932
  9
$INSBASE
 10
0.0
 20
0.0
 30
0.0
  9
$EXTMIN
 10
10.0
 20
9.999999999999998
 30
0.0
  9
$EXTMAX
 10
750.5457679999997
 20
523.951795
 30
0.0
  9
$LIMMIN
 10
0.0
 20
0.0
  9
$LIMMAX
 10
792.0
 20
546.0
  9
$ORTHOMODE
 70
     0
  9
$REGENMODE
 70
     1
  9
$FILLMODE
 70
     1
  9
$QTEXTMODE
 70
     0
  9
$MIRRTEXT
 70
     1
  9
$LTSCALE
 40
20.0
  9
$ATTMODE
 70
     1
  9
$TEXTSIZE
 40
5.0
  9
$TRACEWID
 40
1.0
  9
$TEXTSTYLE
  7
STANDARD
  9
$CLAYER
  8
0
  9
$CELTYPE
  6
BYLAYER
  9
$CECOLOR
 62
   256
  9
$CELTSCALE
 40
1.0
  9
$DISPSILH
 70
     0
  9
$DIMSCALE
 40
1.0
  9
$DIMASZ
 40
3.0
  9
$DIMEXO
 40
1.0
  9
$DIMDLI
 40
10.0
  9
$DIMRND
 40
0.0
  9
$DIMDLE
 40
0.0
  9
$DIMEXE
 40
1.0
  9
$DIMTP
 40
0.0
  9
$DIMTM
 40
0.0
  9
$DIMTXT
 40
3.2
  9
$DIMCEN
 40
0.0
  9
$DIMTSZ
 40
0.0
  9
$DIMTOL
 70
     0
  9
$DIMLIM
 70
     0
  9
$DIMTIH
 70
     0
  9
$DIMTOH
 70
     0
  9
$DIMSE1
 70
     0
  9
$DIMSE2
 70
     0
  9
$DIMTAD
 70
     3
  9
$DIMZIN
 70
     8
  9
$DIMBLK
  1

  9
$DIMASO
 70
     1
  9
$DIMSHO
 70
     1
  9
$DIMPOST
  1

  9
$DIMAPOST
  1

  9
$DIMALT
 70
     0
  9
$DIMALTD
 70
     2
  9
$DIMALTF
 40
25.4
  9
$DIMLFAC
 40
1.0
  9
$DIMTOFL
 70
     1
  9
$DIMTVP
 40
0.0
  9
$DIMTIX
 70
     0
  9
$DIMSOXD
 70
     0
  9
$DIMSAH
 70
     1
  9
$DIMBLK1
  1
OPEN
  9
$DIMBLK2
  1
OPEN
  9
$DIMSTYLE
  2
STANDARD
  9
$DIMCLRD
 70
     0
  9
$DIMCLRE
 70
     0
  9
$DIMCLRT
 70
     0
  9
$DIMTFAC
 40
1.0
  9
$DIMGAP
 40
1.0
  9
$DIMJUST
 70
     0
  9
$DIMSD1
 70
     0
  9
$DIMSD2
 70
     0
  9
$DIMTOLJ
 70
     1
  9
$DIMTZIN
 70
     0
  9
$DIMALTZ
 70
     0
  9
$DIMALTTZ
 70
     0
  9
$DIMUPT
 70
     0
  9
$DIMDEC
 70
     4
  9
$DIMTDEC
 70
     4
  9
$DIMALTU
 70
     2
  9
$DIMALTTD
 70
     2
  9
$DIMTXSTY
  7
STANDARD
  9
$DIMAUNIT
 70
     0
  9
$DIMADEC
 70
     0
  9
$DIMALTRND
 40
0.0
  9
$DIMAZIN
 70
     0
  9
$DIMDSEP
 70
    46
  9
$DIMATFIT
 70
     3
  9
$DIMFRAC
 70
     0
  9
$DIMLDRBLK
  1
OPEN
  9
$DIMLUNIT
 70
     2
  9
$DIMLWD
 70
    -2
  9
$DIMLWE
 70
    -2
  9
$DIMTMOVE
 70
     0
  9
$LUNITS
 70
     2
  9
$LUPREC
 70
     4
  9
$SKETCHINC
 40
1.0
  9
$FILLETRAD
 40
5.0
  9
$AUNITS
 70
     0
  9
$AUPREC
 70
     2
  9
$MENU
  1
.
  9
$ELEVATION
 40
0.0
  9
$PELEVATION
 40
0.0
  9
$THICKNESS
 40
0.0
  9
$LIMCHECK
 70
     0
  9
$CHAMFERA
 40
10.0
  9
$CHAMFERB
 40
10.0
  9
$CHAMFERC
 40
0.0
  9
$CHAMFERD
 40
0.0
  9
$SKPOLY
 70
     0
  9
$TDCREATE
 40
2451302.663617477
  9
$TDUCREATE
 40
2451302.288617477
  9
$TDUPDATE
 40
2457618.724060139
  9
$TDUUPDATE
 40
2457618.349060139
  9
$TDINDWG
 40
0.0000303588
  9
$TDUSRTIMER
 40
0.0000300347
  9
$USRTIMER
 70
     1
  9
$ANGBASE
 50
0.0
  9
$ANGDIR
 70
     0
  9
$PDMODE
 70
     0
  9
$PDSIZE
 40
0.0
  9
$PLINEWID
 40
0.0
  9
$SPLFRAME
 70
     0
  9
$SPLINETYPE
 70
     6
  9
$SPLINESEGS
 70
     8
  9
$HANDSEED
  5
B4B5
  9
$SURFTAB1
 70
     6
  9
$SURFTAB2
 70
     6
  9
$SURFTYPE
 70
     6
  9
$SURFU
 70
     6
  9
$SURFV
 70
     6
  9
$UCSBASE
  2

  9
$UCSNAME
  2

  9
$UCSORG
 10
0.0
 20
0.0
 30
0.0
  9
$UCSXDIR
 10
1.0
 20
0.0
 30
0.0
  9
$UCSYDIR
 10
0.0
 20
1.0
 30
0.0
  9
$UCSORTHOREF
  2

  9
$UCSORTHOVIEW
 70
     0
  9
$UCSORGTOP
 10
0.0
 20
0.0
 30
0.0
  9
$UCSORGBOTTOM
 10
0.0
 20
0.0
 30
0.0
  9
$UCSORGLEFT
 10
0.0
 20
0.0
 30
0.0
  9
$UCSORGRIGHT
 10
0.0
 20
0.0
 30
0.0
  9
$UCSORGFRONT
 10
0.0
 20
0.0
 30
0.0
  9
$UCSORGBACK
 10
0.0
 20
0.0
 30
0.0
  9
$PUCSBASE
  2

  9
$PUCSNAME
  2

  9
$PUCSORG
 10
0.0
 20
0.0
 30
0.0
  9
$PUCSXDIR
 10
1.0
 20
0.0
 30
0.0
  9
$PUCSYDIR
 10
0.0
 20
1.0
 30
0.0
  9
$PUCSORTHOREF
  2

  9
$PUCSORTHOVIEW
 70
     0
  9
$PUCSORGTOP
 10
0.0
 20
0.0
 30
0.0
  9
$PUCSORGBOTTOM
 10
0.0
 20
0.0
 30
0.0
  9
$PUCSORGLEFT
 10
0.0
 20
0.0
 30
0.0
  9
$PUCSORGRIGHT
 10
0.0
 20
0.0
 30
0.0
  9
$PUCSORGFRONT
 10
0.0
 20
0.0
 30
0.0
  9
$PUCSORGBACK
 10
0.0
 20
0.0
 30
0.0
  9
$USERI1
 70
     0
  9
$USERI2
 70
     0
  9
$USERI3
 70
     0
  9
$USERI4
 70
     0
  9
$USERI5
 70
     0
  9
$USERR1
 40
0.0
  9
$USERR2
 40
0.0
  9
$USERR3
 40
0.0
  9
$USERR4
 40
0.0
  9
$USERR5
 40
0.0
  9
$WORLDVIEW
 70
     1
  9
$SHADEDGE
 70
     3
  9
$SHADEDIF
 70
    70
  9
$TILEMODE
 70
     1
  9
$MAXACTVP
 70
    16
  9
$PINSBASE
 10
0.0
 20
0.0
 30
0.0
  9
$PLIMCHECK
 70
     0
  9
$PEXTMIN
 10
1.000000000000000E+20
 20
1.000000000000000E+20
 30
1.000000000000000E+20
  9
$PEXTMAX
 10
-1.000000000000000E+20
 20
-1.000000000000000E+20
 30
-1.000000000000000E+20
  9
$PLIMMIN
 10
0.0
 20
0.0
  9
$PLIMMAX
 10
420.0
 20
297.0
  9
$UNITMODE
 70
     0
  9
$VISRETAIN
 70
     0
  9
$PLINEGEN
 70
     0
  9
$PSLTSCALE
 70
     0
  9
$TREEDEPTH
 70
  3020
  9
$CMLSTYLE
  2
STANDARD
  9
$CMLJUST
 70
     0
  9
$CMLSCALE
 40
1.0
  9
$PROXYGRAPHICS
 70
     1
  9
$MEASUREMENT
 70
     0
  9
$CELWEIGHT
370
    -1
  9
$ENDCAPS
280
     0
  9
$JOINSTYLE
280
     0
  9
$LWDISPLAY
290
     0
  9
$INSUNITS
 70
     0
  9
$HYPERLINKBASE
  1

  9
$STYLESHEET
  1

  9
$XEDIT
290
     1
  9
$CEPSNTYPE
380
     0
  9
$PSTYLEMODE
290
     1
  9
$FINGERPRINTGUID
  2
{D66A8DF5-796D-4D8E-BD64-2DA3A4C568CD}
  9
$VERSIONGUID
  2
{541AEC99-F8B3-44A5-9C64-61F3C2A55D1C}
  9
$EXTNAMES
290
     1
  9
$PSVPSCALE
 40
0.0
  9
$OLESTARTUP
290
     0
  0
ENDSEC
  0
SECTION
  2
CLASSES
  0
CLASS
  1
ACDBDICTIONARYWDFLT
  2
AcDbDictionaryWithDefault
  3
ObjectDBX Classes
 90
        0
280
     0
281
     0
  0
CLASS
  1
ACDBPLACEHOLDER
  2
AcDbPlaceHolder
  3
ObjectDBX Classes
 90
        0
280
     0
281
     0
  0
CLASS
  1
LAYOUT
  2
AcDbLayout
  3
ObjectDBX Classes
 90
        0
280
     0
281
     0
  0
CLASS
  1
DICTIONARYVAR
  2
AcDbDictionaryVar
  3
ObjectDBX Classes
 90
        0
280
     0
281
     0
  0
CLASS
  1
MATERIAL
  2
AcDbMaterial
  3
ObjectDBX Classes
 90
     1153
280
     0
281
     0
  0
CLASS
  1
VISUALSTYLE
  2
AcDbVisualStyle
  3
ObjectDBX Classes
 90
     4095
280
     0
281
     0
  0
CLASS
  1
TABLESTYLE
  2
AcDbTableStyle
  3
ObjectDBX Classes
 90
     4095
280
     0
281
     0
  0
CLASS
  1
SCALE
  2
AcDbScale
  3
ObjectDBX Classes
 90
     1153
280
     0
281
     0
  0
CLASS
  1
MLEADERSTYLE
  2
AcDbMLeaderStyle
  3
ACDB_MLEADERSTYLE_CLASS
 90
     4095
280
     0
281
     0
  0
CLASS
  1
ACDBSECTIONVIEWSTYLE
  2
AcDbSectionViewStyle
  3
ObjectDBX Classes
 90
     1025
280
     0
281
     0
  0
CLASS
  1
ACDBDETAILVIEWSTYLE
  2
AcDbDetailViewStyle
  3
ObjectDBX Classes
 90
     1025
280
     0
281
     0
  0
CLASS
  1
CELLSTYLEMAP
  2
AcDbCellStyleMap
  3
ObjectDBX Classes
 90
     1152
280
     0
281
     0
  0
ENDSEC
  0
SECTION
  2
TABLES
  0
TABLE
  2
VPORT
  5
AFD6
330
0
100
AcDbSymbolTable
 70
     1
  0
VPORT
  5
B3FE
330
AFD6
100
AcDbSymbolTableRecord
100
AcDbViewportTableRecord
  2
*ACTIVE
 70
     0
 10
0.0
 20
0.0
 11
1.0
 21
1.0
 12
592.3379960250124
 22
266.8140118841709
 13
0.0
 23
0.0
 14
10.0
 24
10.0
 15
10.0
 25
10.0
 16
0.0
 26
0.0
 36
1.0
 17
0.0
 27
0.0
 37
0.0
 40
519.342099146432
 41
2.567642956764295
 42
50.0
 43
0.0
 44
0.0
 50
0.0
 51
0.0
 71
     0
 72
   100
 73
     1
 74
     0
 75
     0
 76
     0
 77
     0
 78
     0
281
     0
 65
     1
110
0.0
120
0.0
130
0.0
111
1.0
121
0.0
131
0.0
112
0.0
122
1.0
132
0.0
 79
     0
146
0.0
1001
ACAD_NAV_VCDISPLAY
1070
     3
  0
ENDTAB
  0
TABLE
  2
LTYPE
  5
AFD3
330
0
100
AcDbSymbolTable
 70
     4
  0
LTYPE
  5
AFE1
330
AFD3
100
AcDbSymbolTableRecord
100
AcDbLinetypeTableRecord
  2
BYBLOCK
 70
     0
  3

 72
    65
 73
     0
 40
0.0
  0
LTYPE
  5
AFE2
330
AFD3
100
AcDbSymbolTableRecord
100
AcDbLinetypeTableRecord
  2
BYLAYER
 70
     0
  3

 72
    65
 73
     0
 40
0.0
  0
LTYPE
  5
AFE3
330
AFD3
100
AcDbSymbolTableRecord
100
AcDbLinetypeTableRecord
  2
CONTINUOUS
 70
     0
  3
Solid line
 72
    65
 73
     0
 40
0.0
  0
LTYPE
  5
AFF1
330
AFD3
100
AcDbSymbolTableRecord
100
AcDbLinetypeTableRecord
  2
DASHED
 70
     0
  3
__ __ __ __ __ __ __ __ __ __ __ __ __ __ __ __
 72
    65
 73
     2
 40
0.75
 49
0.5
 74
     0
 49
-0.25
 74
     0
  0
LTYPE
  5
AFF2
330
AFD3
100
AcDbSymbolTableRecord
100
AcDbLinetypeTableRecord
  2
CENTER
 70
     0
  3
____ _ ____ _ ____ _ ____ _ ____ _ ____ _ ____ 
 72
    65
 73
     4
 40
2.0
 49
1.25
 74
     0
 49
-0.25
 74
     0
 49
0.25
 74
     0
 49
-0.25
 74
     0
  0
LTYPE
  5
AFF3
330
AFD3
100
AcDbSymbolTableRecord
100
AcDbLinetypeTableRecord
  2
PHANTOM
 70
     0
  3
______  __  __  ______  __  __  ______  __  __ 
 72
    65
 73
     6
 40
2.5
 49
1.25
 74
     0
 49
-0.25
 74
     0
 49
0.25
 74
     0
 49
-0.25
 74
     0
 49
0.25
 74
     0
 49
-0.25
 74
     0
  0
ENDTAB
  0
TABLE
  2
LAYER
  5
AFD0
330
0
100
AcDbSymbolTable
 70
     8
  0
LAYER
  5
AFDE
102
{ACAD_XDICTIONARY
360
B459
102
}
330
AFD0
100
AcDbSymbolTableRecord
100
AcDbLayerTableRecord
  2
0
 70
     0
 62
     7
  6
CONTINUOUS
370
    -3
390
B407
  0
LAYER
  5
AFF4
102
{ACAD_XDICTIONARY
360
B45B
102
}
330
AFD0
100
AcDbSymbolTableRecord
100
AcDbLayerTableRecord
  2
4
 70
     0
 62
     1
  6
CENTER
370
    -3
390
B407
  0
LAYER
  5
AFF5
102
{ACAD_XDICTIONARY
360
B45D
102
}
330
AFD0
100
AcDbSymbolTableRecord
100
AcDbLayerTableRecord
  2
5
 70
     0
 62
     6
  6
PHANTOM
370
    -3
390
B407
  0
LAYER
  5
AFF6
102
{ACAD_XDICTIONARY
360
B45F
102
}
330
AFD0
100
AcDbSymbolTableRecord
100
AcDbLayerTableRecord
  2
1
 70
     0
 62
     7
  6
CONTINUOUS
370
    -3
390
B407
  0
LAYER
  5
AFF7
102
{ACAD_XDICTIONARY
360
B461
102
}
330
AFD0
100
AcDbSymbolTableRecord
100
AcDbLayerTableRecord
  2
2
 70
     0
 62
     4
  6
CONTINUOUS
370
    -3
390
B407
  0
LAYER
  5
AFF8
102
{ACAD_XDICTIONARY
360
B463
102
}
330
AFD0
100
AcDbSymbolTableRecord
100
AcDbLayerTableRecord
  2
3
 70
     0
 62
     2
  6
DASHED
370
    -3
390
B407
  0
LAYER
  5
AFF9
102
{ACAD_XDICTIONARY
360
B465
102
}
330
AFD0
100
AcDbSymbolTableRecord
100
AcDbLayerTableRecord
  2
6
 70
     0
 62
     5
  6
CONTINUOUS
370
    -3
390
B407
  0
LAYER
  5
AFFA
102
{ACAD_XDICTIONARY
360
B467
102
}
330
AFD0
100
AcDbSymbolTableRecord
100
AcDbLayerTableRecord
  2
7
 70
     0
 62
     3
  6
CONTINUOUS
370
    -3
390
B407
  0
ENDTAB
  0
TABLE
  2
STYLE
  5
AFD1
330
0
100
AcDbSymbolTable
 70
     1
  0
STYLE
  5
AFDF
330
AFD1
100
AcDbSymbolTableRecord
100
AcDbTextStyleTableRecord
  2
STANDARD
 70
     0
 40
0.0
 41
1.0
 50
0.0
 71
     0
 42
5.0
  3
txt
  4

  0
ENDTAB
  0
TABLE
  2
VIEW
  5
AFD4
330
0
100
AcDbSymbolTable
 70
     0
  0
ENDTAB
  0
TABLE
  2
UCS
  5
AFD5
330
0
100
AcDbSymbolTable
 70
     0
  0
ENDTAB
  0
TABLE
  2
APPID
  5
AFD7
330
0
100
AcDbSymbolTable
 70
     3
  0
APPID
  5
AFE0
330
AFD7
100
AcDbSymbolTableRecord
100
AcDbRegAppTableRecord
  2
ACAD
 70
     0
  0
APPID
  5
B473
330
AFD7
100
AcDbSymbolTableRecord
100
AcDbRegAppTableRecord
  2
ACAD_NAV_VCDISPLAY
 70
     0
  0
APPID
  5
B4AC
330
AFD7
100
AcDbSymbolTableRecord
100
AcDbRegAppTableRecord
  2
ACAD_MLEADERVER
 70
     0
  0
ENDTAB
  0
TABLE
  2
DIMSTYLE
  5
AFD8
330
0
100
AcDbSymbolTable
 70
     1
100
AcDbDimStyleTable
 71
     0
  0
DIMSTYLE
105
AFFC
330
AFD8
100
AcDbSymbolTableRecord
100
AcDbDimStyleTableRecord
  2
STANDARD
 70
     0
 41
3.0
 42
1.0
 43
10.0
 44
1.0
 73
     0
 74
     0
 77
     3
 78
     8
140
3.2
141
0.0
147
1.0
172
     1
173
     1
284
     8
285
     8
286
     8
340
AFDF
  0
ENDTAB
  0
TABLE
  2
BLOCK_RECORD
  5
AFCF
330
0
100
AcDbSymbolTable
 70
     1
  0
BLOCK_RECORD
  5
AFEC
102
{ACAD_XDICTIONARY
360
B401
102
}
330
AFCF
100
AcDbSymbolTableRecord
100
AcDbBlockTableRecord
  2
*MODEL_SPACE
340
B455
  0
BLOCK_RECORD
  5
AFE8
102
{ACAD_XDICTIONARY
360
B3FF
102
}
330
AFCF
100
AcDbSymbolTableRecord
100
AcDbBlockTableRecord
  2
*PAPER_SPACE
340
B456
  0
BLOCK_RECORD
  5
B004
330
AFCF
100
AcDbSymbolTableRecord
100
AcDbBlockTableRecord
  2
_OPEN
340
0
  0
ENDTAB
  0
ENDSEC
  0
SECTION
  2
BLOCKS
  0
BLOCK
  5
AFED
330
AFEC
100
AcDbEntity
  8
0
100
AcDbBlockBegin
  2
*MODEL_SPACE
 70
     0
 10
0.0
 20
0.0
 30
0.0
  3
*MODEL_SPACE
  1

  0
ENDBLK
  5
AFEE
330
AFEC
100
AcDbEntity
  8
0
100
AcDbBlockEnd
  0
BLOCK
  5
AFE9
330
AFE8
100
AcDbEntity
 67
     1
  8
0
100
AcDbBlockBegin
  2
*PAPER_SPACE
 70
     0
 10
0.0
 20
0.0
 30
0.0
  3
*PAPER_SPACE
  1

  0
ENDBLK
  5
AFEA
330
AFE8
100
AcDbEntity
 67
     1
  8
0
100
AcDbBlockEnd
  0
BLOCK
  5
B005
330
B004
100
AcDbEntity
  8
0
100
AcDbBlockBegin
  2
_OPEN
 70
     0
 10
0.0
 20
0.0
 30
0.0
  3
_OPEN
  1

  0
LINE
  5
B006
330
B004
100
AcDbEntity
  8
0
  6
ByBlock
 62
     0
100
AcDbLine
 10
-1.0
 20
0.166667
 30
0.0
 11
0.0
 21
0.0
 31
0.0
  0
LINE
  5
B007
330
B004
100
AcDbEntity
  8
0
  6
ByBlock
 62
     0
100
AcDbLine
 10
0.0
 20
0.0
 30
0.0
 11
-1.0
 21
-0.166667
 31
0.0
  0
LINE
  5
B008
330
B004
100
AcDbEntity
  8
0
  6
ByBlock
 62
     0
100
AcDbLine
 10
0.0
 20
0.0
 30
0.0
 11
-1.0
 21
0.0
 31
0.0
  0
ENDBLK
  5
B009
330
B004
100
AcDbEntity
  8
0
100
AcDbBlockEnd
  0
ENDSEC
  0
SECTION
  2
ENTITIES
  0
TEXT
  5
B00A
330
AFEC
100
AcDbEntity
  8
7
  6
Continuous
100
AcDbText
 10
10.0
 20
18.0
 30
0.0
 40
3.0
  1
TYPE No.209MS d=19
100
AcDbText
  0
TEXT
  5
B00B
330
AFEC
100
AcDbEntity
  8
7
  6
Continuous
100
AcDbText
 10
10.0
 20
26.0
 30
0.0
 40
3.0
  1
CODE No.9199
100
AcDbText
  0
TEXT
  5
B00C
330
AFEC
100
AcDbEntity
  8
1
  6
Continuous
100
AcDbText
 10
10.0
 20
10.0
 30
0.0
 40
1.399999999999999
  1
LAYER
100
AcDbText
  0
TEXT
  5
B00D
330
AFEC
100
AcDbEntity
  8
1
  6
Continuous
100
AcDbText
 10
17.97951099999998
 20
10.04873699999998
 30
0.0
 40
1.399999999999999
  1
1
100
AcDbText
  0
TEXT
  5
B00E
330
AFEC
100
AcDbEntity
  8
7
  6
Continuous
100
AcDbText
 10
29.97951099999999
 20
10.04873699999998
 30
0.0
 40
1.399999999999999
  1
7
100
AcDbText
  0
TEXT
  5
B00F
330
AFEC
100
AcDbEntity
  8
4
  6
CENTER
100
AcDbText
 10
23.97951099999999
 20
10.04873699999998
 30
0.0
 40
1.399999999999999
  1
4
100
AcDbText
  0
TEXT
  5
B010
330
AFEC
100
AcDbEntity
  8
3
  6
DASHED
100
AcDbText
 10
21.979511
 20
10.04873699999998
 30
0.0
 40
1.399999999999999
  1
3
100
AcDbText
  0
TEXT
  5
B011
330
AFEC
100
AcDbEntity
  8
2
  6
Continuous
100
AcDbText
 10
19.97951099999999
 20
10.04873699999998
 30
0.0
 40
1.399999999999999
  1
2
100
AcDbText
  0
TEXT
  5
B012
330
AFEC
100
AcDbEntity
  8
6
  6
Continuous
100
AcDbText
 10
27.979511
 20
10.04873699999998
 30
0.0
 40
1.399999999999999
  1
6
100
AcDbText
  0
TEXT
  5
B013
330
AFEC
100
AcDbEntity
  8
5
  6
PHANTOM
100
AcDbText
 10
25.97951099999999
 20
10.04873699999998
 30
0.0
 40
1.399999999999999
  1
5
100
AcDbText
  0
LINE
  5
B014
330
AFEC
100
AcDbEntity
  8
4
  6
CENTER
100
AcDbLine
 10
305.933854
 20
419.010787
 30
0.0
 11
305.933854
 21
247.300078
 31
0.0
  0
ARC
  5
B015
330
AFEC
100
AcDbEntity
  8
1
  6
Continuous
100
AcDbCircle
 10
627.633861
 20
357.9758439999998
 30
0.0
 40
331.4999999999999
100
AcDbArc
 50
177.547502
 51
182.43775
  0
ARC
  5
B016
330
AFEC
100
AcDbEntity
  8
1
  6
Continuous
100
AcDbCircle
 10
-15.766139
 20
357.9758439999998
 30
0.0
 40
331.4999999999999
100
AcDbArc
 50
357.56225
 51
2.437749999999998
  0
LINE
  5
B017
330
AFEC
100
AcDbEntity
  8
4
  6
CENTER
100
AcDbLine
 10
336.933854
 20
231.9758589999999
 30
0.0
 11
175.2057259999999
 21
231.9758589999999
 31
0.0
  0
LINE
  5
B018
330
AFEC
100
AcDbEntity
  8
1
  6
Continuous
100
AcDbLine
 10
315.4338609999999
 20
343.8758439999999
 30
0.0
 11
296.433861
 21
343.8758439999999
 31
0.0
  0
LINE
  5
B019
330
AFEC
100
AcDbEntity
  8
1
  6
Continuous
100
AcDbLine
 10
314.4338609999999
 20
339.9758439999998
 30
0.0
 11
297.4338609999999
 21
339.9758439999998
 31
0.0
  0
LINE
  5
B01A
330
AFEC
100
AcDbEntity
  8
1
  6
Continuous
100
AcDbLine
 10
261.6655809999999
 20
223.478224
 30
0.0
 11
307.418871
 21
254.339208
 31
0.0
  0
LINE
  5
B01B
330
AFEC
100
AcDbEntity
  8
1
  6
Continuous
100
AcDbLine
 10
325.0838539999999
 20
317.4758589999999
 30
0.0
 11
286.783854
 21
317.4758589999999
 31
0.0
  0
LINE
  5
B01C
330
AFEC
100
AcDbEntity
  8
1
  6
Continuous
100
AcDbLine
 10
318.5838539999999
 20
333.4758589999998
 30
0.0
 11
293.283854
 21
333.4758589999998
 31
0.0
  0
LINE
  5
B01D
330
AFEC
100
AcDbEntity
  8
1
  6
Continuous
100
AcDbLine
 10
318.058354
 20
337.9758589999998
 30
0.0
 11
293.809354
 21
337.9758589999998
 31
0.0
  0
ARC
  5
B01E
330
AFEC
100
AcDbEntity
  8
1
  6
Continuous
100
AcDbCircle
 10
286.449137
 20
285.4281169999998
 30
0.0
 40
37.5
100
AcDbArc
 50
304.0
 51
336.673568
  0
ARC
  5
B01F
330
AFEC
100
AcDbEntity
  8
1
  6
Continuous
100
AcDbCircle
 10
322.433854
 20
313.6758589999999
 30
0.0
 40
4.0
100
AcDbArc
 50
0.0
 51
71.80512799999998
  0
LINE
  5
B020
330
AFEC
100
AcDbEntity
  8
1
  6
Continuous
100
AcDbLine
 10
326.433854
 20
313.6758589999999
 30
0.0
 11
326.433854
 21
304.926924
 31
0.0
  0
ARC
  5
B021
330
AFEC
100
AcDbEntity
  8
1
  6
Continuous
100
AcDbCircle
 10
318.5838539999999
 20
326.9758589999999
 30
0.0
 40
6.5
100
AcDbArc
 50
0.0
 51
90.0
  0
LINE
  5
B022
330
AFEC
100
AcDbEntity
  8
1
  6
Continuous
100
AcDbLine
 10
325.0838539999999
 20
326.9758589999999
 30
0.0
 11
325.0838539999999
 21
317.4758589999999
 31
0.0
  0
ARC
  5
B023
330
AFEC
100
AcDbEntity
  8
1
  6
Continuous
100
AcDbCircle
 10
314.4338609999999
 20
340.975844
 30
0.0
 40
1.0
100
AcDbArc
 50
270.0
 51
0.0
  0
ARC
  5
B024
330
AFEC
100
AcDbEntity
  8
1
  6
Continuous
100
AcDbCircle
 10
315.933854
 20
338.9758589999999
 30
0.0
 40
1.0
100
AcDbArc
 50
180.0
 51
270.0
  0
ARC
  5
B025
330
AFEC
100
AcDbEntity
  8
1
  6
Continuous
100
AcDbCircle
 10
313.933854
 20
338.9758589999999
 30
0.0
 40
1.0
100
AcDbArc
 50
0.0
 51
90.0
  0
LINE
  5
B026
330
AFEC
100
AcDbEntity
  8
1
  6
Continuous
100
AcDbLine
 10
318.058354
 20
337.9758589999998
 30
0.0
 11
318.058354
 21
333.4758589999998
 31
0.0
  0
LINE
  5
B027
330
AFEC
100
AcDbEntity
  8
1
  6
Continuous
100
AcDbLine
 10
311.995854
 20
337.9758589999998
 30
0.0
 11
311.995854
 21
333.4758589999998
 31
0.0
  0
LINE
  5
B028
330
AFEC
100
AcDbEntity
  8
1
  6
Continuous
100
AcDbLine
 10
315.4338609999999
 20
343.8758439999999
 30
0.0
 11
315.4338609999999
 21
340.975844
 31
0.0
  0
LINE
  5
B029
330
AFEC
100
AcDbEntity
  8
4
  6
CENTER
100
AcDbLine
 10
255.933854
 20
150.975859
 30
0.0
 11
255.933854
 21
312.9758589999998
 31
0.0
  0
ARC
  5
B02A
330
AFEC
100
AcDbEntity
  8
1
  6
Continuous
100
AcDbCircle
 10
255.933854
 20
231.9758589999999
 30
0.0
 40
16.0
100
AcDbArc
 50
77.83844000000001
 51
354.16156
  0
ARC
  5
B02B
330
AFEC
100
AcDbEntity
  8
1
  6
Continuous
100
AcDbCircle
 10
255.933854
 20
231.9758589999999
 30
0.0
 40
20.5
100
AcDbArc
 50
68.0
 51
4.0
  0
CIRCLE
  5
B02C
330
AFEC
100
AcDbEntity
  8
1
  6
Continuous
100
AcDbCircle
 10
282.9719759999999
 20
194.7610779999999
 30
0.0
 40
3.5
  0
CIRCLE
  5
B02D
330
AFEC
100
AcDbEntity
  8
1
  6
Continuous
100
AcDbCircle
 10
228.895733
 20
194.7610779999999
 30
0.0
 40
3.5
  0
CIRCLE
  5
B02E
330
AFEC
100
AcDbEntity
  8
1
  6
Continuous
100
AcDbCircle
 10
212.1852539999999
 20
246.190641
 30
0.0
 40
3.5
  0
ARC
  5
B02F
330
AFEC
100
AcDbEntity
  8
1
  6
Continuous
100
AcDbCircle
 10
246.4338539999999
 20
289.9799259999999
 30
0.0
 40
45.0
100
AcDbArc
 50
339.541171
 51
11.25676099999999
  0
ARC
  5
B030
330
AFEC
100
AcDbEntity
  8
1
  6
Continuous
100
AcDbCircle
 10
255.933854
 20
231.9758589999999
 30
0.0
 40
10.25
100
AcDbArc
 50
340.401521
 51
91.598479
  0
ARC
  5
B031
330
AFEC
100
AcDbEntity
  8
1
  6
Continuous
100
AcDbCircle
 10
261.0221619999999
 20
223.61927
 30
0.0
 40
20.0
100
AcDbArc
 50
80.149466
 51
98.85475200000001
  0
ARC
  5
B032
330
AFEC
100
AcDbEntity
  8
1
  6
Continuous
100
AcDbCircle
 10
255.933854
 20
231.9758589999999
 30
0.0
 40
10.25
100
AcDbArc
 50
128.0
 51
304.0
  0
LINE
  5
B033
330
AFEC
100
AcDbEntity
  8
1
  6
Continuous
100
AcDbLine
 10
249.623324
 20
240.0529699999999
 30
0.0
 11
282.1701739999999
 21
265.481355
 31
0.0
  0
ARC
  5
B034
330
AFEC
100
AcDbEntity
  8
1
  6
Continuous
100
AcDbCircle
 10
299.682454
 20
246.190641
 30
0.0
 40
3.5
100
AcDbArc
 50
170.0451769999999
 51
77.954823
  0
ARC
  5
B035
330
AFEC
100
AcDbEntity
  8
1
  6
Continuous
100
AcDbCircle
 10
249.558638
 20
239.397456
 30
0.0
 40
20.0
100
AcDbArc
 50
333.1452479999999
 51
351.8505339999999
  0
ARC
  5
B036
330
AFEC
100
AcDbEntity
  8
1
  6
Continuous
100
AcDbCircle
 10
263.4172609999998
 20
237.4128729999999
 30
0.0
 40
6.0
100
AcDbArc
 50
351.8505339999999
 51
80.149466
  0
ARC
  5
B037
330
AFEC
100
AcDbEntity
  8
1
  6
Continuous
100
AcDbCircle
 10
269.8569439999999
 20
281.24157
 30
0.0
 40
20.0
100
AcDbArc
 50
308.0
 51
339.541171
  0
CIRCLE
  5
B038
330
AFEC
100
AcDbEntity
  8
1
  6
Continuous
100
AcDbCircle
 10
255.933854
 20
277.9758589999999
 30
0.0
 40
3.5
  0
ARC
  5
B039
330
AFEC
100
AcDbEntity
  8
1
  6
Continuous
100
AcDbCircle
 10
289.433854
 20
313.6758589999999
 30
0.0
 40
4.0
100
AcDbArc
 50
108.1948719999999
 51
180.0
  0
ARC
  5
B03A
330
AFEC
100
AcDbEntity
  8
1
  6
Continuous
100
AcDbCircle
 10
284.1932009999998
 20
297.49536
 30
0.0
 40
6.5
100
AcDbArc
 50
11.25676099999999
 51
78.996454
  0
LINE
  5
B03B
330
AFEC
100
AcDbEntity
  8
1
  6
Continuous
100
AcDbLine
 10
285.433854
 20
313.6758589999999
 30
0.0
 11
285.433854
 21
303.875859
 31
0.0
  0
ARC
  5
B03C
330
AFEC
100
AcDbEntity
  8
1
  6
Continuous
100
AcDbCircle
 10
293.283854
 20
326.9758589999999
 30
0.0
 40
6.5
100
AcDbArc
 50
90.0
 51
180.0
  0
LINE
  5
B03D
330
AFEC
100
AcDbEntity
  8
1
  6
Continuous
100
AcDbLine
 10
286.783854
 20
326.9758589999999
 30
0.0
 11
286.783854
 21
317.4758589999999
 31
0.0
  0
ARC
  5
B03E
330
AFEC
100
AcDbEntity
  8
1
  6
Continuous
100
AcDbCircle
 10
297.4338609999999
 20
340.975844
 30
0.0
 40
1.0
100
AcDbArc
 50
180.0
 51
270.0
  0
ARC
  5
B03F
330
AFEC
100
AcDbEntity
  8
1
  6
Continuous
100
AcDbCircle
 10
295.933854
 20
338.9758589999999
 30
0.0
 40
1.0
100
AcDbArc
 50
270.0
 51
0.0
  0
ARC
  5
B040
330
AFEC
100
AcDbEntity
  8
1
  6
Continuous
100
AcDbCircle
 10
297.933854
 20
338.9758589999999
 30
0.0
 40
1.0
100
AcDbArc
 50
90.0
 51
180.0
  0
LINE
  5
B041
330
AFEC
100
AcDbEntity
  8
1
  6
Continuous
100
AcDbLine
 10
299.871854
 20
337.9758589999998
 30
0.0
 11
299.871854
 21
333.4758589999998
 31
0.0
  0
LINE
  5
B042
330
AFEC
100
AcDbEntity
  8
1
  6
Continuous
100
AcDbLine
 10
296.433861
 20
343.8758439999999
 30
0.0
 11
296.433861
 21
340.975844
 31
0.0
  0
LINE
  5
B043
330
AFEC
100
AcDbEntity
  8
1
  6
Continuous
100
AcDbLine
 10
293.809354
 20
337.9758589999998
 30
0.0
 11
293.809354
 21
333.4758589999998
 31
0.0
  0
LINE
  5
B044
330
AFEC
100
AcDbEntity
  8
4
  6
CENTER
100
AcDbLine
 10
353.155821
 20
486.801795
 30
0.0
 11
175.2057259999999
 21
486.801795
 31
0.0
  0
CIRCLE
  5
B045
330
AFEC
100
AcDbEntity
  8
1
  6
Continuous
100
AcDbCircle
 10
305.9334779999999
 20
486.801795
 30
0.0
 40
6.0
  0
LINE
  5
B046
330
AFEC
100
AcDbEntity
  8
1
  6
Continuous
100
AcDbLine
 10
301.9535279999999
 20
495.151795
 30
0.0
 11
309.9134279999999
 21
495.151795
 31
0.0
  0
LINE
  5
B047
330
AFEC
100
AcDbEntity
  8
1
  6
Continuous
100
AcDbLine
 10
301.9535279999999
 20
478.451795
 30
0.0
 11
309.9134279999999
 21
478.451795
 31
0.0
  0
LINE
  5
B048
330
AFEC
100
AcDbEntity
  8
1
  6
Continuous
100
AcDbLine
 10
315.1838539999999
 20
410.975844
 30
0.0
 11
296.6838539999999
 21
410.975844
 31
0.0
  0
LINE
  5
B049
330
AFEC
100
AcDbEntity
  8
1
  6
Continuous
100
AcDbLine
 10
315.1838539999999
 20
407.775844
 30
0.0
 11
296.6838539999999
 21
407.775844
 31
0.0
  0
LINE
  5
B04A
330
AFEC
100
AcDbEntity
  8
1
  6
Continuous
100
AcDbLine
 10
315.4338609999999
 20
404.7758439999998
 30
0.0
 11
296.433861
 21
404.7758439999998
 31
0.0
  0
LINE
  5
B04B
330
AFEC
100
AcDbEntity
  8
1
  6
Continuous
100
AcDbLine
 10
314.833861
 20
374.6758439999999
 30
0.0
 11
297.033861
 21
374.6758439999999
 31
0.0
  0
LINE
  5
B04C
330
AFEC
100
AcDbEntity
  8
1
  6
Continuous
100
AcDbLine
 10
314.833861
 20
373.075844
 30
0.0
 11
297.033861
 21
373.075844
 31
0.0
  0
ARC
  5
B04D
330
AFEC
100
AcDbEntity
  8
1
  6
Continuous
100
AcDbCircle
 10
280.1540489999999
 20
436.3067159999998
 30
0.0
 40
77.195079
100
AcDbArc
 50
62.954166
 51
69.49809000000001
  0
CIRCLE
  5
B04E
330
AFEC
100
AcDbEntity
  8
1
  6
Continuous
100
AcDbCircle
 10
305.9334779999999
 20
486.801795
 30
0.0
 40
19.15
  0
LINE
  5
B04F
330
AFEC
100
AcDbEntity
  8
1
  6
Continuous
100
AcDbLine
 10
311.933854
 20
411.4758589999998
 30
0.0
 11
299.933854
 21
411.4758589999998
 31
0.0
  0
LINE
  5
B050
330
AFEC
100
AcDbEntity
  8
1
  6
Continuous
100
AcDbLine
 10
311.9956559999998
 20
476.301795
 30
0.0
 11
299.8713
 21
476.301795
 31
0.0
  0
LINE
  5
B051
330
AFEC
100
AcDbEntity
  8
1
  6
Continuous
100
AcDbLine
 10
311.9956559999998
 20
497.301795
 30
0.0
 11
299.8713
 21
497.301795
 31
0.0
  0
CIRCLE
  5
B052
330
AFEC
100
AcDbEntity
  8
1
  6
Continuous
100
AcDbCircle
 10
305.9334779999999
 20
486.801795
 30
0.0
 40
10.5
  0
LINE
  5
B053
330
AFEC
100
AcDbEntity
  8
1
  6
Continuous
100
AcDbLine
 10
310.433854
 20
412.9758589999998
 30
0.0
 11
301.433854
 21
412.9758589999998
 31
0.0
  0
ARC
  5
B054
330
AFEC
100
AcDbEntity
  8
1
  6
Continuous
100
AcDbCircle
 10
305.9334779999999
 20
486.801795
 30
0.0
 40
20.5
100
AcDbArc
 50
297.0462239999998
 51
62.954166
  0
ARC
  5
B055
330
AFEC
100
AcDbEntity
  8
1
  6
Continuous
100
AcDbCircle
 10
-37.253639
 20
390.225844
 30
0.0
 40
352.9875
100
AcDbArc
 50
357.637622
 51
2.362378
  0
LINE
  5
B056
330
AFEC
100
AcDbEntity
  8
1
  6
Continuous
100
AcDbLine
 10
314.833861
 20
374.6758439999999
 30
0.0
 11
314.833861
 21
373.075844
 31
0.0
  0
ARC
  5
B057
330
AFEC
100
AcDbEntity
  8
1
  6
Continuous
100
AcDbCircle
 10
314.4338609999999
 20
372.075844
 30
0.0
 40
1.0
100
AcDbArc
 50
0.0
 51
90.0
  0
ARC
  5
B058
330
AFEC
100
AcDbEntity
  8
1
  6
Continuous
100
AcDbCircle
 10
314.4338609999999
 20
375.675844
 30
0.0
 40
1.0
100
AcDbArc
 50
270.0
 51
0.0
  0
LINE
  5
B059
330
AFEC
100
AcDbEntity
  8
1
  6
Continuous
100
AcDbLine
 10
314.4338609999999
 20
407.775844
 30
0.0
 11
314.4338609999999
 21
404.7758439999998
 31
0.0
  0
LINE
  5
B05A
330
AFEC
100
AcDbEntity
  8
1
  6
Continuous
100
AcDbLine
 10
315.1838539999999
 20
407.775844
 30
0.0
 11
315.1838539999999
 21
410.975844
 31
0.0
  0
LINE
  5
B05B
330
AFEC
100
AcDbEntity
  8
1
  6
Continuous
100
AcDbLine
 10
309.9134279999999
 20
410.975844
 30
0.0
 11
309.9134279999999
 21
407.775844
 31
0.0
  0
LINE
  5
B05C
330
AFEC
100
AcDbEntity
  8
1
  6
Continuous
100
AcDbLine
 10
310.433854
 20
412.9758589999998
 30
0.0
 11
311.933854
 21
411.4758589999998
 31
0.0
  0
LINE
  5
B05D
330
AFEC
100
AcDbEntity
  8
1
  6
Continuous
100
AcDbLine
 10
311.933854
 20
411.4758589999998
 30
0.0
 11
311.933854
 21
410.9758589999998
 31
0.0
  0
ARC
  5
B05E
330
AFEC
100
AcDbEntity
  8
1
  6
Continuous
100
AcDbCircle
 10
305.9334779999999
 20
486.801795
 30
0.0
 40
9.25
100
AcDbArc
 50
295.484369
 51
64.515631
  0
LINE
  5
B05F
330
AFEC
100
AcDbEntity
  8
1
  6
Continuous
100
AcDbLine
 10
318.0578339999998
 20
486.801795
 30
0.0
 11
311.9956559999998
 21
476.301795
 31
0.0
  0
LINE
  5
B060
330
AFEC
100
AcDbEntity
  8
1
  6
Continuous
100
AcDbLine
 10
318.0578339999998
 20
486.801795
 30
0.0
 11
311.9956559999998
 21
497.301795
 31
0.0
  0
LINE
  5
B061
330
AFEC
100
AcDbEntity
  8
4
  6
CENTER
100
AcDbLine
 10
255.9334779999999
 20
523.614636
 30
0.0
 11
255.9334779999999
 21
449.6002059999998
 31
0.0
  0
LINE
  5
B062
330
AFEC
100
AcDbEntity
  8
4
  6
CENTER
100
AcDbLine
 10
305.9334779999999
 20
515.9722659999999
 30
0.0
 11
305.9334779999999
 21
456.511985
 31
0.0
  0
ARC
  5
B063
330
AFEC
100
AcDbEntity
  8
1
  6
Continuous
100
AcDbCircle
 10
270.482192
 20
473.1481289999998
 30
0.0
 40
30.0
100
AcDbArc
 50
55.26464800000001
 51
78.557979
  0
ARC
  5
B064
330
AFEC
100
AcDbEntity
  8
1
  6
Continuous
100
AcDbCircle
 10
241.384765
 20
473.1481289999998
 30
0.0
 40
30.0
100
AcDbArc
 50
101.4420209999999
 51
124.735352
  0
ARC
  5
B065
330
AFEC
100
AcDbEntity
  8
1
  6
Continuous
100
AcDbCircle
 10
305.9334779999999
 20
486.801795
 30
0.0
 40
20.5
100
AcDbArc
 50
118.4721379999999
 51
241.527862
  0
ARC
  5
B066
330
AFEC
100
AcDbEntity
  8
1
  6
Continuous
100
AcDbCircle
 10
649.1213609999999
 20
390.225844
 30
0.0
 40
352.9875
100
AcDbArc
 50
177.6376219999999
 51
182.375797
  0
LINE
  5
B067
330
AFEC
100
AcDbEntity
  8
1
  6
Continuous
100
AcDbLine
 10
297.033861
 20
373.075844
 30
0.0
 11
297.033861
 21
374.6758439999999
 31
0.0
  0
ARC
  5
B068
330
AFEC
100
AcDbEntity
  8
1
  6
Continuous
100
AcDbCircle
 10
297.4338609999999
 20
372.075844
 30
0.0
 40
1.0
100
AcDbArc
 50
90.0
 51
180.0
  0
ARC
  5
B069
330
AFEC
100
AcDbEntity
  8
1
  6
Continuous
100
AcDbCircle
 10
297.4338609999999
 20
375.675844
 30
0.0
 40
1.0
100
AcDbArc
 50
180.0
 51
270.0
  0
LINE
  5
B06A
330
AFEC
100
AcDbEntity
  8
1
  6
Continuous
100
AcDbLine
 10
297.4338609999999
 20
407.775844
 30
0.0
 11
297.4338609999999
 21
404.7758439999998
 31
0.0
  0
LINE
  5
B06B
330
AFEC
100
AcDbEntity
  8
1
  6
Continuous
100
AcDbLine
 10
301.9535279999999
 20
410.975844
 30
0.0
 11
301.9535279999999
 21
407.775844
 31
0.0
  0
LINE
  5
B06C
330
AFEC
100
AcDbEntity
  8
1
  6
Continuous
100
AcDbLine
 10
296.6838539999999
 20
410.975844
 30
0.0
 11
296.6838539999999
 21
407.775844
 31
0.0
  0
LINE
  5
B06D
330
AFEC
100
AcDbEntity
  8
1
  6
Continuous
100
AcDbLine
 10
301.433854
 20
412.9758589999998
 30
0.0
 11
299.933854
 21
411.4758589999998
 31
0.0
  0
LINE
  5
B06E
330
AFEC
100
AcDbEntity
  8
1
  6
Continuous
100
AcDbLine
 10
299.933854
 20
411.4758589999998
 30
0.0
 11
299.933854
 21
410.9758589999998
 31
0.0
  0
LINE
  5
B06F
330
AFEC
100
AcDbEntity
  8
1
  6
Continuous
100
AcDbLine
 10
262.287727
 20
506.701908
 30
0.0
 11
249.57923
 21
506.701908
 31
0.0
  0
LINE
  5
B070
330
AFEC
100
AcDbEntity
  8
1
  6
Continuous
100
AcDbLine
 10
239.9334779999998
 20
506.601908
 30
0.0
 11
271.933478
 21
506.601908
 31
0.0
  0
LINE
  5
B071
330
AFEC
100
AcDbEntity
  8
1
  6
Continuous
100
AcDbLine
 10
276.4334779999999
 20
502.551908
 30
0.0
 11
235.4334779999998
 21
502.551908
 31
0.0
  0
LINE
  5
B072
330
AFEC
100
AcDbEntity
  8
1
  6
Continuous
100
AcDbLine
 10
273.605051
 20
504.551908
 30
0.0
 11
238.2619049999999
 21
504.551908
 31
0.0
  0
ARC
  5
B073
330
AFEC
100
AcDbEntity
  8
1
  6
Continuous
100
AcDbCircle
 10
249.622948
 20
567.7250759999998
 30
0.0
 40
57.72316800000001
100
AcDbArc
 50
270.0
 51
283.0789429999999
  0
LINE
  5
B074
330
AFEC
100
AcDbEntity
  8
1
  6
Continuous
100
AcDbLine
 10
266.1834779999999
 20
510.001908
 30
0.0
 11
245.6834779999998
 21
510.001908
 31
0.0
  0
LINE
  5
B075
330
AFEC
100
AcDbEntity
  8
1
  6
Continuous
100
AcDbLine
 10
266.1834779999999
 20
507.701908
 30
0.0
 11
245.6834779999998
 21
507.701908
 31
0.0
  0
ARC
  5
B076
330
AFEC
100
AcDbEntity
  8
1
  6
Continuous
100
AcDbCircle
 10
266.1834779999999
 20
460.9239599999998
 30
0.0
 40
49.077948
100
AcDbArc
 50
78.90702799999998
 51
90.0
  0
ARC
  5
B077
330
AFEC
100
AcDbEntity
  8
1
  6
Continuous
100
AcDbCircle
 10
266.1834779999999
 20
460.9239599999998
 30
0.0
 40
46.777948
100
AcDbArc
 50
84.030339
 51
90.0
  0
ARC
  5
B078
330
AFEC
100
AcDbEntity
  8
1
  6
Continuous
100
AcDbCircle
 10
273.605051
 20
501.551908
 30
0.0
 40
3.0
100
AcDbArc
 50
19.47122099999998
 51
90.0
  0
ARC
  5
B079
330
AFEC
100
AcDbEntity
  8
1
  6
Continuous
100
AcDbCircle
 10
262.287727
 20
510.7019079999998
 30
0.0
 40
4.0
100
AcDbArc
 50
270.0
 51
311.409622
  0
LINE
  5
B07A
330
AFEC
100
AcDbEntity
  8
1
  6
Continuous
100
AcDbLine
 10
271.933478
 20
506.601908
 30
0.0
 11
271.933478
 21
504.551908
 31
0.0
  0
LINE
  5
B07B
330
AFEC
100
AcDbEntity
  8
1
  6
Continuous
100
AcDbLine
 10
261.908478
 20
506.701908
 30
0.0
 11
261.908478
 21
506.601908
 31
0.0
  0
ARC
  5
B07C
330
AFEC
100
AcDbEntity
  8
1
  6
Continuous
100
AcDbCircle
 10
238.2619049999999
 20
501.551908
 30
0.0
 40
3.0
100
AcDbArc
 50
90.0
 51
160.528779
  0
ARC
  5
B07D
330
AFEC
100
AcDbEntity
  8
1
  6
Continuous
100
AcDbCircle
 10
249.57923
 20
510.7019079999998
 30
0.0
 40
4.0
100
AcDbArc
 50
228.5903779999999
 51
270.0
  0
LINE
  5
B07E
330
AFEC
100
AcDbEntity
  8
1
  6
Continuous
100
AcDbLine
 10
249.9584779999999
 20
506.701908
 30
0.0
 11
249.9584779999999
 21
506.601908
 31
0.0
  0
LINE
  5
B07F
330
AFEC
100
AcDbEntity
  8
1
  6
Continuous
100
AcDbLine
 10
245.6834779999998
 20
510.001908
 30
0.0
 11
245.6834779999998
 21
507.701908
 31
0.0
  0
LINE
  5
B080
330
AFEC
100
AcDbEntity
  8
1
  6
Continuous
100
AcDbLine
 10
239.9334779999998
 20
506.601908
 30
0.0
 11
239.9334779999998
 21
504.551908
 31
0.0
  0
LINE
  5
B081
330
AFEC
100
AcDbEntity
  8
1
  6
Continuous
100
AcDbLine
 10
262.287727
 20
466.9019079999998
 30
0.0
 11
249.57923
 21
466.9019079999998
 31
0.0
  0
LINE
  5
B082
330
AFEC
100
AcDbEntity
  8
1
  6
Continuous
100
AcDbLine
 10
239.9334779999998
 20
467.001908
 30
0.0
 11
271.933478
 21
467.001908
 31
0.0
  0
LINE
  5
B083
330
AFEC
100
AcDbEntity
  8
1
  6
Continuous
100
AcDbLine
 10
276.4334779999999
 20
471.051908
 30
0.0
 11
235.4334779999998
 21
471.051908
 31
0.0
  0
LINE
  5
B084
330
AFEC
100
AcDbEntity
  8
1
  6
Continuous
100
AcDbLine
 10
273.605051
 20
469.051908
 30
0.0
 11
238.2619049999999
 21
469.051908
 31
0.0
  0
ARC
  5
B085
330
AFEC
100
AcDbEntity
  8
1
  6
Continuous
100
AcDbCircle
 10
270.482192
 20
500.455686
 30
0.0
 40
30.0
100
AcDbArc
 50
281.442021
 51
304.7353549999999
  0
ARC
  5
B086
330
AFEC
100
AcDbEntity
  8
1
  6
Continuous
100
AcDbCircle
 10
305.9334779999999
 20
486.801795
 30
0.0
 40
9.25
100
AcDbArc
 50
115.4843689999999
 51
244.515631
  0
LINE
  5
B087
330
AFEC
100
AcDbEntity
  8
1
  6
Continuous
100
AcDbLine
 10
299.8713
 20
476.301795
 30
0.0
 11
293.8091229999999
 21
486.801795
 31
0.0
  0
LINE
  5
B088
330
AFEC
100
AcDbEntity
  8
1
  6
Continuous
100
AcDbLine
 10
299.8713
 20
497.301795
 30
0.0
 11
293.8091229999999
 21
486.801795
 31
0.0
  0
ARC
  5
B089
330
AFEC
100
AcDbEntity
  8
1
  6
Continuous
100
AcDbCircle
 10
273.605051
 20
472.051908
 30
0.0
 40
3.0
100
AcDbArc
 50
270.0
 51
340.528779
  0
LINE
  5
B08A
330
AFEC
100
AcDbEntity
  8
1
  6
Continuous
100
AcDbLine
 10
271.933478
 20
469.051908
 30
0.0
 11
271.933478
 21
467.001908
 31
0.0
  0
LINE
  5
B08B
330
AFEC
100
AcDbEntity
  8
1
  6
Continuous
100
AcDbLine
 10
261.908478
 20
467.001908
 30
0.0
 11
261.908478
 21
466.9019079999998
 31
0.0
  0
ARC
  5
B08C
330
AFEC
100
AcDbEntity
  8
1
  6
Continuous
100
AcDbCircle
 10
262.287727
 20
462.9019079999998
 30
0.0
 40
4.0
100
AcDbArc
 50
48.590378
 51
90.0
  0
LINE
  5
B08D
330
AFEC
100
AcDbEntity
  8
1
  6
Continuous
100
AcDbLine
 10
245.6834779999998
 20
465.901908
 30
0.0
 11
245.6834779999998
 21
463.6019079999998
 31
0.0
  0
ARC
  5
B08E
330
AFEC
100
AcDbEntity
  8
1
  6
Continuous
100
AcDbCircle
 10
238.2619049999999
 20
472.051908
 30
0.0
 40
3.0
100
AcDbArc
 50
199.4712209999999
 51
270.0
  0
ARC
  5
B08F
330
AFEC
100
AcDbEntity
  8
1
  6
Continuous
100
AcDbCircle
 10
249.57923
 20
462.9019079999998
 30
0.0
 40
4.0
100
AcDbArc
 50
90.0
 51
131.4096219999999
  0
LINE
  5
B090
330
AFEC
100
AcDbEntity
  8
1
  6
Continuous
100
AcDbLine
 10
249.9584779999999
 20
467.001908
 30
0.0
 11
249.9584779999999
 21
466.9019079999998
 31
0.0
  0
LINE
  5
B091
330
AFEC
100
AcDbEntity
  8
1
  6
Continuous
100
AcDbLine
 10
239.9334779999998
 20
469.051908
 30
0.0
 11
239.9334779999998
 21
467.001908
 31
0.0
  0
ARC
  5
B092
330
AFEC
100
AcDbEntity
  8
1
  6
Continuous
100
AcDbCircle
 10
241.384765
 20
500.455686
 30
0.0
 40
30.0
100
AcDbArc
 50
235.264645
 51
258.557979
  0
LINE
  5
B093
330
AFEC
100
AcDbEntity
  8
4
  6
CENTER
100
AcDbLine
 10
68.99196100000001
 20
418.546607
 30
0.0
 11
68.99196100000001
 21
151.2480909999998
 31
0.0
  0
ARC
  5
B094
330
AFEC
100
AcDbEntity
  8
1
  6
Continuous
100
AcDbCircle
 10
-252.708039
 20
357.9758439999998
 30
0.0
 40
331.4999999999999
100
AcDbArc
 50
357.56225
 51
2.452497999999998
  0
ARC
  5
B095
330
AFEC
100
AcDbEntity
  8
1
  6
Continuous
100
AcDbCircle
 10
390.691961
 20
357.9758439999998
 30
0.0
 40
331.4999999999999
100
AcDbArc
 50
177.56225
 51
182.43775
  0
LINE
  5
B096
330
AFEC
100
AcDbEntity
  8
1
  6
Continuous
100
AcDbLine
 10
88.791848
 20
215.975844
 30
0.0
 11
88.791848
 21
247.9758439999999
 31
0.0
  0
LINE
  5
B097
330
AFEC
100
AcDbEntity
  8
1
  6
Continuous
100
AcDbLine
 10
49.191848
 20
215.975844
 30
0.0
 11
49.191848
 21
247.9758439999999
 31
0.0
  0
LINE
  5
B098
330
AFEC
100
AcDbEntity
  8
1
  6
Continuous
100
AcDbLine
 10
84.74184800000001
 20
252.4758439999998
 30
0.0
 11
84.74184800000001
 21
211.475844
 31
0.0
  0
LINE
  5
B099
330
AFEC
100
AcDbEntity
  8
1
  6
Continuous
100
AcDbLine
 10
53.241848
 20
252.4758439999998
 30
0.0
 11
53.241848
 21
211.475844
 31
0.0
  0
LINE
  5
B09A
330
AFEC
100
AcDbEntity
  8
1
  6
Continuous
100
AcDbLine
 10
86.741848
 20
249.6474169999999
 30
0.0
 11
86.741848
 21
214.304271
 31
0.0
  0
LINE
  5
B09B
330
AFEC
100
AcDbEntity
  8
1
  6
Continuous
100
AcDbLine
 10
51.241848
 20
249.6474169999999
 30
0.0
 11
51.241848
 21
214.304271
 31
0.0
  0
ARC
  5
B09C
330
AFEC
100
AcDbEntity
  8
1
  6
Continuous
100
AcDbCircle
 10
54.24184799999999
 20
214.304271
 30
0.0
 40
3.0
100
AcDbArc
 50
180.0
 51
250.5287789999999
  0
LINE
  5
B09D
330
AFEC
100
AcDbEntity
  8
1
  6
Continuous
100
AcDbLine
 10
49.191848
 20
215.975844
 30
0.0
 11
51.241848
 21
215.975844
 31
0.0
  0
ARC
  5
B09E
330
AFEC
100
AcDbEntity
  8
1
  6
Continuous
100
AcDbCircle
 10
82.64562599999997
 20
217.42713
 30
0.0
 40
30.0
100
AcDbArc
 50
191.4420209999999
 51
214.7353549999999
  0
ARC
  5
B09F
330
AFEC
100
AcDbEntity
  8
1
  6
Continuous
100
AcDbCircle
 10
55.338069
 20
217.42713
 30
0.0
 40
30.0
100
AcDbArc
 50
325.264648
 51
348.557979
  0
LINE
  5
B0A0
330
AFEC
100
AcDbEntity
  8
1
  6
Continuous
100
AcDbLine
 10
86.741848
 20
215.975844
 30
0.0
 11
88.791848
 21
215.975844
 31
0.0
  0
ARC
  5
B0A1
330
AFEC
100
AcDbEntity
  8
1
  6
Continuous
100
AcDbCircle
 10
83.741848
 20
214.304271
 30
0.0
 40
3.0
100
AcDbArc
 50
289.471221
 51
0.0
  0
LINE
  5
B0A2
330
AFEC
100
AcDbEntity
  8
4
  6
CENTER
100
AcDbLine
 10
32.17912
 20
231.975844
 30
0.0
 11
106.19355
 21
231.975844
 31
0.0
  0
ARC
  5
B0A3
330
AFEC
100
AcDbEntity
  8
1
  6
Continuous
100
AcDbCircle
 10
119.491848
 20
287.775844
 30
0.0
 40
30.0
100
AcDbArc
 50
180.0
 51
192.0970529999999
  0
ARC
  5
B0A4
330
AFEC
100
AcDbEntity
  8
1
  6
Continuous
100
AcDbCircle
 10
18.491848
 20
287.775844
 30
0.0
 40
30.0
100
AcDbArc
 50
347.902947
 51
0.0
  0
ARC
  5
B0A5
330
AFEC
100
AcDbEntity
  8
1
  6
Continuous
100
AcDbCircle
 10
251.351848
 20
287.775844
 30
0.0
 40
166.5599999999998
100
AcDbArc
 50
175.568982
 51
184.334819
  0
ARC
  5
B0A6
330
AFEC
100
AcDbEntity
  8
1
  6
Continuous
100
AcDbCircle
 10
-113.3681519999999
 20
287.775844
 30
0.0
 40
166.5599999999998
100
AcDbArc
 50
355.665181
 51
4.431017999999999
  0
ARC
  5
B0A7
330
AFEC
100
AcDbEntity
  8
1
  6
Continuous
100
AcDbCircle
 10
251.351848
 20
287.775844
 30
0.0
 40
168.86
100
AcDbArc
 50
175.628398
 51
184.334819
  0
ARC
  5
B0A8
330
AFEC
100
AcDbEntity
  8
1
  6
Continuous
100
AcDbCircle
 10
-113.3681519999999
 20
287.775844
 30
0.0
 40
168.86
100
AcDbArc
 50
355.665181
 51
4.371601999999998
  0
ARC
  5
B0A9
330
AFEC
100
AcDbEntity
  8
1
  6
Continuous
100
AcDbCircle
 10
54.24184799999999
 20
249.6474169999999
 30
0.0
 40
3.0
100
AcDbArc
 50
109.4712209999999
 51
180.0
  0
ARC
  5
B0AA
330
AFEC
100
AcDbEntity
  8
1
  6
Continuous
100
AcDbCircle
 10
35.06601699999999
 20
276.5243029999999
 30
0.0
 40
17.7
100
AcDbArc
 50
337.2957169999999
 51
355.665181
  0
ARC
  5
B0AB
330
AFEC
100
AcDbEntity
  8
1
  6
Continuous
100
AcDbCircle
 10
118.091848
 20
241.7865519999998
 30
0.0
 40
70.0
100
AcDbArc
 50
157.295717
 51
180.0
  0
ARC
  5
B0AC
330
AFEC
100
AcDbEntity
  8
1
  6
Continuous
100
AcDbCircle
 10
292.274173
 20
229.096729
 30
0.0
 40
250.0
100
AcDbArc
 50
167.9029469999998
 51
177.751751
  0
ARC
  5
B0AD
330
AFEC
100
AcDbEntity
  8
1
  6
Continuous
100
AcDbCircle
 10
118.091848
 20
241.7865519999998
 30
0.0
 40
72.29999999999998
100
AcDbArc
 50
157.295717
 51
180.0
  0
LINE
  5
B0AE
330
AFEC
100
AcDbEntity
  8
1
  6
Continuous
100
AcDbLine
 10
49.091848
 20
238.330093
 30
0.0
 11
49.091848
 21
225.621595
 31
0.0
  0
LINE
  5
B0AF
330
AFEC
100
AcDbEntity
  8
1
  6
Continuous
100
AcDbLine
 10
45.791848
 20
241.7865519999998
 30
0.0
 11
45.791848
 21
221.725844
 31
0.0
  0
LINE
  5
B0B0
330
AFEC
100
AcDbEntity
  8
1
  6
Continuous
100
AcDbLine
 10
48.091848
 20
241.7865519999998
 30
0.0
 11
48.091848
 21
221.725844
 31
0.0
  0
LINE
  5
B0B1
330
AFEC
100
AcDbEntity
  8
1
  6
Continuous
100
AcDbLine
 10
45.791848
 20
221.725844
 30
0.0
 11
48.091848
 21
221.725844
 31
0.0
  0
ARC
  5
B0B2
330
AFEC
100
AcDbEntity
  8
1
  6
Continuous
100
AcDbCircle
 10
57.791848
 20
231.975844
 30
0.0
 40
15.5
100
AcDbArc
 50
208.9385279999999
 51
219.2680259999999
  0
ARC
  5
B0B3
330
AFEC
100
AcDbEntity
  8
1
  6
Continuous
100
AcDbCircle
 10
45.09184799999998
 20
225.621595
 30
0.0
 40
4.0
100
AcDbArc
 50
318.5903779999998
 51
0.0
  0
LINE
  5
B0B4
330
AFEC
100
AcDbEntity
  8
1
  6
Continuous
100
AcDbLine
 10
49.091848
 20
226.000844
 30
0.0
 11
49.191848
 21
226.000844
 31
0.0
  0
ARC
  5
B0B5
330
AFEC
100
AcDbEntity
  8
1
  6
Continuous
100
AcDbCircle
 10
57.791848
 20
231.975844
 30
0.0
 40
15.5
100
AcDbArc
 50
140.731974
 51
151.061472
  0
LINE
  5
B0B6
330
AFEC
100
AcDbEntity
  8
1
  6
Continuous
100
AcDbLine
 10
49.091848
 20
237.9508439999999
 30
0.0
 11
49.191848
 21
237.9508439999999
 31
0.0
  0
ARC
  5
B0B7
330
AFEC
100
AcDbEntity
  8
1
  6
Continuous
100
AcDbCircle
 10
45.09184799999998
 20
238.330093
 30
0.0
 40
4.0
100
AcDbArc
 50
0.0
 51
41.40962199999999
  0
LINE
  5
B0B8
330
AFEC
100
AcDbEntity
  8
1
  6
Continuous
100
AcDbLine
 10
49.191848
 20
247.9758439999999
 30
0.0
 11
51.241848
 21
247.9758439999999
 31
0.0
  0
ARC
  5
B0B9
330
AFEC
100
AcDbEntity
  8
1
  6
Continuous
100
AcDbCircle
 10
83.741848
 20
249.6474169999999
 30
0.0
 40
3.0
100
AcDbArc
 50
0.0
 51
70.528779
  0
ARC
  5
B0BA
330
AFEC
100
AcDbEntity
  8
1
  6
Continuous
100
AcDbCircle
 10
-154.2904769999998
 20
229.096729
 30
0.0
 40
250.0
100
AcDbArc
 50
2.248248999999999
 51
12.09705299999999
  0
ARC
  5
B0BB
330
AFEC
100
AcDbEntity
  8
1
  6
Continuous
100
AcDbCircle
 10
19.891848
 20
241.7865519999998
 30
0.0
 40
72.29999999999998
100
AcDbArc
 50
0.0
 51
22.704283
  0
ARC
  5
B0BC
330
AFEC
100
AcDbEntity
  8
1
  6
Continuous
100
AcDbCircle
 10
19.891848
 20
241.7865519999998
 30
0.0
 40
70.0
100
AcDbArc
 50
0.0
 51
22.704283
  0
LINE
  5
B0BD
330
AFEC
100
AcDbEntity
  8
1
  6
Continuous
100
AcDbLine
 10
88.89184799999998
 20
238.330093
 30
0.0
 11
88.89184799999998
 21
225.621595
 31
0.0
  0
LINE
  5
B0BE
330
AFEC
100
AcDbEntity
  8
1
  6
Continuous
100
AcDbLine
 10
94.49184800000001
 20
239.4758439999999
 30
0.0
 11
94.49184800000001
 21
224.475844
 31
0.0
  0
LINE
  5
B0BF
330
AFEC
100
AcDbEntity
  8
1
  6
Continuous
100
AcDbLine
 10
92.19184799999998
 20
241.7865519999998
 30
0.0
 11
92.19184799999998
 21
221.725844
 31
0.0
  0
LINE
  5
B0C0
330
AFEC
100
AcDbEntity
  8
1
  6
Continuous
100
AcDbLine
 10
89.89184799999998
 20
241.7865519999998
 30
0.0
 11
89.89184799999998
 21
221.725844
 31
0.0
  0
LINE
  5
B0C1
330
AFEC
100
AcDbEntity
  8
1
  6
Continuous
100
AcDbLine
 10
92.19184799999998
 20
224.475844
 30
0.0
 11
94.49184800000001
 21
224.475844
 31
0.0
  0
ARC
  5
B0C2
330
AFEC
100
AcDbEntity
  8
1
  6
Continuous
100
AcDbCircle
 10
80.19184799999996
 20
231.975844
 30
0.0
 40
15.5
100
AcDbArc
 50
320.7319739999999
 51
331.0614719999999
  0
ARC
  5
B0C3
330
AFEC
100
AcDbEntity
  8
1
  6
Continuous
100
AcDbCircle
 10
92.89184799999999
 20
225.621595
 30
0.0
 40
4.0
100
AcDbArc
 50
180.0
 51
221.409622
  0
LINE
  5
B0C4
330
AFEC
100
AcDbEntity
  8
1
  6
Continuous
100
AcDbLine
 10
89.89184799999998
 20
221.725844
 30
0.0
 11
92.19184799999998
 21
221.725844
 31
0.0
  0
LINE
  5
B0C5
330
AFEC
100
AcDbEntity
  8
1
  6
Continuous
100
AcDbLine
 10
88.791848
 20
226.000844
 30
0.0
 11
88.89184799999998
 21
226.000844
 31
0.0
  0
LINE
  5
B0C6
330
AFEC
100
AcDbEntity
  8
1
  6
Continuous
100
AcDbLine
 10
86.741848
 20
247.9758439999999
 30
0.0
 11
88.791848
 21
247.9758439999999
 31
0.0
  0
ARC
  5
B0C7
330
AFEC
100
AcDbEntity
  8
1
  6
Continuous
100
AcDbCircle
 10
80.19184799999996
 20
231.975844
 30
0.0
 40
15.5
100
AcDbArc
 50
28.938528
 51
39.268026
  0
LINE
  5
B0C8
330
AFEC
100
AcDbEntity
  8
1
  6
Continuous
100
AcDbLine
 10
92.19184799999998
 20
239.4758439999999
 30
0.0
 11
94.49184800000001
 21
239.4758439999999
 31
0.0
  0
LINE
  5
B0C9
330
AFEC
100
AcDbEntity
  8
1
  6
Continuous
100
AcDbLine
 10
88.791848
 20
237.9508439999999
 30
0.0
 11
88.89184799999998
 21
237.9508439999999
 31
0.0
  0
ARC
  5
B0CA
330
AFEC
100
AcDbEntity
  8
1
  6
Continuous
100
AcDbCircle
 10
92.89184799999999
 20
238.330093
 30
0.0
 40
4.0
100
AcDbArc
 50
138.5903779999999
 51
180.0
  0
ARC
  5
B0CB
330
AFEC
100
AcDbEntity
  8
1
  6
Continuous
100
AcDbCircle
 10
82.64562599999997
 20
246.524558
 30
0.0
 40
30.0
100
AcDbArc
 50
145.264645
 51
168.557979
  0
ARC
  5
B0CC
330
AFEC
100
AcDbEntity
  8
1
  6
Continuous
100
AcDbCircle
 10
35.06601699999999
 20
276.5243029999999
 30
0.0
 40
20.0
100
AcDbArc
 50
337.2957169999999
 51
355.665181
  0
ARC
  5
B0CD
330
AFEC
100
AcDbEntity
  8
1
  6
Continuous
100
AcDbCircle
 10
55.338069
 20
246.524558
 30
0.0
 40
30.0
100
AcDbArc
 50
11.44202099999999
 51
34.735352
  0
ARC
  5
B0CE
330
AFEC
100
AcDbEntity
  8
1
  6
Continuous
100
AcDbCircle
 10
102.917679
 20
276.5243029999999
 30
0.0
 40
17.7
100
AcDbArc
 50
184.334819
 51
202.704283
  0
ARC
  5
B0CF
330
AFEC
100
AcDbEntity
  8
1
  6
Continuous
100
AcDbCircle
 10
102.917679
 20
276.5243029999999
 30
0.0
 40
20.0
100
AcDbArc
 50
184.334819
 51
202.704283
  0
ARC
  5
B0D0
330
AFEC
100
AcDbEntity
  8
1
  6
Continuous
100
AcDbCircle
 10
55.68504499999999
 20
300.8758439999998
 30
0.0
 40
3.0
100
AcDbArc
 50
90.0
 51
184.431018
  0
ARC
  5
B0D1
330
AFEC
100
AcDbEntity
  8
1
  6
Continuous
100
AcDbCircle
 10
56.341961
 20
326.9758439999999
 30
0.0
 40
6.5
100
AcDbArc
 50
90.0
 51
180.0
  0
LINE
  5
B0D2
330
AFEC
100
AcDbEntity
  8
1
  6
Continuous
100
AcDbLine
 10
49.841961
 20
317.475844
 30
0.0
 11
88.14196099999998
 21
317.475844
 31
0.0
  0
ARC
  5
B0D3
330
AFEC
100
AcDbEntity
  8
1
  6
Continuous
100
AcDbCircle
 10
52.49196099999998
 20
313.6758439999999
 30
0.0
 40
4.0
100
AcDbArc
 50
108.1948719999999
 51
180.0
  0
LINE
  5
B0D4
330
AFEC
100
AcDbEntity
  8
1
  6
Continuous
100
AcDbLine
 10
48.49184799999999
 20
313.6758439999999
 30
0.0
 11
48.49184799999999
 21
287.775844
 31
0.0
  0
LINE
  5
B0D5
330
AFEC
100
AcDbEntity
  8
1
  6
Continuous
100
AcDbLine
 10
49.841961
 20
326.9758439999999
 30
0.0
 11
49.841961
 21
317.475844
 31
0.0
  0
ARC
  5
B0D6
330
AFEC
100
AcDbEntity
  8
1
  6
Continuous
100
AcDbCircle
 10
85.49196100000001
 20
313.6758439999999
 30
0.0
 40
4.0
100
AcDbArc
 50
0.0
 51
71.80512799999998
  0
LINE
  5
B0D7
330
AFEC
100
AcDbEntity
  8
1
  6
Continuous
100
AcDbLine
 10
55.68504499999999
 20
303.8758439999999
 30
0.0
 11
61.33755
 21
303.8758439999999
 31
0.0
  0
ARC
  5
B0D8
330
AFEC
100
AcDbEntity
  8
1
  6
Continuous
100
AcDbCircle
 10
57.99184799999999
 20
300.8758439999998
 30
0.0
 40
3.0
100
AcDbArc
 50
90.0
 51
184.3716019999999
  0
LINE
  5
B0D9
330
AFEC
100
AcDbEntity
  8
1
  6
Continuous
100
AcDbLine
 10
89.49184800000002
 20
313.6758439999999
 30
0.0
 11
89.49184800000002
 21
287.775844
 31
0.0
  0
ARC
  5
B0DA
330
AFEC
100
AcDbEntity
  8
1
  6
Continuous
100
AcDbCircle
 10
79.991848
 20
300.8758439999998
 30
0.0
 40
3.0
100
AcDbArc
 50
355.6283979999999
 51
90.0
  0
LINE
  5
B0DB
330
AFEC
100
AcDbEntity
  8
1
  6
Continuous
100
AcDbLine
 10
76.646371
 20
303.8758439999999
 30
0.0
 11
82.29864999999998
 21
303.8758439999999
 31
0.0
  0
ARC
  5
B0DC
330
AFEC
100
AcDbEntity
  8
1
  6
Continuous
100
AcDbCircle
 10
82.29864999999998
 20
300.8758439999998
 30
0.0
 40
3.0
100
AcDbArc
 50
355.568982
 51
90.0
  0
LINE
  5
B0DD
330
AFEC
100
AcDbEntity
  8
1
  6
Continuous
100
AcDbLine
 10
59.49196099999999
 20
343.8758439999999
 30
0.0
 11
78.491961
 21
343.8758439999999
 31
0.0
  0
LINE
  5
B0DE
330
AFEC
100
AcDbEntity
  8
1
  6
Continuous
100
AcDbLine
 10
56.341961
 20
333.4758439999998
 30
0.0
 11
81.64196099999998
 21
333.4758439999998
 31
0.0
  0
LINE
  5
B0DF
330
AFEC
100
AcDbEntity
  8
1
  6
Continuous
100
AcDbLine
 10
60.49196099999999
 20
339.9758439999998
 30
0.0
 11
77.491961
 21
339.9758439999998
 31
0.0
  0
LINE
  5
B0E0
330
AFEC
100
AcDbEntity
  8
1
  6
Continuous
100
AcDbLine
 10
58.491961
 20
337.9758439999998
 30
0.0
 11
79.491961
 21
337.9758439999998
 31
0.0
  0
ARC
  5
B0E1
330
AFEC
100
AcDbEntity
  8
1
  6
Continuous
100
AcDbCircle
 10
60.49196099999999
 20
340.975844
 30
0.0
 40
1.0
100
AcDbArc
 50
180.0
 51
270.0
  0
LINE
  5
B0E2
330
AFEC
100
AcDbEntity
  8
1
  6
Continuous
100
AcDbLine
 10
58.491961
 20
337.9758439999998
 30
0.0
 11
58.491961
 21
333.4758439999998
 31
0.0
  0
ARC
  5
B0E3
330
AFEC
100
AcDbEntity
  8
1
  6
Continuous
100
AcDbCircle
 10
58.99196100000001
 20
338.975844
 30
0.0
 40
1.0
100
AcDbArc
 50
270.0
 51
0.0
  0
ARC
  5
B0E4
330
AFEC
100
AcDbEntity
  8
1
  6
Continuous
100
AcDbCircle
 10
60.991961
 20
338.975844
 30
0.0
 40
1.0
100
AcDbArc
 50
90.0
 51
180.0
  0
LINE
  5
B0E5
330
AFEC
100
AcDbEntity
  8
1
  6
Continuous
100
AcDbLine
 10
59.49196099999999
 20
343.8758439999999
 30
0.0
 11
59.49196099999999
 21
340.975844
 31
0.0
  0
LINE
  5
B0E6
330
AFEC
100
AcDbEntity
  8
1
  6
Continuous
100
AcDbLine
 10
68.99196100000001
 20
337.9758439999998
 30
0.0
 11
68.99196100000001
 21
333.4758439999998
 31
0.0
  0
ARC
  5
B0E7
330
AFEC
100
AcDbEntity
  8
1
  6
Continuous
100
AcDbCircle
 10
81.64196099999998
 20
326.9758439999999
 30
0.0
 40
6.5
100
AcDbArc
 50
0.0
 51
90.0
  0
LINE
  5
B0E8
330
AFEC
100
AcDbEntity
  8
1
  6
Continuous
100
AcDbLine
 10
88.14196099999998
 20
326.9758439999999
 30
0.0
 11
88.14196099999998
 21
317.475844
 31
0.0
  0
ARC
  5
B0E9
330
AFEC
100
AcDbEntity
  8
1
  6
Continuous
100
AcDbCircle
 10
77.491961
 20
340.975844
 30
0.0
 40
1.0
100
AcDbArc
 50
270.0
 51
0.0
  0
LINE
  5
B0EA
330
AFEC
100
AcDbEntity
  8
1
  6
Continuous
100
AcDbLine
 10
79.491961
 20
337.9758439999998
 30
0.0
 11
79.491961
 21
333.4758439999998
 31
0.0
  0
ARC
  5
B0EB
330
AFEC
100
AcDbEntity
  8
1
  6
Continuous
100
AcDbCircle
 10
78.99196100000001
 20
338.975844
 30
0.0
 40
1.0
100
AcDbArc
 50
180.0
 51
270.0
  0
ARC
  5
B0EC
330
AFEC
100
AcDbEntity
  8
1
  6
Continuous
100
AcDbCircle
 10
76.991961
 20
338.975844
 30
0.0
 40
1.0
100
AcDbArc
 50
0.0
 51
90.0
  0
LINE
  5
B0ED
330
AFEC
100
AcDbEntity
  8
1
  6
Continuous
100
AcDbLine
 10
78.491961
 20
343.8758439999999
 30
0.0
 11
78.491961
 21
340.975844
 31
0.0
  0
ARC
  5
B0EE
330
AFEC
100
AcDbEntity
  8
1
  6
Continuous
100
AcDbCircle
 10
-274.195539
 20
390.225844
 30
0.0
 40
352.9875
100
AcDbArc
 50
357.6242029999999
 51
2.362378
  0
ARC
  5
B0EF
330
AFEC
100
AcDbEntity
  8
1
  6
Continuous
100
AcDbCircle
 10
412.179461
 20
390.225844
 30
0.0
 40
352.9875
100
AcDbArc
 50
177.6376219999999
 51
182.362378
  0
LINE
  5
B0F0
330
AFEC
100
AcDbEntity
  8
1
  6
Continuous
100
AcDbLine
 10
60.091961
 20
374.6758439999999
 30
0.0
 11
77.89196099999998
 21
374.6758439999999
 31
0.0
  0
LINE
  5
B0F1
330
AFEC
100
AcDbEntity
  8
1
  6
Continuous
100
AcDbLine
 10
60.091961
 20
373.075844
 30
0.0
 11
77.89196099999998
 21
373.075844
 31
0.0
  0
LINE
  5
B0F2
330
AFEC
100
AcDbEntity
  8
1
  6
Continuous
100
AcDbLine
 10
60.091961
 20
374.6758439999999
 30
0.0
 11
60.091961
 21
373.075844
 31
0.0
  0
ARC
  5
B0F3
330
AFEC
100
AcDbEntity
  8
1
  6
Continuous
100
AcDbCircle
 10
60.49196099999999
 20
372.075844
 30
0.0
 40
1.0
100
AcDbArc
 50
90.0
 51
180.0
  0
ARC
  5
B0F4
330
AFEC
100
AcDbEntity
  8
1
  6
Continuous
100
AcDbCircle
 10
60.49196099999999
 20
375.675844
 30
0.0
 40
1.0
100
AcDbArc
 50
180.0
 51
270.0
  0
LINE
  5
B0F5
330
AFEC
100
AcDbEntity
  8
1
  6
Continuous
100
AcDbLine
 10
77.89196099999998
 20
373.075844
 30
0.0
 11
77.89196099999998
 21
374.6758439999999
 31
0.0
  0
ARC
  5
B0F6
330
AFEC
100
AcDbEntity
  8
1
  6
Continuous
100
AcDbCircle
 10
77.491961
 20
372.075844
 30
0.0
 40
1.0
100
AcDbArc
 50
0.0
 51
90.0
  0
ARC
  5
B0F7
330
AFEC
100
AcDbEntity
  8
1
  6
Continuous
100
AcDbCircle
 10
77.491961
 20
375.675844
 30
0.0
 40
1.0
100
AcDbArc
 50
270.0
 51
0.0
  0
LINE
  5
B0F8
330
AFEC
100
AcDbEntity
  8
1
  6
Continuous
100
AcDbLine
 10
60.641961
 20
410.975844
 30
0.0
 11
77.341961
 21
410.975844
 31
0.0
  0
LINE
  5
B0F9
330
AFEC
100
AcDbEntity
  8
1
  6
Continuous
100
AcDbLine
 10
60.49196099999999
 20
407.775844
 30
0.0
 11
77.491961
 21
407.775844
 31
0.0
  0
LINE
  5
B0FA
330
AFEC
100
AcDbEntity
  8
1
  6
Continuous
100
AcDbLine
 10
59.49196099999999
 20
404.7758439999998
 30
0.0
 11
78.491961
 21
404.7758439999998
 31
0.0
  0
LINE
  5
B0FB
330
AFEC
100
AcDbEntity
  8
1
  6
Continuous
100
AcDbLine
 10
62.99196099999999
 20
411.475844
 30
0.0
 11
64.491961
 21
412.9758439999998
 31
0.0
  0
LINE
  5
B0FC
330
AFEC
100
AcDbEntity
  8
1
  6
Continuous
100
AcDbLine
 10
62.99196099999999
 20
411.475844
 30
0.0
 11
74.991961
 21
411.475844
 31
0.0
  0
LINE
  5
B0FD
330
AFEC
100
AcDbEntity
  8
1
  6
Continuous
100
AcDbLine
 10
60.49196099999999
 20
407.775844
 30
0.0
 11
60.49196099999999
 21
404.7758439999998
 31
0.0
  0
LINE
  5
B0FE
330
AFEC
100
AcDbEntity
  8
1
  6
Continuous
100
AcDbLine
 10
60.641961
 20
410.975844
 30
0.0
 11
60.641961
 21
407.775844
 31
0.0
  0
LINE
  5
B0FF
330
AFEC
100
AcDbEntity
  8
1
  6
Continuous
100
AcDbLine
 10
62.99196099999999
 20
411.475844
 30
0.0
 11
62.99196099999999
 21
410.975844
 31
0.0
  0
LINE
  5
B100
330
AFEC
100
AcDbEntity
  8
1
  6
Continuous
100
AcDbLine
 10
64.491961
 20
412.9758439999998
 30
0.0
 11
73.491961
 21
412.9758439999998
 31
0.0
  0
LINE
  5
B101
330
AFEC
100
AcDbEntity
  8
1
  6
Continuous
100
AcDbLine
 10
74.991961
 20
411.475844
 30
0.0
 11
73.491961
 21
412.9758439999998
 31
0.0
  0
LINE
  5
B102
330
AFEC
100
AcDbEntity
  8
1
  6
Continuous
100
AcDbLine
 10
74.991961
 20
411.475844
 30
0.0
 11
74.991961
 21
410.975844
 31
0.0
  0
LINE
  5
B103
330
AFEC
100
AcDbEntity
  8
1
  6
Continuous
100
AcDbLine
 10
77.491961
 20
407.775844
 30
0.0
 11
77.491961
 21
404.7758439999998
 31
0.0
  0
LINE
  5
B104
330
AFEC
100
AcDbEntity
  8
1
  6
Continuous
100
AcDbLine
 10
77.341961
 20
410.975844
 30
0.0
 11
77.341961
 21
407.775844
 31
0.0
  0
LINE
  5
B105
330
AFEC
100
AcDbEntity
  8
1
  6
Continuous
100
AcDbLine
 10
43.49184799999998
 20
239.4758439999999
 30
0.0
 11
43.49184799999998
 21
224.475844
 31
0.0
  0
LINE
  5
B106
330
AFEC
100
AcDbEntity
  8
1
  6
Continuous
100
AcDbLine
 10
43.49184799999998
 20
238.9040479999999
 30
0.0
 11
43.49184799999998
 21
225.047641
 31
0.0
  0
ARC
  5
B107
330
AFEC
100
AcDbEntity
  8
1
  6
Continuous
100
AcDbCircle
 10
49.45594899999999
 20
231.975844
 30
0.0
 40
11.464102
100
AcDbArc
 50
162.412046
 51
197.5879539999999
  0
LINE
  5
B108
330
AFEC
100
AcDbEntity
  8
1
  6
Continuous
100
AcDbLine
 10
37.99184799999999
 20
237.9758439999999
 30
0.0
 11
37.99184799999999
 21
225.975844
 31
0.0
  0
LINE
  5
B109
330
AFEC
100
AcDbEntity
  8
1
  6
Continuous
100
AcDbLine
 10
43.49184799999998
 20
224.475844
 30
0.0
 11
45.791848
 21
224.475844
 31
0.0
  0
LINE
  5
B10A
330
AFEC
100
AcDbEntity
  8
1
  6
Continuous
100
AcDbLine
 10
38.527746
 20
228.511743
 30
0.0
 11
43.49184799999998
 21
228.511743
 31
0.0
  0
LINE
  5
B10B
330
AFEC
100
AcDbEntity
  8
1
  6
Continuous
100
AcDbLine
 10
38.527746
 20
225.047641
 30
0.0
 11
37.99184799999999
 21
225.975844
 31
0.0
  0
LINE
  5
B10C
330
AFEC
100
AcDbEntity
  8
1
  6
Continuous
100
AcDbLine
 10
38.527746
 20
225.047641
 30
0.0
 11
43.49184799999998
 21
225.047641
 31
0.0
  0
ARC
  5
B10D
330
AFEC
100
AcDbEntity
  8
1
  6
Continuous
100
AcDbCircle
 10
41.058835
 20
226.7796919999999
 30
0.0
 40
3.066986999999998
100
AcDbArc
 50
145.615753
 51
205.615753
  0
LINE
  5
B10E
330
AFEC
100
AcDbEntity
  8
1
  6
Continuous
100
AcDbLine
 10
43.49184799999998
 20
239.4758439999999
 30
0.0
 11
45.791848
 21
239.4758439999999
 31
0.0
  0
LINE
  5
B10F
330
AFEC
100
AcDbEntity
  8
1
  6
Continuous
100
AcDbLine
 10
38.527746
 20
238.9040479999999
 30
0.0
 11
37.99184799999999
 21
237.9758439999999
 31
0.0
  0
ARC
  5
B110
330
AFEC
100
AcDbEntity
  8
1
  6
Continuous
100
AcDbCircle
 10
41.058835
 20
237.171997
 30
0.0
 40
3.066986999999998
100
AcDbArc
 50
154.3842469999999
 51
214.384247
  0
LINE
  5
B111
330
AFEC
100
AcDbEntity
  8
1
  6
Continuous
100
AcDbLine
 10
38.527746
 20
238.9040479999999
 30
0.0
 11
43.49184799999998
 21
238.9040479999999
 31
0.0
  0
LINE
  5
B112
330
AFEC
100
AcDbEntity
  8
1
  6
Continuous
100
AcDbLine
 10
38.527746
 20
235.4399459999999
 30
0.0
 11
43.49184799999998
 21
235.4399459999999
 31
0.0
  0
LINE
  5
B113
330
AFEC
100
AcDbEntity
  8
1
  6
Continuous
100
AcDbLine
 10
99.49184800000001
 20
237.9758439999999
 30
0.0
 11
99.49184800000001
 21
225.975844
 31
0.0
  0
LINE
  5
B114
330
AFEC
100
AcDbEntity
  8
1
  6
Continuous
100
AcDbLine
 10
100.991848
 20
234.975844
 30
0.0
 11
100.991848
 21
228.9758439999999
 31
0.0
  0
ARC
  5
B115
330
AFEC
100
AcDbEntity
  8
1
  6
Continuous
100
AcDbCircle
 10
88.02774599999997
 20
231.975844
 30
0.0
 40
11.464102
100
AcDbArc
 50
342.4120459999999
 51
17.587954
  0
LINE
  5
B116
330
AFEC
100
AcDbEntity
  8
1
  6
Continuous
100
AcDbLine
 10
94.49184800000001
 20
237.9758439999999
 30
0.0
 11
94.49184800000001
 21
225.975844
 31
0.0
  0
ARC
  5
B117
330
AFEC
100
AcDbEntity
  8
1
  6
Continuous
100
AcDbCircle
 10
105.955949
 20
231.975844
 30
0.0
 40
11.464102
100
AcDbArc
 50
162.412046
 51
197.5879539999999
  0
LINE
  5
B118
330
AFEC
100
AcDbEntity
  8
1
  6
Continuous
100
AcDbLine
 10
95.027746
 20
225.047641
 30
0.0
 11
98.955949
 21
225.047641
 31
0.0
  0
LINE
  5
B119
330
AFEC
100
AcDbEntity
  8
1
  6
Continuous
100
AcDbLine
 10
95.027746
 20
228.511743
 30
0.0
 11
98.955949
 21
228.511743
 31
0.0
  0
ARC
  5
B11A
330
AFEC
100
AcDbEntity
  8
1
  6
Continuous
100
AcDbCircle
 10
97.55883500000001
 20
226.7796919999999
 30
0.0
 40
3.066986999999998
100
AcDbArc
 50
145.615753
 51
214.384247
  0
ARC
  5
B11B
330
AFEC
100
AcDbEntity
  8
1
  6
Continuous
100
AcDbCircle
 10
96.42485999999999
 20
226.7796919999999
 30
0.0
 40
3.066986999999998
100
AcDbArc
 50
334.384247
 51
34.38424699999998
  0
LINE
  5
B11C
330
AFEC
100
AcDbEntity
  8
1
  6
Continuous
100
AcDbLine
 10
98.955949
 20
225.047641
 30
0.0
 11
99.49184800000001
 21
225.975844
 31
0.0
  0
LINE
  5
B11D
330
AFEC
100
AcDbEntity
  8
1
  6
Continuous
100
AcDbLine
 10
99.99184800000001
 20
227.975844
 30
0.0
 11
100.991848
 21
228.9758439999999
 31
0.0
  0
LINE
  5
B11E
330
AFEC
100
AcDbEntity
  8
1
  6
Continuous
100
AcDbLine
 10
99.49184800000001
 20
227.975844
 30
0.0
 11
99.99184800000001
 21
227.975844
 31
0.0
  0
LINE
  5
B11F
330
AFEC
100
AcDbEntity
  8
2
  6
Continuous
100
AcDbLine
 10
99.49184800000001
 20
228.6523439999999
 30
0.0
 11
100.6683479999999
 21
228.6523439999999
 31
0.0
  0
LINE
  5
B120
330
AFEC
100
AcDbEntity
  8
1
  6
Continuous
100
AcDbLine
 10
95.027746
 20
235.4399459999999
 30
0.0
 11
98.955949
 21
235.4399459999999
 31
0.0
  0
LINE
  5
B121
330
AFEC
100
AcDbEntity
  8
1
  6
Continuous
100
AcDbLine
 10
95.027746
 20
238.9040479999999
 30
0.0
 11
98.955949
 21
238.9040479999999
 31
0.0
  0
ARC
  5
B122
330
AFEC
100
AcDbEntity
  8
1
  6
Continuous
100
AcDbCircle
 10
97.55883500000001
 20
237.171997
 30
0.0
 40
3.066986999999998
100
AcDbArc
 50
145.615753
 51
214.384247
  0
LINE
  5
B123
330
AFEC
100
AcDbEntity
  8
2
  6
Continuous
100
AcDbLine
 10
99.49184800000001
 20
235.299344
 30
0.0
 11
100.6683479999999
 21
235.299344
 31
0.0
  0
LINE
  5
B124
330
AFEC
100
AcDbEntity
  8
1
  6
Continuous
100
AcDbLine
 10
99.99184800000001
 20
235.9758439999999
 30
0.0
 11
100.991848
 21
234.975844
 31
0.0
  0
LINE
  5
B125
330
AFEC
100
AcDbEntity
  8
1
  6
Continuous
100
AcDbLine
 10
99.49184800000001
 20
235.9758439999999
 30
0.0
 11
99.99184800000001
 21
235.9758439999999
 31
0.0
  0
ARC
  5
B126
330
AFEC
100
AcDbEntity
  8
1
  6
Continuous
100
AcDbCircle
 10
96.42485999999999
 20
237.171997
 30
0.0
 40
3.066986999999998
100
AcDbArc
 50
325.6157529999999
 51
25.615753
  0
LINE
  5
B127
330
AFEC
100
AcDbEntity
  8
1
  6
Continuous
100
AcDbLine
 10
98.955949
 20
238.9040479999999
 30
0.0
 11
99.49184800000001
 21
237.9758439999999
 31
0.0
  0
LINE
  5
B128
330
AFEC
100
AcDbEntity
  8
1
  6
Continuous
100
AcDbLine
 10
249.9334779999998
 20
512.301908
 30
0.0
 11
261.9334779999999
 21
512.301908
 31
0.0
  0
LINE
  5
B129
330
AFEC
100
AcDbEntity
  8
1
  6
Continuous
100
AcDbLine
 10
263.4334779999999
 20
512.301908
 30
0.0
 11
248.4334779999998
 21
512.301908
 31
0.0
  0
LINE
  5
B12A
330
AFEC
100
AcDbEntity
  8
1
  6
Continuous
100
AcDbLine
 10
248.4334779999998
 20
512.301908
 30
0.0
 11
248.4334779999998
 21
510.001908
 31
0.0
  0
LINE
  5
B12B
330
AFEC
100
AcDbEntity
  8
1
  6
Continuous
100
AcDbLine
 10
263.4334779999999
 20
512.301908
 30
0.0
 11
263.4334779999999
 21
511.669192
 31
0.0
  0
LINE
  5
B12C
330
AFEC
100
AcDbEntity
  8
1
  6
Continuous
100
AcDbLine
 10
261.9334779999999
 20
517.801908
 30
0.0
 11
249.9334779999998
 21
517.801908
 31
0.0
  0
ARC
  5
B12D
330
AFEC
100
AcDbEntity
  8
1
  6
Continuous
100
AcDbCircle
 10
258.9334779999999
 20
509.136845
 30
0.0
 40
8.665063999999999
100
AcDbArc
 50
69.743842
 51
110.256158
  0
LINE
  5
B12E
330
AFEC
100
AcDbEntity
  8
1
  6
Continuous
100
AcDbLine
 10
261.9334779999999
 20
512.301908
 30
0.0
 11
261.9334779999999
 21
517.801908
 31
0.0
  0
LINE
  5
B12F
330
AFEC
100
AcDbEntity
  8
1
  6
Continuous
100
AcDbLine
 10
249.9334779999998
 20
512.301908
 30
0.0
 11
249.9334779999998
 21
517.801908
 31
0.0
  0
ARC
  5
B130
330
AFEC
100
AcDbEntity
  8
1
  6
Continuous
100
AcDbCircle
 10
252.9334779999998
 20
509.136845
 30
0.0
 40
8.665063999999999
100
AcDbArc
 50
69.743842
 51
110.256158
  0
LINE
  5
B131
330
AFEC
100
AcDbEntity
  8
1
  6
Continuous
100
AcDbLine
 10
255.9334779999999
 20
517.2660099999999
 30
0.0
 11
255.9334779999999
 21
512.301908
 31
0.0
  0
LINE
  5
B132
330
AFEC
100
AcDbEntity
  8
1
  6
Continuous
100
AcDbLine
 10
258.9334779999999
 20
454.801908
 30
0.0
 11
252.9334779999998
 21
454.801908
 31
0.0
  0
LINE
  5
B133
330
AFEC
100
AcDbEntity
  8
1
  6
Continuous
100
AcDbLine
 10
261.9334779999999
 20
456.301908
 30
0.0
 11
249.9334779999998
 21
456.301908
 31
0.0
  0
ARC
  5
B134
330
AFEC
100
AcDbEntity
  8
1
  6
Continuous
100
AcDbCircle
 10
258.9334779999999
 20
464.966972
 30
0.0
 40
8.665063999999999
100
AcDbArc
 50
249.7438419999999
 51
290.256158
  0
LINE
  5
B135
330
AFEC
100
AcDbEntity
  8
1
  6
Continuous
100
AcDbLine
 10
252.609978
 20
456.301908
 30
0.0
 11
252.609978
 21
455.1254079999998
 31
0.0
  0
LINE
  5
B136
330
AFEC
100
AcDbEntity
  8
1
  6
Continuous
100
AcDbLine
 10
251.9334779999998
 20
456.301908
 30
0.0
 11
251.9334779999998
 21
455.801908
 31
0.0
  0
LINE
  5
B137
330
AFEC
100
AcDbEntity
  8
1
  6
Continuous
100
AcDbLine
 10
251.9334779999998
 20
455.801908
 30
0.0
 11
252.9334779999998
 21
454.801908
 31
0.0
  0
ARC
  5
B138
330
AFEC
100
AcDbEntity
  8
1
  6
Continuous
100
AcDbCircle
 10
252.9334779999998
 20
464.966972
 30
0.0
 40
8.665063999999999
100
AcDbArc
 50
249.7438419999999
 51
290.256158
  0
LINE
  5
B139
330
AFEC
100
AcDbEntity
  8
1
  6
Continuous
100
AcDbLine
 10
255.9334779999999
 20
460.7660099999998
 30
0.0
 11
255.9334779999999
 21
456.837807
 31
0.0
  0
LINE
  5
B13A
330
AFEC
100
AcDbEntity
  8
1
  6
Continuous
100
AcDbLine
 10
249.9334779999998
 20
456.301908
 30
0.0
 11
249.9334779999998
 21
461.3019079999999
 31
0.0
  0
LINE
  5
B13B
330
AFEC
100
AcDbEntity
  8
2
  6
Continuous
100
AcDbLine
 10
259.256978
 20
456.301908
 30
0.0
 11
259.256978
 21
455.1254079999998
 31
0.0
  0
LINE
  5
B13C
330
AFEC
100
AcDbEntity
  8
1
  6
Continuous
100
AcDbLine
 10
259.9334779999999
 20
455.801908
 30
0.0
 11
258.9334779999999
 21
454.801908
 31
0.0
  0
LINE
  5
B13D
330
AFEC
100
AcDbEntity
  8
1
  6
Continuous
100
AcDbLine
 10
259.9334779999999
 20
456.301908
 30
0.0
 11
259.9334779999999
 21
455.801908
 31
0.0
  0
LINE
  5
B13E
330
AFEC
100
AcDbEntity
  8
1
  6
Continuous
100
AcDbLine
 10
261.9334779999999
 20
456.301908
 30
0.0
 11
261.9334779999999
 21
461.3019079999999
 31
0.0
  0
ARC
  5
B13F
330
AFEC
100
AcDbEntity
  8
1
  6
Continuous
100
AcDbCircle
 10
252.9334779999998
 20
452.6368449999998
 30
0.0
 40
8.665063999999999
100
AcDbArc
 50
69.743842
 51
110.256158
  0
ARC
  5
B140
330
AFEC
100
AcDbEntity
  8
1
  6
Continuous
100
AcDbCircle
 10
258.9334779999999
 20
452.6368449999998
 30
0.0
 40
8.665063999999999
100
AcDbArc
 50
69.743842
 51
110.256158
  0
LINE
  5
B141
330
AFEC
100
AcDbEntity
  8
1
  6
Continuous
100
AcDbLine
 10
261.9334779999999
 20
461.3019079999999
 30
0.0
 11
249.9334779999998
 21
461.3019079999999
 31
0.0
  0
LINE
  5
B142
330
AFEC
100
AcDbEntity
  8
1
  6
Continuous
100
AcDbLine
 10
248.4334779999998
 20
463.6019079999998
 30
0.0
 11
248.4334779999998
 21
461.3019079999999
 31
0.0
  0
LINE
  5
B143
330
AFEC
100
AcDbEntity
  8
1
  6
Continuous
100
AcDbLine
 10
263.4334779999999
 20
461.934524
 30
0.0
 11
263.4334779999999
 21
461.3019079999999
 31
0.0
  0
LINE
  5
B144
330
AFEC
100
AcDbEntity
  8
1
  6
Continuous
100
AcDbLine
 10
263.4334779999999
 20
461.3019079999999
 30
0.0
 11
248.4334779999998
 21
461.3019079999999
 31
0.0
  0
ARC
  5
B145
330
AFEC
100
AcDbEntity
  8
1
  6
Continuous
100
AcDbCircle
 10
686.158185
 20
229.096729
 30
0.0
 40
250.0
100
AcDbArc
 50
168.596357
 51
177.751751
  0
ARC
  5
B146
330
AFEC
100
AcDbEntity
  8
1
  6
Continuous
100
AcDbCircle
 10
239.593535
 20
229.096729
 30
0.0
 40
250.0
100
AcDbArc
 50
2.248248999999999
 51
11.403773
  0
LINE
  5
B147
330
AFEC
100
AcDbEntity
  8
4
  6
CENTER
100
AcDbLine
 10
462.875747
 20
418.546607
 30
0.0
 11
462.875747
 21
151.2480909999998
 31
0.0
  0
ARC
  5
B148
330
AFEC
100
AcDbEntity
  8
1
  6
Continuous
100
AcDbCircle
 10
476.5296389999998
 20
217.42713
 30
0.0
 40
30.0
100
AcDbArc
 50
191.4420209999999
 51
214.735352
  0
LINE
  5
B149
330
AFEC
100
AcDbEntity
  8
4
  6
CENTER
100
AcDbLine
 10
499.6885879999998
 20
231.975844
 30
0.0
 11
425.6741579999999
 21
231.975844
 31
0.0
  0
LINE
  5
B14A
330
AFEC
100
AcDbEntity
  8
1
  6
Continuous
100
AcDbLine
 10
493.8758599999998
 20
237.9758439999999
 30
0.0
 11
493.8758599999998
 21
225.975844
 31
0.0
  0
ARC
  5
B14B
330
AFEC
100
AcDbEntity
  8
1
  6
Continuous
100
AcDbCircle
 10
482.411758
 20
231.975844
 30
0.0
 40
11.464102
100
AcDbArc
 50
342.4120459999999
 51
17.587954
  0
LINE
  5
B14C
330
AFEC
100
AcDbEntity
  8
1
  6
Continuous
100
AcDbLine
 10
488.37586
 20
228.531544
 30
0.0
 11
488.37586
 21
225.047641
 31
0.0
  0
LINE
  5
B14D
330
AFEC
100
AcDbEntity
  8
1
  6
Continuous
100
AcDbLine
 10
488.37586
 20
228.531544
 30
0.0
 11
488.37586
 21
224.475844
 31
0.0
  0
LINE
  5
B14E
330
AFEC
100
AcDbEntity
  8
1
  6
Continuous
100
AcDbLine
 10
483.7758599999999
 20
241.7865519999998
 30
0.0
 11
483.7758599999999
 21
221.725844
 31
0.0
  0
LINE
  5
B14F
330
AFEC
100
AcDbEntity
  8
1
  6
Continuous
100
AcDbLine
 10
486.0758599999998
 20
241.7865519999998
 30
0.0
 11
486.0758599999998
 21
221.725844
 31
0.0
  0
LINE
  5
B150
330
AFEC
100
AcDbEntity
  8
1
  6
Continuous
100
AcDbLine
 10
482.77586
 20
238.330093
 30
0.0
 11
482.77586
 21
225.621595
 31
0.0
  0
LINE
  5
B151
330
AFEC
100
AcDbEntity
  8
1
  6
Continuous
100
AcDbLine
 10
480.6258599999998
 20
249.6474169999999
 30
0.0
 11
480.6258599999998
 21
214.304271
 31
0.0
  0
LINE
  5
B152
330
AFEC
100
AcDbEntity
  8
1
  6
Continuous
100
AcDbLine
 10
478.62586
 20
248.877922
 30
0.0
 11
478.62586
 21
211.475844
 31
0.0
  0
LINE
  5
B153
330
AFEC
100
AcDbEntity
  8
1
  6
Continuous
100
AcDbLine
 10
482.6758599999998
 20
215.975844
 30
0.0
 11
482.6758599999998
 21
247.9758439999999
 31
0.0
  0
LINE
  5
B154
330
AFEC
100
AcDbEntity
  8
1
  6
Continuous
100
AcDbLine
 10
482.6758599999998
 20
215.975844
 30
0.0
 11
480.6258599999998
 21
215.975844
 31
0.0
  0
ARC
  5
B155
330
AFEC
100
AcDbEntity
  8
1
  6
Continuous
100
AcDbCircle
 10
490.8088719999998
 20
226.7796919999999
 30
0.0
 40
3.066986999999998
100
AcDbArc
 50
334.384247
 51
34.38424699999998
  0
LINE
  5
B156
330
AFEC
100
AcDbEntity
  8
1
  6
Continuous
100
AcDbLine
 10
493.339961
 20
225.047641
 30
0.0
 11
488.37586
 21
225.047641
 31
0.0
  0
LINE
  5
B157
330
AFEC
100
AcDbEntity
  8
1
  6
Continuous
100
AcDbLine
 10
493.339961
 20
225.047641
 30
0.0
 11
493.8758599999998
 21
225.975844
 31
0.0
  0
LINE
  5
B158
330
AFEC
100
AcDbEntity
  8
1
  6
Continuous
100
AcDbLine
 10
493.339961
 20
228.511743
 30
0.0
 11
488.37586
 21
228.511743
 31
0.0
  0
LINE
  5
B159
330
AFEC
100
AcDbEntity
  8
1
  6
Continuous
100
AcDbLine
 10
488.37586
 20
224.475844
 30
0.0
 11
487.6405199999998
 21
224.475844
 31
0.0
  0
LINE
  5
B15A
330
AFEC
100
AcDbEntity
  8
1
  6
Continuous
100
AcDbLine
 10
482.77586
 20
226.000844
 30
0.0
 11
482.6758599999998
 21
226.000844
 31
0.0
  0
ARC
  5
B15B
330
AFEC
100
AcDbEntity
  8
1
  6
Continuous
100
AcDbCircle
 10
486.77586
 20
225.621595
 30
0.0
 40
4.0
100
AcDbArc
 50
180.0
 51
221.409622
  0
ARC
  5
B15C
330
AFEC
100
AcDbEntity
  8
1
  6
Continuous
100
AcDbCircle
 10
474.0758599999998
 20
231.975844
 30
0.0
 40
15.5
100
AcDbArc
 50
320.7319739999999
 51
331.0614719999999
  0
LINE
  5
B15D
330
AFEC
100
AcDbEntity
  8
1
  6
Continuous
100
AcDbLine
 10
486.0758599999998
 20
221.725844
 30
0.0
 11
483.7758599999999
 21
221.725844
 31
0.0
  0
ARC
  5
B15E
330
AFEC
100
AcDbEntity
  8
1
  6
Continuous
100
AcDbCircle
 10
477.62586
 20
214.304271
 30
0.0
 40
3.0
100
AcDbArc
 50
289.471221
 51
0.0
  0
ARC
  5
B15F
330
AFEC
100
AcDbEntity
  8
1
  6
Continuous
100
AcDbCircle
 10
449.222082
 20
217.42713
 30
0.0
 40
30.0
100
AcDbArc
 50
325.2646449999998
 51
348.557979
  0
LINE
  5
B160
330
AFEC
100
AcDbEntity
  8
1
  6
Continuous
100
AcDbLine
 10
482.6758599999998
 20
247.9758439999999
 30
0.0
 11
480.6258599999998
 21
247.9758439999999
 31
0.0
  0
ARC
  5
B161
330
AFEC
100
AcDbEntity
  8
1
  6
Continuous
100
AcDbCircle
 10
413.77586
 20
241.7865519999998
 30
0.0
 40
72.29999999999998
100
AcDbArc
 50
0.0
 51
19.25117499999998
  0
ARC
  5
B162
330
AFEC
100
AcDbEntity
  8
1
  6
Continuous
100
AcDbCircle
 10
413.77586
 20
241.7865519999998
 30
0.0
 40
70.0
100
AcDbArc
 50
0.0
 51
15.922672
  0
LINE
  5
B163
330
AFEC
100
AcDbEntity
  8
1
  6
Continuous
100
AcDbLine
 10
493.339961
 20
235.4399459999999
 30
0.0
 11
489.193472
 21
235.4399459999999
 31
0.0
  0
LINE
  5
B164
330
AFEC
100
AcDbEntity
  8
1
  6
Continuous
100
AcDbLine
 10
493.339961
 20
238.9040479999999
 30
0.0
 11
489.401094
 21
238.9040479999999
 31
0.0
  0
ARC
  5
B165
330
AFEC
100
AcDbEntity
  8
1
  6
Continuous
100
AcDbCircle
 10
490.8088719999998
 20
237.171997
 30
0.0
 40
3.066986999999998
100
AcDbArc
 50
325.6157529999999
 51
25.615753
  0
LINE
  5
B166
330
AFEC
100
AcDbEntity
  8
1
  6
Continuous
100
AcDbLine
 10
493.339961
 20
238.9040479999999
 30
0.0
 11
493.8758599999998
 21
237.9758439999999
 31
0.0
  0
ARC
  5
B167
330
AFEC
100
AcDbEntity
  8
1
  6
Continuous
100
AcDbCircle
 10
486.77586
 20
238.330093
 30
0.0
 40
4.0
100
AcDbArc
 50
138.5903779999999
 51
180.0
  0
LINE
  5
B168
330
AFEC
100
AcDbEntity
  8
1
  6
Continuous
100
AcDbLine
 10
482.77586
 20
237.9508439999999
 30
0.0
 11
482.6758599999998
 21
237.9508439999999
 31
0.0
  0
ARC
  5
B169
330
AFEC
100
AcDbEntity
  8
1
  6
Continuous
100
AcDbCircle
 10
477.62586
 20
249.6474169999999
 30
0.0
 40
3.0
100
AcDbArc
 50
0.0
 51
56.30381499999999
  0
ARC
  5
B16A
330
AFEC
100
AcDbEntity
  8
1
  6
Continuous
100
AcDbCircle
 10
425.9117579999998
 20
231.975844
 30
0.0
 40
11.464102
100
AcDbArc
 50
342.4120459999999
 51
349.3229129999999
  0
LINE
  5
B16B
330
AFEC
100
AcDbEntity
  8
1
  6
Continuous
100
AcDbLine
 10
437.37586
 20
228.5301109999998
 30
0.0
 11
437.37586
 21
225.975844
 31
0.0
  0
ARC
  5
B16C
330
AFEC
100
AcDbEntity
  8
1
  6
Continuous
100
AcDbCircle
 10
443.839961
 20
231.975844
 30
0.0
 40
11.464102
100
AcDbArc
 50
162.412046
 51
197.5879539999999
  0
LINE
  5
B16D
330
AFEC
100
AcDbEntity
  8
1
  6
Continuous
100
AcDbLine
 10
430.8758599999999
 20
234.975844
 30
0.0
 11
430.8758599999999
 21
228.9758439999999
 31
0.0
  0
LINE
  5
B16E
330
AFEC
100
AcDbEntity
  8
1
  6
Continuous
100
AcDbLine
 10
432.3758599999998
 20
237.9758439999999
 30
0.0
 11
432.3758599999998
 21
225.975844
 31
0.0
  0
LINE
  5
B16F
330
AFEC
100
AcDbEntity
  8
1
  6
Continuous
100
AcDbLine
 10
441.9758599999998
 20
241.7865519999998
 30
0.0
 11
441.9758599999998
 21
221.725844
 31
0.0
  0
LINE
  5
B170
330
AFEC
100
AcDbEntity
  8
1
  6
Continuous
100
AcDbLine
 10
439.6758599999998
 20
241.7865519999998
 30
0.0
 11
439.6758599999998
 21
221.725844
 31
0.0
  0
LINE
  5
B171
330
AFEC
100
AcDbEntity
  8
1
  6
Continuous
100
AcDbLine
 10
437.37586
 20
228.5301109999998
 30
0.0
 11
437.37586
 21
224.475844
 31
0.0
  0
LINE
  5
B172
330
AFEC
100
AcDbEntity
  8
1
  6
Continuous
100
AcDbLine
 10
442.9758599999998
 20
238.330093
 30
0.0
 11
442.9758599999998
 21
225.621595
 31
0.0
  0
LINE
  5
B173
330
AFEC
100
AcDbEntity
  8
1
  6
Continuous
100
AcDbLine
 10
445.12586
 20
249.6474169999999
 30
0.0
 11
445.12586
 21
214.304271
 31
0.0
  0
LINE
  5
B174
330
AFEC
100
AcDbEntity
  8
1
  6
Continuous
100
AcDbLine
 10
447.1258599999998
 20
248.8768159999999
 30
0.0
 11
447.1258599999998
 21
211.475844
 31
0.0
  0
LINE
  5
B175
330
AFEC
100
AcDbEntity
  8
1
  6
Continuous
100
AcDbLine
 10
443.0758599999998
 20
215.975844
 30
0.0
 11
443.0758599999998
 21
247.9758439999999
 31
0.0
  0
ARC
  5
B176
330
AFEC
100
AcDbEntity
  8
1
  6
Continuous
100
AcDbCircle
 10
448.12586
 20
214.304271
 30
0.0
 40
3.0
100
AcDbArc
 50
180.0
 51
250.5287789999999
  0
LINE
  5
B177
330
AFEC
100
AcDbEntity
  8
1
  6
Continuous
100
AcDbLine
 10
436.8399609999998
 20
228.511743
 30
0.0
 11
432.911758
 21
228.511743
 31
0.0
  0
LINE
  5
B178
330
AFEC
100
AcDbEntity
  8
1
  6
Continuous
100
AcDbLine
 10
436.8399609999998
 20
225.047641
 30
0.0
 11
432.911758
 21
225.047641
 31
0.0
  0
ARC
  5
B179
330
AFEC
100
AcDbEntity
  8
1
  6
Continuous
100
AcDbCircle
 10
434.3088719999998
 20
226.7796919999999
 30
0.0
 40
3.066986999999998
100
AcDbArc
 50
325.6157529999999
 51
34.38424699999998
  0
LINE
  5
B17A
330
AFEC
100
AcDbEntity
  8
1
  6
Continuous
100
AcDbLine
 10
443.0758599999998
 20
226.000844
 30
0.0
 11
442.9758599999998
 21
226.000844
 31
0.0
  0
LINE
  5
B17B
330
AFEC
100
AcDbEntity
  8
1
  6
Continuous
100
AcDbLine
 10
441.9758599999998
 20
221.725844
 30
0.0
 11
439.6758599999998
 21
221.725844
 31
0.0
  0
ARC
  5
B17C
330
AFEC
100
AcDbEntity
  8
1
  6
Continuous
100
AcDbCircle
 10
438.9758599999998
 20
225.621595
 30
0.0
 40
4.0
100
AcDbArc
 50
318.5903779999998
 51
0.0
  0
ARC
  5
B17D
330
AFEC
100
AcDbEntity
  8
1
  6
Continuous
100
AcDbCircle
 10
451.6758599999998
 20
231.975844
 30
0.0
 40
15.5
100
AcDbArc
 50
208.9385279999999
 51
219.2680259999999
  0
LINE
  5
B17E
330
AFEC
100
AcDbEntity
  8
1
  6
Continuous
100
AcDbLine
 10
438.1111999999998
 20
224.475844
 30
0.0
 11
437.37586
 21
224.475844
 31
0.0
  0
LINE
  5
B17F
330
AFEC
100
AcDbEntity
  8
1
  6
Continuous
100
AcDbLine
 10
445.12586
 20
215.975844
 30
0.0
 11
443.0758599999998
 21
215.975844
 31
0.0
  0
LINE
  5
B180
330
AFEC
100
AcDbEntity
  8
2
  6
Continuous
100
AcDbLine
 10
432.3758599999998
 20
228.6523439999999
 30
0.0
 11
431.19936
 21
228.6523439999999
 31
0.0
  0
LINE
  5
B181
330
AFEC
100
AcDbEntity
  8
1
  6
Continuous
100
AcDbLine
 10
432.3758599999998
 20
227.975844
 30
0.0
 11
431.8758599999998
 21
227.975844
 31
0.0
  0
LINE
  5
B182
330
AFEC
100
AcDbEntity
  8
1
  6
Continuous
100
AcDbLine
 10
431.8758599999998
 20
227.975844
 30
0.0
 11
430.8758599999999
 21
228.9758439999999
 31
0.0
  0
LINE
  5
B183
330
AFEC
100
AcDbEntity
  8
1
  6
Continuous
100
AcDbLine
 10
432.911758
 20
225.047641
 30
0.0
 11
432.3758599999998
 21
225.975844
 31
0.0
  0
ARC
  5
B184
330
AFEC
100
AcDbEntity
  8
1
  6
Continuous
100
AcDbCircle
 10
435.442847
 20
226.7796919999999
 30
0.0
 40
3.066986999999998
100
AcDbArc
 50
145.615753
 51
205.615753
  0
ARC
  5
B185
330
AFEC
100
AcDbEntity
  8
1
  6
Continuous
100
AcDbCircle
 10
511.9758599999998
 20
241.7865519999998
 30
0.0
 40
70.0
100
AcDbArc
 50
164.0777209999999
 51
180.0
  0
ARC
  5
B186
330
AFEC
100
AcDbEntity
  8
1
  6
Continuous
100
AcDbCircle
 10
511.9758599999998
 20
241.7865519999998
 30
0.0
 40
72.29999999999998
100
AcDbArc
 50
160.749167
 51
180.0
  0
LINE
  5
B187
330
AFEC
100
AcDbEntity
  8
1
  6
Continuous
100
AcDbLine
 10
436.3503999999998
 20
238.9040479999999
 30
0.0
 11
432.911758
 21
238.9040479999999
 31
0.0
  0
LINE
  5
B188
330
AFEC
100
AcDbEntity
  8
1
  6
Continuous
100
AcDbLine
 10
436.558021
 20
235.4399459999999
 30
0.0
 11
432.911758
 21
235.4399459999999
 31
0.0
  0
ARC
  5
B189
330
AFEC
100
AcDbEntity
  8
1
  6
Continuous
100
AcDbCircle
 10
448.12586
 20
249.6474169999999
 30
0.0
 40
3.0
100
AcDbArc
 50
123.700735
 51
180.0
  0
ARC
  5
B18A
330
AFEC
100
AcDbEntity
  8
1
  6
Continuous
100
AcDbCircle
 10
438.9758599999998
 20
238.330093
 30
0.0
 40
4.0
100
AcDbArc
 50
0.0
 51
41.40962199999999
  0
LINE
  5
B18B
330
AFEC
100
AcDbEntity
  8
1
  6
Continuous
100
AcDbLine
 10
443.0758599999998
 20
237.9508439999999
 30
0.0
 11
442.9758599999998
 21
237.9508439999999
 31
0.0
  0
LINE
  5
B18C
330
AFEC
100
AcDbEntity
  8
1
  6
Continuous
100
AcDbLine
 10
445.12586
 20
247.9758439999999
 30
0.0
 11
443.0758599999998
 21
247.9758439999999
 31
0.0
  0
LINE
  5
B18D
330
AFEC
100
AcDbEntity
  8
1
  6
Continuous
100
AcDbLine
 10
432.911758
 20
238.9040479999999
 30
0.0
 11
432.3758599999998
 21
237.9758439999999
 31
0.0
  0
ARC
  5
B18E
330
AFEC
100
AcDbEntity
  8
1
  6
Continuous
100
AcDbCircle
 10
435.442847
 20
237.171997
 30
0.0
 40
3.066986999999998
100
AcDbArc
 50
154.3842469999999
 51
214.384247
  0
LINE
  5
B18F
330
AFEC
100
AcDbEntity
  8
1
  6
Continuous
100
AcDbLine
 10
432.3758599999998
 20
235.9758439999999
 30
0.0
 11
431.8758599999998
 21
235.9758439999999
 31
0.0
  0
LINE
  5
B190
330
AFEC
100
AcDbEntity
  8
1
  6
Continuous
100
AcDbLine
 10
431.8758599999998
 20
235.9758439999999
 30
0.0
 11
430.8758599999999
 21
234.975844
 31
0.0
  0
LINE
  5
B191
330
AFEC
100
AcDbEntity
  8
2
  6
Continuous
100
AcDbLine
 10
432.3758599999998
 20
235.299344
 30
0.0
 11
431.19936
 21
235.299344
 31
0.0
  0
ARC
  5
B192
330
AFEC
100
AcDbEntity
  8
1
  6
Continuous
100
AcDbCircle
 10
141.1757469999998
 20
357.9758439999998
 30
0.0
 40
331.4999999999999
100
AcDbArc
 50
357.56225
 51
2.437749999999998
  0
ARC
  5
B193
330
AFEC
100
AcDbEntity
  8
1
  6
Continuous
100
AcDbCircle
 10
784.5757469999997
 20
357.9758439999998
 30
0.0
 40
331.4999999999999
100
AcDbArc
 50
177.547502
 51
182.43775
  0
ARC
  5
B194
330
AFEC
100
AcDbEntity
  8
1
  6
Continuous
100
AcDbCircle
 10
450.2257469999998
 20
326.9758439999999
 30
0.0
 40
6.5
100
AcDbArc
 50
90.0
 51
180.0
  0
LINE
  5
B195
330
AFEC
100
AcDbEntity
  8
1
  6
Continuous
100
AcDbLine
 10
482.0257469999998
 20
317.475844
 30
0.0
 11
443.7257469999998
 21
317.475844
 31
0.0
  0
LINE
  5
B196
330
AFEC
100
AcDbEntity
  8
1
  6
Continuous
100
AcDbLine
 10
482.0257469999998
 20
326.9758439999999
 30
0.0
 11
482.0257469999998
 21
317.475844
 31
0.0
  0
ARC
  5
B197
330
AFEC
100
AcDbEntity
  8
1
  6
Continuous
100
AcDbCircle
 10
479.375747
 20
313.6758439999999
 30
0.0
 40
4.0
100
AcDbArc
 50
0.0
 51
71.80512799999998
  0
LINE
  5
B198
330
AFEC
100
AcDbEntity
  8
1
  6
Continuous
100
AcDbLine
 10
483.37586
 20
313.6758439999999
 30
0.0
 11
483.37586
 21
298.69031
 31
0.0
  0
ARC
  5
B199
330
AFEC
100
AcDbEntity
  8
1
  6
Continuous
100
AcDbCircle
 10
475.525747
 20
326.9758439999999
 30
0.0
 40
6.5
100
AcDbArc
 50
0.0
 51
90.0
  0
LINE
  5
B19A
330
AFEC
100
AcDbEntity
  8
1
  6
Continuous
100
AcDbLine
 10
473.3757469999998
 20
337.9758439999998
 30
0.0
 11
452.3757469999998
 21
337.9758439999998
 31
0.0
  0
LINE
  5
B19B
330
AFEC
100
AcDbEntity
  8
1
  6
Continuous
100
AcDbLine
 10
471.375747
 20
339.9758439999998
 30
0.0
 11
454.375747
 21
339.9758439999998
 31
0.0
  0
LINE
  5
B19C
330
AFEC
100
AcDbEntity
  8
1
  6
Continuous
100
AcDbLine
 10
475.525747
 20
333.4758439999998
 30
0.0
 11
450.2257469999998
 21
333.4758439999998
 31
0.0
  0
LINE
  5
B19D
330
AFEC
100
AcDbEntity
  8
1
  6
Continuous
100
AcDbLine
 10
472.3757469999998
 20
343.8758439999999
 30
0.0
 11
453.375747
 21
343.8758439999999
 31
0.0
  0
LINE
  5
B19E
330
AFEC
100
AcDbEntity
  8
1
  6
Continuous
100
AcDbLine
 10
472.3757469999998
 20
343.8758439999999
 30
0.0
 11
472.3757469999998
 21
340.975844
 31
0.0
  0
ARC
  5
B19F
330
AFEC
100
AcDbEntity
  8
1
  6
Continuous
100
AcDbCircle
 10
470.875747
 20
338.975844
 30
0.0
 40
1.0
100
AcDbArc
 50
0.0
 51
90.0
  0
ARC
  5
B1A0
330
AFEC
100
AcDbEntity
  8
1
  6
Continuous
100
AcDbCircle
 10
472.8757469999997
 20
338.975844
 30
0.0
 40
1.0
100
AcDbArc
 50
180.0
 51
270.0
  0
LINE
  5
B1A1
330
AFEC
100
AcDbEntity
  8
1
  6
Continuous
100
AcDbLine
 10
473.3757469999998
 20
337.9758439999998
 30
0.0
 11
473.3757469999998
 21
333.4758439999998
 31
0.0
  0
ARC
  5
B1A2
330
AFEC
100
AcDbEntity
  8
1
  6
Continuous
100
AcDbCircle
 10
471.375747
 20
340.975844
 30
0.0
 40
1.0
100
AcDbArc
 50
270.0
 51
0.0
  0
LINE
  5
B1A3
330
AFEC
100
AcDbEntity
  8
1
  6
Continuous
100
AcDbLine
 10
462.875747
 20
337.9758439999998
 30
0.0
 11
462.875747
 21
333.4758439999998
 31
0.0
  0
LINE
  5
B1A4
330
AFEC
100
AcDbEntity
  8
1
  6
Continuous
100
AcDbLine
 10
453.375747
 20
343.8758439999999
 30
0.0
 11
453.375747
 21
340.975844
 31
0.0
  0
ARC
  5
B1A5
330
AFEC
100
AcDbEntity
  8
1
  6
Continuous
100
AcDbCircle
 10
454.8757469999998
 20
338.975844
 30
0.0
 40
1.0
100
AcDbArc
 50
90.0
 51
180.0
  0
ARC
  5
B1A6
330
AFEC
100
AcDbEntity
  8
1
  6
Continuous
100
AcDbCircle
 10
452.875747
 20
338.975844
 30
0.0
 40
1.0
100
AcDbArc
 50
270.0
 51
0.0
  0
LINE
  5
B1A7
330
AFEC
100
AcDbEntity
  8
1
  6
Continuous
100
AcDbLine
 10
452.3757469999998
 20
337.9758439999998
 30
0.0
 11
452.3757469999998
 21
333.4758439999998
 31
0.0
  0
ARC
  5
B1A8
330
AFEC
100
AcDbEntity
  8
1
  6
Continuous
100
AcDbCircle
 10
454.375747
 20
340.975844
 30
0.0
 40
1.0
100
AcDbArc
 50
180.0
 51
270.0
  0
LINE
  5
B1A9
330
AFEC
100
AcDbEntity
  8
1
  6
Continuous
100
AcDbLine
 10
443.7257469999998
 20
326.9758439999999
 30
0.0
 11
443.7257469999998
 21
317.475844
 31
0.0
  0
LINE
  5
B1AA
330
AFEC
100
AcDbEntity
  8
1
  6
Continuous
100
AcDbLine
 10
442.37586
 20
313.6758439999999
 30
0.0
 11
442.37586
 21
298.690359
 31
0.0
  0
ARC
  5
B1AB
330
AFEC
100
AcDbEntity
  8
1
  6
Continuous
100
AcDbCircle
 10
446.375747
 20
313.6758439999999
 30
0.0
 40
4.0
100
AcDbArc
 50
108.1948719999999
 51
180.0
  0
LINE
  5
B1AC
330
AFEC
100
AcDbEntity
  8
1
  6
Continuous
100
AcDbLine
 10
454.525747
 20
410.975844
 30
0.0
 11
454.525747
 21
407.775844
 31
0.0
  0
LINE
  5
B1AD
330
AFEC
100
AcDbEntity
  8
1
  6
Continuous
100
AcDbLine
 10
471.2257469999998
 20
410.975844
 30
0.0
 11
471.2257469999998
 21
407.775844
 31
0.0
  0
ARC
  5
B1AE
330
AFEC
100
AcDbEntity
  8
1
  6
Continuous
100
AcDbCircle
 10
119.688247
 20
390.225844
 30
0.0
 40
352.9875
100
AcDbArc
 50
357.637622
 51
2.362378
  0
ARC
  5
B1AF
330
AFEC
100
AcDbEntity
  8
1
  6
Continuous
100
AcDbCircle
 10
806.0632469999998
 20
390.225844
 30
0.0
 40
352.9875
100
AcDbArc
 50
177.6376219999999
 51
182.375797
  0
LINE
  5
B1B0
330
AFEC
100
AcDbEntity
  8
1
  6
Continuous
100
AcDbLine
 10
471.7757469999998
 20
373.075844
 30
0.0
 11
453.9757469999998
 21
373.075844
 31
0.0
  0
LINE
  5
B1B1
330
AFEC
100
AcDbEntity
  8
1
  6
Continuous
100
AcDbLine
 10
471.7757469999998
 20
374.6758439999999
 30
0.0
 11
453.9757469999998
 21
374.6758439999999
 31
0.0
  0
ARC
  5
B1B2
330
AFEC
100
AcDbEntity
  8
1
  6
Continuous
100
AcDbCircle
 10
471.375747
 20
375.675844
 30
0.0
 40
1.0
100
AcDbArc
 50
270.0
 51
0.0
  0
ARC
  5
B1B3
330
AFEC
100
AcDbEntity
  8
1
  6
Continuous
100
AcDbCircle
 10
471.375747
 20
372.075844
 30
0.0
 40
1.0
100
AcDbArc
 50
0.0
 51
90.0
  0
LINE
  5
B1B4
330
AFEC
100
AcDbEntity
  8
1
  6
Continuous
100
AcDbLine
 10
471.7757469999998
 20
374.6758439999999
 30
0.0
 11
471.7757469999998
 21
373.075844
 31
0.0
  0
ARC
  5
B1B5
330
AFEC
100
AcDbEntity
  8
1
  6
Continuous
100
AcDbCircle
 10
454.375747
 20
375.675844
 30
0.0
 40
1.0
100
AcDbArc
 50
180.0
 51
270.0
  0
ARC
  5
B1B6
330
AFEC
100
AcDbEntity
  8
1
  6
Continuous
100
AcDbCircle
 10
454.375747
 20
372.075844
 30
0.0
 40
1.0
100
AcDbArc
 50
90.0
 51
180.0
  0
LINE
  5
B1B7
330
AFEC
100
AcDbEntity
  8
1
  6
Continuous
100
AcDbLine
 10
453.9757469999998
 20
373.075844
 30
0.0
 11
453.9757469999998
 21
374.6758439999999
 31
0.0
  0
LINE
  5
B1B8
330
AFEC
100
AcDbEntity
  8
1
  6
Continuous
100
AcDbLine
 10
472.3757469999998
 20
404.7758439999998
 30
0.0
 11
453.375747
 21
404.7758439999998
 31
0.0
  0
LINE
  5
B1B9
330
AFEC
100
AcDbEntity
  8
1
  6
Continuous
100
AcDbLine
 10
471.375747
 20
407.775844
 30
0.0
 11
454.375747
 21
407.775844
 31
0.0
  0
LINE
  5
B1BA
330
AFEC
100
AcDbEntity
  8
1
  6
Continuous
100
AcDbLine
 10
471.375747
 20
407.775844
 30
0.0
 11
471.375747
 21
404.7758439999998
 31
0.0
  0
LINE
  5
B1BB
330
AFEC
100
AcDbEntity
  8
1
  6
Continuous
100
AcDbLine
 10
454.375747
 20
407.775844
 30
0.0
 11
454.375747
 21
404.7758439999998
 31
0.0
  0
LINE
  5
B1BC
330
AFEC
100
AcDbEntity
  8
1
  6
Continuous
100
AcDbLine
 10
467.3757469999998
 20
412.9758439999998
 30
0.0
 11
458.375747
 21
412.9758439999998
 31
0.0
  0
LINE
  5
B1BD
330
AFEC
100
AcDbEntity
  8
1
  6
Continuous
100
AcDbLine
 10
468.8757469999997
 20
411.475844
 30
0.0
 11
456.875747
 21
411.475844
 31
0.0
  0
LINE
  5
B1BE
330
AFEC
100
AcDbEntity
  8
1
  6
Continuous
100
AcDbLine
 10
471.2257469999998
 20
410.975844
 30
0.0
 11
454.525747
 21
410.975844
 31
0.0
  0
LINE
  5
B1BF
330
AFEC
100
AcDbEntity
  8
1
  6
Continuous
100
AcDbLine
 10
468.8757469999997
 20
411.475844
 30
0.0
 11
468.8757469999997
 21
410.975844
 31
0.0
  0
LINE
  5
B1C0
330
AFEC
100
AcDbEntity
  8
1
  6
Continuous
100
AcDbLine
 10
468.8757469999997
 20
411.475844
 30
0.0
 11
467.3757469999998
 21
412.9758439999998
 31
0.0
  0
LINE
  5
B1C1
330
AFEC
100
AcDbEntity
  8
1
  6
Continuous
100
AcDbLine
 10
456.875747
 20
411.475844
 30
0.0
 11
456.875747
 21
410.975844
 31
0.0
  0
LINE
  5
B1C2
330
AFEC
100
AcDbEntity
  8
1
  6
Continuous
100
AcDbLine
 10
456.875747
 20
411.475844
 30
0.0
 11
458.375747
 21
412.9758439999998
 31
0.0
  0
LINE
  5
B1C3
330
AFEC
100
AcDbEntity
  8
4
  6
CENTER
100
AcDbLine
 10
353.155821
 20
77.12664100000002
 30
0.0
 11
175.2057259999999
 21
77.12664100000002
 31
0.0
  0
LINE
  5
B1C4
330
AFEC
100
AcDbEntity
  8
1
  6
Continuous
100
AcDbLine
 10
266.183854
 20
56.226528
 30
0.0
 11
245.683854
 21
56.226528
 31
0.0
  0
LINE
  5
B1C5
330
AFEC
100
AcDbEntity
  8
1
  6
Continuous
100
AcDbLine
 10
264.788427
 20
53.926528
 30
0.0
 11
245.683854
 21
53.926528
 31
0.0
  0
LINE
  5
B1C6
330
AFEC
100
AcDbEntity
  8
1
  6
Continuous
100
AcDbLine
 10
273.605427
 20
59.376528
 30
0.0
 11
238.2622809999999
 21
59.376528
 31
0.0
  0
LINE
  5
B1C7
330
AFEC
100
AcDbEntity
  8
1
  6
Continuous
100
AcDbLine
 10
276.433854
 20
61.376528
 30
0.0
 11
235.433854
 21
61.376528
 31
0.0
  0
LINE
  5
B1C8
330
AFEC
100
AcDbEntity
  8
1
  6
Continuous
100
AcDbLine
 10
239.933854
 20
57.326528
 30
0.0
 11
271.9338539999998
 21
57.326528
 31
0.0
  0
ARC
  5
B1C9
330
AFEC
100
AcDbEntity
  8
1
  6
Continuous
100
AcDbCircle
 10
262.2881029999999
 20
53.226528
 30
0.0
 40
4.0
100
AcDbArc
 50
48.590378
 51
90.0
  0
LINE
  5
B1CA
330
AFEC
100
AcDbEntity
  8
1
  6
Continuous
100
AcDbLine
 10
266.183854
 20
98.02652800000002
 30
0.0
 11
245.683854
 21
98.02652800000002
 31
0.0
  0
LINE
  5
B1CB
330
AFEC
100
AcDbEntity
  8
1
  6
Continuous
100
AcDbLine
 10
264.788427
 20
100.3265279999999
 30
0.0
 11
245.683854
 21
100.3265279999999
 31
0.0
  0
LINE
  5
B1CC
330
AFEC
100
AcDbEntity
  8
1
  6
Continuous
100
AcDbLine
 10
273.605427
 20
94.87652799999999
 30
0.0
 11
238.2622809999999
 21
94.87652799999999
 31
0.0
  0
LINE
  5
B1CD
330
AFEC
100
AcDbEntity
  8
1
  6
Continuous
100
AcDbLine
 10
276.433854
 20
92.87652800000001
 30
0.0
 11
235.433854
 21
92.87652800000001
 31
0.0
  0
LINE
  5
B1CE
330
AFEC
100
AcDbEntity
  8
1
  6
Continuous
100
AcDbLine
 10
239.933854
 20
96.92652800000001
 30
0.0
 11
271.9338539999998
 21
96.92652800000001
 31
0.0
  0
ARC
  5
B1CF
330
AFEC
100
AcDbEntity
  8
1
  6
Continuous
100
AcDbCircle
 10
262.2881029999999
 20
101.026528
 30
0.0
 40
4.0
100
AcDbArc
 50
270.0
 51
311.409622
  0
LINE
  5
B1D0
330
AFEC
100
AcDbEntity
  8
4
  6
CENTER
100
AcDbLine
 10
255.933854
 20
40.3138
 30
0.0
 11
255.933854
 21
114.32823
 31
0.0
  0
ARC
  5
B1D1
330
AFEC
100
AcDbEntity
  8
1
  6
Continuous
100
AcDbCircle
 10
241.3851409999999
 20
63.47274999999999
 30
0.0
 40
30.0
100
AcDbArc
 50
101.4420209999999
 51
124.734977
  0
ARC
  5
B1D2
330
AFEC
100
AcDbEntity
  8
1
  6
Continuous
100
AcDbCircle
 10
249.5796059999999
 20
101.026528
 30
0.0
 40
4.0
100
AcDbArc
 50
228.5903779999999
 51
270.0
  0
ARC
  5
B1D3
330
AFEC
100
AcDbEntity
  8
1
  6
Continuous
100
AcDbCircle
 10
238.2622809999999
 20
91.876528
 30
0.0
 40
3.0
100
AcDbArc
 50
90.0
 51
160.528779
  0
LINE
  5
B1D4
330
AFEC
100
AcDbEntity
  8
1
  6
Continuous
100
AcDbLine
 10
239.933854
 20
94.87652799999999
 30
0.0
 11
239.933854
 21
96.92652800000001
 31
0.0
  0
LINE
  5
B1D5
330
AFEC
100
AcDbEntity
  8
1
  6
Continuous
100
AcDbLine
 10
245.683854
 20
98.02652800000002
 30
0.0
 11
245.683854
 21
100.3265279999999
 31
0.0
  0
ARC
  5
B1D6
330
AFEC
100
AcDbEntity
  8
1
  6
Continuous
100
AcDbCircle
 10
258.9338539999999
 20
111.291592
 30
0.0
 40
8.665063999999999
100
AcDbArc
 50
249.7438419999999
 51
290.256158
  0
ARC
  5
B1D7
330
AFEC
100
AcDbEntity
  8
1
  6
Continuous
100
AcDbCircle
 10
258.9338539999999
 20
98.961465
 30
0.0
 40
8.665063999999999
100
AcDbArc
 50
69.743842
 51
110.256158
  0
LINE
  5
B1D8
330
AFEC
100
AcDbEntity
  8
1
  6
Continuous
100
AcDbLine
 10
259.933854
 20
107.6265279999999
 30
0.0
 11
259.933854
 21
108.126528
 31
0.0
  0
LINE
  5
B1D9
330
AFEC
100
AcDbEntity
  8
1
  6
Continuous
100
AcDbLine
 10
259.933854
 20
108.126528
 30
0.0
 11
258.9338539999999
 21
109.126528
 31
0.0
  0
LINE
  5
B1DA
330
AFEC
100
AcDbEntity
  8
2
  6
Continuous
100
AcDbLine
 10
259.257354
 20
107.6265279999999
 30
0.0
 11
259.257354
 21
108.8030279999999
 31
0.0
  0
LINE
  5
B1DB
330
AFEC
100
AcDbEntity
  8
1
  6
Continuous
100
AcDbLine
 10
255.933854
 20
103.162427
 30
0.0
 11
255.933854
 21
107.09063
 31
0.0
  0
LINE
  5
B1DC
330
AFEC
100
AcDbEntity
  8
1
  6
Continuous
100
AcDbLine
 10
251.933854
 20
108.126528
 30
0.0
 11
252.9338539999999
 21
109.126528
 31
0.0
  0
LINE
  5
B1DD
330
AFEC
100
AcDbEntity
  8
1
  6
Continuous
100
AcDbLine
 10
251.933854
 20
107.6265279999999
 30
0.0
 11
251.933854
 21
108.126528
 31
0.0
  0
LINE
  5
B1DE
330
AFEC
100
AcDbEntity
  8
2
  6
Continuous
100
AcDbLine
 10
252.610354
 20
107.6265279999999
 30
0.0
 11
252.610354
 21
108.8030279999999
 31
0.0
  0
LINE
  5
B1DF
330
AFEC
100
AcDbEntity
  8
1
  6
Continuous
100
AcDbLine
 10
258.9338539999999
 20
109.126528
 30
0.0
 11
252.9338539999999
 21
109.126528
 31
0.0
  0
LINE
  5
B1E0
330
AFEC
100
AcDbEntity
  8
1
  6
Continuous
100
AcDbLine
 10
261.933854
 20
107.6265279999999
 30
0.0
 11
261.933854
 21
102.626528
 31
0.0
  0
LINE
  5
B1E1
330
AFEC
100
AcDbEntity
  8
1
  6
Continuous
100
AcDbLine
 10
249.933854
 20
107.6265279999999
 30
0.0
 11
249.933854
 21
102.626528
 31
0.0
  0
LINE
  5
B1E2
330
AFEC
100
AcDbEntity
  8
1
  6
Continuous
100
AcDbLine
 10
261.933854
 20
102.626528
 30
0.0
 11
249.933854
 21
102.626528
 31
0.0
  0
LINE
  5
B1E3
330
AFEC
100
AcDbEntity
  8
1
  6
Continuous
100
AcDbLine
 10
261.933854
 20
107.6265279999999
 30
0.0
 11
249.933854
 21
107.6265279999999
 31
0.0
  0
ARC
  5
B1E4
330
AFEC
100
AcDbEntity
  8
1
  6
Continuous
100
AcDbCircle
 10
252.9338539999999
 20
111.291592
 30
0.0
 40
8.665063999999999
100
AcDbArc
 50
249.7438419999999
 51
290.256158
  0
ARC
  5
B1E5
330
AFEC
100
AcDbEntity
  8
1
  6
Continuous
100
AcDbCircle
 10
252.9338539999999
 20
98.961465
 30
0.0
 40
8.665063999999999
100
AcDbArc
 50
69.743842
 51
110.256158
  0
LINE
  5
B1E6
330
AFEC
100
AcDbEntity
  8
1
  6
Continuous
100
AcDbLine
 10
263.4338539999999
 20
101.9939119999999
 30
0.0
 11
263.4338539999999
 21
102.626528
 31
0.0
  0
LINE
  5
B1E7
330
AFEC
100
AcDbEntity
  8
1
  6
Continuous
100
AcDbLine
 10
248.4338539999999
 20
100.3265279999999
 30
0.0
 11
248.4338539999999
 21
102.626528
 31
0.0
  0
LINE
  5
B1E8
330
AFEC
100
AcDbEntity
  8
1
  6
Continuous
100
AcDbLine
 10
263.4338539999999
 20
102.626528
 30
0.0
 11
248.4338539999999
 21
102.626528
 31
0.0
  0
LINE
  5
B1E9
330
AFEC
100
AcDbEntity
  8
1
  6
Continuous
100
AcDbLine
 10
262.2881029999999
 20
97.02652800000002
 30
0.0
 11
249.5796059999999
 21
97.02652800000002
 31
0.0
  0
LINE
  5
B1EA
330
AFEC
100
AcDbEntity
  8
1
  6
Continuous
100
AcDbLine
 10
261.908854
 20
96.92652800000001
 30
0.0
 11
261.908854
 21
97.02652800000002
 31
0.0
  0
LINE
  5
B1EB
330
AFEC
100
AcDbEntity
  8
1
  6
Continuous
100
AcDbLine
 10
249.9588539999999
 20
96.92652800000001
 30
0.0
 11
249.9588539999999
 21
97.02652800000002
 31
0.0
  0
ARC
  5
B1EC
330
AFEC
100
AcDbEntity
  8
1
  6
Continuous
100
AcDbCircle
 10
241.3851409999999
 20
90.78030699999999
 30
0.0
 40
30.0
100
AcDbArc
 50
235.2642689999999
 51
258.557979
  0
LINE
  5
B1ED
330
AFEC
100
AcDbEntity
  8
1
  6
Continuous
100
AcDbLine
 10
255.933854
 20
46.662427
 30
0.0
 11
255.933854
 21
51.626528
 31
0.0
  0
LINE
  5
B1EE
330
AFEC
100
AcDbEntity
  8
1
  6
Continuous
100
AcDbLine
 10
249.933854
 20
51.626528
 30
0.0
 11
249.933854
 21
46.126528
 31
0.0
  0
LINE
  5
B1EF
330
AFEC
100
AcDbEntity
  8
1
  6
Continuous
100
AcDbLine
 10
261.933854
 20
51.626528
 30
0.0
 11
261.933854
 21
46.126528
 31
0.0
  0
ARC
  5
B1F0
330
AFEC
100
AcDbEntity
  8
1
  6
Continuous
100
AcDbCircle
 10
249.5796059999999
 20
53.226528
 30
0.0
 40
4.0
100
AcDbArc
 50
90.0
 51
131.4096219999999
  0
ARC
  5
B1F1
330
AFEC
100
AcDbEntity
  8
1
  6
Continuous
100
AcDbCircle
 10
238.2622809999999
 20
62.376528
 30
0.0
 40
3.0
100
AcDbArc
 50
199.4712209999999
 51
270.0
  0
LINE
  5
B1F2
330
AFEC
100
AcDbEntity
  8
1
  6
Continuous
100
AcDbLine
 10
239.933854
 20
57.326528
 30
0.0
 11
239.933854
 21
59.376528
 31
0.0
  0
LINE
  5
B1F3
330
AFEC
100
AcDbEntity
  8
1
  6
Continuous
100
AcDbLine
 10
245.683854
 20
53.926528
 30
0.0
 11
245.683854
 21
56.226528
 31
0.0
  0
LINE
  5
B1F4
330
AFEC
100
AcDbEntity
  8
1
  6
Continuous
100
AcDbLine
 10
249.933854
 20
51.626528
 30
0.0
 11
261.933854
 21
51.626528
 31
0.0
  0
LINE
  5
B1F5
330
AFEC
100
AcDbEntity
  8
1
  6
Continuous
100
AcDbLine
 10
263.4338539999999
 20
51.626528
 30
0.0
 11
263.4338539999999
 21
52.259245
 31
0.0
  0
LINE
  5
B1F6
330
AFEC
100
AcDbEntity
  8
1
  6
Continuous
100
AcDbLine
 10
248.4338539999999
 20
51.626528
 30
0.0
 11
248.4338539999999
 21
53.926528
 31
0.0
  0
LINE
  5
B1F7
330
AFEC
100
AcDbEntity
  8
1
  6
Continuous
100
AcDbLine
 10
263.4338539999999
 20
51.626528
 30
0.0
 11
248.4338539999999
 21
51.626528
 31
0.0
  0
LINE
  5
B1F8
330
AFEC
100
AcDbEntity
  8
1
  6
Continuous
100
AcDbLine
 10
262.2881029999999
 20
57.226528
 30
0.0
 11
249.5796059999999
 21
57.226528
 31
0.0
  0
LINE
  5
B1F9
330
AFEC
100
AcDbEntity
  8
1
  6
Continuous
100
AcDbLine
 10
261.908854
 20
57.226528
 30
0.0
 11
261.908854
 21
57.326528
 31
0.0
  0
LINE
  5
B1FA
330
AFEC
100
AcDbEntity
  8
1
  6
Continuous
100
AcDbLine
 10
249.9588539999999
 20
57.226528
 30
0.0
 11
249.9588539999999
 21
57.326528
 31
0.0
  0
ARC
  5
B1FB
330
AFEC
100
AcDbEntity
  8
1
  6
Continuous
100
AcDbCircle
 10
252.9338539999999
 20
54.791592
 30
0.0
 40
8.665063999999999
100
AcDbArc
 50
249.7438419999999
 51
290.256158
  0
LINE
  5
B1FC
330
AFEC
100
AcDbEntity
  8
1
  6
Continuous
100
AcDbLine
 10
261.933854
 20
46.126528
 30
0.0
 11
249.933854
 21
46.126528
 31
0.0
  0
ARC
  5
B1FD
330
AFEC
100
AcDbEntity
  8
1
  6
Continuous
100
AcDbCircle
 10
258.9338539999999
 20
54.791592
 30
0.0
 40
8.665063999999999
100
AcDbArc
 50
249.7438419999999
 51
290.256158
  0
ARC
  5
B1FE
330
AFEC
100
AcDbEntity
  8
1
  6
Continuous
100
AcDbCircle
 10
305.933854
 20
77.12664100000002
 30
0.0
 40
20.5
100
AcDbArc
 50
137.4092679999999
 51
147.548509
  0
LINE
  5
B1FF
330
AFEC
100
AcDbEntity
  8
4
  6
CENTER
100
AcDbLine
 10
305.933854
 20
47.95617
 30
0.0
 11
305.933854
 21
107.4164509999999
 31
0.0
  0
ARC
  5
B200
330
AFEC
100
AcDbEntity
  8
1
  6
Continuous
100
AcDbCircle
 10
270.482568
 20
63.47274999999999
 30
0.0
 40
30.0
100
AcDbArc
 50
55.265023
 51
78.557979
  0
ARC
  5
B201
330
AFEC
100
AcDbEntity
  8
1
  6
Continuous
100
AcDbCircle
 10
266.183854
 20
51.247381
 30
0.0
 40
46.77914699999997
100
AcDbArc
 50
55.329379
 51
90.0
  0
LINE
  5
B202
330
AFEC
100
AcDbEntity
  8
1
  6
Continuous
100
AcDbLine
 10
271.9338539999998
 20
94.87652799999999
 30
0.0
 11
271.9338539999998
 21
96.92652800000001
 31
0.0
  0
ARC
  5
B203
330
AFEC
100
AcDbEntity
  8
1
  6
Continuous
100
AcDbCircle
 10
273.605427
 20
91.876528
 30
0.0
 40
3.0
100
AcDbArc
 50
19.47122099999998
 51
90.0
  0
ARC
  5
B204
330
AFEC
100
AcDbEntity
  8
1
  6
Continuous
100
AcDbCircle
 10
266.183854
 20
103.004476
 30
0.0
 40
46.777948
100
AcDbArc
 50
270.0
 51
304.6716079999999
  0
ARC
  5
B205
330
AFEC
100
AcDbEntity
  8
1
  6
Continuous
100
AcDbCircle
 10
270.482568
 20
90.78030699999999
 30
0.0
 40
30.0
100
AcDbArc
 50
281.442021
 51
304.735731
  0
LINE
  5
B206
330
AFEC
100
AcDbEntity
  8
1
  6
Continuous
100
AcDbLine
 10
271.9338539999998
 20
57.326528
 30
0.0
 11
271.9338539999998
 21
59.376528
 31
0.0
  0
ARC
  5
B207
330
AFEC
100
AcDbEntity
  8
1
  6
Continuous
100
AcDbCircle
 10
273.605427
 20
62.376528
 30
0.0
 40
3.0
100
AcDbArc
 50
270.0
 51
340.528779
  0
LINE
  5
B208
330
AFEC
100
AcDbEntity
  8
1
  6
Continuous
100
AcDbLine
 10
249.933854
 20
235.4399609999999
 30
0.0
 11
255.933854
 21
238.9040629999998
 31
0.0
  0
LINE
  5
B209
330
AFEC
100
AcDbEntity
  8
1
  6
Continuous
100
AcDbLine
 10
249.933854
 20
235.4399609999999
 30
0.0
 11
249.933854
 21
228.511758
 31
0.0
  0
CIRCLE
  5
B20A
330
AFEC
100
AcDbEntity
  8
1
  6
Continuous
100
AcDbCircle
 10
255.933854
 20
231.9758589999999
 30
0.0
 40
4.0
  0
CIRCLE
  5
B20B
330
AFEC
100
AcDbEntity
  8
2
  6
Continuous
100
AcDbCircle
 10
255.933854
 20
231.9758589999999
 30
0.0
 40
3.3235
  0
LINE
  5
B20C
330
AFEC
100
AcDbEntity
  8
1
  6
Continuous
100
AcDbLine
 10
261.933854
 20
235.4399609999999
 30
0.0
 11
255.933854
 21
238.9040629999998
 31
0.0
  0
LINE
  5
B20D
330
AFEC
100
AcDbEntity
  8
1
  6
Continuous
100
AcDbLine
 10
261.933854
 20
235.4399609999999
 30
0.0
 11
261.933854
 21
228.511758
 31
0.0
  0
LINE
  5
B20E
330
AFEC
100
AcDbEntity
  8
1
  6
Continuous
100
AcDbLine
 10
255.933854
 20
225.047656
 30
0.0
 11
261.933854
 21
228.511758
 31
0.0
  0
LINE
  5
B20F
330
AFEC
100
AcDbEntity
  8
1
  6
Continuous
100
AcDbLine
 10
255.933854
 20
225.047656
 30
0.0
 11
249.933854
 21
228.511758
 31
0.0
  0
CIRCLE
  5
B210
330
AFEC
100
AcDbEntity
  8
1
  6
Continuous
100
AcDbCircle
 10
255.933854
 20
231.9758589999999
 30
0.0
 40
7.5
  0
CIRCLE
  5
B211
330
AFEC
100
AcDbEntity
  8
1
  6
Continuous
100
AcDbCircle
 10
255.933854
 20
231.9758589999999
 30
0.0
 40
8.0
  0
CIRCLE
  5
B212
330
AFEC
100
AcDbEntity
  8
1
  6
Continuous
100
AcDbCircle
 10
669.81764
 20
231.9758589999999
 30
0.0
 40
6.0
  0
LINE
  5
B213
330
AFEC
100
AcDbEntity
  8
1
  6
Continuous
100
AcDbLine
 10
675.8176399999999
 20
235.4399609999999
 30
0.0
 11
669.81764
 21
238.9040629999998
 31
0.0
  0
LINE
  5
B214
330
AFEC
100
AcDbEntity
  8
1
  6
Continuous
100
AcDbLine
 10
663.8176399999998
 20
235.4399609999999
 30
0.0
 11
669.81764
 21
238.9040629999998
 31
0.0
  0
LINE
  5
B215
330
AFEC
100
AcDbEntity
  8
1
  6
Continuous
100
AcDbLine
 10
663.8176399999998
 20
235.4399609999999
 30
0.0
 11
663.8176399999998
 21
228.511758
 31
0.0
  0
LINE
  5
B216
330
AFEC
100
AcDbEntity
  8
1
  6
Continuous
100
AcDbLine
 10
669.81764
 20
225.047656
 30
0.0
 11
663.8176399999998
 21
228.511758
 31
0.0
  0
LINE
  5
B217
330
AFEC
100
AcDbEntity
  8
1
  6
Continuous
100
AcDbLine
 10
669.81764
 20
225.047656
 30
0.0
 11
675.8176399999999
 21
228.511758
 31
0.0
  0
LINE
  5
B218
330
AFEC
100
AcDbEntity
  8
1
  6
Continuous
100
AcDbLine
 10
675.8176399999999
 20
235.4399609999999
 30
0.0
 11
675.8176399999999
 21
228.511758
 31
0.0
  0
ARC
  5
B219
330
AFEC
100
AcDbEntity
  8
1
  6
Continuous
100
AcDbCircle
 10
264.755081
 20
108.026528
 30
0.0
 40
10.0
100
AcDbArc
 50
270.0
 51
285.6838859999998
  0
LINE
  5
B21A
330
AFEC
100
AcDbEntity
  8
1
  6
Continuous
100
AcDbLine
 10
319.9338539999998
 20
88.126641
 30
0.0
 11
191.933854
 21
88.126641
 31
0.0
  0
LINE
  5
B21B
330
AFEC
100
AcDbEntity
  8
1
  6
Continuous
100
AcDbLine
 10
319.9338539999998
 20
66.126641
 30
0.0
 11
191.933854
 21
66.126641
 31
0.0
  0
ARC
  5
B21C
330
AFEC
100
AcDbEntity
  8
1
  6
Continuous
100
AcDbCircle
 10
191.933854
 20
77.12664100000002
 30
0.0
 40
11.0
100
AcDbArc
 50
90.0
 51
270.0
  0
ARC
  5
B21D
330
AFEC
100
AcDbEntity
  8
1
  6
Continuous
100
AcDbCircle
 10
305.933854
 20
77.12664100000002
 30
0.0
 40
20.5
100
AcDbArc
 50
212.451491
 51
222.5907649999999
  0
ARC
  5
B21E
330
AFEC
100
AcDbEntity
  8
1
  6
Continuous
100
AcDbCircle
 10
264.788427
 20
112.6265279999999
 30
0.0
 40
12.3
100
AcDbArc
 50
270.0
 51
282.4694129999999
  0
ARC
  5
B21F
330
AFEC
100
AcDbEntity
  8
1
  6
Continuous
100
AcDbCircle
 10
264.788427
 20
41.626754
 30
0.0
 40
12.3
100
AcDbArc
 50
77.53058700000003
 51
90.0
  0
ARC
  5
B220
330
AFEC
100
AcDbEntity
  8
1
  6
Continuous
100
AcDbCircle
 10
264.755081
 20
46.226754
 30
0.0
 40
10.0
100
AcDbArc
 50
74.316114
 51
90.0
  0
LINE
  5
B221
330
AFEC
100
AcDbEntity
  8
1
  6
Continuous
100
AcDbLine
 10
288.698702
 20
497.801908
 30
0.0
 11
192.283478
 21
497.801908
 31
0.0
  0
LINE
  5
B222
330
AFEC
100
AcDbEntity
  8
1
  6
Continuous
100
AcDbLine
 10
288.6985569999998
 20
475.801908
 30
0.0
 11
192.283478
 21
475.801908
 31
0.0
  0
ARC
  5
B223
330
AFEC
100
AcDbEntity
  8
1
  6
Continuous
100
AcDbCircle
 10
191.9334779999998
 20
486.801795
 30
0.0
 40
11.0
100
AcDbArc
 50
90.0
 51
270.0
  0
ARC
  5
B224
330
AFEC
100
AcDbEntity
  8
1
  6
Continuous
100
AcDbCircle
 10
319.933478
 20
486.801795
 30
0.0
 40
11.0
100
AcDbArc
 50
289.5863589999999
 51
310.541602
  0
CIRCLE
  5
B225
330
AFEC
100
AcDbEntity
  8
1
  6
Continuous
100
AcDbCircle
 10
305.9334779999999
 20
486.801795
 30
0.0
 40
9.5
  0
CIRCLE
  5
B226
330
AFEC
100
AcDbEntity
  8
2
  6
Continuous
100
AcDbCircle
 10
305.9334779999999
 20
486.801795
 30
0.0
 40
5.3235
  0
CIRCLE
  5
B227
330
AFEC
100
AcDbEntity
  8
1
  6
Continuous
100
AcDbCircle
 10
305.9334779999999
 20
486.801795
 30
0.0
 40
4.5
  0
ARC
  5
B228
330
AFEC
100
AcDbEntity
  8
1
  6
Continuous
100
AcDbCircle
 10
255.933854
 20
231.9758589999999
 30
0.0
 40
75.0
100
AcDbArc
 50
62.447723
 51
7.960025999999999
  0
LINE
  5
B229
330
AFEC
100
AcDbEntity
  8
1
  6
Continuous
100
AcDbLine
 10
57.99184799999999
 20
295.9758439999998
 30
0.0
 11
57.99184799999999
 21
168.3258439999999
 31
0.0
  0
LINE
  5
B22A
330
AFEC
100
AcDbEntity
  8
1
  6
Continuous
100
AcDbLine
 10
79.991848
 20
295.9758439999998
 30
0.0
 11
79.991848
 21
168.3258439999999
 31
0.0
  0
ARC
  5
B22B
330
AFEC
100
AcDbEntity
  8
1
  6
Continuous
100
AcDbCircle
 10
68.99196100000001
 20
167.975844
 30
0.0
 40
11.0
100
AcDbArc
 50
180.0
 51
0.0
  0
ARC
  5
B22C
330
AFEC
100
AcDbEntity
  8
1
  6
Continuous
100
AcDbCircle
 10
68.99196100000001
 20
295.9758439999998
 30
0.0
 40
11.0
100
AcDbArc
 50
0.0
 51
180.0
  0
LINE
  5
B22D
330
AFEC
100
AcDbEntity
  8
1
  6
Continuous
100
AcDbLine
 10
451.8758599999999
 20
241.716129
 30
0.0
 11
451.8758599999999
 21
168.3258439999999
 31
0.0
  0
LINE
  5
B22E
330
AFEC
100
AcDbEntity
  8
1
  6
Continuous
100
AcDbLine
 10
473.8758599999998
 20
241.7162649999999
 30
0.0
 11
473.8758599999998
 21
168.3258439999999
 31
0.0
  0
ARC
  5
B22F
330
AFEC
100
AcDbEntity
  8
1
  6
Continuous
100
AcDbCircle
 10
462.875747
 20
167.975844
 30
0.0
 40
11.0
100
AcDbArc
 50
180.0
 51
0.0
  0
LINE
  5
B230
330
AFEC
100
AcDbEntity
  8
2
  6
Continuous
100
AcDbLine
 10
300.6103539999998
 20
412.1523589999998
 30
0.0
 11
300.6103539999998
 21
410.975844
 31
0.0
  0
LINE
  5
B231
330
AFEC
100
AcDbEntity
  8
2
  6
Continuous
100
AcDbLine
 10
311.257354
 20
412.1523589999998
 30
0.0
 11
311.257354
 21
410.975844
 31
0.0
  0
LINE
  5
B232
330
AFEC
100
AcDbEntity
  8
1
  6
Continuous
100
AcDbLine
 10
99.99184800000001
 20
235.9758439999999
 30
0.0
 11
99.99184800000001
 21
227.975844
 31
0.0
  0
LINE
  5
B233
330
AFEC
100
AcDbEntity
  8
1
  6
Continuous
100
AcDbLine
 10
431.8758599999998
 20
235.9758439999999
 30
0.0
 11
431.8758599999998
 21
227.975844
 31
0.0
  0
LINE
  5
B234
330
AFEC
100
AcDbEntity
  8
1
  6
Continuous
100
AcDbLine
 10
251.9334779999998
 20
455.801908
 30
0.0
 11
259.9334779999999
 21
455.801908
 31
0.0
  0
LINE
  5
B235
330
AFEC
100
AcDbEntity
  8
1
  6
Continuous
100
AcDbLine
 10
251.933854
 20
108.126528
 30
0.0
 11
259.933854
 21
108.126528
 31
0.0
  0
LINE
  5
B236
330
AFEC
100
AcDbEntity
  8
2
  6
Continuous
100
AcDbLine
 10
63.668461
 20
412.1523589999998
 30
0.0
 11
63.668461
 21
410.975844
 31
0.0
  0
LINE
  5
B237
330
AFEC
100
AcDbEntity
  8
2
  6
Continuous
100
AcDbLine
 10
74.315461
 20
412.1523589999998
 30
0.0
 11
74.315461
 21
410.975844
 31
0.0
  0
LINE
  5
B238
330
AFEC
100
AcDbEntity
  8
2
  6
Continuous
100
AcDbLine
 10
457.552247
 20
412.1523589999998
 30
0.0
 11
457.552247
 21
410.975844
 31
0.0
  0
LINE
  5
B239
330
AFEC
100
AcDbEntity
  8
2
  6
Continuous
100
AcDbLine
 10
468.1992469999998
 20
412.1523589999998
 30
0.0
 11
468.1992469999998
 21
410.975844
 31
0.0
  0
ARC
  5
B23A
330
AFEC
100
AcDbEntity
  8
1
  6
Continuous
100
AcDbCircle
 10
399.476381
 20
242.5554219999999
 30
0.0
 40
89.99881399999997
100
AcDbArc
 50
348.4111759999998
 51
357.674795
  0
ARC
  5
B23B
330
AFEC
100
AcDbEntity
  8
1
  6
Continuous
100
AcDbCircle
 10
526.275113
 20
242.5554219999999
 30
0.0
 40
89.99881399999997
100
AcDbArc
 50
182.325205
 51
191.5888239999999
  0
ARC
  5
B23C
330
AFEC
100
AcDbEntity
  8
1
  6
Continuous
100
AcDbCircle
 10
255.933854
 20
231.9758589999999
 30
0.0
 40
31.64269099999999
100
AcDbArc
 50
56.900729
 51
15.099271
  0
ARC
  5
B23D
330
AFEC
100
AcDbEntity
  8
1
  6
Continuous
100
AcDbCircle
 10
255.933854
 20
231.9758589999999
 30
0.0
 40
55.0
100
AcDbArc
 50
52.85268399999999
 51
23.259355
  0
ARC
  5
B23E
330
AFEC
100
AcDbEntity
  8
1
  6
Continuous
100
AcDbCircle
 10
255.933854
 20
231.9758589999999
 30
0.0
 40
58.5
100
AcDbArc
 50
54.175155
 51
23.986688
  0
LINE
  5
B23F
330
AFEC
100
AcDbEntity
  8
1
  6
Continuous
100
AcDbLine
 10
270.6592979999999
 20
512.62626
 30
0.0
 11
304.6914399999999
 21
509.195258
 31
0.0
  0
ARC
  5
B240
330
AFEC
100
AcDbEntity
  8
1
  6
Continuous
100
AcDbCircle
 10
280.1540489999999
 20
436.3067159999998
 30
0.0
 40
77.195079
100
AcDbArc
 50
98.98809100000001
 51
103.078943
  0
ARC
  5
B241
330
AFEC
100
AcDbEntity
  8
1
  6
Continuous
100
AcDbCircle
 10
303.6883599999999
 20
499.245694
 30
0.0
 40
10.0
100
AcDbArc
 50
69.49809000000001
 51
84.24308999999999
  0
ARC
  5
B242
330
AFEC
100
AcDbEntity
  8
1
  6
Continuous
100
AcDbCircle
 10
269.656218
 20
502.6766959999998
 30
0.0
 40
10.0
100
AcDbArc
 50
84.24308999999999
 51
98.98809100000001
  0
LINE
  5
B243
330
AFEC
100
AcDbEntity
  8
1
  6
Continuous
100
AcDbLine
 10
298.7462680000001
 20
504.551908
 30
0.0
 11
275.6261529999998
 21
509.084949
 31
0.0
  0
LINE
  5
B244
330
AFEC
100
AcDbEntity
  8
1
  6
Continuous
100
AcDbLine
 10
298.7462680000001
 20
504.551908
 30
0.0
 11
271.04847
 21
507.448236
 31
0.0
  0
ARC
  5
B245
330
AFEC
100
AcDbEntity
  8
1
  6
Continuous
100
AcDbCircle
 10
249.622948
 20
405.878514
 30
0.0
 40
57.72316800000001
100
AcDbArc
 50
76.92105699999998
 51
90.0
  0
ARC
  5
B246
330
AFEC
100
AcDbEntity
  8
1
  6
Continuous
100
AcDbCircle
 10
280.1540489999999
 20
537.296874
 30
0.0
 40
77.195079
100
AcDbArc
 50
256.9210569999999
 51
261.0119089999999
  0
ARC
  5
B247
330
AFEC
100
AcDbEntity
  8
1
  6
Continuous
100
AcDbCircle
 10
269.656218
 20
470.926895
 30
0.0
 40
10.0
100
AcDbArc
 50
261.0119089999999
 51
275.7569099999999
  0
LINE
  5
B248
330
AFEC
100
AcDbEntity
  8
1
  6
Continuous
100
AcDbLine
 10
270.6592979999999
 20
460.9773299999998
 30
0.0
 11
304.6914399999999
 21
464.4083329999999
 31
0.0
  0
ARC
  5
B249
330
AFEC
100
AcDbEntity
  8
1
  6
Continuous
100
AcDbCircle
 10
303.6883599999999
 20
474.3578969999998
 30
0.0
 40
10.0
100
AcDbArc
 50
275.7569099999999
 51
290.50191
  0
LINE
  5
B24A
330
AFEC
100
AcDbEntity
  8
1
  6
Continuous
100
AcDbLine
 10
298.7462680000001
 20
469.051682
 30
0.0
 11
275.6261529999998
 21
464.5186409999998
 31
0.0
  0
LINE
  5
B24B
330
AFEC
100
AcDbEntity
  8
1
  6
Continuous
100
AcDbLine
 10
298.7462680000001
 20
469.051682
 30
0.0
 11
271.04847
 21
466.1553539999998
 31
0.0
  0
ARC
  5
B24C
330
AFEC
100
AcDbEntity
  8
1
  6
Continuous
100
AcDbCircle
 10
266.1834779999999
 20
512.6796299999998
 30
0.0
 40
46.777948
100
AcDbArc
 50
270.0
 51
275.9696609999999
  0
ARC
  5
B24D
330
AFEC
100
AcDbEntity
  8
1
  6
Continuous
100
AcDbCircle
 10
266.1834779999999
 20
512.6796299999998
 30
0.0
 40
49.077948
100
AcDbArc
 50
270.0
 51
281.0929719999999
  0
LINE
  5
B24E
330
AFEC
100
AcDbEntity
  8
1
  6
Continuous
100
AcDbLine
 10
266.1834779999999
 20
463.601682
 30
0.0
 11
245.6834779999998
 21
463.601682
 31
0.0
  0
LINE
  5
B24F
330
AFEC
100
AcDbEntity
  8
1
  6
Continuous
100
AcDbLine
 10
266.1834779999999
 20
465.9016819999997
 30
0.0
 11
245.6834779999998
 21
465.9016819999997
 31
0.0
  0
ARC
  5
B250
330
AFEC
100
AcDbEntity
  8
1
  6
Continuous
100
AcDbCircle
 10
280.1540489999999
 20
537.296874
 30
0.0
 40
77.195079
100
AcDbArc
 50
290.50191
 51
297.045834
  0
ARC
  5
B251
330
AFEC
100
AcDbEntity
  8
1
  6
Continuous
100
AcDbCircle
 10
249.623324
 20
158.049922
 30
0.0
 40
57.72316800000001
100
AcDbArc
 50
270.0
 51
283.0789429999999
  0
ARC
  5
B252
330
AFEC
100
AcDbEntity
  8
1
  6
Continuous
100
AcDbCircle
 10
280.154425
 20
26.63156199999999
 30
0.0
 40
77.195079
100
AcDbArc
 50
98.98809100000001
 51
103.078943
  0
ARC
  5
B253
330
AFEC
100
AcDbEntity
  8
1
  6
Continuous
100
AcDbCircle
 10
269.6565939999999
 20
93.00154199999999
 30
0.0
 40
10.0
100
AcDbArc
 50
84.24308999999999
 51
98.98809100000001
  0
LINE
  5
B254
330
AFEC
100
AcDbEntity
  8
1
  6
Continuous
100
AcDbLine
 10
270.659674
 20
102.951106
 30
0.0
 11
304.691816
 21
99.520104
 31
0.0
  0
ARC
  5
B255
330
AFEC
100
AcDbEntity
  8
1
  6
Continuous
100
AcDbCircle
 10
303.688736
 20
89.57053899999998
 30
0.0
 40
10.0
100
AcDbArc
 50
69.49809000000001
 51
84.24308999999999
  0
ARC
  5
B256
330
AFEC
100
AcDbEntity
  8
1
  6
Continuous
100
AcDbCircle
 10
280.154425
 20
26.63156199999999
 30
0.0
 40
77.195079
100
AcDbArc
 50
62.954166
 51
69.49809000000001
  0
ARC
  5
B257
330
AFEC
100
AcDbEntity
  8
1
  6
Continuous
100
AcDbCircle
 10
305.933854
 20
77.12664100000002
 30
0.0
 40
20.5
100
AcDbArc
 50
297.0462239999998
 51
329.632988
  0
ARC
  5
B258
330
AFEC
100
AcDbEntity
  8
1
  6
Continuous
100
AcDbCircle
 10
280.154425
 20
127.62172
 30
0.0
 40
77.195079
100
AcDbArc
 50
290.50191
 51
297.045834
  0
LINE
  5
B259
330
AFEC
100
AcDbEntity
  8
1
  6
Continuous
100
AcDbLine
 10
270.659674
 20
51.302176
 30
0.0
 11
304.691816
 21
54.73317900000001
 31
0.0
  0
ARC
  5
B25A
330
AFEC
100
AcDbEntity
  8
1
  6
Continuous
100
AcDbCircle
 10
303.688736
 20
64.682743
 30
0.0
 40
10.0
100
AcDbArc
 50
275.7569099999999
 51
290.50191
  0
ARC
  5
B25B
330
AFEC
100
AcDbEntity
  8
1
  6
Continuous
100
AcDbCircle
 10
269.6565939999999
 20
61.251741
 30
0.0
 40
10.0
100
AcDbArc
 50
261.0119089999999
 51
275.7569099999999
  0
ARC
  5
B25C
330
AFEC
100
AcDbEntity
  8
1
  6
Continuous
100
AcDbCircle
 10
280.154425
 20
127.62172
 30
0.0
 40
77.195079
100
AcDbArc
 50
256.9210569999999
 51
261.0119089999999
  0
ARC
  5
B25D
330
AFEC
100
AcDbEntity
  8
1
  6
Continuous
100
AcDbCircle
 10
249.623324
 20
-3.79664
 30
0.0
 40
57.72316800000001
100
AcDbArc
 50
76.92105699999998
 51
90.0
  0
ARC
  5
B25E
330
AFEC
100
AcDbEntity
  8
1
  6
Continuous
100
AcDbCircle
 10
305.933854
 20
77.12664100000002
 30
0.0
 40
18.2
100
AcDbArc
 50
217.185363
 51
322.861104
  0
ARC
  5
B25F
330
AFEC
100
AcDbEntity
  8
1
  6
Continuous
100
AcDbCircle
 10
305.933854
 20
77.12664100000002
 30
0.0
 40
20.5
100
AcDbArc
 50
30.36701199999999
 51
62.954166
  0
ARC
  5
B260
330
AFEC
100
AcDbEntity
  8
1
  6
Continuous
100
AcDbCircle
 10
305.933854
 20
77.12664100000002
 30
0.0
 40
18.2
100
AcDbArc
 50
37.138896
 51
67.380135
  0
ARC
  5
B261
330
AFEC
100
AcDbEntity
  8
1
  6
Continuous
100
AcDbCircle
 10
274.3241319999999
 20
-57.58730599999999
 30
0.0
 40
158.353498
100
AcDbArc
 50
75.020139
 51
92.49008600000001
  0
ARC
  5
B262
330
AFEC
100
AcDbEntity
  8
1
  6
Continuous
100
AcDbCircle
 10
277.942451
 20
-28.43815499999999
 30
0.0
 40
127.2695619999999
100
AcDbArc
 50
74.04160400000002
 51
94.72520400000002
  0
ARC
  5
B263
330
AFEC
100
AcDbEntity
  8
1
  6
Continuous
100
AcDbCircle
 10
305.933854
 20
77.12664100000002
 30
0.0
 40
18.2
100
AcDbArc
 50
82.91844000000002
 51
142.814637
  0
ARC
  5
B264
330
AFEC
100
AcDbEntity
  8
1
  6
Continuous
100
AcDbCircle
 10
277.942451
 20
182.691437
 30
0.0
 40
127.2695619999999
100
AcDbArc
 50
265.2747959999999
 51
285.958396
  0
ARC
  5
B265
330
AFEC
100
AcDbEntity
  8
1
  6
Continuous
100
AcDbCircle
 10
274.3241319999999
 20
211.840588
 30
0.0
 40
158.353498
100
AcDbArc
 50
267.5099139999999
 51
284.9798609999999
  0
LINE
  5
B266
330
AFEC
100
AcDbEntity
  8
4
  6
CENTER
100
AcDbLine
 10
474.875747
 20
287.875844
 30
0.0
 11
450.8757469999998
 21
287.875844
 31
0.0
  0
ARC
  5
B267
330
AFEC
100
AcDbEntity
  8
5
  6
PHANTOM
100
AcDbCircle
 10
464.332696
 20
290.260217
 30
0.0
 40
20.0
100
AcDbArc
 50
51.53291399999999
 51
83.23003699999999
  0
ARC
  5
B268
330
AFEC
100
AcDbEntity
  8
1
  6
Continuous
100
AcDbCircle
 10
463.8509679999998
 20
290.494408
 30
0.0
 40
20.0
100
AcDbArc
 50
62.532914
 51
94.230037
  0
ARC
  5
B269
330
AFEC
100
AcDbEntity
  8
1
  6
Continuous
100
AcDbCircle
 10
462.875747
 20
295.575844
 30
0.0
 40
18.0
100
AcDbArc
 50
20.354406
 51
159.645594
  0
CIRCLE
  5
B26A
330
AFEC
100
AcDbEntity
  8
1
  6
Continuous
100
AcDbCircle
 10
462.8425619999998
 20
258.975844
 30
0.0
 40
10.0
  0
LINE
  5
B26B
330
AFEC
100
AcDbEntity
  8
1
  6
Continuous
100
AcDbLine
 10
457.0460899999998
 20
240.2758439999999
 30
0.0
 11
468.7054049999998
 21
240.2758439999999
 31
0.0
  0
ARC
  5
B26C
330
AFEC
100
AcDbEntity
  8
5
  6
PHANTOM
100
AcDbCircle
 10
461.4238789999998
 20
249.8543109999999
 30
0.0
 40
10.0
100
AcDbArc
 50
259.0
 51
337.5
  0
ARC
  5
B26D
330
AFEC
100
AcDbEntity
  8
5
  6
PHANTOM
100
AcDbCircle
 10
464.332696
 20
290.260217
 30
0.0
 40
16.69999999999999
100
AcDbArc
 50
351.897406
 51
84.06791699999997
  0
ARC
  5
B26E
330
AFEC
100
AcDbEntity
  8
5
  6
PHANTOM
100
AcDbCircle
 10
464.344976
 20
295.434374
 30
0.0
 40
18.0
100
AcDbArc
 50
9.354405999999999
 51
148.6455939999999
  0
ARC
  5
B26F
330
AFEC
100
AcDbEntity
  8
1
  6
Continuous
100
AcDbCircle
 10
463.8509679999998
 20
290.494408
 30
0.0
 40
16.69999999999999
100
AcDbArc
 50
2.897406
 51
95.06791699999999
  0
ARC
  5
B270
330
AFEC
100
AcDbEntity
  8
1
  6
Continuous
100
AcDbCircle
 10
313.963466
 20
77.12664100000002
 30
0.0
 40
17.962451
100
AcDbArc
 50
324.2285989999999
 51
0.0
  0
ARC
  5
B271
330
AFEC
100
AcDbEntity
  8
1
  6
Continuous
100
AcDbCircle
 10
321.001566
 20
77.12664100000002
 30
0.0
 40
12.92435
100
AcDbArc
 50
11.60503999999999
 51
54.333045
  0
ARC
  5
B272
330
AFEC
100
AcDbEntity
  8
1
  6
Continuous
100
AcDbCircle
 10
331.0576759999999
 20
77.12664100000002
 30
0.0
 40
10.190699
100
AcDbArc
 50
321.573797
 51
38.426203
  0
ARC
  5
B273
330
AFEC
100
AcDbEntity
  8
1
  6
Continuous
100
AcDbCircle
 10
323.4338539999999
 20
49.476641
 30
0.0
 40
9.5
100
AcDbArc
 50
189.6069719999998
 51
326.9770149999998
  0
LINE
  5
B274
330
AFEC
100
AcDbEntity
  8
1
  6
Continuous
100
AcDbLine
 10
314.986531
 20
58.065858
 30
0.0
 11
324.3287389999999
 21
61.12529099999999
 31
0.0
  0
ARC
  5
B275
330
AFEC
100
AcDbEntity
  8
1
  6
Continuous
100
AcDbCircle
 10
358.5863539999999
 20
55.42664099999999
 30
0.0
 40
45.1525
100
AcDbArc
 50
179.330962
 51
189.6069719999998
  0
ARC
  5
B276
330
AFEC
100
AcDbEntity
  8
1
  6
Continuous
100
AcDbCircle
 10
315.686779
 20
55.927599
 30
0.0
 40
2.25
100
AcDbArc
 50
108.1328459999999
 51
179.330962
  0
CIRCLE
  5
B277
330
AFEC
100
AcDbEntity
  8
1
  6
Continuous
100
AcDbCircle
 10
323.4338539999999
 20
46.876641
 30
0.0
 40
4.898978999999997
  0
LINE
  5
B278
330
AFEC
100
AcDbEntity
  8
1
  6
Continuous
100
AcDbLine
 10
339.0411639999999
 20
64.62664100000001
 30
0.0
 11
333.6617109999999
 21
64.62664100000001
 31
0.0
  0
LINE
  5
B279
330
AFEC
100
AcDbEntity
  8
1
  6
Continuous
100
AcDbLine
 10
333.6617109999999
 20
66.626641
 30
0.0
 11
328.5374029999999
 21
66.626641
 31
0.0
  0
LINE
  5
B27A
330
AFEC
100
AcDbEntity
  8
1
  6
Continuous
100
AcDbLine
 10
327.0838539999999
 20
64.926641
 30
0.0
 11
327.0838539999999
 21
68.626641
 31
0.0
  0
ARC
  5
B27B
330
AFEC
100
AcDbEntity
  8
1
  6
Continuous
100
AcDbCircle
 10
321.001566
 20
77.12664100000002
 30
0.0
 40
12.92435
100
AcDbArc
 50
305.6669549999999
 51
348.39496
  0
ARC
  5
B27C
330
AFEC
100
AcDbEntity
  8
1
  6
Continuous
100
AcDbCircle
 10
323.0838539999999
 20
64.926641
 30
0.0
 40
4.0
100
AcDbArc
 50
288.1328459999998
 51
0.0
  0
ARC
  5
B27D
330
AFEC
100
AcDbEntity
  8
1
  6
Continuous
100
AcDbCircle
 10
323.4338539999999
 20
104.7766409999999
 30
0.0
 40
9.5
100
AcDbArc
 50
33.022985
 51
170.3930279999999
  0
LINE
  5
B27E
330
AFEC
100
AcDbEntity
  8
1
  6
Continuous
100
AcDbLine
 10
314.9529199999999
 20
99.125603
 30
0.0
 11
322.8161789999999
 21
94.26478299999999
 31
0.0
  0
ARC
  5
B27F
330
AFEC
100
AcDbEntity
  8
1
  6
Continuous
100
AcDbCircle
 10
358.5863539999999
 20
98.82664100000004
 30
0.0
 40
45.1525
100
AcDbArc
 50
170.3930279999999
 51
176.1221439999999
  0
ARC
  5
B280
330
AFEC
100
AcDbEntity
  8
1
  6
Continuous
100
AcDbCircle
 10
316.530362
 20
101.6774019999999
 30
0.0
 40
3.0
100
AcDbArc
 50
176.1221439999999
 51
238.276945
  0
LINE
  5
B281
330
AFEC
100
AcDbEntity
  8
1
  6
Continuous
100
AcDbLine
 10
339.0411639999999
 20
89.62664100000003
 30
0.0
 11
333.6617109999999
 21
89.62664100000003
 31
0.0
  0
LINE
  5
B282
330
AFEC
100
AcDbEntity
  8
1
  6
Continuous
100
AcDbLine
 10
333.6617109999999
 20
87.626641
 30
0.0
 11
328.5374029999999
 21
87.626641
 31
0.0
  0
ARC
  5
B283
330
AFEC
100
AcDbEntity
  8
1
  6
Continuous
100
AcDbCircle
 10
318.0838539999998
 20
86.609387
 30
0.0
 40
9.0
100
AcDbArc
 50
353.731145
 51
58.27694499999999
  0
CIRCLE
  5
B284
330
AFEC
100
AcDbEntity
  8
1
  6
Continuous
100
AcDbCircle
 10
323.4338539999999
 20
107.3766409999999
 30
0.0
 40
4.898978999999997
  0
ARC
  5
B285
330
AFEC
100
AcDbEntity
  8
1
  6
Continuous
100
AcDbCircle
 10
299.6853469999999
 20
282.747998
 30
0.0
 40
27.7
100
AcDbArc
 50
348.2537049999999
 51
0.0
  0
ARC
  5
B286
330
AFEC
100
AcDbEntity
  8
1
  6
Continuous
100
AcDbCircle
 10
336.0460519999999
 20
243.420738
 30
0.0
 40
3.0
100
AcDbArc
 50
273.198911
 51
3.271063999999998
  0
LINE
  5
B287
330
AFEC
100
AcDbEntity
  8
1
  6
Continuous
100
AcDbLine
 10
333.6617109999999
 20
240.2827959999999
 30
0.0
 11
336.21346
 21
240.4254129999999
 31
0.0
  0
LINE
  5
B288
330
AFEC
100
AcDbEntity
  8
1
  6
Continuous
100
AcDbLine
 10
333.3978839999998
 20
241.570382
 30
0.0
 11
330.0519439999998
 21
242.401591
 31
0.0
  0
LINE
  5
B289
330
AFEC
100
AcDbEntity
  8
1
  6
Continuous
100
AcDbLine
 10
333.2665219999999
 20
242.2212529999999
 30
0.0
 11
330.196601
 21
242.9838919999999
 31
0.0
  0
LINE
  5
B28A
330
AFEC
100
AcDbEntity
  8
1
  6
Continuous
100
AcDbLine
 10
330.0437689999998
 20
245.653908
 30
0.0
 11
332.4278109999998
 21
246.5454189999999
 31
0.0
  0
LINE
  5
B28B
330
AFEC
100
AcDbEntity
  8
1
  6
Continuous
100
AcDbLine
 10
329.833613
 20
246.215899
 30
0.0
 11
332.316299
 21
247.1442979999999
 31
0.0
  0
ARC
  5
B28C
330
AFEC
100
AcDbEntity
  8
1
  6
Continuous
100
AcDbCircle
 10
330.534134
 20
244.342594
 30
0.0
 40
2.0
100
AcDbArc
 50
110.503255
 51
256.0488159999998
  0
ARC
  5
B28D
330
AFEC
100
AcDbEntity
  8
1
  6
Continuous
100
AcDbCircle
 10
330.534134
 20
244.342594
 30
0.0
 40
1.399999999999999
100
AcDbArc
 50
110.503255
 51
256.0488159999998
  0
ARC
  5
B28E
330
AFEC
100
AcDbEntity
  8
1
  6
Continuous
100
AcDbCircle
 10
299.1853469999999
 20
282.747998
 30
0.0
 40
30.0
100
AcDbArc
 50
342.874225
 51
346.0868819999998
  0
LINE
  5
B28F
330
AFEC
100
AcDbEntity
  8
1
  6
Continuous
100
AcDbLine
 10
326.0827779999999
 20
274.2824279999999
 30
0.0
 11
327.855166
 21
273.9138899999999
 31
0.0
  0
ARC
  5
B290
330
AFEC
100
AcDbEntity
  8
1
  6
Continuous
100
AcDbCircle
 10
297.412959
 20
283.1165359999999
 30
0.0
 40
30.0
100
AcDbArc
 50
342.874225
 51
348.448109
  0
LINE
  5
B291
330
AFEC
100
AcDbEntity
  8
1
  6
Continuous
100
AcDbLine
 10
313.4334779999999
 20
296.9758589999999
 30
0.0
 11
331.427255
 21
296.9758589999999
 31
0.0
  0
LINE
  5
B292
330
AFEC
100
AcDbEntity
  8
1
  6
Continuous
100
AcDbLine
 10
313.4334779999999
 20
298.5758589999999
 30
0.0
 11
330.333931
 21
298.5758589999999
 31
0.0
  0
LINE
  5
B293
330
AFEC
100
AcDbEntity
  8
1
  6
Continuous
100
AcDbLine
 10
313.4334779999999
 20
298.5758589999999
 30
0.0
 11
320.1026689999999
 21
298.5758589999999
 31
0.0
  0
LINE
  5
B294
330
AFEC
100
AcDbEntity
  8
1
  6
Continuous
100
AcDbLine
 10
313.4334779999999
 20
298.5758589999999
 30
0.0
 11
313.4334779999999
 21
296.9758589999999
 31
0.0
  0
LINE
  5
B295
330
AFEC
100
AcDbEntity
  8
1
  6
Continuous
100
AcDbLine
 10
333.427255
 20
310.5758599999999
 30
0.0
 11
333.427255
 21
280.869677
 31
0.0
  0
ARC
  5
B296
330
AFEC
100
AcDbEntity
  8
1
  6
Continuous
100
AcDbCircle
 10
309.1054689999999
 20
311.406238
 30
0.0
 40
18.50011999999999
100
AcDbArc
 50
324.547848
 51
6.734927
  0
LINE
  5
B297
330
AFEC
100
AcDbEntity
  8
4
  6
CENTER
100
AcDbLine
 10
352.4848609999998
 20
287.8758589999998
 30
0.0
 11
318.383818
 21
287.8758589999998
 31
0.0
  0
ARC
  5
B298
330
AFEC
100
AcDbEntity
  8
1
  6
Continuous
100
AcDbCircle
 10
329.7145279999999
 20
295.2088240000001
 30
0.0
 40
3.719983
100
AcDbArc
 50
356.420663
 51
30.64942100000001
  0
ARC
  5
B299
330
AFEC
100
AcDbEntity
  8
1
  6
Continuous
100
AcDbCircle
 10
330.333931
 20
295.5758589999998
 30
0.0
 40
3.0
100
AcDbArc
 50
30.64942100000001
 51
90.0
  0
ARC
  5
B29A
330
AFEC
100
AcDbEntity
  8
1
  6
Continuous
100
AcDbCircle
 10
331.427255
 20
294.9758589999999
 30
0.0
 40
2.0
100
AcDbArc
 50
0.020731
 51
90.0
  0
ARC
  5
B29B
330
AFEC
100
AcDbEntity
  8
1
  6
Continuous
100
AcDbCircle
 10
362.8623779999998
 20
280.8229309999999
 30
0.0
 40
35.030068
100
AcDbArc
 50
155.129837
 51
177.776079
  0
ARC
  5
B29C
330
AFEC
100
AcDbEntity
  8
1
  6
Continuous
100
AcDbCircle
 10
324.4763639999998
 20
292.1772369999998
 30
0.0
 40
5.0
100
AcDbArc
 50
343.522163
 51
13.443612
  0
ARC
  5
B29D
330
AFEC
100
AcDbEntity
  8
1
  6
Continuous
100
AcDbCircle
 10
277.654902
 20
280.9851229999998
 30
0.0
 40
53.140552
100
AcDbArc
 50
13.443612
 51
17.512508
  0
ARC
  5
B29E
330
AFEC
100
AcDbEntity
  8
1
  6
Continuous
100
AcDbCircle
 10
324.780493
 20
292.6925979999999
 30
0.0
 40
1.0
100
AcDbArc
 50
73.770303
 51
172.7238059999999
  0
ARC
  5
B29F
330
AFEC
100
AcDbEntity
  8
1
  6
Continuous
100
AcDbCircle
 10
373.385904
 20
286.4866269999998
 30
0.0
 40
50.0
100
AcDbArc
 50
172.7238059999999
 51
181.917051
  0
LINE
  5
B2A0
330
AFEC
100
AcDbEntity
  8
1
  6
Continuous
100
AcDbLine
 10
326.664836
 20
293.1855919999998
 30
0.0
 11
325.059982
 21
293.6527469999999
 31
0.0
  0
ARC
  5
B2A1
330
AFEC
100
AcDbEntity
  8
1
  6
Continuous
100
AcDbCircle
 10
326.385347
 20
292.2254429999999
 30
0.0
 40
1.0
100
AcDbArc
 50
0.0
 51
73.770303
  0
LINE
  5
B2A2
330
AFEC
100
AcDbEntity
  8
1
  6
Continuous
100
AcDbLine
 10
327.385347
 20
282.747998
 30
0.0
 11
327.385347
 21
292.2254429999999
 31
0.0
  0
ARC
  5
B2A3
330
AFEC
100
AcDbEntity
  8
1
  6
Continuous
100
AcDbCircle
 10
335.65618
 20
287.8758589999998
 30
0.0
 40
11.770833
100
AcDbArc
 50
151.083369
 51
209.2417479999999
  0
LINE
  5
B2A4
330
AFEC
100
AcDbEntity
  8
1
  6
Continuous
100
AcDbLine
 10
325.385347
 20
282.1258589999998
 30
0.0
 11
325.385347
 21
293.558037
 31
0.0
  0
LINE
  5
B2A5
330
AFEC
100
AcDbEntity
  8
1
  6
Continuous
100
AcDbLine
 10
325.385347
 20
282.1258589999998
 30
0.0
 11
327.3828470000001
 21
282.1258589999998
 31
0.0
  0
ARC
  5
B2A6
330
AFEC
100
AcDbEntity
  8
1
  6
Continuous
100
AcDbCircle
 10
330.173625
 20
295.9758589999998
 30
0.0
 40
1.0
100
AcDbArc
 50
335.129837
 51
90.0
  0
ARC
  5
B2A7
330
AFEC
100
AcDbEntity
  8
1
  6
Continuous
100
AcDbCircle
 10
347.843631
 20
281.406173
 30
0.0
 40
20.0
100
AcDbArc
 50
177.776079
 51
183.271064
  0
ARC
  5
B2A8
330
AFEC
100
AcDbEntity
  8
1
  6
Continuous
100
AcDbCircle
 10
323.4334779999999
 20
301.9758589999999
 30
0.0
 40
7.0
100
AcDbArc
 50
225.584691
 51
314.4153089999999
  0
ARC
  5
B2A9
330
AFEC
100
AcDbEntity
  8
1
  6
Continuous
100
AcDbCircle
 10
320.1026689999999
 20
303.5758589999999
 30
0.0
 40
5.0
100
AcDbArc
 50
270.0
 51
324.547848
  0
ARC
  5
B2AA
330
AFEC
100
AcDbEntity
  8
1
  6
Continuous
100
AcDbCircle
 10
330.427255
 20
310.5758599999999
 30
0.0
 40
3.0
100
AcDbArc
 50
0.0
 51
90.0
  0
LINE
  5
B2AB
330
AFEC
100
AcDbEntity
  8
1
  6
Continuous
100
AcDbLine
 10
327.4779259999998
 20
313.5758599999999
 30
0.0
 11
330.427255
 21
313.5758599999999
 31
0.0
  0
LINE
  5
B2AC
330
AFEC
100
AcDbEntity
  8
5
  6
PHANTOM
100
AcDbLine
 10
439.9791599999998
 20
251.991748
 30
0.0
 11
439.6346499999999
 21
291.4685629999999
 31
0.0
  0
LINE
  5
B2AD
330
AFEC
100
AcDbEntity
  8
1
  6
Continuous
100
AcDbLine
 10
447.2468429999998
 20
248.2821649999999
 30
0.0
 11
439.376132
 21
286.967944
 31
0.0
  0
ARC
  5
B2AE
330
AFEC
100
AcDbEntity
  8
5
  6
PHANTOM
100
AcDbCircle
 10
449.978779
 20
252.0790129999999
 30
0.0
 40
10.0
100
AcDbArc
 50
180.4999999999998
 51
259.0
  0
ARC
  5
B2AF
330
AFEC
100
AcDbEntity
  8
1
  6
Continuous
100
AcDbCircle
 10
457.0460899999998
 20
250.275844
 30
0.0
 40
10.0
100
AcDbArc
 50
191.5
 51
270.0
  0
LINE
  5
B2B0
330
AFEC
100
AcDbEntity
  8
5
  6
PHANTOM
100
AcDbLine
 10
448.0706889999998
 20
242.262741
 30
0.0
 11
459.515789
 21
240.038039
 31
0.0
  0
CIRCLE
  5
B2B1
330
AFEC
100
AcDbEntity
  8
5
  6
PHANTOM
100
AcDbCircle
 10
457.3287919999998
 20
259.5131509999998
 30
0.0
 40
10.0
  0
LINE
  5
B2B2
330
AFEC
100
AcDbEntity
  8
5
  6
PHANTOM
100
AcDbLine
 10
428.4499529999997
 20
305.4678089999999
 30
0.0
 11
443.749734
 21
302.4938329999999
 31
0.0
  0
ARC
  5
B2B3
330
AFEC
100
AcDbEntity
  8
1
  6
Continuous
100
AcDbCircle
 10
441.3118889999998
 20
303.575844
 30
0.0
 40
5.0
100
AcDbArc
 50
270.0
 51
339.645594
  0
ARC
  5
B2B4
330
AFEC
100
AcDbEntity
  8
5
  6
PHANTOM
100
AcDbCircle
 10
429.8650119999998
 20
302.1365999999998
 30
0.0
 40
3.0
100
AcDbArc
 50
22.981384
 51
79.0
  0
LINE
  5
B2B5
330
AFEC
100
AcDbEntity
  8
5
  6
PHANTOM
100
AcDbLine
 10
429.520238
 20
303.62982
 30
0.0
 11
428.1446589999998
 21
303.8972059999999
 31
0.0
  0
ARC
  5
B2B6
330
AFEC
100
AcDbEntity
  8
5
  6
PHANTOM
100
AcDbCircle
 10
435.3888019999998
 20
304.479192
 30
0.0
 40
3.0
100
AcDbArc
 50
202.981384
 51
237.825796
  0
ARC
  5
B2B7
330
AFEC
100
AcDbEntity
  8
5
  6
PHANTOM
100
AcDbCircle
 10
435.8719309999998
 20
307.48876
 30
0.0
 40
7.0
100
AcDbArc
 50
214.5846909999999
 51
268.3513889999999
  0
LINE
  5
B2B8
330
AFEC
100
AcDbEntity
  8
5
  6
PHANTOM
100
AcDbLine
 10
428.1446589999998
 20
303.8972059999999
 30
0.0
 11
428.4499529999997
 21
305.4678089999999
 31
0.0
  0
LINE
  5
B2B9
330
AFEC
100
AcDbEntity
  8
1
  6
Continuous
100
AcDbLine
 10
427.127073
 20
296.975844
 30
0.0
 11
425.7257469999998
 21
296.975844
 31
0.0
  0
ARC
  5
B2BA
330
AFEC
100
AcDbEntity
  8
1
  6
Continuous
100
AcDbCircle
 10
432.7257469999998
 20
298.929385
 30
0.0
 40
3.0
100
AcDbArc
 50
213.9813839999999
 51
248.8257959999998
  0
ARC
  5
B2BB
330
AFEC
100
AcDbEntity
  8
1
  6
Continuous
100
AcDbCircle
 10
432.6257469999998
 20
301.9758439999999
 30
0.0
 40
7.0
100
AcDbArc
 50
225.584691
 51
279.3513889999999
  0
LINE
  5
B2BC
330
AFEC
100
AcDbEntity
  8
1
  6
Continuous
100
AcDbLine
 10
425.7257469999998
 20
296.975844
 30
0.0
 11
425.7257469999998
 21
298.575844
 31
0.0
  0
LINE
  5
B2BD
330
AFEC
100
AcDbEntity
  8
1
  6
Continuous
100
AcDbLine
 10
425.7257469999998
 20
298.575844
 30
0.0
 11
441.3118889999998
 21
298.575844
 31
0.0
  0
ARC
  5
B2BE
330
AFEC
100
AcDbEntity
  8
1
  6
Continuous
100
AcDbCircle
 10
427.127073
 20
284.475844
 30
0.0
 40
12.5
100
AcDbArc
 50
11.49999999999998
 51
90.0
  0
ARC
  5
B2BF
330
AFEC
100
AcDbEntity
  8
5
  6
PHANTOM
100
AcDbCircle
 10
427.1351259999998
 20
291.3594799999998
 30
0.0
 40
12.5
100
AcDbArc
 50
0.5
 51
79.0
  0
ARC
  5
B2C0
330
AFEC
100
AcDbEntity
  8
1
  6
Continuous
100
AcDbCircle
 10
427.7504309999998
 20
295.575844
 30
0.0
 40
3.0
100
AcDbArc
 50
33.98138400000001
 51
90.0
  0
ARC
  5
B2C1
330
AFEC
100
AcDbEntity
  8
5
  6
PHANTOM
100
AcDbCircle
 10
444.703779
 20
307.401969
 30
0.0
 40
5.0
100
AcDbArc
 50
259.0
 51
328.645594
  0
ARC
  5
B2C2
330
AFEC
100
AcDbEntity
  8
1
  6
Continuous
100
AcDbCircle
 10
315.6864029999999
 20
508.0008379999998
 30
0.0
 40
2.25
100
AcDbArc
 50
180.669038
 51
251.867154
  0
LINE
  5
B2C3
330
AFEC
100
AcDbEntity
  8
1
  6
Continuous
100
AcDbLine
 10
333.4334779999999
 20
508.501795
 30
0.0
 11
333.4334779999999
 21
465.1017949999999
 31
0.0
  0
LINE
  5
B2C4
330
AFEC
100
AcDbEntity
  8
1
  6
Continuous
100
AcDbLine
 10
314.986155
 20
505.8625779999998
 30
0.0
 11
324.3283629999999
 21
502.8031449999998
 31
0.0
  0
LINE
  5
B2C5
330
AFEC
100
AcDbEntity
  8
1
  6
Continuous
100
AcDbLine
 10
314.952544
 20
464.802833
 30
0.0
 11
322.8158029999999
 21
469.663653
 31
0.0
  0
ARC
  5
B2C6
330
AFEC
100
AcDbEntity
  8
1
  6
Continuous
100
AcDbCircle
 10
323.4334779999999
 20
459.151795
 30
0.0
 40
9.5
100
AcDbArc
 50
189.6069719999998
 51
350.3930279999999
  0
ARC
  5
B2C7
330
AFEC
100
AcDbEntity
  8
1
  6
Continuous
100
AcDbCircle
 10
358.5859779999998
 20
465.1017949999999
 30
0.0
 40
45.1525
100
AcDbArc
 50
183.877856
 51
189.6069719999998
  0
ARC
  5
B2C8
330
AFEC
100
AcDbEntity
  8
1
  6
Continuous
100
AcDbCircle
 10
316.529986
 20
462.2510339999998
 30
0.0
 40
3.0
100
AcDbArc
 50
121.723055
 51
183.877856
  0
ARC
  5
B2C9
330
AFEC
100
AcDbEntity
  8
1
  6
Continuous
100
AcDbCircle
 10
318.0834779999999
 20
477.319049
 30
0.0
 40
9.0
100
AcDbArc
 50
301.7230549999998
 51
0.0
  0
CIRCLE
  5
B2CA
330
AFEC
100
AcDbEntity
  8
1
  6
Continuous
100
AcDbCircle
 10
323.4334779999999
 20
456.551795
 30
0.0
 40
4.898978999999997
  0
ARC
  5
B2CB
330
AFEC
100
AcDbEntity
  8
1
  6
Continuous
100
AcDbCircle
 10
288.280978
 20
465.1017949999999
 30
0.0
 40
45.1525
100
AcDbArc
 50
350.3930279999999
 51
0.0
  0
ARC
  5
B2CC
330
AFEC
100
AcDbEntity
  8
1
  6
Continuous
100
AcDbCircle
 10
323.0834779999999
 20
499.001795
 30
0.0
 40
4.0
100
AcDbArc
 50
0.0
 51
71.867154
  0
LINE
  5
B2CD
330
AFEC
100
AcDbEntity
  8
1
  6
Continuous
100
AcDbLine
 10
327.0834779999999
 20
499.001795
 30
0.0
 11
327.0834779999999
 21
477.319049
 31
0.0
  0
ARC
  5
B2CE
330
AFEC
100
AcDbEntity
  8
1
  6
Continuous
100
AcDbCircle
 10
323.4334779999999
 20
514.451795
 30
0.0
 40
9.5
100
AcDbArc
 50
9.606972
 51
170.3930279999999
  0
ARC
  5
B2CF
330
AFEC
100
AcDbEntity
  8
1
  6
Continuous
100
AcDbCircle
 10
358.5859779999998
 20
508.501795
 30
0.0
 40
45.1525
100
AcDbArc
 50
170.3930279999999
 51
180.669038
  0
CIRCLE
  5
B2D0
330
AFEC
100
AcDbEntity
  8
1
  6
Continuous
100
AcDbCircle
 10
323.4334779999999
 20
517.0517949999998
 30
0.0
 40
4.898978999999997
  0
ARC
  5
B2D1
330
AFEC
100
AcDbEntity
  8
1
  6
Continuous
100
AcDbCircle
 10
288.280978
 20
508.501795
 30
0.0
 40
45.1525
100
AcDbArc
 50
0.0
 51
9.606972
  0
LINE
  5
B2D2
330
AFEC
100
AcDbEntity
  8
1
  6
Continuous
100
AcDbLine
 10
478.5046519999998
 20
248.2821649999999
 30
0.0
 11
486.3753619999998
 21
286.967944
 31
0.0
  0
LINE
  5
B2D3
330
AFEC
100
AcDbEntity
  8
5
  6
PHANTOM
100
AcDbLine
 10
470.6626749999998
 20
246.027477
 30
0.0
 11
485.7703719999998
 21
282.5006870000001
 31
0.0
  0
ARC
  5
B2D4
330
AFEC
100
AcDbEntity
  8
1
  6
Continuous
100
AcDbCircle
 10
468.7054049999998
 20
250.275844
 30
0.0
 40
10.0
100
AcDbArc
 50
270.0
 51
348.4999999999998
  0
LINE
  5
B2D5
330
AFEC
100
AcDbEntity
  8
1
  6
Continuous
100
AcDbLine
 10
473.0757469999998
 20
304.4153789999999
 30
0.0
 11
473.0757469999998
 21
308.239927
 31
0.0
  0
ARC
  5
B2D6
330
AFEC
100
AcDbEntity
  8
5
  6
PHANTOM
100
AcDbCircle
 10
495.2603759999998
 20
295.944815
 30
0.0
 40
7.0
100
AcDbArc
 50
249.6486109999999
 51
303.4153089999999
  0
ARC
  5
B2D7
330
AFEC
100
AcDbEntity
  8
1
  6
Continuous
100
AcDbCircle
 10
493.125747
 20
301.9758439999999
 30
0.0
 40
7.0
100
AcDbArc
 50
260.6486109999999
 51
314.237863
  0
ARC
  5
B2D8
330
AFEC
100
AcDbEntity
  8
5
  6
PHANTOM
100
AcDbCircle
 10
497.3188659999998
 20
277.717143
 30
0.0
 40
12.5
100
AcDbArc
 50
100.174204
 51
157.5
  0
LINE
  5
B2D9
330
AFEC
100
AcDbEntity
  8
5
  6
PHANTOM
100
AcDbLine
 10
486.085073
 20
294.2646769999999
 30
0.0
 11
501.384853
 21
291.2907009999999
 31
0.0
  0
LINE
  5
B2DA
330
AFEC
100
AcDbEntity
  8
1
  6
Continuous
100
AcDbLine
 10
484.439606
 20
298.575844
 30
0.0
 11
500.025747
 21
298.575844
 31
0.0
  0
ARC
  5
B2DB
330
AFEC
100
AcDbEntity
  8
1
  6
Continuous
100
AcDbCircle
 10
498.6244209999998
 20
284.475844
 30
0.0
 40
12.5
100
AcDbArc
 50
92.746691
 51
168.5
  0
LINE
  5
B2DC
330
AFEC
100
AcDbEntity
  8
5
  6
PHANTOM
100
AcDbLine
 10
476.0442359999998
 20
302.16525
 30
0.0
 11
476.773994
 21
305.91953
 31
0.0
  0
LINE
  5
B2DD
330
AFEC
100
AcDbEntity
  8
5
  6
PHANTOM
100
AcDbLine
 10
480.9639869999998
 20
291.7735339999999
 30
0.0
 11
483.5201979999998
 21
291.276657
 31
0.0
  0
LINE
  5
B2DE
330
AFEC
100
AcDbEntity
  8
5
  6
PHANTOM
100
AcDbLine
 10
483.5201979999998
 20
291.276657
 30
0.0
 11
480.8659839999998
 21
287.9064179999998
 31
0.0
  0
ARC
  5
B2DF
330
AFEC
100
AcDbEntity
  8
5
  6
PHANTOM
100
AcDbCircle
 10
487.0391179999998
 20
299.1728129999998
 30
0.0
 40
5.0
100
AcDbArc
 50
189.354406
 51
259.0
  0
LINE
  5
B2E0
330
AFEC
100
AcDbEntity
  8
1
  6
Continuous
100
AcDbLine
 10
482.4919959999999
 20
295.153321
 30
0.0
 11
480.5296189999999
 21
291.338555
 31
0.0
  0
LINE
  5
B2E1
330
AFEC
100
AcDbEntity
  8
1
  6
Continuous
100
AcDbLine
 10
479.887941
 20
295.153321
 30
0.0
 11
482.4919959999999
 21
295.153321
 31
0.0
  0
ARC
  5
B2E2
330
AFEC
100
AcDbEntity
  8
1
  6
Continuous
100
AcDbCircle
 10
484.439606
 20
303.575844
 30
0.0
 40
5.0
100
AcDbArc
 50
200.354406
 51
270.0
  0
LINE
  5
B2E3
330
AFEC
100
AcDbEntity
  8
1
  6
Continuous
100
AcDbLine
 10
500.025747
 20
296.975844
 30
0.0
 11
498.025415
 21
296.9614839999999
 31
0.0
  0
ARC
  5
B2E4
330
AFEC
100
AcDbEntity
  8
5
  6
PHANTOM
100
AcDbCircle
 10
494.580921
 20
292.973409
 30
0.0
 40
3.0
100
AcDbArc
 50
280.1742039999999
 51
315.018616
  0
ARC
  5
B2E5
330
AFEC
100
AcDbEntity
  8
5
  6
PHANTOM
100
AcDbCircle
 10
498.8249399999999
 20
288.7321469999998
 30
0.0
 40
3.0
100
AcDbArc
 50
79.0
 51
135.0186159999998
  0
LINE
  5
B2E6
330
AFEC
100
AcDbEntity
  8
5
  6
PHANTOM
100
AcDbLine
 10
496.443107
 20
290.6213319999998
 30
0.0
 11
501.0795579999999
 21
289.720097
 31
0.0
  0
LINE
  5
B2E7
330
AFEC
100
AcDbEntity
  8
5
  6
PHANTOM
100
AcDbLine
 10
501.384853
 20
291.2907009999999
 30
0.0
 11
501.0795579999999
 21
289.720097
 31
0.0
  0
ARC
  5
B2E8
330
AFEC
100
AcDbEntity
  8
1
  6
Continuous
100
AcDbCircle
 10
493.0257469999999
 20
298.929385
 30
0.0
 40
3.0
100
AcDbArc
 50
291.1742039999999
 51
326.0186159999999
  0
LINE
  5
B2E9
330
AFEC
100
AcDbEntity
  8
1
  6
Continuous
100
AcDbLine
 10
500.025747
 20
298.575844
 30
0.0
 11
500.025747
 21
296.975844
 31
0.0
  0
ARC
  5
B2EA
330
AFEC
100
AcDbEntity
  8
1
  6
Continuous
100
AcDbCircle
 10
498.0010619999998
 20
295.575844
 30
0.0
 40
3.0
100
AcDbArc
 50
90.0
 51
146.0186159999998
  0
LINE
  5
B2EB
330
AFEC
100
AcDbEntity
  8
1
  6
Continuous
100
AcDbLine
 10
52.577481
 20
252.1433899999999
 30
0.0
 11
50.77754999999999
 21
260.990335
 31
0.0
  0
LINE
  5
B2EC
330
AFEC
100
AcDbEntity
  8
1
  6
Continuous
100
AcDbLine
 10
53.72841499999999
 20
254.511731
 30
0.0
 11
51.764777
 21
264.1633189999998
 31
0.0
  0
LINE
  5
B2ED
330
AFEC
100
AcDbEntity
  8
5
  6
PHANTOM
100
AcDbLine
 10
55.611701
 20
259.5309759999998
 30
0.0
 11
52.659468
 21
266.6582969999998
 31
0.0
  0
LINE
  5
B2EE
330
AFEC
100
AcDbEntity
  8
5
  6
PHANTOM
100
AcDbLine
 10
56.57944699999998
 20
261.3756299999999
 30
0.0
 11
53.509158
 21
268.7879639999998
 31
0.0
  0
LINE
  5
B2EF
330
AFEC
100
AcDbEntity
  8
1
  6
Continuous
100
AcDbLine
 10
48.491961
 20
296.975844
 30
0.0
 11
31.84196099999999
 21
296.975844
 31
0.0
  0
ARC
  5
B2F0
330
AFEC
100
AcDbEntity
  8
5
  6
PHANTOM
100
AcDbCircle
 10
36.607332
 20
295.944815
 30
0.0
 40
7.0
100
AcDbArc
 50
236.5846910000001
 51
325.4153089999999
  0
LINE
  5
B2F1
330
AFEC
100
AcDbEntity
  8
1
  6
Continuous
100
AcDbLine
 10
47.428102
 20
298.575844
 30
0.0
 11
31.84196099999999
 21
298.575844
 31
0.0
  0
ARC
  5
B2F2
330
AFEC
100
AcDbEntity
  8
1
  6
Continuous
100
AcDbCircle
 10
38.74196099999998
 20
301.9758439999999
 30
0.0
 40
7.0
100
AcDbArc
 50
225.584691
 51
314.4153089999999
  0
LINE
  5
B2F3
330
AFEC
100
AcDbEntity
  8
5
  6
PHANTOM
100
AcDbLine
 10
45.78263399999999
 20
294.2646769999999
 30
0.0
 11
30.48285499999999
 21
291.2907009999999
 31
0.0
  0
LINE
  5
B2F4
330
AFEC
100
AcDbEntity
  8
5
  6
PHANTOM
100
AcDbLine
 10
47.21020399999999
 20
292.9122219999999
 30
0.0
 11
30.788149
 21
289.720097
 31
0.0
  0
LINE
  5
B2F5
330
AFEC
100
AcDbEntity
  8
1
  6
Continuous
100
AcDbLine
 10
31.84196099999999
 20
298.575844
 30
0.0
 11
31.84196099999999
 21
296.975844
 31
0.0
  0
LINE
  5
B2F6
330
AFEC
100
AcDbEntity
  8
5
  6
PHANTOM
100
AcDbLine
 10
30.48285499999999
 20
291.2907009999999
 30
0.0
 11
30.788149
 21
289.720097
 31
0.0
  0
LINE
  5
B2F7
330
AFEC
100
AcDbEntity
  8
5
  6
PHANTOM
100
AcDbLine
 10
47.385437
 20
279.390935
 30
0.0
 11
46.09733499999999
 21
282.5006870000001
 31
0.0
  0
ARC
  5
B2F8
330
AFEC
100
AcDbEntity
  8
5
  6
PHANTOM
100
AcDbCircle
 10
44.828589
 20
299.1728129999998
 30
0.0
 40
5.0
100
AcDbArc
 50
281.0
 51
317.111059
  0
ARC
  5
B2F9
330
AFEC
100
AcDbEntity
  8
5
  6
PHANTOM
100
AcDbCircle
 10
46.25615899999998
 20
297.820358
 30
0.0
 40
5.0
100
AcDbArc
 50
281.0
 51
296.561635
  0
LINE
  5
B2FA
330
AFEC
100
AcDbEntity
  8
1
  6
Continuous
100
AcDbLine
 10
47.209634
 20
278.5272029999998
 30
0.0
 11
45.49234600000001
 21
286.967944
 31
0.0
  0
LINE
  5
B2FB
330
AFEC
100
AcDbEntity
  8
1
  6
Continuous
100
AcDbLine
 10
48.02889099999998
 20
282.5257879999999
 30
0.0
 11
47.125124
 21
286.967944
 31
0.0
  0
ARC
  5
B2FC
330
AFEC
100
AcDbEntity
  8
1
  6
Continuous
100
AcDbCircle
 10
33.24328700000001
 20
284.475844
 30
0.0
 40
12.5
100
AcDbArc
 50
11.49999999999998
 51
57.93454800000001
  0
ARC
  5
B2FD
330
AFEC
100
AcDbEntity
  8
1
  6
Continuous
100
AcDbCircle
 10
34.87606599999999
 20
284.475844
 30
0.0
 40
12.5
100
AcDbArc
 50
11.49999999999998
 51
60.53191600000001
  0
ARC
  5
B2FE
330
AFEC
100
AcDbEntity
  8
5
  6
PHANTOM
100
AcDbCircle
 10
36.151621
 20
278.0286919999999
 30
0.0
 40
12.5
100
AcDbArc
 50
19.18833199999999
 51
71.53191600000003
  0
ARC
  5
B2FF
330
AFEC
100
AcDbEntity
  8
5
  6
PHANTOM
100
AcDbCircle
 10
34.54884099999999
 20
277.717143
 30
0.0
 40
12.5
100
AcDbArc
 50
22.5
 51
68.93454799999999
  0
ARC
  5
B300
330
AFEC
100
AcDbEntity
  8
1
  6
Continuous
100
AcDbCircle
 10
47.428102
 20
303.575844
 30
0.0
 40
5.0
100
AcDbArc
 50
270.0
 51
282.284836
  0
LINE
  5
B301
330
AFEC
100
AcDbEntity
  8
5
  6
PHANTOM
100
AcDbLine
 10
92.06016299999999
 20
271.6568309999999
 30
0.0
 11
92.23305699999999
 21
291.4685629999999
 31
0.0
  0
ARC
  5
B302
330
AFEC
100
AcDbEntity
  8
5
  6
PHANTOM
100
AcDbCircle
 10
80.30039700000001
 20
253.4001809999999
 30
0.0
 40
10.0
100
AcDbArc
 50
327.1505389999999
 51
336.5481799999999
  0
LINE
  5
B303
330
AFEC
100
AcDbEntity
  8
1
  6
Continuous
100
AcDbLine
 10
84.25541
 20
254.5112599999999
 30
0.0
 11
86.21905899999999
 21
264.1629029999999
 31
0.0
  0
LINE
  5
B304
330
AFEC
100
AcDbEntity
  8
1
  6
Continuous
100
AcDbLine
 10
85.406413
 20
252.1432579999999
 30
0.0
 11
87.20627699999999
 21
260.9898739999999
 31
0.0
  0
LINE
  5
B305
330
AFEC
100
AcDbEntity
  8
5
  6
PHANTOM
100
AcDbLine
 10
103.723049
 20
303.8972059999999
 30
0.0
 11
103.4177539999999
 21
305.4678089999999
 31
0.0
  0
LINE
  5
B306
330
AFEC
100
AcDbEntity
  8
5
  6
PHANTOM
100
AcDbLine
 10
103.723049
 20
303.8972059999999
 30
0.0
 11
89.49196099999998
 21
301.1309629999999
 31
0.0
  0
LINE
  5
B307
330
AFEC
100
AcDbEntity
  8
5
  6
PHANTOM
100
AcDbLine
 10
103.4177539999999
 20
305.4678089999999
 30
0.0
 11
89.49196099999998
 21
302.7609089999999
 31
0.0
  0
ARC
  5
B308
330
AFEC
100
AcDbEntity
  8
5
  6
PHANTOM
100
AcDbCircle
 10
95.99577600000001
 20
307.48876
 30
0.0
 40
7.0
100
AcDbArc
 50
236.5846910000001
 51
325.4153089999999
  0
LINE
  5
B309
330
AFEC
100
AcDbEntity
  8
1
  6
Continuous
100
AcDbLine
 10
106.1419609999999
 20
296.975844
 30
0.0
 11
106.1419609999999
 21
298.575844
 31
0.0
  0
LINE
  5
B30A
330
AFEC
100
AcDbEntity
  8
5
  6
PHANTOM
100
AcDbLine
 10
90.53046700000001
 20
279.7198999999998
 30
0.0
 11
90.63027700000001
 21
291.157014
 31
0.0
  0
LINE
  5
B30B
330
AFEC
100
AcDbEntity
  8
1
  6
Continuous
100
AcDbLine
 10
89.95490999999999
 20
282.5251979999998
 30
0.0
 11
90.97196
 21
287.5241589999999
 31
0.0
  0
LINE
  5
B30C
330
AFEC
100
AcDbEntity
  8
1
  6
Continuous
100
AcDbLine
 10
90.77417399999999
 20
278.5266459999999
 30
0.0
 11
92.491576
 21
286.967944
 31
0.0
  0
ARC
  5
B30D
330
AFEC
100
AcDbEntity
  8
1
  6
Continuous
100
AcDbCircle
 10
104.7406349999999
 20
284.475844
 30
0.0
 40
12.5
100
AcDbArc
 50
122.0654519999999
 51
168.5
  0
ARC
  5
B30E
330
AFEC
100
AcDbEntity
  8
1
  6
Continuous
100
AcDbCircle
 10
103.107856
 20
284.475844
 30
0.0
 40
12.5
100
AcDbArc
 50
119.4680839999999
 51
168.5
  0
LINE
  5
B30F
330
AFEC
100
AcDbEntity
  8
1
  6
Continuous
100
AcDbLine
 10
106.1419609999999
 20
296.975844
 30
0.0
 11
89.49196099999998
 21
296.975844
 31
0.0
  0
ARC
  5
B310
330
AFEC
100
AcDbEntity
  8
1
  6
Continuous
100
AcDbCircle
 10
99.24196100000001
 20
301.9758439999999
 30
0.0
 40
7.0
100
AcDbArc
 50
225.584691
 51
314.4153089999999
  0
LINE
  5
B311
330
AFEC
100
AcDbEntity
  8
1
  6
Continuous
100
AcDbLine
 10
106.1419609999999
 20
298.575844
 30
0.0
 11
90.55581899999998
 21
298.575844
 31
0.0
  0
ARC
  5
B312
330
AFEC
100
AcDbEntity
  8
1
  6
Continuous
100
AcDbCircle
 10
90.55581899999998
 20
303.575844
 30
0.0
 40
5.0
100
AcDbArc
 50
257.715175
 51
270.0
  0
ARC
  5
B313
330
AFEC
100
AcDbEntity
  8
5
  6
PHANTOM
100
AcDbCircle
 10
104.7325819999998
 20
291.3594799999998
 30
0.0
 40
12.5
100
AcDbArc
 50
133.0654519999999
 51
179.4999999999998
  0
ARC
  5
B314
330
AFEC
100
AcDbEntity
  8
5
  6
PHANTOM
100
AcDbCircle
 10
103.1298009999999
 20
291.0479319999998
 30
0.0
 40
12.5
100
AcDbArc
 50
130.468084
 51
179.4999999999998
  0
ARC
  5
B315
330
AFEC
100
AcDbEntity
  8
1
  6
Continuous
100
AcDbCircle
 10
319.9338539999998
 20
77.12664100000002
 30
0.0
 40
11.0
100
AcDbArc
 50
270.0
 51
90.0
  0
ARC
  5
B316
330
AFEC
100
AcDbEntity
  8
1
  6
Continuous
100
AcDbCircle
 10
255.933854
 20
231.9758589999999
 30
0.0
 40
75.0
100
AcDbArc
 50
10.859621
 51
30.422456
  0
ARC
  5
B317
330
AFEC
100
AcDbEntity
  8
1
  6
Continuous
100
AcDbCircle
 10
319.933478
 20
486.801795
 30
0.0
 40
11.0
100
AcDbArc
 50
49.45839799999999
 51
70.413641
  0
ARC
  5
B318
330
AFEC
100
AcDbEntity
  8
1
  6
Continuous
100
AcDbCircle
 10
313.963466
 20
77.12664100000002
 30
0.0
 40
17.962451
100
AcDbArc
 50
0.0
 51
35.77140099999999
  0
ARC
  5
B319
330
AFEC
100
AcDbEntity
  8
1
  6
Continuous
100
AcDbCircle
 10
292.4126089999999
 20
282.981513
 30
0.0
 40
31.05539099999999
100
AcDbArc
 50
336.461909
 51
3.382813999999998
  0
LINE
  5
B31A
330
AFEC
100
AcDbEntity
  8
4
  6
CENTER
100
AcDbLine
 10
468.72303
 20
317.9575069999998
 30
0.0
 11
452.6955969999998
 21
235.5035149999999
 31
0.0
  0
ARC
  5
B31B
330
AFEC
100
AcDbEntity
  8
1
  6
Continuous
100
AcDbCircle
 10
342.1334779999999
 20
486.801795
 30
0.0
 40
6.0
100
AcDbArc
 50
267.3166399999999
 51
92.68335999999996
  0
LINE
  5
B31C
330
AFEC
100
AcDbEntity
  8
1
  6
Continuous
100
AcDbLine
 10
342.1334779999999
 20
490.0267949999998
 30
0.0
 11
342.1334779999999
 21
483.576795
 31
0.0
  0
ARC
  5
B31D
330
AFEC
100
AcDbEntity
  8
1
  6
Continuous
100
AcDbCircle
 10
328.350796
 20
483.576795
 30
0.0
 40
13.782681
100
AcDbArc
 50
346.467948
 51
13.532053
  0
ARC
  5
B31E
330
AFEC
100
AcDbEntity
  8
1
  6
Continuous
100
AcDbCircle
 10
349.216159
 20
483.576795
 30
0.0
 40
13.782681
100
AcDbArc
 50
166.467947
 51
193.5320519999999
  0
LINE
  5
B31F
330
AFEC
100
AcDbEntity
  8
1
  6
Continuous
100
AcDbLine
 10
335.4334779999998
 20
493.801795
 30
0.0
 11
335.4334779999998
 21
479.801795
 31
0.0
  0
ARC
  5
B320
330
AFEC
100
AcDbEntity
  8
1
  6
Continuous
100
AcDbCircle
 10
331.0573
 20
486.801795
 30
0.0
 40
10.190699
100
AcDbArc
 50
283.483848
 51
320.7333729999998
  0
LINE
  5
B321
330
AFEC
100
AcDbEntity
  8
1
  6
Continuous
100
AcDbLine
 10
335.4334779999998
 20
479.801795
 30
0.0
 11
333.4334779999999
 21
479.801795
 31
0.0
  0
LINE
  5
B322
330
AFEC
100
AcDbEntity
  8
1
  6
Continuous
100
AcDbLine
 10
341.750859
 20
480.3517959999998
 30
0.0
 11
335.816096
 21
480.3517959999998
 31
0.0
  0
LINE
  5
B323
330
AFEC
100
AcDbEntity
  8
1
  6
Continuous
100
AcDbLine
 10
335.816096
 20
493.251795
 30
0.0
 11
341.750859
 21
493.251795
 31
0.0
  0
ARC
  5
B324
330
AFEC
100
AcDbEntity
  8
1
  6
Continuous
100
AcDbCircle
 10
349.216159
 20
490.0267949999998
 30
0.0
 40
13.782681
100
AcDbArc
 50
166.467948
 51
193.532053
  0
ARC
  5
B325
330
AFEC
100
AcDbEntity
  8
1
  6
Continuous
100
AcDbCircle
 10
328.350796
 20
490.0267949999998
 30
0.0
 40
13.782681
100
AcDbArc
 50
346.467947
 51
13.53205199999999
  0
LINE
  5
B326
330
AFEC
100
AcDbEntity
  8
1
  6
Continuous
100
AcDbLine
 10
342.1334779999999
 20
486.801796
 30
0.0
 11
335.4334779999998
 21
486.801796
 31
0.0
  0
LINE
  5
B327
330
AFEC
100
AcDbEntity
  8
1
  6
Continuous
100
AcDbLine
 10
335.4334779999998
 20
493.801795
 30
0.0
 11
333.4334779999999
 21
493.801795
 31
0.0
  0
ARC
  5
B328
330
AFEC
100
AcDbEntity
  8
1
  6
Continuous
100
AcDbCircle
 10
331.0573
 20
486.801795
 30
0.0
 40
10.190699
100
AcDbArc
 50
39.26663099999998
 51
76.51615200000001
  0
ARC
  5
B329
330
AFEC
100
AcDbEntity
  8
1
  6
Continuous
100
AcDbCircle
 10
342.1334779999999
 20
287.8758589999998
 30
0.0
 40
6.0
100
AcDbArc
 50
269.7492439999999
 51
90.25075599999999
  0
LINE
  5
B32A
330
AFEC
100
AcDbEntity
  8
1
  6
Continuous
100
AcDbLine
 10
342.1334779999999
 20
293.4008449999998
 30
0.0
 11
342.1334779999999
 21
282.3508739999999
 31
0.0
  0
ARC
  5
B32B
330
AFEC
100
AcDbEntity
  8
1
  6
Continuous
100
AcDbCircle
 10
354.0014419999998
 20
287.875844
 30
0.0
 40
18.567964
100
AcDbArc
 50
168.3483579999999
 51
191.6516419999999
  0
ARC
  5
B32C
330
AFEC
100
AcDbEntity
  8
1
  6
Continuous
100
AcDbCircle
 10
323.565513
 20
287.875844
 30
0.0
 40
18.567964
100
AcDbArc
 50
348.348358
 51
11.651642
  0
LINE
  5
B32D
330
AFEC
100
AcDbEntity
  8
1
  6
Continuous
100
AcDbLine
 10
335.4334779999998
 20
280.875859
 30
0.0
 11
335.4334779999998
 21
294.875859
 31
0.0
  0
LINE
  5
B32E
330
AFEC
100
AcDbEntity
  8
1
  6
Continuous
100
AcDbLine
 10
341.750873
 20
284.1258439999998
 30
0.0
 11
335.816096
 21
284.1258439999998
 31
0.0
  0
ARC
  5
B32F
330
AFEC
100
AcDbEntity
  8
1
  6
Continuous
100
AcDbCircle
 10
337.8249799999999
 20
282.3508739999999
 30
0.0
 40
4.308498
100
AcDbArc
 50
335.6709369999999
 51
24.329063
  0
ARC
  5
B330
330
AFEC
100
AcDbEntity
  8
1
  6
Continuous
100
AcDbCircle
 10
339.741975
 20
282.3508739999999
 30
0.0
 40
4.308498
100
AcDbArc
 50
155.670937
 51
204.3290629999999
  0
LINE
  5
B331
330
AFEC
100
AcDbEntity
  8
1
  6
Continuous
100
AcDbLine
 10
341.694073
 20
280.575845
 30
0.0
 11
335.872882
 21
280.575845
 31
0.0
  0
LINE
  5
B332
330
AFEC
100
AcDbEntity
  8
1
  6
Continuous
100
AcDbLine
 10
341.750859
 20
291.6258439999999
 30
0.0
 11
335.816096
 21
291.6258439999999
 31
0.0
  0
ARC
  5
B333
330
AFEC
100
AcDbEntity
  8
1
  6
Continuous
100
AcDbCircle
 10
337.8249799999999
 20
293.4008449999998
 30
0.0
 40
4.308498
100
AcDbArc
 50
335.6709369999999
 51
24.329063
  0
ARC
  5
B334
330
AFEC
100
AcDbEntity
  8
1
  6
Continuous
100
AcDbCircle
 10
339.741975
 20
293.4008449999998
 30
0.0
 40
4.308498
100
AcDbArc
 50
155.670937
 51
204.3290629999999
  0
LINE
  5
B335
330
AFEC
100
AcDbEntity
  8
1
  6
Continuous
100
AcDbLine
 10
341.750859
 20
295.1758449999999
 30
0.0
 11
335.816096
 21
295.1758449999999
 31
0.0
  0
LINE
  5
B336
330
AFEC
100
AcDbEntity
  8
1
  6
Continuous
100
AcDbLine
 10
335.4334779999998
 20
294.875859
 30
0.0
 11
333.427255
 21
294.875859
 31
0.0
  0
LINE
  5
B337
330
AFEC
100
AcDbEntity
  8
1
  6
Continuous
100
AcDbLine
 10
335.4334779999998
 20
280.875859
 30
0.0
 11
333.427255
 21
280.875859
 31
0.0
  0
LINE
  5
B338
330
AFEC
100
AcDbEntity
  8
1
  6
Continuous
100
AcDbLine
 10
341.750859
 20
83.57664099999999
 30
0.0
 11
338.9474069999999
 21
83.57664099999999
 31
0.0
  0
LINE
  5
B339
330
AFEC
100
AcDbEntity
  8
1
  6
Continuous
100
AcDbLine
 10
342.1334779999999
 20
77.12664100000002
 30
0.0
 11
341.248375
 21
77.12664100000002
 31
0.0
  0
ARC
  5
B33A
330
AFEC
100
AcDbEntity
  8
1
  6
Continuous
100
AcDbCircle
 10
342.1334779999999
 20
77.12664100000002
 30
0.0
 40
6.0
100
AcDbArc
 50
267.3166399999999
 51
92.68335999999996
  0
LINE
  5
B33B
330
AFEC
100
AcDbEntity
  8
1
  6
Continuous
100
AcDbLine
 10
342.1334779999999
 20
73.90164099999998
 30
0.0
 11
342.1334779999999
 21
80.35164100000001
 31
0.0
  0
ARC
  5
B33C
330
AFEC
100
AcDbEntity
  8
1
  6
Continuous
100
AcDbCircle
 10
328.350796
 20
73.90164099999998
 30
0.0
 40
13.782681
100
AcDbArc
 50
346.467948
 51
13.532053
  0
LINE
  5
B33D
330
AFEC
100
AcDbEntity
  8
1
  6
Continuous
100
AcDbLine
 10
338.9474059999999
 20
70.676641
 30
0.0
 11
341.750859
 21
70.676641
 31
0.0
  0
ARC
  5
B33E
330
AFEC
100
AcDbEntity
  8
1
  6
Continuous
100
AcDbCircle
 10
328.350796
 20
80.35164100000001
 30
0.0
 40
13.782681
100
AcDbArc
 50
346.467947
 51
13.53205199999999
  0
ARC
  5
B33F
330
AFEC
100
AcDbEntity
  8
1
  6
Continuous
100
AcDbCircle
 10
462.875747
 20
287.875844
 30
0.0
 40
7.0
100
AcDbArc
 50
157.1358309999999
 51
202.8641689999998
  0
CIRCLE
  5
B340
330
AFEC
100
AcDbEntity
  8
1
  6
Continuous
100
AcDbCircle
 10
462.875747
 20
287.875844
 30
0.0
 40
5.7
  0
LINE
  5
B341
330
AFEC
100
AcDbEntity
  8
1
  6
Continuous
100
AcDbLine
 10
456.425747
 20
284.1258439999998
 30
0.0
 11
456.425747
 21
291.6258439999999
 31
0.0
  0
LINE
  5
B342
330
AFEC
100
AcDbEntity
  8
1
  6
Continuous
100
AcDbLine
 10
469.3257469999998
 20
284.1258439999998
 30
0.0
 11
469.3257469999998
 21
291.6258439999999
 31
0.0
  0
ARC
  5
B343
330
AFEC
100
AcDbEntity
  8
1
  6
Continuous
100
AcDbCircle
 10
462.875747
 20
287.875844
 30
0.0
 40
7.0
100
AcDbArc
 50
337.135831
 51
22.864169
  0
LINE
  5
B344
330
AFEC
100
AcDbEntity
  8
1
  6
Continuous
100
AcDbLine
 10
462.875747
 20
280.575845
 30
0.0
 11
456.425747
 21
284.1258439999998
 31
0.0
  0
ARC
  5
B345
330
AFEC
100
AcDbEntity
  8
1
  6
Continuous
100
AcDbCircle
 10
462.875747
 20
287.875844
 30
0.0
 40
7.0
100
AcDbArc
 50
217.182443
 51
265.161875
  0
LINE
  5
B346
330
AFEC
100
AcDbEntity
  8
1
  6
Continuous
100
AcDbLine
 10
462.875747
 20
280.575845
 30
0.0
 11
469.3257469999998
 21
284.1258439999998
 31
0.0
  0
ARC
  5
B347
330
AFEC
100
AcDbEntity
  8
1
  6
Continuous
100
AcDbCircle
 10
462.875747
 20
287.875844
 30
0.0
 40
7.0
100
AcDbArc
 50
274.8381249999998
 51
322.8175569999998
  0
LINE
  5
B348
330
AFEC
100
AcDbEntity
  8
1
  6
Continuous
100
AcDbLine
 10
462.875747
 20
295.1758449999999
 30
0.0
 11
456.425747
 21
291.6258439999999
 31
0.0
  0
ARC
  5
B349
330
AFEC
100
AcDbEntity
  8
1
  6
Continuous
100
AcDbCircle
 10
462.875747
 20
287.875844
 30
0.0
 40
7.0
100
AcDbArc
 50
94.838125
 51
142.817557
  0
LINE
  5
B34A
330
AFEC
100
AcDbEntity
  8
1
  6
Continuous
100
AcDbLine
 10
462.875747
 20
295.1758449999999
 30
0.0
 11
469.3257469999998
 21
291.6258439999999
 31
0.0
  0
ARC
  5
B34B
330
AFEC
100
AcDbEntity
  8
1
  6
Continuous
100
AcDbCircle
 10
462.875747
 20
287.875844
 30
0.0
 40
7.0
100
AcDbArc
 50
37.182443
 51
85.16187499999999
  0
ARC
  5
B34C
330
AFEC
100
AcDbEntity
  8
1
  6
Continuous
100
AcDbCircle
 10
869.2205920000001
 20
342.9826069999998
 30
0.0
 40
539.4151789999998
100
AcDbArc
 50
186.6743429999999
 51
190.617781
  0
ARC
  5
B34D
330
AFEC
100
AcDbEntity
  8
1
  6
Continuous
100
AcDbCircle
 10
338.4272549999999
 20
280.869677
 30
0.0
 40
5.0
100
AcDbArc
 50
180.0
 51
186.6743429999999
  0
ARC
  5
B34E
330
AFEC
100
AcDbEntity
  8
1
  6
Continuous
100
AcDbCircle
 10
661.5560359999998
 20
308.139391
 30
0.0
 40
334.842061
100
AcDbArc
 50
184.7751969999999
 51
191.692115
  0
ARC
  5
B34F
330
AFEC
100
AcDbEntity
  8
1
  6
Continuous
100
AcDbCircle
 10
332.747583
 20
244.0492529999999
 30
0.0
 40
1.676452
100
AcDbArc
 50
95.60674000000002
 51
266.4389869999999
  0
LINE
  5
B350
330
AFEC
100
AcDbEntity
  8
1
  6
Continuous
100
AcDbLine
 10
339.0411639999999
 20
64.62664100000001
 30
0.0
 11
339.0411639999999
 21
89.62664100000003
 31
0.0
  0
LINE
  5
B351
330
AFEC
100
AcDbEntity
  8
1
  6
Continuous
100
AcDbLine
 10
327.855166
 20
68.626641
 30
0.0
 11
327.855166
 21
69.49428799999998
 31
0.0
  0
LINE
  5
B352
330
AFEC
100
AcDbEntity
  8
1
  6
Continuous
100
AcDbLine
 10
327.855166
 20
85.626641
 30
0.0
 11
326.915974
 21
85.626641
 31
0.0
  0
LINE
  5
B353
330
AFEC
100
AcDbEntity
  8
1
  6
Continuous
100
AcDbLine
 10
327.855166
 20
68.626641
 30
0.0
 11
326.915974
 21
68.626641
 31
0.0
  0
LINE
  5
B354
330
AFEC
100
AcDbEntity
  8
1
  6
Continuous
100
AcDbLine
 10
327.855166
 20
84.75899400000001
 30
0.0
 11
327.855166
 21
85.626641
 31
0.0
  0
ARC
  5
B355
330
AFEC
100
AcDbEntity
  8
1
  6
Continuous
100
AcDbCircle
 10
802.181243
 20
96.62492100000001
 30
0.0
 40
463.19295
100
AcDbArc
 50
179.4144819999999
 51
180.865702
  0
ARC
  5
B356
330
AFEC
100
AcDbEntity
  8
1
  6
Continuous
100
AcDbCircle
 10
376.1732729999998
 20
90.542707
 30
0.0
 40
42.896514
100
AcDbArc
 50
167.638666
 51
171.226147
  0
ARC
  5
B357
330
AFEC
100
AcDbEntity
  8
1
  6
Continuous
100
AcDbCircle
 10
343.6617109999998
 20
95.560571
 30
0.0
 40
10.0
100
AcDbArc
 50
171.226147
 51
180.0
  0
LINE
  5
B358
330
AFEC
100
AcDbEntity
  8
1
  6
Continuous
100
AcDbLine
 10
333.6617109999999
 20
95.560571
 30
0.0
 11
333.6617109999999
 21
58.69271099999998
 31
0.0
  0
ARC
  5
B359
330
AFEC
100
AcDbEntity
  8
1
  6
Continuous
100
AcDbCircle
 10
317.5112369999999
 20
100.351668
 30
0.0
 40
16.884226
100
AcDbArc
 50
2.143704
 51
34.66036799999999
  0
ARC
  5
B35A
330
AFEC
100
AcDbEntity
  8
1
  6
Continuous
100
AcDbCircle
 10
329.3871459999999
 20
100.7962089999999
 30
0.0
 40
5.0
100
AcDbArc
 50
347.638666
 51
2.143704
  0
ARC
  5
B35B
330
AFEC
100
AcDbEntity
  8
1
  6
Continuous
100
AcDbCircle
 10
320.3518599999998
 20
93.144108
 30
0.0
 40
20.966675
100
AcDbArc
 50
31.175347
 51
63.477048
  0
ARC
  5
B35C
330
AFEC
100
AcDbEntity
  8
1
  6
Continuous
100
AcDbCircle
 10
334.012741
 20
101.4093989999998
 30
0.0
 40
5.0
100
AcDbArc
 50
359.4144819999999
 51
31.175347
  0
ARC
  5
B35D
330
AFEC
100
AcDbEntity
  8
1
  6
Continuous
100
AcDbCircle
 10
320.3518599999998
 20
61.109175
 30
0.0
 40
20.966675
100
AcDbArc
 50
296.5229519999999
 51
328.8246529999999
  0
ARC
  5
B35E
330
AFEC
100
AcDbEntity
  8
1
  6
Continuous
100
AcDbCircle
 10
317.5112369999999
 20
53.901614
 30
0.0
 40
16.884226
100
AcDbArc
 50
325.339632
 51
357.8562959999999
  0
ARC
  5
B35F
330
AFEC
100
AcDbEntity
  8
1
  6
Continuous
100
AcDbCircle
 10
334.012741
 20
52.84388299999999
 30
0.0
 40
5.0
100
AcDbArc
 50
328.8246529999999
 51
0.585518
  0
ARC
  5
B360
330
AFEC
100
AcDbEntity
  8
1
  6
Continuous
100
AcDbCircle
 10
802.181243
 20
57.628361
 30
0.0
 40
463.19295
100
AcDbArc
 50
179.134298
 51
180.585518
  0
ARC
  5
B361
330
AFEC
100
AcDbEntity
  8
1
  6
Continuous
100
AcDbCircle
 10
329.3871459999999
 20
53.457073
 30
0.0
 40
5.0
100
AcDbArc
 50
357.8562959999999
 51
12.36133399999999
  0
ARC
  5
B362
330
AFEC
100
AcDbEntity
  8
1
  6
Continuous
100
AcDbCircle
 10
343.6617109999998
 20
58.69271099999998
 30
0.0
 40
10.0
100
AcDbArc
 50
180.0
 51
188.7738529999998
  0
ARC
  5
B363
330
AFEC
100
AcDbEntity
  8
1
  6
Continuous
100
AcDbCircle
 10
376.1732729999998
 20
63.710576
 30
0.0
 40
42.896514
100
AcDbArc
 50
188.7738529999998
 51
192.361334
  0
ARC
  5
B364
330
AFEC
100
AcDbEntity
  8
1
  6
Continuous
100
AcDbCircle
 10
611.3176329999999
 20
340.975844
 30
0.0
 40
1.0
100
AcDbArc
 50
180.0
 51
270.0
  0
ARC
  5
B365
330
AFEC
100
AcDbEntity
  8
1
  6
Continuous
100
AcDbCircle
 10
628.3176329999998
 20
340.975844
 30
0.0
 40
1.0
100
AcDbArc
 50
270.0
 51
0.0
  0
LINE
  5
B366
330
AFEC
100
AcDbEntity
  8
4
  6
CENTER
100
AcDbLine
 10
619.81764
 20
419.010787
 30
0.0
 11
619.81764
 21
247.300078
 31
0.0
  0
LINE
  5
B367
330
AFEC
100
AcDbEntity
  8
4
  6
CENTER
100
AcDbLine
 10
669.81764
 20
150.975859
 30
0.0
 11
669.81764
 21
312.9758589999998
 31
0.0
  0
ARC
  5
B368
330
AFEC
100
AcDbEntity
  8
1
  6
Continuous
100
AcDbCircle
 10
595.3242389999997
 20
310.5758599999999
 30
0.0
 40
3.0
100
AcDbArc
 50
90.0
 51
180.0
  0
LINE
  5
B369
330
AFEC
100
AcDbEntity
  8
1
  6
Continuous
100
AcDbLine
 10
598.2735679999998
 20
313.5758599999999
 30
0.0
 11
595.3242389999997
 21
313.5758599999999
 31
0.0
  0
LINE
  5
B36A
330
AFEC
100
AcDbEntity
  8
1
  6
Continuous
100
AcDbLine
 10
600.6676399999999
 20
326.9758589999999
 30
0.0
 11
600.6676399999999
 21
317.4758589999999
 31
0.0
  0
ARC
  5
B36B
330
AFEC
100
AcDbEntity
  8
1
  6
Continuous
100
AcDbCircle
 10
603.31764
 20
313.6758589999999
 30
0.0
 40
4.0
100
AcDbArc
 50
108.1948719999999
 51
180.0
  0
ARC
  5
B36C
330
AFEC
100
AcDbEntity
  8
1
  6
Continuous
100
AcDbCircle
 10
616.646025
 20
311.406238
 30
0.0
 40
18.50011999999999
100
AcDbArc
 50
173.265073
 51
215.452152
  0
LINE
  5
B36D
330
AFEC
100
AcDbEntity
  8
1
  6
Continuous
100
AcDbLine
 10
599.31764
 20
313.6758589999999
 30
0.0
 11
599.31764
 21
304.926924
 31
0.0
  0
LINE
  5
B36E
330
AFEC
100
AcDbEntity
  8
1
  6
Continuous
100
AcDbLine
 10
613.7556400000002
 20
337.9758589999998
 30
0.0
 11
613.7556400000002
 21
333.4758589999998
 31
0.0
  0
LINE
  5
B36F
330
AFEC
100
AcDbEntity
  8
1
  6
Continuous
100
AcDbLine
 10
607.6931400000002
 20
337.9758589999998
 30
0.0
 11
607.6931400000002
 21
333.4758589999998
 31
0.0
  0
ARC
  5
B370
330
AFEC
100
AcDbEntity
  8
1
  6
Continuous
100
AcDbCircle
 10
611.81764
 20
338.9758589999999
 30
0.0
 40
1.0
100
AcDbArc
 50
90.0
 51
180.0
  0
ARC
  5
B371
330
AFEC
100
AcDbEntity
  8
1
  6
Continuous
100
AcDbCircle
 10
609.8176399999998
 20
338.9758589999999
 30
0.0
 40
1.0
100
AcDbArc
 50
270.0
 51
0.0
  0
LINE
  5
B372
330
AFEC
100
AcDbEntity
  8
1
  6
Continuous
100
AcDbLine
 10
631.94214
 20
337.9758589999998
 30
0.0
 11
631.94214
 21
333.4758589999998
 31
0.0
  0
LINE
  5
B373
330
AFEC
100
AcDbEntity
  8
1
  6
Continuous
100
AcDbLine
 10
625.87964
 20
337.9758589999998
 30
0.0
 11
625.87964
 21
333.4758589999998
 31
0.0
  0
ARC
  5
B374
330
AFEC
100
AcDbEntity
  8
1
  6
Continuous
100
AcDbCircle
 10
627.8176399999997
 20
338.9758589999999
 30
0.0
 40
1.0
100
AcDbArc
 50
0.0
 51
90.0
  0
ARC
  5
B375
330
AFEC
100
AcDbEntity
  8
1
  6
Continuous
100
AcDbCircle
 10
629.81764
 20
338.9758589999999
 30
0.0
 40
1.0
100
AcDbArc
 50
180.0
 51
270.0
  0
LINE
  5
B376
330
AFEC
100
AcDbEntity
  8
1
  6
Continuous
100
AcDbLine
 10
607.6931400000002
 20
337.9758589999998
 30
0.0
 11
631.94214
 21
337.9758589999998
 31
0.0
  0
LINE
  5
B377
330
AFEC
100
AcDbEntity
  8
1
  6
Continuous
100
AcDbLine
 10
607.16764
 20
333.4758589999998
 30
0.0
 11
632.4676400000002
 21
333.4758589999998
 31
0.0
  0
LINE
  5
B378
330
AFEC
100
AcDbEntity
  8
1
  6
Continuous
100
AcDbLine
 10
611.3176329999999
 20
339.9758439999998
 30
0.0
 11
628.3176329999998
 21
339.9758439999998
 31
0.0
  0
LINE
  5
B379
330
AFEC
100
AcDbEntity
  8
1
  6
Continuous
100
AcDbLine
 10
638.9676399999999
 20
326.9758589999999
 30
0.0
 11
638.9676399999999
 21
317.4758589999999
 31
0.0
  0
ARC
  5
B37A
330
AFEC
100
AcDbEntity
  8
1
  6
Continuous
100
AcDbCircle
 10
632.4676400000002
 20
326.9758589999999
 30
0.0
 40
6.5
100
AcDbArc
 50
0.0
 51
90.0
  0
ARC
  5
B37B
330
AFEC
100
AcDbEntity
  8
1
  6
Continuous
100
AcDbCircle
 10
636.31764
 20
313.6758589999999
 30
0.0
 40
4.0
100
AcDbArc
 50
0.0
 51
71.80512799999998
  0
LINE
  5
B37C
330
AFEC
100
AcDbEntity
  8
1
  6
Continuous
100
AcDbLine
 10
640.3176399999997
 20
313.6758589999999
 30
0.0
 11
640.3176399999997
 21
303.875859
 31
0.0
  0
ARC
  5
B37D
330
AFEC
100
AcDbEntity
  8
1
  6
Continuous
100
AcDbCircle
 10
607.16764
 20
326.9758589999999
 30
0.0
 40
6.5
100
AcDbArc
 50
90.0
 51
180.0
  0
LINE
  5
B37E
330
AFEC
100
AcDbEntity
  8
1
  6
Continuous
100
AcDbLine
 10
600.6676399999999
 20
317.4758589999999
 30
0.0
 11
638.9676399999999
 21
317.4758589999999
 31
0.0
  0
LINE
  5
B37F
330
AFEC
100
AcDbEntity
  8
1
  6
Continuous
100
AcDbLine
 10
592.3242389999997
 20
310.5758599999999
 30
0.0
 11
592.3242389999997
 21
280.869677
 31
0.0
  0
LINE
  5
B380
330
AFEC
100
AcDbEntity
  8
2
  6
Continuous
100
AcDbLine
 10
614.49414
 20
412.1523589999998
 30
0.0
 11
614.49414
 21
410.975844
 31
0.0
  0
LINE
  5
B381
330
AFEC
100
AcDbEntity
  8
1
  6
Continuous
100
AcDbLine
 10
613.8176399999998
 20
411.4758589999998
 30
0.0
 11
613.8176399999998
 21
410.9758589999998
 31
0.0
  0
LINE
  5
B382
330
AFEC
100
AcDbEntity
  8
1
  6
Continuous
100
AcDbLine
 10
615.3176399999997
 20
412.9758589999998
 30
0.0
 11
613.8176399999998
 21
411.4758589999998
 31
0.0
  0
LINE
  5
B383
330
AFEC
100
AcDbEntity
  8
1
  6
Continuous
100
AcDbLine
 10
615.838066
 20
410.975844
 30
0.0
 11
615.838066
 21
407.775844
 31
0.0
  0
LINE
  5
B384
330
AFEC
100
AcDbEntity
  8
1
  6
Continuous
100
AcDbLine
 10
610.56764
 20
407.775844
 30
0.0
 11
610.56764
 21
410.975844
 31
0.0
  0
LINE
  5
B385
330
AFEC
100
AcDbEntity
  8
1
  6
Continuous
100
AcDbLine
 10
611.3176329999999
 20
407.775844
 30
0.0
 11
611.3176329999999
 21
404.7758439999998
 31
0.0
  0
LINE
  5
B386
330
AFEC
100
AcDbEntity
  8
2
  6
Continuous
100
AcDbLine
 10
625.1411400000002
 20
412.1523589999998
 30
0.0
 11
625.1411400000002
 21
410.975844
 31
0.0
  0
LINE
  5
B387
330
AFEC
100
AcDbEntity
  8
1
  6
Continuous
100
AcDbLine
 10
625.8176399999999
 20
411.4758589999998
 30
0.0
 11
625.8176399999999
 21
410.9758589999998
 31
0.0
  0
LINE
  5
B388
330
AFEC
100
AcDbEntity
  8
1
  6
Continuous
100
AcDbLine
 10
624.31764
 20
412.9758589999998
 30
0.0
 11
625.8176399999999
 21
411.4758589999998
 31
0.0
  0
LINE
  5
B389
330
AFEC
100
AcDbEntity
  8
1
  6
Continuous
100
AcDbLine
 10
629.0676399999997
 20
410.975844
 30
0.0
 11
629.0676399999997
 21
407.775844
 31
0.0
  0
LINE
  5
B38A
330
AFEC
100
AcDbEntity
  8
1
  6
Continuous
100
AcDbLine
 10
623.7979659999997
 20
410.975844
 30
0.0
 11
623.7979659999997
 21
407.775844
 31
0.0
  0
LINE
  5
B38B
330
AFEC
100
AcDbEntity
  8
1
  6
Continuous
100
AcDbLine
 10
628.3176329999998
 20
407.775844
 30
0.0
 11
628.3176329999998
 21
404.7758439999998
 31
0.0
  0
LINE
  5
B38C
330
AFEC
100
AcDbEntity
  8
1
  6
Continuous
100
AcDbLine
 10
615.3176399999997
 20
412.9758589999998
 30
0.0
 11
624.31764
 21
412.9758589999998
 31
0.0
  0
LINE
  5
B38D
330
AFEC
100
AcDbEntity
  8
1
  6
Continuous
100
AcDbLine
 10
613.8176399999998
 20
411.4758589999998
 30
0.0
 11
625.8176399999999
 21
411.4758589999998
 31
0.0
  0
LINE
  5
B38E
330
AFEC
100
AcDbEntity
  8
1
  6
Continuous
100
AcDbLine
 10
610.317633
 20
404.7758439999998
 30
0.0
 11
629.317633
 21
404.7758439999998
 31
0.0
  0
LINE
  5
B38F
330
AFEC
100
AcDbEntity
  8
1
  6
Continuous
100
AcDbLine
 10
610.56764
 20
407.775844
 30
0.0
 11
629.0676399999997
 21
407.775844
 31
0.0
  0
LINE
  5
B390
330
AFEC
100
AcDbEntity
  8
1
  6
Continuous
100
AcDbLine
 10
610.56764
 20
410.975844
 30
0.0
 11
629.0676399999997
 21
410.975844
 31
0.0
  0
ARC
  5
B391
330
AFEC
100
AcDbEntity
  8
1
  6
Continuous
100
AcDbCircle
 10
611.3176329999999
 20
375.675844
 30
0.0
 40
1.0
100
AcDbArc
 50
180.0
 51
270.0
  0
ARC
  5
B392
330
AFEC
100
AcDbEntity
  8
1
  6
Continuous
100
AcDbCircle
 10
628.3176329999998
 20
375.675844
 30
0.0
 40
1.0
100
AcDbArc
 50
270.0
 51
0.0
  0
LINE
  5
B393
330
AFEC
100
AcDbEntity
  8
1
  6
Continuous
100
AcDbLine
 10
610.917633
 20
374.6758439999999
 30
0.0
 11
628.717633
 21
374.6758439999999
 31
0.0
  0
ARC
  5
B394
330
AFEC
100
AcDbEntity
  8
1
  6
Continuous
100
AcDbCircle
 10
611.3176329999999
 20
372.075844
 30
0.0
 40
1.0
100
AcDbArc
 50
90.0
 51
180.0
  0
ARC
  5
B395
330
AFEC
100
AcDbEntity
  8
1
  6
Continuous
100
AcDbCircle
 10
628.3176329999998
 20
372.075844
 30
0.0
 40
1.0
100
AcDbArc
 50
0.0
 51
90.0
  0
LINE
  5
B396
330
AFEC
100
AcDbEntity
  8
1
  6
Continuous
100
AcDbLine
 10
610.917633
 20
373.075844
 30
0.0
 11
628.717633
 21
373.075844
 31
0.0
  0
LINE
  5
B397
330
AFEC
100
AcDbEntity
  8
1
  6
Continuous
100
AcDbLine
 10
628.717633
 20
373.075844
 30
0.0
 11
628.717633
 21
374.6758439999999
 31
0.0
  0
LINE
  5
B398
330
AFEC
100
AcDbEntity
  8
1
  6
Continuous
100
AcDbLine
 10
610.917633
 20
374.6758439999999
 30
0.0
 11
610.917633
 21
373.075844
 31
0.0
  0
ARC
  5
B399
330
AFEC
100
AcDbEntity
  8
1
  6
Continuous
100
AcDbCircle
 10
276.630133
 20
390.225844
 30
0.0
 40
352.9875
100
AcDbArc
 50
357.6242029999999
 51
2.362378
  0
ARC
  5
B39A
330
AFEC
100
AcDbEntity
  8
1
  6
Continuous
100
AcDbCircle
 10
963.005133
 20
390.225844
 30
0.0
 40
352.9875
100
AcDbArc
 50
177.6376219999999
 51
182.362378
  0
LINE
  5
B39B
330
AFEC
100
AcDbEntity
  8
1
  6
Continuous
100
AcDbLine
 10
610.317633
 20
343.8758439999999
 30
0.0
 11
610.317633
 21
340.975844
 31
0.0
  0
LINE
  5
B39C
330
AFEC
100
AcDbEntity
  8
1
  6
Continuous
100
AcDbLine
 10
629.317633
 20
343.8758439999999
 30
0.0
 11
629.317633
 21
340.975844
 31
0.0
  0
LINE
  5
B39D
330
AFEC
100
AcDbEntity
  8
1
  6
Continuous
100
AcDbLine
 10
610.317633
 20
343.8758439999999
 30
0.0
 11
629.317633
 21
343.8758439999999
 31
0.0
  0
ARC
  5
B39E
330
AFEC
100
AcDbEntity
  8
1
  6
Continuous
100
AcDbCircle
 10
941.5176330000001
 20
357.9758439999998
 30
0.0
 40
331.4999999999999
100
AcDbArc
 50
177.56225
 51
182.43775
  0
ARC
  5
B39F
330
AFEC
100
AcDbEntity
  8
1
  6
Continuous
100
AcDbCircle
 10
298.117633
 20
357.9758439999998
 30
0.0
 40
331.4999999999999
100
AcDbArc
 50
357.56225
 51
2.452497999999998
  0
LINE
  5
B3A0
330
AFEC
100
AcDbEntity
  8
1
  6
Continuous
100
AcDbLine
 10
664.0859129999999
 20
223.478224
 30
0.0
 11
618.332623
 21
254.339208
 31
0.0
  0
CIRCLE
  5
B3A1
330
AFEC
100
AcDbEntity
  8
1
  6
Continuous
100
AcDbCircle
 10
642.7795179999999
 20
194.7610779999999
 30
0.0
 40
3.5
  0
ARC
  5
B3A2
330
AFEC
100
AcDbEntity
  8
1
  6
Continuous
100
AcDbCircle
 10
669.81764
 20
231.9758589999999
 30
0.0
 40
75.0
100
AcDbArc
 50
172.0399739999998
 51
117.552277
  0
ARC
  5
B3A3
330
AFEC
100
AcDbEntity
  8
1
  6
Continuous
100
AcDbCircle
 10
669.81764
 20
231.9758589999999
 30
0.0
 40
58.5
100
AcDbArc
 50
156.013312
 51
125.824845
  0
ARC
  5
B3A4
330
AFEC
100
AcDbEntity
  8
1
  6
Continuous
100
AcDbCircle
 10
669.81764
 20
231.9758589999999
 30
0.0
 40
55.0
100
AcDbArc
 50
156.740645
 51
127.1473159999999
  0
ARC
  5
B3A5
330
AFEC
100
AcDbEntity
  8
1
  6
Continuous
100
AcDbCircle
 10
669.81764
 20
231.9758589999999
 30
0.0
 40
31.64269099999999
100
AcDbArc
 50
164.900729
 51
123.0992709999998
  0
LINE
  5
B3A6
330
AFEC
100
AcDbEntity
  8
1
  6
Continuous
100
AcDbLine
 10
676.1281699999998
 20
240.0529699999999
 30
0.0
 11
643.58132
 21
265.481355
 31
0.0
  0
LINE
  5
B3A7
330
AFEC
100
AcDbEntity
  8
4
  6
CENTER
100
AcDbLine
 10
588.8176399999998
 20
231.9758589999999
 30
0.0
 11
750.5457679999997
 21
231.9758589999999
 31
0.0
  0
ARC
  5
B3A8
330
AFEC
100
AcDbEntity
  8
1
  6
Continuous
100
AcDbCircle
 10
669.81764
 20
231.9758589999999
 30
0.0
 40
75.0
100
AcDbArc
 50
149.5775439999999
 51
169.140379
  0
ARC
  5
B3A9
330
AFEC
100
AcDbEntity
  8
1
  6
Continuous
100
AcDbCircle
 10
264.1954569999999
 20
308.139391
 30
0.0
 40
334.842061
100
AcDbArc
 50
348.307885
 51
355.2248029999999
  0
ARC
  5
B3AA
330
AFEC
100
AcDbEntity
  8
1
  6
Continuous
100
AcDbCircle
 10
56.530901
 20
342.9826069999998
 30
0.0
 40
539.4151789999998
100
AcDbArc
 50
349.382219
 51
353.325657
  0
ARC
  5
B3AB
330
AFEC
100
AcDbEntity
  8
1
  6
Continuous
100
AcDbCircle
 10
639.302357
 20
285.4281169999998
 30
0.0
 40
37.5
100
AcDbArc
 50
203.326432
 51
236.0
  0
LINE
  5
B3AC
330
AFEC
100
AcDbEntity
  8
1
  6
Continuous
100
AcDbLine
 10
592.484971
 20
242.2212529999999
 30
0.0
 11
595.554892
 21
242.9838919999999
 31
0.0
  0
LINE
  5
B3AD
330
AFEC
100
AcDbEntity
  8
1
  6
Continuous
100
AcDbLine
 10
592.3536099999997
 20
241.570382
 30
0.0
 11
595.6995490000001
 21
242.401591
 31
0.0
  0
LINE
  5
B3AE
330
AFEC
100
AcDbEntity
  8
1
  6
Continuous
100
AcDbLine
 10
595.91788
 20
246.215899
 30
0.0
 11
593.4351939999998
 21
247.1442979999999
 31
0.0
  0
LINE
  5
B3AF
330
AFEC
100
AcDbEntity
  8
1
  6
Continuous
100
AcDbLine
 10
595.707724
 20
245.653908
 30
0.0
 11
593.3236820000002
 21
246.5454189999999
 31
0.0
  0
ARC
  5
B3B0
330
AFEC
100
AcDbEntity
  8
1
  6
Continuous
100
AcDbCircle
 10
593.00391
 20
244.0492529999999
 30
0.0
 40
1.676452
100
AcDbArc
 50
273.5610129999999
 51
84.39325999999999
  0
ARC
  5
B3B1
330
AFEC
100
AcDbEntity
  8
1
  6
Continuous
100
AcDbCircle
 10
595.217359
 20
244.342594
 30
0.0
 40
2.0
100
AcDbArc
 50
283.951184
 51
69.49674499999999
  0
ARC
  5
B3B2
330
AFEC
100
AcDbEntity
  8
1
  6
Continuous
100
AcDbCircle
 10
595.217359
 20
244.342594
 30
0.0
 40
1.399999999999999
100
AcDbArc
 50
283.951184
 51
69.49674499999999
  0
ARC
  5
B3B3
330
AFEC
100
AcDbEntity
  8
1
  6
Continuous
100
AcDbCircle
 10
626.0690400000002
 20
246.190641
 30
0.0
 40
3.5
100
AcDbArc
 50
102.045177
 51
9.954822999999999
  0
LINE
  5
B3B4
330
AFEC
100
AcDbEntity
  8
1
  6
Continuous
100
AcDbLine
 10
592.089782
 20
240.2827959999999
 30
0.0
 11
589.538034
 21
240.4254129999999
 31
0.0
  0
ARC
  5
B3B5
330
AFEC
100
AcDbEntity
  8
1
  6
Continuous
100
AcDbCircle
 10
589.7054419999998
 20
243.420738
 30
0.0
 40
3.0
100
AcDbArc
 50
176.728936
 51
266.801089
  0
ARC
  5
B3B6
330
AFEC
100
AcDbEntity
  8
1
  6
Continuous
100
AcDbCircle
 10
594.3242389999998
 20
294.9758589999999
 30
0.0
 40
2.0
100
AcDbArc
 50
90.0
 51
179.9792689999999
  0
ARC
  5
B3B7
330
AFEC
100
AcDbEntity
  8
1
  6
Continuous
100
AcDbCircle
 10
595.417562
 20
295.5758589999998
 30
0.0
 40
3.0
100
AcDbArc
 50
90.0
 51
149.350579
  0
LINE
  5
B3B8
330
AFEC
100
AcDbEntity
  8
4
  6
CENTER
100
AcDbLine
 10
573.2666329999998
 20
287.8758589999998
 30
0.0
 11
607.3676749999997
 21
287.8758589999998
 31
0.0
  0
ARC
  5
B3B9
330
AFEC
100
AcDbEntity
  8
1
  6
Continuous
100
AcDbCircle
 10
605.648825
 20
303.5758589999999
 30
0.0
 40
5.0
100
AcDbArc
 50
215.452152
 51
270.0
  0
ARC
  5
B3BA
330
AFEC
100
AcDbEntity
  8
1
  6
Continuous
100
AcDbCircle
 10
595.5778679999997
 20
295.9758589999998
 30
0.0
 40
1.0
100
AcDbArc
 50
90.0
 51
204.870163
  0
ARC
  5
B3BB
330
AFEC
100
AcDbEntity
  8
1
  6
Continuous
100
AcDbCircle
 10
599.3661469999998
 20
292.2254429999999
 30
0.0
 40
1.0
100
AcDbArc
 50
106.229697
 51
180.0
  0
LINE
  5
B3BC
330
AFEC
100
AcDbEntity
  8
1
  6
Continuous
100
AcDbLine
 10
599.0866580000003
 20
293.1855919999998
 30
0.0
 11
600.691511
 21
293.6527469999999
 31
0.0
  0
ARC
  5
B3BD
330
AFEC
100
AcDbEntity
  8
1
  6
Continuous
100
AcDbCircle
 10
600.971
 20
292.6925979999999
 30
0.0
 40
1.0
100
AcDbArc
 50
7.276194
 51
106.229697
  0
ARC
  5
B3BE
330
AFEC
100
AcDbEntity
  8
1
  6
Continuous
100
AcDbCircle
 10
648.096591
 20
280.9851229999998
 30
0.0
 40
53.140552
100
AcDbArc
 50
162.487492
 51
166.556388
  0
ARC
  5
B3BF
330
AFEC
100
AcDbEntity
  8
1
  6
Continuous
100
AcDbCircle
 10
601.2751289999997
 20
292.1772369999998
 30
0.0
 40
5.0
100
AcDbArc
 50
166.556388
 51
196.4778369999999
  0
ARC
  5
B3C0
330
AFEC
100
AcDbEntity
  8
1
  6
Continuous
100
AcDbCircle
 10
626.566147
 20
282.747998
 30
0.0
 40
30.0
100
AcDbArc
 50
193.913118
 51
197.125775
  0
ARC
  5
B3C1
330
AFEC
100
AcDbEntity
  8
1
  6
Continuous
100
AcDbCircle
 10
633.338884
 20
282.981513
 30
0.0
 40
31.05539099999999
100
AcDbArc
 50
176.617186
 51
203.5380909999998
  0
ARC
  5
B3C2
330
AFEC
100
AcDbEntity
  8
1
  6
Continuous
100
AcDbCircle
 10
577.9078629999998
 20
281.406173
 30
0.0
 40
20.0
100
AcDbArc
 50
356.7289359999999
 51
2.223920999999998
  0
LINE
  5
B3C3
330
AFEC
100
AcDbEntity
  8
1
  6
Continuous
100
AcDbLine
 10
600.3661469999998
 20
282.1258589999998
 30
0.0
 11
598.368647
 21
282.1258589999998
 31
0.0
  0
ARC
  5
B3C4
330
AFEC
100
AcDbEntity
  8
1
  6
Continuous
100
AcDbCircle
 10
628.3385349999997
 20
283.1165359999999
 30
0.0
 40
30.0
100
AcDbArc
 50
191.5518909999999
 51
197.125775
  0
LINE
  5
B3C5
330
AFEC
100
AcDbEntity
  8
1
  6
Continuous
100
AcDbLine
 10
599.668715
 20
274.2824279999999
 30
0.0
 11
597.896328
 21
273.9138899999999
 31
0.0
  0
ARC
  5
B3C6
330
AFEC
100
AcDbEntity
  8
1
  6
Continuous
100
AcDbCircle
 10
626.066147
 20
282.747998
 30
0.0
 40
27.7
100
AcDbArc
 50
180.0
 51
191.7462949999998
  0
LINE
  5
B3C7
330
AFEC
100
AcDbEntity
  8
1
  6
Continuous
100
AcDbLine
 10
600.3661469999998
 20
282.1258589999998
 30
0.0
 11
600.3661469999998
 21
293.558037
 31
0.0
  0
ARC
  5
B3C8
330
AFEC
100
AcDbEntity
  8
1
  6
Continuous
100
AcDbCircle
 10
590.095313
 20
287.8758589999998
 30
0.0
 40
11.770833
100
AcDbArc
 50
330.758252
 51
28.916631
  0
LINE
  5
B3C9
330
AFEC
100
AcDbEntity
  8
1
  6
Continuous
100
AcDbLine
 10
598.3661469999998
 20
282.747998
 30
0.0
 11
598.3661469999998
 21
292.2254429999999
 31
0.0
  0
ARC
  5
B3CA
330
AFEC
100
AcDbEntity
  8
1
  6
Continuous
100
AcDbCircle
 10
552.36559
 20
286.4866269999998
 30
0.0
 40
50.0
100
AcDbArc
 50
358.0829489999999
 51
7.276194
  0
ARC
  5
B3CB
330
AFEC
100
AcDbEntity
  8
1
  6
Continuous
100
AcDbCircle
 10
562.8891160000002
 20
280.8229309999999
 30
0.0
 40
35.030068
100
AcDbArc
 50
2.223920999999998
 51
24.870163
  0
LINE
  5
B3CC
330
AFEC
100
AcDbEntity
  8
1
  6
Continuous
100
AcDbLine
 10
612.3180159999998
 20
298.5758589999999
 30
0.0
 11
612.3180159999998
 21
296.9758589999999
 31
0.0
  0
ARC
  5
B3CD
330
AFEC
100
AcDbEntity
  8
1
  6
Continuous
100
AcDbCircle
 10
679.31764
 20
289.9799259999999
 30
0.0
 40
45.0
100
AcDbArc
 50
168.7432389999998
 51
200.458829
  0
ARC
  5
B3CE
330
AFEC
100
AcDbEntity
  8
1
  6
Continuous
100
AcDbCircle
 10
641.5582929999999
 20
297.49536
 30
0.0
 40
6.5
100
AcDbArc
 50
101.003546
 51
168.7432389999998
  0
ARC
  5
B3CF
330
AFEC
100
AcDbEntity
  8
1
  6
Continuous
100
AcDbCircle
 10
655.89455
 20
281.24157
 30
0.0
 40
20.0
100
AcDbArc
 50
200.458829
 51
232.0
  0
ARC
  5
B3D0
330
AFEC
100
AcDbEntity
  8
1
  6
Continuous
100
AcDbCircle
 10
602.3180159999998
 20
301.9758589999999
 30
0.0
 40
7.0
100
AcDbArc
 50
225.584691
 51
314.4153089999999
  0
LINE
  5
B3D1
330
AFEC
100
AcDbEntity
  8
1
  6
Continuous
100
AcDbLine
 10
612.3180159999998
 20
298.5758589999999
 30
0.0
 11
605.648825
 21
298.5758589999999
 31
0.0
  0
LINE
  5
B3D2
330
AFEC
100
AcDbEntity
  8
1
  6
Continuous
100
AcDbLine
 10
612.3180159999998
 20
298.5758589999999
 30
0.0
 11
595.417562
 21
298.5758589999999
 31
0.0
  0
LINE
  5
B3D3
330
AFEC
100
AcDbEntity
  8
1
  6
Continuous
100
AcDbLine
 10
612.3180159999998
 20
296.9758589999999
 30
0.0
 11
594.3242389999998
 21
296.9758589999999
 31
0.0
  0
LINE
  5
B3D4
330
AFEC
100
AcDbEntity
  8
1
  6
Continuous
100
AcDbLine
 10
584.000634
 20
295.1758449999999
 30
0.0
 11
589.9353969999999
 21
295.1758449999999
 31
0.0
  0
ARC
  5
B3D5
330
AFEC
100
AcDbEntity
  8
1
  6
Continuous
100
AcDbCircle
 10
586.009518
 20
293.4008449999998
 30
0.0
 40
4.308498
100
AcDbArc
 50
335.6709369999999
 51
24.329063
  0
ARC
  5
B3D6
330
AFEC
100
AcDbEntity
  8
1
  6
Continuous
100
AcDbCircle
 10
587.926513
 20
293.4008449999998
 30
0.0
 40
4.308498
100
AcDbArc
 50
155.670937
 51
204.3290629999999
  0
LINE
  5
B3D7
330
AFEC
100
AcDbEntity
  8
1
  6
Continuous
100
AcDbLine
 10
584.000634
 20
291.6258439999999
 30
0.0
 11
589.9353969999999
 21
291.6258439999999
 31
0.0
  0
ARC
  5
B3D8
330
AFEC
100
AcDbEntity
  8
1
  6
Continuous
100
AcDbCircle
 10
596.036965
 20
295.2088240000001
 30
0.0
 40
3.719983
100
AcDbArc
 50
149.350579
 51
183.579337
  0
LINE
  5
B3D9
330
AFEC
100
AcDbEntity
  8
1
  6
Continuous
100
AcDbLine
 10
590.3180159999998
 20
294.875859
 30
0.0
 11
592.3242389999997
 21
294.875859
 31
0.0
  0
LINE
  5
B3DA
330
AFEC
100
AcDbEntity
  8
1
  6
Continuous
100
AcDbLine
 10
584.0574199999998
 20
280.575845
 30
0.0
 11
589.8786109999997
 21
280.575845
 31
0.0
  0
ARC
  5
B3DB
330
AFEC
100
AcDbEntity
  8
1
  6
Continuous
100
AcDbCircle
 10
586.009518
 20
282.3508739999999
 30
0.0
 40
4.308498
100
AcDbArc
 50
335.6709369999999
 51
24.329063
  0
ARC
  5
B3DC
330
AFEC
100
AcDbEntity
  8
1
  6
Continuous
100
AcDbCircle
 10
587.926513
 20
282.3508739999999
 30
0.0
 40
4.308498
100
AcDbArc
 50
155.670937
 51
204.3290629999999
  0
LINE
  5
B3DD
330
AFEC
100
AcDbEntity
  8
1
  6
Continuous
100
AcDbLine
 10
584.000621
 20
284.1258439999998
 30
0.0
 11
589.9353969999999
 21
284.1258439999998
 31
0.0
  0
ARC
  5
B3DE
330
AFEC
100
AcDbEntity
  8
1
  6
Continuous
100
AcDbCircle
 10
587.3242389999997
 20
280.869677
 30
0.0
 40
5.0
100
AcDbArc
 50
353.325657
 51
0.0
  0
LINE
  5
B3DF
330
AFEC
100
AcDbEntity
  8
1
  6
Continuous
100
AcDbLine
 10
590.3180159999998
 20
280.875859
 30
0.0
 11
592.3242389999997
 21
280.875859
 31
0.0
  0
LINE
  5
B3E0
330
AFEC
100
AcDbEntity
  8
1
  6
Continuous
100
AcDbLine
 10
590.3180159999998
 20
280.875859
 30
0.0
 11
590.3180159999998
 21
294.875859
 31
0.0
  0
ARC
  5
B3E1
330
AFEC
100
AcDbEntity
  8
1
  6
Continuous
100
AcDbCircle
 10
602.1859799999997
 20
287.875844
 30
0.0
 40
18.567964
100
AcDbArc
 50
168.3483579999999
 51
191.6516419999999
  0
ARC
  5
B3E2
330
AFEC
100
AcDbEntity
  8
1
  6
Continuous
100
AcDbCircle
 10
571.7500509999998
 20
287.875844
 30
0.0
 40
18.567964
100
AcDbArc
 50
348.348358
 51
11.651642
  0
LINE
  5
B3E3
330
AFEC
100
AcDbEntity
  8
1
  6
Continuous
100
AcDbLine
 10
583.618016
 20
293.4008449999998
 30
0.0
 11
583.618016
 21
282.3508739999999
 31
0.0
  0
ARC
  5
B3E4
330
AFEC
100
AcDbEntity
  8
1
  6
Continuous
100
AcDbCircle
 10
583.618016
 20
287.8758589999998
 30
0.0
 40
6.0
100
AcDbArc
 50
89.74924399999997
 51
270.250756
  0
CIRCLE
  5
B3E5
330
AFEC
100
AcDbEntity
  8
1
  6
Continuous
100
AcDbCircle
 10
696.855761
 20
194.7610779999999
 30
0.0
 40
3.5
  0
CIRCLE
  5
B3E6
330
AFEC
100
AcDbEntity
  8
1
  6
Continuous
100
AcDbCircle
 10
713.56624
 20
246.190641
 30
0.0
 40
3.5
  0
ARC
  5
B3E7
330
AFEC
100
AcDbEntity
  8
1
  6
Continuous
100
AcDbCircle
 10
664.729332
 20
223.61927
 30
0.0
 40
20.0
100
AcDbArc
 50
81.14524799999998
 51
99.85053399999999
  0
ARC
  5
B3E8
330
AFEC
100
AcDbEntity
  8
1
  6
Continuous
100
AcDbCircle
 10
676.192856
 20
239.397456
 30
0.0
 40
20.0
100
AcDbArc
 50
188.149466
 51
206.8547519999999
  0
ARC
  5
B3E9
330
AFEC
100
AcDbEntity
  8
1
  6
Continuous
100
AcDbCircle
 10
662.334233
 20
237.4128729999999
 30
0.0
 40
6.0
100
AcDbArc
 50
99.85053399999999
 51
188.149466
  0
ARC
  5
B3EA
330
AFEC
100
AcDbEntity
  8
1
  6
Continuous
100
AcDbCircle
 10
669.81764
 20
231.9758589999999
 30
0.0
 40
10.25
100
AcDbArc
 50
88.401521
 51
199.5984789999999
  0
CIRCLE
  5
B3EB
330
AFEC
100
AcDbEntity
  8
1
  6
Continuous
100
AcDbCircle
 10
669.81764
 20
231.9758589999999
 30
0.0
 40
8.0
  0
CIRCLE
  5
B3EC
330
AFEC
100
AcDbEntity
  8
1
  6
Continuous
100
AcDbCircle
 10
669.81764
 20
231.9758589999999
 30
0.0
 40
7.5
  0
ARC
  5
B3ED
330
AFEC
100
AcDbEntity
  8
1
  6
Continuous
100
AcDbCircle
 10
669.81764
 20
231.9758589999999
 30
0.0
 40
10.25
100
AcDbArc
 50
236.0
 51
52.0
  0
ARC
  5
B3EE
330
AFEC
100
AcDbEntity
  8
1
  6
Continuous
100
AcDbCircle
 10
669.81764
 20
231.9758589999999
 30
0.0
 40
20.5
100
AcDbArc
 50
176.0
 51
112.0
  0
ARC
  5
B3EF
330
AFEC
100
AcDbEntity
  8
1
  6
Continuous
100
AcDbCircle
 10
669.81764
 20
231.9758589999999
 30
0.0
 40
16.0
100
AcDbArc
 50
185.83844
 51
102.1615599999998
  0
CIRCLE
  5
B3F0
330
AFEC
100
AcDbEntity
  8
1
  6
Continuous
100
AcDbCircle
 10
669.81764
 20
277.9758589999999
 30
0.0
 40
3.5
  0
ARC
  5
B3F1
330
AFEC
100
AcDbEntity
  8
1
  6
Continuous
100
AcDbCircle
 10
612.7263400000003
 20
277.6715239999999
 30
0.0
 40
36.55715
100
AcDbArc
 50
214.142266
 51
227.4417
  0
ARC
  5
B3F2
330
AFEC
100
AcDbEntity
  8
1
  6
Continuous
100
AcDbCircle
 10
584.362657
 20
258.787121
 30
0.0
 40
2.5
100
AcDbArc
 50
135.609273
 51
220.791983
  0
ARC
  5
B3F3
330
AFEC
100
AcDbEntity
  8
1
  6
Continuous
100
AcDbCircle
 10
603.651989
 20
246.2609539999998
 30
0.0
 40
25.455174
100
AcDbArc
 50
120.489288
 51
145.8894699999999
  0
ARC
  5
B3F4
330
AFEC
100
AcDbEntity
  8
1
  6
Continuous
100
AcDbCircle
 10
313.0251539999998
 20
277.6715239999999
 30
0.0
 40
36.55715
100
AcDbArc
 50
312.5582999999999
 51
325.8577339999998
  0
ARC
  5
B3F5
330
AFEC
100
AcDbEntity
  8
1
  6
Continuous
100
AcDbCircle
 10
341.3888359999999
 20
258.787121
 30
0.0
 40
2.5
100
AcDbArc
 50
319.208017
 51
44.39072699999999
  0
ARC
  5
B3F6
330
AFEC
100
AcDbEntity
  8
1
  6
Continuous
100
AcDbCircle
 10
322.0995049999999
 20
246.2609539999998
 30
0.0
 40
25.455174
100
AcDbArc
 50
34.11052999999999
 51
59.51071200000002
  0
ENDSEC
  0
SECTION
  2
OBJECTS
  0
DICTIONARY
  5
AFDA
330
0
100
AcDbDictionary
281
     1
  3
ACAD_CIP_PREVIOUS_PRODUCT_INFO
350
B458
  3
ACAD_COLOR
350
B43A
  3
ACAD_DETAILVIEWSTYLE
350
B453
  3
ACAD_GROUP
350
AFDB
  3
ACAD_LAYOUT
350
AFE7
  3
ACAD_MATERIAL
350
B408
  3
ACAD_MLEADERSTYLE
350
B44F
  3
ACAD_MLINESTYLE
350
AFE4
  3
ACAD_PLOTSETTINGS
350
AFE6
  3
ACAD_PLOTSTYLENAME
350
B406
  3
ACAD_SCALELIST
350
B43D
  3
ACAD_SECTIONVIEWSTYLE
350
B451
  3
ACAD_TABLESTYLE
350
B43B
  3
ACAD_VISUALSTYLE
350
B421
  3
ACDB_RECOMPOSE_DATA
350
B476
  3
AcDbVariableDictionary
350
B469
  3
DWGPROPS
350
B477
  0
DICTIONARY
  5
B459
330
AFDE
100
AcDbDictionary
280
     1
281
     1
  3
ADSK_XREC_LAYER_RECONCILED
360
B45A
  0
DICTIONARY
  5
B45B
330
AFF4
100
AcDbDictionary
280
     1
281
     1
  3
ADSK_XREC_LAYER_RECONCILED
360
B45C
  0
DICTIONARY
  5
B45D
330
AFF5
100
AcDbDictionary
280
     1
281
     1
  3
ADSK_XREC_LAYER_RECONCILED
360
B45E
  0
DICTIONARY
  5
B45F
330
AFF6
100
AcDbDictionary
280
     1
281
     1
  3
ADSK_XREC_LAYER_RECONCILED
360
B460
  0
DICTIONARY
  5
B461
330
AFF7
100
AcDbDictionary
280
     1
281
     1
  3
ADSK_XREC_LAYER_RECONCILED
360
B462
  0
DICTIONARY
  5
B463
330
AFF8
100
AcDbDictionary
280
     1
281
     1
  3
ADSK_XREC_LAYER_RECONCILED
360
B464
  0
DICTIONARY
  5
B465
330
AFF9
100
AcDbDictionary
280
     1
281
     1
  3
ADSK_XREC_LAYER_RECONCILED
360
B466
  0
DICTIONARY
  5
B467
330
AFFA
100
AcDbDictionary
280
     1
281
     1
  3
ADSK_XREC_LAYER_RECONCILED
360
B468
  0
DICTIONARY
  5
B401
330
AFEC
100
AcDbDictionary
281
     1
  3
ACAD_LAYOUTSELFREF
350
B402
  0
DICTIONARY
  5
B3FF
330
AFE8
100
AcDbDictionary
281
     1
  3
ACAD_LAYOUTSELFREF
350
B400
  0
XRECORD
  5
B458
102
{ACAD_REACTORS
330
AFDA
102
}
330
AFDA
100
AcDbXrecord
280
     1
300
ACDLT
300
2014
300
ACDLT_F_S
  0
DICTIONARY
  5
B43A
102
{ACAD_REACTORS
330
AFDA
102
}
330
AFDA
100
AcDbDictionary
281
     1
  0
DICTIONARY
  5
B453
102
{ACAD_REACTORS
330
AFDA
102
}
330
AFDA
100
AcDbDictionary
281
     1
  3
Imperial24
350
B454
  0
DICTIONARY
  5
AFDB
102
{ACAD_REACTORS
330
AFDA
102
}
330
AFDA
100
AcDbDictionary
281
     1
  0
DICTIONARY
  5
AFE7
102
{ACAD_REACTORS
330
AFDA
102
}
330
AFDA
100
AcDbDictionary
281
     1
  3
Model
350
B455
  3
レイアウト1
350
B456
  0
DICTIONARY
  5
B408
102
{ACAD_REACTORS
330
AFDA
102
}
330
AFDA
100
AcDbDictionary
281
     1
  3
ByBlock
350
B411
  3
ByLayer
350
B409
  3
Global
350
B419
  0
DICTIONARY
  5
B44F
102
{ACAD_REACTORS
330
AFDA
102
}
330
AFDA
100
AcDbDictionary
281
     1
  3
Standard
350
B450
  0
DICTIONARY
  5
AFE4
102
{ACAD_REACTORS
330
AFDA
102
}
330
AFDA
100
AcDbDictionary
281
     1
  3
STANDARD
350
AFE5
  0
DICTIONARY
  5
AFE6
102
{ACAD_REACTORS
330
AFDA
102
}
330
AFDA
100
AcDbDictionary
281
     1
  0
ACDBDICTIONARYWDFLT
  5
B406
102
{ACAD_REACTORS
330
AFDA
102
}
330
AFDA
100
AcDbDictionary
281
     1
  3
Normal
350
B407
100
AcDbDictionaryWithDefault
340
B407
  0
DICTIONARY
  5
B43D
102
{ACAD_REACTORS
330
AFDA
102
}
330
AFDA
100
AcDbDictionary
281
     1
  3
A0
350
B43E
  3
A1
350
B43F
  3
A2
350
B440
  3
A3
350
B441
  3
A4
350
B442
  3
A5
350
B443
  3
A6
350
B444
  3
A7
350
B445
  3
A8
350
B446
  3
A9
350
B447
  3
B0
350
B448
  3
B1
350
B449
  3
B2
350
B44A
  3
B3
350
B44B
  3
B4
350
B44C
  3
B5
350
B44D
  3
B6
350
B44E
  0
DICTIONARY
  5
B451
102
{ACAD_REACTORS
330
AFDA
102
}
330
AFDA
100
AcDbDictionary
281
     1
  3
Imperial24
350
B452
  0
DICTIONARY
  5
B43B
102
{ACAD_REACTORS
330
AFDA
102
}
330
AFDA
100
AcDbDictionary
281
     1
  3
Standard
350
B43C
  0
DICTIONARY
  5
B421
102
{ACAD_REACTORS
330
AFDA
102
}
330
AFDA
100
AcDbDictionary
281
     1
  3
2dWireframe
350
B427
  3
Basic
350
B426
  3
Brighten
350
B42D
  3
ColorChange
350
B431
  3
Conceptual
350
B42A
  3
Dim
350
B42C
  3
EdgeColorOff
350
B439
  3
Facepattern
350
B430
  3
Flat
350
B422
  3
FlatWithEdges
350
B423
  3
Gouraud
350
B424
  3
GouraudWithEdges
350
B425
  3
Hidden
350
B429
  3
JitterOff
350
B437
  3
Linepattern
350
B42F
  3
OverhangOff
350
B438
  3
Realistic
350
B42B
  3
Shaded
350
B436
  3
Shaded with edges
350
B435
  3
Shades of Gray
350
B432
  3
Sketchy
350
B433
  3
Thicken
350
B42E
  3
Wireframe
350
B428
  3
X-Ray
350
B434
  0
XRECORD
  5
B476
102
{ACAD_REACTORS
330
AFDA
102
}
330
AFDA
100
AcDbXrecord
280
     1
 90
        1
330
B43C
  0
DICTIONARY
  5
B469
102
{ACAD_REACTORS
330
AFDA
102
}
330
AFDA
100
AcDbDictionary
281
     1
  3
CANNOSCALE
350
B46E
  3
CMLEADERSTYLE
350
B46B
  3
CTABLESTYLE
350
B46A
  3
CVIEWDETAILSTYLE
350
B46C
  3
CVIEWSECTIONSTYLE
350
B46D
  3
DIMASSOC
350
B471
  3
INDEXCTL
350
B470
  3
SORTENTS
350
B46F
  3
XCLIPFRAME
350
B472
  0
XRECORD
  5
B477
102
{ACAD_REACTORS
330
AFDA
102
}
330
AFDA
100
AcDbXrecord
280
     1
  1
DWGPROPS COOKIE
  2

  3

  4

  6

  7

  8
Yoshitsune
  9

300
=
301
=
302
=
303
=
304
=
305
=
306
=
307
=
308
=
309
=
 40
0.0000294560185185
 41
2451302.663617477
 42
2457618.724060139
  1

 90
        0
  0
XRECORD
  5
B45A
102
{ACAD_REACTORS
330
B459
102
}
330
B459
100
AcDbXrecord
280
     1
290
     1
  0
XRECORD
  5
B45C
102
{ACAD_REACTORS
330
B45B
102
}
330
B45B
100
AcDbXrecord
280
     1
290
     1
  0
XRECORD
  5
B45E
102
{ACAD_REACTORS
330
B45D
102
}
330
B45D
100
AcDbXrecord
280
     1
290
     1
  0
XRECORD
  5
B460
102
{ACAD_REACTORS
330
B45F
102
}
330
B45F
100
AcDbXrecord
280
     1
290
     1
  0
XRECORD
  5
B462
102
{ACAD_REACTORS
330
B461
102
}
330
B461
100
AcDbXrecord
280
     1
290
     1
  0
XRECORD
  5
B464
102
{ACAD_REACTORS
330
B463
102
}
330
B463
100
AcDbXrecord
280
     1
290
     1
  0
XRECORD
  5
B466
102
{ACAD_REACTORS
330
B465
102
}
330
B465
100
AcDbXrecord
280
     1
290
     1
  0
XRECORD
  5
B468
102
{ACAD_REACTORS
330
B467
102
}
330
B467
100
AcDbXrecord
280
     1
290
     1
  0
XRECORD
  5
B402
102
{ACAD_REACTORS
330
B401
102
}
330
B401
100
AcDbXrecord
280
     1
340
AFEC
  0
XRECORD
  5
B400
102
{ACAD_REACTORS
330
B3FF
102
}
330
B3FF
100
AcDbXrecord
280
     1
340
AFE8
  0
ACDBDETAILVIEWSTYLE
  5
B454
102
{ACAD_XDICTIONARY
360
B4AF
102
}
102
{ACAD_REACTORS
330
B453
102
}
330
B453
100
AcDbModelDocViewStyle
 70
     0
  3
Imperial24
290
     0
100
AcDbDetailViewStyle
 70
     0
 71
     0
 90
        3
 71
     1
340
AFDF
 40
0.24
340
0
 40
0.24
300

 40
0.36
280
     3
 71
     2
340
AFE3
 90
       25
 71
     3
340
AFDF
 40
0.24
 90
        1
 40
0.75
 90
        1
300
%<\AcVar ViewType \f "%tc1">% %<\AcVar ViewDetailId>%\PSCALE %<\AcVar ViewScale \f "%sn">%
 71
     4
340
AFE3
 90
       25
340
AFE3
 90
       25
280
     0
  0
LAYOUT
  5
B455
102
{ACAD_XDICTIONARY
360
B4B1
102
}
102
{ACAD_REACTORS
330
AFE7
102
}
330
AFE7
100
AcDbPlotSettings
  1

  2
Canon LBP9100C
  4

  6

 40
0.0
 41
0.0
 42
0.0
 43
0.0
 44
0.0
 45
0.0
 46
0.0
 47
0.0
 48
0.0
 49
0.0
140
0.0
141
0.0
142
1.0
143
1.0
 70
  1712
 72
     0
 73
     0
 74
     0
  7

 75
     0
147
1.0
148
0.0
149
0.0
100
AcDbLayout
  1
Model
 70
     1
 71
     0
 10
0.0
 20
0.0
 11
12.0
 21
9.0
 12
0.0
 22
0.0
 32
0.0
 14
0.0
 24
0.0
 34
0.0
 15
0.0
 25
0.0
 35
0.0
146
0.0
 13
0.0
 23
0.0
 33
0.0
 16
1.0
 26
0.0
 36
0.0
 17
0.0
 27
1.0
 37
0.0
 76
     0
330
AFEC
331
B3FE
  0
LAYOUT
  5
B456
102
{ACAD_XDICTIONARY
360
B4B3
102
}
102
{ACAD_REACTORS
330
AFE7
102
}
330
AFE7
100
AcDbPlotSettings
  1

  2
Canon LBP9100C
  4

  6

 40
0.0
 41
0.0
 42
0.0
 43
0.0
 44
0.0
 45
0.0
 46
0.0
 47
0.0
 48
0.0
 49
0.0
140
0.0
141
0.0
142
1.0
143
1.0
 70
   688
 72
     0
 73
     0
 74
     5
  7

 75
    16
147
1.0
148
0.0
149
0.0
100
AcDbLayout
  1
レイアウト1
 70
     0
 71
     1
 10
0.0
 20
0.0
 11
420.0
 21
297.0
 12
0.0
 22
0.0
 32
0.0
 14
1.000000000000000E+20
 24
1.000000000000000E+20
 34
1.000000000000000E+20
 15
-1.000000000000000E+20
 25
-1.000000000000000E+20
 35
-1.000000000000000E+20
146
0.0
 13
0.0
 23
0.0
 33
0.0
 16
1.0
 26
0.0
 36
0.0
 17
0.0
 27
1.0
 37
0.0
 76
     0
330
AFE8
  0
MATERIAL
  5
B411
102
{ACAD_XDICTIONARY
360
B412
102
}
102
{ACAD_REACTORS
330
B408
102
}
330
B408
100
AcDbMaterial
  1
ByBlock
 72
     0
 43
0.0208333333333333
 43
0.0
 43
0.0
 43
0.0
 43
0.0
 43
0.0208333333333333
 43
0.0
 43
0.0
 43
0.0
 43
0.0
 43
1.0
 43
0.0
 43
0.0
 43
0.0
 43
0.0
 43
1.0
 77
     0
 47
0.0208333333333333
 47
0.0
 47
0.0
 47
0.0
 47
0.0
 47
0.0208333333333333
 47
0.0
 47
0.0
 47
0.0
 47
0.0
 47
1.0
 47
0.0
 47
0.0
 47
0.0
 47
0.0
 47
1.0
171
     0
 49
0.0208333333333333
 49
0.0
 49
0.0
 49
0.0
 49
0.0
 49
0.0208333333333333
 49
0.0
 49
0.0
 49
0.0
 49
0.0
 49
1.0
 49
0.0
 49
0.0
 49
0.0
 49
0.0
 49
1.0
175
     0
142
0.0208333333333333
142
0.0
142
0.0
142
0.0
142
0.0
142
0.0208333333333333
142
0.0
142
0.0
142
0.0
142
0.0
142
1.0
142
0.0
142
0.0
142
0.0
142
0.0
142
1.0
179
     0
144
0.0208333333333333
144
0.0
144
0.0
144
0.0
144
0.0
144
0.0208333333333333
144
0.0
144
0.0
144
0.0
144
0.0
144
1.0
144
0.0
144
0.0
144
0.0
144
0.0
144
1.0
147
0.0208333333333333
147
0.0
147
0.0
147
0.0
147
0.0
147
0.0208333333333333
147
0.0
147
0.0
147
0.0
147
0.0
147
1.0
147
0.0
147
0.0
147
0.0
147
0.0
147
1.0
  0
MATERIAL
  5
B409
102
{ACAD_XDICTIONARY
360
B40A
102
}
102
{ACAD_REACTORS
330
B408
102
}
330
B408
100
AcDbMaterial
  1
ByLayer
 72
     0
 43
0.0208333333333333
 43
0.0
 43
0.0
 43
0.0
 43
0.0
 43
0.0208333333333333
 43
0.0
 43
0.0
 43
0.0
 43
0.0
 43
1.0
 43
0.0
 43
0.0
 43
0.0
 43
0.0
 43
1.0
 77
     0
 47
0.0208333333333333
 47
0.0
 47
0.0
 47
0.0
 47
0.0
 47
0.0208333333333333
 47
0.0
 47
0.0
 47
0.0
 47
0.0
 47
1.0
 47
0.0
 47
0.0
 47
0.0
 47
0.0
 47
1.0
171
     0
 49
0.0208333333333333
 49
0.0
 49
0.0
 49
0.0
 49
0.0
 49
0.0208333333333333
 49
0.0
 49
0.0
 49
0.0
 49
0.0
 49
1.0
 49
0.0
 49
0.0
 49
0.0
 49
0.0
 49
1.0
175
     0
142
0.0208333333333333
142
0.0
142
0.0
142
0.0
142
0.0
142
0.0208333333333333
142
0.0
142
0.0
142
0.0
142
0.0
142
1.0
142
0.0
142
0.0
142
0.0
142
0.0
142
1.0
179
     0
144
0.0208333333333333
144
0.0
144
0.0
144
0.0
144
0.0
144
0.0208333333333333
144
0.0
144
0.0
144
0.0
144
0.0
144
1.0
144
0.0
144
0.0
144
0.0
144
0.0
144
1.0
147
0.0208333333333333
147
0.0
147
0.0
147
0.0
147
0.0
147
0.0208333333333333
147
0.0
147
0.0
147
0.0
147
0.0
147
1.0
147
0.0
147
0.0
147
0.0
147
0.0
147
1.0
  0
MATERIAL
  5
B419
102
{ACAD_XDICTIONARY
360
B41A
102
}
102
{ACAD_REACTORS
330
B408
102
}
330
B408
100
AcDbMaterial
  1
Global
 72
     0
 43
0.0208333333333333
 43
0.0
 43
0.0
 43
0.0
 43
0.0
 43
0.0208333333333333
 43
0.0
 43
0.0
 43
0.0
 43
0.0
 43
1.0
 43
0.0
 43
0.0
 43
0.0
 43
0.0
 43
1.0
 77
     0
 47
0.0208333333333333
 47
0.0
 47
0.0
 47
0.0
 47
0.0
 47
0.0208333333333333
 47
0.0
 47
0.0
 47
0.0
 47
0.0
 47
1.0
 47
0.0
 47
0.0
 47
0.0
 47
0.0
 47
1.0
171
     0
 49
0.0208333333333333
 49
0.0
 49
0.0
 49
0.0
 49
0.0
 49
0.0208333333333333
 49
0.0
 49
0.0
 49
0.0
 49
0.0
 49
1.0
 49
0.0
 49
0.0
 49
0.0
 49
0.0
 49
1.0
175
     0
142
0.0208333333333333
142
0.0
142
0.0
142
0.0
142
0.0
142
0.0208333333333333
142
0.0
142
0.0
142
0.0
142
0.0
142
1.0
142
0.0
142
0.0
142
0.0
142
0.0
142
1.0
179
     0
144
0.0208333333333333
144
0.0
144
0.0
144
0.0
144
0.0
144
0.0208333333333333
144
0.0
144
0.0
144
0.0
144
0.0
144
1.0
144
0.0
144
0.0
144
0.0
144
0.0
144
1.0
147
0.0208333333333333
147
0.0
147
0.0
147
0.0
147
0.0
147
0.0208333333333333
147
0.0
147
0.0
147
0.0
147
0.0
147
1.0
147
0.0
147
0.0
147
0.0
147
0.0
147
1.0
  0
MLEADERSTYLE
  5
B450
102
{ACAD_REACTORS
330
B44F
102
}
330
B44F
100
AcDbMLeaderStyle
170
     2
171
     1
172
     0
 90
        2
 40
0.0
 41
0.0
173
     1
 91
-1056964608
340
AFE1
 92
       -2
290
     1
 42
0.09
291
     1
 43
0.36
  3
Standard
 44
0.18
300

342
AFDF
174
     1
178
     6
175
     1
176
     0
 93
-1056964608
 45
0.18
292
     0
297
     0
 46
0.18
 94
-1056964608
 47
1.0
 49
1.0
140
1.0
293
     1
141
0.0
294
     1
177
     0
142
1.0
295
     0
296
     0
143
0.125
1001
ACAD_MLEADERVER
1070
     2
  0
MLINESTYLE
  5
AFE5
102
{ACAD_REACTORS
330
AFE4
102
}
330
AFE4
100
AcDbMlineStyle
  2
STANDARD
 70
     0
  3

 62
   256
 51
90.0
 52
90.0
 71
     2
 49
0.5
 62
   256
  6
BYLAYER
 49
-0.5
 62
   256
  6
BYLAYER
  0
ACDBPLACEHOLDER
  5
B407
102
{ACAD_REACTORS
330
B406
102
}
330
B406
  0
SCALE
  5
B43E
102
{ACAD_REACTORS
330
B43D
102
}
330
B43D
100
AcDbScale
 70
     0
300
1:1
140
1.0
141
1.0
290
     1
  0
SCALE
  5
B43F
102
{ACAD_REACTORS
330
B43D
102
}
330
B43D
100
AcDbScale
 70
     0
300
1/128" = 1'-0"
140
0.0078125
141
12.0
290
     0
  0
SCALE
  5
B440
102
{ACAD_REACTORS
330
B43D
102
}
330
B43D
100
AcDbScale
 70
     0
300
1/64" = 1'-0"
140
0.015625
141
12.0
290
     0
  0
SCALE
  5
B441
102
{ACAD_REACTORS
330
B43D
102
}
330
B43D
100
AcDbScale
 70
     0
300
1/32" = 1'-0"
140
0.03125
141
12.0
290
     0
  0
SCALE
  5
B442
102
{ACAD_REACTORS
330
B43D
102
}
330
B43D
100
AcDbScale
 70
     0
300
1/16" = 1'-0"
140
0.0625
141
12.0
290
     0
  0
SCALE
  5
B443
102
{ACAD_REACTORS
330
B43D
102
}
330
B43D
100
AcDbScale
 70
     0
300
3/32" = 1'-0"
140
0.09375
141
12.0
290
     0
  0
SCALE
  5
B444
102
{ACAD_REACTORS
330
B43D
102
}
330
B43D
100
AcDbScale
 70
     0
300
1/8" = 1'-0"
140
0.125
141
12.0
290
     0
  0
SCALE
  5
B445
102
{ACAD_REACTORS
330
B43D
102
}
330
B43D
100
AcDbScale
 70
     0
300
3/16" = 1'-0"
140
0.1875
141
12.0
290
     0
  0
SCALE
  5
B446
102
{ACAD_REACTORS
330
B43D
102
}
330
B43D
100
AcDbScale
 70
     0
300
1/4" = 1'-0"
140
0.25
141
12.0
290
     0
  0
SCALE
  5
B447
102
{ACAD_REACTORS
330
B43D
102
}
330
B43D
100
AcDbScale
 70
     0
300
3/8" = 1'-0"
140
0.375
141
12.0
290
     0
  0
SCALE
  5
B448
102
{ACAD_REACTORS
330
B43D
102
}
330
B43D
100
AcDbScale
 70
     0
300
1/2" = 1'-0"
140
0.5
141
12.0
290
     0
  0
SCALE
  5
B449
102
{ACAD_REACTORS
330
B43D
102
}
330
B43D
100
AcDbScale
 70
     0
300
3/4" = 1'-0"
140
0.75
141
12.0
290
     0
  0
SCALE
  5
B44A
102
{ACAD_REACTORS
330
B43D
102
}
330
B43D
100
AcDbScale
 70
     0
300
1" = 1'-0"
140
1.0
141
12.0
290
     0
  0
SCALE
  5
B44B
102
{ACAD_REACTORS
330
B43D
102
}
330
B43D
100
AcDbScale
 70
     0
300
1-1/2" = 1'-0"
140
1.5
141
12.0
290
     0
  0
SCALE
  5
B44C
102
{ACAD_REACTORS
330
B43D
102
}
330
B43D
100
AcDbScale
 70
     0
300
3" = 1'-0"
140
3.0
141
12.0
290
     0
  0
SCALE
  5
B44D
102
{ACAD_REACTORS
330
B43D
102
}
330
B43D
100
AcDbScale
 70
     0
300
6" = 1'-0"
140
6.0
141
12.0
290
     0
  0
SCALE
  5
B44E
102
{ACAD_REACTORS
330
B43D
102
}
330
B43D
100
AcDbScale
 70
     0
300
1'-0" = 1'-0"
140
12.0
141
12.0
290
     0
  0
ACDBSECTIONVIEWSTYLE
  5
B452
102
{ACAD_XDICTIONARY
360
B4AD
102
}
102
{ACAD_REACTORS
330
B451
102
}
330
B451
100
AcDbModelDocViewStyle
 70
     0
  3
Imperial24
290
     0
100
AcDbSectionViewStyle
 70
     0
 71
     0
 90
       78
 71
     1
340
AFDF
 40
0.24
340
0
340
0
 40
0.24
300
I, O, Q, S, X, Z
 40
0.48
 90
        3
 40
0.18
 90
        1
 71
     2
340
AFE3
 90
       25
340
AFE3
 90
       50
 40
0.24
 40
0.0
 40
0.24
 71
     3
340
AFDF
 40
0.24
 90
        1
 40
0.75
 90
        1
300
%<\AcVar ViewType \f "%tc1">% %<\AcVar ViewSectionStartId>%-%<\AcVar ViewSectionEndId>%\PSCALE %<\AcVar ViewScale \f "%sn">%
 71
     4
300
ANSI31
 40
1.0
 90
        0
290
     0
290
     0
 90
        6
 40
0.0
 40
1.570796326794896
 40
0.2617993877991494
 40
1.308996938995747
 40
-0.2617993877991494
 40
1.832595714594046
  0
TABLESTYLE
  5
B43C
102
{ACAD_XDICTIONARY
360
B474
102
}
102
{ACAD_REACTORS
330
B43B
102
}
330
B43B
100
AcDbTableStyle
  3
Standard
 70
     0
 71
     0
 40
0.06
 41
0.06
280
     0
281
     0
  7
STANDARD
140
0.18
170
     2
 62
     0
 63
     7
283
     0
274
    -2
284
     1
 64
     0
275
    -2
285
     1
 65
     0
276
    -2
286
     1
 66
     0
277
    -2
287
     1
 67
     0
278
    -2
288
     1
 68
     0
279
    -2
289
     1
 69
     0
  7
STANDARD
140
0.25
170
     5
 62
     0
 63
     7
283
     0
274
    -2
284
     1
 64
     0
275
    -2
285
     1
 65
     0
276
    -2
286
     1
 66
     0
277
    -2
287
     1
 67
     0
278
    -2
288
     1
 68
     0
279
    -2
289
     1
 69
     0
  7
STANDARD
140
0.18
170
     5
 62
     0
 63
     7
283
     0
274
    -2
284
     1
 64
     0
275
    -2
285
     1
 65
     0
276
    -2
286
     1
 66
     0
277
    -2
287
     1
 67
     0
278
    -2
288
     1
 68
     0
279
    -2
289
     1
 69
     0
  0
VISUALSTYLE
  5
B427
102
{ACAD_XDICTIONARY
360
B485
102
}
102
{ACAD_REACTORS
330
B421
102
}
330
B421
100
AcDbVisualStyle
  2
2dWireframe
 70
     4
 71
     0
 72
     2
 73
     0
 90
        0
 40
-0.6
 41
-30.0
 62
     5
 63
     7
 74
     1
 91
        4
 64
     7
 65
   257
 75
     1
175
     1
 42
1.0
 92
        0
 66
   257
 43
1.0
 76
     1
 77
     6
 78
     2
 67
     7
 79
     5
170
     0
171
     0
290
     0
174
     0
 93
        1
 44
0.0
173
     0
291
     0
 45
0.0
1001
ACAD
1000
AcDbSavedByObjectVersion
1070
     0
  0
VISUALSTYLE
  5
B426
102
{ACAD_XDICTIONARY
360
B483
102
}
102
{ACAD_REACTORS
330
B421
102
}
330
B421
100
AcDbVisualStyle
  2
Basic
 70
     7
 71
     1
 72
     0
 73
     1
 90
        0
 40
-0.6
 41
-30.0
 62
     5
 63
     7
 74
     0
 91
        4
 64
     7
 65
   257
 75
     1
175
     1
 42
1.0
 92
        8
 66
     7
 43
1.0
 76
     1
 77
     6
 78
     2
 67
     7
 79
     5
170
     0
171
     0
290
     0
174
     0
 93
        1
 44
0.0
173
     0
291
     1
 45
0.0
1001
ACAD
1000
AcDbSavedByObjectVersion
1070
     0
  0
VISUALSTYLE
  5
B42D
102
{ACAD_XDICTIONARY
360
B491
102
}
102
{ACAD_REACTORS
330
B421
102
}
330
B421
100
AcDbVisualStyle
  2
Brighten
 70
    12
 71
     2
 72
     2
 73
     0
 90
        0
 40
-0.6
 41
-30.0
 62
     5
 63
     7
 74
     1
 91
        4
 64
     7
 65
   257
 75
     1
175
     1
 42
1.0
 92
        8
 66
     7
 43
1.0
 76
     1
 77
     6
 78
     2
 67
     7
 79
     5
170
     0
171
     0
290
     0
174
     0
 93
        1
 44
50.0
173
     0
291
     1
 45
0.0
1001
ACAD
1000
AcDbSavedByObjectVersion
1070
     0
  0
VISUALSTYLE
  5
B431
102
{ACAD_XDICTIONARY
360
B499
102
}
102
{ACAD_REACTORS
330
B421
102
}
330
B421
100
AcDbVisualStyle
  2
ColorChange
 70
    16
 71
     2
 72
     2
 73
     3
 90
        0
 40
-0.6
 41
-30.0
 62
     5
 63
     8
 74
     1
 91
        4
 64
     7
 65
   257
 75
     1
175
     1
 42
1.0
 92
        8
 66
     8
 43
1.0
 76
     1
 77
     6
 78
     2
 67
     7
 79
     5
170
     0
171
     0
290
     0
174
     0
 93
        1
 44
0.0
173
     0
291
     1
 45
0.0
1001
ACAD
1000
AcDbSavedByObjectVersion
1070
     0
  0
VISUALSTYLE
  5
B42A
102
{ACAD_XDICTIONARY
360
B48B
102
}
102
{ACAD_REACTORS
330
B421
102
}
330
B421
100
AcDbVisualStyle
  2
Conceptual
 70
     9
 71
     3
 72
     2
 73
     0
 90
        0
 40
-0.6
 41
-30.0
 62
     5
 63
     7
 74
     2
 91
        2
 64
     7
 65
   257
 75
     1
175
     1
 42
179.0
 92
        8
 66
     7
 43
1.0
 76
     1
 77
     6
 78
     2
 67
     7
 79
     3
170
     0
171
     0
290
     0
174
     0
 93
        1
 44
0.0
173
     0
291
     0
 45
0.0
1001
ACAD
1000
AcDbSavedByObjectVersion
1070
     0
  0
VISUALSTYLE
  5
B42C
102
{ACAD_XDICTIONARY
360
B48F
102
}
102
{ACAD_REACTORS
330
B421
102
}
330
B421
100
AcDbVisualStyle
  2
Dim
 70
    11
 71
     2
 72
     2
 73
     0
 90
        0
 40
-0.6
 41
-30.0
 62
     5
 63
     7
 74
     1
 91
        4
 64
     7
 65
   257
 75
     1
175
     1
 42
1.0
 92
        8
 66
     7
 43
1.0
 76
     1
 77
     6
 78
     2
 67
     7
 79
     5
170
     0
171
     0
290
     0
174
     0
 93
        1
 44
-50.0
173
     0
291
     1
 45
0.0
1001
ACAD
1000
AcDbSavedByObjectVersion
1070
     0
  0
VISUALSTYLE
  5
B439
102
{ACAD_XDICTIONARY
360
B4A9
102
}
102
{ACAD_REACTORS
330
B421
102
}
330
B421
100
AcDbVisualStyle
  2
EdgeColorOff
 70
    22
 71
     2
 72
     2
 73
     0
 90
        0
 40
-0.6
 41
-30.0
 62
     5
 63
     7
 74
     1
 91
        4
 64
     7
 65
   257
 75
     1
175
     1
 42
1.0
 92
        8
 66
     7
 43
1.0
 76
     1
 77
     6
 78
     2
 67
     7
 79
     5
170
     0
171
     0
290
     0
174
     0
 93
        1
 44
0.0
173
     0
291
     1
 45
0.0
1001
ACAD
1000
AcDbSavedByObjectVersion
1070
     0
  0
VISUALSTYLE
  5
B430
102
{ACAD_XDICTIONARY
360
B497
102
}
102
{ACAD_REACTORS
330
B421
102
}
330
B421
100
AcDbVisualStyle
  2
Facepattern
 70
    15
 71
     2
 72
     2
 73
     0
 90
        0
 40
-0.6
 41
-30.0
 62
     5
 63
     7
 74
     1
 91
        4
 64
     7
 65
   257
 75
     1
175
     1
 42
1.0
 92
        8
 66
     7
 43
1.0
 76
     1
 77
     6
 78
     2
 67
     7
 79
     5
170
     0
171
     0
290
     0
174
     0
 93
        1
 44
0.0
173
     0
291
     1
 45
0.0
1001
ACAD
1000
AcDbSavedByObjectVersion
1070
     0
  0
VISUALSTYLE
  5
B422
102
{ACAD_XDICTIONARY
360
B47B
102
}
102
{ACAD_REACTORS
330
B421
102
}
330
B421
100
AcDbVisualStyle
  2
Flat
 70
     0
 71
     2
 72
     1
 73
     1
 90
        2
 40
-0.6
 41
30.0
 62
     5
 63
     7
 74
     0
 91
        0
 64
     7
 65
   257
 75
     1
175
     1
 42
1.0
 92
        8
 66
     7
 43
1.0
 76
     1
 77
     6
 78
     2
 67
     7
 79
     5
170
     0
171
     0
290
     0
174
     0
 93
       13
 44
0.0
173
     0
291
     1
 45
0.0
1001
ACAD
1000
AcDbSavedByObjectVersion
1070
     0
  0
VISUALSTYLE
  5
B423
102
{ACAD_XDICTIONARY
360
B47D
102
}
102
{ACAD_REACTORS
330
B421
102
}
330
B421
100
AcDbVisualStyle
  2
FlatWithEdges
 70
     1
 71
     2
 72
     1
 73
     1
 90
        2
 40
-0.6
 41
30.0
 62
     5
 63
     7
 74
     1
 91
        0
 64
     7
 65
   257
 75
     1
175
     1
 42
1.0
 92
        0
 66
   257
 43
1.0
 76
     1
 77
     6
 78
     2
 67
     7
 79
     5
170
     0
171
     0
290
     0
174
     0
 93
       13
 44
0.0
173
     0
291
     1
 45
0.0
1001
ACAD
1000
AcDbSavedByObjectVersion
1070
     0
  0
VISUALSTYLE
  5
B424
102
{ACAD_XDICTIONARY
360
B47F
102
}
102
{ACAD_REACTORS
330
B421
102
}
330
B421
100
AcDbVisualStyle
  2
Gouraud
 70
     2
 71
     2
 72
     2
 73
     1
 90
        2
 40
-0.6
 41
30.0
 62
     5
 63
     7
 74
     0
 91
        0
 64
     7
 65
   257
 75
     1
175
     1
 42
1.0
 92
        0
 66
     7
 43
1.0
 76
     1
 77
     6
 78
     2
 67
     7
 79
     5
170
     0
171
     0
290
     0
174
     0
 93
       13
 44
0.0
173
     0
291
     1
 45
0.0
1001
ACAD
1000
AcDbSavedByObjectVersion
1070
     0
  0
VISUALSTYLE
  5
B425
102
{ACAD_XDICTIONARY
360
B481
102
}
102
{ACAD_REACTORS
330
B421
102
}
330
B421
100
AcDbVisualStyle
  2
GouraudWithEdges
 70
     3
 71
     2
 72
     2
 73
     1
 90
        2
 40
-0.6
 41
30.0
 62
     5
 63
     7
 74
     1
 91
        0
 64
     7
 65
   257
 75
     1
175
     1
 42
1.0
 92
        0
 66
   257
 43
1.0
 76
     1
 77
     6
 78
     2
 67
     7
 79
     5
170
     0
171
     0
290
     0
174
     0
 93
       13
 44
0.0
173
     0
291
     1
 45
0.0
1001
ACAD
1000
AcDbSavedByObjectVersion
1070
     0
  0
VISUALSTYLE
  5
B429
102
{ACAD_XDICTIONARY
360
B489
102
}
102
{ACAD_REACTORS
330
B421
102
}
330
B421
100
AcDbVisualStyle
  2
Hidden
 70
     6
 71
     1
 72
     2
 73
     2
 90
        0
 40
-0.6
 41
-30.0
 62
     5
 63
     7
 74
     2
 91
        2
 64
     7
 65
   257
 75
     2
175
     1
 42
40.0
 92
        0
 66
   257
 43
1.0
 76
     1
 77
     6
 78
     2
 67
     7
 79
     3
170
     0
171
     0
290
     0
174
     0
 93
        1
 44
0.0
173
     0
291
     0
 45
0.0
1001
ACAD
1000
AcDbSavedByObjectVersion
1070
     0
  0
VISUALSTYLE
  5
B437
102
{ACAD_XDICTIONARY
360
B4A5
102
}
102
{ACAD_REACTORS
330
B421
102
}
330
B421
100
AcDbVisualStyle
  2
JitterOff
 70
    20
 71
     2
 72
     2
 73
     0
 90
        0
 40
-0.6
 41
-30.0
 62
     5
 63
     7
 74
     1
 91
        4
 64
     7
 65
   257
 75
     1
175
     1
 42
1.0
 92
       10
 66
     7
 43
1.0
 76
     1
 77
     6
 78
     2
 67
     7
 79
     5
170
     0
171
     0
290
     0
174
     0
 93
        1
 44
0.0
173
     0
291
     1
 45
0.0
1001
ACAD
1000
AcDbSavedByObjectVersion
1070
     0
  0
VISUALSTYLE
  5
B42F
102
{ACAD_XDICTIONARY
360
B495
102
}
102
{ACAD_REACTORS
330
B421
102
}
330
B421
100
AcDbVisualStyle
  2
Linepattern
 70
    14
 71
     2
 72
     2
 73
     0
 90
        0
 40
-0.6
 41
-30.0
 62
     5
 63
     7
 74
     1
 91
        4
 64
     7
 65
   257
 75
     7
175
     7
 42
1.0
 92
        8
 66
     7
 43
1.0
 76
     1
 77
     6
 78
     2
 67
     7
 79
     5
170
     0
171
     0
290
     0
174
     0
 93
        1
 44
0.0
173
     0
291
     1
 45
0.0
1001
ACAD
1000
AcDbSavedByObjectVersion
1070
     0
  0
VISUALSTYLE
  5
B438
102
{ACAD_XDICTIONARY
360
B4A7
102
}
102
{ACAD_REACTORS
330
B421
102
}
330
B421
100
AcDbVisualStyle
  2
OverhangOff
 70
    21
 71
     2
 72
     2
 73
     0
 90
        0
 40
-0.6
 41
-30.0
 62
     5
 63
     7
 74
     1
 91
        4
 64
     7
 65
   257
 75
     1
175
     1
 42
1.0
 92
        9
 66
     7
 43
1.0
 76
     1
 77
     6
 78
     2
 67
     7
 79
     5
170
     0
171
     0
290
     0
174
     0
 93
        1
 44
0.0
173
     0
291
     1
 45
0.0
1001
ACAD
1000
AcDbSavedByObjectVersion
1070
     0
  0
VISUALSTYLE
  5
B42B
102
{ACAD_XDICTIONARY
360
B48D
102
}
102
{ACAD_REACTORS
330
B421
102
}
330
B421
100
AcDbVisualStyle
  2
Realistic
 70
     8
 71
     2
 72
     3
 73
     0
 90
        2
 40
-0.6
 41
30.0
 62
     5
 63
     7
 74
     0
 91
        0
 64
     7
 65
   257
 75
     1
175
     1
 42
1.0
 92
        8
 66
   257
 43
1.0
 76
     1
 77
     6
 78
     2
 67
     7
 79
     3
170
     0
171
     0
290
     0
174
     0
 93
       13
 44
0.0
173
     0
291
     0
 45
0.0
1001
ACAD
1000
AcDbSavedByObjectVersion
1070
     0
  0
VISUALSTYLE
  5
B436
102
{ACAD_XDICTIONARY
360
B4A3
102
}
102
{ACAD_REACTORS
330
B421
102
}
330
B421
100
AcDbVisualStyle
  2
Shaded
 70
    27
 71
     2
 72
     2
 73
     1
 90
        2
 40
-0.6
 41
30.0
 62
     5
 63
     7
 74
     0
 91
        4
 64
     7
 65
   257
 75
     1
175
     1
 42
1.0
 92
        8
 66
   257
 43
1.0
 76
     1
 77
     6
 78
     2
 67
     8
 79
     3
170
     0
171
     0
290
     0
174
     0
 93
        5
 44
0.0
173
     0
291
     0
 45
0.0
1001
ACAD
1000
AcDbSavedByObjectVersion
1070
     0
  0
VISUALSTYLE
  5
B435
102
{ACAD_XDICTIONARY
360
B4A1
102
}
102
{ACAD_REACTORS
330
B421
102
}
330
B421
100
AcDbVisualStyle
  2
Shaded with edges
 70
    26
 71
     2
 72
     2
 73
     1
 90
        2
 40
-0.6
 41
30.0
 62
     5
 63
     7
 74
     1
 91
       10
 64
     7
 65
   257
 75
     2
175
     1
 42
1.0
 92
        8
 66
   257
 43
1.0
 76
     1
 77
     6
 78
     2
 67
     7
 79
     3
170
     0
171
     0
290
     0
174
     0
 93
        5
 44
0.0
173
     0
291
     0
 45
0.0
1001
ACAD
1000
AcDbSavedByObjectVersion
1070
     0
  0
VISUALSTYLE
  5
B432
102
{ACAD_XDICTIONARY
360
B49B
102
}
102
{ACAD_REACTORS
330
B421
102
}
330
B421
100
AcDbVisualStyle
  2
Shades of Gray
 70
    23
 71
     2
 72
     2
 73
     3
 90
        0
 40
-0.6
 41
-30.0
 62
     5
 63
     7
 74
     2
 91
        2
 64
     7
 65
     7
 75
     1
175
     1
 42
40.0
 92
        8
 66
     7
 43
1.0
 76
     1
 77
     6
 78
     2
 67
     7
 79
     3
170
     0
171
     0
290
     0
174
     0
 93
        1
 44
0.0
173
     0
291
     0
 45
0.0
1001
ACAD
1000
AcDbSavedByObjectVersion
1070
     0
  0
VISUALSTYLE
  5
B433
102
{ACAD_XDICTIONARY
360
B49D
102
}
102
{ACAD_REACTORS
330
B421
102
}
330
B421
100
AcDbVisualStyle
  2
Sketchy
 70
    24
 71
     1
 72
     2
 73
     2
 90
        0
 40
-0.6
 41
-30.0
 62
     5
 63
     7
 74
     2
 91
        2
 64
     7
 65
     7
 75
     1
175
     1
 42
40.0
 92
       11
 66
     7
 43
1.0
 76
     1
 77
     6
 78
     2
 67
     7
 79
     6
170
     0
171
     0
290
     0
174
     0
 93
        1
 44
0.0
173
     0
291
     0
 45
0.0
1001
ACAD
1000
AcDbSavedByObjectVersion
1070
     0
  0
VISUALSTYLE
  5
B42E
102
{ACAD_XDICTIONARY
360
B493
102
}
102
{ACAD_REACTORS
330
B421
102
}
330
B421
100
AcDbVisualStyle
  2
Thicken
 70
    13
 71
     2
 72
     2
 73
     0
 90
        0
 40
-0.6
 41
-30.0
 62
     5
 63
     7
 74
     1
 91
        4
 64
     7
 65
   257
 75
     1
175
     1
 42
1.0
 92
       12
 66
     7
 43
1.0
 76
     1
 77
     6
 78
     2
 67
     7
 79
     5
170
     0
171
     0
290
     0
174
     0
 93
        1
 44
0.0
173
     0
291
     1
 45
0.0
1001
ACAD
1000
AcDbSavedByObjectVersion
1070
     0
  0
VISUALSTYLE
  5
B428
102
{ACAD_XDICTIONARY
360
B487
102
}
102
{ACAD_REACTORS
330
B421
102
}
330
B421
100
AcDbVisualStyle
  2
Wireframe
 70
     5
 71
     0
 72
     2
 73
     0
 90
        0
 40
-0.6
 41
-30.0
 62
     5
 63
     7
 74
     1
 91
        4
 64
     7
 65
   257
 75
     1
175
     1
 42
1.0
 92
        0
 66
   257
 43
1.0
 76
     1
 77
     6
 78
     2
 67
     7
 79
     3
170
     0
171
     0
290
     0
174
     0
 93
        1
 44
0.0
173
     0
291
     0
 45
0.0
1001
ACAD
1000
AcDbSavedByObjectVersion
1070
     0
  0
VISUALSTYLE
  5
B434
102
{ACAD_XDICTIONARY
360
B49F
102
}
102
{ACAD_REACTORS
330
B421
102
}
330
B421
100
AcDbVisualStyle
  2
X-Ray
 70
    25
 71
     2
 72
     2
 73
     1
 90
        1
 40
0.5
 41
-30.0
 62
     5
 63
     7
 74
     1
 91
        0
 64
     7
 65
   257
 75
     1
175
     1
 42
1.0
 92
        8
 66
     7
 43
1.0
 76
     1
 77
     6
 78
     2
 67
     7
 79
     3
170
     0
171
     0
290
     0
174
     0
 93
       13
 44
0.0
173
     0
291
     0
 45
0.0
1001
ACAD
1000
AcDbSavedByObjectVersion
1070
     0
  0
DICTIONARYVAR
  5
B46E
102
{ACAD_REACTORS
330
B469
102
}
330
B469
100
DictionaryVariables
280
     0
  1
1:1
  0
DICTIONARYVAR
  5
B46B
102
{ACAD_REACTORS
330
B469
102
}
330
B469
100
DictionaryVariables
280
     0
  1
STANDARD
  0
DICTIONARYVAR
  5
B46A
102
{ACAD_REACTORS
330
B469
102
}
330
B469
100
DictionaryVariables
280
     0
  1
STANDARD
  0
DICTIONARYVAR
  5
B46C
102
{ACAD_REACTORS
330
B469
102
}
330
B469
100
DictionaryVariables
280
     0
  1
Imperial24
  0
DICTIONARYVAR
  5
B46D
102
{ACAD_REACTORS
330
B469
102
}
330
B469
100
DictionaryVariables
280
     0
  1
Imperial24
  0
DICTIONARYVAR
  5
B471
102
{ACAD_REACTORS
330
B469
102
}
330
B469
100
DictionaryVariables
280
     0
  1
1
  0
DICTIONARYVAR
  5
B470
102
{ACAD_REACTORS
330
B469
102
}
330
B469
100
DictionaryVariables
280
     0
  1
0
  0
DICTIONARYVAR
  5
B46F
102
{ACAD_REACTORS
330
B469
102
}
330
B469
100
DictionaryVariables
280
     0
  1
127
  0
DICTIONARYVAR
  5
B472
102
{ACAD_REACTORS
330
B469
102
}
330
B469
100
DictionaryVariables
280
     0
  1
2
  0
DICTIONARY
  5
B4AF
330
B454
100
AcDbDictionary
280
     1
281
     1
  3
ACAD_XREC_ROUNDTRIP
360
B4B0
  0
DICTIONARY
  5
B4B1
330
B455
100
AcDbDictionary
280
     1
281
     1
  3
ACAD_XREC_ROUNDTRIP
360
B4B2
  0
DICTIONARY
  5
B4B3
330
B456
100
AcDbDictionary
280
     1
281
     1
  3
ACAD_XREC_ROUNDTRIP
360
B4B4
  0
DICTIONARY
  5
B412
330
B411
100
AcDbDictionary
280
     1
281
     1
  3
ACAD_XREC_ROUNDTRIP
360
B479
  3
BUMPTILE
360
B414
  3
DIFFUSETILE
360
B413
  3
OPACITYTILE
360
B417
  3
REFLECTIONTILE
360
B416
  3
REFRACTIONTILE
360
B418
  3
SPECULARTILE
360
B415
  0
DICTIONARY
  5
B40A
330
B409
100
AcDbDictionary
280
     1
281
     1
  3
ACAD_XREC_ROUNDTRIP
360
B478
  3
BUMPTILE
360
B40C
  3
DIFFUSETILE
360
B40B
  3
OPACITYTILE
360
B40F
  3
REFLECTIONTILE
360
B40E
  3
REFRACTIONTILE
360
B410
  3
SPECULARTILE
360
B40D
  0
DICTIONARY
  5
B41A
330
B419
100
AcDbDictionary
280
     1
281
     1
  3
ACAD_XREC_ROUNDTRIP
360
B47A
  3
BUMPTILE
360
B41C
  3
DIFFUSETILE
360
B41B
  3
OPACITYTILE
360
B41F
  3
REFLECTIONTILE
360
B41E
  3
REFRACTIONTILE
360
B420
  3
SPECULARTILE
360
B41D
  0
DICTIONARY
  5
B4AD
330
B452
100
AcDbDictionary
280
     1
281
     1
  3
ACAD_XREC_ROUNDTRIP
360
B4AE
  0
DICTIONARY
  5
B474
330
B43C
100
AcDbDictionary
280
     1
281
     1
  3
ACAD_ROUNDTRIP_2008_TABLESTYLE_CELLSTYLEMAP
360
B475
  3
ACAD_XREC_ROUNDTRIP
360
B4AB
  0
DICTIONARY
  5
B485
330
B427
100
AcDbDictionary
280
     1
281
     1
  3
ACAD_XREC_ROUNDTRIP
360
B486
  0
DICTIONARY
  5
B483
330
B426
100
AcDbDictionary
280
     1
281
     1
  3
ACAD_XREC_ROUNDTRIP
360
B484
  0
DICTIONARY
  5
B491
330
B42D
100
AcDbDictionary
280
     1
281
     1
  3
ACAD_XREC_ROUNDTRIP
360
B492
  0
DICTIONARY
  5
B499
330
B431
100
AcDbDictionary
280
     1
281
     1
  3
ACAD_XREC_ROUNDTRIP
360
B49A
  0
DICTIONARY
  5
B48B
330
B42A
100
AcDbDictionary
280
     1
281
     1
  3
ACAD_XREC_ROUNDTRIP
360
B48C
  0
DICTIONARY
  5
B48F
330
B42C
100
AcDbDictionary
280
     1
281
     1
  3
ACAD_XREC_ROUNDTRIP
360
B490
  0
DICTIONARY
  5
B4A9
330
B439
100
AcDbDictionary
280
     1
281
     1
  3
ACAD_XREC_ROUNDTRIP
360
B4AA
  0
DICTIONARY
  5
B497
330
B430
100
AcDbDictionary
280
     1
281
     1
  3
ACAD_XREC_ROUNDTRIP
360
B498
  0
DICTIONARY
  5
B47B
330
B422
100
AcDbDictionary
280
     1
281
     1
  3
ACAD_XREC_ROUNDTRIP
360
B47C
  0
DICTIONARY
  5
B47D
330
B423
100
AcDbDictionary
280
     1
281
     1
  3
ACAD_XREC_ROUNDTRIP
360
B47E
  0
DICTIONARY
  5
B47F
330
B424
100
AcDbDictionary
280
     1
281
     1
  3
ACAD_XREC_ROUNDTRIP
360
B480
  0
DICTIONARY
  5
B481
330
B425
100
AcDbDictionary
280
     1
281
     1
  3
ACAD_XREC_ROUNDTRIP
360
B482
  0
DICTIONARY
  5
B489
330
B429
100
AcDbDictionary
280
     1
281
     1
  3
ACAD_XREC_ROUNDTRIP
360
B48A
  0
DICTIONARY
  5
B4A5
330
B437
100
AcDbDictionary
280
     1
281
     1
  3
ACAD_XREC_ROUNDTRIP
360
B4A6
  0
DICTIONARY
  5
B495
330
B42F
100
AcDbDictionary
280
     1
281
     1
  3
ACAD_XREC_ROUNDTRIP
360
B496
  0
DICTIONARY
  5
B4A7
330
B438
100
AcDbDictionary
280
     1
281
     1
  3
ACAD_XREC_ROUNDTRIP
360
B4A8
  0
DICTIONARY
  5
B48D
330
B42B
100
AcDbDictionary
280
     1
281
     1
  3
ACAD_XREC_ROUNDTRIP
360
B48E
  0
DICTIONARY
  5
B4A3
330
B436
100
AcDbDictionary
280
     1
281
     1
  3
ACAD_XREC_ROUNDTRIP
360
B4A4
  0
DICTIONARY
  5
B4A1
330
B435
100
AcDbDictionary
280
     1
281
     1
  3
ACAD_XREC_ROUNDTRIP
360
B4A2
  0
DICTIONARY
  5
B49B
330
B432
100
AcDbDictionary
280
     1
281
     1
  3
ACAD_XREC_ROUNDTRIP
360
B49C
  0
DICTIONARY
  5
B49D
330
B433
100
AcDbDictionary
280
     1
281
     1
  3
ACAD_XREC_ROUNDTRIP
360
B49E
  0
DICTIONARY
  5
B493
330
B42E
100
AcDbDictionary
280
     1
281
     1
  3
ACAD_XREC_ROUNDTRIP
360
B494
  0
DICTIONARY
  5
B487
330
B428
100
AcDbDictionary
280
     1
281
     1
  3
ACAD_XREC_ROUNDTRIP
360
B488
  0
DICTIONARY
  5
B49F
330
B434
100
AcDbDictionary
280
     1
281
     1
  3
ACAD_XREC_ROUNDTRIP
360
B4A0
  0
XRECORD
  5
B4B0
102
{ACAD_REACTORS
330
B4AF
102
}
330
B4AF
100
AcDbXrecord
280
     1
102
DISPLAYNAME
  1
Imperial24
102
FLAGS
 90
        0
  0
XRECORD
  5
B4B2
102
{ACAD_REACTORS
330
B4B1
102
}
330
B4B1
100
AcDbXrecord
280
     1
102
SHADEPLOT
 70
     0
102
SHADEPLOTRESLEVEL
 70
     2
102
SHADEPLOTCUSTOMDPI
 70
   300
  0
XRECORD
  5
B4B4
102
{ACAD_REACTORS
330
B4B3
102
}
330
B4B3
100
AcDbXrecord
280
     1
102
SHADEPLOT
 70
     0
102
SHADEPLOTRESLEVEL
 70
     2
102
SHADEPLOTCUSTOMDPI
 70
   300
  0
XRECORD
  5
B479
102
{ACAD_REACTORS
330
B412
102
}
330
B412
100
AcDbXrecord
280
     1
102
MATERIAL
148
0.0
149
0.0
149
0.0
 93
        0
 94
      127
282
     0
 72
     0
 77
     0
171
     0
175
     0
179
     0
273
     0
  0
XRECORD
  5
B414
102
{ACAD_REACTORS
330
B412
102
}
330
B412
100
AcDbXrecord
280
     1
270
     1
271
     1
  0
XRECORD
  5
B413
102
{ACAD_REACTORS
330
B412
102
}
330
B412
100
AcDbXrecord
280
     1
270
     1
271
     1
  0
XRECORD
  5
B417
102
{ACAD_REACTORS
330
B412
102
}
330
B412
100
AcDbXrecord
280
     1
270
     1
271
     1
  0
XRECORD
  5
B416
102
{ACAD_REACTORS
330
B412
102
}
330
B412
100
AcDbXrecord
280
     1
270
     1
271
     1
  0
XRECORD
  5
B418
102
{ACAD_REACTORS
330
B412
102
}
330
B412
100
AcDbXrecord
280
     1
270
     1
271
     1
  0
XRECORD
  5
B415
102
{ACAD_REACTORS
330
B412
102
}
330
B412
100
AcDbXrecord
280
     1
270
     1
271
     1
  0
XRECORD
  5
B478
102
{ACAD_REACTORS
330
B40A
102
}
330
B40A
100
AcDbXrecord
280
     1
102
MATERIAL
148
0.0
149
0.0
149
0.0
 93
        0
 94
      127
282
     0
 72
     0
 77
     0
171
     0
175
     0
179
     0
273
     0
  0
XRECORD
  5
B40C
102
{ACAD_REACTORS
330
B40A
102
}
330
B40A
100
AcDbXrecord
280
     1
270
     1
271
     1
  0
XRECORD
  5
B40B
102
{ACAD_REACTORS
330
B40A
102
}
330
B40A
100
AcDbXrecord
280
     1
270
     1
271
     1
  0
XRECORD
  5
B40F
102
{ACAD_REACTORS
330
B40A
102
}
330
B40A
100
AcDbXrecord
280
     1
270
     1
271
     1
  0
XRECORD
  5
B40E
102
{ACAD_REACTORS
330
B40A
102
}
330
B40A
100
AcDbXrecord
280
     1
270
     1
271
     1
  0
XRECORD
  5
B410
102
{ACAD_REACTORS
330
B40A
102
}
330
B40A
100
AcDbXrecord
280
     1
270
     1
271
     1
  0
XRECORD
  5
B40D
102
{ACAD_REACTORS
330
B40A
102
}
330
B40A
100
AcDbXrecord
280
     1
270
     1
271
     1
  0
XRECORD
  5
B47A
102
{ACAD_REACTORS
330
B41A
102
}
330
B41A
100
AcDbXrecord
280
     1
102
MATERIAL
148
0.0
149
0.0
149
0.0
 93
        0
 94
      127
282
     0
 72
     0
 77
     0
171
     0
175
     0
179
     0
273
     0
  0
XRECORD
  5
B41C
102
{ACAD_REACTORS
330
B41A
102
}
330
B41A
100
AcDbXrecord
280
     1
270
     1
271
     1
  0
XRECORD
  5
B41B
102
{ACAD_REACTORS
330
B41A
102
}
330
B41A
100
AcDbXrecord
280
     1
270
     1
271
     1
  0
XRECORD
  5
B41F
102
{ACAD_REACTORS
330
B41A
102
}
330
B41A
100
AcDbXrecord
280
     1
270
     1
271
     1
  0
XRECORD
  5
B41E
102
{ACAD_REACTORS
330
B41A
102
}
330
B41A
100
AcDbXrecord
280
     1
270
     1
271
     1
  0
XRECORD
  5
B420
102
{ACAD_REACTORS
330
B41A
102
}
330
B41A
100
AcDbXrecord
280
     1
270
     1
271
     1
  0
XRECORD
  5
B41D
102
{ACAD_REACTORS
330
B41A
102
}
330
B41A
100
AcDbXrecord
280
     1
270
     1
271
     1
  0
XRECORD
  5
B4AE
102
{ACAD_REACTORS
330
B4AD
102
}
330
B4AD
100
AcDbXrecord
280
     1
102
DISPLAYNAME
  1
Imperial24
102
FLAGS
 90
        0
  0
CELLSTYLEMAP
  5
B475
102
{ACAD_REACTORS
330
B474
102
}
330
B474
100
AcDbCellStyleMap
 90
        3
300
CELLSTYLE
  1
TABLEFORMAT_BEGIN
 90
        5
170
     1
 91
        0
 92
    32768
 62
   257
 93
        1
300
CONTENTFORMAT
  1
CONTENTFORMAT_BEGIN
 90
        0
 91
        0
 92
      512
 93
        0
300

 40
0.0
140
1.0
 94
        5
 62
     0
340
AFDF
144
0.25
309
CONTENTFORMAT_END
171
     0
 94
        0
309
TABLEFORMAT_END
  1
CELLSTYLE_BEGIN
 90
        1
 91
        1
300
_TITLE
309
CELLSTYLE_END
300
CELLSTYLE
  1
TABLEFORMAT_BEGIN
 90
        5
170
     1
 91
        0
 92
        0
 62
   257
 93
        1
300
CONTENTFORMAT
  1
CONTENTFORMAT_BEGIN
 90
        0
 91
        0
 92
      512
 93
        0
300

 40
0.0
140
1.0
 94
        5
 62
     0
340
AFDF
144
0.18
309
CONTENTFORMAT_END
171
     0
 94
        0
309
TABLEFORMAT_END
  1
CELLSTYLE_BEGIN
 90
        2
 91
        1
300
_HEADER
309
CELLSTYLE_END
300
CELLSTYLE
  1
TABLEFORMAT_BEGIN
 90
        5
170
     1
 91
        0
 92
        0
 62
   257
 93
        1
300
CONTENTFORMAT
  1
CONTENTFORMAT_BEGIN
 90
        0
 91
        0
 92
      512
 93
        0
300

 40
0.0
140
1.0
 94
        2
 62
     0
340
AFDF
144
0.18
309
CONTENTFORMAT_END
171
     0
 94
        0
309
TABLEFORMAT_END
  1
CELLSTYLE_BEGIN
 90
        3
 91
        2
300
_DATA
309
CELLSTYLE_END
  0
XRECORD
  5
B4AB
102
{ACAD_REACTORS
330
B474
102
}
330
B474
100
AcDbXrecord
280
     1
102
ACAD_ROUNDTRIP_PRE2007_TABLESTYLE
 90
      512
 91
        0
  1

 92
      512
 93
        0
  2

 94
      512
 95
        0
  3

  0
XRECORD
  5
B486
102
{ACAD_REACTORS
330
B485
102
}
330
B485
100
AcDbXrecord
280
     1
102
RTVSPost2010Prop28
280
     1
102
RTVSPost2010PropOp28
 70
     1
102
RTVSPost2010Prop29
280
     1
102
RTVSPost2010PropOp29
 70
     1
102
RTVSPost2010Prop30
280
     0
102
RTVSPost2010PropOp30
 70
     1
102
RTVSPost2010Prop31
280
     0
102
RTVSPost2010PropOp31
 70
     1
102
RTVSPost2010Prop32
280
     0
102
RTVSPost2010PropOp32
 70
     1
102
RTVSPost2010Prop33
280
     0
102
RTVSPost2010PropOp33
 70
     1
102
RTVSPost2010Prop34
280
     0
102
RTVSPost2010PropOp34
 70
     1
102
RTVSPost2010Prop35
280
     0
102
RTVSPost2010PropOp35
 70
     1
102
RTVSPost2010Prop36
280
     0
102
RTVSPost2010PropOp36
 70
     1
102
RTVSPost2010Prop37
 90
       50
102
RTVSPost2010PropOp37
 70
     1
102
RTVSPost2010Prop38
140
0.0
102
RTVSPost2010PropOp38
 70
     1
102
RTVSPost2010Prop39
140
1.0
102
RTVSPost2010PropOp39
 70
     1
102
RTVSPost2010Prop40
 90
        0
102
RTVSPost2010PropOp40
 70
     1
102
RTVSPost2010Prop41ColorIndex
 90
       18
102
RTVSPost2010Prop41ColorRGB
 90
        0
102
RTVSPost2010PropOp41
 70
     1
102
RTVSPost2010Prop42
 90
       50
102
RTVSPost2010PropOp42
 70
     1
102
RTVSPost2010Prop43
 90
        3
102
RTVSPost2010PropOp43
 70
     1
102
RTVSPost2010Prop44ColorIndex
 90
        5
102
RTVSPost2010Prop44ColorRGB
 90
      255
102
RTVSPost2010PropOp44
 70
     1
102
RTVSPost2010Prop45
280
     0
102
RTVSPost2010PropOp45
 70
     1
102
RTVSPost2010Prop46
 90
       50
102
RTVSPost2010PropOp46
 70
     1
102
RTVSPost2010Prop47
 90
       50
102
RTVSPost2010PropOp47
 70
     1
102
RTVSPost2010Prop48
 90
       50
102
RTVSPost2010PropOp48
 70
     1
102
RTVSPost2010Prop49
280
     0
102
RTVSPost2010PropOp49
 70
     1
102
RTVSPost2010Prop50
 90
       50
102
RTVSPost2010PropOp50
 70
     1
102
RTVSPost2010Prop51ColorIndex
 90
      256
102
RTVSPost2010Prop51ColorRGB
 90
-16777216
102
RTVSPost2010PropOp51
 70
     0
102
RTVSPost2010Prop52
140
1.0
102
RTVSPost2010PropOp52
 70
     0
102
RTVSPost2010Prop53
 90
        2
102
RTVSPost2010PropOp53
 70
     1
102
RTVSPost2010Prop54
  1
strokes_ogs.tif
102
RTVSPost2010PropOp54
 70
     1
102
RTVSPost2010Prop55
280
     0
102
RTVSPost2010PropOp55
 70
     1
102
RTVSPost2010Prop56
140
1.0
102
RTVSPost2010PropOp56
 70
     1
102
RTVSPost2010Prop57
140
1.0
102
RTVSPost2010PropOp57
 70
     1
102
RTVSPropertyOp0
 70
     1
102
RTVSPropertyOp1
 70
     1
102
RTVSPropertyOp2
 70
     1
102
RTVSPropertyOp3
 70
     1
102
RTVSPropertyOp4
 70
     1
102
RTVSPropertyOp5
 70
     1
102
RTVSPropertyOp6
 70
     1
102
RTVSPropertyOp7
 70
     1
102
RTVSPropertyOp8
 70
     1
102
RTVSPropertyOp9
 70
     1
102
RTVSPropertyOp10
 70
     1
102
RTVSPropertyOp11
 70
     1
102
RTVSPropertyOp12
 70
     1
102
RTVSPropertyOp13
 70
     1
102
RTVSPropertyOp14
 70
     1
102
RTVSPropertyOp15
 70
     1
102
RTVSPropertyOp16
 70
     1
102
RTVSPropertyOp17
 70
     1
102
RTVSPropertyOp18
 70
     1
102
RTVSPropertyOp19
 70
     1
102
RTVSPropertyOp20
 70
     1
102
RTVSPropertyOp21
 70
     1
102
RTVSPropertyOp22
 70
     1
102
RTVSPropertyOp23
 70
     1
102
RTVSPropertyOp24
 70
     1
102
RTVSPropertyOp25
 70
     1
102
RTVSPropertyOp26
 70
     1
102
RTVSPropertyOp27
 70
     1
102
RTVSPropertyOp28
 70
     1
102
RTVSPropertyOp29
 70
     1
102
RTVSPropertyOp30
 70
     1
102
RTVSPropertyOp31
 70
     1
102
RTVSPropertyOp32
 70
     1
102
RTVSPropertyOp33
 70
     1
102
RTVSPropertyOp34
 70
     1
102
RTVSPropertyOp35
 70
     1
102
RTVSPropertyOp36
 70
     1
102
RTVSPropertyOp37
 70
     1
102
RTVSPropertyOp38
 70
     1
102
RTVSPropertyOp39
 70
     1
102
RTVSPropertyOp40
 70
     1
102
RTVSPropertyOp41
 70
     1
102
RTVSPropertyOp42
 70
     1
102
RTVSPropertyOp43
 70
     1
102
RTVSPropertyOp44
 70
     1
102
RTVSPropertyOp45
 70
     1
102
RTVSPropertyOp46
 70
     1
102
RTVSPropertyOp47
 70
     1
102
RTVSPropertyOp48
 70
     1
102
RTVSPropertyOp49
 70
     1
102
RTVSPropertyOp50
 70
     1
102
RTVSPropertyOp51
 70
     0
102
RTVSPropertyOp52
 70
     0
102
RTVSPropertyOp53
 70
     1
102
RTVSPropertyOp54
 70
     1
102
RTVSPropertyOp55
 70
     1
102
RTVSPropertyOp56
 70
     1
102
RTVSPropertyOp57
 70
     1
102
RTVSPropertyOp58
 70
     1
102
RTVSPropertyOp59
 70
     1
102
RTVSPropertyOp60
 70
     1
102
RTVSPropertyOp61
 70
     1
102
RTVSPropertyOp62
 70
     1
  0
XRECORD
  5
B484
102
{ACAD_REACTORS
330
B483
102
}
330
B483
100
AcDbXrecord
280
     1
102
RTVSPost2010Prop28
280
     0
102
RTVSPost2010PropOp28
 70
     1
102
RTVSPost2010Prop29
280
     1
102
RTVSPost2010PropOp29
 70
     1
102
RTVSPost2010Prop30
280
     1
102
RTVSPost2010PropOp30
 70
     1
102
RTVSPost2010Prop31
280
     0
102
RTVSPost2010PropOp31
 70
     1
102
RTVSPost2010Prop32
280
     0
102
RTVSPost2010PropOp32
 70
     1
102
RTVSPost2010Prop33
280
     0
102
RTVSPost2010PropOp33
 70
     1
102
RTVSPost2010Prop34
280
     0
102
RTVSPost2010PropOp34
 70
     1
102
RTVSPost2010Prop35
280
     0
102
RTVSPost2010PropOp35
 70
     1
102
RTVSPost2010Prop36
280
     0
102
RTVSPost2010PropOp36
 70
     1
102
RTVSPost2010Prop37
 90
       50
102
RTVSPost2010PropOp37
 70
     1
102
RTVSPost2010Prop38
140
0.0
102
RTVSPost2010PropOp38
 70
     1
102
RTVSPost2010Prop39
140
1.0
102
RTVSPost2010PropOp39
 70
     1
102
RTVSPost2010Prop40
 90
        0
102
RTVSPost2010PropOp40
 70
     1
102
RTVSPost2010Prop41ColorIndex
 90
       18
102
RTVSPost2010Prop41ColorRGB
 90
        0
102
RTVSPost2010PropOp41
 70
     1
102
RTVSPost2010Prop42
 90
       50
102
RTVSPost2010PropOp42
 70
     1
102
RTVSPost2010Prop43
 90
        3
102
RTVSPost2010PropOp43
 70
     1
102
RTVSPost2010Prop44ColorIndex
 90
        5
102
RTVSPost2010Prop44ColorRGB
 90
      255
102
RTVSPost2010PropOp44
 70
     1
102
RTVSPost2010Prop45
280
     0
102
RTVSPost2010PropOp45
 70
     1
102
RTVSPost2010Prop46
 90
       50
102
RTVSPost2010PropOp46
 70
     1
102
RTVSPost2010Prop47
 90
       50
102
RTVSPost2010PropOp47
 70
     1
102
RTVSPost2010Prop48
 90
       50
102
RTVSPost2010PropOp48
 70
     1
102
RTVSPost2010Prop49
280
     0
102
RTVSPost2010PropOp49
 70
     1
102
RTVSPost2010Prop50
 90
       50
102
RTVSPost2010PropOp50
 70
     1
102
RTVSPost2010Prop51ColorIndex
 90
      256
102
RTVSPost2010Prop51ColorRGB
 90
-16777216
102
RTVSPost2010PropOp51
 70
     0
102
RTVSPost2010Prop52
140
1.0
102
RTVSPost2010PropOp52
 70
     0
102
RTVSPost2010Prop53
 90
        2
102
RTVSPost2010PropOp53
 70
     1
102
RTVSPost2010Prop54
  1
strokes_ogs.tif
102
RTVSPost2010PropOp54
 70
     1
102
RTVSPost2010Prop55
280
     0
102
RTVSPost2010PropOp55
 70
     1
102
RTVSPost2010Prop56
140
1.0
102
RTVSPost2010PropOp56
 70
     1
102
RTVSPost2010Prop57
140
1.0
102
RTVSPost2010PropOp57
 70
     1
102
RTVSPropertyOp0
 70
     1
102
RTVSPropertyOp1
 70
     1
102
RTVSPropertyOp2
 70
     1
102
RTVSPropertyOp3
 70
     1
102
RTVSPropertyOp4
 70
     1
102
RTVSPropertyOp5
 70
     1
102
RTVSPropertyOp6
 70
     1
102
RTVSPropertyOp7
 70
     1
102
RTVSPropertyOp8
 70
     1
102
RTVSPropertyOp9
 70
     1
102
RTVSPropertyOp10
 70
     1
102
RTVSPropertyOp11
 70
     1
102
RTVSPropertyOp12
 70
     1
102
RTVSPropertyOp13
 70
     1
102
RTVSPropertyOp14
 70
     1
102
RTVSPropertyOp15
 70
     1
102
RTVSPropertyOp16
 70
     1
102
RTVSPropertyOp17
 70
     1
102
RTVSPropertyOp18
 70
     1
102
RTVSPropertyOp19
 70
     1
102
RTVSPropertyOp20
 70
     1
102
RTVSPropertyOp21
 70
     1
102
RTVSPropertyOp22
 70
     1
102
RTVSPropertyOp23
 70
     1
102
RTVSPropertyOp24
 70
     1
102
RTVSPropertyOp25
 70
     1
102
RTVSPropertyOp26
 70
     1
102
RTVSPropertyOp27
 70
     1
102
RTVSPropertyOp28
 70
     1
102
RTVSPropertyOp29
 70
     1
102
RTVSPropertyOp30
 70
     1
102
RTVSPropertyOp31
 70
     1
102
RTVSPropertyOp32
 70
     1
102
RTVSPropertyOp33
 70
     1
102
RTVSPropertyOp34
 70
     1
102
RTVSPropertyOp35
 70
     1
102
RTVSPropertyOp36
 70
     1
102
RTVSPropertyOp37
 70
     1
102
RTVSPropertyOp38
 70
     1
102
RTVSPropertyOp39
 70
     1
102
RTVSPropertyOp40
 70
     1
102
RTVSPropertyOp41
 70
     1
102
RTVSPropertyOp42
 70
     1
102
RTVSPropertyOp43
 70
     1
102
RTVSPropertyOp44
 70
     1
102
RTVSPropertyOp45
 70
     1
102
RTVSPropertyOp46
 70
     1
102
RTVSPropertyOp47
 70
     1
102
RTVSPropertyOp48
 70
     1
102
RTVSPropertyOp49
 70
     1
102
RTVSPropertyOp50
 70
     1
102
RTVSPropertyOp51
 70
     0
102
RTVSPropertyOp52
 70
     0
102
RTVSPropertyOp53
 70
     1
102
RTVSPropertyOp54
 70
     1
102
RTVSPropertyOp55
 70
     1
102
RTVSPropertyOp56
 70
     1
102
RTVSPropertyOp57
 70
     1
102
RTVSPropertyOp58
 70
     1
102
RTVSPropertyOp59
 70
     1
102
RTVSPropertyOp60
 70
     1
102
RTVSPropertyOp61
 70
     1
102
RTVSPropertyOp62
 70
     1
  0
XRECORD
  5
B492
102
{ACAD_REACTORS
330
B491
102
}
330
B491
100
AcDbXrecord
280
     1
102
RTVSPost2010Prop28
280
     0
102
RTVSPost2010PropOp28
 70
     1
102
RTVSPost2010Prop29
280
     1
102
RTVSPost2010PropOp29
 70
     1
102
RTVSPost2010Prop30
280
     1
102
RTVSPost2010PropOp30
 70
     1
102
RTVSPost2010Prop31
280
     0
102
RTVSPost2010PropOp31
 70
     1
102
RTVSPost2010Prop32
280
     0
102
RTVSPost2010PropOp32
 70
     1
102
RTVSPost2010Prop33
280
     0
102
RTVSPost2010PropOp33
 70
     1
102
RTVSPost2010Prop34
280
     0
102
RTVSPost2010PropOp34
 70
     1
102
RTVSPost2010Prop35
280
     0
102
RTVSPost2010PropOp35
 70
     1
102
RTVSPost2010Prop36
280
     0
102
RTVSPost2010PropOp36
 70
     1
102
RTVSPost2010Prop37
 90
       50
102
RTVSPost2010PropOp37
 70
     1
102
RTVSPost2010Prop38
140
0.0
102
RTVSPost2010PropOp38
 70
     1
102
RTVSPost2010Prop39
140
1.0
102
RTVSPost2010PropOp39
 70
     1
102
RTVSPost2010Prop40
 90
        0
102
RTVSPost2010PropOp40
 70
     1
102
RTVSPost2010Prop41ColorIndex
 90
       18
102
RTVSPost2010Prop41ColorRGB
 90
        0
102
RTVSPost2010PropOp41
 70
     1
102
RTVSPost2010Prop42
 90
       50
102
RTVSPost2010PropOp42
 70
     1
102
RTVSPost2010Prop43
 90
        3
102
RTVSPost2010PropOp43
 70
     1
102
RTVSPost2010Prop44ColorIndex
 90
        5
102
RTVSPost2010Prop44ColorRGB
 90
      255
102
RTVSPost2010PropOp44
 70
     1
102
RTVSPost2010Prop45
280
     0
102
RTVSPost2010PropOp45
 70
     1
102
RTVSPost2010Prop46
 90
       50
102
RTVSPost2010PropOp46
 70
     1
102
RTVSPost2010Prop47
 90
       50
102
RTVSPost2010PropOp47
 70
     1
102
RTVSPost2010Prop48
 90
       50
102
RTVSPost2010PropOp48
 70
     1
102
RTVSPost2010Prop49
280
     0
102
RTVSPost2010PropOp49
 70
     1
102
RTVSPost2010Prop50
 90
       50
102
RTVSPost2010PropOp50
 70
     1
102
RTVSPost2010Prop51ColorIndex
 90
      256
102
RTVSPost2010Prop51ColorRGB
 90
-16777216
102
RTVSPost2010PropOp51
 70
     0
102
RTVSPost2010Prop52
140
1.0
102
RTVSPost2010PropOp52
 70
     0
102
RTVSPost2010Prop53
 90
        2
102
RTVSPost2010PropOp53
 70
     1
102
RTVSPost2010Prop54
  1
strokes_ogs.tif
102
RTVSPost2010PropOp54
 70
     1
102
RTVSPost2010Prop55
280
     0
102
RTVSPost2010PropOp55
 70
     1
102
RTVSPost2010Prop56
140
1.0
102
RTVSPost2010PropOp56
 70
     1
102
RTVSPost2010Prop57
140
1.0
102
RTVSPost2010PropOp57
 70
     1
102
RTVSPropertyOp0
 70
     1
102
RTVSPropertyOp1
 70
     1
102
RTVSPropertyOp2
 70
     1
102
RTVSPropertyOp3
 70
     1
102
RTVSPropertyOp4
 70
     1
102
RTVSPropertyOp5
 70
     1
102
RTVSPropertyOp6
 70
     1
102
RTVSPropertyOp7
 70
     1
102
RTVSPropertyOp8
 70
     1
102
RTVSPropertyOp9
 70
     1
102
RTVSPropertyOp10
 70
     1
102
RTVSPropertyOp11
 70
     1
102
RTVSPropertyOp12
 70
     1
102
RTVSPropertyOp13
 70
     1
102
RTVSPropertyOp14
 70
     1
102
RTVSPropertyOp15
 70
     1
102
RTVSPropertyOp16
 70
     1
102
RTVSPropertyOp17
 70
     1
102
RTVSPropertyOp18
 70
     1
102
RTVSPropertyOp19
 70
     1
102
RTVSPropertyOp20
 70
     1
102
RTVSPropertyOp21
 70
     1
102
RTVSPropertyOp22
 70
     1
102
RTVSPropertyOp23
 70
     1
102
RTVSPropertyOp24
 70
     1
102
RTVSPropertyOp25
 70
     1
102
RTVSPropertyOp26
 70
     1
102
RTVSPropertyOp27
 70
     1
102
RTVSPropertyOp28
 70
     1
102
RTVSPropertyOp29
 70
     1
102
RTVSPropertyOp30
 70
     1
102
RTVSPropertyOp31
 70
     1
102
RTVSPropertyOp32
 70
     1
102
RTVSPropertyOp33
 70
     1
102
RTVSPropertyOp34
 70
     1
102
RTVSPropertyOp35
 70
     1
102
RTVSPropertyOp36
 70
     1
102
RTVSPropertyOp37
 70
     1
102
RTVSPropertyOp38
 70
     1
102
RTVSPropertyOp39
 70
     1
102
RTVSPropertyOp40
 70
     1
102
RTVSPropertyOp41
 70
     1
102
RTVSPropertyOp42
 70
     1
102
RTVSPropertyOp43
 70
     1
102
RTVSPropertyOp44
 70
     1
102
RTVSPropertyOp45
 70
     1
102
RTVSPropertyOp46
 70
     1
102
RTVSPropertyOp47
 70
     1
102
RTVSPropertyOp48
 70
     1
102
RTVSPropertyOp49
 70
     1
102
RTVSPropertyOp50
 70
     1
102
RTVSPropertyOp51
 70
     0
102
RTVSPropertyOp52
 70
     0
102
RTVSPropertyOp53
 70
     1
102
RTVSPropertyOp54
 70
     1
102
RTVSPropertyOp55
 70
     1
102
RTVSPropertyOp56
 70
     1
102
RTVSPropertyOp57
 70
     1
102
RTVSPropertyOp58
 70
     1
102
RTVSPropertyOp59
 70
     1
102
RTVSPropertyOp60
 70
     1
102
RTVSPropertyOp61
 70
     1
102
RTVSPropertyOp62
 70
     1
  0
XRECORD
  5
B49A
102
{ACAD_REACTORS
330
B499
102
}
330
B499
100
AcDbXrecord
280
     1
102
RTVSPost2010Prop28
280
     0
102
RTVSPost2010PropOp28
 70
     1
102
RTVSPost2010Prop29
280
     1
102
RTVSPost2010PropOp29
 70
     1
102
RTVSPost2010Prop30
280
     1
102
RTVSPost2010PropOp30
 70
     1
102
RTVSPost2010Prop31
280
     0
102
RTVSPost2010PropOp31
 70
     1
102
RTVSPost2010Prop32
280
     0
102
RTVSPost2010PropOp32
 70
     1
102
RTVSPost2010Prop33
280
     0
102
RTVSPost2010PropOp33
 70
     1
102
RTVSPost2010Prop34
280
     0
102
RTVSPost2010PropOp34
 70
     1
102
RTVSPost2010Prop35
280
     0
102
RTVSPost2010PropOp35
 70
     1
102
RTVSPost2010Prop36
280
     0
102
RTVSPost2010PropOp36
 70
     1
102
RTVSPost2010Prop37
 90
       50
102
RTVSPost2010PropOp37
 70
     1
102
RTVSPost2010Prop38
140
0.0
102
RTVSPost2010PropOp38
 70
     1
102
RTVSPost2010Prop39
140
1.0
102
RTVSPost2010PropOp39
 70
     1
102
RTVSPost2010Prop40
 90
        0
102
RTVSPost2010PropOp40
 70
     1
102
RTVSPost2010Prop41ColorIndex
 90
       18
102
RTVSPost2010Prop41ColorRGB
 90
        0
102
RTVSPost2010PropOp41
 70
     1
102
RTVSPost2010Prop42
 90
       50
102
RTVSPost2010PropOp42
 70
     1
102
RTVSPost2010Prop43
 90
        3
102
RTVSPost2010PropOp43
 70
     1
102
RTVSPost2010Prop44ColorIndex
 90
        5
102
RTVSPost2010Prop44ColorRGB
 90
      255
102
RTVSPost2010PropOp44
 70
     1
102
RTVSPost2010Prop45
280
     0
102
RTVSPost2010PropOp45
 70
     1
102
RTVSPost2010Prop46
 90
       50
102
RTVSPost2010PropOp46
 70
     1
102
RTVSPost2010Prop47
 90
       50
102
RTVSPost2010PropOp47
 70
     1
102
RTVSPost2010Prop48
 90
       50
102
RTVSPost2010PropOp48
 70
     1
102
RTVSPost2010Prop49
280
     0
102
RTVSPost2010PropOp49
 70
     1
102
RTVSPost2010Prop50
 90
       50
102
RTVSPost2010PropOp50
 70
     1
102
RTVSPost2010Prop51ColorIndex
 90
      256
102
RTVSPost2010Prop51ColorRGB
 90
-16777216
102
RTVSPost2010PropOp51
 70
     0
102
RTVSPost2010Prop52
140
1.0
102
RTVSPost2010PropOp52
 70
     0
102
RTVSPost2010Prop53
 90
        2
102
RTVSPost2010PropOp53
 70
     1
102
RTVSPost2010Prop54
  1
strokes_ogs.tif
102
RTVSPost2010PropOp54
 70
     1
102
RTVSPost2010Prop55
280
     0
102
RTVSPost2010PropOp55
 70
     1
102
RTVSPost2010Prop56
140
1.0
102
RTVSPost2010PropOp56
 70
     1
102
RTVSPost2010Prop57
140
1.0
102
RTVSPost2010PropOp57
 70
     1
102
RTVSPropertyOp0
 70
     1
102
RTVSPropertyOp1
 70
     1
102
RTVSPropertyOp2
 70
     1
102
RTVSPropertyOp3
 70
     1
102
RTVSPropertyOp4
 70
     1
102
RTVSPropertyOp5
 70
     1
102
RTVSPropertyOp6
 70
     1
102
RTVSPropertyOp7
 70
     1
102
RTVSPropertyOp8
 70
     1
102
RTVSPropertyOp9
 70
     1
102
RTVSPropertyOp10
 70
     1
102
RTVSPropertyOp11
 70
     1
102
RTVSPropertyOp12
 70
     1
102
RTVSPropertyOp13
 70
     1
102
RTVSPropertyOp14
 70
     1
102
RTVSPropertyOp15
 70
     1
102
RTVSPropertyOp16
 70
     1
102
RTVSPropertyOp17
 70
     1
102
RTVSPropertyOp18
 70
     1
102
RTVSPropertyOp19
 70
     1
102
RTVSPropertyOp20
 70
     1
102
RTVSPropertyOp21
 70
     1
102
RTVSPropertyOp22
 70
     1
102
RTVSPropertyOp23
 70
     1
102
RTVSPropertyOp24
 70
     1
102
RTVSPropertyOp25
 70
     1
102
RTVSPropertyOp26
 70
     1
102
RTVSPropertyOp27
 70
     1
102
RTVSPropertyOp28
 70
     1
102
RTVSPropertyOp29
 70
     1
102
RTVSPropertyOp30
 70
     1
102
RTVSPropertyOp31
 70
     1
102
RTVSPropertyOp32
 70
     1
102
RTVSPropertyOp33
 70
     1
102
RTVSPropertyOp34
 70
     1
102
RTVSPropertyOp35
 70
     1
102
RTVSPropertyOp36
 70
     1
102
RTVSPropertyOp37
 70
     1
102
RTVSPropertyOp38
 70
     1
102
RTVSPropertyOp39
 70
     1
102
RTVSPropertyOp40
 70
     1
102
RTVSPropertyOp41
 70
     1
102
RTVSPropertyOp42
 70
     1
102
RTVSPropertyOp43
 70
     1
102
RTVSPropertyOp44
 70
     1
102
RTVSPropertyOp45
 70
     1
102
RTVSPropertyOp46
 70
     1
102
RTVSPropertyOp47
 70
     1
102
RTVSPropertyOp48
 70
     1
102
RTVSPropertyOp49
 70
     1
102
RTVSPropertyOp50
 70
     1
102
RTVSPropertyOp51
 70
     0
102
RTVSPropertyOp52
 70
     0
102
RTVSPropertyOp53
 70
     1
102
RTVSPropertyOp54
 70
     1
102
RTVSPropertyOp55
 70
     1
102
RTVSPropertyOp56
 70
     1
102
RTVSPropertyOp57
 70
     1
102
RTVSPropertyOp58
 70
     1
102
RTVSPropertyOp59
 70
     1
102
RTVSPropertyOp60
 70
     1
102
RTVSPropertyOp61
 70
     1
102
RTVSPropertyOp62
 70
     1
  0
XRECORD
  5
B48C
102
{ACAD_REACTORS
330
B48B
102
}
330
B48B
100
AcDbXrecord
280
     1
102
RTVSPost2010Prop28
280
     0
102
RTVSPost2010PropOp28
 70
     1
102
RTVSPost2010Prop29
280
     1
102
RTVSPost2010PropOp29
 70
     1
102
RTVSPost2010Prop30
280
     1
102
RTVSPost2010PropOp30
 70
     1
102
RTVSPost2010Prop31
280
     0
102
RTVSPost2010PropOp31
 70
     1
102
RTVSPost2010Prop32
280
     0
102
RTVSPost2010PropOp32
 70
     1
102
RTVSPost2010Prop33
280
     0
102
RTVSPost2010PropOp33
 70
     1
102
RTVSPost2010Prop34
280
     0
102
RTVSPost2010PropOp34
 70
     1
102
RTVSPost2010Prop35
280
     0
102
RTVSPost2010PropOp35
 70
     1
102
RTVSPost2010Prop36
280
     0
102
RTVSPost2010PropOp36
 70
     1
102
RTVSPost2010Prop37
 90
       50
102
RTVSPost2010PropOp37
 70
     1
102
RTVSPost2010Prop38
140
0.0
102
RTVSPost2010PropOp38
 70
     1
102
RTVSPost2010Prop39
140
1.0
102
RTVSPost2010PropOp39
 70
     1
102
RTVSPost2010Prop40
 90
        0
102
RTVSPost2010PropOp40
 70
     1
102
RTVSPost2010Prop41ColorIndex
 90
       18
102
RTVSPost2010Prop41ColorRGB
 90
        0
102
RTVSPost2010PropOp41
 70
     1
102
RTVSPost2010Prop42
 90
       50
102
RTVSPost2010PropOp42
 70
     1
102
RTVSPost2010Prop43
 90
        3
102
RTVSPost2010PropOp43
 70
     1
102
RTVSPost2010Prop44ColorIndex
 90
        5
102
RTVSPost2010Prop44ColorRGB
 90
      255
102
RTVSPost2010PropOp44
 70
     1
102
RTVSPost2010Prop45
280
     0
102
RTVSPost2010PropOp45
 70
     1
102
RTVSPost2010Prop46
 90
       50
102
RTVSPost2010PropOp46
 70
     1
102
RTVSPost2010Prop47
 90
       50
102
RTVSPost2010PropOp47
 70
     1
102
RTVSPost2010Prop48
 90
       50
102
RTVSPost2010PropOp48
 70
     1
102
RTVSPost2010Prop49
280
     0
102
RTVSPost2010PropOp49
 70
     1
102
RTVSPost2010Prop50
 90
       50
102
RTVSPost2010PropOp50
 70
     1
102
RTVSPost2010Prop51ColorIndex
 90
      256
102
RTVSPost2010Prop51ColorRGB
 90
-16777216
102
RTVSPost2010PropOp51
 70
     0
102
RTVSPost2010Prop52
140
1.0
102
RTVSPost2010PropOp52
 70
     0
102
RTVSPost2010Prop53
 90
        2
102
RTVSPost2010PropOp53
 70
     1
102
RTVSPost2010Prop54
  1
strokes_ogs.tif
102
RTVSPost2010PropOp54
 70
     1
102
RTVSPost2010Prop55
280
     0
102
RTVSPost2010PropOp55
 70
     1
102
RTVSPost2010Prop56
140
1.0
102
RTVSPost2010PropOp56
 70
     1
102
RTVSPost2010Prop57
140
1.0
102
RTVSPost2010PropOp57
 70
     1
102
RTVSPropertyOp0
 70
     1
102
RTVSPropertyOp1
 70
     1
102
RTVSPropertyOp2
 70
     1
102
RTVSPropertyOp3
 70
     1
102
RTVSPropertyOp4
 70
     1
102
RTVSPropertyOp5
 70
     1
102
RTVSPropertyOp6
 70
     1
102
RTVSPropertyOp7
 70
     1
102
RTVSPropertyOp8
 70
     1
102
RTVSPropertyOp9
 70
     1
102
RTVSPropertyOp10
 70
     1
102
RTVSPropertyOp11
 70
     1
102
RTVSPropertyOp12
 70
     1
102
RTVSPropertyOp13
 70
     1
102
RTVSPropertyOp14
 70
     1
102
RTVSPropertyOp15
 70
     1
102
RTVSPropertyOp16
 70
     1
102
RTVSPropertyOp17
 70
     1
102
RTVSPropertyOp18
 70
     1
102
RTVSPropertyOp19
 70
     1
102
RTVSPropertyOp20
 70
     1
102
RTVSPropertyOp21
 70
     1
102
RTVSPropertyOp22
 70
     1
102
RTVSPropertyOp23
 70
     1
102
RTVSPropertyOp24
 70
     1
102
RTVSPropertyOp25
 70
     1
102
RTVSPropertyOp26
 70
     1
102
RTVSPropertyOp27
 70
     1
102
RTVSPropertyOp28
 70
     1
102
RTVSPropertyOp29
 70
     1
102
RTVSPropertyOp30
 70
     1
102
RTVSPropertyOp31
 70
     1
102
RTVSPropertyOp32
 70
     1
102
RTVSPropertyOp33
 70
     1
102
RTVSPropertyOp34
 70
     1
102
RTVSPropertyOp35
 70
     1
102
RTVSPropertyOp36
 70
     1
102
RTVSPropertyOp37
 70
     1
102
RTVSPropertyOp38
 70
     1
102
RTVSPropertyOp39
 70
     1
102
RTVSPropertyOp40
 70
     1
102
RTVSPropertyOp41
 70
     1
102
RTVSPropertyOp42
 70
     1
102
RTVSPropertyOp43
 70
     1
102
RTVSPropertyOp44
 70
     1
102
RTVSPropertyOp45
 70
     1
102
RTVSPropertyOp46
 70
     1
102
RTVSPropertyOp47
 70
     1
102
RTVSPropertyOp48
 70
     1
102
RTVSPropertyOp49
 70
     1
102
RTVSPropertyOp50
 70
     1
102
RTVSPropertyOp51
 70
     0
102
RTVSPropertyOp52
 70
     0
102
RTVSPropertyOp53
 70
     1
102
RTVSPropertyOp54
 70
     1
102
RTVSPropertyOp55
 70
     1
102
RTVSPropertyOp56
 70
     1
102
RTVSPropertyOp57
 70
     1
102
RTVSPropertyOp58
 70
     1
102
RTVSPropertyOp59
 70
     1
102
RTVSPropertyOp60
 70
     1
102
RTVSPropertyOp61
 70
     1
102
RTVSPropertyOp62
 70
     1
  0
XRECORD
  5
B490
102
{ACAD_REACTORS
330
B48F
102
}
330
B48F
100
AcDbXrecord
280
     1
102
RTVSPost2010Prop28
280
     0
102
RTVSPost2010PropOp28
 70
     1
102
RTVSPost2010Prop29
280
     1
102
RTVSPost2010PropOp29
 70
     1
102
RTVSPost2010Prop30
280
     1
102
RTVSPost2010PropOp30
 70
     1
102
RTVSPost2010Prop31
280
     0
102
RTVSPost2010PropOp31
 70
     1
102
RTVSPost2010Prop32
280
     0
102
RTVSPost2010PropOp32
 70
     1
102
RTVSPost2010Prop33
280
     0
102
RTVSPost2010PropOp33
 70
     1
102
RTVSPost2010Prop34
280
     0
102
RTVSPost2010PropOp34
 70
     1
102
RTVSPost2010Prop35
280
     0
102
RTVSPost2010PropOp35
 70
     1
102
RTVSPost2010Prop36
280
     0
102
RTVSPost2010PropOp36
 70
     1
102
RTVSPost2010Prop37
 90
       50
102
RTVSPost2010PropOp37
 70
     1
102
RTVSPost2010Prop38
140
0.0
102
RTVSPost2010PropOp38
 70
     1
102
RTVSPost2010Prop39
140
1.0
102
RTVSPost2010PropOp39
 70
     1
102
RTVSPost2010Prop40
 90
        0
102
RTVSPost2010PropOp40
 70
     1
102
RTVSPost2010Prop41ColorIndex
 90
       18
102
RTVSPost2010Prop41ColorRGB
 90
        0
102
RTVSPost2010PropOp41
 70
     1
102
RTVSPost2010Prop42
 90
       50
102
RTVSPost2010PropOp42
 70
     1
102
RTVSPost2010Prop43
 90
        3
102
RTVSPost2010PropOp43
 70
     1
102
RTVSPost2010Prop44ColorIndex
 90
        5
102
RTVSPost2010Prop44ColorRGB
 90
      255
102
RTVSPost2010PropOp44
 70
     1
102
RTVSPost2010Prop45
280
     0
102
RTVSPost2010PropOp45
 70
     1
102
RTVSPost2010Prop46
 90
       50
102
RTVSPost2010PropOp46
 70
     1
102
RTVSPost2010Prop47
 90
       50
102
RTVSPost2010PropOp47
 70
     1
102
RTVSPost2010Prop48
 90
       50
102
RTVSPost2010PropOp48
 70
     1
102
RTVSPost2010Prop49
280
     0
102
RTVSPost2010PropOp49
 70
     1
102
RTVSPost2010Prop50
 90
       50
102
RTVSPost2010PropOp50
 70
     1
102
RTVSPost2010Prop51ColorIndex
 90
      256
102
RTVSPost2010Prop51ColorRGB
 90
-16777216
102
RTVSPost2010PropOp51
 70
     0
102
RTVSPost2010Prop52
140
1.0
102
RTVSPost2010PropOp52
 70
     0
102
RTVSPost2010Prop53
 90
        2
102
RTVSPost2010PropOp53
 70
     1
102
RTVSPost2010Prop54
  1
strokes_ogs.tif
102
RTVSPost2010PropOp54
 70
     1
102
RTVSPost2010Prop55
280
     0
102
RTVSPost2010PropOp55
 70
     1
102
RTVSPost2010Prop56
140
1.0
102
RTVSPost2010PropOp56
 70
     1
102
RTVSPost2010Prop57
140
1.0
102
RTVSPost2010PropOp57
 70
     1
102
RTVSPropertyOp0
 70
     1
102
RTVSPropertyOp1
 70
     1
102
RTVSPropertyOp2
 70
     1
102
RTVSPropertyOp3
 70
     1
102
RTVSPropertyOp4
 70
     1
102
RTVSPropertyOp5
 70
     1
102
RTVSPropertyOp6
 70
     1
102
RTVSPropertyOp7
 70
     1
102
RTVSPropertyOp8
 70
     1
102
RTVSPropertyOp9
 70
     1
102
RTVSPropertyOp10
 70
     1
102
RTVSPropertyOp11
 70
     1
102
RTVSPropertyOp12
 70
     1
102
RTVSPropertyOp13
 70
     1
102
RTVSPropertyOp14
 70
     1
102
RTVSPropertyOp15
 70
     1
102
RTVSPropertyOp16
 70
     1
102
RTVSPropertyOp17
 70
     1
102
RTVSPropertyOp18
 70
     1
102
RTVSPropertyOp19
 70
     1
102
RTVSPropertyOp20
 70
     1
102
RTVSPropertyOp21
 70
     1
102
RTVSPropertyOp22
 70
     1
102
RTVSPropertyOp23
 70
     1
102
RTVSPropertyOp24
 70
     1
102
RTVSPropertyOp25
 70
     1
102
RTVSPropertyOp26
 70
     1
102
RTVSPropertyOp27
 70
     1
102
RTVSPropertyOp28
 70
     1
102
RTVSPropertyOp29
 70
     1
102
RTVSPropertyOp30
 70
     1
102
RTVSPropertyOp31
 70
     1
102
RTVSPropertyOp32
 70
     1
102
RTVSPropertyOp33
 70
     1
102
RTVSPropertyOp34
 70
     1
102
RTVSPropertyOp35
 70
     1
102
RTVSPropertyOp36
 70
     1
102
RTVSPropertyOp37
 70
     1
102
RTVSPropertyOp38
 70
     1
102
RTVSPropertyOp39
 70
     1
102
RTVSPropertyOp40
 70
     1
102
RTVSPropertyOp41
 70
     1
102
RTVSPropertyOp42
 70
     1
102
RTVSPropertyOp43
 70
     1
102
RTVSPropertyOp44
 70
     1
102
RTVSPropertyOp45
 70
     1
102
RTVSPropertyOp46
 70
     1
102
RTVSPropertyOp47
 70
     1
102
RTVSPropertyOp48
 70
     1
102
RTVSPropertyOp49
 70
     1
102
RTVSPropertyOp50
 70
     1
102
RTVSPropertyOp51
 70
     0
102
RTVSPropertyOp52
 70
     0
102
RTVSPropertyOp53
 70
     1
102
RTVSPropertyOp54
 70
     1
102
RTVSPropertyOp55
 70
     1
102
RTVSPropertyOp56
 70
     1
102
RTVSPropertyOp57
 70
     1
102
RTVSPropertyOp58
 70
     1
102
RTVSPropertyOp59
 70
     1
102
RTVSPropertyOp60
 70
     1
102
RTVSPropertyOp61
 70
     1
102
RTVSPropertyOp62
 70
     1
  0
XRECORD
  5
B4AA
102
{ACAD_REACTORS
330
B4A9
102
}
330
B4A9
100
AcDbXrecord
280
     1
102
RTVSPost2010Prop28
280
     0
102
RTVSPost2010PropOp28
 70
     1
102
RTVSPost2010Prop29
280
     1
102
RTVSPost2010PropOp29
 70
     1
102
RTVSPost2010Prop30
280
     1
102
RTVSPost2010PropOp30
 70
     1
102
RTVSPost2010Prop31
280
     0
102
RTVSPost2010PropOp31
 70
     1
102
RTVSPost2010Prop32
280
     0
102
RTVSPost2010PropOp32
 70
     1
102
RTVSPost2010Prop33
280
     0
102
RTVSPost2010PropOp33
 70
     1
102
RTVSPost2010Prop34
280
     0
102
RTVSPost2010PropOp34
 70
     1
102
RTVSPost2010Prop35
280
     0
102
RTVSPost2010PropOp35
 70
     1
102
RTVSPost2010Prop36
280
     0
102
RTVSPost2010PropOp36
 70
     1
102
RTVSPost2010Prop37
 90
       50
102
RTVSPost2010PropOp37
 70
     0
102
RTVSPost2010Prop38
140
0.0
102
RTVSPost2010PropOp38
 70
     0
102
RTVSPost2010Prop39
140
1.0
102
RTVSPost2010PropOp39
 70
     0
102
RTVSPost2010Prop40
 90
        0
102
RTVSPost2010PropOp40
 70
     0
102
RTVSPost2010Prop41ColorIndex
 90
       18
102
RTVSPost2010Prop41ColorRGB
 90
        0
102
RTVSPost2010PropOp41
 70
     0
102
RTVSPost2010Prop42
 90
       50
102
RTVSPost2010PropOp42
 70
     0
102
RTVSPost2010Prop43
 90
        3
102
RTVSPost2010PropOp43
 70
     0
102
RTVSPost2010Prop44ColorIndex
 90
        5
102
RTVSPost2010Prop44ColorRGB
 90
      255
102
RTVSPost2010PropOp44
 70
     0
102
RTVSPost2010Prop45
280
     0
102
RTVSPost2010PropOp45
 70
     1
102
RTVSPost2010Prop46
 90
       50
102
RTVSPost2010PropOp46
 70
     0
102
RTVSPost2010Prop47
 90
       50
102
RTVSPost2010PropOp47
 70
     0
102
RTVSPost2010Prop48
 90
       50
102
RTVSPost2010PropOp48
 70
     0
102
RTVSPost2010Prop49
280
     0
102
RTVSPost2010PropOp49
 70
     1
102
RTVSPost2010Prop50
 90
       50
102
RTVSPost2010PropOp50
 70
     0
102
RTVSPost2010Prop51ColorIndex
 90
      256
102
RTVSPost2010Prop51ColorRGB
 90
-16777216
102
RTVSPost2010PropOp51
 70
     0
102
RTVSPost2010Prop52
140
1.0
102
RTVSPost2010PropOp52
 70
     0
102
RTVSPost2010Prop53
 90
        2
102
RTVSPost2010PropOp53
 70
     0
102
RTVSPost2010Prop54
  1
strokes_ogs.tif
102
RTVSPost2010PropOp54
 70
     0
102
RTVSPost2010Prop55
280
     0
102
RTVSPost2010PropOp55
 70
     1
102
RTVSPost2010Prop56
140
1.0
102
RTVSPost2010PropOp56
 70
     0
102
RTVSPost2010Prop57
140
1.0
102
RTVSPost2010PropOp57
 70
     0
102
RTVSPropertyOp0
 70
     0
102
RTVSPropertyOp1
 70
     0
102
RTVSPropertyOp2
 70
     0
102
RTVSPropertyOp3
 70
     0
102
RTVSPropertyOp4
 70
     0
102
RTVSPropertyOp5
 70
     0
102
RTVSPropertyOp6
 70
     0
102
RTVSPropertyOp7
 70
     0
102
RTVSPropertyOp8
 70
     0
102
RTVSPropertyOp9
 70
     0
102
RTVSPropertyOp10
 70
     0
102
RTVSPropertyOp11
 70
     0
102
RTVSPropertyOp12
 70
     0
102
RTVSPropertyOp13
 70
     0
102
RTVSPropertyOp14
 70
     2
102
RTVSPropertyOp15
 70
     0
102
RTVSPropertyOp16
 70
     0
102
RTVSPropertyOp17
 70
     0
102
RTVSPropertyOp18
 70
     0
102
RTVSPropertyOp19
 70
     0
102
RTVSPropertyOp20
 70
     0
102
RTVSPropertyOp21
 70
     0
102
RTVSPropertyOp22
 70
     0
102
RTVSPropertyOp23
 70
     0
102
RTVSPropertyOp24
 70
     0
102
RTVSPropertyOp25
 70
     0
102
RTVSPropertyOp26
 70
     0
102
RTVSPropertyOp27
 70
     0
102
RTVSPropertyOp28
 70
     1
102
RTVSPropertyOp29
 70
     1
102
RTVSPropertyOp30
 70
     1
102
RTVSPropertyOp31
 70
     1
102
RTVSPropertyOp32
 70
     1
102
RTVSPropertyOp33
 70
     1
102
RTVSPropertyOp34
 70
     1
102
RTVSPropertyOp35
 70
     1
102
RTVSPropertyOp36
 70
     1
102
RTVSPropertyOp37
 70
     0
102
RTVSPropertyOp38
 70
     0
102
RTVSPropertyOp39
 70
     0
102
RTVSPropertyOp40
 70
     0
102
RTVSPropertyOp41
 70
     0
102
RTVSPropertyOp42
 70
     0
102
RTVSPropertyOp43
 70
     0
102
RTVSPropertyOp44
 70
     0
102
RTVSPropertyOp45
 70
     1
102
RTVSPropertyOp46
 70
     0
102
RTVSPropertyOp47
 70
     0
102
RTVSPropertyOp48
 70
     0
102
RTVSPropertyOp49
 70
     1
102
RTVSPropertyOp50
 70
     0
102
RTVSPropertyOp51
 70
     0
102
RTVSPropertyOp52
 70
     0
102
RTVSPropertyOp53
 70
     0
102
RTVSPropertyOp54
 70
     0
102
RTVSPropertyOp55
 70
     1
102
RTVSPropertyOp56
 70
     0
102
RTVSPropertyOp57
 70
     0
102
RTVSPropertyOp58
 70
     0
102
RTVSPropertyOp59
 70
     0
102
RTVSPropertyOp60
 70
     0
102
RTVSPropertyOp61
 70
     0
102
RTVSPropertyOp62
 70
     0
  0
XRECORD
  5
B498
102
{ACAD_REACTORS
330
B497
102
}
330
B497
100
AcDbXrecord
280
     1
102
RTVSPost2010Prop28
280
     0
102
RTVSPost2010PropOp28
 70
     1
102
RTVSPost2010Prop29
280
     1
102
RTVSPost2010PropOp29
 70
     1
102
RTVSPost2010Prop30
280
     1
102
RTVSPost2010PropOp30
 70
     1
102
RTVSPost2010Prop31
280
     0
102
RTVSPost2010PropOp31
 70
     1
102
RTVSPost2010Prop32
280
     0
102
RTVSPost2010PropOp32
 70
     1
102
RTVSPost2010Prop33
280
     0
102
RTVSPost2010PropOp33
 70
     1
102
RTVSPost2010Prop34
280
     0
102
RTVSPost2010PropOp34
 70
     1
102
RTVSPost2010Prop35
280
     0
102
RTVSPost2010PropOp35
 70
     1
102
RTVSPost2010Prop36
280
     0
102
RTVSPost2010PropOp36
 70
     1
102
RTVSPost2010Prop37
 90
       50
102
RTVSPost2010PropOp37
 70
     1
102
RTVSPost2010Prop38
140
0.0
102
RTVSPost2010PropOp38
 70
     1
102
RTVSPost2010Prop39
140
1.0
102
RTVSPost2010PropOp39
 70
     1
102
RTVSPost2010Prop40
 90
        0
102
RTVSPost2010PropOp40
 70
     1
102
RTVSPost2010Prop41ColorIndex
 90
       18
102
RTVSPost2010Prop41ColorRGB
 90
        0
102
RTVSPost2010PropOp41
 70
     1
102
RTVSPost2010Prop42
 90
       50
102
RTVSPost2010PropOp42
 70
     1
102
RTVSPost2010Prop43
 90
        3
102
RTVSPost2010PropOp43
 70
     1
102
RTVSPost2010Prop44ColorIndex
 90
        5
102
RTVSPost2010Prop44ColorRGB
 90
      255
102
RTVSPost2010PropOp44
 70
     1
102
RTVSPost2010Prop45
280
     0
102
RTVSPost2010PropOp45
 70
     1
102
RTVSPost2010Prop46
 90
       50
102
RTVSPost2010PropOp46
 70
     1
102
RTVSPost2010Prop47
 90
       50
102
RTVSPost2010PropOp47
 70
     1
102
RTVSPost2010Prop48
 90
       50
102
RTVSPost2010PropOp48
 70
     1
102
RTVSPost2010Prop49
280
     0
102
RTVSPost2010PropOp49
 70
     1
102
RTVSPost2010Prop50
 90
       50
102
RTVSPost2010PropOp50
 70
     1
102
RTVSPost2010Prop51ColorIndex
 90
      256
102
RTVSPost2010Prop51ColorRGB
 90
-16777216
102
RTVSPost2010PropOp51
 70
     0
102
RTVSPost2010Prop52
140
1.0
102
RTVSPost2010PropOp52
 70
     0
102
RTVSPost2010Prop53
 90
        2
102
RTVSPost2010PropOp53
 70
     1
102
RTVSPost2010Prop54
  1
strokes_ogs.tif
102
RTVSPost2010PropOp54
 70
     1
102
RTVSPost2010Prop55
280
     0
102
RTVSPost2010PropOp55
 70
     1
102
RTVSPost2010Prop56
140
1.0
102
RTVSPost2010PropOp56
 70
     1
102
RTVSPost2010Prop57
140
1.0
102
RTVSPost2010PropOp57
 70
     1
102
RTVSPropertyOp0
 70
     1
102
RTVSPropertyOp1
 70
     1
102
RTVSPropertyOp2
 70
     1
102
RTVSPropertyOp3
 70
     1
102
RTVSPropertyOp4
 70
     1
102
RTVSPropertyOp5
 70
     1
102
RTVSPropertyOp6
 70
     1
102
RTVSPropertyOp7
 70
     1
102
RTVSPropertyOp8
 70
     1
102
RTVSPropertyOp9
 70
     1
102
RTVSPropertyOp10
 70
     1
102
RTVSPropertyOp11
 70
     1
102
RTVSPropertyOp12
 70
     1
102
RTVSPropertyOp13
 70
     1
102
RTVSPropertyOp14
 70
     1
102
RTVSPropertyOp15
 70
     1
102
RTVSPropertyOp16
 70
     1
102
RTVSPropertyOp17
 70
     1
102
RTVSPropertyOp18
 70
     1
102
RTVSPropertyOp19
 70
     1
102
RTVSPropertyOp20
 70
     1
102
RTVSPropertyOp21
 70
     1
102
RTVSPropertyOp22
 70
     1
102
RTVSPropertyOp23
 70
     1
102
RTVSPropertyOp24
 70
     1
102
RTVSPropertyOp25
 70
     1
102
RTVSPropertyOp26
 70
     1
102
RTVSPropertyOp27
 70
     1
102
RTVSPropertyOp28
 70
     1
102
RTVSPropertyOp29
 70
     1
102
RTVSPropertyOp30
 70
     1
102
RTVSPropertyOp31
 70
     1
102
RTVSPropertyOp32
 70
     1
102
RTVSPropertyOp33
 70
     1
102
RTVSPropertyOp34
 70
     1
102
RTVSPropertyOp35
 70
     1
102
RTVSPropertyOp36
 70
     1
102
RTVSPropertyOp37
 70
     1
102
RTVSPropertyOp38
 70
     1
102
RTVSPropertyOp39
 70
     1
102
RTVSPropertyOp40
 70
     1
102
RTVSPropertyOp41
 70
     1
102
RTVSPropertyOp42
 70
     1
102
RTVSPropertyOp43
 70
     1
102
RTVSPropertyOp44
 70
     1
102
RTVSPropertyOp45
 70
     1
102
RTVSPropertyOp46
 70
     1
102
RTVSPropertyOp47
 70
     1
102
RTVSPropertyOp48
 70
     1
102
RTVSPropertyOp49
 70
     1
102
RTVSPropertyOp50
 70
     1
102
RTVSPropertyOp51
 70
     0
102
RTVSPropertyOp52
 70
     0
102
RTVSPropertyOp53
 70
     1
102
RTVSPropertyOp54
 70
     1
102
RTVSPropertyOp55
 70
     1
102
RTVSPropertyOp56
 70
     1
102
RTVSPropertyOp57
 70
     1
102
RTVSPropertyOp58
 70
     1
102
RTVSPropertyOp59
 70
     1
102
RTVSPropertyOp60
 70
     1
102
RTVSPropertyOp61
 70
     1
102
RTVSPropertyOp62
 70
     1
  0
XRECORD
  5
B47C
102
{ACAD_REACTORS
330
B47B
102
}
330
B47B
100
AcDbXrecord
280
     1
102
RTVSPost2010Prop28
280
     0
102
RTVSPost2010PropOp28
 70
     1
102
RTVSPost2010Prop29
280
     1
102
RTVSPost2010PropOp29
 70
     1
102
RTVSPost2010Prop30
280
     1
102
RTVSPost2010PropOp30
 70
     1
102
RTVSPost2010Prop31
280
     0
102
RTVSPost2010PropOp31
 70
     1
102
RTVSPost2010Prop32
280
     0
102
RTVSPost2010PropOp32
 70
     1
102
RTVSPost2010Prop33
280
     0
102
RTVSPost2010PropOp33
 70
     1
102
RTVSPost2010Prop34
280
     0
102
RTVSPost2010PropOp34
 70
     1
102
RTVSPost2010Prop35
280
     0
102
RTVSPost2010PropOp35
 70
     1
102
RTVSPost2010Prop36
280
     0
102
RTVSPost2010PropOp36
 70
     1
102
RTVSPost2010Prop37
 90
       50
102
RTVSPost2010PropOp37
 70
     1
102
RTVSPost2010Prop38
140
0.0
102
RTVSPost2010PropOp38
 70
     1
102
RTVSPost2010Prop39
140
1.0
102
RTVSPost2010PropOp39
 70
     1
102
RTVSPost2010Prop40
 90
        0
102
RTVSPost2010PropOp40
 70
     1
102
RTVSPost2010Prop41ColorIndex
 90
       18
102
RTVSPost2010Prop41ColorRGB
 90
        0
102
RTVSPost2010PropOp41
 70
     1
102
RTVSPost2010Prop42
 90
       50
102
RTVSPost2010PropOp42
 70
     1
102
RTVSPost2010Prop43
 90
        3
102
RTVSPost2010PropOp43
 70
     1
102
RTVSPost2010Prop44ColorIndex
 90
        5
102
RTVSPost2010Prop44ColorRGB
 90
      255
102
RTVSPost2010PropOp44
 70
     1
102
RTVSPost2010Prop45
280
     0
102
RTVSPost2010PropOp45
 70
     1
102
RTVSPost2010Prop46
 90
       50
102
RTVSPost2010PropOp46
 70
     1
102
RTVSPost2010Prop47
 90
       50
102
RTVSPost2010PropOp47
 70
     1
102
RTVSPost2010Prop48
 90
       50
102
RTVSPost2010PropOp48
 70
     1
102
RTVSPost2010Prop49
280
     0
102
RTVSPost2010PropOp49
 70
     1
102
RTVSPost2010Prop50
 90
       50
102
RTVSPost2010PropOp50
 70
     1
102
RTVSPost2010Prop51ColorIndex
 90
      256
102
RTVSPost2010Prop51ColorRGB
 90
-16777216
102
RTVSPost2010PropOp51
 70
     0
102
RTVSPost2010Prop52
140
1.0
102
RTVSPost2010PropOp52
 70
     0
102
RTVSPost2010Prop53
 90
        2
102
RTVSPost2010PropOp53
 70
     1
102
RTVSPost2010Prop54
  1
strokes_ogs.tif
102
RTVSPost2010PropOp54
 70
     1
102
RTVSPost2010Prop55
280
     0
102
RTVSPost2010PropOp55
 70
     1
102
RTVSPost2010Prop56
140
1.0
102
RTVSPost2010PropOp56
 70
     1
102
RTVSPost2010Prop57
140
1.0
102
RTVSPost2010PropOp57
 70
     1
102
RTVSPropertyOp0
 70
     1
102
RTVSPropertyOp1
 70
     1
102
RTVSPropertyOp2
 70
     1
102
RTVSPropertyOp3
 70
     1
102
RTVSPropertyOp4
 70
     1
102
RTVSPropertyOp5
 70
     1
102
RTVSPropertyOp6
 70
     1
102
RTVSPropertyOp7
 70
     1
102
RTVSPropertyOp8
 70
     1
102
RTVSPropertyOp9
 70
     1
102
RTVSPropertyOp10
 70
     1
102
RTVSPropertyOp11
 70
     1
102
RTVSPropertyOp12
 70
     1
102
RTVSPropertyOp13
 70
     1
102
RTVSPropertyOp14
 70
     1
102
RTVSPropertyOp15
 70
     1
102
RTVSPropertyOp16
 70
     1
102
RTVSPropertyOp17
 70
     1
102
RTVSPropertyOp18
 70
     1
102
RTVSPropertyOp19
 70
     1
102
RTVSPropertyOp20
 70
     1
102
RTVSPropertyOp21
 70
     1
102
RTVSPropertyOp22
 70
     1
102
RTVSPropertyOp23
 70
     1
102
RTVSPropertyOp24
 70
     1
102
RTVSPropertyOp25
 70
     1
102
RTVSPropertyOp26
 70
     1
102
RTVSPropertyOp27
 70
     1
102
RTVSPropertyOp28
 70
     1
102
RTVSPropertyOp29
 70
     1
102
RTVSPropertyOp30
 70
     1
102
RTVSPropertyOp31
 70
     1
102
RTVSPropertyOp32
 70
     1
102
RTVSPropertyOp33
 70
     1
102
RTVSPropertyOp34
 70
     1
102
RTVSPropertyOp35
 70
     1
102
RTVSPropertyOp36
 70
     1
102
RTVSPropertyOp37
 70
     1
102
RTVSPropertyOp38
 70
     1
102
RTVSPropertyOp39
 70
     1
102
RTVSPropertyOp40
 70
     1
102
RTVSPropertyOp41
 70
     1
102
RTVSPropertyOp42
 70
     1
102
RTVSPropertyOp43
 70
     1
102
RTVSPropertyOp44
 70
     1
102
RTVSPropertyOp45
 70
     1
102
RTVSPropertyOp46
 70
     1
102
RTVSPropertyOp47
 70
     1
102
RTVSPropertyOp48
 70
     1
102
RTVSPropertyOp49
 70
     1
102
RTVSPropertyOp50
 70
     1
102
RTVSPropertyOp51
 70
     0
102
RTVSPropertyOp52
 70
     0
102
RTVSPropertyOp53
 70
     1
102
RTVSPropertyOp54
 70
     1
102
RTVSPropertyOp55
 70
     1
102
RTVSPropertyOp56
 70
     1
102
RTVSPropertyOp57
 70
     1
102
RTVSPropertyOp58
 70
     1
102
RTVSPropertyOp59
 70
     1
102
RTVSPropertyOp60
 70
     1
102
RTVSPropertyOp61
 70
     1
102
RTVSPropertyOp62
 70
     1
  0
XRECORD
  5
B47E
102
{ACAD_REACTORS
330
B47D
102
}
330
B47D
100
AcDbXrecord
280
     1
102
RTVSPost2010Prop28
280
     0
102
RTVSPost2010PropOp28
 70
     1
102
RTVSPost2010Prop29
280
     1
102
RTVSPost2010PropOp29
 70
     1
102
RTVSPost2010Prop30
280
     1
102
RTVSPost2010PropOp30
 70
     1
102
RTVSPost2010Prop31
280
     0
102
RTVSPost2010PropOp31
 70
     1
102
RTVSPost2010Prop32
280
     0
102
RTVSPost2010PropOp32
 70
     1
102
RTVSPost2010Prop33
280
     0
102
RTVSPost2010PropOp33
 70
     1
102
RTVSPost2010Prop34
280
     0
102
RTVSPost2010PropOp34
 70
     1
102
RTVSPost2010Prop35
280
     0
102
RTVSPost2010PropOp35
 70
     1
102
RTVSPost2010Prop36
280
     0
102
RTVSPost2010PropOp36
 70
     1
102
RTVSPost2010Prop37
 90
       50
102
RTVSPost2010PropOp37
 70
     1
102
RTVSPost2010Prop38
140
0.0
102
RTVSPost2010PropOp38
 70
     1
102
RTVSPost2010Prop39
140
1.0
102
RTVSPost2010PropOp39
 70
     1
102
RTVSPost2010Prop40
 90
        0
102
RTVSPost2010PropOp40
 70
     1
102
RTVSPost2010Prop41ColorIndex
 90
       18
102
RTVSPost2010Prop41ColorRGB
 90
        0
102
RTVSPost2010PropOp41
 70
     1
102
RTVSPost2010Prop42
 90
       50
102
RTVSPost2010PropOp42
 70
     1
102
RTVSPost2010Prop43
 90
        3
102
RTVSPost2010PropOp43
 70
     1
102
RTVSPost2010Prop44ColorIndex
 90
        5
102
RTVSPost2010Prop44ColorRGB
 90
      255
102
RTVSPost2010PropOp44
 70
     1
102
RTVSPost2010Prop45
280
     0
102
RTVSPost2010PropOp45
 70
     1
102
RTVSPost2010Prop46
 90
       50
102
RTVSPost2010PropOp46
 70
     1
102
RTVSPost2010Prop47
 90
       50
102
RTVSPost2010PropOp47
 70
     1
102
RTVSPost2010Prop48
 90
       50
102
RTVSPost2010PropOp48
 70
     1
102
RTVSPost2010Prop49
280
     0
102
RTVSPost2010PropOp49
 70
     1
102
RTVSPost2010Prop50
 90
       50
102
RTVSPost2010PropOp50
 70
     1
102
RTVSPost2010Prop51ColorIndex
 90
      256
102
RTVSPost2010Prop51ColorRGB
 90
-16777216
102
RTVSPost2010PropOp51
 70
     0
102
RTVSPost2010Prop52
140
1.0
102
RTVSPost2010PropOp52
 70
     0
102
RTVSPost2010Prop53
 90
        2
102
RTVSPost2010PropOp53
 70
     1
102
RTVSPost2010Prop54
  1
strokes_ogs.tif
102
RTVSPost2010PropOp54
 70
     1
102
RTVSPost2010Prop55
280
     0
102
RTVSPost2010PropOp55
 70
     1
102
RTVSPost2010Prop56
140
1.0
102
RTVSPost2010PropOp56
 70
     1
102
RTVSPost2010Prop57
140
1.0
102
RTVSPost2010PropOp57
 70
     1
102
RTVSPropertyOp0
 70
     1
102
RTVSPropertyOp1
 70
     1
102
RTVSPropertyOp2
 70
     1
102
RTVSPropertyOp3
 70
     1
102
RTVSPropertyOp4
 70
     1
102
RTVSPropertyOp5
 70
     1
102
RTVSPropertyOp6
 70
     1
102
RTVSPropertyOp7
 70
     1
102
RTVSPropertyOp8
 70
     1
102
RTVSPropertyOp9
 70
     1
102
RTVSPropertyOp10
 70
     1
102
RTVSPropertyOp11
 70
     1
102
RTVSPropertyOp12
 70
     1
102
RTVSPropertyOp13
 70
     1
102
RTVSPropertyOp14
 70
     1
102
RTVSPropertyOp15
 70
     1
102
RTVSPropertyOp16
 70
     1
102
RTVSPropertyOp17
 70
     1
102
RTVSPropertyOp18
 70
     1
102
RTVSPropertyOp19
 70
     1
102
RTVSPropertyOp20
 70
     1
102
RTVSPropertyOp21
 70
     1
102
RTVSPropertyOp22
 70
     1
102
RTVSPropertyOp23
 70
     1
102
RTVSPropertyOp24
 70
     1
102
RTVSPropertyOp25
 70
     1
102
RTVSPropertyOp26
 70
     1
102
RTVSPropertyOp27
 70
     1
102
RTVSPropertyOp28
 70
     1
102
RTVSPropertyOp29
 70
     1
102
RTVSPropertyOp30
 70
     1
102
RTVSPropertyOp31
 70
     1
102
RTVSPropertyOp32
 70
     1
102
RTVSPropertyOp33
 70
     1
102
RTVSPropertyOp34
 70
     1
102
RTVSPropertyOp35
 70
     1
102
RTVSPropertyOp36
 70
     1
102
RTVSPropertyOp37
 70
     1
102
RTVSPropertyOp38
 70
     1
102
RTVSPropertyOp39
 70
     1
102
RTVSPropertyOp40
 70
     1
102
RTVSPropertyOp41
 70
     1
102
RTVSPropertyOp42
 70
     1
102
RTVSPropertyOp43
 70
     1
102
RTVSPropertyOp44
 70
     1
102
RTVSPropertyOp45
 70
     1
102
RTVSPropertyOp46
 70
     1
102
RTVSPropertyOp47
 70
     1
102
RTVSPropertyOp48
 70
     1
102
RTVSPropertyOp49
 70
     1
102
RTVSPropertyOp50
 70
     1
102
RTVSPropertyOp51
 70
     0
102
RTVSPropertyOp52
 70
     0
102
RTVSPropertyOp53
 70
     1
102
RTVSPropertyOp54
 70
     1
102
RTVSPropertyOp55
 70
     1
102
RTVSPropertyOp56
 70
     1
102
RTVSPropertyOp57
 70
     1
102
RTVSPropertyOp58
 70
     1
102
RTVSPropertyOp59
 70
     1
102
RTVSPropertyOp60
 70
     1
102
RTVSPropertyOp61
 70
     1
102
RTVSPropertyOp62
 70
     1
  0
XRECORD
  5
B480
102
{ACAD_REACTORS
330
B47F
102
}
330
B47F
100
AcDbXrecord
280
     1
102
RTVSPost2010Prop28
280
     0
102
RTVSPost2010PropOp28
 70
     1
102
RTVSPost2010Prop29
280
     1
102
RTVSPost2010PropOp29
 70
     1
102
RTVSPost2010Prop30
280
     1
102
RTVSPost2010PropOp30
 70
     1
102
RTVSPost2010Prop31
280
     0
102
RTVSPost2010PropOp31
 70
     1
102
RTVSPost2010Prop32
280
     0
102
RTVSPost2010PropOp32
 70
     1
102
RTVSPost2010Prop33
280
     0
102
RTVSPost2010PropOp33
 70
     1
102
RTVSPost2010Prop34
280
     0
102
RTVSPost2010PropOp34
 70
     1
102
RTVSPost2010Prop35
280
     0
102
RTVSPost2010PropOp35
 70
     1
102
RTVSPost2010Prop36
280
     0
102
RTVSPost2010PropOp36
 70
     1
102
RTVSPost2010Prop37
 90
       50
102
RTVSPost2010PropOp37
 70
     1
102
RTVSPost2010Prop38
140
0.0
102
RTVSPost2010PropOp38
 70
     1
102
RTVSPost2010Prop39
140
1.0
102
RTVSPost2010PropOp39
 70
     1
102
RTVSPost2010Prop40
 90
        0
102
RTVSPost2010PropOp40
 70
     1
102
RTVSPost2010Prop41ColorIndex
 90
       18
102
RTVSPost2010Prop41ColorRGB
 90
        0
102
RTVSPost2010PropOp41
 70
     1
102
RTVSPost2010Prop42
 90
       50
102
RTVSPost2010PropOp42
 70
     1
102
RTVSPost2010Prop43
 90
        3
102
RTVSPost2010PropOp43
 70
     1
102
RTVSPost2010Prop44ColorIndex
 90
        5
102
RTVSPost2010Prop44ColorRGB
 90
      255
102
RTVSPost2010PropOp44
 70
     1
102
RTVSPost2010Prop45
280
     0
102
RTVSPost2010PropOp45
 70
     1
102
RTVSPost2010Prop46
 90
       50
102
RTVSPost2010PropOp46
 70
     1
102
RTVSPost2010Prop47
 90
       50
102
RTVSPost2010PropOp47
 70
     1
102
RTVSPost2010Prop48
 90
       50
102
RTVSPost2010PropOp48
 70
     1
102
RTVSPost2010Prop49
280
     0
102
RTVSPost2010PropOp49
 70
     1
102
RTVSPost2010Prop50
 90
       50
102
RTVSPost2010PropOp50
 70
     1
102
RTVSPost2010Prop51ColorIndex
 90
      256
102
RTVSPost2010Prop51ColorRGB
 90
-16777216
102
RTVSPost2010PropOp51
 70
     0
102
RTVSPost2010Prop52
140
1.0
102
RTVSPost2010PropOp52
 70
     0
102
RTVSPost2010Prop53
 90
        2
102
RTVSPost2010PropOp53
 70
     1
102
RTVSPost2010Prop54
  1
strokes_ogs.tif
102
RTVSPost2010PropOp54
 70
     1
102
RTVSPost2010Prop55
280
     0
102
RTVSPost2010PropOp55
 70
     1
102
RTVSPost2010Prop56
140
1.0
102
RTVSPost2010PropOp56
 70
     1
102
RTVSPost2010Prop57
140
1.0
102
RTVSPost2010PropOp57
 70
     1
102
RTVSPropertyOp0
 70
     1
102
RTVSPropertyOp1
 70
     1
102
RTVSPropertyOp2
 70
     1
102
RTVSPropertyOp3
 70
     1
102
RTVSPropertyOp4
 70
     1
102
RTVSPropertyOp5
 70
     1
102
RTVSPropertyOp6
 70
     1
102
RTVSPropertyOp7
 70
     1
102
RTVSPropertyOp8
 70
     1
102
RTVSPropertyOp9
 70
     1
102
RTVSPropertyOp10
 70
     1
102
RTVSPropertyOp11
 70
     1
102
RTVSPropertyOp12
 70
     1
102
RTVSPropertyOp13
 70
     1
102
RTVSPropertyOp14
 70
     1
102
RTVSPropertyOp15
 70
     1
102
RTVSPropertyOp16
 70
     1
102
RTVSPropertyOp17
 70
     1
102
RTVSPropertyOp18
 70
     1
102
RTVSPropertyOp19
 70
     1
102
RTVSPropertyOp20
 70
     1
102
RTVSPropertyOp21
 70
     1
102
RTVSPropertyOp22
 70
     1
102
RTVSPropertyOp23
 70
     1
102
RTVSPropertyOp24
 70
     1
102
RTVSPropertyOp25
 70
     1
102
RTVSPropertyOp26
 70
     1
102
RTVSPropertyOp27
 70
     1
102
RTVSPropertyOp28
 70
     1
102
RTVSPropertyOp29
 70
     1
102
RTVSPropertyOp30
 70
     1
102
RTVSPropertyOp31
 70
     1
102
RTVSPropertyOp32
 70
     1
102
RTVSPropertyOp33
 70
     1
102
RTVSPropertyOp34
 70
     1
102
RTVSPropertyOp35
 70
     1
102
RTVSPropertyOp36
 70
     1
102
RTVSPropertyOp37
 70
     1
102
RTVSPropertyOp38
 70
     1
102
RTVSPropertyOp39
 70
     1
102
RTVSPropertyOp40
 70
     1
102
RTVSPropertyOp41
 70
     1
102
RTVSPropertyOp42
 70
     1
102
RTVSPropertyOp43
 70
     1
102
RTVSPropertyOp44
 70
     1
102
RTVSPropertyOp45
 70
     1
102
RTVSPropertyOp46
 70
     1
102
RTVSPropertyOp47
 70
     1
102
RTVSPropertyOp48
 70
     1
102
RTVSPropertyOp49
 70
     1
102
RTVSPropertyOp50
 70
     1
102
RTVSPropertyOp51
 70
     0
102
RTVSPropertyOp52
 70
     0
102
RTVSPropertyOp53
 70
     1
102
RTVSPropertyOp54
 70
     1
102
RTVSPropertyOp55
 70
     1
102
RTVSPropertyOp56
 70
     1
102
RTVSPropertyOp57
 70
     1
102
RTVSPropertyOp58
 70
     1
102
RTVSPropertyOp59
 70
     1
102
RTVSPropertyOp60
 70
     1
102
RTVSPropertyOp61
 70
     1
102
RTVSPropertyOp62
 70
     1
  0
XRECORD
  5
B482
102
{ACAD_REACTORS
330
B481
102
}
330
B481
100
AcDbXrecord
280
     1
102
RTVSPost2010Prop28
280
     0
102
RTVSPost2010PropOp28
 70
     1
102
RTVSPost2010Prop29
280
     1
102
RTVSPost2010PropOp29
 70
     1
102
RTVSPost2010Prop30
280
     1
102
RTVSPost2010PropOp30
 70
     1
102
RTVSPost2010Prop31
280
     0
102
RTVSPost2010PropOp31
 70
     1
102
RTVSPost2010Prop32
280
     0
102
RTVSPost2010PropOp32
 70
     1
102
RTVSPost2010Prop33
280
     0
102
RTVSPost2010PropOp33
 70
     1
102
RTVSPost2010Prop34
280
     0
102
RTVSPost2010PropOp34
 70
     1
102
RTVSPost2010Prop35
280
     0
102
RTVSPost2010PropOp35
 70
     1
102
RTVSPost2010Prop36
280
     0
102
RTVSPost2010PropOp36
 70
     1
102
RTVSPost2010Prop37
 90
       50
102
RTVSPost2010PropOp37
 70
     1
102
RTVSPost2010Prop38
140
0.0
102
RTVSPost2010PropOp38
 70
     1
102
RTVSPost2010Prop39
140
1.0
102
RTVSPost2010PropOp39
 70
     1
102
RTVSPost2010Prop40
 90
        0
102
RTVSPost2010PropOp40
 70
     1
102
RTVSPost2010Prop41ColorIndex
 90
       18
102
RTVSPost2010Prop41ColorRGB
 90
        0
102
RTVSPost2010PropOp41
 70
     1
102
RTVSPost2010Prop42
 90
       50
102
RTVSPost2010PropOp42
 70
     1
102
RTVSPost2010Prop43
 90
        3
102
RTVSPost2010PropOp43
 70
     1
102
RTVSPost2010Prop44ColorIndex
 90
        5
102
RTVSPost2010Prop44ColorRGB
 90
      255
102
RTVSPost2010PropOp44
 70
     1
102
RTVSPost2010Prop45
280
     0
102
RTVSPost2010PropOp45
 70
     1
102
RTVSPost2010Prop46
 90
       50
102
RTVSPost2010PropOp46
 70
     1
102
RTVSPost2010Prop47
 90
       50
102
RTVSPost2010PropOp47
 70
     1
102
RTVSPost2010Prop48
 90
       50
102
RTVSPost2010PropOp48
 70
     1
102
RTVSPost2010Prop49
280
     0
102
RTVSPost2010PropOp49
 70
     1
102
RTVSPost2010Prop50
 90
       50
102
RTVSPost2010PropOp50
 70
     1
102
RTVSPost2010Prop51ColorIndex
 90
      256
102
RTVSPost2010Prop51ColorRGB
 90
-16777216
102
RTVSPost2010PropOp51
 70
     0
102
RTVSPost2010Prop52
140
1.0
102
RTVSPost2010PropOp52
 70
     0
102
RTVSPost2010Prop53
 90
        2
102
RTVSPost2010PropOp53
 70
     1
102
RTVSPost2010Prop54
  1
strokes_ogs.tif
102
RTVSPost2010PropOp54
 70
     1
102
RTVSPost2010Prop55
280
     0
102
RTVSPost2010PropOp55
 70
     1
102
RTVSPost2010Prop56
140
1.0
102
RTVSPost2010PropOp56
 70
     1
102
RTVSPost2010Prop57
140
1.0
102
RTVSPost2010PropOp57
 70
     1
102
RTVSPropertyOp0
 70
     1
102
RTVSPropertyOp1
 70
     1
102
RTVSPropertyOp2
 70
     1
102
RTVSPropertyOp3
 70
     1
102
RTVSPropertyOp4
 70
     1
102
RTVSPropertyOp5
 70
     1
102
RTVSPropertyOp6
 70
     1
102
RTVSPropertyOp7
 70
     1
102
RTVSPropertyOp8
 70
     1
102
RTVSPropertyOp9
 70
     1
102
RTVSPropertyOp10
 70
     1
102
RTVSPropertyOp11
 70
     1
102
RTVSPropertyOp12
 70
     1
102
RTVSPropertyOp13
 70
     1
102
RTVSPropertyOp14
 70
     1
102
RTVSPropertyOp15
 70
     1
102
RTVSPropertyOp16
 70
     1
102
RTVSPropertyOp17
 70
     1
102
RTVSPropertyOp18
 70
     1
102
RTVSPropertyOp19
 70
     1
102
RTVSPropertyOp20
 70
     1
102
RTVSPropertyOp21
 70
     1
102
RTVSPropertyOp22
 70
     1
102
RTVSPropertyOp23
 70
     1
102
RTVSPropertyOp24
 70
     1
102
RTVSPropertyOp25
 70
     1
102
RTVSPropertyOp26
 70
     1
102
RTVSPropertyOp27
 70
     1
102
RTVSPropertyOp28
 70
     1
102
RTVSPropertyOp29
 70
     1
102
RTVSPropertyOp30
 70
     1
102
RTVSPropertyOp31
 70
     1
102
RTVSPropertyOp32
 70
     1
102
RTVSPropertyOp33
 70
     1
102
RTVSPropertyOp34
 70
     1
102
RTVSPropertyOp35
 70
     1
102
RTVSPropertyOp36
 70
     1
102
RTVSPropertyOp37
 70
     1
102
RTVSPropertyOp38
 70
     1
102
RTVSPropertyOp39
 70
     1
102
RTVSPropertyOp40
 70
     1
102
RTVSPropertyOp41
 70
     1
102
RTVSPropertyOp42
 70
     1
102
RTVSPropertyOp43
 70
     1
102
RTVSPropertyOp44
 70
     1
102
RTVSPropertyOp45
 70
     1
102
RTVSPropertyOp46
 70
     1
102
RTVSPropertyOp47
 70
     1
102
RTVSPropertyOp48
 70
     1
102
RTVSPropertyOp49
 70
     1
102
RTVSPropertyOp50
 70
     1
102
RTVSPropertyOp51
 70
     0
102
RTVSPropertyOp52
 70
     0
102
RTVSPropertyOp53
 70
     1
102
RTVSPropertyOp54
 70
     1
102
RTVSPropertyOp55
 70
     1
102
RTVSPropertyOp56
 70
     1
102
RTVSPropertyOp57
 70
     1
102
RTVSPropertyOp58
 70
     1
102
RTVSPropertyOp59
 70
     1
102
RTVSPropertyOp60
 70
     1
102
RTVSPropertyOp61
 70
     1
102
RTVSPropertyOp62
 70
     1
  0
XRECORD
  5
B48A
102
{ACAD_REACTORS
330
B489
102
}
330
B489
100
AcDbXrecord
280
     1
102
RTVSPost2010Prop28
280
     0
102
RTVSPost2010PropOp28
 70
     1
102
RTVSPost2010Prop29
280
     1
102
RTVSPost2010PropOp29
 70
     1
102
RTVSPost2010Prop30
280
     1
102
RTVSPost2010PropOp30
 70
     1
102
RTVSPost2010Prop31
280
     0
102
RTVSPost2010PropOp31
 70
     1
102
RTVSPost2010Prop32
280
     0
102
RTVSPost2010PropOp32
 70
     1
102
RTVSPost2010Prop33
280
     0
102
RTVSPost2010PropOp33
 70
     1
102
RTVSPost2010Prop34
280
     0
102
RTVSPost2010PropOp34
 70
     1
102
RTVSPost2010Prop35
280
     0
102
RTVSPost2010PropOp35
 70
     1
102
RTVSPost2010Prop36
280
     0
102
RTVSPost2010PropOp36
 70
     1
102
RTVSPost2010Prop37
 90
       50
102
RTVSPost2010PropOp37
 70
     1
102
RTVSPost2010Prop38
140
0.0
102
RTVSPost2010PropOp38
 70
     1
102
RTVSPost2010Prop39
140
1.0
102
RTVSPost2010PropOp39
 70
     1
102
RTVSPost2010Prop40
 90
        0
102
RTVSPost2010PropOp40
 70
     1
102
RTVSPost2010Prop41ColorIndex
 90
       18
102
RTVSPost2010Prop41ColorRGB
 90
        0
102
RTVSPost2010PropOp41
 70
     1
102
RTVSPost2010Prop42
 90
       50
102
RTVSPost2010PropOp42
 70
     1
102
RTVSPost2010Prop43
 90
        3
102
RTVSPost2010PropOp43
 70
     1
102
RTVSPost2010Prop44ColorIndex
 90
        5
102
RTVSPost2010Prop44ColorRGB
 90
      255
102
RTVSPost2010PropOp44
 70
     1
102
RTVSPost2010Prop45
280
     0
102
RTVSPost2010PropOp45
 70
     1
102
RTVSPost2010Prop46
 90
       50
102
RTVSPost2010PropOp46
 70
     1
102
RTVSPost2010Prop47
 90
       50
102
RTVSPost2010PropOp47
 70
     1
102
RTVSPost2010Prop48
 90
       50
102
RTVSPost2010PropOp48
 70
     1
102
RTVSPost2010Prop49
280
     0
102
RTVSPost2010PropOp49
 70
     1
102
RTVSPost2010Prop50
 90
       50
102
RTVSPost2010PropOp50
 70
     1
102
RTVSPost2010Prop51ColorIndex
 90
      256
102
RTVSPost2010Prop51ColorRGB
 90
-16777216
102
RTVSPost2010PropOp51
 70
     0
102
RTVSPost2010Prop52
140
1.0
102
RTVSPost2010PropOp52
 70
     0
102
RTVSPost2010Prop53
 90
        2
102
RTVSPost2010PropOp53
 70
     1
102
RTVSPost2010Prop54
  1
strokes_ogs.tif
102
RTVSPost2010PropOp54
 70
     1
102
RTVSPost2010Prop55
280
     0
102
RTVSPost2010PropOp55
 70
     1
102
RTVSPost2010Prop56
140
1.0
102
RTVSPost2010PropOp56
 70
     1
102
RTVSPost2010Prop57
140
1.0
102
RTVSPost2010PropOp57
 70
     1
102
RTVSPropertyOp0
 70
     1
102
RTVSPropertyOp1
 70
     1
102
RTVSPropertyOp2
 70
     1
102
RTVSPropertyOp3
 70
     1
102
RTVSPropertyOp4
 70
     1
102
RTVSPropertyOp5
 70
     1
102
RTVSPropertyOp6
 70
     1
102
RTVSPropertyOp7
 70
     1
102
RTVSPropertyOp8
 70
     1
102
RTVSPropertyOp9
 70
     1
102
RTVSPropertyOp10
 70
     1
102
RTVSPropertyOp11
 70
     1
102
RTVSPropertyOp12
 70
     1
102
RTVSPropertyOp13
 70
     1
102
RTVSPropertyOp14
 70
     1
102
RTVSPropertyOp15
 70
     1
102
RTVSPropertyOp16
 70
     1
102
RTVSPropertyOp17
 70
     1
102
RTVSPropertyOp18
 70
     1
102
RTVSPropertyOp19
 70
     1
102
RTVSPropertyOp20
 70
     1
102
RTVSPropertyOp21
 70
     1
102
RTVSPropertyOp22
 70
     1
102
RTVSPropertyOp23
 70
     1
102
RTVSPropertyOp24
 70
     1
102
RTVSPropertyOp25
 70
     1
102
RTVSPropertyOp26
 70
     1
102
RTVSPropertyOp27
 70
     1
102
RTVSPropertyOp28
 70
     1
102
RTVSPropertyOp29
 70
     1
102
RTVSPropertyOp30
 70
     1
102
RTVSPropertyOp31
 70
     1
102
RTVSPropertyOp32
 70
     1
102
RTVSPropertyOp33
 70
     1
102
RTVSPropertyOp34
 70
     1
102
RTVSPropertyOp35
 70
     1
102
RTVSPropertyOp36
 70
     1
102
RTVSPropertyOp37
 70
     1
102
RTVSPropertyOp38
 70
     1
102
RTVSPropertyOp39
 70
     1
102
RTVSPropertyOp40
 70
     1
102
RTVSPropertyOp41
 70
     1
102
RTVSPropertyOp42
 70
     1
102
RTVSPropertyOp43
 70
     1
102
RTVSPropertyOp44
 70
     1
102
RTVSPropertyOp45
 70
     1
102
RTVSPropertyOp46
 70
     1
102
RTVSPropertyOp47
 70
     1
102
RTVSPropertyOp48
 70
     1
102
RTVSPropertyOp49
 70
     1
102
RTVSPropertyOp50
 70
     1
102
RTVSPropertyOp51
 70
     0
102
RTVSPropertyOp52
 70
     0
102
RTVSPropertyOp53
 70
     1
102
RTVSPropertyOp54
 70
     1
102
RTVSPropertyOp55
 70
     1
102
RTVSPropertyOp56
 70
     1
102
RTVSPropertyOp57
 70
     1
102
RTVSPropertyOp58
 70
     1
102
RTVSPropertyOp59
 70
     1
102
RTVSPropertyOp60
 70
     1
102
RTVSPropertyOp61
 70
     1
102
RTVSPropertyOp62
 70
     1
  0
XRECORD
  5
B4A6
102
{ACAD_REACTORS
330
B4A5
102
}
330
B4A5
100
AcDbXrecord
280
     1
102
RTVSPost2010Prop28
280
     0
102
RTVSPost2010PropOp28
 70
     1
102
RTVSPost2010Prop29
280
     1
102
RTVSPost2010PropOp29
 70
     1
102
RTVSPost2010Prop30
280
     1
102
RTVSPost2010PropOp30
 70
     1
102
RTVSPost2010Prop31
280
     0
102
RTVSPost2010PropOp31
 70
     1
102
RTVSPost2010Prop32
280
     0
102
RTVSPost2010PropOp32
 70
     1
102
RTVSPost2010Prop33
280
     0
102
RTVSPost2010PropOp33
 70
     1
102
RTVSPost2010Prop34
280
     0
102
RTVSPost2010PropOp34
 70
     1
102
RTVSPost2010Prop35
280
     0
102
RTVSPost2010PropOp35
 70
     1
102
RTVSPost2010Prop36
280
     0
102
RTVSPost2010PropOp36
 70
     1
102
RTVSPost2010Prop37
 90
       50
102
RTVSPost2010PropOp37
 70
     0
102
RTVSPost2010Prop38
140
0.0
102
RTVSPost2010PropOp38
 70
     0
102
RTVSPost2010Prop39
140
1.0
102
RTVSPost2010PropOp39
 70
     0
102
RTVSPost2010Prop40
 90
        0
102
RTVSPost2010PropOp40
 70
     0
102
RTVSPost2010Prop41ColorIndex
 90
       18
102
RTVSPost2010Prop41ColorRGB
 90
        0
102
RTVSPost2010PropOp41
 70
     0
102
RTVSPost2010Prop42
 90
       50
102
RTVSPost2010PropOp42
 70
     0
102
RTVSPost2010Prop43
 90
        3
102
RTVSPost2010PropOp43
 70
     0
102
RTVSPost2010Prop44ColorIndex
 90
        5
102
RTVSPost2010Prop44ColorRGB
 90
      255
102
RTVSPost2010PropOp44
 70
     0
102
RTVSPost2010Prop45
280
     0
102
RTVSPost2010PropOp45
 70
     1
102
RTVSPost2010Prop46
 90
       50
102
RTVSPost2010PropOp46
 70
     0
102
RTVSPost2010Prop47
 90
       50
102
RTVSPost2010PropOp47
 70
     0
102
RTVSPost2010Prop48
 90
       50
102
RTVSPost2010PropOp48
 70
     0
102
RTVSPost2010Prop49
280
     0
102
RTVSPost2010PropOp49
 70
     1
102
RTVSPost2010Prop50
 90
       50
102
RTVSPost2010PropOp50
 70
     0
102
RTVSPost2010Prop51ColorIndex
 90
      256
102
RTVSPost2010Prop51ColorRGB
 90
-16777216
102
RTVSPost2010PropOp51
 70
     0
102
RTVSPost2010Prop52
140
1.0
102
RTVSPost2010PropOp52
 70
     0
102
RTVSPost2010Prop53
 90
        2
102
RTVSPost2010PropOp53
 70
     0
102
RTVSPost2010Prop54
  1
strokes_ogs.tif
102
RTVSPost2010PropOp54
 70
     0
102
RTVSPost2010Prop55
280
     0
102
RTVSPost2010PropOp55
 70
     1
102
RTVSPost2010Prop56
140
1.0
102
RTVSPost2010PropOp56
 70
     0
102
RTVSPost2010Prop57
140
1.0
102
RTVSPost2010PropOp57
 70
     0
102
RTVSPropertyOp0
 70
     0
102
RTVSPropertyOp1
 70
     0
102
RTVSPropertyOp2
 70
     0
102
RTVSPropertyOp3
 70
     0
102
RTVSPropertyOp4
 70
     0
102
RTVSPropertyOp5
 70
     0
102
RTVSPropertyOp6
 70
     0
102
RTVSPropertyOp7
 70
     0
102
RTVSPropertyOp8
 70
     0
102
RTVSPropertyOp9
 70
     0
102
RTVSPropertyOp10
 70
     0
102
RTVSPropertyOp11
 70
     0
102
RTVSPropertyOp12
 70
     0
102
RTVSPropertyOp13
 70
     0
102
RTVSPropertyOp14
 70
     2
102
RTVSPropertyOp15
 70
     0
102
RTVSPropertyOp16
 70
     0
102
RTVSPropertyOp17
 70
     0
102
RTVSPropertyOp18
 70
     0
102
RTVSPropertyOp19
 70
     0
102
RTVSPropertyOp20
 70
     0
102
RTVSPropertyOp21
 70
     0
102
RTVSPropertyOp22
 70
     0
102
RTVSPropertyOp23
 70
     0
102
RTVSPropertyOp24
 70
     0
102
RTVSPropertyOp25
 70
     0
102
RTVSPropertyOp26
 70
     0
102
RTVSPropertyOp27
 70
     0
102
RTVSPropertyOp28
 70
     1
102
RTVSPropertyOp29
 70
     1
102
RTVSPropertyOp30
 70
     1
102
RTVSPropertyOp31
 70
     1
102
RTVSPropertyOp32
 70
     1
102
RTVSPropertyOp33
 70
     1
102
RTVSPropertyOp34
 70
     1
102
RTVSPropertyOp35
 70
     1
102
RTVSPropertyOp36
 70
     1
102
RTVSPropertyOp37
 70
     0
102
RTVSPropertyOp38
 70
     0
102
RTVSPropertyOp39
 70
     0
102
RTVSPropertyOp40
 70
     0
102
RTVSPropertyOp41
 70
     0
102
RTVSPropertyOp42
 70
     0
102
RTVSPropertyOp43
 70
     0
102
RTVSPropertyOp44
 70
     0
102
RTVSPropertyOp45
 70
     1
102
RTVSPropertyOp46
 70
     0
102
RTVSPropertyOp47
 70
     0
102
RTVSPropertyOp48
 70
     0
102
RTVSPropertyOp49
 70
     1
102
RTVSPropertyOp50
 70
     0
102
RTVSPropertyOp51
 70
     0
102
RTVSPropertyOp52
 70
     0
102
RTVSPropertyOp53
 70
     0
102
RTVSPropertyOp54
 70
     0
102
RTVSPropertyOp55
 70
     1
102
RTVSPropertyOp56
 70
     0
102
RTVSPropertyOp57
 70
     0
102
RTVSPropertyOp58
 70
     0
102
RTVSPropertyOp59
 70
     0
102
RTVSPropertyOp60
 70
     0
102
RTVSPropertyOp61
 70
     0
102
RTVSPropertyOp62
 70
     0
  0
XRECORD
  5
B496
102
{ACAD_REACTORS
330
B495
102
}
330
B495
100
AcDbXrecord
280
     1
102
RTVSPost2010Prop28
280
     0
102
RTVSPost2010PropOp28
 70
     1
102
RTVSPost2010Prop29
280
     1
102
RTVSPost2010PropOp29
 70
     1
102
RTVSPost2010Prop30
280
     1
102
RTVSPost2010PropOp30
 70
     1
102
RTVSPost2010Prop31
280
     0
102
RTVSPost2010PropOp31
 70
     1
102
RTVSPost2010Prop32
280
     0
102
RTVSPost2010PropOp32
 70
     1
102
RTVSPost2010Prop33
280
     0
102
RTVSPost2010PropOp33
 70
     1
102
RTVSPost2010Prop34
280
     0
102
RTVSPost2010PropOp34
 70
     1
102
RTVSPost2010Prop35
280
     0
102
RTVSPost2010PropOp35
 70
     1
102
RTVSPost2010Prop36
280
     0
102
RTVSPost2010PropOp36
 70
     1
102
RTVSPost2010Prop37
 90
       50
102
RTVSPost2010PropOp37
 70
     1
102
RTVSPost2010Prop38
140
0.0
102
RTVSPost2010PropOp38
 70
     1
102
RTVSPost2010Prop39
140
1.0
102
RTVSPost2010PropOp39
 70
     1
102
RTVSPost2010Prop40
 90
        0
102
RTVSPost2010PropOp40
 70
     1
102
RTVSPost2010Prop41ColorIndex
 90
       18
102
RTVSPost2010Prop41ColorRGB
 90
        0
102
RTVSPost2010PropOp41
 70
     1
102
RTVSPost2010Prop42
 90
       50
102
RTVSPost2010PropOp42
 70
     1
102
RTVSPost2010Prop43
 90
        3
102
RTVSPost2010PropOp43
 70
     1
102
RTVSPost2010Prop44ColorIndex
 90
        5
102
RTVSPost2010Prop44ColorRGB
 90
      255
102
RTVSPost2010PropOp44
 70
     1
102
RTVSPost2010Prop45
280
     0
102
RTVSPost2010PropOp45
 70
     1
102
RTVSPost2010Prop46
 90
       50
102
RTVSPost2010PropOp46
 70
     1
102
RTVSPost2010Prop47
 90
       50
102
RTVSPost2010PropOp47
 70
     1
102
RTVSPost2010Prop48
 90
       50
102
RTVSPost2010PropOp48
 70
     1
102
RTVSPost2010Prop49
280
     0
102
RTVSPost2010PropOp49
 70
     1
102
RTVSPost2010Prop50
 90
       50
102
RTVSPost2010PropOp50
 70
     1
102
RTVSPost2010Prop51ColorIndex
 90
      256
102
RTVSPost2010Prop51ColorRGB
 90
-16777216
102
RTVSPost2010PropOp51
 70
     0
102
RTVSPost2010Prop52
140
1.0
102
RTVSPost2010PropOp52
 70
     0
102
RTVSPost2010Prop53
 90
        2
102
RTVSPost2010PropOp53
 70
     1
102
RTVSPost2010Prop54
  1
strokes_ogs.tif
102
RTVSPost2010PropOp54
 70
     1
102
RTVSPost2010Prop55
280
     0
102
RTVSPost2010PropOp55
 70
     1
102
RTVSPost2010Prop56
140
1.0
102
RTVSPost2010PropOp56
 70
     1
102
RTVSPost2010Prop57
140
1.0
102
RTVSPost2010PropOp57
 70
     1
102
RTVSPropertyOp0
 70
     1
102
RTVSPropertyOp1
 70
     1
102
RTVSPropertyOp2
 70
     1
102
RTVSPropertyOp3
 70
     1
102
RTVSPropertyOp4
 70
     1
102
RTVSPropertyOp5
 70
     1
102
RTVSPropertyOp6
 70
     1
102
RTVSPropertyOp7
 70
     1
102
RTVSPropertyOp8
 70
     1
102
RTVSPropertyOp9
 70
     1
102
RTVSPropertyOp10
 70
     1
102
RTVSPropertyOp11
 70
     1
102
RTVSPropertyOp12
 70
     1
102
RTVSPropertyOp13
 70
     1
102
RTVSPropertyOp14
 70
     1
102
RTVSPropertyOp15
 70
     1
102
RTVSPropertyOp16
 70
     1
102
RTVSPropertyOp17
 70
     1
102
RTVSPropertyOp18
 70
     1
102
RTVSPropertyOp19
 70
     1
102
RTVSPropertyOp20
 70
     1
102
RTVSPropertyOp21
 70
     1
102
RTVSPropertyOp22
 70
     1
102
RTVSPropertyOp23
 70
     1
102
RTVSPropertyOp24
 70
     1
102
RTVSPropertyOp25
 70
     1
102
RTVSPropertyOp26
 70
     1
102
RTVSPropertyOp27
 70
     1
102
RTVSPropertyOp28
 70
     1
102
RTVSPropertyOp29
 70
     1
102
RTVSPropertyOp30
 70
     1
102
RTVSPropertyOp31
 70
     1
102
RTVSPropertyOp32
 70
     1
102
RTVSPropertyOp33
 70
     1
102
RTVSPropertyOp34
 70
     1
102
RTVSPropertyOp35
 70
     1
102
RTVSPropertyOp36
 70
     1
102
RTVSPropertyOp37
 70
     1
102
RTVSPropertyOp38
 70
     1
102
RTVSPropertyOp39
 70
     1
102
RTVSPropertyOp40
 70
     1
102
RTVSPropertyOp41
 70
     1
102
RTVSPropertyOp42
 70
     1
102
RTVSPropertyOp43
 70
     1
102
RTVSPropertyOp44
 70
     1
102
RTVSPropertyOp45
 70
     1
102
RTVSPropertyOp46
 70
     1
102
RTVSPropertyOp47
 70
     1
102
RTVSPropertyOp48
 70
     1
102
RTVSPropertyOp49
 70
     1
102
RTVSPropertyOp50
 70
     1
102
RTVSPropertyOp51
 70
     0
102
RTVSPropertyOp52
 70
     0
102
RTVSPropertyOp53
 70
     1
102
RTVSPropertyOp54
 70
     1
102
RTVSPropertyOp55
 70
     1
102
RTVSPropertyOp56
 70
     1
102
RTVSPropertyOp57
 70
     1
102
RTVSPropertyOp58
 70
     1
102
RTVSPropertyOp59
 70
     1
102
RTVSPropertyOp60
 70
     1
102
RTVSPropertyOp61
 70
     1
102
RTVSPropertyOp62
 70
     1
  0
XRECORD
  5
B4A8
102
{ACAD_REACTORS
330
B4A7
102
}
330
B4A7
100
AcDbXrecord
280
     1
102
RTVSPost2010Prop28
280
     0
102
RTVSPost2010PropOp28
 70
     1
102
RTVSPost2010Prop29
280
     1
102
RTVSPost2010PropOp29
 70
     1
102
RTVSPost2010Prop30
280
     1
102
RTVSPost2010PropOp30
 70
     1
102
RTVSPost2010Prop31
280
     0
102
RTVSPost2010PropOp31
 70
     1
102
RTVSPost2010Prop32
280
     0
102
RTVSPost2010PropOp32
 70
     1
102
RTVSPost2010Prop33
280
     0
102
RTVSPost2010PropOp33
 70
     1
102
RTVSPost2010Prop34
280
     0
102
RTVSPost2010PropOp34
 70
     1
102
RTVSPost2010Prop35
280
     0
102
RTVSPost2010PropOp35
 70
     1
102
RTVSPost2010Prop36
280
     0
102
RTVSPost2010PropOp36
 70
     1
102
RTVSPost2010Prop37
 90
       50
102
RTVSPost2010PropOp37
 70
     0
102
RTVSPost2010Prop38
140
0.0
102
RTVSPost2010PropOp38
 70
     0
102
RTVSPost2010Prop39
140
1.0
102
RTVSPost2010PropOp39
 70
     0
102
RTVSPost2010Prop40
 90
        0
102
RTVSPost2010PropOp40
 70
     0
102
RTVSPost2010Prop41ColorIndex
 90
       18
102
RTVSPost2010Prop41ColorRGB
 90
        0
102
RTVSPost2010PropOp41
 70
     0
102
RTVSPost2010Prop42
 90
       50
102
RTVSPost2010PropOp42
 70
     0
102
RTVSPost2010Prop43
 90
        3
102
RTVSPost2010PropOp43
 70
     0
102
RTVSPost2010Prop44ColorIndex
 90
        5
102
RTVSPost2010Prop44ColorRGB
 90
      255
102
RTVSPost2010PropOp44
 70
     0
102
RTVSPost2010Prop45
280
     0
102
RTVSPost2010PropOp45
 70
     1
102
RTVSPost2010Prop46
 90
       50
102
RTVSPost2010PropOp46
 70
     0
102
RTVSPost2010Prop47
 90
       50
102
RTVSPost2010PropOp47
 70
     0
102
RTVSPost2010Prop48
 90
       50
102
RTVSPost2010PropOp48
 70
     0
102
RTVSPost2010Prop49
280
     0
102
RTVSPost2010PropOp49
 70
     1
102
RTVSPost2010Prop50
 90
       50
102
RTVSPost2010PropOp50
 70
     0
102
RTVSPost2010Prop51ColorIndex
 90
      256
102
RTVSPost2010Prop51ColorRGB
 90
-16777216
102
RTVSPost2010PropOp51
 70
     0
102
RTVSPost2010Prop52
140
1.0
102
RTVSPost2010PropOp52
 70
     0
102
RTVSPost2010Prop53
 90
        2
102
RTVSPost2010PropOp53
 70
     0
102
RTVSPost2010Prop54
  1
strokes_ogs.tif
102
RTVSPost2010PropOp54
 70
     0
102
RTVSPost2010Prop55
280
     0
102
RTVSPost2010PropOp55
 70
     1
102
RTVSPost2010Prop56
140
1.0
102
RTVSPost2010PropOp56
 70
     0
102
RTVSPost2010Prop57
140
1.0
102
RTVSPost2010PropOp57
 70
     0
102
RTVSPropertyOp0
 70
     0
102
RTVSPropertyOp1
 70
     0
102
RTVSPropertyOp2
 70
     0
102
RTVSPropertyOp3
 70
     0
102
RTVSPropertyOp4
 70
     0
102
RTVSPropertyOp5
 70
     0
102
RTVSPropertyOp6
 70
     0
102
RTVSPropertyOp7
 70
     0
102
RTVSPropertyOp8
 70
     0
102
RTVSPropertyOp9
 70
     0
102
RTVSPropertyOp10
 70
     0
102
RTVSPropertyOp11
 70
     0
102
RTVSPropertyOp12
 70
     0
102
RTVSPropertyOp13
 70
     0
102
RTVSPropertyOp14
 70
     2
102
RTVSPropertyOp15
 70
     0
102
RTVSPropertyOp16
 70
     0
102
RTVSPropertyOp17
 70
     0
102
RTVSPropertyOp18
 70
     0
102
RTVSPropertyOp19
 70
     0
102
RTVSPropertyOp20
 70
     0
102
RTVSPropertyOp21
 70
     0
102
RTVSPropertyOp22
 70
     0
102
RTVSPropertyOp23
 70
     0
102
RTVSPropertyOp24
 70
     0
102
RTVSPropertyOp25
 70
     0
102
RTVSPropertyOp26
 70
     0
102
RTVSPropertyOp27
 70
     0
102
RTVSPropertyOp28
 70
     1
102
RTVSPropertyOp29
 70
     1
102
RTVSPropertyOp30
 70
     1
102
RTVSPropertyOp31
 70
     1
102
RTVSPropertyOp32
 70
     1
102
RTVSPropertyOp33
 70
     1
102
RTVSPropertyOp34
 70
     1
102
RTVSPropertyOp35
 70
     1
102
RTVSPropertyOp36
 70
     1
102
RTVSPropertyOp37
 70
     0
102
RTVSPropertyOp38
 70
     0
102
RTVSPropertyOp39
 70
     0
102
RTVSPropertyOp40
 70
     0
102
RTVSPropertyOp41
 70
     0
102
RTVSPropertyOp42
 70
     0
102
RTVSPropertyOp43
 70
     0
102
RTVSPropertyOp44
 70
     0
102
RTVSPropertyOp45
 70
     1
102
RTVSPropertyOp46
 70
     0
102
RTVSPropertyOp47
 70
     0
102
RTVSPropertyOp48
 70
     0
102
RTVSPropertyOp49
 70
     1
102
RTVSPropertyOp50
 70
     0
102
RTVSPropertyOp51
 70
     0
102
RTVSPropertyOp52
 70
     0
102
RTVSPropertyOp53
 70
     0
102
RTVSPropertyOp54
 70
     0
102
RTVSPropertyOp55
 70
     1
102
RTVSPropertyOp56
 70
     0
102
RTVSPropertyOp57
 70
     0
102
RTVSPropertyOp58
 70
     0
102
RTVSPropertyOp59
 70
     0
102
RTVSPropertyOp60
 70
     0
102
RTVSPropertyOp61
 70
     0
102
RTVSPropertyOp62
 70
     0
  0
XRECORD
  5
B48E
102
{ACAD_REACTORS
330
B48D
102
}
330
B48D
100
AcDbXrecord
280
     1
102
RTVSPost2010Prop28
280
     0
102
RTVSPost2010PropOp28
 70
     1
102
RTVSPost2010Prop29
280
     1
102
RTVSPost2010PropOp29
 70
     1
102
RTVSPost2010Prop30
280
     1
102
RTVSPost2010PropOp30
 70
     1
102
RTVSPost2010Prop31
280
     0
102
RTVSPost2010PropOp31
 70
     1
102
RTVSPost2010Prop32
280
     0
102
RTVSPost2010PropOp32
 70
     1
102
RTVSPost2010Prop33
280
     0
102
RTVSPost2010PropOp33
 70
     1
102
RTVSPost2010Prop34
280
     0
102
RTVSPost2010PropOp34
 70
     1
102
RTVSPost2010Prop35
280
     0
102
RTVSPost2010PropOp35
 70
     1
102
RTVSPost2010Prop36
280
     0
102
RTVSPost2010PropOp36
 70
     1
102
RTVSPost2010Prop37
 90
       50
102
RTVSPost2010PropOp37
 70
     1
102
RTVSPost2010Prop38
140
0.0
102
RTVSPost2010PropOp38
 70
     1
102
RTVSPost2010Prop39
140
1.0
102
RTVSPost2010PropOp39
 70
     1
102
RTVSPost2010Prop40
 90
        0
102
RTVSPost2010PropOp40
 70
     1
102
RTVSPost2010Prop41ColorIndex
 90
       18
102
RTVSPost2010Prop41ColorRGB
 90
        0
102
RTVSPost2010PropOp41
 70
     1
102
RTVSPost2010Prop42
 90
       50
102
RTVSPost2010PropOp42
 70
     1
102
RTVSPost2010Prop43
 90
        3
102
RTVSPost2010PropOp43
 70
     1
102
RTVSPost2010Prop44ColorIndex
 90
        5
102
RTVSPost2010Prop44ColorRGB
 90
      255
102
RTVSPost2010PropOp44
 70
     1
102
RTVSPost2010Prop45
280
     0
102
RTVSPost2010PropOp45
 70
     1
102
RTVSPost2010Prop46
 90
       50
102
RTVSPost2010PropOp46
 70
     1
102
RTVSPost2010Prop47
 90
       50
102
RTVSPost2010PropOp47
 70
     1
102
RTVSPost2010Prop48
 90
       50
102
RTVSPost2010PropOp48
 70
     1
102
RTVSPost2010Prop49
280
     0
102
RTVSPost2010PropOp49
 70
     1
102
RTVSPost2010Prop50
 90
       50
102
RTVSPost2010PropOp50
 70
     1
102
RTVSPost2010Prop51ColorIndex
 90
      256
102
RTVSPost2010Prop51ColorRGB
 90
-16777216
102
RTVSPost2010PropOp51
 70
     0
102
RTVSPost2010Prop52
140
1.0
102
RTVSPost2010PropOp52
 70
     0
102
RTVSPost2010Prop53
 90
        2
102
RTVSPost2010PropOp53
 70
     1
102
RTVSPost2010Prop54
  1
strokes_ogs.tif
102
RTVSPost2010PropOp54
 70
     1
102
RTVSPost2010Prop55
280
     0
102
RTVSPost2010PropOp55
 70
     1
102
RTVSPost2010Prop56
140
1.0
102
RTVSPost2010PropOp56
 70
     1
102
RTVSPost2010Prop57
140
1.0
102
RTVSPost2010PropOp57
 70
     1
102
RTVSPropertyOp0
 70
     1
102
RTVSPropertyOp1
 70
     1
102
RTVSPropertyOp2
 70
     1
102
RTVSPropertyOp3
 70
     1
102
RTVSPropertyOp4
 70
     1
102
RTVSPropertyOp5
 70
     1
102
RTVSPropertyOp6
 70
     1
102
RTVSPropertyOp7
 70
     1
102
RTVSPropertyOp8
 70
     1
102
RTVSPropertyOp9
 70
     1
102
RTVSPropertyOp10
 70
     1
102
RTVSPropertyOp11
 70
     1
102
RTVSPropertyOp12
 70
     1
102
RTVSPropertyOp13
 70
     1
102
RTVSPropertyOp14
 70
     1
102
RTVSPropertyOp15
 70
     1
102
RTVSPropertyOp16
 70
     1
102
RTVSPropertyOp17
 70
     1
102
RTVSPropertyOp18
 70
     1
102
RTVSPropertyOp19
 70
     1
102
RTVSPropertyOp20
 70
     1
102
RTVSPropertyOp21
 70
     1
102
RTVSPropertyOp22
 70
     1
102
RTVSPropertyOp23
 70
     1
102
RTVSPropertyOp24
 70
     1
102
RTVSPropertyOp25
 70
     1
102
RTVSPropertyOp26
 70
     1
102
RTVSPropertyOp27
 70
     1
102
RTVSPropertyOp28
 70
     1
102
RTVSPropertyOp29
 70
     1
102
RTVSPropertyOp30
 70
     1
102
RTVSPropertyOp31
 70
     1
102
RTVSPropertyOp32
 70
     1
102
RTVSPropertyOp33
 70
     1
102
RTVSPropertyOp34
 70
     1
102
RTVSPropertyOp35
 70
     1
102
RTVSPropertyOp36
 70
     1
102
RTVSPropertyOp37
 70
     1
102
RTVSPropertyOp38
 70
     1
102
RTVSPropertyOp39
 70
     1
102
RTVSPropertyOp40
 70
     1
102
RTVSPropertyOp41
 70
     1
102
RTVSPropertyOp42
 70
     1
102
RTVSPropertyOp43
 70
     1
102
RTVSPropertyOp44
 70
     1
102
RTVSPropertyOp45
 70
     1
102
RTVSPropertyOp46
 70
     1
102
RTVSPropertyOp47
 70
     1
102
RTVSPropertyOp48
 70
     1
102
RTVSPropertyOp49
 70
     1
102
RTVSPropertyOp50
 70
     1
102
RTVSPropertyOp51
 70
     0
102
RTVSPropertyOp52
 70
     0
102
RTVSPropertyOp53
 70
     1
102
RTVSPropertyOp54
 70
     1
102
RTVSPropertyOp55
 70
     1
102
RTVSPropertyOp56
 70
     1
102
RTVSPropertyOp57
 70
     1
102
RTVSPropertyOp58
 70
     1
102
RTVSPropertyOp59
 70
     1
102
RTVSPropertyOp60
 70
     1
102
RTVSPropertyOp61
 70
     1
102
RTVSPropertyOp62
 70
     1
  0
XRECORD
  5
B4A4
102
{ACAD_REACTORS
330
B4A3
102
}
330
B4A3
100
AcDbXrecord
280
     1
102
RTVSPost2010Prop28
280
     0
102
RTVSPost2010PropOp28
 70
     1
102
RTVSPost2010Prop29
280
     1
102
RTVSPost2010PropOp29
 70
     1
102
RTVSPost2010Prop30
280
     1
102
RTVSPost2010PropOp30
 70
     1
102
RTVSPost2010Prop31
280
     0
102
RTVSPost2010PropOp31
 70
     1
102
RTVSPost2010Prop32
280
     0
102
RTVSPost2010PropOp32
 70
     1
102
RTVSPost2010Prop33
280
     0
102
RTVSPost2010PropOp33
 70
     1
102
RTVSPost2010Prop34
280
     0
102
RTVSPost2010PropOp34
 70
     1
102
RTVSPost2010Prop35
280
     0
102
RTVSPost2010PropOp35
 70
     1
102
RTVSPost2010Prop36
280
     0
102
RTVSPost2010PropOp36
 70
     1
102
RTVSPost2010Prop37
 90
       50
102
RTVSPost2010PropOp37
 70
     1
102
RTVSPost2010Prop38
140
0.0
102
RTVSPost2010PropOp38
 70
     1
102
RTVSPost2010Prop39
140
1.0
102
RTVSPost2010PropOp39
 70
     1
102
RTVSPost2010Prop40
 90
        0
102
RTVSPost2010PropOp40
 70
     1
102
RTVSPost2010Prop41ColorIndex
 90
       18
102
RTVSPost2010Prop41ColorRGB
 90
        0
102
RTVSPost2010PropOp41
 70
     1
102
RTVSPost2010Prop42
 90
       50
102
RTVSPost2010PropOp42
 70
     1
102
RTVSPost2010Prop43
 90
        3
102
RTVSPost2010PropOp43
 70
     1
102
RTVSPost2010Prop44ColorIndex
 90
        5
102
RTVSPost2010Prop44ColorRGB
 90
      255
102
RTVSPost2010PropOp44
 70
     1
102
RTVSPost2010Prop45
280
     0
102
RTVSPost2010PropOp45
 70
     1
102
RTVSPost2010Prop46
 90
       50
102
RTVSPost2010PropOp46
 70
     1
102
RTVSPost2010Prop47
 90
       50
102
RTVSPost2010PropOp47
 70
     1
102
RTVSPost2010Prop48
 90
       50
102
RTVSPost2010PropOp48
 70
     1
102
RTVSPost2010Prop49
280
     0
102
RTVSPost2010PropOp49
 70
     1
102
RTVSPost2010Prop50
 90
       50
102
RTVSPost2010PropOp50
 70
     1
102
RTVSPost2010Prop51ColorIndex
 90
      256
102
RTVSPost2010Prop51ColorRGB
 90
-16777216
102
RTVSPost2010PropOp51
 70
     0
102
RTVSPost2010Prop52
140
1.0
102
RTVSPost2010PropOp52
 70
     0
102
RTVSPost2010Prop53
 90
        2
102
RTVSPost2010PropOp53
 70
     1
102
RTVSPost2010Prop54
  1
strokes_ogs.tif
102
RTVSPost2010PropOp54
 70
     1
102
RTVSPost2010Prop55
280
     0
102
RTVSPost2010PropOp55
 70
     1
102
RTVSPost2010Prop56
140
1.0
102
RTVSPost2010PropOp56
 70
     1
102
RTVSPost2010Prop57
140
1.0
102
RTVSPost2010PropOp57
 70
     1
102
RTVSPropertyOp0
 70
     1
102
RTVSPropertyOp1
 70
     1
102
RTVSPropertyOp2
 70
     1
102
RTVSPropertyOp3
 70
     1
102
RTVSPropertyOp4
 70
     1
102
RTVSPropertyOp5
 70
     1
102
RTVSPropertyOp6
 70
     1
102
RTVSPropertyOp7
 70
     1
102
RTVSPropertyOp8
 70
     1
102
RTVSPropertyOp9
 70
     1
102
RTVSPropertyOp10
 70
     1
102
RTVSPropertyOp11
 70
     1
102
RTVSPropertyOp12
 70
     1
102
RTVSPropertyOp13
 70
     1
102
RTVSPropertyOp14
 70
     1
102
RTVSPropertyOp15
 70
     1
102
RTVSPropertyOp16
 70
     1
102
RTVSPropertyOp17
 70
     1
102
RTVSPropertyOp18
 70
     1
102
RTVSPropertyOp19
 70
     1
102
RTVSPropertyOp20
 70
     1
102
RTVSPropertyOp21
 70
     1
102
RTVSPropertyOp22
 70
     1
102
RTVSPropertyOp23
 70
     1
102
RTVSPropertyOp24
 70
     1
102
RTVSPropertyOp25
 70
     1
102
RTVSPropertyOp26
 70
     1
102
RTVSPropertyOp27
 70
     1
102
RTVSPropertyOp28
 70
     1
102
RTVSPropertyOp29
 70
     1
102
RTVSPropertyOp30
 70
     1
102
RTVSPropertyOp31
 70
     1
102
RTVSPropertyOp32
 70
     1
102
RTVSPropertyOp33
 70
     1
102
RTVSPropertyOp34
 70
     1
102
RTVSPropertyOp35
 70
     1
102
RTVSPropertyOp36
 70
     1
102
RTVSPropertyOp37
 70
     1
102
RTVSPropertyOp38
 70
     1
102
RTVSPropertyOp39
 70
     1
102
RTVSPropertyOp40
 70
     1
102
RTVSPropertyOp41
 70
     1
102
RTVSPropertyOp42
 70
     1
102
RTVSPropertyOp43
 70
     1
102
RTVSPropertyOp44
 70
     1
102
RTVSPropertyOp45
 70
     1
102
RTVSPropertyOp46
 70
     1
102
RTVSPropertyOp47
 70
     1
102
RTVSPropertyOp48
 70
     1
102
RTVSPropertyOp49
 70
     1
102
RTVSPropertyOp50
 70
     1
102
RTVSPropertyOp51
 70
     0
102
RTVSPropertyOp52
 70
     0
102
RTVSPropertyOp53
 70
     1
102
RTVSPropertyOp54
 70
     1
102
RTVSPropertyOp55
 70
     1
102
RTVSPropertyOp56
 70
     1
102
RTVSPropertyOp57
 70
     1
102
RTVSPropertyOp58
 70
     1
102
RTVSPropertyOp59
 70
     1
102
RTVSPropertyOp60
 70
     1
102
RTVSPropertyOp61
 70
     1
102
RTVSPropertyOp62
 70
     1
  0
XRECORD
  5
B4A2
102
{ACAD_REACTORS
330
B4A1
102
}
330
B4A1
100
AcDbXrecord
280
     1
102
RTVSPost2010Prop28
280
     0
102
RTVSPost2010PropOp28
 70
     1
102
RTVSPost2010Prop29
280
     1
102
RTVSPost2010PropOp29
 70
     1
102
RTVSPost2010Prop30
280
     1
102
RTVSPost2010PropOp30
 70
     1
102
RTVSPost2010Prop31
280
     0
102
RTVSPost2010PropOp31
 70
     1
102
RTVSPost2010Prop32
280
     0
102
RTVSPost2010PropOp32
 70
     1
102
RTVSPost2010Prop33
280
     0
102
RTVSPost2010PropOp33
 70
     1
102
RTVSPost2010Prop34
280
     0
102
RTVSPost2010PropOp34
 70
     1
102
RTVSPost2010Prop35
280
     0
102
RTVSPost2010PropOp35
 70
     1
102
RTVSPost2010Prop36
280
     0
102
RTVSPost2010PropOp36
 70
     1
102
RTVSPost2010Prop37
 90
       50
102
RTVSPost2010PropOp37
 70
     1
102
RTVSPost2010Prop38
140
0.0
102
RTVSPost2010PropOp38
 70
     1
102
RTVSPost2010Prop39
140
1.0
102
RTVSPost2010PropOp39
 70
     1
102
RTVSPost2010Prop40
 90
        0
102
RTVSPost2010PropOp40
 70
     1
102
RTVSPost2010Prop41ColorIndex
 90
       18
102
RTVSPost2010Prop41ColorRGB
 90
        0
102
RTVSPost2010PropOp41
 70
     1
102
RTVSPost2010Prop42
 90
       50
102
RTVSPost2010PropOp42
 70
     1
102
RTVSPost2010Prop43
 90
        3
102
RTVSPost2010PropOp43
 70
     1
102
RTVSPost2010Prop44ColorIndex
 90
        5
102
RTVSPost2010Prop44ColorRGB
 90
      255
102
RTVSPost2010PropOp44
 70
     1
102
RTVSPost2010Prop45
280
     0
102
RTVSPost2010PropOp45
 70
     1
102
RTVSPost2010Prop46
 90
       50
102
RTVSPost2010PropOp46
 70
     1
102
RTVSPost2010Prop47
 90
       50
102
RTVSPost2010PropOp47
 70
     1
102
RTVSPost2010Prop48
 90
       50
102
RTVSPost2010PropOp48
 70
     1
102
RTVSPost2010Prop49
280
     0
102
RTVSPost2010PropOp49
 70
     1
102
RTVSPost2010Prop50
 90
       50
102
RTVSPost2010PropOp50
 70
     1
102
RTVSPost2010Prop51ColorIndex
 90
      256
102
RTVSPost2010Prop51ColorRGB
 90
-16777216
102
RTVSPost2010PropOp51
 70
     0
102
RTVSPost2010Prop52
140
1.0
102
RTVSPost2010PropOp52
 70
     0
102
RTVSPost2010Prop53
 90
        2
102
RTVSPost2010PropOp53
 70
     1
102
RTVSPost2010Prop54
  1
strokes_ogs.tif
102
RTVSPost2010PropOp54
 70
     1
102
RTVSPost2010Prop55
280
     0
102
RTVSPost2010PropOp55
 70
     1
102
RTVSPost2010Prop56
140
1.0
102
RTVSPost2010PropOp56
 70
     1
102
RTVSPost2010Prop57
140
1.0
102
RTVSPost2010PropOp57
 70
     1
102
RTVSPropertyOp0
 70
     1
102
RTVSPropertyOp1
 70
     1
102
RTVSPropertyOp2
 70
     1
102
RTVSPropertyOp3
 70
     1
102
RTVSPropertyOp4
 70
     1
102
RTVSPropertyOp5
 70
     1
102
RTVSPropertyOp6
 70
     1
102
RTVSPropertyOp7
 70
     1
102
RTVSPropertyOp8
 70
     1
102
RTVSPropertyOp9
 70
     1
102
RTVSPropertyOp10
 70
     1
102
RTVSPropertyOp11
 70
     1
102
RTVSPropertyOp12
 70
     1
102
RTVSPropertyOp13
 70
     1
102
RTVSPropertyOp14
 70
     1
102
RTVSPropertyOp15
 70
     1
102
RTVSPropertyOp16
 70
     1
102
RTVSPropertyOp17
 70
     1
102
RTVSPropertyOp18
 70
     1
102
RTVSPropertyOp19
 70
     1
102
RTVSPropertyOp20
 70
     1
102
RTVSPropertyOp21
 70
     1
102
RTVSPropertyOp22
 70
     1
102
RTVSPropertyOp23
 70
     1
102
RTVSPropertyOp24
 70
     1
102
RTVSPropertyOp25
 70
     1
102
RTVSPropertyOp26
 70
     1
102
RTVSPropertyOp27
 70
     1
102
RTVSPropertyOp28
 70
     1
102
RTVSPropertyOp29
 70
     1
102
RTVSPropertyOp30
 70
     1
102
RTVSPropertyOp31
 70
     1
102
RTVSPropertyOp32
 70
     1
102
RTVSPropertyOp33
 70
     1
102
RTVSPropertyOp34
 70
     1
102
RTVSPropertyOp35
 70
     1
102
RTVSPropertyOp36
 70
     1
102
RTVSPropertyOp37
 70
     1
102
RTVSPropertyOp38
 70
     1
102
RTVSPropertyOp39
 70
     1
102
RTVSPropertyOp40
 70
     1
102
RTVSPropertyOp41
 70
     1
102
RTVSPropertyOp42
 70
     1
102
RTVSPropertyOp43
 70
     1
102
RTVSPropertyOp44
 70
     1
102
RTVSPropertyOp45
 70
     1
102
RTVSPropertyOp46
 70
     1
102
RTVSPropertyOp47
 70
     1
102
RTVSPropertyOp48
 70
     1
102
RTVSPropertyOp49
 70
     1
102
RTVSPropertyOp50
 70
     1
102
RTVSPropertyOp51
 70
     0
102
RTVSPropertyOp52
 70
     0
102
RTVSPropertyOp53
 70
     1
102
RTVSPropertyOp54
 70
     1
102
RTVSPropertyOp55
 70
     1
102
RTVSPropertyOp56
 70
     1
102
RTVSPropertyOp57
 70
     1
102
RTVSPropertyOp58
 70
     1
102
RTVSPropertyOp59
 70
     1
102
RTVSPropertyOp60
 70
     1
102
RTVSPropertyOp61
 70
     1
102
RTVSPropertyOp62
 70
     1
  0
XRECORD
  5
B49C
102
{ACAD_REACTORS
330
B49B
102
}
330
B49B
100
AcDbXrecord
280
     1
102
RTVSPost2010Prop28
280
     0
102
RTVSPost2010PropOp28
 70
     1
102
RTVSPost2010Prop29
280
     1
102
RTVSPost2010PropOp29
 70
     1
102
RTVSPost2010Prop30
280
     1
102
RTVSPost2010PropOp30
 70
     1
102
RTVSPost2010Prop31
280
     0
102
RTVSPost2010PropOp31
 70
     1
102
RTVSPost2010Prop32
280
     0
102
RTVSPost2010PropOp32
 70
     1
102
RTVSPost2010Prop33
280
     0
102
RTVSPost2010PropOp33
 70
     1
102
RTVSPost2010Prop34
280
     0
102
RTVSPost2010PropOp34
 70
     1
102
RTVSPost2010Prop35
280
     0
102
RTVSPost2010PropOp35
 70
     1
102
RTVSPost2010Prop36
280
     0
102
RTVSPost2010PropOp36
 70
     1
102
RTVSPost2010Prop37
 90
       50
102
RTVSPost2010PropOp37
 70
     1
102
RTVSPost2010Prop38
140
0.0
102
RTVSPost2010PropOp38
 70
     1
102
RTVSPost2010Prop39
140
1.0
102
RTVSPost2010PropOp39
 70
     1
102
RTVSPost2010Prop40
 90
        0
102
RTVSPost2010PropOp40
 70
     1
102
RTVSPost2010Prop41ColorIndex
 90
       18
102
RTVSPost2010Prop41ColorRGB
 90
        0
102
RTVSPost2010PropOp41
 70
     1
102
RTVSPost2010Prop42
 90
       50
102
RTVSPost2010PropOp42
 70
     1
102
RTVSPost2010Prop43
 90
        3
102
RTVSPost2010PropOp43
 70
     1
102
RTVSPost2010Prop44ColorIndex
 90
        5
102
RTVSPost2010Prop44ColorRGB
 90
      255
102
RTVSPost2010PropOp44
 70
     1
102
RTVSPost2010Prop45
280
     0
102
RTVSPost2010PropOp45
 70
     1
102
RTVSPost2010Prop46
 90
       50
102
RTVSPost2010PropOp46
 70
     1
102
RTVSPost2010Prop47
 90
       50
102
RTVSPost2010PropOp47
 70
     1
102
RTVSPost2010Prop48
 90
       50
102
RTVSPost2010PropOp48
 70
     1
102
RTVSPost2010Prop49
280
     0
102
RTVSPost2010PropOp49
 70
     1
102
RTVSPost2010Prop50
 90
       50
102
RTVSPost2010PropOp50
 70
     1
102
RTVSPost2010Prop51ColorIndex
 90
      256
102
RTVSPost2010Prop51ColorRGB
 90
-16777216
102
RTVSPost2010PropOp51
 70
     0
102
RTVSPost2010Prop52
140
1.0
102
RTVSPost2010PropOp52
 70
     0
102
RTVSPost2010Prop53
 90
        2
102
RTVSPost2010PropOp53
 70
     1
102
RTVSPost2010Prop54
  1
strokes_ogs.tif
102
RTVSPost2010PropOp54
 70
     1
102
RTVSPost2010Prop55
280
     0
102
RTVSPost2010PropOp55
 70
     1
102
RTVSPost2010Prop56
140
1.0
102
RTVSPost2010PropOp56
 70
     1
102
RTVSPost2010Prop57
140
1.0
102
RTVSPost2010PropOp57
 70
     1
102
RTVSPropertyOp0
 70
     1
102
RTVSPropertyOp1
 70
     1
102
RTVSPropertyOp2
 70
     1
102
RTVSPropertyOp3
 70
     1
102
RTVSPropertyOp4
 70
     1
102
RTVSPropertyOp5
 70
     1
102
RTVSPropertyOp6
 70
     1
102
RTVSPropertyOp7
 70
     1
102
RTVSPropertyOp8
 70
     1
102
RTVSPropertyOp9
 70
     1
102
RTVSPropertyOp10
 70
     1
102
RTVSPropertyOp11
 70
     1
102
RTVSPropertyOp12
 70
     1
102
RTVSPropertyOp13
 70
     1
102
RTVSPropertyOp14
 70
     1
102
RTVSPropertyOp15
 70
     1
102
RTVSPropertyOp16
 70
     1
102
RTVSPropertyOp17
 70
     1
102
RTVSPropertyOp18
 70
     1
102
RTVSPropertyOp19
 70
     1
102
RTVSPropertyOp20
 70
     1
102
RTVSPropertyOp21
 70
     1
102
RTVSPropertyOp22
 70
     1
102
RTVSPropertyOp23
 70
     1
102
RTVSPropertyOp24
 70
     1
102
RTVSPropertyOp25
 70
     1
102
RTVSPropertyOp26
 70
     1
102
RTVSPropertyOp27
 70
     1
102
RTVSPropertyOp28
 70
     1
102
RTVSPropertyOp29
 70
     1
102
RTVSPropertyOp30
 70
     1
102
RTVSPropertyOp31
 70
     1
102
RTVSPropertyOp32
 70
     1
102
RTVSPropertyOp33
 70
     1
102
RTVSPropertyOp34
 70
     1
102
RTVSPropertyOp35
 70
     1
102
RTVSPropertyOp36
 70
     1
102
RTVSPropertyOp37
 70
     1
102
RTVSPropertyOp38
 70
     1
102
RTVSPropertyOp39
 70
     1
102
RTVSPropertyOp40
 70
     1
102
RTVSPropertyOp41
 70
     1
102
RTVSPropertyOp42
 70
     1
102
RTVSPropertyOp43
 70
     1
102
RTVSPropertyOp44
 70
     1
102
RTVSPropertyOp45
 70
     1
102
RTVSPropertyOp46
 70
     1
102
RTVSPropertyOp47
 70
     1
102
RTVSPropertyOp48
 70
     1
102
RTVSPropertyOp49
 70
     1
102
RTVSPropertyOp50
 70
     1
102
RTVSPropertyOp51
 70
     0
102
RTVSPropertyOp52
 70
     0
102
RTVSPropertyOp53
 70
     1
102
RTVSPropertyOp54
 70
     1
102
RTVSPropertyOp55
 70
     1
102
RTVSPropertyOp56
 70
     1
102
RTVSPropertyOp57
 70
     1
102
RTVSPropertyOp58
 70
     1
102
RTVSPropertyOp59
 70
     1
102
RTVSPropertyOp60
 70
     1
102
RTVSPropertyOp61
 70
     1
102
RTVSPropertyOp62
 70
     1
  0
XRECORD
  5
B49E
102
{ACAD_REACTORS
330
B49D
102
}
330
B49D
100
AcDbXrecord
280
     1
102
RTVSPost2010Prop28
280
     0
102
RTVSPost2010PropOp28
 70
     1
102
RTVSPost2010Prop29
280
     1
102
RTVSPost2010PropOp29
 70
     1
102
RTVSPost2010Prop30
280
     1
102
RTVSPost2010PropOp30
 70
     1
102
RTVSPost2010Prop31
280
     0
102
RTVSPost2010PropOp31
 70
     1
102
RTVSPost2010Prop32
280
     0
102
RTVSPost2010PropOp32
 70
     1
102
RTVSPost2010Prop33
280
     0
102
RTVSPost2010PropOp33
 70
     1
102
RTVSPost2010Prop34
280
     0
102
RTVSPost2010PropOp34
 70
     1
102
RTVSPost2010Prop35
280
     0
102
RTVSPost2010PropOp35
 70
     1
102
RTVSPost2010Prop36
280
     0
102
RTVSPost2010PropOp36
 70
     1
102
RTVSPost2010Prop37
 90
       50
102
RTVSPost2010PropOp37
 70
     1
102
RTVSPost2010Prop38
140
0.0
102
RTVSPost2010PropOp38
 70
     1
102
RTVSPost2010Prop39
140
1.0
102
RTVSPost2010PropOp39
 70
     1
102
RTVSPost2010Prop40
 90
        0
102
RTVSPost2010PropOp40
 70
     1
102
RTVSPost2010Prop41ColorIndex
 90
       18
102
RTVSPost2010Prop41ColorRGB
 90
        0
102
RTVSPost2010PropOp41
 70
     1
102
RTVSPost2010Prop42
 90
       50
102
RTVSPost2010PropOp42
 70
     1
102
RTVSPost2010Prop43
 90
        3
102
RTVSPost2010PropOp43
 70
     1
102
RTVSPost2010Prop44ColorIndex
 90
        5
102
RTVSPost2010Prop44ColorRGB
 90
      255
102
RTVSPost2010PropOp44
 70
     1
102
RTVSPost2010Prop45
280
     0
102
RTVSPost2010PropOp45
 70
     1
102
RTVSPost2010Prop46
 90
       50
102
RTVSPost2010PropOp46
 70
     1
102
RTVSPost2010Prop47
 90
       50
102
RTVSPost2010PropOp47
 70
     1
102
RTVSPost2010Prop48
 90
       50
102
RTVSPost2010PropOp48
 70
     1
102
RTVSPost2010Prop49
280
     0
102
RTVSPost2010PropOp49
 70
     1
102
RTVSPost2010Prop50
 90
       50
102
RTVSPost2010PropOp50
 70
     1
102
RTVSPost2010Prop51ColorIndex
 90
      256
102
RTVSPost2010Prop51ColorRGB
 90
-16777216
102
RTVSPost2010PropOp51
 70
     0
102
RTVSPost2010Prop52
140
1.0
102
RTVSPost2010PropOp52
 70
     0
102
RTVSPost2010Prop53
 90
        2
102
RTVSPost2010PropOp53
 70
     1
102
RTVSPost2010Prop54
  1
strokes_ogs.tif
102
RTVSPost2010PropOp54
 70
     1
102
RTVSPost2010Prop55
280
     0
102
RTVSPost2010PropOp55
 70
     1
102
RTVSPost2010Prop56
140
1.0
102
RTVSPost2010PropOp56
 70
     1
102
RTVSPost2010Prop57
140
1.0
102
RTVSPost2010PropOp57
 70
     1
102
RTVSPropertyOp0
 70
     1
102
RTVSPropertyOp1
 70
     1
102
RTVSPropertyOp2
 70
     1
102
RTVSPropertyOp3
 70
     1
102
RTVSPropertyOp4
 70
     1
102
RTVSPropertyOp5
 70
     1
102
RTVSPropertyOp6
 70
     1
102
RTVSPropertyOp7
 70
     1
102
RTVSPropertyOp8
 70
     1
102
RTVSPropertyOp9
 70
     1
102
RTVSPropertyOp10
 70
     1
102
RTVSPropertyOp11
 70
     1
102
RTVSPropertyOp12
 70
     1
102
RTVSPropertyOp13
 70
     1
102
RTVSPropertyOp14
 70
     1
102
RTVSPropertyOp15
 70
     1
102
RTVSPropertyOp16
 70
     1
102
RTVSPropertyOp17
 70
     1
102
RTVSPropertyOp18
 70
     1
102
RTVSPropertyOp19
 70
     1
102
RTVSPropertyOp20
 70
     1
102
RTVSPropertyOp21
 70
     1
102
RTVSPropertyOp22
 70
     1
102
RTVSPropertyOp23
 70
     1
102
RTVSPropertyOp24
 70
     1
102
RTVSPropertyOp25
 70
     1
102
RTVSPropertyOp26
 70
     1
102
RTVSPropertyOp27
 70
     1
102
RTVSPropertyOp28
 70
     1
102
RTVSPropertyOp29
 70
     1
102
RTVSPropertyOp30
 70
     1
102
RTVSPropertyOp31
 70
     1
102
RTVSPropertyOp32
 70
     1
102
RTVSPropertyOp33
 70
     1
102
RTVSPropertyOp34
 70
     1
102
RTVSPropertyOp35
 70
     1
102
RTVSPropertyOp36
 70
     1
102
RTVSPropertyOp37
 70
     1
102
RTVSPropertyOp38
 70
     1
102
RTVSPropertyOp39
 70
     1
102
RTVSPropertyOp40
 70
     1
102
RTVSPropertyOp41
 70
     1
102
RTVSPropertyOp42
 70
     1
102
RTVSPropertyOp43
 70
     1
102
RTVSPropertyOp44
 70
     1
102
RTVSPropertyOp45
 70
     1
102
RTVSPropertyOp46
 70
     1
102
RTVSPropertyOp47
 70
     1
102
RTVSPropertyOp48
 70
     1
102
RTVSPropertyOp49
 70
     1
102
RTVSPropertyOp50
 70
     1
102
RTVSPropertyOp51
 70
     0
102
RTVSPropertyOp52
 70
     0
102
RTVSPropertyOp53
 70
     1
102
RTVSPropertyOp54
 70
     1
102
RTVSPropertyOp55
 70
     1
102
RTVSPropertyOp56
 70
     1
102
RTVSPropertyOp57
 70
     1
102
RTVSPropertyOp58
 70
     1
102
RTVSPropertyOp59
 70
     1
102
RTVSPropertyOp60
 70
     1
102
RTVSPropertyOp61
 70
     1
102
RTVSPropertyOp62
 70
     1
  0
XRECORD
  5
B494
102
{ACAD_REACTORS
330
B493
102
}
330
B493
100
AcDbXrecord
280
     1
102
RTVSPost2010Prop28
280
     0
102
RTVSPost2010PropOp28
 70
     1
102
RTVSPost2010Prop29
280
     1
102
RTVSPost2010PropOp29
 70
     1
102
RTVSPost2010Prop30
280
     1
102
RTVSPost2010PropOp30
 70
     1
102
RTVSPost2010Prop31
280
     0
102
RTVSPost2010PropOp31
 70
     1
102
RTVSPost2010Prop32
280
     0
102
RTVSPost2010PropOp32
 70
     1
102
RTVSPost2010Prop33
280
     0
102
RTVSPost2010PropOp33
 70
     1
102
RTVSPost2010Prop34
280
     0
102
RTVSPost2010PropOp34
 70
     1
102
RTVSPost2010Prop35
280
     0
102
RTVSPost2010PropOp35
 70
     1
102
RTVSPost2010Prop36
280
     0
102
RTVSPost2010PropOp36
 70
     1
102
RTVSPost2010Prop37
 90
       50
102
RTVSPost2010PropOp37
 70
     1
102
RTVSPost2010Prop38
140
0.0
102
RTVSPost2010PropOp38
 70
     1
102
RTVSPost2010Prop39
140
1.0
102
RTVSPost2010PropOp39
 70
     1
102
RTVSPost2010Prop40
 90
        0
102
RTVSPost2010PropOp40
 70
     1
102
RTVSPost2010Prop41ColorIndex
 90
       18
102
RTVSPost2010Prop41ColorRGB
 90
        0
102
RTVSPost2010PropOp41
 70
     1
102
RTVSPost2010Prop42
 90
       50
102
RTVSPost2010PropOp42
 70
     1
102
RTVSPost2010Prop43
 90
        3
102
RTVSPost2010PropOp43
 70
     1
102
RTVSPost2010Prop44ColorIndex
 90
        5
102
RTVSPost2010Prop44ColorRGB
 90
      255
102
RTVSPost2010PropOp44
 70
     1
102
RTVSPost2010Prop45
280
     0
102
RTVSPost2010PropOp45
 70
     1
102
RTVSPost2010Prop46
 90
       50
102
RTVSPost2010PropOp46
 70
     1
102
RTVSPost2010Prop47
 90
       50
102
RTVSPost2010PropOp47
 70
     1
102
RTVSPost2010Prop48
 90
       50
102
RTVSPost2010PropOp48
 70
     1
102
RTVSPost2010Prop49
280
     0
102
RTVSPost2010PropOp49
 70
     1
102
RTVSPost2010Prop50
 90
       50
102
RTVSPost2010PropOp50
 70
     1
102
RTVSPost2010Prop51ColorIndex
 90
      256
102
RTVSPost2010Prop51ColorRGB
 90
-16777216
102
RTVSPost2010PropOp51
 70
     0
102
RTVSPost2010Prop52
140
1.0
102
RTVSPost2010PropOp52
 70
     0
102
RTVSPost2010Prop53
 90
        2
102
RTVSPost2010PropOp53
 70
     1
102
RTVSPost2010Prop54
  1
strokes_ogs.tif
102
RTVSPost2010PropOp54
 70
     1
102
RTVSPost2010Prop55
280
     0
102
RTVSPost2010PropOp55
 70
     1
102
RTVSPost2010Prop56
140
1.0
102
RTVSPost2010PropOp56
 70
     1
102
RTVSPost2010Prop57
140
1.0
102
RTVSPost2010PropOp57
 70
     1
102
RTVSPropertyOp0
 70
     1
102
RTVSPropertyOp1
 70
     1
102
RTVSPropertyOp2
 70
     1
102
RTVSPropertyOp3
 70
     1
102
RTVSPropertyOp4
 70
     1
102
RTVSPropertyOp5
 70
     1
102
RTVSPropertyOp6
 70
     1
102
RTVSPropertyOp7
 70
     1
102
RTVSPropertyOp8
 70
     1
102
RTVSPropertyOp9
 70
     1
102
RTVSPropertyOp10
 70
     1
102
RTVSPropertyOp11
 70
     1
102
RTVSPropertyOp12
 70
     1
102
RTVSPropertyOp13
 70
     1
102
RTVSPropertyOp14
 70
     1
102
RTVSPropertyOp15
 70
     1
102
RTVSPropertyOp16
 70
     1
102
RTVSPropertyOp17
 70
     1
102
RTVSPropertyOp18
 70
     1
102
RTVSPropertyOp19
 70
     1
102
RTVSPropertyOp20
 70
     1
102
RTVSPropertyOp21
 70
     1
102
RTVSPropertyOp22
 70
     1
102
RTVSPropertyOp23
 70
     1
102
RTVSPropertyOp24
 70
     1
102
RTVSPropertyOp25
 70
     1
102
RTVSPropertyOp26
 70
     1
102
RTVSPropertyOp27
 70
     1
102
RTVSPropertyOp28
 70
     1
102
RTVSPropertyOp29
 70
     1
102
RTVSPropertyOp30
 70
     1
102
RTVSPropertyOp31
 70
     1
102
RTVSPropertyOp32
 70
     1
102
RTVSPropertyOp33
 70
     1
102
RTVSPropertyOp34
 70
     1
102
RTVSPropertyOp35
 70
     1
102
RTVSPropertyOp36
 70
     1
102
RTVSPropertyOp37
 70
     1
102
RTVSPropertyOp38
 70
     1
102
RTVSPropertyOp39
 70
     1
102
RTVSPropertyOp40
 70
     1
102
RTVSPropertyOp41
 70
     1
102
RTVSPropertyOp42
 70
     1
102
RTVSPropertyOp43
 70
     1
102
RTVSPropertyOp44
 70
     1
102
RTVSPropertyOp45
 70
     1
102
RTVSPropertyOp46
 70
     1
102
RTVSPropertyOp47
 70
     1
102
RTVSPropertyOp48
 70
     1
102
RTVSPropertyOp49
 70
     1
102
RTVSPropertyOp50
 70
     1
102
RTVSPropertyOp51
 70
     0
102
RTVSPropertyOp52
 70
     0
102
RTVSPropertyOp53
 70
     1
102
RTVSPropertyOp54
 70
     1
102
RTVSPropertyOp55
 70
     1
102
RTVSPropertyOp56
 70
     1
102
RTVSPropertyOp57
 70
     1
102
RTVSPropertyOp58
 70
     1
102
RTVSPropertyOp59
 70
     1
102
RTVSPropertyOp60
 70
     1
102
RTVSPropertyOp61
 70
     1
102
RTVSPropertyOp62
 70
     1
  0
XRECORD
  5
B488
102
{ACAD_REACTORS
330
B487
102
}
330
B487
100
AcDbXrecord
280
     1
102
RTVSPost2010Prop28
280
     0
102
RTVSPost2010PropOp28
 70
     1
102
RTVSPost2010Prop29
280
     1
102
RTVSPost2010PropOp29
 70
     1
102
RTVSPost2010Prop30
280
     1
102
RTVSPost2010PropOp30
 70
     1
102
RTVSPost2010Prop31
280
     0
102
RTVSPost2010PropOp31
 70
     1
102
RTVSPost2010Prop32
280
     0
102
RTVSPost2010PropOp32
 70
     1
102
RTVSPost2010Prop33
280
     0
102
RTVSPost2010PropOp33
 70
     1
102
RTVSPost2010Prop34
280
     0
102
RTVSPost2010PropOp34
 70
     1
102
RTVSPost2010Prop35
280
     0
102
RTVSPost2010PropOp35
 70
     1
102
RTVSPost2010Prop36
280
     0
102
RTVSPost2010PropOp36
 70
     1
102
RTVSPost2010Prop37
 90
       50
102
RTVSPost2010PropOp37
 70
     1
102
RTVSPost2010Prop38
140
0.0
102
RTVSPost2010PropOp38
 70
     1
102
RTVSPost2010Prop39
140
1.0
102
RTVSPost2010PropOp39
 70
     1
102
RTVSPost2010Prop40
 90
        0
102
RTVSPost2010PropOp40
 70
     1
102
RTVSPost2010Prop41ColorIndex
 90
       18
102
RTVSPost2010Prop41ColorRGB
 90
        0
102
RTVSPost2010PropOp41
 70
     1
102
RTVSPost2010Prop42
 90
       50
102
RTVSPost2010PropOp42
 70
     1
102
RTVSPost2010Prop43
 90
        3
102
RTVSPost2010PropOp43
 70
     1
102
RTVSPost2010Prop44ColorIndex
 90
        5
102
RTVSPost2010Prop44ColorRGB
 90
      255
102
RTVSPost2010PropOp44
 70
     1
102
RTVSPost2010Prop45
280
     0
102
RTVSPost2010PropOp45
 70
     1
102
RTVSPost2010Prop46
 90
       50
102
RTVSPost2010PropOp46
 70
     1
102
RTVSPost2010Prop47
 90
       50
102
RTVSPost2010PropOp47
 70
     1
102
RTVSPost2010Prop48
 90
       50
102
RTVSPost2010PropOp48
 70
     1
102
RTVSPost2010Prop49
280
     0
102
RTVSPost2010PropOp49
 70
     1
102
RTVSPost2010Prop50
 90
       50
102
RTVSPost2010PropOp50
 70
     1
102
RTVSPost2010Prop51ColorIndex
 90
      256
102
RTVSPost2010Prop51ColorRGB
 90
-16777216
102
RTVSPost2010PropOp51
 70
     0
102
RTVSPost2010Prop52
140
1.0
102
RTVSPost2010PropOp52
 70
     0
102
RTVSPost2010Prop53
 90
        2
102
RTVSPost2010PropOp53
 70
     1
102
RTVSPost2010Prop54
  1
strokes_ogs.tif
102
RTVSPost2010PropOp54
 70
     1
102
RTVSPost2010Prop55
280
     0
102
RTVSPost2010PropOp55
 70
     1
102
RTVSPost2010Prop56
140
1.0
102
RTVSPost2010PropOp56
 70
     1
102
RTVSPost2010Prop57
140
1.0
102
RTVSPost2010PropOp57
 70
     1
102
RTVSPropertyOp0
 70
     1
102
RTVSPropertyOp1
 70
     1
102
RTVSPropertyOp2
 70
     1
102
RTVSPropertyOp3
 70
     1
102
RTVSPropertyOp4
 70
     1
102
RTVSPropertyOp5
 70
     1
102
RTVSPropertyOp6
 70
     1
102
RTVSPropertyOp7
 70
     1
102
RTVSPropertyOp8
 70
     1
102
RTVSPropertyOp9
 70
     1
102
RTVSPropertyOp10
 70
     1
102
RTVSPropertyOp11
 70
     1
102
RTVSPropertyOp12
 70
     1
102
RTVSPropertyOp13
 70
     1
102
RTVSPropertyOp14
 70
     1
102
RTVSPropertyOp15
 70
     1
102
RTVSPropertyOp16
 70
     1
102
RTVSPropertyOp17
 70
     1
102
RTVSPropertyOp18
 70
     1
102
RTVSPropertyOp19
 70
     1
102
RTVSPropertyOp20
 70
     1
102
RTVSPropertyOp21
 70
     1
102
RTVSPropertyOp22
 70
     1
102
RTVSPropertyOp23
 70
     1
102
RTVSPropertyOp24
 70
     1
102
RTVSPropertyOp25
 70
     1
102
RTVSPropertyOp26
 70
     1
102
RTVSPropertyOp27
 70
     1
102
RTVSPropertyOp28
 70
     1
102
RTVSPropertyOp29
 70
     1
102
RTVSPropertyOp30
 70
     1
102
RTVSPropertyOp31
 70
     1
102
RTVSPropertyOp32
 70
     1
102
RTVSPropertyOp33
 70
     1
102
RTVSPropertyOp34
 70
     1
102
RTVSPropertyOp35
 70
     1
102
RTVSPropertyOp36
 70
     1
102
RTVSPropertyOp37
 70
     1
102
RTVSPropertyOp38
 70
     1
102
RTVSPropertyOp39
 70
     1
102
RTVSPropertyOp40
 70
     1
102
RTVSPropertyOp41
 70
     1
102
RTVSPropertyOp42
 70
     1
102
RTVSPropertyOp43
 70
     1
102
RTVSPropertyOp44
 70
     1
102
RTVSPropertyOp45
 70
     1
102
RTVSPropertyOp46
 70
     1
102
RTVSPropertyOp47
 70
     1
102
RTVSPropertyOp48
 70
     1
102
RTVSPropertyOp49
 70
     1
102
RTVSPropertyOp50
 70
     1
102
RTVSPropertyOp51
 70
     0
102
RTVSPropertyOp52
 70
     0
102
RTVSPropertyOp53
 70
     1
102
RTVSPropertyOp54
 70
     1
102
RTVSPropertyOp55
 70
     1
102
RTVSPropertyOp56
 70
     1
102
RTVSPropertyOp57
 70
     1
102
RTVSPropertyOp58
 70
     1
102
RTVSPropertyOp59
 70
     1
102
RTVSPropertyOp60
 70
     1
102
RTVSPropertyOp61
 70
     1
102
RTVSPropertyOp62
 70
     1
  0
XRECORD
  5
B4A0
102
{ACAD_REACTORS
330
B49F
102
}
330
B49F
100
AcDbXrecord
280
     1
102
RTVSPost2010Prop28
280
     0
102
RTVSPost2010PropOp28
 70
     1
102
RTVSPost2010Prop29
280
     1
102
RTVSPost2010PropOp29
 70
     1
102
RTVSPost2010Prop30
280
     1
102
RTVSPost2010PropOp30
 70
     1
102
RTVSPost2010Prop31
280
     0
102
RTVSPost2010PropOp31
 70
     1
102
RTVSPost2010Prop32
280
     0
102
RTVSPost2010PropOp32
 70
     1
102
RTVSPost2010Prop33
280
     0
102
RTVSPost2010PropOp33
 70
     1
102
RTVSPost2010Prop34
280
     0
102
RTVSPost2010PropOp34
 70
     1
102
RTVSPost2010Prop35
280
     0
102
RTVSPost2010PropOp35
 70
     1
102
RTVSPost2010Prop36
280
     0
102
RTVSPost2010PropOp36
 70
     1
102
RTVSPost2010Prop37
 90
       50
102
RTVSPost2010PropOp37
 70
     1
102
RTVSPost2010Prop38
140
0.0
102
RTVSPost2010PropOp38
 70
     1
102
RTVSPost2010Prop39
140
1.0
102
RTVSPost2010PropOp39
 70
     1
102
RTVSPost2010Prop40
 90
        0
102
RTVSPost2010PropOp40
 70
     1
102
RTVSPost2010Prop41ColorIndex
 90
       18
102
RTVSPost2010Prop41ColorRGB
 90
        0
102
RTVSPost2010PropOp41
 70
     1
102
RTVSPost2010Prop42
 90
       50
102
RTVSPost2010PropOp42
 70
     1
102
RTVSPost2010Prop43
 90
        3
102
RTVSPost2010PropOp43
 70
     1
102
RTVSPost2010Prop44ColorIndex
 90
        5
102
RTVSPost2010Prop44ColorRGB
 90
      255
102
RTVSPost2010PropOp44
 70
     1
102
RTVSPost2010Prop45
280
     0
102
RTVSPost2010PropOp45
 70
     1
102
RTVSPost2010Prop46
 90
       50
102
RTVSPost2010PropOp46
 70
     1
102
RTVSPost2010Prop47
 90
       50
102
RTVSPost2010PropOp47
 70
     1
102
RTVSPost2010Prop48
 90
       50
102
RTVSPost2010PropOp48
 70
     1
102
RTVSPost2010Prop49
280
     0
102
RTVSPost2010PropOp49
 70
     1
102
RTVSPost2010Prop50
 90
       50
102
RTVSPost2010PropOp50
 70
     1
102
RTVSPost2010Prop51ColorIndex
 90
      256
102
RTVSPost2010Prop51ColorRGB
 90
-16777216
102
RTVSPost2010PropOp51
 70
     0
102
RTVSPost2010Prop52
140
1.0
102
RTVSPost2010PropOp52
 70
     0
102
RTVSPost2010Prop53
 90
        2
102
RTVSPost2010PropOp53
 70
     1
102
RTVSPost2010Prop54
  1
strokes_ogs.tif
102
RTVSPost2010PropOp54
 70
     1
102
RTVSPost2010Prop55
280
     0
102
RTVSPost2010PropOp55
 70
     1
102
RTVSPost2010Prop56
140
1.0
102
RTVSPost2010PropOp56
 70
     1
102
RTVSPost2010Prop57
140
1.0
102
RTVSPost2010PropOp57
 70
     1
102
RTVSPropertyOp0
 70
     1
102
RTVSPropertyOp1
 70
     1
102
RTVSPropertyOp2
 70
     1
102
RTVSPropertyOp3
 70
     1
102
RTVSPropertyOp4
 70
     1
102
RTVSPropertyOp5
 70
     1
102
RTVSPropertyOp6
 70
     1
102
RTVSPropertyOp7
 70
     1
102
RTVSPropertyOp8
 70
     1
102
RTVSPropertyOp9
 70
     1
102
RTVSPropertyOp10
 70
     1
102
RTVSPropertyOp11
 70
     1
102
RTVSPropertyOp12
 70
     1
102
RTVSPropertyOp13
 70
     1
102
RTVSPropertyOp14
 70
     1
102
RTVSPropertyOp15
 70
     1
102
RTVSPropertyOp16
 70
     1
102
RTVSPropertyOp17
 70
     1
102
RTVSPropertyOp18
 70
     1
102
RTVSPropertyOp19
 70
     1
102
RTVSPropertyOp20
 70
     1
102
RTVSPropertyOp21
 70
     1
102
RTVSPropertyOp22
 70
     1
102
RTVSPropertyOp23
 70
     1
102
RTVSPropertyOp24
 70
     1
102
RTVSPropertyOp25
 70
     1
102
RTVSPropertyOp26
 70
     1
102
RTVSPropertyOp27
 70
     1
102
RTVSPropertyOp28
 70
     1
102
RTVSPropertyOp29
 70
     1
102
RTVSPropertyOp30
 70
     1
102
RTVSPropertyOp31
 70
     1
102
RTVSPropertyOp32
 70
     1
102
RTVSPropertyOp33
 70
     1
102
RTVSPropertyOp34
 70
     1
102
RTVSPropertyOp35
 70
     1
102
RTVSPropertyOp36
 70
     1
102
RTVSPropertyOp37
 70
     1
102
RTVSPropertyOp38
 70
     1
102
RTVSPropertyOp39
 70
     1
102
RTVSPropertyOp40
 70
     1
102
RTVSPropertyOp41
 70
     1
102
RTVSPropertyOp42
 70
     1
102
RTVSPropertyOp43
 70
     1
102
RTVSPropertyOp44
 70
     1
102
RTVSPropertyOp45
 70
     1
102
RTVSPropertyOp46
 70
     1
102
RTVSPropertyOp47
 70
     1
102
RTVSPropertyOp48
 70
     1
102
RTVSPropertyOp49
 70
     1
102
RTVSPropertyOp50
 70
     1
102
RTVSPropertyOp51
 70
     0
102
RTVSPropertyOp52
 70
     0
102
RTVSPropertyOp53
 70
     1
102
RTVSPropertyOp54
 70
     1
102
RTVSPropertyOp55
 70
     1
102
RTVSPropertyOp56
 70
     1
102
RTVSPropertyOp57
 70
     1
102
RTVSPropertyOp58
 70
     1
102
RTVSPropertyOp59
 70
     1
102
RTVSPropertyOp60
 70
     1
102
RTVSPropertyOp61
 70
     1
102
RTVSPropertyOp62
 70
     1
  0
ENDSEC
  0
EOF
