  0
SECTION
  2
HEADER
  9
$ACADVER
  1
AC1015
  9
$ACADMAINTVER
 70
    20
  9
$DWGCODEPAGE
  3
ANSI_932
  9
$INSBASE
 10
0.0
 20
0.0
 30
0.0
  9
$EXTMIN
 10
10.0
 20
9.999999999999998
 30
0.0
  9
$EXTMAX
 10
750.5457679999997
 20
523.951795
 30
0.0
  9
$LIMMIN
 10
0.0
 20
0.0
  9
$LIMMAX
 10
792.0
 20
546.0
  9
$ORTHOMODE
 70
     1
  9
$REGENMODE
 70
     1
  9
$FILLMODE
 70
     1
  9
$QTEXTMODE
 70
     0
  9
$MIRRTEXT
 70
     1
  9
$LTSCALE
 40
20.0
  9
$ATTMODE
 70
     1
  9
$TEXTSIZE
 40
5.0
  9
$TRACEWID
 40
1.0
  9
$TEXTSTYLE
  7
STANDARD
  9
$CLAYER
  8
0
  9
$CELTYPE
  6
BYLAYER
  9
$CECOLOR
 62
   256
  9
$CELTSCALE
 40
1.0
  9
$DISPSILH
 70
     0
  9
$DIMSCALE
 40
1.0
  9
$DIMASZ
 40
3.0
  9
$DIMEXO
 40
1.0
  9
$DIMDLI
 40
10.0
  9
$DIMRND
 40
0.0
  9
$DIMDLE
 40
0.0
  9
$DIMEXE
 40
1.0
  9
$DIMTP
 40
0.0
  9
$DIMTM
 40
0.0
  9
$DIMTXT
 40
3.2
  9
$DIMCEN
 40
0.0
  9
$DIMTSZ
 40
0.0
  9
$DIMTOL
 70
     0
  9
$DIMLIM
 70
     0
  9
$DIMTIH
 70
     0
  9
$DIMTOH
 70
     0
  9
$DIMSE1
 70
     0
  9
$DIMSE2
 70
     0
  9
$DIMTAD
 70
     3
  9
$DIMZIN
 70
     8
  9
$DIMBLK
  1

  9
$DIMASO
 70
     1
  9
$DIMSHO
 70
     1
  9
$DIMPOST
  1

  9
$DIMAPOST
  1

  9
$DIMALT
 70
     0
  9
$DIMALTD
 70
     2
  9
$DIMALTF
 40
25.4
  9
$DIMLFAC
 40
1.0
  9
$DIMTOFL
 70
     1
  9
$DIMTVP
 40
0.0
  9
$DIMTIX
 70
     0
  9
$DIMSOXD
 70
     0
  9
$DIMSAH
 70
     1
  9
$DIMBLK1
  1
OPEN
  9
$DIMBLK2
  1
OPEN
  9
$DIMSTYLE
  2
STANDARD
  9
$DIMCLRD
 70
     0
  9
$DIMCLRE
 70
     0
  9
$DIMCLRT
 70
     0
  9
$DIMTFAC
 40
1.0
  9
$DIMGAP
 40
1.0
  9
$DIMJUST
 70
     0
  9
$DIMSD1
 70
     0
  9
$DIMSD2
 70
     0
  9
$DIMTOLJ
 70
     1
  9
$DIMTZIN
 70
     0
  9
$DIMALTZ
 70
     0
  9
$DIMALTTZ
 70
     0
  9
$DIMUPT
 70
     0
  9
$DIMDEC
 70
     4
  9
$DIMTDEC
 70
     4
  9
$DIMALTU
 70
     2
  9
$DIMALTTD
 70
     2
  9
$DIMTXSTY
  7
STANDARD
  9
$DIMAUNIT
 70
     0
  9
$DIMADEC
 70
     0
  9
$DIMALTRND
 40
0.0
  9
$DIMAZIN
 70
     0
  9
$DIMDSEP
 70
    46
  9
$DIMATFIT
 70
     3
  9
$DIMFRAC
 70
     0
  9
$DIMLDRBLK
  1
OPEN
  9
$DIMLUNIT
 70
     2
  9
$DIMLWD
 70
    -2
  9
$DIMLWE
 70
    -2
  9
$DIMTMOVE
 70
     0
  9
$LUNITS
 70
     2
  9
$LUPREC
 70
     4
  9
$SKETCHINC
 40
1.0
  9
$FILLETRAD
 40
12.3
  9
$AUNITS
 70
     0
  9
$AUPREC
 70
     2
  9
$MENU
  1
.
  9
$ELEVATION
 40
0.0
  9
$PELEVATION
 40
0.0
  9
$THICKNESS
 40
0.0
  9
$LIMCHECK
 70
     0
  9
$CHAMFERA
 40
10.0
  9
$CHAMFERB
 40
10.0
  9
$CHAMFERC
 40
0.0
  9
$CHAMFERD
 40
0.0
  9
$SKPOLY
 70
     0
  9
$TDCREATE
 40
2451301.720786458
  9
$TDUCREATE
 40
2451301.345786458
  9
$TDUPDATE
 40
2457618.724107211
  9
$TDUUPDATE
 40
2457618.349107211
  9
$TDINDWG
 40
0.0000821875
  9
$TDUSRTIMER
 40
0.0000820023
  9
$USRTIMER
 70
     1
  9
$ANGBASE
 50
0.0
  9
$ANGDIR
 70
     0
  9
$PDMODE
 70
     0
  9
$PDSIZE
 40
0.0
  9
$PLINEWID
 40
0.0
  9
$SPLFRAME
 70
     0
  9
$SPLINETYPE
 70
     6
  9
$SPLINESEGS
 70
     8
  9
$HANDSEED
  5
BD36
  9
$SURFTAB1
 70
     6
  9
$SURFTAB2
 70
     6
  9
$SURFTYPE
 70
     6
  9
$SURFU
 70
     6
  9
$SURFV
 70
     6
  9
$UCSBASE
  2

  9
$UCSNAME
  2

  9
$UCSORG
 10
0.0
 20
0.0
 30
0.0
  9
$UCSXDIR
 10
1.0
 20
0.0
 30
0.0
  9
$UCSYDIR
 10
0.0
 20
1.0
 30
0.0
  9
$UCSORTHOREF
  2

  9
$UCSORTHOVIEW
 70
     0
  9
$UCSORGTOP
 10
0.0
 20
0.0
 30
0.0
  9
$UCSORGBOTTOM
 10
0.0
 20
0.0
 30
0.0
  9
$UCSORGLEFT
 10
0.0
 20
0.0
 30
0.0
  9
$UCSORGRIGHT
 10
0.0
 20
0.0
 30
0.0
  9
$UCSORGFRONT
 10
0.0
 20
0.0
 30
0.0
  9
$UCSORGBACK
 10
0.0
 20
0.0
 30
0.0
  9
$PUCSBASE
  2

  9
$PUCSNAME
  2

  9
$PUCSORG
 10
0.0
 20
0.0
 30
0.0
  9
$PUCSXDIR
 10
1.0
 20
0.0
 30
0.0
  9
$PUCSYDIR
 10
0.0
 20
1.0
 30
0.0
  9
$PUCSORTHOREF
  2

  9
$PUCSORTHOVIEW
 70
     0
  9
$PUCSORGTOP
 10
0.0
 20
0.0
 30
0.0
  9
$PUCSORGBOTTOM
 10
0.0
 20
0.0
 30
0.0
  9
$PUCSORGLEFT
 10
0.0
 20
0.0
 30
0.0
  9
$PUCSORGRIGHT
 10
0.0
 20
0.0
 30
0.0
  9
$PUCSORGFRONT
 10
0.0
 20
0.0
 30
0.0
  9
$PUCSORGBACK
 10
0.0
 20
0.0
 30
0.0
  9
$USERI1
 70
     0
  9
$USERI2
 70
     0
  9
$USERI3
 70
     0
  9
$USERI4
 70
     0
  9
$USERI5
 70
     0
  9
$USERR1
 40
0.0
  9
$USERR2
 40
0.0
  9
$USERR3
 40
0.0
  9
$USERR4
 40
0.0
  9
$USERR5
 40
0.0
  9
$WORLDVIEW
 70
     1
  9
$SHADEDGE
 70
     3
  9
$SHADEDIF
 70
    70
  9
$TILEMODE
 70
     1
  9
$MAXACTVP
 70
    16
  9
$PINSBASE
 10
0.0
 20
0.0
 30
0.0
  9
$PLIMCHECK
 70
     0
  9
$PEXTMIN
 10
1.000000000000000E+20
 20
1.000000000000000E+20
 30
1.000000000000000E+20
  9
$PEXTMAX
 10
-1.000000000000000E+20
 20
-1.000000000000000E+20
 30
-1.000000000000000E+20
  9
$PLIMMIN
 10
0.0
 20
0.0
  9
$PLIMMAX
 10
420.0
 20
297.0
  9
$UNITMODE
 70
     0
  9
$VISRETAIN
 70
     0
  9
$PLINEGEN
 70
     0
  9
$PSLTSCALE
 70
     0
  9
$TREEDEPTH
 70
  3020
  9
$CMLSTYLE
  2
STANDARD
  9
$CMLJUST
 70
     0
  9
$CMLSCALE
 40
1.0
  9
$PROXYGRAPHICS
 70
     1
  9
$MEASUREMENT
 70
     0
  9
$CELWEIGHT
370
    -1
  9
$ENDCAPS
280
     0
  9
$JOINSTYLE
280
     0
  9
$LWDISPLAY
290
     0
  9
$INSUNITS
 70
     0
  9
$HYPERLINKBASE
  1

  9
$STYLESHEET
  1

  9
$XEDIT
290
     1
  9
$CEPSNTYPE
380
     0
  9
$PSTYLEMODE
290
     1
  9
$FINGERPRINTGUID
  2
{791E7EC6-93A3-44A3-8938-013F916180CB}
  9
$VERSIONGUID
  2
{C4498D89-6ABD-4BE8-96CE-349530E44A3B}
  9
$EXTNAMES
290
     1
  9
$PSVPSCALE
 40
0.0
  9
$OLESTARTUP
290
     0
  0
ENDSEC
  0
SECTION
  2
CLASSES
  0
CLASS
  1
ACDBDICTIONARYWDFLT
  2
AcDbDictionaryWithDefault
  3
ObjectDBX Classes
 90
        0
280
     0
281
     0
  0
CLASS
  1
ACDBPLACEHOLDER
  2
AcDbPlaceHolder
  3
ObjectDBX Classes
 90
        0
280
     0
281
     0
  0
CLASS
  1
LAYOUT
  2
AcDbLayout
  3
ObjectDBX Classes
 90
        0
280
     0
281
     0
  0
CLASS
  1
DICTIONARYVAR
  2
AcDbDictionaryVar
  3
ObjectDBX Classes
 90
        0
280
     0
281
     0
  0
CLASS
  1
MATERIAL
  2
AcDbMaterial
  3
ObjectDBX Classes
 90
     1153
280
     0
281
     0
  0
CLASS
  1
VISUALSTYLE
  2
AcDbVisualStyle
  3
ObjectDBX Classes
 90
     4095
280
     0
281
     0
  0
CLASS
  1
TABLESTYLE
  2
AcDbTableStyle
  3
ObjectDBX Classes
 90
     4095
280
     0
281
     0
  0
CLASS
  1
SCALE
  2
AcDbScale
  3
ObjectDBX Classes
 90
     1153
280
     0
281
     0
  0
CLASS
  1
MLEADERSTYLE
  2
AcDbMLeaderStyle
  3
ACDB_MLEADERSTYLE_CLASS
 90
     4095
280
     0
281
     0
  0
CLASS
  1
ACDBSECTIONVIEWSTYLE
  2
AcDbSectionViewStyle
  3
ObjectDBX Classes
 90
     1025
280
     0
281
     0
  0
CLASS
  1
ACDBDETAILVIEWSTYLE
  2
AcDbDetailViewStyle
  3
ObjectDBX Classes
 90
     1025
280
     0
281
     0
  0
CLASS
  1
CELLSTYLEMAP
  2
AcDbCellStyleMap
  3
ObjectDBX Classes
 90
     1152
280
     0
281
     0
  0
ENDSEC
  0
SECTION
  2
TABLES
  0
TABLE
  2
VPORT
  5
B865
330
0
100
AcDbSymbolTable
 70
     1
  0
VPORT
  5
BC7F
330
B865
100
AcDbSymbolTableRecord
100
AcDbViewportTableRecord
  2
*ACTIVE
 70
     0
 10
0.0
 20
0.0
 11
1.0
 21
1.0
 12
592.3379960250124
 22
266.8140118841709
 13
0.0
 23
0.0
 14
10.0
 24
10.0
 15
10.0
 25
10.0
 16
0.0
 26
0.0
 36
1.0
 17
0.0
 27
0.0
 37
0.0
 40
519.3538304780134
 41
2.567642956764295
 42
50.0
 43
0.0
 44
0.0
 50
0.0
 51
0.0
 71
     0
 72
   100
 73
     1
 74
     0
 75
     0
 76
     0
 77
     0
 78
     0
281
     0
 65
     1
110
0.0
120
0.0
130
0.0
111
1.0
121
0.0
131
0.0
112
0.0
122
1.0
132
0.0
 79
     0
146
0.0
1001
ACAD_NAV_VCDISPLAY
1070
     3
  0
ENDTAB
  0
TABLE
  2
LTYPE
  5
B862
330
0
100
AcDbSymbolTable
 70
     4
  0
LTYPE
  5
B870
330
B862
100
AcDbSymbolTableRecord
100
AcDbLinetypeTableRecord
  2
BYBLOCK
 70
     0
  3

 72
    65
 73
     0
 40
0.0
  0
LTYPE
  5
B871
330
B862
100
AcDbSymbolTableRecord
100
AcDbLinetypeTableRecord
  2
BYLAYER
 70
     0
  3

 72
    65
 73
     0
 40
0.0
  0
LTYPE
  5
B872
330
B862
100
AcDbSymbolTableRecord
100
AcDbLinetypeTableRecord
  2
CONTINUOUS
 70
     0
  3
Solid line
 72
    65
 73
     0
 40
0.0
  0
LTYPE
  5
B880
330
B862
100
AcDbSymbolTableRecord
100
AcDbLinetypeTableRecord
  2
DASHED
 70
     0
  3
__ __ __ __ __ __ __ __ __ __ __ __ __ __ __ __
 72
    65
 73
     2
 40
0.75
 49
0.5
 74
     0
 49
-0.25
 74
     0
  0
LTYPE
  5
B881
330
B862
100
AcDbSymbolTableRecord
100
AcDbLinetypeTableRecord
  2
CENTER
 70
     0
  3
____ _ ____ _ ____ _ ____ _ ____ _ ____ _ ____ 
 72
    65
 73
     4
 40
2.0
 49
1.25
 74
     0
 49
-0.25
 74
     0
 49
0.25
 74
     0
 49
-0.25
 74
     0
  0
LTYPE
  5
B882
330
B862
100
AcDbSymbolTableRecord
100
AcDbLinetypeTableRecord
  2
PHANTOM
 70
     0
  3
______  __  __  ______  __  __  ______  __  __ 
 72
    65
 73
     6
 40
2.5
 49
1.25
 74
     0
 49
-0.25
 74
     0
 49
0.25
 74
     0
 49
-0.25
 74
     0
 49
0.25
 74
     0
 49
-0.25
 74
     0
  0
ENDTAB
  0
TABLE
  2
LAYER
  5
B85F
330
0
100
AcDbSymbolTable
 70
     8
  0
LAYER
  5
B86D
102
{ACAD_XDICTIONARY
360
BCDA
102
}
330
B85F
100
AcDbSymbolTableRecord
100
AcDbLayerTableRecord
  2
0
 70
     0
 62
     7
  6
CONTINUOUS
370
    -3
390
BC88
  0
LAYER
  5
B883
102
{ACAD_XDICTIONARY
360
BCDC
102
}
330
B85F
100
AcDbSymbolTableRecord
100
AcDbLayerTableRecord
  2
4
 70
     0
 62
     1
  6
CENTER
370
    -3
390
BC88
  0
LAYER
  5
B884
102
{ACAD_XDICTIONARY
360
BCDE
102
}
330
B85F
100
AcDbSymbolTableRecord
100
AcDbLayerTableRecord
  2
5
 70
     0
 62
     6
  6
PHANTOM
370
    -3
390
BC88
  0
LAYER
  5
B885
102
{ACAD_XDICTIONARY
360
BCE0
102
}
330
B85F
100
AcDbSymbolTableRecord
100
AcDbLayerTableRecord
  2
1
 70
     0
 62
     7
  6
CONTINUOUS
370
    -3
390
BC88
  0
LAYER
  5
B886
102
{ACAD_XDICTIONARY
360
BCE2
102
}
330
B85F
100
AcDbSymbolTableRecord
100
AcDbLayerTableRecord
  2
2
 70
     0
 62
     4
  6
CONTINUOUS
370
    -3
390
BC88
  0
LAYER
  5
B887
102
{ACAD_XDICTIONARY
360
BCE4
102
}
330
B85F
100
AcDbSymbolTableRecord
100
AcDbLayerTableRecord
  2
3
 70
     0
 62
     2
  6
DASHED
370
    -3
390
BC88
  0
LAYER
  5
B888
102
{ACAD_XDICTIONARY
360
BCE6
102
}
330
B85F
100
AcDbSymbolTableRecord
100
AcDbLayerTableRecord
  2
6
 70
     0
 62
     5
  6
CONTINUOUS
370
    -3
390
BC88
  0
LAYER
  5
B889
102
{ACAD_XDICTIONARY
360
BCE8
102
}
330
B85F
100
AcDbSymbolTableRecord
100
AcDbLayerTableRecord
  2
7
 70
     0
 62
     3
  6
CONTINUOUS
370
    -3
390
BC88
  0
ENDTAB
  0
TABLE
  2
STYLE
  5
B860
330
0
100
AcDbSymbolTable
 70
     1
  0
STYLE
  5
B86E
330
B860
100
AcDbSymbolTableRecord
100
AcDbTextStyleTableRecord
  2
STANDARD
 70
     0
 40
0.0
 41
1.0
 50
0.0
 71
     0
 42
5.0
  3
txt
  4

  0
ENDTAB
  0
TABLE
  2
VIEW
  5
B863
330
0
100
AcDbSymbolTable
 70
     0
  0
ENDTAB
  0
TABLE
  2
UCS
  5
B864
330
0
100
AcDbSymbolTable
 70
     0
  0
ENDTAB
  0
TABLE
  2
APPID
  5
B866
330
0
100
AcDbSymbolTable
 70
     3
  0
APPID
  5
B86F
330
B866
100
AcDbSymbolTableRecord
100
AcDbRegAppTableRecord
  2
ACAD
 70
     0
  0
APPID
  5
BCF4
330
B866
100
AcDbSymbolTableRecord
100
AcDbRegAppTableRecord
  2
ACAD_NAV_VCDISPLAY
 70
     0
  0
APPID
  5
BD2D
330
B866
100
AcDbSymbolTableRecord
100
AcDbRegAppTableRecord
  2
ACAD_MLEADERVER
 70
     0
  0
ENDTAB
  0
TABLE
  2
DIMSTYLE
  5
B867
330
0
100
AcDbSymbolTable
 70
     1
100
AcDbDimStyleTable
 71
     0
  0
DIMSTYLE
105
B88B
330
B867
100
AcDbSymbolTableRecord
100
AcDbDimStyleTableRecord
  2
STANDARD
 70
     0
 41
3.0
 42
1.0
 43
10.0
 44
1.0
 73
     0
 74
     0
 77
     3
 78
     8
140
3.2
141
0.0
147
1.0
172
     1
173
     1
284
     8
285
     8
286
     8
340
B86E
  0
ENDTAB
  0
TABLE
  2
BLOCK_RECORD
  5
B85E
330
0
100
AcDbSymbolTable
 70
     1
  0
BLOCK_RECORD
  5
B87B
102
{ACAD_XDICTIONARY
360
BC82
102
}
330
B85E
100
AcDbSymbolTableRecord
100
AcDbBlockTableRecord
  2
*MODEL_SPACE
340
BCD6
  0
BLOCK_RECORD
  5
B877
102
{ACAD_XDICTIONARY
360
BC80
102
}
330
B85E
100
AcDbSymbolTableRecord
100
AcDbBlockTableRecord
  2
*PAPER_SPACE
340
BCD7
  0
BLOCK_RECORD
  5
B893
330
B85E
100
AcDbSymbolTableRecord
100
AcDbBlockTableRecord
  2
_OPEN
340
0
  0
ENDTAB
  0
ENDSEC
  0
SECTION
  2
BLOCKS
  0
BLOCK
  5
B87C
330
B87B
100
AcDbEntity
  8
0
100
AcDbBlockBegin
  2
*MODEL_SPACE
 70
     0
 10
0.0
 20
0.0
 30
0.0
  3
*MODEL_SPACE
  1

  0
ENDBLK
  5
B87D
330
B87B
100
AcDbEntity
  8
0
100
AcDbBlockEnd
  0
BLOCK
  5
B878
330
B877
100
AcDbEntity
 67
     1
  8
0
100
AcDbBlockBegin
  2
*PAPER_SPACE
 70
     0
 10
0.0
 20
0.0
 30
0.0
  3
*PAPER_SPACE
  1

  0
ENDBLK
  5
B879
330
B877
100
AcDbEntity
 67
     1
  8
0
100
AcDbBlockEnd
  0
BLOCK
  5
B894
330
B893
100
AcDbEntity
  8
0
100
AcDbBlockBegin
  2
_OPEN
 70
     0
 10
0.0
 20
0.0
 30
0.0
  3
_OPEN
  1

  0
LINE
  5
B895
330
B893
100
AcDbEntity
  8
0
  6
ByBlock
 62
     0
100
AcDbLine
 10
-1.0
 20
0.166667
 30
0.0
 11
0.0
 21
0.0
 31
0.0
  0
LINE
  5
B896
330
B893
100
AcDbEntity
  8
0
  6
ByBlock
 62
     0
100
AcDbLine
 10
0.0
 20
0.0
 30
0.0
 11
-1.0
 21
-0.166667
 31
0.0
  0
LINE
  5
B897
330
B893
100
AcDbEntity
  8
0
  6
ByBlock
 62
     0
100
AcDbLine
 10
0.0
 20
0.0
 30
0.0
 11
-1.0
 21
0.0
 31
0.0
  0
ENDBLK
  5
B898
330
B893
100
AcDbEntity
  8
0
100
AcDbBlockEnd
  0
ENDSEC
  0
SECTION
  2
ENTITIES
  0
TEXT
  5
B899
330
B87B
100
AcDbEntity
  8
7
  6
Continuous
100
AcDbText
 10
10.0
 20
18.0
 30
0.0
 40
3.0
  1
TYPE No.209MS d=21
100
AcDbText
  0
TEXT
  5
B89A
330
B87B
100
AcDbEntity
  8
7
  6
Continuous
100
AcDbText
 10
10.0
 20
26.0
 30
0.0
 40
3.0
  1
CODE No.9200
100
AcDbText
  0
TEXT
  5
B89B
330
B87B
100
AcDbEntity
  8
1
  6
Continuous
100
AcDbText
 10
10.0
 20
10.0
 30
0.0
 40
1.399999999999999
  1
LAYER
100
AcDbText
  0
TEXT
  5
B89C
330
B87B
100
AcDbEntity
  8
1
  6
Continuous
100
AcDbText
 10
17.97951099999998
 20
10.04873699999998
 30
0.0
 40
1.399999999999999
  1
1
100
AcDbText
  0
TEXT
  5
B89D
330
B87B
100
AcDbEntity
  8
7
  6
Continuous
100
AcDbText
 10
29.97951099999999
 20
10.04873699999998
 30
0.0
 40
1.399999999999999
  1
7
100
AcDbText
  0
TEXT
  5
B89E
330
B87B
100
AcDbEntity
  8
4
  6
CENTER
100
AcDbText
 10
23.97951099999999
 20
10.04873699999998
 30
0.0
 40
1.399999999999999
  1
4
100
AcDbText
  0
TEXT
  5
B89F
330
B87B
100
AcDbEntity
  8
3
  6
DASHED
100
AcDbText
 10
21.979511
 20
10.04873699999998
 30
0.0
 40
1.399999999999999
  1
3
100
AcDbText
  0
TEXT
  5
B8A0
330
B87B
100
AcDbEntity
  8
2
  6
Continuous
100
AcDbText
 10
19.97951099999999
 20
10.04873699999998
 30
0.0
 40
1.399999999999999
  1
2
100
AcDbText
  0
TEXT
  5
B8A1
330
B87B
100
AcDbEntity
  8
6
  6
Continuous
100
AcDbText
 10
27.979511
 20
10.04873699999998
 30
0.0
 40
1.399999999999999
  1
6
100
AcDbText
  0
TEXT
  5
B8A2
330
B87B
100
AcDbEntity
  8
5
  6
PHANTOM
100
AcDbText
 10
25.97951099999999
 20
10.04873699999998
 30
0.0
 40
1.399999999999999
  1
5
100
AcDbText
  0
LINE
  5
B8A3
330
B87B
100
AcDbEntity
  8
4
  6
CENTER
100
AcDbLine
 10
305.933854
 20
419.010787
 30
0.0
 11
305.933854
 21
247.300078
 31
0.0
  0
LINE
  5
B8A4
330
B87B
100
AcDbEntity
  8
1
  6
Continuous
100
AcDbLine
 10
318.5838539999999
 20
333.4758589999998
 30
0.0
 11
293.283854
 21
333.4758589999998
 31
0.0
  0
LINE
  5
B8A5
330
B87B
100
AcDbEntity
  8
4
  6
CENTER
100
AcDbLine
 10
353.372841
 20
486.801795
 30
0.0
 11
175.2057259999999
 21
486.801795
 31
0.0
  0
CIRCLE
  5
B8A6
330
B87B
100
AcDbEntity
  8
1
  6
Continuous
100
AcDbCircle
 10
305.9334779999999
 20
486.801795
 30
0.0
 40
6.0
  0
CIRCLE
  5
B8A7
330
B87B
100
AcDbEntity
  8
1
  6
Continuous
100
AcDbCircle
 10
305.9334779999999
 20
486.801795
 30
0.0
 40
19.15
  0
LINE
  5
B8A8
330
B87B
100
AcDbEntity
  8
4
  6
CENTER
100
AcDbLine
 10
255.9334779999999
 20
523.614636
 30
0.0
 11
255.9334779999999
 21
449.6002059999998
 31
0.0
  0
LINE
  5
B8A9
330
B87B
100
AcDbEntity
  8
4
  6
CENTER
100
AcDbLine
 10
305.9334779999999
 20
515.9722659999999
 30
0.0
 11
305.9334779999999
 21
456.511985
 31
0.0
  0
ARC
  5
B8AA
330
B87B
100
AcDbEntity
  8
1
  6
Continuous
100
AcDbCircle
 10
270.482192
 20
473.1481289999998
 30
0.0
 40
30.0
100
AcDbArc
 50
55.26464800000001
 51
78.557979
  0
ARC
  5
B8AB
330
B87B
100
AcDbEntity
  8
1
  6
Continuous
100
AcDbCircle
 10
241.384765
 20
473.1481289999998
 30
0.0
 40
30.0
100
AcDbArc
 50
101.4420209999999
 51
124.735352
  0
LINE
  5
B8AC
330
B87B
100
AcDbEntity
  8
1
  6
Continuous
100
AcDbLine
 10
262.287727
 20
506.701908
 30
0.0
 11
249.57923
 21
506.701908
 31
0.0
  0
LINE
  5
B8AD
330
B87B
100
AcDbEntity
  8
1
  6
Continuous
100
AcDbLine
 10
239.9334779999998
 20
506.601908
 30
0.0
 11
271.933478
 21
506.601908
 31
0.0
  0
LINE
  5
B8AE
330
B87B
100
AcDbEntity
  8
1
  6
Continuous
100
AcDbLine
 10
276.4334779999999
 20
502.551908
 30
0.0
 11
235.4334779999998
 21
502.551908
 31
0.0
  0
LINE
  5
B8AF
330
B87B
100
AcDbEntity
  8
1
  6
Continuous
100
AcDbLine
 10
273.605051
 20
504.551908
 30
0.0
 11
238.2619049999999
 21
504.551908
 31
0.0
  0
ARC
  5
B8B0
330
B87B
100
AcDbEntity
  8
1
  6
Continuous
100
AcDbCircle
 10
273.605051
 20
501.551908
 30
0.0
 40
3.0
100
AcDbArc
 50
19.47122099999998
 51
90.0
  0
ARC
  5
B8B1
330
B87B
100
AcDbEntity
  8
1
  6
Continuous
100
AcDbCircle
 10
262.287727
 20
510.7019079999998
 30
0.0
 40
4.0
100
AcDbArc
 50
270.0
 51
311.409622
  0
LINE
  5
B8B2
330
B87B
100
AcDbEntity
  8
1
  6
Continuous
100
AcDbLine
 10
271.933478
 20
506.601908
 30
0.0
 11
271.933478
 21
504.551908
 31
0.0
  0
LINE
  5
B8B3
330
B87B
100
AcDbEntity
  8
1
  6
Continuous
100
AcDbLine
 10
261.908478
 20
506.701908
 30
0.0
 11
261.908478
 21
506.601908
 31
0.0
  0
ARC
  5
B8B4
330
B87B
100
AcDbEntity
  8
1
  6
Continuous
100
AcDbCircle
 10
238.2619049999999
 20
501.551908
 30
0.0
 40
3.0
100
AcDbArc
 50
90.0
 51
160.528779
  0
ARC
  5
B8B5
330
B87B
100
AcDbEntity
  8
1
  6
Continuous
100
AcDbCircle
 10
249.57923
 20
510.7019079999998
 30
0.0
 40
4.0
100
AcDbArc
 50
228.5903779999999
 51
270.0
  0
LINE
  5
B8B6
330
B87B
100
AcDbEntity
  8
1
  6
Continuous
100
AcDbLine
 10
249.9584779999999
 20
506.701908
 30
0.0
 11
249.9584779999999
 21
506.601908
 31
0.0
  0
LINE
  5
B8B7
330
B87B
100
AcDbEntity
  8
1
  6
Continuous
100
AcDbLine
 10
245.6834779999998
 20
510.001908
 30
0.0
 11
245.6834779999998
 21
507.701908
 31
0.0
  0
LINE
  5
B8B8
330
B87B
100
AcDbEntity
  8
1
  6
Continuous
100
AcDbLine
 10
239.9334779999998
 20
506.601908
 30
0.0
 11
239.9334779999998
 21
504.551908
 31
0.0
  0
LINE
  5
B8B9
330
B87B
100
AcDbEntity
  8
1
  6
Continuous
100
AcDbLine
 10
262.287727
 20
466.9019079999998
 30
0.0
 11
249.57923
 21
466.9019079999998
 31
0.0
  0
LINE
  5
B8BA
330
B87B
100
AcDbEntity
  8
1
  6
Continuous
100
AcDbLine
 10
239.9334779999998
 20
467.001908
 30
0.0
 11
271.933478
 21
467.001908
 31
0.0
  0
LINE
  5
B8BB
330
B87B
100
AcDbEntity
  8
1
  6
Continuous
100
AcDbLine
 10
276.4334779999999
 20
471.051908
 30
0.0
 11
235.4334779999998
 21
471.051908
 31
0.0
  0
LINE
  5
B8BC
330
B87B
100
AcDbEntity
  8
1
  6
Continuous
100
AcDbLine
 10
273.605051
 20
469.051908
 30
0.0
 11
238.2619049999999
 21
469.051908
 31
0.0
  0
ARC
  5
B8BD
330
B87B
100
AcDbEntity
  8
1
  6
Continuous
100
AcDbCircle
 10
270.482192
 20
500.455686
 30
0.0
 40
30.0
100
AcDbArc
 50
281.442021
 51
304.7353549999999
  0
ARC
  5
B8BE
330
B87B
100
AcDbEntity
  8
1
  6
Continuous
100
AcDbCircle
 10
273.605051
 20
472.051908
 30
0.0
 40
3.0
100
AcDbArc
 50
270.0
 51
340.528779
  0
LINE
  5
B8BF
330
B87B
100
AcDbEntity
  8
1
  6
Continuous
100
AcDbLine
 10
271.933478
 20
469.051908
 30
0.0
 11
271.933478
 21
467.001908
 31
0.0
  0
LINE
  5
B8C0
330
B87B
100
AcDbEntity
  8
1
  6
Continuous
100
AcDbLine
 10
261.908478
 20
467.001908
 30
0.0
 11
261.908478
 21
466.9019079999998
 31
0.0
  0
ARC
  5
B8C1
330
B87B
100
AcDbEntity
  8
1
  6
Continuous
100
AcDbCircle
 10
262.287727
 20
462.9019079999998
 30
0.0
 40
4.0
100
AcDbArc
 50
48.590378
 51
90.0
  0
LINE
  5
B8C2
330
B87B
100
AcDbEntity
  8
1
  6
Continuous
100
AcDbLine
 10
245.6834779999998
 20
465.901908
 30
0.0
 11
245.6834779999998
 21
463.6019079999998
 31
0.0
  0
ARC
  5
B8C3
330
B87B
100
AcDbEntity
  8
1
  6
Continuous
100
AcDbCircle
 10
238.2619049999999
 20
472.051908
 30
0.0
 40
3.0
100
AcDbArc
 50
199.4712209999999
 51
270.0
  0
ARC
  5
B8C4
330
B87B
100
AcDbEntity
  8
1
  6
Continuous
100
AcDbCircle
 10
249.57923
 20
462.9019079999998
 30
0.0
 40
4.0
100
AcDbArc
 50
90.0
 51
131.4096219999999
  0
LINE
  5
B8C5
330
B87B
100
AcDbEntity
  8
1
  6
Continuous
100
AcDbLine
 10
249.9584779999999
 20
467.001908
 30
0.0
 11
249.9584779999999
 21
466.9019079999998
 31
0.0
  0
LINE
  5
B8C6
330
B87B
100
AcDbEntity
  8
1
  6
Continuous
100
AcDbLine
 10
239.9334779999998
 20
469.051908
 30
0.0
 11
239.9334779999998
 21
467.001908
 31
0.0
  0
ARC
  5
B8C7
330
B87B
100
AcDbEntity
  8
1
  6
Continuous
100
AcDbCircle
 10
241.384765
 20
500.455686
 30
0.0
 40
30.0
100
AcDbArc
 50
235.264645
 51
258.557979
  0
LINE
  5
B8C8
330
B87B
100
AcDbEntity
  8
1
  6
Continuous
100
AcDbLine
 10
56.341961
 20
333.4758439999998
 30
0.0
 11
81.64196099999998
 21
333.4758439999998
 31
0.0
  0
LINE
  5
B8C9
330
B87B
100
AcDbEntity
  8
1
  6
Continuous
100
AcDbLine
 10
249.9334779999998
 20
512.301908
 30
0.0
 11
261.9334779999999
 21
512.301908
 31
0.0
  0
LINE
  5
B8CA
330
B87B
100
AcDbEntity
  8
1
  6
Continuous
100
AcDbLine
 10
263.4334779999999
 20
512.301908
 30
0.0
 11
248.4334779999998
 21
512.301908
 31
0.0
  0
LINE
  5
B8CB
330
B87B
100
AcDbEntity
  8
1
  6
Continuous
100
AcDbLine
 10
248.4334779999998
 20
512.301908
 30
0.0
 11
248.4334779999998
 21
510.001908
 31
0.0
  0
LINE
  5
B8CC
330
B87B
100
AcDbEntity
  8
1
  6
Continuous
100
AcDbLine
 10
263.4334779999999
 20
512.301908
 30
0.0
 11
263.4334779999999
 21
511.669192
 31
0.0
  0
LINE
  5
B8CD
330
B87B
100
AcDbEntity
  8
1
  6
Continuous
100
AcDbLine
 10
261.9334779999999
 20
517.801908
 30
0.0
 11
249.9334779999998
 21
517.801908
 31
0.0
  0
ARC
  5
B8CE
330
B87B
100
AcDbEntity
  8
1
  6
Continuous
100
AcDbCircle
 10
258.9334779999999
 20
509.136845
 30
0.0
 40
8.665063999999999
100
AcDbArc
 50
69.743842
 51
110.256158
  0
LINE
  5
B8CF
330
B87B
100
AcDbEntity
  8
1
  6
Continuous
100
AcDbLine
 10
261.9334779999999
 20
512.301908
 30
0.0
 11
261.9334779999999
 21
517.801908
 31
0.0
  0
LINE
  5
B8D0
330
B87B
100
AcDbEntity
  8
1
  6
Continuous
100
AcDbLine
 10
249.9334779999998
 20
512.301908
 30
0.0
 11
249.9334779999998
 21
517.801908
 31
0.0
  0
ARC
  5
B8D1
330
B87B
100
AcDbEntity
  8
1
  6
Continuous
100
AcDbCircle
 10
252.9334779999998
 20
509.136845
 30
0.0
 40
8.665063999999999
100
AcDbArc
 50
69.743842
 51
110.256158
  0
LINE
  5
B8D2
330
B87B
100
AcDbEntity
  8
1
  6
Continuous
100
AcDbLine
 10
255.9334779999999
 20
517.2660099999999
 30
0.0
 11
255.9334779999999
 21
512.301908
 31
0.0
  0
LINE
  5
B8D3
330
B87B
100
AcDbEntity
  8
1
  6
Continuous
100
AcDbLine
 10
258.9334779999999
 20
454.801908
 30
0.0
 11
252.9334779999998
 21
454.801908
 31
0.0
  0
LINE
  5
B8D4
330
B87B
100
AcDbEntity
  8
1
  6
Continuous
100
AcDbLine
 10
261.9334779999999
 20
456.301908
 30
0.0
 11
249.9334779999998
 21
456.301908
 31
0.0
  0
ARC
  5
B8D5
330
B87B
100
AcDbEntity
  8
1
  6
Continuous
100
AcDbCircle
 10
258.9334779999999
 20
464.966972
 30
0.0
 40
8.665063999999999
100
AcDbArc
 50
249.7438419999999
 51
290.256158
  0
LINE
  5
B8D6
330
B87B
100
AcDbEntity
  8
1
  6
Continuous
100
AcDbLine
 10
252.609978
 20
456.301908
 30
0.0
 11
252.609978
 21
455.1254079999998
 31
0.0
  0
LINE
  5
B8D7
330
B87B
100
AcDbEntity
  8
1
  6
Continuous
100
AcDbLine
 10
251.9334779999998
 20
456.301908
 30
0.0
 11
251.9334779999998
 21
455.801908
 31
0.0
  0
LINE
  5
B8D8
330
B87B
100
AcDbEntity
  8
1
  6
Continuous
100
AcDbLine
 10
251.9334779999998
 20
455.801908
 30
0.0
 11
252.9334779999998
 21
454.801908
 31
0.0
  0
ARC
  5
B8D9
330
B87B
100
AcDbEntity
  8
1
  6
Continuous
100
AcDbCircle
 10
252.9334779999998
 20
464.966972
 30
0.0
 40
8.665063999999999
100
AcDbArc
 50
249.7438419999999
 51
290.256158
  0
LINE
  5
B8DA
330
B87B
100
AcDbEntity
  8
1
  6
Continuous
100
AcDbLine
 10
255.9334779999999
 20
460.7660099999998
 30
0.0
 11
255.9334779999999
 21
456.837807
 31
0.0
  0
LINE
  5
B8DB
330
B87B
100
AcDbEntity
  8
1
  6
Continuous
100
AcDbLine
 10
249.9334779999998
 20
456.301908
 30
0.0
 11
249.9334779999998
 21
461.3019079999999
 31
0.0
  0
LINE
  5
B8DC
330
B87B
100
AcDbEntity
  8
2
  6
Continuous
100
AcDbLine
 10
259.256978
 20
456.301908
 30
0.0
 11
259.256978
 21
455.1254079999998
 31
0.0
  0
LINE
  5
B8DD
330
B87B
100
AcDbEntity
  8
1
  6
Continuous
100
AcDbLine
 10
259.9334779999999
 20
455.801908
 30
0.0
 11
258.9334779999999
 21
454.801908
 31
0.0
  0
LINE
  5
B8DE
330
B87B
100
AcDbEntity
  8
1
  6
Continuous
100
AcDbLine
 10
259.9334779999999
 20
456.301908
 30
0.0
 11
259.9334779999999
 21
455.801908
 31
0.0
  0
LINE
  5
B8DF
330
B87B
100
AcDbEntity
  8
1
  6
Continuous
100
AcDbLine
 10
261.9334779999999
 20
456.301908
 30
0.0
 11
261.9334779999999
 21
461.3019079999999
 31
0.0
  0
ARC
  5
B8E0
330
B87B
100
AcDbEntity
  8
1
  6
Continuous
100
AcDbCircle
 10
252.9334779999998
 20
452.6368449999998
 30
0.0
 40
8.665063999999999
100
AcDbArc
 50
69.743842
 51
110.256158
  0
ARC
  5
B8E1
330
B87B
100
AcDbEntity
  8
1
  6
Continuous
100
AcDbCircle
 10
258.9334779999999
 20
452.6368449999998
 30
0.0
 40
8.665063999999999
100
AcDbArc
 50
69.743842
 51
110.256158
  0
LINE
  5
B8E2
330
B87B
100
AcDbEntity
  8
1
  6
Continuous
100
AcDbLine
 10
261.9334779999999
 20
461.3019079999999
 30
0.0
 11
249.9334779999998
 21
461.3019079999999
 31
0.0
  0
LINE
  5
B8E3
330
B87B
100
AcDbEntity
  8
1
  6
Continuous
100
AcDbLine
 10
248.4334779999998
 20
463.6019079999998
 30
0.0
 11
248.4334779999998
 21
461.3019079999999
 31
0.0
  0
LINE
  5
B8E4
330
B87B
100
AcDbEntity
  8
1
  6
Continuous
100
AcDbLine
 10
263.4334779999999
 20
461.934524
 30
0.0
 11
263.4334779999999
 21
461.3019079999999
 31
0.0
  0
LINE
  5
B8E5
330
B87B
100
AcDbEntity
  8
1
  6
Continuous
100
AcDbLine
 10
263.4334779999999
 20
461.3019079999999
 30
0.0
 11
248.4334779999998
 21
461.3019079999999
 31
0.0
  0
LINE
  5
B8E6
330
B87B
100
AcDbEntity
  8
1
  6
Continuous
100
AcDbLine
 10
475.525747
 20
333.4758439999998
 30
0.0
 11
450.2257469999998
 21
333.4758439999998
 31
0.0
  0
LINE
  5
B8E7
330
B87B
100
AcDbEntity
  8
4
  6
CENTER
100
AcDbLine
 10
619.81764
 20
419.010787
 30
0.0
 11
619.81764
 21
247.300078
 31
0.0
  0
LINE
  5
B8E8
330
B87B
100
AcDbEntity
  8
1
  6
Continuous
100
AcDbLine
 10
607.16764
 20
333.4758589999998
 30
0.0
 11
632.4676400000002
 21
333.4758589999998
 31
0.0
  0
LINE
  5
B8E9
330
B87B
100
AcDbEntity
  8
4
  6
CENTER
100
AcDbLine
 10
353.372841
 20
77.12664100000002
 30
0.0
 11
175.2057259999999
 21
77.12664100000002
 31
0.0
  0
LINE
  5
B8EA
330
B87B
100
AcDbEntity
  8
1
  6
Continuous
100
AcDbLine
 10
288.698702
 20
497.801908
 30
0.0
 11
192.283478
 21
497.801908
 31
0.0
  0
LINE
  5
B8EB
330
B87B
100
AcDbEntity
  8
1
  6
Continuous
100
AcDbLine
 10
288.6985569999998
 20
475.801908
 30
0.0
 11
192.283478
 21
475.801908
 31
0.0
  0
ARC
  5
B8EC
330
B87B
100
AcDbEntity
  8
1
  6
Continuous
100
AcDbCircle
 10
191.9334779999998
 20
486.801795
 30
0.0
 40
11.0
100
AcDbArc
 50
90.0
 51
270.0
  0
ARC
  5
B8ED
330
B87B
100
AcDbEntity
  8
1
  6
Continuous
100
AcDbCircle
 10
319.933478
 20
486.801795
 30
0.0
 40
11.0
100
AcDbArc
 50
289.5863589999999
 51
310.541602
  0
CIRCLE
  5
B8EE
330
B87B
100
AcDbEntity
  8
2
  6
Continuous
100
AcDbCircle
 10
305.9334779999999
 20
486.801795
 30
0.0
 40
5.3235
  0
CIRCLE
  5
B8EF
330
B87B
100
AcDbEntity
  8
1
  6
Continuous
100
AcDbCircle
 10
305.9334779999999
 20
486.801795
 30
0.0
 40
4.5
  0
LINE
  5
B8F0
330
B87B
100
AcDbEntity
  8
1
  6
Continuous
100
AcDbLine
 10
251.9334779999998
 20
455.801908
 30
0.0
 11
259.9334779999999
 21
455.801908
 31
0.0
  0
CIRCLE
  5
B8F1
330
B87B
100
AcDbEntity
  8
1
  6
Continuous
100
AcDbCircle
 10
305.9334779999999
 20
486.801795
 30
0.0
 40
13.0
  0
ARC
  5
B8F2
330
B87B
100
AcDbEntity
  8
1
  6
Continuous
100
AcDbCircle
 10
305.9334779999999
 20
486.801795
 30
0.0
 40
10.7
100
AcDbArc
 50
294.326207
 51
65.673793
  0
LINE
  5
B8F3
330
B87B
100
AcDbEntity
  8
1
  6
Continuous
100
AcDbLine
 10
310.341142
 20
496.551795
 30
0.0
 11
301.525814
 21
496.551795
 31
0.0
  0
LINE
  5
B8F4
330
B87B
100
AcDbEntity
  8
1
  6
Continuous
100
AcDbLine
 10
310.341142
 20
477.051795
 30
0.0
 11
301.525814
 21
477.051795
 31
0.0
  0
ARC
  5
B8F5
330
B87B
100
AcDbEntity
  8
1
  6
Continuous
100
AcDbCircle
 10
305.9334779999999
 20
486.801795
 30
0.0
 40
10.7
100
AcDbArc
 50
114.326207
 51
245.673793
  0
ARC
  5
B8F6
330
B87B
100
AcDbEntity
  8
1
  6
Continuous
100
AcDbCircle
 10
-31.9205
 20
389.515463
 30
0.0
 40
348.654346
100
AcDbArc
 50
357.619569
 51
2.377015
  0
ARC
  5
B8F7
330
B87B
100
AcDbEntity
  8
1
  6
Continuous
100
AcDbCircle
 10
643.7881929999997
 20
389.515463
 30
0.0
 40
348.654346
100
AcDbArc
 50
177.6229849999998
 51
182.380431
  0
LINE
  5
B8F8
330
B87B
100
AcDbEntity
  8
1
  6
Continuous
100
AcDbLine
 10
292.933847
 20
339.575844
 30
0.0
 11
318.933847
 21
339.575844
 31
0.0
  0
LINE
  5
B8F9
330
B87B
100
AcDbEntity
  8
1
  6
Continuous
100
AcDbLine
 10
292.933847
 20
337.9758439999998
 30
0.0
 11
318.933847
 21
337.9758439999998
 31
0.0
  0
LINE
  5
B8FA
330
B87B
100
AcDbEntity
  8
1
  6
Continuous
100
AcDbLine
 10
293.809354
 20
337.9758589999998
 30
0.0
 11
293.809354
 21
333.4758589999998
 31
0.0
  0
LINE
  5
B8FB
330
B87B
100
AcDbEntity
  8
1
  6
Continuous
100
AcDbLine
 10
292.933847
 20
339.575844
 30
0.0
 11
292.933847
 21
337.9758439999998
 31
0.0
  0
ARC
  5
B8FC
330
B87B
100
AcDbEntity
  8
1
  6
Continuous
100
AcDbCircle
 10
21.26696799999999
 20
358.187122
 30
0.0
 40
295.4668789999999
100
AcDbArc
 50
357.4178549999999
 51
2.586525999999999
  0
ARC
  5
B8FD
330
B87B
100
AcDbEntity
  8
1
  6
Continuous
100
AcDbCircle
 10
590.6006969999999
 20
358.187122
 30
0.0
 40
295.46685
100
AcDbArc
 50
177.413473
 51
182.582145
  0
LINE
  5
B8FE
330
B87B
100
AcDbEntity
  8
1
  6
Continuous
100
AcDbLine
 10
295.433847
 20
344.8758439999999
 30
0.0
 11
316.433847
 21
344.8758439999999
 31
0.0
  0
LINE
  5
B8FF
330
B87B
100
AcDbEntity
  8
1
  6
Continuous
100
AcDbLine
 10
295.433847
 20
340.575844
 30
0.0
 11
295.433847
 21
344.8758439999999
 31
0.0
  0
ARC
  5
B900
330
B87B
100
AcDbEntity
  8
1
  6
Continuous
100
AcDbCircle
 10
296.433847
 20
340.575844
 30
0.0
 40
1.0
100
AcDbArc
 50
180.0
 51
270.0
  0
LINE
  5
B901
330
B87B
100
AcDbEntity
  8
1
  6
Continuous
100
AcDbLine
 10
299.871854
 20
337.9758589999998
 30
0.0
 11
299.871854
 21
333.4758589999998
 31
0.0
  0
LINE
  5
B902
330
B87B
100
AcDbEntity
  8
1
  6
Continuous
100
AcDbLine
 10
316.433847
 20
340.575844
 30
0.0
 11
316.433847
 21
344.8758439999999
 31
0.0
  0
ARC
  5
B903
330
B87B
100
AcDbEntity
  8
1
  6
Continuous
100
AcDbCircle
 10
315.433847
 20
340.575844
 30
0.0
 40
1.0
100
AcDbArc
 50
270.0
 51
0.0
  0
LINE
  5
B904
330
B87B
100
AcDbEntity
  8
1
  6
Continuous
100
AcDbLine
 10
318.058354
 20
337.9758589999998
 30
0.0
 11
318.058354
 21
333.4758589999998
 31
0.0
  0
LINE
  5
B905
330
B87B
100
AcDbEntity
  8
1
  6
Continuous
100
AcDbLine
 10
311.995854
 20
337.9758589999998
 30
0.0
 11
311.995854
 21
333.4758589999998
 31
0.0
  0
LINE
  5
B906
330
B87B
100
AcDbEntity
  8
1
  6
Continuous
100
AcDbLine
 10
318.933847
 20
337.9758439999998
 30
0.0
 11
318.933847
 21
339.575844
 31
0.0
  0
LINE
  5
B907
330
B87B
100
AcDbEntity
  8
1
  6
Continuous
100
AcDbLine
 10
296.433847
 20
372.475844
 30
0.0
 11
315.433847
 21
372.475844
 31
0.0
  0
LINE
  5
B908
330
B87B
100
AcDbEntity
  8
1
  6
Continuous
100
AcDbLine
 10
296.433847
 20
374.075844
 30
0.0
 11
315.433847
 21
374.075844
 31
0.0
  0
LINE
  5
B909
330
B87B
100
AcDbEntity
  8
1
  6
Continuous
100
AcDbLine
 10
297.0338469999999
 20
374.075844
 30
0.0
 11
297.0338469999999
 21
372.475844
 31
0.0
  0
ARC
  5
B90A
330
B87B
100
AcDbEntity
  8
1
  6
Continuous
100
AcDbCircle
 10
296.433847
 20
375.075844
 30
0.0
 40
1.0
100
AcDbArc
 50
182.380431
 51
270.0
  0
ARC
  5
B90B
330
B87B
100
AcDbEntity
  8
1
  6
Continuous
100
AcDbCircle
 10
296.433847
 20
371.475844
 30
0.0
 40
1.0
100
AcDbArc
 50
90.0
 51
177.413473
  0
LINE
  5
B90C
330
B87B
100
AcDbEntity
  8
1
  6
Continuous
100
AcDbLine
 10
314.833847
 20
372.475844
 30
0.0
 11
314.833847
 21
374.075844
 31
0.0
  0
ARC
  5
B90D
330
B87B
100
AcDbEntity
  8
1
  6
Continuous
100
AcDbCircle
 10
315.433847
 20
375.075844
 30
0.0
 40
1.0
100
AcDbArc
 50
270.0
 51
357.619569
  0
ARC
  5
B90E
330
B87B
100
AcDbEntity
  8
1
  6
Continuous
100
AcDbCircle
 10
315.433847
 20
371.475844
 30
0.0
 40
1.0
100
AcDbArc
 50
2.586525999999999
 51
90.0
  0
LINE
  5
B90F
330
B87B
100
AcDbEntity
  8
1
  6
Continuous
100
AcDbLine
 10
301.433847
 20
412.9758439999998
 30
0.0
 11
310.433847
 21
412.9758439999998
 31
0.0
  0
LINE
  5
B910
330
B87B
100
AcDbEntity
  8
1
  6
Continuous
100
AcDbLine
 10
299.933847
 20
411.475844
 30
0.0
 11
311.933847
 21
411.475844
 31
0.0
  0
LINE
  5
B911
330
B87B
100
AcDbEntity
  8
1
  6
Continuous
100
AcDbLine
 10
295.2338539999999
 20
406.975844
 30
0.0
 11
316.6338539999999
 21
406.975844
 31
0.0
  0
LINE
  5
B912
330
B87B
100
AcDbEntity
  8
1
  6
Continuous
100
AcDbLine
 10
295.2338539999999
 20
410.975844
 30
0.0
 11
316.6338539999999
 21
410.975844
 31
0.0
  0
LINE
  5
B913
330
B87B
100
AcDbEntity
  8
1
  6
Continuous
100
AcDbLine
 10
295.433847
 20
403.9758439999998
 30
0.0
 11
316.433847
 21
403.9758439999998
 31
0.0
  0
LINE
  5
B914
330
B87B
100
AcDbEntity
  8
1
  6
Continuous
100
AcDbLine
 10
299.933847
 20
411.475844
 30
0.0
 11
299.933847
 21
410.975844
 31
0.0
  0
LINE
  5
B915
330
B87B
100
AcDbEntity
  8
1
  6
Continuous
100
AcDbLine
 10
301.526566
 20
410.975844
 30
0.0
 11
301.526566
 21
406.975844
 31
0.0
  0
LINE
  5
B916
330
B87B
100
AcDbEntity
  8
1
  6
Continuous
100
AcDbLine
 10
299.933847
 20
411.475844
 30
0.0
 11
301.433847
 21
412.9758439999998
 31
0.0
  0
LINE
  5
B917
330
B87B
100
AcDbEntity
  8
1
  6
Continuous
100
AcDbLine
 10
295.2338539999999
 20
410.975844
 30
0.0
 11
295.2338539999999
 21
406.975844
 31
0.0
  0
LINE
  5
B918
330
B87B
100
AcDbEntity
  8
1
  6
Continuous
100
AcDbLine
 10
296.433847
 20
406.975844
 30
0.0
 11
296.433847
 21
403.9758439999998
 31
0.0
  0
LINE
  5
B919
330
B87B
100
AcDbEntity
  8
1
  6
Continuous
100
AcDbLine
 10
311.933847
 20
411.475844
 30
0.0
 11
311.933847
 21
410.975844
 31
0.0
  0
LINE
  5
B91A
330
B87B
100
AcDbEntity
  8
1
  6
Continuous
100
AcDbLine
 10
316.6338539999999
 20
406.975844
 30
0.0
 11
316.6338539999999
 21
410.975844
 31
0.0
  0
LINE
  5
B91B
330
B87B
100
AcDbEntity
  8
1
  6
Continuous
100
AcDbLine
 10
310.3418939999999
 20
410.975844
 30
0.0
 11
310.3418939999999
 21
406.975844
 31
0.0
  0
LINE
  5
B91C
330
B87B
100
AcDbEntity
  8
1
  6
Continuous
100
AcDbLine
 10
311.933847
 20
411.475844
 30
0.0
 11
310.433847
 21
412.9758439999998
 31
0.0
  0
LINE
  5
B91D
330
B87B
100
AcDbEntity
  8
1
  6
Continuous
100
AcDbLine
 10
315.433847
 20
403.9758439999998
 30
0.0
 11
315.433847
 21
406.975844
 31
0.0
  0
LINE
  5
B91E
330
B87B
100
AcDbEntity
  8
2
  6
Continuous
100
AcDbLine
 10
300.6103539999998
 20
412.1523509999998
 30
0.0
 11
300.6103539999998
 21
410.975844
 31
0.0
  0
LINE
  5
B91F
330
B87B
100
AcDbEntity
  8
2
  6
Continuous
100
AcDbLine
 10
311.257354
 20
412.152337
 30
0.0
 11
311.257354
 21
410.975844
 31
0.0
  0
ARC
  5
B920
330
B87B
100
AcDbEntity
  8
1
  6
Continuous
100
AcDbCircle
 10
-268.862386
 20
389.515463
 30
0.0
 40
348.654346
100
AcDbArc
 50
357.619569
 51
2.377015
  0
ARC
  5
B921
330
B87B
100
AcDbEntity
  8
1
  6
Continuous
100
AcDbCircle
 10
406.8463069999998
 20
389.515463
 30
0.0
 40
348.654346
100
AcDbArc
 50
177.6229849999998
 51
182.380431
  0
LINE
  5
B922
330
B87B
100
AcDbEntity
  8
1
  6
Continuous
100
AcDbLine
 10
59.49196099999999
 20
372.475844
 30
0.0
 11
78.491961
 21
372.475844
 31
0.0
  0
LINE
  5
B923
330
B87B
100
AcDbEntity
  8
1
  6
Continuous
100
AcDbLine
 10
59.49196099999999
 20
374.075844
 30
0.0
 11
78.491961
 21
374.075844
 31
0.0
  0
LINE
  5
B924
330
B87B
100
AcDbEntity
  8
1
  6
Continuous
100
AcDbLine
 10
55.991961
 20
339.575844
 30
0.0
 11
81.99196099999998
 21
339.575844
 31
0.0
  0
LINE
  5
B925
330
B87B
100
AcDbEntity
  8
1
  6
Continuous
100
AcDbLine
 10
58.491961
 20
344.8758439999999
 30
0.0
 11
79.491961
 21
344.8758439999999
 31
0.0
  0
LINE
  5
B926
330
B87B
100
AcDbEntity
  8
1
  6
Continuous
100
AcDbLine
 10
55.991961
 20
337.9758439999998
 30
0.0
 11
81.99196099999998
 21
337.9758439999998
 31
0.0
  0
ARC
  5
B927
330
B87B
100
AcDbEntity
  8
1
  6
Continuous
100
AcDbCircle
 10
353.658811
 20
358.187122
 30
0.0
 40
295.46685
100
AcDbArc
 50
177.413473
 51
182.582145
  0
LINE
  5
B928
330
B87B
100
AcDbEntity
  8
1
  6
Continuous
100
AcDbLine
 10
58.491961
 20
340.575844
 30
0.0
 11
58.491961
 21
344.8758439999999
 31
0.0
  0
ARC
  5
B929
330
B87B
100
AcDbEntity
  8
1
  6
Continuous
100
AcDbCircle
 10
59.49196099999999
 20
340.575844
 30
0.0
 40
1.0
100
AcDbArc
 50
180.0
 51
270.0
  0
LINE
  5
B92A
330
B87B
100
AcDbEntity
  8
1
  6
Continuous
100
AcDbLine
 10
58.491961
 20
337.9758439999998
 30
0.0
 11
58.491961
 21
333.4758439999998
 31
0.0
  0
LINE
  5
B92B
330
B87B
100
AcDbEntity
  8
1
  6
Continuous
100
AcDbLine
 10
55.991961
 20
339.575844
 30
0.0
 11
55.991961
 21
337.9758439999998
 31
0.0
  0
LINE
  5
B92C
330
B87B
100
AcDbEntity
  8
1
  6
Continuous
100
AcDbLine
 10
60.091961
 20
374.075844
 30
0.0
 11
60.091961
 21
372.475844
 31
0.0
  0
ARC
  5
B92D
330
B87B
100
AcDbEntity
  8
1
  6
Continuous
100
AcDbCircle
 10
59.49196099999999
 20
375.075844
 30
0.0
 40
1.0
100
AcDbArc
 50
182.380431
 51
270.0
  0
ARC
  5
B92E
330
B87B
100
AcDbEntity
  8
1
  6
Continuous
100
AcDbCircle
 10
59.49196099999999
 20
371.475844
 30
0.0
 40
1.0
100
AcDbArc
 50
90.0
 51
177.413473
  0
ARC
  5
B92F
330
B87B
100
AcDbEntity
  8
1
  6
Continuous
100
AcDbCircle
 10
-215.6749179999999
 20
358.187122
 30
0.0
 40
295.4668789999999
100
AcDbArc
 50
357.4178549999999
 51
2.586525999999999
  0
LINE
  5
B930
330
B87B
100
AcDbEntity
  8
1
  6
Continuous
100
AcDbLine
 10
79.491961
 20
340.575844
 30
0.0
 11
79.491961
 21
344.8758439999999
 31
0.0
  0
ARC
  5
B931
330
B87B
100
AcDbEntity
  8
1
  6
Continuous
100
AcDbCircle
 10
78.491961
 20
340.575844
 30
0.0
 40
1.0
100
AcDbArc
 50
270.0
 51
0.0
  0
LINE
  5
B932
330
B87B
100
AcDbEntity
  8
1
  6
Continuous
100
AcDbLine
 10
79.491961
 20
337.9758439999998
 30
0.0
 11
79.491961
 21
333.4758439999998
 31
0.0
  0
LINE
  5
B933
330
B87B
100
AcDbEntity
  8
1
  6
Continuous
100
AcDbLine
 10
81.99196099999998
 20
337.9758439999998
 30
0.0
 11
81.99196099999998
 21
339.575844
 31
0.0
  0
LINE
  5
B934
330
B87B
100
AcDbEntity
  8
1
  6
Continuous
100
AcDbLine
 10
77.89196099999998
 20
372.475844
 30
0.0
 11
77.89196099999998
 21
374.075844
 31
0.0
  0
ARC
  5
B935
330
B87B
100
AcDbEntity
  8
1
  6
Continuous
100
AcDbCircle
 10
78.491961
 20
375.075844
 30
0.0
 40
1.0
100
AcDbArc
 50
270.0
 51
357.619569
  0
ARC
  5
B936
330
B87B
100
AcDbEntity
  8
1
  6
Continuous
100
AcDbCircle
 10
78.491961
 20
371.475844
 30
0.0
 40
1.0
100
AcDbArc
 50
2.586525999999999
 51
90.0
  0
LINE
  5
B937
330
B87B
100
AcDbEntity
  8
1
  6
Continuous
100
AcDbLine
 10
64.491961
 20
412.9758439999998
 30
0.0
 11
73.491961
 21
412.9758439999998
 31
0.0
  0
LINE
  5
B938
330
B87B
100
AcDbEntity
  8
1
  6
Continuous
100
AcDbLine
 10
62.99196099999999
 20
411.475844
 30
0.0
 11
74.991961
 21
411.475844
 31
0.0
  0
LINE
  5
B939
330
B87B
100
AcDbEntity
  8
1
  6
Continuous
100
AcDbLine
 10
59.24196099999999
 20
406.975844
 30
0.0
 11
78.741961
 21
406.975844
 31
0.0
  0
LINE
  5
B93A
330
B87B
100
AcDbEntity
  8
1
  6
Continuous
100
AcDbLine
 10
59.24196099999999
 20
410.975844
 30
0.0
 11
78.741961
 21
410.975844
 31
0.0
  0
LINE
  5
B93B
330
B87B
100
AcDbEntity
  8
1
  6
Continuous
100
AcDbLine
 10
58.491961
 20
403.9758439999998
 30
0.0
 11
79.491961
 21
403.9758439999998
 31
0.0
  0
LINE
  5
B93C
330
B87B
100
AcDbEntity
  8
2
  6
Continuous
100
AcDbLine
 10
63.668461
 20
412.1523439999998
 30
0.0
 11
63.668461
 21
410.975844
 31
0.0
  0
LINE
  5
B93D
330
B87B
100
AcDbEntity
  8
1
  6
Continuous
100
AcDbLine
 10
62.99196099999999
 20
411.475844
 30
0.0
 11
62.99196099999999
 21
410.975844
 31
0.0
  0
LINE
  5
B93E
330
B87B
100
AcDbEntity
  8
1
  6
Continuous
100
AcDbLine
 10
59.24196099999999
 20
410.975844
 30
0.0
 11
59.24196099999999
 21
406.975844
 31
0.0
  0
LINE
  5
B93F
330
B87B
100
AcDbEntity
  8
1
  6
Continuous
100
AcDbLine
 10
62.99196099999999
 20
411.475844
 30
0.0
 11
64.491961
 21
412.9758439999998
 31
0.0
  0
LINE
  5
B940
330
B87B
100
AcDbEntity
  8
1
  6
Continuous
100
AcDbLine
 10
59.49196099999999
 20
406.975844
 30
0.0
 11
59.49196099999999
 21
403.9758439999998
 31
0.0
  0
LINE
  5
B941
330
B87B
100
AcDbEntity
  8
2
  6
Continuous
100
AcDbLine
 10
74.315461
 20
412.1523439999998
 30
0.0
 11
74.315461
 21
410.975844
 31
0.0
  0
LINE
  5
B942
330
B87B
100
AcDbEntity
  8
1
  6
Continuous
100
AcDbLine
 10
78.741961
 20
406.975844
 30
0.0
 11
78.741961
 21
410.975844
 31
0.0
  0
LINE
  5
B943
330
B87B
100
AcDbEntity
  8
1
  6
Continuous
100
AcDbLine
 10
74.991961
 20
411.475844
 30
0.0
 11
74.991961
 21
410.975844
 31
0.0
  0
LINE
  5
B944
330
B87B
100
AcDbEntity
  8
1
  6
Continuous
100
AcDbLine
 10
74.991961
 20
411.475844
 30
0.0
 11
73.491961
 21
412.9758439999998
 31
0.0
  0
LINE
  5
B945
330
B87B
100
AcDbEntity
  8
1
  6
Continuous
100
AcDbLine
 10
78.491961
 20
403.9758439999998
 30
0.0
 11
78.491961
 21
406.975844
 31
0.0
  0
ARC
  5
B946
330
B87B
100
AcDbEntity
  8
1
  6
Continuous
100
AcDbCircle
 10
305.9334779999999
 20
486.801795
 30
0.0
 40
10.5
100
AcDbArc
 50
248.213211
 51
291.786789
  0
ARC
  5
B947
330
B87B
100
AcDbEntity
  8
1
  6
Continuous
100
AcDbCircle
 10
305.9334779999999
 20
486.801795
 30
0.0
 40
10.5
100
AcDbArc
 50
68.213211
 51
111.7867889999999
  0
ARC
  5
B948
330
B87B
100
AcDbEntity
  8
1
  6
Continuous
100
AcDbCircle
 10
747.5425969999998
 20
358.187122
 30
0.0
 40
295.46685
100
AcDbArc
 50
177.413473
 51
182.582145
  0
ARC
  5
B949
330
B87B
100
AcDbEntity
  8
1
  6
Continuous
100
AcDbCircle
 10
178.208868
 20
358.187122
 30
0.0
 40
295.4668789999999
100
AcDbArc
 50
357.4178549999999
 51
2.586525999999999
  0
LINE
  5
B94A
330
B87B
100
AcDbEntity
  8
1
  6
Continuous
100
AcDbLine
 10
449.875747
 20
339.575844
 30
0.0
 11
475.8757469999998
 21
339.575844
 31
0.0
  0
LINE
  5
B94B
330
B87B
100
AcDbEntity
  8
1
  6
Continuous
100
AcDbLine
 10
452.3757469999998
 20
344.8758439999999
 30
0.0
 11
473.3757469999998
 21
344.8758439999999
 31
0.0
  0
LINE
  5
B94C
330
B87B
100
AcDbEntity
  8
1
  6
Continuous
100
AcDbLine
 10
449.875747
 20
337.9758439999998
 30
0.0
 11
475.8757469999998
 21
337.9758439999998
 31
0.0
  0
LINE
  5
B94D
330
B87B
100
AcDbEntity
  8
1
  6
Continuous
100
AcDbLine
 10
452.3757469999998
 20
340.575844
 30
0.0
 11
452.3757469999998
 21
344.8758439999999
 31
0.0
  0
ARC
  5
B94E
330
B87B
100
AcDbEntity
  8
1
  6
Continuous
100
AcDbCircle
 10
453.375747
 20
340.575844
 30
0.0
 40
1.0
100
AcDbArc
 50
180.0
 51
270.0
  0
LINE
  5
B94F
330
B87B
100
AcDbEntity
  8
1
  6
Continuous
100
AcDbLine
 10
452.3757469999998
 20
337.9758439999998
 30
0.0
 11
452.3757469999998
 21
333.4758439999998
 31
0.0
  0
LINE
  5
B950
330
B87B
100
AcDbEntity
  8
1
  6
Continuous
100
AcDbLine
 10
449.875747
 20
339.575844
 30
0.0
 11
449.875747
 21
337.9758439999998
 31
0.0
  0
LINE
  5
B951
330
B87B
100
AcDbEntity
  8
1
  6
Continuous
100
AcDbLine
 10
473.3757469999998
 20
340.575844
 30
0.0
 11
473.3757469999998
 21
344.8758439999999
 31
0.0
  0
ARC
  5
B952
330
B87B
100
AcDbEntity
  8
1
  6
Continuous
100
AcDbCircle
 10
472.3757469999998
 20
340.575844
 30
0.0
 40
1.0
100
AcDbArc
 50
270.0
 51
0.0
  0
LINE
  5
B953
330
B87B
100
AcDbEntity
  8
1
  6
Continuous
100
AcDbLine
 10
473.3757469999998
 20
337.9758439999998
 30
0.0
 11
473.3757469999998
 21
333.4758439999998
 31
0.0
  0
LINE
  5
B954
330
B87B
100
AcDbEntity
  8
1
  6
Continuous
100
AcDbLine
 10
475.8757469999998
 20
337.9758439999998
 30
0.0
 11
475.8757469999998
 21
339.575844
 31
0.0
  0
LINE
  5
B955
330
B87B
100
AcDbEntity
  8
1
  6
Continuous
100
AcDbLine
 10
456.875747
 20
411.475844
 30
0.0
 11
458.375747
 21
412.9758439999998
 31
0.0
  0
LINE
  5
B956
330
B87B
100
AcDbEntity
  8
1
  6
Continuous
100
AcDbLine
 10
453.375747
 20
374.075844
 30
0.0
 11
472.3757469999998
 21
374.075844
 31
0.0
  0
LINE
  5
B957
330
B87B
100
AcDbEntity
  8
1
  6
Continuous
100
AcDbLine
 10
456.875747
 20
411.475844
 30
0.0
 11
468.8757469999997
 21
411.475844
 31
0.0
  0
LINE
  5
B958
330
B87B
100
AcDbEntity
  8
1
  6
Continuous
100
AcDbLine
 10
453.1257469999998
 20
406.975844
 30
0.0
 11
472.625747
 21
406.975844
 31
0.0
  0
LINE
  5
B959
330
B87B
100
AcDbEntity
  8
1
  6
Continuous
100
AcDbLine
 10
453.1257469999998
 20
410.975844
 30
0.0
 11
472.625747
 21
410.975844
 31
0.0
  0
LINE
  5
B95A
330
B87B
100
AcDbEntity
  8
1
  6
Continuous
100
AcDbLine
 10
452.3757469999998
 20
403.9758439999998
 30
0.0
 11
473.3757469999998
 21
403.9758439999998
 31
0.0
  0
LINE
  5
B95B
330
B87B
100
AcDbEntity
  8
1
  6
Continuous
100
AcDbLine
 10
453.375747
 20
372.475844
 30
0.0
 11
472.3757469999998
 21
372.475844
 31
0.0
  0
ARC
  5
B95C
330
B87B
100
AcDbEntity
  8
1
  6
Continuous
100
AcDbCircle
 10
800.7300929999999
 20
389.515463
 30
0.0
 40
348.654346
100
AcDbArc
 50
177.6229849999998
 51
182.380431
  0
ARC
  5
B95D
330
B87B
100
AcDbEntity
  8
1
  6
Continuous
100
AcDbCircle
 10
453.375747
 20
375.075844
 30
0.0
 40
1.0
100
AcDbArc
 50
182.380431
 51
270.0
  0
ARC
  5
B95E
330
B87B
100
AcDbEntity
  8
1
  6
Continuous
100
AcDbCircle
 10
453.375747
 20
371.475844
 30
0.0
 40
1.0
100
AcDbArc
 50
90.0
 51
177.413473
  0
LINE
  5
B95F
330
B87B
100
AcDbEntity
  8
1
  6
Continuous
100
AcDbLine
 10
453.9757469999998
 20
374.075844
 30
0.0
 11
453.9757469999998
 21
372.475844
 31
0.0
  0
LINE
  5
B960
330
B87B
100
AcDbEntity
  8
2
  6
Continuous
100
AcDbLine
 10
457.552247
 20
412.1523439999998
 30
0.0
 11
457.552247
 21
410.975844
 31
0.0
  0
LINE
  5
B961
330
B87B
100
AcDbEntity
  8
1
  6
Continuous
100
AcDbLine
 10
456.875747
 20
411.475844
 30
0.0
 11
456.875747
 21
410.975844
 31
0.0
  0
LINE
  5
B962
330
B87B
100
AcDbEntity
  8
1
  6
Continuous
100
AcDbLine
 10
453.1257469999998
 20
410.975844
 30
0.0
 11
453.1257469999998
 21
406.975844
 31
0.0
  0
LINE
  5
B963
330
B87B
100
AcDbEntity
  8
1
  6
Continuous
100
AcDbLine
 10
453.375747
 20
406.975844
 30
0.0
 11
453.375747
 21
403.9758439999998
 31
0.0
  0
ARC
  5
B964
330
B87B
100
AcDbEntity
  8
1
  6
Continuous
100
AcDbCircle
 10
125.0213999999999
 20
389.515463
 30
0.0
 40
348.654346
100
AcDbArc
 50
357.619569
 51
2.377015
  0
ARC
  5
B965
330
B87B
100
AcDbEntity
  8
1
  6
Continuous
100
AcDbCircle
 10
472.3757469999998
 20
375.075844
 30
0.0
 40
1.0
100
AcDbArc
 50
270.0
 51
357.619569
  0
ARC
  5
B966
330
B87B
100
AcDbEntity
  8
1
  6
Continuous
100
AcDbCircle
 10
472.3757469999998
 20
371.475844
 30
0.0
 40
1.0
100
AcDbArc
 50
2.586525999999999
 51
90.0
  0
LINE
  5
B967
330
B87B
100
AcDbEntity
  8
1
  6
Continuous
100
AcDbLine
 10
471.7757469999998
 20
372.475844
 30
0.0
 11
471.7757469999998
 21
374.075844
 31
0.0
  0
LINE
  5
B968
330
B87B
100
AcDbEntity
  8
2
  6
Continuous
100
AcDbLine
 10
468.1992469999998
 20
412.1523439999998
 30
0.0
 11
468.1992469999998
 21
410.975844
 31
0.0
  0
LINE
  5
B969
330
B87B
100
AcDbEntity
  8
1
  6
Continuous
100
AcDbLine
 10
472.625747
 20
406.975844
 30
0.0
 11
472.625747
 21
410.975844
 31
0.0
  0
LINE
  5
B96A
330
B87B
100
AcDbEntity
  8
1
  6
Continuous
100
AcDbLine
 10
468.8757469999997
 20
411.475844
 30
0.0
 11
468.8757469999997
 21
410.975844
 31
0.0
  0
LINE
  5
B96B
330
B87B
100
AcDbEntity
  8
1
  6
Continuous
100
AcDbLine
 10
468.8757469999997
 20
411.475844
 30
0.0
 11
467.3757469999998
 21
412.9758439999998
 31
0.0
  0
LINE
  5
B96C
330
B87B
100
AcDbEntity
  8
1
  6
Continuous
100
AcDbLine
 10
472.3757469999998
 20
403.9758439999998
 30
0.0
 11
472.3757469999998
 21
406.975844
 31
0.0
  0
LINE
  5
B96D
330
B87B
100
AcDbEntity
  8
1
  6
Continuous
100
AcDbLine
 10
458.375747
 20
412.9758439999998
 30
0.0
 11
467.3757469999998
 21
412.9758439999998
 31
0.0
  0
ARC
  5
B96E
330
B87B
100
AcDbEntity
  8
1
  6
Continuous
100
AcDbCircle
 10
904.484483
 20
358.187122
 30
0.0
 40
295.46685
100
AcDbArc
 50
177.413473
 51
182.582145
  0
ARC
  5
B96F
330
B87B
100
AcDbEntity
  8
1
  6
Continuous
100
AcDbCircle
 10
335.150754
 20
358.187122
 30
0.0
 40
295.4668789999999
100
AcDbArc
 50
357.4178549999999
 51
2.586525999999999
  0
LINE
  5
B970
330
B87B
100
AcDbEntity
  8
1
  6
Continuous
100
AcDbLine
 10
606.817633
 20
339.575844
 30
0.0
 11
632.8176329999998
 21
339.575844
 31
0.0
  0
LINE
  5
B971
330
B87B
100
AcDbEntity
  8
1
  6
Continuous
100
AcDbLine
 10
606.817633
 20
337.9758439999998
 30
0.0
 11
632.8176329999998
 21
337.9758439999998
 31
0.0
  0
LINE
  5
B972
330
B87B
100
AcDbEntity
  8
1
  6
Continuous
100
AcDbLine
 10
609.317633
 20
344.8758439999999
 30
0.0
 11
630.317633
 21
344.8758439999999
 31
0.0
  0
LINE
  5
B973
330
B87B
100
AcDbEntity
  8
1
  6
Continuous
100
AcDbLine
 10
613.7556400000002
 20
337.9758589999998
 30
0.0
 11
613.7556400000002
 21
333.4758589999998
 31
0.0
  0
LINE
  5
B974
330
B87B
100
AcDbEntity
  8
1
  6
Continuous
100
AcDbLine
 10
606.817633
 20
339.575844
 30
0.0
 11
606.817633
 21
337.9758439999998
 31
0.0
  0
LINE
  5
B975
330
B87B
100
AcDbEntity
  8
1
  6
Continuous
100
AcDbLine
 10
609.317633
 20
340.575844
 30
0.0
 11
609.317633
 21
344.8758439999999
 31
0.0
  0
ARC
  5
B976
330
B87B
100
AcDbEntity
  8
1
  6
Continuous
100
AcDbCircle
 10
610.317633
 20
340.575844
 30
0.0
 40
1.0
100
AcDbArc
 50
180.0
 51
270.0
  0
LINE
  5
B977
330
B87B
100
AcDbEntity
  8
1
  6
Continuous
100
AcDbLine
 10
607.6931400000002
 20
337.9758589999998
 30
0.0
 11
607.6931400000002
 21
333.4758589999998
 31
0.0
  0
LINE
  5
B978
330
B87B
100
AcDbEntity
  8
1
  6
Continuous
100
AcDbLine
 10
630.317633
 20
340.575844
 30
0.0
 11
630.317633
 21
344.8758439999999
 31
0.0
  0
ARC
  5
B979
330
B87B
100
AcDbEntity
  8
1
  6
Continuous
100
AcDbCircle
 10
629.317633
 20
340.575844
 30
0.0
 40
1.0
100
AcDbArc
 50
270.0
 51
0.0
  0
LINE
  5
B97A
330
B87B
100
AcDbEntity
  8
1
  6
Continuous
100
AcDbLine
 10
632.8176329999998
 20
337.9758439999998
 30
0.0
 11
632.8176329999998
 21
339.575844
 31
0.0
  0
LINE
  5
B97B
330
B87B
100
AcDbEntity
  8
1
  6
Continuous
100
AcDbLine
 10
631.94214
 20
337.9758589999998
 30
0.0
 11
631.94214
 21
333.4758589999998
 31
0.0
  0
LINE
  5
B97C
330
B87B
100
AcDbEntity
  8
1
  6
Continuous
100
AcDbLine
 10
625.87964
 20
337.9758589999998
 30
0.0
 11
625.87964
 21
333.4758589999998
 31
0.0
  0
ARC
  5
B97D
330
B87B
100
AcDbEntity
  8
1
  6
Continuous
100
AcDbCircle
 10
957.671979
 20
389.515463
 30
0.0
 40
348.654346
100
AcDbArc
 50
177.6229849999998
 51
182.380431
  0
ARC
  5
B97E
330
B87B
100
AcDbEntity
  8
1
  6
Continuous
100
AcDbCircle
 10
281.963286
 20
389.515463
 30
0.0
 40
348.654346
100
AcDbArc
 50
357.619569
 51
2.377015
  0
LINE
  5
B97F
330
B87B
100
AcDbEntity
  8
1
  6
Continuous
100
AcDbLine
 10
610.317633
 20
372.475844
 30
0.0
 11
629.317633
 21
372.475844
 31
0.0
  0
LINE
  5
B980
330
B87B
100
AcDbEntity
  8
1
  6
Continuous
100
AcDbLine
 10
610.317633
 20
374.075844
 30
0.0
 11
629.317633
 21
374.075844
 31
0.0
  0
LINE
  5
B981
330
B87B
100
AcDbEntity
  8
1
  6
Continuous
100
AcDbLine
 10
610.917633
 20
374.075844
 30
0.0
 11
610.917633
 21
372.475844
 31
0.0
  0
ARC
  5
B982
330
B87B
100
AcDbEntity
  8
1
  6
Continuous
100
AcDbCircle
 10
610.317633
 20
375.075844
 30
0.0
 40
1.0
100
AcDbArc
 50
182.380431
 51
270.0
  0
ARC
  5
B983
330
B87B
100
AcDbEntity
  8
1
  6
Continuous
100
AcDbCircle
 10
610.317633
 20
371.475844
 30
0.0
 40
1.0
100
AcDbArc
 50
90.0
 51
177.413473
  0
LINE
  5
B984
330
B87B
100
AcDbEntity
  8
1
  6
Continuous
100
AcDbLine
 10
628.717633
 20
372.475844
 30
0.0
 11
628.717633
 21
374.075844
 31
0.0
  0
ARC
  5
B985
330
B87B
100
AcDbEntity
  8
1
  6
Continuous
100
AcDbCircle
 10
629.317633
 20
375.075844
 30
0.0
 40
1.0
100
AcDbArc
 50
270.0
 51
357.619569
  0
ARC
  5
B986
330
B87B
100
AcDbEntity
  8
1
  6
Continuous
100
AcDbCircle
 10
629.317633
 20
371.475844
 30
0.0
 40
1.0
100
AcDbArc
 50
2.586525999999999
 51
90.0
  0
LINE
  5
B987
330
B87B
100
AcDbEntity
  8
1
  6
Continuous
100
AcDbLine
 10
615.3176329999999
 20
412.9758439999998
 30
0.0
 11
624.3176329999998
 21
412.9758439999998
 31
0.0
  0
LINE
  5
B988
330
B87B
100
AcDbEntity
  8
1
  6
Continuous
100
AcDbLine
 10
613.817633
 20
411.475844
 30
0.0
 11
625.817633
 21
411.475844
 31
0.0
  0
LINE
  5
B989
330
B87B
100
AcDbEntity
  8
1
  6
Continuous
100
AcDbLine
 10
609.1176400000001
 20
406.975844
 30
0.0
 11
630.51764
 21
406.975844
 31
0.0
  0
LINE
  5
B98A
330
B87B
100
AcDbEntity
  8
1
  6
Continuous
100
AcDbLine
 10
609.1176400000001
 20
410.975844
 30
0.0
 11
630.51764
 21
410.975844
 31
0.0
  0
LINE
  5
B98B
330
B87B
100
AcDbEntity
  8
1
  6
Continuous
100
AcDbLine
 10
609.317633
 20
403.9758439999998
 30
0.0
 11
630.317633
 21
403.9758439999998
 31
0.0
  0
LINE
  5
B98C
330
B87B
100
AcDbEntity
  8
2
  6
Continuous
100
AcDbLine
 10
614.49414
 20
412.1523509999998
 30
0.0
 11
614.49414
 21
410.975844
 31
0.0
  0
LINE
  5
B98D
330
B87B
100
AcDbEntity
  8
1
  6
Continuous
100
AcDbLine
 10
613.817633
 20
411.475844
 30
0.0
 11
613.817633
 21
410.975844
 31
0.0
  0
LINE
  5
B98E
330
B87B
100
AcDbEntity
  8
1
  6
Continuous
100
AcDbLine
 10
615.4103519999997
 20
410.975844
 30
0.0
 11
615.4103519999997
 21
406.975844
 31
0.0
  0
LINE
  5
B98F
330
B87B
100
AcDbEntity
  8
1
  6
Continuous
100
AcDbLine
 10
613.817633
 20
411.475844
 30
0.0
 11
615.3176329999999
 21
412.9758439999998
 31
0.0
  0
LINE
  5
B990
330
B87B
100
AcDbEntity
  8
1
  6
Continuous
100
AcDbLine
 10
609.1176400000001
 20
410.975844
 30
0.0
 11
609.1176400000001
 21
406.975844
 31
0.0
  0
LINE
  5
B991
330
B87B
100
AcDbEntity
  8
1
  6
Continuous
100
AcDbLine
 10
610.317633
 20
406.975844
 30
0.0
 11
610.317633
 21
403.9758439999998
 31
0.0
  0
LINE
  5
B992
330
B87B
100
AcDbEntity
  8
1
  6
Continuous
100
AcDbLine
 10
630.51764
 20
406.975844
 30
0.0
 11
630.51764
 21
410.975844
 31
0.0
  0
LINE
  5
B993
330
B87B
100
AcDbEntity
  8
1
  6
Continuous
100
AcDbLine
 10
629.317633
 20
403.9758439999998
 30
0.0
 11
629.317633
 21
406.975844
 31
0.0
  0
LINE
  5
B994
330
B87B
100
AcDbEntity
  8
2
  6
Continuous
100
AcDbLine
 10
625.1411400000002
 20
412.152337
 30
0.0
 11
625.1411400000002
 21
410.975844
 31
0.0
  0
LINE
  5
B995
330
B87B
100
AcDbEntity
  8
1
  6
Continuous
100
AcDbLine
 10
625.817633
 20
411.475844
 30
0.0
 11
625.817633
 21
410.975844
 31
0.0
  0
LINE
  5
B996
330
B87B
100
AcDbEntity
  8
1
  6
Continuous
100
AcDbLine
 10
624.2256799999998
 20
410.975844
 30
0.0
 11
624.2256799999998
 21
406.975844
 31
0.0
  0
LINE
  5
B997
330
B87B
100
AcDbEntity
  8
1
  6
Continuous
100
AcDbLine
 10
625.817633
 20
411.475844
 30
0.0
 11
624.3176329999998
 21
412.9758439999998
 31
0.0
  0
ARC
  5
B998
330
B87B
100
AcDbEntity
  8
1
  6
Continuous
100
AcDbCircle
 10
280.1540489999999
 20
436.3067159999998
 30
0.0
 40
77.195079
100
AcDbArc
 50
62.954166
 51
69.49809000000001
  0
ARC
  5
B999
330
B87B
100
AcDbEntity
  8
1
  6
Continuous
100
AcDbCircle
 10
305.9334779999999
 20
486.801795
 30
0.0
 40
20.5
100
AcDbArc
 50
297.0462239999998
 51
62.954166
  0
ARC
  5
B99A
330
B87B
100
AcDbEntity
  8
1
  6
Continuous
100
AcDbCircle
 10
280.1540489999999
 20
537.296874
 30
0.0
 40
77.195079
100
AcDbArc
 50
290.50191
 51
297.045834
  0
LINE
  5
B99B
330
B87B
100
AcDbEntity
  8
1
  6
Continuous
100
AcDbLine
 10
270.6592979999999
 20
460.9773299999998
 30
0.0
 11
304.6914399999999
 21
464.4083329999999
 31
0.0
  0
LINE
  5
B99C
330
B87B
100
AcDbEntity
  8
4
  6
CENTER
100
AcDbLine
 10
305.9334779999999
 20
515.9722659999999
 30
0.0
 11
305.9334779999999
 21
456.511985
 31
0.0
  0
ARC
  5
B99D
330
B87B
100
AcDbEntity
  8
1
  6
Continuous
100
AcDbCircle
 10
303.6883599999999
 20
474.3578969999998
 30
0.0
 40
10.0
100
AcDbArc
 50
275.7569099999999
 51
290.50191
  0
LINE
  5
B99E
330
B87B
100
AcDbEntity
  8
1
  6
Continuous
100
AcDbLine
 10
270.6592979999999
 20
512.62626
 30
0.0
 11
304.6914399999999
 21
509.195258
 31
0.0
  0
ARC
  5
B99F
330
B87B
100
AcDbEntity
  8
1
  6
Continuous
100
AcDbCircle
 10
303.6883599999999
 20
499.245694
 30
0.0
 40
10.0
100
AcDbArc
 50
69.49809000000001
 51
84.24308999999999
  0
ARC
  5
B9A0
330
B87B
100
AcDbEntity
  8
1
  6
Continuous
100
AcDbCircle
 10
280.1540489999999
 20
436.3067159999998
 30
0.0
 40
77.195079
100
AcDbArc
 50
98.98809100000001
 51
103.078943
  0
ARC
  5
B9A1
330
B87B
100
AcDbEntity
  8
1
  6
Continuous
100
AcDbCircle
 10
269.656218
 20
502.6766959999998
 30
0.0
 40
10.0
100
AcDbArc
 50
84.24308999999999
 51
98.98809100000001
  0
ARC
  5
B9A2
330
B87B
100
AcDbEntity
  8
1
  6
Continuous
100
AcDbCircle
 10
249.622948
 20
567.7250759999998
 30
0.0
 40
57.72316800000001
100
AcDbArc
 50
270.0
 51
283.0789429999999
  0
LINE
  5
B9A3
330
B87B
100
AcDbEntity
  8
1
  6
Continuous
100
AcDbLine
 10
266.1834779999999
 20
510.001908
 30
0.0
 11
245.6834779999998
 21
510.001908
 31
0.0
  0
ARC
  5
B9A4
330
B87B
100
AcDbEntity
  8
1
  6
Continuous
100
AcDbCircle
 10
266.1834779999999
 20
460.9239599999998
 30
0.0
 40
46.777948
100
AcDbArc
 50
84.030339
 51
90.0
  0
LINE
  5
B9A5
330
B87B
100
AcDbEntity
  8
1
  6
Continuous
100
AcDbLine
 10
298.7462680000001
 20
504.551908
 30
0.0
 11
271.04847
 21
507.448236
 31
0.0
  0
LINE
  5
B9A6
330
B87B
100
AcDbEntity
  8
1
  6
Continuous
100
AcDbLine
 10
298.7462680000001
 20
504.551908
 30
0.0
 11
275.6261529999998
 21
509.084949
 31
0.0
  0
ARC
  5
B9A7
330
B87B
100
AcDbEntity
  8
1
  6
Continuous
100
AcDbCircle
 10
266.1834779999999
 20
460.9239599999998
 30
0.0
 40
49.077948
100
AcDbArc
 50
78.90702799999998
 51
90.0
  0
LINE
  5
B9A8
330
B87B
100
AcDbEntity
  8
1
  6
Continuous
100
AcDbLine
 10
266.1834779999999
 20
507.701908
 30
0.0
 11
245.6834779999998
 21
507.701908
 31
0.0
  0
LINE
  5
B9A9
330
B87B
100
AcDbEntity
  8
1
  6
Continuous
100
AcDbLine
 10
298.7462680000001
 20
469.051682
 30
0.0
 11
271.04847
 21
466.1553539999998
 31
0.0
  0
LINE
  5
B9AA
330
B87B
100
AcDbEntity
  8
1
  6
Continuous
100
AcDbLine
 10
298.7462680000001
 20
469.051682
 30
0.0
 11
275.6261529999998
 21
464.5186409999998
 31
0.0
  0
ARC
  5
B9AB
330
B87B
100
AcDbEntity
  8
1
  6
Continuous
100
AcDbCircle
 10
266.1834779999999
 20
512.6796299999998
 30
0.0
 40
46.777948
100
AcDbArc
 50
270.0
 51
275.9696609999999
  0
ARC
  5
B9AC
330
B87B
100
AcDbEntity
  8
1
  6
Continuous
100
AcDbCircle
 10
266.1834779999999
 20
512.6796299999998
 30
0.0
 40
49.077948
100
AcDbArc
 50
270.0
 51
281.0929719999999
  0
LINE
  5
B9AD
330
B87B
100
AcDbEntity
  8
1
  6
Continuous
100
AcDbLine
 10
266.1834779999999
 20
465.9016819999997
 30
0.0
 11
245.6834779999998
 21
465.9016819999997
 31
0.0
  0
LINE
  5
B9AE
330
B87B
100
AcDbEntity
  8
1
  6
Continuous
100
AcDbLine
 10
266.1834779999999
 20
463.601682
 30
0.0
 11
245.6834779999998
 21
463.601682
 31
0.0
  0
ARC
  5
B9AF
330
B87B
100
AcDbEntity
  8
1
  6
Continuous
100
AcDbCircle
 10
269.656218
 20
470.926895
 30
0.0
 40
10.0
100
AcDbArc
 50
261.0119089999999
 51
275.7569099999999
  0
ARC
  5
B9B0
330
B87B
100
AcDbEntity
  8
1
  6
Continuous
100
AcDbCircle
 10
280.1540489999999
 20
537.296874
 30
0.0
 40
77.195079
100
AcDbArc
 50
256.9210569999999
 51
261.0119089999999
  0
ARC
  5
B9B1
330
B87B
100
AcDbEntity
  8
1
  6
Continuous
100
AcDbCircle
 10
249.622948
 20
405.878514
 30
0.0
 40
57.72316800000001
100
AcDbArc
 50
76.92105699999998
 51
90.0
  0
ARC
  5
B9B2
330
B87B
100
AcDbEntity
  8
1
  6
Continuous
100
AcDbCircle
 10
305.9334779999999
 20
486.801795
 30
0.0
 40
20.5
100
AcDbArc
 50
118.4721379999999
 51
241.527862
  0
LINE
  5
B9B3
330
B87B
100
AcDbEntity
  8
4
  6
CENTER
100
AcDbLine
 10
68.99196100000001
 20
418.546607
 30
0.0
 11
68.99196100000001
 21
151.2480909999998
 31
0.0
  0
LINE
  5
B9B4
330
B87B
100
AcDbEntity
  8
4
  6
CENTER
100
AcDbLine
 10
462.875747
 20
418.546607
 30
0.0
 11
462.875747
 21
151.2480909999998
 31
0.0
  0
LINE
  5
B9B5
330
B87B
100
AcDbEntity
  8
1
  6
Continuous
100
AcDbLine
 10
57.99184799999999
 20
295.9758439999998
 30
0.0
 11
57.99184799999999
 21
168.3258439999999
 31
0.0
  0
LINE
  5
B9B6
330
B87B
100
AcDbEntity
  8
1
  6
Continuous
100
AcDbLine
 10
79.991848
 20
295.9758439999998
 30
0.0
 11
79.991848
 21
168.3258439999999
 31
0.0
  0
ARC
  5
B9B7
330
B87B
100
AcDbEntity
  8
1
  6
Continuous
100
AcDbCircle
 10
68.99196100000001
 20
167.975844
 30
0.0
 40
11.0
100
AcDbArc
 50
180.0
 51
0.0
  0
LINE
  5
B9B8
330
B87B
100
AcDbEntity
  8
5
  6
PHANTOM
100
AcDbLine
 10
56.57944699999998
 20
261.3756299999999
 30
0.0
 11
53.509158
 21
268.7879639999998
 31
0.0
  0
LINE
  5
B9B9
330
B87B
100
AcDbEntity
  8
5
  6
PHANTOM
100
AcDbLine
 10
55.611701
 20
259.5309759999998
 30
0.0
 11
52.659468
 21
266.6582969999998
 31
0.0
  0
ARC
  5
B9BA
330
B87B
100
AcDbEntity
  8
1
  6
Continuous
100
AcDbCircle
 10
118.091848
 20
241.7865519999998
 30
0.0
 40
70.0
100
AcDbArc
 50
157.295717
 51
180.0
  0
ARC
  5
B9BB
330
B87B
100
AcDbEntity
  8
1
  6
Continuous
100
AcDbCircle
 10
292.274173
 20
229.096729
 30
0.0
 40
250.0
100
AcDbArc
 50
167.9029469999998
 51
177.751751
  0
ARC
  5
B9BC
330
B87B
100
AcDbEntity
  8
1
  6
Continuous
100
AcDbCircle
 10
118.091848
 20
241.7865519999998
 30
0.0
 40
72.29999999999998
100
AcDbArc
 50
157.295717
 51
180.0
  0
ARC
  5
B9BD
330
B87B
100
AcDbEntity
  8
1
  6
Continuous
100
AcDbCircle
 10
-154.2904769999998
 20
229.096729
 30
0.0
 40
250.0
100
AcDbArc
 50
2.248248999999999
 51
12.09705299999999
  0
ARC
  5
B9BE
330
B87B
100
AcDbEntity
  8
1
  6
Continuous
100
AcDbCircle
 10
19.891848
 20
241.7865519999998
 30
0.0
 40
72.29999999999998
100
AcDbArc
 50
0.0
 51
22.704283
  0
ARC
  5
B9BF
330
B87B
100
AcDbEntity
  8
1
  6
Continuous
100
AcDbCircle
 10
19.891848
 20
241.7865519999998
 30
0.0
 40
70.0
100
AcDbArc
 50
0.0
 51
22.704283
  0
LINE
  5
B9C0
330
B87B
100
AcDbEntity
  8
1
  6
Continuous
100
AcDbLine
 10
84.25541
 20
254.5112599999999
 30
0.0
 11
86.21905899999999
 21
264.1629029999999
 31
0.0
  0
LINE
  5
B9C1
330
B87B
100
AcDbEntity
  8
1
  6
Continuous
100
AcDbLine
 10
53.72841499999999
 20
254.511731
 30
0.0
 11
51.764777
 21
264.1633189999998
 31
0.0
  0
LINE
  5
B9C2
330
B87B
100
AcDbEntity
  8
4
  6
CENTER
100
AcDbLine
 10
32.17912
 20
231.975844
 30
0.0
 11
106.19355
 21
231.975844
 31
0.0
  0
LINE
  5
B9C3
330
B87B
100
AcDbEntity
  8
1
  6
Continuous
100
AcDbLine
 10
88.791848
 20
215.975844
 30
0.0
 11
88.791848
 21
247.9758439999999
 31
0.0
  0
LINE
  5
B9C4
330
B87B
100
AcDbEntity
  8
1
  6
Continuous
100
AcDbLine
 10
49.191848
 20
215.975844
 30
0.0
 11
49.191848
 21
247.9758439999999
 31
0.0
  0
LINE
  5
B9C5
330
B87B
100
AcDbEntity
  8
1
  6
Continuous
100
AcDbLine
 10
53.241848
 20
252.4758439999998
 30
0.0
 11
53.241848
 21
211.475844
 31
0.0
  0
LINE
  5
B9C6
330
B87B
100
AcDbEntity
  8
1
  6
Continuous
100
AcDbLine
 10
51.241848
 20
249.6474169999999
 30
0.0
 11
51.241848
 21
214.304271
 31
0.0
  0
LINE
  5
B9C7
330
B87B
100
AcDbEntity
  8
1
  6
Continuous
100
AcDbLine
 10
84.74184800000001
 20
252.4758439999998
 30
0.0
 11
84.74184800000001
 21
211.475844
 31
0.0
  0
LINE
  5
B9C8
330
B87B
100
AcDbEntity
  8
1
  6
Continuous
100
AcDbLine
 10
86.741848
 20
249.6474169999999
 30
0.0
 11
86.741848
 21
214.304271
 31
0.0
  0
LINE
  5
B9C9
330
B87B
100
AcDbEntity
  8
1
  6
Continuous
100
AcDbLine
 10
86.741848
 20
215.975844
 30
0.0
 11
88.791848
 21
215.975844
 31
0.0
  0
ARC
  5
B9CA
330
B87B
100
AcDbEntity
  8
1
  6
Continuous
100
AcDbCircle
 10
83.741848
 20
214.304271
 30
0.0
 40
3.0
100
AcDbArc
 50
289.471221
 51
0.0
  0
LINE
  5
B9CB
330
B87B
100
AcDbEntity
  8
1
  6
Continuous
100
AcDbLine
 10
49.191848
 20
215.975844
 30
0.0
 11
51.241848
 21
215.975844
 31
0.0
  0
ARC
  5
B9CC
330
B87B
100
AcDbEntity
  8
1
  6
Continuous
100
AcDbCircle
 10
54.24184799999999
 20
214.304271
 30
0.0
 40
3.0
100
AcDbArc
 50
180.0
 51
250.5287789999999
  0
ARC
  5
B9CD
330
B87B
100
AcDbEntity
  8
1
  6
Continuous
100
AcDbCircle
 10
82.64562599999997
 20
217.42713
 30
0.0
 40
30.0
100
AcDbArc
 50
191.4420209999999
 51
214.7353549999999
  0
ARC
  5
B9CE
330
B87B
100
AcDbEntity
  8
1
  6
Continuous
100
AcDbCircle
 10
55.338069
 20
217.42713
 30
0.0
 40
30.0
100
AcDbArc
 50
325.264648
 51
348.557979
  0
ARC
  5
B9CF
330
B87B
100
AcDbEntity
  8
1
  6
Continuous
100
AcDbCircle
 10
83.741848
 20
249.6474169999999
 30
0.0
 40
3.0
100
AcDbArc
 50
0.0
 51
70.528779
  0
LINE
  5
B9D0
330
B87B
100
AcDbEntity
  8
1
  6
Continuous
100
AcDbLine
 10
86.741848
 20
247.9758439999999
 30
0.0
 11
88.791848
 21
247.9758439999999
 31
0.0
  0
LINE
  5
B9D1
330
B87B
100
AcDbEntity
  8
1
  6
Continuous
100
AcDbLine
 10
85.406413
 20
252.1432579999999
 30
0.0
 11
87.20627699999999
 21
260.9898739999999
 31
0.0
  0
ARC
  5
B9D2
330
B87B
100
AcDbEntity
  8
1
  6
Continuous
100
AcDbCircle
 10
57.791848
 20
231.975844
 30
0.0
 40
15.5
100
AcDbArc
 50
140.731974
 51
151.061472
  0
LINE
  5
B9D3
330
B87B
100
AcDbEntity
  8
1
  6
Continuous
100
AcDbLine
 10
43.49184799999998
 20
239.4758439999999
 30
0.0
 11
45.791848
 21
239.4758439999999
 31
0.0
  0
LINE
  5
B9D4
330
B87B
100
AcDbEntity
  8
1
  6
Continuous
100
AcDbLine
 10
38.527746
 20
238.9040479999999
 30
0.0
 11
37.99184799999999
 21
237.9758439999999
 31
0.0
  0
LINE
  5
B9D5
330
B87B
100
AcDbEntity
  8
1
  6
Continuous
100
AcDbLine
 10
38.527746
 20
238.9040479999999
 30
0.0
 11
43.49184799999998
 21
238.9040479999999
 31
0.0
  0
LINE
  5
B9D6
330
B87B
100
AcDbEntity
  8
1
  6
Continuous
100
AcDbLine
 10
49.091848
 20
237.9508439999999
 30
0.0
 11
49.191848
 21
237.9508439999999
 31
0.0
  0
ARC
  5
B9D7
330
B87B
100
AcDbEntity
  8
1
  6
Continuous
100
AcDbCircle
 10
45.09184799999998
 20
238.330093
 30
0.0
 40
4.0
100
AcDbArc
 50
0.0
 51
41.40962199999999
  0
LINE
  5
B9D8
330
B87B
100
AcDbEntity
  8
1
  6
Continuous
100
AcDbLine
 10
45.791848
 20
221.725844
 30
0.0
 11
48.091848
 21
221.725844
 31
0.0
  0
ARC
  5
B9D9
330
B87B
100
AcDbEntity
  8
1
  6
Continuous
100
AcDbCircle
 10
57.791848
 20
231.975844
 30
0.0
 40
15.5
100
AcDbArc
 50
208.9385279999999
 51
219.2680259999999
  0
ARC
  5
B9DA
330
B87B
100
AcDbEntity
  8
1
  6
Continuous
100
AcDbCircle
 10
49.45594899999999
 20
231.975844
 30
0.0
 40
11.464102
100
AcDbArc
 50
162.412046
 51
197.5879539999999
  0
LINE
  5
B9DB
330
B87B
100
AcDbEntity
  8
1
  6
Continuous
100
AcDbLine
 10
43.49184799999998
 20
224.475844
 30
0.0
 11
45.791848
 21
224.475844
 31
0.0
  0
LINE
  5
B9DC
330
B87B
100
AcDbEntity
  8
1
  6
Continuous
100
AcDbLine
 10
38.527746
 20
228.511743
 30
0.0
 11
43.49184799999998
 21
228.511743
 31
0.0
  0
LINE
  5
B9DD
330
B87B
100
AcDbEntity
  8
1
  6
Continuous
100
AcDbLine
 10
38.527746
 20
225.047641
 30
0.0
 11
37.99184799999999
 21
225.975844
 31
0.0
  0
LINE
  5
B9DE
330
B87B
100
AcDbEntity
  8
1
  6
Continuous
100
AcDbLine
 10
38.527746
 20
225.047641
 30
0.0
 11
43.49184799999998
 21
225.047641
 31
0.0
  0
ARC
  5
B9DF
330
B87B
100
AcDbEntity
  8
1
  6
Continuous
100
AcDbCircle
 10
41.058835
 20
226.7796919999999
 30
0.0
 40
3.066986999999998
100
AcDbArc
 50
145.615753
 51
205.615753
  0
LINE
  5
B9E0
330
B87B
100
AcDbEntity
  8
1
  6
Continuous
100
AcDbLine
 10
38.527746
 20
235.4399459999999
 30
0.0
 11
43.49184799999998
 21
235.4399459999999
 31
0.0
  0
ARC
  5
B9E1
330
B87B
100
AcDbEntity
  8
1
  6
Continuous
100
AcDbCircle
 10
45.09184799999998
 20
225.621595
 30
0.0
 40
4.0
100
AcDbArc
 50
318.5903779999998
 51
0.0
  0
LINE
  5
B9E2
330
B87B
100
AcDbEntity
  8
1
  6
Continuous
100
AcDbLine
 10
49.091848
 20
226.000844
 30
0.0
 11
49.191848
 21
226.000844
 31
0.0
  0
LINE
  5
B9E3
330
B87B
100
AcDbEntity
  8
1
  6
Continuous
100
AcDbLine
 10
49.091848
 20
238.330093
 30
0.0
 11
49.091848
 21
225.621595
 31
0.0
  0
LINE
  5
B9E4
330
B87B
100
AcDbEntity
  8
1
  6
Continuous
100
AcDbLine
 10
45.791848
 20
241.7865519999998
 30
0.0
 11
45.791848
 21
221.725844
 31
0.0
  0
LINE
  5
B9E5
330
B87B
100
AcDbEntity
  8
1
  6
Continuous
100
AcDbLine
 10
48.091848
 20
241.7865519999998
 30
0.0
 11
48.091848
 21
221.725844
 31
0.0
  0
LINE
  5
B9E6
330
B87B
100
AcDbEntity
  8
1
  6
Continuous
100
AcDbLine
 10
43.49184799999998
 20
239.4758439999999
 30
0.0
 11
43.49184799999998
 21
224.475844
 31
0.0
  0
LINE
  5
B9E7
330
B87B
100
AcDbEntity
  8
1
  6
Continuous
100
AcDbLine
 10
43.49184799999998
 20
238.9040479999999
 30
0.0
 11
43.49184799999998
 21
225.047641
 31
0.0
  0
LINE
  5
B9E8
330
B87B
100
AcDbEntity
  8
1
  6
Continuous
100
AcDbLine
 10
37.99184799999999
 20
237.9758439999999
 30
0.0
 11
37.99184799999999
 21
225.975844
 31
0.0
  0
ARC
  5
B9E9
330
B87B
100
AcDbEntity
  8
1
  6
Continuous
100
AcDbCircle
 10
41.058835
 20
237.171997
 30
0.0
 40
3.066986999999998
100
AcDbArc
 50
154.3842469999999
 51
214.384247
  0
ARC
  5
B9EA
330
B87B
100
AcDbEntity
  8
1
  6
Continuous
100
AcDbCircle
 10
54.24184799999999
 20
249.6474169999999
 30
0.0
 40
3.0
100
AcDbArc
 50
109.4712209999999
 51
180.0
  0
LINE
  5
B9EB
330
B87B
100
AcDbEntity
  8
1
  6
Continuous
100
AcDbLine
 10
49.191848
 20
247.9758439999999
 30
0.0
 11
51.241848
 21
247.9758439999999
 31
0.0
  0
ARC
  5
B9EC
330
B87B
100
AcDbEntity
  8
1
  6
Continuous
100
AcDbCircle
 10
82.64562599999997
 20
246.524558
 30
0.0
 40
30.0
100
AcDbArc
 50
145.264645
 51
168.557979
  0
LINE
  5
B9ED
330
B87B
100
AcDbEntity
  8
1
  6
Continuous
100
AcDbLine
 10
52.577481
 20
252.1433899999999
 30
0.0
 11
50.77754999999999
 21
260.990335
 31
0.0
  0
ARC
  5
B9EE
330
B87B
100
AcDbEntity
  8
1
  6
Continuous
100
AcDbCircle
 10
55.338069
 20
246.524558
 30
0.0
 40
30.0
100
AcDbArc
 50
11.44202099999999
 51
34.735352
  0
LINE
  5
B9EF
330
B87B
100
AcDbEntity
  8
1
  6
Continuous
100
AcDbLine
 10
95.027746
 20
238.9040479999999
 30
0.0
 11
98.955949
 21
238.9040479999999
 31
0.0
  0
ARC
  5
B9F0
330
B87B
100
AcDbEntity
  8
1
  6
Continuous
100
AcDbCircle
 10
80.19184799999996
 20
231.975844
 30
0.0
 40
15.5
100
AcDbArc
 50
28.938528
 51
39.268026
  0
LINE
  5
B9F1
330
B87B
100
AcDbEntity
  8
1
  6
Continuous
100
AcDbLine
 10
92.19184799999998
 20
239.4758439999999
 30
0.0
 11
94.49184800000001
 21
239.4758439999999
 31
0.0
  0
LINE
  5
B9F2
330
B87B
100
AcDbEntity
  8
1
  6
Continuous
100
AcDbLine
 10
88.791848
 20
237.9508439999999
 30
0.0
 11
88.89184799999998
 21
237.9508439999999
 31
0.0
  0
ARC
  5
B9F3
330
B87B
100
AcDbEntity
  8
1
  6
Continuous
100
AcDbCircle
 10
92.89184799999999
 20
238.330093
 30
0.0
 40
4.0
100
AcDbArc
 50
138.5903779999999
 51
180.0
  0
LINE
  5
B9F4
330
B87B
100
AcDbEntity
  8
1
  6
Continuous
100
AcDbLine
 10
98.955949
 20
238.9040479999999
 30
0.0
 11
99.49184800000001
 21
237.9758439999999
 31
0.0
  0
LINE
  5
B9F5
330
B87B
100
AcDbEntity
  8
1
  6
Continuous
100
AcDbLine
 10
95.027746
 20
225.047641
 30
0.0
 11
98.955949
 21
225.047641
 31
0.0
  0
LINE
  5
B9F6
330
B87B
100
AcDbEntity
  8
1
  6
Continuous
100
AcDbLine
 10
95.027746
 20
228.511743
 30
0.0
 11
98.955949
 21
228.511743
 31
0.0
  0
LINE
  5
B9F7
330
B87B
100
AcDbEntity
  8
1
  6
Continuous
100
AcDbLine
 10
95.027746
 20
235.4399459999999
 30
0.0
 11
98.955949
 21
235.4399459999999
 31
0.0
  0
LINE
  5
B9F8
330
B87B
100
AcDbEntity
  8
1
  6
Continuous
100
AcDbLine
 10
92.19184799999998
 20
224.475844
 30
0.0
 11
94.49184800000001
 21
224.475844
 31
0.0
  0
ARC
  5
B9F9
330
B87B
100
AcDbEntity
  8
1
  6
Continuous
100
AcDbCircle
 10
80.19184799999996
 20
231.975844
 30
0.0
 40
15.5
100
AcDbArc
 50
320.7319739999999
 51
331.0614719999999
  0
ARC
  5
B9FA
330
B87B
100
AcDbEntity
  8
1
  6
Continuous
100
AcDbCircle
 10
92.89184799999999
 20
225.621595
 30
0.0
 40
4.0
100
AcDbArc
 50
180.0
 51
221.409622
  0
LINE
  5
B9FB
330
B87B
100
AcDbEntity
  8
1
  6
Continuous
100
AcDbLine
 10
89.89184799999998
 20
221.725844
 30
0.0
 11
92.19184799999998
 21
221.725844
 31
0.0
  0
LINE
  5
B9FC
330
B87B
100
AcDbEntity
  8
1
  6
Continuous
100
AcDbLine
 10
88.791848
 20
226.000844
 30
0.0
 11
88.89184799999998
 21
226.000844
 31
0.0
  0
ARC
  5
B9FD
330
B87B
100
AcDbEntity
  8
1
  6
Continuous
100
AcDbCircle
 10
105.955949
 20
231.975844
 30
0.0
 40
11.464102
100
AcDbArc
 50
162.412046
 51
197.5879539999999
  0
ARC
  5
B9FE
330
B87B
100
AcDbEntity
  8
1
  6
Continuous
100
AcDbCircle
 10
97.55883500000001
 20
226.7796919999999
 30
0.0
 40
3.066986999999998
100
AcDbArc
 50
145.615753
 51
214.384247
  0
LINE
  5
B9FF
330
B87B
100
AcDbEntity
  8
1
  6
Continuous
100
AcDbLine
 10
100.991848
 20
234.975844
 30
0.0
 11
100.991848
 21
228.9758439999999
 31
0.0
  0
ARC
  5
BA00
330
B87B
100
AcDbEntity
  8
1
  6
Continuous
100
AcDbCircle
 10
88.02774599999997
 20
231.975844
 30
0.0
 40
11.464102
100
AcDbArc
 50
342.4120459999999
 51
17.587954
  0
ARC
  5
BA01
330
B87B
100
AcDbEntity
  8
1
  6
Continuous
100
AcDbCircle
 10
96.42485999999999
 20
226.7796919999999
 30
0.0
 40
3.066986999999998
100
AcDbArc
 50
334.384247
 51
34.38424699999998
  0
LINE
  5
BA02
330
B87B
100
AcDbEntity
  8
1
  6
Continuous
100
AcDbLine
 10
98.955949
 20
225.047641
 30
0.0
 11
99.49184800000001
 21
225.975844
 31
0.0
  0
LINE
  5
BA03
330
B87B
100
AcDbEntity
  8
1
  6
Continuous
100
AcDbLine
 10
99.99184800000001
 20
227.975844
 30
0.0
 11
100.991848
 21
228.9758439999999
 31
0.0
  0
LINE
  5
BA04
330
B87B
100
AcDbEntity
  8
1
  6
Continuous
100
AcDbLine
 10
99.49184800000001
 20
227.975844
 30
0.0
 11
99.99184800000001
 21
227.975844
 31
0.0
  0
LINE
  5
BA05
330
B87B
100
AcDbEntity
  8
2
  6
Continuous
100
AcDbLine
 10
99.49184800000001
 20
228.6523439999999
 30
0.0
 11
100.6683479999999
 21
228.6523439999999
 31
0.0
  0
LINE
  5
BA06
330
B87B
100
AcDbEntity
  8
2
  6
Continuous
100
AcDbLine
 10
99.49184800000001
 20
235.299344
 30
0.0
 11
100.6683479999999
 21
235.299344
 31
0.0
  0
LINE
  5
BA07
330
B87B
100
AcDbEntity
  8
1
  6
Continuous
100
AcDbLine
 10
99.99184800000001
 20
235.9758439999999
 30
0.0
 11
100.991848
 21
234.975844
 31
0.0
  0
LINE
  5
BA08
330
B87B
100
AcDbEntity
  8
1
  6
Continuous
100
AcDbLine
 10
99.49184800000001
 20
235.9758439999999
 30
0.0
 11
99.99184800000001
 21
235.9758439999999
 31
0.0
  0
LINE
  5
BA09
330
B87B
100
AcDbEntity
  8
1
  6
Continuous
100
AcDbLine
 10
99.99184800000001
 20
235.9758439999999
 30
0.0
 11
99.99184800000001
 21
227.975844
 31
0.0
  0
LINE
  5
BA0A
330
B87B
100
AcDbEntity
  8
1
  6
Continuous
100
AcDbLine
 10
88.89184799999998
 20
238.330093
 30
0.0
 11
88.89184799999998
 21
225.621595
 31
0.0
  0
LINE
  5
BA0B
330
B87B
100
AcDbEntity
  8
1
  6
Continuous
100
AcDbLine
 10
94.49184800000001
 20
239.4758439999999
 30
0.0
 11
94.49184800000001
 21
224.475844
 31
0.0
  0
LINE
  5
BA0C
330
B87B
100
AcDbEntity
  8
1
  6
Continuous
100
AcDbLine
 10
92.19184799999998
 20
241.7865519999998
 30
0.0
 11
92.19184799999998
 21
221.725844
 31
0.0
  0
LINE
  5
BA0D
330
B87B
100
AcDbEntity
  8
1
  6
Continuous
100
AcDbLine
 10
89.89184799999998
 20
241.7865519999998
 30
0.0
 11
89.89184799999998
 21
221.725844
 31
0.0
  0
LINE
  5
BA0E
330
B87B
100
AcDbEntity
  8
1
  6
Continuous
100
AcDbLine
 10
94.49184800000001
 20
237.9758439999999
 30
0.0
 11
94.49184800000001
 21
225.975844
 31
0.0
  0
ARC
  5
BA0F
330
B87B
100
AcDbEntity
  8
1
  6
Continuous
100
AcDbCircle
 10
97.55883500000001
 20
237.171997
 30
0.0
 40
3.066986999999998
100
AcDbArc
 50
145.615753
 51
214.384247
  0
LINE
  5
BA10
330
B87B
100
AcDbEntity
  8
1
  6
Continuous
100
AcDbLine
 10
99.49184800000001
 20
237.9758439999999
 30
0.0
 11
99.49184800000001
 21
225.975844
 31
0.0
  0
ARC
  5
BA11
330
B87B
100
AcDbEntity
  8
1
  6
Continuous
100
AcDbCircle
 10
96.42485999999999
 20
237.171997
 30
0.0
 40
3.066986999999998
100
AcDbArc
 50
325.6157529999999
 51
25.615753
  0
ARC
  5
BA12
330
B87B
100
AcDbEntity
  8
5
  6
PHANTOM
100
AcDbCircle
 10
80.30039700000001
 20
253.4001809999999
 30
0.0
 40
10.0
100
AcDbArc
 50
327.1505389999999
 51
336.5481799999999
  0
LINE
  5
BA13
330
B87B
100
AcDbEntity
  8
5
  6
PHANTOM
100
AcDbLine
 10
45.78263399999999
 20
294.2646769999999
 30
0.0
 11
30.48285499999999
 21
291.2907009999999
 31
0.0
  0
LINE
  5
BA14
330
B87B
100
AcDbEntity
  8
5
  6
PHANTOM
100
AcDbLine
 10
47.21020399999999
 20
292.9122219999999
 30
0.0
 11
30.788149
 21
289.720097
 31
0.0
  0
LINE
  5
BA15
330
B87B
100
AcDbEntity
  8
1
  6
Continuous
100
AcDbLine
 10
47.428102
 20
298.575844
 30
0.0
 11
31.84196099999999
 21
298.575844
 31
0.0
  0
LINE
  5
BA16
330
B87B
100
AcDbEntity
  8
1
  6
Continuous
100
AcDbLine
 10
48.491961
 20
296.975844
 30
0.0
 11
31.84196099999999
 21
296.975844
 31
0.0
  0
LINE
  5
BA17
330
B87B
100
AcDbEntity
  8
5
  6
PHANTOM
100
AcDbLine
 10
30.48285499999999
 20
291.2907009999999
 30
0.0
 11
30.788149
 21
289.720097
 31
0.0
  0
LINE
  5
BA18
330
B87B
100
AcDbEntity
  8
1
  6
Continuous
100
AcDbLine
 10
31.84196099999999
 20
298.575844
 30
0.0
 11
31.84196099999999
 21
296.975844
 31
0.0
  0
LINE
  5
BA19
330
B87B
100
AcDbEntity
  8
1
  6
Continuous
100
AcDbLine
 10
48.49184799999999
 20
313.6758439999999
 30
0.0
 11
48.49184799999999
 21
287.775844
 31
0.0
  0
LINE
  5
BA1A
330
B87B
100
AcDbEntity
  8
1
  6
Continuous
100
AcDbLine
 10
89.49184800000002
 20
313.6758439999999
 30
0.0
 11
89.49184800000002
 21
287.775844
 31
0.0
  0
ARC
  5
BA1B
330
B87B
100
AcDbEntity
  8
1
  6
Continuous
100
AcDbCircle
 10
18.491848
 20
287.775844
 30
0.0
 40
30.0
100
AcDbArc
 50
347.902947
 51
0.0
  0
ARC
  5
BA1C
330
B87B
100
AcDbEntity
  8
5
  6
PHANTOM
100
AcDbCircle
 10
34.54884099999999
 20
277.717143
 30
0.0
 40
12.5
100
AcDbArc
 50
22.5
 51
68.93454799999999
  0
LINE
  5
BA1D
330
B87B
100
AcDbEntity
  8
1
  6
Continuous
100
AcDbLine
 10
48.02889099999998
 20
282.5257879999999
 30
0.0
 11
47.125124
 21
286.967944
 31
0.0
  0
ARC
  5
BA1E
330
B87B
100
AcDbEntity
  8
5
  6
PHANTOM
100
AcDbCircle
 10
36.151621
 20
278.0286919999999
 30
0.0
 40
12.5
100
AcDbArc
 50
19.18833199999999
 51
71.53191600000003
  0
ARC
  5
BA1F
330
B87B
100
AcDbEntity
  8
1
  6
Continuous
100
AcDbCircle
 10
-113.3681519999999
 20
287.775844
 30
0.0
 40
166.5599999999998
100
AcDbArc
 50
355.665181
 51
4.431017999999999
  0
ARC
  5
BA20
330
B87B
100
AcDbEntity
  8
1
  6
Continuous
100
AcDbCircle
 10
-113.3681519999999
 20
287.775844
 30
0.0
 40
168.86
100
AcDbArc
 50
355.665181
 51
4.371601999999998
  0
ARC
  5
BA21
330
B87B
100
AcDbEntity
  8
1
  6
Continuous
100
AcDbCircle
 10
251.351848
 20
287.775844
 30
0.0
 40
166.5599999999998
100
AcDbArc
 50
175.568982
 51
184.334819
  0
ARC
  5
BA22
330
B87B
100
AcDbEntity
  8
1
  6
Continuous
100
AcDbCircle
 10
251.351848
 20
287.775844
 30
0.0
 40
168.86
100
AcDbArc
 50
175.628398
 51
184.334819
  0
LINE
  5
BA23
330
B87B
100
AcDbEntity
  8
1
  6
Continuous
100
AcDbLine
 10
47.209634
 20
278.5272029999998
 30
0.0
 11
45.49234600000001
 21
286.967944
 31
0.0
  0
ARC
  5
BA24
330
B87B
100
AcDbEntity
  8
1
  6
Continuous
100
AcDbCircle
 10
35.06601699999999
 20
276.5243029999999
 30
0.0
 40
17.7
100
AcDbArc
 50
337.2957169999999
 51
355.665181
  0
ARC
  5
BA25
330
B87B
100
AcDbEntity
  8
1
  6
Continuous
100
AcDbCircle
 10
35.06601699999999
 20
276.5243029999999
 30
0.0
 40
20.0
100
AcDbArc
 50
337.2957169999999
 51
355.665181
  0
LINE
  5
BA26
330
B87B
100
AcDbEntity
  8
5
  6
PHANTOM
100
AcDbLine
 10
47.385437
 20
279.390935
 30
0.0
 11
46.09733499999999
 21
282.5006870000001
 31
0.0
  0
ARC
  5
BA27
330
B87B
100
AcDbEntity
  8
1
  6
Continuous
100
AcDbCircle
 10
102.917679
 20
276.5243029999999
 30
0.0
 40
17.7
100
AcDbArc
 50
184.334819
 51
202.704283
  0
ARC
  5
BA28
330
B87B
100
AcDbEntity
  8
1
  6
Continuous
100
AcDbCircle
 10
102.917679
 20
276.5243029999999
 30
0.0
 40
20.0
100
AcDbArc
 50
184.334819
 51
202.704283
  0
LINE
  5
BA29
330
B87B
100
AcDbEntity
  8
1
  6
Continuous
100
AcDbLine
 10
55.68504499999999
 20
303.8758439999999
 30
0.0
 11
61.33755
 21
303.8758439999999
 31
0.0
  0
ARC
  5
BA2A
330
B87B
100
AcDbEntity
  8
1
  6
Continuous
100
AcDbCircle
 10
68.99196100000001
 20
295.9758439999998
 30
0.0
 40
11.0
100
AcDbArc
 50
0.0
 51
180.0
  0
ARC
  5
BA2B
330
B87B
100
AcDbEntity
  8
1
  6
Continuous
100
AcDbCircle
 10
38.74196099999998
 20
301.9758439999999
 30
0.0
 40
7.0
100
AcDbArc
 50
225.584691
 51
314.4153089999999
  0
ARC
  5
BA2C
330
B87B
100
AcDbEntity
  8
1
  6
Continuous
100
AcDbCircle
 10
34.87606599999999
 20
284.475844
 30
0.0
 40
12.5
100
AcDbArc
 50
11.49999999999998
 51
60.53191600000001
  0
ARC
  5
BA2D
330
B87B
100
AcDbEntity
  8
1
  6
Continuous
100
AcDbCircle
 10
33.24328700000001
 20
284.475844
 30
0.0
 40
12.5
100
AcDbArc
 50
11.49999999999998
 51
57.93454800000001
  0
ARC
  5
BA2E
330
B87B
100
AcDbEntity
  8
5
  6
PHANTOM
100
AcDbCircle
 10
36.607332
 20
295.944815
 30
0.0
 40
7.0
100
AcDbArc
 50
236.5846910000001
 51
325.4153089999999
  0
ARC
  5
BA2F
330
B87B
100
AcDbEntity
  8
1
  6
Continuous
100
AcDbCircle
 10
47.428102
 20
303.575844
 30
0.0
 40
5.0
100
AcDbArc
 50
270.0
 51
282.284836
  0
ARC
  5
BA30
330
B87B
100
AcDbEntity
  8
5
  6
PHANTOM
100
AcDbCircle
 10
46.25615899999998
 20
297.820358
 30
0.0
 40
5.0
100
AcDbArc
 50
281.0
 51
296.561635
  0
ARC
  5
BA31
330
B87B
100
AcDbEntity
  8
5
  6
PHANTOM
100
AcDbCircle
 10
44.828589
 20
299.1728129999998
 30
0.0
 40
5.0
100
AcDbArc
 50
281.0
 51
317.111059
  0
ARC
  5
BA32
330
B87B
100
AcDbEntity
  8
1
  6
Continuous
100
AcDbCircle
 10
55.68504499999999
 20
300.8758439999998
 30
0.0
 40
3.0
100
AcDbArc
 50
90.0
 51
184.431018
  0
ARC
  5
BA33
330
B87B
100
AcDbEntity
  8
1
  6
Continuous
100
AcDbCircle
 10
57.99184799999999
 20
300.8758439999998
 30
0.0
 40
3.0
100
AcDbArc
 50
90.0
 51
184.3716019999999
  0
LINE
  5
BA34
330
B87B
100
AcDbEntity
  8
1
  6
Continuous
100
AcDbLine
 10
76.646371
 20
303.8758439999999
 30
0.0
 11
82.29864999999998
 21
303.8758439999999
 31
0.0
  0
ARC
  5
BA35
330
B87B
100
AcDbEntity
  8
1
  6
Continuous
100
AcDbCircle
 10
79.991848
 20
300.8758439999998
 30
0.0
 40
3.0
100
AcDbArc
 50
355.6283979999999
 51
90.0
  0
ARC
  5
BA36
330
B87B
100
AcDbEntity
  8
1
  6
Continuous
100
AcDbCircle
 10
82.29864999999998
 20
300.8758439999998
 30
0.0
 40
3.0
100
AcDbArc
 50
355.568982
 51
90.0
  0
ARC
  5
BA37
330
B87B
100
AcDbEntity
  8
1
  6
Continuous
100
AcDbCircle
 10
119.491848
 20
287.775844
 30
0.0
 40
30.0
100
AcDbArc
 50
180.0
 51
192.0970529999999
  0
LINE
  5
BA38
330
B87B
100
AcDbEntity
  8
1
  6
Continuous
100
AcDbLine
 10
89.95490999999999
 20
282.5251979999998
 30
0.0
 11
90.97196
 21
287.5241589999999
 31
0.0
  0
LINE
  5
BA39
330
B87B
100
AcDbEntity
  8
5
  6
PHANTOM
100
AcDbLine
 10
92.06016299999999
 20
271.6568309999999
 30
0.0
 11
92.23305699999999
 21
291.4685629999999
 31
0.0
  0
LINE
  5
BA3A
330
B87B
100
AcDbEntity
  8
1
  6
Continuous
100
AcDbLine
 10
90.77417399999999
 20
278.5266459999999
 30
0.0
 11
92.491576
 21
286.967944
 31
0.0
  0
LINE
  5
BA3B
330
B87B
100
AcDbEntity
  8
5
  6
PHANTOM
100
AcDbLine
 10
90.53046700000001
 20
279.7198999999998
 30
0.0
 11
90.63027700000001
 21
291.157014
 31
0.0
  0
LINE
  5
BA3C
330
B87B
100
AcDbEntity
  8
5
  6
PHANTOM
100
AcDbLine
 10
103.723049
 20
303.8972059999999
 30
0.0
 11
103.4177539999999
 21
305.4678089999999
 31
0.0
  0
ARC
  5
BA3D
330
B87B
100
AcDbEntity
  8
5
  6
PHANTOM
100
AcDbCircle
 10
103.1298009999999
 20
291.0479319999998
 30
0.0
 40
12.5
100
AcDbArc
 50
130.468084
 51
179.4999999999998
  0
ARC
  5
BA3E
330
B87B
100
AcDbEntity
  8
5
  6
PHANTOM
100
AcDbCircle
 10
104.7325819999998
 20
291.3594799999998
 30
0.0
 40
12.5
100
AcDbArc
 50
133.0654519999999
 51
179.4999999999998
  0
ARC
  5
BA3F
330
B87B
100
AcDbEntity
  8
1
  6
Continuous
100
AcDbCircle
 10
99.24196100000001
 20
301.9758439999999
 30
0.0
 40
7.0
100
AcDbArc
 50
225.584691
 51
314.4153089999999
  0
LINE
  5
BA40
330
B87B
100
AcDbEntity
  8
1
  6
Continuous
100
AcDbLine
 10
106.1419609999999
 20
298.575844
 30
0.0
 11
90.55581899999998
 21
298.575844
 31
0.0
  0
LINE
  5
BA41
330
B87B
100
AcDbEntity
  8
1
  6
Continuous
100
AcDbLine
 10
106.1419609999999
 20
296.975844
 30
0.0
 11
89.49196099999998
 21
296.975844
 31
0.0
  0
ARC
  5
BA42
330
B87B
100
AcDbEntity
  8
1
  6
Continuous
100
AcDbCircle
 10
104.7406349999999
 20
284.475844
 30
0.0
 40
12.5
100
AcDbArc
 50
122.0654519999999
 51
168.5
  0
ARC
  5
BA43
330
B87B
100
AcDbEntity
  8
1
  6
Continuous
100
AcDbCircle
 10
90.55581899999998
 20
303.575844
 30
0.0
 40
5.0
100
AcDbArc
 50
257.715175
 51
270.0
  0
ARC
  5
BA44
330
B87B
100
AcDbEntity
  8
1
  6
Continuous
100
AcDbCircle
 10
103.107856
 20
284.475844
 30
0.0
 40
12.5
100
AcDbArc
 50
119.4680839999999
 51
168.5
  0
LINE
  5
BA45
330
B87B
100
AcDbEntity
  8
1
  6
Continuous
100
AcDbLine
 10
106.1419609999999
 20
296.975844
 30
0.0
 11
106.1419609999999
 21
298.575844
 31
0.0
  0
ARC
  5
BA46
330
B87B
100
AcDbEntity
  8
5
  6
PHANTOM
100
AcDbCircle
 10
95.99577600000001
 20
307.48876
 30
0.0
 40
7.0
100
AcDbArc
 50
236.5846910000001
 51
325.4153089999999
  0
LINE
  5
BA47
330
B87B
100
AcDbEntity
  8
5
  6
PHANTOM
100
AcDbLine
 10
103.4177539999999
 20
305.4678089999999
 30
0.0
 11
89.49196099999998
 21
302.7609089999999
 31
0.0
  0
LINE
  5
BA48
330
B87B
100
AcDbEntity
  8
5
  6
PHANTOM
100
AcDbLine
 10
103.723049
 20
303.8972059999999
 30
0.0
 11
89.49196099999998
 21
301.1309629999999
 31
0.0
  0
LINE
  5
BA49
330
B87B
100
AcDbEntity
  8
1
  6
Continuous
100
AcDbLine
 10
49.841961
 20
317.475844
 30
0.0
 11
88.14196099999998
 21
317.475844
 31
0.0
  0
ARC
  5
BA4A
330
B87B
100
AcDbEntity
  8
1
  6
Continuous
100
AcDbCircle
 10
85.49196100000001
 20
313.6758439999999
 30
0.0
 40
4.0
100
AcDbArc
 50
0.0
 51
71.80512799999998
  0
ARC
  5
BA4B
330
B87B
100
AcDbEntity
  8
1
  6
Continuous
100
AcDbCircle
 10
81.64196099999998
 20
326.9758439999999
 30
0.0
 40
6.5
100
AcDbArc
 50
0.0
 51
90.0
  0
ARC
  5
BA4C
330
B87B
100
AcDbEntity
  8
1
  6
Continuous
100
AcDbCircle
 10
56.341961
 20
326.9758439999999
 30
0.0
 40
6.5
100
AcDbArc
 50
90.0
 51
180.0
  0
ARC
  5
BA4D
330
B87B
100
AcDbEntity
  8
1
  6
Continuous
100
AcDbCircle
 10
52.49196099999998
 20
313.6758439999999
 30
0.0
 40
4.0
100
AcDbArc
 50
108.1948719999999
 51
180.0
  0
LINE
  5
BA4E
330
B87B
100
AcDbEntity
  8
1
  6
Continuous
100
AcDbLine
 10
49.841961
 20
326.9758439999999
 30
0.0
 11
49.841961
 21
317.475844
 31
0.0
  0
LINE
  5
BA4F
330
B87B
100
AcDbEntity
  8
1
  6
Continuous
100
AcDbLine
 10
88.14196099999998
 20
326.9758439999999
 30
0.0
 11
88.14196099999998
 21
317.475844
 31
0.0
  0
LINE
  5
BA50
330
B87B
100
AcDbEntity
  8
1
  6
Continuous
100
AcDbLine
 10
451.8758599999999
 20
241.716129
 30
0.0
 11
451.8758599999999
 21
168.3258439999999
 31
0.0
  0
LINE
  5
BA51
330
B87B
100
AcDbEntity
  8
1
  6
Continuous
100
AcDbLine
 10
473.8758599999998
 20
241.7162649999999
 30
0.0
 11
473.8758599999998
 21
168.3258439999999
 31
0.0
  0
LINE
  5
BA52
330
B87B
100
AcDbEntity
  8
4
  6
CENTER
100
AcDbLine
 10
305.933854
 20
47.95617
 30
0.0
 11
305.933854
 21
107.4164509999999
 31
0.0
  0
ARC
  5
BA53
330
B87B
100
AcDbEntity
  8
1
  6
Continuous
100
AcDbCircle
 10
462.875747
 20
167.975844
 30
0.0
 40
11.0
100
AcDbArc
 50
180.0
 51
0.0
  0
CIRCLE
  5
BA54
330
B87B
100
AcDbEntity
  8
5
  6
PHANTOM
100
AcDbCircle
 10
457.3287919999998
 20
259.5131509999998
 30
0.0
 40
10.0
  0
LINE
  5
BA55
330
B87B
100
AcDbEntity
  8
5
  6
PHANTOM
100
AcDbLine
 10
439.9791599999998
 20
251.991748
 30
0.0
 11
439.6346499999999
 21
291.4685629999999
 31
0.0
  0
LINE
  5
BA56
330
B87B
100
AcDbEntity
  8
1
  6
Continuous
100
AcDbLine
 10
447.2468429999998
 20
248.2821649999999
 30
0.0
 11
439.376132
 21
286.967944
 31
0.0
  0
LINE
  5
BA57
330
B87B
100
AcDbEntity
  8
5
  6
PHANTOM
100
AcDbLine
 10
470.6626749999998
 20
246.027477
 30
0.0
 11
485.7703719999998
 21
282.5006870000001
 31
0.0
  0
LINE
  5
BA58
330
B87B
100
AcDbEntity
  8
1
  6
Continuous
100
AcDbLine
 10
478.5046519999998
 20
248.2821649999999
 30
0.0
 11
486.3753619999998
 21
286.967944
 31
0.0
  0
CIRCLE
  5
BA59
330
B87B
100
AcDbEntity
  8
1
  6
Continuous
100
AcDbCircle
 10
462.8425619999998
 20
258.975844
 30
0.0
 40
10.0
  0
ARC
  5
BA5A
330
B87B
100
AcDbEntity
  8
1
  6
Continuous
100
AcDbCircle
 10
413.77586
 20
241.7865519999998
 30
0.0
 40
72.29999999999998
100
AcDbArc
 50
0.0
 51
19.25117499999998
  0
ARC
  5
BA5B
330
B87B
100
AcDbEntity
  8
1
  6
Continuous
100
AcDbCircle
 10
511.9758599999998
 20
241.7865519999998
 30
0.0
 40
72.29999999999998
100
AcDbArc
 50
160.749167
 51
180.0
  0
ARC
  5
BA5C
330
B87B
100
AcDbEntity
  8
1
  6
Continuous
100
AcDbCircle
 10
239.593535
 20
229.096729
 30
0.0
 40
250.0
100
AcDbArc
 50
2.248248999999999
 51
11.403773
  0
ARC
  5
BA5D
330
B87B
100
AcDbEntity
  8
1
  6
Continuous
100
AcDbCircle
 10
686.158185
 20
229.096729
 30
0.0
 40
250.0
100
AcDbArc
 50
168.596357
 51
177.751751
  0
LINE
  5
BA5E
330
B87B
100
AcDbEntity
  8
4
  6
CENTER
100
AcDbLine
 10
499.6885879999998
 20
231.975844
 30
0.0
 11
425.6741579999999
 21
231.975844
 31
0.0
  0
ARC
  5
BA5F
330
B87B
100
AcDbEntity
  8
5
  6
PHANTOM
100
AcDbCircle
 10
461.4238789999998
 20
249.8543109999999
 30
0.0
 40
10.0
100
AcDbArc
 50
259.0
 51
337.5
  0
LINE
  5
BA60
330
B87B
100
AcDbEntity
  8
1
  6
Continuous
100
AcDbLine
 10
457.0460899999998
 20
240.2758439999999
 30
0.0
 11
468.7054049999998
 21
240.2758439999999
 31
0.0
  0
LINE
  5
BA61
330
B87B
100
AcDbEntity
  8
1
  6
Continuous
100
AcDbLine
 10
443.0758599999998
 20
215.975844
 30
0.0
 11
443.0758599999998
 21
247.9758439999999
 31
0.0
  0
LINE
  5
BA62
330
B87B
100
AcDbEntity
  8
1
  6
Continuous
100
AcDbLine
 10
445.12586
 20
249.6474169999999
 30
0.0
 11
445.12586
 21
214.304271
 31
0.0
  0
LINE
  5
BA63
330
B87B
100
AcDbEntity
  8
1
  6
Continuous
100
AcDbLine
 10
447.1258599999998
 20
248.8768159999999
 30
0.0
 11
447.1258599999998
 21
211.475844
 31
0.0
  0
LINE
  5
BA64
330
B87B
100
AcDbEntity
  8
1
  6
Continuous
100
AcDbLine
 10
445.12586
 20
215.975844
 30
0.0
 11
443.0758599999998
 21
215.975844
 31
0.0
  0
ARC
  5
BA65
330
B87B
100
AcDbEntity
  8
1
  6
Continuous
100
AcDbCircle
 10
476.5296389999998
 20
217.42713
 30
0.0
 40
30.0
100
AcDbArc
 50
191.4420209999999
 51
214.735352
  0
ARC
  5
BA66
330
B87B
100
AcDbEntity
  8
1
  6
Continuous
100
AcDbCircle
 10
448.12586
 20
214.304271
 30
0.0
 40
3.0
100
AcDbArc
 50
180.0
 51
250.5287789999999
  0
LINE
  5
BA67
330
B87B
100
AcDbEntity
  8
5
  6
PHANTOM
100
AcDbLine
 10
448.0706889999998
 20
242.262741
 30
0.0
 11
459.515789
 21
240.038039
 31
0.0
  0
ARC
  5
BA68
330
B87B
100
AcDbEntity
  8
1
  6
Continuous
100
AcDbCircle
 10
457.0460899999998
 20
250.275844
 30
0.0
 40
10.0
100
AcDbArc
 50
191.5
 51
270.0
  0
ARC
  5
BA69
330
B87B
100
AcDbEntity
  8
5
  6
PHANTOM
100
AcDbCircle
 10
449.978779
 20
252.0790129999999
 30
0.0
 40
10.0
100
AcDbArc
 50
180.4999999999998
 51
259.0
  0
ARC
  5
BA6A
330
B87B
100
AcDbEntity
  8
1
  6
Continuous
100
AcDbCircle
 10
511.9758599999998
 20
241.7865519999998
 30
0.0
 40
70.0
100
AcDbArc
 50
164.0777209999999
 51
180.0
  0
LINE
  5
BA6B
330
B87B
100
AcDbEntity
  8
1
  6
Continuous
100
AcDbLine
 10
441.9758599999998
 20
221.725844
 30
0.0
 11
439.6758599999998
 21
221.725844
 31
0.0
  0
LINE
  5
BA6C
330
B87B
100
AcDbEntity
  8
1
  6
Continuous
100
AcDbLine
 10
436.3503999999998
 20
238.9040479999999
 30
0.0
 11
432.911758
 21
238.9040479999999
 31
0.0
  0
LINE
  5
BA6D
330
B87B
100
AcDbEntity
  8
1
  6
Continuous
100
AcDbLine
 10
432.911758
 20
238.9040479999999
 30
0.0
 11
432.3758599999998
 21
237.9758439999999
 31
0.0
  0
ARC
  5
BA6E
330
B87B
100
AcDbEntity
  8
1
  6
Continuous
100
AcDbCircle
 10
425.9117579999998
 20
231.975844
 30
0.0
 40
11.464102
100
AcDbArc
 50
342.4120459999999
 51
349.3229129999999
  0
LINE
  5
BA6F
330
B87B
100
AcDbEntity
  8
1
  6
Continuous
100
AcDbLine
 10
437.37586
 20
228.5301109999998
 30
0.0
 11
437.37586
 21
225.975844
 31
0.0
  0
ARC
  5
BA70
330
B87B
100
AcDbEntity
  8
1
  6
Continuous
100
AcDbCircle
 10
443.839961
 20
231.975844
 30
0.0
 40
11.464102
100
AcDbArc
 50
162.412046
 51
197.5879539999999
  0
LINE
  5
BA71
330
B87B
100
AcDbEntity
  8
1
  6
Continuous
100
AcDbLine
 10
430.8758599999999
 20
234.975844
 30
0.0
 11
430.8758599999999
 21
228.9758439999999
 31
0.0
  0
LINE
  5
BA72
330
B87B
100
AcDbEntity
  8
1
  6
Continuous
100
AcDbLine
 10
437.37586
 20
228.5301109999998
 30
0.0
 11
437.37586
 21
224.475844
 31
0.0
  0
LINE
  5
BA73
330
B87B
100
AcDbEntity
  8
1
  6
Continuous
100
AcDbLine
 10
436.8399609999998
 20
228.511743
 30
0.0
 11
432.911758
 21
228.511743
 31
0.0
  0
LINE
  5
BA74
330
B87B
100
AcDbEntity
  8
1
  6
Continuous
100
AcDbLine
 10
436.8399609999998
 20
225.047641
 30
0.0
 11
432.911758
 21
225.047641
 31
0.0
  0
ARC
  5
BA75
330
B87B
100
AcDbEntity
  8
1
  6
Continuous
100
AcDbCircle
 10
434.3088719999998
 20
226.7796919999999
 30
0.0
 40
3.066986999999998
100
AcDbArc
 50
325.6157529999999
 51
34.38424699999998
  0
ARC
  5
BA76
330
B87B
100
AcDbEntity
  8
1
  6
Continuous
100
AcDbCircle
 10
451.6758599999998
 20
231.975844
 30
0.0
 40
15.5
100
AcDbArc
 50
208.9385279999999
 51
219.2680259999999
  0
LINE
  5
BA77
330
B87B
100
AcDbEntity
  8
1
  6
Continuous
100
AcDbLine
 10
438.1111999999998
 20
224.475844
 30
0.0
 11
437.37586
 21
224.475844
 31
0.0
  0
LINE
  5
BA78
330
B87B
100
AcDbEntity
  8
2
  6
Continuous
100
AcDbLine
 10
432.3758599999998
 20
228.6523439999999
 30
0.0
 11
431.19936
 21
228.6523439999999
 31
0.0
  0
LINE
  5
BA79
330
B87B
100
AcDbEntity
  8
1
  6
Continuous
100
AcDbLine
 10
432.3758599999998
 20
227.975844
 30
0.0
 11
431.8758599999998
 21
227.975844
 31
0.0
  0
LINE
  5
BA7A
330
B87B
100
AcDbEntity
  8
1
  6
Continuous
100
AcDbLine
 10
431.8758599999998
 20
227.975844
 30
0.0
 11
430.8758599999999
 21
228.9758439999999
 31
0.0
  0
LINE
  5
BA7B
330
B87B
100
AcDbEntity
  8
1
  6
Continuous
100
AcDbLine
 10
432.911758
 20
225.047641
 30
0.0
 11
432.3758599999998
 21
225.975844
 31
0.0
  0
ARC
  5
BA7C
330
B87B
100
AcDbEntity
  8
1
  6
Continuous
100
AcDbCircle
 10
435.442847
 20
226.7796919999999
 30
0.0
 40
3.066986999999998
100
AcDbArc
 50
145.615753
 51
205.615753
  0
LINE
  5
BA7D
330
B87B
100
AcDbEntity
  8
1
  6
Continuous
100
AcDbLine
 10
436.558021
 20
235.4399459999999
 30
0.0
 11
432.911758
 21
235.4399459999999
 31
0.0
  0
LINE
  5
BA7E
330
B87B
100
AcDbEntity
  8
1
  6
Continuous
100
AcDbLine
 10
432.3758599999998
 20
235.9758439999999
 30
0.0
 11
431.8758599999998
 21
235.9758439999999
 31
0.0
  0
LINE
  5
BA7F
330
B87B
100
AcDbEntity
  8
1
  6
Continuous
100
AcDbLine
 10
431.8758599999998
 20
235.9758439999999
 30
0.0
 11
430.8758599999999
 21
234.975844
 31
0.0
  0
LINE
  5
BA80
330
B87B
100
AcDbEntity
  8
2
  6
Continuous
100
AcDbLine
 10
432.3758599999998
 20
235.299344
 30
0.0
 11
431.19936
 21
235.299344
 31
0.0
  0
LINE
  5
BA81
330
B87B
100
AcDbEntity
  8
1
  6
Continuous
100
AcDbLine
 10
431.8758599999998
 20
235.9758439999999
 30
0.0
 11
431.8758599999998
 21
227.975844
 31
0.0
  0
LINE
  5
BA82
330
B87B
100
AcDbEntity
  8
1
  6
Continuous
100
AcDbLine
 10
432.3758599999998
 20
237.9758439999999
 30
0.0
 11
432.3758599999998
 21
225.975844
 31
0.0
  0
LINE
  5
BA83
330
B87B
100
AcDbEntity
  8
1
  6
Continuous
100
AcDbLine
 10
439.6758599999998
 20
241.7865519999998
 30
0.0
 11
439.6758599999998
 21
221.725844
 31
0.0
  0
ARC
  5
BA84
330
B87B
100
AcDbEntity
  8
1
  6
Continuous
100
AcDbCircle
 10
435.442847
 20
237.171997
 30
0.0
 40
3.066986999999998
100
AcDbArc
 50
154.3842469999999
 51
214.384247
  0
ARC
  5
BA85
330
B87B
100
AcDbEntity
  8
1
  6
Continuous
100
AcDbCircle
 10
526.275113
 20
242.5554219999999
 30
0.0
 40
89.99881399999997
100
AcDbArc
 50
182.325205
 51
191.5888239999999
  0
ARC
  5
BA86
330
B87B
100
AcDbEntity
  8
1
  6
Continuous
100
AcDbCircle
 10
438.9758599999998
 20
238.330093
 30
0.0
 40
4.0
100
AcDbArc
 50
0.0
 51
41.40962199999999
  0
LINE
  5
BA87
330
B87B
100
AcDbEntity
  8
1
  6
Continuous
100
AcDbLine
 10
443.0758599999998
 20
237.9508439999999
 30
0.0
 11
442.9758599999998
 21
237.9508439999999
 31
0.0
  0
LINE
  5
BA88
330
B87B
100
AcDbEntity
  8
1
  6
Continuous
100
AcDbLine
 10
443.0758599999998
 20
226.000844
 30
0.0
 11
442.9758599999998
 21
226.000844
 31
0.0
  0
ARC
  5
BA89
330
B87B
100
AcDbEntity
  8
1
  6
Continuous
100
AcDbCircle
 10
438.9758599999998
 20
225.621595
 30
0.0
 40
4.0
100
AcDbArc
 50
318.5903779999998
 51
0.0
  0
LINE
  5
BA8A
330
B87B
100
AcDbEntity
  8
1
  6
Continuous
100
AcDbLine
 10
441.9758599999998
 20
241.7865519999998
 30
0.0
 11
441.9758599999998
 21
221.725844
 31
0.0
  0
LINE
  5
BA8B
330
B87B
100
AcDbEntity
  8
1
  6
Continuous
100
AcDbLine
 10
442.9758599999998
 20
238.330093
 30
0.0
 11
442.9758599999998
 21
225.621595
 31
0.0
  0
LINE
  5
BA8C
330
B87B
100
AcDbEntity
  8
1
  6
Continuous
100
AcDbLine
 10
445.12586
 20
247.9758439999999
 30
0.0
 11
443.0758599999998
 21
247.9758439999999
 31
0.0
  0
ARC
  5
BA8D
330
B87B
100
AcDbEntity
  8
1
  6
Continuous
100
AcDbCircle
 10
448.12586
 20
249.6474169999999
 30
0.0
 40
3.0
100
AcDbArc
 50
123.700735
 51
180.0
  0
LINE
  5
BA8E
330
B87B
100
AcDbEntity
  8
1
  6
Continuous
100
AcDbLine
 10
482.6758599999998
 20
215.975844
 30
0.0
 11
482.6758599999998
 21
247.9758439999999
 31
0.0
  0
LINE
  5
BA8F
330
B87B
100
AcDbEntity
  8
1
  6
Continuous
100
AcDbLine
 10
480.6258599999998
 20
249.6474169999999
 30
0.0
 11
480.6258599999998
 21
214.304271
 31
0.0
  0
LINE
  5
BA90
330
B87B
100
AcDbEntity
  8
1
  6
Continuous
100
AcDbLine
 10
478.62586
 20
248.877922
 30
0.0
 11
478.62586
 21
211.475844
 31
0.0
  0
LINE
  5
BA91
330
B87B
100
AcDbEntity
  8
1
  6
Continuous
100
AcDbLine
 10
482.6758599999998
 20
215.975844
 30
0.0
 11
480.6258599999998
 21
215.975844
 31
0.0
  0
ARC
  5
BA92
330
B87B
100
AcDbEntity
  8
1
  6
Continuous
100
AcDbCircle
 10
477.62586
 20
214.304271
 30
0.0
 40
3.0
100
AcDbArc
 50
289.471221
 51
0.0
  0
ARC
  5
BA93
330
B87B
100
AcDbEntity
  8
1
  6
Continuous
100
AcDbCircle
 10
449.222082
 20
217.42713
 30
0.0
 40
30.0
100
AcDbArc
 50
325.2646449999998
 51
348.557979
  0
ARC
  5
BA94
330
B87B
100
AcDbEntity
  8
1
  6
Continuous
100
AcDbCircle
 10
468.7054049999998
 20
250.275844
 30
0.0
 40
10.0
100
AcDbArc
 50
270.0
 51
348.4999999999998
  0
ARC
  5
BA95
330
B87B
100
AcDbEntity
  8
1
  6
Continuous
100
AcDbCircle
 10
413.77586
 20
241.7865519999998
 30
0.0
 40
70.0
100
AcDbArc
 50
0.0
 51
15.922672
  0
LINE
  5
BA96
330
B87B
100
AcDbEntity
  8
1
  6
Continuous
100
AcDbLine
 10
493.339961
 20
238.9040479999999
 30
0.0
 11
489.401094
 21
238.9040479999999
 31
0.0
  0
LINE
  5
BA97
330
B87B
100
AcDbEntity
  8
1
  6
Continuous
100
AcDbLine
 10
493.339961
 20
238.9040479999999
 30
0.0
 11
493.8758599999998
 21
237.9758439999999
 31
0.0
  0
ARC
  5
BA98
330
B87B
100
AcDbEntity
  8
1
  6
Continuous
100
AcDbCircle
 10
486.77586
 20
238.330093
 30
0.0
 40
4.0
100
AcDbArc
 50
138.5903779999999
 51
180.0
  0
LINE
  5
BA99
330
B87B
100
AcDbEntity
  8
1
  6
Continuous
100
AcDbLine
 10
482.77586
 20
237.9508439999999
 30
0.0
 11
482.6758599999998
 21
237.9508439999999
 31
0.0
  0
ARC
  5
BA9A
330
B87B
100
AcDbEntity
  8
1
  6
Continuous
100
AcDbCircle
 10
482.411758
 20
231.975844
 30
0.0
 40
11.464102
100
AcDbArc
 50
342.4120459999999
 51
17.587954
  0
LINE
  5
BA9B
330
B87B
100
AcDbEntity
  8
1
  6
Continuous
100
AcDbLine
 10
488.37586
 20
228.531544
 30
0.0
 11
488.37586
 21
225.047641
 31
0.0
  0
LINE
  5
BA9C
330
B87B
100
AcDbEntity
  8
1
  6
Continuous
100
AcDbLine
 10
488.37586
 20
228.531544
 30
0.0
 11
488.37586
 21
224.475844
 31
0.0
  0
ARC
  5
BA9D
330
B87B
100
AcDbEntity
  8
1
  6
Continuous
100
AcDbCircle
 10
490.8088719999998
 20
226.7796919999999
 30
0.0
 40
3.066986999999998
100
AcDbArc
 50
334.384247
 51
34.38424699999998
  0
LINE
  5
BA9E
330
B87B
100
AcDbEntity
  8
1
  6
Continuous
100
AcDbLine
 10
493.339961
 20
225.047641
 30
0.0
 11
488.37586
 21
225.047641
 31
0.0
  0
LINE
  5
BA9F
330
B87B
100
AcDbEntity
  8
1
  6
Continuous
100
AcDbLine
 10
493.339961
 20
225.047641
 30
0.0
 11
493.8758599999998
 21
225.975844
 31
0.0
  0
LINE
  5
BAA0
330
B87B
100
AcDbEntity
  8
1
  6
Continuous
100
AcDbLine
 10
493.339961
 20
228.511743
 30
0.0
 11
488.37586
 21
228.511743
 31
0.0
  0
LINE
  5
BAA1
330
B87B
100
AcDbEntity
  8
1
  6
Continuous
100
AcDbLine
 10
488.37586
 20
224.475844
 30
0.0
 11
487.6405199999998
 21
224.475844
 31
0.0
  0
LINE
  5
BAA2
330
B87B
100
AcDbEntity
  8
1
  6
Continuous
100
AcDbLine
 10
482.77586
 20
226.000844
 30
0.0
 11
482.6758599999998
 21
226.000844
 31
0.0
  0
ARC
  5
BAA3
330
B87B
100
AcDbEntity
  8
1
  6
Continuous
100
AcDbCircle
 10
486.77586
 20
225.621595
 30
0.0
 40
4.0
100
AcDbArc
 50
180.0
 51
221.409622
  0
ARC
  5
BAA4
330
B87B
100
AcDbEntity
  8
1
  6
Continuous
100
AcDbCircle
 10
474.0758599999998
 20
231.975844
 30
0.0
 40
15.5
100
AcDbArc
 50
320.7319739999999
 51
331.0614719999999
  0
LINE
  5
BAA5
330
B87B
100
AcDbEntity
  8
1
  6
Continuous
100
AcDbLine
 10
486.0758599999998
 20
221.725844
 30
0.0
 11
483.7758599999999
 21
221.725844
 31
0.0
  0
LINE
  5
BAA6
330
B87B
100
AcDbEntity
  8
1
  6
Continuous
100
AcDbLine
 10
493.339961
 20
235.4399459999999
 30
0.0
 11
489.193472
 21
235.4399459999999
 31
0.0
  0
LINE
  5
BAA7
330
B87B
100
AcDbEntity
  8
1
  6
Continuous
100
AcDbLine
 10
493.8758599999998
 20
237.9758439999999
 30
0.0
 11
493.8758599999998
 21
225.975844
 31
0.0
  0
LINE
  5
BAA8
330
B87B
100
AcDbEntity
  8
1
  6
Continuous
100
AcDbLine
 10
483.7758599999999
 20
241.7865519999998
 30
0.0
 11
483.7758599999999
 21
221.725844
 31
0.0
  0
LINE
  5
BAA9
330
B87B
100
AcDbEntity
  8
1
  6
Continuous
100
AcDbLine
 10
486.0758599999998
 20
241.7865519999998
 30
0.0
 11
486.0758599999998
 21
221.725844
 31
0.0
  0
LINE
  5
BAAA
330
B87B
100
AcDbEntity
  8
1
  6
Continuous
100
AcDbLine
 10
482.77586
 20
238.330093
 30
0.0
 11
482.77586
 21
225.621595
 31
0.0
  0
ARC
  5
BAAB
330
B87B
100
AcDbEntity
  8
1
  6
Continuous
100
AcDbCircle
 10
490.8088719999998
 20
237.171997
 30
0.0
 40
3.066986999999998
100
AcDbArc
 50
325.6157529999999
 51
25.615753
  0
ARC
  5
BAAC
330
B87B
100
AcDbEntity
  8
1
  6
Continuous
100
AcDbCircle
 10
399.476381
 20
242.5554219999999
 30
0.0
 40
89.99881399999997
100
AcDbArc
 50
348.4111759999998
 51
357.674795
  0
LINE
  5
BAAD
330
B87B
100
AcDbEntity
  8
1
  6
Continuous
100
AcDbLine
 10
482.6758599999998
 20
247.9758439999999
 30
0.0
 11
480.6258599999998
 21
247.9758439999999
 31
0.0
  0
ARC
  5
BAAE
330
B87B
100
AcDbEntity
  8
1
  6
Continuous
100
AcDbCircle
 10
477.62586
 20
249.6474169999999
 30
0.0
 40
3.0
100
AcDbArc
 50
0.0
 51
56.30381499999999
  0
LINE
  5
BAAF
330
B87B
100
AcDbEntity
  8
1
  6
Continuous
100
AcDbLine
 10
482.0257469999998
 20
317.475844
 30
0.0
 11
443.7257469999998
 21
317.475844
 31
0.0
  0
ARC
  5
BAB0
330
B87B
100
AcDbEntity
  8
1
  6
Continuous
100
AcDbCircle
 10
463.8509679999998
 20
290.494408
 30
0.0
 40
16.69999999999999
100
AcDbArc
 50
2.897406
 51
95.06791699999999
  0
ARC
  5
BAB1
330
B87B
100
AcDbEntity
  8
5
  6
PHANTOM
100
AcDbCircle
 10
464.344976
 20
295.434374
 30
0.0
 40
18.0
100
AcDbArc
 50
9.354405999999999
 51
148.6455939999999
  0
ARC
  5
BAB2
330
B87B
100
AcDbEntity
  8
5
  6
PHANTOM
100
AcDbCircle
 10
464.332696
 20
290.260217
 30
0.0
 40
16.69999999999999
100
AcDbArc
 50
351.897406
 51
84.06791699999997
  0
LINE
  5
BAB3
330
B87B
100
AcDbEntity
  8
4
  6
CENTER
100
AcDbLine
 10
474.875747
 20
287.875844
 30
0.0
 11
450.8757469999998
 21
287.875844
 31
0.0
  0
LINE
  5
BAB4
330
B87B
100
AcDbEntity
  8
1
  6
Continuous
100
AcDbLine
 10
462.875747
 20
295.1758449999999
 30
0.0
 11
469.3257469999998
 21
291.6258439999999
 31
0.0
  0
ARC
  5
BAB5
330
B87B
100
AcDbEntity
  8
1
  6
Continuous
100
AcDbCircle
 10
462.875747
 20
287.875844
 30
0.0
 40
7.0
100
AcDbArc
 50
37.182443
 51
85.16187499999999
  0
LINE
  5
BAB6
330
B87B
100
AcDbEntity
  8
1
  6
Continuous
100
AcDbLine
 10
462.875747
 20
280.575845
 30
0.0
 11
469.3257469999998
 21
284.1258439999998
 31
0.0
  0
CIRCLE
  5
BAB7
330
B87B
100
AcDbEntity
  8
1
  6
Continuous
100
AcDbCircle
 10
462.875747
 20
287.875844
 30
0.0
 40
5.7
  0
ARC
  5
BAB8
330
B87B
100
AcDbEntity
  8
1
  6
Continuous
100
AcDbCircle
 10
462.875747
 20
295.575844
 30
0.0
 40
18.0
100
AcDbArc
 50
20.354406
 51
159.645594
  0
ARC
  5
BAB9
330
B87B
100
AcDbEntity
  8
1
  6
Continuous
100
AcDbCircle
 10
463.8509679999998
 20
290.494408
 30
0.0
 40
20.0
100
AcDbArc
 50
62.532914
 51
94.230037
  0
ARC
  5
BABA
330
B87B
100
AcDbEntity
  8
5
  6
PHANTOM
100
AcDbCircle
 10
464.332696
 20
290.260217
 30
0.0
 40
20.0
100
AcDbArc
 50
51.53291399999999
 51
83.23003699999999
  0
LINE
  5
BABB
330
B87B
100
AcDbEntity
  8
1
  6
Continuous
100
AcDbLine
 10
442.37586
 20
313.6758439999999
 30
0.0
 11
442.37586
 21
298.690359
 31
0.0
  0
LINE
  5
BABC
330
B87B
100
AcDbEntity
  8
1
  6
Continuous
100
AcDbLine
 10
456.425747
 20
284.1258439999998
 30
0.0
 11
456.425747
 21
291.6258439999999
 31
0.0
  0
ARC
  5
BABD
330
B87B
100
AcDbEntity
  8
1
  6
Continuous
100
AcDbCircle
 10
462.875747
 20
287.875844
 30
0.0
 40
7.0
100
AcDbArc
 50
274.8381249999998
 51
322.8175569999998
  0
LINE
  5
BABE
330
B87B
100
AcDbEntity
  8
1
  6
Continuous
100
AcDbLine
 10
462.875747
 20
280.575845
 30
0.0
 11
456.425747
 21
284.1258439999998
 31
0.0
  0
ARC
  5
BABF
330
B87B
100
AcDbEntity
  8
1
  6
Continuous
100
AcDbCircle
 10
462.875747
 20
287.875844
 30
0.0
 40
7.0
100
AcDbArc
 50
217.182443
 51
265.161875
  0
ARC
  5
BAC0
330
B87B
100
AcDbEntity
  8
1
  6
Continuous
100
AcDbCircle
 10
427.127073
 20
284.475844
 30
0.0
 40
12.5
100
AcDbArc
 50
11.49999999999998
 51
90.0
  0
LINE
  5
BAC1
330
B87B
100
AcDbEntity
  8
1
  6
Continuous
100
AcDbLine
 10
425.7257469999998
 20
298.575844
 30
0.0
 11
441.3118889999998
 21
298.575844
 31
0.0
  0
ARC
  5
BAC2
330
B87B
100
AcDbEntity
  8
5
  6
PHANTOM
100
AcDbCircle
 10
427.1351259999998
 20
291.3594799999998
 30
0.0
 40
12.5
100
AcDbArc
 50
0.5
 51
79.0
  0
LINE
  5
BAC3
330
B87B
100
AcDbEntity
  8
5
  6
PHANTOM
100
AcDbLine
 10
428.4499529999997
 20
305.4678089999999
 30
0.0
 11
443.749734
 21
302.4938329999999
 31
0.0
  0
ARC
  5
BAC4
330
B87B
100
AcDbEntity
  8
5
  6
PHANTOM
100
AcDbCircle
 10
429.8650119999998
 20
302.1365999999998
 30
0.0
 40
3.0
100
AcDbArc
 50
22.981384
 51
79.0
  0
LINE
  5
BAC5
330
B87B
100
AcDbEntity
  8
5
  6
PHANTOM
100
AcDbLine
 10
428.1446589999998
 20
303.8972059999999
 30
0.0
 11
428.4499529999997
 21
305.4678089999999
 31
0.0
  0
LINE
  5
BAC6
330
B87B
100
AcDbEntity
  8
5
  6
PHANTOM
100
AcDbLine
 10
429.520238
 20
303.62982
 30
0.0
 11
428.1446589999998
 21
303.8972059999999
 31
0.0
  0
ARC
  5
BAC7
330
B87B
100
AcDbEntity
  8
1
  6
Continuous
100
AcDbCircle
 10
432.7257469999998
 20
298.929385
 30
0.0
 40
3.0
100
AcDbArc
 50
213.9813839999999
 51
248.8257959999998
  0
LINE
  5
BAC8
330
B87B
100
AcDbEntity
  8
1
  6
Continuous
100
AcDbLine
 10
425.7257469999998
 20
296.975844
 30
0.0
 11
425.7257469999998
 21
298.575844
 31
0.0
  0
LINE
  5
BAC9
330
B87B
100
AcDbEntity
  8
1
  6
Continuous
100
AcDbLine
 10
427.127073
 20
296.975844
 30
0.0
 11
425.7257469999998
 21
296.975844
 31
0.0
  0
ARC
  5
BACA
330
B87B
100
AcDbEntity
  8
1
  6
Continuous
100
AcDbCircle
 10
427.7504309999998
 20
295.575844
 30
0.0
 40
3.0
100
AcDbArc
 50
33.98138400000001
 51
90.0
  0
ARC
  5
BACB
330
B87B
100
AcDbEntity
  8
1
  6
Continuous
100
AcDbCircle
 10
432.6257469999998
 20
301.9758439999999
 30
0.0
 40
7.0
100
AcDbArc
 50
225.584691
 51
279.3513889999999
  0
ARC
  5
BACC
330
B87B
100
AcDbEntity
  8
5
  6
PHANTOM
100
AcDbCircle
 10
435.8719309999998
 20
307.48876
 30
0.0
 40
7.0
100
AcDbArc
 50
214.5846909999999
 51
268.3513889999999
  0
ARC
  5
BACD
330
B87B
100
AcDbEntity
  8
5
  6
PHANTOM
100
AcDbCircle
 10
435.3888019999998
 20
304.479192
 30
0.0
 40
3.0
100
AcDbArc
 50
202.981384
 51
237.825796
  0
ARC
  5
BACE
330
B87B
100
AcDbEntity
  8
1
  6
Continuous
100
AcDbCircle
 10
441.3118889999998
 20
303.575844
 30
0.0
 40
5.0
100
AcDbArc
 50
270.0
 51
339.645594
  0
ARC
  5
BACF
330
B87B
100
AcDbEntity
  8
1
  6
Continuous
100
AcDbCircle
 10
462.875747
 20
287.875844
 30
0.0
 40
7.0
100
AcDbArc
 50
157.1358309999999
 51
202.8641689999998
  0
LINE
  5
BAD0
330
B87B
100
AcDbEntity
  8
1
  6
Continuous
100
AcDbLine
 10
462.875747
 20
295.1758449999999
 30
0.0
 11
456.425747
 21
291.6258439999999
 31
0.0
  0
ARC
  5
BAD1
330
B87B
100
AcDbEntity
  8
1
  6
Continuous
100
AcDbCircle
 10
462.875747
 20
287.875844
 30
0.0
 40
7.0
100
AcDbArc
 50
94.838125
 51
142.817557
  0
ARC
  5
BAD2
330
B87B
100
AcDbEntity
  8
5
  6
PHANTOM
100
AcDbCircle
 10
444.703779
 20
307.401969
 30
0.0
 40
5.0
100
AcDbArc
 50
259.0
 51
328.645594
  0
ARC
  5
BAD3
330
B87B
100
AcDbEntity
  8
1
  6
Continuous
100
AcDbCircle
 10
450.2257469999998
 20
326.9758439999999
 30
0.0
 40
6.5
100
AcDbArc
 50
90.0
 51
180.0
  0
ARC
  5
BAD4
330
B87B
100
AcDbEntity
  8
1
  6
Continuous
100
AcDbCircle
 10
446.375747
 20
313.6758439999999
 30
0.0
 40
4.0
100
AcDbArc
 50
108.1948719999999
 51
180.0
  0
LINE
  5
BAD5
330
B87B
100
AcDbEntity
  8
1
  6
Continuous
100
AcDbLine
 10
443.7257469999998
 20
326.9758439999999
 30
0.0
 11
443.7257469999998
 21
317.475844
 31
0.0
  0
LINE
  5
BAD6
330
B87B
100
AcDbEntity
  8
1
  6
Continuous
100
AcDbLine
 10
473.0757469999998
 20
304.4153789999999
 30
0.0
 11
473.0757469999998
 21
308.239927
 31
0.0
  0
LINE
  5
BAD7
330
B87B
100
AcDbEntity
  8
1
  6
Continuous
100
AcDbLine
 10
483.37586
 20
313.6758439999999
 30
0.0
 11
483.37586
 21
298.69031
 31
0.0
  0
LINE
  5
BAD8
330
B87B
100
AcDbEntity
  8
1
  6
Continuous
100
AcDbLine
 10
469.3257469999998
 20
284.1258439999998
 30
0.0
 11
469.3257469999998
 21
291.6258439999999
 31
0.0
  0
ARC
  5
BAD9
330
B87B
100
AcDbEntity
  8
1
  6
Continuous
100
AcDbCircle
 10
462.875747
 20
287.875844
 30
0.0
 40
7.0
100
AcDbArc
 50
337.135831
 51
22.864169
  0
ARC
  5
BADA
330
B87B
100
AcDbEntity
  8
5
  6
PHANTOM
100
AcDbCircle
 10
497.3188659999998
 20
277.717143
 30
0.0
 40
12.5
100
AcDbArc
 50
100.174204
 51
157.5
  0
ARC
  5
BADB
330
B87B
100
AcDbEntity
  8
1
  6
Continuous
100
AcDbCircle
 10
498.0010619999998
 20
295.575844
 30
0.0
 40
3.0
100
AcDbArc
 50
90.0
 51
146.0186159999998
  0
ARC
  5
BADC
330
B87B
100
AcDbEntity
  8
1
  6
Continuous
100
AcDbCircle
 10
493.0257469999999
 20
298.929385
 30
0.0
 40
3.0
100
AcDbArc
 50
291.1742039999999
 51
326.0186159999999
  0
ARC
  5
BADD
330
B87B
100
AcDbEntity
  8
5
  6
PHANTOM
100
AcDbCircle
 10
494.580921
 20
292.973409
 30
0.0
 40
3.0
100
AcDbArc
 50
280.1742039999999
 51
315.018616
  0
ARC
  5
BADE
330
B87B
100
AcDbEntity
  8
1
  6
Continuous
100
AcDbCircle
 10
498.6244209999998
 20
284.475844
 30
0.0
 40
12.5
100
AcDbArc
 50
92.746691
 51
168.5
  0
LINE
  5
BADF
330
B87B
100
AcDbEntity
  8
1
  6
Continuous
100
AcDbLine
 10
484.439606
 20
298.575844
 30
0.0
 11
500.025747
 21
298.575844
 31
0.0
  0
LINE
  5
BAE0
330
B87B
100
AcDbEntity
  8
5
  6
PHANTOM
100
AcDbLine
 10
486.085073
 20
294.2646769999999
 30
0.0
 11
501.384853
 21
291.2907009999999
 31
0.0
  0
ARC
  5
BAE1
330
B87B
100
AcDbEntity
  8
1
  6
Continuous
100
AcDbCircle
 10
493.125747
 20
301.9758439999999
 30
0.0
 40
7.0
100
AcDbArc
 50
260.6486109999999
 51
314.237863
  0
ARC
  5
BAE2
330
B87B
100
AcDbEntity
  8
5
  6
PHANTOM
100
AcDbCircle
 10
495.2603759999998
 20
295.944815
 30
0.0
 40
7.0
100
AcDbArc
 50
249.6486109999999
 51
303.4153089999999
  0
ARC
  5
BAE3
330
B87B
100
AcDbEntity
  8
1
  6
Continuous
100
AcDbCircle
 10
484.439606
 20
303.575844
 30
0.0
 40
5.0
100
AcDbArc
 50
200.354406
 51
270.0
  0
LINE
  5
BAE4
330
B87B
100
AcDbEntity
  8
1
  6
Continuous
100
AcDbLine
 10
479.887941
 20
295.153321
 30
0.0
 11
482.4919959999999
 21
295.153321
 31
0.0
  0
LINE
  5
BAE5
330
B87B
100
AcDbEntity
  8
1
  6
Continuous
100
AcDbLine
 10
482.4919959999999
 20
295.153321
 30
0.0
 11
480.5296189999999
 21
291.338555
 31
0.0
  0
ARC
  5
BAE6
330
B87B
100
AcDbEntity
  8
5
  6
PHANTOM
100
AcDbCircle
 10
487.0391179999998
 20
299.1728129999998
 30
0.0
 40
5.0
100
AcDbArc
 50
189.354406
 51
259.0
  0
LINE
  5
BAE7
330
B87B
100
AcDbEntity
  8
5
  6
PHANTOM
100
AcDbLine
 10
483.5201979999998
 20
291.276657
 30
0.0
 11
480.8659839999998
 21
287.9064179999998
 31
0.0
  0
LINE
  5
BAE8
330
B87B
100
AcDbEntity
  8
5
  6
PHANTOM
100
AcDbLine
 10
480.9639869999998
 20
291.7735339999999
 30
0.0
 11
483.5201979999998
 21
291.276657
 31
0.0
  0
LINE
  5
BAE9
330
B87B
100
AcDbEntity
  8
5
  6
PHANTOM
100
AcDbLine
 10
476.0442359999998
 20
302.16525
 30
0.0
 11
476.773994
 21
305.91953
 31
0.0
  0
LINE
  5
BAEA
330
B87B
100
AcDbEntity
  8
1
  6
Continuous
100
AcDbLine
 10
500.025747
 20
298.575844
 30
0.0
 11
500.025747
 21
296.975844
 31
0.0
  0
LINE
  5
BAEB
330
B87B
100
AcDbEntity
  8
5
  6
PHANTOM
100
AcDbLine
 10
501.384853
 20
291.2907009999999
 30
0.0
 11
501.0795579999999
 21
289.720097
 31
0.0
  0
LINE
  5
BAEC
330
B87B
100
AcDbEntity
  8
5
  6
PHANTOM
100
AcDbLine
 10
496.443107
 20
290.6213319999998
 30
0.0
 11
501.0795579999999
 21
289.720097
 31
0.0
  0
ARC
  5
BAED
330
B87B
100
AcDbEntity
  8
5
  6
PHANTOM
100
AcDbCircle
 10
498.8249399999999
 20
288.7321469999998
 30
0.0
 40
3.0
100
AcDbArc
 50
79.0
 51
135.0186159999998
  0
LINE
  5
BAEE
330
B87B
100
AcDbEntity
  8
1
  6
Continuous
100
AcDbLine
 10
500.025747
 20
296.975844
 30
0.0
 11
498.025415
 21
296.9614839999999
 31
0.0
  0
ARC
  5
BAEF
330
B87B
100
AcDbEntity
  8
1
  6
Continuous
100
AcDbCircle
 10
475.525747
 20
326.9758439999999
 30
0.0
 40
6.5
100
AcDbArc
 50
0.0
 51
90.0
  0
ARC
  5
BAF0
330
B87B
100
AcDbEntity
  8
1
  6
Continuous
100
AcDbCircle
 10
479.375747
 20
313.6758439999999
 30
0.0
 40
4.0
100
AcDbArc
 50
0.0
 51
71.80512799999998
  0
LINE
  5
BAF1
330
B87B
100
AcDbEntity
  8
1
  6
Continuous
100
AcDbLine
 10
482.0257469999998
 20
326.9758439999999
 30
0.0
 11
482.0257469999998
 21
317.475844
 31
0.0
  0
LINE
  5
BAF2
330
B87B
100
AcDbEntity
  8
1
  6
Continuous
100
AcDbLine
 10
342.1334779999999
 20
490.0267949999998
 30
0.0
 11
342.1334779999999
 21
483.576795
 31
0.0
  0
LINE
  5
BAF3
330
B87B
100
AcDbEntity
  8
1
  6
Continuous
100
AcDbLine
 10
335.4334779999998
 20
493.801795
 30
0.0
 11
335.4334779999998
 21
479.801795
 31
0.0
  0
ARC
  5
BAF4
330
B87B
100
AcDbEntity
  8
1
  6
Continuous
100
AcDbCircle
 10
342.1334779999999
 20
486.801795
 30
0.0
 40
6.0
100
AcDbArc
 50
267.3166399999999
 51
92.68335999999996
  0
LINE
  5
BAF5
330
B87B
100
AcDbEntity
  8
1
  6
Continuous
100
AcDbLine
 10
327.0834779999999
 20
499.001795
 30
0.0
 11
327.0834779999999
 21
477.319049
 31
0.0
  0
LINE
  5
BAF6
330
B87B
100
AcDbEntity
  8
1
  6
Continuous
100
AcDbLine
 10
333.4334779999999
 20
508.501795
 30
0.0
 11
333.4334779999999
 21
465.1017949999999
 31
0.0
  0
ARC
  5
BAF7
330
B87B
100
AcDbEntity
  8
1
  6
Continuous
100
AcDbCircle
 10
288.280978
 20
465.1017949999999
 30
0.0
 40
45.1525
100
AcDbArc
 50
350.3930279999999
 51
0.0
  0
ARC
  5
BAF8
330
B87B
100
AcDbEntity
  8
1
  6
Continuous
100
AcDbCircle
 10
316.529986
 20
462.2510339999998
 30
0.0
 40
3.0
100
AcDbArc
 50
121.723055
 51
183.877856
  0
ARC
  5
BAF9
330
B87B
100
AcDbEntity
  8
1
  6
Continuous
100
AcDbCircle
 10
323.4334779999999
 20
459.151795
 30
0.0
 40
9.5
100
AcDbArc
 50
189.6069719999998
 51
350.3930279999999
  0
ARC
  5
BAFA
330
B87B
100
AcDbEntity
  8
1
  6
Continuous
100
AcDbCircle
 10
358.5859779999998
 20
465.1017949999999
 30
0.0
 40
45.1525
100
AcDbArc
 50
183.877856
 51
189.6069719999998
  0
CIRCLE
  5
BAFB
330
B87B
100
AcDbEntity
  8
1
  6
Continuous
100
AcDbCircle
 10
323.4334779999999
 20
456.551795
 30
0.0
 40
4.898978999999997
  0
ARC
  5
BAFC
330
B87B
100
AcDbEntity
  8
1
  6
Continuous
100
AcDbCircle
 10
318.0834779999999
 20
477.319049
 30
0.0
 40
9.0
100
AcDbArc
 50
301.7230549999998
 51
0.0
  0
LINE
  5
BAFD
330
B87B
100
AcDbEntity
  8
1
  6
Continuous
100
AcDbLine
 10
314.952544
 20
464.802833
 30
0.0
 11
322.8158029999999
 21
469.663653
 31
0.0
  0
ARC
  5
BAFE
330
B87B
100
AcDbEntity
  8
1
  6
Continuous
100
AcDbCircle
 10
331.0573
 20
486.801795
 30
0.0
 40
10.190699
100
AcDbArc
 50
283.483848
 51
320.7333729999998
  0
LINE
  5
BAFF
330
B87B
100
AcDbEntity
  8
1
  6
Continuous
100
AcDbLine
 10
335.4334779999998
 20
479.801795
 30
0.0
 11
333.4334779999999
 21
479.801795
 31
0.0
  0
ARC
  5
BB00
330
B87B
100
AcDbEntity
  8
1
  6
Continuous
100
AcDbCircle
 10
315.6864029999999
 20
508.0008379999998
 30
0.0
 40
2.25
100
AcDbArc
 50
180.669038
 51
251.867154
  0
ARC
  5
BB01
330
B87B
100
AcDbEntity
  8
1
  6
Continuous
100
AcDbCircle
 10
323.0834779999999
 20
499.001795
 30
0.0
 40
4.0
100
AcDbArc
 50
0.0
 51
71.867154
  0
LINE
  5
BB02
330
B87B
100
AcDbEntity
  8
1
  6
Continuous
100
AcDbLine
 10
314.986155
 20
505.8625779999998
 30
0.0
 11
324.3283629999999
 21
502.8031449999998
 31
0.0
  0
ARC
  5
BB03
330
B87B
100
AcDbEntity
  8
1
  6
Continuous
100
AcDbCircle
 10
331.0573
 20
486.801795
 30
0.0
 40
10.190699
100
AcDbArc
 50
39.26663099999998
 51
76.51615200000001
  0
LINE
  5
BB04
330
B87B
100
AcDbEntity
  8
1
  6
Continuous
100
AcDbLine
 10
335.4334779999998
 20
493.801795
 30
0.0
 11
333.4334779999999
 21
493.801795
 31
0.0
  0
ARC
  5
BB05
330
B87B
100
AcDbEntity
  8
1
  6
Continuous
100
AcDbCircle
 10
323.4334779999999
 20
514.451795
 30
0.0
 40
9.5
100
AcDbArc
 50
9.606972
 51
170.3930279999999
  0
ARC
  5
BB06
330
B87B
100
AcDbEntity
  8
1
  6
Continuous
100
AcDbCircle
 10
358.5859779999998
 20
508.501795
 30
0.0
 40
45.1525
100
AcDbArc
 50
170.3930279999999
 51
180.669038
  0
CIRCLE
  5
BB07
330
B87B
100
AcDbEntity
  8
1
  6
Continuous
100
AcDbCircle
 10
323.4334779999999
 20
517.0517949999998
 30
0.0
 40
4.898978999999997
  0
ARC
  5
BB08
330
B87B
100
AcDbEntity
  8
1
  6
Continuous
100
AcDbCircle
 10
288.280978
 20
508.501795
 30
0.0
 40
45.1525
100
AcDbArc
 50
0.0
 51
9.606972
  0
ARC
  5
BB09
330
B87B
100
AcDbEntity
  8
1
  6
Continuous
100
AcDbCircle
 10
319.933478
 20
486.801795
 30
0.0
 40
11.0
100
AcDbArc
 50
49.45839799999999
 51
70.413641
  0
LINE
  5
BB0A
330
B87B
100
AcDbEntity
  8
4
  6
CENTER
100
AcDbLine
 10
468.537433
 20
317.002697
 30
0.0
 11
453.017933
 21
237.1617909999999
 31
0.0
  0
LINE
  5
BB0B
330
B87B
100
AcDbEntity
  8
1
  6
Continuous
100
AcDbLine
 10
335.816096
 20
493.251795
 30
0.0
 11
341.750859
 21
493.251795
 31
0.0
  0
LINE
  5
BB0C
330
B87B
100
AcDbEntity
  8
1
  6
Continuous
100
AcDbLine
 10
341.750859
 20
480.3517959999998
 30
0.0
 11
335.816096
 21
480.3517959999998
 31
0.0
  0
LINE
  5
BB0D
330
B87B
100
AcDbEntity
  8
1
  6
Continuous
100
AcDbLine
 10
342.1334779999999
 20
486.801796
 30
0.0
 11
335.4334779999998
 21
486.801796
 31
0.0
  0
ARC
  5
BB0E
330
B87B
100
AcDbEntity
  8
1
  6
Continuous
100
AcDbCircle
 10
328.350796
 20
490.0267949999998
 30
0.0
 40
13.782681
100
AcDbArc
 50
346.467947
 51
13.53205199999999
  0
ARC
  5
BB0F
330
B87B
100
AcDbEntity
  8
1
  6
Continuous
100
AcDbCircle
 10
349.216159
 20
490.0267949999998
 30
0.0
 40
13.782681
100
AcDbArc
 50
166.467948
 51
193.532053
  0
ARC
  5
BB10
330
B87B
100
AcDbEntity
  8
1
  6
Continuous
100
AcDbCircle
 10
349.216159
 20
483.576795
 30
0.0
 40
13.782681
100
AcDbArc
 50
166.467947
 51
193.5320519999999
  0
ARC
  5
BB11
330
B87B
100
AcDbEntity
  8
1
  6
Continuous
100
AcDbCircle
 10
328.350796
 20
483.576795
 30
0.0
 40
13.782681
100
AcDbArc
 50
346.467948
 51
13.532053
  0
ARC
  5
BB12
330
B87B
100
AcDbEntity
  8
1
  6
Continuous
100
AcDbCircle
 10
277.942451
 20
-28.43815499999999
 30
0.0
 40
127.2695619999999
100
AcDbArc
 50
74.04160400000002
 51
94.72520400000002
  0
ARC
  5
BB13
330
B87B
100
AcDbEntity
  8
1
  6
Continuous
100
AcDbCircle
 10
274.3241319999999
 20
-57.58730599999999
 30
0.0
 40
158.353498
100
AcDbArc
 50
75.020139
 51
92.49008600000001
  0
LINE
  5
BB14
330
B87B
100
AcDbEntity
  8
1
  6
Continuous
100
AcDbLine
 10
270.659674
 20
102.951106
 30
0.0
 11
304.691816
 21
99.520104
 31
0.0
  0
ARC
  5
BB15
330
B87B
100
AcDbEntity
  8
1
  6
Continuous
100
AcDbCircle
 10
266.183854
 20
51.247381
 30
0.0
 40
46.77914699999997
100
AcDbArc
 50
55.329379
 51
90.0
  0
ARC
  5
BB16
330
B87B
100
AcDbEntity
  8
1
  6
Continuous
100
AcDbCircle
 10
270.482568
 20
63.47274999999999
 30
0.0
 40
30.0
100
AcDbArc
 50
55.265023
 51
78.557979
  0
ARC
  5
BB17
330
B87B
100
AcDbEntity
  8
1
  6
Continuous
100
AcDbCircle
 10
274.3241319999999
 20
211.840588
 30
0.0
 40
158.353498
100
AcDbArc
 50
267.5099139999999
 51
284.9798609999999
  0
ARC
  5
BB18
330
B87B
100
AcDbEntity
  8
1
  6
Continuous
100
AcDbCircle
 10
277.942451
 20
182.691437
 30
0.0
 40
127.2695619999999
100
AcDbArc
 50
265.2747959999999
 51
285.958396
  0
LINE
  5
BB19
330
B87B
100
AcDbEntity
  8
1
  6
Continuous
100
AcDbLine
 10
270.659674
 20
51.302176
 30
0.0
 11
304.691816
 21
54.73317900000001
 31
0.0
  0
ARC
  5
BB1A
330
B87B
100
AcDbEntity
  8
1
  6
Continuous
100
AcDbCircle
 10
270.482568
 20
90.78030699999999
 30
0.0
 40
30.0
100
AcDbArc
 50
281.442021
 51
304.735731
  0
ARC
  5
BB1B
330
B87B
100
AcDbEntity
  8
1
  6
Continuous
100
AcDbCircle
 10
266.183854
 20
103.004476
 30
0.0
 40
46.777948
100
AcDbArc
 50
270.0
 51
304.6716079999999
  0
LINE
  5
BB1C
330
B87B
100
AcDbEntity
  8
1
  6
Continuous
100
AcDbLine
 10
319.9338539999998
 20
66.126641
 30
0.0
 11
191.933854
 21
66.126641
 31
0.0
  0
LINE
  5
BB1D
330
B87B
100
AcDbEntity
  8
1
  6
Continuous
100
AcDbLine
 10
319.9338539999998
 20
88.126641
 30
0.0
 11
191.933854
 21
88.126641
 31
0.0
  0
LINE
  5
BB1E
330
B87B
100
AcDbEntity
  8
4
  6
CENTER
100
AcDbLine
 10
255.933854
 20
40.3138
 30
0.0
 11
255.933854
 21
114.32823
 31
0.0
  0
ARC
  5
BB1F
330
B87B
100
AcDbEntity
  8
1
  6
Continuous
100
AcDbCircle
 10
241.3851409999999
 20
63.47274999999999
 30
0.0
 40
30.0
100
AcDbArc
 50
101.4420209999999
 51
124.734977
  0
ARC
  5
BB20
330
B87B
100
AcDbEntity
  8
1
  6
Continuous
100
AcDbCircle
 10
241.3851409999999
 20
90.78030699999999
 30
0.0
 40
30.0
100
AcDbArc
 50
235.2642689999999
 51
258.557979
  0
ARC
  5
BB21
330
B87B
100
AcDbEntity
  8
1
  6
Continuous
100
AcDbCircle
 10
191.933854
 20
77.12664100000002
 30
0.0
 40
11.0
100
AcDbArc
 50
90.0
 51
270.0
  0
ARC
  5
BB22
330
B87B
100
AcDbEntity
  8
1
  6
Continuous
100
AcDbCircle
 10
273.605427
 20
91.876528
 30
0.0
 40
3.0
100
AcDbArc
 50
19.47122099999998
 51
90.0
  0
LINE
  5
BB23
330
B87B
100
AcDbEntity
  8
1
  6
Continuous
100
AcDbLine
 10
271.9338539999998
 20
94.87652799999999
 30
0.0
 11
271.9338539999998
 21
96.92652800000001
 31
0.0
  0
ARC
  5
BB24
330
B87B
100
AcDbEntity
  8
1
  6
Continuous
100
AcDbCircle
 10
269.6565939999999
 20
93.00154199999999
 30
0.0
 40
10.0
100
AcDbArc
 50
84.24308999999999
 51
98.98809100000001
  0
ARC
  5
BB25
330
B87B
100
AcDbEntity
  8
1
  6
Continuous
100
AcDbCircle
 10
280.154425
 20
26.63156199999999
 30
0.0
 40
77.195079
100
AcDbArc
 50
98.98809100000001
 51
103.078943
  0
ARC
  5
BB26
330
B87B
100
AcDbEntity
  8
1
  6
Continuous
100
AcDbCircle
 10
264.788427
 20
112.6265279999999
 30
0.0
 40
12.3
100
AcDbArc
 50
270.0
 51
282.4694129999999
  0
ARC
  5
BB27
330
B87B
100
AcDbEntity
  8
1
  6
Continuous
100
AcDbCircle
 10
264.755081
 20
108.026528
 30
0.0
 40
10.0
100
AcDbArc
 50
270.0
 51
285.6838859999998
  0
LINE
  5
BB28
330
B87B
100
AcDbEntity
  8
1
  6
Continuous
100
AcDbLine
 10
261.908854
 20
96.92652800000001
 30
0.0
 11
261.908854
 21
97.02652800000002
 31
0.0
  0
LINE
  5
BB29
330
B87B
100
AcDbEntity
  8
1
  6
Continuous
100
AcDbLine
 10
263.4338539999999
 20
101.9939119999999
 30
0.0
 11
263.4338539999999
 21
102.626528
 31
0.0
  0
LINE
  5
BB2A
330
B87B
100
AcDbEntity
  8
1
  6
Continuous
100
AcDbLine
 10
261.933854
 20
107.6265279999999
 30
0.0
 11
261.933854
 21
102.626528
 31
0.0
  0
LINE
  5
BB2B
330
B87B
100
AcDbEntity
  8
1
  6
Continuous
100
AcDbLine
 10
255.933854
 20
103.162427
 30
0.0
 11
255.933854
 21
107.09063
 31
0.0
  0
LINE
  5
BB2C
330
B87B
100
AcDbEntity
  8
2
  6
Continuous
100
AcDbLine
 10
259.257354
 20
107.6265279999999
 30
0.0
 11
259.257354
 21
108.8030279999999
 31
0.0
  0
LINE
  5
BB2D
330
B87B
100
AcDbEntity
  8
1
  6
Continuous
100
AcDbLine
 10
259.933854
 20
108.126528
 30
0.0
 11
258.9338539999999
 21
109.126528
 31
0.0
  0
LINE
  5
BB2E
330
B87B
100
AcDbEntity
  8
1
  6
Continuous
100
AcDbLine
 10
259.933854
 20
107.6265279999999
 30
0.0
 11
259.933854
 21
108.126528
 31
0.0
  0
ARC
  5
BB2F
330
B87B
100
AcDbEntity
  8
1
  6
Continuous
100
AcDbCircle
 10
258.9338539999999
 20
98.961465
 30
0.0
 40
8.665063999999999
100
AcDbArc
 50
69.743842
 51
110.256158
  0
ARC
  5
BB30
330
B87B
100
AcDbEntity
  8
1
  6
Continuous
100
AcDbCircle
 10
258.9338539999999
 20
111.291592
 30
0.0
 40
8.665063999999999
100
AcDbArc
 50
249.7438419999999
 51
290.256158
  0
ARC
  5
BB31
330
B87B
100
AcDbEntity
  8
1
  6
Continuous
100
AcDbCircle
 10
262.2881029999999
 20
101.026528
 30
0.0
 40
4.0
100
AcDbArc
 50
270.0
 51
311.409622
  0
ARC
  5
BB32
330
B87B
100
AcDbEntity
  8
1
  6
Continuous
100
AcDbCircle
 10
273.605427
 20
62.376528
 30
0.0
 40
3.0
100
AcDbArc
 50
270.0
 51
340.528779
  0
LINE
  5
BB33
330
B87B
100
AcDbEntity
  8
1
  6
Continuous
100
AcDbLine
 10
271.9338539999998
 20
57.326528
 30
0.0
 11
271.9338539999998
 21
59.376528
 31
0.0
  0
ARC
  5
BB34
330
B87B
100
AcDbEntity
  8
1
  6
Continuous
100
AcDbCircle
 10
280.154425
 20
127.62172
 30
0.0
 40
77.195079
100
AcDbArc
 50
256.9210569999999
 51
261.0119089999999
  0
ARC
  5
BB35
330
B87B
100
AcDbEntity
  8
1
  6
Continuous
100
AcDbCircle
 10
269.6565939999999
 20
61.251741
 30
0.0
 40
10.0
100
AcDbArc
 50
261.0119089999999
 51
275.7569099999999
  0
ARC
  5
BB36
330
B87B
100
AcDbEntity
  8
1
  6
Continuous
100
AcDbCircle
 10
264.755081
 20
46.226754
 30
0.0
 40
10.0
100
AcDbArc
 50
74.316114
 51
90.0
  0
ARC
  5
BB37
330
B87B
100
AcDbEntity
  8
1
  6
Continuous
100
AcDbCircle
 10
264.788427
 20
41.626754
 30
0.0
 40
12.3
100
AcDbArc
 50
77.53058700000003
 51
90.0
  0
ARC
  5
BB38
330
B87B
100
AcDbEntity
  8
1
  6
Continuous
100
AcDbCircle
 10
258.9338539999999
 20
54.791592
 30
0.0
 40
8.665063999999999
100
AcDbArc
 50
249.7438419999999
 51
290.256158
  0
LINE
  5
BB39
330
B87B
100
AcDbEntity
  8
1
  6
Continuous
100
AcDbLine
 10
261.908854
 20
57.226528
 30
0.0
 11
261.908854
 21
57.326528
 31
0.0
  0
LINE
  5
BB3A
330
B87B
100
AcDbEntity
  8
1
  6
Continuous
100
AcDbLine
 10
263.4338539999999
 20
51.626528
 30
0.0
 11
263.4338539999999
 21
52.259245
 31
0.0
  0
LINE
  5
BB3B
330
B87B
100
AcDbEntity
  8
1
  6
Continuous
100
AcDbLine
 10
261.933854
 20
51.626528
 30
0.0
 11
261.933854
 21
46.126528
 31
0.0
  0
LINE
  5
BB3C
330
B87B
100
AcDbEntity
  8
1
  6
Continuous
100
AcDbLine
 10
255.933854
 20
46.662427
 30
0.0
 11
255.933854
 21
51.626528
 31
0.0
  0
ARC
  5
BB3D
330
B87B
100
AcDbEntity
  8
1
  6
Continuous
100
AcDbCircle
 10
262.2881029999999
 20
53.226528
 30
0.0
 40
4.0
100
AcDbArc
 50
48.590378
 51
90.0
  0
LINE
  5
BB3E
330
B87B
100
AcDbEntity
  8
1
  6
Continuous
100
AcDbLine
 10
249.9588539999999
 20
96.92652800000001
 30
0.0
 11
249.9588539999999
 21
97.02652800000002
 31
0.0
  0
LINE
  5
BB3F
330
B87B
100
AcDbEntity
  8
1
  6
Continuous
100
AcDbLine
 10
248.4338539999999
 20
100.3265279999999
 30
0.0
 11
248.4338539999999
 21
102.626528
 31
0.0
  0
LINE
  5
BB40
330
B87B
100
AcDbEntity
  8
1
  6
Continuous
100
AcDbLine
 10
249.933854
 20
107.6265279999999
 30
0.0
 11
249.933854
 21
102.626528
 31
0.0
  0
LINE
  5
BB41
330
B87B
100
AcDbEntity
  8
2
  6
Continuous
100
AcDbLine
 10
252.610354
 20
107.6265279999999
 30
0.0
 11
252.610354
 21
108.8030279999999
 31
0.0
  0
LINE
  5
BB42
330
B87B
100
AcDbEntity
  8
1
  6
Continuous
100
AcDbLine
 10
251.933854
 20
107.6265279999999
 30
0.0
 11
251.933854
 21
108.126528
 31
0.0
  0
LINE
  5
BB43
330
B87B
100
AcDbEntity
  8
1
  6
Continuous
100
AcDbLine
 10
251.933854
 20
108.126528
 30
0.0
 11
252.9338539999999
 21
109.126528
 31
0.0
  0
LINE
  5
BB44
330
B87B
100
AcDbEntity
  8
1
  6
Continuous
100
AcDbLine
 10
245.683854
 20
98.02652800000002
 30
0.0
 11
245.683854
 21
100.3265279999999
 31
0.0
  0
LINE
  5
BB45
330
B87B
100
AcDbEntity
  8
1
  6
Continuous
100
AcDbLine
 10
239.933854
 20
94.87652799999999
 30
0.0
 11
239.933854
 21
96.92652800000001
 31
0.0
  0
ARC
  5
BB46
330
B87B
100
AcDbEntity
  8
1
  6
Continuous
100
AcDbCircle
 10
249.5796059999999
 20
101.026528
 30
0.0
 40
4.0
100
AcDbArc
 50
228.5903779999999
 51
270.0
  0
ARC
  5
BB47
330
B87B
100
AcDbEntity
  8
1
  6
Continuous
100
AcDbCircle
 10
238.2622809999999
 20
91.876528
 30
0.0
 40
3.0
100
AcDbArc
 50
90.0
 51
160.528779
  0
LINE
  5
BB48
330
B87B
100
AcDbEntity
  8
1
  6
Continuous
100
AcDbLine
 10
249.9588539999999
 20
57.226528
 30
0.0
 11
249.9588539999999
 21
57.326528
 31
0.0
  0
LINE
  5
BB49
330
B87B
100
AcDbEntity
  8
1
  6
Continuous
100
AcDbLine
 10
248.4338539999999
 20
51.626528
 30
0.0
 11
248.4338539999999
 21
53.926528
 31
0.0
  0
LINE
  5
BB4A
330
B87B
100
AcDbEntity
  8
1
  6
Continuous
100
AcDbLine
 10
245.683854
 20
53.926528
 30
0.0
 11
245.683854
 21
56.226528
 31
0.0
  0
LINE
  5
BB4B
330
B87B
100
AcDbEntity
  8
1
  6
Continuous
100
AcDbLine
 10
239.933854
 20
57.326528
 30
0.0
 11
239.933854
 21
59.376528
 31
0.0
  0
ARC
  5
BB4C
330
B87B
100
AcDbEntity
  8
1
  6
Continuous
100
AcDbCircle
 10
249.5796059999999
 20
53.226528
 30
0.0
 40
4.0
100
AcDbArc
 50
90.0
 51
131.4096219999999
  0
LINE
  5
BB4D
330
B87B
100
AcDbEntity
  8
1
  6
Continuous
100
AcDbLine
 10
249.933854
 20
51.626528
 30
0.0
 11
249.933854
 21
46.126528
 31
0.0
  0
ARC
  5
BB4E
330
B87B
100
AcDbEntity
  8
1
  6
Continuous
100
AcDbCircle
 10
238.2622809999999
 20
62.376528
 30
0.0
 40
3.0
100
AcDbArc
 50
199.4712209999999
 51
270.0
  0
ARC
  5
BB4F
330
B87B
100
AcDbEntity
  8
1
  6
Continuous
100
AcDbCircle
 10
249.623324
 20
-3.79664
 30
0.0
 40
57.72316800000001
100
AcDbArc
 50
76.92105699999998
 51
90.0
  0
ARC
  5
BB50
330
B87B
100
AcDbEntity
  8
1
  6
Continuous
100
AcDbCircle
 10
249.623324
 20
158.049922
 30
0.0
 40
57.72316800000001
100
AcDbArc
 50
270.0
 51
283.0789429999999
  0
LINE
  5
BB51
330
B87B
100
AcDbEntity
  8
1
  6
Continuous
100
AcDbLine
 10
251.933854
 20
108.126528
 30
0.0
 11
259.933854
 21
108.126528
 31
0.0
  0
LINE
  5
BB52
330
B87B
100
AcDbEntity
  8
1
  6
Continuous
100
AcDbLine
 10
261.933854
 20
46.126528
 30
0.0
 11
249.933854
 21
46.126528
 31
0.0
  0
ARC
  5
BB53
330
B87B
100
AcDbEntity
  8
1
  6
Continuous
100
AcDbCircle
 10
252.9338539999999
 20
54.791592
 30
0.0
 40
8.665063999999999
100
AcDbArc
 50
249.7438419999999
 51
290.256158
  0
LINE
  5
BB54
330
B87B
100
AcDbEntity
  8
1
  6
Continuous
100
AcDbLine
 10
262.2881029999999
 20
57.226528
 30
0.0
 11
249.5796059999999
 21
57.226528
 31
0.0
  0
LINE
  5
BB55
330
B87B
100
AcDbEntity
  8
1
  6
Continuous
100
AcDbLine
 10
263.4338539999999
 20
51.626528
 30
0.0
 11
248.4338539999999
 21
51.626528
 31
0.0
  0
LINE
  5
BB56
330
B87B
100
AcDbEntity
  8
1
  6
Continuous
100
AcDbLine
 10
249.933854
 20
51.626528
 30
0.0
 11
261.933854
 21
51.626528
 31
0.0
  0
LINE
  5
BB57
330
B87B
100
AcDbEntity
  8
1
  6
Continuous
100
AcDbLine
 10
262.2881029999999
 20
97.02652800000002
 30
0.0
 11
249.5796059999999
 21
97.02652800000002
 31
0.0
  0
LINE
  5
BB58
330
B87B
100
AcDbEntity
  8
1
  6
Continuous
100
AcDbLine
 10
263.4338539999999
 20
102.626528
 30
0.0
 11
248.4338539999999
 21
102.626528
 31
0.0
  0
ARC
  5
BB59
330
B87B
100
AcDbEntity
  8
1
  6
Continuous
100
AcDbCircle
 10
252.9338539999999
 20
98.961465
 30
0.0
 40
8.665063999999999
100
AcDbArc
 50
69.743842
 51
110.256158
  0
ARC
  5
BB5A
330
B87B
100
AcDbEntity
  8
1
  6
Continuous
100
AcDbCircle
 10
252.9338539999999
 20
111.291592
 30
0.0
 40
8.665063999999999
100
AcDbArc
 50
249.7438419999999
 51
290.256158
  0
LINE
  5
BB5B
330
B87B
100
AcDbEntity
  8
1
  6
Continuous
100
AcDbLine
 10
261.933854
 20
107.6265279999999
 30
0.0
 11
249.933854
 21
107.6265279999999
 31
0.0
  0
LINE
  5
BB5C
330
B87B
100
AcDbEntity
  8
1
  6
Continuous
100
AcDbLine
 10
261.933854
 20
102.626528
 30
0.0
 11
249.933854
 21
102.626528
 31
0.0
  0
LINE
  5
BB5D
330
B87B
100
AcDbEntity
  8
1
  6
Continuous
100
AcDbLine
 10
258.9338539999999
 20
109.126528
 30
0.0
 11
252.9338539999999
 21
109.126528
 31
0.0
  0
LINE
  5
BB5E
330
B87B
100
AcDbEntity
  8
1
  6
Continuous
100
AcDbLine
 10
239.933854
 20
96.92652800000001
 30
0.0
 11
271.9338539999998
 21
96.92652800000001
 31
0.0
  0
LINE
  5
BB5F
330
B87B
100
AcDbEntity
  8
1
  6
Continuous
100
AcDbLine
 10
276.433854
 20
92.87652800000001
 30
0.0
 11
235.433854
 21
92.87652800000001
 31
0.0
  0
LINE
  5
BB60
330
B87B
100
AcDbEntity
  8
1
  6
Continuous
100
AcDbLine
 10
273.605427
 20
94.87652799999999
 30
0.0
 11
238.2622809999999
 21
94.87652799999999
 31
0.0
  0
LINE
  5
BB61
330
B87B
100
AcDbEntity
  8
1
  6
Continuous
100
AcDbLine
 10
264.788427
 20
100.3265279999999
 30
0.0
 11
245.683854
 21
100.3265279999999
 31
0.0
  0
LINE
  5
BB62
330
B87B
100
AcDbEntity
  8
1
  6
Continuous
100
AcDbLine
 10
266.183854
 20
98.02652800000002
 30
0.0
 11
245.683854
 21
98.02652800000002
 31
0.0
  0
LINE
  5
BB63
330
B87B
100
AcDbEntity
  8
1
  6
Continuous
100
AcDbLine
 10
239.933854
 20
57.326528
 30
0.0
 11
271.9338539999998
 21
57.326528
 31
0.0
  0
LINE
  5
BB64
330
B87B
100
AcDbEntity
  8
1
  6
Continuous
100
AcDbLine
 10
276.433854
 20
61.376528
 30
0.0
 11
235.433854
 21
61.376528
 31
0.0
  0
LINE
  5
BB65
330
B87B
100
AcDbEntity
  8
1
  6
Continuous
100
AcDbLine
 10
273.605427
 20
59.376528
 30
0.0
 11
238.2622809999999
 21
59.376528
 31
0.0
  0
LINE
  5
BB66
330
B87B
100
AcDbEntity
  8
1
  6
Continuous
100
AcDbLine
 10
264.788427
 20
53.926528
 30
0.0
 11
245.683854
 21
53.926528
 31
0.0
  0
LINE
  5
BB67
330
B87B
100
AcDbEntity
  8
1
  6
Continuous
100
AcDbLine
 10
266.183854
 20
56.226528
 30
0.0
 11
245.683854
 21
56.226528
 31
0.0
  0
ARC
  5
BB68
330
B87B
100
AcDbEntity
  8
1
  6
Continuous
100
AcDbCircle
 10
320.3518599999998
 20
93.144108
 30
0.0
 40
20.966675
100
AcDbArc
 50
31.175347
 51
63.477048
  0
ARC
  5
BB69
330
B87B
100
AcDbEntity
  8
1
  6
Continuous
100
AcDbCircle
 10
323.4338539999999
 20
104.7766409999999
 30
0.0
 40
9.5
100
AcDbArc
 50
33.022985
 51
170.3930279999999
  0
CIRCLE
  5
BB6A
330
B87B
100
AcDbEntity
  8
1
  6
Continuous
100
AcDbCircle
 10
323.4338539999999
 20
107.3766409999999
 30
0.0
 40
4.898978999999997
  0
ARC
  5
BB6B
330
B87B
100
AcDbEntity
  8
1
  6
Continuous
100
AcDbCircle
 10
317.5112369999999
 20
53.901614
 30
0.0
 40
16.884226
100
AcDbArc
 50
325.339632
 51
357.8562959999999
  0
ARC
  5
BB6C
330
B87B
100
AcDbEntity
  8
1
  6
Continuous
100
AcDbCircle
 10
320.3518599999998
 20
61.109175
 30
0.0
 40
20.966675
100
AcDbArc
 50
296.5229519999999
 51
328.8246529999999
  0
ARC
  5
BB6D
330
B87B
100
AcDbEntity
  8
1
  6
Continuous
100
AcDbCircle
 10
317.5112369999999
 20
100.351668
 30
0.0
 40
16.884226
100
AcDbArc
 50
2.143704
 51
34.66036799999999
  0
LINE
  5
BB6E
330
B87B
100
AcDbEntity
  8
1
  6
Continuous
100
AcDbLine
 10
333.6617109999999
 20
87.626641
 30
0.0
 11
328.5374029999999
 21
87.626641
 31
0.0
  0
LINE
  5
BB6F
330
B87B
100
AcDbEntity
  8
1
  6
Continuous
100
AcDbLine
 10
333.6617109999999
 20
66.626641
 30
0.0
 11
328.5374029999999
 21
66.626641
 31
0.0
  0
ARC
  5
BB70
330
B87B
100
AcDbEntity
  8
1
  6
Continuous
100
AcDbCircle
 10
321.001566
 20
77.12664100000002
 30
0.0
 40
12.92435
100
AcDbArc
 50
305.6669549999999
 51
348.39496
  0
ARC
  5
BB71
330
B87B
100
AcDbEntity
  8
1
  6
Continuous
100
AcDbCircle
 10
313.963466
 20
77.12664100000002
 30
0.0
 40
17.962451
100
AcDbArc
 50
324.2285989999999
 51
0.0
  0
ARC
  5
BB72
330
B87B
100
AcDbEntity
  8
1
  6
Continuous
100
AcDbCircle
 10
313.963466
 20
77.12664100000002
 30
0.0
 40
17.962451
100
AcDbArc
 50
0.0
 51
35.77140099999999
  0
ARC
  5
BB73
330
B87B
100
AcDbEntity
  8
1
  6
Continuous
100
AcDbCircle
 10
321.001566
 20
77.12664100000002
 30
0.0
 40
12.92435
100
AcDbArc
 50
11.60503999999999
 51
54.333045
  0
ARC
  5
BB74
330
B87B
100
AcDbEntity
  8
1
  6
Continuous
100
AcDbCircle
 10
323.4338539999999
 20
49.476641
 30
0.0
 40
9.5
100
AcDbArc
 50
189.6069719999998
 51
326.9770149999998
  0
ARC
  5
BB75
330
B87B
100
AcDbEntity
  8
1
  6
Continuous
100
AcDbCircle
 10
316.530362
 20
101.6774019999999
 30
0.0
 40
3.0
100
AcDbArc
 50
176.1221439999999
 51
238.276945
  0
ARC
  5
BB76
330
B87B
100
AcDbEntity
  8
1
  6
Continuous
100
AcDbCircle
 10
358.5863539999999
 20
98.82664100000004
 30
0.0
 40
45.1525
100
AcDbArc
 50
170.3930279999999
 51
176.1221439999999
  0
ARC
  5
BB77
330
B87B
100
AcDbEntity
  8
1
  6
Continuous
100
AcDbCircle
 10
280.154425
 20
26.63156199999999
 30
0.0
 40
77.195079
100
AcDbArc
 50
62.954166
 51
69.49809000000001
  0
ARC
  5
BB78
330
B87B
100
AcDbEntity
  8
1
  6
Continuous
100
AcDbCircle
 10
303.688736
 20
89.57053899999998
 30
0.0
 40
10.0
100
AcDbArc
 50
69.49809000000001
 51
84.24308999999999
  0
ARC
  5
BB79
330
B87B
100
AcDbEntity
  8
1
  6
Continuous
100
AcDbCircle
 10
305.933854
 20
77.12664100000002
 30
0.0
 40
20.5
100
AcDbArc
 50
137.4092679999999
 51
147.548509
  0
ARC
  5
BB7A
330
B87B
100
AcDbEntity
  8
1
  6
Continuous
100
AcDbCircle
 10
305.933854
 20
77.12664100000002
 30
0.0
 40
18.2
100
AcDbArc
 50
82.91844000000002
 51
142.814637
  0
LINE
  5
BB7B
330
B87B
100
AcDbEntity
  8
1
  6
Continuous
100
AcDbLine
 10
314.9529199999999
 20
99.125603
 30
0.0
 11
322.8161789999999
 21
94.26478299999999
 31
0.0
  0
ARC
  5
BB7C
330
B87B
100
AcDbEntity
  8
1
  6
Continuous
100
AcDbCircle
 10
305.933854
 20
77.12664100000002
 30
0.0
 40
18.2
100
AcDbArc
 50
37.138896
 51
67.380135
  0
LINE
  5
BB7D
330
B87B
100
AcDbEntity
  8
1
  6
Continuous
100
AcDbLine
 10
327.855166
 20
68.626641
 30
0.0
 11
326.915974
 21
68.626641
 31
0.0
  0
LINE
  5
BB7E
330
B87B
100
AcDbEntity
  8
1
  6
Continuous
100
AcDbLine
 10
327.855166
 20
85.626641
 30
0.0
 11
326.915974
 21
85.626641
 31
0.0
  0
LINE
  5
BB7F
330
B87B
100
AcDbEntity
  8
1
  6
Continuous
100
AcDbLine
 10
327.855166
 20
84.75899400000001
 30
0.0
 11
327.855166
 21
85.626641
 31
0.0
  0
LINE
  5
BB80
330
B87B
100
AcDbEntity
  8
1
  6
Continuous
100
AcDbLine
 10
327.855166
 20
68.626641
 30
0.0
 11
327.855166
 21
69.49428799999998
 31
0.0
  0
ARC
  5
BB81
330
B87B
100
AcDbEntity
  8
1
  6
Continuous
100
AcDbCircle
 10
323.0838539999999
 20
64.926641
 30
0.0
 40
4.0
100
AcDbArc
 50
288.1328459999998
 51
0.0
  0
LINE
  5
BB82
330
B87B
100
AcDbEntity
  8
1
  6
Continuous
100
AcDbLine
 10
327.0838539999999
 20
64.926641
 30
0.0
 11
327.0838539999999
 21
68.626641
 31
0.0
  0
ARC
  5
BB83
330
B87B
100
AcDbEntity
  8
1
  6
Continuous
100
AcDbCircle
 10
315.686779
 20
55.927599
 30
0.0
 40
2.25
100
AcDbArc
 50
108.1328459999999
 51
179.330962
  0
ARC
  5
BB84
330
B87B
100
AcDbEntity
  8
1
  6
Continuous
100
AcDbCircle
 10
358.5863539999999
 20
55.42664099999999
 30
0.0
 40
45.1525
100
AcDbArc
 50
179.330962
 51
189.6069719999998
  0
ARC
  5
BB85
330
B87B
100
AcDbEntity
  8
1
  6
Continuous
100
AcDbCircle
 10
303.688736
 20
64.682743
 30
0.0
 40
10.0
100
AcDbArc
 50
275.7569099999999
 51
290.50191
  0
ARC
  5
BB86
330
B87B
100
AcDbEntity
  8
1
  6
Continuous
100
AcDbCircle
 10
280.154425
 20
127.62172
 30
0.0
 40
77.195079
100
AcDbArc
 50
290.50191
 51
297.045834
  0
ARC
  5
BB87
330
B87B
100
AcDbEntity
  8
1
  6
Continuous
100
AcDbCircle
 10
305.933854
 20
77.12664100000002
 30
0.0
 40
20.5
100
AcDbArc
 50
212.451491
 51
222.5907649999999
  0
CIRCLE
  5
BB88
330
B87B
100
AcDbEntity
  8
1
  6
Continuous
100
AcDbCircle
 10
323.4338539999999
 20
46.876641
 30
0.0
 40
4.898978999999997
  0
LINE
  5
BB89
330
B87B
100
AcDbEntity
  8
1
  6
Continuous
100
AcDbLine
 10
314.986531
 20
58.065858
 30
0.0
 11
324.3287389999999
 21
61.12529099999999
 31
0.0
  0
ARC
  5
BB8A
330
B87B
100
AcDbEntity
  8
1
  6
Continuous
100
AcDbCircle
 10
305.933854
 20
77.12664100000002
 30
0.0
 40
18.2
100
AcDbArc
 50
217.185363
 51
322.861104
  0
ARC
  5
BB8B
330
B87B
100
AcDbEntity
  8
1
  6
Continuous
100
AcDbCircle
 10
305.933854
 20
77.12664100000002
 30
0.0
 40
20.5
100
AcDbArc
 50
297.0462239999998
 51
329.632988
  0
ARC
  5
BB8C
330
B87B
100
AcDbEntity
  8
1
  6
Continuous
100
AcDbCircle
 10
318.0838539999998
 20
86.609387
 30
0.0
 40
9.0
100
AcDbArc
 50
353.731145
 51
58.27694499999999
  0
ARC
  5
BB8D
330
B87B
100
AcDbEntity
  8
1
  6
Continuous
100
AcDbCircle
 10
319.9338539999998
 20
77.12664100000002
 30
0.0
 40
11.0
100
AcDbArc
 50
270.0
 51
90.0
  0
ARC
  5
BB8E
330
B87B
100
AcDbEntity
  8
1
  6
Continuous
100
AcDbCircle
 10
305.933854
 20
77.12664100000002
 30
0.0
 40
20.5
100
AcDbArc
 50
30.36701199999999
 51
62.954166
  0
LINE
  5
BB8F
330
B87B
100
AcDbEntity
  8
1
  6
Continuous
100
AcDbLine
 10
333.6617109999999
 20
95.560571
 30
0.0
 11
333.6617109999999
 21
58.69271099999998
 31
0.0
  0
LINE
  5
BB90
330
B87B
100
AcDbEntity
  8
1
  6
Continuous
100
AcDbLine
 10
339.0411639999999
 20
64.62664100000001
 30
0.0
 11
339.0411639999999
 21
89.62664100000003
 31
0.0
  0
ARC
  5
BB91
330
B87B
100
AcDbEntity
  8
1
  6
Continuous
100
AcDbCircle
 10
376.1732729999998
 20
63.710576
 30
0.0
 40
42.896514
100
AcDbArc
 50
188.7738529999998
 51
192.361334
  0
ARC
  5
BB92
330
B87B
100
AcDbEntity
  8
1
  6
Continuous
100
AcDbCircle
 10
343.6617109999998
 20
58.69271099999998
 30
0.0
 40
10.0
100
AcDbArc
 50
180.0
 51
188.7738529999998
  0
ARC
  5
BB93
330
B87B
100
AcDbEntity
  8
1
  6
Continuous
100
AcDbCircle
 10
329.3871459999999
 20
53.457073
 30
0.0
 40
5.0
100
AcDbArc
 50
357.8562959999999
 51
12.36133399999999
  0
ARC
  5
BB94
330
B87B
100
AcDbEntity
  8
1
  6
Continuous
100
AcDbCircle
 10
802.181243
 20
57.628361
 30
0.0
 40
463.19295
100
AcDbArc
 50
179.134298
 51
180.585518
  0
ARC
  5
BB95
330
B87B
100
AcDbEntity
  8
1
  6
Continuous
100
AcDbCircle
 10
334.012741
 20
52.84388299999999
 30
0.0
 40
5.0
100
AcDbArc
 50
328.8246529999999
 51
0.585518
  0
ARC
  5
BB96
330
B87B
100
AcDbEntity
  8
1
  6
Continuous
100
AcDbCircle
 10
334.012741
 20
101.4093989999998
 30
0.0
 40
5.0
100
AcDbArc
 50
359.4144819999999
 51
31.175347
  0
ARC
  5
BB97
330
B87B
100
AcDbEntity
  8
1
  6
Continuous
100
AcDbCircle
 10
802.181243
 20
96.62492100000001
 30
0.0
 40
463.19295
100
AcDbArc
 50
179.4144819999999
 51
180.865702
  0
ARC
  5
BB98
330
B87B
100
AcDbEntity
  8
1
  6
Continuous
100
AcDbCircle
 10
329.3871459999999
 20
100.7962089999999
 30
0.0
 40
5.0
100
AcDbArc
 50
347.638666
 51
2.143704
  0
ARC
  5
BB99
330
B87B
100
AcDbEntity
  8
1
  6
Continuous
100
AcDbCircle
 10
376.1732729999998
 20
90.542707
 30
0.0
 40
42.896514
100
AcDbArc
 50
167.638666
 51
171.226147
  0
ARC
  5
BB9A
330
B87B
100
AcDbEntity
  8
1
  6
Continuous
100
AcDbCircle
 10
343.6617109999998
 20
95.560571
 30
0.0
 40
10.0
100
AcDbArc
 50
171.226147
 51
180.0
  0
LINE
  5
BB9B
330
B87B
100
AcDbEntity
  8
1
  6
Continuous
100
AcDbLine
 10
339.0411639999999
 20
89.62664100000003
 30
0.0
 11
333.6617109999999
 21
89.62664100000003
 31
0.0
  0
ARC
  5
BB9C
330
B87B
100
AcDbEntity
  8
1
  6
Continuous
100
AcDbCircle
 10
331.0576759999999
 20
77.12664100000002
 30
0.0
 40
10.190699
100
AcDbArc
 50
321.573797
 51
38.426203
  0
ARC
  5
BB9D
330
B87B
100
AcDbEntity
  8
1
  6
Continuous
100
AcDbCircle
 10
328.350796
 20
80.35164100000001
 30
0.0
 40
13.782681
100
AcDbArc
 50
346.467947
 51
13.53205199999999
  0
LINE
  5
BB9E
330
B87B
100
AcDbEntity
  8
1
  6
Continuous
100
AcDbLine
 10
338.9474059999999
 20
70.676641
 30
0.0
 11
341.750859
 21
70.676641
 31
0.0
  0
ARC
  5
BB9F
330
B87B
100
AcDbEntity
  8
1
  6
Continuous
100
AcDbCircle
 10
328.350796
 20
73.90164099999998
 30
0.0
 40
13.782681
100
AcDbArc
 50
346.467948
 51
13.532053
  0
LINE
  5
BBA0
330
B87B
100
AcDbEntity
  8
1
  6
Continuous
100
AcDbLine
 10
342.1334779999999
 20
73.90164099999998
 30
0.0
 11
342.1334779999999
 21
80.35164100000001
 31
0.0
  0
ARC
  5
BBA1
330
B87B
100
AcDbEntity
  8
1
  6
Continuous
100
AcDbCircle
 10
342.1334779999999
 20
77.12664100000002
 30
0.0
 40
6.0
100
AcDbArc
 50
267.3166399999999
 51
92.68335999999996
  0
LINE
  5
BBA2
330
B87B
100
AcDbEntity
  8
1
  6
Continuous
100
AcDbLine
 10
342.1334779999999
 20
77.12664100000002
 30
0.0
 11
341.248375
 21
77.12664100000002
 31
0.0
  0
LINE
  5
BBA3
330
B87B
100
AcDbEntity
  8
1
  6
Continuous
100
AcDbLine
 10
341.750859
 20
83.57664099999999
 30
0.0
 11
338.9474069999999
 21
83.57664099999999
 31
0.0
  0
LINE
  5
BBA4
330
B87B
100
AcDbEntity
  8
1
  6
Continuous
100
AcDbLine
 10
339.0411639999999
 20
64.62664100000001
 30
0.0
 11
333.6617109999999
 21
64.62664100000001
 31
0.0
  0
LINE
  5
BBA5
330
B87B
100
AcDbEntity
  8
1
  6
Continuous
100
AcDbLine
 10
325.0838539999999
 20
317.4758589999999
 30
0.0
 11
286.783854
 21
317.4758589999999
 31
0.0
  0
ARC
  5
BBA6
330
B87B
100
AcDbEntity
  8
1
  6
Continuous
100
AcDbCircle
 10
286.449137
 20
285.4281169999998
 30
0.0
 40
37.5
100
AcDbArc
 50
304.0
 51
336.673568
  0
ARC
  5
BBA7
330
B87B
100
AcDbEntity
  8
1
  6
Continuous
100
AcDbCircle
 10
255.933854
 20
231.9758589999999
 30
0.0
 40
75.0
100
AcDbArc
 50
62.447723
 51
7.960025999999999
  0
ARC
  5
BBA8
330
B87B
100
AcDbEntity
  8
1
  6
Continuous
100
AcDbCircle
 10
255.933854
 20
231.9758589999999
 30
0.0
 40
58.5
100
AcDbArc
 50
54.175155
 51
23.986688
  0
LINE
  5
BBA9
330
B87B
100
AcDbEntity
  8
4
  6
CENTER
100
AcDbLine
 10
336.933854
 20
231.9758589999999
 30
0.0
 11
175.2057259999999
 21
231.9758589999999
 31
0.0
  0
LINE
  5
BBAA
330
B87B
100
AcDbEntity
  8
4
  6
CENTER
100
AcDbLine
 10
255.933854
 20
150.975859
 30
0.0
 11
255.933854
 21
312.9758589999998
 31
0.0
  0
ARC
  5
BBAB
330
B87B
100
AcDbEntity
  8
1
  6
Continuous
100
AcDbCircle
 10
255.933854
 20
231.9758589999999
 30
0.0
 40
55.0
100
AcDbArc
 50
52.85268399999999
 51
23.259355
  0
LINE
  5
BBAC
330
B87B
100
AcDbEntity
  8
1
  6
Continuous
100
AcDbLine
 10
249.623324
 20
240.0529699999999
 30
0.0
 11
282.1701739999999
 21
265.481355
 31
0.0
  0
ARC
  5
BBAD
330
B87B
100
AcDbEntity
  8
1
  6
Continuous
100
AcDbCircle
 10
255.933854
 20
231.9758589999999
 30
0.0
 40
10.25
100
AcDbArc
 50
128.0
 51
304.0
  0
ARC
  5
BBAE
330
B87B
100
AcDbEntity
  8
1
  6
Continuous
100
AcDbCircle
 10
255.933854
 20
231.9758589999999
 30
0.0
 40
20.5
100
AcDbArc
 50
68.0
 51
4.0
  0
ARC
  5
BBAF
330
B87B
100
AcDbEntity
  8
1
  6
Continuous
100
AcDbCircle
 10
255.933854
 20
231.9758589999999
 30
0.0
 40
16.0
100
AcDbArc
 50
77.83844000000001
 51
354.16156
  0
ARC
  5
BBB0
330
B87B
100
AcDbEntity
  8
1
  6
Continuous
100
AcDbCircle
 10
255.933854
 20
231.9758589999999
 30
0.0
 40
31.64269099999999
100
AcDbArc
 50
56.900729
 51
15.099271
  0
CIRCLE
  5
BBB1
330
B87B
100
AcDbEntity
  8
1
  6
Continuous
100
AcDbCircle
 10
228.895733
 20
194.7610779999999
 30
0.0
 40
3.5
  0
CIRCLE
  5
BBB2
330
B87B
100
AcDbEntity
  8
1
  6
Continuous
100
AcDbCircle
 10
212.1852539999999
 20
246.190641
 30
0.0
 40
3.5
  0
CIRCLE
  5
BBB3
330
B87B
100
AcDbEntity
  8
1
  6
Continuous
100
AcDbCircle
 10
282.9719759999999
 20
194.7610779999999
 30
0.0
 40
3.5
  0
LINE
  5
BBB4
330
B87B
100
AcDbEntity
  8
1
  6
Continuous
100
AcDbLine
 10
261.6655809999999
 20
223.478224
 30
0.0
 11
307.418871
 21
254.339208
 31
0.0
  0
ARC
  5
BBB5
330
B87B
100
AcDbEntity
  8
1
  6
Continuous
100
AcDbCircle
 10
263.4172609999998
 20
237.4128729999999
 30
0.0
 40
6.0
100
AcDbArc
 50
351.8505339999999
 51
80.149466
  0
ARC
  5
BBB6
330
B87B
100
AcDbEntity
  8
1
  6
Continuous
100
AcDbCircle
 10
255.933854
 20
231.9758589999999
 30
0.0
 40
10.25
100
AcDbArc
 50
340.401521
 51
91.598479
  0
CIRCLE
  5
BBB7
330
B87B
100
AcDbEntity
  8
1
  6
Continuous
100
AcDbCircle
 10
255.933854
 20
231.9758589999999
 30
0.0
 40
8.0
  0
CIRCLE
  5
BBB8
330
B87B
100
AcDbEntity
  8
1
  6
Continuous
100
AcDbCircle
 10
255.933854
 20
231.9758589999999
 30
0.0
 40
7.5
  0
LINE
  5
BBB9
330
B87B
100
AcDbEntity
  8
1
  6
Continuous
100
AcDbLine
 10
255.933854
 20
225.047656
 30
0.0
 11
261.933854
 21
228.511758
 31
0.0
  0
LINE
  5
BBBA
330
B87B
100
AcDbEntity
  8
1
  6
Continuous
100
AcDbLine
 10
261.933854
 20
235.4399609999999
 30
0.0
 11
261.933854
 21
228.511758
 31
0.0
  0
LINE
  5
BBBB
330
B87B
100
AcDbEntity
  8
1
  6
Continuous
100
AcDbLine
 10
261.933854
 20
235.4399609999999
 30
0.0
 11
255.933854
 21
238.9040629999998
 31
0.0
  0
LINE
  5
BBBC
330
B87B
100
AcDbEntity
  8
1
  6
Continuous
100
AcDbLine
 10
249.933854
 20
235.4399609999999
 30
0.0
 11
249.933854
 21
228.511758
 31
0.0
  0
LINE
  5
BBBD
330
B87B
100
AcDbEntity
  8
1
  6
Continuous
100
AcDbLine
 10
255.933854
 20
225.047656
 30
0.0
 11
249.933854
 21
228.511758
 31
0.0
  0
CIRCLE
  5
BBBE
330
B87B
100
AcDbEntity
  8
2
  6
Continuous
100
AcDbCircle
 10
255.933854
 20
231.9758589999999
 30
0.0
 40
3.3235
  0
CIRCLE
  5
BBBF
330
B87B
100
AcDbEntity
  8
1
  6
Continuous
100
AcDbCircle
 10
255.933854
 20
231.9758589999999
 30
0.0
 40
4.0
  0
LINE
  5
BBC0
330
B87B
100
AcDbEntity
  8
1
  6
Continuous
100
AcDbLine
 10
249.933854
 20
235.4399609999999
 30
0.0
 11
255.933854
 21
238.9040629999998
 31
0.0
  0
ARC
  5
BBC1
330
B87B
100
AcDbEntity
  8
1
  6
Continuous
100
AcDbCircle
 10
249.558638
 20
239.397456
 30
0.0
 40
20.0
100
AcDbArc
 50
333.1452479999999
 51
351.8505339999999
  0
ARC
  5
BBC2
330
B87B
100
AcDbEntity
  8
1
  6
Continuous
100
AcDbCircle
 10
261.0221619999999
 20
223.61927
 30
0.0
 40
20.0
100
AcDbArc
 50
80.149466
 51
98.85475200000001
  0
ARC
  5
BBC3
330
B87B
100
AcDbEntity
  8
1
  6
Continuous
100
AcDbCircle
 10
299.682454
 20
246.190641
 30
0.0
 40
3.5
100
AcDbArc
 50
170.0451769999999
 51
77.954823
  0
LINE
  5
BBC4
330
B87B
100
AcDbEntity
  8
1
  6
Continuous
100
AcDbLine
 10
285.433854
 20
313.6758589999999
 30
0.0
 11
285.433854
 21
303.875859
 31
0.0
  0
CIRCLE
  5
BBC5
330
B87B
100
AcDbEntity
  8
1
  6
Continuous
100
AcDbCircle
 10
255.933854
 20
277.9758589999999
 30
0.0
 40
3.5
  0
ARC
  5
BBC6
330
B87B
100
AcDbEntity
  8
1
  6
Continuous
100
AcDbCircle
 10
246.4338539999999
 20
289.9799259999999
 30
0.0
 40
45.0
100
AcDbArc
 50
339.541171
 51
11.25676099999999
  0
ARC
  5
BBC7
330
B87B
100
AcDbEntity
  8
1
  6
Continuous
100
AcDbCircle
 10
269.8569439999999
 20
281.24157
 30
0.0
 40
20.0
100
AcDbArc
 50
308.0
 51
339.541171
  0
ARC
  5
BBC8
330
B87B
100
AcDbEntity
  8
1
  6
Continuous
100
AcDbCircle
 10
284.1932009999998
 20
297.49536
 30
0.0
 40
6.5
100
AcDbArc
 50
11.25676099999999
 51
78.996454
  0
ARC
  5
BBC9
330
B87B
100
AcDbEntity
  8
1
  6
Continuous
100
AcDbCircle
 10
293.283854
 20
326.9758589999999
 30
0.0
 40
6.5
100
AcDbArc
 50
90.0
 51
180.0
  0
LINE
  5
BBCA
330
B87B
100
AcDbEntity
  8
1
  6
Continuous
100
AcDbLine
 10
286.783854
 20
326.9758589999999
 30
0.0
 11
286.783854
 21
317.4758589999999
 31
0.0
  0
ARC
  5
BBCB
330
B87B
100
AcDbEntity
  8
1
  6
Continuous
100
AcDbCircle
 10
289.433854
 20
313.6758589999999
 30
0.0
 40
4.0
100
AcDbArc
 50
108.1948719999999
 51
180.0
  0
ARC
  5
BBCC
330
B87B
100
AcDbEntity
  8
1
  6
Continuous
100
AcDbCircle
 10
255.933854
 20
231.9758589999999
 30
0.0
 40
75.0
100
AcDbArc
 50
10.859621
 51
30.422456
  0
ARC
  5
BBCD
330
B87B
100
AcDbEntity
  8
1
  6
Continuous
100
AcDbCircle
 10
661.5560359999998
 20
308.139391
 30
0.0
 40
334.842061
100
AcDbArc
 50
184.7751969999999
 51
191.692115
  0
ARC
  5
BBCE
330
B87B
100
AcDbEntity
  8
1
  6
Continuous
100
AcDbCircle
 10
869.2205920000001
 20
342.9826069999998
 30
0.0
 40
539.4151789999998
100
AcDbArc
 50
186.6743429999999
 51
190.617781
  0
ARC
  5
BBCF
330
B87B
100
AcDbEntity
  8
1
  6
Continuous
100
AcDbCircle
 10
336.0460519999999
 20
243.420738
 30
0.0
 40
3.0
100
AcDbArc
 50
273.198911
 51
3.271063999999998
  0
LINE
  5
BBD0
330
B87B
100
AcDbEntity
  8
1
  6
Continuous
100
AcDbLine
 10
333.3978839999998
 20
241.570382
 30
0.0
 11
330.0519439999998
 21
242.401591
 31
0.0
  0
LINE
  5
BBD1
330
B87B
100
AcDbEntity
  8
1
  6
Continuous
100
AcDbLine
 10
333.6617109999999
 20
240.2827959999999
 30
0.0
 11
336.21346
 21
240.4254129999999
 31
0.0
  0
LINE
  5
BBD2
330
B87B
100
AcDbEntity
  8
1
  6
Continuous
100
AcDbLine
 10
329.833613
 20
246.215899
 30
0.0
 11
332.316299
 21
247.1442979999999
 31
0.0
  0
LINE
  5
BBD3
330
B87B
100
AcDbEntity
  8
1
  6
Continuous
100
AcDbLine
 10
330.0437689999998
 20
245.653908
 30
0.0
 11
332.4278109999998
 21
246.5454189999999
 31
0.0
  0
LINE
  5
BBD4
330
B87B
100
AcDbEntity
  8
1
  6
Continuous
100
AcDbLine
 10
333.2665219999999
 20
242.2212529999999
 30
0.0
 11
330.196601
 21
242.9838919999999
 31
0.0
  0
ARC
  5
BBD5
330
B87B
100
AcDbEntity
  8
1
  6
Continuous
100
AcDbCircle
 10
330.534134
 20
244.342594
 30
0.0
 40
2.0
100
AcDbArc
 50
110.503255
 51
256.0488159999998
  0
ARC
  5
BBD6
330
B87B
100
AcDbEntity
  8
1
  6
Continuous
100
AcDbCircle
 10
330.534134
 20
244.342594
 30
0.0
 40
1.399999999999999
100
AcDbArc
 50
110.503255
 51
256.0488159999998
  0
ARC
  5
BBD7
330
B87B
100
AcDbEntity
  8
1
  6
Continuous
100
AcDbCircle
 10
332.747583
 20
244.0492529999999
 30
0.0
 40
1.676452
100
AcDbArc
 50
95.60674000000002
 51
266.4389869999999
  0
LINE
  5
BBD8
330
B87B
100
AcDbEntity
  8
1
  6
Continuous
100
AcDbLine
 10
333.427255
 20
310.5758599999999
 30
0.0
 11
333.427255
 21
280.869677
 31
0.0
  0
ARC
  5
BBD9
330
B87B
100
AcDbEntity
  8
1
  6
Continuous
100
AcDbCircle
 10
309.1054689999999
 20
311.406238
 30
0.0
 40
18.50011999999999
100
AcDbArc
 50
324.547848
 51
6.734927
  0
LINE
  5
BBDA
330
B87B
100
AcDbEntity
  8
1
  6
Continuous
100
AcDbLine
 10
326.433854
 20
313.6758589999999
 30
0.0
 11
326.433854
 21
304.926924
 31
0.0
  0
ARC
  5
BBDB
330
B87B
100
AcDbEntity
  8
1
  6
Continuous
100
AcDbCircle
 10
342.1334779999999
 20
287.8758589999998
 30
0.0
 40
6.0
100
AcDbArc
 50
269.7492439999999
 51
90.25075599999999
  0
LINE
  5
BBDC
330
B87B
100
AcDbEntity
  8
4
  6
CENTER
100
AcDbLine
 10
352.4848609999998
 20
287.8758589999998
 30
0.0
 11
318.383818
 21
287.8758589999998
 31
0.0
  0
LINE
  5
BBDD
330
B87B
100
AcDbEntity
  8
1
  6
Continuous
100
AcDbLine
 10
335.4334779999998
 20
280.875859
 30
0.0
 11
335.4334779999998
 21
294.875859
 31
0.0
  0
ARC
  5
BBDE
330
B87B
100
AcDbEntity
  8
1
  6
Continuous
100
AcDbCircle
 10
323.565513
 20
287.875844
 30
0.0
 40
18.567964
100
AcDbArc
 50
348.348358
 51
11.651642
  0
ARC
  5
BBDF
330
B87B
100
AcDbEntity
  8
1
  6
Continuous
100
AcDbCircle
 10
354.0014419999998
 20
287.875844
 30
0.0
 40
18.567964
100
AcDbArc
 50
168.3483579999999
 51
191.6516419999999
  0
LINE
  5
BBE0
330
B87B
100
AcDbEntity
  8
1
  6
Continuous
100
AcDbLine
 10
342.1334779999999
 20
293.4008449999998
 30
0.0
 11
342.1334779999999
 21
282.3508739999999
 31
0.0
  0
LINE
  5
BBE1
330
B87B
100
AcDbEntity
  8
1
  6
Continuous
100
AcDbLine
 10
325.385347
 20
282.1258589999998
 30
0.0
 11
325.385347
 21
293.558037
 31
0.0
  0
ARC
  5
BBE2
330
B87B
100
AcDbEntity
  8
1
  6
Continuous
100
AcDbCircle
 10
335.65618
 20
287.8758589999998
 30
0.0
 40
11.770833
100
AcDbArc
 50
151.083369
 51
209.2417479999999
  0
LINE
  5
BBE3
330
B87B
100
AcDbEntity
  8
1
  6
Continuous
100
AcDbLine
 10
327.385347
 20
282.747998
 30
0.0
 11
327.385347
 21
292.2254429999999
 31
0.0
  0
ARC
  5
BBE4
330
B87B
100
AcDbEntity
  8
1
  6
Continuous
100
AcDbCircle
 10
373.385904
 20
286.4866269999998
 30
0.0
 40
50.0
100
AcDbArc
 50
172.7238059999999
 51
181.917051
  0
ARC
  5
BBE5
330
B87B
100
AcDbEntity
  8
1
  6
Continuous
100
AcDbCircle
 10
362.8623779999998
 20
280.8229309999999
 30
0.0
 40
35.030068
100
AcDbArc
 50
155.129837
 51
177.776079
  0
ARC
  5
BBE6
330
B87B
100
AcDbEntity
  8
1
  6
Continuous
100
AcDbCircle
 10
299.1853469999999
 20
282.747998
 30
0.0
 40
30.0
100
AcDbArc
 50
342.874225
 51
346.0868819999998
  0
ARC
  5
BBE7
330
B87B
100
AcDbEntity
  8
1
  6
Continuous
100
AcDbCircle
 10
292.4126089999999
 20
282.981513
 30
0.0
 40
31.05539099999999
100
AcDbArc
 50
336.461909
 51
3.382813999999998
  0
ARC
  5
BBE8
330
B87B
100
AcDbEntity
  8
1
  6
Continuous
100
AcDbCircle
 10
347.843631
 20
281.406173
 30
0.0
 40
20.0
100
AcDbArc
 50
177.776079
 51
183.271064
  0
LINE
  5
BBE9
330
B87B
100
AcDbEntity
  8
1
  6
Continuous
100
AcDbLine
 10
325.385347
 20
282.1258589999998
 30
0.0
 11
327.3828470000001
 21
282.1258589999998
 31
0.0
  0
ARC
  5
BBEA
330
B87B
100
AcDbEntity
  8
1
  6
Continuous
100
AcDbCircle
 10
297.412959
 20
283.1165359999999
 30
0.0
 40
30.0
100
AcDbArc
 50
342.874225
 51
348.448109
  0
LINE
  5
BBEB
330
B87B
100
AcDbEntity
  8
1
  6
Continuous
100
AcDbLine
 10
326.0827779999999
 20
274.2824279999999
 30
0.0
 11
327.855166
 21
273.9138899999999
 31
0.0
  0
ARC
  5
BBEC
330
B87B
100
AcDbEntity
  8
1
  6
Continuous
100
AcDbCircle
 10
299.6853469999999
 20
282.747998
 30
0.0
 40
27.7
100
AcDbArc
 50
348.2537049999999
 51
0.0
  0
LINE
  5
BBED
330
B87B
100
AcDbEntity
  8
1
  6
Continuous
100
AcDbLine
 10
341.694073
 20
280.575845
 30
0.0
 11
335.872882
 21
280.575845
 31
0.0
  0
ARC
  5
BBEE
330
B87B
100
AcDbEntity
  8
1
  6
Continuous
100
AcDbCircle
 10
339.741975
 20
282.3508739999999
 30
0.0
 40
4.308498
100
AcDbArc
 50
155.670937
 51
204.3290629999999
  0
ARC
  5
BBEF
330
B87B
100
AcDbEntity
  8
1
  6
Continuous
100
AcDbCircle
 10
337.8249799999999
 20
282.3508739999999
 30
0.0
 40
4.308498
100
AcDbArc
 50
335.6709369999999
 51
24.329063
  0
LINE
  5
BBF0
330
B87B
100
AcDbEntity
  8
1
  6
Continuous
100
AcDbLine
 10
341.750873
 20
284.1258439999998
 30
0.0
 11
335.816096
 21
284.1258439999998
 31
0.0
  0
ARC
  5
BBF1
330
B87B
100
AcDbEntity
  8
1
  6
Continuous
100
AcDbCircle
 10
338.4272549999999
 20
280.869677
 30
0.0
 40
5.0
100
AcDbArc
 50
180.0
 51
186.6743429999999
  0
LINE
  5
BBF2
330
B87B
100
AcDbEntity
  8
1
  6
Continuous
100
AcDbLine
 10
335.4334779999998
 20
280.875859
 30
0.0
 11
333.427255
 21
280.875859
 31
0.0
  0
ARC
  5
BBF3
330
B87B
100
AcDbEntity
  8
1
  6
Continuous
100
AcDbCircle
 10
330.173625
 20
295.9758589999998
 30
0.0
 40
1.0
100
AcDbArc
 50
335.129837
 51
90.0
  0
LINE
  5
BBF4
330
B87B
100
AcDbEntity
  8
1
  6
Continuous
100
AcDbLine
 10
313.4334779999999
 20
298.5758589999999
 30
0.0
 11
330.333931
 21
298.5758589999999
 31
0.0
  0
LINE
  5
BBF5
330
B87B
100
AcDbEntity
  8
1
  6
Continuous
100
AcDbLine
 10
313.4334779999999
 20
296.9758589999999
 30
0.0
 11
331.427255
 21
296.9758589999999
 31
0.0
  0
ARC
  5
BBF6
330
B87B
100
AcDbEntity
  8
1
  6
Continuous
100
AcDbCircle
 10
320.1026689999999
 20
303.5758589999999
 30
0.0
 40
5.0
100
AcDbArc
 50
270.0
 51
324.547848
  0
ARC
  5
BBF7
330
B87B
100
AcDbEntity
  8
1
  6
Continuous
100
AcDbCircle
 10
326.385347
 20
292.2254429999999
 30
0.0
 40
1.0
100
AcDbArc
 50
0.0
 51
73.770303
  0
LINE
  5
BBF8
330
B87B
100
AcDbEntity
  8
1
  6
Continuous
100
AcDbLine
 10
326.664836
 20
293.1855919999998
 30
0.0
 11
325.059982
 21
293.6527469999999
 31
0.0
  0
ARC
  5
BBF9
330
B87B
100
AcDbEntity
  8
1
  6
Continuous
100
AcDbCircle
 10
324.780493
 20
292.6925979999999
 30
0.0
 40
1.0
100
AcDbArc
 50
73.770303
 51
172.7238059999999
  0
ARC
  5
BBFA
330
B87B
100
AcDbEntity
  8
1
  6
Continuous
100
AcDbCircle
 10
277.654902
 20
280.9851229999998
 30
0.0
 40
53.140552
100
AcDbArc
 50
13.443612
 51
17.512508
  0
ARC
  5
BBFB
330
B87B
100
AcDbEntity
  8
1
  6
Continuous
100
AcDbCircle
 10
324.4763639999998
 20
292.1772369999998
 30
0.0
 40
5.0
100
AcDbArc
 50
343.522163
 51
13.443612
  0
LINE
  5
BBFC
330
B87B
100
AcDbEntity
  8
1
  6
Continuous
100
AcDbLine
 10
313.4334779999999
 20
298.5758589999999
 30
0.0
 11
313.4334779999999
 21
296.9758589999999
 31
0.0
  0
ARC
  5
BBFD
330
B87B
100
AcDbEntity
  8
1
  6
Continuous
100
AcDbCircle
 10
323.4334779999999
 20
301.9758589999999
 30
0.0
 40
7.0
100
AcDbArc
 50
225.584691
 51
314.4153089999999
  0
LINE
  5
BBFE
330
B87B
100
AcDbEntity
  8
1
  6
Continuous
100
AcDbLine
 10
313.4334779999999
 20
298.5758589999999
 30
0.0
 11
320.1026689999999
 21
298.5758589999999
 31
0.0
  0
LINE
  5
BBFF
330
B87B
100
AcDbEntity
  8
1
  6
Continuous
100
AcDbLine
 10
341.750859
 20
295.1758449999999
 30
0.0
 11
335.816096
 21
295.1758449999999
 31
0.0
  0
ARC
  5
BC00
330
B87B
100
AcDbEntity
  8
1
  6
Continuous
100
AcDbCircle
 10
339.741975
 20
293.4008449999998
 30
0.0
 40
4.308498
100
AcDbArc
 50
155.670937
 51
204.3290629999999
  0
ARC
  5
BC01
330
B87B
100
AcDbEntity
  8
1
  6
Continuous
100
AcDbCircle
 10
337.8249799999999
 20
293.4008449999998
 30
0.0
 40
4.308498
100
AcDbArc
 50
335.6709369999999
 51
24.329063
  0
LINE
  5
BC02
330
B87B
100
AcDbEntity
  8
1
  6
Continuous
100
AcDbLine
 10
341.750859
 20
291.6258439999999
 30
0.0
 11
335.816096
 21
291.6258439999999
 31
0.0
  0
ARC
  5
BC03
330
B87B
100
AcDbEntity
  8
1
  6
Continuous
100
AcDbCircle
 10
329.7145279999999
 20
295.2088240000001
 30
0.0
 40
3.719983
100
AcDbArc
 50
356.420663
 51
30.64942100000001
  0
LINE
  5
BC04
330
B87B
100
AcDbEntity
  8
1
  6
Continuous
100
AcDbLine
 10
335.4334779999998
 20
294.875859
 30
0.0
 11
333.427255
 21
294.875859
 31
0.0
  0
ARC
  5
BC05
330
B87B
100
AcDbEntity
  8
1
  6
Continuous
100
AcDbCircle
 10
331.427255
 20
294.9758589999999
 30
0.0
 40
2.0
100
AcDbArc
 50
0.020731
 51
90.0
  0
ARC
  5
BC06
330
B87B
100
AcDbEntity
  8
1
  6
Continuous
100
AcDbCircle
 10
330.333931
 20
295.5758589999998
 30
0.0
 40
3.0
100
AcDbArc
 50
30.64942100000001
 51
90.0
  0
ARC
  5
BC07
330
B87B
100
AcDbEntity
  8
1
  6
Continuous
100
AcDbCircle
 10
318.5838539999999
 20
326.9758589999999
 30
0.0
 40
6.5
100
AcDbArc
 50
0.0
 51
90.0
  0
LINE
  5
BC08
330
B87B
100
AcDbEntity
  8
1
  6
Continuous
100
AcDbLine
 10
327.4779259999998
 20
313.5758599999999
 30
0.0
 11
330.427255
 21
313.5758599999999
 31
0.0
  0
LINE
  5
BC09
330
B87B
100
AcDbEntity
  8
1
  6
Continuous
100
AcDbLine
 10
325.0838539999999
 20
326.9758589999999
 30
0.0
 11
325.0838539999999
 21
317.4758589999999
 31
0.0
  0
ARC
  5
BC0A
330
B87B
100
AcDbEntity
  8
1
  6
Continuous
100
AcDbCircle
 10
322.433854
 20
313.6758589999999
 30
0.0
 40
4.0
100
AcDbArc
 50
0.0
 51
71.80512799999998
  0
ARC
  5
BC0B
330
B87B
100
AcDbEntity
  8
1
  6
Continuous
100
AcDbCircle
 10
330.427255
 20
310.5758599999999
 30
0.0
 40
3.0
100
AcDbArc
 50
0.0
 51
90.0
  0
ARC
  5
BC0C
330
B87B
100
AcDbEntity
  8
1
  6
Continuous
100
AcDbCircle
 10
583.618016
 20
287.8758589999998
 30
0.0
 40
6.0
100
AcDbArc
 50
89.74924399999997
 51
270.250756
  0
LINE
  5
BC0D
330
B87B
100
AcDbEntity
  8
4
  6
CENTER
100
AcDbLine
 10
573.2666329999998
 20
287.8758589999998
 30
0.0
 11
607.3676749999997
 21
287.8758589999998
 31
0.0
  0
LINE
  5
BC0E
330
B87B
100
AcDbEntity
  8
4
  6
CENTER
100
AcDbLine
 10
669.81764
 20
150.975859
 30
0.0
 11
669.81764
 21
312.9758589999998
 31
0.0
  0
ARC
  5
BC0F
330
B87B
100
AcDbEntity
  8
1
  6
Continuous
100
AcDbCircle
 10
669.81764
 20
231.9758589999999
 30
0.0
 40
58.5
100
AcDbArc
 50
156.013312
 51
125.824845
  0
ARC
  5
BC10
330
B87B
100
AcDbEntity
  8
1
  6
Continuous
100
AcDbCircle
 10
669.81764
 20
231.9758589999999
 30
0.0
 40
75.0
100
AcDbArc
 50
172.0399739999998
 51
117.552277
  0
LINE
  5
BC11
330
B87B
100
AcDbEntity
  8
4
  6
CENTER
100
AcDbLine
 10
588.8176399999998
 20
231.9758589999999
 30
0.0
 11
750.5457679999997
 21
231.9758589999999
 31
0.0
  0
ARC
  5
BC12
330
B87B
100
AcDbEntity
  8
1
  6
Continuous
100
AcDbCircle
 10
669.81764
 20
231.9758589999999
 30
0.0
 40
55.0
100
AcDbArc
 50
156.740645
 51
127.1473159999999
  0
ARC
  5
BC13
330
B87B
100
AcDbEntity
  8
1
  6
Continuous
100
AcDbCircle
 10
639.302357
 20
285.4281169999998
 30
0.0
 40
37.5
100
AcDbArc
 50
203.326432
 51
236.0
  0
LINE
  5
BC14
330
B87B
100
AcDbEntity
  8
1
  6
Continuous
100
AcDbLine
 10
676.1281699999998
 20
240.0529699999999
 30
0.0
 11
643.58132
 21
265.481355
 31
0.0
  0
ARC
  5
BC15
330
B87B
100
AcDbEntity
  8
1
  6
Continuous
100
AcDbCircle
 10
56.530901
 20
342.9826069999998
 30
0.0
 40
539.4151789999998
100
AcDbArc
 50
349.382219
 51
353.325657
  0
ARC
  5
BC16
330
B87B
100
AcDbEntity
  8
1
  6
Continuous
100
AcDbCircle
 10
264.1954569999999
 20
308.139391
 30
0.0
 40
334.842061
100
AcDbArc
 50
348.307885
 51
355.2248029999999
  0
ARC
  5
BC17
330
B87B
100
AcDbEntity
  8
1
  6
Continuous
100
AcDbCircle
 10
669.81764
 20
231.9758589999999
 30
0.0
 40
75.0
100
AcDbArc
 50
149.5775439999999
 51
169.140379
  0
ARC
  5
BC18
330
B87B
100
AcDbEntity
  8
1
  6
Continuous
100
AcDbCircle
 10
669.81764
 20
231.9758589999999
 30
0.0
 40
20.5
100
AcDbArc
 50
176.0
 51
112.0
  0
ARC
  5
BC19
330
B87B
100
AcDbEntity
  8
1
  6
Continuous
100
AcDbCircle
 10
669.81764
 20
231.9758589999999
 30
0.0
 40
31.64269099999999
100
AcDbArc
 50
164.900729
 51
123.0992709999998
  0
LINE
  5
BC1A
330
B87B
100
AcDbEntity
  8
1
  6
Continuous
100
AcDbLine
 10
664.0859129999999
 20
223.478224
 30
0.0
 11
618.332623
 21
254.339208
 31
0.0
  0
CIRCLE
  5
BC1B
330
B87B
100
AcDbEntity
  8
1
  6
Continuous
100
AcDbCircle
 10
642.7795179999999
 20
194.7610779999999
 30
0.0
 40
3.5
  0
ARC
  5
BC1C
330
B87B
100
AcDbEntity
  8
1
  6
Continuous
100
AcDbCircle
 10
589.7054419999998
 20
243.420738
 30
0.0
 40
3.0
100
AcDbArc
 50
176.728936
 51
266.801089
  0
LINE
  5
BC1D
330
B87B
100
AcDbEntity
  8
1
  6
Continuous
100
AcDbLine
 10
592.3536099999997
 20
241.570382
 30
0.0
 11
595.6995490000001
 21
242.401591
 31
0.0
  0
LINE
  5
BC1E
330
B87B
100
AcDbEntity
  8
1
  6
Continuous
100
AcDbLine
 10
592.089782
 20
240.2827959999999
 30
0.0
 11
589.538034
 21
240.4254129999999
 31
0.0
  0
ARC
  5
BC1F
330
B87B
100
AcDbEntity
  8
1
  6
Continuous
100
AcDbCircle
 10
593.00391
 20
244.0492529999999
 30
0.0
 40
1.676452
100
AcDbArc
 50
273.5610129999999
 51
84.39325999999999
  0
LINE
  5
BC20
330
B87B
100
AcDbEntity
  8
1
  6
Continuous
100
AcDbLine
 10
595.707724
 20
245.653908
 30
0.0
 11
593.3236820000002
 21
246.5454189999999
 31
0.0
  0
LINE
  5
BC21
330
B87B
100
AcDbEntity
  8
1
  6
Continuous
100
AcDbLine
 10
595.91788
 20
246.215899
 30
0.0
 11
593.4351939999998
 21
247.1442979999999
 31
0.0
  0
LINE
  5
BC22
330
B87B
100
AcDbEntity
  8
1
  6
Continuous
100
AcDbLine
 10
592.484971
 20
242.2212529999999
 30
0.0
 11
595.554892
 21
242.9838919999999
 31
0.0
  0
ARC
  5
BC23
330
B87B
100
AcDbEntity
  8
1
  6
Continuous
100
AcDbCircle
 10
595.217359
 20
244.342594
 30
0.0
 40
1.399999999999999
100
AcDbArc
 50
283.951184
 51
69.49674499999999
  0
ARC
  5
BC24
330
B87B
100
AcDbEntity
  8
1
  6
Continuous
100
AcDbCircle
 10
595.217359
 20
244.342594
 30
0.0
 40
2.0
100
AcDbArc
 50
283.951184
 51
69.49674499999999
  0
ARC
  5
BC25
330
B87B
100
AcDbEntity
  8
1
  6
Continuous
100
AcDbCircle
 10
626.0690400000002
 20
246.190641
 30
0.0
 40
3.5
100
AcDbArc
 50
102.045177
 51
9.954822999999999
  0
ARC
  5
BC26
330
B87B
100
AcDbEntity
  8
1
  6
Continuous
100
AcDbCircle
 10
669.81764
 20
231.9758589999999
 30
0.0
 40
16.0
100
AcDbArc
 50
185.83844
 51
102.1615599999998
  0
ARC
  5
BC27
330
B87B
100
AcDbEntity
  8
1
  6
Continuous
100
AcDbCircle
 10
669.81764
 20
231.9758589999999
 30
0.0
 40
10.25
100
AcDbArc
 50
236.0
 51
52.0
  0
CIRCLE
  5
BC28
330
B87B
100
AcDbEntity
  8
1
  6
Continuous
100
AcDbCircle
 10
696.855761
 20
194.7610779999999
 30
0.0
 40
3.5
  0
ARC
  5
BC29
330
B87B
100
AcDbEntity
  8
1
  6
Continuous
100
AcDbCircle
 10
669.81764
 20
231.9758589999999
 30
0.0
 40
10.25
100
AcDbArc
 50
88.401521
 51
199.5984789999999
  0
ARC
  5
BC2A
330
B87B
100
AcDbEntity
  8
1
  6
Continuous
100
AcDbCircle
 10
662.334233
 20
237.4128729999999
 30
0.0
 40
6.0
100
AcDbArc
 50
99.85053399999999
 51
188.149466
  0
CIRCLE
  5
BC2B
330
B87B
100
AcDbEntity
  8
1
  6
Continuous
100
AcDbCircle
 10
669.81764
 20
231.9758589999999
 30
0.0
 40
7.5
  0
CIRCLE
  5
BC2C
330
B87B
100
AcDbEntity
  8
1
  6
Continuous
100
AcDbCircle
 10
669.81764
 20
231.9758589999999
 30
0.0
 40
8.0
  0
LINE
  5
BC2D
330
B87B
100
AcDbEntity
  8
1
  6
Continuous
100
AcDbLine
 10
669.81764
 20
225.047656
 30
0.0
 11
663.8176399999998
 21
228.511758
 31
0.0
  0
LINE
  5
BC2E
330
B87B
100
AcDbEntity
  8
1
  6
Continuous
100
AcDbLine
 10
663.8176399999998
 20
235.4399609999999
 30
0.0
 11
669.81764
 21
238.9040629999998
 31
0.0
  0
CIRCLE
  5
BC2F
330
B87B
100
AcDbEntity
  8
1
  6
Continuous
100
AcDbCircle
 10
669.81764
 20
231.9758589999999
 30
0.0
 40
6.0
  0
ARC
  5
BC30
330
B87B
100
AcDbEntity
  8
1
  6
Continuous
100
AcDbCircle
 10
676.192856
 20
239.397456
 30
0.0
 40
20.0
100
AcDbArc
 50
188.149466
 51
206.8547519999999
  0
LINE
  5
BC31
330
B87B
100
AcDbEntity
  8
1
  6
Continuous
100
AcDbLine
 10
663.8176399999998
 20
235.4399609999999
 30
0.0
 11
663.8176399999998
 21
228.511758
 31
0.0
  0
LINE
  5
BC32
330
B87B
100
AcDbEntity
  8
1
  6
Continuous
100
AcDbLine
 10
675.8176399999999
 20
235.4399609999999
 30
0.0
 11
675.8176399999999
 21
228.511758
 31
0.0
  0
LINE
  5
BC33
330
B87B
100
AcDbEntity
  8
1
  6
Continuous
100
AcDbLine
 10
669.81764
 20
225.047656
 30
0.0
 11
675.8176399999999
 21
228.511758
 31
0.0
  0
LINE
  5
BC34
330
B87B
100
AcDbEntity
  8
1
  6
Continuous
100
AcDbLine
 10
675.8176399999999
 20
235.4399609999999
 30
0.0
 11
669.81764
 21
238.9040629999998
 31
0.0
  0
ARC
  5
BC35
330
B87B
100
AcDbEntity
  8
1
  6
Continuous
100
AcDbCircle
 10
664.729332
 20
223.61927
 30
0.0
 40
20.0
100
AcDbArc
 50
81.14524799999998
 51
99.85053399999999
  0
CIRCLE
  5
BC36
330
B87B
100
AcDbEntity
  8
1
  6
Continuous
100
AcDbCircle
 10
713.56624
 20
246.190641
 30
0.0
 40
3.5
  0
LINE
  5
BC37
330
B87B
100
AcDbEntity
  8
1
  6
Continuous
100
AcDbLine
 10
640.3176399999997
 20
313.6758589999999
 30
0.0
 11
640.3176399999997
 21
303.875859
 31
0.0
  0
LINE
  5
BC38
330
B87B
100
AcDbEntity
  8
1
  6
Continuous
100
AcDbLine
 10
599.31764
 20
313.6758589999999
 30
0.0
 11
599.31764
 21
304.926924
 31
0.0
  0
ARC
  5
BC39
330
B87B
100
AcDbEntity
  8
1
  6
Continuous
100
AcDbCircle
 10
616.646025
 20
311.406238
 30
0.0
 40
18.50011999999999
100
AcDbArc
 50
173.265073
 51
215.452152
  0
LINE
  5
BC3A
330
B87B
100
AcDbEntity
  8
1
  6
Continuous
100
AcDbLine
 10
592.3242389999997
 20
310.5758599999999
 30
0.0
 11
592.3242389999997
 21
280.869677
 31
0.0
  0
ARC
  5
BC3B
330
B87B
100
AcDbEntity
  8
1
  6
Continuous
100
AcDbCircle
 10
552.36559
 20
286.4866269999998
 30
0.0
 40
50.0
100
AcDbArc
 50
358.0829489999999
 51
7.276194
  0
LINE
  5
BC3C
330
B87B
100
AcDbEntity
  8
1
  6
Continuous
100
AcDbLine
 10
598.3661469999998
 20
282.747998
 30
0.0
 11
598.3661469999998
 21
292.2254429999999
 31
0.0
  0
ARC
  5
BC3D
330
B87B
100
AcDbEntity
  8
1
  6
Continuous
100
AcDbCircle
 10
590.095313
 20
287.8758589999998
 30
0.0
 40
11.770833
100
AcDbArc
 50
330.758252
 51
28.916631
  0
LINE
  5
BC3E
330
B87B
100
AcDbEntity
  8
1
  6
Continuous
100
AcDbLine
 10
600.3661469999998
 20
282.1258589999998
 30
0.0
 11
600.3661469999998
 21
293.558037
 31
0.0
  0
LINE
  5
BC3F
330
B87B
100
AcDbEntity
  8
1
  6
Continuous
100
AcDbLine
 10
583.618016
 20
293.4008449999998
 30
0.0
 11
583.618016
 21
282.3508739999999
 31
0.0
  0
ARC
  5
BC40
330
B87B
100
AcDbEntity
  8
1
  6
Continuous
100
AcDbCircle
 10
571.7500509999998
 20
287.875844
 30
0.0
 40
18.567964
100
AcDbArc
 50
348.348358
 51
11.651642
  0
ARC
  5
BC41
330
B87B
100
AcDbEntity
  8
1
  6
Continuous
100
AcDbCircle
 10
602.1859799999997
 20
287.875844
 30
0.0
 40
18.567964
100
AcDbArc
 50
168.3483579999999
 51
191.6516419999999
  0
LINE
  5
BC42
330
B87B
100
AcDbEntity
  8
1
  6
Continuous
100
AcDbLine
 10
590.3180159999998
 20
280.875859
 30
0.0
 11
590.3180159999998
 21
294.875859
 31
0.0
  0
ARC
  5
BC43
330
B87B
100
AcDbEntity
  8
1
  6
Continuous
100
AcDbCircle
 10
562.8891160000002
 20
280.8229309999999
 30
0.0
 40
35.030068
100
AcDbArc
 50
2.223920999999998
 51
24.870163
  0
LINE
  5
BC44
330
B87B
100
AcDbEntity
  8
1
  6
Continuous
100
AcDbLine
 10
599.668715
 20
274.2824279999999
 30
0.0
 11
597.896328
 21
273.9138899999999
 31
0.0
  0
ARC
  5
BC45
330
B87B
100
AcDbEntity
  8
1
  6
Continuous
100
AcDbCircle
 10
628.3385349999997
 20
283.1165359999999
 30
0.0
 40
30.0
100
AcDbArc
 50
191.5518909999999
 51
197.125775
  0
LINE
  5
BC46
330
B87B
100
AcDbEntity
  8
1
  6
Continuous
100
AcDbLine
 10
600.3661469999998
 20
282.1258589999998
 30
0.0
 11
598.368647
 21
282.1258589999998
 31
0.0
  0
ARC
  5
BC47
330
B87B
100
AcDbEntity
  8
1
  6
Continuous
100
AcDbCircle
 10
626.066147
 20
282.747998
 30
0.0
 40
27.7
100
AcDbArc
 50
180.0
 51
191.7462949999998
  0
ARC
  5
BC48
330
B87B
100
AcDbEntity
  8
1
  6
Continuous
100
AcDbCircle
 10
577.9078629999998
 20
281.406173
 30
0.0
 40
20.0
100
AcDbArc
 50
356.7289359999999
 51
2.223920999999998
  0
ARC
  5
BC49
330
B87B
100
AcDbEntity
  8
1
  6
Continuous
100
AcDbCircle
 10
626.566147
 20
282.747998
 30
0.0
 40
30.0
100
AcDbArc
 50
193.913118
 51
197.125775
  0
LINE
  5
BC4A
330
B87B
100
AcDbEntity
  8
1
  6
Continuous
100
AcDbLine
 10
590.3180159999998
 20
280.875859
 30
0.0
 11
592.3242389999997
 21
280.875859
 31
0.0
  0
ARC
  5
BC4B
330
B87B
100
AcDbEntity
  8
1
  6
Continuous
100
AcDbCircle
 10
587.3242389999997
 20
280.869677
 30
0.0
 40
5.0
100
AcDbArc
 50
353.325657
 51
0.0
  0
LINE
  5
BC4C
330
B87B
100
AcDbEntity
  8
1
  6
Continuous
100
AcDbLine
 10
584.000621
 20
284.1258439999998
 30
0.0
 11
589.9353969999999
 21
284.1258439999998
 31
0.0
  0
ARC
  5
BC4D
330
B87B
100
AcDbEntity
  8
1
  6
Continuous
100
AcDbCircle
 10
587.926513
 20
282.3508739999999
 30
0.0
 40
4.308498
100
AcDbArc
 50
155.670937
 51
204.3290629999999
  0
ARC
  5
BC4E
330
B87B
100
AcDbEntity
  8
1
  6
Continuous
100
AcDbCircle
 10
586.009518
 20
282.3508739999999
 30
0.0
 40
4.308498
100
AcDbArc
 50
335.6709369999999
 51
24.329063
  0
LINE
  5
BC4F
330
B87B
100
AcDbEntity
  8
1
  6
Continuous
100
AcDbLine
 10
584.0574199999998
 20
280.575845
 30
0.0
 11
589.8786109999997
 21
280.575845
 31
0.0
  0
ARC
  5
BC50
330
B87B
100
AcDbEntity
  8
1
  6
Continuous
100
AcDbCircle
 10
633.338884
 20
282.981513
 30
0.0
 40
31.05539099999999
100
AcDbArc
 50
176.617186
 51
203.5380909999998
  0
ARC
  5
BC51
330
B87B
100
AcDbEntity
  8
1
  6
Continuous
100
AcDbCircle
 10
602.3180159999998
 20
301.9758589999999
 30
0.0
 40
7.0
100
AcDbArc
 50
225.584691
 51
314.4153089999999
  0
LINE
  5
BC52
330
B87B
100
AcDbEntity
  8
1
  6
Continuous
100
AcDbLine
 10
599.0866580000003
 20
293.1855919999998
 30
0.0
 11
600.691511
 21
293.6527469999999
 31
0.0
  0
LINE
  5
BC53
330
B87B
100
AcDbEntity
  8
1
  6
Continuous
100
AcDbLine
 10
612.3180159999998
 20
296.9758589999999
 30
0.0
 11
594.3242389999998
 21
296.9758589999999
 31
0.0
  0
LINE
  5
BC54
330
B87B
100
AcDbEntity
  8
1
  6
Continuous
100
AcDbLine
 10
612.3180159999998
 20
298.5758589999999
 30
0.0
 11
595.417562
 21
298.5758589999999
 31
0.0
  0
ARC
  5
BC55
330
B87B
100
AcDbEntity
  8
1
  6
Continuous
100
AcDbCircle
 10
599.3661469999998
 20
292.2254429999999
 30
0.0
 40
1.0
100
AcDbArc
 50
106.229697
 51
180.0
  0
LINE
  5
BC56
330
B87B
100
AcDbEntity
  8
1
  6
Continuous
100
AcDbLine
 10
590.3180159999998
 20
294.875859
 30
0.0
 11
592.3242389999997
 21
294.875859
 31
0.0
  0
ARC
  5
BC57
330
B87B
100
AcDbEntity
  8
1
  6
Continuous
100
AcDbCircle
 10
596.036965
 20
295.2088240000001
 30
0.0
 40
3.719983
100
AcDbArc
 50
149.350579
 51
183.579337
  0
LINE
  5
BC58
330
B87B
100
AcDbEntity
  8
1
  6
Continuous
100
AcDbLine
 10
584.000634
 20
291.6258439999999
 30
0.0
 11
589.9353969999999
 21
291.6258439999999
 31
0.0
  0
ARC
  5
BC59
330
B87B
100
AcDbEntity
  8
1
  6
Continuous
100
AcDbCircle
 10
587.926513
 20
293.4008449999998
 30
0.0
 40
4.308498
100
AcDbArc
 50
155.670937
 51
204.3290629999999
  0
ARC
  5
BC5A
330
B87B
100
AcDbEntity
  8
1
  6
Continuous
100
AcDbCircle
 10
586.009518
 20
293.4008449999998
 30
0.0
 40
4.308498
100
AcDbArc
 50
335.6709369999999
 51
24.329063
  0
LINE
  5
BC5B
330
B87B
100
AcDbEntity
  8
1
  6
Continuous
100
AcDbLine
 10
584.000634
 20
295.1758449999999
 30
0.0
 11
589.9353969999999
 21
295.1758449999999
 31
0.0
  0
ARC
  5
BC5C
330
B87B
100
AcDbEntity
  8
1
  6
Continuous
100
AcDbCircle
 10
595.5778679999997
 20
295.9758589999998
 30
0.0
 40
1.0
100
AcDbArc
 50
90.0
 51
204.870163
  0
ARC
  5
BC5D
330
B87B
100
AcDbEntity
  8
1
  6
Continuous
100
AcDbCircle
 10
595.417562
 20
295.5758589999998
 30
0.0
 40
3.0
100
AcDbArc
 50
90.0
 51
149.350579
  0
ARC
  5
BC5E
330
B87B
100
AcDbEntity
  8
1
  6
Continuous
100
AcDbCircle
 10
594.3242389999998
 20
294.9758589999999
 30
0.0
 40
2.0
100
AcDbArc
 50
90.0
 51
179.9792689999999
  0
ARC
  5
BC5F
330
B87B
100
AcDbEntity
  8
1
  6
Continuous
100
AcDbCircle
 10
601.2751289999997
 20
292.1772369999998
 30
0.0
 40
5.0
100
AcDbArc
 50
166.556388
 51
196.4778369999999
  0
ARC
  5
BC60
330
B87B
100
AcDbEntity
  8
1
  6
Continuous
100
AcDbCircle
 10
648.096591
 20
280.9851229999998
 30
0.0
 40
53.140552
100
AcDbArc
 50
162.487492
 51
166.556388
  0
LINE
  5
BC61
330
B87B
100
AcDbEntity
  8
1
  6
Continuous
100
AcDbLine
 10
612.3180159999998
 20
298.5758589999999
 30
0.0
 11
605.648825
 21
298.5758589999999
 31
0.0
  0
LINE
  5
BC62
330
B87B
100
AcDbEntity
  8
1
  6
Continuous
100
AcDbLine
 10
612.3180159999998
 20
298.5758589999999
 30
0.0
 11
612.3180159999998
 21
296.9758589999999
 31
0.0
  0
ARC
  5
BC63
330
B87B
100
AcDbEntity
  8
1
  6
Continuous
100
AcDbCircle
 10
600.971
 20
292.6925979999999
 30
0.0
 40
1.0
100
AcDbArc
 50
7.276194
 51
106.229697
  0
ARC
  5
BC64
330
B87B
100
AcDbEntity
  8
1
  6
Continuous
100
AcDbCircle
 10
605.648825
 20
303.5758589999999
 30
0.0
 40
5.0
100
AcDbArc
 50
215.452152
 51
270.0
  0
ARC
  5
BC65
330
B87B
100
AcDbEntity
  8
1
  6
Continuous
100
AcDbCircle
 10
679.31764
 20
289.9799259999999
 30
0.0
 40
45.0
100
AcDbArc
 50
168.7432389999998
 51
200.458829
  0
ARC
  5
BC66
330
B87B
100
AcDbEntity
  8
1
  6
Continuous
100
AcDbCircle
 10
655.89455
 20
281.24157
 30
0.0
 40
20.0
100
AcDbArc
 50
200.458829
 51
232.0
  0
ARC
  5
BC67
330
B87B
100
AcDbEntity
  8
1
  6
Continuous
100
AcDbCircle
 10
641.5582929999999
 20
297.49536
 30
0.0
 40
6.5
100
AcDbArc
 50
101.003546
 51
168.7432389999998
  0
LINE
  5
BC68
330
B87B
100
AcDbEntity
  8
1
  6
Continuous
100
AcDbLine
 10
600.6676399999999
 20
317.4758589999999
 30
0.0
 11
638.9676399999999
 21
317.4758589999999
 31
0.0
  0
ARC
  5
BC69
330
B87B
100
AcDbEntity
  8
1
  6
Continuous
100
AcDbCircle
 10
607.16764
 20
326.9758589999999
 30
0.0
 40
6.5
100
AcDbArc
 50
90.0
 51
180.0
  0
ARC
  5
BC6A
330
B87B
100
AcDbEntity
  8
1
  6
Continuous
100
AcDbCircle
 10
603.31764
 20
313.6758589999999
 30
0.0
 40
4.0
100
AcDbArc
 50
108.1948719999999
 51
180.0
  0
ARC
  5
BC6B
330
B87B
100
AcDbEntity
  8
1
  6
Continuous
100
AcDbCircle
 10
595.3242389999997
 20
310.5758599999999
 30
0.0
 40
3.0
100
AcDbArc
 50
90.0
 51
180.0
  0
LINE
  5
BC6C
330
B87B
100
AcDbEntity
  8
1
  6
Continuous
100
AcDbLine
 10
598.2735679999998
 20
313.5758599999999
 30
0.0
 11
595.3242389999997
 21
313.5758599999999
 31
0.0
  0
LINE
  5
BC6D
330
B87B
100
AcDbEntity
  8
1
  6
Continuous
100
AcDbLine
 10
600.6676399999999
 20
326.9758589999999
 30
0.0
 11
600.6676399999999
 21
317.4758589999999
 31
0.0
  0
ARC
  5
BC6E
330
B87B
100
AcDbEntity
  8
1
  6
Continuous
100
AcDbCircle
 10
632.4676400000002
 20
326.9758589999999
 30
0.0
 40
6.5
100
AcDbArc
 50
0.0
 51
90.0
  0
ARC
  5
BC6F
330
B87B
100
AcDbEntity
  8
1
  6
Continuous
100
AcDbCircle
 10
636.31764
 20
313.6758589999999
 30
0.0
 40
4.0
100
AcDbArc
 50
0.0
 51
71.80512799999998
  0
LINE
  5
BC70
330
B87B
100
AcDbEntity
  8
1
  6
Continuous
100
AcDbLine
 10
638.9676399999999
 20
326.9758589999999
 30
0.0
 11
638.9676399999999
 21
317.4758589999999
 31
0.0
  0
CIRCLE
  5
BC71
330
B87B
100
AcDbEntity
  8
1
  6
Continuous
100
AcDbCircle
 10
669.81764
 20
277.9758589999999
 30
0.0
 40
3.5
  0
ARC
  5
BC72
330
B87B
100
AcDbEntity
  8
1
  6
Continuous
100
AcDbCircle
 10
612.7263400000003
 20
277.6715239999999
 30
0.0
 40
36.55715
100
AcDbArc
 50
214.142266
 51
227.4417
  0
ARC
  5
BC73
330
B87B
100
AcDbEntity
  8
1
  6
Continuous
100
AcDbCircle
 10
584.362657
 20
258.787121
 30
0.0
 40
2.5
100
AcDbArc
 50
135.609273
 51
220.791983
  0
ARC
  5
BC74
330
B87B
100
AcDbEntity
  8
1
  6
Continuous
100
AcDbCircle
 10
603.651989
 20
246.2609539999998
 30
0.0
 40
25.455174
100
AcDbArc
 50
120.489288
 51
145.8894699999999
  0
ARC
  5
BC75
330
B87B
100
AcDbEntity
  8
1
  6
Continuous
100
AcDbCircle
 10
313.0251539999998
 20
277.6715239999999
 30
0.0
 40
36.55715
100
AcDbArc
 50
312.5582999999999
 51
325.8577339999998
  0
ARC
  5
BC76
330
B87B
100
AcDbEntity
  8
1
  6
Continuous
100
AcDbCircle
 10
322.0995049999999
 20
246.2609539999998
 30
0.0
 40
25.455174
100
AcDbArc
 50
34.11052999999999
 51
59.51071200000002
  0
ARC
  5
BC77
330
B87B
100
AcDbEntity
  8
1
  6
Continuous
100
AcDbCircle
 10
341.3888359999999
 20
258.787121
 30
0.0
 40
2.5
100
AcDbArc
 50
319.208017
 51
44.39072699999999
  0
ENDSEC
  0
SECTION
  2
OBJECTS
  0
DICTIONARY
  5
B869
330
0
100
AcDbDictionary
281
     1
  3
ACAD_CIP_PREVIOUS_PRODUCT_INFO
350
BCD9
  3
ACAD_COLOR
350
BCBB
  3
ACAD_DETAILVIEWSTYLE
350
BCD4
  3
ACAD_GROUP
350
B86A
  3
ACAD_LAYOUT
350
B876
  3
ACAD_MATERIAL
350
BC89
  3
ACAD_MLEADERSTYLE
350
BCD0
  3
ACAD_MLINESTYLE
350
B873
  3
ACAD_PLOTSETTINGS
350
B875
  3
ACAD_PLOTSTYLENAME
350
BC87
  3
ACAD_SCALELIST
350
BCBE
  3
ACAD_SECTIONVIEWSTYLE
350
BCD2
  3
ACAD_TABLESTYLE
350
BCBC
  3
ACAD_VISUALSTYLE
350
BCA2
  3
ACDB_RECOMPOSE_DATA
350
BCF7
  3
AcDbVariableDictionary
350
BCEA
  3
DWGPROPS
350
BCF8
  0
DICTIONARY
  5
BCDA
330
B86D
100
AcDbDictionary
280
     1
281
     1
  3
ADSK_XREC_LAYER_RECONCILED
360
BCDB
  0
DICTIONARY
  5
BCDC
330
B883
100
AcDbDictionary
280
     1
281
     1
  3
ADSK_XREC_LAYER_RECONCILED
360
BCDD
  0
DICTIONARY
  5
BCDE
330
B884
100
AcDbDictionary
280
     1
281
     1
  3
ADSK_XREC_LAYER_RECONCILED
360
BCDF
  0
DICTIONARY
  5
BCE0
330
B885
100
AcDbDictionary
280
     1
281
     1
  3
ADSK_XREC_LAYER_RECONCILED
360
BCE1
  0
DICTIONARY
  5
BCE2
330
B886
100
AcDbDictionary
280
     1
281
     1
  3
ADSK_XREC_LAYER_RECONCILED
360
BCE3
  0
DICTIONARY
  5
BCE4
330
B887
100
AcDbDictionary
280
     1
281
     1
  3
ADSK_XREC_LAYER_RECONCILED
360
BCE5
  0
DICTIONARY
  5
BCE6
330
B888
100
AcDbDictionary
280
     1
281
     1
  3
ADSK_XREC_LAYER_RECONCILED
360
BCE7
  0
DICTIONARY
  5
BCE8
330
B889
100
AcDbDictionary
280
     1
281
     1
  3
ADSK_XREC_LAYER_RECONCILED
360
BCE9
  0
DICTIONARY
  5
BC82
330
B87B
100
AcDbDictionary
281
     1
  3
ACAD_LAYOUTSELFREF
350
BC83
  0
DICTIONARY
  5
BC80
330
B877
100
AcDbDictionary
281
     1
  3
ACAD_LAYOUTSELFREF
350
BC81
  0
XRECORD
  5
BCD9
102
{ACAD_REACTORS
330
B869
102
}
330
B869
100
AcDbXrecord
280
     1
300
ACDLT
300
2014
300
ACDLT_F_S
  0
DICTIONARY
  5
BCBB
102
{ACAD_REACTORS
330
B869
102
}
330
B869
100
AcDbDictionary
281
     1
  0
DICTIONARY
  5
BCD4
102
{ACAD_REACTORS
330
B869
102
}
330
B869
100
AcDbDictionary
281
     1
  3
Imperial24
350
BCD5
  0
DICTIONARY
  5
B86A
102
{ACAD_REACTORS
330
B869
102
}
330
B869
100
AcDbDictionary
281
     1
  0
DICTIONARY
  5
B876
102
{ACAD_REACTORS
330
B869
102
}
330
B869
100
AcDbDictionary
281
     1
  3
Model
350
BCD6
  3
レイアウト1
350
BCD7
  0
DICTIONARY
  5
BC89
102
{ACAD_REACTORS
330
B869
102
}
330
B869
100
AcDbDictionary
281
     1
  3
ByBlock
350
BC92
  3
ByLayer
350
BC8A
  3
Global
350
BC9A
  0
DICTIONARY
  5
BCD0
102
{ACAD_REACTORS
330
B869
102
}
330
B869
100
AcDbDictionary
281
     1
  3
Standard
350
BCD1
  0
DICTIONARY
  5
B873
102
{ACAD_REACTORS
330
B869
102
}
330
B869
100
AcDbDictionary
281
     1
  3
STANDARD
350
B874
  0
DICTIONARY
  5
B875
102
{ACAD_REACTORS
330
B869
102
}
330
B869
100
AcDbDictionary
281
     1
  0
ACDBDICTIONARYWDFLT
  5
BC87
102
{ACAD_REACTORS
330
B869
102
}
330
B869
100
AcDbDictionary
281
     1
  3
Normal
350
BC88
100
AcDbDictionaryWithDefault
340
BC88
  0
DICTIONARY
  5
BCBE
102
{ACAD_REACTORS
330
B869
102
}
330
B869
100
AcDbDictionary
281
     1
  3
A0
350
BCBF
  3
A1
350
BCC0
  3
A2
350
BCC1
  3
A3
350
BCC2
  3
A4
350
BCC3
  3
A5
350
BCC4
  3
A6
350
BCC5
  3
A7
350
BCC6
  3
A8
350
BCC7
  3
A9
350
BCC8
  3
B0
350
BCC9
  3
B1
350
BCCA
  3
B2
350
BCCB
  3
B3
350
BCCC
  3
B4
350
BCCD
  3
B5
350
BCCE
  3
B6
350
BCCF
  0
DICTIONARY
  5
BCD2
102
{ACAD_REACTORS
330
B869
102
}
330
B869
100
AcDbDictionary
281
     1
  3
Imperial24
350
BCD3
  0
DICTIONARY
  5
BCBC
102
{ACAD_REACTORS
330
B869
102
}
330
B869
100
AcDbDictionary
281
     1
  3
Standard
350
BCBD
  0
DICTIONARY
  5
BCA2
102
{ACAD_REACTORS
330
B869
102
}
330
B869
100
AcDbDictionary
281
     1
  3
2dWireframe
350
BCA8
  3
Basic
350
BCA7
  3
Brighten
350
BCAE
  3
ColorChange
350
BCB2
  3
Conceptual
350
BCAB
  3
Dim
350
BCAD
  3
EdgeColorOff
350
BCBA
  3
Facepattern
350
BCB1
  3
Flat
350
BCA3
  3
FlatWithEdges
350
BCA4
  3
Gouraud
350
BCA5
  3
GouraudWithEdges
350
BCA6
  3
Hidden
350
BCAA
  3
JitterOff
350
BCB8
  3
Linepattern
350
BCB0
  3
OverhangOff
350
BCB9
  3
Realistic
350
BCAC
  3
Shaded
350
BCB7
  3
Shaded with edges
350
BCB6
  3
Shades of Gray
350
BCB3
  3
Sketchy
350
BCB4
  3
Thicken
350
BCAF
  3
Wireframe
350
BCA9
  3
X-Ray
350
BCB5
  0
XRECORD
  5
BCF7
102
{ACAD_REACTORS
330
B869
102
}
330
B869
100
AcDbXrecord
280
     1
 90
        1
330
BCBD
  0
DICTIONARY
  5
BCEA
102
{ACAD_REACTORS
330
B869
102
}
330
B869
100
AcDbDictionary
281
     1
  3
CANNOSCALE
350
BCEF
  3
CMLEADERSTYLE
350
BCEC
  3
CTABLESTYLE
350
BCEB
  3
CVIEWDETAILSTYLE
350
BCED
  3
CVIEWSECTIONSTYLE
350
BCEE
  3
DIMASSOC
350
BCF2
  3
INDEXCTL
350
BCF1
  3
SORTENTS
350
BCF0
  3
XCLIPFRAME
350
BCF3
  0
XRECORD
  5
BCF8
102
{ACAD_REACTORS
330
B869
102
}
330
B869
100
AcDbXrecord
280
     1
  1
DWGPROPS COOKIE
  2

  3

  4

  6

  7

  8
Yoshitsune
  9

300
=
301
=
302
=
303
=
304
=
305
=
306
=
307
=
308
=
309
=
 40
0.0000812962962963
 41
2451301.720786458
 42
2457618.724107211
  1

 90
        0
  0
XRECORD
  5
BCDB
102
{ACAD_REACTORS
330
BCDA
102
}
330
BCDA
100
AcDbXrecord
280
     1
290
     1
  0
XRECORD
  5
BCDD
102
{ACAD_REACTORS
330
BCDC
102
}
330
BCDC
100
AcDbXrecord
280
     1
290
     1
  0
XRECORD
  5
BCDF
102
{ACAD_REACTORS
330
BCDE
102
}
330
BCDE
100
AcDbXrecord
280
     1
290
     1
  0
XRECORD
  5
BCE1
102
{ACAD_REACTORS
330
BCE0
102
}
330
BCE0
100
AcDbXrecord
280
     1
290
     1
  0
XRECORD
  5
BCE3
102
{ACAD_REACTORS
330
BCE2
102
}
330
BCE2
100
AcDbXrecord
280
     1
290
     1
  0
XRECORD
  5
BCE5
102
{ACAD_REACTORS
330
BCE4
102
}
330
BCE4
100
AcDbXrecord
280
     1
290
     1
  0
XRECORD
  5
BCE7
102
{ACAD_REACTORS
330
BCE6
102
}
330
BCE6
100
AcDbXrecord
280
     1
290
     1
  0
XRECORD
  5
BCE9
102
{ACAD_REACTORS
330
BCE8
102
}
330
BCE8
100
AcDbXrecord
280
     1
290
     1
  0
XRECORD
  5
BC83
102
{ACAD_REACTORS
330
BC82
102
}
330
BC82
100
AcDbXrecord
280
     1
340
B87B
  0
XRECORD
  5
BC81
102
{ACAD_REACTORS
330
BC80
102
}
330
BC80
100
AcDbXrecord
280
     1
340
B877
  0
ACDBDETAILVIEWSTYLE
  5
BCD5
102
{ACAD_XDICTIONARY
360
BD30
102
}
102
{ACAD_REACTORS
330
BCD4
102
}
330
BCD4
100
AcDbModelDocViewStyle
 70
     0
  3
Imperial24
290
     0
100
AcDbDetailViewStyle
 70
     0
 71
     0
 90
        3
 71
     1
340
B86E
 40
0.24
340
0
 40
0.24
300

 40
0.36
280
     3
 71
     2
340
B872
 90
       25
 71
     3
340
B86E
 40
0.24
 90
        1
 40
0.75
 90
        1
300
%<\AcVar ViewType \f "%tc1">% %<\AcVar ViewDetailId>%\PSCALE %<\AcVar ViewScale \f "%sn">%
 71
     4
340
B872
 90
       25
340
B872
 90
       25
280
     0
  0
LAYOUT
  5
BCD6
102
{ACAD_XDICTIONARY
360
BD32
102
}
102
{ACAD_REACTORS
330
B876
102
}
330
B876
100
AcDbPlotSettings
  1

  2
Canon LBP9100C
  4

  6

 40
0.0
 41
0.0
 42
0.0
 43
0.0
 44
0.0
 45
0.0
 46
0.0
 47
0.0
 48
0.0
 49
0.0
140
0.0
141
0.0
142
1.0
143
1.0
 70
  1712
 72
     0
 73
     0
 74
     0
  7

 75
     0
147
1.0
148
0.0
149
0.0
100
AcDbLayout
  1
Model
 70
     1
 71
     0
 10
0.0
 20
0.0
 11
12.0
 21
9.0
 12
0.0
 22
0.0
 32
0.0
 14
0.0
 24
0.0
 34
0.0
 15
0.0
 25
0.0
 35
0.0
146
0.0
 13
0.0
 23
0.0
 33
0.0
 16
1.0
 26
0.0
 36
0.0
 17
0.0
 27
1.0
 37
0.0
 76
     0
330
B87B
331
BC7F
  0
LAYOUT
  5
BCD7
102
{ACAD_XDICTIONARY
360
BD34
102
}
102
{ACAD_REACTORS
330
B876
102
}
330
B876
100
AcDbPlotSettings
  1

  2
Canon LBP9100C
  4

  6

 40
0.0
 41
0.0
 42
0.0
 43
0.0
 44
0.0
 45
0.0
 46
0.0
 47
0.0
 48
0.0
 49
0.0
140
0.0
141
0.0
142
1.0
143
1.0
 70
   688
 72
     0
 73
     0
 74
     5
  7

 75
    16
147
1.0
148
0.0
149
0.0
100
AcDbLayout
  1
レイアウト1
 70
     0
 71
     1
 10
0.0
 20
0.0
 11
420.0
 21
297.0
 12
0.0
 22
0.0
 32
0.0
 14
1.000000000000000E+20
 24
1.000000000000000E+20
 34
1.000000000000000E+20
 15
-1.000000000000000E+20
 25
-1.000000000000000E+20
 35
-1.000000000000000E+20
146
0.0
 13
0.0
 23
0.0
 33
0.0
 16
1.0
 26
0.0
 36
0.0
 17
0.0
 27
1.0
 37
0.0
 76
     0
330
B877
  0
MATERIAL
  5
BC92
102
{ACAD_XDICTIONARY
360
BC93
102
}
102
{ACAD_REACTORS
330
BC89
102
}
330
BC89
100
AcDbMaterial
  1
ByBlock
 72
     0
 43
0.0208333333333333
 43
0.0
 43
0.0
 43
0.0
 43
0.0
 43
0.0208333333333333
 43
0.0
 43
0.0
 43
0.0
 43
0.0
 43
1.0
 43
0.0
 43
0.0
 43
0.0
 43
0.0
 43
1.0
 77
     0
 47
0.0208333333333333
 47
0.0
 47
0.0
 47
0.0
 47
0.0
 47
0.0208333333333333
 47
0.0
 47
0.0
 47
0.0
 47
0.0
 47
1.0
 47
0.0
 47
0.0
 47
0.0
 47
0.0
 47
1.0
171
     0
 49
0.0208333333333333
 49
0.0
 49
0.0
 49
0.0
 49
0.0
 49
0.0208333333333333
 49
0.0
 49
0.0
 49
0.0
 49
0.0
 49
1.0
 49
0.0
 49
0.0
 49
0.0
 49
0.0
 49
1.0
175
     0
142
0.0208333333333333
142
0.0
142
0.0
142
0.0
142
0.0
142
0.0208333333333333
142
0.0
142
0.0
142
0.0
142
0.0
142
1.0
142
0.0
142
0.0
142
0.0
142
0.0
142
1.0
179
     0
144
0.0208333333333333
144
0.0
144
0.0
144
0.0
144
0.0
144
0.0208333333333333
144
0.0
144
0.0
144
0.0
144
0.0
144
1.0
144
0.0
144
0.0
144
0.0
144
0.0
144
1.0
147
0.0208333333333333
147
0.0
147
0.0
147
0.0
147
0.0
147
0.0208333333333333
147
0.0
147
0.0
147
0.0
147
0.0
147
1.0
147
0.0
147
0.0
147
0.0
147
0.0
147
1.0
  0
MATERIAL
  5
BC8A
102
{ACAD_XDICTIONARY
360
BC8B
102
}
102
{ACAD_REACTORS
330
BC89
102
}
330
BC89
100
AcDbMaterial
  1
ByLayer
 72
     0
 43
0.0208333333333333
 43
0.0
 43
0.0
 43
0.0
 43
0.0
 43
0.0208333333333333
 43
0.0
 43
0.0
 43
0.0
 43
0.0
 43
1.0
 43
0.0
 43
0.0
 43
0.0
 43
0.0
 43
1.0
 77
     0
 47
0.0208333333333333
 47
0.0
 47
0.0
 47
0.0
 47
0.0
 47
0.0208333333333333
 47
0.0
 47
0.0
 47
0.0
 47
0.0
 47
1.0
 47
0.0
 47
0.0
 47
0.0
 47
0.0
 47
1.0
171
     0
 49
0.0208333333333333
 49
0.0
 49
0.0
 49
0.0
 49
0.0
 49
0.0208333333333333
 49
0.0
 49
0.0
 49
0.0
 49
0.0
 49
1.0
 49
0.0
 49
0.0
 49
0.0
 49
0.0
 49
1.0
175
     0
142
0.0208333333333333
142
0.0
142
0.0
142
0.0
142
0.0
142
0.0208333333333333
142
0.0
142
0.0
142
0.0
142
0.0
142
1.0
142
0.0
142
0.0
142
0.0
142
0.0
142
1.0
179
     0
144
0.0208333333333333
144
0.0
144
0.0
144
0.0
144
0.0
144
0.0208333333333333
144
0.0
144
0.0
144
0.0
144
0.0
144
1.0
144
0.0
144
0.0
144
0.0
144
0.0
144
1.0
147
0.0208333333333333
147
0.0
147
0.0
147
0.0
147
0.0
147
0.0208333333333333
147
0.0
147
0.0
147
0.0
147
0.0
147
1.0
147
0.0
147
0.0
147
0.0
147
0.0
147
1.0
  0
MATERIAL
  5
BC9A
102
{ACAD_XDICTIONARY
360
BC9B
102
}
102
{ACAD_REACTORS
330
BC89
102
}
330
BC89
100
AcDbMaterial
  1
Global
 72
     0
 43
0.0208333333333333
 43
0.0
 43
0.0
 43
0.0
 43
0.0
 43
0.0208333333333333
 43
0.0
 43
0.0
 43
0.0
 43
0.0
 43
1.0
 43
0.0
 43
0.0
 43
0.0
 43
0.0
 43
1.0
 77
     0
 47
0.0208333333333333
 47
0.0
 47
0.0
 47
0.0
 47
0.0
 47
0.0208333333333333
 47
0.0
 47
0.0
 47
0.0
 47
0.0
 47
1.0
 47
0.0
 47
0.0
 47
0.0
 47
0.0
 47
1.0
171
     0
 49
0.0208333333333333
 49
0.0
 49
0.0
 49
0.0
 49
0.0
 49
0.0208333333333333
 49
0.0
 49
0.0
 49
0.0
 49
0.0
 49
1.0
 49
0.0
 49
0.0
 49
0.0
 49
0.0
 49
1.0
175
     0
142
0.0208333333333333
142
0.0
142
0.0
142
0.0
142
0.0
142
0.0208333333333333
142
0.0
142
0.0
142
0.0
142
0.0
142
1.0
142
0.0
142
0.0
142
0.0
142
0.0
142
1.0
179
     0
144
0.0208333333333333
144
0.0
144
0.0
144
0.0
144
0.0
144
0.0208333333333333
144
0.0
144
0.0
144
0.0
144
0.0
144
1.0
144
0.0
144
0.0
144
0.0
144
0.0
144
1.0
147
0.0208333333333333
147
0.0
147
0.0
147
0.0
147
0.0
147
0.0208333333333333
147
0.0
147
0.0
147
0.0
147
0.0
147
1.0
147
0.0
147
0.0
147
0.0
147
0.0
147
1.0
  0
MLEADERSTYLE
  5
BCD1
102
{ACAD_REACTORS
330
BCD0
102
}
330
BCD0
100
AcDbMLeaderStyle
170
     2
171
     1
172
     0
 90
        2
 40
0.0
 41
0.0
173
     1
 91
-1056964608
340
B870
 92
       -2
290
     1
 42
0.09
291
     1
 43
0.36
  3
Standard
 44
0.18
300

342
B86E
174
     1
178
     6
175
     1
176
     0
 93
-1056964608
 45
0.18
292
     0
297
     0
 46
0.18
 94
-1056964608
 47
1.0
 49
1.0
140
1.0
293
     1
141
0.0
294
     1
177
     0
142
1.0
295
     0
296
     0
143
0.125
1001
ACAD_MLEADERVER
1070
     2
  0
MLINESTYLE
  5
B874
102
{ACAD_REACTORS
330
B873
102
}
330
B873
100
AcDbMlineStyle
  2
STANDARD
 70
     0
  3

 62
   256
 51
90.0
 52
90.0
 71
     2
 49
0.5
 62
   256
  6
BYLAYER
 49
-0.5
 62
   256
  6
BYLAYER
  0
ACDBPLACEHOLDER
  5
BC88
102
{ACAD_REACTORS
330
BC87
102
}
330
BC87
  0
SCALE
  5
BCBF
102
{ACAD_REACTORS
330
BCBE
102
}
330
BCBE
100
AcDbScale
 70
     0
300
1:1
140
1.0
141
1.0
290
     1
  0
SCALE
  5
BCC0
102
{ACAD_REACTORS
330
BCBE
102
}
330
BCBE
100
AcDbScale
 70
     0
300
1/128" = 1'-0"
140
0.0078125
141
12.0
290
     0
  0
SCALE
  5
BCC1
102
{ACAD_REACTORS
330
BCBE
102
}
330
BCBE
100
AcDbScale
 70
     0
300
1/64" = 1'-0"
140
0.015625
141
12.0
290
     0
  0
SCALE
  5
BCC2
102
{ACAD_REACTORS
330
BCBE
102
}
330
BCBE
100
AcDbScale
 70
     0
300
1/32" = 1'-0"
140
0.03125
141
12.0
290
     0
  0
SCALE
  5
BCC3
102
{ACAD_REACTORS
330
BCBE
102
}
330
BCBE
100
AcDbScale
 70
     0
300
1/16" = 1'-0"
140
0.0625
141
12.0
290
     0
  0
SCALE
  5
BCC4
102
{ACAD_REACTORS
330
BCBE
102
}
330
BCBE
100
AcDbScale
 70
     0
300
3/32" = 1'-0"
140
0.09375
141
12.0
290
     0
  0
SCALE
  5
BCC5
102
{ACAD_REACTORS
330
BCBE
102
}
330
BCBE
100
AcDbScale
 70
     0
300
1/8" = 1'-0"
140
0.125
141
12.0
290
     0
  0
SCALE
  5
BCC6
102
{ACAD_REACTORS
330
BCBE
102
}
330
BCBE
100
AcDbScale
 70
     0
300
3/16" = 1'-0"
140
0.1875
141
12.0
290
     0
  0
SCALE
  5
BCC7
102
{ACAD_REACTORS
330
BCBE
102
}
330
BCBE
100
AcDbScale
 70
     0
300
1/4" = 1'-0"
140
0.25
141
12.0
290
     0
  0
SCALE
  5
BCC8
102
{ACAD_REACTORS
330
BCBE
102
}
330
BCBE
100
AcDbScale
 70
     0
300
3/8" = 1'-0"
140
0.375
141
12.0
290
     0
  0
SCALE
  5
BCC9
102
{ACAD_REACTORS
330
BCBE
102
}
330
BCBE
100
AcDbScale
 70
     0
300
1/2" = 1'-0"
140
0.5
141
12.0
290
     0
  0
SCALE
  5
BCCA
102
{ACAD_REACTORS
330
BCBE
102
}
330
BCBE
100
AcDbScale
 70
     0
300
3/4" = 1'-0"
140
0.75
141
12.0
290
     0
  0
SCALE
  5
BCCB
102
{ACAD_REACTORS
330
BCBE
102
}
330
BCBE
100
AcDbScale
 70
     0
300
1" = 1'-0"
140
1.0
141
12.0
290
     0
  0
SCALE
  5
BCCC
102
{ACAD_REACTORS
330
BCBE
102
}
330
BCBE
100
AcDbScale
 70
     0
300
1-1/2" = 1'-0"
140
1.5
141
12.0
290
     0
  0
SCALE
  5
BCCD
102
{ACAD_REACTORS
330
BCBE
102
}
330
BCBE
100
AcDbScale
 70
     0
300
3" = 1'-0"
140
3.0
141
12.0
290
     0
  0
SCALE
  5
BCCE
102
{ACAD_REACTORS
330
BCBE
102
}
330
BCBE
100
AcDbScale
 70
     0
300
6" = 1'-0"
140
6.0
141
12.0
290
     0
  0
SCALE
  5
BCCF
102
{ACAD_REACTORS
330
BCBE
102
}
330
BCBE
100
AcDbScale
 70
     0
300
1'-0" = 1'-0"
140
12.0
141
12.0
290
     0
  0
ACDBSECTIONVIEWSTYLE
  5
BCD3
102
{ACAD_XDICTIONARY
360
BD2E
102
}
102
{ACAD_REACTORS
330
BCD2
102
}
330
BCD2
100
AcDbModelDocViewStyle
 70
     0
  3
Imperial24
290
     0
100
AcDbSectionViewStyle
 70
     0
 71
     0
 90
       78
 71
     1
340
B86E
 40
0.24
340
0
340
0
 40
0.24
300
I, O, Q, S, X, Z
 40
0.48
 90
        3
 40
0.18
 90
        1
 71
     2
340
B872
 90
       25
340
B872
 90
       50
 40
0.24
 40
0.0
 40
0.24
 71
     3
340
B86E
 40
0.24
 90
        1
 40
0.75
 90
        1
300
%<\AcVar ViewType \f "%tc1">% %<\AcVar ViewSectionStartId>%-%<\AcVar ViewSectionEndId>%\PSCALE %<\AcVar ViewScale \f "%sn">%
 71
     4
300
ANSI31
 40
1.0
 90
        0
290
     0
290
     0
 90
        6
 40
0.0
 40
1.570796326794896
 40
0.2617993877991494
 40
1.308996938995747
 40
-0.2617993877991494
 40
1.832595714594046
  0
TABLESTYLE
  5
BCBD
102
{ACAD_XDICTIONARY
360
BCF5
102
}
102
{ACAD_REACTORS
330
BCBC
102
}
330
BCBC
100
AcDbTableStyle
  3
Standard
 70
     0
 71
     0
 40
0.06
 41
0.06
280
     0
281
     0
  7
STANDARD
140
0.18
170
     2
 62
     0
 63
     7
283
     0
274
    -2
284
     1
 64
     0
275
    -2
285
     1
 65
     0
276
    -2
286
     1
 66
     0
277
    -2
287
     1
 67
     0
278
    -2
288
     1
 68
     0
279
    -2
289
     1
 69
     0
  7
STANDARD
140
0.25
170
     5
 62
     0
 63
     7
283
     0
274
    -2
284
     1
 64
     0
275
    -2
285
     1
 65
     0
276
    -2
286
     1
 66
     0
277
    -2
287
     1
 67
     0
278
    -2
288
     1
 68
     0
279
    -2
289
     1
 69
     0
  7
STANDARD
140
0.18
170
     5
 62
     0
 63
     7
283
     0
274
    -2
284
     1
 64
     0
275
    -2
285
     1
 65
     0
276
    -2
286
     1
 66
     0
277
    -2
287
     1
 67
     0
278
    -2
288
     1
 68
     0
279
    -2
289
     1
 69
     0
  0
VISUALSTYLE
  5
BCA8
102
{ACAD_XDICTIONARY
360
BD06
102
}
102
{ACAD_REACTORS
330
BCA2
102
}
330
BCA2
100
AcDbVisualStyle
  2
2dWireframe
 70
     4
 71
     0
 72
     2
 73
     0
 90
        0
 40
-0.6
 41
-30.0
 62
     5
 63
     7
 74
     1
 91
        4
 64
     7
 65
   257
 75
     1
175
     1
 42
1.0
 92
        0
 66
   257
 43
1.0
 76
     1
 77
     6
 78
     2
 67
     7
 79
     5
170
     0
171
     0
290
     0
174
     0
 93
        1
 44
0.0
173
     0
291
     0
 45
0.0
1001
ACAD
1000
AcDbSavedByObjectVersion
1070
     0
  0
VISUALSTYLE
  5
BCA7
102
{ACAD_XDICTIONARY
360
BD04
102
}
102
{ACAD_REACTORS
330
BCA2
102
}
330
BCA2
100
AcDbVisualStyle
  2
Basic
 70
     7
 71
     1
 72
     0
 73
     1
 90
        0
 40
-0.6
 41
-30.0
 62
     5
 63
     7
 74
     0
 91
        4
 64
     7
 65
   257
 75
     1
175
     1
 42
1.0
 92
        8
 66
     7
 43
1.0
 76
     1
 77
     6
 78
     2
 67
     7
 79
     5
170
     0
171
     0
290
     0
174
     0
 93
        1
 44
0.0
173
     0
291
     1
 45
0.0
1001
ACAD
1000
AcDbSavedByObjectVersion
1070
     0
  0
VISUALSTYLE
  5
BCAE
102
{ACAD_XDICTIONARY
360
BD12
102
}
102
{ACAD_REACTORS
330
BCA2
102
}
330
BCA2
100
AcDbVisualStyle
  2
Brighten
 70
    12
 71
     2
 72
     2
 73
     0
 90
        0
 40
-0.6
 41
-30.0
 62
     5
 63
     7
 74
     1
 91
        4
 64
     7
 65
   257
 75
     1
175
     1
 42
1.0
 92
        8
 66
     7
 43
1.0
 76
     1
 77
     6
 78
     2
 67
     7
 79
     5
170
     0
171
     0
290
     0
174
     0
 93
        1
 44
50.0
173
     0
291
     1
 45
0.0
1001
ACAD
1000
AcDbSavedByObjectVersion
1070
     0
  0
VISUALSTYLE
  5
BCB2
102
{ACAD_XDICTIONARY
360
BD1A
102
}
102
{ACAD_REACTORS
330
BCA2
102
}
330
BCA2
100
AcDbVisualStyle
  2
ColorChange
 70
    16
 71
     2
 72
     2
 73
     3
 90
        0
 40
-0.6
 41
-30.0
 62
     5
 63
     8
 74
     1
 91
        4
 64
     7
 65
   257
 75
     1
175
     1
 42
1.0
 92
        8
 66
     8
 43
1.0
 76
     1
 77
     6
 78
     2
 67
     7
 79
     5
170
     0
171
     0
290
     0
174
     0
 93
        1
 44
0.0
173
     0
291
     1
 45
0.0
1001
ACAD
1000
AcDbSavedByObjectVersion
1070
     0
  0
VISUALSTYLE
  5
BCAB
102
{ACAD_XDICTIONARY
360
BD0C
102
}
102
{ACAD_REACTORS
330
BCA2
102
}
330
BCA2
100
AcDbVisualStyle
  2
Conceptual
 70
     9
 71
     3
 72
     2
 73
     0
 90
        0
 40
-0.6
 41
-30.0
 62
     5
 63
     7
 74
     2
 91
        2
 64
     7
 65
   257
 75
     1
175
     1
 42
179.0
 92
        8
 66
     7
 43
1.0
 76
     1
 77
     6
 78
     2
 67
     7
 79
     3
170
     0
171
     0
290
     0
174
     0
 93
        1
 44
0.0
173
     0
291
     0
 45
0.0
1001
ACAD
1000
AcDbSavedByObjectVersion
1070
     0
  0
VISUALSTYLE
  5
BCAD
102
{ACAD_XDICTIONARY
360
BD10
102
}
102
{ACAD_REACTORS
330
BCA2
102
}
330
BCA2
100
AcDbVisualStyle
  2
Dim
 70
    11
 71
     2
 72
     2
 73
     0
 90
        0
 40
-0.6
 41
-30.0
 62
     5
 63
     7
 74
     1
 91
        4
 64
     7
 65
   257
 75
     1
175
     1
 42
1.0
 92
        8
 66
     7
 43
1.0
 76
     1
 77
     6
 78
     2
 67
     7
 79
     5
170
     0
171
     0
290
     0
174
     0
 93
        1
 44
-50.0
173
     0
291
     1
 45
0.0
1001
ACAD
1000
AcDbSavedByObjectVersion
1070
     0
  0
VISUALSTYLE
  5
BCBA
102
{ACAD_XDICTIONARY
360
BD2A
102
}
102
{ACAD_REACTORS
330
BCA2
102
}
330
BCA2
100
AcDbVisualStyle
  2
EdgeColorOff
 70
    22
 71
     2
 72
     2
 73
     0
 90
        0
 40
-0.6
 41
-30.0
 62
     5
 63
     7
 74
     1
 91
        4
 64
     7
 65
   257
 75
     1
175
     1
 42
1.0
 92
        8
 66
     7
 43
1.0
 76
     1
 77
     6
 78
     2
 67
     7
 79
     5
170
     0
171
     0
290
     0
174
     0
 93
        1
 44
0.0
173
     0
291
     1
 45
0.0
1001
ACAD
1000
AcDbSavedByObjectVersion
1070
     0
  0
VISUALSTYLE
  5
BCB1
102
{ACAD_XDICTIONARY
360
BD18
102
}
102
{ACAD_REACTORS
330
BCA2
102
}
330
BCA2
100
AcDbVisualStyle
  2
Facepattern
 70
    15
 71
     2
 72
     2
 73
     0
 90
        0
 40
-0.6
 41
-30.0
 62
     5
 63
     7
 74
     1
 91
        4
 64
     7
 65
   257
 75
     1
175
     1
 42
1.0
 92
        8
 66
     7
 43
1.0
 76
     1
 77
     6
 78
     2
 67
     7
 79
     5
170
     0
171
     0
290
     0
174
     0
 93
        1
 44
0.0
173
     0
291
     1
 45
0.0
1001
ACAD
1000
AcDbSavedByObjectVersion
1070
     0
  0
VISUALSTYLE
  5
BCA3
102
{ACAD_XDICTIONARY
360
BCFC
102
}
102
{ACAD_REACTORS
330
BCA2
102
}
330
BCA2
100
AcDbVisualStyle
  2
Flat
 70
     0
 71
     2
 72
     1
 73
     1
 90
        2
 40
-0.6
 41
30.0
 62
     5
 63
     7
 74
     0
 91
        0
 64
     7
 65
   257
 75
     1
175
     1
 42
1.0
 92
        8
 66
     7
 43
1.0
 76
     1
 77
     6
 78
     2
 67
     7
 79
     5
170
     0
171
     0
290
     0
174
     0
 93
       13
 44
0.0
173
     0
291
     1
 45
0.0
1001
ACAD
1000
AcDbSavedByObjectVersion
1070
     0
  0
VISUALSTYLE
  5
BCA4
102
{ACAD_XDICTIONARY
360
BCFE
102
}
102
{ACAD_REACTORS
330
BCA2
102
}
330
BCA2
100
AcDbVisualStyle
  2
FlatWithEdges
 70
     1
 71
     2
 72
     1
 73
     1
 90
        2
 40
-0.6
 41
30.0
 62
     5
 63
     7
 74
     1
 91
        0
 64
     7
 65
   257
 75
     1
175
     1
 42
1.0
 92
        0
 66
   257
 43
1.0
 76
     1
 77
     6
 78
     2
 67
     7
 79
     5
170
     0
171
     0
290
     0
174
     0
 93
       13
 44
0.0
173
     0
291
     1
 45
0.0
1001
ACAD
1000
AcDbSavedByObjectVersion
1070
     0
  0
VISUALSTYLE
  5
BCA5
102
{ACAD_XDICTIONARY
360
BD00
102
}
102
{ACAD_REACTORS
330
BCA2
102
}
330
BCA2
100
AcDbVisualStyle
  2
Gouraud
 70
     2
 71
     2
 72
     2
 73
     1
 90
        2
 40
-0.6
 41
30.0
 62
     5
 63
     7
 74
     0
 91
        0
 64
     7
 65
   257
 75
     1
175
     1
 42
1.0
 92
        0
 66
     7
 43
1.0
 76
     1
 77
     6
 78
     2
 67
     7
 79
     5
170
     0
171
     0
290
     0
174
     0
 93
       13
 44
0.0
173
     0
291
     1
 45
0.0
1001
ACAD
1000
AcDbSavedByObjectVersion
1070
     0
  0
VISUALSTYLE
  5
BCA6
102
{ACAD_XDICTIONARY
360
BD02
102
}
102
{ACAD_REACTORS
330
BCA2
102
}
330
BCA2
100
AcDbVisualStyle
  2
GouraudWithEdges
 70
     3
 71
     2
 72
     2
 73
     1
 90
        2
 40
-0.6
 41
30.0
 62
     5
 63
     7
 74
     1
 91
        0
 64
     7
 65
   257
 75
     1
175
     1
 42
1.0
 92
        0
 66
   257
 43
1.0
 76
     1
 77
     6
 78
     2
 67
     7
 79
     5
170
     0
171
     0
290
     0
174
     0
 93
       13
 44
0.0
173
     0
291
     1
 45
0.0
1001
ACAD
1000
AcDbSavedByObjectVersion
1070
     0
  0
VISUALSTYLE
  5
BCAA
102
{ACAD_XDICTIONARY
360
BD0A
102
}
102
{ACAD_REACTORS
330
BCA2
102
}
330
BCA2
100
AcDbVisualStyle
  2
Hidden
 70
     6
 71
     1
 72
     2
 73
     2
 90
        0
 40
-0.6
 41
-30.0
 62
     5
 63
     7
 74
     2
 91
        2
 64
     7
 65
   257
 75
     2
175
     1
 42
40.0
 92
        0
 66
   257
 43
1.0
 76
     1
 77
     6
 78
     2
 67
     7
 79
     3
170
     0
171
     0
290
     0
174
     0
 93
        1
 44
0.0
173
     0
291
     0
 45
0.0
1001
ACAD
1000
AcDbSavedByObjectVersion
1070
     0
  0
VISUALSTYLE
  5
BCB8
102
{ACAD_XDICTIONARY
360
BD26
102
}
102
{ACAD_REACTORS
330
BCA2
102
}
330
BCA2
100
AcDbVisualStyle
  2
JitterOff
 70
    20
 71
     2
 72
     2
 73
     0
 90
        0
 40
-0.6
 41
-30.0
 62
     5
 63
     7
 74
     1
 91
        4
 64
     7
 65
   257
 75
     1
175
     1
 42
1.0
 92
       10
 66
     7
 43
1.0
 76
     1
 77
     6
 78
     2
 67
     7
 79
     5
170
     0
171
     0
290
     0
174
     0
 93
        1
 44
0.0
173
     0
291
     1
 45
0.0
1001
ACAD
1000
AcDbSavedByObjectVersion
1070
     0
  0
VISUALSTYLE
  5
BCB0
102
{ACAD_XDICTIONARY
360
BD16
102
}
102
{ACAD_REACTORS
330
BCA2
102
}
330
BCA2
100
AcDbVisualStyle
  2
Linepattern
 70
    14
 71
     2
 72
     2
 73
     0
 90
        0
 40
-0.6
 41
-30.0
 62
     5
 63
     7
 74
     1
 91
        4
 64
     7
 65
   257
 75
     7
175
     7
 42
1.0
 92
        8
 66
     7
 43
1.0
 76
     1
 77
     6
 78
     2
 67
     7
 79
     5
170
     0
171
     0
290
     0
174
     0
 93
        1
 44
0.0
173
     0
291
     1
 45
0.0
1001
ACAD
1000
AcDbSavedByObjectVersion
1070
     0
  0
VISUALSTYLE
  5
BCB9
102
{ACAD_XDICTIONARY
360
BD28
102
}
102
{ACAD_REACTORS
330
BCA2
102
}
330
BCA2
100
AcDbVisualStyle
  2
OverhangOff
 70
    21
 71
     2
 72
     2
 73
     0
 90
        0
 40
-0.6
 41
-30.0
 62
     5
 63
     7
 74
     1
 91
        4
 64
     7
 65
   257
 75
     1
175
     1
 42
1.0
 92
        9
 66
     7
 43
1.0
 76
     1
 77
     6
 78
     2
 67
     7
 79
     5
170
     0
171
     0
290
     0
174
     0
 93
        1
 44
0.0
173
     0
291
     1
 45
0.0
1001
ACAD
1000
AcDbSavedByObjectVersion
1070
     0
  0
VISUALSTYLE
  5
BCAC
102
{ACAD_XDICTIONARY
360
BD0E
102
}
102
{ACAD_REACTORS
330
BCA2
102
}
330
BCA2
100
AcDbVisualStyle
  2
Realistic
 70
     8
 71
     2
 72
     3
 73
     0
 90
        2
 40
-0.6
 41
30.0
 62
     5
 63
     7
 74
     0
 91
        0
 64
     7
 65
   257
 75
     1
175
     1
 42
1.0
 92
        8
 66
   257
 43
1.0
 76
     1
 77
     6
 78
     2
 67
     7
 79
     3
170
     0
171
     0
290
     0
174
     0
 93
       13
 44
0.0
173
     0
291
     0
 45
0.0
1001
ACAD
1000
AcDbSavedByObjectVersion
1070
     0
  0
VISUALSTYLE
  5
BCB7
102
{ACAD_XDICTIONARY
360
BD24
102
}
102
{ACAD_REACTORS
330
BCA2
102
}
330
BCA2
100
AcDbVisualStyle
  2
Shaded
 70
    27
 71
     2
 72
     2
 73
     1
 90
        2
 40
-0.6
 41
30.0
 62
     5
 63
     7
 74
     0
 91
        4
 64
     7
 65
   257
 75
     1
175
     1
 42
1.0
 92
        8
 66
   257
 43
1.0
 76
     1
 77
     6
 78
     2
 67
     8
 79
     3
170
     0
171
     0
290
     0
174
     0
 93
        5
 44
0.0
173
     0
291
     0
 45
0.0
1001
ACAD
1000
AcDbSavedByObjectVersion
1070
     0
  0
VISUALSTYLE
  5
BCB6
102
{ACAD_XDICTIONARY
360
BD22
102
}
102
{ACAD_REACTORS
330
BCA2
102
}
330
BCA2
100
AcDbVisualStyle
  2
Shaded with edges
 70
    26
 71
     2
 72
     2
 73
     1
 90
        2
 40
-0.6
 41
30.0
 62
     5
 63
     7
 74
     1
 91
       10
 64
     7
 65
   257
 75
     2
175
     1
 42
1.0
 92
        8
 66
   257
 43
1.0
 76
     1
 77
     6
 78
     2
 67
     7
 79
     3
170
     0
171
     0
290
     0
174
     0
 93
        5
 44
0.0
173
     0
291
     0
 45
0.0
1001
ACAD
1000
AcDbSavedByObjectVersion
1070
     0
  0
VISUALSTYLE
  5
BCB3
102
{ACAD_XDICTIONARY
360
BD1C
102
}
102
{ACAD_REACTORS
330
BCA2
102
}
330
BCA2
100
AcDbVisualStyle
  2
Shades of Gray
 70
    23
 71
     2
 72
     2
 73
     3
 90
        0
 40
-0.6
 41
-30.0
 62
     5
 63
     7
 74
     2
 91
        2
 64
     7
 65
     7
 75
     1
175
     1
 42
40.0
 92
        8
 66
     7
 43
1.0
 76
     1
 77
     6
 78
     2
 67
     7
 79
     3
170
     0
171
     0
290
     0
174
     0
 93
        1
 44
0.0
173
     0
291
     0
 45
0.0
1001
ACAD
1000
AcDbSavedByObjectVersion
1070
     0
  0
VISUALSTYLE
  5
BCB4
102
{ACAD_XDICTIONARY
360
BD1E
102
}
102
{ACAD_REACTORS
330
BCA2
102
}
330
BCA2
100
AcDbVisualStyle
  2
Sketchy
 70
    24
 71
     1
 72
     2
 73
     2
 90
        0
 40
-0.6
 41
-30.0
 62
     5
 63
     7
 74
     2
 91
        2
 64
     7
 65
     7
 75
     1
175
     1
 42
40.0
 92
       11
 66
     7
 43
1.0
 76
     1
 77
     6
 78
     2
 67
     7
 79
     6
170
     0
171
     0
290
     0
174
     0
 93
        1
 44
0.0
173
     0
291
     0
 45
0.0
1001
ACAD
1000
AcDbSavedByObjectVersion
1070
     0
  0
VISUALSTYLE
  5
BCAF
102
{ACAD_XDICTIONARY
360
BD14
102
}
102
{ACAD_REACTORS
330
BCA2
102
}
330
BCA2
100
AcDbVisualStyle
  2
Thicken
 70
    13
 71
     2
 72
     2
 73
     0
 90
        0
 40
-0.6
 41
-30.0
 62
     5
 63
     7
 74
     1
 91
        4
 64
     7
 65
   257
 75
     1
175
     1
 42
1.0
 92
       12
 66
     7
 43
1.0
 76
     1
 77
     6
 78
     2
 67
     7
 79
     5
170
     0
171
     0
290
     0
174
     0
 93
        1
 44
0.0
173
     0
291
     1
 45
0.0
1001
ACAD
1000
AcDbSavedByObjectVersion
1070
     0
  0
VISUALSTYLE
  5
BCA9
102
{ACAD_XDICTIONARY
360
BD08
102
}
102
{ACAD_REACTORS
330
BCA2
102
}
330
BCA2
100
AcDbVisualStyle
  2
Wireframe
 70
     5
 71
     0
 72
     2
 73
     0
 90
        0
 40
-0.6
 41
-30.0
 62
     5
 63
     7
 74
     1
 91
        4
 64
     7
 65
   257
 75
     1
175
     1
 42
1.0
 92
        0
 66
   257
 43
1.0
 76
     1
 77
     6
 78
     2
 67
     7
 79
     3
170
     0
171
     0
290
     0
174
     0
 93
        1
 44
0.0
173
     0
291
     0
 45
0.0
1001
ACAD
1000
AcDbSavedByObjectVersion
1070
     0
  0
VISUALSTYLE
  5
BCB5
102
{ACAD_XDICTIONARY
360
BD20
102
}
102
{ACAD_REACTORS
330
BCA2
102
}
330
BCA2
100
AcDbVisualStyle
  2
X-Ray
 70
    25
 71
     2
 72
     2
 73
     1
 90
        1
 40
0.5
 41
-30.0
 62
     5
 63
     7
 74
     1
 91
        0
 64
     7
 65
   257
 75
     1
175
     1
 42
1.0
 92
        8
 66
     7
 43
1.0
 76
     1
 77
     6
 78
     2
 67
     7
 79
     3
170
     0
171
     0
290
     0
174
     0
 93
       13
 44
0.0
173
     0
291
     0
 45
0.0
1001
ACAD
1000
AcDbSavedByObjectVersion
1070
     0
  0
DICTIONARYVAR
  5
BCEF
102
{ACAD_REACTORS
330
BCEA
102
}
330
BCEA
100
DictionaryVariables
280
     0
  1
1:1
  0
DICTIONARYVAR
  5
BCEC
102
{ACAD_REACTORS
330
BCEA
102
}
330
BCEA
100
DictionaryVariables
280
     0
  1
STANDARD
  0
DICTIONARYVAR
  5
BCEB
102
{ACAD_REACTORS
330
BCEA
102
}
330
BCEA
100
DictionaryVariables
280
     0
  1
STANDARD
  0
DICTIONARYVAR
  5
BCED
102
{ACAD_REACTORS
330
BCEA
102
}
330
BCEA
100
DictionaryVariables
280
     0
  1
Imperial24
  0
DICTIONARYVAR
  5
BCEE
102
{ACAD_REACTORS
330
BCEA
102
}
330
BCEA
100
DictionaryVariables
280
     0
  1
Imperial24
  0
DICTIONARYVAR
  5
BCF2
102
{ACAD_REACTORS
330
BCEA
102
}
330
BCEA
100
DictionaryVariables
280
     0
  1
1
  0
DICTIONARYVAR
  5
BCF1
102
{ACAD_REACTORS
330
BCEA
102
}
330
BCEA
100
DictionaryVariables
280
     0
  1
0
  0
DICTIONARYVAR
  5
BCF0
102
{ACAD_REACTORS
330
BCEA
102
}
330
BCEA
100
DictionaryVariables
280
     0
  1
127
  0
DICTIONARYVAR
  5
BCF3
102
{ACAD_REACTORS
330
BCEA
102
}
330
BCEA
100
DictionaryVariables
280
     0
  1
2
  0
DICTIONARY
  5
BD30
330
BCD5
100
AcDbDictionary
280
     1
281
     1
  3
ACAD_XREC_ROUNDTRIP
360
BD31
  0
DICTIONARY
  5
BD32
330
BCD6
100
AcDbDictionary
280
     1
281
     1
  3
ACAD_XREC_ROUNDTRIP
360
BD33
  0
DICTIONARY
  5
BD34
330
BCD7
100
AcDbDictionary
280
     1
281
     1
  3
ACAD_XREC_ROUNDTRIP
360
BD35
  0
DICTIONARY
  5
BC93
330
BC92
100
AcDbDictionary
280
     1
281
     1
  3
ACAD_XREC_ROUNDTRIP
360
BCFA
  3
BUMPTILE
360
BC95
  3
DIFFUSETILE
360
BC94
  3
OPACITYTILE
360
BC98
  3
REFLECTIONTILE
360
BC97
  3
REFRACTIONTILE
360
BC99
  3
SPECULARTILE
360
BC96
  0
DICTIONARY
  5
BC8B
330
BC8A
100
AcDbDictionary
280
     1
281
     1
  3
ACAD_XREC_ROUNDTRIP
360
BCF9
  3
BUMPTILE
360
BC8D
  3
DIFFUSETILE
360
BC8C
  3
OPACITYTILE
360
BC90
  3
REFLECTIONTILE
360
BC8F
  3
REFRACTIONTILE
360
BC91
  3
SPECULARTILE
360
BC8E
  0
DICTIONARY
  5
BC9B
330
BC9A
100
AcDbDictionary
280
     1
281
     1
  3
ACAD_XREC_ROUNDTRIP
360
BCFB
  3
BUMPTILE
360
BC9D
  3
DIFFUSETILE
360
BC9C
  3
OPACITYTILE
360
BCA0
  3
REFLECTIONTILE
360
BC9F
  3
REFRACTIONTILE
360
BCA1
  3
SPECULARTILE
360
BC9E
  0
DICTIONARY
  5
BD2E
330
BCD3
100
AcDbDictionary
280
     1
281
     1
  3
ACAD_XREC_ROUNDTRIP
360
BD2F
  0
DICTIONARY
  5
BCF5
330
BCBD
100
AcDbDictionary
280
     1
281
     1
  3
ACAD_ROUNDTRIP_2008_TABLESTYLE_CELLSTYLEMAP
360
BCF6
  3
ACAD_XREC_ROUNDTRIP
360
BD2C
  0
DICTIONARY
  5
BD06
330
BCA8
100
AcDbDictionary
280
     1
281
     1
  3
ACAD_XREC_ROUNDTRIP
360
BD07
  0
DICTIONARY
  5
BD04
330
BCA7
100
AcDbDictionary
280
     1
281
     1
  3
ACAD_XREC_ROUNDTRIP
360
BD05
  0
DICTIONARY
  5
BD12
330
BCAE
100
AcDbDictionary
280
     1
281
     1
  3
ACAD_XREC_ROUNDTRIP
360
BD13
  0
DICTIONARY
  5
BD1A
330
BCB2
100
AcDbDictionary
280
     1
281
     1
  3
ACAD_XREC_ROUNDTRIP
360
BD1B
  0
DICTIONARY
  5
BD0C
330
BCAB
100
AcDbDictionary
280
     1
281
     1
  3
ACAD_XREC_ROUNDTRIP
360
BD0D
  0
DICTIONARY
  5
BD10
330
BCAD
100
AcDbDictionary
280
     1
281
     1
  3
ACAD_XREC_ROUNDTRIP
360
BD11
  0
DICTIONARY
  5
BD2A
330
BCBA
100
AcDbDictionary
280
     1
281
     1
  3
ACAD_XREC_ROUNDTRIP
360
BD2B
  0
DICTIONARY
  5
BD18
330
BCB1
100
AcDbDictionary
280
     1
281
     1
  3
ACAD_XREC_ROUNDTRIP
360
BD19
  0
DICTIONARY
  5
BCFC
330
BCA3
100
AcDbDictionary
280
     1
281
     1
  3
ACAD_XREC_ROUNDTRIP
360
BCFD
  0
DICTIONARY
  5
BCFE
330
BCA4
100
AcDbDictionary
280
     1
281
     1
  3
ACAD_XREC_ROUNDTRIP
360
BCFF
  0
DICTIONARY
  5
BD00
330
BCA5
100
AcDbDictionary
280
     1
281
     1
  3
ACAD_XREC_ROUNDTRIP
360
BD01
  0
DICTIONARY
  5
BD02
330
BCA6
100
AcDbDictionary
280
     1
281
     1
  3
ACAD_XREC_ROUNDTRIP
360
BD03
  0
DICTIONARY
  5
BD0A
330
BCAA
100
AcDbDictionary
280
     1
281
     1
  3
ACAD_XREC_ROUNDTRIP
360
BD0B
  0
DICTIONARY
  5
BD26
330
BCB8
100
AcDbDictionary
280
     1
281
     1
  3
ACAD_XREC_ROUNDTRIP
360
BD27
  0
DICTIONARY
  5
BD16
330
BCB0
100
AcDbDictionary
280
     1
281
     1
  3
ACAD_XREC_ROUNDTRIP
360
BD17
  0
DICTIONARY
  5
BD28
330
BCB9
100
AcDbDictionary
280
     1
281
     1
  3
ACAD_XREC_ROUNDTRIP
360
BD29
  0
DICTIONARY
  5
BD0E
330
BCAC
100
AcDbDictionary
280
     1
281
     1
  3
ACAD_XREC_ROUNDTRIP
360
BD0F
  0
DICTIONARY
  5
BD24
330
BCB7
100
AcDbDictionary
280
     1
281
     1
  3
ACAD_XREC_ROUNDTRIP
360
BD25
  0
DICTIONARY
  5
BD22
330
BCB6
100
AcDbDictionary
280
     1
281
     1
  3
ACAD_XREC_ROUNDTRIP
360
BD23
  0
DICTIONARY
  5
BD1C
330
BCB3
100
AcDbDictionary
280
     1
281
     1
  3
ACAD_XREC_ROUNDTRIP
360
BD1D
  0
DICTIONARY
  5
BD1E
330
BCB4
100
AcDbDictionary
280
     1
281
     1
  3
ACAD_XREC_ROUNDTRIP
360
BD1F
  0
DICTIONARY
  5
BD14
330
BCAF
100
AcDbDictionary
280
     1
281
     1
  3
ACAD_XREC_ROUNDTRIP
360
BD15
  0
DICTIONARY
  5
BD08
330
BCA9
100
AcDbDictionary
280
     1
281
     1
  3
ACAD_XREC_ROUNDTRIP
360
BD09
  0
DICTIONARY
  5
BD20
330
BCB5
100
AcDbDictionary
280
     1
281
     1
  3
ACAD_XREC_ROUNDTRIP
360
BD21
  0
XRECORD
  5
BD31
102
{ACAD_REACTORS
330
BD30
102
}
330
BD30
100
AcDbXrecord
280
     1
102
DISPLAYNAME
  1
Imperial24
102
FLAGS
 90
        0
  0
XRECORD
  5
BD33
102
{ACAD_REACTORS
330
BD32
102
}
330
BD32
100
AcDbXrecord
280
     1
102
SHADEPLOT
 70
     0
102
SHADEPLOTRESLEVEL
 70
     2
102
SHADEPLOTCUSTOMDPI
 70
   300
  0
XRECORD
  5
BD35
102
{ACAD_REACTORS
330
BD34
102
}
330
BD34
100
AcDbXrecord
280
     1
102
SHADEPLOT
 70
     0
102
SHADEPLOTRESLEVEL
 70
     2
102
SHADEPLOTCUSTOMDPI
 70
   300
  0
XRECORD
  5
BCFA
102
{ACAD_REACTORS
330
BC93
102
}
330
BC93
100
AcDbXrecord
280
     1
102
MATERIAL
148
0.0
149
0.0
149
0.0
 93
        0
 94
      127
282
     0
 72
     0
 77
     0
171
     0
175
     0
179
     0
273
     0
  0
XRECORD
  5
BC95
102
{ACAD_REACTORS
330
BC93
102
}
330
BC93
100
AcDbXrecord
280
     1
270
     1
271
     1
  0
XRECORD
  5
BC94
102
{ACAD_REACTORS
330
BC93
102
}
330
BC93
100
AcDbXrecord
280
     1
270
     1
271
     1
  0
XRECORD
  5
BC98
102
{ACAD_REACTORS
330
BC93
102
}
330
BC93
100
AcDbXrecord
280
     1
270
     1
271
     1
  0
XRECORD
  5
BC97
102
{ACAD_REACTORS
330
BC93
102
}
330
BC93
100
AcDbXrecord
280
     1
270
     1
271
     1
  0
XRECORD
  5
BC99
102
{ACAD_REACTORS
330
BC93
102
}
330
BC93
100
AcDbXrecord
280
     1
270
     1
271
     1
  0
XRECORD
  5
BC96
102
{ACAD_REACTORS
330
BC93
102
}
330
BC93
100
AcDbXrecord
280
     1
270
     1
271
     1
  0
XRECORD
  5
BCF9
102
{ACAD_REACTORS
330
BC8B
102
}
330
BC8B
100
AcDbXrecord
280
     1
102
MATERIAL
148
0.0
149
0.0
149
0.0
 93
        0
 94
      127
282
     0
 72
     0
 77
     0
171
     0
175
     0
179
     0
273
     0
  0
XRECORD
  5
BC8D
102
{ACAD_REACTORS
330
BC8B
102
}
330
BC8B
100
AcDbXrecord
280
     1
270
     1
271
     1
  0
XRECORD
  5
BC8C
102
{ACAD_REACTORS
330
BC8B
102
}
330
BC8B
100
AcDbXrecord
280
     1
270
     1
271
     1
  0
XRECORD
  5
BC90
102
{ACAD_REACTORS
330
BC8B
102
}
330
BC8B
100
AcDbXrecord
280
     1
270
     1
271
     1
  0
XRECORD
  5
BC8F
102
{ACAD_REACTORS
330
BC8B
102
}
330
BC8B
100
AcDbXrecord
280
     1
270
     1
271
     1
  0
XRECORD
  5
BC91
102
{ACAD_REACTORS
330
BC8B
102
}
330
BC8B
100
AcDbXrecord
280
     1
270
     1
271
     1
  0
XRECORD
  5
BC8E
102
{ACAD_REACTORS
330
BC8B
102
}
330
BC8B
100
AcDbXrecord
280
     1
270
     1
271
     1
  0
XRECORD
  5
BCFB
102
{ACAD_REACTORS
330
BC9B
102
}
330
BC9B
100
AcDbXrecord
280
     1
102
MATERIAL
148
0.0
149
0.0
149
0.0
 93
        0
 94
      127
282
     0
 72
     0
 77
     0
171
     0
175
     0
179
     0
273
     0
  0
XRECORD
  5
BC9D
102
{ACAD_REACTORS
330
BC9B
102
}
330
BC9B
100
AcDbXrecord
280
     1
270
     1
271
     1
  0
XRECORD
  5
BC9C
102
{ACAD_REACTORS
330
BC9B
102
}
330
BC9B
100
AcDbXrecord
280
     1
270
     1
271
     1
  0
XRECORD
  5
BCA0
102
{ACAD_REACTORS
330
BC9B
102
}
330
BC9B
100
AcDbXrecord
280
     1
270
     1
271
     1
  0
XRECORD
  5
BC9F
102
{ACAD_REACTORS
330
BC9B
102
}
330
BC9B
100
AcDbXrecord
280
     1
270
     1
271
     1
  0
XRECORD
  5
BCA1
102
{ACAD_REACTORS
330
BC9B
102
}
330
BC9B
100
AcDbXrecord
280
     1
270
     1
271
     1
  0
XRECORD
  5
BC9E
102
{ACAD_REACTORS
330
BC9B
102
}
330
BC9B
100
AcDbXrecord
280
     1
270
     1
271
     1
  0
XRECORD
  5
BD2F
102
{ACAD_REACTORS
330
BD2E
102
}
330
BD2E
100
AcDbXrecord
280
     1
102
DISPLAYNAME
  1
Imperial24
102
FLAGS
 90
        0
  0
CELLSTYLEMAP
  5
BCF6
102
{ACAD_REACTORS
330
BCF5
102
}
330
BCF5
100
AcDbCellStyleMap
 90
        3
300
CELLSTYLE
  1
TABLEFORMAT_BEGIN
 90
        5
170
     1
 91
        0
 92
    32768
 62
   257
 93
        1
300
CONTENTFORMAT
  1
CONTENTFORMAT_BEGIN
 90
        0
 91
        0
 92
      512
 93
        0
300

 40
0.0
140
1.0
 94
        5
 62
     0
340
B86E
144
0.25
309
CONTENTFORMAT_END
171
     0
 94
        0
309
TABLEFORMAT_END
  1
CELLSTYLE_BEGIN
 90
        1
 91
        1
300
_TITLE
309
CELLSTYLE_END
300
CELLSTYLE
  1
TABLEFORMAT_BEGIN
 90
        5
170
     1
 91
        0
 92
        0
 62
   257
 93
        1
300
CONTENTFORMAT
  1
CONTENTFORMAT_BEGIN
 90
        0
 91
        0
 92
      512
 93
        0
300

 40
0.0
140
1.0
 94
        5
 62
     0
340
B86E
144
0.18
309
CONTENTFORMAT_END
171
     0
 94
        0
309
TABLEFORMAT_END
  1
CELLSTYLE_BEGIN
 90
        2
 91
        1
300
_HEADER
309
CELLSTYLE_END
300
CELLSTYLE
  1
TABLEFORMAT_BEGIN
 90
        5
170
     1
 91
        0
 92
        0
 62
   257
 93
        1
300
CONTENTFORMAT
  1
CONTENTFORMAT_BEGIN
 90
        0
 91
        0
 92
      512
 93
        0
300

 40
0.0
140
1.0
 94
        2
 62
     0
340
B86E
144
0.18
309
CONTENTFORMAT_END
171
     0
 94
        0
309
TABLEFORMAT_END
  1
CELLSTYLE_BEGIN
 90
        3
 91
        2
300
_DATA
309
CELLSTYLE_END
  0
XRECORD
  5
BD2C
102
{ACAD_REACTORS
330
BCF5
102
}
330
BCF5
100
AcDbXrecord
280
     1
102
ACAD_ROUNDTRIP_PRE2007_TABLESTYLE
 90
      512
 91
        0
  1

 92
      512
 93
        0
  2

 94
      512
 95
        0
  3

  0
XRECORD
  5
BD07
102
{ACAD_REACTORS
330
BD06
102
}
330
BD06
100
AcDbXrecord
280
     1
102
RTVSPost2010Prop28
280
     1
102
RTVSPost2010PropOp28
 70
     1
102
RTVSPost2010Prop29
280
     1
102
RTVSPost2010PropOp29
 70
     1
102
RTVSPost2010Prop30
280
     0
102
RTVSPost2010PropOp30
 70
     1
102
RTVSPost2010Prop31
280
     0
102
RTVSPost2010PropOp31
 70
     1
102
RTVSPost2010Prop32
280
     0
102
RTVSPost2010PropOp32
 70
     1
102
RTVSPost2010Prop33
280
     0
102
RTVSPost2010PropOp33
 70
     1
102
RTVSPost2010Prop34
280
     0
102
RTVSPost2010PropOp34
 70
     1
102
RTVSPost2010Prop35
280
     0
102
RTVSPost2010PropOp35
 70
     1
102
RTVSPost2010Prop36
280
     0
102
RTVSPost2010PropOp36
 70
     1
102
RTVSPost2010Prop37
 90
       50
102
RTVSPost2010PropOp37
 70
     1
102
RTVSPost2010Prop38
140
0.0
102
RTVSPost2010PropOp38
 70
     1
102
RTVSPost2010Prop39
140
1.0
102
RTVSPost2010PropOp39
 70
     1
102
RTVSPost2010Prop40
 90
        0
102
RTVSPost2010PropOp40
 70
     1
102
RTVSPost2010Prop41ColorIndex
 90
       18
102
RTVSPost2010Prop41ColorRGB
 90
        0
102
RTVSPost2010PropOp41
 70
     1
102
RTVSPost2010Prop42
 90
       50
102
RTVSPost2010PropOp42
 70
     1
102
RTVSPost2010Prop43
 90
        3
102
RTVSPost2010PropOp43
 70
     1
102
RTVSPost2010Prop44ColorIndex
 90
        5
102
RTVSPost2010Prop44ColorRGB
 90
      255
102
RTVSPost2010PropOp44
 70
     1
102
RTVSPost2010Prop45
280
     0
102
RTVSPost2010PropOp45
 70
     1
102
RTVSPost2010Prop46
 90
       50
102
RTVSPost2010PropOp46
 70
     1
102
RTVSPost2010Prop47
 90
       50
102
RTVSPost2010PropOp47
 70
     1
102
RTVSPost2010Prop48
 90
       50
102
RTVSPost2010PropOp48
 70
     1
102
RTVSPost2010Prop49
280
     0
102
RTVSPost2010PropOp49
 70
     1
102
RTVSPost2010Prop50
 90
       50
102
RTVSPost2010PropOp50
 70
     1
102
RTVSPost2010Prop51ColorIndex
 90
      256
102
RTVSPost2010Prop51ColorRGB
 90
-16777216
102
RTVSPost2010PropOp51
 70
     0
102
RTVSPost2010Prop52
140
1.0
102
RTVSPost2010PropOp52
 70
     0
102
RTVSPost2010Prop53
 90
        2
102
RTVSPost2010PropOp53
 70
     1
102
RTVSPost2010Prop54
  1
strokes_ogs.tif
102
RTVSPost2010PropOp54
 70
     1
102
RTVSPost2010Prop55
280
     0
102
RTVSPost2010PropOp55
 70
     1
102
RTVSPost2010Prop56
140
1.0
102
RTVSPost2010PropOp56
 70
     1
102
RTVSPost2010Prop57
140
1.0
102
RTVSPost2010PropOp57
 70
     1
102
RTVSPropertyOp0
 70
     1
102
RTVSPropertyOp1
 70
     1
102
RTVSPropertyOp2
 70
     1
102
RTVSPropertyOp3
 70
     1
102
RTVSPropertyOp4
 70
     1
102
RTVSPropertyOp5
 70
     1
102
RTVSPropertyOp6
 70
     1
102
RTVSPropertyOp7
 70
     1
102
RTVSPropertyOp8
 70
     1
102
RTVSPropertyOp9
 70
     1
102
RTVSPropertyOp10
 70
     1
102
RTVSPropertyOp11
 70
     1
102
RTVSPropertyOp12
 70
     1
102
RTVSPropertyOp13
 70
     1
102
RTVSPropertyOp14
 70
     1
102
RTVSPropertyOp15
 70
     1
102
RTVSPropertyOp16
 70
     1
102
RTVSPropertyOp17
 70
     1
102
RTVSPropertyOp18
 70
     1
102
RTVSPropertyOp19
 70
     1
102
RTVSPropertyOp20
 70
     1
102
RTVSPropertyOp21
 70
     1
102
RTVSPropertyOp22
 70
     1
102
RTVSPropertyOp23
 70
     1
102
RTVSPropertyOp24
 70
     1
102
RTVSPropertyOp25
 70
     1
102
RTVSPropertyOp26
 70
     1
102
RTVSPropertyOp27
 70
     1
102
RTVSPropertyOp28
 70
     1
102
RTVSPropertyOp29
 70
     1
102
RTVSPropertyOp30
 70
     1
102
RTVSPropertyOp31
 70
     1
102
RTVSPropertyOp32
 70
     1
102
RTVSPropertyOp33
 70
     1
102
RTVSPropertyOp34
 70
     1
102
RTVSPropertyOp35
 70
     1
102
RTVSPropertyOp36
 70
     1
102
RTVSPropertyOp37
 70
     1
102
RTVSPropertyOp38
 70
     1
102
RTVSPropertyOp39
 70
     1
102
RTVSPropertyOp40
 70
     1
102
RTVSPropertyOp41
 70
     1
102
RTVSPropertyOp42
 70
     1
102
RTVSPropertyOp43
 70
     1
102
RTVSPropertyOp44
 70
     1
102
RTVSPropertyOp45
 70
     1
102
RTVSPropertyOp46
 70
     1
102
RTVSPropertyOp47
 70
     1
102
RTVSPropertyOp48
 70
     1
102
RTVSPropertyOp49
 70
     1
102
RTVSPropertyOp50
 70
     1
102
RTVSPropertyOp51
 70
     0
102
RTVSPropertyOp52
 70
     0
102
RTVSPropertyOp53
 70
     1
102
RTVSPropertyOp54
 70
     1
102
RTVSPropertyOp55
 70
     1
102
RTVSPropertyOp56
 70
     1
102
RTVSPropertyOp57
 70
     1
102
RTVSPropertyOp58
 70
     1
102
RTVSPropertyOp59
 70
     1
102
RTVSPropertyOp60
 70
     1
102
RTVSPropertyOp61
 70
     1
102
RTVSPropertyOp62
 70
     1
  0
XRECORD
  5
BD05
102
{ACAD_REACTORS
330
BD04
102
}
330
BD04
100
AcDbXrecord
280
     1
102
RTVSPost2010Prop28
280
     0
102
RTVSPost2010PropOp28
 70
     1
102
RTVSPost2010Prop29
280
     1
102
RTVSPost2010PropOp29
 70
     1
102
RTVSPost2010Prop30
280
     1
102
RTVSPost2010PropOp30
 70
     1
102
RTVSPost2010Prop31
280
     0
102
RTVSPost2010PropOp31
 70
     1
102
RTVSPost2010Prop32
280
     0
102
RTVSPost2010PropOp32
 70
     1
102
RTVSPost2010Prop33
280
     0
102
RTVSPost2010PropOp33
 70
     1
102
RTVSPost2010Prop34
280
     0
102
RTVSPost2010PropOp34
 70
     1
102
RTVSPost2010Prop35
280
     0
102
RTVSPost2010PropOp35
 70
     1
102
RTVSPost2010Prop36
280
     0
102
RTVSPost2010PropOp36
 70
     1
102
RTVSPost2010Prop37
 90
       50
102
RTVSPost2010PropOp37
 70
     1
102
RTVSPost2010Prop38
140
0.0
102
RTVSPost2010PropOp38
 70
     1
102
RTVSPost2010Prop39
140
1.0
102
RTVSPost2010PropOp39
 70
     1
102
RTVSPost2010Prop40
 90
        0
102
RTVSPost2010PropOp40
 70
     1
102
RTVSPost2010Prop41ColorIndex
 90
       18
102
RTVSPost2010Prop41ColorRGB
 90
        0
102
RTVSPost2010PropOp41
 70
     1
102
RTVSPost2010Prop42
 90
       50
102
RTVSPost2010PropOp42
 70
     1
102
RTVSPost2010Prop43
 90
        3
102
RTVSPost2010PropOp43
 70
     1
102
RTVSPost2010Prop44ColorIndex
 90
        5
102
RTVSPost2010Prop44ColorRGB
 90
      255
102
RTVSPost2010PropOp44
 70
     1
102
RTVSPost2010Prop45
280
     0
102
RTVSPost2010PropOp45
 70
     1
102
RTVSPost2010Prop46
 90
       50
102
RTVSPost2010PropOp46
 70
     1
102
RTVSPost2010Prop47
 90
       50
102
RTVSPost2010PropOp47
 70
     1
102
RTVSPost2010Prop48
 90
       50
102
RTVSPost2010PropOp48
 70
     1
102
RTVSPost2010Prop49
280
     0
102
RTVSPost2010PropOp49
 70
     1
102
RTVSPost2010Prop50
 90
       50
102
RTVSPost2010PropOp50
 70
     1
102
RTVSPost2010Prop51ColorIndex
 90
      256
102
RTVSPost2010Prop51ColorRGB
 90
-16777216
102
RTVSPost2010PropOp51
 70
     0
102
RTVSPost2010Prop52
140
1.0
102
RTVSPost2010PropOp52
 70
     0
102
RTVSPost2010Prop53
 90
        2
102
RTVSPost2010PropOp53
 70
     1
102
RTVSPost2010Prop54
  1
strokes_ogs.tif
102
RTVSPost2010PropOp54
 70
     1
102
RTVSPost2010Prop55
280
     0
102
RTVSPost2010PropOp55
 70
     1
102
RTVSPost2010Prop56
140
1.0
102
RTVSPost2010PropOp56
 70
     1
102
RTVSPost2010Prop57
140
1.0
102
RTVSPost2010PropOp57
 70
     1
102
RTVSPropertyOp0
 70
     1
102
RTVSPropertyOp1
 70
     1
102
RTVSPropertyOp2
 70
     1
102
RTVSPropertyOp3
 70
     1
102
RTVSPropertyOp4
 70
     1
102
RTVSPropertyOp5
 70
     1
102
RTVSPropertyOp6
 70
     1
102
RTVSPropertyOp7
 70
     1
102
RTVSPropertyOp8
 70
     1
102
RTVSPropertyOp9
 70
     1
102
RTVSPropertyOp10
 70
     1
102
RTVSPropertyOp11
 70
     1
102
RTVSPropertyOp12
 70
     1
102
RTVSPropertyOp13
 70
     1
102
RTVSPropertyOp14
 70
     1
102
RTVSPropertyOp15
 70
     1
102
RTVSPropertyOp16
 70
     1
102
RTVSPropertyOp17
 70
     1
102
RTVSPropertyOp18
 70
     1
102
RTVSPropertyOp19
 70
     1
102
RTVSPropertyOp20
 70
     1
102
RTVSPropertyOp21
 70
     1
102
RTVSPropertyOp22
 70
     1
102
RTVSPropertyOp23
 70
     1
102
RTVSPropertyOp24
 70
     1
102
RTVSPropertyOp25
 70
     1
102
RTVSPropertyOp26
 70
     1
102
RTVSPropertyOp27
 70
     1
102
RTVSPropertyOp28
 70
     1
102
RTVSPropertyOp29
 70
     1
102
RTVSPropertyOp30
 70
     1
102
RTVSPropertyOp31
 70
     1
102
RTVSPropertyOp32
 70
     1
102
RTVSPropertyOp33
 70
     1
102
RTVSPropertyOp34
 70
     1
102
RTVSPropertyOp35
 70
     1
102
RTVSPropertyOp36
 70
     1
102
RTVSPropertyOp37
 70
     1
102
RTVSPropertyOp38
 70
     1
102
RTVSPropertyOp39
 70
     1
102
RTVSPropertyOp40
 70
     1
102
RTVSPropertyOp41
 70
     1
102
RTVSPropertyOp42
 70
     1
102
RTVSPropertyOp43
 70
     1
102
RTVSPropertyOp44
 70
     1
102
RTVSPropertyOp45
 70
     1
102
RTVSPropertyOp46
 70
     1
102
RTVSPropertyOp47
 70
     1
102
RTVSPropertyOp48
 70
     1
102
RTVSPropertyOp49
 70
     1
102
RTVSPropertyOp50
 70
     1
102
RTVSPropertyOp51
 70
     0
102
RTVSPropertyOp52
 70
     0
102
RTVSPropertyOp53
 70
     1
102
RTVSPropertyOp54
 70
     1
102
RTVSPropertyOp55
 70
     1
102
RTVSPropertyOp56
 70
     1
102
RTVSPropertyOp57
 70
     1
102
RTVSPropertyOp58
 70
     1
102
RTVSPropertyOp59
 70
     1
102
RTVSPropertyOp60
 70
     1
102
RTVSPropertyOp61
 70
     1
102
RTVSPropertyOp62
 70
     1
  0
XRECORD
  5
BD13
102
{ACAD_REACTORS
330
BD12
102
}
330
BD12
100
AcDbXrecord
280
     1
102
RTVSPost2010Prop28
280
     0
102
RTVSPost2010PropOp28
 70
     1
102
RTVSPost2010Prop29
280
     1
102
RTVSPost2010PropOp29
 70
     1
102
RTVSPost2010Prop30
280
     1
102
RTVSPost2010PropOp30
 70
     1
102
RTVSPost2010Prop31
280
     0
102
RTVSPost2010PropOp31
 70
     1
102
RTVSPost2010Prop32
280
     0
102
RTVSPost2010PropOp32
 70
     1
102
RTVSPost2010Prop33
280
     0
102
RTVSPost2010PropOp33
 70
     1
102
RTVSPost2010Prop34
280
     0
102
RTVSPost2010PropOp34
 70
     1
102
RTVSPost2010Prop35
280
     0
102
RTVSPost2010PropOp35
 70
     1
102
RTVSPost2010Prop36
280
     0
102
RTVSPost2010PropOp36
 70
     1
102
RTVSPost2010Prop37
 90
       50
102
RTVSPost2010PropOp37
 70
     1
102
RTVSPost2010Prop38
140
0.0
102
RTVSPost2010PropOp38
 70
     1
102
RTVSPost2010Prop39
140
1.0
102
RTVSPost2010PropOp39
 70
     1
102
RTVSPost2010Prop40
 90
        0
102
RTVSPost2010PropOp40
 70
     1
102
RTVSPost2010Prop41ColorIndex
 90
       18
102
RTVSPost2010Prop41ColorRGB
 90
        0
102
RTVSPost2010PropOp41
 70
     1
102
RTVSPost2010Prop42
 90
       50
102
RTVSPost2010PropOp42
 70
     1
102
RTVSPost2010Prop43
 90
        3
102
RTVSPost2010PropOp43
 70
     1
102
RTVSPost2010Prop44ColorIndex
 90
        5
102
RTVSPost2010Prop44ColorRGB
 90
      255
102
RTVSPost2010PropOp44
 70
     1
102
RTVSPost2010Prop45
280
     0
102
RTVSPost2010PropOp45
 70
     1
102
RTVSPost2010Prop46
 90
       50
102
RTVSPost2010PropOp46
 70
     1
102
RTVSPost2010Prop47
 90
       50
102
RTVSPost2010PropOp47
 70
     1
102
RTVSPost2010Prop48
 90
       50
102
RTVSPost2010PropOp48
 70
     1
102
RTVSPost2010Prop49
280
     0
102
RTVSPost2010PropOp49
 70
     1
102
RTVSPost2010Prop50
 90
       50
102
RTVSPost2010PropOp50
 70
     1
102
RTVSPost2010Prop51ColorIndex
 90
      256
102
RTVSPost2010Prop51ColorRGB
 90
-16777216
102
RTVSPost2010PropOp51
 70
     0
102
RTVSPost2010Prop52
140
1.0
102
RTVSPost2010PropOp52
 70
     0
102
RTVSPost2010Prop53
 90
        2
102
RTVSPost2010PropOp53
 70
     1
102
RTVSPost2010Prop54
  1
strokes_ogs.tif
102
RTVSPost2010PropOp54
 70
     1
102
RTVSPost2010Prop55
280
     0
102
RTVSPost2010PropOp55
 70
     1
102
RTVSPost2010Prop56
140
1.0
102
RTVSPost2010PropOp56
 70
     1
102
RTVSPost2010Prop57
140
1.0
102
RTVSPost2010PropOp57
 70
     1
102
RTVSPropertyOp0
 70
     1
102
RTVSPropertyOp1
 70
     1
102
RTVSPropertyOp2
 70
     1
102
RTVSPropertyOp3
 70
     1
102
RTVSPropertyOp4
 70
     1
102
RTVSPropertyOp5
 70
     1
102
RTVSPropertyOp6
 70
     1
102
RTVSPropertyOp7
 70
     1
102
RTVSPropertyOp8
 70
     1
102
RTVSPropertyOp9
 70
     1
102
RTVSPropertyOp10
 70
     1
102
RTVSPropertyOp11
 70
     1
102
RTVSPropertyOp12
 70
     1
102
RTVSPropertyOp13
 70
     1
102
RTVSPropertyOp14
 70
     1
102
RTVSPropertyOp15
 70
     1
102
RTVSPropertyOp16
 70
     1
102
RTVSPropertyOp17
 70
     1
102
RTVSPropertyOp18
 70
     1
102
RTVSPropertyOp19
 70
     1
102
RTVSPropertyOp20
 70
     1
102
RTVSPropertyOp21
 70
     1
102
RTVSPropertyOp22
 70
     1
102
RTVSPropertyOp23
 70
     1
102
RTVSPropertyOp24
 70
     1
102
RTVSPropertyOp25
 70
     1
102
RTVSPropertyOp26
 70
     1
102
RTVSPropertyOp27
 70
     1
102
RTVSPropertyOp28
 70
     1
102
RTVSPropertyOp29
 70
     1
102
RTVSPropertyOp30
 70
     1
102
RTVSPropertyOp31
 70
     1
102
RTVSPropertyOp32
 70
     1
102
RTVSPropertyOp33
 70
     1
102
RTVSPropertyOp34
 70
     1
102
RTVSPropertyOp35
 70
     1
102
RTVSPropertyOp36
 70
     1
102
RTVSPropertyOp37
 70
     1
102
RTVSPropertyOp38
 70
     1
102
RTVSPropertyOp39
 70
     1
102
RTVSPropertyOp40
 70
     1
102
RTVSPropertyOp41
 70
     1
102
RTVSPropertyOp42
 70
     1
102
RTVSPropertyOp43
 70
     1
102
RTVSPropertyOp44
 70
     1
102
RTVSPropertyOp45
 70
     1
102
RTVSPropertyOp46
 70
     1
102
RTVSPropertyOp47
 70
     1
102
RTVSPropertyOp48
 70
     1
102
RTVSPropertyOp49
 70
     1
102
RTVSPropertyOp50
 70
     1
102
RTVSPropertyOp51
 70
     0
102
RTVSPropertyOp52
 70
     0
102
RTVSPropertyOp53
 70
     1
102
RTVSPropertyOp54
 70
     1
102
RTVSPropertyOp55
 70
     1
102
RTVSPropertyOp56
 70
     1
102
RTVSPropertyOp57
 70
     1
102
RTVSPropertyOp58
 70
     1
102
RTVSPropertyOp59
 70
     1
102
RTVSPropertyOp60
 70
     1
102
RTVSPropertyOp61
 70
     1
102
RTVSPropertyOp62
 70
     1
  0
XRECORD
  5
BD1B
102
{ACAD_REACTORS
330
BD1A
102
}
330
BD1A
100
AcDbXrecord
280
     1
102
RTVSPost2010Prop28
280
     0
102
RTVSPost2010PropOp28
 70
     1
102
RTVSPost2010Prop29
280
     1
102
RTVSPost2010PropOp29
 70
     1
102
RTVSPost2010Prop30
280
     1
102
RTVSPost2010PropOp30
 70
     1
102
RTVSPost2010Prop31
280
     0
102
RTVSPost2010PropOp31
 70
     1
102
RTVSPost2010Prop32
280
     0
102
RTVSPost2010PropOp32
 70
     1
102
RTVSPost2010Prop33
280
     0
102
RTVSPost2010PropOp33
 70
     1
102
RTVSPost2010Prop34
280
     0
102
RTVSPost2010PropOp34
 70
     1
102
RTVSPost2010Prop35
280
     0
102
RTVSPost2010PropOp35
 70
     1
102
RTVSPost2010Prop36
280
     0
102
RTVSPost2010PropOp36
 70
     1
102
RTVSPost2010Prop37
 90
       50
102
RTVSPost2010PropOp37
 70
     1
102
RTVSPost2010Prop38
140
0.0
102
RTVSPost2010PropOp38
 70
     1
102
RTVSPost2010Prop39
140
1.0
102
RTVSPost2010PropOp39
 70
     1
102
RTVSPost2010Prop40
 90
        0
102
RTVSPost2010PropOp40
 70
     1
102
RTVSPost2010Prop41ColorIndex
 90
       18
102
RTVSPost2010Prop41ColorRGB
 90
        0
102
RTVSPost2010PropOp41
 70
     1
102
RTVSPost2010Prop42
 90
       50
102
RTVSPost2010PropOp42
 70
     1
102
RTVSPost2010Prop43
 90
        3
102
RTVSPost2010PropOp43
 70
     1
102
RTVSPost2010Prop44ColorIndex
 90
        5
102
RTVSPost2010Prop44ColorRGB
 90
      255
102
RTVSPost2010PropOp44
 70
     1
102
RTVSPost2010Prop45
280
     0
102
RTVSPost2010PropOp45
 70
     1
102
RTVSPost2010Prop46
 90
       50
102
RTVSPost2010PropOp46
 70
     1
102
RTVSPost2010Prop47
 90
       50
102
RTVSPost2010PropOp47
 70
     1
102
RTVSPost2010Prop48
 90
       50
102
RTVSPost2010PropOp48
 70
     1
102
RTVSPost2010Prop49
280
     0
102
RTVSPost2010PropOp49
 70
     1
102
RTVSPost2010Prop50
 90
       50
102
RTVSPost2010PropOp50
 70
     1
102
RTVSPost2010Prop51ColorIndex
 90
      256
102
RTVSPost2010Prop51ColorRGB
 90
-16777216
102
RTVSPost2010PropOp51
 70
     0
102
RTVSPost2010Prop52
140
1.0
102
RTVSPost2010PropOp52
 70
     0
102
RTVSPost2010Prop53
 90
        2
102
RTVSPost2010PropOp53
 70
     1
102
RTVSPost2010Prop54
  1
strokes_ogs.tif
102
RTVSPost2010PropOp54
 70
     1
102
RTVSPost2010Prop55
280
     0
102
RTVSPost2010PropOp55
 70
     1
102
RTVSPost2010Prop56
140
1.0
102
RTVSPost2010PropOp56
 70
     1
102
RTVSPost2010Prop57
140
1.0
102
RTVSPost2010PropOp57
 70
     1
102
RTVSPropertyOp0
 70
     1
102
RTVSPropertyOp1
 70
     1
102
RTVSPropertyOp2
 70
     1
102
RTVSPropertyOp3
 70
     1
102
RTVSPropertyOp4
 70
     1
102
RTVSPropertyOp5
 70
     1
102
RTVSPropertyOp6
 70
     1
102
RTVSPropertyOp7
 70
     1
102
RTVSPropertyOp8
 70
     1
102
RTVSPropertyOp9
 70
     1
102
RTVSPropertyOp10
 70
     1
102
RTVSPropertyOp11
 70
     1
102
RTVSPropertyOp12
 70
     1
102
RTVSPropertyOp13
 70
     1
102
RTVSPropertyOp14
 70
     1
102
RTVSPropertyOp15
 70
     1
102
RTVSPropertyOp16
 70
     1
102
RTVSPropertyOp17
 70
     1
102
RTVSPropertyOp18
 70
     1
102
RTVSPropertyOp19
 70
     1
102
RTVSPropertyOp20
 70
     1
102
RTVSPropertyOp21
 70
     1
102
RTVSPropertyOp22
 70
     1
102
RTVSPropertyOp23
 70
     1
102
RTVSPropertyOp24
 70
     1
102
RTVSPropertyOp25
 70
     1
102
RTVSPropertyOp26
 70
     1
102
RTVSPropertyOp27
 70
     1
102
RTVSPropertyOp28
 70
     1
102
RTVSPropertyOp29
 70
     1
102
RTVSPropertyOp30
 70
     1
102
RTVSPropertyOp31
 70
     1
102
RTVSPropertyOp32
 70
     1
102
RTVSPropertyOp33
 70
     1
102
RTVSPropertyOp34
 70
     1
102
RTVSPropertyOp35
 70
     1
102
RTVSPropertyOp36
 70
     1
102
RTVSPropertyOp37
 70
     1
102
RTVSPropertyOp38
 70
     1
102
RTVSPropertyOp39
 70
     1
102
RTVSPropertyOp40
 70
     1
102
RTVSPropertyOp41
 70
     1
102
RTVSPropertyOp42
 70
     1
102
RTVSPropertyOp43
 70
     1
102
RTVSPropertyOp44
 70
     1
102
RTVSPropertyOp45
 70
     1
102
RTVSPropertyOp46
 70
     1
102
RTVSPropertyOp47
 70
     1
102
RTVSPropertyOp48
 70
     1
102
RTVSPropertyOp49
 70
     1
102
RTVSPropertyOp50
 70
     1
102
RTVSPropertyOp51
 70
     0
102
RTVSPropertyOp52
 70
     0
102
RTVSPropertyOp53
 70
     1
102
RTVSPropertyOp54
 70
     1
102
RTVSPropertyOp55
 70
     1
102
RTVSPropertyOp56
 70
     1
102
RTVSPropertyOp57
 70
     1
102
RTVSPropertyOp58
 70
     1
102
RTVSPropertyOp59
 70
     1
102
RTVSPropertyOp60
 70
     1
102
RTVSPropertyOp61
 70
     1
102
RTVSPropertyOp62
 70
     1
  0
XRECORD
  5
BD0D
102
{ACAD_REACTORS
330
BD0C
102
}
330
BD0C
100
AcDbXrecord
280
     1
102
RTVSPost2010Prop28
280
     0
102
RTVSPost2010PropOp28
 70
     1
102
RTVSPost2010Prop29
280
     1
102
RTVSPost2010PropOp29
 70
     1
102
RTVSPost2010Prop30
280
     1
102
RTVSPost2010PropOp30
 70
     1
102
RTVSPost2010Prop31
280
     0
102
RTVSPost2010PropOp31
 70
     1
102
RTVSPost2010Prop32
280
     0
102
RTVSPost2010PropOp32
 70
     1
102
RTVSPost2010Prop33
280
     0
102
RTVSPost2010PropOp33
 70
     1
102
RTVSPost2010Prop34
280
     0
102
RTVSPost2010PropOp34
 70
     1
102
RTVSPost2010Prop35
280
     0
102
RTVSPost2010PropOp35
 70
     1
102
RTVSPost2010Prop36
280
     0
102
RTVSPost2010PropOp36
 70
     1
102
RTVSPost2010Prop37
 90
       50
102
RTVSPost2010PropOp37
 70
     1
102
RTVSPost2010Prop38
140
0.0
102
RTVSPost2010PropOp38
 70
     1
102
RTVSPost2010Prop39
140
1.0
102
RTVSPost2010PropOp39
 70
     1
102
RTVSPost2010Prop40
 90
        0
102
RTVSPost2010PropOp40
 70
     1
102
RTVSPost2010Prop41ColorIndex
 90
       18
102
RTVSPost2010Prop41ColorRGB
 90
        0
102
RTVSPost2010PropOp41
 70
     1
102
RTVSPost2010Prop42
 90
       50
102
RTVSPost2010PropOp42
 70
     1
102
RTVSPost2010Prop43
 90
        3
102
RTVSPost2010PropOp43
 70
     1
102
RTVSPost2010Prop44ColorIndex
 90
        5
102
RTVSPost2010Prop44ColorRGB
 90
      255
102
RTVSPost2010PropOp44
 70
     1
102
RTVSPost2010Prop45
280
     0
102
RTVSPost2010PropOp45
 70
     1
102
RTVSPost2010Prop46
 90
       50
102
RTVSPost2010PropOp46
 70
     1
102
RTVSPost2010Prop47
 90
       50
102
RTVSPost2010PropOp47
 70
     1
102
RTVSPost2010Prop48
 90
       50
102
RTVSPost2010PropOp48
 70
     1
102
RTVSPost2010Prop49
280
     0
102
RTVSPost2010PropOp49
 70
     1
102
RTVSPost2010Prop50
 90
       50
102
RTVSPost2010PropOp50
 70
     1
102
RTVSPost2010Prop51ColorIndex
 90
      256
102
RTVSPost2010Prop51ColorRGB
 90
-16777216
102
RTVSPost2010PropOp51
 70
     0
102
RTVSPost2010Prop52
140
1.0
102
RTVSPost2010PropOp52
 70
     0
102
RTVSPost2010Prop53
 90
        2
102
RTVSPost2010PropOp53
 70
     1
102
RTVSPost2010Prop54
  1
strokes_ogs.tif
102
RTVSPost2010PropOp54
 70
     1
102
RTVSPost2010Prop55
280
     0
102
RTVSPost2010PropOp55
 70
     1
102
RTVSPost2010Prop56
140
1.0
102
RTVSPost2010PropOp56
 70
     1
102
RTVSPost2010Prop57
140
1.0
102
RTVSPost2010PropOp57
 70
     1
102
RTVSPropertyOp0
 70
     1
102
RTVSPropertyOp1
 70
     1
102
RTVSPropertyOp2
 70
     1
102
RTVSPropertyOp3
 70
     1
102
RTVSPropertyOp4
 70
     1
102
RTVSPropertyOp5
 70
     1
102
RTVSPropertyOp6
 70
     1
102
RTVSPropertyOp7
 70
     1
102
RTVSPropertyOp8
 70
     1
102
RTVSPropertyOp9
 70
     1
102
RTVSPropertyOp10
 70
     1
102
RTVSPropertyOp11
 70
     1
102
RTVSPropertyOp12
 70
     1
102
RTVSPropertyOp13
 70
     1
102
RTVSPropertyOp14
 70
     1
102
RTVSPropertyOp15
 70
     1
102
RTVSPropertyOp16
 70
     1
102
RTVSPropertyOp17
 70
     1
102
RTVSPropertyOp18
 70
     1
102
RTVSPropertyOp19
 70
     1
102
RTVSPropertyOp20
 70
     1
102
RTVSPropertyOp21
 70
     1
102
RTVSPropertyOp22
 70
     1
102
RTVSPropertyOp23
 70
     1
102
RTVSPropertyOp24
 70
     1
102
RTVSPropertyOp25
 70
     1
102
RTVSPropertyOp26
 70
     1
102
RTVSPropertyOp27
 70
     1
102
RTVSPropertyOp28
 70
     1
102
RTVSPropertyOp29
 70
     1
102
RTVSPropertyOp30
 70
     1
102
RTVSPropertyOp31
 70
     1
102
RTVSPropertyOp32
 70
     1
102
RTVSPropertyOp33
 70
     1
102
RTVSPropertyOp34
 70
     1
102
RTVSPropertyOp35
 70
     1
102
RTVSPropertyOp36
 70
     1
102
RTVSPropertyOp37
 70
     1
102
RTVSPropertyOp38
 70
     1
102
RTVSPropertyOp39
 70
     1
102
RTVSPropertyOp40
 70
     1
102
RTVSPropertyOp41
 70
     1
102
RTVSPropertyOp42
 70
     1
102
RTVSPropertyOp43
 70
     1
102
RTVSPropertyOp44
 70
     1
102
RTVSPropertyOp45
 70
     1
102
RTVSPropertyOp46
 70
     1
102
RTVSPropertyOp47
 70
     1
102
RTVSPropertyOp48
 70
     1
102
RTVSPropertyOp49
 70
     1
102
RTVSPropertyOp50
 70
     1
102
RTVSPropertyOp51
 70
     0
102
RTVSPropertyOp52
 70
     0
102
RTVSPropertyOp53
 70
     1
102
RTVSPropertyOp54
 70
     1
102
RTVSPropertyOp55
 70
     1
102
RTVSPropertyOp56
 70
     1
102
RTVSPropertyOp57
 70
     1
102
RTVSPropertyOp58
 70
     1
102
RTVSPropertyOp59
 70
     1
102
RTVSPropertyOp60
 70
     1
102
RTVSPropertyOp61
 70
     1
102
RTVSPropertyOp62
 70
     1
  0
XRECORD
  5
BD11
102
{ACAD_REACTORS
330
BD10
102
}
330
BD10
100
AcDbXrecord
280
     1
102
RTVSPost2010Prop28
280
     0
102
RTVSPost2010PropOp28
 70
     1
102
RTVSPost2010Prop29
280
     1
102
RTVSPost2010PropOp29
 70
     1
102
RTVSPost2010Prop30
280
     1
102
RTVSPost2010PropOp30
 70
     1
102
RTVSPost2010Prop31
280
     0
102
RTVSPost2010PropOp31
 70
     1
102
RTVSPost2010Prop32
280
     0
102
RTVSPost2010PropOp32
 70
     1
102
RTVSPost2010Prop33
280
     0
102
RTVSPost2010PropOp33
 70
     1
102
RTVSPost2010Prop34
280
     0
102
RTVSPost2010PropOp34
 70
     1
102
RTVSPost2010Prop35
280
     0
102
RTVSPost2010PropOp35
 70
     1
102
RTVSPost2010Prop36
280
     0
102
RTVSPost2010PropOp36
 70
     1
102
RTVSPost2010Prop37
 90
       50
102
RTVSPost2010PropOp37
 70
     1
102
RTVSPost2010Prop38
140
0.0
102
RTVSPost2010PropOp38
 70
     1
102
RTVSPost2010Prop39
140
1.0
102
RTVSPost2010PropOp39
 70
     1
102
RTVSPost2010Prop40
 90
        0
102
RTVSPost2010PropOp40
 70
     1
102
RTVSPost2010Prop41ColorIndex
 90
       18
102
RTVSPost2010Prop41ColorRGB
 90
        0
102
RTVSPost2010PropOp41
 70
     1
102
RTVSPost2010Prop42
 90
       50
102
RTVSPost2010PropOp42
 70
     1
102
RTVSPost2010Prop43
 90
        3
102
RTVSPost2010PropOp43
 70
     1
102
RTVSPost2010Prop44ColorIndex
 90
        5
102
RTVSPost2010Prop44ColorRGB
 90
      255
102
RTVSPost2010PropOp44
 70
     1
102
RTVSPost2010Prop45
280
     0
102
RTVSPost2010PropOp45
 70
     1
102
RTVSPost2010Prop46
 90
       50
102
RTVSPost2010PropOp46
 70
     1
102
RTVSPost2010Prop47
 90
       50
102
RTVSPost2010PropOp47
 70
     1
102
RTVSPost2010Prop48
 90
       50
102
RTVSPost2010PropOp48
 70
     1
102
RTVSPost2010Prop49
280
     0
102
RTVSPost2010PropOp49
 70
     1
102
RTVSPost2010Prop50
 90
       50
102
RTVSPost2010PropOp50
 70
     1
102
RTVSPost2010Prop51ColorIndex
 90
      256
102
RTVSPost2010Prop51ColorRGB
 90
-16777216
102
RTVSPost2010PropOp51
 70
     0
102
RTVSPost2010Prop52
140
1.0
102
RTVSPost2010PropOp52
 70
     0
102
RTVSPost2010Prop53
 90
        2
102
RTVSPost2010PropOp53
 70
     1
102
RTVSPost2010Prop54
  1
strokes_ogs.tif
102
RTVSPost2010PropOp54
 70
     1
102
RTVSPost2010Prop55
280
     0
102
RTVSPost2010PropOp55
 70
     1
102
RTVSPost2010Prop56
140
1.0
102
RTVSPost2010PropOp56
 70
     1
102
RTVSPost2010Prop57
140
1.0
102
RTVSPost2010PropOp57
 70
     1
102
RTVSPropertyOp0
 70
     1
102
RTVSPropertyOp1
 70
     1
102
RTVSPropertyOp2
 70
     1
102
RTVSPropertyOp3
 70
     1
102
RTVSPropertyOp4
 70
     1
102
RTVSPropertyOp5
 70
     1
102
RTVSPropertyOp6
 70
     1
102
RTVSPropertyOp7
 70
     1
102
RTVSPropertyOp8
 70
     1
102
RTVSPropertyOp9
 70
     1
102
RTVSPropertyOp10
 70
     1
102
RTVSPropertyOp11
 70
     1
102
RTVSPropertyOp12
 70
     1
102
RTVSPropertyOp13
 70
     1
102
RTVSPropertyOp14
 70
     1
102
RTVSPropertyOp15
 70
     1
102
RTVSPropertyOp16
 70
     1
102
RTVSPropertyOp17
 70
     1
102
RTVSPropertyOp18
 70
     1
102
RTVSPropertyOp19
 70
     1
102
RTVSPropertyOp20
 70
     1
102
RTVSPropertyOp21
 70
     1
102
RTVSPropertyOp22
 70
     1
102
RTVSPropertyOp23
 70
     1
102
RTVSPropertyOp24
 70
     1
102
RTVSPropertyOp25
 70
     1
102
RTVSPropertyOp26
 70
     1
102
RTVSPropertyOp27
 70
     1
102
RTVSPropertyOp28
 70
     1
102
RTVSPropertyOp29
 70
     1
102
RTVSPropertyOp30
 70
     1
102
RTVSPropertyOp31
 70
     1
102
RTVSPropertyOp32
 70
     1
102
RTVSPropertyOp33
 70
     1
102
RTVSPropertyOp34
 70
     1
102
RTVSPropertyOp35
 70
     1
102
RTVSPropertyOp36
 70
     1
102
RTVSPropertyOp37
 70
     1
102
RTVSPropertyOp38
 70
     1
102
RTVSPropertyOp39
 70
     1
102
RTVSPropertyOp40
 70
     1
102
RTVSPropertyOp41
 70
     1
102
RTVSPropertyOp42
 70
     1
102
RTVSPropertyOp43
 70
     1
102
RTVSPropertyOp44
 70
     1
102
RTVSPropertyOp45
 70
     1
102
RTVSPropertyOp46
 70
     1
102
RTVSPropertyOp47
 70
     1
102
RTVSPropertyOp48
 70
     1
102
RTVSPropertyOp49
 70
     1
102
RTVSPropertyOp50
 70
     1
102
RTVSPropertyOp51
 70
     0
102
RTVSPropertyOp52
 70
     0
102
RTVSPropertyOp53
 70
     1
102
RTVSPropertyOp54
 70
     1
102
RTVSPropertyOp55
 70
     1
102
RTVSPropertyOp56
 70
     1
102
RTVSPropertyOp57
 70
     1
102
RTVSPropertyOp58
 70
     1
102
RTVSPropertyOp59
 70
     1
102
RTVSPropertyOp60
 70
     1
102
RTVSPropertyOp61
 70
     1
102
RTVSPropertyOp62
 70
     1
  0
XRECORD
  5
BD2B
102
{ACAD_REACTORS
330
BD2A
102
}
330
BD2A
100
AcDbXrecord
280
     1
102
RTVSPost2010Prop28
280
     0
102
RTVSPost2010PropOp28
 70
     1
102
RTVSPost2010Prop29
280
     1
102
RTVSPost2010PropOp29
 70
     1
102
RTVSPost2010Prop30
280
     1
102
RTVSPost2010PropOp30
 70
     1
102
RTVSPost2010Prop31
280
     0
102
RTVSPost2010PropOp31
 70
     1
102
RTVSPost2010Prop32
280
     0
102
RTVSPost2010PropOp32
 70
     1
102
RTVSPost2010Prop33
280
     0
102
RTVSPost2010PropOp33
 70
     1
102
RTVSPost2010Prop34
280
     0
102
RTVSPost2010PropOp34
 70
     1
102
RTVSPost2010Prop35
280
     0
102
RTVSPost2010PropOp35
 70
     1
102
RTVSPost2010Prop36
280
     0
102
RTVSPost2010PropOp36
 70
     1
102
RTVSPost2010Prop37
 90
       50
102
RTVSPost2010PropOp37
 70
     0
102
RTVSPost2010Prop38
140
0.0
102
RTVSPost2010PropOp38
 70
     0
102
RTVSPost2010Prop39
140
1.0
102
RTVSPost2010PropOp39
 70
     0
102
RTVSPost2010Prop40
 90
        0
102
RTVSPost2010PropOp40
 70
     0
102
RTVSPost2010Prop41ColorIndex
 90
       18
102
RTVSPost2010Prop41ColorRGB
 90
        0
102
RTVSPost2010PropOp41
 70
     0
102
RTVSPost2010Prop42
 90
       50
102
RTVSPost2010PropOp42
 70
     0
102
RTVSPost2010Prop43
 90
        3
102
RTVSPost2010PropOp43
 70
     0
102
RTVSPost2010Prop44ColorIndex
 90
        5
102
RTVSPost2010Prop44ColorRGB
 90
      255
102
RTVSPost2010PropOp44
 70
     0
102
RTVSPost2010Prop45
280
     0
102
RTVSPost2010PropOp45
 70
     1
102
RTVSPost2010Prop46
 90
       50
102
RTVSPost2010PropOp46
 70
     0
102
RTVSPost2010Prop47
 90
       50
102
RTVSPost2010PropOp47
 70
     0
102
RTVSPost2010Prop48
 90
       50
102
RTVSPost2010PropOp48
 70
     0
102
RTVSPost2010Prop49
280
     0
102
RTVSPost2010PropOp49
 70
     1
102
RTVSPost2010Prop50
 90
       50
102
RTVSPost2010PropOp50
 70
     0
102
RTVSPost2010Prop51ColorIndex
 90
      256
102
RTVSPost2010Prop51ColorRGB
 90
-16777216
102
RTVSPost2010PropOp51
 70
     0
102
RTVSPost2010Prop52
140
1.0
102
RTVSPost2010PropOp52
 70
     0
102
RTVSPost2010Prop53
 90
        2
102
RTVSPost2010PropOp53
 70
     0
102
RTVSPost2010Prop54
  1
strokes_ogs.tif
102
RTVSPost2010PropOp54
 70
     0
102
RTVSPost2010Prop55
280
     0
102
RTVSPost2010PropOp55
 70
     1
102
RTVSPost2010Prop56
140
1.0
102
RTVSPost2010PropOp56
 70
     0
102
RTVSPost2010Prop57
140
1.0
102
RTVSPost2010PropOp57
 70
     0
102
RTVSPropertyOp0
 70
     0
102
RTVSPropertyOp1
 70
     0
102
RTVSPropertyOp2
 70
     0
102
RTVSPropertyOp3
 70
     0
102
RTVSPropertyOp4
 70
     0
102
RTVSPropertyOp5
 70
     0
102
RTVSPropertyOp6
 70
     0
102
RTVSPropertyOp7
 70
     0
102
RTVSPropertyOp8
 70
     0
102
RTVSPropertyOp9
 70
     0
102
RTVSPropertyOp10
 70
     0
102
RTVSPropertyOp11
 70
     0
102
RTVSPropertyOp12
 70
     0
102
RTVSPropertyOp13
 70
     0
102
RTVSPropertyOp14
 70
     2
102
RTVSPropertyOp15
 70
     0
102
RTVSPropertyOp16
 70
     0
102
RTVSPropertyOp17
 70
     0
102
RTVSPropertyOp18
 70
     0
102
RTVSPropertyOp19
 70
     0
102
RTVSPropertyOp20
 70
     0
102
RTVSPropertyOp21
 70
     0
102
RTVSPropertyOp22
 70
     0
102
RTVSPropertyOp23
 70
     0
102
RTVSPropertyOp24
 70
     0
102
RTVSPropertyOp25
 70
     0
102
RTVSPropertyOp26
 70
     0
102
RTVSPropertyOp27
 70
     0
102
RTVSPropertyOp28
 70
     1
102
RTVSPropertyOp29
 70
     1
102
RTVSPropertyOp30
 70
     1
102
RTVSPropertyOp31
 70
     1
102
RTVSPropertyOp32
 70
     1
102
RTVSPropertyOp33
 70
     1
102
RTVSPropertyOp34
 70
     1
102
RTVSPropertyOp35
 70
     1
102
RTVSPropertyOp36
 70
     1
102
RTVSPropertyOp37
 70
     0
102
RTVSPropertyOp38
 70
     0
102
RTVSPropertyOp39
 70
     0
102
RTVSPropertyOp40
 70
     0
102
RTVSPropertyOp41
 70
     0
102
RTVSPropertyOp42
 70
     0
102
RTVSPropertyOp43
 70
     0
102
RTVSPropertyOp44
 70
     0
102
RTVSPropertyOp45
 70
     1
102
RTVSPropertyOp46
 70
     0
102
RTVSPropertyOp47
 70
     0
102
RTVSPropertyOp48
 70
     0
102
RTVSPropertyOp49
 70
     1
102
RTVSPropertyOp50
 70
     0
102
RTVSPropertyOp51
 70
     0
102
RTVSPropertyOp52
 70
     0
102
RTVSPropertyOp53
 70
     0
102
RTVSPropertyOp54
 70
     0
102
RTVSPropertyOp55
 70
     1
102
RTVSPropertyOp56
 70
     0
102
RTVSPropertyOp57
 70
     0
102
RTVSPropertyOp58
 70
     0
102
RTVSPropertyOp59
 70
     0
102
RTVSPropertyOp60
 70
     0
102
RTVSPropertyOp61
 70
     0
102
RTVSPropertyOp62
 70
     0
  0
XRECORD
  5
BD19
102
{ACAD_REACTORS
330
BD18
102
}
330
BD18
100
AcDbXrecord
280
     1
102
RTVSPost2010Prop28
280
     0
102
RTVSPost2010PropOp28
 70
     1
102
RTVSPost2010Prop29
280
     1
102
RTVSPost2010PropOp29
 70
     1
102
RTVSPost2010Prop30
280
     1
102
RTVSPost2010PropOp30
 70
     1
102
RTVSPost2010Prop31
280
     0
102
RTVSPost2010PropOp31
 70
     1
102
RTVSPost2010Prop32
280
     0
102
RTVSPost2010PropOp32
 70
     1
102
RTVSPost2010Prop33
280
     0
102
RTVSPost2010PropOp33
 70
     1
102
RTVSPost2010Prop34
280
     0
102
RTVSPost2010PropOp34
 70
     1
102
RTVSPost2010Prop35
280
     0
102
RTVSPost2010PropOp35
 70
     1
102
RTVSPost2010Prop36
280
     0
102
RTVSPost2010PropOp36
 70
     1
102
RTVSPost2010Prop37
 90
       50
102
RTVSPost2010PropOp37
 70
     1
102
RTVSPost2010Prop38
140
0.0
102
RTVSPost2010PropOp38
 70
     1
102
RTVSPost2010Prop39
140
1.0
102
RTVSPost2010PropOp39
 70
     1
102
RTVSPost2010Prop40
 90
        0
102
RTVSPost2010PropOp40
 70
     1
102
RTVSPost2010Prop41ColorIndex
 90
       18
102
RTVSPost2010Prop41ColorRGB
 90
        0
102
RTVSPost2010PropOp41
 70
     1
102
RTVSPost2010Prop42
 90
       50
102
RTVSPost2010PropOp42
 70
     1
102
RTVSPost2010Prop43
 90
        3
102
RTVSPost2010PropOp43
 70
     1
102
RTVSPost2010Prop44ColorIndex
 90
        5
102
RTVSPost2010Prop44ColorRGB
 90
      255
102
RTVSPost2010PropOp44
 70
     1
102
RTVSPost2010Prop45
280
     0
102
RTVSPost2010PropOp45
 70
     1
102
RTVSPost2010Prop46
 90
       50
102
RTVSPost2010PropOp46
 70
     1
102
RTVSPost2010Prop47
 90
       50
102
RTVSPost2010PropOp47
 70
     1
102
RTVSPost2010Prop48
 90
       50
102
RTVSPost2010PropOp48
 70
     1
102
RTVSPost2010Prop49
280
     0
102
RTVSPost2010PropOp49
 70
     1
102
RTVSPost2010Prop50
 90
       50
102
RTVSPost2010PropOp50
 70
     1
102
RTVSPost2010Prop51ColorIndex
 90
      256
102
RTVSPost2010Prop51ColorRGB
 90
-16777216
102
RTVSPost2010PropOp51
 70
     0
102
RTVSPost2010Prop52
140
1.0
102
RTVSPost2010PropOp52
 70
     0
102
RTVSPost2010Prop53
 90
        2
102
RTVSPost2010PropOp53
 70
     1
102
RTVSPost2010Prop54
  1
strokes_ogs.tif
102
RTVSPost2010PropOp54
 70
     1
102
RTVSPost2010Prop55
280
     0
102
RTVSPost2010PropOp55
 70
     1
102
RTVSPost2010Prop56
140
1.0
102
RTVSPost2010PropOp56
 70
     1
102
RTVSPost2010Prop57
140
1.0
102
RTVSPost2010PropOp57
 70
     1
102
RTVSPropertyOp0
 70
     1
102
RTVSPropertyOp1
 70
     1
102
RTVSPropertyOp2
 70
     1
102
RTVSPropertyOp3
 70
     1
102
RTVSPropertyOp4
 70
     1
102
RTVSPropertyOp5
 70
     1
102
RTVSPropertyOp6
 70
     1
102
RTVSPropertyOp7
 70
     1
102
RTVSPropertyOp8
 70
     1
102
RTVSPropertyOp9
 70
     1
102
RTVSPropertyOp10
 70
     1
102
RTVSPropertyOp11
 70
     1
102
RTVSPropertyOp12
 70
     1
102
RTVSPropertyOp13
 70
     1
102
RTVSPropertyOp14
 70
     1
102
RTVSPropertyOp15
 70
     1
102
RTVSPropertyOp16
 70
     1
102
RTVSPropertyOp17
 70
     1
102
RTVSPropertyOp18
 70
     1
102
RTVSPropertyOp19
 70
     1
102
RTVSPropertyOp20
 70
     1
102
RTVSPropertyOp21
 70
     1
102
RTVSPropertyOp22
 70
     1
102
RTVSPropertyOp23
 70
     1
102
RTVSPropertyOp24
 70
     1
102
RTVSPropertyOp25
 70
     1
102
RTVSPropertyOp26
 70
     1
102
RTVSPropertyOp27
 70
     1
102
RTVSPropertyOp28
 70
     1
102
RTVSPropertyOp29
 70
     1
102
RTVSPropertyOp30
 70
     1
102
RTVSPropertyOp31
 70
     1
102
RTVSPropertyOp32
 70
     1
102
RTVSPropertyOp33
 70
     1
102
RTVSPropertyOp34
 70
     1
102
RTVSPropertyOp35
 70
     1
102
RTVSPropertyOp36
 70
     1
102
RTVSPropertyOp37
 70
     1
102
RTVSPropertyOp38
 70
     1
102
RTVSPropertyOp39
 70
     1
102
RTVSPropertyOp40
 70
     1
102
RTVSPropertyOp41
 70
     1
102
RTVSPropertyOp42
 70
     1
102
RTVSPropertyOp43
 70
     1
102
RTVSPropertyOp44
 70
     1
102
RTVSPropertyOp45
 70
     1
102
RTVSPropertyOp46
 70
     1
102
RTVSPropertyOp47
 70
     1
102
RTVSPropertyOp48
 70
     1
102
RTVSPropertyOp49
 70
     1
102
RTVSPropertyOp50
 70
     1
102
RTVSPropertyOp51
 70
     0
102
RTVSPropertyOp52
 70
     0
102
RTVSPropertyOp53
 70
     1
102
RTVSPropertyOp54
 70
     1
102
RTVSPropertyOp55
 70
     1
102
RTVSPropertyOp56
 70
     1
102
RTVSPropertyOp57
 70
     1
102
RTVSPropertyOp58
 70
     1
102
RTVSPropertyOp59
 70
     1
102
RTVSPropertyOp60
 70
     1
102
RTVSPropertyOp61
 70
     1
102
RTVSPropertyOp62
 70
     1
  0
XRECORD
  5
BCFD
102
{ACAD_REACTORS
330
BCFC
102
}
330
BCFC
100
AcDbXrecord
280
     1
102
RTVSPost2010Prop28
280
     0
102
RTVSPost2010PropOp28
 70
     1
102
RTVSPost2010Prop29
280
     1
102
RTVSPost2010PropOp29
 70
     1
102
RTVSPost2010Prop30
280
     1
102
RTVSPost2010PropOp30
 70
     1
102
RTVSPost2010Prop31
280
     0
102
RTVSPost2010PropOp31
 70
     1
102
RTVSPost2010Prop32
280
     0
102
RTVSPost2010PropOp32
 70
     1
102
RTVSPost2010Prop33
280
     0
102
RTVSPost2010PropOp33
 70
     1
102
RTVSPost2010Prop34
280
     0
102
RTVSPost2010PropOp34
 70
     1
102
RTVSPost2010Prop35
280
     0
102
RTVSPost2010PropOp35
 70
     1
102
RTVSPost2010Prop36
280
     0
102
RTVSPost2010PropOp36
 70
     1
102
RTVSPost2010Prop37
 90
       50
102
RTVSPost2010PropOp37
 70
     1
102
RTVSPost2010Prop38
140
0.0
102
RTVSPost2010PropOp38
 70
     1
102
RTVSPost2010Prop39
140
1.0
102
RTVSPost2010PropOp39
 70
     1
102
RTVSPost2010Prop40
 90
        0
102
RTVSPost2010PropOp40
 70
     1
102
RTVSPost2010Prop41ColorIndex
 90
       18
102
RTVSPost2010Prop41ColorRGB
 90
        0
102
RTVSPost2010PropOp41
 70
     1
102
RTVSPost2010Prop42
 90
       50
102
RTVSPost2010PropOp42
 70
     1
102
RTVSPost2010Prop43
 90
        3
102
RTVSPost2010PropOp43
 70
     1
102
RTVSPost2010Prop44ColorIndex
 90
        5
102
RTVSPost2010Prop44ColorRGB
 90
      255
102
RTVSPost2010PropOp44
 70
     1
102
RTVSPost2010Prop45
280
     0
102
RTVSPost2010PropOp45
 70
     1
102
RTVSPost2010Prop46
 90
       50
102
RTVSPost2010PropOp46
 70
     1
102
RTVSPost2010Prop47
 90
       50
102
RTVSPost2010PropOp47
 70
     1
102
RTVSPost2010Prop48
 90
       50
102
RTVSPost2010PropOp48
 70
     1
102
RTVSPost2010Prop49
280
     0
102
RTVSPost2010PropOp49
 70
     1
102
RTVSPost2010Prop50
 90
       50
102
RTVSPost2010PropOp50
 70
     1
102
RTVSPost2010Prop51ColorIndex
 90
      256
102
RTVSPost2010Prop51ColorRGB
 90
-16777216
102
RTVSPost2010PropOp51
 70
     0
102
RTVSPost2010Prop52
140
1.0
102
RTVSPost2010PropOp52
 70
     0
102
RTVSPost2010Prop53
 90
        2
102
RTVSPost2010PropOp53
 70
     1
102
RTVSPost2010Prop54
  1
strokes_ogs.tif
102
RTVSPost2010PropOp54
 70
     1
102
RTVSPost2010Prop55
280
     0
102
RTVSPost2010PropOp55
 70
     1
102
RTVSPost2010Prop56
140
1.0
102
RTVSPost2010PropOp56
 70
     1
102
RTVSPost2010Prop57
140
1.0
102
RTVSPost2010PropOp57
 70
     1
102
RTVSPropertyOp0
 70
     1
102
RTVSPropertyOp1
 70
     1
102
RTVSPropertyOp2
 70
     1
102
RTVSPropertyOp3
 70
     1
102
RTVSPropertyOp4
 70
     1
102
RTVSPropertyOp5
 70
     1
102
RTVSPropertyOp6
 70
     1
102
RTVSPropertyOp7
 70
     1
102
RTVSPropertyOp8
 70
     1
102
RTVSPropertyOp9
 70
     1
102
RTVSPropertyOp10
 70
     1
102
RTVSPropertyOp11
 70
     1
102
RTVSPropertyOp12
 70
     1
102
RTVSPropertyOp13
 70
     1
102
RTVSPropertyOp14
 70
     1
102
RTVSPropertyOp15
 70
     1
102
RTVSPropertyOp16
 70
     1
102
RTVSPropertyOp17
 70
     1
102
RTVSPropertyOp18
 70
     1
102
RTVSPropertyOp19
 70
     1
102
RTVSPropertyOp20
 70
     1
102
RTVSPropertyOp21
 70
     1
102
RTVSPropertyOp22
 70
     1
102
RTVSPropertyOp23
 70
     1
102
RTVSPropertyOp24
 70
     1
102
RTVSPropertyOp25
 70
     1
102
RTVSPropertyOp26
 70
     1
102
RTVSPropertyOp27
 70
     1
102
RTVSPropertyOp28
 70
     1
102
RTVSPropertyOp29
 70
     1
102
RTVSPropertyOp30
 70
     1
102
RTVSPropertyOp31
 70
     1
102
RTVSPropertyOp32
 70
     1
102
RTVSPropertyOp33
 70
     1
102
RTVSPropertyOp34
 70
     1
102
RTVSPropertyOp35
 70
     1
102
RTVSPropertyOp36
 70
     1
102
RTVSPropertyOp37
 70
     1
102
RTVSPropertyOp38
 70
     1
102
RTVSPropertyOp39
 70
     1
102
RTVSPropertyOp40
 70
     1
102
RTVSPropertyOp41
 70
     1
102
RTVSPropertyOp42
 70
     1
102
RTVSPropertyOp43
 70
     1
102
RTVSPropertyOp44
 70
     1
102
RTVSPropertyOp45
 70
     1
102
RTVSPropertyOp46
 70
     1
102
RTVSPropertyOp47
 70
     1
102
RTVSPropertyOp48
 70
     1
102
RTVSPropertyOp49
 70
     1
102
RTVSPropertyOp50
 70
     1
102
RTVSPropertyOp51
 70
     0
102
RTVSPropertyOp52
 70
     0
102
RTVSPropertyOp53
 70
     1
102
RTVSPropertyOp54
 70
     1
102
RTVSPropertyOp55
 70
     1
102
RTVSPropertyOp56
 70
     1
102
RTVSPropertyOp57
 70
     1
102
RTVSPropertyOp58
 70
     1
102
RTVSPropertyOp59
 70
     1
102
RTVSPropertyOp60
 70
     1
102
RTVSPropertyOp61
 70
     1
102
RTVSPropertyOp62
 70
     1
  0
XRECORD
  5
BCFF
102
{ACAD_REACTORS
330
BCFE
102
}
330
BCFE
100
AcDbXrecord
280
     1
102
RTVSPost2010Prop28
280
     0
102
RTVSPost2010PropOp28
 70
     1
102
RTVSPost2010Prop29
280
     1
102
RTVSPost2010PropOp29
 70
     1
102
RTVSPost2010Prop30
280
     1
102
RTVSPost2010PropOp30
 70
     1
102
RTVSPost2010Prop31
280
     0
102
RTVSPost2010PropOp31
 70
     1
102
RTVSPost2010Prop32
280
     0
102
RTVSPost2010PropOp32
 70
     1
102
RTVSPost2010Prop33
280
     0
102
RTVSPost2010PropOp33
 70
     1
102
RTVSPost2010Prop34
280
     0
102
RTVSPost2010PropOp34
 70
     1
102
RTVSPost2010Prop35
280
     0
102
RTVSPost2010PropOp35
 70
     1
102
RTVSPost2010Prop36
280
     0
102
RTVSPost2010PropOp36
 70
     1
102
RTVSPost2010Prop37
 90
       50
102
RTVSPost2010PropOp37
 70
     1
102
RTVSPost2010Prop38
140
0.0
102
RTVSPost2010PropOp38
 70
     1
102
RTVSPost2010Prop39
140
1.0
102
RTVSPost2010PropOp39
 70
     1
102
RTVSPost2010Prop40
 90
        0
102
RTVSPost2010PropOp40
 70
     1
102
RTVSPost2010Prop41ColorIndex
 90
       18
102
RTVSPost2010Prop41ColorRGB
 90
        0
102
RTVSPost2010PropOp41
 70
     1
102
RTVSPost2010Prop42
 90
       50
102
RTVSPost2010PropOp42
 70
     1
102
RTVSPost2010Prop43
 90
        3
102
RTVSPost2010PropOp43
 70
     1
102
RTVSPost2010Prop44ColorIndex
 90
        5
102
RTVSPost2010Prop44ColorRGB
 90
      255
102
RTVSPost2010PropOp44
 70
     1
102
RTVSPost2010Prop45
280
     0
102
RTVSPost2010PropOp45
 70
     1
102
RTVSPost2010Prop46
 90
       50
102
RTVSPost2010PropOp46
 70
     1
102
RTVSPost2010Prop47
 90
       50
102
RTVSPost2010PropOp47
 70
     1
102
RTVSPost2010Prop48
 90
       50
102
RTVSPost2010PropOp48
 70
     1
102
RTVSPost2010Prop49
280
     0
102
RTVSPost2010PropOp49
 70
     1
102
RTVSPost2010Prop50
 90
       50
102
RTVSPost2010PropOp50
 70
     1
102
RTVSPost2010Prop51ColorIndex
 90
      256
102
RTVSPost2010Prop51ColorRGB
 90
-16777216
102
RTVSPost2010PropOp51
 70
     0
102
RTVSPost2010Prop52
140
1.0
102
RTVSPost2010PropOp52
 70
     0
102
RTVSPost2010Prop53
 90
        2
102
RTVSPost2010PropOp53
 70
     1
102
RTVSPost2010Prop54
  1
strokes_ogs.tif
102
RTVSPost2010PropOp54
 70
     1
102
RTVSPost2010Prop55
280
     0
102
RTVSPost2010PropOp55
 70
     1
102
RTVSPost2010Prop56
140
1.0
102
RTVSPost2010PropOp56
 70
     1
102
RTVSPost2010Prop57
140
1.0
102
RTVSPost2010PropOp57
 70
     1
102
RTVSPropertyOp0
 70
     1
102
RTVSPropertyOp1
 70
     1
102
RTVSPropertyOp2
 70
     1
102
RTVSPropertyOp3
 70
     1
102
RTVSPropertyOp4
 70
     1
102
RTVSPropertyOp5
 70
     1
102
RTVSPropertyOp6
 70
     1
102
RTVSPropertyOp7
 70
     1
102
RTVSPropertyOp8
 70
     1
102
RTVSPropertyOp9
 70
     1
102
RTVSPropertyOp10
 70
     1
102
RTVSPropertyOp11
 70
     1
102
RTVSPropertyOp12
 70
     1
102
RTVSPropertyOp13
 70
     1
102
RTVSPropertyOp14
 70
     1
102
RTVSPropertyOp15
 70
     1
102
RTVSPropertyOp16
 70
     1
102
RTVSPropertyOp17
 70
     1
102
RTVSPropertyOp18
 70
     1
102
RTVSPropertyOp19
 70
     1
102
RTVSPropertyOp20
 70
     1
102
RTVSPropertyOp21
 70
     1
102
RTVSPropertyOp22
 70
     1
102
RTVSPropertyOp23
 70
     1
102
RTVSPropertyOp24
 70
     1
102
RTVSPropertyOp25
 70
     1
102
RTVSPropertyOp26
 70
     1
102
RTVSPropertyOp27
 70
     1
102
RTVSPropertyOp28
 70
     1
102
RTVSPropertyOp29
 70
     1
102
RTVSPropertyOp30
 70
     1
102
RTVSPropertyOp31
 70
     1
102
RTVSPropertyOp32
 70
     1
102
RTVSPropertyOp33
 70
     1
102
RTVSPropertyOp34
 70
     1
102
RTVSPropertyOp35
 70
     1
102
RTVSPropertyOp36
 70
     1
102
RTVSPropertyOp37
 70
     1
102
RTVSPropertyOp38
 70
     1
102
RTVSPropertyOp39
 70
     1
102
RTVSPropertyOp40
 70
     1
102
RTVSPropertyOp41
 70
     1
102
RTVSPropertyOp42
 70
     1
102
RTVSPropertyOp43
 70
     1
102
RTVSPropertyOp44
 70
     1
102
RTVSPropertyOp45
 70
     1
102
RTVSPropertyOp46
 70
     1
102
RTVSPropertyOp47
 70
     1
102
RTVSPropertyOp48
 70
     1
102
RTVSPropertyOp49
 70
     1
102
RTVSPropertyOp50
 70
     1
102
RTVSPropertyOp51
 70
     0
102
RTVSPropertyOp52
 70
     0
102
RTVSPropertyOp53
 70
     1
102
RTVSPropertyOp54
 70
     1
102
RTVSPropertyOp55
 70
     1
102
RTVSPropertyOp56
 70
     1
102
RTVSPropertyOp57
 70
     1
102
RTVSPropertyOp58
 70
     1
102
RTVSPropertyOp59
 70
     1
102
RTVSPropertyOp60
 70
     1
102
RTVSPropertyOp61
 70
     1
102
RTVSPropertyOp62
 70
     1
  0
XRECORD
  5
BD01
102
{ACAD_REACTORS
330
BD00
102
}
330
BD00
100
AcDbXrecord
280
     1
102
RTVSPost2010Prop28
280
     0
102
RTVSPost2010PropOp28
 70
     1
102
RTVSPost2010Prop29
280
     1
102
RTVSPost2010PropOp29
 70
     1
102
RTVSPost2010Prop30
280
     1
102
RTVSPost2010PropOp30
 70
     1
102
RTVSPost2010Prop31
280
     0
102
RTVSPost2010PropOp31
 70
     1
102
RTVSPost2010Prop32
280
     0
102
RTVSPost2010PropOp32
 70
     1
102
RTVSPost2010Prop33
280
     0
102
RTVSPost2010PropOp33
 70
     1
102
RTVSPost2010Prop34
280
     0
102
RTVSPost2010PropOp34
 70
     1
102
RTVSPost2010Prop35
280
     0
102
RTVSPost2010PropOp35
 70
     1
102
RTVSPost2010Prop36
280
     0
102
RTVSPost2010PropOp36
 70
     1
102
RTVSPost2010Prop37
 90
       50
102
RTVSPost2010PropOp37
 70
     1
102
RTVSPost2010Prop38
140
0.0
102
RTVSPost2010PropOp38
 70
     1
102
RTVSPost2010Prop39
140
1.0
102
RTVSPost2010PropOp39
 70
     1
102
RTVSPost2010Prop40
 90
        0
102
RTVSPost2010PropOp40
 70
     1
102
RTVSPost2010Prop41ColorIndex
 90
       18
102
RTVSPost2010Prop41ColorRGB
 90
        0
102
RTVSPost2010PropOp41
 70
     1
102
RTVSPost2010Prop42
 90
       50
102
RTVSPost2010PropOp42
 70
     1
102
RTVSPost2010Prop43
 90
        3
102
RTVSPost2010PropOp43
 70
     1
102
RTVSPost2010Prop44ColorIndex
 90
        5
102
RTVSPost2010Prop44ColorRGB
 90
      255
102
RTVSPost2010PropOp44
 70
     1
102
RTVSPost2010Prop45
280
     0
102
RTVSPost2010PropOp45
 70
     1
102
RTVSPost2010Prop46
 90
       50
102
RTVSPost2010PropOp46
 70
     1
102
RTVSPost2010Prop47
 90
       50
102
RTVSPost2010PropOp47
 70
     1
102
RTVSPost2010Prop48
 90
       50
102
RTVSPost2010PropOp48
 70
     1
102
RTVSPost2010Prop49
280
     0
102
RTVSPost2010PropOp49
 70
     1
102
RTVSPost2010Prop50
 90
       50
102
RTVSPost2010PropOp50
 70
     1
102
RTVSPost2010Prop51ColorIndex
 90
      256
102
RTVSPost2010Prop51ColorRGB
 90
-16777216
102
RTVSPost2010PropOp51
 70
     0
102
RTVSPost2010Prop52
140
1.0
102
RTVSPost2010PropOp52
 70
     0
102
RTVSPost2010Prop53
 90
        2
102
RTVSPost2010PropOp53
 70
     1
102
RTVSPost2010Prop54
  1
strokes_ogs.tif
102
RTVSPost2010PropOp54
 70
     1
102
RTVSPost2010Prop55
280
     0
102
RTVSPost2010PropOp55
 70
     1
102
RTVSPost2010Prop56
140
1.0
102
RTVSPost2010PropOp56
 70
     1
102
RTVSPost2010Prop57
140
1.0
102
RTVSPost2010PropOp57
 70
     1
102
RTVSPropertyOp0
 70
     1
102
RTVSPropertyOp1
 70
     1
102
RTVSPropertyOp2
 70
     1
102
RTVSPropertyOp3
 70
     1
102
RTVSPropertyOp4
 70
     1
102
RTVSPropertyOp5
 70
     1
102
RTVSPropertyOp6
 70
     1
102
RTVSPropertyOp7
 70
     1
102
RTVSPropertyOp8
 70
     1
102
RTVSPropertyOp9
 70
     1
102
RTVSPropertyOp10
 70
     1
102
RTVSPropertyOp11
 70
     1
102
RTVSPropertyOp12
 70
     1
102
RTVSPropertyOp13
 70
     1
102
RTVSPropertyOp14
 70
     1
102
RTVSPropertyOp15
 70
     1
102
RTVSPropertyOp16
 70
     1
102
RTVSPropertyOp17
 70
     1
102
RTVSPropertyOp18
 70
     1
102
RTVSPropertyOp19
 70
     1
102
RTVSPropertyOp20
 70
     1
102
RTVSPropertyOp21
 70
     1
102
RTVSPropertyOp22
 70
     1
102
RTVSPropertyOp23
 70
     1
102
RTVSPropertyOp24
 70
     1
102
RTVSPropertyOp25
 70
     1
102
RTVSPropertyOp26
 70
     1
102
RTVSPropertyOp27
 70
     1
102
RTVSPropertyOp28
 70
     1
102
RTVSPropertyOp29
 70
     1
102
RTVSPropertyOp30
 70
     1
102
RTVSPropertyOp31
 70
     1
102
RTVSPropertyOp32
 70
     1
102
RTVSPropertyOp33
 70
     1
102
RTVSPropertyOp34
 70
     1
102
RTVSPropertyOp35
 70
     1
102
RTVSPropertyOp36
 70
     1
102
RTVSPropertyOp37
 70
     1
102
RTVSPropertyOp38
 70
     1
102
RTVSPropertyOp39
 70
     1
102
RTVSPropertyOp40
 70
     1
102
RTVSPropertyOp41
 70
     1
102
RTVSPropertyOp42
 70
     1
102
RTVSPropertyOp43
 70
     1
102
RTVSPropertyOp44
 70
     1
102
RTVSPropertyOp45
 70
     1
102
RTVSPropertyOp46
 70
     1
102
RTVSPropertyOp47
 70
     1
102
RTVSPropertyOp48
 70
     1
102
RTVSPropertyOp49
 70
     1
102
RTVSPropertyOp50
 70
     1
102
RTVSPropertyOp51
 70
     0
102
RTVSPropertyOp52
 70
     0
102
RTVSPropertyOp53
 70
     1
102
RTVSPropertyOp54
 70
     1
102
RTVSPropertyOp55
 70
     1
102
RTVSPropertyOp56
 70
     1
102
RTVSPropertyOp57
 70
     1
102
RTVSPropertyOp58
 70
     1
102
RTVSPropertyOp59
 70
     1
102
RTVSPropertyOp60
 70
     1
102
RTVSPropertyOp61
 70
     1
102
RTVSPropertyOp62
 70
     1
  0
XRECORD
  5
BD03
102
{ACAD_REACTORS
330
BD02
102
}
330
BD02
100
AcDbXrecord
280
     1
102
RTVSPost2010Prop28
280
     0
102
RTVSPost2010PropOp28
 70
     1
102
RTVSPost2010Prop29
280
     1
102
RTVSPost2010PropOp29
 70
     1
102
RTVSPost2010Prop30
280
     1
102
RTVSPost2010PropOp30
 70
     1
102
RTVSPost2010Prop31
280
     0
102
RTVSPost2010PropOp31
 70
     1
102
RTVSPost2010Prop32
280
     0
102
RTVSPost2010PropOp32
 70
     1
102
RTVSPost2010Prop33
280
     0
102
RTVSPost2010PropOp33
 70
     1
102
RTVSPost2010Prop34
280
     0
102
RTVSPost2010PropOp34
 70
     1
102
RTVSPost2010Prop35
280
     0
102
RTVSPost2010PropOp35
 70
     1
102
RTVSPost2010Prop36
280
     0
102
RTVSPost2010PropOp36
 70
     1
102
RTVSPost2010Prop37
 90
       50
102
RTVSPost2010PropOp37
 70
     1
102
RTVSPost2010Prop38
140
0.0
102
RTVSPost2010PropOp38
 70
     1
102
RTVSPost2010Prop39
140
1.0
102
RTVSPost2010PropOp39
 70
     1
102
RTVSPost2010Prop40
 90
        0
102
RTVSPost2010PropOp40
 70
     1
102
RTVSPost2010Prop41ColorIndex
 90
       18
102
RTVSPost2010Prop41ColorRGB
 90
        0
102
RTVSPost2010PropOp41
 70
     1
102
RTVSPost2010Prop42
 90
       50
102
RTVSPost2010PropOp42
 70
     1
102
RTVSPost2010Prop43
 90
        3
102
RTVSPost2010PropOp43
 70
     1
102
RTVSPost2010Prop44ColorIndex
 90
        5
102
RTVSPost2010Prop44ColorRGB
 90
      255
102
RTVSPost2010PropOp44
 70
     1
102
RTVSPost2010Prop45
280
     0
102
RTVSPost2010PropOp45
 70
     1
102
RTVSPost2010Prop46
 90
       50
102
RTVSPost2010PropOp46
 70
     1
102
RTVSPost2010Prop47
 90
       50
102
RTVSPost2010PropOp47
 70
     1
102
RTVSPost2010Prop48
 90
       50
102
RTVSPost2010PropOp48
 70
     1
102
RTVSPost2010Prop49
280
     0
102
RTVSPost2010PropOp49
 70
     1
102
RTVSPost2010Prop50
 90
       50
102
RTVSPost2010PropOp50
 70
     1
102
RTVSPost2010Prop51ColorIndex
 90
      256
102
RTVSPost2010Prop51ColorRGB
 90
-16777216
102
RTVSPost2010PropOp51
 70
     0
102
RTVSPost2010Prop52
140
1.0
102
RTVSPost2010PropOp52
 70
     0
102
RTVSPost2010Prop53
 90
        2
102
RTVSPost2010PropOp53
 70
     1
102
RTVSPost2010Prop54
  1
strokes_ogs.tif
102
RTVSPost2010PropOp54
 70
     1
102
RTVSPost2010Prop55
280
     0
102
RTVSPost2010PropOp55
 70
     1
102
RTVSPost2010Prop56
140
1.0
102
RTVSPost2010PropOp56
 70
     1
102
RTVSPost2010Prop57
140
1.0
102
RTVSPost2010PropOp57
 70
     1
102
RTVSPropertyOp0
 70
     1
102
RTVSPropertyOp1
 70
     1
102
RTVSPropertyOp2
 70
     1
102
RTVSPropertyOp3
 70
     1
102
RTVSPropertyOp4
 70
     1
102
RTVSPropertyOp5
 70
     1
102
RTVSPropertyOp6
 70
     1
102
RTVSPropertyOp7
 70
     1
102
RTVSPropertyOp8
 70
     1
102
RTVSPropertyOp9
 70
     1
102
RTVSPropertyOp10
 70
     1
102
RTVSPropertyOp11
 70
     1
102
RTVSPropertyOp12
 70
     1
102
RTVSPropertyOp13
 70
     1
102
RTVSPropertyOp14
 70
     1
102
RTVSPropertyOp15
 70
     1
102
RTVSPropertyOp16
 70
     1
102
RTVSPropertyOp17
 70
     1
102
RTVSPropertyOp18
 70
     1
102
RTVSPropertyOp19
 70
     1
102
RTVSPropertyOp20
 70
     1
102
RTVSPropertyOp21
 70
     1
102
RTVSPropertyOp22
 70
     1
102
RTVSPropertyOp23
 70
     1
102
RTVSPropertyOp24
 70
     1
102
RTVSPropertyOp25
 70
     1
102
RTVSPropertyOp26
 70
     1
102
RTVSPropertyOp27
 70
     1
102
RTVSPropertyOp28
 70
     1
102
RTVSPropertyOp29
 70
     1
102
RTVSPropertyOp30
 70
     1
102
RTVSPropertyOp31
 70
     1
102
RTVSPropertyOp32
 70
     1
102
RTVSPropertyOp33
 70
     1
102
RTVSPropertyOp34
 70
     1
102
RTVSPropertyOp35
 70
     1
102
RTVSPropertyOp36
 70
     1
102
RTVSPropertyOp37
 70
     1
102
RTVSPropertyOp38
 70
     1
102
RTVSPropertyOp39
 70
     1
102
RTVSPropertyOp40
 70
     1
102
RTVSPropertyOp41
 70
     1
102
RTVSPropertyOp42
 70
     1
102
RTVSPropertyOp43
 70
     1
102
RTVSPropertyOp44
 70
     1
102
RTVSPropertyOp45
 70
     1
102
RTVSPropertyOp46
 70
     1
102
RTVSPropertyOp47
 70
     1
102
RTVSPropertyOp48
 70
     1
102
RTVSPropertyOp49
 70
     1
102
RTVSPropertyOp50
 70
     1
102
RTVSPropertyOp51
 70
     0
102
RTVSPropertyOp52
 70
     0
102
RTVSPropertyOp53
 70
     1
102
RTVSPropertyOp54
 70
     1
102
RTVSPropertyOp55
 70
     1
102
RTVSPropertyOp56
 70
     1
102
RTVSPropertyOp57
 70
     1
102
RTVSPropertyOp58
 70
     1
102
RTVSPropertyOp59
 70
     1
102
RTVSPropertyOp60
 70
     1
102
RTVSPropertyOp61
 70
     1
102
RTVSPropertyOp62
 70
     1
  0
XRECORD
  5
BD0B
102
{ACAD_REACTORS
330
BD0A
102
}
330
BD0A
100
AcDbXrecord
280
     1
102
RTVSPost2010Prop28
280
     0
102
RTVSPost2010PropOp28
 70
     1
102
RTVSPost2010Prop29
280
     1
102
RTVSPost2010PropOp29
 70
     1
102
RTVSPost2010Prop30
280
     1
102
RTVSPost2010PropOp30
 70
     1
102
RTVSPost2010Prop31
280
     0
102
RTVSPost2010PropOp31
 70
     1
102
RTVSPost2010Prop32
280
     0
102
RTVSPost2010PropOp32
 70
     1
102
RTVSPost2010Prop33
280
     0
102
RTVSPost2010PropOp33
 70
     1
102
RTVSPost2010Prop34
280
     0
102
RTVSPost2010PropOp34
 70
     1
102
RTVSPost2010Prop35
280
     0
102
RTVSPost2010PropOp35
 70
     1
102
RTVSPost2010Prop36
280
     0
102
RTVSPost2010PropOp36
 70
     1
102
RTVSPost2010Prop37
 90
       50
102
RTVSPost2010PropOp37
 70
     1
102
RTVSPost2010Prop38
140
0.0
102
RTVSPost2010PropOp38
 70
     1
102
RTVSPost2010Prop39
140
1.0
102
RTVSPost2010PropOp39
 70
     1
102
RTVSPost2010Prop40
 90
        0
102
RTVSPost2010PropOp40
 70
     1
102
RTVSPost2010Prop41ColorIndex
 90
       18
102
RTVSPost2010Prop41ColorRGB
 90
        0
102
RTVSPost2010PropOp41
 70
     1
102
RTVSPost2010Prop42
 90
       50
102
RTVSPost2010PropOp42
 70
     1
102
RTVSPost2010Prop43
 90
        3
102
RTVSPost2010PropOp43
 70
     1
102
RTVSPost2010Prop44ColorIndex
 90
        5
102
RTVSPost2010Prop44ColorRGB
 90
      255
102
RTVSPost2010PropOp44
 70
     1
102
RTVSPost2010Prop45
280
     0
102
RTVSPost2010PropOp45
 70
     1
102
RTVSPost2010Prop46
 90
       50
102
RTVSPost2010PropOp46
 70
     1
102
RTVSPost2010Prop47
 90
       50
102
RTVSPost2010PropOp47
 70
     1
102
RTVSPost2010Prop48
 90
       50
102
RTVSPost2010PropOp48
 70
     1
102
RTVSPost2010Prop49
280
     0
102
RTVSPost2010PropOp49
 70
     1
102
RTVSPost2010Prop50
 90
       50
102
RTVSPost2010PropOp50
 70
     1
102
RTVSPost2010Prop51ColorIndex
 90
      256
102
RTVSPost2010Prop51ColorRGB
 90
-16777216
102
RTVSPost2010PropOp51
 70
     0
102
RTVSPost2010Prop52
140
1.0
102
RTVSPost2010PropOp52
 70
     0
102
RTVSPost2010Prop53
 90
        2
102
RTVSPost2010PropOp53
 70
     1
102
RTVSPost2010Prop54
  1
strokes_ogs.tif
102
RTVSPost2010PropOp54
 70
     1
102
RTVSPost2010Prop55
280
     0
102
RTVSPost2010PropOp55
 70
     1
102
RTVSPost2010Prop56
140
1.0
102
RTVSPost2010PropOp56
 70
     1
102
RTVSPost2010Prop57
140
1.0
102
RTVSPost2010PropOp57
 70
     1
102
RTVSPropertyOp0
 70
     1
102
RTVSPropertyOp1
 70
     1
102
RTVSPropertyOp2
 70
     1
102
RTVSPropertyOp3
 70
     1
102
RTVSPropertyOp4
 70
     1
102
RTVSPropertyOp5
 70
     1
102
RTVSPropertyOp6
 70
     1
102
RTVSPropertyOp7
 70
     1
102
RTVSPropertyOp8
 70
     1
102
RTVSPropertyOp9
 70
     1
102
RTVSPropertyOp10
 70
     1
102
RTVSPropertyOp11
 70
     1
102
RTVSPropertyOp12
 70
     1
102
RTVSPropertyOp13
 70
     1
102
RTVSPropertyOp14
 70
     1
102
RTVSPropertyOp15
 70
     1
102
RTVSPropertyOp16
 70
     1
102
RTVSPropertyOp17
 70
     1
102
RTVSPropertyOp18
 70
     1
102
RTVSPropertyOp19
 70
     1
102
RTVSPropertyOp20
 70
     1
102
RTVSPropertyOp21
 70
     1
102
RTVSPropertyOp22
 70
     1
102
RTVSPropertyOp23
 70
     1
102
RTVSPropertyOp24
 70
     1
102
RTVSPropertyOp25
 70
     1
102
RTVSPropertyOp26
 70
     1
102
RTVSPropertyOp27
 70
     1
102
RTVSPropertyOp28
 70
     1
102
RTVSPropertyOp29
 70
     1
102
RTVSPropertyOp30
 70
     1
102
RTVSPropertyOp31
 70
     1
102
RTVSPropertyOp32
 70
     1
102
RTVSPropertyOp33
 70
     1
102
RTVSPropertyOp34
 70
     1
102
RTVSPropertyOp35
 70
     1
102
RTVSPropertyOp36
 70
     1
102
RTVSPropertyOp37
 70
     1
102
RTVSPropertyOp38
 70
     1
102
RTVSPropertyOp39
 70
     1
102
RTVSPropertyOp40
 70
     1
102
RTVSPropertyOp41
 70
     1
102
RTVSPropertyOp42
 70
     1
102
RTVSPropertyOp43
 70
     1
102
RTVSPropertyOp44
 70
     1
102
RTVSPropertyOp45
 70
     1
102
RTVSPropertyOp46
 70
     1
102
RTVSPropertyOp47
 70
     1
102
RTVSPropertyOp48
 70
     1
102
RTVSPropertyOp49
 70
     1
102
RTVSPropertyOp50
 70
     1
102
RTVSPropertyOp51
 70
     0
102
RTVSPropertyOp52
 70
     0
102
RTVSPropertyOp53
 70
     1
102
RTVSPropertyOp54
 70
     1
102
RTVSPropertyOp55
 70
     1
102
RTVSPropertyOp56
 70
     1
102
RTVSPropertyOp57
 70
     1
102
RTVSPropertyOp58
 70
     1
102
RTVSPropertyOp59
 70
     1
102
RTVSPropertyOp60
 70
     1
102
RTVSPropertyOp61
 70
     1
102
RTVSPropertyOp62
 70
     1
  0
XRECORD
  5
BD27
102
{ACAD_REACTORS
330
BD26
102
}
330
BD26
100
AcDbXrecord
280
     1
102
RTVSPost2010Prop28
280
     0
102
RTVSPost2010PropOp28
 70
     1
102
RTVSPost2010Prop29
280
     1
102
RTVSPost2010PropOp29
 70
     1
102
RTVSPost2010Prop30
280
     1
102
RTVSPost2010PropOp30
 70
     1
102
RTVSPost2010Prop31
280
     0
102
RTVSPost2010PropOp31
 70
     1
102
RTVSPost2010Prop32
280
     0
102
RTVSPost2010PropOp32
 70
     1
102
RTVSPost2010Prop33
280
     0
102
RTVSPost2010PropOp33
 70
     1
102
RTVSPost2010Prop34
280
     0
102
RTVSPost2010PropOp34
 70
     1
102
RTVSPost2010Prop35
280
     0
102
RTVSPost2010PropOp35
 70
     1
102
RTVSPost2010Prop36
280
     0
102
RTVSPost2010PropOp36
 70
     1
102
RTVSPost2010Prop37
 90
       50
102
RTVSPost2010PropOp37
 70
     0
102
RTVSPost2010Prop38
140
0.0
102
RTVSPost2010PropOp38
 70
     0
102
RTVSPost2010Prop39
140
1.0
102
RTVSPost2010PropOp39
 70
     0
102
RTVSPost2010Prop40
 90
        0
102
RTVSPost2010PropOp40
 70
     0
102
RTVSPost2010Prop41ColorIndex
 90
       18
102
RTVSPost2010Prop41ColorRGB
 90
        0
102
RTVSPost2010PropOp41
 70
     0
102
RTVSPost2010Prop42
 90
       50
102
RTVSPost2010PropOp42
 70
     0
102
RTVSPost2010Prop43
 90
        3
102
RTVSPost2010PropOp43
 70
     0
102
RTVSPost2010Prop44ColorIndex
 90
        5
102
RTVSPost2010Prop44ColorRGB
 90
      255
102
RTVSPost2010PropOp44
 70
     0
102
RTVSPost2010Prop45
280
     0
102
RTVSPost2010PropOp45
 70
     1
102
RTVSPost2010Prop46
 90
       50
102
RTVSPost2010PropOp46
 70
     0
102
RTVSPost2010Prop47
 90
       50
102
RTVSPost2010PropOp47
 70
     0
102
RTVSPost2010Prop48
 90
       50
102
RTVSPost2010PropOp48
 70
     0
102
RTVSPost2010Prop49
280
     0
102
RTVSPost2010PropOp49
 70
     1
102
RTVSPost2010Prop50
 90
       50
102
RTVSPost2010PropOp50
 70
     0
102
RTVSPost2010Prop51ColorIndex
 90
      256
102
RTVSPost2010Prop51ColorRGB
 90
-16777216
102
RTVSPost2010PropOp51
 70
     0
102
RTVSPost2010Prop52
140
1.0
102
RTVSPost2010PropOp52
 70
     0
102
RTVSPost2010Prop53
 90
        2
102
RTVSPost2010PropOp53
 70
     0
102
RTVSPost2010Prop54
  1
strokes_ogs.tif
102
RTVSPost2010PropOp54
 70
     0
102
RTVSPost2010Prop55
280
     0
102
RTVSPost2010PropOp55
 70
     1
102
RTVSPost2010Prop56
140
1.0
102
RTVSPost2010PropOp56
 70
     0
102
RTVSPost2010Prop57
140
1.0
102
RTVSPost2010PropOp57
 70
     0
102
RTVSPropertyOp0
 70
     0
102
RTVSPropertyOp1
 70
     0
102
RTVSPropertyOp2
 70
     0
102
RTVSPropertyOp3
 70
     0
102
RTVSPropertyOp4
 70
     0
102
RTVSPropertyOp5
 70
     0
102
RTVSPropertyOp6
 70
     0
102
RTVSPropertyOp7
 70
     0
102
RTVSPropertyOp8
 70
     0
102
RTVSPropertyOp9
 70
     0
102
RTVSPropertyOp10
 70
     0
102
RTVSPropertyOp11
 70
     0
102
RTVSPropertyOp12
 70
     0
102
RTVSPropertyOp13
 70
     0
102
RTVSPropertyOp14
 70
     2
102
RTVSPropertyOp15
 70
     0
102
RTVSPropertyOp16
 70
     0
102
RTVSPropertyOp17
 70
     0
102
RTVSPropertyOp18
 70
     0
102
RTVSPropertyOp19
 70
     0
102
RTVSPropertyOp20
 70
     0
102
RTVSPropertyOp21
 70
     0
102
RTVSPropertyOp22
 70
     0
102
RTVSPropertyOp23
 70
     0
102
RTVSPropertyOp24
 70
     0
102
RTVSPropertyOp25
 70
     0
102
RTVSPropertyOp26
 70
     0
102
RTVSPropertyOp27
 70
     0
102
RTVSPropertyOp28
 70
     1
102
RTVSPropertyOp29
 70
     1
102
RTVSPropertyOp30
 70
     1
102
RTVSPropertyOp31
 70
     1
102
RTVSPropertyOp32
 70
     1
102
RTVSPropertyOp33
 70
     1
102
RTVSPropertyOp34
 70
     1
102
RTVSPropertyOp35
 70
     1
102
RTVSPropertyOp36
 70
     1
102
RTVSPropertyOp37
 70
     0
102
RTVSPropertyOp38
 70
     0
102
RTVSPropertyOp39
 70
     0
102
RTVSPropertyOp40
 70
     0
102
RTVSPropertyOp41
 70
     0
102
RTVSPropertyOp42
 70
     0
102
RTVSPropertyOp43
 70
     0
102
RTVSPropertyOp44
 70
     0
102
RTVSPropertyOp45
 70
     1
102
RTVSPropertyOp46
 70
     0
102
RTVSPropertyOp47
 70
     0
102
RTVSPropertyOp48
 70
     0
102
RTVSPropertyOp49
 70
     1
102
RTVSPropertyOp50
 70
     0
102
RTVSPropertyOp51
 70
     0
102
RTVSPropertyOp52
 70
     0
102
RTVSPropertyOp53
 70
     0
102
RTVSPropertyOp54
 70
     0
102
RTVSPropertyOp55
 70
     1
102
RTVSPropertyOp56
 70
     0
102
RTVSPropertyOp57
 70
     0
102
RTVSPropertyOp58
 70
     0
102
RTVSPropertyOp59
 70
     0
102
RTVSPropertyOp60
 70
     0
102
RTVSPropertyOp61
 70
     0
102
RTVSPropertyOp62
 70
     0
  0
XRECORD
  5
BD17
102
{ACAD_REACTORS
330
BD16
102
}
330
BD16
100
AcDbXrecord
280
     1
102
RTVSPost2010Prop28
280
     0
102
RTVSPost2010PropOp28
 70
     1
102
RTVSPost2010Prop29
280
     1
102
RTVSPost2010PropOp29
 70
     1
102
RTVSPost2010Prop30
280
     1
102
RTVSPost2010PropOp30
 70
     1
102
RTVSPost2010Prop31
280
     0
102
RTVSPost2010PropOp31
 70
     1
102
RTVSPost2010Prop32
280
     0
102
RTVSPost2010PropOp32
 70
     1
102
RTVSPost2010Prop33
280
     0
102
RTVSPost2010PropOp33
 70
     1
102
RTVSPost2010Prop34
280
     0
102
RTVSPost2010PropOp34
 70
     1
102
RTVSPost2010Prop35
280
     0
102
RTVSPost2010PropOp35
 70
     1
102
RTVSPost2010Prop36
280
     0
102
RTVSPost2010PropOp36
 70
     1
102
RTVSPost2010Prop37
 90
       50
102
RTVSPost2010PropOp37
 70
     1
102
RTVSPost2010Prop38
140
0.0
102
RTVSPost2010PropOp38
 70
     1
102
RTVSPost2010Prop39
140
1.0
102
RTVSPost2010PropOp39
 70
     1
102
RTVSPost2010Prop40
 90
        0
102
RTVSPost2010PropOp40
 70
     1
102
RTVSPost2010Prop41ColorIndex
 90
       18
102
RTVSPost2010Prop41ColorRGB
 90
        0
102
RTVSPost2010PropOp41
 70
     1
102
RTVSPost2010Prop42
 90
       50
102
RTVSPost2010PropOp42
 70
     1
102
RTVSPost2010Prop43
 90
        3
102
RTVSPost2010PropOp43
 70
     1
102
RTVSPost2010Prop44ColorIndex
 90
        5
102
RTVSPost2010Prop44ColorRGB
 90
      255
102
RTVSPost2010PropOp44
 70
     1
102
RTVSPost2010Prop45
280
     0
102
RTVSPost2010PropOp45
 70
     1
102
RTVSPost2010Prop46
 90
       50
102
RTVSPost2010PropOp46
 70
     1
102
RTVSPost2010Prop47
 90
       50
102
RTVSPost2010PropOp47
 70
     1
102
RTVSPost2010Prop48
 90
       50
102
RTVSPost2010PropOp48
 70
     1
102
RTVSPost2010Prop49
280
     0
102
RTVSPost2010PropOp49
 70
     1
102
RTVSPost2010Prop50
 90
       50
102
RTVSPost2010PropOp50
 70
     1
102
RTVSPost2010Prop51ColorIndex
 90
      256
102
RTVSPost2010Prop51ColorRGB
 90
-16777216
102
RTVSPost2010PropOp51
 70
     0
102
RTVSPost2010Prop52
140
1.0
102
RTVSPost2010PropOp52
 70
     0
102
RTVSPost2010Prop53
 90
        2
102
RTVSPost2010PropOp53
 70
     1
102
RTVSPost2010Prop54
  1
strokes_ogs.tif
102
RTVSPost2010PropOp54
 70
     1
102
RTVSPost2010Prop55
280
     0
102
RTVSPost2010PropOp55
 70
     1
102
RTVSPost2010Prop56
140
1.0
102
RTVSPost2010PropOp56
 70
     1
102
RTVSPost2010Prop57
140
1.0
102
RTVSPost2010PropOp57
 70
     1
102
RTVSPropertyOp0
 70
     1
102
RTVSPropertyOp1
 70
     1
102
RTVSPropertyOp2
 70
     1
102
RTVSPropertyOp3
 70
     1
102
RTVSPropertyOp4
 70
     1
102
RTVSPropertyOp5
 70
     1
102
RTVSPropertyOp6
 70
     1
102
RTVSPropertyOp7
 70
     1
102
RTVSPropertyOp8
 70
     1
102
RTVSPropertyOp9
 70
     1
102
RTVSPropertyOp10
 70
     1
102
RTVSPropertyOp11
 70
     1
102
RTVSPropertyOp12
 70
     1
102
RTVSPropertyOp13
 70
     1
102
RTVSPropertyOp14
 70
     1
102
RTVSPropertyOp15
 70
     1
102
RTVSPropertyOp16
 70
     1
102
RTVSPropertyOp17
 70
     1
102
RTVSPropertyOp18
 70
     1
102
RTVSPropertyOp19
 70
     1
102
RTVSPropertyOp20
 70
     1
102
RTVSPropertyOp21
 70
     1
102
RTVSPropertyOp22
 70
     1
102
RTVSPropertyOp23
 70
     1
102
RTVSPropertyOp24
 70
     1
102
RTVSPropertyOp25
 70
     1
102
RTVSPropertyOp26
 70
     1
102
RTVSPropertyOp27
 70
     1
102
RTVSPropertyOp28
 70
     1
102
RTVSPropertyOp29
 70
     1
102
RTVSPropertyOp30
 70
     1
102
RTVSPropertyOp31
 70
     1
102
RTVSPropertyOp32
 70
     1
102
RTVSPropertyOp33
 70
     1
102
RTVSPropertyOp34
 70
     1
102
RTVSPropertyOp35
 70
     1
102
RTVSPropertyOp36
 70
     1
102
RTVSPropertyOp37
 70
     1
102
RTVSPropertyOp38
 70
     1
102
RTVSPropertyOp39
 70
     1
102
RTVSPropertyOp40
 70
     1
102
RTVSPropertyOp41
 70
     1
102
RTVSPropertyOp42
 70
     1
102
RTVSPropertyOp43
 70
     1
102
RTVSPropertyOp44
 70
     1
102
RTVSPropertyOp45
 70
     1
102
RTVSPropertyOp46
 70
     1
102
RTVSPropertyOp47
 70
     1
102
RTVSPropertyOp48
 70
     1
102
RTVSPropertyOp49
 70
     1
102
RTVSPropertyOp50
 70
     1
102
RTVSPropertyOp51
 70
     0
102
RTVSPropertyOp52
 70
     0
102
RTVSPropertyOp53
 70
     1
102
RTVSPropertyOp54
 70
     1
102
RTVSPropertyOp55
 70
     1
102
RTVSPropertyOp56
 70
     1
102
RTVSPropertyOp57
 70
     1
102
RTVSPropertyOp58
 70
     1
102
RTVSPropertyOp59
 70
     1
102
RTVSPropertyOp60
 70
     1
102
RTVSPropertyOp61
 70
     1
102
RTVSPropertyOp62
 70
     1
  0
XRECORD
  5
BD29
102
{ACAD_REACTORS
330
BD28
102
}
330
BD28
100
AcDbXrecord
280
     1
102
RTVSPost2010Prop28
280
     0
102
RTVSPost2010PropOp28
 70
     1
102
RTVSPost2010Prop29
280
     1
102
RTVSPost2010PropOp29
 70
     1
102
RTVSPost2010Prop30
280
     1
102
RTVSPost2010PropOp30
 70
     1
102
RTVSPost2010Prop31
280
     0
102
RTVSPost2010PropOp31
 70
     1
102
RTVSPost2010Prop32
280
     0
102
RTVSPost2010PropOp32
 70
     1
102
RTVSPost2010Prop33
280
     0
102
RTVSPost2010PropOp33
 70
     1
102
RTVSPost2010Prop34
280
     0
102
RTVSPost2010PropOp34
 70
     1
102
RTVSPost2010Prop35
280
     0
102
RTVSPost2010PropOp35
 70
     1
102
RTVSPost2010Prop36
280
     0
102
RTVSPost2010PropOp36
 70
     1
102
RTVSPost2010Prop37
 90
       50
102
RTVSPost2010PropOp37
 70
     0
102
RTVSPost2010Prop38
140
0.0
102
RTVSPost2010PropOp38
 70
     0
102
RTVSPost2010Prop39
140
1.0
102
RTVSPost2010PropOp39
 70
     0
102
RTVSPost2010Prop40
 90
        0
102
RTVSPost2010PropOp40
 70
     0
102
RTVSPost2010Prop41ColorIndex
 90
       18
102
RTVSPost2010Prop41ColorRGB
 90
        0
102
RTVSPost2010PropOp41
 70
     0
102
RTVSPost2010Prop42
 90
       50
102
RTVSPost2010PropOp42
 70
     0
102
RTVSPost2010Prop43
 90
        3
102
RTVSPost2010PropOp43
 70
     0
102
RTVSPost2010Prop44ColorIndex
 90
        5
102
RTVSPost2010Prop44ColorRGB
 90
      255
102
RTVSPost2010PropOp44
 70
     0
102
RTVSPost2010Prop45
280
     0
102
RTVSPost2010PropOp45
 70
     1
102
RTVSPost2010Prop46
 90
       50
102
RTVSPost2010PropOp46
 70
     0
102
RTVSPost2010Prop47
 90
       50
102
RTVSPost2010PropOp47
 70
     0
102
RTVSPost2010Prop48
 90
       50
102
RTVSPost2010PropOp48
 70
     0
102
RTVSPost2010Prop49
280
     0
102
RTVSPost2010PropOp49
 70
     1
102
RTVSPost2010Prop50
 90
       50
102
RTVSPost2010PropOp50
 70
     0
102
RTVSPost2010Prop51ColorIndex
 90
      256
102
RTVSPost2010Prop51ColorRGB
 90
-16777216
102
RTVSPost2010PropOp51
 70
     0
102
RTVSPost2010Prop52
140
1.0
102
RTVSPost2010PropOp52
 70
     0
102
RTVSPost2010Prop53
 90
        2
102
RTVSPost2010PropOp53
 70
     0
102
RTVSPost2010Prop54
  1
strokes_ogs.tif
102
RTVSPost2010PropOp54
 70
     0
102
RTVSPost2010Prop55
280
     0
102
RTVSPost2010PropOp55
 70
     1
102
RTVSPost2010Prop56
140
1.0
102
RTVSPost2010PropOp56
 70
     0
102
RTVSPost2010Prop57
140
1.0
102
RTVSPost2010PropOp57
 70
     0
102
RTVSPropertyOp0
 70
     0
102
RTVSPropertyOp1
 70
     0
102
RTVSPropertyOp2
 70
     0
102
RTVSPropertyOp3
 70
     0
102
RTVSPropertyOp4
 70
     0
102
RTVSPropertyOp5
 70
     0
102
RTVSPropertyOp6
 70
     0
102
RTVSPropertyOp7
 70
     0
102
RTVSPropertyOp8
 70
     0
102
RTVSPropertyOp9
 70
     0
102
RTVSPropertyOp10
 70
     0
102
RTVSPropertyOp11
 70
     0
102
RTVSPropertyOp12
 70
     0
102
RTVSPropertyOp13
 70
     0
102
RTVSPropertyOp14
 70
     2
102
RTVSPropertyOp15
 70
     0
102
RTVSPropertyOp16
 70
     0
102
RTVSPropertyOp17
 70
     0
102
RTVSPropertyOp18
 70
     0
102
RTVSPropertyOp19
 70
     0
102
RTVSPropertyOp20
 70
     0
102
RTVSPropertyOp21
 70
     0
102
RTVSPropertyOp22
 70
     0
102
RTVSPropertyOp23
 70
     0
102
RTVSPropertyOp24
 70
     0
102
RTVSPropertyOp25
 70
     0
102
RTVSPropertyOp26
 70
     0
102
RTVSPropertyOp27
 70
     0
102
RTVSPropertyOp28
 70
     1
102
RTVSPropertyOp29
 70
     1
102
RTVSPropertyOp30
 70
     1
102
RTVSPropertyOp31
 70
     1
102
RTVSPropertyOp32
 70
     1
102
RTVSPropertyOp33
 70
     1
102
RTVSPropertyOp34
 70
     1
102
RTVSPropertyOp35
 70
     1
102
RTVSPropertyOp36
 70
     1
102
RTVSPropertyOp37
 70
     0
102
RTVSPropertyOp38
 70
     0
102
RTVSPropertyOp39
 70
     0
102
RTVSPropertyOp40
 70
     0
102
RTVSPropertyOp41
 70
     0
102
RTVSPropertyOp42
 70
     0
102
RTVSPropertyOp43
 70
     0
102
RTVSPropertyOp44
 70
     0
102
RTVSPropertyOp45
 70
     1
102
RTVSPropertyOp46
 70
     0
102
RTVSPropertyOp47
 70
     0
102
RTVSPropertyOp48
 70
     0
102
RTVSPropertyOp49
 70
     1
102
RTVSPropertyOp50
 70
     0
102
RTVSPropertyOp51
 70
     0
102
RTVSPropertyOp52
 70
     0
102
RTVSPropertyOp53
 70
     0
102
RTVSPropertyOp54
 70
     0
102
RTVSPropertyOp55
 70
     1
102
RTVSPropertyOp56
 70
     0
102
RTVSPropertyOp57
 70
     0
102
RTVSPropertyOp58
 70
     0
102
RTVSPropertyOp59
 70
     0
102
RTVSPropertyOp60
 70
     0
102
RTVSPropertyOp61
 70
     0
102
RTVSPropertyOp62
 70
     0
  0
XRECORD
  5
BD0F
102
{ACAD_REACTORS
330
BD0E
102
}
330
BD0E
100
AcDbXrecord
280
     1
102
RTVSPost2010Prop28
280
     0
102
RTVSPost2010PropOp28
 70
     1
102
RTVSPost2010Prop29
280
     1
102
RTVSPost2010PropOp29
 70
     1
102
RTVSPost2010Prop30
280
     1
102
RTVSPost2010PropOp30
 70
     1
102
RTVSPost2010Prop31
280
     0
102
RTVSPost2010PropOp31
 70
     1
102
RTVSPost2010Prop32
280
     0
102
RTVSPost2010PropOp32
 70
     1
102
RTVSPost2010Prop33
280
     0
102
RTVSPost2010PropOp33
 70
     1
102
RTVSPost2010Prop34
280
     0
102
RTVSPost2010PropOp34
 70
     1
102
RTVSPost2010Prop35
280
     0
102
RTVSPost2010PropOp35
 70
     1
102
RTVSPost2010Prop36
280
     0
102
RTVSPost2010PropOp36
 70
     1
102
RTVSPost2010Prop37
 90
       50
102
RTVSPost2010PropOp37
 70
     1
102
RTVSPost2010Prop38
140
0.0
102
RTVSPost2010PropOp38
 70
     1
102
RTVSPost2010Prop39
140
1.0
102
RTVSPost2010PropOp39
 70
     1
102
RTVSPost2010Prop40
 90
        0
102
RTVSPost2010PropOp40
 70
     1
102
RTVSPost2010Prop41ColorIndex
 90
       18
102
RTVSPost2010Prop41ColorRGB
 90
        0
102
RTVSPost2010PropOp41
 70
     1
102
RTVSPost2010Prop42
 90
       50
102
RTVSPost2010PropOp42
 70
     1
102
RTVSPost2010Prop43
 90
        3
102
RTVSPost2010PropOp43
 70
     1
102
RTVSPost2010Prop44ColorIndex
 90
        5
102
RTVSPost2010Prop44ColorRGB
 90
      255
102
RTVSPost2010PropOp44
 70
     1
102
RTVSPost2010Prop45
280
     0
102
RTVSPost2010PropOp45
 70
     1
102
RTVSPost2010Prop46
 90
       50
102
RTVSPost2010PropOp46
 70
     1
102
RTVSPost2010Prop47
 90
       50
102
RTVSPost2010PropOp47
 70
     1
102
RTVSPost2010Prop48
 90
       50
102
RTVSPost2010PropOp48
 70
     1
102
RTVSPost2010Prop49
280
     0
102
RTVSPost2010PropOp49
 70
     1
102
RTVSPost2010Prop50
 90
       50
102
RTVSPost2010PropOp50
 70
     1
102
RTVSPost2010Prop51ColorIndex
 90
      256
102
RTVSPost2010Prop51ColorRGB
 90
-16777216
102
RTVSPost2010PropOp51
 70
     0
102
RTVSPost2010Prop52
140
1.0
102
RTVSPost2010PropOp52
 70
     0
102
RTVSPost2010Prop53
 90
        2
102
RTVSPost2010PropOp53
 70
     1
102
RTVSPost2010Prop54
  1
strokes_ogs.tif
102
RTVSPost2010PropOp54
 70
     1
102
RTVSPost2010Prop55
280
     0
102
RTVSPost2010PropOp55
 70
     1
102
RTVSPost2010Prop56
140
1.0
102
RTVSPost2010PropOp56
 70
     1
102
RTVSPost2010Prop57
140
1.0
102
RTVSPost2010PropOp57
 70
     1
102
RTVSPropertyOp0
 70
     1
102
RTVSPropertyOp1
 70
     1
102
RTVSPropertyOp2
 70
     1
102
RTVSPropertyOp3
 70
     1
102
RTVSPropertyOp4
 70
     1
102
RTVSPropertyOp5
 70
     1
102
RTVSPropertyOp6
 70
     1
102
RTVSPropertyOp7
 70
     1
102
RTVSPropertyOp8
 70
     1
102
RTVSPropertyOp9
 70
     1
102
RTVSPropertyOp10
 70
     1
102
RTVSPropertyOp11
 70
     1
102
RTVSPropertyOp12
 70
     1
102
RTVSPropertyOp13
 70
     1
102
RTVSPropertyOp14
 70
     1
102
RTVSPropertyOp15
 70
     1
102
RTVSPropertyOp16
 70
     1
102
RTVSPropertyOp17
 70
     1
102
RTVSPropertyOp18
 70
     1
102
RTVSPropertyOp19
 70
     1
102
RTVSPropertyOp20
 70
     1
102
RTVSPropertyOp21
 70
     1
102
RTVSPropertyOp22
 70
     1
102
RTVSPropertyOp23
 70
     1
102
RTVSPropertyOp24
 70
     1
102
RTVSPropertyOp25
 70
     1
102
RTVSPropertyOp26
 70
     1
102
RTVSPropertyOp27
 70
     1
102
RTVSPropertyOp28
 70
     1
102
RTVSPropertyOp29
 70
     1
102
RTVSPropertyOp30
 70
     1
102
RTVSPropertyOp31
 70
     1
102
RTVSPropertyOp32
 70
     1
102
RTVSPropertyOp33
 70
     1
102
RTVSPropertyOp34
 70
     1
102
RTVSPropertyOp35
 70
     1
102
RTVSPropertyOp36
 70
     1
102
RTVSPropertyOp37
 70
     1
102
RTVSPropertyOp38
 70
     1
102
RTVSPropertyOp39
 70
     1
102
RTVSPropertyOp40
 70
     1
102
RTVSPropertyOp41
 70
     1
102
RTVSPropertyOp42
 70
     1
102
RTVSPropertyOp43
 70
     1
102
RTVSPropertyOp44
 70
     1
102
RTVSPropertyOp45
 70
     1
102
RTVSPropertyOp46
 70
     1
102
RTVSPropertyOp47
 70
     1
102
RTVSPropertyOp48
 70
     1
102
RTVSPropertyOp49
 70
     1
102
RTVSPropertyOp50
 70
     1
102
RTVSPropertyOp51
 70
     0
102
RTVSPropertyOp52
 70
     0
102
RTVSPropertyOp53
 70
     1
102
RTVSPropertyOp54
 70
     1
102
RTVSPropertyOp55
 70
     1
102
RTVSPropertyOp56
 70
     1
102
RTVSPropertyOp57
 70
     1
102
RTVSPropertyOp58
 70
     1
102
RTVSPropertyOp59
 70
     1
102
RTVSPropertyOp60
 70
     1
102
RTVSPropertyOp61
 70
     1
102
RTVSPropertyOp62
 70
     1
  0
XRECORD
  5
BD25
102
{ACAD_REACTORS
330
BD24
102
}
330
BD24
100
AcDbXrecord
280
     1
102
RTVSPost2010Prop28
280
     0
102
RTVSPost2010PropOp28
 70
     1
102
RTVSPost2010Prop29
280
     1
102
RTVSPost2010PropOp29
 70
     1
102
RTVSPost2010Prop30
280
     1
102
RTVSPost2010PropOp30
 70
     1
102
RTVSPost2010Prop31
280
     0
102
RTVSPost2010PropOp31
 70
     1
102
RTVSPost2010Prop32
280
     0
102
RTVSPost2010PropOp32
 70
     1
102
RTVSPost2010Prop33
280
     0
102
RTVSPost2010PropOp33
 70
     1
102
RTVSPost2010Prop34
280
     0
102
RTVSPost2010PropOp34
 70
     1
102
RTVSPost2010Prop35
280
     0
102
RTVSPost2010PropOp35
 70
     1
102
RTVSPost2010Prop36
280
     0
102
RTVSPost2010PropOp36
 70
     1
102
RTVSPost2010Prop37
 90
       50
102
RTVSPost2010PropOp37
 70
     1
102
RTVSPost2010Prop38
140
0.0
102
RTVSPost2010PropOp38
 70
     1
102
RTVSPost2010Prop39
140
1.0
102
RTVSPost2010PropOp39
 70
     1
102
RTVSPost2010Prop40
 90
        0
102
RTVSPost2010PropOp40
 70
     1
102
RTVSPost2010Prop41ColorIndex
 90
       18
102
RTVSPost2010Prop41ColorRGB
 90
        0
102
RTVSPost2010PropOp41
 70
     1
102
RTVSPost2010Prop42
 90
       50
102
RTVSPost2010PropOp42
 70
     1
102
RTVSPost2010Prop43
 90
        3
102
RTVSPost2010PropOp43
 70
     1
102
RTVSPost2010Prop44ColorIndex
 90
        5
102
RTVSPost2010Prop44ColorRGB
 90
      255
102
RTVSPost2010PropOp44
 70
     1
102
RTVSPost2010Prop45
280
     0
102
RTVSPost2010PropOp45
 70
     1
102
RTVSPost2010Prop46
 90
       50
102
RTVSPost2010PropOp46
 70
     1
102
RTVSPost2010Prop47
 90
       50
102
RTVSPost2010PropOp47
 70
     1
102
RTVSPost2010Prop48
 90
       50
102
RTVSPost2010PropOp48
 70
     1
102
RTVSPost2010Prop49
280
     0
102
RTVSPost2010PropOp49
 70
     1
102
RTVSPost2010Prop50
 90
       50
102
RTVSPost2010PropOp50
 70
     1
102
RTVSPost2010Prop51ColorIndex
 90
      256
102
RTVSPost2010Prop51ColorRGB
 90
-16777216
102
RTVSPost2010PropOp51
 70
     0
102
RTVSPost2010Prop52
140
1.0
102
RTVSPost2010PropOp52
 70
     0
102
RTVSPost2010Prop53
 90
        2
102
RTVSPost2010PropOp53
 70
     1
102
RTVSPost2010Prop54
  1
strokes_ogs.tif
102
RTVSPost2010PropOp54
 70
     1
102
RTVSPost2010Prop55
280
     0
102
RTVSPost2010PropOp55
 70
     1
102
RTVSPost2010Prop56
140
1.0
102
RTVSPost2010PropOp56
 70
     1
102
RTVSPost2010Prop57
140
1.0
102
RTVSPost2010PropOp57
 70
     1
102
RTVSPropertyOp0
 70
     1
102
RTVSPropertyOp1
 70
     1
102
RTVSPropertyOp2
 70
     1
102
RTVSPropertyOp3
 70
     1
102
RTVSPropertyOp4
 70
     1
102
RTVSPropertyOp5
 70
     1
102
RTVSPropertyOp6
 70
     1
102
RTVSPropertyOp7
 70
     1
102
RTVSPropertyOp8
 70
     1
102
RTVSPropertyOp9
 70
     1
102
RTVSPropertyOp10
 70
     1
102
RTVSPropertyOp11
 70
     1
102
RTVSPropertyOp12
 70
     1
102
RTVSPropertyOp13
 70
     1
102
RTVSPropertyOp14
 70
     1
102
RTVSPropertyOp15
 70
     1
102
RTVSPropertyOp16
 70
     1
102
RTVSPropertyOp17
 70
     1
102
RTVSPropertyOp18
 70
     1
102
RTVSPropertyOp19
 70
     1
102
RTVSPropertyOp20
 70
     1
102
RTVSPropertyOp21
 70
     1
102
RTVSPropertyOp22
 70
     1
102
RTVSPropertyOp23
 70
     1
102
RTVSPropertyOp24
 70
     1
102
RTVSPropertyOp25
 70
     1
102
RTVSPropertyOp26
 70
     1
102
RTVSPropertyOp27
 70
     1
102
RTVSPropertyOp28
 70
     1
102
RTVSPropertyOp29
 70
     1
102
RTVSPropertyOp30
 70
     1
102
RTVSPropertyOp31
 70
     1
102
RTVSPropertyOp32
 70
     1
102
RTVSPropertyOp33
 70
     1
102
RTVSPropertyOp34
 70
     1
102
RTVSPropertyOp35
 70
     1
102
RTVSPropertyOp36
 70
     1
102
RTVSPropertyOp37
 70
     1
102
RTVSPropertyOp38
 70
     1
102
RTVSPropertyOp39
 70
     1
102
RTVSPropertyOp40
 70
     1
102
RTVSPropertyOp41
 70
     1
102
RTVSPropertyOp42
 70
     1
102
RTVSPropertyOp43
 70
     1
102
RTVSPropertyOp44
 70
     1
102
RTVSPropertyOp45
 70
     1
102
RTVSPropertyOp46
 70
     1
102
RTVSPropertyOp47
 70
     1
102
RTVSPropertyOp48
 70
     1
102
RTVSPropertyOp49
 70
     1
102
RTVSPropertyOp50
 70
     1
102
RTVSPropertyOp51
 70
     0
102
RTVSPropertyOp52
 70
     0
102
RTVSPropertyOp53
 70
     1
102
RTVSPropertyOp54
 70
     1
102
RTVSPropertyOp55
 70
     1
102
RTVSPropertyOp56
 70
     1
102
RTVSPropertyOp57
 70
     1
102
RTVSPropertyOp58
 70
     1
102
RTVSPropertyOp59
 70
     1
102
RTVSPropertyOp60
 70
     1
102
RTVSPropertyOp61
 70
     1
102
RTVSPropertyOp62
 70
     1
  0
XRECORD
  5
BD23
102
{ACAD_REACTORS
330
BD22
102
}
330
BD22
100
AcDbXrecord
280
     1
102
RTVSPost2010Prop28
280
     0
102
RTVSPost2010PropOp28
 70
     1
102
RTVSPost2010Prop29
280
     1
102
RTVSPost2010PropOp29
 70
     1
102
RTVSPost2010Prop30
280
     1
102
RTVSPost2010PropOp30
 70
     1
102
RTVSPost2010Prop31
280
     0
102
RTVSPost2010PropOp31
 70
     1
102
RTVSPost2010Prop32
280
     0
102
RTVSPost2010PropOp32
 70
     1
102
RTVSPost2010Prop33
280
     0
102
RTVSPost2010PropOp33
 70
     1
102
RTVSPost2010Prop34
280
     0
102
RTVSPost2010PropOp34
 70
     1
102
RTVSPost2010Prop35
280
     0
102
RTVSPost2010PropOp35
 70
     1
102
RTVSPost2010Prop36
280
     0
102
RTVSPost2010PropOp36
 70
     1
102
RTVSPost2010Prop37
 90
       50
102
RTVSPost2010PropOp37
 70
     1
102
RTVSPost2010Prop38
140
0.0
102
RTVSPost2010PropOp38
 70
     1
102
RTVSPost2010Prop39
140
1.0
102
RTVSPost2010PropOp39
 70
     1
102
RTVSPost2010Prop40
 90
        0
102
RTVSPost2010PropOp40
 70
     1
102
RTVSPost2010Prop41ColorIndex
 90
       18
102
RTVSPost2010Prop41ColorRGB
 90
        0
102
RTVSPost2010PropOp41
 70
     1
102
RTVSPost2010Prop42
 90
       50
102
RTVSPost2010PropOp42
 70
     1
102
RTVSPost2010Prop43
 90
        3
102
RTVSPost2010PropOp43
 70
     1
102
RTVSPost2010Prop44ColorIndex
 90
        5
102
RTVSPost2010Prop44ColorRGB
 90
      255
102
RTVSPost2010PropOp44
 70
     1
102
RTVSPost2010Prop45
280
     0
102
RTVSPost2010PropOp45
 70
     1
102
RTVSPost2010Prop46
 90
       50
102
RTVSPost2010PropOp46
 70
     1
102
RTVSPost2010Prop47
 90
       50
102
RTVSPost2010PropOp47
 70
     1
102
RTVSPost2010Prop48
 90
       50
102
RTVSPost2010PropOp48
 70
     1
102
RTVSPost2010Prop49
280
     0
102
RTVSPost2010PropOp49
 70
     1
102
RTVSPost2010Prop50
 90
       50
102
RTVSPost2010PropOp50
 70
     1
102
RTVSPost2010Prop51ColorIndex
 90
      256
102
RTVSPost2010Prop51ColorRGB
 90
-16777216
102
RTVSPost2010PropOp51
 70
     0
102
RTVSPost2010Prop52
140
1.0
102
RTVSPost2010PropOp52
 70
     0
102
RTVSPost2010Prop53
 90
        2
102
RTVSPost2010PropOp53
 70
     1
102
RTVSPost2010Prop54
  1
strokes_ogs.tif
102
RTVSPost2010PropOp54
 70
     1
102
RTVSPost2010Prop55
280
     0
102
RTVSPost2010PropOp55
 70
     1
102
RTVSPost2010Prop56
140
1.0
102
RTVSPost2010PropOp56
 70
     1
102
RTVSPost2010Prop57
140
1.0
102
RTVSPost2010PropOp57
 70
     1
102
RTVSPropertyOp0
 70
     1
102
RTVSPropertyOp1
 70
     1
102
RTVSPropertyOp2
 70
     1
102
RTVSPropertyOp3
 70
     1
102
RTVSPropertyOp4
 70
     1
102
RTVSPropertyOp5
 70
     1
102
RTVSPropertyOp6
 70
     1
102
RTVSPropertyOp7
 70
     1
102
RTVSPropertyOp8
 70
     1
102
RTVSPropertyOp9
 70
     1
102
RTVSPropertyOp10
 70
     1
102
RTVSPropertyOp11
 70
     1
102
RTVSPropertyOp12
 70
     1
102
RTVSPropertyOp13
 70
     1
102
RTVSPropertyOp14
 70
     1
102
RTVSPropertyOp15
 70
     1
102
RTVSPropertyOp16
 70
     1
102
RTVSPropertyOp17
 70
     1
102
RTVSPropertyOp18
 70
     1
102
RTVSPropertyOp19
 70
     1
102
RTVSPropertyOp20
 70
     1
102
RTVSPropertyOp21
 70
     1
102
RTVSPropertyOp22
 70
     1
102
RTVSPropertyOp23
 70
     1
102
RTVSPropertyOp24
 70
     1
102
RTVSPropertyOp25
 70
     1
102
RTVSPropertyOp26
 70
     1
102
RTVSPropertyOp27
 70
     1
102
RTVSPropertyOp28
 70
     1
102
RTVSPropertyOp29
 70
     1
102
RTVSPropertyOp30
 70
     1
102
RTVSPropertyOp31
 70
     1
102
RTVSPropertyOp32
 70
     1
102
RTVSPropertyOp33
 70
     1
102
RTVSPropertyOp34
 70
     1
102
RTVSPropertyOp35
 70
     1
102
RTVSPropertyOp36
 70
     1
102
RTVSPropertyOp37
 70
     1
102
RTVSPropertyOp38
 70
     1
102
RTVSPropertyOp39
 70
     1
102
RTVSPropertyOp40
 70
     1
102
RTVSPropertyOp41
 70
     1
102
RTVSPropertyOp42
 70
     1
102
RTVSPropertyOp43
 70
     1
102
RTVSPropertyOp44
 70
     1
102
RTVSPropertyOp45
 70
     1
102
RTVSPropertyOp46
 70
     1
102
RTVSPropertyOp47
 70
     1
102
RTVSPropertyOp48
 70
     1
102
RTVSPropertyOp49
 70
     1
102
RTVSPropertyOp50
 70
     1
102
RTVSPropertyOp51
 70
     0
102
RTVSPropertyOp52
 70
     0
102
RTVSPropertyOp53
 70
     1
102
RTVSPropertyOp54
 70
     1
102
RTVSPropertyOp55
 70
     1
102
RTVSPropertyOp56
 70
     1
102
RTVSPropertyOp57
 70
     1
102
RTVSPropertyOp58
 70
     1
102
RTVSPropertyOp59
 70
     1
102
RTVSPropertyOp60
 70
     1
102
RTVSPropertyOp61
 70
     1
102
RTVSPropertyOp62
 70
     1
  0
XRECORD
  5
BD1D
102
{ACAD_REACTORS
330
BD1C
102
}
330
BD1C
100
AcDbXrecord
280
     1
102
RTVSPost2010Prop28
280
     0
102
RTVSPost2010PropOp28
 70
     1
102
RTVSPost2010Prop29
280
     1
102
RTVSPost2010PropOp29
 70
     1
102
RTVSPost2010Prop30
280
     1
102
RTVSPost2010PropOp30
 70
     1
102
RTVSPost2010Prop31
280
     0
102
RTVSPost2010PropOp31
 70
     1
102
RTVSPost2010Prop32
280
     0
102
RTVSPost2010PropOp32
 70
     1
102
RTVSPost2010Prop33
280
     0
102
RTVSPost2010PropOp33
 70
     1
102
RTVSPost2010Prop34
280
     0
102
RTVSPost2010PropOp34
 70
     1
102
RTVSPost2010Prop35
280
     0
102
RTVSPost2010PropOp35
 70
     1
102
RTVSPost2010Prop36
280
     0
102
RTVSPost2010PropOp36
 70
     1
102
RTVSPost2010Prop37
 90
       50
102
RTVSPost2010PropOp37
 70
     1
102
RTVSPost2010Prop38
140
0.0
102
RTVSPost2010PropOp38
 70
     1
102
RTVSPost2010Prop39
140
1.0
102
RTVSPost2010PropOp39
 70
     1
102
RTVSPost2010Prop40
 90
        0
102
RTVSPost2010PropOp40
 70
     1
102
RTVSPost2010Prop41ColorIndex
 90
       18
102
RTVSPost2010Prop41ColorRGB
 90
        0
102
RTVSPost2010PropOp41
 70
     1
102
RTVSPost2010Prop42
 90
       50
102
RTVSPost2010PropOp42
 70
     1
102
RTVSPost2010Prop43
 90
        3
102
RTVSPost2010PropOp43
 70
     1
102
RTVSPost2010Prop44ColorIndex
 90
        5
102
RTVSPost2010Prop44ColorRGB
 90
      255
102
RTVSPost2010PropOp44
 70
     1
102
RTVSPost2010Prop45
280
     0
102
RTVSPost2010PropOp45
 70
     1
102
RTVSPost2010Prop46
 90
       50
102
RTVSPost2010PropOp46
 70
     1
102
RTVSPost2010Prop47
 90
       50
102
RTVSPost2010PropOp47
 70
     1
102
RTVSPost2010Prop48
 90
       50
102
RTVSPost2010PropOp48
 70
     1
102
RTVSPost2010Prop49
280
     0
102
RTVSPost2010PropOp49
 70
     1
102
RTVSPost2010Prop50
 90
       50
102
RTVSPost2010PropOp50
 70
     1
102
RTVSPost2010Prop51ColorIndex
 90
      256
102
RTVSPost2010Prop51ColorRGB
 90
-16777216
102
RTVSPost2010PropOp51
 70
     0
102
RTVSPost2010Prop52
140
1.0
102
RTVSPost2010PropOp52
 70
     0
102
RTVSPost2010Prop53
 90
        2
102
RTVSPost2010PropOp53
 70
     1
102
RTVSPost2010Prop54
  1
strokes_ogs.tif
102
RTVSPost2010PropOp54
 70
     1
102
RTVSPost2010Prop55
280
     0
102
RTVSPost2010PropOp55
 70
     1
102
RTVSPost2010Prop56
140
1.0
102
RTVSPost2010PropOp56
 70
     1
102
RTVSPost2010Prop57
140
1.0
102
RTVSPost2010PropOp57
 70
     1
102
RTVSPropertyOp0
 70
     1
102
RTVSPropertyOp1
 70
     1
102
RTVSPropertyOp2
 70
     1
102
RTVSPropertyOp3
 70
     1
102
RTVSPropertyOp4
 70
     1
102
RTVSPropertyOp5
 70
     1
102
RTVSPropertyOp6
 70
     1
102
RTVSPropertyOp7
 70
     1
102
RTVSPropertyOp8
 70
     1
102
RTVSPropertyOp9
 70
     1
102
RTVSPropertyOp10
 70
     1
102
RTVSPropertyOp11
 70
     1
102
RTVSPropertyOp12
 70
     1
102
RTVSPropertyOp13
 70
     1
102
RTVSPropertyOp14
 70
     1
102
RTVSPropertyOp15
 70
     1
102
RTVSPropertyOp16
 70
     1
102
RTVSPropertyOp17
 70
     1
102
RTVSPropertyOp18
 70
     1
102
RTVSPropertyOp19
 70
     1
102
RTVSPropertyOp20
 70
     1
102
RTVSPropertyOp21
 70
     1
102
RTVSPropertyOp22
 70
     1
102
RTVSPropertyOp23
 70
     1
102
RTVSPropertyOp24
 70
     1
102
RTVSPropertyOp25
 70
     1
102
RTVSPropertyOp26
 70
     1
102
RTVSPropertyOp27
 70
     1
102
RTVSPropertyOp28
 70
     1
102
RTVSPropertyOp29
 70
     1
102
RTVSPropertyOp30
 70
     1
102
RTVSPropertyOp31
 70
     1
102
RTVSPropertyOp32
 70
     1
102
RTVSPropertyOp33
 70
     1
102
RTVSPropertyOp34
 70
     1
102
RTVSPropertyOp35
 70
     1
102
RTVSPropertyOp36
 70
     1
102
RTVSPropertyOp37
 70
     1
102
RTVSPropertyOp38
 70
     1
102
RTVSPropertyOp39
 70
     1
102
RTVSPropertyOp40
 70
     1
102
RTVSPropertyOp41
 70
     1
102
RTVSPropertyOp42
 70
     1
102
RTVSPropertyOp43
 70
     1
102
RTVSPropertyOp44
 70
     1
102
RTVSPropertyOp45
 70
     1
102
RTVSPropertyOp46
 70
     1
102
RTVSPropertyOp47
 70
     1
102
RTVSPropertyOp48
 70
     1
102
RTVSPropertyOp49
 70
     1
102
RTVSPropertyOp50
 70
     1
102
RTVSPropertyOp51
 70
     0
102
RTVSPropertyOp52
 70
     0
102
RTVSPropertyOp53
 70
     1
102
RTVSPropertyOp54
 70
     1
102
RTVSPropertyOp55
 70
     1
102
RTVSPropertyOp56
 70
     1
102
RTVSPropertyOp57
 70
     1
102
RTVSPropertyOp58
 70
     1
102
RTVSPropertyOp59
 70
     1
102
RTVSPropertyOp60
 70
     1
102
RTVSPropertyOp61
 70
     1
102
RTVSPropertyOp62
 70
     1
  0
XRECORD
  5
BD1F
102
{ACAD_REACTORS
330
BD1E
102
}
330
BD1E
100
AcDbXrecord
280
     1
102
RTVSPost2010Prop28
280
     0
102
RTVSPost2010PropOp28
 70
     1
102
RTVSPost2010Prop29
280
     1
102
RTVSPost2010PropOp29
 70
     1
102
RTVSPost2010Prop30
280
     1
102
RTVSPost2010PropOp30
 70
     1
102
RTVSPost2010Prop31
280
     0
102
RTVSPost2010PropOp31
 70
     1
102
RTVSPost2010Prop32
280
     0
102
RTVSPost2010PropOp32
 70
     1
102
RTVSPost2010Prop33
280
     0
102
RTVSPost2010PropOp33
 70
     1
102
RTVSPost2010Prop34
280
     0
102
RTVSPost2010PropOp34
 70
     1
102
RTVSPost2010Prop35
280
     0
102
RTVSPost2010PropOp35
 70
     1
102
RTVSPost2010Prop36
280
     0
102
RTVSPost2010PropOp36
 70
     1
102
RTVSPost2010Prop37
 90
       50
102
RTVSPost2010PropOp37
 70
     1
102
RTVSPost2010Prop38
140
0.0
102
RTVSPost2010PropOp38
 70
     1
102
RTVSPost2010Prop39
140
1.0
102
RTVSPost2010PropOp39
 70
     1
102
RTVSPost2010Prop40
 90
        0
102
RTVSPost2010PropOp40
 70
     1
102
RTVSPost2010Prop41ColorIndex
 90
       18
102
RTVSPost2010Prop41ColorRGB
 90
        0
102
RTVSPost2010PropOp41
 70
     1
102
RTVSPost2010Prop42
 90
       50
102
RTVSPost2010PropOp42
 70
     1
102
RTVSPost2010Prop43
 90
        3
102
RTVSPost2010PropOp43
 70
     1
102
RTVSPost2010Prop44ColorIndex
 90
        5
102
RTVSPost2010Prop44ColorRGB
 90
      255
102
RTVSPost2010PropOp44
 70
     1
102
RTVSPost2010Prop45
280
     0
102
RTVSPost2010PropOp45
 70
     1
102
RTVSPost2010Prop46
 90
       50
102
RTVSPost2010PropOp46
 70
     1
102
RTVSPost2010Prop47
 90
       50
102
RTVSPost2010PropOp47
 70
     1
102
RTVSPost2010Prop48
 90
       50
102
RTVSPost2010PropOp48
 70
     1
102
RTVSPost2010Prop49
280
     0
102
RTVSPost2010PropOp49
 70
     1
102
RTVSPost2010Prop50
 90
       50
102
RTVSPost2010PropOp50
 70
     1
102
RTVSPost2010Prop51ColorIndex
 90
      256
102
RTVSPost2010Prop51ColorRGB
 90
-16777216
102
RTVSPost2010PropOp51
 70
     0
102
RTVSPost2010Prop52
140
1.0
102
RTVSPost2010PropOp52
 70
     0
102
RTVSPost2010Prop53
 90
        2
102
RTVSPost2010PropOp53
 70
     1
102
RTVSPost2010Prop54
  1
strokes_ogs.tif
102
RTVSPost2010PropOp54
 70
     1
102
RTVSPost2010Prop55
280
     0
102
RTVSPost2010PropOp55
 70
     1
102
RTVSPost2010Prop56
140
1.0
102
RTVSPost2010PropOp56
 70
     1
102
RTVSPost2010Prop57
140
1.0
102
RTVSPost2010PropOp57
 70
     1
102
RTVSPropertyOp0
 70
     1
102
RTVSPropertyOp1
 70
     1
102
RTVSPropertyOp2
 70
     1
102
RTVSPropertyOp3
 70
     1
102
RTVSPropertyOp4
 70
     1
102
RTVSPropertyOp5
 70
     1
102
RTVSPropertyOp6
 70
     1
102
RTVSPropertyOp7
 70
     1
102
RTVSPropertyOp8
 70
     1
102
RTVSPropertyOp9
 70
     1
102
RTVSPropertyOp10
 70
     1
102
RTVSPropertyOp11
 70
     1
102
RTVSPropertyOp12
 70
     1
102
RTVSPropertyOp13
 70
     1
102
RTVSPropertyOp14
 70
     1
102
RTVSPropertyOp15
 70
     1
102
RTVSPropertyOp16
 70
     1
102
RTVSPropertyOp17
 70
     1
102
RTVSPropertyOp18
 70
     1
102
RTVSPropertyOp19
 70
     1
102
RTVSPropertyOp20
 70
     1
102
RTVSPropertyOp21
 70
     1
102
RTVSPropertyOp22
 70
     1
102
RTVSPropertyOp23
 70
     1
102
RTVSPropertyOp24
 70
     1
102
RTVSPropertyOp25
 70
     1
102
RTVSPropertyOp26
 70
     1
102
RTVSPropertyOp27
 70
     1
102
RTVSPropertyOp28
 70
     1
102
RTVSPropertyOp29
 70
     1
102
RTVSPropertyOp30
 70
     1
102
RTVSPropertyOp31
 70
     1
102
RTVSPropertyOp32
 70
     1
102
RTVSPropertyOp33
 70
     1
102
RTVSPropertyOp34
 70
     1
102
RTVSPropertyOp35
 70
     1
102
RTVSPropertyOp36
 70
     1
102
RTVSPropertyOp37
 70
     1
102
RTVSPropertyOp38
 70
     1
102
RTVSPropertyOp39
 70
     1
102
RTVSPropertyOp40
 70
     1
102
RTVSPropertyOp41
 70
     1
102
RTVSPropertyOp42
 70
     1
102
RTVSPropertyOp43
 70
     1
102
RTVSPropertyOp44
 70
     1
102
RTVSPropertyOp45
 70
     1
102
RTVSPropertyOp46
 70
     1
102
RTVSPropertyOp47
 70
     1
102
RTVSPropertyOp48
 70
     1
102
RTVSPropertyOp49
 70
     1
102
RTVSPropertyOp50
 70
     1
102
RTVSPropertyOp51
 70
     0
102
RTVSPropertyOp52
 70
     0
102
RTVSPropertyOp53
 70
     1
102
RTVSPropertyOp54
 70
     1
102
RTVSPropertyOp55
 70
     1
102
RTVSPropertyOp56
 70
     1
102
RTVSPropertyOp57
 70
     1
102
RTVSPropertyOp58
 70
     1
102
RTVSPropertyOp59
 70
     1
102
RTVSPropertyOp60
 70
     1
102
RTVSPropertyOp61
 70
     1
102
RTVSPropertyOp62
 70
     1
  0
XRECORD
  5
BD15
102
{ACAD_REACTORS
330
BD14
102
}
330
BD14
100
AcDbXrecord
280
     1
102
RTVSPost2010Prop28
280
     0
102
RTVSPost2010PropOp28
 70
     1
102
RTVSPost2010Prop29
280
     1
102
RTVSPost2010PropOp29
 70
     1
102
RTVSPost2010Prop30
280
     1
102
RTVSPost2010PropOp30
 70
     1
102
RTVSPost2010Prop31
280
     0
102
RTVSPost2010PropOp31
 70
     1
102
RTVSPost2010Prop32
280
     0
102
RTVSPost2010PropOp32
 70
     1
102
RTVSPost2010Prop33
280
     0
102
RTVSPost2010PropOp33
 70
     1
102
RTVSPost2010Prop34
280
     0
102
RTVSPost2010PropOp34
 70
     1
102
RTVSPost2010Prop35
280
     0
102
RTVSPost2010PropOp35
 70
     1
102
RTVSPost2010Prop36
280
     0
102
RTVSPost2010PropOp36
 70
     1
102
RTVSPost2010Prop37
 90
       50
102
RTVSPost2010PropOp37
 70
     1
102
RTVSPost2010Prop38
140
0.0
102
RTVSPost2010PropOp38
 70
     1
102
RTVSPost2010Prop39
140
1.0
102
RTVSPost2010PropOp39
 70
     1
102
RTVSPost2010Prop40
 90
        0
102
RTVSPost2010PropOp40
 70
     1
102
RTVSPost2010Prop41ColorIndex
 90
       18
102
RTVSPost2010Prop41ColorRGB
 90
        0
102
RTVSPost2010PropOp41
 70
     1
102
RTVSPost2010Prop42
 90
       50
102
RTVSPost2010PropOp42
 70
     1
102
RTVSPost2010Prop43
 90
        3
102
RTVSPost2010PropOp43
 70
     1
102
RTVSPost2010Prop44ColorIndex
 90
        5
102
RTVSPost2010Prop44ColorRGB
 90
      255
102
RTVSPost2010PropOp44
 70
     1
102
RTVSPost2010Prop45
280
     0
102
RTVSPost2010PropOp45
 70
     1
102
RTVSPost2010Prop46
 90
       50
102
RTVSPost2010PropOp46
 70
     1
102
RTVSPost2010Prop47
 90
       50
102
RTVSPost2010PropOp47
 70
     1
102
RTVSPost2010Prop48
 90
       50
102
RTVSPost2010PropOp48
 70
     1
102
RTVSPost2010Prop49
280
     0
102
RTVSPost2010PropOp49
 70
     1
102
RTVSPost2010Prop50
 90
       50
102
RTVSPost2010PropOp50
 70
     1
102
RTVSPost2010Prop51ColorIndex
 90
      256
102
RTVSPost2010Prop51ColorRGB
 90
-16777216
102
RTVSPost2010PropOp51
 70
     0
102
RTVSPost2010Prop52
140
1.0
102
RTVSPost2010PropOp52
 70
     0
102
RTVSPost2010Prop53
 90
        2
102
RTVSPost2010PropOp53
 70
     1
102
RTVSPost2010Prop54
  1
strokes_ogs.tif
102
RTVSPost2010PropOp54
 70
     1
102
RTVSPost2010Prop55
280
     0
102
RTVSPost2010PropOp55
 70
     1
102
RTVSPost2010Prop56
140
1.0
102
RTVSPost2010PropOp56
 70
     1
102
RTVSPost2010Prop57
140
1.0
102
RTVSPost2010PropOp57
 70
     1
102
RTVSPropertyOp0
 70
     1
102
RTVSPropertyOp1
 70
     1
102
RTVSPropertyOp2
 70
     1
102
RTVSPropertyOp3
 70
     1
102
RTVSPropertyOp4
 70
     1
102
RTVSPropertyOp5
 70
     1
102
RTVSPropertyOp6
 70
     1
102
RTVSPropertyOp7
 70
     1
102
RTVSPropertyOp8
 70
     1
102
RTVSPropertyOp9
 70
     1
102
RTVSPropertyOp10
 70
     1
102
RTVSPropertyOp11
 70
     1
102
RTVSPropertyOp12
 70
     1
102
RTVSPropertyOp13
 70
     1
102
RTVSPropertyOp14
 70
     1
102
RTVSPropertyOp15
 70
     1
102
RTVSPropertyOp16
 70
     1
102
RTVSPropertyOp17
 70
     1
102
RTVSPropertyOp18
 70
     1
102
RTVSPropertyOp19
 70
     1
102
RTVSPropertyOp20
 70
     1
102
RTVSPropertyOp21
 70
     1
102
RTVSPropertyOp22
 70
     1
102
RTVSPropertyOp23
 70
     1
102
RTVSPropertyOp24
 70
     1
102
RTVSPropertyOp25
 70
     1
102
RTVSPropertyOp26
 70
     1
102
RTVSPropertyOp27
 70
     1
102
RTVSPropertyOp28
 70
     1
102
RTVSPropertyOp29
 70
     1
102
RTVSPropertyOp30
 70
     1
102
RTVSPropertyOp31
 70
     1
102
RTVSPropertyOp32
 70
     1
102
RTVSPropertyOp33
 70
     1
102
RTVSPropertyOp34
 70
     1
102
RTVSPropertyOp35
 70
     1
102
RTVSPropertyOp36
 70
     1
102
RTVSPropertyOp37
 70
     1
102
RTVSPropertyOp38
 70
     1
102
RTVSPropertyOp39
 70
     1
102
RTVSPropertyOp40
 70
     1
102
RTVSPropertyOp41
 70
     1
102
RTVSPropertyOp42
 70
     1
102
RTVSPropertyOp43
 70
     1
102
RTVSPropertyOp44
 70
     1
102
RTVSPropertyOp45
 70
     1
102
RTVSPropertyOp46
 70
     1
102
RTVSPropertyOp47
 70
     1
102
RTVSPropertyOp48
 70
     1
102
RTVSPropertyOp49
 70
     1
102
RTVSPropertyOp50
 70
     1
102
RTVSPropertyOp51
 70
     0
102
RTVSPropertyOp52
 70
     0
102
RTVSPropertyOp53
 70
     1
102
RTVSPropertyOp54
 70
     1
102
RTVSPropertyOp55
 70
     1
102
RTVSPropertyOp56
 70
     1
102
RTVSPropertyOp57
 70
     1
102
RTVSPropertyOp58
 70
     1
102
RTVSPropertyOp59
 70
     1
102
RTVSPropertyOp60
 70
     1
102
RTVSPropertyOp61
 70
     1
102
RTVSPropertyOp62
 70
     1
  0
XRECORD
  5
BD09
102
{ACAD_REACTORS
330
BD08
102
}
330
BD08
100
AcDbXrecord
280
     1
102
RTVSPost2010Prop28
280
     0
102
RTVSPost2010PropOp28
 70
     1
102
RTVSPost2010Prop29
280
     1
102
RTVSPost2010PropOp29
 70
     1
102
RTVSPost2010Prop30
280
     1
102
RTVSPost2010PropOp30
 70
     1
102
RTVSPost2010Prop31
280
     0
102
RTVSPost2010PropOp31
 70
     1
102
RTVSPost2010Prop32
280
     0
102
RTVSPost2010PropOp32
 70
     1
102
RTVSPost2010Prop33
280
     0
102
RTVSPost2010PropOp33
 70
     1
102
RTVSPost2010Prop34
280
     0
102
RTVSPost2010PropOp34
 70
     1
102
RTVSPost2010Prop35
280
     0
102
RTVSPost2010PropOp35
 70
     1
102
RTVSPost2010Prop36
280
     0
102
RTVSPost2010PropOp36
 70
     1
102
RTVSPost2010Prop37
 90
       50
102
RTVSPost2010PropOp37
 70
     1
102
RTVSPost2010Prop38
140
0.0
102
RTVSPost2010PropOp38
 70
     1
102
RTVSPost2010Prop39
140
1.0
102
RTVSPost2010PropOp39
 70
     1
102
RTVSPost2010Prop40
 90
        0
102
RTVSPost2010PropOp40
 70
     1
102
RTVSPost2010Prop41ColorIndex
 90
       18
102
RTVSPost2010Prop41ColorRGB
 90
        0
102
RTVSPost2010PropOp41
 70
     1
102
RTVSPost2010Prop42
 90
       50
102
RTVSPost2010PropOp42
 70
     1
102
RTVSPost2010Prop43
 90
        3
102
RTVSPost2010PropOp43
 70
     1
102
RTVSPost2010Prop44ColorIndex
 90
        5
102
RTVSPost2010Prop44ColorRGB
 90
      255
102
RTVSPost2010PropOp44
 70
     1
102
RTVSPost2010Prop45
280
     0
102
RTVSPost2010PropOp45
 70
     1
102
RTVSPost2010Prop46
 90
       50
102
RTVSPost2010PropOp46
 70
     1
102
RTVSPost2010Prop47
 90
       50
102
RTVSPost2010PropOp47
 70
     1
102
RTVSPost2010Prop48
 90
       50
102
RTVSPost2010PropOp48
 70
     1
102
RTVSPost2010Prop49
280
     0
102
RTVSPost2010PropOp49
 70
     1
102
RTVSPost2010Prop50
 90
       50
102
RTVSPost2010PropOp50
 70
     1
102
RTVSPost2010Prop51ColorIndex
 90
      256
102
RTVSPost2010Prop51ColorRGB
 90
-16777216
102
RTVSPost2010PropOp51
 70
     0
102
RTVSPost2010Prop52
140
1.0
102
RTVSPost2010PropOp52
 70
     0
102
RTVSPost2010Prop53
 90
        2
102
RTVSPost2010PropOp53
 70
     1
102
RTVSPost2010Prop54
  1
strokes_ogs.tif
102
RTVSPost2010PropOp54
 70
     1
102
RTVSPost2010Prop55
280
     0
102
RTVSPost2010PropOp55
 70
     1
102
RTVSPost2010Prop56
140
1.0
102
RTVSPost2010PropOp56
 70
     1
102
RTVSPost2010Prop57
140
1.0
102
RTVSPost2010PropOp57
 70
     1
102
RTVSPropertyOp0
 70
     1
102
RTVSPropertyOp1
 70
     1
102
RTVSPropertyOp2
 70
     1
102
RTVSPropertyOp3
 70
     1
102
RTVSPropertyOp4
 70
     1
102
RTVSPropertyOp5
 70
     1
102
RTVSPropertyOp6
 70
     1
102
RTVSPropertyOp7
 70
     1
102
RTVSPropertyOp8
 70
     1
102
RTVSPropertyOp9
 70
     1
102
RTVSPropertyOp10
 70
     1
102
RTVSPropertyOp11
 70
     1
102
RTVSPropertyOp12
 70
     1
102
RTVSPropertyOp13
 70
     1
102
RTVSPropertyOp14
 70
     1
102
RTVSPropertyOp15
 70
     1
102
RTVSPropertyOp16
 70
     1
102
RTVSPropertyOp17
 70
     1
102
RTVSPropertyOp18
 70
     1
102
RTVSPropertyOp19
 70
     1
102
RTVSPropertyOp20
 70
     1
102
RTVSPropertyOp21
 70
     1
102
RTVSPropertyOp22
 70
     1
102
RTVSPropertyOp23
 70
     1
102
RTVSPropertyOp24
 70
     1
102
RTVSPropertyOp25
 70
     1
102
RTVSPropertyOp26
 70
     1
102
RTVSPropertyOp27
 70
     1
102
RTVSPropertyOp28
 70
     1
102
RTVSPropertyOp29
 70
     1
102
RTVSPropertyOp30
 70
     1
102
RTVSPropertyOp31
 70
     1
102
RTVSPropertyOp32
 70
     1
102
RTVSPropertyOp33
 70
     1
102
RTVSPropertyOp34
 70
     1
102
RTVSPropertyOp35
 70
     1
102
RTVSPropertyOp36
 70
     1
102
RTVSPropertyOp37
 70
     1
102
RTVSPropertyOp38
 70
     1
102
RTVSPropertyOp39
 70
     1
102
RTVSPropertyOp40
 70
     1
102
RTVSPropertyOp41
 70
     1
102
RTVSPropertyOp42
 70
     1
102
RTVSPropertyOp43
 70
     1
102
RTVSPropertyOp44
 70
     1
102
RTVSPropertyOp45
 70
     1
102
RTVSPropertyOp46
 70
     1
102
RTVSPropertyOp47
 70
     1
102
RTVSPropertyOp48
 70
     1
102
RTVSPropertyOp49
 70
     1
102
RTVSPropertyOp50
 70
     1
102
RTVSPropertyOp51
 70
     0
102
RTVSPropertyOp52
 70
     0
102
RTVSPropertyOp53
 70
     1
102
RTVSPropertyOp54
 70
     1
102
RTVSPropertyOp55
 70
     1
102
RTVSPropertyOp56
 70
     1
102
RTVSPropertyOp57
 70
     1
102
RTVSPropertyOp58
 70
     1
102
RTVSPropertyOp59
 70
     1
102
RTVSPropertyOp60
 70
     1
102
RTVSPropertyOp61
 70
     1
102
RTVSPropertyOp62
 70
     1
  0
XRECORD
  5
BD21
102
{ACAD_REACTORS
330
BD20
102
}
330
BD20
100
AcDbXrecord
280
     1
102
RTVSPost2010Prop28
280
     0
102
RTVSPost2010PropOp28
 70
     1
102
RTVSPost2010Prop29
280
     1
102
RTVSPost2010PropOp29
 70
     1
102
RTVSPost2010Prop30
280
     1
102
RTVSPost2010PropOp30
 70
     1
102
RTVSPost2010Prop31
280
     0
102
RTVSPost2010PropOp31
 70
     1
102
RTVSPost2010Prop32
280
     0
102
RTVSPost2010PropOp32
 70
     1
102
RTVSPost2010Prop33
280
     0
102
RTVSPost2010PropOp33
 70
     1
102
RTVSPost2010Prop34
280
     0
102
RTVSPost2010PropOp34
 70
     1
102
RTVSPost2010Prop35
280
     0
102
RTVSPost2010PropOp35
 70
     1
102
RTVSPost2010Prop36
280
     0
102
RTVSPost2010PropOp36
 70
     1
102
RTVSPost2010Prop37
 90
       50
102
RTVSPost2010PropOp37
 70
     1
102
RTVSPost2010Prop38
140
0.0
102
RTVSPost2010PropOp38
 70
     1
102
RTVSPost2010Prop39
140
1.0
102
RTVSPost2010PropOp39
 70
     1
102
RTVSPost2010Prop40
 90
        0
102
RTVSPost2010PropOp40
 70
     1
102
RTVSPost2010Prop41ColorIndex
 90
       18
102
RTVSPost2010Prop41ColorRGB
 90
        0
102
RTVSPost2010PropOp41
 70
     1
102
RTVSPost2010Prop42
 90
       50
102
RTVSPost2010PropOp42
 70
     1
102
RTVSPost2010Prop43
 90
        3
102
RTVSPost2010PropOp43
 70
     1
102
RTVSPost2010Prop44ColorIndex
 90
        5
102
RTVSPost2010Prop44ColorRGB
 90
      255
102
RTVSPost2010PropOp44
 70
     1
102
RTVSPost2010Prop45
280
     0
102
RTVSPost2010PropOp45
 70
     1
102
RTVSPost2010Prop46
 90
       50
102
RTVSPost2010PropOp46
 70
     1
102
RTVSPost2010Prop47
 90
       50
102
RTVSPost2010PropOp47
 70
     1
102
RTVSPost2010Prop48
 90
       50
102
RTVSPost2010PropOp48
 70
     1
102
RTVSPost2010Prop49
280
     0
102
RTVSPost2010PropOp49
 70
     1
102
RTVSPost2010Prop50
 90
       50
102
RTVSPost2010PropOp50
 70
     1
102
RTVSPost2010Prop51ColorIndex
 90
      256
102
RTVSPost2010Prop51ColorRGB
 90
-16777216
102
RTVSPost2010PropOp51
 70
     0
102
RTVSPost2010Prop52
140
1.0
102
RTVSPost2010PropOp52
 70
     0
102
RTVSPost2010Prop53
 90
        2
102
RTVSPost2010PropOp53
 70
     1
102
RTVSPost2010Prop54
  1
strokes_ogs.tif
102
RTVSPost2010PropOp54
 70
     1
102
RTVSPost2010Prop55
280
     0
102
RTVSPost2010PropOp55
 70
     1
102
RTVSPost2010Prop56
140
1.0
102
RTVSPost2010PropOp56
 70
     1
102
RTVSPost2010Prop57
140
1.0
102
RTVSPost2010PropOp57
 70
     1
102
RTVSPropertyOp0
 70
     1
102
RTVSPropertyOp1
 70
     1
102
RTVSPropertyOp2
 70
     1
102
RTVSPropertyOp3
 70
     1
102
RTVSPropertyOp4
 70
     1
102
RTVSPropertyOp5
 70
     1
102
RTVSPropertyOp6
 70
     1
102
RTVSPropertyOp7
 70
     1
102
RTVSPropertyOp8
 70
     1
102
RTVSPropertyOp9
 70
     1
102
RTVSPropertyOp10
 70
     1
102
RTVSPropertyOp11
 70
     1
102
RTVSPropertyOp12
 70
     1
102
RTVSPropertyOp13
 70
     1
102
RTVSPropertyOp14
 70
     1
102
RTVSPropertyOp15
 70
     1
102
RTVSPropertyOp16
 70
     1
102
RTVSPropertyOp17
 70
     1
102
RTVSPropertyOp18
 70
     1
102
RTVSPropertyOp19
 70
     1
102
RTVSPropertyOp20
 70
     1
102
RTVSPropertyOp21
 70
     1
102
RTVSPropertyOp22
 70
     1
102
RTVSPropertyOp23
 70
     1
102
RTVSPropertyOp24
 70
     1
102
RTVSPropertyOp25
 70
     1
102
RTVSPropertyOp26
 70
     1
102
RTVSPropertyOp27
 70
     1
102
RTVSPropertyOp28
 70
     1
102
RTVSPropertyOp29
 70
     1
102
RTVSPropertyOp30
 70
     1
102
RTVSPropertyOp31
 70
     1
102
RTVSPropertyOp32
 70
     1
102
RTVSPropertyOp33
 70
     1
102
RTVSPropertyOp34
 70
     1
102
RTVSPropertyOp35
 70
     1
102
RTVSPropertyOp36
 70
     1
102
RTVSPropertyOp37
 70
     1
102
RTVSPropertyOp38
 70
     1
102
RTVSPropertyOp39
 70
     1
102
RTVSPropertyOp40
 70
     1
102
RTVSPropertyOp41
 70
     1
102
RTVSPropertyOp42
 70
     1
102
RTVSPropertyOp43
 70
     1
102
RTVSPropertyOp44
 70
     1
102
RTVSPropertyOp45
 70
     1
102
RTVSPropertyOp46
 70
     1
102
RTVSPropertyOp47
 70
     1
102
RTVSPropertyOp48
 70
     1
102
RTVSPropertyOp49
 70
     1
102
RTVSPropertyOp50
 70
     1
102
RTVSPropertyOp51
 70
     0
102
RTVSPropertyOp52
 70
     0
102
RTVSPropertyOp53
 70
     1
102
RTVSPropertyOp54
 70
     1
102
RTVSPropertyOp55
 70
     1
102
RTVSPropertyOp56
 70
     1
102
RTVSPropertyOp57
 70
     1
102
RTVSPropertyOp58
 70
     1
102
RTVSPropertyOp59
 70
     1
102
RTVSPropertyOp60
 70
     1
102
RTVSPropertyOp61
 70
     1
102
RTVSPropertyOp62
 70
     1
  0
ENDSEC
  0
EOF
