  0
SECTION
  2
HEADER
  9
$ACADVER
  1
AC1015
  9
$ACADMAINTVER
 70
    20
  9
$DWGCODEPAGE
  3
ANSI_932
  9
$INSBASE
 10
0.0
 20
0.0
 30
0.0
  9
$EXTMIN
 10
10.0
 20
9.999999999999998
 30
0.0
  9
$EXTMAX
 10
750.8176399999999
 20
523.614636
 30
0.0
  9
$LIMMIN
 10
0.0
 20
0.0
  9
$LIMMAX
 10
792.0
 20
546.0
  9
$ORTHOMODE
 70
     0
  9
$REGENMODE
 70
     1
  9
$FILLMODE
 70
     1
  9
$QTEXTMODE
 70
     0
  9
$MIRRTEXT
 70
     1
  9
$LTSCALE
 40
20.0
  9
$ATTMODE
 70
     1
  9
$TEXTSIZE
 40
5.0
  9
$TRACEWID
 40
1.0
  9
$TEXTSTYLE
  7
STANDARD
  9
$CLAYER
  8
0
  9
$CELTYPE
  6
BYLAYER
  9
$CECOLOR
 62
   256
  9
$CELTSCALE
 40
1.0
  9
$DISPSILH
 70
     0
  9
$DIMSCALE
 40
1.0
  9
$DIMASZ
 40
3.0
  9
$DIMEXO
 40
1.0
  9
$DIMDLI
 40
10.0
  9
$DIMRND
 40
0.0
  9
$DIMDLE
 40
0.0
  9
$DIMEXE
 40
1.0
  9
$DIMTP
 40
0.0
  9
$DIMTM
 40
0.0
  9
$DIMTXT
 40
3.2
  9
$DIMCEN
 40
0.0
  9
$DIMTSZ
 40
0.0
  9
$DIMTOL
 70
     0
  9
$DIMLIM
 70
     0
  9
$DIMTIH
 70
     0
  9
$DIMTOH
 70
     0
  9
$DIMSE1
 70
     0
  9
$DIMSE2
 70
     0
  9
$DIMTAD
 70
     3
  9
$DIMZIN
 70
     8
  9
$DIMBLK
  1

  9
$DIMASO
 70
     1
  9
$DIMSHO
 70
     1
  9
$DIMPOST
  1

  9
$DIMAPOST
  1

  9
$DIMALT
 70
     0
  9
$DIMALTD
 70
     2
  9
$DIMALTF
 40
25.4
  9
$DIMLFAC
 40
1.0
  9
$DIMTOFL
 70
     1
  9
$DIMTVP
 40
0.0
  9
$DIMTIX
 70
     0
  9
$DIMSOXD
 70
     0
  9
$DIMSAH
 70
     1
  9
$DIMBLK1
  1
OPEN
  9
$DIMBLK2
  1
OPEN
  9
$DIMSTYLE
  2
STANDARD
  9
$DIMCLRD
 70
     0
  9
$DIMCLRE
 70
     0
  9
$DIMCLRT
 70
     0
  9
$DIMTFAC
 40
1.0
  9
$DIMGAP
 40
1.0
  9
$DIMJUST
 70
     0
  9
$DIMSD1
 70
     0
  9
$DIMSD2
 70
     0
  9
$DIMTOLJ
 70
     1
  9
$DIMTZIN
 70
     0
  9
$DIMALTZ
 70
     0
  9
$DIMALTTZ
 70
     0
  9
$DIMUPT
 70
     0
  9
$DIMDEC
 70
     4
  9
$DIMTDEC
 70
     4
  9
$DIMALTU
 70
     2
  9
$DIMALTTD
 70
     2
  9
$DIMTXSTY
  7
STANDARD
  9
$DIMAUNIT
 70
     0
  9
$DIMADEC
 70
     0
  9
$DIMALTRND
 40
0.0
  9
$DIMAZIN
 70
     0
  9
$DIMDSEP
 70
    46
  9
$DIMATFIT
 70
     3
  9
$DIMFRAC
 70
     0
  9
$DIMLDRBLK
  1
OPEN
  9
$DIMLUNIT
 70
     2
  9
$DIMLWD
 70
    -2
  9
$DIMLWE
 70
    -2
  9
$DIMTMOVE
 70
     0
  9
$LUNITS
 70
     2
  9
$LUPREC
 70
     4
  9
$SKETCHINC
 40
1.0
  9
$FILLETRAD
 40
10.0
  9
$AUNITS
 70
     0
  9
$AUPREC
 70
     2
  9
$MENU
  1
.
  9
$ELEVATION
 40
0.0
  9
$PELEVATION
 40
0.0
  9
$THICKNESS
 40
0.0
  9
$LIMCHECK
 70
     0
  9
$CHAMFERA
 40
10.0
  9
$CHAMFERB
 40
10.0
  9
$CHAMFERC
 40
0.0
  9
$CHAMFERD
 40
0.0
  9
$SKPOLY
 70
     0
  9
$TDCREATE
 40
2451301.719763542
  9
$TDUCREATE
 40
2451301.344763542
  9
$TDUPDATE
 40
2457618.724095510
  9
$TDUUPDATE
 40
2457618.349095509
  9
$TDINDWG
 40
0.0000662384
  9
$TDUSRTIMER
 40
0.0000657176
  9
$USRTIMER
 70
     1
  9
$ANGBASE
 50
0.0
  9
$ANGDIR
 70
     0
  9
$PDMODE
 70
     0
  9
$PDSIZE
 40
0.0
  9
$PLINEWID
 40
0.0
  9
$SPLFRAME
 70
     0
  9
$SPLINETYPE
 70
     6
  9
$SPLINESEGS
 70
     8
  9
$HANDSEED
  5
A6DB
  9
$SURFTAB1
 70
     6
  9
$SURFTAB2
 70
     6
  9
$SURFTYPE
 70
     6
  9
$SURFU
 70
     6
  9
$SURFV
 70
     6
  9
$UCSBASE
  2

  9
$UCSNAME
  2

  9
$UCSORG
 10
0.0
 20
0.0
 30
0.0
  9
$UCSXDIR
 10
1.0
 20
0.0
 30
0.0
  9
$UCSYDIR
 10
0.0
 20
1.0
 30
0.0
  9
$UCSORTHOREF
  2

  9
$UCSORTHOVIEW
 70
     0
  9
$UCSORGTOP
 10
0.0
 20
0.0
 30
0.0
  9
$UCSORGBOTTOM
 10
0.0
 20
0.0
 30
0.0
  9
$UCSORGLEFT
 10
0.0
 20
0.0
 30
0.0
  9
$UCSORGRIGHT
 10
0.0
 20
0.0
 30
0.0
  9
$UCSORGFRONT
 10
0.0
 20
0.0
 30
0.0
  9
$UCSORGBACK
 10
0.0
 20
0.0
 30
0.0
  9
$PUCSBASE
  2

  9
$PUCSNAME
  2

  9
$PUCSORG
 10
0.0
 20
0.0
 30
0.0
  9
$PUCSXDIR
 10
1.0
 20
0.0
 30
0.0
  9
$PUCSYDIR
 10
0.0
 20
1.0
 30
0.0
  9
$PUCSORTHOREF
  2

  9
$PUCSORTHOVIEW
 70
     0
  9
$PUCSORGTOP
 10
0.0
 20
0.0
 30
0.0
  9
$PUCSORGBOTTOM
 10
0.0
 20
0.0
 30
0.0
  9
$PUCSORGLEFT
 10
0.0
 20
0.0
 30
0.0
  9
$PUCSORGRIGHT
 10
0.0
 20
0.0
 30
0.0
  9
$PUCSORGFRONT
 10
0.0
 20
0.0
 30
0.0
  9
$PUCSORGBACK
 10
0.0
 20
0.0
 30
0.0
  9
$USERI1
 70
     0
  9
$USERI2
 70
     0
  9
$USERI3
 70
     0
  9
$USERI4
 70
     0
  9
$USERI5
 70
     0
  9
$USERR1
 40
0.0
  9
$USERR2
 40
0.0
  9
$USERR3
 40
0.0
  9
$USERR4
 40
0.0
  9
$USERR5
 40
0.0
  9
$WORLDVIEW
 70
     1
  9
$SHADEDGE
 70
     3
  9
$SHADEDIF
 70
    70
  9
$TILEMODE
 70
     1
  9
$MAXACTVP
 70
    16
  9
$PINSBASE
 10
0.0
 20
0.0
 30
0.0
  9
$PLIMCHECK
 70
     0
  9
$PEXTMIN
 10
1.000000000000000E+20
 20
1.000000000000000E+20
 30
1.000000000000000E+20
  9
$PEXTMAX
 10
-1.000000000000000E+20
 20
-1.000000000000000E+20
 30
-1.000000000000000E+20
  9
$PLIMMIN
 10
0.0
 20
0.0
  9
$PLIMMAX
 10
420.0
 20
297.0
  9
$UNITMODE
 70
     0
  9
$VISRETAIN
 70
     0
  9
$PLINEGEN
 70
     0
  9
$PSLTSCALE
 70
     0
  9
$TREEDEPTH
 70
  3020
  9
$CMLSTYLE
  2
STANDARD
  9
$CMLJUST
 70
     0
  9
$CMLSCALE
 40
1.0
  9
$PROXYGRAPHICS
 70
     1
  9
$MEASUREMENT
 70
     0
  9
$CELWEIGHT
370
    -1
  9
$ENDCAPS
280
     0
  9
$JOINSTYLE
280
     0
  9
$LWDISPLAY
290
     0
  9
$INSUNITS
 70
     0
  9
$HYPERLINKBASE
  1

  9
$STYLESHEET
  1

  9
$XEDIT
290
     1
  9
$CEPSNTYPE
380
     0
  9
$PSTYLEMODE
290
     1
  9
$FINGERPRINTGUID
  2
{8FAE310D-33D8-4A0C-AE4C-7D9A7E388958}
  9
$VERSIONGUID
  2
{71EFE273-86F0-48A2-9A51-817F4F47C0B4}
  9
$EXTNAMES
290
     1
  9
$PSVPSCALE
 40
0.0
  9
$OLESTARTUP
290
     0
  0
ENDSEC
  0
SECTION
  2
CLASSES
  0
CLASS
  1
ACDBDICTIONARYWDFLT
  2
AcDbDictionaryWithDefault
  3
ObjectDBX Classes
 90
        0
280
     0
281
     0
  0
CLASS
  1
ACDBPLACEHOLDER
  2
AcDbPlaceHolder
  3
ObjectDBX Classes
 90
        0
280
     0
281
     0
  0
CLASS
  1
LAYOUT
  2
AcDbLayout
  3
ObjectDBX Classes
 90
        0
280
     0
281
     0
  0
CLASS
  1
DICTIONARYVAR
  2
AcDbDictionaryVar
  3
ObjectDBX Classes
 90
        0
280
     0
281
     0
  0
CLASS
  1
MATERIAL
  2
AcDbMaterial
  3
ObjectDBX Classes
 90
     1153
280
     0
281
     0
  0
CLASS
  1
VISUALSTYLE
  2
AcDbVisualStyle
  3
ObjectDBX Classes
 90
     4095
280
     0
281
     0
  0
CLASS
  1
TABLESTYLE
  2
AcDbTableStyle
  3
ObjectDBX Classes
 90
     4095
280
     0
281
     0
  0
CLASS
  1
SCALE
  2
AcDbScale
  3
ObjectDBX Classes
 90
     1153
280
     0
281
     0
  0
CLASS
  1
MLEADERSTYLE
  2
AcDbMLeaderStyle
  3
ACDB_MLEADERSTYLE_CLASS
 90
     4095
280
     0
281
     0
  0
CLASS
  1
ACDBSECTIONVIEWSTYLE
  2
AcDbSectionViewStyle
  3
ObjectDBX Classes
 90
     1025
280
     0
281
     0
  0
CLASS
  1
ACDBDETAILVIEWSTYLE
  2
AcDbDetailViewStyle
  3
ObjectDBX Classes
 90
     1025
280
     0
281
     0
  0
CLASS
  1
CELLSTYLEMAP
  2
AcDbCellStyleMap
  3
ObjectDBX Classes
 90
     1152
280
     0
281
     0
  0
ENDSEC
  0
SECTION
  2
TABLES
  0
TABLE
  2
VPORT
  5
A322
330
0
100
AcDbSymbolTable
 70
     1
  0
VPORT
  5
A624
330
A322
100
AcDbSymbolTableRecord
100
AcDbViewportTableRecord
  2
*ACTIVE
 70
     0
 10
0.0
 20
0.0
 11
1.0
 21
1.0
 12
592.4890580369068
 22
266.8140118841709
 13
0.0
 23
0.0
 14
10.0
 24
10.0
 15
10.0
 25
10.0
 16
0.0
 26
0.0
 36
1.0
 17
0.0
 27
0.0
 37
0.0
 40
519.4117315843896
 41
2.567642956764295
 42
50.0
 43
0.0
 44
0.0
 50
0.0
 51
0.0
 71
     0
 72
   100
 73
     1
 74
     0
 75
     0
 76
     0
 77
     0
 78
     0
281
     0
 65
     1
110
0.0
120
0.0
130
0.0
111
1.0
121
0.0
131
0.0
112
0.0
122
1.0
132
0.0
 79
     0
146
0.0
1001
ACAD_NAV_VCDISPLAY
1070
     3
  0
ENDTAB
  0
TABLE
  2
LTYPE
  5
A31F
330
0
100
AcDbSymbolTable
 70
     4
  0
LTYPE
  5
A32D
330
A31F
100
AcDbSymbolTableRecord
100
AcDbLinetypeTableRecord
  2
BYBLOCK
 70
     0
  3

 72
    65
 73
     0
 40
0.0
  0
LTYPE
  5
A32E
330
A31F
100
AcDbSymbolTableRecord
100
AcDbLinetypeTableRecord
  2
BYLAYER
 70
     0
  3

 72
    65
 73
     0
 40
0.0
  0
LTYPE
  5
A32F
330
A31F
100
AcDbSymbolTableRecord
100
AcDbLinetypeTableRecord
  2
CONTINUOUS
 70
     0
  3
Solid line
 72
    65
 73
     0
 40
0.0
  0
LTYPE
  5
A33D
330
A31F
100
AcDbSymbolTableRecord
100
AcDbLinetypeTableRecord
  2
DASHED
 70
     0
  3
__ __ __ __ __ __ __ __ __ __ __ __ __ __ __ __
 72
    65
 73
     2
 40
0.75
 49
0.5
 74
     0
 49
-0.25
 74
     0
  0
LTYPE
  5
A33E
330
A31F
100
AcDbSymbolTableRecord
100
AcDbLinetypeTableRecord
  2
CENTER
 70
     0
  3
____ _ ____ _ ____ _ ____ _ ____ _ ____ _ ____ 
 72
    65
 73
     4
 40
2.0
 49
1.25
 74
     0
 49
-0.25
 74
     0
 49
0.25
 74
     0
 49
-0.25
 74
     0
  0
LTYPE
  5
A33F
330
A31F
100
AcDbSymbolTableRecord
100
AcDbLinetypeTableRecord
  2
PHANTOM
 70
     0
  3
______  __  __  ______  __  __  ______  __  __ 
 72
    65
 73
     6
 40
2.5
 49
1.25
 74
     0
 49
-0.25
 74
     0
 49
0.25
 74
     0
 49
-0.25
 74
     0
 49
0.25
 74
     0
 49
-0.25
 74
     0
  0
ENDTAB
  0
TABLE
  2
LAYER
  5
A31C
330
0
100
AcDbSymbolTable
 70
     8
  0
LAYER
  5
A32A
102
{ACAD_XDICTIONARY
360
A67F
102
}
330
A31C
100
AcDbSymbolTableRecord
100
AcDbLayerTableRecord
  2
0
 70
     0
 62
     7
  6
CONTINUOUS
370
    -3
390
A62D
  0
LAYER
  5
A340
102
{ACAD_XDICTIONARY
360
A681
102
}
330
A31C
100
AcDbSymbolTableRecord
100
AcDbLayerTableRecord
  2
4
 70
     0
 62
     1
  6
CENTER
370
    -3
390
A62D
  0
LAYER
  5
A341
102
{ACAD_XDICTIONARY
360
A683
102
}
330
A31C
100
AcDbSymbolTableRecord
100
AcDbLayerTableRecord
  2
5
 70
     0
 62
     6
  6
PHANTOM
370
    -3
390
A62D
  0
LAYER
  5
A342
102
{ACAD_XDICTIONARY
360
A685
102
}
330
A31C
100
AcDbSymbolTableRecord
100
AcDbLayerTableRecord
  2
1
 70
     0
 62
     7
  6
CONTINUOUS
370
    -3
390
A62D
  0
LAYER
  5
A343
102
{ACAD_XDICTIONARY
360
A687
102
}
330
A31C
100
AcDbSymbolTableRecord
100
AcDbLayerTableRecord
  2
2
 70
     0
 62
     4
  6
CONTINUOUS
370
    -3
390
A62D
  0
LAYER
  5
A344
102
{ACAD_XDICTIONARY
360
A689
102
}
330
A31C
100
AcDbSymbolTableRecord
100
AcDbLayerTableRecord
  2
3
 70
     0
 62
     2
  6
DASHED
370
    -3
390
A62D
  0
LAYER
  5
A345
102
{ACAD_XDICTIONARY
360
A68B
102
}
330
A31C
100
AcDbSymbolTableRecord
100
AcDbLayerTableRecord
  2
6
 70
     0
 62
     5
  6
CONTINUOUS
370
    -3
390
A62D
  0
LAYER
  5
A346
102
{ACAD_XDICTIONARY
360
A68D
102
}
330
A31C
100
AcDbSymbolTableRecord
100
AcDbLayerTableRecord
  2
7
 70
     0
 62
     3
  6
CONTINUOUS
370
    -3
390
A62D
  0
ENDTAB
  0
TABLE
  2
STYLE
  5
A31D
330
0
100
AcDbSymbolTable
 70
     1
  0
STYLE
  5
A32B
330
A31D
100
AcDbSymbolTableRecord
100
AcDbTextStyleTableRecord
  2
STANDARD
 70
     0
 40
0.0
 41
1.0
 50
0.0
 71
     0
 42
5.0
  3
txt
  4

  0
ENDTAB
  0
TABLE
  2
VIEW
  5
A320
330
0
100
AcDbSymbolTable
 70
     0
  0
ENDTAB
  0
TABLE
  2
UCS
  5
A321
330
0
100
AcDbSymbolTable
 70
     0
  0
ENDTAB
  0
TABLE
  2
APPID
  5
A323
330
0
100
AcDbSymbolTable
 70
     3
  0
APPID
  5
A32C
330
A323
100
AcDbSymbolTableRecord
100
AcDbRegAppTableRecord
  2
ACAD
 70
     0
  0
APPID
  5
A699
330
A323
100
AcDbSymbolTableRecord
100
AcDbRegAppTableRecord
  2
ACAD_NAV_VCDISPLAY
 70
     0
  0
APPID
  5
A6D2
330
A323
100
AcDbSymbolTableRecord
100
AcDbRegAppTableRecord
  2
ACAD_MLEADERVER
 70
     0
  0
ENDTAB
  0
TABLE
  2
DIMSTYLE
  5
A324
330
0
100
AcDbSymbolTable
 70
     1
100
AcDbDimStyleTable
 71
     0
  0
DIMSTYLE
105
A348
330
A324
100
AcDbSymbolTableRecord
100
AcDbDimStyleTableRecord
  2
STANDARD
 70
     0
 41
3.0
 42
1.0
 43
10.0
 44
1.0
 73
     0
 74
     0
 77
     3
 78
     8
140
3.2
141
0.0
147
1.0
172
     1
173
     1
284
     8
285
     8
286
     8
340
A32B
  0
ENDTAB
  0
TABLE
  2
BLOCK_RECORD
  5
A31B
330
0
100
AcDbSymbolTable
 70
     1
  0
BLOCK_RECORD
  5
A338
102
{ACAD_XDICTIONARY
360
A627
102
}
330
A31B
100
AcDbSymbolTableRecord
100
AcDbBlockTableRecord
  2
*MODEL_SPACE
340
A67B
  0
BLOCK_RECORD
  5
A334
102
{ACAD_XDICTIONARY
360
A625
102
}
330
A31B
100
AcDbSymbolTableRecord
100
AcDbBlockTableRecord
  2
*PAPER_SPACE
340
A67C
  0
BLOCK_RECORD
  5
A350
330
A31B
100
AcDbSymbolTableRecord
100
AcDbBlockTableRecord
  2
_OPEN
340
0
  0
ENDTAB
  0
ENDSEC
  0
SECTION
  2
BLOCKS
  0
BLOCK
  5
A339
330
A338
100
AcDbEntity
  8
0
100
AcDbBlockBegin
  2
*MODEL_SPACE
 70
     0
 10
0.0
 20
0.0
 30
0.0
  3
*MODEL_SPACE
  1

  0
ENDBLK
  5
A33A
330
A338
100
AcDbEntity
  8
0
100
AcDbBlockEnd
  0
BLOCK
  5
A335
330
A334
100
AcDbEntity
 67
     1
  8
0
100
AcDbBlockBegin
  2
*PAPER_SPACE
 70
     0
 10
0.0
 20
0.0
 30
0.0
  3
*PAPER_SPACE
  1

  0
ENDBLK
  5
A336
330
A334
100
AcDbEntity
 67
     1
  8
0
100
AcDbBlockEnd
  0
BLOCK
  5
A351
330
A350
100
AcDbEntity
  8
0
100
AcDbBlockBegin
  2
_OPEN
 70
     0
 10
0.0
 20
0.0
 30
0.0
  3
_OPEN
  1

  0
LINE
  5
A352
330
A350
100
AcDbEntity
  8
0
  6
ByBlock
 62
     0
100
AcDbLine
 10
-1.0
 20
0.166667
 30
0.0
 11
0.0
 21
0.0
 31
0.0
  0
LINE
  5
A353
330
A350
100
AcDbEntity
  8
0
  6
ByBlock
 62
     0
100
AcDbLine
 10
0.0
 20
0.0
 30
0.0
 11
-1.0
 21
-0.166667
 31
0.0
  0
LINE
  5
A354
330
A350
100
AcDbEntity
  8
0
  6
ByBlock
 62
     0
100
AcDbLine
 10
0.0
 20
0.0
 30
0.0
 11
-1.0
 21
0.0
 31
0.0
  0
ENDBLK
  5
A355
330
A350
100
AcDbEntity
  8
0
100
AcDbBlockEnd
  0
ENDSEC
  0
SECTION
  2
ENTITIES
  0
TEXT
  5
A356
330
A338
100
AcDbEntity
  8
7
  6
Continuous
100
AcDbText
 10
10.0
 20
18.0
 30
0.0
 40
3.0
  1
TYPE No.209M d=19
100
AcDbText
  0
TEXT
  5
A357
330
A338
100
AcDbEntity
  8
7
  6
Continuous
100
AcDbText
 10
10.0
 20
26.0
 30
0.0
 40
3.0
  1
CODE No.9191
100
AcDbText
  0
TEXT
  5
A358
330
A338
100
AcDbEntity
  8
1
  6
Continuous
100
AcDbText
 10
10.0
 20
10.0
 30
0.0
 40
1.399999999999999
  1
LAYER
100
AcDbText
  0
TEXT
  5
A359
330
A338
100
AcDbEntity
  8
1
  6
Continuous
100
AcDbText
 10
17.97951099999998
 20
10.04873699999998
 30
0.0
 40
1.399999999999999
  1
1
100
AcDbText
  0
TEXT
  5
A35A
330
A338
100
AcDbEntity
  8
7
  6
Continuous
100
AcDbText
 10
29.97951099999999
 20
10.04873699999998
 30
0.0
 40
1.399999999999999
  1
7
100
AcDbText
  0
TEXT
  5
A35B
330
A338
100
AcDbEntity
  8
4
  6
CENTER
100
AcDbText
 10
23.97951099999999
 20
10.04873699999998
 30
0.0
 40
1.399999999999999
  1
4
100
AcDbText
  0
TEXT
  5
A35C
330
A338
100
AcDbEntity
  8
3
  6
DASHED
100
AcDbText
 10
21.979511
 20
10.04873699999998
 30
0.0
 40
1.399999999999999
  1
3
100
AcDbText
  0
TEXT
  5
A35D
330
A338
100
AcDbEntity
  8
2
  6
Continuous
100
AcDbText
 10
19.97951099999999
 20
10.04873699999998
 30
0.0
 40
1.399999999999999
  1
2
100
AcDbText
  0
TEXT
  5
A35E
330
A338
100
AcDbEntity
  8
6
  6
Continuous
100
AcDbText
 10
27.979511
 20
10.04873699999998
 30
0.0
 40
1.399999999999999
  1
6
100
AcDbText
  0
TEXT
  5
A35F
330
A338
100
AcDbEntity
  8
5
  6
PHANTOM
100
AcDbText
 10
25.97951099999999
 20
10.04873699999998
 30
0.0
 40
1.399999999999999
  1
5
100
AcDbText
  0
LINE
  5
A360
330
A338
100
AcDbEntity
  8
4
  6
CENTER
100
AcDbLine
 10
305.933854
 20
424.010787
 30
0.0
 11
305.933854
 21
252.3000779999999
 31
0.0
  0
ARC
  5
A361
330
A338
100
AcDbEntity
  8
1
  6
Continuous
100
AcDbCircle
 10
627.633861
 20
362.9758439999998
 30
0.0
 40
331.4999999999999
100
AcDbArc
 50
177.547502
 51
182.43775
  0
ARC
  5
A362
330
A338
100
AcDbEntity
  8
1
  6
Continuous
100
AcDbCircle
 10
-15.766139
 20
362.9758439999998
 30
0.0
 40
331.4999999999999
100
AcDbArc
 50
357.56225
 51
2.437749999999998
  0
LINE
  5
A363
330
A338
100
AcDbEntity
  8
4
  6
CENTER
100
AcDbLine
 10
336.933854
 20
236.9758589999999
 30
0.0
 11
175.2057259999999
 21
236.9758589999999
 31
0.0
  0
LINE
  5
A364
330
A338
100
AcDbEntity
  8
1
  6
Continuous
100
AcDbLine
 10
315.4338609999999
 20
348.8758439999998
 30
0.0
 11
296.433861
 21
348.8758439999998
 31
0.0
  0
LINE
  5
A365
330
A338
100
AcDbEntity
  8
1
  6
Continuous
100
AcDbLine
 10
314.4338609999999
 20
344.975844
 30
0.0
 11
297.4338609999999
 21
344.975844
 31
0.0
  0
LINE
  5
A366
330
A338
100
AcDbEntity
  8
1
  6
Continuous
100
AcDbLine
 10
261.6655809999999
 20
228.478224
 30
0.0
 11
307.418871
 21
259.339208
 31
0.0
  0
LINE
  5
A367
330
A338
100
AcDbEntity
  8
1
  6
Continuous
100
AcDbLine
 10
325.0838539999999
 20
322.4758589999999
 30
0.0
 11
286.783854
 21
322.4758589999999
 31
0.0
  0
LINE
  5
A368
330
A338
100
AcDbEntity
  8
1
  6
Continuous
100
AcDbLine
 10
318.5838539999999
 20
338.4758589999999
 30
0.0
 11
293.283854
 21
338.4758589999999
 31
0.0
  0
LINE
  5
A369
330
A338
100
AcDbEntity
  8
1
  6
Continuous
100
AcDbLine
 10
318.058354
 20
342.9758589999999
 30
0.0
 11
293.809354
 21
342.9758589999999
 31
0.0
  0
ARC
  5
A36A
330
A338
100
AcDbEntity
  8
1
  6
Continuous
100
AcDbCircle
 10
371.4338539999998
 20
289.825734
 30
0.0
 40
50.0
100
AcDbArc
 50
163.4423119999999
 51
187.815448
  0
ARC
  5
A36B
330
A338
100
AcDbEntity
  8
1
  6
Continuous
100
AcDbCircle
 10
286.449137
 20
290.4281169999998
 30
0.0
 40
37.5
100
AcDbArc
 50
304.0
 51
336.673568
  0
ARC
  5
A36C
330
A338
100
AcDbEntity
  8
1
  6
Continuous
100
AcDbCircle
 10
308.028337
 20
281.122841
 30
0.0
 40
14.0
100
AcDbArc
 50
336.673568
 51
7.815447999999999
  0
ARC
  5
A36D
330
A338
100
AcDbEntity
  8
1
  6
Continuous
100
AcDbCircle
 10
322.433854
 20
318.675859
 30
0.0
 40
4.0
100
AcDbArc
 50
0.0
 51
71.80512799999998
  0
ARC
  5
A36E
330
A338
100
AcDbEntity
  8
1
  6
Continuous
100
AcDbCircle
 10
334.051056
 20
300.9399759999999
 30
0.0
 40
11.0
100
AcDbArc
 50
133.826179
 51
163.4423119999999
  0
LINE
  5
A36F
330
A338
100
AcDbEntity
  8
1
  6
Continuous
100
AcDbLine
 10
326.433854
 20
318.675859
 30
0.0
 11
326.433854
 21
308.8758589999998
 31
0.0
  0
ARC
  5
A370
330
A338
100
AcDbEntity
  8
1
  6
Continuous
100
AcDbCircle
 10
318.5838539999999
 20
331.9758589999999
 30
0.0
 40
6.5
100
AcDbArc
 50
0.0
 51
90.0
  0
LINE
  5
A371
330
A338
100
AcDbEntity
  8
1
  6
Continuous
100
AcDbLine
 10
325.0838539999999
 20
331.9758589999999
 30
0.0
 11
325.0838539999999
 21
322.4758589999999
 31
0.0
  0
ARC
  5
A372
330
A338
100
AcDbEntity
  8
1
  6
Continuous
100
AcDbCircle
 10
314.4338609999999
 20
345.9758439999998
 30
0.0
 40
1.0
100
AcDbArc
 50
270.0
 51
0.0
  0
ARC
  5
A373
330
A338
100
AcDbEntity
  8
1
  6
Continuous
100
AcDbCircle
 10
315.933854
 20
343.9758589999998
 30
0.0
 40
1.0
100
AcDbArc
 50
180.0
 51
270.0
  0
ARC
  5
A374
330
A338
100
AcDbEntity
  8
1
  6
Continuous
100
AcDbCircle
 10
313.933854
 20
343.9758589999998
 30
0.0
 40
1.0
100
AcDbArc
 50
0.0
 51
90.0
  0
LINE
  5
A375
330
A338
100
AcDbEntity
  8
1
  6
Continuous
100
AcDbLine
 10
318.058354
 20
342.9758589999999
 30
0.0
 11
318.058354
 21
338.4758589999999
 31
0.0
  0
LINE
  5
A376
330
A338
100
AcDbEntity
  8
1
  6
Continuous
100
AcDbLine
 10
311.995854
 20
342.9758589999999
 30
0.0
 11
311.995854
 21
338.4758589999999
 31
0.0
  0
LINE
  5
A377
330
A338
100
AcDbEntity
  8
1
  6
Continuous
100
AcDbLine
 10
315.4338609999999
 20
348.8758439999998
 30
0.0
 11
315.4338609999999
 21
345.9758439999998
 31
0.0
  0
LINE
  5
A378
330
A338
100
AcDbEntity
  8
4
  6
CENTER
100
AcDbLine
 10
255.933854
 20
155.975859
 30
0.0
 11
255.933854
 21
317.9758589999999
 31
0.0
  0
ARC
  5
A379
330
A338
100
AcDbEntity
  8
1
  6
Continuous
100
AcDbCircle
 10
255.933854
 20
236.9758589999999
 30
0.0
 40
16.0
100
AcDbArc
 50
77.83844000000001
 51
354.16156
  0
ARC
  5
A37A
330
A338
100
AcDbEntity
  8
1
  6
Continuous
100
AcDbCircle
 10
255.933854
 20
236.9758589999999
 30
0.0
 40
20.5
100
AcDbArc
 50
68.0
 51
4.0
  0
CIRCLE
  5
A37B
330
A338
100
AcDbEntity
  8
1
  6
Continuous
100
AcDbCircle
 10
282.9719759999999
 20
199.761078
 30
0.0
 40
3.5
  0
CIRCLE
  5
A37C
330
A338
100
AcDbEntity
  8
1
  6
Continuous
100
AcDbCircle
 10
228.895733
 20
199.761078
 30
0.0
 40
3.5
  0
CIRCLE
  5
A37D
330
A338
100
AcDbEntity
  8
1
  6
Continuous
100
AcDbCircle
 10
212.1852539999999
 20
251.190641
 30
0.0
 40
3.5
  0
ARC
  5
A37E
330
A338
100
AcDbEntity
  8
1
  6
Continuous
100
AcDbCircle
 10
246.4338539999999
 20
294.9799259999998
 30
0.0
 40
45.0
100
AcDbArc
 50
339.541171
 51
11.25676099999999
  0
ARC
  5
A37F
330
A338
100
AcDbEntity
  8
1
  6
Continuous
100
AcDbCircle
 10
255.933854
 20
236.9758589999999
 30
0.0
 40
10.25
100
AcDbArc
 50
340.401521
 51
91.598479
  0
ARC
  5
A380
330
A338
100
AcDbEntity
  8
1
  6
Continuous
100
AcDbCircle
 10
261.0221619999999
 20
228.61927
 30
0.0
 40
20.0
100
AcDbArc
 50
80.149466
 51
98.85475200000001
  0
ARC
  5
A381
330
A338
100
AcDbEntity
  8
1
  6
Continuous
100
AcDbCircle
 10
255.933854
 20
236.9758589999999
 30
0.0
 40
10.25
100
AcDbArc
 50
128.0
 51
304.0
  0
LINE
  5
A382
330
A338
100
AcDbEntity
  8
1
  6
Continuous
100
AcDbLine
 10
249.623324
 20
245.05297
 30
0.0
 11
282.1701739999999
 21
270.481355
 31
0.0
  0
ARC
  5
A383
330
A338
100
AcDbEntity
  8
1
  6
Continuous
100
AcDbCircle
 10
299.682454
 20
251.190641
 30
0.0
 40
3.5
100
AcDbArc
 50
170.0451769999999
 51
77.954823
  0
ARC
  5
A384
330
A338
100
AcDbEntity
  8
1
  6
Continuous
100
AcDbCircle
 10
249.558638
 20
244.397456
 30
0.0
 40
20.0
100
AcDbArc
 50
333.1452479999999
 51
351.8505339999999
  0
ARC
  5
A385
330
A338
100
AcDbEntity
  8
1
  6
Continuous
100
AcDbCircle
 10
263.4172609999998
 20
242.412873
 30
0.0
 40
6.0
100
AcDbArc
 50
351.8505339999999
 51
80.149466
  0
ARC
  5
A386
330
A338
100
AcDbEntity
  8
1
  6
Continuous
100
AcDbCircle
 10
269.8569439999999
 20
286.24157
 30
0.0
 40
20.0
100
AcDbArc
 50
308.0
 51
339.541171
  0
CIRCLE
  5
A387
330
A338
100
AcDbEntity
  8
1
  6
Continuous
100
AcDbCircle
 10
255.933854
 20
282.9758589999999
 30
0.0
 40
3.5
  0
ARC
  5
A388
330
A338
100
AcDbEntity
  8
1
  6
Continuous
100
AcDbCircle
 10
289.433854
 20
318.675859
 30
0.0
 40
4.0
100
AcDbArc
 50
108.1948719999999
 51
180.0
  0
ARC
  5
A389
330
A338
100
AcDbEntity
  8
1
  6
Continuous
100
AcDbCircle
 10
284.1932009999998
 20
302.4953599999999
 30
0.0
 40
6.5
100
AcDbArc
 50
11.25676099999999
 51
78.996454
  0
LINE
  5
A38A
330
A338
100
AcDbEntity
  8
1
  6
Continuous
100
AcDbLine
 10
285.433854
 20
318.675859
 30
0.0
 11
285.433854
 21
308.8758589999998
 31
0.0
  0
ARC
  5
A38B
330
A338
100
AcDbEntity
  8
1
  6
Continuous
100
AcDbCircle
 10
293.283854
 20
331.9758589999999
 30
0.0
 40
6.5
100
AcDbArc
 50
90.0
 51
180.0
  0
LINE
  5
A38C
330
A338
100
AcDbEntity
  8
1
  6
Continuous
100
AcDbLine
 10
286.783854
 20
331.9758589999999
 30
0.0
 11
286.783854
 21
322.4758589999999
 31
0.0
  0
ARC
  5
A38D
330
A338
100
AcDbEntity
  8
1
  6
Continuous
100
AcDbCircle
 10
297.4338609999999
 20
345.9758439999998
 30
0.0
 40
1.0
100
AcDbArc
 50
180.0
 51
270.0
  0
ARC
  5
A38E
330
A338
100
AcDbEntity
  8
1
  6
Continuous
100
AcDbCircle
 10
295.933854
 20
343.9758589999998
 30
0.0
 40
1.0
100
AcDbArc
 50
270.0
 51
0.0
  0
ARC
  5
A38F
330
A338
100
AcDbEntity
  8
1
  6
Continuous
100
AcDbCircle
 10
297.933854
 20
343.9758589999998
 30
0.0
 40
1.0
100
AcDbArc
 50
90.0
 51
180.0
  0
LINE
  5
A390
330
A338
100
AcDbEntity
  8
1
  6
Continuous
100
AcDbLine
 10
299.871854
 20
342.9758589999999
 30
0.0
 11
299.871854
 21
338.4758589999999
 31
0.0
  0
LINE
  5
A391
330
A338
100
AcDbEntity
  8
1
  6
Continuous
100
AcDbLine
 10
296.433861
 20
348.8758439999998
 30
0.0
 11
296.433861
 21
345.9758439999998
 31
0.0
  0
LINE
  5
A392
330
A338
100
AcDbEntity
  8
1
  6
Continuous
100
AcDbLine
 10
293.809354
 20
342.9758589999999
 30
0.0
 11
293.809354
 21
338.4758589999999
 31
0.0
  0
LINE
  5
A393
330
A338
100
AcDbEntity
  8
4
  6
CENTER
100
AcDbLine
 10
337.1633979999999
 20
486.801795
 30
0.0
 11
175.2057259999999
 21
486.801795
 31
0.0
  0
CIRCLE
  5
A394
330
A338
100
AcDbEntity
  8
1
  6
Continuous
100
AcDbCircle
 10
305.9334779999999
 20
486.801795
 30
0.0
 40
6.0
  0
LINE
  5
A395
330
A338
100
AcDbEntity
  8
1
  6
Continuous
100
AcDbLine
 10
301.9535279999999
 20
495.151795
 30
0.0
 11
309.9134279999999
 21
495.151795
 31
0.0
  0
LINE
  5
A396
330
A338
100
AcDbEntity
  8
1
  6
Continuous
100
AcDbLine
 10
301.9535279999999
 20
478.451795
 30
0.0
 11
309.9134279999999
 21
478.451795
 31
0.0
  0
LINE
  5
A397
330
A338
100
AcDbEntity
  8
1
  6
Continuous
100
AcDbLine
 10
315.1838539999999
 20
415.975844
 30
0.0
 11
296.6838539999999
 21
415.975844
 31
0.0
  0
LINE
  5
A398
330
A338
100
AcDbEntity
  8
1
  6
Continuous
100
AcDbLine
 10
315.1838539999999
 20
412.775844
 30
0.0
 11
296.6838539999999
 21
412.775844
 31
0.0
  0
LINE
  5
A399
330
A338
100
AcDbEntity
  8
1
  6
Continuous
100
AcDbLine
 10
315.4338609999999
 20
409.7758439999998
 30
0.0
 11
296.433861
 21
409.7758439999998
 31
0.0
  0
LINE
  5
A39A
330
A338
100
AcDbEntity
  8
1
  6
Continuous
100
AcDbLine
 10
314.833861
 20
379.675844
 30
0.0
 11
297.033861
 21
379.675844
 31
0.0
  0
LINE
  5
A39B
330
A338
100
AcDbEntity
  8
1
  6
Continuous
100
AcDbLine
 10
314.833861
 20
378.075844
 30
0.0
 11
297.033861
 21
378.075844
 31
0.0
  0
ARC
  5
A39C
330
A338
100
AcDbEntity
  8
1
  6
Continuous
100
AcDbCircle
 10
280.1540489999999
 20
436.3067159999998
 30
0.0
 40
77.195079
100
AcDbArc
 50
62.954166
 51
69.49809000000001
  0
CIRCLE
  5
A39D
330
A338
100
AcDbEntity
  8
1
  6
Continuous
100
AcDbCircle
 10
305.9334779999999
 20
486.801795
 30
0.0
 40
19.15
  0
LINE
  5
A39E
330
A338
100
AcDbEntity
  8
1
  6
Continuous
100
AcDbLine
 10
311.933854
 20
416.4758589999998
 30
0.0
 11
299.933854
 21
416.4758589999998
 31
0.0
  0
LINE
  5
A39F
330
A338
100
AcDbEntity
  8
1
  6
Continuous
100
AcDbLine
 10
311.9956559999998
 20
476.301795
 30
0.0
 11
299.8713
 21
476.301795
 31
0.0
  0
LINE
  5
A3A0
330
A338
100
AcDbEntity
  8
1
  6
Continuous
100
AcDbLine
 10
311.9956559999998
 20
497.301795
 30
0.0
 11
299.8713
 21
497.301795
 31
0.0
  0
CIRCLE
  5
A3A1
330
A338
100
AcDbEntity
  8
1
  6
Continuous
100
AcDbCircle
 10
305.9334779999999
 20
486.801795
 30
0.0
 40
10.5
  0
LINE
  5
A3A2
330
A338
100
AcDbEntity
  8
1
  6
Continuous
100
AcDbLine
 10
310.433854
 20
417.9758589999998
 30
0.0
 11
301.433854
 21
417.9758589999998
 31
0.0
  0
ARC
  5
A3A3
330
A338
100
AcDbEntity
  8
1
  6
Continuous
100
AcDbCircle
 10
305.9334779999999
 20
486.801795
 30
0.0
 40
20.5
100
AcDbArc
 50
297.0462239999998
 51
62.954166
  0
ARC
  5
A3A4
330
A338
100
AcDbEntity
  8
1
  6
Continuous
100
AcDbCircle
 10
-37.253639
 20
395.2258439999998
 30
0.0
 40
352.9875
100
AcDbArc
 50
357.637622
 51
2.362378
  0
LINE
  5
A3A5
330
A338
100
AcDbEntity
  8
1
  6
Continuous
100
AcDbLine
 10
314.833861
 20
379.675844
 30
0.0
 11
314.833861
 21
378.075844
 31
0.0
  0
ARC
  5
A3A6
330
A338
100
AcDbEntity
  8
1
  6
Continuous
100
AcDbCircle
 10
314.4338609999999
 20
377.075844
 30
0.0
 40
1.0
100
AcDbArc
 50
0.0
 51
90.0
  0
ARC
  5
A3A7
330
A338
100
AcDbEntity
  8
1
  6
Continuous
100
AcDbCircle
 10
314.4338609999999
 20
380.6758439999999
 30
0.0
 40
1.0
100
AcDbArc
 50
270.0
 51
0.0
  0
LINE
  5
A3A8
330
A338
100
AcDbEntity
  8
1
  6
Continuous
100
AcDbLine
 10
314.4338609999999
 20
412.775844
 30
0.0
 11
314.4338609999999
 21
409.7758439999998
 31
0.0
  0
LINE
  5
A3A9
330
A338
100
AcDbEntity
  8
1
  6
Continuous
100
AcDbLine
 10
315.1838539999999
 20
412.775844
 30
0.0
 11
315.1838539999999
 21
415.975844
 31
0.0
  0
LINE
  5
A3AA
330
A338
100
AcDbEntity
  8
1
  6
Continuous
100
AcDbLine
 10
309.9134279999999
 20
415.975844
 30
0.0
 11
309.9134279999999
 21
412.775844
 31
0.0
  0
LINE
  5
A3AB
330
A338
100
AcDbEntity
  8
1
  6
Continuous
100
AcDbLine
 10
310.433854
 20
417.9758589999998
 30
0.0
 11
311.933854
 21
416.4758589999998
 31
0.0
  0
LINE
  5
A3AC
330
A338
100
AcDbEntity
  8
1
  6
Continuous
100
AcDbLine
 10
311.933854
 20
416.4758589999998
 30
0.0
 11
311.933854
 21
415.975859
 31
0.0
  0
ARC
  5
A3AD
330
A338
100
AcDbEntity
  8
1
  6
Continuous
100
AcDbCircle
 10
305.9334779999999
 20
486.801795
 30
0.0
 40
9.25
100
AcDbArc
 50
295.484369
 51
64.515631
  0
LINE
  5
A3AE
330
A338
100
AcDbEntity
  8
1
  6
Continuous
100
AcDbLine
 10
318.0578339999998
 20
486.801795
 30
0.0
 11
311.9956559999998
 21
476.301795
 31
0.0
  0
LINE
  5
A3AF
330
A338
100
AcDbEntity
  8
1
  6
Continuous
100
AcDbLine
 10
318.0578339999998
 20
486.801795
 30
0.0
 11
311.9956559999998
 21
497.301795
 31
0.0
  0
LINE
  5
A3B0
330
A338
100
AcDbEntity
  8
4
  6
CENTER
100
AcDbLine
 10
255.9334779999999
 20
523.614636
 30
0.0
 11
255.9334779999999
 21
449.6002059999998
 31
0.0
  0
LINE
  5
A3B1
330
A338
100
AcDbEntity
  8
4
  6
CENTER
100
AcDbLine
 10
305.9334779999999
 20
515.9722659999999
 30
0.0
 11
305.9334779999999
 21
456.511985
 31
0.0
  0
ARC
  5
A3B2
330
A338
100
AcDbEntity
  8
1
  6
Continuous
100
AcDbCircle
 10
270.482192
 20
473.1481289999998
 30
0.0
 40
30.0
100
AcDbArc
 50
55.26464800000001
 51
78.557979
  0
ARC
  5
A3B3
330
A338
100
AcDbEntity
  8
1
  6
Continuous
100
AcDbCircle
 10
241.384765
 20
473.1481289999998
 30
0.0
 40
30.0
100
AcDbArc
 50
101.4420209999999
 51
124.735352
  0
ARC
  5
A3B4
330
A338
100
AcDbEntity
  8
1
  6
Continuous
100
AcDbCircle
 10
305.9334779999999
 20
486.801795
 30
0.0
 40
20.5
100
AcDbArc
 50
118.4721379999999
 51
241.527862
  0
ARC
  5
A3B5
330
A338
100
AcDbEntity
  8
1
  6
Continuous
100
AcDbCircle
 10
649.1213609999999
 20
395.2258439999998
 30
0.0
 40
352.9875
100
AcDbArc
 50
177.6376219999999
 51
182.375797
  0
LINE
  5
A3B6
330
A338
100
AcDbEntity
  8
1
  6
Continuous
100
AcDbLine
 10
297.033861
 20
378.075844
 30
0.0
 11
297.033861
 21
379.675844
 31
0.0
  0
ARC
  5
A3B7
330
A338
100
AcDbEntity
  8
1
  6
Continuous
100
AcDbCircle
 10
297.4338609999999
 20
377.075844
 30
0.0
 40
1.0
100
AcDbArc
 50
90.0
 51
180.0
  0
ARC
  5
A3B8
330
A338
100
AcDbEntity
  8
1
  6
Continuous
100
AcDbCircle
 10
297.4338609999999
 20
380.6758439999999
 30
0.0
 40
1.0
100
AcDbArc
 50
180.0
 51
270.0
  0
LINE
  5
A3B9
330
A338
100
AcDbEntity
  8
1
  6
Continuous
100
AcDbLine
 10
297.4338609999999
 20
412.775844
 30
0.0
 11
297.4338609999999
 21
409.7758439999998
 31
0.0
  0
LINE
  5
A3BA
330
A338
100
AcDbEntity
  8
1
  6
Continuous
100
AcDbLine
 10
301.9535279999999
 20
415.975844
 30
0.0
 11
301.9535279999999
 21
412.775844
 31
0.0
  0
LINE
  5
A3BB
330
A338
100
AcDbEntity
  8
1
  6
Continuous
100
AcDbLine
 10
296.6838539999999
 20
415.975844
 30
0.0
 11
296.6838539999999
 21
412.775844
 31
0.0
  0
LINE
  5
A3BC
330
A338
100
AcDbEntity
  8
1
  6
Continuous
100
AcDbLine
 10
301.433854
 20
417.9758589999998
 30
0.0
 11
299.933854
 21
416.4758589999998
 31
0.0
  0
LINE
  5
A3BD
330
A338
100
AcDbEntity
  8
1
  6
Continuous
100
AcDbLine
 10
299.933854
 20
416.4758589999998
 30
0.0
 11
299.933854
 21
415.975859
 31
0.0
  0
LINE
  5
A3BE
330
A338
100
AcDbEntity
  8
1
  6
Continuous
100
AcDbLine
 10
262.287727
 20
506.701908
 30
0.0
 11
249.57923
 21
506.701908
 31
0.0
  0
LINE
  5
A3BF
330
A338
100
AcDbEntity
  8
1
  6
Continuous
100
AcDbLine
 10
239.9334779999998
 20
506.601908
 30
0.0
 11
271.933478
 21
506.601908
 31
0.0
  0
LINE
  5
A3C0
330
A338
100
AcDbEntity
  8
1
  6
Continuous
100
AcDbLine
 10
276.4334779999999
 20
502.551908
 30
0.0
 11
235.4334779999998
 21
502.551908
 31
0.0
  0
LINE
  5
A3C1
330
A338
100
AcDbEntity
  8
1
  6
Continuous
100
AcDbLine
 10
273.605051
 20
504.551908
 30
0.0
 11
238.2619049999999
 21
504.551908
 31
0.0
  0
ARC
  5
A3C2
330
A338
100
AcDbEntity
  8
1
  6
Continuous
100
AcDbCircle
 10
249.622948
 20
567.7250759999998
 30
0.0
 40
57.72316800000001
100
AcDbArc
 50
270.0
 51
283.0789429999999
  0
LINE
  5
A3C3
330
A338
100
AcDbEntity
  8
1
  6
Continuous
100
AcDbLine
 10
266.1834779999999
 20
510.001908
 30
0.0
 11
245.6834779999998
 21
510.001908
 31
0.0
  0
LINE
  5
A3C4
330
A338
100
AcDbEntity
  8
1
  6
Continuous
100
AcDbLine
 10
266.1834779999999
 20
507.701908
 30
0.0
 11
245.6834779999998
 21
507.701908
 31
0.0
  0
ARC
  5
A3C5
330
A338
100
AcDbEntity
  8
1
  6
Continuous
100
AcDbCircle
 10
266.1834779999999
 20
460.9239599999998
 30
0.0
 40
49.077948
100
AcDbArc
 50
78.90702799999998
 51
90.0
  0
ARC
  5
A3C6
330
A338
100
AcDbEntity
  8
1
  6
Continuous
100
AcDbCircle
 10
266.1834779999999
 20
460.9239599999998
 30
0.0
 40
46.777948
100
AcDbArc
 50
84.030339
 51
90.0
  0
ARC
  5
A3C7
330
A338
100
AcDbEntity
  8
1
  6
Continuous
100
AcDbCircle
 10
273.605051
 20
501.551908
 30
0.0
 40
3.0
100
AcDbArc
 50
19.47122099999998
 51
90.0
  0
ARC
  5
A3C8
330
A338
100
AcDbEntity
  8
1
  6
Continuous
100
AcDbCircle
 10
262.287727
 20
510.7019079999998
 30
0.0
 40
4.0
100
AcDbArc
 50
270.0
 51
311.409622
  0
LINE
  5
A3C9
330
A338
100
AcDbEntity
  8
1
  6
Continuous
100
AcDbLine
 10
271.933478
 20
506.601908
 30
0.0
 11
271.933478
 21
504.551908
 31
0.0
  0
LINE
  5
A3CA
330
A338
100
AcDbEntity
  8
1
  6
Continuous
100
AcDbLine
 10
261.908478
 20
506.701908
 30
0.0
 11
261.908478
 21
506.601908
 31
0.0
  0
ARC
  5
A3CB
330
A338
100
AcDbEntity
  8
1
  6
Continuous
100
AcDbCircle
 10
238.2619049999999
 20
501.551908
 30
0.0
 40
3.0
100
AcDbArc
 50
90.0
 51
160.528779
  0
ARC
  5
A3CC
330
A338
100
AcDbEntity
  8
1
  6
Continuous
100
AcDbCircle
 10
249.57923
 20
510.7019079999998
 30
0.0
 40
4.0
100
AcDbArc
 50
228.5903779999999
 51
270.0
  0
LINE
  5
A3CD
330
A338
100
AcDbEntity
  8
1
  6
Continuous
100
AcDbLine
 10
249.9584779999999
 20
506.701908
 30
0.0
 11
249.9584779999999
 21
506.601908
 31
0.0
  0
LINE
  5
A3CE
330
A338
100
AcDbEntity
  8
1
  6
Continuous
100
AcDbLine
 10
245.6834779999998
 20
510.001908
 30
0.0
 11
245.6834779999998
 21
507.701908
 31
0.0
  0
LINE
  5
A3CF
330
A338
100
AcDbEntity
  8
1
  6
Continuous
100
AcDbLine
 10
239.9334779999998
 20
506.601908
 30
0.0
 11
239.9334779999998
 21
504.551908
 31
0.0
  0
LINE
  5
A3D0
330
A338
100
AcDbEntity
  8
1
  6
Continuous
100
AcDbLine
 10
262.287727
 20
466.9019079999998
 30
0.0
 11
249.57923
 21
466.9019079999998
 31
0.0
  0
LINE
  5
A3D1
330
A338
100
AcDbEntity
  8
1
  6
Continuous
100
AcDbLine
 10
239.9334779999998
 20
467.001908
 30
0.0
 11
271.933478
 21
467.001908
 31
0.0
  0
LINE
  5
A3D2
330
A338
100
AcDbEntity
  8
1
  6
Continuous
100
AcDbLine
 10
276.4334779999999
 20
471.051908
 30
0.0
 11
235.4334779999998
 21
471.051908
 31
0.0
  0
LINE
  5
A3D3
330
A338
100
AcDbEntity
  8
1
  6
Continuous
100
AcDbLine
 10
273.605051
 20
469.051908
 30
0.0
 11
238.2619049999999
 21
469.051908
 31
0.0
  0
ARC
  5
A3D4
330
A338
100
AcDbEntity
  8
1
  6
Continuous
100
AcDbCircle
 10
270.482192
 20
500.455686
 30
0.0
 40
30.0
100
AcDbArc
 50
281.442021
 51
304.7353549999999
  0
ARC
  5
A3D5
330
A338
100
AcDbEntity
  8
1
  6
Continuous
100
AcDbCircle
 10
305.9334779999999
 20
486.801795
 30
0.0
 40
9.25
100
AcDbArc
 50
115.4843689999999
 51
244.515631
  0
LINE
  5
A3D6
330
A338
100
AcDbEntity
  8
1
  6
Continuous
100
AcDbLine
 10
299.8713
 20
476.301795
 30
0.0
 11
293.8091229999999
 21
486.801795
 31
0.0
  0
LINE
  5
A3D7
330
A338
100
AcDbEntity
  8
1
  6
Continuous
100
AcDbLine
 10
299.8713
 20
497.301795
 30
0.0
 11
293.8091229999999
 21
486.801795
 31
0.0
  0
ARC
  5
A3D8
330
A338
100
AcDbEntity
  8
1
  6
Continuous
100
AcDbCircle
 10
273.605051
 20
472.051908
 30
0.0
 40
3.0
100
AcDbArc
 50
270.0
 51
340.528779
  0
LINE
  5
A3D9
330
A338
100
AcDbEntity
  8
1
  6
Continuous
100
AcDbLine
 10
271.933478
 20
469.051908
 30
0.0
 11
271.933478
 21
467.001908
 31
0.0
  0
LINE
  5
A3DA
330
A338
100
AcDbEntity
  8
1
  6
Continuous
100
AcDbLine
 10
261.908478
 20
467.001908
 30
0.0
 11
261.908478
 21
466.9019079999998
 31
0.0
  0
ARC
  5
A3DB
330
A338
100
AcDbEntity
  8
1
  6
Continuous
100
AcDbCircle
 10
262.287727
 20
462.9019079999998
 30
0.0
 40
4.0
100
AcDbArc
 50
48.590378
 51
90.0
  0
LINE
  5
A3DC
330
A338
100
AcDbEntity
  8
1
  6
Continuous
100
AcDbLine
 10
245.6834779999998
 20
465.901908
 30
0.0
 11
245.6834779999998
 21
463.6019079999998
 31
0.0
  0
ARC
  5
A3DD
330
A338
100
AcDbEntity
  8
1
  6
Continuous
100
AcDbCircle
 10
238.2619049999999
 20
472.051908
 30
0.0
 40
3.0
100
AcDbArc
 50
199.4712209999999
 51
270.0
  0
ARC
  5
A3DE
330
A338
100
AcDbEntity
  8
1
  6
Continuous
100
AcDbCircle
 10
249.57923
 20
462.9019079999998
 30
0.0
 40
4.0
100
AcDbArc
 50
90.0
 51
131.4096219999999
  0
LINE
  5
A3DF
330
A338
100
AcDbEntity
  8
1
  6
Continuous
100
AcDbLine
 10
249.9584779999999
 20
467.001908
 30
0.0
 11
249.9584779999999
 21
466.9019079999998
 31
0.0
  0
LINE
  5
A3E0
330
A338
100
AcDbEntity
  8
1
  6
Continuous
100
AcDbLine
 10
239.9334779999998
 20
469.051908
 30
0.0
 11
239.9334779999998
 21
467.001908
 31
0.0
  0
ARC
  5
A3E1
330
A338
100
AcDbEntity
  8
1
  6
Continuous
100
AcDbCircle
 10
241.384765
 20
500.455686
 30
0.0
 40
30.0
100
AcDbArc
 50
235.264645
 51
258.557979
  0
LINE
  5
A3E2
330
A338
100
AcDbEntity
  8
4
  6
CENTER
100
AcDbLine
 10
68.99196100000001
 20
423.546607
 30
0.0
 11
68.99196100000001
 21
156.2480909999998
 31
0.0
  0
ARC
  5
A3E3
330
A338
100
AcDbEntity
  8
1
  6
Continuous
100
AcDbCircle
 10
-252.708039
 20
362.9758439999998
 30
0.0
 40
331.4999999999999
100
AcDbArc
 50
357.56225
 51
2.452497999999998
  0
ARC
  5
A3E4
330
A338
100
AcDbEntity
  8
1
  6
Continuous
100
AcDbCircle
 10
390.691961
 20
362.9758439999998
 30
0.0
 40
331.4999999999999
100
AcDbArc
 50
177.56225
 51
182.43775
  0
LINE
  5
A3E5
330
A338
100
AcDbEntity
  8
1
  6
Continuous
100
AcDbLine
 10
88.791848
 20
220.9758439999998
 30
0.0
 11
88.791848
 21
252.975844
 31
0.0
  0
LINE
  5
A3E6
330
A338
100
AcDbEntity
  8
1
  6
Continuous
100
AcDbLine
 10
49.191848
 20
220.9758439999998
 30
0.0
 11
49.191848
 21
252.975844
 31
0.0
  0
LINE
  5
A3E7
330
A338
100
AcDbEntity
  8
1
  6
Continuous
100
AcDbLine
 10
84.74184800000001
 20
257.475844
 30
0.0
 11
84.74184800000001
 21
216.4758439999999
 31
0.0
  0
LINE
  5
A3E8
330
A338
100
AcDbEntity
  8
1
  6
Continuous
100
AcDbLine
 10
53.241848
 20
257.475844
 30
0.0
 11
53.241848
 21
216.4758439999999
 31
0.0
  0
LINE
  5
A3E9
330
A338
100
AcDbEntity
  8
1
  6
Continuous
100
AcDbLine
 10
86.741848
 20
254.6474169999999
 30
0.0
 11
86.741848
 21
219.3042709999998
 31
0.0
  0
LINE
  5
A3EA
330
A338
100
AcDbEntity
  8
1
  6
Continuous
100
AcDbLine
 10
51.241848
 20
254.6474169999999
 30
0.0
 11
51.241848
 21
219.3042709999998
 31
0.0
  0
ARC
  5
A3EB
330
A338
100
AcDbEntity
  8
1
  6
Continuous
100
AcDbCircle
 10
54.24184799999999
 20
219.3042709999998
 30
0.0
 40
3.0
100
AcDbArc
 50
180.0
 51
250.5287789999999
  0
LINE
  5
A3EC
330
A338
100
AcDbEntity
  8
1
  6
Continuous
100
AcDbLine
 10
49.191848
 20
220.9758439999998
 30
0.0
 11
51.241848
 21
220.9758439999998
 31
0.0
  0
ARC
  5
A3ED
330
A338
100
AcDbEntity
  8
1
  6
Continuous
100
AcDbCircle
 10
82.64562599999997
 20
222.4271299999998
 30
0.0
 40
30.0
100
AcDbArc
 50
191.4420209999999
 51
214.7353549999999
  0
ARC
  5
A3EE
330
A338
100
AcDbEntity
  8
1
  6
Continuous
100
AcDbCircle
 10
55.338069
 20
222.4271299999998
 30
0.0
 40
30.0
100
AcDbArc
 50
325.264648
 51
348.557979
  0
LINE
  5
A3EF
330
A338
100
AcDbEntity
  8
1
  6
Continuous
100
AcDbLine
 10
86.741848
 20
220.9758439999998
 30
0.0
 11
88.791848
 21
220.9758439999998
 31
0.0
  0
ARC
  5
A3F0
330
A338
100
AcDbEntity
  8
1
  6
Continuous
100
AcDbCircle
 10
83.741848
 20
219.3042709999998
 30
0.0
 40
3.0
100
AcDbArc
 50
289.471221
 51
0.0
  0
LINE
  5
A3F1
330
A338
100
AcDbEntity
  8
4
  6
CENTER
100
AcDbLine
 10
32.17912
 20
236.975844
 30
0.0
 11
106.19355
 21
236.975844
 31
0.0
  0
ARC
  5
A3F2
330
A338
100
AcDbEntity
  8
1
  6
Continuous
100
AcDbCircle
 10
119.491848
 20
292.775844
 30
0.0
 40
30.0
100
AcDbArc
 50
180.0
 51
192.0970529999999
  0
ARC
  5
A3F3
330
A338
100
AcDbEntity
  8
1
  6
Continuous
100
AcDbCircle
 10
18.491848
 20
292.775844
 30
0.0
 40
30.0
100
AcDbArc
 50
347.902947
 51
0.0
  0
ARC
  5
A3F4
330
A338
100
AcDbEntity
  8
1
  6
Continuous
100
AcDbCircle
 10
251.351848
 20
292.775844
 30
0.0
 40
166.5599999999998
100
AcDbArc
 50
175.568982
 51
184.334819
  0
ARC
  5
A3F5
330
A338
100
AcDbEntity
  8
1
  6
Continuous
100
AcDbCircle
 10
-113.3681519999999
 20
292.775844
 30
0.0
 40
166.5599999999998
100
AcDbArc
 50
355.665181
 51
4.431017999999999
  0
ARC
  5
A3F6
330
A338
100
AcDbEntity
  8
1
  6
Continuous
100
AcDbCircle
 10
251.351848
 20
292.775844
 30
0.0
 40
168.86
100
AcDbArc
 50
175.628398
 51
184.334819
  0
ARC
  5
A3F7
330
A338
100
AcDbEntity
  8
1
  6
Continuous
100
AcDbCircle
 10
-113.3681519999999
 20
292.775844
 30
0.0
 40
168.86
100
AcDbArc
 50
355.665181
 51
4.371601999999998
  0
ARC
  5
A3F8
330
A338
100
AcDbEntity
  8
1
  6
Continuous
100
AcDbCircle
 10
54.24184799999999
 20
254.6474169999999
 30
0.0
 40
3.0
100
AcDbArc
 50
109.4712209999999
 51
180.0
  0
ARC
  5
A3F9
330
A338
100
AcDbEntity
  8
1
  6
Continuous
100
AcDbCircle
 10
35.06601699999999
 20
281.5243029999999
 30
0.0
 40
17.7
100
AcDbArc
 50
337.2957169999999
 51
355.665181
  0
ARC
  5
A3FA
330
A338
100
AcDbEntity
  8
1
  6
Continuous
100
AcDbCircle
 10
118.091848
 20
246.786552
 30
0.0
 40
70.0
100
AcDbArc
 50
157.295717
 51
180.0
  0
ARC
  5
A3FB
330
A338
100
AcDbEntity
  8
1
  6
Continuous
100
AcDbCircle
 10
292.274173
 20
234.096729
 30
0.0
 40
250.0
100
AcDbArc
 50
167.9029469999998
 51
177.751751
  0
ARC
  5
A3FC
330
A338
100
AcDbEntity
  8
1
  6
Continuous
100
AcDbCircle
 10
118.091848
 20
246.786552
 30
0.0
 40
72.29999999999998
100
AcDbArc
 50
157.295717
 51
180.0
  0
LINE
  5
A3FD
330
A338
100
AcDbEntity
  8
1
  6
Continuous
100
AcDbLine
 10
49.091848
 20
243.330093
 30
0.0
 11
49.091848
 21
230.621595
 31
0.0
  0
LINE
  5
A3FE
330
A338
100
AcDbEntity
  8
1
  6
Continuous
100
AcDbLine
 10
45.791848
 20
246.786552
 30
0.0
 11
45.791848
 21
226.7258439999999
 31
0.0
  0
LINE
  5
A3FF
330
A338
100
AcDbEntity
  8
1
  6
Continuous
100
AcDbLine
 10
48.091848
 20
246.786552
 30
0.0
 11
48.091848
 21
226.7258439999999
 31
0.0
  0
LINE
  5
A400
330
A338
100
AcDbEntity
  8
1
  6
Continuous
100
AcDbLine
 10
45.791848
 20
226.7258439999999
 30
0.0
 11
48.091848
 21
226.7258439999999
 31
0.0
  0
ARC
  5
A401
330
A338
100
AcDbEntity
  8
1
  6
Continuous
100
AcDbCircle
 10
57.791848
 20
236.975844
 30
0.0
 40
15.5
100
AcDbArc
 50
208.9385279999999
 51
219.2680259999999
  0
ARC
  5
A402
330
A338
100
AcDbEntity
  8
1
  6
Continuous
100
AcDbCircle
 10
45.09184799999998
 20
230.621595
 30
0.0
 40
4.0
100
AcDbArc
 50
318.5903779999998
 51
0.0
  0
LINE
  5
A403
330
A338
100
AcDbEntity
  8
1
  6
Continuous
100
AcDbLine
 10
49.091848
 20
231.000844
 30
0.0
 11
49.191848
 21
231.000844
 31
0.0
  0
ARC
  5
A404
330
A338
100
AcDbEntity
  8
1
  6
Continuous
100
AcDbCircle
 10
57.791848
 20
236.975844
 30
0.0
 40
15.5
100
AcDbArc
 50
140.731974
 51
151.061472
  0
LINE
  5
A405
330
A338
100
AcDbEntity
  8
1
  6
Continuous
100
AcDbLine
 10
49.091848
 20
242.9508439999999
 30
0.0
 11
49.191848
 21
242.9508439999999
 31
0.0
  0
ARC
  5
A406
330
A338
100
AcDbEntity
  8
1
  6
Continuous
100
AcDbCircle
 10
45.09184799999998
 20
243.330093
 30
0.0
 40
4.0
100
AcDbArc
 50
0.0
 51
41.40962199999999
  0
LINE
  5
A407
330
A338
100
AcDbEntity
  8
1
  6
Continuous
100
AcDbLine
 10
49.191848
 20
252.975844
 30
0.0
 11
51.241848
 21
252.975844
 31
0.0
  0
ARC
  5
A408
330
A338
100
AcDbEntity
  8
1
  6
Continuous
100
AcDbCircle
 10
83.741848
 20
254.6474169999999
 30
0.0
 40
3.0
100
AcDbArc
 50
0.0
 51
70.528779
  0
ARC
  5
A409
330
A338
100
AcDbEntity
  8
1
  6
Continuous
100
AcDbCircle
 10
-154.2904769999998
 20
234.096729
 30
0.0
 40
250.0
100
AcDbArc
 50
2.248248999999999
 51
12.09705299999999
  0
ARC
  5
A40A
330
A338
100
AcDbEntity
  8
1
  6
Continuous
100
AcDbCircle
 10
19.891848
 20
246.786552
 30
0.0
 40
72.29999999999998
100
AcDbArc
 50
0.0
 51
22.704283
  0
ARC
  5
A40B
330
A338
100
AcDbEntity
  8
1
  6
Continuous
100
AcDbCircle
 10
19.891848
 20
246.786552
 30
0.0
 40
70.0
100
AcDbArc
 50
0.0
 51
22.704283
  0
LINE
  5
A40C
330
A338
100
AcDbEntity
  8
1
  6
Continuous
100
AcDbLine
 10
88.89184799999998
 20
243.330093
 30
0.0
 11
88.89184799999998
 21
230.621595
 31
0.0
  0
LINE
  5
A40D
330
A338
100
AcDbEntity
  8
1
  6
Continuous
100
AcDbLine
 10
94.49184800000001
 20
244.475844
 30
0.0
 11
94.49184800000001
 21
229.4758439999998
 31
0.0
  0
LINE
  5
A40E
330
A338
100
AcDbEntity
  8
1
  6
Continuous
100
AcDbLine
 10
92.19184799999998
 20
246.786552
 30
0.0
 11
92.19184799999998
 21
226.7258439999999
 31
0.0
  0
LINE
  5
A40F
330
A338
100
AcDbEntity
  8
1
  6
Continuous
100
AcDbLine
 10
89.89184799999998
 20
246.786552
 30
0.0
 11
89.89184799999998
 21
226.7258439999999
 31
0.0
  0
LINE
  5
A410
330
A338
100
AcDbEntity
  8
1
  6
Continuous
100
AcDbLine
 10
92.19184799999998
 20
229.4758439999998
 30
0.0
 11
94.49184800000001
 21
229.4758439999998
 31
0.0
  0
ARC
  5
A411
330
A338
100
AcDbEntity
  8
1
  6
Continuous
100
AcDbCircle
 10
80.19184799999996
 20
236.975844
 30
0.0
 40
15.5
100
AcDbArc
 50
320.7319739999999
 51
331.0614719999999
  0
ARC
  5
A412
330
A338
100
AcDbEntity
  8
1
  6
Continuous
100
AcDbCircle
 10
92.89184799999999
 20
230.621595
 30
0.0
 40
4.0
100
AcDbArc
 50
180.0
 51
221.409622
  0
LINE
  5
A413
330
A338
100
AcDbEntity
  8
1
  6
Continuous
100
AcDbLine
 10
89.89184799999998
 20
226.7258439999999
 30
0.0
 11
92.19184799999998
 21
226.7258439999999
 31
0.0
  0
LINE
  5
A414
330
A338
100
AcDbEntity
  8
1
  6
Continuous
100
AcDbLine
 10
88.791848
 20
231.000844
 30
0.0
 11
88.89184799999998
 21
231.000844
 31
0.0
  0
LINE
  5
A415
330
A338
100
AcDbEntity
  8
1
  6
Continuous
100
AcDbLine
 10
86.741848
 20
252.975844
 30
0.0
 11
88.791848
 21
252.975844
 31
0.0
  0
ARC
  5
A416
330
A338
100
AcDbEntity
  8
1
  6
Continuous
100
AcDbCircle
 10
80.19184799999996
 20
236.975844
 30
0.0
 40
15.5
100
AcDbArc
 50
28.938528
 51
39.268026
  0
LINE
  5
A417
330
A338
100
AcDbEntity
  8
1
  6
Continuous
100
AcDbLine
 10
92.19184799999998
 20
244.475844
 30
0.0
 11
94.49184800000001
 21
244.475844
 31
0.0
  0
LINE
  5
A418
330
A338
100
AcDbEntity
  8
1
  6
Continuous
100
AcDbLine
 10
88.791848
 20
242.9508439999999
 30
0.0
 11
88.89184799999998
 21
242.9508439999999
 31
0.0
  0
ARC
  5
A419
330
A338
100
AcDbEntity
  8
1
  6
Continuous
100
AcDbCircle
 10
92.89184799999999
 20
243.330093
 30
0.0
 40
4.0
100
AcDbArc
 50
138.5903779999999
 51
180.0
  0
ARC
  5
A41A
330
A338
100
AcDbEntity
  8
1
  6
Continuous
100
AcDbCircle
 10
82.64562599999997
 20
251.524558
 30
0.0
 40
30.0
100
AcDbArc
 50
145.264645
 51
168.557979
  0
ARC
  5
A41B
330
A338
100
AcDbEntity
  8
1
  6
Continuous
100
AcDbCircle
 10
35.06601699999999
 20
281.5243029999999
 30
0.0
 40
20.0
100
AcDbArc
 50
337.2957169999999
 51
355.665181
  0
ARC
  5
A41C
330
A338
100
AcDbEntity
  8
1
  6
Continuous
100
AcDbCircle
 10
55.338069
 20
251.524558
 30
0.0
 40
30.0
100
AcDbArc
 50
11.44202099999999
 51
34.735352
  0
ARC
  5
A41D
330
A338
100
AcDbEntity
  8
1
  6
Continuous
100
AcDbCircle
 10
102.917679
 20
281.5243029999999
 30
0.0
 40
17.7
100
AcDbArc
 50
184.334819
 51
202.704283
  0
ARC
  5
A41E
330
A338
100
AcDbEntity
  8
1
  6
Continuous
100
AcDbCircle
 10
102.917679
 20
281.5243029999999
 30
0.0
 40
20.0
100
AcDbArc
 50
184.334819
 51
202.704283
  0
ARC
  5
A41F
330
A338
100
AcDbEntity
  8
1
  6
Continuous
100
AcDbCircle
 10
55.68504499999999
 20
305.8758439999999
 30
0.0
 40
3.0
100
AcDbArc
 50
90.0
 51
184.431018
  0
ARC
  5
A420
330
A338
100
AcDbEntity
  8
1
  6
Continuous
100
AcDbCircle
 10
56.341961
 20
331.975844
 30
0.0
 40
6.5
100
AcDbArc
 50
90.0
 51
180.0
  0
LINE
  5
A421
330
A338
100
AcDbEntity
  8
1
  6
Continuous
100
AcDbLine
 10
49.841961
 20
322.475844
 30
0.0
 11
88.14196099999998
 21
322.475844
 31
0.0
  0
ARC
  5
A422
330
A338
100
AcDbEntity
  8
1
  6
Continuous
100
AcDbCircle
 10
52.49196099999998
 20
318.6758439999999
 30
0.0
 40
4.0
100
AcDbArc
 50
108.1948719999999
 51
180.0
  0
LINE
  5
A423
330
A338
100
AcDbEntity
  8
1
  6
Continuous
100
AcDbLine
 10
48.49184799999999
 20
318.6758439999999
 30
0.0
 11
48.49184799999999
 21
292.775844
 31
0.0
  0
LINE
  5
A424
330
A338
100
AcDbEntity
  8
1
  6
Continuous
100
AcDbLine
 10
49.841961
 20
331.975844
 30
0.0
 11
49.841961
 21
322.475844
 31
0.0
  0
ARC
  5
A425
330
A338
100
AcDbEntity
  8
1
  6
Continuous
100
AcDbCircle
 10
85.49196100000001
 20
318.6758439999999
 30
0.0
 40
4.0
100
AcDbArc
 50
0.0
 51
71.80512799999998
  0
LINE
  5
A426
330
A338
100
AcDbEntity
  8
1
  6
Continuous
100
AcDbLine
 10
55.68504499999999
 20
308.8758439999998
 30
0.0
 11
61.33755
 21
308.8758439999998
 31
0.0
  0
ARC
  5
A427
330
A338
100
AcDbEntity
  8
1
  6
Continuous
100
AcDbCircle
 10
57.99184799999999
 20
305.8758439999999
 30
0.0
 40
3.0
100
AcDbArc
 50
90.0
 51
184.3716019999999
  0
LINE
  5
A428
330
A338
100
AcDbEntity
  8
1
  6
Continuous
100
AcDbLine
 10
89.49184800000002
 20
318.6758439999999
 30
0.0
 11
89.49184800000002
 21
292.775844
 31
0.0
  0
ARC
  5
A429
330
A338
100
AcDbEntity
  8
1
  6
Continuous
100
AcDbCircle
 10
79.991848
 20
305.8758439999999
 30
0.0
 40
3.0
100
AcDbArc
 50
355.6283979999999
 51
90.0
  0
LINE
  5
A42A
330
A338
100
AcDbEntity
  8
1
  6
Continuous
100
AcDbLine
 10
76.646371
 20
308.8758439999998
 30
0.0
 11
82.29864999999998
 21
308.8758439999998
 31
0.0
  0
ARC
  5
A42B
330
A338
100
AcDbEntity
  8
1
  6
Continuous
100
AcDbCircle
 10
82.29864999999998
 20
305.8758439999999
 30
0.0
 40
3.0
100
AcDbArc
 50
355.568982
 51
90.0
  0
LINE
  5
A42C
330
A338
100
AcDbEntity
  8
1
  6
Continuous
100
AcDbLine
 10
59.49196099999999
 20
348.8758439999998
 30
0.0
 11
78.491961
 21
348.8758439999998
 31
0.0
  0
LINE
  5
A42D
330
A338
100
AcDbEntity
  8
1
  6
Continuous
100
AcDbLine
 10
56.341961
 20
338.475844
 30
0.0
 11
81.64196099999998
 21
338.475844
 31
0.0
  0
LINE
  5
A42E
330
A338
100
AcDbEntity
  8
1
  6
Continuous
100
AcDbLine
 10
60.49196099999999
 20
344.975844
 30
0.0
 11
77.491961
 21
344.975844
 31
0.0
  0
LINE
  5
A42F
330
A338
100
AcDbEntity
  8
1
  6
Continuous
100
AcDbLine
 10
58.491961
 20
342.975844
 30
0.0
 11
79.491961
 21
342.975844
 31
0.0
  0
ARC
  5
A430
330
A338
100
AcDbEntity
  8
1
  6
Continuous
100
AcDbCircle
 10
60.49196099999999
 20
345.9758439999998
 30
0.0
 40
1.0
100
AcDbArc
 50
180.0
 51
270.0
  0
LINE
  5
A431
330
A338
100
AcDbEntity
  8
1
  6
Continuous
100
AcDbLine
 10
58.491961
 20
342.975844
 30
0.0
 11
58.491961
 21
338.475844
 31
0.0
  0
ARC
  5
A432
330
A338
100
AcDbEntity
  8
1
  6
Continuous
100
AcDbCircle
 10
58.99196100000001
 20
343.9758439999998
 30
0.0
 40
1.0
100
AcDbArc
 50
270.0
 51
0.0
  0
ARC
  5
A433
330
A338
100
AcDbEntity
  8
1
  6
Continuous
100
AcDbCircle
 10
60.991961
 20
343.9758439999998
 30
0.0
 40
1.0
100
AcDbArc
 50
90.0
 51
180.0
  0
LINE
  5
A434
330
A338
100
AcDbEntity
  8
1
  6
Continuous
100
AcDbLine
 10
59.49196099999999
 20
348.8758439999998
 30
0.0
 11
59.49196099999999
 21
345.9758439999998
 31
0.0
  0
LINE
  5
A435
330
A338
100
AcDbEntity
  8
1
  6
Continuous
100
AcDbLine
 10
68.99196100000001
 20
342.975844
 30
0.0
 11
68.99196100000001
 21
338.475844
 31
0.0
  0
ARC
  5
A436
330
A338
100
AcDbEntity
  8
1
  6
Continuous
100
AcDbCircle
 10
81.64196099999998
 20
331.975844
 30
0.0
 40
6.5
100
AcDbArc
 50
0.0
 51
90.0
  0
LINE
  5
A437
330
A338
100
AcDbEntity
  8
1
  6
Continuous
100
AcDbLine
 10
88.14196099999998
 20
331.975844
 30
0.0
 11
88.14196099999998
 21
322.475844
 31
0.0
  0
ARC
  5
A438
330
A338
100
AcDbEntity
  8
1
  6
Continuous
100
AcDbCircle
 10
77.491961
 20
345.9758439999998
 30
0.0
 40
1.0
100
AcDbArc
 50
270.0
 51
0.0
  0
LINE
  5
A439
330
A338
100
AcDbEntity
  8
1
  6
Continuous
100
AcDbLine
 10
79.491961
 20
342.975844
 30
0.0
 11
79.491961
 21
338.475844
 31
0.0
  0
ARC
  5
A43A
330
A338
100
AcDbEntity
  8
1
  6
Continuous
100
AcDbCircle
 10
78.99196100000001
 20
343.9758439999998
 30
0.0
 40
1.0
100
AcDbArc
 50
180.0
 51
270.0
  0
ARC
  5
A43B
330
A338
100
AcDbEntity
  8
1
  6
Continuous
100
AcDbCircle
 10
76.991961
 20
343.9758439999998
 30
0.0
 40
1.0
100
AcDbArc
 50
0.0
 51
90.0
  0
LINE
  5
A43C
330
A338
100
AcDbEntity
  8
1
  6
Continuous
100
AcDbLine
 10
78.491961
 20
348.8758439999998
 30
0.0
 11
78.491961
 21
345.9758439999998
 31
0.0
  0
ARC
  5
A43D
330
A338
100
AcDbEntity
  8
1
  6
Continuous
100
AcDbCircle
 10
-274.195539
 20
395.2258439999998
 30
0.0
 40
352.9875
100
AcDbArc
 50
357.6242029999999
 51
2.362378
  0
ARC
  5
A43E
330
A338
100
AcDbEntity
  8
1
  6
Continuous
100
AcDbCircle
 10
412.179461
 20
395.2258439999998
 30
0.0
 40
352.9875
100
AcDbArc
 50
177.6376219999999
 51
182.362378
  0
LINE
  5
A43F
330
A338
100
AcDbEntity
  8
1
  6
Continuous
100
AcDbLine
 10
60.091961
 20
379.675844
 30
0.0
 11
77.89196099999998
 21
379.675844
 31
0.0
  0
LINE
  5
A440
330
A338
100
AcDbEntity
  8
1
  6
Continuous
100
AcDbLine
 10
60.091961
 20
378.075844
 30
0.0
 11
77.89196099999998
 21
378.075844
 31
0.0
  0
LINE
  5
A441
330
A338
100
AcDbEntity
  8
1
  6
Continuous
100
AcDbLine
 10
60.091961
 20
379.675844
 30
0.0
 11
60.091961
 21
378.075844
 31
0.0
  0
ARC
  5
A442
330
A338
100
AcDbEntity
  8
1
  6
Continuous
100
AcDbCircle
 10
60.49196099999999
 20
377.075844
 30
0.0
 40
1.0
100
AcDbArc
 50
90.0
 51
180.0
  0
ARC
  5
A443
330
A338
100
AcDbEntity
  8
1
  6
Continuous
100
AcDbCircle
 10
60.49196099999999
 20
380.6758439999999
 30
0.0
 40
1.0
100
AcDbArc
 50
180.0
 51
270.0
  0
LINE
  5
A444
330
A338
100
AcDbEntity
  8
1
  6
Continuous
100
AcDbLine
 10
77.89196099999998
 20
378.075844
 30
0.0
 11
77.89196099999998
 21
379.675844
 31
0.0
  0
ARC
  5
A445
330
A338
100
AcDbEntity
  8
1
  6
Continuous
100
AcDbCircle
 10
77.491961
 20
377.075844
 30
0.0
 40
1.0
100
AcDbArc
 50
0.0
 51
90.0
  0
ARC
  5
A446
330
A338
100
AcDbEntity
  8
1
  6
Continuous
100
AcDbCircle
 10
77.491961
 20
380.6758439999999
 30
0.0
 40
1.0
100
AcDbArc
 50
270.0
 51
0.0
  0
LINE
  5
A447
330
A338
100
AcDbEntity
  8
1
  6
Continuous
100
AcDbLine
 10
60.641961
 20
415.975844
 30
0.0
 11
77.341961
 21
415.975844
 31
0.0
  0
LINE
  5
A448
330
A338
100
AcDbEntity
  8
1
  6
Continuous
100
AcDbLine
 10
60.49196099999999
 20
412.775844
 30
0.0
 11
77.491961
 21
412.775844
 31
0.0
  0
LINE
  5
A449
330
A338
100
AcDbEntity
  8
1
  6
Continuous
100
AcDbLine
 10
59.49196099999999
 20
409.7758439999998
 30
0.0
 11
78.491961
 21
409.7758439999998
 31
0.0
  0
LINE
  5
A44A
330
A338
100
AcDbEntity
  8
1
  6
Continuous
100
AcDbLine
 10
62.99196099999999
 20
416.4758439999998
 30
0.0
 11
64.491961
 21
417.9758439999998
 31
0.0
  0
LINE
  5
A44B
330
A338
100
AcDbEntity
  8
1
  6
Continuous
100
AcDbLine
 10
62.99196099999999
 20
416.4758439999998
 30
0.0
 11
74.991961
 21
416.4758439999998
 31
0.0
  0
LINE
  5
A44C
330
A338
100
AcDbEntity
  8
1
  6
Continuous
100
AcDbLine
 10
60.49196099999999
 20
412.775844
 30
0.0
 11
60.49196099999999
 21
409.7758439999998
 31
0.0
  0
LINE
  5
A44D
330
A338
100
AcDbEntity
  8
1
  6
Continuous
100
AcDbLine
 10
60.641961
 20
415.975844
 30
0.0
 11
60.641961
 21
412.775844
 31
0.0
  0
LINE
  5
A44E
330
A338
100
AcDbEntity
  8
1
  6
Continuous
100
AcDbLine
 10
62.99196099999999
 20
416.4758439999998
 30
0.0
 11
62.99196099999999
 21
415.975844
 31
0.0
  0
LINE
  5
A44F
330
A338
100
AcDbEntity
  8
1
  6
Continuous
100
AcDbLine
 10
64.491961
 20
417.9758439999998
 30
0.0
 11
73.491961
 21
417.9758439999998
 31
0.0
  0
LINE
  5
A450
330
A338
100
AcDbEntity
  8
1
  6
Continuous
100
AcDbLine
 10
74.991961
 20
416.4758439999998
 30
0.0
 11
73.491961
 21
417.9758439999998
 31
0.0
  0
LINE
  5
A451
330
A338
100
AcDbEntity
  8
1
  6
Continuous
100
AcDbLine
 10
74.991961
 20
416.4758439999998
 30
0.0
 11
74.991961
 21
415.975844
 31
0.0
  0
LINE
  5
A452
330
A338
100
AcDbEntity
  8
1
  6
Continuous
100
AcDbLine
 10
77.491961
 20
412.775844
 30
0.0
 11
77.491961
 21
409.7758439999998
 31
0.0
  0
LINE
  5
A453
330
A338
100
AcDbEntity
  8
1
  6
Continuous
100
AcDbLine
 10
77.341961
 20
415.975844
 30
0.0
 11
77.341961
 21
412.775844
 31
0.0
  0
LINE
  5
A454
330
A338
100
AcDbEntity
  8
1
  6
Continuous
100
AcDbLine
 10
43.49184799999998
 20
244.475844
 30
0.0
 11
43.49184799999998
 21
229.4758439999998
 31
0.0
  0
LINE
  5
A455
330
A338
100
AcDbEntity
  8
1
  6
Continuous
100
AcDbLine
 10
43.49184799999998
 20
243.904048
 30
0.0
 11
43.49184799999998
 21
230.047641
 31
0.0
  0
ARC
  5
A456
330
A338
100
AcDbEntity
  8
1
  6
Continuous
100
AcDbCircle
 10
49.45594899999999
 20
236.975844
 30
0.0
 40
11.464102
100
AcDbArc
 50
162.412046
 51
197.5879539999999
  0
LINE
  5
A457
330
A338
100
AcDbEntity
  8
1
  6
Continuous
100
AcDbLine
 10
37.99184799999999
 20
242.975844
 30
0.0
 11
37.99184799999999
 21
230.9758439999999
 31
0.0
  0
LINE
  5
A458
330
A338
100
AcDbEntity
  8
1
  6
Continuous
100
AcDbLine
 10
43.49184799999998
 20
229.4758439999998
 30
0.0
 11
45.791848
 21
229.4758439999998
 31
0.0
  0
LINE
  5
A459
330
A338
100
AcDbEntity
  8
1
  6
Continuous
100
AcDbLine
 10
38.527746
 20
233.511743
 30
0.0
 11
43.49184799999998
 21
233.511743
 31
0.0
  0
LINE
  5
A45A
330
A338
100
AcDbEntity
  8
1
  6
Continuous
100
AcDbLine
 10
38.527746
 20
230.047641
 30
0.0
 11
37.99184799999999
 21
230.9758439999999
 31
0.0
  0
LINE
  5
A45B
330
A338
100
AcDbEntity
  8
1
  6
Continuous
100
AcDbLine
 10
38.527746
 20
230.047641
 30
0.0
 11
43.49184799999998
 21
230.047641
 31
0.0
  0
ARC
  5
A45C
330
A338
100
AcDbEntity
  8
1
  6
Continuous
100
AcDbCircle
 10
41.058835
 20
231.7796919999999
 30
0.0
 40
3.066986999999998
100
AcDbArc
 50
145.615753
 51
205.615753
  0
LINE
  5
A45D
330
A338
100
AcDbEntity
  8
1
  6
Continuous
100
AcDbLine
 10
43.49184799999998
 20
244.475844
 30
0.0
 11
45.791848
 21
244.475844
 31
0.0
  0
LINE
  5
A45E
330
A338
100
AcDbEntity
  8
1
  6
Continuous
100
AcDbLine
 10
38.527746
 20
243.904048
 30
0.0
 11
37.99184799999999
 21
242.975844
 31
0.0
  0
ARC
  5
A45F
330
A338
100
AcDbEntity
  8
1
  6
Continuous
100
AcDbCircle
 10
41.058835
 20
242.171997
 30
0.0
 40
3.066986999999998
100
AcDbArc
 50
154.3842469999999
 51
214.384247
  0
LINE
  5
A460
330
A338
100
AcDbEntity
  8
1
  6
Continuous
100
AcDbLine
 10
38.527746
 20
243.904048
 30
0.0
 11
43.49184799999998
 21
243.904048
 31
0.0
  0
LINE
  5
A461
330
A338
100
AcDbEntity
  8
1
  6
Continuous
100
AcDbLine
 10
38.527746
 20
240.439946
 30
0.0
 11
43.49184799999998
 21
240.439946
 31
0.0
  0
LINE
  5
A462
330
A338
100
AcDbEntity
  8
1
  6
Continuous
100
AcDbLine
 10
99.49184800000001
 20
242.975844
 30
0.0
 11
99.49184800000001
 21
230.9758439999999
 31
0.0
  0
LINE
  5
A463
330
A338
100
AcDbEntity
  8
1
  6
Continuous
100
AcDbLine
 10
100.991848
 20
239.9758439999998
 30
0.0
 11
100.991848
 21
233.975844
 31
0.0
  0
ARC
  5
A464
330
A338
100
AcDbEntity
  8
1
  6
Continuous
100
AcDbCircle
 10
88.02774599999997
 20
236.975844
 30
0.0
 40
11.464102
100
AcDbArc
 50
342.4120459999999
 51
17.587954
  0
LINE
  5
A465
330
A338
100
AcDbEntity
  8
1
  6
Continuous
100
AcDbLine
 10
94.49184800000001
 20
242.975844
 30
0.0
 11
94.49184800000001
 21
230.9758439999999
 31
0.0
  0
ARC
  5
A466
330
A338
100
AcDbEntity
  8
1
  6
Continuous
100
AcDbCircle
 10
105.955949
 20
236.975844
 30
0.0
 40
11.464102
100
AcDbArc
 50
162.412046
 51
197.5879539999999
  0
LINE
  5
A467
330
A338
100
AcDbEntity
  8
1
  6
Continuous
100
AcDbLine
 10
95.027746
 20
230.047641
 30
0.0
 11
98.955949
 21
230.047641
 31
0.0
  0
LINE
  5
A468
330
A338
100
AcDbEntity
  8
1
  6
Continuous
100
AcDbLine
 10
95.027746
 20
233.511743
 30
0.0
 11
98.955949
 21
233.511743
 31
0.0
  0
ARC
  5
A469
330
A338
100
AcDbEntity
  8
1
  6
Continuous
100
AcDbCircle
 10
97.55883500000001
 20
231.7796919999999
 30
0.0
 40
3.066986999999998
100
AcDbArc
 50
145.615753
 51
214.384247
  0
ARC
  5
A46A
330
A338
100
AcDbEntity
  8
1
  6
Continuous
100
AcDbCircle
 10
96.42485999999999
 20
231.7796919999999
 30
0.0
 40
3.066986999999998
100
AcDbArc
 50
334.384247
 51
34.38424699999998
  0
LINE
  5
A46B
330
A338
100
AcDbEntity
  8
1
  6
Continuous
100
AcDbLine
 10
98.955949
 20
230.047641
 30
0.0
 11
99.49184800000001
 21
230.9758439999999
 31
0.0
  0
LINE
  5
A46C
330
A338
100
AcDbEntity
  8
1
  6
Continuous
100
AcDbLine
 10
99.99184800000001
 20
232.9758439999999
 30
0.0
 11
100.991848
 21
233.975844
 31
0.0
  0
LINE
  5
A46D
330
A338
100
AcDbEntity
  8
1
  6
Continuous
100
AcDbLine
 10
99.49184800000001
 20
232.9758439999999
 30
0.0
 11
99.99184800000001
 21
232.9758439999999
 31
0.0
  0
LINE
  5
A46E
330
A338
100
AcDbEntity
  8
2
  6
Continuous
100
AcDbLine
 10
99.49184800000001
 20
233.652344
 30
0.0
 11
100.6683479999999
 21
233.652344
 31
0.0
  0
LINE
  5
A46F
330
A338
100
AcDbEntity
  8
1
  6
Continuous
100
AcDbLine
 10
95.027746
 20
240.439946
 30
0.0
 11
98.955949
 21
240.439946
 31
0.0
  0
LINE
  5
A470
330
A338
100
AcDbEntity
  8
1
  6
Continuous
100
AcDbLine
 10
95.027746
 20
243.904048
 30
0.0
 11
98.955949
 21
243.904048
 31
0.0
  0
ARC
  5
A471
330
A338
100
AcDbEntity
  8
1
  6
Continuous
100
AcDbCircle
 10
97.55883500000001
 20
242.171997
 30
0.0
 40
3.066986999999998
100
AcDbArc
 50
145.615753
 51
214.384247
  0
LINE
  5
A472
330
A338
100
AcDbEntity
  8
2
  6
Continuous
100
AcDbLine
 10
99.49184800000001
 20
240.2993439999999
 30
0.0
 11
100.6683479999999
 21
240.2993439999999
 31
0.0
  0
LINE
  5
A473
330
A338
100
AcDbEntity
  8
1
  6
Continuous
100
AcDbLine
 10
99.99184800000001
 20
240.975844
 30
0.0
 11
100.991848
 21
239.9758439999998
 31
0.0
  0
LINE
  5
A474
330
A338
100
AcDbEntity
  8
1
  6
Continuous
100
AcDbLine
 10
99.49184800000001
 20
240.975844
 30
0.0
 11
99.99184800000001
 21
240.975844
 31
0.0
  0
ARC
  5
A475
330
A338
100
AcDbEntity
  8
1
  6
Continuous
100
AcDbCircle
 10
96.42485999999999
 20
242.171997
 30
0.0
 40
3.066986999999998
100
AcDbArc
 50
325.6157529999999
 51
25.615753
  0
LINE
  5
A476
330
A338
100
AcDbEntity
  8
1
  6
Continuous
100
AcDbLine
 10
98.955949
 20
243.904048
 30
0.0
 11
99.49184800000001
 21
242.975844
 31
0.0
  0
LINE
  5
A477
330
A338
100
AcDbEntity
  8
1
  6
Continuous
100
AcDbLine
 10
249.9334779999998
 20
512.301908
 30
0.0
 11
261.9334779999999
 21
512.301908
 31
0.0
  0
LINE
  5
A478
330
A338
100
AcDbEntity
  8
1
  6
Continuous
100
AcDbLine
 10
263.4334779999999
 20
512.301908
 30
0.0
 11
248.4334779999998
 21
512.301908
 31
0.0
  0
LINE
  5
A479
330
A338
100
AcDbEntity
  8
1
  6
Continuous
100
AcDbLine
 10
248.4334779999998
 20
512.301908
 30
0.0
 11
248.4334779999998
 21
510.001908
 31
0.0
  0
LINE
  5
A47A
330
A338
100
AcDbEntity
  8
1
  6
Continuous
100
AcDbLine
 10
263.4334779999999
 20
512.301908
 30
0.0
 11
263.4334779999999
 21
511.669192
 31
0.0
  0
LINE
  5
A47B
330
A338
100
AcDbEntity
  8
1
  6
Continuous
100
AcDbLine
 10
261.9334779999999
 20
517.801908
 30
0.0
 11
249.9334779999998
 21
517.801908
 31
0.0
  0
ARC
  5
A47C
330
A338
100
AcDbEntity
  8
1
  6
Continuous
100
AcDbCircle
 10
258.9334779999999
 20
509.136845
 30
0.0
 40
8.665063999999999
100
AcDbArc
 50
69.743842
 51
110.256158
  0
LINE
  5
A47D
330
A338
100
AcDbEntity
  8
1
  6
Continuous
100
AcDbLine
 10
261.9334779999999
 20
512.301908
 30
0.0
 11
261.9334779999999
 21
517.801908
 31
0.0
  0
LINE
  5
A47E
330
A338
100
AcDbEntity
  8
1
  6
Continuous
100
AcDbLine
 10
249.9334779999998
 20
512.301908
 30
0.0
 11
249.9334779999998
 21
517.801908
 31
0.0
  0
ARC
  5
A47F
330
A338
100
AcDbEntity
  8
1
  6
Continuous
100
AcDbCircle
 10
252.9334779999998
 20
509.136845
 30
0.0
 40
8.665063999999999
100
AcDbArc
 50
69.743842
 51
110.256158
  0
LINE
  5
A480
330
A338
100
AcDbEntity
  8
1
  6
Continuous
100
AcDbLine
 10
255.9334779999999
 20
517.2660099999999
 30
0.0
 11
255.9334779999999
 21
512.301908
 31
0.0
  0
LINE
  5
A481
330
A338
100
AcDbEntity
  8
1
  6
Continuous
100
AcDbLine
 10
258.9334779999999
 20
454.801908
 30
0.0
 11
252.9334779999998
 21
454.801908
 31
0.0
  0
LINE
  5
A482
330
A338
100
AcDbEntity
  8
1
  6
Continuous
100
AcDbLine
 10
261.9334779999999
 20
456.301908
 30
0.0
 11
249.9334779999998
 21
456.301908
 31
0.0
  0
ARC
  5
A483
330
A338
100
AcDbEntity
  8
1
  6
Continuous
100
AcDbCircle
 10
258.9334779999999
 20
464.966972
 30
0.0
 40
8.665063999999999
100
AcDbArc
 50
249.7438419999999
 51
290.256158
  0
LINE
  5
A484
330
A338
100
AcDbEntity
  8
1
  6
Continuous
100
AcDbLine
 10
252.609978
 20
456.301908
 30
0.0
 11
252.609978
 21
455.1254079999998
 31
0.0
  0
LINE
  5
A485
330
A338
100
AcDbEntity
  8
1
  6
Continuous
100
AcDbLine
 10
251.9334779999998
 20
456.301908
 30
0.0
 11
251.9334779999998
 21
455.801908
 31
0.0
  0
LINE
  5
A486
330
A338
100
AcDbEntity
  8
1
  6
Continuous
100
AcDbLine
 10
251.9334779999998
 20
455.801908
 30
0.0
 11
252.9334779999998
 21
454.801908
 31
0.0
  0
ARC
  5
A487
330
A338
100
AcDbEntity
  8
1
  6
Continuous
100
AcDbCircle
 10
252.9334779999998
 20
464.966972
 30
0.0
 40
8.665063999999999
100
AcDbArc
 50
249.7438419999999
 51
290.256158
  0
LINE
  5
A488
330
A338
100
AcDbEntity
  8
1
  6
Continuous
100
AcDbLine
 10
255.9334779999999
 20
460.7660099999998
 30
0.0
 11
255.9334779999999
 21
456.837807
 31
0.0
  0
LINE
  5
A489
330
A338
100
AcDbEntity
  8
1
  6
Continuous
100
AcDbLine
 10
249.9334779999998
 20
456.301908
 30
0.0
 11
249.9334779999998
 21
461.3019079999999
 31
0.0
  0
LINE
  5
A48A
330
A338
100
AcDbEntity
  8
2
  6
Continuous
100
AcDbLine
 10
259.256978
 20
456.301908
 30
0.0
 11
259.256978
 21
455.1254079999998
 31
0.0
  0
LINE
  5
A48B
330
A338
100
AcDbEntity
  8
1
  6
Continuous
100
AcDbLine
 10
259.9334779999999
 20
455.801908
 30
0.0
 11
258.9334779999999
 21
454.801908
 31
0.0
  0
LINE
  5
A48C
330
A338
100
AcDbEntity
  8
1
  6
Continuous
100
AcDbLine
 10
259.9334779999999
 20
456.301908
 30
0.0
 11
259.9334779999999
 21
455.801908
 31
0.0
  0
LINE
  5
A48D
330
A338
100
AcDbEntity
  8
1
  6
Continuous
100
AcDbLine
 10
261.9334779999999
 20
456.301908
 30
0.0
 11
261.9334779999999
 21
461.3019079999999
 31
0.0
  0
ARC
  5
A48E
330
A338
100
AcDbEntity
  8
1
  6
Continuous
100
AcDbCircle
 10
252.9334779999998
 20
452.6368449999998
 30
0.0
 40
8.665063999999999
100
AcDbArc
 50
69.743842
 51
110.256158
  0
ARC
  5
A48F
330
A338
100
AcDbEntity
  8
1
  6
Continuous
100
AcDbCircle
 10
258.9334779999999
 20
452.6368449999998
 30
0.0
 40
8.665063999999999
100
AcDbArc
 50
69.743842
 51
110.256158
  0
LINE
  5
A490
330
A338
100
AcDbEntity
  8
1
  6
Continuous
100
AcDbLine
 10
261.9334779999999
 20
461.3019079999999
 30
0.0
 11
249.9334779999998
 21
461.3019079999999
 31
0.0
  0
LINE
  5
A491
330
A338
100
AcDbEntity
  8
1
  6
Continuous
100
AcDbLine
 10
248.4334779999998
 20
463.6019079999998
 30
0.0
 11
248.4334779999998
 21
461.3019079999999
 31
0.0
  0
LINE
  5
A492
330
A338
100
AcDbEntity
  8
1
  6
Continuous
100
AcDbLine
 10
263.4334779999999
 20
461.934524
 30
0.0
 11
263.4334779999999
 21
461.3019079999999
 31
0.0
  0
LINE
  5
A493
330
A338
100
AcDbEntity
  8
1
  6
Continuous
100
AcDbLine
 10
263.4334779999999
 20
461.3019079999999
 30
0.0
 11
248.4334779999998
 21
461.3019079999999
 31
0.0
  0
ARC
  5
A494
330
A338
100
AcDbEntity
  8
1
  6
Continuous
100
AcDbCircle
 10
686.158185
 20
234.096729
 30
0.0
 40
250.0
100
AcDbArc
 50
167.9029469999998
 51
177.751751
  0
ARC
  5
A495
330
A338
100
AcDbEntity
  8
1
  6
Continuous
100
AcDbCircle
 10
239.593535
 20
234.096729
 30
0.0
 40
250.0
100
AcDbArc
 50
2.248248999999999
 51
12.09705299999999
  0
LINE
  5
A496
330
A338
100
AcDbEntity
  8
4
  6
CENTER
100
AcDbLine
 10
462.875747
 20
423.546607
 30
0.0
 11
462.875747
 21
156.2480909999998
 31
0.0
  0
ARC
  5
A497
330
A338
100
AcDbEntity
  8
1
  6
Continuous
100
AcDbCircle
 10
476.5296389999998
 20
251.524558
 30
0.0
 40
30.0
100
AcDbArc
 50
145.264648
 51
168.557979
  0
ARC
  5
A498
330
A338
100
AcDbEntity
  8
1
  6
Continuous
100
AcDbCircle
 10
476.5296389999998
 20
222.4271299999998
 30
0.0
 40
30.0
100
AcDbArc
 50
191.4420209999999
 51
214.735352
  0
LINE
  5
A499
330
A338
100
AcDbEntity
  8
4
  6
CENTER
100
AcDbLine
 10
499.6885879999998
 20
236.975844
 30
0.0
 11
425.6741579999999
 21
236.975844
 31
0.0
  0
LINE
  5
A49A
330
A338
100
AcDbEntity
  8
1
  6
Continuous
100
AcDbLine
 10
493.8758599999998
 20
242.975844
 30
0.0
 11
493.8758599999998
 21
230.9758439999999
 31
0.0
  0
ARC
  5
A49B
330
A338
100
AcDbEntity
  8
1
  6
Continuous
100
AcDbCircle
 10
482.411758
 20
236.975844
 30
0.0
 40
11.464102
100
AcDbArc
 50
342.4120459999999
 51
17.587954
  0
LINE
  5
A49C
330
A338
100
AcDbEntity
  8
1
  6
Continuous
100
AcDbLine
 10
488.37586
 20
233.531544
 30
0.0
 11
488.37586
 21
230.047641
 31
0.0
  0
LINE
  5
A49D
330
A338
100
AcDbEntity
  8
1
  6
Continuous
100
AcDbLine
 10
488.37586
 20
233.531544
 30
0.0
 11
488.37586
 21
229.4758439999998
 31
0.0
  0
LINE
  5
A49E
330
A338
100
AcDbEntity
  8
1
  6
Continuous
100
AcDbLine
 10
483.7758599999999
 20
246.786552
 30
0.0
 11
483.7758599999999
 21
226.7258439999999
 31
0.0
  0
LINE
  5
A49F
330
A338
100
AcDbEntity
  8
1
  6
Continuous
100
AcDbLine
 10
486.0758599999998
 20
246.786552
 30
0.0
 11
486.0758599999998
 21
226.7258439999999
 31
0.0
  0
LINE
  5
A4A0
330
A338
100
AcDbEntity
  8
1
  6
Continuous
100
AcDbLine
 10
482.77586
 20
243.330093
 30
0.0
 11
482.77586
 21
230.621595
 31
0.0
  0
LINE
  5
A4A1
330
A338
100
AcDbEntity
  8
1
  6
Continuous
100
AcDbLine
 10
480.6258599999998
 20
254.6474169999999
 30
0.0
 11
480.6258599999998
 21
219.3042709999998
 31
0.0
  0
LINE
  5
A4A2
330
A338
100
AcDbEntity
  8
1
  6
Continuous
100
AcDbLine
 10
478.62586
 20
257.475844
 30
0.0
 11
478.62586
 21
216.4758439999999
 31
0.0
  0
LINE
  5
A4A3
330
A338
100
AcDbEntity
  8
1
  6
Continuous
100
AcDbLine
 10
482.6758599999998
 20
220.9758439999998
 30
0.0
 11
482.6758599999998
 21
252.975844
 31
0.0
  0
LINE
  5
A4A4
330
A338
100
AcDbEntity
  8
1
  6
Continuous
100
AcDbLine
 10
482.6758599999998
 20
220.9758439999998
 30
0.0
 11
480.6258599999998
 21
220.9758439999998
 31
0.0
  0
ARC
  5
A4A5
330
A338
100
AcDbEntity
  8
1
  6
Continuous
100
AcDbCircle
 10
490.8088719999998
 20
231.7796919999999
 30
0.0
 40
3.066986999999998
100
AcDbArc
 50
334.384247
 51
34.38424699999998
  0
LINE
  5
A4A6
330
A338
100
AcDbEntity
  8
1
  6
Continuous
100
AcDbLine
 10
493.339961
 20
230.047641
 30
0.0
 11
488.37586
 21
230.047641
 31
0.0
  0
LINE
  5
A4A7
330
A338
100
AcDbEntity
  8
1
  6
Continuous
100
AcDbLine
 10
493.339961
 20
230.047641
 30
0.0
 11
493.8758599999998
 21
230.9758439999999
 31
0.0
  0
LINE
  5
A4A8
330
A338
100
AcDbEntity
  8
1
  6
Continuous
100
AcDbLine
 10
493.339961
 20
233.511743
 30
0.0
 11
488.37586
 21
233.511743
 31
0.0
  0
LINE
  5
A4A9
330
A338
100
AcDbEntity
  8
1
  6
Continuous
100
AcDbLine
 10
488.37586
 20
229.4758439999998
 30
0.0
 11
487.6405199999998
 21
229.4758439999998
 31
0.0
  0
LINE
  5
A4AA
330
A338
100
AcDbEntity
  8
1
  6
Continuous
100
AcDbLine
 10
482.77586
 20
231.000844
 30
0.0
 11
482.6758599999998
 21
231.000844
 31
0.0
  0
ARC
  5
A4AB
330
A338
100
AcDbEntity
  8
1
  6
Continuous
100
AcDbCircle
 10
486.77586
 20
230.621595
 30
0.0
 40
4.0
100
AcDbArc
 50
180.0
 51
221.409622
  0
ARC
  5
A4AC
330
A338
100
AcDbEntity
  8
1
  6
Continuous
100
AcDbCircle
 10
474.0758599999998
 20
236.975844
 30
0.0
 40
15.5
100
AcDbArc
 50
320.7319739999999
 51
331.0614719999999
  0
LINE
  5
A4AD
330
A338
100
AcDbEntity
  8
1
  6
Continuous
100
AcDbLine
 10
486.0758599999998
 20
226.7258439999999
 30
0.0
 11
483.7758599999999
 21
226.7258439999999
 31
0.0
  0
ARC
  5
A4AE
330
A338
100
AcDbEntity
  8
1
  6
Continuous
100
AcDbCircle
 10
477.62586
 20
219.3042709999998
 30
0.0
 40
3.0
100
AcDbArc
 50
289.471221
 51
0.0
  0
ARC
  5
A4AF
330
A338
100
AcDbEntity
  8
1
  6
Continuous
100
AcDbCircle
 10
449.222082
 20
222.4271299999998
 30
0.0
 40
30.0
100
AcDbArc
 50
325.2646449999998
 51
348.557979
  0
LINE
  5
A4B0
330
A338
100
AcDbEntity
  8
1
  6
Continuous
100
AcDbLine
 10
482.6758599999998
 20
252.975844
 30
0.0
 11
480.6258599999998
 21
252.975844
 31
0.0
  0
ARC
  5
A4B1
330
A338
100
AcDbEntity
  8
1
  6
Continuous
100
AcDbCircle
 10
413.77586
 20
246.786552
 30
0.0
 40
72.29999999999998
100
AcDbArc
 50
0.0
 51
22.704283
  0
ARC
  5
A4B2
330
A338
100
AcDbEntity
  8
1
  6
Continuous
100
AcDbCircle
 10
413.77586
 20
246.786552
 30
0.0
 40
70.0
100
AcDbArc
 50
0.0
 51
22.704283
  0
LINE
  5
A4B3
330
A338
100
AcDbEntity
  8
1
  6
Continuous
100
AcDbLine
 10
493.339961
 20
240.439946
 30
0.0
 11
489.193472
 21
240.439946
 31
0.0
  0
LINE
  5
A4B4
330
A338
100
AcDbEntity
  8
1
  6
Continuous
100
AcDbLine
 10
493.339961
 20
243.904048
 30
0.0
 11
489.401094
 21
243.904048
 31
0.0
  0
ARC
  5
A4B5
330
A338
100
AcDbEntity
  8
1
  6
Continuous
100
AcDbCircle
 10
490.8088719999998
 20
242.171997
 30
0.0
 40
3.066986999999998
100
AcDbArc
 50
325.6157529999999
 51
25.615753
  0
LINE
  5
A4B6
330
A338
100
AcDbEntity
  8
1
  6
Continuous
100
AcDbLine
 10
493.339961
 20
243.904048
 30
0.0
 11
493.8758599999998
 21
242.975844
 31
0.0
  0
ARC
  5
A4B7
330
A338
100
AcDbEntity
  8
1
  6
Continuous
100
AcDbCircle
 10
486.77586
 20
243.330093
 30
0.0
 40
4.0
100
AcDbArc
 50
138.5903779999999
 51
180.0
  0
LINE
  5
A4B8
330
A338
100
AcDbEntity
  8
1
  6
Continuous
100
AcDbLine
 10
482.77586
 20
242.9508439999999
 30
0.0
 11
482.6758599999998
 21
242.9508439999999
 31
0.0
  0
ARC
  5
A4B9
330
A338
100
AcDbEntity
  8
1
  6
Continuous
100
AcDbCircle
 10
449.222082
 20
251.524558
 30
0.0
 40
30.0
100
AcDbArc
 50
11.44202099999999
 51
34.735355
  0
ARC
  5
A4BA
330
A338
100
AcDbEntity
  8
1
  6
Continuous
100
AcDbCircle
 10
477.62586
 20
254.6474169999999
 30
0.0
 40
3.0
100
AcDbArc
 50
0.0
 51
70.528779
  0
ARC
  5
A4BB
330
A338
100
AcDbEntity
  8
1
  6
Continuous
100
AcDbCircle
 10
496.801691
 20
281.5243029999999
 30
0.0
 40
17.7
100
AcDbArc
 50
184.334819
 51
202.704283
  0
ARC
  5
A4BC
330
A338
100
AcDbEntity
  8
1
  6
Continuous
100
AcDbCircle
 10
496.801691
 20
281.5243029999999
 30
0.0
 40
20.0
100
AcDbArc
 50
184.334819
 51
202.704283
  0
ARC
  5
A4BD
330
A338
100
AcDbEntity
  8
1
  6
Continuous
100
AcDbCircle
 10
425.9117579999998
 20
236.975844
 30
0.0
 40
11.464102
100
AcDbArc
 50
342.4120459999999
 51
349.3229129999999
  0
LINE
  5
A4BE
330
A338
100
AcDbEntity
  8
1
  6
Continuous
100
AcDbLine
 10
437.37586
 20
233.5301109999999
 30
0.0
 11
437.37586
 21
230.9758439999999
 31
0.0
  0
ARC
  5
A4BF
330
A338
100
AcDbEntity
  8
1
  6
Continuous
100
AcDbCircle
 10
443.839961
 20
236.975844
 30
0.0
 40
11.464102
100
AcDbArc
 50
162.412046
 51
197.5879539999999
  0
LINE
  5
A4C0
330
A338
100
AcDbEntity
  8
1
  6
Continuous
100
AcDbLine
 10
430.8758599999999
 20
239.9758439999998
 30
0.0
 11
430.8758599999999
 21
233.975844
 31
0.0
  0
LINE
  5
A4C1
330
A338
100
AcDbEntity
  8
1
  6
Continuous
100
AcDbLine
 10
432.3758599999998
 20
242.975844
 30
0.0
 11
432.3758599999998
 21
230.9758439999999
 31
0.0
  0
LINE
  5
A4C2
330
A338
100
AcDbEntity
  8
1
  6
Continuous
100
AcDbLine
 10
441.9758599999998
 20
246.786552
 30
0.0
 11
441.9758599999998
 21
226.7258439999999
 31
0.0
  0
LINE
  5
A4C3
330
A338
100
AcDbEntity
  8
1
  6
Continuous
100
AcDbLine
 10
439.6758599999998
 20
246.786552
 30
0.0
 11
439.6758599999998
 21
226.7258439999999
 31
0.0
  0
LINE
  5
A4C4
330
A338
100
AcDbEntity
  8
1
  6
Continuous
100
AcDbLine
 10
437.37586
 20
233.5301109999999
 30
0.0
 11
437.37586
 21
229.4758439999998
 31
0.0
  0
LINE
  5
A4C5
330
A338
100
AcDbEntity
  8
1
  6
Continuous
100
AcDbLine
 10
442.9758599999998
 20
243.330093
 30
0.0
 11
442.9758599999998
 21
230.621595
 31
0.0
  0
LINE
  5
A4C6
330
A338
100
AcDbEntity
  8
1
  6
Continuous
100
AcDbLine
 10
445.12586
 20
254.6474169999999
 30
0.0
 11
445.12586
 21
219.3042709999998
 31
0.0
  0
LINE
  5
A4C7
330
A338
100
AcDbEntity
  8
1
  6
Continuous
100
AcDbLine
 10
447.1258599999998
 20
257.475844
 30
0.0
 11
447.1258599999998
 21
216.4758439999999
 31
0.0
  0
LINE
  5
A4C8
330
A338
100
AcDbEntity
  8
1
  6
Continuous
100
AcDbLine
 10
443.0758599999998
 20
220.9758439999998
 30
0.0
 11
443.0758599999998
 21
252.975844
 31
0.0
  0
ARC
  5
A4C9
330
A338
100
AcDbEntity
  8
1
  6
Continuous
100
AcDbCircle
 10
448.12586
 20
219.3042709999998
 30
0.0
 40
3.0
100
AcDbArc
 50
180.0
 51
250.5287789999999
  0
LINE
  5
A4CA
330
A338
100
AcDbEntity
  8
1
  6
Continuous
100
AcDbLine
 10
436.8399609999998
 20
233.511743
 30
0.0
 11
432.911758
 21
233.511743
 31
0.0
  0
LINE
  5
A4CB
330
A338
100
AcDbEntity
  8
1
  6
Continuous
100
AcDbLine
 10
436.8399609999998
 20
230.047641
 30
0.0
 11
432.911758
 21
230.047641
 31
0.0
  0
ARC
  5
A4CC
330
A338
100
AcDbEntity
  8
1
  6
Continuous
100
AcDbCircle
 10
434.3088719999998
 20
231.7796919999999
 30
0.0
 40
3.066986999999998
100
AcDbArc
 50
325.6157529999999
 51
34.38424699999998
  0
LINE
  5
A4CD
330
A338
100
AcDbEntity
  8
1
  6
Continuous
100
AcDbLine
 10
443.0758599999998
 20
231.000844
 30
0.0
 11
442.9758599999998
 21
231.000844
 31
0.0
  0
LINE
  5
A4CE
330
A338
100
AcDbEntity
  8
1
  6
Continuous
100
AcDbLine
 10
441.9758599999998
 20
226.7258439999999
 30
0.0
 11
439.6758599999998
 21
226.7258439999999
 31
0.0
  0
ARC
  5
A4CF
330
A338
100
AcDbEntity
  8
1
  6
Continuous
100
AcDbCircle
 10
438.9758599999998
 20
230.621595
 30
0.0
 40
4.0
100
AcDbArc
 50
318.5903779999998
 51
0.0
  0
ARC
  5
A4D0
330
A338
100
AcDbEntity
  8
1
  6
Continuous
100
AcDbCircle
 10
451.6758599999998
 20
236.975844
 30
0.0
 40
15.5
100
AcDbArc
 50
208.9385279999999
 51
219.2680259999999
  0
LINE
  5
A4D1
330
A338
100
AcDbEntity
  8
1
  6
Continuous
100
AcDbLine
 10
438.1111999999998
 20
229.4758439999998
 30
0.0
 11
437.37586
 21
229.4758439999998
 31
0.0
  0
LINE
  5
A4D2
330
A338
100
AcDbEntity
  8
1
  6
Continuous
100
AcDbLine
 10
445.12586
 20
220.9758439999998
 30
0.0
 11
443.0758599999998
 21
220.9758439999998
 31
0.0
  0
LINE
  5
A4D3
330
A338
100
AcDbEntity
  8
2
  6
Continuous
100
AcDbLine
 10
432.3758599999998
 20
233.652344
 30
0.0
 11
431.19936
 21
233.652344
 31
0.0
  0
LINE
  5
A4D4
330
A338
100
AcDbEntity
  8
1
  6
Continuous
100
AcDbLine
 10
432.3758599999998
 20
232.9758439999999
 30
0.0
 11
431.8758599999998
 21
232.9758439999999
 31
0.0
  0
LINE
  5
A4D5
330
A338
100
AcDbEntity
  8
1
  6
Continuous
100
AcDbLine
 10
431.8758599999998
 20
232.9758439999999
 30
0.0
 11
430.8758599999999
 21
233.975844
 31
0.0
  0
LINE
  5
A4D6
330
A338
100
AcDbEntity
  8
1
  6
Continuous
100
AcDbLine
 10
432.911758
 20
230.047641
 30
0.0
 11
432.3758599999998
 21
230.9758439999999
 31
0.0
  0
ARC
  5
A4D7
330
A338
100
AcDbEntity
  8
1
  6
Continuous
100
AcDbCircle
 10
435.442847
 20
231.7796919999999
 30
0.0
 40
3.066986999999998
100
AcDbArc
 50
145.615753
 51
205.615753
  0
ARC
  5
A4D8
330
A338
100
AcDbEntity
  8
1
  6
Continuous
100
AcDbCircle
 10
511.9758599999998
 20
246.786552
 30
0.0
 40
70.0
100
AcDbArc
 50
157.295717
 51
180.0
  0
ARC
  5
A4D9
330
A338
100
AcDbEntity
  8
1
  6
Continuous
100
AcDbCircle
 10
511.9758599999998
 20
246.786552
 30
0.0
 40
72.29999999999998
100
AcDbArc
 50
157.295717
 51
180.0
  0
LINE
  5
A4DA
330
A338
100
AcDbEntity
  8
1
  6
Continuous
100
AcDbLine
 10
436.3503999999998
 20
243.904048
 30
0.0
 11
432.911758
 21
243.904048
 31
0.0
  0
LINE
  5
A4DB
330
A338
100
AcDbEntity
  8
1
  6
Continuous
100
AcDbLine
 10
436.558021
 20
240.439946
 30
0.0
 11
432.911758
 21
240.439946
 31
0.0
  0
ARC
  5
A4DC
330
A338
100
AcDbEntity
  8
1
  6
Continuous
100
AcDbCircle
 10
448.12586
 20
254.6474169999999
 30
0.0
 40
3.0
100
AcDbArc
 50
109.4712209999999
 51
180.0
  0
ARC
  5
A4DD
330
A338
100
AcDbEntity
  8
1
  6
Continuous
100
AcDbCircle
 10
438.9758599999998
 20
243.330093
 30
0.0
 40
4.0
100
AcDbArc
 50
0.0
 51
41.40962199999999
  0
LINE
  5
A4DE
330
A338
100
AcDbEntity
  8
1
  6
Continuous
100
AcDbLine
 10
443.0758599999998
 20
242.9508439999999
 30
0.0
 11
442.9758599999998
 21
242.9508439999999
 31
0.0
  0
LINE
  5
A4DF
330
A338
100
AcDbEntity
  8
1
  6
Continuous
100
AcDbLine
 10
445.12586
 20
252.975844
 30
0.0
 11
443.0758599999998
 21
252.975844
 31
0.0
  0
LINE
  5
A4E0
330
A338
100
AcDbEntity
  8
1
  6
Continuous
100
AcDbLine
 10
432.911758
 20
243.904048
 30
0.0
 11
432.3758599999998
 21
242.975844
 31
0.0
  0
ARC
  5
A4E1
330
A338
100
AcDbEntity
  8
1
  6
Continuous
100
AcDbCircle
 10
435.442847
 20
242.171997
 30
0.0
 40
3.066986999999998
100
AcDbArc
 50
154.3842469999999
 51
214.384247
  0
LINE
  5
A4E2
330
A338
100
AcDbEntity
  8
1
  6
Continuous
100
AcDbLine
 10
432.3758599999998
 20
240.975844
 30
0.0
 11
431.8758599999998
 21
240.975844
 31
0.0
  0
LINE
  5
A4E3
330
A338
100
AcDbEntity
  8
1
  6
Continuous
100
AcDbLine
 10
431.8758599999998
 20
240.975844
 30
0.0
 11
430.8758599999999
 21
239.9758439999998
 31
0.0
  0
LINE
  5
A4E4
330
A338
100
AcDbEntity
  8
2
  6
Continuous
100
AcDbLine
 10
432.3758599999998
 20
240.2993439999999
 30
0.0
 11
431.19936
 21
240.2993439999999
 31
0.0
  0
ARC
  5
A4E5
330
A338
100
AcDbEntity
  8
1
  6
Continuous
100
AcDbCircle
 10
428.9500289999998
 20
281.5243029999999
 30
0.0
 40
20.0
100
AcDbArc
 50
337.2957169999999
 51
355.665181
  0
ARC
  5
A4E6
330
A338
100
AcDbEntity
  8
1
  6
Continuous
100
AcDbCircle
 10
428.9500289999998
 20
281.5243029999999
 30
0.0
 40
17.7
100
AcDbArc
 50
337.2957169999999
 51
354.646724
  0
ARC
  5
A4E7
330
A338
100
AcDbEntity
  8
1
  6
Continuous
100
AcDbCircle
 10
141.1757469999998
 20
362.9758439999998
 30
0.0
 40
331.4999999999999
100
AcDbArc
 50
357.56225
 51
2.437749999999998
  0
ARC
  5
A4E8
330
A338
100
AcDbEntity
  8
1
  6
Continuous
100
AcDbCircle
 10
784.5757469999997
 20
362.9758439999998
 30
0.0
 40
331.4999999999999
100
AcDbArc
 50
177.547502
 51
182.43775
  0
ARC
  5
A4E9
330
A338
100
AcDbEntity
  8
1
  6
Continuous
100
AcDbCircle
 10
450.2257469999998
 20
331.975844
 30
0.0
 40
6.5
100
AcDbArc
 50
90.0
 51
180.0
  0
LINE
  5
A4EA
330
A338
100
AcDbEntity
  8
1
  6
Continuous
100
AcDbLine
 10
482.0257469999998
 20
322.475844
 30
0.0
 11
443.7257469999998
 21
322.475844
 31
0.0
  0
LINE
  5
A4EB
330
A338
100
AcDbEntity
  8
1
  6
Continuous
100
AcDbLine
 10
482.0257469999998
 20
331.975844
 30
0.0
 11
482.0257469999998
 21
322.475844
 31
0.0
  0
ARC
  5
A4EC
330
A338
100
AcDbEntity
  8
1
  6
Continuous
100
AcDbCircle
 10
479.375747
 20
318.6758439999999
 30
0.0
 40
4.0
100
AcDbArc
 50
0.0
 51
71.80512799999998
  0
LINE
  5
A4ED
330
A338
100
AcDbEntity
  8
1
  6
Continuous
100
AcDbLine
 10
483.37586
 20
318.6758439999999
 30
0.0
 11
483.37586
 21
292.775844
 31
0.0
  0
ARC
  5
A4EE
330
A338
100
AcDbEntity
  8
1
  6
Continuous
100
AcDbCircle
 10
513.37586
 20
292.775844
 30
0.0
 40
30.0
100
AcDbArc
 50
180.0
 51
192.0970529999999
  0
ARC
  5
A4EF
330
A338
100
AcDbEntity
  8
1
  6
Continuous
100
AcDbCircle
 10
475.525747
 20
331.975844
 30
0.0
 40
6.5
100
AcDbArc
 50
0.0
 51
90.0
  0
LINE
  5
A4F0
330
A338
100
AcDbEntity
  8
1
  6
Continuous
100
AcDbLine
 10
473.3757469999998
 20
342.975844
 30
0.0
 11
452.3757469999998
 21
342.975844
 31
0.0
  0
LINE
  5
A4F1
330
A338
100
AcDbEntity
  8
1
  6
Continuous
100
AcDbLine
 10
471.375747
 20
344.975844
 30
0.0
 11
454.375747
 21
344.975844
 31
0.0
  0
LINE
  5
A4F2
330
A338
100
AcDbEntity
  8
1
  6
Continuous
100
AcDbLine
 10
475.525747
 20
338.475844
 30
0.0
 11
450.2257469999998
 21
338.475844
 31
0.0
  0
LINE
  5
A4F3
330
A338
100
AcDbEntity
  8
1
  6
Continuous
100
AcDbLine
 10
472.3757469999998
 20
348.8758439999998
 30
0.0
 11
453.375747
 21
348.8758439999998
 31
0.0
  0
LINE
  5
A4F4
330
A338
100
AcDbEntity
  8
1
  6
Continuous
100
AcDbLine
 10
472.3757469999998
 20
348.8758439999998
 30
0.0
 11
472.3757469999998
 21
345.9758439999998
 31
0.0
  0
ARC
  5
A4F5
330
A338
100
AcDbEntity
  8
1
  6
Continuous
100
AcDbCircle
 10
470.875747
 20
343.9758439999998
 30
0.0
 40
1.0
100
AcDbArc
 50
0.0
 51
90.0
  0
ARC
  5
A4F6
330
A338
100
AcDbEntity
  8
1
  6
Continuous
100
AcDbCircle
 10
472.8757469999997
 20
343.9758439999998
 30
0.0
 40
1.0
100
AcDbArc
 50
180.0
 51
270.0
  0
LINE
  5
A4F7
330
A338
100
AcDbEntity
  8
1
  6
Continuous
100
AcDbLine
 10
473.3757469999998
 20
342.975844
 30
0.0
 11
473.3757469999998
 21
338.475844
 31
0.0
  0
ARC
  5
A4F8
330
A338
100
AcDbEntity
  8
1
  6
Continuous
100
AcDbCircle
 10
471.375747
 20
345.9758439999998
 30
0.0
 40
1.0
100
AcDbArc
 50
270.0
 51
0.0
  0
LINE
  5
A4F9
330
A338
100
AcDbEntity
  8
1
  6
Continuous
100
AcDbLine
 10
462.875747
 20
342.975844
 30
0.0
 11
462.875747
 21
338.475844
 31
0.0
  0
LINE
  5
A4FA
330
A338
100
AcDbEntity
  8
1
  6
Continuous
100
AcDbLine
 10
453.375747
 20
348.8758439999998
 30
0.0
 11
453.375747
 21
345.9758439999998
 31
0.0
  0
ARC
  5
A4FB
330
A338
100
AcDbEntity
  8
1
  6
Continuous
100
AcDbCircle
 10
454.8757469999998
 20
343.9758439999998
 30
0.0
 40
1.0
100
AcDbArc
 50
90.0
 51
180.0
  0
ARC
  5
A4FC
330
A338
100
AcDbEntity
  8
1
  6
Continuous
100
AcDbCircle
 10
452.875747
 20
343.9758439999998
 30
0.0
 40
1.0
100
AcDbArc
 50
270.0
 51
0.0
  0
LINE
  5
A4FD
330
A338
100
AcDbEntity
  8
1
  6
Continuous
100
AcDbLine
 10
452.3757469999998
 20
342.975844
 30
0.0
 11
452.3757469999998
 21
338.475844
 31
0.0
  0
ARC
  5
A4FE
330
A338
100
AcDbEntity
  8
1
  6
Continuous
100
AcDbCircle
 10
454.375747
 20
345.9758439999998
 30
0.0
 40
1.0
100
AcDbArc
 50
180.0
 51
270.0
  0
LINE
  5
A4FF
330
A338
100
AcDbEntity
  8
1
  6
Continuous
100
AcDbLine
 10
443.7257469999998
 20
331.975844
 30
0.0
 11
443.7257469999998
 21
322.475844
 31
0.0
  0
LINE
  5
A500
330
A338
100
AcDbEntity
  8
1
  6
Continuous
100
AcDbLine
 10
442.37586
 20
318.6758439999999
 30
0.0
 11
442.37586
 21
292.775844
 31
0.0
  0
ARC
  5
A501
330
A338
100
AcDbEntity
  8
1
  6
Continuous
100
AcDbCircle
 10
412.37586
 20
292.775844
 30
0.0
 40
30.0
100
AcDbArc
 50
347.902947
 51
0.0
  0
ARC
  5
A502
330
A338
100
AcDbEntity
  8
1
  6
Continuous
100
AcDbCircle
 10
446.375747
 20
318.6758439999999
 30
0.0
 40
4.0
100
AcDbArc
 50
108.1948719999999
 51
180.0
  0
LINE
  5
A503
330
A338
100
AcDbEntity
  8
1
  6
Continuous
100
AcDbLine
 10
454.525747
 20
415.975844
 30
0.0
 11
454.525747
 21
412.775844
 31
0.0
  0
LINE
  5
A504
330
A338
100
AcDbEntity
  8
1
  6
Continuous
100
AcDbLine
 10
471.2257469999998
 20
415.975844
 30
0.0
 11
471.2257469999998
 21
412.775844
 31
0.0
  0
ARC
  5
A505
330
A338
100
AcDbEntity
  8
1
  6
Continuous
100
AcDbCircle
 10
119.688247
 20
395.2258439999998
 30
0.0
 40
352.9875
100
AcDbArc
 50
357.637622
 51
2.362378
  0
ARC
  5
A506
330
A338
100
AcDbEntity
  8
1
  6
Continuous
100
AcDbCircle
 10
806.0632469999998
 20
395.2258439999998
 30
0.0
 40
352.9875
100
AcDbArc
 50
177.6376219999999
 51
182.375797
  0
LINE
  5
A507
330
A338
100
AcDbEntity
  8
1
  6
Continuous
100
AcDbLine
 10
471.7757469999998
 20
378.075844
 30
0.0
 11
453.9757469999998
 21
378.075844
 31
0.0
  0
LINE
  5
A508
330
A338
100
AcDbEntity
  8
1
  6
Continuous
100
AcDbLine
 10
471.7757469999998
 20
379.675844
 30
0.0
 11
453.9757469999998
 21
379.675844
 31
0.0
  0
ARC
  5
A509
330
A338
100
AcDbEntity
  8
1
  6
Continuous
100
AcDbCircle
 10
471.375747
 20
380.6758439999999
 30
0.0
 40
1.0
100
AcDbArc
 50
270.0
 51
0.0
  0
ARC
  5
A50A
330
A338
100
AcDbEntity
  8
1
  6
Continuous
100
AcDbCircle
 10
471.375747
 20
377.075844
 30
0.0
 40
1.0
100
AcDbArc
 50
0.0
 51
90.0
  0
LINE
  5
A50B
330
A338
100
AcDbEntity
  8
1
  6
Continuous
100
AcDbLine
 10
471.7757469999998
 20
379.675844
 30
0.0
 11
471.7757469999998
 21
378.075844
 31
0.0
  0
ARC
  5
A50C
330
A338
100
AcDbEntity
  8
1
  6
Continuous
100
AcDbCircle
 10
454.375747
 20
380.6758439999999
 30
0.0
 40
1.0
100
AcDbArc
 50
180.0
 51
270.0
  0
ARC
  5
A50D
330
A338
100
AcDbEntity
  8
1
  6
Continuous
100
AcDbCircle
 10
454.375747
 20
377.075844
 30
0.0
 40
1.0
100
AcDbArc
 50
90.0
 51
180.0
  0
LINE
  5
A50E
330
A338
100
AcDbEntity
  8
1
  6
Continuous
100
AcDbLine
 10
453.9757469999998
 20
378.075844
 30
0.0
 11
453.9757469999998
 21
379.675844
 31
0.0
  0
LINE
  5
A50F
330
A338
100
AcDbEntity
  8
1
  6
Continuous
100
AcDbLine
 10
472.3757469999998
 20
409.7758439999998
 30
0.0
 11
453.375747
 21
409.7758439999998
 31
0.0
  0
LINE
  5
A510
330
A338
100
AcDbEntity
  8
1
  6
Continuous
100
AcDbLine
 10
471.375747
 20
412.775844
 30
0.0
 11
454.375747
 21
412.775844
 31
0.0
  0
LINE
  5
A511
330
A338
100
AcDbEntity
  8
1
  6
Continuous
100
AcDbLine
 10
471.375747
 20
412.775844
 30
0.0
 11
471.375747
 21
409.7758439999998
 31
0.0
  0
LINE
  5
A512
330
A338
100
AcDbEntity
  8
1
  6
Continuous
100
AcDbLine
 10
454.375747
 20
412.775844
 30
0.0
 11
454.375747
 21
409.7758439999998
 31
0.0
  0
LINE
  5
A513
330
A338
100
AcDbEntity
  8
1
  6
Continuous
100
AcDbLine
 10
467.3757469999998
 20
417.9758439999998
 30
0.0
 11
458.375747
 21
417.9758439999998
 31
0.0
  0
LINE
  5
A514
330
A338
100
AcDbEntity
  8
1
  6
Continuous
100
AcDbLine
 10
468.8757469999997
 20
416.4758439999998
 30
0.0
 11
456.875747
 21
416.4758439999998
 31
0.0
  0
LINE
  5
A515
330
A338
100
AcDbEntity
  8
1
  6
Continuous
100
AcDbLine
 10
471.2257469999998
 20
415.975844
 30
0.0
 11
454.525747
 21
415.975844
 31
0.0
  0
LINE
  5
A516
330
A338
100
AcDbEntity
  8
1
  6
Continuous
100
AcDbLine
 10
468.8757469999997
 20
416.4758439999998
 30
0.0
 11
468.8757469999997
 21
415.975844
 31
0.0
  0
LINE
  5
A517
330
A338
100
AcDbEntity
  8
1
  6
Continuous
100
AcDbLine
 10
468.8757469999997
 20
416.4758439999998
 30
0.0
 11
467.3757469999998
 21
417.9758439999998
 31
0.0
  0
LINE
  5
A518
330
A338
100
AcDbEntity
  8
1
  6
Continuous
100
AcDbLine
 10
456.875747
 20
416.4758439999998
 30
0.0
 11
456.875747
 21
415.975844
 31
0.0
  0
LINE
  5
A519
330
A338
100
AcDbEntity
  8
1
  6
Continuous
100
AcDbLine
 10
456.875747
 20
416.4758439999998
 30
0.0
 11
458.375747
 21
417.9758439999998
 31
0.0
  0
ARC
  5
A51A
330
A338
100
AcDbEntity
  8
1
  6
Continuous
100
AcDbCircle
 10
664.729332
 20
228.61927
 30
0.0
 40
20.0
100
AcDbArc
 50
81.14524799999998
 51
99.85053399999999
  0
LINE
  5
A51B
330
A338
100
AcDbEntity
  8
1
  6
Continuous
100
AcDbLine
 10
676.1281699999998
 20
245.05297
 30
0.0
 11
643.58132
 21
270.481355
 31
0.0
  0
ARC
  5
A51C
330
A338
100
AcDbEntity
  8
1
  6
Continuous
100
AcDbCircle
 10
669.81764
 20
236.9758589999999
 30
0.0
 40
16.0
100
AcDbArc
 50
185.83844
 51
102.1615599999998
  0
ARC
  5
A51D
330
A338
100
AcDbEntity
  8
1
  6
Continuous
100
AcDbCircle
 10
669.81764
 20
236.9758589999999
 30
0.0
 40
20.5
100
AcDbArc
 50
176.0
 51
112.0
  0
ARC
  5
A51E
330
A338
100
AcDbEntity
  8
1
  6
Continuous
100
AcDbCircle
 10
669.81764
 20
236.9758589999999
 30
0.0
 40
10.25
100
AcDbArc
 50
88.401521
 51
199.5984789999999
  0
LINE
  5
A51F
330
A338
100
AcDbEntity
  8
1
  6
Continuous
100
AcDbLine
 10
664.0859129999999
 20
228.478224
 30
0.0
 11
618.332623
 21
259.339208
 31
0.0
  0
LINE
  5
A520
330
A338
100
AcDbEntity
  8
4
  6
CENTER
100
AcDbLine
 10
588.8176399999998
 20
236.9758589999999
 30
0.0
 11
750.8176399999999
 21
236.9758589999999
 31
0.0
  0
ARC
  5
A521
330
A338
100
AcDbEntity
  8
1
  6
Continuous
100
AcDbCircle
 10
669.81764
 20
236.9758589999999
 30
0.0
 40
58.5
100
AcDbArc
 50
156.0133129999998
 51
125.824845
  0
LINE
  5
A522
330
A338
100
AcDbEntity
  8
4
  6
CENTER
100
AcDbLine
 10
669.81764
 20
155.975859
 30
0.0
 11
669.81764
 21
317.9758589999999
 31
0.0
  0
CIRCLE
  5
A523
330
A338
100
AcDbEntity
  8
1
  6
Continuous
100
AcDbCircle
 10
669.81764
 20
282.9758589999999
 30
0.0
 40
3.5
  0
ARC
  5
A524
330
A338
100
AcDbEntity
  8
1
  6
Continuous
100
AcDbCircle
 10
669.81764
 20
236.9758589999999
 30
0.0
 40
10.25
100
AcDbArc
 50
236.0
 51
52.0
  0
CIRCLE
  5
A525
330
A338
100
AcDbEntity
  8
1
  6
Continuous
100
AcDbCircle
 10
696.855761
 20
199.761078
 30
0.0
 40
3.5
  0
CIRCLE
  5
A526
330
A338
100
AcDbEntity
  8
1
  6
Continuous
100
AcDbCircle
 10
713.56624
 20
251.190641
 30
0.0
 40
3.5
  0
LINE
  5
A527
330
A338
100
AcDbEntity
  8
4
  6
CENTER
100
AcDbLine
 10
619.81764
 20
424.010787
 30
0.0
 11
619.81764
 21
252.3000779999999
 31
0.0
  0
ARC
  5
A528
330
A338
100
AcDbEntity
  8
1
  6
Continuous
100
AcDbCircle
 10
554.31764
 20
289.825734
 30
0.0
 40
50.0
100
AcDbArc
 50
352.1845519999998
 51
16.55768799999999
  0
ARC
  5
A529
330
A338
100
AcDbEntity
  8
1
  6
Continuous
100
AcDbCircle
 10
679.31764
 20
294.9799259999998
 30
0.0
 40
45.0
100
AcDbArc
 50
168.7432389999998
 51
200.458829
  0
ARC
  5
A52A
330
A338
100
AcDbEntity
  8
1
  6
Continuous
100
AcDbCircle
 10
676.192856
 20
244.397456
 30
0.0
 40
20.0
100
AcDbArc
 50
188.149466
 51
206.8547519999999
  0
CIRCLE
  5
A52B
330
A338
100
AcDbEntity
  8
1
  6
Continuous
100
AcDbCircle
 10
642.7795179999999
 20
199.761078
 30
0.0
 40
3.5
  0
ARC
  5
A52C
330
A338
100
AcDbEntity
  8
1
  6
Continuous
100
AcDbCircle
 10
662.334233
 20
242.412873
 30
0.0
 40
6.0
100
AcDbArc
 50
99.85053399999999
 51
188.149466
  0
ARC
  5
A52D
330
A338
100
AcDbEntity
  8
1
  6
Continuous
100
AcDbCircle
 10
655.89455
 20
286.24157
 30
0.0
 40
20.0
100
AcDbArc
 50
200.458829
 51
232.0
  0
ARC
  5
A52E
330
A338
100
AcDbEntity
  8
1
  6
Continuous
100
AcDbCircle
 10
639.302357
 20
290.4281169999998
 30
0.0
 40
37.5
100
AcDbArc
 50
203.326432
 51
236.0
  0
ARC
  5
A52F
330
A338
100
AcDbEntity
  8
1
  6
Continuous
100
AcDbCircle
 10
626.0690400000002
 20
251.190641
 30
0.0
 40
3.5
100
AcDbArc
 50
102.045177
 51
9.954822999999999
  0
ARC
  5
A530
330
A338
100
AcDbEntity
  8
1
  6
Continuous
100
AcDbCircle
 10
617.723157
 20
281.122841
 30
0.0
 40
14.0
100
AcDbArc
 50
172.184552
 51
203.326432
  0
ARC
  5
A531
330
A338
100
AcDbEntity
  8
1
  6
Continuous
100
AcDbCircle
 10
298.117633
 20
362.9758439999998
 30
0.0
 40
331.4999999999999
100
AcDbArc
 50
357.56225
 51
2.452497999999998
  0
ARC
  5
A532
330
A338
100
AcDbEntity
  8
1
  6
Continuous
100
AcDbCircle
 10
941.5176330000001
 20
362.9758439999998
 30
0.0
 40
331.4999999999999
100
AcDbArc
 50
177.56225
 51
182.43775
  0
LINE
  5
A533
330
A338
100
AcDbEntity
  8
1
  6
Continuous
100
AcDbLine
 10
600.6676399999999
 20
331.9758589999999
 30
0.0
 11
600.6676399999999
 21
322.4758589999999
 31
0.0
  0
LINE
  5
A534
330
A338
100
AcDbEntity
  8
1
  6
Continuous
100
AcDbLine
 10
638.9676399999999
 20
331.9758589999999
 30
0.0
 11
638.9676399999999
 21
322.4758589999999
 31
0.0
  0
LINE
  5
A535
330
A338
100
AcDbEntity
  8
1
  6
Continuous
100
AcDbLine
 10
600.6676399999999
 20
322.4758589999999
 30
0.0
 11
638.9676399999999
 21
322.4758589999999
 31
0.0
  0
ARC
  5
A536
330
A338
100
AcDbEntity
  8
1
  6
Continuous
100
AcDbCircle
 10
641.5582929999999
 20
302.4953599999999
 30
0.0
 40
6.5
100
AcDbArc
 50
101.003546
 51
168.7432389999998
  0
ARC
  5
A537
330
A338
100
AcDbEntity
  8
1
  6
Continuous
100
AcDbCircle
 10
636.31764
 20
318.675859
 30
0.0
 40
4.0
100
AcDbArc
 50
0.0
 51
71.80512799999998
  0
LINE
  5
A538
330
A338
100
AcDbEntity
  8
1
  6
Continuous
100
AcDbLine
 10
640.3176399999997
 20
318.675859
 30
0.0
 11
640.3176399999997
 21
308.8758589999998
 31
0.0
  0
ARC
  5
A539
330
A338
100
AcDbEntity
  8
1
  6
Continuous
100
AcDbCircle
 10
591.7004379999997
 20
300.9399759999999
 30
0.0
 40
11.0
100
AcDbArc
 50
16.55768799999999
 51
46.17382099999999
  0
ARC
  5
A53A
330
A338
100
AcDbEntity
  8
1
  6
Continuous
100
AcDbCircle
 10
603.31764
 20
318.675859
 30
0.0
 40
4.0
100
AcDbArc
 50
108.1948719999999
 51
180.0
  0
LINE
  5
A53B
330
A338
100
AcDbEntity
  8
1
  6
Continuous
100
AcDbLine
 10
599.31764
 20
318.675859
 30
0.0
 11
599.31764
 21
308.8758589999998
 31
0.0
  0
ARC
  5
A53C
330
A338
100
AcDbEntity
  8
1
  6
Continuous
100
AcDbCircle
 10
629.81764
 20
343.9758589999998
 30
0.0
 40
1.0
100
AcDbArc
 50
180.0
 51
270.0
  0
LINE
  5
A53D
330
A338
100
AcDbEntity
  8
1
  6
Continuous
100
AcDbLine
 10
607.16764
 20
338.4758589999999
 30
0.0
 11
632.4676400000002
 21
338.4758589999999
 31
0.0
  0
LINE
  5
A53E
330
A338
100
AcDbEntity
  8
1
  6
Continuous
100
AcDbLine
 10
607.6931400000002
 20
342.9758589999999
 30
0.0
 11
631.94214
 21
342.9758589999999
 31
0.0
  0
ARC
  5
A53F
330
A338
100
AcDbEntity
  8
1
  6
Continuous
100
AcDbCircle
 10
632.4676400000002
 20
331.9758589999999
 30
0.0
 40
6.5
100
AcDbArc
 50
0.0
 51
90.0
  0
LINE
  5
A540
330
A338
100
AcDbEntity
  8
1
  6
Continuous
100
AcDbLine
 10
631.94214
 20
342.9758589999999
 30
0.0
 11
631.94214
 21
338.4758589999999
 31
0.0
  0
LINE
  5
A541
330
A338
100
AcDbEntity
  8
1
  6
Continuous
100
AcDbLine
 10
610.317633
 20
348.8758439999998
 30
0.0
 11
629.317633
 21
348.8758439999998
 31
0.0
  0
LINE
  5
A542
330
A338
100
AcDbEntity
  8
1
  6
Continuous
100
AcDbLine
 10
611.3176329999999
 20
344.975844
 30
0.0
 11
628.3176329999998
 21
344.975844
 31
0.0
  0
ARC
  5
A543
330
A338
100
AcDbEntity
  8
1
  6
Continuous
100
AcDbCircle
 10
628.3176329999998
 20
345.9758439999998
 30
0.0
 40
1.0
100
AcDbArc
 50
270.0
 51
0.0
  0
ARC
  5
A544
330
A338
100
AcDbEntity
  8
1
  6
Continuous
100
AcDbCircle
 10
627.8176399999997
 20
343.9758589999998
 30
0.0
 40
1.0
100
AcDbArc
 50
0.0
 51
90.0
  0
LINE
  5
A545
330
A338
100
AcDbEntity
  8
1
  6
Continuous
100
AcDbLine
 10
629.317633
 20
348.8758439999998
 30
0.0
 11
629.317633
 21
345.9758439999998
 31
0.0
  0
LINE
  5
A546
330
A338
100
AcDbEntity
  8
1
  6
Continuous
100
AcDbLine
 10
613.7556400000002
 20
342.9758589999999
 30
0.0
 11
613.7556400000002
 21
338.4758589999999
 31
0.0
  0
LINE
  5
A547
330
A338
100
AcDbEntity
  8
1
  6
Continuous
100
AcDbLine
 10
625.87964
 20
342.9758589999999
 30
0.0
 11
625.87964
 21
338.4758589999999
 31
0.0
  0
ARC
  5
A548
330
A338
100
AcDbEntity
  8
1
  6
Continuous
100
AcDbCircle
 10
611.3176329999999
 20
345.9758439999998
 30
0.0
 40
1.0
100
AcDbArc
 50
180.0
 51
270.0
  0
ARC
  5
A549
330
A338
100
AcDbEntity
  8
1
  6
Continuous
100
AcDbCircle
 10
611.81764
 20
343.9758589999998
 30
0.0
 40
1.0
100
AcDbArc
 50
90.0
 51
180.0
  0
LINE
  5
A54A
330
A338
100
AcDbEntity
  8
1
  6
Continuous
100
AcDbLine
 10
610.317633
 20
348.8758439999998
 30
0.0
 11
610.317633
 21
345.9758439999998
 31
0.0
  0
ARC
  5
A54B
330
A338
100
AcDbEntity
  8
1
  6
Continuous
100
AcDbCircle
 10
607.16764
 20
331.9758589999999
 30
0.0
 40
6.5
100
AcDbArc
 50
90.0
 51
180.0
  0
LINE
  5
A54C
330
A338
100
AcDbEntity
  8
1
  6
Continuous
100
AcDbLine
 10
607.6931400000002
 20
342.9758589999999
 30
0.0
 11
607.6931400000002
 21
338.4758589999999
 31
0.0
  0
ARC
  5
A54D
330
A338
100
AcDbEntity
  8
1
  6
Continuous
100
AcDbCircle
 10
609.8176399999998
 20
343.9758589999998
 30
0.0
 40
1.0
100
AcDbArc
 50
270.0
 51
0.0
  0
LINE
  5
A54E
330
A338
100
AcDbEntity
  8
1
  6
Continuous
100
AcDbLine
 10
610.56764
 20
412.775844
 30
0.0
 11
610.56764
 21
415.975844
 31
0.0
  0
LINE
  5
A54F
330
A338
100
AcDbEntity
  8
1
  6
Continuous
100
AcDbLine
 10
615.838066
 20
415.975844
 30
0.0
 11
615.838066
 21
412.775844
 31
0.0
  0
LINE
  5
A550
330
A338
100
AcDbEntity
  8
1
  6
Continuous
100
AcDbLine
 10
623.7979659999997
 20
415.975844
 30
0.0
 11
623.7979659999997
 21
412.775844
 31
0.0
  0
LINE
  5
A551
330
A338
100
AcDbEntity
  8
1
  6
Continuous
100
AcDbLine
 10
629.0676399999997
 20
415.975844
 30
0.0
 11
629.0676399999997
 21
412.775844
 31
0.0
  0
ARC
  5
A552
330
A338
100
AcDbEntity
  8
1
  6
Continuous
100
AcDbCircle
 10
963.005133
 20
395.2258439999998
 30
0.0
 40
352.9875
100
AcDbArc
 50
177.6376219999999
 51
182.362378
  0
ARC
  5
A553
330
A338
100
AcDbEntity
  8
1
  6
Continuous
100
AcDbCircle
 10
276.630133
 20
395.2258439999998
 30
0.0
 40
352.9875
100
AcDbArc
 50
357.6242029999999
 51
2.362378
  0
LINE
  5
A554
330
A338
100
AcDbEntity
  8
1
  6
Continuous
100
AcDbLine
 10
610.917633
 20
379.675844
 30
0.0
 11
628.717633
 21
379.675844
 31
0.0
  0
LINE
  5
A555
330
A338
100
AcDbEntity
  8
1
  6
Continuous
100
AcDbLine
 10
610.917633
 20
378.075844
 30
0.0
 11
628.717633
 21
378.075844
 31
0.0
  0
LINE
  5
A556
330
A338
100
AcDbEntity
  8
1
  6
Continuous
100
AcDbLine
 10
628.717633
 20
378.075844
 30
0.0
 11
628.717633
 21
379.675844
 31
0.0
  0
ARC
  5
A557
330
A338
100
AcDbEntity
  8
1
  6
Continuous
100
AcDbCircle
 10
628.3176329999998
 20
377.075844
 30
0.0
 40
1.0
100
AcDbArc
 50
0.0
 51
90.0
  0
ARC
  5
A558
330
A338
100
AcDbEntity
  8
1
  6
Continuous
100
AcDbCircle
 10
628.3176329999998
 20
380.6758439999999
 30
0.0
 40
1.0
100
AcDbArc
 50
270.0
 51
0.0
  0
LINE
  5
A559
330
A338
100
AcDbEntity
  8
1
  6
Continuous
100
AcDbLine
 10
610.917633
 20
379.675844
 30
0.0
 11
610.917633
 21
378.075844
 31
0.0
  0
ARC
  5
A55A
330
A338
100
AcDbEntity
  8
1
  6
Continuous
100
AcDbCircle
 10
611.3176329999999
 20
377.075844
 30
0.0
 40
1.0
100
AcDbArc
 50
90.0
 51
180.0
  0
ARC
  5
A55B
330
A338
100
AcDbEntity
  8
1
  6
Continuous
100
AcDbCircle
 10
611.3176329999999
 20
380.6758439999999
 30
0.0
 40
1.0
100
AcDbArc
 50
180.0
 51
270.0
  0
LINE
  5
A55C
330
A338
100
AcDbEntity
  8
1
  6
Continuous
100
AcDbLine
 10
610.56764
 20
412.775844
 30
0.0
 11
629.0676399999997
 21
412.775844
 31
0.0
  0
LINE
  5
A55D
330
A338
100
AcDbEntity
  8
1
  6
Continuous
100
AcDbLine
 10
610.317633
 20
409.7758439999998
 30
0.0
 11
629.317633
 21
409.7758439999998
 31
0.0
  0
LINE
  5
A55E
330
A338
100
AcDbEntity
  8
1
  6
Continuous
100
AcDbLine
 10
628.3176329999998
 20
412.775844
 30
0.0
 11
628.3176329999998
 21
409.7758439999998
 31
0.0
  0
LINE
  5
A55F
330
A338
100
AcDbEntity
  8
1
  6
Continuous
100
AcDbLine
 10
611.3176329999999
 20
412.775844
 30
0.0
 11
611.3176329999999
 21
409.7758439999998
 31
0.0
  0
LINE
  5
A560
330
A338
100
AcDbEntity
  8
1
  6
Continuous
100
AcDbLine
 10
610.56764
 20
415.975844
 30
0.0
 11
629.0676399999997
 21
415.975844
 31
0.0
  0
LINE
  5
A561
330
A338
100
AcDbEntity
  8
1
  6
Continuous
100
AcDbLine
 10
613.8176399999998
 20
416.4758589999998
 30
0.0
 11
625.8176399999999
 21
416.4758589999998
 31
0.0
  0
LINE
  5
A562
330
A338
100
AcDbEntity
  8
1
  6
Continuous
100
AcDbLine
 10
615.3176399999997
 20
417.9758589999998
 30
0.0
 11
624.31764
 21
417.9758589999998
 31
0.0
  0
LINE
  5
A563
330
A338
100
AcDbEntity
  8
1
  6
Continuous
100
AcDbLine
 10
615.3176399999997
 20
417.9758589999998
 30
0.0
 11
613.8176399999998
 21
416.4758589999998
 31
0.0
  0
LINE
  5
A564
330
A338
100
AcDbEntity
  8
1
  6
Continuous
100
AcDbLine
 10
613.8176399999998
 20
416.4758589999998
 30
0.0
 11
613.8176399999998
 21
415.975859
 31
0.0
  0
LINE
  5
A565
330
A338
100
AcDbEntity
  8
1
  6
Continuous
100
AcDbLine
 10
624.31764
 20
417.9758589999998
 30
0.0
 11
625.8176399999999
 21
416.4758589999998
 31
0.0
  0
LINE
  5
A566
330
A338
100
AcDbEntity
  8
1
  6
Continuous
100
AcDbLine
 10
625.8176399999999
 20
416.4758589999998
 30
0.0
 11
625.8176399999999
 21
415.975859
 31
0.0
  0
LINE
  5
A567
330
A338
100
AcDbEntity
  8
4
  6
CENTER
100
AcDbLine
 10
337.1637740000001
 20
77.12664100000002
 30
0.0
 11
175.2057259999999
 21
77.12664100000002
 31
0.0
  0
LINE
  5
A568
330
A338
100
AcDbEntity
  8
1
  6
Continuous
100
AcDbLine
 10
266.183854
 20
56.226528
 30
0.0
 11
245.683854
 21
56.226528
 31
0.0
  0
LINE
  5
A569
330
A338
100
AcDbEntity
  8
1
  6
Continuous
100
AcDbLine
 10
264.788427
 20
53.926528
 30
0.0
 11
245.683854
 21
53.926528
 31
0.0
  0
LINE
  5
A56A
330
A338
100
AcDbEntity
  8
1
  6
Continuous
100
AcDbLine
 10
273.605427
 20
59.376528
 30
0.0
 11
238.2622809999999
 21
59.376528
 31
0.0
  0
LINE
  5
A56B
330
A338
100
AcDbEntity
  8
1
  6
Continuous
100
AcDbLine
 10
276.433854
 20
61.376528
 30
0.0
 11
235.433854
 21
61.376528
 31
0.0
  0
LINE
  5
A56C
330
A338
100
AcDbEntity
  8
1
  6
Continuous
100
AcDbLine
 10
239.933854
 20
57.326528
 30
0.0
 11
271.9338539999998
 21
57.326528
 31
0.0
  0
ARC
  5
A56D
330
A338
100
AcDbEntity
  8
1
  6
Continuous
100
AcDbCircle
 10
262.2881029999999
 20
53.226528
 30
0.0
 40
4.0
100
AcDbArc
 50
48.590378
 51
90.0
  0
LINE
  5
A56E
330
A338
100
AcDbEntity
  8
1
  6
Continuous
100
AcDbLine
 10
266.183854
 20
98.02652800000002
 30
0.0
 11
245.683854
 21
98.02652800000002
 31
0.0
  0
LINE
  5
A56F
330
A338
100
AcDbEntity
  8
1
  6
Continuous
100
AcDbLine
 10
264.788427
 20
100.3265279999999
 30
0.0
 11
245.683854
 21
100.3265279999999
 31
0.0
  0
LINE
  5
A570
330
A338
100
AcDbEntity
  8
1
  6
Continuous
100
AcDbLine
 10
273.605427
 20
94.87652799999999
 30
0.0
 11
238.2622809999999
 21
94.87652799999999
 31
0.0
  0
LINE
  5
A571
330
A338
100
AcDbEntity
  8
1
  6
Continuous
100
AcDbLine
 10
276.433854
 20
92.87652800000001
 30
0.0
 11
235.433854
 21
92.87652800000001
 31
0.0
  0
LINE
  5
A572
330
A338
100
AcDbEntity
  8
1
  6
Continuous
100
AcDbLine
 10
239.933854
 20
96.92652800000001
 30
0.0
 11
271.9338539999998
 21
96.92652800000001
 31
0.0
  0
ARC
  5
A573
330
A338
100
AcDbEntity
  8
1
  6
Continuous
100
AcDbCircle
 10
262.2881029999999
 20
101.026528
 30
0.0
 40
4.0
100
AcDbArc
 50
270.0
 51
311.409622
  0
LINE
  5
A574
330
A338
100
AcDbEntity
  8
4
  6
CENTER
100
AcDbLine
 10
255.933854
 20
40.3138
 30
0.0
 11
255.933854
 21
114.32823
 31
0.0
  0
ARC
  5
A575
330
A338
100
AcDbEntity
  8
1
  6
Continuous
100
AcDbCircle
 10
241.3851409999999
 20
63.47274999999999
 30
0.0
 40
30.0
100
AcDbArc
 50
101.4420209999999
 51
124.734977
  0
ARC
  5
A576
330
A338
100
AcDbEntity
  8
1
  6
Continuous
100
AcDbCircle
 10
249.5796059999999
 20
101.026528
 30
0.0
 40
4.0
100
AcDbArc
 50
228.5903779999999
 51
270.0
  0
ARC
  5
A577
330
A338
100
AcDbEntity
  8
1
  6
Continuous
100
AcDbCircle
 10
238.2622809999999
 20
91.876528
 30
0.0
 40
3.0
100
AcDbArc
 50
90.0
 51
160.528779
  0
LINE
  5
A578
330
A338
100
AcDbEntity
  8
1
  6
Continuous
100
AcDbLine
 10
239.933854
 20
94.87652799999999
 30
0.0
 11
239.933854
 21
96.92652800000001
 31
0.0
  0
LINE
  5
A579
330
A338
100
AcDbEntity
  8
1
  6
Continuous
100
AcDbLine
 10
245.683854
 20
98.02652800000002
 30
0.0
 11
245.683854
 21
100.3265279999999
 31
0.0
  0
ARC
  5
A57A
330
A338
100
AcDbEntity
  8
1
  6
Continuous
100
AcDbCircle
 10
258.9338539999999
 20
111.291592
 30
0.0
 40
8.665063999999999
100
AcDbArc
 50
249.7438419999999
 51
290.256158
  0
ARC
  5
A57B
330
A338
100
AcDbEntity
  8
1
  6
Continuous
100
AcDbCircle
 10
258.9338539999999
 20
98.961465
 30
0.0
 40
8.665063999999999
100
AcDbArc
 50
69.743842
 51
110.256158
  0
LINE
  5
A57C
330
A338
100
AcDbEntity
  8
1
  6
Continuous
100
AcDbLine
 10
259.933854
 20
107.6265279999999
 30
0.0
 11
259.933854
 21
108.126528
 31
0.0
  0
LINE
  5
A57D
330
A338
100
AcDbEntity
  8
1
  6
Continuous
100
AcDbLine
 10
259.933854
 20
108.126528
 30
0.0
 11
258.9338539999999
 21
109.126528
 31
0.0
  0
LINE
  5
A57E
330
A338
100
AcDbEntity
  8
2
  6
Continuous
100
AcDbLine
 10
259.257354
 20
107.6265279999999
 30
0.0
 11
259.257354
 21
108.8030279999999
 31
0.0
  0
LINE
  5
A57F
330
A338
100
AcDbEntity
  8
1
  6
Continuous
100
AcDbLine
 10
255.933854
 20
103.162427
 30
0.0
 11
255.933854
 21
107.09063
 31
0.0
  0
LINE
  5
A580
330
A338
100
AcDbEntity
  8
1
  6
Continuous
100
AcDbLine
 10
251.933854
 20
108.126528
 30
0.0
 11
252.9338539999999
 21
109.126528
 31
0.0
  0
LINE
  5
A581
330
A338
100
AcDbEntity
  8
1
  6
Continuous
100
AcDbLine
 10
251.933854
 20
107.6265279999999
 30
0.0
 11
251.933854
 21
108.126528
 31
0.0
  0
LINE
  5
A582
330
A338
100
AcDbEntity
  8
2
  6
Continuous
100
AcDbLine
 10
252.610354
 20
107.6265279999999
 30
0.0
 11
252.610354
 21
108.8030279999999
 31
0.0
  0
LINE
  5
A583
330
A338
100
AcDbEntity
  8
1
  6
Continuous
100
AcDbLine
 10
258.9338539999999
 20
109.126528
 30
0.0
 11
252.9338539999999
 21
109.126528
 31
0.0
  0
LINE
  5
A584
330
A338
100
AcDbEntity
  8
1
  6
Continuous
100
AcDbLine
 10
261.933854
 20
107.6265279999999
 30
0.0
 11
261.933854
 21
102.626528
 31
0.0
  0
LINE
  5
A585
330
A338
100
AcDbEntity
  8
1
  6
Continuous
100
AcDbLine
 10
249.933854
 20
107.6265279999999
 30
0.0
 11
249.933854
 21
102.626528
 31
0.0
  0
LINE
  5
A586
330
A338
100
AcDbEntity
  8
1
  6
Continuous
100
AcDbLine
 10
261.933854
 20
102.626528
 30
0.0
 11
249.933854
 21
102.626528
 31
0.0
  0
LINE
  5
A587
330
A338
100
AcDbEntity
  8
1
  6
Continuous
100
AcDbLine
 10
261.933854
 20
107.6265279999999
 30
0.0
 11
249.933854
 21
107.6265279999999
 31
0.0
  0
ARC
  5
A588
330
A338
100
AcDbEntity
  8
1
  6
Continuous
100
AcDbCircle
 10
252.9338539999999
 20
111.291592
 30
0.0
 40
8.665063999999999
100
AcDbArc
 50
249.7438419999999
 51
290.256158
  0
ARC
  5
A589
330
A338
100
AcDbEntity
  8
1
  6
Continuous
100
AcDbCircle
 10
252.9338539999999
 20
98.961465
 30
0.0
 40
8.665063999999999
100
AcDbArc
 50
69.743842
 51
110.256158
  0
LINE
  5
A58A
330
A338
100
AcDbEntity
  8
1
  6
Continuous
100
AcDbLine
 10
263.4338539999999
 20
101.9939119999999
 30
0.0
 11
263.4338539999999
 21
102.626528
 31
0.0
  0
LINE
  5
A58B
330
A338
100
AcDbEntity
  8
1
  6
Continuous
100
AcDbLine
 10
248.4338539999999
 20
100.3265279999999
 30
0.0
 11
248.4338539999999
 21
102.626528
 31
0.0
  0
LINE
  5
A58C
330
A338
100
AcDbEntity
  8
1
  6
Continuous
100
AcDbLine
 10
263.4338539999999
 20
102.626528
 30
0.0
 11
248.4338539999999
 21
102.626528
 31
0.0
  0
LINE
  5
A58D
330
A338
100
AcDbEntity
  8
1
  6
Continuous
100
AcDbLine
 10
262.2881029999999
 20
97.02652800000002
 30
0.0
 11
249.5796059999999
 21
97.02652800000002
 31
0.0
  0
LINE
  5
A58E
330
A338
100
AcDbEntity
  8
1
  6
Continuous
100
AcDbLine
 10
261.908854
 20
96.92652800000001
 30
0.0
 11
261.908854
 21
97.02652800000002
 31
0.0
  0
LINE
  5
A58F
330
A338
100
AcDbEntity
  8
1
  6
Continuous
100
AcDbLine
 10
249.9588539999999
 20
96.92652800000001
 30
0.0
 11
249.9588539999999
 21
97.02652800000002
 31
0.0
  0
ARC
  5
A590
330
A338
100
AcDbEntity
  8
1
  6
Continuous
100
AcDbCircle
 10
241.3851409999999
 20
90.78030699999999
 30
0.0
 40
30.0
100
AcDbArc
 50
235.2642689999999
 51
258.557979
  0
LINE
  5
A591
330
A338
100
AcDbEntity
  8
1
  6
Continuous
100
AcDbLine
 10
255.933854
 20
46.662427
 30
0.0
 11
255.933854
 21
51.626528
 31
0.0
  0
LINE
  5
A592
330
A338
100
AcDbEntity
  8
1
  6
Continuous
100
AcDbLine
 10
249.933854
 20
51.626528
 30
0.0
 11
249.933854
 21
46.126528
 31
0.0
  0
LINE
  5
A593
330
A338
100
AcDbEntity
  8
1
  6
Continuous
100
AcDbLine
 10
261.933854
 20
51.626528
 30
0.0
 11
261.933854
 21
46.126528
 31
0.0
  0
ARC
  5
A594
330
A338
100
AcDbEntity
  8
1
  6
Continuous
100
AcDbCircle
 10
249.5796059999999
 20
53.226528
 30
0.0
 40
4.0
100
AcDbArc
 50
90.0
 51
131.4096219999999
  0
ARC
  5
A595
330
A338
100
AcDbEntity
  8
1
  6
Continuous
100
AcDbCircle
 10
238.2622809999999
 20
62.376528
 30
0.0
 40
3.0
100
AcDbArc
 50
199.4712209999999
 51
270.0
  0
LINE
  5
A596
330
A338
100
AcDbEntity
  8
1
  6
Continuous
100
AcDbLine
 10
239.933854
 20
57.326528
 30
0.0
 11
239.933854
 21
59.376528
 31
0.0
  0
LINE
  5
A597
330
A338
100
AcDbEntity
  8
1
  6
Continuous
100
AcDbLine
 10
245.683854
 20
53.926528
 30
0.0
 11
245.683854
 21
56.226528
 31
0.0
  0
LINE
  5
A598
330
A338
100
AcDbEntity
  8
1
  6
Continuous
100
AcDbLine
 10
249.933854
 20
51.626528
 30
0.0
 11
261.933854
 21
51.626528
 31
0.0
  0
LINE
  5
A599
330
A338
100
AcDbEntity
  8
1
  6
Continuous
100
AcDbLine
 10
263.4338539999999
 20
51.626528
 30
0.0
 11
263.4338539999999
 21
52.259245
 31
0.0
  0
LINE
  5
A59A
330
A338
100
AcDbEntity
  8
1
  6
Continuous
100
AcDbLine
 10
248.4338539999999
 20
51.626528
 30
0.0
 11
248.4338539999999
 21
53.926528
 31
0.0
  0
LINE
  5
A59B
330
A338
100
AcDbEntity
  8
1
  6
Continuous
100
AcDbLine
 10
263.4338539999999
 20
51.626528
 30
0.0
 11
248.4338539999999
 21
51.626528
 31
0.0
  0
LINE
  5
A59C
330
A338
100
AcDbEntity
  8
1
  6
Continuous
100
AcDbLine
 10
262.2881029999999
 20
57.226528
 30
0.0
 11
249.5796059999999
 21
57.226528
 31
0.0
  0
LINE
  5
A59D
330
A338
100
AcDbEntity
  8
1
  6
Continuous
100
AcDbLine
 10
261.908854
 20
57.226528
 30
0.0
 11
261.908854
 21
57.326528
 31
0.0
  0
LINE
  5
A59E
330
A338
100
AcDbEntity
  8
1
  6
Continuous
100
AcDbLine
 10
249.9588539999999
 20
57.226528
 30
0.0
 11
249.9588539999999
 21
57.326528
 31
0.0
  0
ARC
  5
A59F
330
A338
100
AcDbEntity
  8
1
  6
Continuous
100
AcDbCircle
 10
252.9338539999999
 20
54.791592
 30
0.0
 40
8.665063999999999
100
AcDbArc
 50
249.7438419999999
 51
290.256158
  0
LINE
  5
A5A0
330
A338
100
AcDbEntity
  8
1
  6
Continuous
100
AcDbLine
 10
261.933854
 20
46.126528
 30
0.0
 11
249.933854
 21
46.126528
 31
0.0
  0
ARC
  5
A5A1
330
A338
100
AcDbEntity
  8
1
  6
Continuous
100
AcDbCircle
 10
258.9338539999999
 20
54.791592
 30
0.0
 40
8.665063999999999
100
AcDbArc
 50
249.7438419999999
 51
290.256158
  0
ARC
  5
A5A2
330
A338
100
AcDbEntity
  8
1
  6
Continuous
100
AcDbCircle
 10
305.933854
 20
77.12664100000002
 30
0.0
 40
20.5
100
AcDbArc
 50
137.4092679999999
 51
147.548509
  0
LINE
  5
A5A3
330
A338
100
AcDbEntity
  8
4
  6
CENTER
100
AcDbLine
 10
305.933854
 20
47.95617
 30
0.0
 11
305.933854
 21
107.4164509999999
 31
0.0
  0
ARC
  5
A5A4
330
A338
100
AcDbEntity
  8
1
  6
Continuous
100
AcDbCircle
 10
270.482568
 20
63.47274999999999
 30
0.0
 40
30.0
100
AcDbArc
 50
55.265023
 51
78.557979
  0
ARC
  5
A5A5
330
A338
100
AcDbEntity
  8
1
  6
Continuous
100
AcDbCircle
 10
266.183854
 20
51.247381
 30
0.0
 40
46.77914699999997
100
AcDbArc
 50
55.329379
 51
90.0
  0
LINE
  5
A5A6
330
A338
100
AcDbEntity
  8
1
  6
Continuous
100
AcDbLine
 10
271.9338539999998
 20
94.87652799999999
 30
0.0
 11
271.9338539999998
 21
96.92652800000001
 31
0.0
  0
ARC
  5
A5A7
330
A338
100
AcDbEntity
  8
1
  6
Continuous
100
AcDbCircle
 10
273.605427
 20
91.876528
 30
0.0
 40
3.0
100
AcDbArc
 50
19.47122099999998
 51
90.0
  0
ARC
  5
A5A8
330
A338
100
AcDbEntity
  8
1
  6
Continuous
100
AcDbCircle
 10
266.183854
 20
103.004476
 30
0.0
 40
46.777948
100
AcDbArc
 50
270.0
 51
304.6716079999999
  0
ARC
  5
A5A9
330
A338
100
AcDbEntity
  8
1
  6
Continuous
100
AcDbCircle
 10
270.482568
 20
90.78030699999999
 30
0.0
 40
30.0
100
AcDbArc
 50
281.442021
 51
304.735731
  0
LINE
  5
A5AA
330
A338
100
AcDbEntity
  8
1
  6
Continuous
100
AcDbLine
 10
271.9338539999998
 20
57.326528
 30
0.0
 11
271.9338539999998
 21
59.376528
 31
0.0
  0
ARC
  5
A5AB
330
A338
100
AcDbEntity
  8
1
  6
Continuous
100
AcDbCircle
 10
273.605427
 20
62.376528
 30
0.0
 40
3.0
100
AcDbArc
 50
270.0
 51
340.528779
  0
LINE
  5
A5AC
330
A338
100
AcDbEntity
  8
1
  6
Continuous
100
AcDbLine
 10
249.933854
 20
240.439961
 30
0.0
 11
255.933854
 21
243.904063
 31
0.0
  0
LINE
  5
A5AD
330
A338
100
AcDbEntity
  8
1
  6
Continuous
100
AcDbLine
 10
249.933854
 20
240.439961
 30
0.0
 11
249.933854
 21
233.5117579999999
 31
0.0
  0
CIRCLE
  5
A5AE
330
A338
100
AcDbEntity
  8
1
  6
Continuous
100
AcDbCircle
 10
255.933854
 20
236.9758589999999
 30
0.0
 40
4.0
  0
CIRCLE
  5
A5AF
330
A338
100
AcDbEntity
  8
2
  6
Continuous
100
AcDbCircle
 10
255.933854
 20
236.9758589999999
 30
0.0
 40
3.3235
  0
LINE
  5
A5B0
330
A338
100
AcDbEntity
  8
1
  6
Continuous
100
AcDbLine
 10
261.933854
 20
240.439961
 30
0.0
 11
255.933854
 21
243.904063
 31
0.0
  0
LINE
  5
A5B1
330
A338
100
AcDbEntity
  8
1
  6
Continuous
100
AcDbLine
 10
261.933854
 20
240.439961
 30
0.0
 11
261.933854
 21
233.5117579999999
 31
0.0
  0
LINE
  5
A5B2
330
A338
100
AcDbEntity
  8
1
  6
Continuous
100
AcDbLine
 10
255.933854
 20
230.0476559999999
 30
0.0
 11
261.933854
 21
233.5117579999999
 31
0.0
  0
LINE
  5
A5B3
330
A338
100
AcDbEntity
  8
1
  6
Continuous
100
AcDbLine
 10
255.933854
 20
230.0476559999999
 30
0.0
 11
249.933854
 21
233.5117579999999
 31
0.0
  0
CIRCLE
  5
A5B4
330
A338
100
AcDbEntity
  8
1
  6
Continuous
100
AcDbCircle
 10
255.933854
 20
236.9758589999999
 30
0.0
 40
7.5
  0
CIRCLE
  5
A5B5
330
A338
100
AcDbEntity
  8
1
  6
Continuous
100
AcDbCircle
 10
255.933854
 20
236.9758589999999
 30
0.0
 40
8.0
  0
CIRCLE
  5
A5B6
330
A338
100
AcDbEntity
  8
1
  6
Continuous
100
AcDbCircle
 10
669.81764
 20
236.9758589999999
 30
0.0
 40
7.5
  0
CIRCLE
  5
A5B7
330
A338
100
AcDbEntity
  8
1
  6
Continuous
100
AcDbCircle
 10
669.81764
 20
236.9758589999999
 30
0.0
 40
8.0
  0
CIRCLE
  5
A5B8
330
A338
100
AcDbEntity
  8
1
  6
Continuous
100
AcDbCircle
 10
669.81764
 20
236.9758589999999
 30
0.0
 40
6.0
  0
LINE
  5
A5B9
330
A338
100
AcDbEntity
  8
1
  6
Continuous
100
AcDbLine
 10
675.8176399999999
 20
240.439961
 30
0.0
 11
669.81764
 21
243.904063
 31
0.0
  0
LINE
  5
A5BA
330
A338
100
AcDbEntity
  8
1
  6
Continuous
100
AcDbLine
 10
663.8176399999998
 20
240.439961
 30
0.0
 11
669.81764
 21
243.904063
 31
0.0
  0
LINE
  5
A5BB
330
A338
100
AcDbEntity
  8
1
  6
Continuous
100
AcDbLine
 10
663.8176399999998
 20
240.439961
 30
0.0
 11
663.8176399999998
 21
233.5117579999999
 31
0.0
  0
LINE
  5
A5BC
330
A338
100
AcDbEntity
  8
1
  6
Continuous
100
AcDbLine
 10
669.81764
 20
230.0476559999999
 30
0.0
 11
663.8176399999998
 21
233.5117579999999
 31
0.0
  0
LINE
  5
A5BD
330
A338
100
AcDbEntity
  8
1
  6
Continuous
100
AcDbLine
 10
669.81764
 20
230.0476559999999
 30
0.0
 11
675.8176399999999
 21
233.5117579999999
 31
0.0
  0
LINE
  5
A5BE
330
A338
100
AcDbEntity
  8
1
  6
Continuous
100
AcDbLine
 10
675.8176399999999
 20
240.439961
 30
0.0
 11
675.8176399999999
 21
233.5117579999999
 31
0.0
  0
LINE
  5
A5BF
330
A338
100
AcDbEntity
  8
1
  6
Continuous
100
AcDbLine
 10
462.875747
 20
308.8758589999998
 30
0.0
 11
459.3545859999998
 21
308.8758589999998
 31
0.0
  0
ARC
  5
A5C0
330
A338
100
AcDbEntity
  8
1
  6
Continuous
100
AcDbCircle
 10
24.160826
 20
350.3847609999998
 30
0.0
 40
428.2314179999998
100
AcDbArc
 50
350.6172009999998
 51
353.249958
  0
ARC
  5
A5C1
330
A338
100
AcDbEntity
  8
1
  6
Continuous
100
AcDbCircle
 10
456.5292119999998
 20
278.939993
 30
0.0
 40
10.0
100
AcDbArc
 50
170.6172009999999
 51
174.646724
  0
ARC
  5
A5C2
330
A338
100
AcDbEntity
  8
1
  6
Continuous
100
AcDbCircle
 10
459.3545859999998
 20
298.8758589999998
 30
0.0
 40
10.0
100
AcDbArc
 50
90.0
 51
173.2499579999999
  0
ARC
  5
A5C3
330
A338
100
AcDbEntity
  8
1
  6
Continuous
100
AcDbCircle
 10
380.8769679999999
 20
296.027935
 30
0.0
 40
69.875935
100
AcDbArc
 50
346.750223
 51
5.955662999999998
  0
LINE
  5
A5C4
330
A338
100
AcDbEntity
  8
1
  6
Continuous
100
AcDbLine
 10
462.875747
 20
308.8758589999998
 30
0.0
 11
466.396907
 21
308.8758589999998
 31
0.0
  0
ARC
  5
A5C5
330
A338
100
AcDbEntity
  8
1
  6
Continuous
100
AcDbCircle
 10
544.8745249999998
 20
296.027935
 30
0.0
 40
69.875935
100
AcDbArc
 50
174.044337
 51
193.2497769999999
  0
ARC
  5
A5C6
330
A338
100
AcDbEntity
  8
1
  6
Continuous
100
AcDbCircle
 10
901.5906679999996
 20
350.3847609999998
 30
0.0
 40
428.2314179999998
100
AcDbArc
 50
186.7500419999998
 51
189.382799
  0
ARC
  5
A5C7
330
A338
100
AcDbEntity
  8
1
  6
Continuous
100
AcDbCircle
 10
466.396907
 20
298.8758589999998
 30
0.0
 40
10.0
100
AcDbArc
 50
6.750041999999997
 51
90.0
  0
ARC
  5
A5C8
330
A338
100
AcDbEntity
  8
1
  6
Continuous
100
AcDbCircle
 10
264.755081
 20
108.026528
 30
0.0
 40
10.0
100
AcDbArc
 50
270.0
 51
285.6838859999998
  0
LINE
  5
A5C9
330
A338
100
AcDbEntity
  8
1
  6
Continuous
100
AcDbLine
 10
319.9338539999998
 20
88.126641
 30
0.0
 11
191.933854
 21
88.126641
 31
0.0
  0
LINE
  5
A5CA
330
A338
100
AcDbEntity
  8
1
  6
Continuous
100
AcDbLine
 10
319.9338539999998
 20
66.126641
 30
0.0
 11
191.933854
 21
66.126641
 31
0.0
  0
ARC
  5
A5CB
330
A338
100
AcDbEntity
  8
1
  6
Continuous
100
AcDbCircle
 10
191.933854
 20
77.12664100000002
 30
0.0
 40
11.0
100
AcDbArc
 50
90.0
 51
270.0
  0
ARC
  5
A5CC
330
A338
100
AcDbEntity
  8
1
  6
Continuous
100
AcDbCircle
 10
319.9338539999998
 20
77.12664100000002
 30
0.0
 40
11.0
100
AcDbArc
 50
270.0
 51
90.0
  0
ARC
  5
A5CD
330
A338
100
AcDbEntity
  8
1
  6
Continuous
100
AcDbCircle
 10
305.933854
 20
77.12664100000002
 30
0.0
 40
20.5
100
AcDbArc
 50
212.451491
 51
222.5907649999999
  0
ARC
  5
A5CE
330
A338
100
AcDbEntity
  8
1
  6
Continuous
100
AcDbCircle
 10
264.788427
 20
112.6265279999999
 30
0.0
 40
12.3
100
AcDbArc
 50
270.0
 51
282.4694129999999
  0
ARC
  5
A5CF
330
A338
100
AcDbEntity
  8
1
  6
Continuous
100
AcDbCircle
 10
264.788427
 20
41.626754
 30
0.0
 40
12.3
100
AcDbArc
 50
77.53058700000003
 51
90.0
  0
ARC
  5
A5D0
330
A338
100
AcDbEntity
  8
1
  6
Continuous
100
AcDbCircle
 10
264.755081
 20
46.226754
 30
0.0
 40
10.0
100
AcDbArc
 50
74.316114
 51
90.0
  0
LINE
  5
A5D1
330
A338
100
AcDbEntity
  8
1
  6
Continuous
100
AcDbLine
 10
288.698702
 20
497.801908
 30
0.0
 11
192.283478
 21
497.801908
 31
0.0
  0
LINE
  5
A5D2
330
A338
100
AcDbEntity
  8
1
  6
Continuous
100
AcDbLine
 10
288.6985569999998
 20
475.801908
 30
0.0
 11
192.283478
 21
475.801908
 31
0.0
  0
ARC
  5
A5D3
330
A338
100
AcDbEntity
  8
1
  6
Continuous
100
AcDbCircle
 10
191.9334779999998
 20
486.801795
 30
0.0
 40
11.0
100
AcDbArc
 50
90.0
 51
270.0
  0
ARC
  5
A5D4
330
A338
100
AcDbEntity
  8
1
  6
Continuous
100
AcDbCircle
 10
319.933478
 20
486.801795
 30
0.0
 40
11.0
100
AcDbArc
 50
289.5863589999999
 51
70.413641
  0
CIRCLE
  5
A5D5
330
A338
100
AcDbEntity
  8
1
  6
Continuous
100
AcDbCircle
 10
305.9334779999999
 20
486.801795
 30
0.0
 40
9.5
  0
CIRCLE
  5
A5D6
330
A338
100
AcDbEntity
  8
2
  6
Continuous
100
AcDbCircle
 10
305.9334779999999
 20
486.801795
 30
0.0
 40
5.3235
  0
CIRCLE
  5
A5D7
330
A338
100
AcDbEntity
  8
1
  6
Continuous
100
AcDbCircle
 10
305.9334779999999
 20
486.801795
 30
0.0
 40
4.5
  0
ARC
  5
A5D8
330
A338
100
AcDbEntity
  8
1
  6
Continuous
100
AcDbCircle
 10
255.933854
 20
236.9758589999999
 30
0.0
 40
75.0
100
AcDbArc
 50
62.447723
 51
30.422456
  0
LINE
  5
A5D9
330
A338
100
AcDbEntity
  8
1
  6
Continuous
100
AcDbLine
 10
57.99184799999999
 20
300.975844
 30
0.0
 11
57.99184799999999
 21
173.325844
 31
0.0
  0
LINE
  5
A5DA
330
A338
100
AcDbEntity
  8
1
  6
Continuous
100
AcDbLine
 10
79.991848
 20
300.975844
 30
0.0
 11
79.991848
 21
173.325844
 31
0.0
  0
ARC
  5
A5DB
330
A338
100
AcDbEntity
  8
1
  6
Continuous
100
AcDbCircle
 10
68.99196100000001
 20
172.9758439999999
 30
0.0
 40
11.0
100
AcDbArc
 50
180.0
 51
0.0
  0
ARC
  5
A5DC
330
A338
100
AcDbEntity
  8
1
  6
Continuous
100
AcDbCircle
 10
68.99196100000001
 20
300.975844
 30
0.0
 40
11.0
100
AcDbArc
 50
0.0
 51
180.0
  0
LINE
  5
A5DD
330
A338
100
AcDbEntity
  8
1
  6
Continuous
100
AcDbLine
 10
451.8758599999999
 20
300.6258439999998
 30
0.0
 11
451.8758599999999
 21
173.325844
 31
0.0
  0
LINE
  5
A5DE
330
A338
100
AcDbEntity
  8
1
  6
Continuous
100
AcDbLine
 10
473.8758599999998
 20
300.6258439999998
 30
0.0
 11
473.8758599999998
 21
173.325844
 31
0.0
  0
ARC
  5
A5DF
330
A338
100
AcDbEntity
  8
1
  6
Continuous
100
AcDbCircle
 10
462.875747
 20
172.9758439999999
 30
0.0
 40
11.0
100
AcDbArc
 50
180.0
 51
0.0
  0
ARC
  5
A5E0
330
A338
100
AcDbEntity
  8
1
  6
Continuous
100
AcDbCircle
 10
462.875747
 20
300.975844
 30
0.0
 40
11.0
100
AcDbArc
 50
0.0
 51
34.405638
  0
ARC
  5
A5E1
330
A338
100
AcDbEntity
  8
1
  6
Continuous
100
AcDbCircle
 10
462.875747
 20
300.975844
 30
0.0
 40
11.0
100
AcDbArc
 50
145.594362
 51
180.0
  0
ARC
  5
A5E2
330
A338
100
AcDbEntity
  8
1
  6
Continuous
100
AcDbCircle
 10
669.81764
 20
236.9758589999999
 30
0.0
 40
75.0
100
AcDbArc
 50
149.5775439999999
 51
117.552277
  0
LINE
  5
A5E3
330
A338
100
AcDbEntity
  8
2
  6
Continuous
100
AcDbLine
 10
300.6103539999998
 20
417.1523589999997
 30
0.0
 11
300.6103539999998
 21
415.975844
 31
0.0
  0
LINE
  5
A5E4
330
A338
100
AcDbEntity
  8
2
  6
Continuous
100
AcDbLine
 10
311.257354
 20
417.1523589999997
 30
0.0
 11
311.257354
 21
415.975844
 31
0.0
  0
LINE
  5
A5E5
330
A338
100
AcDbEntity
  8
1
  6
Continuous
100
AcDbLine
 10
99.99184800000001
 20
240.975844
 30
0.0
 11
99.99184800000001
 21
232.9758439999999
 31
0.0
  0
LINE
  5
A5E6
330
A338
100
AcDbEntity
  8
1
  6
Continuous
100
AcDbLine
 10
431.8758599999998
 20
240.975844
 30
0.0
 11
431.8758599999998
 21
232.9758439999999
 31
0.0
  0
LINE
  5
A5E7
330
A338
100
AcDbEntity
  8
1
  6
Continuous
100
AcDbLine
 10
251.9334779999998
 20
455.801908
 30
0.0
 11
259.9334779999999
 21
455.801908
 31
0.0
  0
LINE
  5
A5E8
330
A338
100
AcDbEntity
  8
1
  6
Continuous
100
AcDbLine
 10
251.933854
 20
108.126528
 30
0.0
 11
259.933854
 21
108.126528
 31
0.0
  0
LINE
  5
A5E9
330
A338
100
AcDbEntity
  8
2
  6
Continuous
100
AcDbLine
 10
63.668461
 20
417.1523589999997
 30
0.0
 11
63.668461
 21
415.975844
 31
0.0
  0
LINE
  5
A5EA
330
A338
100
AcDbEntity
  8
2
  6
Continuous
100
AcDbLine
 10
74.315461
 20
417.1523589999997
 30
0.0
 11
74.315461
 21
415.975844
 31
0.0
  0
LINE
  5
A5EB
330
A338
100
AcDbEntity
  8
2
  6
Continuous
100
AcDbLine
 10
457.552247
 20
417.1523589999997
 30
0.0
 11
457.552247
 21
415.975844
 31
0.0
  0
LINE
  5
A5EC
330
A338
100
AcDbEntity
  8
2
  6
Continuous
100
AcDbLine
 10
468.1992469999998
 20
417.1523589999997
 30
0.0
 11
468.1992469999998
 21
415.975844
 31
0.0
  0
LINE
  5
A5ED
330
A338
100
AcDbEntity
  8
2
  6
Continuous
100
AcDbLine
 10
614.49414
 20
417.152374
 30
0.0
 11
614.49414
 21
415.975859
 31
0.0
  0
LINE
  5
A5EE
330
A338
100
AcDbEntity
  8
2
  6
Continuous
100
AcDbLine
 10
625.1411400000002
 20
417.152374
 30
0.0
 11
625.1411400000002
 21
415.975859
 31
0.0
  0
ARC
  5
A5EF
330
A338
100
AcDbEntity
  8
1
  6
Continuous
100
AcDbCircle
 10
399.476381
 20
247.5554219999999
 30
0.0
 40
89.99881399999997
100
AcDbArc
 50
348.4111759999998
 51
357.674795
  0
ARC
  5
A5F0
330
A338
100
AcDbEntity
  8
1
  6
Continuous
100
AcDbCircle
 10
526.275113
 20
247.5554219999999
 30
0.0
 40
89.99881399999997
100
AcDbArc
 50
182.325205
 51
191.5888239999999
  0
ARC
  5
A5F1
330
A338
100
AcDbEntity
  8
1
  6
Continuous
100
AcDbCircle
 10
255.933854
 20
236.9758589999999
 30
0.0
 40
31.64269099999999
100
AcDbArc
 50
56.900729
 51
15.099271
  0
ARC
  5
A5F2
330
A338
100
AcDbEntity
  8
1
  6
Continuous
100
AcDbCircle
 10
669.81764
 20
236.9758589999999
 30
0.0
 40
31.64269099999999
100
AcDbArc
 50
164.900729
 51
123.0992709999998
  0
ARC
  5
A5F3
330
A338
100
AcDbEntity
  8
1
  6
Continuous
100
AcDbCircle
 10
255.933854
 20
236.9758589999999
 30
0.0
 40
55.0
100
AcDbArc
 50
52.85268399999999
 51
23.259355
  0
ARC
  5
A5F4
330
A338
100
AcDbEntity
  8
1
  6
Continuous
100
AcDbCircle
 10
255.933854
 20
236.9758589999999
 30
0.0
 40
58.5
100
AcDbArc
 50
54.175155
 51
23.986688
  0
ARC
  5
A5F5
330
A338
100
AcDbEntity
  8
1
  6
Continuous
100
AcDbCircle
 10
669.81764
 20
236.9758589999999
 30
0.0
 40
55.0
100
AcDbArc
 50
156.740645
 51
127.1473159999999
  0
LINE
  5
A5F6
330
A338
100
AcDbEntity
  8
1
  6
Continuous
100
AcDbLine
 10
270.6592979999999
 20
512.62626
 30
0.0
 11
304.6914399999999
 21
509.195258
 31
0.0
  0
ARC
  5
A5F7
330
A338
100
AcDbEntity
  8
1
  6
Continuous
100
AcDbCircle
 10
280.1540489999999
 20
436.3067159999998
 30
0.0
 40
77.195079
100
AcDbArc
 50
98.98809100000001
 51
103.078943
  0
ARC
  5
A5F8
330
A338
100
AcDbEntity
  8
1
  6
Continuous
100
AcDbCircle
 10
303.6883599999999
 20
499.245694
 30
0.0
 40
10.0
100
AcDbArc
 50
69.49809000000001
 51
84.24308999999999
  0
ARC
  5
A5F9
330
A338
100
AcDbEntity
  8
1
  6
Continuous
100
AcDbCircle
 10
269.656218
 20
502.6766959999998
 30
0.0
 40
10.0
100
AcDbArc
 50
84.24308999999999
 51
98.98809100000001
  0
LINE
  5
A5FA
330
A338
100
AcDbEntity
  8
1
  6
Continuous
100
AcDbLine
 10
298.7462680000001
 20
504.551908
 30
0.0
 11
275.6261529999998
 21
509.084949
 31
0.0
  0
LINE
  5
A5FB
330
A338
100
AcDbEntity
  8
1
  6
Continuous
100
AcDbLine
 10
298.7462680000001
 20
504.551908
 30
0.0
 11
271.04847
 21
507.448236
 31
0.0
  0
ARC
  5
A5FC
330
A338
100
AcDbEntity
  8
1
  6
Continuous
100
AcDbCircle
 10
249.622948
 20
405.878514
 30
0.0
 40
57.72316800000001
100
AcDbArc
 50
76.92105699999998
 51
90.0
  0
ARC
  5
A5FD
330
A338
100
AcDbEntity
  8
1
  6
Continuous
100
AcDbCircle
 10
280.1540489999999
 20
537.296874
 30
0.0
 40
77.195079
100
AcDbArc
 50
256.9210569999999
 51
261.0119089999999
  0
ARC
  5
A5FE
330
A338
100
AcDbEntity
  8
1
  6
Continuous
100
AcDbCircle
 10
269.656218
 20
470.926895
 30
0.0
 40
10.0
100
AcDbArc
 50
261.0119089999999
 51
275.7569099999999
  0
LINE
  5
A5FF
330
A338
100
AcDbEntity
  8
1
  6
Continuous
100
AcDbLine
 10
270.6592979999999
 20
460.9773299999998
 30
0.0
 11
304.6914399999999
 21
464.4083329999999
 31
0.0
  0
ARC
  5
A600
330
A338
100
AcDbEntity
  8
1
  6
Continuous
100
AcDbCircle
 10
303.6883599999999
 20
474.3578969999998
 30
0.0
 40
10.0
100
AcDbArc
 50
275.7569099999999
 51
290.50191
  0
LINE
  5
A601
330
A338
100
AcDbEntity
  8
1
  6
Continuous
100
AcDbLine
 10
298.7462680000001
 20
469.051682
 30
0.0
 11
275.6261529999998
 21
464.5186409999998
 31
0.0
  0
LINE
  5
A602
330
A338
100
AcDbEntity
  8
1
  6
Continuous
100
AcDbLine
 10
298.7462680000001
 20
469.051682
 30
0.0
 11
271.04847
 21
466.1553539999998
 31
0.0
  0
ARC
  5
A603
330
A338
100
AcDbEntity
  8
1
  6
Continuous
100
AcDbCircle
 10
266.1834779999999
 20
512.6796299999998
 30
0.0
 40
46.777948
100
AcDbArc
 50
270.0
 51
275.9696609999999
  0
ARC
  5
A604
330
A338
100
AcDbEntity
  8
1
  6
Continuous
100
AcDbCircle
 10
266.1834779999999
 20
512.6796299999998
 30
0.0
 40
49.077948
100
AcDbArc
 50
270.0
 51
281.0929719999999
  0
LINE
  5
A605
330
A338
100
AcDbEntity
  8
1
  6
Continuous
100
AcDbLine
 10
266.1834779999999
 20
463.601682
 30
0.0
 11
245.6834779999998
 21
463.601682
 31
0.0
  0
LINE
  5
A606
330
A338
100
AcDbEntity
  8
1
  6
Continuous
100
AcDbLine
 10
266.1834779999999
 20
465.9016819999997
 30
0.0
 11
245.6834779999998
 21
465.9016819999997
 31
0.0
  0
ARC
  5
A607
330
A338
100
AcDbEntity
  8
1
  6
Continuous
100
AcDbCircle
 10
280.1540489999999
 20
537.296874
 30
0.0
 40
77.195079
100
AcDbArc
 50
290.50191
 51
297.045834
  0
ARC
  5
A608
330
A338
100
AcDbEntity
  8
1
  6
Continuous
100
AcDbCircle
 10
249.623324
 20
158.049922
 30
0.0
 40
57.72316800000001
100
AcDbArc
 50
270.0
 51
283.0789429999999
  0
ARC
  5
A609
330
A338
100
AcDbEntity
  8
1
  6
Continuous
100
AcDbCircle
 10
280.154425
 20
26.63156199999999
 30
0.0
 40
77.195079
100
AcDbArc
 50
98.98809100000001
 51
103.078943
  0
ARC
  5
A60A
330
A338
100
AcDbEntity
  8
1
  6
Continuous
100
AcDbCircle
 10
269.6565939999999
 20
93.00154199999999
 30
0.0
 40
10.0
100
AcDbArc
 50
84.24308999999999
 51
98.98809100000001
  0
LINE
  5
A60B
330
A338
100
AcDbEntity
  8
1
  6
Continuous
100
AcDbLine
 10
270.659674
 20
102.951106
 30
0.0
 11
304.691816
 21
99.520104
 31
0.0
  0
ARC
  5
A60C
330
A338
100
AcDbEntity
  8
1
  6
Continuous
100
AcDbCircle
 10
303.688736
 20
89.57053899999998
 30
0.0
 40
10.0
100
AcDbArc
 50
69.49809000000001
 51
84.24308999999999
  0
ARC
  5
A60D
330
A338
100
AcDbEntity
  8
1
  6
Continuous
100
AcDbCircle
 10
280.154425
 20
26.63156199999999
 30
0.0
 40
77.195079
100
AcDbArc
 50
62.954166
 51
69.49809000000001
  0
ARC
  5
A60E
330
A338
100
AcDbEntity
  8
1
  6
Continuous
100
AcDbCircle
 10
305.933854
 20
77.12664100000002
 30
0.0
 40
20.5
100
AcDbArc
 50
297.0462239999998
 51
329.632988
  0
ARC
  5
A60F
330
A338
100
AcDbEntity
  8
1
  6
Continuous
100
AcDbCircle
 10
280.154425
 20
127.62172
 30
0.0
 40
77.195079
100
AcDbArc
 50
290.50191
 51
297.045834
  0
LINE
  5
A610
330
A338
100
AcDbEntity
  8
1
  6
Continuous
100
AcDbLine
 10
270.659674
 20
51.302176
 30
0.0
 11
304.691816
 21
54.73317900000001
 31
0.0
  0
ARC
  5
A611
330
A338
100
AcDbEntity
  8
1
  6
Continuous
100
AcDbCircle
 10
303.688736
 20
64.682743
 30
0.0
 40
10.0
100
AcDbArc
 50
275.7569099999999
 51
290.50191
  0
ARC
  5
A612
330
A338
100
AcDbEntity
  8
1
  6
Continuous
100
AcDbCircle
 10
269.6565939999999
 20
61.251741
 30
0.0
 40
10.0
100
AcDbArc
 50
261.0119089999999
 51
275.7569099999999
  0
ARC
  5
A613
330
A338
100
AcDbEntity
  8
1
  6
Continuous
100
AcDbCircle
 10
280.154425
 20
127.62172
 30
0.0
 40
77.195079
100
AcDbArc
 50
256.9210569999999
 51
261.0119089999999
  0
ARC
  5
A614
330
A338
100
AcDbEntity
  8
1
  6
Continuous
100
AcDbCircle
 10
249.623324
 20
-3.79664
 30
0.0
 40
57.72316800000001
100
AcDbArc
 50
76.92105699999998
 51
90.0
  0
ARC
  5
A615
330
A338
100
AcDbEntity
  8
1
  6
Continuous
100
AcDbCircle
 10
305.933854
 20
77.12664100000002
 30
0.0
 40
18.2
100
AcDbArc
 50
217.185363
 51
322.861104
  0
ARC
  5
A616
330
A338
100
AcDbEntity
  8
1
  6
Continuous
100
AcDbCircle
 10
305.933854
 20
77.12664100000002
 30
0.0
 40
20.5
100
AcDbArc
 50
30.36701199999999
 51
62.954166
  0
ARC
  5
A617
330
A338
100
AcDbEntity
  8
1
  6
Continuous
100
AcDbCircle
 10
305.933854
 20
77.12664100000002
 30
0.0
 40
18.2
100
AcDbArc
 50
37.138896
 51
67.380135
  0
ARC
  5
A618
330
A338
100
AcDbEntity
  8
1
  6
Continuous
100
AcDbCircle
 10
274.3241319999999
 20
-57.58730599999999
 30
0.0
 40
158.353498
100
AcDbArc
 50
75.020139
 51
92.49008600000001
  0
ARC
  5
A619
330
A338
100
AcDbEntity
  8
1
  6
Continuous
100
AcDbCircle
 10
277.942451
 20
-28.43815499999999
 30
0.0
 40
127.2695619999999
100
AcDbArc
 50
74.04160400000002
 51
94.72520400000002
  0
ARC
  5
A61A
330
A338
100
AcDbEntity
  8
1
  6
Continuous
100
AcDbCircle
 10
305.933854
 20
77.12664100000002
 30
0.0
 40
18.2
100
AcDbArc
 50
82.91844000000002
 51
142.814637
  0
ARC
  5
A61B
330
A338
100
AcDbEntity
  8
1
  6
Continuous
100
AcDbCircle
 10
277.942451
 20
182.691437
 30
0.0
 40
127.2695619999999
100
AcDbArc
 50
265.2747959999999
 51
285.958396
  0
ARC
  5
A61C
330
A338
100
AcDbEntity
  8
1
  6
Continuous
100
AcDbCircle
 10
274.3241319999999
 20
211.840588
 30
0.0
 40
158.353498
100
AcDbArc
 50
267.5099139999999
 51
284.9798609999999
  0
ENDSEC
  0
SECTION
  2
OBJECTS
  0
DICTIONARY
  5
A326
330
0
100
AcDbDictionary
281
     1
  3
ACAD_CIP_PREVIOUS_PRODUCT_INFO
350
A67E
  3
ACAD_COLOR
350
A660
  3
ACAD_DETAILVIEWSTYLE
350
A679
  3
ACAD_GROUP
350
A327
  3
ACAD_LAYOUT
350
A333
  3
ACAD_MATERIAL
350
A62E
  3
ACAD_MLEADERSTYLE
350
A675
  3
ACAD_MLINESTYLE
350
A330
  3
ACAD_PLOTSETTINGS
350
A332
  3
ACAD_PLOTSTYLENAME
350
A62C
  3
ACAD_SCALELIST
350
A663
  3
ACAD_SECTIONVIEWSTYLE
350
A677
  3
ACAD_TABLESTYLE
350
A661
  3
ACAD_VISUALSTYLE
350
A647
  3
ACDB_RECOMPOSE_DATA
350
A69C
  3
AcDbVariableDictionary
350
A68F
  3
DWGPROPS
350
A69D
  0
DICTIONARY
  5
A67F
330
A32A
100
AcDbDictionary
280
     1
281
     1
  3
ADSK_XREC_LAYER_RECONCILED
360
A680
  0
DICTIONARY
  5
A681
330
A340
100
AcDbDictionary
280
     1
281
     1
  3
ADSK_XREC_LAYER_RECONCILED
360
A682
  0
DICTIONARY
  5
A683
330
A341
100
AcDbDictionary
280
     1
281
     1
  3
ADSK_XREC_LAYER_RECONCILED
360
A684
  0
DICTIONARY
  5
A685
330
A342
100
AcDbDictionary
280
     1
281
     1
  3
ADSK_XREC_LAYER_RECONCILED
360
A686
  0
DICTIONARY
  5
A687
330
A343
100
AcDbDictionary
280
     1
281
     1
  3
ADSK_XREC_LAYER_RECONCILED
360
A688
  0
DICTIONARY
  5
A689
330
A344
100
AcDbDictionary
280
     1
281
     1
  3
ADSK_XREC_LAYER_RECONCILED
360
A68A
  0
DICTIONARY
  5
A68B
330
A345
100
AcDbDictionary
280
     1
281
     1
  3
ADSK_XREC_LAYER_RECONCILED
360
A68C
  0
DICTIONARY
  5
A68D
330
A346
100
AcDbDictionary
280
     1
281
     1
  3
ADSK_XREC_LAYER_RECONCILED
360
A68E
  0
DICTIONARY
  5
A627
330
A338
100
AcDbDictionary
281
     1
  3
ACAD_LAYOUTSELFREF
350
A628
  0
DICTIONARY
  5
A625
330
A334
100
AcDbDictionary
281
     1
  3
ACAD_LAYOUTSELFREF
350
A626
  0
XRECORD
  5
A67E
102
{ACAD_REACTORS
330
A326
102
}
330
A326
100
AcDbXrecord
280
     1
300
ACDLT
300
2014
300
ACDLT_F_S
  0
DICTIONARY
  5
A660
102
{ACAD_REACTORS
330
A326
102
}
330
A326
100
AcDbDictionary
281
     1
  0
DICTIONARY
  5
A679
102
{ACAD_REACTORS
330
A326
102
}
330
A326
100
AcDbDictionary
281
     1
  3
Imperial24
350
A67A
  0
DICTIONARY
  5
A327
102
{ACAD_REACTORS
330
A326
102
}
330
A326
100
AcDbDictionary
281
     1
  0
DICTIONARY
  5
A333
102
{ACAD_REACTORS
330
A326
102
}
330
A326
100
AcDbDictionary
281
     1
  3
Model
350
A67B
  3
レイアウト1
350
A67C
  0
DICTIONARY
  5
A62E
102
{ACAD_REACTORS
330
A326
102
}
330
A326
100
AcDbDictionary
281
     1
  3
ByBlock
350
A637
  3
ByLayer
350
A62F
  3
Global
350
A63F
  0
DICTIONARY
  5
A675
102
{ACAD_REACTORS
330
A326
102
}
330
A326
100
AcDbDictionary
281
     1
  3
Standard
350
A676
  0
DICTIONARY
  5
A330
102
{ACAD_REACTORS
330
A326
102
}
330
A326
100
AcDbDictionary
281
     1
  3
STANDARD
350
A331
  0
DICTIONARY
  5
A332
102
{ACAD_REACTORS
330
A326
102
}
330
A326
100
AcDbDictionary
281
     1
  0
ACDBDICTIONARYWDFLT
  5
A62C
102
{ACAD_REACTORS
330
A326
102
}
330
A326
100
AcDbDictionary
281
     1
  3
Normal
350
A62D
100
AcDbDictionaryWithDefault
340
A62D
  0
DICTIONARY
  5
A663
102
{ACAD_REACTORS
330
A326
102
}
330
A326
100
AcDbDictionary
281
     1
  3
A0
350
A664
  3
A1
350
A665
  3
A2
350
A666
  3
A3
350
A667
  3
A4
350
A668
  3
A5
350
A669
  3
A6
350
A66A
  3
A7
350
A66B
  3
A8
350
A66C
  3
A9
350
A66D
  3
B0
350
A66E
  3
B1
350
A66F
  3
B2
350
A670
  3
B3
350
A671
  3
B4
350
A672
  3
B5
350
A673
  3
B6
350
A674
  0
DICTIONARY
  5
A677
102
{ACAD_REACTORS
330
A326
102
}
330
A326
100
AcDbDictionary
281
     1
  3
Imperial24
350
A678
  0
DICTIONARY
  5
A661
102
{ACAD_REACTORS
330
A326
102
}
330
A326
100
AcDbDictionary
281
     1
  3
Standard
350
A662
  0
DICTIONARY
  5
A647
102
{ACAD_REACTORS
330
A326
102
}
330
A326
100
AcDbDictionary
281
     1
  3
2dWireframe
350
A64D
  3
Basic
350
A64C
  3
Brighten
350
A653
  3
ColorChange
350
A657
  3
Conceptual
350
A650
  3
Dim
350
A652
  3
EdgeColorOff
350
A65F
  3
Facepattern
350
A656
  3
Flat
350
A648
  3
FlatWithEdges
350
A649
  3
Gouraud
350
A64A
  3
GouraudWithEdges
350
A64B
  3
Hidden
350
A64F
  3
JitterOff
350
A65D
  3
Linepattern
350
A655
  3
OverhangOff
350
A65E
  3
Realistic
350
A651
  3
Shaded
350
A65C
  3
Shaded with edges
350
A65B
  3
Shades of Gray
350
A658
  3
Sketchy
350
A659
  3
Thicken
350
A654
  3
Wireframe
350
A64E
  3
X-Ray
350
A65A
  0
XRECORD
  5
A69C
102
{ACAD_REACTORS
330
A326
102
}
330
A326
100
AcDbXrecord
280
     1
 90
        1
330
A662
  0
DICTIONARY
  5
A68F
102
{ACAD_REACTORS
330
A326
102
}
330
A326
100
AcDbDictionary
281
     1
  3
CANNOSCALE
350
A694
  3
CMLEADERSTYLE
350
A691
  3
CTABLESTYLE
350
A690
  3
CVIEWDETAILSTYLE
350
A692
  3
CVIEWSECTIONSTYLE
350
A693
  3
DIMASSOC
350
A697
  3
INDEXCTL
350
A696
  3
SORTENTS
350
A695
  3
XCLIPFRAME
350
A698
  0
XRECORD
  5
A69D
102
{ACAD_REACTORS
330
A326
102
}
330
A326
100
AcDbXrecord
280
     1
  1
DWGPROPS COOKIE
  2

  3

  4

  6

  7

  8
Yoshitsune
  9

300
=
301
=
302
=
303
=
304
=
305
=
306
=
307
=
308
=
309
=
 40
0.0000654050925926
 41
2451301.719763542
 42
2457618.72409551
  1

 90
        0
  0
XRECORD
  5
A680
102
{ACAD_REACTORS
330
A67F
102
}
330
A67F
100
AcDbXrecord
280
     1
290
     1
  0
XRECORD
  5
A682
102
{ACAD_REACTORS
330
A681
102
}
330
A681
100
AcDbXrecord
280
     1
290
     1
  0
XRECORD
  5
A684
102
{ACAD_REACTORS
330
A683
102
}
330
A683
100
AcDbXrecord
280
     1
290
     1
  0
XRECORD
  5
A686
102
{ACAD_REACTORS
330
A685
102
}
330
A685
100
AcDbXrecord
280
     1
290
     1
  0
XRECORD
  5
A688
102
{ACAD_REACTORS
330
A687
102
}
330
A687
100
AcDbXrecord
280
     1
290
     1
  0
XRECORD
  5
A68A
102
{ACAD_REACTORS
330
A689
102
}
330
A689
100
AcDbXrecord
280
     1
290
     1
  0
XRECORD
  5
A68C
102
{ACAD_REACTORS
330
A68B
102
}
330
A68B
100
AcDbXrecord
280
     1
290
     1
  0
XRECORD
  5
A68E
102
{ACAD_REACTORS
330
A68D
102
}
330
A68D
100
AcDbXrecord
280
     1
290
     1
  0
XRECORD
  5
A628
102
{ACAD_REACTORS
330
A627
102
}
330
A627
100
AcDbXrecord
280
     1
340
A338
  0
XRECORD
  5
A626
102
{ACAD_REACTORS
330
A625
102
}
330
A625
100
AcDbXrecord
280
     1
340
A334
  0
ACDBDETAILVIEWSTYLE
  5
A67A
102
{ACAD_XDICTIONARY
360
A6D5
102
}
102
{ACAD_REACTORS
330
A679
102
}
330
A679
100
AcDbModelDocViewStyle
 70
     0
  3
Imperial24
290
     0
100
AcDbDetailViewStyle
 70
     0
 71
     0
 90
        3
 71
     1
340
A32B
 40
0.24
340
0
 40
0.24
300

 40
0.36
280
     3
 71
     2
340
A32F
 90
       25
 71
     3
340
A32B
 40
0.24
 90
        1
 40
0.75
 90
        1
300
%<\AcVar ViewType \f "%tc1">% %<\AcVar ViewDetailId>%\PSCALE %<\AcVar ViewScale \f "%sn">%
 71
     4
340
A32F
 90
       25
340
A32F
 90
       25
280
     0
  0
LAYOUT
  5
A67B
102
{ACAD_XDICTIONARY
360
A6D7
102
}
102
{ACAD_REACTORS
330
A333
102
}
330
A333
100
AcDbPlotSettings
  1

  2
Canon LBP9100C
  4

  6

 40
0.0
 41
0.0
 42
0.0
 43
0.0
 44
0.0
 45
0.0
 46
0.0
 47
0.0
 48
0.0
 49
0.0
140
0.0
141
0.0
142
1.0
143
1.0
 70
  1712
 72
     0
 73
     0
 74
     0
  7

 75
     0
147
1.0
148
0.0
149
0.0
100
AcDbLayout
  1
Model
 70
     1
 71
     0
 10
0.0
 20
0.0
 11
12.0
 21
9.0
 12
0.0
 22
0.0
 32
0.0
 14
0.0
 24
0.0
 34
0.0
 15
0.0
 25
0.0
 35
0.0
146
0.0
 13
0.0
 23
0.0
 33
0.0
 16
1.0
 26
0.0
 36
0.0
 17
0.0
 27
1.0
 37
0.0
 76
     0
330
A338
331
A624
  0
LAYOUT
  5
A67C
102
{ACAD_XDICTIONARY
360
A6D9
102
}
102
{ACAD_REACTORS
330
A333
102
}
330
A333
100
AcDbPlotSettings
  1

  2
Canon LBP9100C
  4

  6

 40
0.0
 41
0.0
 42
0.0
 43
0.0
 44
0.0
 45
0.0
 46
0.0
 47
0.0
 48
0.0
 49
0.0
140
0.0
141
0.0
142
1.0
143
1.0
 70
   688
 72
     0
 73
     0
 74
     5
  7

 75
    16
147
1.0
148
0.0
149
0.0
100
AcDbLayout
  1
レイアウト1
 70
     0
 71
     1
 10
0.0
 20
0.0
 11
420.0
 21
297.0
 12
0.0
 22
0.0
 32
0.0
 14
1.000000000000000E+20
 24
1.000000000000000E+20
 34
1.000000000000000E+20
 15
-1.000000000000000E+20
 25
-1.000000000000000E+20
 35
-1.000000000000000E+20
146
0.0
 13
0.0
 23
0.0
 33
0.0
 16
1.0
 26
0.0
 36
0.0
 17
0.0
 27
1.0
 37
0.0
 76
     0
330
A334
  0
MATERIAL
  5
A637
102
{ACAD_XDICTIONARY
360
A638
102
}
102
{ACAD_REACTORS
330
A62E
102
}
330
A62E
100
AcDbMaterial
  1
ByBlock
 72
     0
 43
0.0208333333333333
 43
0.0
 43
0.0
 43
0.0
 43
0.0
 43
0.0208333333333333
 43
0.0
 43
0.0
 43
0.0
 43
0.0
 43
1.0
 43
0.0
 43
0.0
 43
0.0
 43
0.0
 43
1.0
 77
     0
 47
0.0208333333333333
 47
0.0
 47
0.0
 47
0.0
 47
0.0
 47
0.0208333333333333
 47
0.0
 47
0.0
 47
0.0
 47
0.0
 47
1.0
 47
0.0
 47
0.0
 47
0.0
 47
0.0
 47
1.0
171
     0
 49
0.0208333333333333
 49
0.0
 49
0.0
 49
0.0
 49
0.0
 49
0.0208333333333333
 49
0.0
 49
0.0
 49
0.0
 49
0.0
 49
1.0
 49
0.0
 49
0.0
 49
0.0
 49
0.0
 49
1.0
175
     0
142
0.0208333333333333
142
0.0
142
0.0
142
0.0
142
0.0
142
0.0208333333333333
142
0.0
142
0.0
142
0.0
142
0.0
142
1.0
142
0.0
142
0.0
142
0.0
142
0.0
142
1.0
179
     0
144
0.0208333333333333
144
0.0
144
0.0
144
0.0
144
0.0
144
0.0208333333333333
144
0.0
144
0.0
144
0.0
144
0.0
144
1.0
144
0.0
144
0.0
144
0.0
144
0.0
144
1.0
147
0.0208333333333333
147
0.0
147
0.0
147
0.0
147
0.0
147
0.0208333333333333
147
0.0
147
0.0
147
0.0
147
0.0
147
1.0
147
0.0
147
0.0
147
0.0
147
0.0
147
1.0
  0
MATERIAL
  5
A62F
102
{ACAD_XDICTIONARY
360
A630
102
}
102
{ACAD_REACTORS
330
A62E
102
}
330
A62E
100
AcDbMaterial
  1
ByLayer
 72
     0
 43
0.0208333333333333
 43
0.0
 43
0.0
 43
0.0
 43
0.0
 43
0.0208333333333333
 43
0.0
 43
0.0
 43
0.0
 43
0.0
 43
1.0
 43
0.0
 43
0.0
 43
0.0
 43
0.0
 43
1.0
 77
     0
 47
0.0208333333333333
 47
0.0
 47
0.0
 47
0.0
 47
0.0
 47
0.0208333333333333
 47
0.0
 47
0.0
 47
0.0
 47
0.0
 47
1.0
 47
0.0
 47
0.0
 47
0.0
 47
0.0
 47
1.0
171
     0
 49
0.0208333333333333
 49
0.0
 49
0.0
 49
0.0
 49
0.0
 49
0.0208333333333333
 49
0.0
 49
0.0
 49
0.0
 49
0.0
 49
1.0
 49
0.0
 49
0.0
 49
0.0
 49
0.0
 49
1.0
175
     0
142
0.0208333333333333
142
0.0
142
0.0
142
0.0
142
0.0
142
0.0208333333333333
142
0.0
142
0.0
142
0.0
142
0.0
142
1.0
142
0.0
142
0.0
142
0.0
142
0.0
142
1.0
179
     0
144
0.0208333333333333
144
0.0
144
0.0
144
0.0
144
0.0
144
0.0208333333333333
144
0.0
144
0.0
144
0.0
144
0.0
144
1.0
144
0.0
144
0.0
144
0.0
144
0.0
144
1.0
147
0.0208333333333333
147
0.0
147
0.0
147
0.0
147
0.0
147
0.0208333333333333
147
0.0
147
0.0
147
0.0
147
0.0
147
1.0
147
0.0
147
0.0
147
0.0
147
0.0
147
1.0
  0
MATERIAL
  5
A63F
102
{ACAD_XDICTIONARY
360
A640
102
}
102
{ACAD_REACTORS
330
A62E
102
}
330
A62E
100
AcDbMaterial
  1
Global
 72
     0
 43
0.0208333333333333
 43
0.0
 43
0.0
 43
0.0
 43
0.0
 43
0.0208333333333333
 43
0.0
 43
0.0
 43
0.0
 43
0.0
 43
1.0
 43
0.0
 43
0.0
 43
0.0
 43
0.0
 43
1.0
 77
     0
 47
0.0208333333333333
 47
0.0
 47
0.0
 47
0.0
 47
0.0
 47
0.0208333333333333
 47
0.0
 47
0.0
 47
0.0
 47
0.0
 47
1.0
 47
0.0
 47
0.0
 47
0.0
 47
0.0
 47
1.0
171
     0
 49
0.0208333333333333
 49
0.0
 49
0.0
 49
0.0
 49
0.0
 49
0.0208333333333333
 49
0.0
 49
0.0
 49
0.0
 49
0.0
 49
1.0
 49
0.0
 49
0.0
 49
0.0
 49
0.0
 49
1.0
175
     0
142
0.0208333333333333
142
0.0
142
0.0
142
0.0
142
0.0
142
0.0208333333333333
142
0.0
142
0.0
142
0.0
142
0.0
142
1.0
142
0.0
142
0.0
142
0.0
142
0.0
142
1.0
179
     0
144
0.0208333333333333
144
0.0
144
0.0
144
0.0
144
0.0
144
0.0208333333333333
144
0.0
144
0.0
144
0.0
144
0.0
144
1.0
144
0.0
144
0.0
144
0.0
144
0.0
144
1.0
147
0.0208333333333333
147
0.0
147
0.0
147
0.0
147
0.0
147
0.0208333333333333
147
0.0
147
0.0
147
0.0
147
0.0
147
1.0
147
0.0
147
0.0
147
0.0
147
0.0
147
1.0
  0
MLEADERSTYLE
  5
A676
102
{ACAD_REACTORS
330
A675
102
}
330
A675
100
AcDbMLeaderStyle
170
     2
171
     1
172
     0
 90
        2
 40
0.0
 41
0.0
173
     1
 91
-1056964608
340
A32D
 92
       -2
290
     1
 42
0.09
291
     1
 43
0.36
  3
Standard
 44
0.18
300

342
A32B
174
     1
178
     6
175
     1
176
     0
 93
-1056964608
 45
0.18
292
     0
297
     0
 46
0.18
 94
-1056964608
 47
1.0
 49
1.0
140
1.0
293
     1
141
0.0
294
     1
177
     0
142
1.0
295
     0
296
     0
143
0.125
1001
ACAD_MLEADERVER
1070
     2
  0
MLINESTYLE
  5
A331
102
{ACAD_REACTORS
330
A330
102
}
330
A330
100
AcDbMlineStyle
  2
STANDARD
 70
     0
  3

 62
   256
 51
90.0
 52
90.0
 71
     2
 49
0.5
 62
   256
  6
BYLAYER
 49
-0.5
 62
   256
  6
BYLAYER
  0
ACDBPLACEHOLDER
  5
A62D
102
{ACAD_REACTORS
330
A62C
102
}
330
A62C
  0
SCALE
  5
A664
102
{ACAD_REACTORS
330
A663
102
}
330
A663
100
AcDbScale
 70
     0
300
1:1
140
1.0
141
1.0
290
     1
  0
SCALE
  5
A665
102
{ACAD_REACTORS
330
A663
102
}
330
A663
100
AcDbScale
 70
     0
300
1/128" = 1'-0"
140
0.0078125
141
12.0
290
     0
  0
SCALE
  5
A666
102
{ACAD_REACTORS
330
A663
102
}
330
A663
100
AcDbScale
 70
     0
300
1/64" = 1'-0"
140
0.015625
141
12.0
290
     0
  0
SCALE
  5
A667
102
{ACAD_REACTORS
330
A663
102
}
330
A663
100
AcDbScale
 70
     0
300
1/32" = 1'-0"
140
0.03125
141
12.0
290
     0
  0
SCALE
  5
A668
102
{ACAD_REACTORS
330
A663
102
}
330
A663
100
AcDbScale
 70
     0
300
1/16" = 1'-0"
140
0.0625
141
12.0
290
     0
  0
SCALE
  5
A669
102
{ACAD_REACTORS
330
A663
102
}
330
A663
100
AcDbScale
 70
     0
300
3/32" = 1'-0"
140
0.09375
141
12.0
290
     0
  0
SCALE
  5
A66A
102
{ACAD_REACTORS
330
A663
102
}
330
A663
100
AcDbScale
 70
     0
300
1/8" = 1'-0"
140
0.125
141
12.0
290
     0
  0
SCALE
  5
A66B
102
{ACAD_REACTORS
330
A663
102
}
330
A663
100
AcDbScale
 70
     0
300
3/16" = 1'-0"
140
0.1875
141
12.0
290
     0
  0
SCALE
  5
A66C
102
{ACAD_REACTORS
330
A663
102
}
330
A663
100
AcDbScale
 70
     0
300
1/4" = 1'-0"
140
0.25
141
12.0
290
     0
  0
SCALE
  5
A66D
102
{ACAD_REACTORS
330
A663
102
}
330
A663
100
AcDbScale
 70
     0
300
3/8" = 1'-0"
140
0.375
141
12.0
290
     0
  0
SCALE
  5
A66E
102
{ACAD_REACTORS
330
A663
102
}
330
A663
100
AcDbScale
 70
     0
300
1/2" = 1'-0"
140
0.5
141
12.0
290
     0
  0
SCALE
  5
A66F
102
{ACAD_REACTORS
330
A663
102
}
330
A663
100
AcDbScale
 70
     0
300
3/4" = 1'-0"
140
0.75
141
12.0
290
     0
  0
SCALE
  5
A670
102
{ACAD_REACTORS
330
A663
102
}
330
A663
100
AcDbScale
 70
     0
300
1" = 1'-0"
140
1.0
141
12.0
290
     0
  0
SCALE
  5
A671
102
{ACAD_REACTORS
330
A663
102
}
330
A663
100
AcDbScale
 70
     0
300
1-1/2" = 1'-0"
140
1.5
141
12.0
290
     0
  0
SCALE
  5
A672
102
{ACAD_REACTORS
330
A663
102
}
330
A663
100
AcDbScale
 70
     0
300
3" = 1'-0"
140
3.0
141
12.0
290
     0
  0
SCALE
  5
A673
102
{ACAD_REACTORS
330
A663
102
}
330
A663
100
AcDbScale
 70
     0
300
6" = 1'-0"
140
6.0
141
12.0
290
     0
  0
SCALE
  5
A674
102
{ACAD_REACTORS
330
A663
102
}
330
A663
100
AcDbScale
 70
     0
300
1'-0" = 1'-0"
140
12.0
141
12.0
290
     0
  0
ACDBSECTIONVIEWSTYLE
  5
A678
102
{ACAD_XDICTIONARY
360
A6D3
102
}
102
{ACAD_REACTORS
330
A677
102
}
330
A677
100
AcDbModelDocViewStyle
 70
     0
  3
Imperial24
290
     0
100
AcDbSectionViewStyle
 70
     0
 71
     0
 90
       78
 71
     1
340
A32B
 40
0.24
340
0
340
0
 40
0.24
300
I, O, Q, S, X, Z
 40
0.48
 90
        3
 40
0.18
 90
        1
 71
     2
340
A32F
 90
       25
340
A32F
 90
       50
 40
0.24
 40
0.0
 40
0.24
 71
     3
340
A32B
 40
0.24
 90
        1
 40
0.75
 90
        1
300
%<\AcVar ViewType \f "%tc1">% %<\AcVar ViewSectionStartId>%-%<\AcVar ViewSectionEndId>%\PSCALE %<\AcVar ViewScale \f "%sn">%
 71
     4
300
ANSI31
 40
1.0
 90
        0
290
     0
290
     0
 90
        6
 40
0.0
 40
1.570796326794896
 40
0.2617993877991494
 40
1.308996938995747
 40
-0.2617993877991494
 40
1.832595714594046
  0
TABLESTYLE
  5
A662
102
{ACAD_XDICTIONARY
360
A69A
102
}
102
{ACAD_REACTORS
330
A661
102
}
330
A661
100
AcDbTableStyle
  3
Standard
 70
     0
 71
     0
 40
0.06
 41
0.06
280
     0
281
     0
  7
STANDARD
140
0.18
170
     2
 62
     0
 63
     7
283
     0
274
    -2
284
     1
 64
     0
275
    -2
285
     1
 65
     0
276
    -2
286
     1
 66
     0
277
    -2
287
     1
 67
     0
278
    -2
288
     1
 68
     0
279
    -2
289
     1
 69
     0
  7
STANDARD
140
0.25
170
     5
 62
     0
 63
     7
283
     0
274
    -2
284
     1
 64
     0
275
    -2
285
     1
 65
     0
276
    -2
286
     1
 66
     0
277
    -2
287
     1
 67
     0
278
    -2
288
     1
 68
     0
279
    -2
289
     1
 69
     0
  7
STANDARD
140
0.18
170
     5
 62
     0
 63
     7
283
     0
274
    -2
284
     1
 64
     0
275
    -2
285
     1
 65
     0
276
    -2
286
     1
 66
     0
277
    -2
287
     1
 67
     0
278
    -2
288
     1
 68
     0
279
    -2
289
     1
 69
     0
  0
VISUALSTYLE
  5
A64D
102
{ACAD_XDICTIONARY
360
A6AB
102
}
102
{ACAD_REACTORS
330
A647
102
}
330
A647
100
AcDbVisualStyle
  2
2dWireframe
 70
     4
 71
     0
 72
     2
 73
     0
 90
        0
 40
-0.6
 41
-30.0
 62
     5
 63
     7
 74
     1
 91
        4
 64
     7
 65
   257
 75
     1
175
     1
 42
1.0
 92
        0
 66
   257
 43
1.0
 76
     1
 77
     6
 78
     2
 67
     7
 79
     5
170
     0
171
     0
290
     0
174
     0
 93
        1
 44
0.0
173
     0
291
     0
 45
0.0
1001
ACAD
1000
AcDbSavedByObjectVersion
1070
     0
  0
VISUALSTYLE
  5
A64C
102
{ACAD_XDICTIONARY
360
A6A9
102
}
102
{ACAD_REACTORS
330
A647
102
}
330
A647
100
AcDbVisualStyle
  2
Basic
 70
     7
 71
     1
 72
     0
 73
     1
 90
        0
 40
-0.6
 41
-30.0
 62
     5
 63
     7
 74
     0
 91
        4
 64
     7
 65
   257
 75
     1
175
     1
 42
1.0
 92
        8
 66
     7
 43
1.0
 76
     1
 77
     6
 78
     2
 67
     7
 79
     5
170
     0
171
     0
290
     0
174
     0
 93
        1
 44
0.0
173
     0
291
     1
 45
0.0
1001
ACAD
1000
AcDbSavedByObjectVersion
1070
     0
  0
VISUALSTYLE
  5
A653
102
{ACAD_XDICTIONARY
360
A6B7
102
}
102
{ACAD_REACTORS
330
A647
102
}
330
A647
100
AcDbVisualStyle
  2
Brighten
 70
    12
 71
     2
 72
     2
 73
     0
 90
        0
 40
-0.6
 41
-30.0
 62
     5
 63
     7
 74
     1
 91
        4
 64
     7
 65
   257
 75
     1
175
     1
 42
1.0
 92
        8
 66
     7
 43
1.0
 76
     1
 77
     6
 78
     2
 67
     7
 79
     5
170
     0
171
     0
290
     0
174
     0
 93
        1
 44
50.0
173
     0
291
     1
 45
0.0
1001
ACAD
1000
AcDbSavedByObjectVersion
1070
     0
  0
VISUALSTYLE
  5
A657
102
{ACAD_XDICTIONARY
360
A6BF
102
}
102
{ACAD_REACTORS
330
A647
102
}
330
A647
100
AcDbVisualStyle
  2
ColorChange
 70
    16
 71
     2
 72
     2
 73
     3
 90
        0
 40
-0.6
 41
-30.0
 62
     5
 63
     8
 74
     1
 91
        4
 64
     7
 65
   257
 75
     1
175
     1
 42
1.0
 92
        8
 66
     8
 43
1.0
 76
     1
 77
     6
 78
     2
 67
     7
 79
     5
170
     0
171
     0
290
     0
174
     0
 93
        1
 44
0.0
173
     0
291
     1
 45
0.0
1001
ACAD
1000
AcDbSavedByObjectVersion
1070
     0
  0
VISUALSTYLE
  5
A650
102
{ACAD_XDICTIONARY
360
A6B1
102
}
102
{ACAD_REACTORS
330
A647
102
}
330
A647
100
AcDbVisualStyle
  2
Conceptual
 70
     9
 71
     3
 72
     2
 73
     0
 90
        0
 40
-0.6
 41
-30.0
 62
     5
 63
     7
 74
     2
 91
        2
 64
     7
 65
   257
 75
     1
175
     1
 42
179.0
 92
        8
 66
     7
 43
1.0
 76
     1
 77
     6
 78
     2
 67
     7
 79
     3
170
     0
171
     0
290
     0
174
     0
 93
        1
 44
0.0
173
     0
291
     0
 45
0.0
1001
ACAD
1000
AcDbSavedByObjectVersion
1070
     0
  0
VISUALSTYLE
  5
A652
102
{ACAD_XDICTIONARY
360
A6B5
102
}
102
{ACAD_REACTORS
330
A647
102
}
330
A647
100
AcDbVisualStyle
  2
Dim
 70
    11
 71
     2
 72
     2
 73
     0
 90
        0
 40
-0.6
 41
-30.0
 62
     5
 63
     7
 74
     1
 91
        4
 64
     7
 65
   257
 75
     1
175
     1
 42
1.0
 92
        8
 66
     7
 43
1.0
 76
     1
 77
     6
 78
     2
 67
     7
 79
     5
170
     0
171
     0
290
     0
174
     0
 93
        1
 44
-50.0
173
     0
291
     1
 45
0.0
1001
ACAD
1000
AcDbSavedByObjectVersion
1070
     0
  0
VISUALSTYLE
  5
A65F
102
{ACAD_XDICTIONARY
360
A6CF
102
}
102
{ACAD_REACTORS
330
A647
102
}
330
A647
100
AcDbVisualStyle
  2
EdgeColorOff
 70
    22
 71
     2
 72
     2
 73
     0
 90
        0
 40
-0.6
 41
-30.0
 62
     5
 63
     7
 74
     1
 91
        4
 64
     7
 65
   257
 75
     1
175
     1
 42
1.0
 92
        8
 66
     7
 43
1.0
 76
     1
 77
     6
 78
     2
 67
     7
 79
     5
170
     0
171
     0
290
     0
174
     0
 93
        1
 44
0.0
173
     0
291
     1
 45
0.0
1001
ACAD
1000
AcDbSavedByObjectVersion
1070
     0
  0
VISUALSTYLE
  5
A656
102
{ACAD_XDICTIONARY
360
A6BD
102
}
102
{ACAD_REACTORS
330
A647
102
}
330
A647
100
AcDbVisualStyle
  2
Facepattern
 70
    15
 71
     2
 72
     2
 73
     0
 90
        0
 40
-0.6
 41
-30.0
 62
     5
 63
     7
 74
     1
 91
        4
 64
     7
 65
   257
 75
     1
175
     1
 42
1.0
 92
        8
 66
     7
 43
1.0
 76
     1
 77
     6
 78
     2
 67
     7
 79
     5
170
     0
171
     0
290
     0
174
     0
 93
        1
 44
0.0
173
     0
291
     1
 45
0.0
1001
ACAD
1000
AcDbSavedByObjectVersion
1070
     0
  0
VISUALSTYLE
  5
A648
102
{ACAD_XDICTIONARY
360
A6A1
102
}
102
{ACAD_REACTORS
330
A647
102
}
330
A647
100
AcDbVisualStyle
  2
Flat
 70
     0
 71
     2
 72
     1
 73
     1
 90
        2
 40
-0.6
 41
30.0
 62
     5
 63
     7
 74
     0
 91
        0
 64
     7
 65
   257
 75
     1
175
     1
 42
1.0
 92
        8
 66
     7
 43
1.0
 76
     1
 77
     6
 78
     2
 67
     7
 79
     5
170
     0
171
     0
290
     0
174
     0
 93
       13
 44
0.0
173
     0
291
     1
 45
0.0
1001
ACAD
1000
AcDbSavedByObjectVersion
1070
     0
  0
VISUALSTYLE
  5
A649
102
{ACAD_XDICTIONARY
360
A6A3
102
}
102
{ACAD_REACTORS
330
A647
102
}
330
A647
100
AcDbVisualStyle
  2
FlatWithEdges
 70
     1
 71
     2
 72
     1
 73
     1
 90
        2
 40
-0.6
 41
30.0
 62
     5
 63
     7
 74
     1
 91
        0
 64
     7
 65
   257
 75
     1
175
     1
 42
1.0
 92
        0
 66
   257
 43
1.0
 76
     1
 77
     6
 78
     2
 67
     7
 79
     5
170
     0
171
     0
290
     0
174
     0
 93
       13
 44
0.0
173
     0
291
     1
 45
0.0
1001
ACAD
1000
AcDbSavedByObjectVersion
1070
     0
  0
VISUALSTYLE
  5
A64A
102
{ACAD_XDICTIONARY
360
A6A5
102
}
102
{ACAD_REACTORS
330
A647
102
}
330
A647
100
AcDbVisualStyle
  2
Gouraud
 70
     2
 71
     2
 72
     2
 73
     1
 90
        2
 40
-0.6
 41
30.0
 62
     5
 63
     7
 74
     0
 91
        0
 64
     7
 65
   257
 75
     1
175
     1
 42
1.0
 92
        0
 66
     7
 43
1.0
 76
     1
 77
     6
 78
     2
 67
     7
 79
     5
170
     0
171
     0
290
     0
174
     0
 93
       13
 44
0.0
173
     0
291
     1
 45
0.0
1001
ACAD
1000
AcDbSavedByObjectVersion
1070
     0
  0
VISUALSTYLE
  5
A64B
102
{ACAD_XDICTIONARY
360
A6A7
102
}
102
{ACAD_REACTORS
330
A647
102
}
330
A647
100
AcDbVisualStyle
  2
GouraudWithEdges
 70
     3
 71
     2
 72
     2
 73
     1
 90
        2
 40
-0.6
 41
30.0
 62
     5
 63
     7
 74
     1
 91
        0
 64
     7
 65
   257
 75
     1
175
     1
 42
1.0
 92
        0
 66
   257
 43
1.0
 76
     1
 77
     6
 78
     2
 67
     7
 79
     5
170
     0
171
     0
290
     0
174
     0
 93
       13
 44
0.0
173
     0
291
     1
 45
0.0
1001
ACAD
1000
AcDbSavedByObjectVersion
1070
     0
  0
VISUALSTYLE
  5
A64F
102
{ACAD_XDICTIONARY
360
A6AF
102
}
102
{ACAD_REACTORS
330
A647
102
}
330
A647
100
AcDbVisualStyle
  2
Hidden
 70
     6
 71
     1
 72
     2
 73
     2
 90
        0
 40
-0.6
 41
-30.0
 62
     5
 63
     7
 74
     2
 91
        2
 64
     7
 65
   257
 75
     2
175
     1
 42
40.0
 92
        0
 66
   257
 43
1.0
 76
     1
 77
     6
 78
     2
 67
     7
 79
     3
170
     0
171
     0
290
     0
174
     0
 93
        1
 44
0.0
173
     0
291
     0
 45
0.0
1001
ACAD
1000
AcDbSavedByObjectVersion
1070
     0
  0
VISUALSTYLE
  5
A65D
102
{ACAD_XDICTIONARY
360
A6CB
102
}
102
{ACAD_REACTORS
330
A647
102
}
330
A647
100
AcDbVisualStyle
  2
JitterOff
 70
    20
 71
     2
 72
     2
 73
     0
 90
        0
 40
-0.6
 41
-30.0
 62
     5
 63
     7
 74
     1
 91
        4
 64
     7
 65
   257
 75
     1
175
     1
 42
1.0
 92
       10
 66
     7
 43
1.0
 76
     1
 77
     6
 78
     2
 67
     7
 79
     5
170
     0
171
     0
290
     0
174
     0
 93
        1
 44
0.0
173
     0
291
     1
 45
0.0
1001
ACAD
1000
AcDbSavedByObjectVersion
1070
     0
  0
VISUALSTYLE
  5
A655
102
{ACAD_XDICTIONARY
360
A6BB
102
}
102
{ACAD_REACTORS
330
A647
102
}
330
A647
100
AcDbVisualStyle
  2
Linepattern
 70
    14
 71
     2
 72
     2
 73
     0
 90
        0
 40
-0.6
 41
-30.0
 62
     5
 63
     7
 74
     1
 91
        4
 64
     7
 65
   257
 75
     7
175
     7
 42
1.0
 92
        8
 66
     7
 43
1.0
 76
     1
 77
     6
 78
     2
 67
     7
 79
     5
170
     0
171
     0
290
     0
174
     0
 93
        1
 44
0.0
173
     0
291
     1
 45
0.0
1001
ACAD
1000
AcDbSavedByObjectVersion
1070
     0
  0
VISUALSTYLE
  5
A65E
102
{ACAD_XDICTIONARY
360
A6CD
102
}
102
{ACAD_REACTORS
330
A647
102
}
330
A647
100
AcDbVisualStyle
  2
OverhangOff
 70
    21
 71
     2
 72
     2
 73
     0
 90
        0
 40
-0.6
 41
-30.0
 62
     5
 63
     7
 74
     1
 91
        4
 64
     7
 65
   257
 75
     1
175
     1
 42
1.0
 92
        9
 66
     7
 43
1.0
 76
     1
 77
     6
 78
     2
 67
     7
 79
     5
170
     0
171
     0
290
     0
174
     0
 93
        1
 44
0.0
173
     0
291
     1
 45
0.0
1001
ACAD
1000
AcDbSavedByObjectVersion
1070
     0
  0
VISUALSTYLE
  5
A651
102
{ACAD_XDICTIONARY
360
A6B3
102
}
102
{ACAD_REACTORS
330
A647
102
}
330
A647
100
AcDbVisualStyle
  2
Realistic
 70
     8
 71
     2
 72
     3
 73
     0
 90
        2
 40
-0.6
 41
30.0
 62
     5
 63
     7
 74
     0
 91
        0
 64
     7
 65
   257
 75
     1
175
     1
 42
1.0
 92
        8
 66
   257
 43
1.0
 76
     1
 77
     6
 78
     2
 67
     7
 79
     3
170
     0
171
     0
290
     0
174
     0
 93
       13
 44
0.0
173
     0
291
     0
 45
0.0
1001
ACAD
1000
AcDbSavedByObjectVersion
1070
     0
  0
VISUALSTYLE
  5
A65C
102
{ACAD_XDICTIONARY
360
A6C9
102
}
102
{ACAD_REACTORS
330
A647
102
}
330
A647
100
AcDbVisualStyle
  2
Shaded
 70
    27
 71
     2
 72
     2
 73
     1
 90
        2
 40
-0.6
 41
30.0
 62
     5
 63
     7
 74
     0
 91
        4
 64
     7
 65
   257
 75
     1
175
     1
 42
1.0
 92
        8
 66
   257
 43
1.0
 76
     1
 77
     6
 78
     2
 67
     8
 79
     3
170
     0
171
     0
290
     0
174
     0
 93
        5
 44
0.0
173
     0
291
     0
 45
0.0
1001
ACAD
1000
AcDbSavedByObjectVersion
1070
     0
  0
VISUALSTYLE
  5
A65B
102
{ACAD_XDICTIONARY
360
A6C7
102
}
102
{ACAD_REACTORS
330
A647
102
}
330
A647
100
AcDbVisualStyle
  2
Shaded with edges
 70
    26
 71
     2
 72
     2
 73
     1
 90
        2
 40
-0.6
 41
30.0
 62
     5
 63
     7
 74
     1
 91
       10
 64
     7
 65
   257
 75
     2
175
     1
 42
1.0
 92
        8
 66
   257
 43
1.0
 76
     1
 77
     6
 78
     2
 67
     7
 79
     3
170
     0
171
     0
290
     0
174
     0
 93
        5
 44
0.0
173
     0
291
     0
 45
0.0
1001
ACAD
1000
AcDbSavedByObjectVersion
1070
     0
  0
VISUALSTYLE
  5
A658
102
{ACAD_XDICTIONARY
360
A6C1
102
}
102
{ACAD_REACTORS
330
A647
102
}
330
A647
100
AcDbVisualStyle
  2
Shades of Gray
 70
    23
 71
     2
 72
     2
 73
     3
 90
        0
 40
-0.6
 41
-30.0
 62
     5
 63
     7
 74
     2
 91
        2
 64
     7
 65
     7
 75
     1
175
     1
 42
40.0
 92
        8
 66
     7
 43
1.0
 76
     1
 77
     6
 78
     2
 67
     7
 79
     3
170
     0
171
     0
290
     0
174
     0
 93
        1
 44
0.0
173
     0
291
     0
 45
0.0
1001
ACAD
1000
AcDbSavedByObjectVersion
1070
     0
  0
VISUALSTYLE
  5
A659
102
{ACAD_XDICTIONARY
360
A6C3
102
}
102
{ACAD_REACTORS
330
A647
102
}
330
A647
100
AcDbVisualStyle
  2
Sketchy
 70
    24
 71
     1
 72
     2
 73
     2
 90
        0
 40
-0.6
 41
-30.0
 62
     5
 63
     7
 74
     2
 91
        2
 64
     7
 65
     7
 75
     1
175
     1
 42
40.0
 92
       11
 66
     7
 43
1.0
 76
     1
 77
     6
 78
     2
 67
     7
 79
     6
170
     0
171
     0
290
     0
174
     0
 93
        1
 44
0.0
173
     0
291
     0
 45
0.0
1001
ACAD
1000
AcDbSavedByObjectVersion
1070
     0
  0
VISUALSTYLE
  5
A654
102
{ACAD_XDICTIONARY
360
A6B9
102
}
102
{ACAD_REACTORS
330
A647
102
}
330
A647
100
AcDbVisualStyle
  2
Thicken
 70
    13
 71
     2
 72
     2
 73
     0
 90
        0
 40
-0.6
 41
-30.0
 62
     5
 63
     7
 74
     1
 91
        4
 64
     7
 65
   257
 75
     1
175
     1
 42
1.0
 92
       12
 66
     7
 43
1.0
 76
     1
 77
     6
 78
     2
 67
     7
 79
     5
170
     0
171
     0
290
     0
174
     0
 93
        1
 44
0.0
173
     0
291
     1
 45
0.0
1001
ACAD
1000
AcDbSavedByObjectVersion
1070
     0
  0
VISUALSTYLE
  5
A64E
102
{ACAD_XDICTIONARY
360
A6AD
102
}
102
{ACAD_REACTORS
330
A647
102
}
330
A647
100
AcDbVisualStyle
  2
Wireframe
 70
     5
 71
     0
 72
     2
 73
     0
 90
        0
 40
-0.6
 41
-30.0
 62
     5
 63
     7
 74
     1
 91
        4
 64
     7
 65
   257
 75
     1
175
     1
 42
1.0
 92
        0
 66
   257
 43
1.0
 76
     1
 77
     6
 78
     2
 67
     7
 79
     3
170
     0
171
     0
290
     0
174
     0
 93
        1
 44
0.0
173
     0
291
     0
 45
0.0
1001
ACAD
1000
AcDbSavedByObjectVersion
1070
     0
  0
VISUALSTYLE
  5
A65A
102
{ACAD_XDICTIONARY
360
A6C5
102
}
102
{ACAD_REACTORS
330
A647
102
}
330
A647
100
AcDbVisualStyle
  2
X-Ray
 70
    25
 71
     2
 72
     2
 73
     1
 90
        1
 40
0.5
 41
-30.0
 62
     5
 63
     7
 74
     1
 91
        0
 64
     7
 65
   257
 75
     1
175
     1
 42
1.0
 92
        8
 66
     7
 43
1.0
 76
     1
 77
     6
 78
     2
 67
     7
 79
     3
170
     0
171
     0
290
     0
174
     0
 93
       13
 44
0.0
173
     0
291
     0
 45
0.0
1001
ACAD
1000
AcDbSavedByObjectVersion
1070
     0
  0
DICTIONARYVAR
  5
A694
102
{ACAD_REACTORS
330
A68F
102
}
330
A68F
100
DictionaryVariables
280
     0
  1
1:1
  0
DICTIONARYVAR
  5
A691
102
{ACAD_REACTORS
330
A68F
102
}
330
A68F
100
DictionaryVariables
280
     0
  1
STANDARD
  0
DICTIONARYVAR
  5
A690
102
{ACAD_REACTORS
330
A68F
102
}
330
A68F
100
DictionaryVariables
280
     0
  1
STANDARD
  0
DICTIONARYVAR
  5
A692
102
{ACAD_REACTORS
330
A68F
102
}
330
A68F
100
DictionaryVariables
280
     0
  1
Imperial24
  0
DICTIONARYVAR
  5
A693
102
{ACAD_REACTORS
330
A68F
102
}
330
A68F
100
DictionaryVariables
280
     0
  1
Imperial24
  0
DICTIONARYVAR
  5
A697
102
{ACAD_REACTORS
330
A68F
102
}
330
A68F
100
DictionaryVariables
280
     0
  1
1
  0
DICTIONARYVAR
  5
A696
102
{ACAD_REACTORS
330
A68F
102
}
330
A68F
100
DictionaryVariables
280
     0
  1
0
  0
DICTIONARYVAR
  5
A695
102
{ACAD_REACTORS
330
A68F
102
}
330
A68F
100
DictionaryVariables
280
     0
  1
127
  0
DICTIONARYVAR
  5
A698
102
{ACAD_REACTORS
330
A68F
102
}
330
A68F
100
DictionaryVariables
280
     0
  1
2
  0
DICTIONARY
  5
A6D5
330
A67A
100
AcDbDictionary
280
     1
281
     1
  3
ACAD_XREC_ROUNDTRIP
360
A6D6
  0
DICTIONARY
  5
A6D7
330
A67B
100
AcDbDictionary
280
     1
281
     1
  3
ACAD_XREC_ROUNDTRIP
360
A6D8
  0
DICTIONARY
  5
A6D9
330
A67C
100
AcDbDictionary
280
     1
281
     1
  3
ACAD_XREC_ROUNDTRIP
360
A6DA
  0
DICTIONARY
  5
A638
330
A637
100
AcDbDictionary
280
     1
281
     1
  3
ACAD_XREC_ROUNDTRIP
360
A69F
  3
BUMPTILE
360
A63A
  3
DIFFUSETILE
360
A639
  3
OPACITYTILE
360
A63D
  3
REFLECTIONTILE
360
A63C
  3
REFRACTIONTILE
360
A63E
  3
SPECULARTILE
360
A63B
  0
DICTIONARY
  5
A630
330
A62F
100
AcDbDictionary
280
     1
281
     1
  3
ACAD_XREC_ROUNDTRIP
360
A69E
  3
BUMPTILE
360
A632
  3
DIFFUSETILE
360
A631
  3
OPACITYTILE
360
A635
  3
REFLECTIONTILE
360
A634
  3
REFRACTIONTILE
360
A636
  3
SPECULARTILE
360
A633
  0
DICTIONARY
  5
A640
330
A63F
100
AcDbDictionary
280
     1
281
     1
  3
ACAD_XREC_ROUNDTRIP
360
A6A0
  3
BUMPTILE
360
A642
  3
DIFFUSETILE
360
A641
  3
OPACITYTILE
360
A645
  3
REFLECTIONTILE
360
A644
  3
REFRACTIONTILE
360
A646
  3
SPECULARTILE
360
A643
  0
DICTIONARY
  5
A6D3
330
A678
100
AcDbDictionary
280
     1
281
     1
  3
ACAD_XREC_ROUNDTRIP
360
A6D4
  0
DICTIONARY
  5
A69A
330
A662
100
AcDbDictionary
280
     1
281
     1
  3
ACAD_ROUNDTRIP_2008_TABLESTYLE_CELLSTYLEMAP
360
A69B
  3
ACAD_XREC_ROUNDTRIP
360
A6D1
  0
DICTIONARY
  5
A6AB
330
A64D
100
AcDbDictionary
280
     1
281
     1
  3
ACAD_XREC_ROUNDTRIP
360
A6AC
  0
DICTIONARY
  5
A6A9
330
A64C
100
AcDbDictionary
280
     1
281
     1
  3
ACAD_XREC_ROUNDTRIP
360
A6AA
  0
DICTIONARY
  5
A6B7
330
A653
100
AcDbDictionary
280
     1
281
     1
  3
ACAD_XREC_ROUNDTRIP
360
A6B8
  0
DICTIONARY
  5
A6BF
330
A657
100
AcDbDictionary
280
     1
281
     1
  3
ACAD_XREC_ROUNDTRIP
360
A6C0
  0
DICTIONARY
  5
A6B1
330
A650
100
AcDbDictionary
280
     1
281
     1
  3
ACAD_XREC_ROUNDTRIP
360
A6B2
  0
DICTIONARY
  5
A6B5
330
A652
100
AcDbDictionary
280
     1
281
     1
  3
ACAD_XREC_ROUNDTRIP
360
A6B6
  0
DICTIONARY
  5
A6CF
330
A65F
100
AcDbDictionary
280
     1
281
     1
  3
ACAD_XREC_ROUNDTRIP
360
A6D0
  0
DICTIONARY
  5
A6BD
330
A656
100
AcDbDictionary
280
     1
281
     1
  3
ACAD_XREC_ROUNDTRIP
360
A6BE
  0
DICTIONARY
  5
A6A1
330
A648
100
AcDbDictionary
280
     1
281
     1
  3
ACAD_XREC_ROUNDTRIP
360
A6A2
  0
DICTIONARY
  5
A6A3
330
A649
100
AcDbDictionary
280
     1
281
     1
  3
ACAD_XREC_ROUNDTRIP
360
A6A4
  0
DICTIONARY
  5
A6A5
330
A64A
100
AcDbDictionary
280
     1
281
     1
  3
ACAD_XREC_ROUNDTRIP
360
A6A6
  0
DICTIONARY
  5
A6A7
330
A64B
100
AcDbDictionary
280
     1
281
     1
  3
ACAD_XREC_ROUNDTRIP
360
A6A8
  0
DICTIONARY
  5
A6AF
330
A64F
100
AcDbDictionary
280
     1
281
     1
  3
ACAD_XREC_ROUNDTRIP
360
A6B0
  0
DICTIONARY
  5
A6CB
330
A65D
100
AcDbDictionary
280
     1
281
     1
  3
ACAD_XREC_ROUNDTRIP
360
A6CC
  0
DICTIONARY
  5
A6BB
330
A655
100
AcDbDictionary
280
     1
281
     1
  3
ACAD_XREC_ROUNDTRIP
360
A6BC
  0
DICTIONARY
  5
A6CD
330
A65E
100
AcDbDictionary
280
     1
281
     1
  3
ACAD_XREC_ROUNDTRIP
360
A6CE
  0
DICTIONARY
  5
A6B3
330
A651
100
AcDbDictionary
280
     1
281
     1
  3
ACAD_XREC_ROUNDTRIP
360
A6B4
  0
DICTIONARY
  5
A6C9
330
A65C
100
AcDbDictionary
280
     1
281
     1
  3
ACAD_XREC_ROUNDTRIP
360
A6CA
  0
DICTIONARY
  5
A6C7
330
A65B
100
AcDbDictionary
280
     1
281
     1
  3
ACAD_XREC_ROUNDTRIP
360
A6C8
  0
DICTIONARY
  5
A6C1
330
A658
100
AcDbDictionary
280
     1
281
     1
  3
ACAD_XREC_ROUNDTRIP
360
A6C2
  0
DICTIONARY
  5
A6C3
330
A659
100
AcDbDictionary
280
     1
281
     1
  3
ACAD_XREC_ROUNDTRIP
360
A6C4
  0
DICTIONARY
  5
A6B9
330
A654
100
AcDbDictionary
280
     1
281
     1
  3
ACAD_XREC_ROUNDTRIP
360
A6BA
  0
DICTIONARY
  5
A6AD
330
A64E
100
AcDbDictionary
280
     1
281
     1
  3
ACAD_XREC_ROUNDTRIP
360
A6AE
  0
DICTIONARY
  5
A6C5
330
A65A
100
AcDbDictionary
280
     1
281
     1
  3
ACAD_XREC_ROUNDTRIP
360
A6C6
  0
XRECORD
  5
A6D6
102
{ACAD_REACTORS
330
A6D5
102
}
330
A6D5
100
AcDbXrecord
280
     1
102
DISPLAYNAME
  1
Imperial24
102
FLAGS
 90
        0
  0
XRECORD
  5
A6D8
102
{ACAD_REACTORS
330
A6D7
102
}
330
A6D7
100
AcDbXrecord
280
     1
102
SHADEPLOT
 70
     0
102
SHADEPLOTRESLEVEL
 70
     2
102
SHADEPLOTCUSTOMDPI
 70
   300
  0
XRECORD
  5
A6DA
102
{ACAD_REACTORS
330
A6D9
102
}
330
A6D9
100
AcDbXrecord
280
     1
102
SHADEPLOT
 70
     0
102
SHADEPLOTRESLEVEL
 70
     2
102
SHADEPLOTCUSTOMDPI
 70
   300
  0
XRECORD
  5
A69F
102
{ACAD_REACTORS
330
A638
102
}
330
A638
100
AcDbXrecord
280
     1
102
MATERIAL
148
0.0
149
0.0
149
0.0
 93
        0
 94
      127
282
     0
 72
     0
 77
     0
171
     0
175
     0
179
     0
273
     0
  0
XRECORD
  5
A63A
102
{ACAD_REACTORS
330
A638
102
}
330
A638
100
AcDbXrecord
280
     1
270
     1
271
     1
  0
XRECORD
  5
A639
102
{ACAD_REACTORS
330
A638
102
}
330
A638
100
AcDbXrecord
280
     1
270
     1
271
     1
  0
XRECORD
  5
A63D
102
{ACAD_REACTORS
330
A638
102
}
330
A638
100
AcDbXrecord
280
     1
270
     1
271
     1
  0
XRECORD
  5
A63C
102
{ACAD_REACTORS
330
A638
102
}
330
A638
100
AcDbXrecord
280
     1
270
     1
271
     1
  0
XRECORD
  5
A63E
102
{ACAD_REACTORS
330
A638
102
}
330
A638
100
AcDbXrecord
280
     1
270
     1
271
     1
  0
XRECORD
  5
A63B
102
{ACAD_REACTORS
330
A638
102
}
330
A638
100
AcDbXrecord
280
     1
270
     1
271
     1
  0
XRECORD
  5
A69E
102
{ACAD_REACTORS
330
A630
102
}
330
A630
100
AcDbXrecord
280
     1
102
MATERIAL
148
0.0
149
0.0
149
0.0
 93
        0
 94
      127
282
     0
 72
     0
 77
     0
171
     0
175
     0
179
     0
273
     0
  0
XRECORD
  5
A632
102
{ACAD_REACTORS
330
A630
102
}
330
A630
100
AcDbXrecord
280
     1
270
     1
271
     1
  0
XRECORD
  5
A631
102
{ACAD_REACTORS
330
A630
102
}
330
A630
100
AcDbXrecord
280
     1
270
     1
271
     1
  0
XRECORD
  5
A635
102
{ACAD_REACTORS
330
A630
102
}
330
A630
100
AcDbXrecord
280
     1
270
     1
271
     1
  0
XRECORD
  5
A634
102
{ACAD_REACTORS
330
A630
102
}
330
A630
100
AcDbXrecord
280
     1
270
     1
271
     1
  0
XRECORD
  5
A636
102
{ACAD_REACTORS
330
A630
102
}
330
A630
100
AcDbXrecord
280
     1
270
     1
271
     1
  0
XRECORD
  5
A633
102
{ACAD_REACTORS
330
A630
102
}
330
A630
100
AcDbXrecord
280
     1
270
     1
271
     1
  0
XRECORD
  5
A6A0
102
{ACAD_REACTORS
330
A640
102
}
330
A640
100
AcDbXrecord
280
     1
102
MATERIAL
148
0.0
149
0.0
149
0.0
 93
        0
 94
      127
282
     0
 72
     0
 77
     0
171
     0
175
     0
179
     0
273
     0
  0
XRECORD
  5
A642
102
{ACAD_REACTORS
330
A640
102
}
330
A640
100
AcDbXrecord
280
     1
270
     1
271
     1
  0
XRECORD
  5
A641
102
{ACAD_REACTORS
330
A640
102
}
330
A640
100
AcDbXrecord
280
     1
270
     1
271
     1
  0
XRECORD
  5
A645
102
{ACAD_REACTORS
330
A640
102
}
330
A640
100
AcDbXrecord
280
     1
270
     1
271
     1
  0
XRECORD
  5
A644
102
{ACAD_REACTORS
330
A640
102
}
330
A640
100
AcDbXrecord
280
     1
270
     1
271
     1
  0
XRECORD
  5
A646
102
{ACAD_REACTORS
330
A640
102
}
330
A640
100
AcDbXrecord
280
     1
270
     1
271
     1
  0
XRECORD
  5
A643
102
{ACAD_REACTORS
330
A640
102
}
330
A640
100
AcDbXrecord
280
     1
270
     1
271
     1
  0
XRECORD
  5
A6D4
102
{ACAD_REACTORS
330
A6D3
102
}
330
A6D3
100
AcDbXrecord
280
     1
102
DISPLAYNAME
  1
Imperial24
102
FLAGS
 90
        0
  0
CELLSTYLEMAP
  5
A69B
102
{ACAD_REACTORS
330
A69A
102
}
330
A69A
100
AcDbCellStyleMap
 90
        3
300
CELLSTYLE
  1
TABLEFORMAT_BEGIN
 90
        5
170
     1
 91
        0
 92
    32768
 62
   257
 93
        1
300
CONTENTFORMAT
  1
CONTENTFORMAT_BEGIN
 90
        0
 91
        0
 92
      512
 93
        0
300

 40
0.0
140
1.0
 94
        5
 62
     0
340
A32B
144
0.25
309
CONTENTFORMAT_END
171
     0
 94
        0
309
TABLEFORMAT_END
  1
CELLSTYLE_BEGIN
 90
        1
 91
        1
300
_TITLE
309
CELLSTYLE_END
300
CELLSTYLE
  1
TABLEFORMAT_BEGIN
 90
        5
170
     1
 91
        0
 92
        0
 62
   257
 93
        1
300
CONTENTFORMAT
  1
CONTENTFORMAT_BEGIN
 90
        0
 91
        0
 92
      512
 93
        0
300

 40
0.0
140
1.0
 94
        5
 62
     0
340
A32B
144
0.18
309
CONTENTFORMAT_END
171
     0
 94
        0
309
TABLEFORMAT_END
  1
CELLSTYLE_BEGIN
 90
        2
 91
        1
300
_HEADER
309
CELLSTYLE_END
300
CELLSTYLE
  1
TABLEFORMAT_BEGIN
 90
        5
170
     1
 91
        0
 92
        0
 62
   257
 93
        1
300
CONTENTFORMAT
  1
CONTENTFORMAT_BEGIN
 90
        0
 91
        0
 92
      512
 93
        0
300

 40
0.0
140
1.0
 94
        2
 62
     0
340
A32B
144
0.18
309
CONTENTFORMAT_END
171
     0
 94
        0
309
TABLEFORMAT_END
  1
CELLSTYLE_BEGIN
 90
        3
 91
        2
300
_DATA
309
CELLSTYLE_END
  0
XRECORD
  5
A6D1
102
{ACAD_REACTORS
330
A69A
102
}
330
A69A
100
AcDbXrecord
280
     1
102
ACAD_ROUNDTRIP_PRE2007_TABLESTYLE
 90
      512
 91
        0
  1

 92
      512
 93
        0
  2

 94
      512
 95
        0
  3

  0
XRECORD
  5
A6AC
102
{ACAD_REACTORS
330
A6AB
102
}
330
A6AB
100
AcDbXrecord
280
     1
102
RTVSPost2010Prop28
280
     1
102
RTVSPost2010PropOp28
 70
     1
102
RTVSPost2010Prop29
280
     1
102
RTVSPost2010PropOp29
 70
     1
102
RTVSPost2010Prop30
280
     0
102
RTVSPost2010PropOp30
 70
     1
102
RTVSPost2010Prop31
280
     0
102
RTVSPost2010PropOp31
 70
     1
102
RTVSPost2010Prop32
280
     0
102
RTVSPost2010PropOp32
 70
     1
102
RTVSPost2010Prop33
280
     0
102
RTVSPost2010PropOp33
 70
     1
102
RTVSPost2010Prop34
280
     0
102
RTVSPost2010PropOp34
 70
     1
102
RTVSPost2010Prop35
280
     0
102
RTVSPost2010PropOp35
 70
     1
102
RTVSPost2010Prop36
280
     0
102
RTVSPost2010PropOp36
 70
     1
102
RTVSPost2010Prop37
 90
       50
102
RTVSPost2010PropOp37
 70
     1
102
RTVSPost2010Prop38
140
0.0
102
RTVSPost2010PropOp38
 70
     1
102
RTVSPost2010Prop39
140
1.0
102
RTVSPost2010PropOp39
 70
     1
102
RTVSPost2010Prop40
 90
        0
102
RTVSPost2010PropOp40
 70
     1
102
RTVSPost2010Prop41ColorIndex
 90
       18
102
RTVSPost2010Prop41ColorRGB
 90
        0
102
RTVSPost2010PropOp41
 70
     1
102
RTVSPost2010Prop42
 90
       50
102
RTVSPost2010PropOp42
 70
     1
102
RTVSPost2010Prop43
 90
        3
102
RTVSPost2010PropOp43
 70
     1
102
RTVSPost2010Prop44ColorIndex
 90
        5
102
RTVSPost2010Prop44ColorRGB
 90
      255
102
RTVSPost2010PropOp44
 70
     1
102
RTVSPost2010Prop45
280
     0
102
RTVSPost2010PropOp45
 70
     1
102
RTVSPost2010Prop46
 90
       50
102
RTVSPost2010PropOp46
 70
     1
102
RTVSPost2010Prop47
 90
       50
102
RTVSPost2010PropOp47
 70
     1
102
RTVSPost2010Prop48
 90
       50
102
RTVSPost2010PropOp48
 70
     1
102
RTVSPost2010Prop49
280
     0
102
RTVSPost2010PropOp49
 70
     1
102
RTVSPost2010Prop50
 90
       50
102
RTVSPost2010PropOp50
 70
     1
102
RTVSPost2010Prop51ColorIndex
 90
      256
102
RTVSPost2010Prop51ColorRGB
 90
-16777216
102
RTVSPost2010PropOp51
 70
     0
102
RTVSPost2010Prop52
140
1.0
102
RTVSPost2010PropOp52
 70
     0
102
RTVSPost2010Prop53
 90
        2
102
RTVSPost2010PropOp53
 70
     1
102
RTVSPost2010Prop54
  1
strokes_ogs.tif
102
RTVSPost2010PropOp54
 70
     1
102
RTVSPost2010Prop55
280
     0
102
RTVSPost2010PropOp55
 70
     1
102
RTVSPost2010Prop56
140
1.0
102
RTVSPost2010PropOp56
 70
     1
102
RTVSPost2010Prop57
140
1.0
102
RTVSPost2010PropOp57
 70
     1
102
RTVSPropertyOp0
 70
     1
102
RTVSPropertyOp1
 70
     1
102
RTVSPropertyOp2
 70
     1
102
RTVSPropertyOp3
 70
     1
102
RTVSPropertyOp4
 70
     1
102
RTVSPropertyOp5
 70
     1
102
RTVSPropertyOp6
 70
     1
102
RTVSPropertyOp7
 70
     1
102
RTVSPropertyOp8
 70
     1
102
RTVSPropertyOp9
 70
     1
102
RTVSPropertyOp10
 70
     1
102
RTVSPropertyOp11
 70
     1
102
RTVSPropertyOp12
 70
     1
102
RTVSPropertyOp13
 70
     1
102
RTVSPropertyOp14
 70
     1
102
RTVSPropertyOp15
 70
     1
102
RTVSPropertyOp16
 70
     1
102
RTVSPropertyOp17
 70
     1
102
RTVSPropertyOp18
 70
     1
102
RTVSPropertyOp19
 70
     1
102
RTVSPropertyOp20
 70
     1
102
RTVSPropertyOp21
 70
     1
102
RTVSPropertyOp22
 70
     1
102
RTVSPropertyOp23
 70
     1
102
RTVSPropertyOp24
 70
     1
102
RTVSPropertyOp25
 70
     1
102
RTVSPropertyOp26
 70
     1
102
RTVSPropertyOp27
 70
     1
102
RTVSPropertyOp28
 70
     1
102
RTVSPropertyOp29
 70
     1
102
RTVSPropertyOp30
 70
     1
102
RTVSPropertyOp31
 70
     1
102
RTVSPropertyOp32
 70
     1
102
RTVSPropertyOp33
 70
     1
102
RTVSPropertyOp34
 70
     1
102
RTVSPropertyOp35
 70
     1
102
RTVSPropertyOp36
 70
     1
102
RTVSPropertyOp37
 70
     1
102
RTVSPropertyOp38
 70
     1
102
RTVSPropertyOp39
 70
     1
102
RTVSPropertyOp40
 70
     1
102
RTVSPropertyOp41
 70
     1
102
RTVSPropertyOp42
 70
     1
102
RTVSPropertyOp43
 70
     1
102
RTVSPropertyOp44
 70
     1
102
RTVSPropertyOp45
 70
     1
102
RTVSPropertyOp46
 70
     1
102
RTVSPropertyOp47
 70
     1
102
RTVSPropertyOp48
 70
     1
102
RTVSPropertyOp49
 70
     1
102
RTVSPropertyOp50
 70
     1
102
RTVSPropertyOp51
 70
     0
102
RTVSPropertyOp52
 70
     0
102
RTVSPropertyOp53
 70
     1
102
RTVSPropertyOp54
 70
     1
102
RTVSPropertyOp55
 70
     1
102
RTVSPropertyOp56
 70
     1
102
RTVSPropertyOp57
 70
     1
102
RTVSPropertyOp58
 70
     1
102
RTVSPropertyOp59
 70
     1
102
RTVSPropertyOp60
 70
     1
102
RTVSPropertyOp61
 70
     1
102
RTVSPropertyOp62
 70
     1
  0
XRECORD
  5
A6AA
102
{ACAD_REACTORS
330
A6A9
102
}
330
A6A9
100
AcDbXrecord
280
     1
102
RTVSPost2010Prop28
280
     0
102
RTVSPost2010PropOp28
 70
     1
102
RTVSPost2010Prop29
280
     1
102
RTVSPost2010PropOp29
 70
     1
102
RTVSPost2010Prop30
280
     1
102
RTVSPost2010PropOp30
 70
     1
102
RTVSPost2010Prop31
280
     0
102
RTVSPost2010PropOp31
 70
     1
102
RTVSPost2010Prop32
280
     0
102
RTVSPost2010PropOp32
 70
     1
102
RTVSPost2010Prop33
280
     0
102
RTVSPost2010PropOp33
 70
     1
102
RTVSPost2010Prop34
280
     0
102
RTVSPost2010PropOp34
 70
     1
102
RTVSPost2010Prop35
280
     0
102
RTVSPost2010PropOp35
 70
     1
102
RTVSPost2010Prop36
280
     0
102
RTVSPost2010PropOp36
 70
     1
102
RTVSPost2010Prop37
 90
       50
102
RTVSPost2010PropOp37
 70
     1
102
RTVSPost2010Prop38
140
0.0
102
RTVSPost2010PropOp38
 70
     1
102
RTVSPost2010Prop39
140
1.0
102
RTVSPost2010PropOp39
 70
     1
102
RTVSPost2010Prop40
 90
        0
102
RTVSPost2010PropOp40
 70
     1
102
RTVSPost2010Prop41ColorIndex
 90
       18
102
RTVSPost2010Prop41ColorRGB
 90
        0
102
RTVSPost2010PropOp41
 70
     1
102
RTVSPost2010Prop42
 90
       50
102
RTVSPost2010PropOp42
 70
     1
102
RTVSPost2010Prop43
 90
        3
102
RTVSPost2010PropOp43
 70
     1
102
RTVSPost2010Prop44ColorIndex
 90
        5
102
RTVSPost2010Prop44ColorRGB
 90
      255
102
RTVSPost2010PropOp44
 70
     1
102
RTVSPost2010Prop45
280
     0
102
RTVSPost2010PropOp45
 70
     1
102
RTVSPost2010Prop46
 90
       50
102
RTVSPost2010PropOp46
 70
     1
102
RTVSPost2010Prop47
 90
       50
102
RTVSPost2010PropOp47
 70
     1
102
RTVSPost2010Prop48
 90
       50
102
RTVSPost2010PropOp48
 70
     1
102
RTVSPost2010Prop49
280
     0
102
RTVSPost2010PropOp49
 70
     1
102
RTVSPost2010Prop50
 90
       50
102
RTVSPost2010PropOp50
 70
     1
102
RTVSPost2010Prop51ColorIndex
 90
      256
102
RTVSPost2010Prop51ColorRGB
 90
-16777216
102
RTVSPost2010PropOp51
 70
     0
102
RTVSPost2010Prop52
140
1.0
102
RTVSPost2010PropOp52
 70
     0
102
RTVSPost2010Prop53
 90
        2
102
RTVSPost2010PropOp53
 70
     1
102
RTVSPost2010Prop54
  1
strokes_ogs.tif
102
RTVSPost2010PropOp54
 70
     1
102
RTVSPost2010Prop55
280
     0
102
RTVSPost2010PropOp55
 70
     1
102
RTVSPost2010Prop56
140
1.0
102
RTVSPost2010PropOp56
 70
     1
102
RTVSPost2010Prop57
140
1.0
102
RTVSPost2010PropOp57
 70
     1
102
RTVSPropertyOp0
 70
     1
102
RTVSPropertyOp1
 70
     1
102
RTVSPropertyOp2
 70
     1
102
RTVSPropertyOp3
 70
     1
102
RTVSPropertyOp4
 70
     1
102
RTVSPropertyOp5
 70
     1
102
RTVSPropertyOp6
 70
     1
102
RTVSPropertyOp7
 70
     1
102
RTVSPropertyOp8
 70
     1
102
RTVSPropertyOp9
 70
     1
102
RTVSPropertyOp10
 70
     1
102
RTVSPropertyOp11
 70
     1
102
RTVSPropertyOp12
 70
     1
102
RTVSPropertyOp13
 70
     1
102
RTVSPropertyOp14
 70
     1
102
RTVSPropertyOp15
 70
     1
102
RTVSPropertyOp16
 70
     1
102
RTVSPropertyOp17
 70
     1
102
RTVSPropertyOp18
 70
     1
102
RTVSPropertyOp19
 70
     1
102
RTVSPropertyOp20
 70
     1
102
RTVSPropertyOp21
 70
     1
102
RTVSPropertyOp22
 70
     1
102
RTVSPropertyOp23
 70
     1
102
RTVSPropertyOp24
 70
     1
102
RTVSPropertyOp25
 70
     1
102
RTVSPropertyOp26
 70
     1
102
RTVSPropertyOp27
 70
     1
102
RTVSPropertyOp28
 70
     1
102
RTVSPropertyOp29
 70
     1
102
RTVSPropertyOp30
 70
     1
102
RTVSPropertyOp31
 70
     1
102
RTVSPropertyOp32
 70
     1
102
RTVSPropertyOp33
 70
     1
102
RTVSPropertyOp34
 70
     1
102
RTVSPropertyOp35
 70
     1
102
RTVSPropertyOp36
 70
     1
102
RTVSPropertyOp37
 70
     1
102
RTVSPropertyOp38
 70
     1
102
RTVSPropertyOp39
 70
     1
102
RTVSPropertyOp40
 70
     1
102
RTVSPropertyOp41
 70
     1
102
RTVSPropertyOp42
 70
     1
102
RTVSPropertyOp43
 70
     1
102
RTVSPropertyOp44
 70
     1
102
RTVSPropertyOp45
 70
     1
102
RTVSPropertyOp46
 70
     1
102
RTVSPropertyOp47
 70
     1
102
RTVSPropertyOp48
 70
     1
102
RTVSPropertyOp49
 70
     1
102
RTVSPropertyOp50
 70
     1
102
RTVSPropertyOp51
 70
     0
102
RTVSPropertyOp52
 70
     0
102
RTVSPropertyOp53
 70
     1
102
RTVSPropertyOp54
 70
     1
102
RTVSPropertyOp55
 70
     1
102
RTVSPropertyOp56
 70
     1
102
RTVSPropertyOp57
 70
     1
102
RTVSPropertyOp58
 70
     1
102
RTVSPropertyOp59
 70
     1
102
RTVSPropertyOp60
 70
     1
102
RTVSPropertyOp61
 70
     1
102
RTVSPropertyOp62
 70
     1
  0
XRECORD
  5
A6B8
102
{ACAD_REACTORS
330
A6B7
102
}
330
A6B7
100
AcDbXrecord
280
     1
102
RTVSPost2010Prop28
280
     0
102
RTVSPost2010PropOp28
 70
     1
102
RTVSPost2010Prop29
280
     1
102
RTVSPost2010PropOp29
 70
     1
102
RTVSPost2010Prop30
280
     1
102
RTVSPost2010PropOp30
 70
     1
102
RTVSPost2010Prop31
280
     0
102
RTVSPost2010PropOp31
 70
     1
102
RTVSPost2010Prop32
280
     0
102
RTVSPost2010PropOp32
 70
     1
102
RTVSPost2010Prop33
280
     0
102
RTVSPost2010PropOp33
 70
     1
102
RTVSPost2010Prop34
280
     0
102
RTVSPost2010PropOp34
 70
     1
102
RTVSPost2010Prop35
280
     0
102
RTVSPost2010PropOp35
 70
     1
102
RTVSPost2010Prop36
280
     0
102
RTVSPost2010PropOp36
 70
     1
102
RTVSPost2010Prop37
 90
       50
102
RTVSPost2010PropOp37
 70
     1
102
RTVSPost2010Prop38
140
0.0
102
RTVSPost2010PropOp38
 70
     1
102
RTVSPost2010Prop39
140
1.0
102
RTVSPost2010PropOp39
 70
     1
102
RTVSPost2010Prop40
 90
        0
102
RTVSPost2010PropOp40
 70
     1
102
RTVSPost2010Prop41ColorIndex
 90
       18
102
RTVSPost2010Prop41ColorRGB
 90
        0
102
RTVSPost2010PropOp41
 70
     1
102
RTVSPost2010Prop42
 90
       50
102
RTVSPost2010PropOp42
 70
     1
102
RTVSPost2010Prop43
 90
        3
102
RTVSPost2010PropOp43
 70
     1
102
RTVSPost2010Prop44ColorIndex
 90
        5
102
RTVSPost2010Prop44ColorRGB
 90
      255
102
RTVSPost2010PropOp44
 70
     1
102
RTVSPost2010Prop45
280
     0
102
RTVSPost2010PropOp45
 70
     1
102
RTVSPost2010Prop46
 90
       50
102
RTVSPost2010PropOp46
 70
     1
102
RTVSPost2010Prop47
 90
       50
102
RTVSPost2010PropOp47
 70
     1
102
RTVSPost2010Prop48
 90
       50
102
RTVSPost2010PropOp48
 70
     1
102
RTVSPost2010Prop49
280
     0
102
RTVSPost2010PropOp49
 70
     1
102
RTVSPost2010Prop50
 90
       50
102
RTVSPost2010PropOp50
 70
     1
102
RTVSPost2010Prop51ColorIndex
 90
      256
102
RTVSPost2010Prop51ColorRGB
 90
-16777216
102
RTVSPost2010PropOp51
 70
     0
102
RTVSPost2010Prop52
140
1.0
102
RTVSPost2010PropOp52
 70
     0
102
RTVSPost2010Prop53
 90
        2
102
RTVSPost2010PropOp53
 70
     1
102
RTVSPost2010Prop54
  1
strokes_ogs.tif
102
RTVSPost2010PropOp54
 70
     1
102
RTVSPost2010Prop55
280
     0
102
RTVSPost2010PropOp55
 70
     1
102
RTVSPost2010Prop56
140
1.0
102
RTVSPost2010PropOp56
 70
     1
102
RTVSPost2010Prop57
140
1.0
102
RTVSPost2010PropOp57
 70
     1
102
RTVSPropertyOp0
 70
     1
102
RTVSPropertyOp1
 70
     1
102
RTVSPropertyOp2
 70
     1
102
RTVSPropertyOp3
 70
     1
102
RTVSPropertyOp4
 70
     1
102
RTVSPropertyOp5
 70
     1
102
RTVSPropertyOp6
 70
     1
102
RTVSPropertyOp7
 70
     1
102
RTVSPropertyOp8
 70
     1
102
RTVSPropertyOp9
 70
     1
102
RTVSPropertyOp10
 70
     1
102
RTVSPropertyOp11
 70
     1
102
RTVSPropertyOp12
 70
     1
102
RTVSPropertyOp13
 70
     1
102
RTVSPropertyOp14
 70
     1
102
RTVSPropertyOp15
 70
     1
102
RTVSPropertyOp16
 70
     1
102
RTVSPropertyOp17
 70
     1
102
RTVSPropertyOp18
 70
     1
102
RTVSPropertyOp19
 70
     1
102
RTVSPropertyOp20
 70
     1
102
RTVSPropertyOp21
 70
     1
102
RTVSPropertyOp22
 70
     1
102
RTVSPropertyOp23
 70
     1
102
RTVSPropertyOp24
 70
     1
102
RTVSPropertyOp25
 70
     1
102
RTVSPropertyOp26
 70
     1
102
RTVSPropertyOp27
 70
     1
102
RTVSPropertyOp28
 70
     1
102
RTVSPropertyOp29
 70
     1
102
RTVSPropertyOp30
 70
     1
102
RTVSPropertyOp31
 70
     1
102
RTVSPropertyOp32
 70
     1
102
RTVSPropertyOp33
 70
     1
102
RTVSPropertyOp34
 70
     1
102
RTVSPropertyOp35
 70
     1
102
RTVSPropertyOp36
 70
     1
102
RTVSPropertyOp37
 70
     1
102
RTVSPropertyOp38
 70
     1
102
RTVSPropertyOp39
 70
     1
102
RTVSPropertyOp40
 70
     1
102
RTVSPropertyOp41
 70
     1
102
RTVSPropertyOp42
 70
     1
102
RTVSPropertyOp43
 70
     1
102
RTVSPropertyOp44
 70
     1
102
RTVSPropertyOp45
 70
     1
102
RTVSPropertyOp46
 70
     1
102
RTVSPropertyOp47
 70
     1
102
RTVSPropertyOp48
 70
     1
102
RTVSPropertyOp49
 70
     1
102
RTVSPropertyOp50
 70
     1
102
RTVSPropertyOp51
 70
     0
102
RTVSPropertyOp52
 70
     0
102
RTVSPropertyOp53
 70
     1
102
RTVSPropertyOp54
 70
     1
102
RTVSPropertyOp55
 70
     1
102
RTVSPropertyOp56
 70
     1
102
RTVSPropertyOp57
 70
     1
102
RTVSPropertyOp58
 70
     1
102
RTVSPropertyOp59
 70
     1
102
RTVSPropertyOp60
 70
     1
102
RTVSPropertyOp61
 70
     1
102
RTVSPropertyOp62
 70
     1
  0
XRECORD
  5
A6C0
102
{ACAD_REACTORS
330
A6BF
102
}
330
A6BF
100
AcDbXrecord
280
     1
102
RTVSPost2010Prop28
280
     0
102
RTVSPost2010PropOp28
 70
     1
102
RTVSPost2010Prop29
280
     1
102
RTVSPost2010PropOp29
 70
     1
102
RTVSPost2010Prop30
280
     1
102
RTVSPost2010PropOp30
 70
     1
102
RTVSPost2010Prop31
280
     0
102
RTVSPost2010PropOp31
 70
     1
102
RTVSPost2010Prop32
280
     0
102
RTVSPost2010PropOp32
 70
     1
102
RTVSPost2010Prop33
280
     0
102
RTVSPost2010PropOp33
 70
     1
102
RTVSPost2010Prop34
280
     0
102
RTVSPost2010PropOp34
 70
     1
102
RTVSPost2010Prop35
280
     0
102
RTVSPost2010PropOp35
 70
     1
102
RTVSPost2010Prop36
280
     0
102
RTVSPost2010PropOp36
 70
     1
102
RTVSPost2010Prop37
 90
       50
102
RTVSPost2010PropOp37
 70
     1
102
RTVSPost2010Prop38
140
0.0
102
RTVSPost2010PropOp38
 70
     1
102
RTVSPost2010Prop39
140
1.0
102
RTVSPost2010PropOp39
 70
     1
102
RTVSPost2010Prop40
 90
        0
102
RTVSPost2010PropOp40
 70
     1
102
RTVSPost2010Prop41ColorIndex
 90
       18
102
RTVSPost2010Prop41ColorRGB
 90
        0
102
RTVSPost2010PropOp41
 70
     1
102
RTVSPost2010Prop42
 90
       50
102
RTVSPost2010PropOp42
 70
     1
102
RTVSPost2010Prop43
 90
        3
102
RTVSPost2010PropOp43
 70
     1
102
RTVSPost2010Prop44ColorIndex
 90
        5
102
RTVSPost2010Prop44ColorRGB
 90
      255
102
RTVSPost2010PropOp44
 70
     1
102
RTVSPost2010Prop45
280
     0
102
RTVSPost2010PropOp45
 70
     1
102
RTVSPost2010Prop46
 90
       50
102
RTVSPost2010PropOp46
 70
     1
102
RTVSPost2010Prop47
 90
       50
102
RTVSPost2010PropOp47
 70
     1
102
RTVSPost2010Prop48
 90
       50
102
RTVSPost2010PropOp48
 70
     1
102
RTVSPost2010Prop49
280
     0
102
RTVSPost2010PropOp49
 70
     1
102
RTVSPost2010Prop50
 90
       50
102
RTVSPost2010PropOp50
 70
     1
102
RTVSPost2010Prop51ColorIndex
 90
      256
102
RTVSPost2010Prop51ColorRGB
 90
-16777216
102
RTVSPost2010PropOp51
 70
     0
102
RTVSPost2010Prop52
140
1.0
102
RTVSPost2010PropOp52
 70
     0
102
RTVSPost2010Prop53
 90
        2
102
RTVSPost2010PropOp53
 70
     1
102
RTVSPost2010Prop54
  1
strokes_ogs.tif
102
RTVSPost2010PropOp54
 70
     1
102
RTVSPost2010Prop55
280
     0
102
RTVSPost2010PropOp55
 70
     1
102
RTVSPost2010Prop56
140
1.0
102
RTVSPost2010PropOp56
 70
     1
102
RTVSPost2010Prop57
140
1.0
102
RTVSPost2010PropOp57
 70
     1
102
RTVSPropertyOp0
 70
     1
102
RTVSPropertyOp1
 70
     1
102
RTVSPropertyOp2
 70
     1
102
RTVSPropertyOp3
 70
     1
102
RTVSPropertyOp4
 70
     1
102
RTVSPropertyOp5
 70
     1
102
RTVSPropertyOp6
 70
     1
102
RTVSPropertyOp7
 70
     1
102
RTVSPropertyOp8
 70
     1
102
RTVSPropertyOp9
 70
     1
102
RTVSPropertyOp10
 70
     1
102
RTVSPropertyOp11
 70
     1
102
RTVSPropertyOp12
 70
     1
102
RTVSPropertyOp13
 70
     1
102
RTVSPropertyOp14
 70
     1
102
RTVSPropertyOp15
 70
     1
102
RTVSPropertyOp16
 70
     1
102
RTVSPropertyOp17
 70
     1
102
RTVSPropertyOp18
 70
     1
102
RTVSPropertyOp19
 70
     1
102
RTVSPropertyOp20
 70
     1
102
RTVSPropertyOp21
 70
     1
102
RTVSPropertyOp22
 70
     1
102
RTVSPropertyOp23
 70
     1
102
RTVSPropertyOp24
 70
     1
102
RTVSPropertyOp25
 70
     1
102
RTVSPropertyOp26
 70
     1
102
RTVSPropertyOp27
 70
     1
102
RTVSPropertyOp28
 70
     1
102
RTVSPropertyOp29
 70
     1
102
RTVSPropertyOp30
 70
     1
102
RTVSPropertyOp31
 70
     1
102
RTVSPropertyOp32
 70
     1
102
RTVSPropertyOp33
 70
     1
102
RTVSPropertyOp34
 70
     1
102
RTVSPropertyOp35
 70
     1
102
RTVSPropertyOp36
 70
     1
102
RTVSPropertyOp37
 70
     1
102
RTVSPropertyOp38
 70
     1
102
RTVSPropertyOp39
 70
     1
102
RTVSPropertyOp40
 70
     1
102
RTVSPropertyOp41
 70
     1
102
RTVSPropertyOp42
 70
     1
102
RTVSPropertyOp43
 70
     1
102
RTVSPropertyOp44
 70
     1
102
RTVSPropertyOp45
 70
     1
102
RTVSPropertyOp46
 70
     1
102
RTVSPropertyOp47
 70
     1
102
RTVSPropertyOp48
 70
     1
102
RTVSPropertyOp49
 70
     1
102
RTVSPropertyOp50
 70
     1
102
RTVSPropertyOp51
 70
     0
102
RTVSPropertyOp52
 70
     0
102
RTVSPropertyOp53
 70
     1
102
RTVSPropertyOp54
 70
     1
102
RTVSPropertyOp55
 70
     1
102
RTVSPropertyOp56
 70
     1
102
RTVSPropertyOp57
 70
     1
102
RTVSPropertyOp58
 70
     1
102
RTVSPropertyOp59
 70
     1
102
RTVSPropertyOp60
 70
     1
102
RTVSPropertyOp61
 70
     1
102
RTVSPropertyOp62
 70
     1
  0
XRECORD
  5
A6B2
102
{ACAD_REACTORS
330
A6B1
102
}
330
A6B1
100
AcDbXrecord
280
     1
102
RTVSPost2010Prop28
280
     0
102
RTVSPost2010PropOp28
 70
     1
102
RTVSPost2010Prop29
280
     1
102
RTVSPost2010PropOp29
 70
     1
102
RTVSPost2010Prop30
280
     1
102
RTVSPost2010PropOp30
 70
     1
102
RTVSPost2010Prop31
280
     0
102
RTVSPost2010PropOp31
 70
     1
102
RTVSPost2010Prop32
280
     0
102
RTVSPost2010PropOp32
 70
     1
102
RTVSPost2010Prop33
280
     0
102
RTVSPost2010PropOp33
 70
     1
102
RTVSPost2010Prop34
280
     0
102
RTVSPost2010PropOp34
 70
     1
102
RTVSPost2010Prop35
280
     0
102
RTVSPost2010PropOp35
 70
     1
102
RTVSPost2010Prop36
280
     0
102
RTVSPost2010PropOp36
 70
     1
102
RTVSPost2010Prop37
 90
       50
102
RTVSPost2010PropOp37
 70
     1
102
RTVSPost2010Prop38
140
0.0
102
RTVSPost2010PropOp38
 70
     1
102
RTVSPost2010Prop39
140
1.0
102
RTVSPost2010PropOp39
 70
     1
102
RTVSPost2010Prop40
 90
        0
102
RTVSPost2010PropOp40
 70
     1
102
RTVSPost2010Prop41ColorIndex
 90
       18
102
RTVSPost2010Prop41ColorRGB
 90
        0
102
RTVSPost2010PropOp41
 70
     1
102
RTVSPost2010Prop42
 90
       50
102
RTVSPost2010PropOp42
 70
     1
102
RTVSPost2010Prop43
 90
        3
102
RTVSPost2010PropOp43
 70
     1
102
RTVSPost2010Prop44ColorIndex
 90
        5
102
RTVSPost2010Prop44ColorRGB
 90
      255
102
RTVSPost2010PropOp44
 70
     1
102
RTVSPost2010Prop45
280
     0
102
RTVSPost2010PropOp45
 70
     1
102
RTVSPost2010Prop46
 90
       50
102
RTVSPost2010PropOp46
 70
     1
102
RTVSPost2010Prop47
 90
       50
102
RTVSPost2010PropOp47
 70
     1
102
RTVSPost2010Prop48
 90
       50
102
RTVSPost2010PropOp48
 70
     1
102
RTVSPost2010Prop49
280
     0
102
RTVSPost2010PropOp49
 70
     1
102
RTVSPost2010Prop50
 90
       50
102
RTVSPost2010PropOp50
 70
     1
102
RTVSPost2010Prop51ColorIndex
 90
      256
102
RTVSPost2010Prop51ColorRGB
 90
-16777216
102
RTVSPost2010PropOp51
 70
     0
102
RTVSPost2010Prop52
140
1.0
102
RTVSPost2010PropOp52
 70
     0
102
RTVSPost2010Prop53
 90
        2
102
RTVSPost2010PropOp53
 70
     1
102
RTVSPost2010Prop54
  1
strokes_ogs.tif
102
RTVSPost2010PropOp54
 70
     1
102
RTVSPost2010Prop55
280
     0
102
RTVSPost2010PropOp55
 70
     1
102
RTVSPost2010Prop56
140
1.0
102
RTVSPost2010PropOp56
 70
     1
102
RTVSPost2010Prop57
140
1.0
102
RTVSPost2010PropOp57
 70
     1
102
RTVSPropertyOp0
 70
     1
102
RTVSPropertyOp1
 70
     1
102
RTVSPropertyOp2
 70
     1
102
RTVSPropertyOp3
 70
     1
102
RTVSPropertyOp4
 70
     1
102
RTVSPropertyOp5
 70
     1
102
RTVSPropertyOp6
 70
     1
102
RTVSPropertyOp7
 70
     1
102
RTVSPropertyOp8
 70
     1
102
RTVSPropertyOp9
 70
     1
102
RTVSPropertyOp10
 70
     1
102
RTVSPropertyOp11
 70
     1
102
RTVSPropertyOp12
 70
     1
102
RTVSPropertyOp13
 70
     1
102
RTVSPropertyOp14
 70
     1
102
RTVSPropertyOp15
 70
     1
102
RTVSPropertyOp16
 70
     1
102
RTVSPropertyOp17
 70
     1
102
RTVSPropertyOp18
 70
     1
102
RTVSPropertyOp19
 70
     1
102
RTVSPropertyOp20
 70
     1
102
RTVSPropertyOp21
 70
     1
102
RTVSPropertyOp22
 70
     1
102
RTVSPropertyOp23
 70
     1
102
RTVSPropertyOp24
 70
     1
102
RTVSPropertyOp25
 70
     1
102
RTVSPropertyOp26
 70
     1
102
RTVSPropertyOp27
 70
     1
102
RTVSPropertyOp28
 70
     1
102
RTVSPropertyOp29
 70
     1
102
RTVSPropertyOp30
 70
     1
102
RTVSPropertyOp31
 70
     1
102
RTVSPropertyOp32
 70
     1
102
RTVSPropertyOp33
 70
     1
102
RTVSPropertyOp34
 70
     1
102
RTVSPropertyOp35
 70
     1
102
RTVSPropertyOp36
 70
     1
102
RTVSPropertyOp37
 70
     1
102
RTVSPropertyOp38
 70
     1
102
RTVSPropertyOp39
 70
     1
102
RTVSPropertyOp40
 70
     1
102
RTVSPropertyOp41
 70
     1
102
RTVSPropertyOp42
 70
     1
102
RTVSPropertyOp43
 70
     1
102
RTVSPropertyOp44
 70
     1
102
RTVSPropertyOp45
 70
     1
102
RTVSPropertyOp46
 70
     1
102
RTVSPropertyOp47
 70
     1
102
RTVSPropertyOp48
 70
     1
102
RTVSPropertyOp49
 70
     1
102
RTVSPropertyOp50
 70
     1
102
RTVSPropertyOp51
 70
     0
102
RTVSPropertyOp52
 70
     0
102
RTVSPropertyOp53
 70
     1
102
RTVSPropertyOp54
 70
     1
102
RTVSPropertyOp55
 70
     1
102
RTVSPropertyOp56
 70
     1
102
RTVSPropertyOp57
 70
     1
102
RTVSPropertyOp58
 70
     1
102
RTVSPropertyOp59
 70
     1
102
RTVSPropertyOp60
 70
     1
102
RTVSPropertyOp61
 70
     1
102
RTVSPropertyOp62
 70
     1
  0
XRECORD
  5
A6B6
102
{ACAD_REACTORS
330
A6B5
102
}
330
A6B5
100
AcDbXrecord
280
     1
102
RTVSPost2010Prop28
280
     0
102
RTVSPost2010PropOp28
 70
     1
102
RTVSPost2010Prop29
280
     1
102
RTVSPost2010PropOp29
 70
     1
102
RTVSPost2010Prop30
280
     1
102
RTVSPost2010PropOp30
 70
     1
102
RTVSPost2010Prop31
280
     0
102
RTVSPost2010PropOp31
 70
     1
102
RTVSPost2010Prop32
280
     0
102
RTVSPost2010PropOp32
 70
     1
102
RTVSPost2010Prop33
280
     0
102
RTVSPost2010PropOp33
 70
     1
102
RTVSPost2010Prop34
280
     0
102
RTVSPost2010PropOp34
 70
     1
102
RTVSPost2010Prop35
280
     0
102
RTVSPost2010PropOp35
 70
     1
102
RTVSPost2010Prop36
280
     0
102
RTVSPost2010PropOp36
 70
     1
102
RTVSPost2010Prop37
 90
       50
102
RTVSPost2010PropOp37
 70
     1
102
RTVSPost2010Prop38
140
0.0
102
RTVSPost2010PropOp38
 70
     1
102
RTVSPost2010Prop39
140
1.0
102
RTVSPost2010PropOp39
 70
     1
102
RTVSPost2010Prop40
 90
        0
102
RTVSPost2010PropOp40
 70
     1
102
RTVSPost2010Prop41ColorIndex
 90
       18
102
RTVSPost2010Prop41ColorRGB
 90
        0
102
RTVSPost2010PropOp41
 70
     1
102
RTVSPost2010Prop42
 90
       50
102
RTVSPost2010PropOp42
 70
     1
102
RTVSPost2010Prop43
 90
        3
102
RTVSPost2010PropOp43
 70
     1
102
RTVSPost2010Prop44ColorIndex
 90
        5
102
RTVSPost2010Prop44ColorRGB
 90
      255
102
RTVSPost2010PropOp44
 70
     1
102
RTVSPost2010Prop45
280
     0
102
RTVSPost2010PropOp45
 70
     1
102
RTVSPost2010Prop46
 90
       50
102
RTVSPost2010PropOp46
 70
     1
102
RTVSPost2010Prop47
 90
       50
102
RTVSPost2010PropOp47
 70
     1
102
RTVSPost2010Prop48
 90
       50
102
RTVSPost2010PropOp48
 70
     1
102
RTVSPost2010Prop49
280
     0
102
RTVSPost2010PropOp49
 70
     1
102
RTVSPost2010Prop50
 90
       50
102
RTVSPost2010PropOp50
 70
     1
102
RTVSPost2010Prop51ColorIndex
 90
      256
102
RTVSPost2010Prop51ColorRGB
 90
-16777216
102
RTVSPost2010PropOp51
 70
     0
102
RTVSPost2010Prop52
140
1.0
102
RTVSPost2010PropOp52
 70
     0
102
RTVSPost2010Prop53
 90
        2
102
RTVSPost2010PropOp53
 70
     1
102
RTVSPost2010Prop54
  1
strokes_ogs.tif
102
RTVSPost2010PropOp54
 70
     1
102
RTVSPost2010Prop55
280
     0
102
RTVSPost2010PropOp55
 70
     1
102
RTVSPost2010Prop56
140
1.0
102
RTVSPost2010PropOp56
 70
     1
102
RTVSPost2010Prop57
140
1.0
102
RTVSPost2010PropOp57
 70
     1
102
RTVSPropertyOp0
 70
     1
102
RTVSPropertyOp1
 70
     1
102
RTVSPropertyOp2
 70
     1
102
RTVSPropertyOp3
 70
     1
102
RTVSPropertyOp4
 70
     1
102
RTVSPropertyOp5
 70
     1
102
RTVSPropertyOp6
 70
     1
102
RTVSPropertyOp7
 70
     1
102
RTVSPropertyOp8
 70
     1
102
RTVSPropertyOp9
 70
     1
102
RTVSPropertyOp10
 70
     1
102
RTVSPropertyOp11
 70
     1
102
RTVSPropertyOp12
 70
     1
102
RTVSPropertyOp13
 70
     1
102
RTVSPropertyOp14
 70
     1
102
RTVSPropertyOp15
 70
     1
102
RTVSPropertyOp16
 70
     1
102
RTVSPropertyOp17
 70
     1
102
RTVSPropertyOp18
 70
     1
102
RTVSPropertyOp19
 70
     1
102
RTVSPropertyOp20
 70
     1
102
RTVSPropertyOp21
 70
     1
102
RTVSPropertyOp22
 70
     1
102
RTVSPropertyOp23
 70
     1
102
RTVSPropertyOp24
 70
     1
102
RTVSPropertyOp25
 70
     1
102
RTVSPropertyOp26
 70
     1
102
RTVSPropertyOp27
 70
     1
102
RTVSPropertyOp28
 70
     1
102
RTVSPropertyOp29
 70
     1
102
RTVSPropertyOp30
 70
     1
102
RTVSPropertyOp31
 70
     1
102
RTVSPropertyOp32
 70
     1
102
RTVSPropertyOp33
 70
     1
102
RTVSPropertyOp34
 70
     1
102
RTVSPropertyOp35
 70
     1
102
RTVSPropertyOp36
 70
     1
102
RTVSPropertyOp37
 70
     1
102
RTVSPropertyOp38
 70
     1
102
RTVSPropertyOp39
 70
     1
102
RTVSPropertyOp40
 70
     1
102
RTVSPropertyOp41
 70
     1
102
RTVSPropertyOp42
 70
     1
102
RTVSPropertyOp43
 70
     1
102
RTVSPropertyOp44
 70
     1
102
RTVSPropertyOp45
 70
     1
102
RTVSPropertyOp46
 70
     1
102
RTVSPropertyOp47
 70
     1
102
RTVSPropertyOp48
 70
     1
102
RTVSPropertyOp49
 70
     1
102
RTVSPropertyOp50
 70
     1
102
RTVSPropertyOp51
 70
     0
102
RTVSPropertyOp52
 70
     0
102
RTVSPropertyOp53
 70
     1
102
RTVSPropertyOp54
 70
     1
102
RTVSPropertyOp55
 70
     1
102
RTVSPropertyOp56
 70
     1
102
RTVSPropertyOp57
 70
     1
102
RTVSPropertyOp58
 70
     1
102
RTVSPropertyOp59
 70
     1
102
RTVSPropertyOp60
 70
     1
102
RTVSPropertyOp61
 70
     1
102
RTVSPropertyOp62
 70
     1
  0
XRECORD
  5
A6D0
102
{ACAD_REACTORS
330
A6CF
102
}
330
A6CF
100
AcDbXrecord
280
     1
102
RTVSPost2010Prop28
280
     0
102
RTVSPost2010PropOp28
 70
     1
102
RTVSPost2010Prop29
280
     1
102
RTVSPost2010PropOp29
 70
     1
102
RTVSPost2010Prop30
280
     1
102
RTVSPost2010PropOp30
 70
     1
102
RTVSPost2010Prop31
280
     0
102
RTVSPost2010PropOp31
 70
     1
102
RTVSPost2010Prop32
280
     0
102
RTVSPost2010PropOp32
 70
     1
102
RTVSPost2010Prop33
280
     0
102
RTVSPost2010PropOp33
 70
     1
102
RTVSPost2010Prop34
280
     0
102
RTVSPost2010PropOp34
 70
     1
102
RTVSPost2010Prop35
280
     0
102
RTVSPost2010PropOp35
 70
     1
102
RTVSPost2010Prop36
280
     0
102
RTVSPost2010PropOp36
 70
     1
102
RTVSPost2010Prop37
 90
       50
102
RTVSPost2010PropOp37
 70
     0
102
RTVSPost2010Prop38
140
0.0
102
RTVSPost2010PropOp38
 70
     0
102
RTVSPost2010Prop39
140
1.0
102
RTVSPost2010PropOp39
 70
     0
102
RTVSPost2010Prop40
 90
        0
102
RTVSPost2010PropOp40
 70
     0
102
RTVSPost2010Prop41ColorIndex
 90
       18
102
RTVSPost2010Prop41ColorRGB
 90
        0
102
RTVSPost2010PropOp41
 70
     0
102
RTVSPost2010Prop42
 90
       50
102
RTVSPost2010PropOp42
 70
     0
102
RTVSPost2010Prop43
 90
        3
102
RTVSPost2010PropOp43
 70
     0
102
RTVSPost2010Prop44ColorIndex
 90
        5
102
RTVSPost2010Prop44ColorRGB
 90
      255
102
RTVSPost2010PropOp44
 70
     0
102
RTVSPost2010Prop45
280
     0
102
RTVSPost2010PropOp45
 70
     1
102
RTVSPost2010Prop46
 90
       50
102
RTVSPost2010PropOp46
 70
     0
102
RTVSPost2010Prop47
 90
       50
102
RTVSPost2010PropOp47
 70
     0
102
RTVSPost2010Prop48
 90
       50
102
RTVSPost2010PropOp48
 70
     0
102
RTVSPost2010Prop49
280
     0
102
RTVSPost2010PropOp49
 70
     1
102
RTVSPost2010Prop50
 90
       50
102
RTVSPost2010PropOp50
 70
     0
102
RTVSPost2010Prop51ColorIndex
 90
      256
102
RTVSPost2010Prop51ColorRGB
 90
-16777216
102
RTVSPost2010PropOp51
 70
     0
102
RTVSPost2010Prop52
140
1.0
102
RTVSPost2010PropOp52
 70
     0
102
RTVSPost2010Prop53
 90
        2
102
RTVSPost2010PropOp53
 70
     0
102
RTVSPost2010Prop54
  1
strokes_ogs.tif
102
RTVSPost2010PropOp54
 70
     0
102
RTVSPost2010Prop55
280
     0
102
RTVSPost2010PropOp55
 70
     1
102
RTVSPost2010Prop56
140
1.0
102
RTVSPost2010PropOp56
 70
     0
102
RTVSPost2010Prop57
140
1.0
102
RTVSPost2010PropOp57
 70
     0
102
RTVSPropertyOp0
 70
     0
102
RTVSPropertyOp1
 70
     0
102
RTVSPropertyOp2
 70
     0
102
RTVSPropertyOp3
 70
     0
102
RTVSPropertyOp4
 70
     0
102
RTVSPropertyOp5
 70
     0
102
RTVSPropertyOp6
 70
     0
102
RTVSPropertyOp7
 70
     0
102
RTVSPropertyOp8
 70
     0
102
RTVSPropertyOp9
 70
     0
102
RTVSPropertyOp10
 70
     0
102
RTVSPropertyOp11
 70
     0
102
RTVSPropertyOp12
 70
     0
102
RTVSPropertyOp13
 70
     0
102
RTVSPropertyOp14
 70
     2
102
RTVSPropertyOp15
 70
     0
102
RTVSPropertyOp16
 70
     0
102
RTVSPropertyOp17
 70
     0
102
RTVSPropertyOp18
 70
     0
102
RTVSPropertyOp19
 70
     0
102
RTVSPropertyOp20
 70
     0
102
RTVSPropertyOp21
 70
     0
102
RTVSPropertyOp22
 70
     0
102
RTVSPropertyOp23
 70
     0
102
RTVSPropertyOp24
 70
     0
102
RTVSPropertyOp25
 70
     0
102
RTVSPropertyOp26
 70
     0
102
RTVSPropertyOp27
 70
     0
102
RTVSPropertyOp28
 70
     1
102
RTVSPropertyOp29
 70
     1
102
RTVSPropertyOp30
 70
     1
102
RTVSPropertyOp31
 70
     1
102
RTVSPropertyOp32
 70
     1
102
RTVSPropertyOp33
 70
     1
102
RTVSPropertyOp34
 70
     1
102
RTVSPropertyOp35
 70
     1
102
RTVSPropertyOp36
 70
     1
102
RTVSPropertyOp37
 70
     0
102
RTVSPropertyOp38
 70
     0
102
RTVSPropertyOp39
 70
     0
102
RTVSPropertyOp40
 70
     0
102
RTVSPropertyOp41
 70
     0
102
RTVSPropertyOp42
 70
     0
102
RTVSPropertyOp43
 70
     0
102
RTVSPropertyOp44
 70
     0
102
RTVSPropertyOp45
 70
     1
102
RTVSPropertyOp46
 70
     0
102
RTVSPropertyOp47
 70
     0
102
RTVSPropertyOp48
 70
     0
102
RTVSPropertyOp49
 70
     1
102
RTVSPropertyOp50
 70
     0
102
RTVSPropertyOp51
 70
     0
102
RTVSPropertyOp52
 70
     0
102
RTVSPropertyOp53
 70
     0
102
RTVSPropertyOp54
 70
     0
102
RTVSPropertyOp55
 70
     1
102
RTVSPropertyOp56
 70
     0
102
RTVSPropertyOp57
 70
     0
102
RTVSPropertyOp58
 70
     0
102
RTVSPropertyOp59
 70
     0
102
RTVSPropertyOp60
 70
     0
102
RTVSPropertyOp61
 70
     0
102
RTVSPropertyOp62
 70
     0
  0
XRECORD
  5
A6BE
102
{ACAD_REACTORS
330
A6BD
102
}
330
A6BD
100
AcDbXrecord
280
     1
102
RTVSPost2010Prop28
280
     0
102
RTVSPost2010PropOp28
 70
     1
102
RTVSPost2010Prop29
280
     1
102
RTVSPost2010PropOp29
 70
     1
102
RTVSPost2010Prop30
280
     1
102
RTVSPost2010PropOp30
 70
     1
102
RTVSPost2010Prop31
280
     0
102
RTVSPost2010PropOp31
 70
     1
102
RTVSPost2010Prop32
280
     0
102
RTVSPost2010PropOp32
 70
     1
102
RTVSPost2010Prop33
280
     0
102
RTVSPost2010PropOp33
 70
     1
102
RTVSPost2010Prop34
280
     0
102
RTVSPost2010PropOp34
 70
     1
102
RTVSPost2010Prop35
280
     0
102
RTVSPost2010PropOp35
 70
     1
102
RTVSPost2010Prop36
280
     0
102
RTVSPost2010PropOp36
 70
     1
102
RTVSPost2010Prop37
 90
       50
102
RTVSPost2010PropOp37
 70
     1
102
RTVSPost2010Prop38
140
0.0
102
RTVSPost2010PropOp38
 70
     1
102
RTVSPost2010Prop39
140
1.0
102
RTVSPost2010PropOp39
 70
     1
102
RTVSPost2010Prop40
 90
        0
102
RTVSPost2010PropOp40
 70
     1
102
RTVSPost2010Prop41ColorIndex
 90
       18
102
RTVSPost2010Prop41ColorRGB
 90
        0
102
RTVSPost2010PropOp41
 70
     1
102
RTVSPost2010Prop42
 90
       50
102
RTVSPost2010PropOp42
 70
     1
102
RTVSPost2010Prop43
 90
        3
102
RTVSPost2010PropOp43
 70
     1
102
RTVSPost2010Prop44ColorIndex
 90
        5
102
RTVSPost2010Prop44ColorRGB
 90
      255
102
RTVSPost2010PropOp44
 70
     1
102
RTVSPost2010Prop45
280
     0
102
RTVSPost2010PropOp45
 70
     1
102
RTVSPost2010Prop46
 90
       50
102
RTVSPost2010PropOp46
 70
     1
102
RTVSPost2010Prop47
 90
       50
102
RTVSPost2010PropOp47
 70
     1
102
RTVSPost2010Prop48
 90
       50
102
RTVSPost2010PropOp48
 70
     1
102
RTVSPost2010Prop49
280
     0
102
RTVSPost2010PropOp49
 70
     1
102
RTVSPost2010Prop50
 90
       50
102
RTVSPost2010PropOp50
 70
     1
102
RTVSPost2010Prop51ColorIndex
 90
      256
102
RTVSPost2010Prop51ColorRGB
 90
-16777216
102
RTVSPost2010PropOp51
 70
     0
102
RTVSPost2010Prop52
140
1.0
102
RTVSPost2010PropOp52
 70
     0
102
RTVSPost2010Prop53
 90
        2
102
RTVSPost2010PropOp53
 70
     1
102
RTVSPost2010Prop54
  1
strokes_ogs.tif
102
RTVSPost2010PropOp54
 70
     1
102
RTVSPost2010Prop55
280
     0
102
RTVSPost2010PropOp55
 70
     1
102
RTVSPost2010Prop56
140
1.0
102
RTVSPost2010PropOp56
 70
     1
102
RTVSPost2010Prop57
140
1.0
102
RTVSPost2010PropOp57
 70
     1
102
RTVSPropertyOp0
 70
     1
102
RTVSPropertyOp1
 70
     1
102
RTVSPropertyOp2
 70
     1
102
RTVSPropertyOp3
 70
     1
102
RTVSPropertyOp4
 70
     1
102
RTVSPropertyOp5
 70
     1
102
RTVSPropertyOp6
 70
     1
102
RTVSPropertyOp7
 70
     1
102
RTVSPropertyOp8
 70
     1
102
RTVSPropertyOp9
 70
     1
102
RTVSPropertyOp10
 70
     1
102
RTVSPropertyOp11
 70
     1
102
RTVSPropertyOp12
 70
     1
102
RTVSPropertyOp13
 70
     1
102
RTVSPropertyOp14
 70
     1
102
RTVSPropertyOp15
 70
     1
102
RTVSPropertyOp16
 70
     1
102
RTVSPropertyOp17
 70
     1
102
RTVSPropertyOp18
 70
     1
102
RTVSPropertyOp19
 70
     1
102
RTVSPropertyOp20
 70
     1
102
RTVSPropertyOp21
 70
     1
102
RTVSPropertyOp22
 70
     1
102
RTVSPropertyOp23
 70
     1
102
RTVSPropertyOp24
 70
     1
102
RTVSPropertyOp25
 70
     1
102
RTVSPropertyOp26
 70
     1
102
RTVSPropertyOp27
 70
     1
102
RTVSPropertyOp28
 70
     1
102
RTVSPropertyOp29
 70
     1
102
RTVSPropertyOp30
 70
     1
102
RTVSPropertyOp31
 70
     1
102
RTVSPropertyOp32
 70
     1
102
RTVSPropertyOp33
 70
     1
102
RTVSPropertyOp34
 70
     1
102
RTVSPropertyOp35
 70
     1
102
RTVSPropertyOp36
 70
     1
102
RTVSPropertyOp37
 70
     1
102
RTVSPropertyOp38
 70
     1
102
RTVSPropertyOp39
 70
     1
102
RTVSPropertyOp40
 70
     1
102
RTVSPropertyOp41
 70
     1
102
RTVSPropertyOp42
 70
     1
102
RTVSPropertyOp43
 70
     1
102
RTVSPropertyOp44
 70
     1
102
RTVSPropertyOp45
 70
     1
102
RTVSPropertyOp46
 70
     1
102
RTVSPropertyOp47
 70
     1
102
RTVSPropertyOp48
 70
     1
102
RTVSPropertyOp49
 70
     1
102
RTVSPropertyOp50
 70
     1
102
RTVSPropertyOp51
 70
     0
102
RTVSPropertyOp52
 70
     0
102
RTVSPropertyOp53
 70
     1
102
RTVSPropertyOp54
 70
     1
102
RTVSPropertyOp55
 70
     1
102
RTVSPropertyOp56
 70
     1
102
RTVSPropertyOp57
 70
     1
102
RTVSPropertyOp58
 70
     1
102
RTVSPropertyOp59
 70
     1
102
RTVSPropertyOp60
 70
     1
102
RTVSPropertyOp61
 70
     1
102
RTVSPropertyOp62
 70
     1
  0
XRECORD
  5
A6A2
102
{ACAD_REACTORS
330
A6A1
102
}
330
A6A1
100
AcDbXrecord
280
     1
102
RTVSPost2010Prop28
280
     0
102
RTVSPost2010PropOp28
 70
     1
102
RTVSPost2010Prop29
280
     1
102
RTVSPost2010PropOp29
 70
     1
102
RTVSPost2010Prop30
280
     1
102
RTVSPost2010PropOp30
 70
     1
102
RTVSPost2010Prop31
280
     0
102
RTVSPost2010PropOp31
 70
     1
102
RTVSPost2010Prop32
280
     0
102
RTVSPost2010PropOp32
 70
     1
102
RTVSPost2010Prop33
280
     0
102
RTVSPost2010PropOp33
 70
     1
102
RTVSPost2010Prop34
280
     0
102
RTVSPost2010PropOp34
 70
     1
102
RTVSPost2010Prop35
280
     0
102
RTVSPost2010PropOp35
 70
     1
102
RTVSPost2010Prop36
280
     0
102
RTVSPost2010PropOp36
 70
     1
102
RTVSPost2010Prop37
 90
       50
102
RTVSPost2010PropOp37
 70
     1
102
RTVSPost2010Prop38
140
0.0
102
RTVSPost2010PropOp38
 70
     1
102
RTVSPost2010Prop39
140
1.0
102
RTVSPost2010PropOp39
 70
     1
102
RTVSPost2010Prop40
 90
        0
102
RTVSPost2010PropOp40
 70
     1
102
RTVSPost2010Prop41ColorIndex
 90
       18
102
RTVSPost2010Prop41ColorRGB
 90
        0
102
RTVSPost2010PropOp41
 70
     1
102
RTVSPost2010Prop42
 90
       50
102
RTVSPost2010PropOp42
 70
     1
102
RTVSPost2010Prop43
 90
        3
102
RTVSPost2010PropOp43
 70
     1
102
RTVSPost2010Prop44ColorIndex
 90
        5
102
RTVSPost2010Prop44ColorRGB
 90
      255
102
RTVSPost2010PropOp44
 70
     1
102
RTVSPost2010Prop45
280
     0
102
RTVSPost2010PropOp45
 70
     1
102
RTVSPost2010Prop46
 90
       50
102
RTVSPost2010PropOp46
 70
     1
102
RTVSPost2010Prop47
 90
       50
102
RTVSPost2010PropOp47
 70
     1
102
RTVSPost2010Prop48
 90
       50
102
RTVSPost2010PropOp48
 70
     1
102
RTVSPost2010Prop49
280
     0
102
RTVSPost2010PropOp49
 70
     1
102
RTVSPost2010Prop50
 90
       50
102
RTVSPost2010PropOp50
 70
     1
102
RTVSPost2010Prop51ColorIndex
 90
      256
102
RTVSPost2010Prop51ColorRGB
 90
-16777216
102
RTVSPost2010PropOp51
 70
     0
102
RTVSPost2010Prop52
140
1.0
102
RTVSPost2010PropOp52
 70
     0
102
RTVSPost2010Prop53
 90
        2
102
RTVSPost2010PropOp53
 70
     1
102
RTVSPost2010Prop54
  1
strokes_ogs.tif
102
RTVSPost2010PropOp54
 70
     1
102
RTVSPost2010Prop55
280
     0
102
RTVSPost2010PropOp55
 70
     1
102
RTVSPost2010Prop56
140
1.0
102
RTVSPost2010PropOp56
 70
     1
102
RTVSPost2010Prop57
140
1.0
102
RTVSPost2010PropOp57
 70
     1
102
RTVSPropertyOp0
 70
     1
102
RTVSPropertyOp1
 70
     1
102
RTVSPropertyOp2
 70
     1
102
RTVSPropertyOp3
 70
     1
102
RTVSPropertyOp4
 70
     1
102
RTVSPropertyOp5
 70
     1
102
RTVSPropertyOp6
 70
     1
102
RTVSPropertyOp7
 70
     1
102
RTVSPropertyOp8
 70
     1
102
RTVSPropertyOp9
 70
     1
102
RTVSPropertyOp10
 70
     1
102
RTVSPropertyOp11
 70
     1
102
RTVSPropertyOp12
 70
     1
102
RTVSPropertyOp13
 70
     1
102
RTVSPropertyOp14
 70
     1
102
RTVSPropertyOp15
 70
     1
102
RTVSPropertyOp16
 70
     1
102
RTVSPropertyOp17
 70
     1
102
RTVSPropertyOp18
 70
     1
102
RTVSPropertyOp19
 70
     1
102
RTVSPropertyOp20
 70
     1
102
RTVSPropertyOp21
 70
     1
102
RTVSPropertyOp22
 70
     1
102
RTVSPropertyOp23
 70
     1
102
RTVSPropertyOp24
 70
     1
102
RTVSPropertyOp25
 70
     1
102
RTVSPropertyOp26
 70
     1
102
RTVSPropertyOp27
 70
     1
102
RTVSPropertyOp28
 70
     1
102
RTVSPropertyOp29
 70
     1
102
RTVSPropertyOp30
 70
     1
102
RTVSPropertyOp31
 70
     1
102
RTVSPropertyOp32
 70
     1
102
RTVSPropertyOp33
 70
     1
102
RTVSPropertyOp34
 70
     1
102
RTVSPropertyOp35
 70
     1
102
RTVSPropertyOp36
 70
     1
102
RTVSPropertyOp37
 70
     1
102
RTVSPropertyOp38
 70
     1
102
RTVSPropertyOp39
 70
     1
102
RTVSPropertyOp40
 70
     1
102
RTVSPropertyOp41
 70
     1
102
RTVSPropertyOp42
 70
     1
102
RTVSPropertyOp43
 70
     1
102
RTVSPropertyOp44
 70
     1
102
RTVSPropertyOp45
 70
     1
102
RTVSPropertyOp46
 70
     1
102
RTVSPropertyOp47
 70
     1
102
RTVSPropertyOp48
 70
     1
102
RTVSPropertyOp49
 70
     1
102
RTVSPropertyOp50
 70
     1
102
RTVSPropertyOp51
 70
     0
102
RTVSPropertyOp52
 70
     0
102
RTVSPropertyOp53
 70
     1
102
RTVSPropertyOp54
 70
     1
102
RTVSPropertyOp55
 70
     1
102
RTVSPropertyOp56
 70
     1
102
RTVSPropertyOp57
 70
     1
102
RTVSPropertyOp58
 70
     1
102
RTVSPropertyOp59
 70
     1
102
RTVSPropertyOp60
 70
     1
102
RTVSPropertyOp61
 70
     1
102
RTVSPropertyOp62
 70
     1
  0
XRECORD
  5
A6A4
102
{ACAD_REACTORS
330
A6A3
102
}
330
A6A3
100
AcDbXrecord
280
     1
102
RTVSPost2010Prop28
280
     0
102
RTVSPost2010PropOp28
 70
     1
102
RTVSPost2010Prop29
280
     1
102
RTVSPost2010PropOp29
 70
     1
102
RTVSPost2010Prop30
280
     1
102
RTVSPost2010PropOp30
 70
     1
102
RTVSPost2010Prop31
280
     0
102
RTVSPost2010PropOp31
 70
     1
102
RTVSPost2010Prop32
280
     0
102
RTVSPost2010PropOp32
 70
     1
102
RTVSPost2010Prop33
280
     0
102
RTVSPost2010PropOp33
 70
     1
102
RTVSPost2010Prop34
280
     0
102
RTVSPost2010PropOp34
 70
     1
102
RTVSPost2010Prop35
280
     0
102
RTVSPost2010PropOp35
 70
     1
102
RTVSPost2010Prop36
280
     0
102
RTVSPost2010PropOp36
 70
     1
102
RTVSPost2010Prop37
 90
       50
102
RTVSPost2010PropOp37
 70
     1
102
RTVSPost2010Prop38
140
0.0
102
RTVSPost2010PropOp38
 70
     1
102
RTVSPost2010Prop39
140
1.0
102
RTVSPost2010PropOp39
 70
     1
102
RTVSPost2010Prop40
 90
        0
102
RTVSPost2010PropOp40
 70
     1
102
RTVSPost2010Prop41ColorIndex
 90
       18
102
RTVSPost2010Prop41ColorRGB
 90
        0
102
RTVSPost2010PropOp41
 70
     1
102
RTVSPost2010Prop42
 90
       50
102
RTVSPost2010PropOp42
 70
     1
102
RTVSPost2010Prop43
 90
        3
102
RTVSPost2010PropOp43
 70
     1
102
RTVSPost2010Prop44ColorIndex
 90
        5
102
RTVSPost2010Prop44ColorRGB
 90
      255
102
RTVSPost2010PropOp44
 70
     1
102
RTVSPost2010Prop45
280
     0
102
RTVSPost2010PropOp45
 70
     1
102
RTVSPost2010Prop46
 90
       50
102
RTVSPost2010PropOp46
 70
     1
102
RTVSPost2010Prop47
 90
       50
102
RTVSPost2010PropOp47
 70
     1
102
RTVSPost2010Prop48
 90
       50
102
RTVSPost2010PropOp48
 70
     1
102
RTVSPost2010Prop49
280
     0
102
RTVSPost2010PropOp49
 70
     1
102
RTVSPost2010Prop50
 90
       50
102
RTVSPost2010PropOp50
 70
     1
102
RTVSPost2010Prop51ColorIndex
 90
      256
102
RTVSPost2010Prop51ColorRGB
 90
-16777216
102
RTVSPost2010PropOp51
 70
     0
102
RTVSPost2010Prop52
140
1.0
102
RTVSPost2010PropOp52
 70
     0
102
RTVSPost2010Prop53
 90
        2
102
RTVSPost2010PropOp53
 70
     1
102
RTVSPost2010Prop54
  1
strokes_ogs.tif
102
RTVSPost2010PropOp54
 70
     1
102
RTVSPost2010Prop55
280
     0
102
RTVSPost2010PropOp55
 70
     1
102
RTVSPost2010Prop56
140
1.0
102
RTVSPost2010PropOp56
 70
     1
102
RTVSPost2010Prop57
140
1.0
102
RTVSPost2010PropOp57
 70
     1
102
RTVSPropertyOp0
 70
     1
102
RTVSPropertyOp1
 70
     1
102
RTVSPropertyOp2
 70
     1
102
RTVSPropertyOp3
 70
     1
102
RTVSPropertyOp4
 70
     1
102
RTVSPropertyOp5
 70
     1
102
RTVSPropertyOp6
 70
     1
102
RTVSPropertyOp7
 70
     1
102
RTVSPropertyOp8
 70
     1
102
RTVSPropertyOp9
 70
     1
102
RTVSPropertyOp10
 70
     1
102
RTVSPropertyOp11
 70
     1
102
RTVSPropertyOp12
 70
     1
102
RTVSPropertyOp13
 70
     1
102
RTVSPropertyOp14
 70
     1
102
RTVSPropertyOp15
 70
     1
102
RTVSPropertyOp16
 70
     1
102
RTVSPropertyOp17
 70
     1
102
RTVSPropertyOp18
 70
     1
102
RTVSPropertyOp19
 70
     1
102
RTVSPropertyOp20
 70
     1
102
RTVSPropertyOp21
 70
     1
102
RTVSPropertyOp22
 70
     1
102
RTVSPropertyOp23
 70
     1
102
RTVSPropertyOp24
 70
     1
102
RTVSPropertyOp25
 70
     1
102
RTVSPropertyOp26
 70
     1
102
RTVSPropertyOp27
 70
     1
102
RTVSPropertyOp28
 70
     1
102
RTVSPropertyOp29
 70
     1
102
RTVSPropertyOp30
 70
     1
102
RTVSPropertyOp31
 70
     1
102
RTVSPropertyOp32
 70
     1
102
RTVSPropertyOp33
 70
     1
102
RTVSPropertyOp34
 70
     1
102
RTVSPropertyOp35
 70
     1
102
RTVSPropertyOp36
 70
     1
102
RTVSPropertyOp37
 70
     1
102
RTVSPropertyOp38
 70
     1
102
RTVSPropertyOp39
 70
     1
102
RTVSPropertyOp40
 70
     1
102
RTVSPropertyOp41
 70
     1
102
RTVSPropertyOp42
 70
     1
102
RTVSPropertyOp43
 70
     1
102
RTVSPropertyOp44
 70
     1
102
RTVSPropertyOp45
 70
     1
102
RTVSPropertyOp46
 70
     1
102
RTVSPropertyOp47
 70
     1
102
RTVSPropertyOp48
 70
     1
102
RTVSPropertyOp49
 70
     1
102
RTVSPropertyOp50
 70
     1
102
RTVSPropertyOp51
 70
     0
102
RTVSPropertyOp52
 70
     0
102
RTVSPropertyOp53
 70
     1
102
RTVSPropertyOp54
 70
     1
102
RTVSPropertyOp55
 70
     1
102
RTVSPropertyOp56
 70
     1
102
RTVSPropertyOp57
 70
     1
102
RTVSPropertyOp58
 70
     1
102
RTVSPropertyOp59
 70
     1
102
RTVSPropertyOp60
 70
     1
102
RTVSPropertyOp61
 70
     1
102
RTVSPropertyOp62
 70
     1
  0
XRECORD
  5
A6A6
102
{ACAD_REACTORS
330
A6A5
102
}
330
A6A5
100
AcDbXrecord
280
     1
102
RTVSPost2010Prop28
280
     0
102
RTVSPost2010PropOp28
 70
     1
102
RTVSPost2010Prop29
280
     1
102
RTVSPost2010PropOp29
 70
     1
102
RTVSPost2010Prop30
280
     1
102
RTVSPost2010PropOp30
 70
     1
102
RTVSPost2010Prop31
280
     0
102
RTVSPost2010PropOp31
 70
     1
102
RTVSPost2010Prop32
280
     0
102
RTVSPost2010PropOp32
 70
     1
102
RTVSPost2010Prop33
280
     0
102
RTVSPost2010PropOp33
 70
     1
102
RTVSPost2010Prop34
280
     0
102
RTVSPost2010PropOp34
 70
     1
102
RTVSPost2010Prop35
280
     0
102
RTVSPost2010PropOp35
 70
     1
102
RTVSPost2010Prop36
280
     0
102
RTVSPost2010PropOp36
 70
     1
102
RTVSPost2010Prop37
 90
       50
102
RTVSPost2010PropOp37
 70
     1
102
RTVSPost2010Prop38
140
0.0
102
RTVSPost2010PropOp38
 70
     1
102
RTVSPost2010Prop39
140
1.0
102
RTVSPost2010PropOp39
 70
     1
102
RTVSPost2010Prop40
 90
        0
102
RTVSPost2010PropOp40
 70
     1
102
RTVSPost2010Prop41ColorIndex
 90
       18
102
RTVSPost2010Prop41ColorRGB
 90
        0
102
RTVSPost2010PropOp41
 70
     1
102
RTVSPost2010Prop42
 90
       50
102
RTVSPost2010PropOp42
 70
     1
102
RTVSPost2010Prop43
 90
        3
102
RTVSPost2010PropOp43
 70
     1
102
RTVSPost2010Prop44ColorIndex
 90
        5
102
RTVSPost2010Prop44ColorRGB
 90
      255
102
RTVSPost2010PropOp44
 70
     1
102
RTVSPost2010Prop45
280
     0
102
RTVSPost2010PropOp45
 70
     1
102
RTVSPost2010Prop46
 90
       50
102
RTVSPost2010PropOp46
 70
     1
102
RTVSPost2010Prop47
 90
       50
102
RTVSPost2010PropOp47
 70
     1
102
RTVSPost2010Prop48
 90
       50
102
RTVSPost2010PropOp48
 70
     1
102
RTVSPost2010Prop49
280
     0
102
RTVSPost2010PropOp49
 70
     1
102
RTVSPost2010Prop50
 90
       50
102
RTVSPost2010PropOp50
 70
     1
102
RTVSPost2010Prop51ColorIndex
 90
      256
102
RTVSPost2010Prop51ColorRGB
 90
-16777216
102
RTVSPost2010PropOp51
 70
     0
102
RTVSPost2010Prop52
140
1.0
102
RTVSPost2010PropOp52
 70
     0
102
RTVSPost2010Prop53
 90
        2
102
RTVSPost2010PropOp53
 70
     1
102
RTVSPost2010Prop54
  1
strokes_ogs.tif
102
RTVSPost2010PropOp54
 70
     1
102
RTVSPost2010Prop55
280
     0
102
RTVSPost2010PropOp55
 70
     1
102
RTVSPost2010Prop56
140
1.0
102
RTVSPost2010PropOp56
 70
     1
102
RTVSPost2010Prop57
140
1.0
102
RTVSPost2010PropOp57
 70
     1
102
RTVSPropertyOp0
 70
     1
102
RTVSPropertyOp1
 70
     1
102
RTVSPropertyOp2
 70
     1
102
RTVSPropertyOp3
 70
     1
102
RTVSPropertyOp4
 70
     1
102
RTVSPropertyOp5
 70
     1
102
RTVSPropertyOp6
 70
     1
102
RTVSPropertyOp7
 70
     1
102
RTVSPropertyOp8
 70
     1
102
RTVSPropertyOp9
 70
     1
102
RTVSPropertyOp10
 70
     1
102
RTVSPropertyOp11
 70
     1
102
RTVSPropertyOp12
 70
     1
102
RTVSPropertyOp13
 70
     1
102
RTVSPropertyOp14
 70
     1
102
RTVSPropertyOp15
 70
     1
102
RTVSPropertyOp16
 70
     1
102
RTVSPropertyOp17
 70
     1
102
RTVSPropertyOp18
 70
     1
102
RTVSPropertyOp19
 70
     1
102
RTVSPropertyOp20
 70
     1
102
RTVSPropertyOp21
 70
     1
102
RTVSPropertyOp22
 70
     1
102
RTVSPropertyOp23
 70
     1
102
RTVSPropertyOp24
 70
     1
102
RTVSPropertyOp25
 70
     1
102
RTVSPropertyOp26
 70
     1
102
RTVSPropertyOp27
 70
     1
102
RTVSPropertyOp28
 70
     1
102
RTVSPropertyOp29
 70
     1
102
RTVSPropertyOp30
 70
     1
102
RTVSPropertyOp31
 70
     1
102
RTVSPropertyOp32
 70
     1
102
RTVSPropertyOp33
 70
     1
102
RTVSPropertyOp34
 70
     1
102
RTVSPropertyOp35
 70
     1
102
RTVSPropertyOp36
 70
     1
102
RTVSPropertyOp37
 70
     1
102
RTVSPropertyOp38
 70
     1
102
RTVSPropertyOp39
 70
     1
102
RTVSPropertyOp40
 70
     1
102
RTVSPropertyOp41
 70
     1
102
RTVSPropertyOp42
 70
     1
102
RTVSPropertyOp43
 70
     1
102
RTVSPropertyOp44
 70
     1
102
RTVSPropertyOp45
 70
     1
102
RTVSPropertyOp46
 70
     1
102
RTVSPropertyOp47
 70
     1
102
RTVSPropertyOp48
 70
     1
102
RTVSPropertyOp49
 70
     1
102
RTVSPropertyOp50
 70
     1
102
RTVSPropertyOp51
 70
     0
102
RTVSPropertyOp52
 70
     0
102
RTVSPropertyOp53
 70
     1
102
RTVSPropertyOp54
 70
     1
102
RTVSPropertyOp55
 70
     1
102
RTVSPropertyOp56
 70
     1
102
RTVSPropertyOp57
 70
     1
102
RTVSPropertyOp58
 70
     1
102
RTVSPropertyOp59
 70
     1
102
RTVSPropertyOp60
 70
     1
102
RTVSPropertyOp61
 70
     1
102
RTVSPropertyOp62
 70
     1
  0
XRECORD
  5
A6A8
102
{ACAD_REACTORS
330
A6A7
102
}
330
A6A7
100
AcDbXrecord
280
     1
102
RTVSPost2010Prop28
280
     0
102
RTVSPost2010PropOp28
 70
     1
102
RTVSPost2010Prop29
280
     1
102
RTVSPost2010PropOp29
 70
     1
102
RTVSPost2010Prop30
280
     1
102
RTVSPost2010PropOp30
 70
     1
102
RTVSPost2010Prop31
280
     0
102
RTVSPost2010PropOp31
 70
     1
102
RTVSPost2010Prop32
280
     0
102
RTVSPost2010PropOp32
 70
     1
102
RTVSPost2010Prop33
280
     0
102
RTVSPost2010PropOp33
 70
     1
102
RTVSPost2010Prop34
280
     0
102
RTVSPost2010PropOp34
 70
     1
102
RTVSPost2010Prop35
280
     0
102
RTVSPost2010PropOp35
 70
     1
102
RTVSPost2010Prop36
280
     0
102
RTVSPost2010PropOp36
 70
     1
102
RTVSPost2010Prop37
 90
       50
102
RTVSPost2010PropOp37
 70
     1
102
RTVSPost2010Prop38
140
0.0
102
RTVSPost2010PropOp38
 70
     1
102
RTVSPost2010Prop39
140
1.0
102
RTVSPost2010PropOp39
 70
     1
102
RTVSPost2010Prop40
 90
        0
102
RTVSPost2010PropOp40
 70
     1
102
RTVSPost2010Prop41ColorIndex
 90
       18
102
RTVSPost2010Prop41ColorRGB
 90
        0
102
RTVSPost2010PropOp41
 70
     1
102
RTVSPost2010Prop42
 90
       50
102
RTVSPost2010PropOp42
 70
     1
102
RTVSPost2010Prop43
 90
        3
102
RTVSPost2010PropOp43
 70
     1
102
RTVSPost2010Prop44ColorIndex
 90
        5
102
RTVSPost2010Prop44ColorRGB
 90
      255
102
RTVSPost2010PropOp44
 70
     1
102
RTVSPost2010Prop45
280
     0
102
RTVSPost2010PropOp45
 70
     1
102
RTVSPost2010Prop46
 90
       50
102
RTVSPost2010PropOp46
 70
     1
102
RTVSPost2010Prop47
 90
       50
102
RTVSPost2010PropOp47
 70
     1
102
RTVSPost2010Prop48
 90
       50
102
RTVSPost2010PropOp48
 70
     1
102
RTVSPost2010Prop49
280
     0
102
RTVSPost2010PropOp49
 70
     1
102
RTVSPost2010Prop50
 90
       50
102
RTVSPost2010PropOp50
 70
     1
102
RTVSPost2010Prop51ColorIndex
 90
      256
102
RTVSPost2010Prop51ColorRGB
 90
-16777216
102
RTVSPost2010PropOp51
 70
     0
102
RTVSPost2010Prop52
140
1.0
102
RTVSPost2010PropOp52
 70
     0
102
RTVSPost2010Prop53
 90
        2
102
RTVSPost2010PropOp53
 70
     1
102
RTVSPost2010Prop54
  1
strokes_ogs.tif
102
RTVSPost2010PropOp54
 70
     1
102
RTVSPost2010Prop55
280
     0
102
RTVSPost2010PropOp55
 70
     1
102
RTVSPost2010Prop56
140
1.0
102
RTVSPost2010PropOp56
 70
     1
102
RTVSPost2010Prop57
140
1.0
102
RTVSPost2010PropOp57
 70
     1
102
RTVSPropertyOp0
 70
     1
102
RTVSPropertyOp1
 70
     1
102
RTVSPropertyOp2
 70
     1
102
RTVSPropertyOp3
 70
     1
102
RTVSPropertyOp4
 70
     1
102
RTVSPropertyOp5
 70
     1
102
RTVSPropertyOp6
 70
     1
102
RTVSPropertyOp7
 70
     1
102
RTVSPropertyOp8
 70
     1
102
RTVSPropertyOp9
 70
     1
102
RTVSPropertyOp10
 70
     1
102
RTVSPropertyOp11
 70
     1
102
RTVSPropertyOp12
 70
     1
102
RTVSPropertyOp13
 70
     1
102
RTVSPropertyOp14
 70
     1
102
RTVSPropertyOp15
 70
     1
102
RTVSPropertyOp16
 70
     1
102
RTVSPropertyOp17
 70
     1
102
RTVSPropertyOp18
 70
     1
102
RTVSPropertyOp19
 70
     1
102
RTVSPropertyOp20
 70
     1
102
RTVSPropertyOp21
 70
     1
102
RTVSPropertyOp22
 70
     1
102
RTVSPropertyOp23
 70
     1
102
RTVSPropertyOp24
 70
     1
102
RTVSPropertyOp25
 70
     1
102
RTVSPropertyOp26
 70
     1
102
RTVSPropertyOp27
 70
     1
102
RTVSPropertyOp28
 70
     1
102
RTVSPropertyOp29
 70
     1
102
RTVSPropertyOp30
 70
     1
102
RTVSPropertyOp31
 70
     1
102
RTVSPropertyOp32
 70
     1
102
RTVSPropertyOp33
 70
     1
102
RTVSPropertyOp34
 70
     1
102
RTVSPropertyOp35
 70
     1
102
RTVSPropertyOp36
 70
     1
102
RTVSPropertyOp37
 70
     1
102
RTVSPropertyOp38
 70
     1
102
RTVSPropertyOp39
 70
     1
102
RTVSPropertyOp40
 70
     1
102
RTVSPropertyOp41
 70
     1
102
RTVSPropertyOp42
 70
     1
102
RTVSPropertyOp43
 70
     1
102
RTVSPropertyOp44
 70
     1
102
RTVSPropertyOp45
 70
     1
102
RTVSPropertyOp46
 70
     1
102
RTVSPropertyOp47
 70
     1
102
RTVSPropertyOp48
 70
     1
102
RTVSPropertyOp49
 70
     1
102
RTVSPropertyOp50
 70
     1
102
RTVSPropertyOp51
 70
     0
102
RTVSPropertyOp52
 70
     0
102
RTVSPropertyOp53
 70
     1
102
RTVSPropertyOp54
 70
     1
102
RTVSPropertyOp55
 70
     1
102
RTVSPropertyOp56
 70
     1
102
RTVSPropertyOp57
 70
     1
102
RTVSPropertyOp58
 70
     1
102
RTVSPropertyOp59
 70
     1
102
RTVSPropertyOp60
 70
     1
102
RTVSPropertyOp61
 70
     1
102
RTVSPropertyOp62
 70
     1
  0
XRECORD
  5
A6B0
102
{ACAD_REACTORS
330
A6AF
102
}
330
A6AF
100
AcDbXrecord
280
     1
102
RTVSPost2010Prop28
280
     0
102
RTVSPost2010PropOp28
 70
     1
102
RTVSPost2010Prop29
280
     1
102
RTVSPost2010PropOp29
 70
     1
102
RTVSPost2010Prop30
280
     1
102
RTVSPost2010PropOp30
 70
     1
102
RTVSPost2010Prop31
280
     0
102
RTVSPost2010PropOp31
 70
     1
102
RTVSPost2010Prop32
280
     0
102
RTVSPost2010PropOp32
 70
     1
102
RTVSPost2010Prop33
280
     0
102
RTVSPost2010PropOp33
 70
     1
102
RTVSPost2010Prop34
280
     0
102
RTVSPost2010PropOp34
 70
     1
102
RTVSPost2010Prop35
280
     0
102
RTVSPost2010PropOp35
 70
     1
102
RTVSPost2010Prop36
280
     0
102
RTVSPost2010PropOp36
 70
     1
102
RTVSPost2010Prop37
 90
       50
102
RTVSPost2010PropOp37
 70
     1
102
RTVSPost2010Prop38
140
0.0
102
RTVSPost2010PropOp38
 70
     1
102
RTVSPost2010Prop39
140
1.0
102
RTVSPost2010PropOp39
 70
     1
102
RTVSPost2010Prop40
 90
        0
102
RTVSPost2010PropOp40
 70
     1
102
RTVSPost2010Prop41ColorIndex
 90
       18
102
RTVSPost2010Prop41ColorRGB
 90
        0
102
RTVSPost2010PropOp41
 70
     1
102
RTVSPost2010Prop42
 90
       50
102
RTVSPost2010PropOp42
 70
     1
102
RTVSPost2010Prop43
 90
        3
102
RTVSPost2010PropOp43
 70
     1
102
RTVSPost2010Prop44ColorIndex
 90
        5
102
RTVSPost2010Prop44ColorRGB
 90
      255
102
RTVSPost2010PropOp44
 70
     1
102
RTVSPost2010Prop45
280
     0
102
RTVSPost2010PropOp45
 70
     1
102
RTVSPost2010Prop46
 90
       50
102
RTVSPost2010PropOp46
 70
     1
102
RTVSPost2010Prop47
 90
       50
102
RTVSPost2010PropOp47
 70
     1
102
RTVSPost2010Prop48
 90
       50
102
RTVSPost2010PropOp48
 70
     1
102
RTVSPost2010Prop49
280
     0
102
RTVSPost2010PropOp49
 70
     1
102
RTVSPost2010Prop50
 90
       50
102
RTVSPost2010PropOp50
 70
     1
102
RTVSPost2010Prop51ColorIndex
 90
      256
102
RTVSPost2010Prop51ColorRGB
 90
-16777216
102
RTVSPost2010PropOp51
 70
     0
102
RTVSPost2010Prop52
140
1.0
102
RTVSPost2010PropOp52
 70
     0
102
RTVSPost2010Prop53
 90
        2
102
RTVSPost2010PropOp53
 70
     1
102
RTVSPost2010Prop54
  1
strokes_ogs.tif
102
RTVSPost2010PropOp54
 70
     1
102
RTVSPost2010Prop55
280
     0
102
RTVSPost2010PropOp55
 70
     1
102
RTVSPost2010Prop56
140
1.0
102
RTVSPost2010PropOp56
 70
     1
102
RTVSPost2010Prop57
140
1.0
102
RTVSPost2010PropOp57
 70
     1
102
RTVSPropertyOp0
 70
     1
102
RTVSPropertyOp1
 70
     1
102
RTVSPropertyOp2
 70
     1
102
RTVSPropertyOp3
 70
     1
102
RTVSPropertyOp4
 70
     1
102
RTVSPropertyOp5
 70
     1
102
RTVSPropertyOp6
 70
     1
102
RTVSPropertyOp7
 70
     1
102
RTVSPropertyOp8
 70
     1
102
RTVSPropertyOp9
 70
     1
102
RTVSPropertyOp10
 70
     1
102
RTVSPropertyOp11
 70
     1
102
RTVSPropertyOp12
 70
     1
102
RTVSPropertyOp13
 70
     1
102
RTVSPropertyOp14
 70
     1
102
RTVSPropertyOp15
 70
     1
102
RTVSPropertyOp16
 70
     1
102
RTVSPropertyOp17
 70
     1
102
RTVSPropertyOp18
 70
     1
102
RTVSPropertyOp19
 70
     1
102
RTVSPropertyOp20
 70
     1
102
RTVSPropertyOp21
 70
     1
102
RTVSPropertyOp22
 70
     1
102
RTVSPropertyOp23
 70
     1
102
RTVSPropertyOp24
 70
     1
102
RTVSPropertyOp25
 70
     1
102
RTVSPropertyOp26
 70
     1
102
RTVSPropertyOp27
 70
     1
102
RTVSPropertyOp28
 70
     1
102
RTVSPropertyOp29
 70
     1
102
RTVSPropertyOp30
 70
     1
102
RTVSPropertyOp31
 70
     1
102
RTVSPropertyOp32
 70
     1
102
RTVSPropertyOp33
 70
     1
102
RTVSPropertyOp34
 70
     1
102
RTVSPropertyOp35
 70
     1
102
RTVSPropertyOp36
 70
     1
102
RTVSPropertyOp37
 70
     1
102
RTVSPropertyOp38
 70
     1
102
RTVSPropertyOp39
 70
     1
102
RTVSPropertyOp40
 70
     1
102
RTVSPropertyOp41
 70
     1
102
RTVSPropertyOp42
 70
     1
102
RTVSPropertyOp43
 70
     1
102
RTVSPropertyOp44
 70
     1
102
RTVSPropertyOp45
 70
     1
102
RTVSPropertyOp46
 70
     1
102
RTVSPropertyOp47
 70
     1
102
RTVSPropertyOp48
 70
     1
102
RTVSPropertyOp49
 70
     1
102
RTVSPropertyOp50
 70
     1
102
RTVSPropertyOp51
 70
     0
102
RTVSPropertyOp52
 70
     0
102
RTVSPropertyOp53
 70
     1
102
RTVSPropertyOp54
 70
     1
102
RTVSPropertyOp55
 70
     1
102
RTVSPropertyOp56
 70
     1
102
RTVSPropertyOp57
 70
     1
102
RTVSPropertyOp58
 70
     1
102
RTVSPropertyOp59
 70
     1
102
RTVSPropertyOp60
 70
     1
102
RTVSPropertyOp61
 70
     1
102
RTVSPropertyOp62
 70
     1
  0
XRECORD
  5
A6CC
102
{ACAD_REACTORS
330
A6CB
102
}
330
A6CB
100
AcDbXrecord
280
     1
102
RTVSPost2010Prop28
280
     0
102
RTVSPost2010PropOp28
 70
     1
102
RTVSPost2010Prop29
280
     1
102
RTVSPost2010PropOp29
 70
     1
102
RTVSPost2010Prop30
280
     1
102
RTVSPost2010PropOp30
 70
     1
102
RTVSPost2010Prop31
280
     0
102
RTVSPost2010PropOp31
 70
     1
102
RTVSPost2010Prop32
280
     0
102
RTVSPost2010PropOp32
 70
     1
102
RTVSPost2010Prop33
280
     0
102
RTVSPost2010PropOp33
 70
     1
102
RTVSPost2010Prop34
280
     0
102
RTVSPost2010PropOp34
 70
     1
102
RTVSPost2010Prop35
280
     0
102
RTVSPost2010PropOp35
 70
     1
102
RTVSPost2010Prop36
280
     0
102
RTVSPost2010PropOp36
 70
     1
102
RTVSPost2010Prop37
 90
       50
102
RTVSPost2010PropOp37
 70
     0
102
RTVSPost2010Prop38
140
0.0
102
RTVSPost2010PropOp38
 70
     0
102
RTVSPost2010Prop39
140
1.0
102
RTVSPost2010PropOp39
 70
     0
102
RTVSPost2010Prop40
 90
        0
102
RTVSPost2010PropOp40
 70
     0
102
RTVSPost2010Prop41ColorIndex
 90
       18
102
RTVSPost2010Prop41ColorRGB
 90
        0
102
RTVSPost2010PropOp41
 70
     0
102
RTVSPost2010Prop42
 90
       50
102
RTVSPost2010PropOp42
 70
     0
102
RTVSPost2010Prop43
 90
        3
102
RTVSPost2010PropOp43
 70
     0
102
RTVSPost2010Prop44ColorIndex
 90
        5
102
RTVSPost2010Prop44ColorRGB
 90
      255
102
RTVSPost2010PropOp44
 70
     0
102
RTVSPost2010Prop45
280
     0
102
RTVSPost2010PropOp45
 70
     1
102
RTVSPost2010Prop46
 90
       50
102
RTVSPost2010PropOp46
 70
     0
102
RTVSPost2010Prop47
 90
       50
102
RTVSPost2010PropOp47
 70
     0
102
RTVSPost2010Prop48
 90
       50
102
RTVSPost2010PropOp48
 70
     0
102
RTVSPost2010Prop49
280
     0
102
RTVSPost2010PropOp49
 70
     1
102
RTVSPost2010Prop50
 90
       50
102
RTVSPost2010PropOp50
 70
     0
102
RTVSPost2010Prop51ColorIndex
 90
      256
102
RTVSPost2010Prop51ColorRGB
 90
-16777216
102
RTVSPost2010PropOp51
 70
     0
102
RTVSPost2010Prop52
140
1.0
102
RTVSPost2010PropOp52
 70
     0
102
RTVSPost2010Prop53
 90
        2
102
RTVSPost2010PropOp53
 70
     0
102
RTVSPost2010Prop54
  1
strokes_ogs.tif
102
RTVSPost2010PropOp54
 70
     0
102
RTVSPost2010Prop55
280
     0
102
RTVSPost2010PropOp55
 70
     1
102
RTVSPost2010Prop56
140
1.0
102
RTVSPost2010PropOp56
 70
     0
102
RTVSPost2010Prop57
140
1.0
102
RTVSPost2010PropOp57
 70
     0
102
RTVSPropertyOp0
 70
     0
102
RTVSPropertyOp1
 70
     0
102
RTVSPropertyOp2
 70
     0
102
RTVSPropertyOp3
 70
     0
102
RTVSPropertyOp4
 70
     0
102
RTVSPropertyOp5
 70
     0
102
RTVSPropertyOp6
 70
     0
102
RTVSPropertyOp7
 70
     0
102
RTVSPropertyOp8
 70
     0
102
RTVSPropertyOp9
 70
     0
102
RTVSPropertyOp10
 70
     0
102
RTVSPropertyOp11
 70
     0
102
RTVSPropertyOp12
 70
     0
102
RTVSPropertyOp13
 70
     0
102
RTVSPropertyOp14
 70
     2
102
RTVSPropertyOp15
 70
     0
102
RTVSPropertyOp16
 70
     0
102
RTVSPropertyOp17
 70
     0
102
RTVSPropertyOp18
 70
     0
102
RTVSPropertyOp19
 70
     0
102
RTVSPropertyOp20
 70
     0
102
RTVSPropertyOp21
 70
     0
102
RTVSPropertyOp22
 70
     0
102
RTVSPropertyOp23
 70
     0
102
RTVSPropertyOp24
 70
     0
102
RTVSPropertyOp25
 70
     0
102
RTVSPropertyOp26
 70
     0
102
RTVSPropertyOp27
 70
     0
102
RTVSPropertyOp28
 70
     1
102
RTVSPropertyOp29
 70
     1
102
RTVSPropertyOp30
 70
     1
102
RTVSPropertyOp31
 70
     1
102
RTVSPropertyOp32
 70
     1
102
RTVSPropertyOp33
 70
     1
102
RTVSPropertyOp34
 70
     1
102
RTVSPropertyOp35
 70
     1
102
RTVSPropertyOp36
 70
     1
102
RTVSPropertyOp37
 70
     0
102
RTVSPropertyOp38
 70
     0
102
RTVSPropertyOp39
 70
     0
102
RTVSPropertyOp40
 70
     0
102
RTVSPropertyOp41
 70
     0
102
RTVSPropertyOp42
 70
     0
102
RTVSPropertyOp43
 70
     0
102
RTVSPropertyOp44
 70
     0
102
RTVSPropertyOp45
 70
     1
102
RTVSPropertyOp46
 70
     0
102
RTVSPropertyOp47
 70
     0
102
RTVSPropertyOp48
 70
     0
102
RTVSPropertyOp49
 70
     1
102
RTVSPropertyOp50
 70
     0
102
RTVSPropertyOp51
 70
     0
102
RTVSPropertyOp52
 70
     0
102
RTVSPropertyOp53
 70
     0
102
RTVSPropertyOp54
 70
     0
102
RTVSPropertyOp55
 70
     1
102
RTVSPropertyOp56
 70
     0
102
RTVSPropertyOp57
 70
     0
102
RTVSPropertyOp58
 70
     0
102
RTVSPropertyOp59
 70
     0
102
RTVSPropertyOp60
 70
     0
102
RTVSPropertyOp61
 70
     0
102
RTVSPropertyOp62
 70
     0
  0
XRECORD
  5
A6BC
102
{ACAD_REACTORS
330
A6BB
102
}
330
A6BB
100
AcDbXrecord
280
     1
102
RTVSPost2010Prop28
280
     0
102
RTVSPost2010PropOp28
 70
     1
102
RTVSPost2010Prop29
280
     1
102
RTVSPost2010PropOp29
 70
     1
102
RTVSPost2010Prop30
280
     1
102
RTVSPost2010PropOp30
 70
     1
102
RTVSPost2010Prop31
280
     0
102
RTVSPost2010PropOp31
 70
     1
102
RTVSPost2010Prop32
280
     0
102
RTVSPost2010PropOp32
 70
     1
102
RTVSPost2010Prop33
280
     0
102
RTVSPost2010PropOp33
 70
     1
102
RTVSPost2010Prop34
280
     0
102
RTVSPost2010PropOp34
 70
     1
102
RTVSPost2010Prop35
280
     0
102
RTVSPost2010PropOp35
 70
     1
102
RTVSPost2010Prop36
280
     0
102
RTVSPost2010PropOp36
 70
     1
102
RTVSPost2010Prop37
 90
       50
102
RTVSPost2010PropOp37
 70
     1
102
RTVSPost2010Prop38
140
0.0
102
RTVSPost2010PropOp38
 70
     1
102
RTVSPost2010Prop39
140
1.0
102
RTVSPost2010PropOp39
 70
     1
102
RTVSPost2010Prop40
 90
        0
102
RTVSPost2010PropOp40
 70
     1
102
RTVSPost2010Prop41ColorIndex
 90
       18
102
RTVSPost2010Prop41ColorRGB
 90
        0
102
RTVSPost2010PropOp41
 70
     1
102
RTVSPost2010Prop42
 90
       50
102
RTVSPost2010PropOp42
 70
     1
102
RTVSPost2010Prop43
 90
        3
102
RTVSPost2010PropOp43
 70
     1
102
RTVSPost2010Prop44ColorIndex
 90
        5
102
RTVSPost2010Prop44ColorRGB
 90
      255
102
RTVSPost2010PropOp44
 70
     1
102
RTVSPost2010Prop45
280
     0
102
RTVSPost2010PropOp45
 70
     1
102
RTVSPost2010Prop46
 90
       50
102
RTVSPost2010PropOp46
 70
     1
102
RTVSPost2010Prop47
 90
       50
102
RTVSPost2010PropOp47
 70
     1
102
RTVSPost2010Prop48
 90
       50
102
RTVSPost2010PropOp48
 70
     1
102
RTVSPost2010Prop49
280
     0
102
RTVSPost2010PropOp49
 70
     1
102
RTVSPost2010Prop50
 90
       50
102
RTVSPost2010PropOp50
 70
     1
102
RTVSPost2010Prop51ColorIndex
 90
      256
102
RTVSPost2010Prop51ColorRGB
 90
-16777216
102
RTVSPost2010PropOp51
 70
     0
102
RTVSPost2010Prop52
140
1.0
102
RTVSPost2010PropOp52
 70
     0
102
RTVSPost2010Prop53
 90
        2
102
RTVSPost2010PropOp53
 70
     1
102
RTVSPost2010Prop54
  1
strokes_ogs.tif
102
RTVSPost2010PropOp54
 70
     1
102
RTVSPost2010Prop55
280
     0
102
RTVSPost2010PropOp55
 70
     1
102
RTVSPost2010Prop56
140
1.0
102
RTVSPost2010PropOp56
 70
     1
102
RTVSPost2010Prop57
140
1.0
102
RTVSPost2010PropOp57
 70
     1
102
RTVSPropertyOp0
 70
     1
102
RTVSPropertyOp1
 70
     1
102
RTVSPropertyOp2
 70
     1
102
RTVSPropertyOp3
 70
     1
102
RTVSPropertyOp4
 70
     1
102
RTVSPropertyOp5
 70
     1
102
RTVSPropertyOp6
 70
     1
102
RTVSPropertyOp7
 70
     1
102
RTVSPropertyOp8
 70
     1
102
RTVSPropertyOp9
 70
     1
102
RTVSPropertyOp10
 70
     1
102
RTVSPropertyOp11
 70
     1
102
RTVSPropertyOp12
 70
     1
102
RTVSPropertyOp13
 70
     1
102
RTVSPropertyOp14
 70
     1
102
RTVSPropertyOp15
 70
     1
102
RTVSPropertyOp16
 70
     1
102
RTVSPropertyOp17
 70
     1
102
RTVSPropertyOp18
 70
     1
102
RTVSPropertyOp19
 70
     1
102
RTVSPropertyOp20
 70
     1
102
RTVSPropertyOp21
 70
     1
102
RTVSPropertyOp22
 70
     1
102
RTVSPropertyOp23
 70
     1
102
RTVSPropertyOp24
 70
     1
102
RTVSPropertyOp25
 70
     1
102
RTVSPropertyOp26
 70
     1
102
RTVSPropertyOp27
 70
     1
102
RTVSPropertyOp28
 70
     1
102
RTVSPropertyOp29
 70
     1
102
RTVSPropertyOp30
 70
     1
102
RTVSPropertyOp31
 70
     1
102
RTVSPropertyOp32
 70
     1
102
RTVSPropertyOp33
 70
     1
102
RTVSPropertyOp34
 70
     1
102
RTVSPropertyOp35
 70
     1
102
RTVSPropertyOp36
 70
     1
102
RTVSPropertyOp37
 70
     1
102
RTVSPropertyOp38
 70
     1
102
RTVSPropertyOp39
 70
     1
102
RTVSPropertyOp40
 70
     1
102
RTVSPropertyOp41
 70
     1
102
RTVSPropertyOp42
 70
     1
102
RTVSPropertyOp43
 70
     1
102
RTVSPropertyOp44
 70
     1
102
RTVSPropertyOp45
 70
     1
102
RTVSPropertyOp46
 70
     1
102
RTVSPropertyOp47
 70
     1
102
RTVSPropertyOp48
 70
     1
102
RTVSPropertyOp49
 70
     1
102
RTVSPropertyOp50
 70
     1
102
RTVSPropertyOp51
 70
     0
102
RTVSPropertyOp52
 70
     0
102
RTVSPropertyOp53
 70
     1
102
RTVSPropertyOp54
 70
     1
102
RTVSPropertyOp55
 70
     1
102
RTVSPropertyOp56
 70
     1
102
RTVSPropertyOp57
 70
     1
102
RTVSPropertyOp58
 70
     1
102
RTVSPropertyOp59
 70
     1
102
RTVSPropertyOp60
 70
     1
102
RTVSPropertyOp61
 70
     1
102
RTVSPropertyOp62
 70
     1
  0
XRECORD
  5
A6CE
102
{ACAD_REACTORS
330
A6CD
102
}
330
A6CD
100
AcDbXrecord
280
     1
102
RTVSPost2010Prop28
280
     0
102
RTVSPost2010PropOp28
 70
     1
102
RTVSPost2010Prop29
280
     1
102
RTVSPost2010PropOp29
 70
     1
102
RTVSPost2010Prop30
280
     1
102
RTVSPost2010PropOp30
 70
     1
102
RTVSPost2010Prop31
280
     0
102
RTVSPost2010PropOp31
 70
     1
102
RTVSPost2010Prop32
280
     0
102
RTVSPost2010PropOp32
 70
     1
102
RTVSPost2010Prop33
280
     0
102
RTVSPost2010PropOp33
 70
     1
102
RTVSPost2010Prop34
280
     0
102
RTVSPost2010PropOp34
 70
     1
102
RTVSPost2010Prop35
280
     0
102
RTVSPost2010PropOp35
 70
     1
102
RTVSPost2010Prop36
280
     0
102
RTVSPost2010PropOp36
 70
     1
102
RTVSPost2010Prop37
 90
       50
102
RTVSPost2010PropOp37
 70
     0
102
RTVSPost2010Prop38
140
0.0
102
RTVSPost2010PropOp38
 70
     0
102
RTVSPost2010Prop39
140
1.0
102
RTVSPost2010PropOp39
 70
     0
102
RTVSPost2010Prop40
 90
        0
102
RTVSPost2010PropOp40
 70
     0
102
RTVSPost2010Prop41ColorIndex
 90
       18
102
RTVSPost2010Prop41ColorRGB
 90
        0
102
RTVSPost2010PropOp41
 70
     0
102
RTVSPost2010Prop42
 90
       50
102
RTVSPost2010PropOp42
 70
     0
102
RTVSPost2010Prop43
 90
        3
102
RTVSPost2010PropOp43
 70
     0
102
RTVSPost2010Prop44ColorIndex
 90
        5
102
RTVSPost2010Prop44ColorRGB
 90
      255
102
RTVSPost2010PropOp44
 70
     0
102
RTVSPost2010Prop45
280
     0
102
RTVSPost2010PropOp45
 70
     1
102
RTVSPost2010Prop46
 90
       50
102
RTVSPost2010PropOp46
 70
     0
102
RTVSPost2010Prop47
 90
       50
102
RTVSPost2010PropOp47
 70
     0
102
RTVSPost2010Prop48
 90
       50
102
RTVSPost2010PropOp48
 70
     0
102
RTVSPost2010Prop49
280
     0
102
RTVSPost2010PropOp49
 70
     1
102
RTVSPost2010Prop50
 90
       50
102
RTVSPost2010PropOp50
 70
     0
102
RTVSPost2010Prop51ColorIndex
 90
      256
102
RTVSPost2010Prop51ColorRGB
 90
-16777216
102
RTVSPost2010PropOp51
 70
     0
102
RTVSPost2010Prop52
140
1.0
102
RTVSPost2010PropOp52
 70
     0
102
RTVSPost2010Prop53
 90
        2
102
RTVSPost2010PropOp53
 70
     0
102
RTVSPost2010Prop54
  1
strokes_ogs.tif
102
RTVSPost2010PropOp54
 70
     0
102
RTVSPost2010Prop55
280
     0
102
RTVSPost2010PropOp55
 70
     1
102
RTVSPost2010Prop56
140
1.0
102
RTVSPost2010PropOp56
 70
     0
102
RTVSPost2010Prop57
140
1.0
102
RTVSPost2010PropOp57
 70
     0
102
RTVSPropertyOp0
 70
     0
102
RTVSPropertyOp1
 70
     0
102
RTVSPropertyOp2
 70
     0
102
RTVSPropertyOp3
 70
     0
102
RTVSPropertyOp4
 70
     0
102
RTVSPropertyOp5
 70
     0
102
RTVSPropertyOp6
 70
     0
102
RTVSPropertyOp7
 70
     0
102
RTVSPropertyOp8
 70
     0
102
RTVSPropertyOp9
 70
     0
102
RTVSPropertyOp10
 70
     0
102
RTVSPropertyOp11
 70
     0
102
RTVSPropertyOp12
 70
     0
102
RTVSPropertyOp13
 70
     0
102
RTVSPropertyOp14
 70
     2
102
RTVSPropertyOp15
 70
     0
102
RTVSPropertyOp16
 70
     0
102
RTVSPropertyOp17
 70
     0
102
RTVSPropertyOp18
 70
     0
102
RTVSPropertyOp19
 70
     0
102
RTVSPropertyOp20
 70
     0
102
RTVSPropertyOp21
 70
     0
102
RTVSPropertyOp22
 70
     0
102
RTVSPropertyOp23
 70
     0
102
RTVSPropertyOp24
 70
     0
102
RTVSPropertyOp25
 70
     0
102
RTVSPropertyOp26
 70
     0
102
RTVSPropertyOp27
 70
     0
102
RTVSPropertyOp28
 70
     1
102
RTVSPropertyOp29
 70
     1
102
RTVSPropertyOp30
 70
     1
102
RTVSPropertyOp31
 70
     1
102
RTVSPropertyOp32
 70
     1
102
RTVSPropertyOp33
 70
     1
102
RTVSPropertyOp34
 70
     1
102
RTVSPropertyOp35
 70
     1
102
RTVSPropertyOp36
 70
     1
102
RTVSPropertyOp37
 70
     0
102
RTVSPropertyOp38
 70
     0
102
RTVSPropertyOp39
 70
     0
102
RTVSPropertyOp40
 70
     0
102
RTVSPropertyOp41
 70
     0
102
RTVSPropertyOp42
 70
     0
102
RTVSPropertyOp43
 70
     0
102
RTVSPropertyOp44
 70
     0
102
RTVSPropertyOp45
 70
     1
102
RTVSPropertyOp46
 70
     0
102
RTVSPropertyOp47
 70
     0
102
RTVSPropertyOp48
 70
     0
102
RTVSPropertyOp49
 70
     1
102
RTVSPropertyOp50
 70
     0
102
RTVSPropertyOp51
 70
     0
102
RTVSPropertyOp52
 70
     0
102
RTVSPropertyOp53
 70
     0
102
RTVSPropertyOp54
 70
     0
102
RTVSPropertyOp55
 70
     1
102
RTVSPropertyOp56
 70
     0
102
RTVSPropertyOp57
 70
     0
102
RTVSPropertyOp58
 70
     0
102
RTVSPropertyOp59
 70
     0
102
RTVSPropertyOp60
 70
     0
102
RTVSPropertyOp61
 70
     0
102
RTVSPropertyOp62
 70
     0
  0
XRECORD
  5
A6B4
102
{ACAD_REACTORS
330
A6B3
102
}
330
A6B3
100
AcDbXrecord
280
     1
102
RTVSPost2010Prop28
280
     0
102
RTVSPost2010PropOp28
 70
     1
102
RTVSPost2010Prop29
280
     1
102
RTVSPost2010PropOp29
 70
     1
102
RTVSPost2010Prop30
280
     1
102
RTVSPost2010PropOp30
 70
     1
102
RTVSPost2010Prop31
280
     0
102
RTVSPost2010PropOp31
 70
     1
102
RTVSPost2010Prop32
280
     0
102
RTVSPost2010PropOp32
 70
     1
102
RTVSPost2010Prop33
280
     0
102
RTVSPost2010PropOp33
 70
     1
102
RTVSPost2010Prop34
280
     0
102
RTVSPost2010PropOp34
 70
     1
102
RTVSPost2010Prop35
280
     0
102
RTVSPost2010PropOp35
 70
     1
102
RTVSPost2010Prop36
280
     0
102
RTVSPost2010PropOp36
 70
     1
102
RTVSPost2010Prop37
 90
       50
102
RTVSPost2010PropOp37
 70
     1
102
RTVSPost2010Prop38
140
0.0
102
RTVSPost2010PropOp38
 70
     1
102
RTVSPost2010Prop39
140
1.0
102
RTVSPost2010PropOp39
 70
     1
102
RTVSPost2010Prop40
 90
        0
102
RTVSPost2010PropOp40
 70
     1
102
RTVSPost2010Prop41ColorIndex
 90
       18
102
RTVSPost2010Prop41ColorRGB
 90
        0
102
RTVSPost2010PropOp41
 70
     1
102
RTVSPost2010Prop42
 90
       50
102
RTVSPost2010PropOp42
 70
     1
102
RTVSPost2010Prop43
 90
        3
102
RTVSPost2010PropOp43
 70
     1
102
RTVSPost2010Prop44ColorIndex
 90
        5
102
RTVSPost2010Prop44ColorRGB
 90
      255
102
RTVSPost2010PropOp44
 70
     1
102
RTVSPost2010Prop45
280
     0
102
RTVSPost2010PropOp45
 70
     1
102
RTVSPost2010Prop46
 90
       50
102
RTVSPost2010PropOp46
 70
     1
102
RTVSPost2010Prop47
 90
       50
102
RTVSPost2010PropOp47
 70
     1
102
RTVSPost2010Prop48
 90
       50
102
RTVSPost2010PropOp48
 70
     1
102
RTVSPost2010Prop49
280
     0
102
RTVSPost2010PropOp49
 70
     1
102
RTVSPost2010Prop50
 90
       50
102
RTVSPost2010PropOp50
 70
     1
102
RTVSPost2010Prop51ColorIndex
 90
      256
102
RTVSPost2010Prop51ColorRGB
 90
-16777216
102
RTVSPost2010PropOp51
 70
     0
102
RTVSPost2010Prop52
140
1.0
102
RTVSPost2010PropOp52
 70
     0
102
RTVSPost2010Prop53
 90
        2
102
RTVSPost2010PropOp53
 70
     1
102
RTVSPost2010Prop54
  1
strokes_ogs.tif
102
RTVSPost2010PropOp54
 70
     1
102
RTVSPost2010Prop55
280
     0
102
RTVSPost2010PropOp55
 70
     1
102
RTVSPost2010Prop56
140
1.0
102
RTVSPost2010PropOp56
 70
     1
102
RTVSPost2010Prop57
140
1.0
102
RTVSPost2010PropOp57
 70
     1
102
RTVSPropertyOp0
 70
     1
102
RTVSPropertyOp1
 70
     1
102
RTVSPropertyOp2
 70
     1
102
RTVSPropertyOp3
 70
     1
102
RTVSPropertyOp4
 70
     1
102
RTVSPropertyOp5
 70
     1
102
RTVSPropertyOp6
 70
     1
102
RTVSPropertyOp7
 70
     1
102
RTVSPropertyOp8
 70
     1
102
RTVSPropertyOp9
 70
     1
102
RTVSPropertyOp10
 70
     1
102
RTVSPropertyOp11
 70
     1
102
RTVSPropertyOp12
 70
     1
102
RTVSPropertyOp13
 70
     1
102
RTVSPropertyOp14
 70
     1
102
RTVSPropertyOp15
 70
     1
102
RTVSPropertyOp16
 70
     1
102
RTVSPropertyOp17
 70
     1
102
RTVSPropertyOp18
 70
     1
102
RTVSPropertyOp19
 70
     1
102
RTVSPropertyOp20
 70
     1
102
RTVSPropertyOp21
 70
     1
102
RTVSPropertyOp22
 70
     1
102
RTVSPropertyOp23
 70
     1
102
RTVSPropertyOp24
 70
     1
102
RTVSPropertyOp25
 70
     1
102
RTVSPropertyOp26
 70
     1
102
RTVSPropertyOp27
 70
     1
102
RTVSPropertyOp28
 70
     1
102
RTVSPropertyOp29
 70
     1
102
RTVSPropertyOp30
 70
     1
102
RTVSPropertyOp31
 70
     1
102
RTVSPropertyOp32
 70
     1
102
RTVSPropertyOp33
 70
     1
102
RTVSPropertyOp34
 70
     1
102
RTVSPropertyOp35
 70
     1
102
RTVSPropertyOp36
 70
     1
102
RTVSPropertyOp37
 70
     1
102
RTVSPropertyOp38
 70
     1
102
RTVSPropertyOp39
 70
     1
102
RTVSPropertyOp40
 70
     1
102
RTVSPropertyOp41
 70
     1
102
RTVSPropertyOp42
 70
     1
102
RTVSPropertyOp43
 70
     1
102
RTVSPropertyOp44
 70
     1
102
RTVSPropertyOp45
 70
     1
102
RTVSPropertyOp46
 70
     1
102
RTVSPropertyOp47
 70
     1
102
RTVSPropertyOp48
 70
     1
102
RTVSPropertyOp49
 70
     1
102
RTVSPropertyOp50
 70
     1
102
RTVSPropertyOp51
 70
     0
102
RTVSPropertyOp52
 70
     0
102
RTVSPropertyOp53
 70
     1
102
RTVSPropertyOp54
 70
     1
102
RTVSPropertyOp55
 70
     1
102
RTVSPropertyOp56
 70
     1
102
RTVSPropertyOp57
 70
     1
102
RTVSPropertyOp58
 70
     1
102
RTVSPropertyOp59
 70
     1
102
RTVSPropertyOp60
 70
     1
102
RTVSPropertyOp61
 70
     1
102
RTVSPropertyOp62
 70
     1
  0
XRECORD
  5
A6CA
102
{ACAD_REACTORS
330
A6C9
102
}
330
A6C9
100
AcDbXrecord
280
     1
102
RTVSPost2010Prop28
280
     0
102
RTVSPost2010PropOp28
 70
     1
102
RTVSPost2010Prop29
280
     1
102
RTVSPost2010PropOp29
 70
     1
102
RTVSPost2010Prop30
280
     1
102
RTVSPost2010PropOp30
 70
     1
102
RTVSPost2010Prop31
280
     0
102
RTVSPost2010PropOp31
 70
     1
102
RTVSPost2010Prop32
280
     0
102
RTVSPost2010PropOp32
 70
     1
102
RTVSPost2010Prop33
280
     0
102
RTVSPost2010PropOp33
 70
     1
102
RTVSPost2010Prop34
280
     0
102
RTVSPost2010PropOp34
 70
     1
102
RTVSPost2010Prop35
280
     0
102
RTVSPost2010PropOp35
 70
     1
102
RTVSPost2010Prop36
280
     0
102
RTVSPost2010PropOp36
 70
     1
102
RTVSPost2010Prop37
 90
       50
102
RTVSPost2010PropOp37
 70
     1
102
RTVSPost2010Prop38
140
0.0
102
RTVSPost2010PropOp38
 70
     1
102
RTVSPost2010Prop39
140
1.0
102
RTVSPost2010PropOp39
 70
     1
102
RTVSPost2010Prop40
 90
        0
102
RTVSPost2010PropOp40
 70
     1
102
RTVSPost2010Prop41ColorIndex
 90
       18
102
RTVSPost2010Prop41ColorRGB
 90
        0
102
RTVSPost2010PropOp41
 70
     1
102
RTVSPost2010Prop42
 90
       50
102
RTVSPost2010PropOp42
 70
     1
102
RTVSPost2010Prop43
 90
        3
102
RTVSPost2010PropOp43
 70
     1
102
RTVSPost2010Prop44ColorIndex
 90
        5
102
RTVSPost2010Prop44ColorRGB
 90
      255
102
RTVSPost2010PropOp44
 70
     1
102
RTVSPost2010Prop45
280
     0
102
RTVSPost2010PropOp45
 70
     1
102
RTVSPost2010Prop46
 90
       50
102
RTVSPost2010PropOp46
 70
     1
102
RTVSPost2010Prop47
 90
       50
102
RTVSPost2010PropOp47
 70
     1
102
RTVSPost2010Prop48
 90
       50
102
RTVSPost2010PropOp48
 70
     1
102
RTVSPost2010Prop49
280
     0
102
RTVSPost2010PropOp49
 70
     1
102
RTVSPost2010Prop50
 90
       50
102
RTVSPost2010PropOp50
 70
     1
102
RTVSPost2010Prop51ColorIndex
 90
      256
102
RTVSPost2010Prop51ColorRGB
 90
-16777216
102
RTVSPost2010PropOp51
 70
     0
102
RTVSPost2010Prop52
140
1.0
102
RTVSPost2010PropOp52
 70
     0
102
RTVSPost2010Prop53
 90
        2
102
RTVSPost2010PropOp53
 70
     1
102
RTVSPost2010Prop54
  1
strokes_ogs.tif
102
RTVSPost2010PropOp54
 70
     1
102
RTVSPost2010Prop55
280
     0
102
RTVSPost2010PropOp55
 70
     1
102
RTVSPost2010Prop56
140
1.0
102
RTVSPost2010PropOp56
 70
     1
102
RTVSPost2010Prop57
140
1.0
102
RTVSPost2010PropOp57
 70
     1
102
RTVSPropertyOp0
 70
     1
102
RTVSPropertyOp1
 70
     1
102
RTVSPropertyOp2
 70
     1
102
RTVSPropertyOp3
 70
     1
102
RTVSPropertyOp4
 70
     1
102
RTVSPropertyOp5
 70
     1
102
RTVSPropertyOp6
 70
     1
102
RTVSPropertyOp7
 70
     1
102
RTVSPropertyOp8
 70
     1
102
RTVSPropertyOp9
 70
     1
102
RTVSPropertyOp10
 70
     1
102
RTVSPropertyOp11
 70
     1
102
RTVSPropertyOp12
 70
     1
102
RTVSPropertyOp13
 70
     1
102
RTVSPropertyOp14
 70
     1
102
RTVSPropertyOp15
 70
     1
102
RTVSPropertyOp16
 70
     1
102
RTVSPropertyOp17
 70
     1
102
RTVSPropertyOp18
 70
     1
102
RTVSPropertyOp19
 70
     1
102
RTVSPropertyOp20
 70
     1
102
RTVSPropertyOp21
 70
     1
102
RTVSPropertyOp22
 70
     1
102
RTVSPropertyOp23
 70
     1
102
RTVSPropertyOp24
 70
     1
102
RTVSPropertyOp25
 70
     1
102
RTVSPropertyOp26
 70
     1
102
RTVSPropertyOp27
 70
     1
102
RTVSPropertyOp28
 70
     1
102
RTVSPropertyOp29
 70
     1
102
RTVSPropertyOp30
 70
     1
102
RTVSPropertyOp31
 70
     1
102
RTVSPropertyOp32
 70
     1
102
RTVSPropertyOp33
 70
     1
102
RTVSPropertyOp34
 70
     1
102
RTVSPropertyOp35
 70
     1
102
RTVSPropertyOp36
 70
     1
102
RTVSPropertyOp37
 70
     1
102
RTVSPropertyOp38
 70
     1
102
RTVSPropertyOp39
 70
     1
102
RTVSPropertyOp40
 70
     1
102
RTVSPropertyOp41
 70
     1
102
RTVSPropertyOp42
 70
     1
102
RTVSPropertyOp43
 70
     1
102
RTVSPropertyOp44
 70
     1
102
RTVSPropertyOp45
 70
     1
102
RTVSPropertyOp46
 70
     1
102
RTVSPropertyOp47
 70
     1
102
RTVSPropertyOp48
 70
     1
102
RTVSPropertyOp49
 70
     1
102
RTVSPropertyOp50
 70
     1
102
RTVSPropertyOp51
 70
     0
102
RTVSPropertyOp52
 70
     0
102
RTVSPropertyOp53
 70
     1
102
RTVSPropertyOp54
 70
     1
102
RTVSPropertyOp55
 70
     1
102
RTVSPropertyOp56
 70
     1
102
RTVSPropertyOp57
 70
     1
102
RTVSPropertyOp58
 70
     1
102
RTVSPropertyOp59
 70
     1
102
RTVSPropertyOp60
 70
     1
102
RTVSPropertyOp61
 70
     1
102
RTVSPropertyOp62
 70
     1
  0
XRECORD
  5
A6C8
102
{ACAD_REACTORS
330
A6C7
102
}
330
A6C7
100
AcDbXrecord
280
     1
102
RTVSPost2010Prop28
280
     0
102
RTVSPost2010PropOp28
 70
     1
102
RTVSPost2010Prop29
280
     1
102
RTVSPost2010PropOp29
 70
     1
102
RTVSPost2010Prop30
280
     1
102
RTVSPost2010PropOp30
 70
     1
102
RTVSPost2010Prop31
280
     0
102
RTVSPost2010PropOp31
 70
     1
102
RTVSPost2010Prop32
280
     0
102
RTVSPost2010PropOp32
 70
     1
102
RTVSPost2010Prop33
280
     0
102
RTVSPost2010PropOp33
 70
     1
102
RTVSPost2010Prop34
280
     0
102
RTVSPost2010PropOp34
 70
     1
102
RTVSPost2010Prop35
280
     0
102
RTVSPost2010PropOp35
 70
     1
102
RTVSPost2010Prop36
280
     0
102
RTVSPost2010PropOp36
 70
     1
102
RTVSPost2010Prop37
 90
       50
102
RTVSPost2010PropOp37
 70
     1
102
RTVSPost2010Prop38
140
0.0
102
RTVSPost2010PropOp38
 70
     1
102
RTVSPost2010Prop39
140
1.0
102
RTVSPost2010PropOp39
 70
     1
102
RTVSPost2010Prop40
 90
        0
102
RTVSPost2010PropOp40
 70
     1
102
RTVSPost2010Prop41ColorIndex
 90
       18
102
RTVSPost2010Prop41ColorRGB
 90
        0
102
RTVSPost2010PropOp41
 70
     1
102
RTVSPost2010Prop42
 90
       50
102
RTVSPost2010PropOp42
 70
     1
102
RTVSPost2010Prop43
 90
        3
102
RTVSPost2010PropOp43
 70
     1
102
RTVSPost2010Prop44ColorIndex
 90
        5
102
RTVSPost2010Prop44ColorRGB
 90
      255
102
RTVSPost2010PropOp44
 70
     1
102
RTVSPost2010Prop45
280
     0
102
RTVSPost2010PropOp45
 70
     1
102
RTVSPost2010Prop46
 90
       50
102
RTVSPost2010PropOp46
 70
     1
102
RTVSPost2010Prop47
 90
       50
102
RTVSPost2010PropOp47
 70
     1
102
RTVSPost2010Prop48
 90
       50
102
RTVSPost2010PropOp48
 70
     1
102
RTVSPost2010Prop49
280
     0
102
RTVSPost2010PropOp49
 70
     1
102
RTVSPost2010Prop50
 90
       50
102
RTVSPost2010PropOp50
 70
     1
102
RTVSPost2010Prop51ColorIndex
 90
      256
102
RTVSPost2010Prop51ColorRGB
 90
-16777216
102
RTVSPost2010PropOp51
 70
     0
102
RTVSPost2010Prop52
140
1.0
102
RTVSPost2010PropOp52
 70
     0
102
RTVSPost2010Prop53
 90
        2
102
RTVSPost2010PropOp53
 70
     1
102
RTVSPost2010Prop54
  1
strokes_ogs.tif
102
RTVSPost2010PropOp54
 70
     1
102
RTVSPost2010Prop55
280
     0
102
RTVSPost2010PropOp55
 70
     1
102
RTVSPost2010Prop56
140
1.0
102
RTVSPost2010PropOp56
 70
     1
102
RTVSPost2010Prop57
140
1.0
102
RTVSPost2010PropOp57
 70
     1
102
RTVSPropertyOp0
 70
     1
102
RTVSPropertyOp1
 70
     1
102
RTVSPropertyOp2
 70
     1
102
RTVSPropertyOp3
 70
     1
102
RTVSPropertyOp4
 70
     1
102
RTVSPropertyOp5
 70
     1
102
RTVSPropertyOp6
 70
     1
102
RTVSPropertyOp7
 70
     1
102
RTVSPropertyOp8
 70
     1
102
RTVSPropertyOp9
 70
     1
102
RTVSPropertyOp10
 70
     1
102
RTVSPropertyOp11
 70
     1
102
RTVSPropertyOp12
 70
     1
102
RTVSPropertyOp13
 70
     1
102
RTVSPropertyOp14
 70
     1
102
RTVSPropertyOp15
 70
     1
102
RTVSPropertyOp16
 70
     1
102
RTVSPropertyOp17
 70
     1
102
RTVSPropertyOp18
 70
     1
102
RTVSPropertyOp19
 70
     1
102
RTVSPropertyOp20
 70
     1
102
RTVSPropertyOp21
 70
     1
102
RTVSPropertyOp22
 70
     1
102
RTVSPropertyOp23
 70
     1
102
RTVSPropertyOp24
 70
     1
102
RTVSPropertyOp25
 70
     1
102
RTVSPropertyOp26
 70
     1
102
RTVSPropertyOp27
 70
     1
102
RTVSPropertyOp28
 70
     1
102
RTVSPropertyOp29
 70
     1
102
RTVSPropertyOp30
 70
     1
102
RTVSPropertyOp31
 70
     1
102
RTVSPropertyOp32
 70
     1
102
RTVSPropertyOp33
 70
     1
102
RTVSPropertyOp34
 70
     1
102
RTVSPropertyOp35
 70
     1
102
RTVSPropertyOp36
 70
     1
102
RTVSPropertyOp37
 70
     1
102
RTVSPropertyOp38
 70
     1
102
RTVSPropertyOp39
 70
     1
102
RTVSPropertyOp40
 70
     1
102
RTVSPropertyOp41
 70
     1
102
RTVSPropertyOp42
 70
     1
102
RTVSPropertyOp43
 70
     1
102
RTVSPropertyOp44
 70
     1
102
RTVSPropertyOp45
 70
     1
102
RTVSPropertyOp46
 70
     1
102
RTVSPropertyOp47
 70
     1
102
RTVSPropertyOp48
 70
     1
102
RTVSPropertyOp49
 70
     1
102
RTVSPropertyOp50
 70
     1
102
RTVSPropertyOp51
 70
     0
102
RTVSPropertyOp52
 70
     0
102
RTVSPropertyOp53
 70
     1
102
RTVSPropertyOp54
 70
     1
102
RTVSPropertyOp55
 70
     1
102
RTVSPropertyOp56
 70
     1
102
RTVSPropertyOp57
 70
     1
102
RTVSPropertyOp58
 70
     1
102
RTVSPropertyOp59
 70
     1
102
RTVSPropertyOp60
 70
     1
102
RTVSPropertyOp61
 70
     1
102
RTVSPropertyOp62
 70
     1
  0
XRECORD
  5
A6C2
102
{ACAD_REACTORS
330
A6C1
102
}
330
A6C1
100
AcDbXrecord
280
     1
102
RTVSPost2010Prop28
280
     0
102
RTVSPost2010PropOp28
 70
     1
102
RTVSPost2010Prop29
280
     1
102
RTVSPost2010PropOp29
 70
     1
102
RTVSPost2010Prop30
280
     1
102
RTVSPost2010PropOp30
 70
     1
102
RTVSPost2010Prop31
280
     0
102
RTVSPost2010PropOp31
 70
     1
102
RTVSPost2010Prop32
280
     0
102
RTVSPost2010PropOp32
 70
     1
102
RTVSPost2010Prop33
280
     0
102
RTVSPost2010PropOp33
 70
     1
102
RTVSPost2010Prop34
280
     0
102
RTVSPost2010PropOp34
 70
     1
102
RTVSPost2010Prop35
280
     0
102
RTVSPost2010PropOp35
 70
     1
102
RTVSPost2010Prop36
280
     0
102
RTVSPost2010PropOp36
 70
     1
102
RTVSPost2010Prop37
 90
       50
102
RTVSPost2010PropOp37
 70
     1
102
RTVSPost2010Prop38
140
0.0
102
RTVSPost2010PropOp38
 70
     1
102
RTVSPost2010Prop39
140
1.0
102
RTVSPost2010PropOp39
 70
     1
102
RTVSPost2010Prop40
 90
        0
102
RTVSPost2010PropOp40
 70
     1
102
RTVSPost2010Prop41ColorIndex
 90
       18
102
RTVSPost2010Prop41ColorRGB
 90
        0
102
RTVSPost2010PropOp41
 70
     1
102
RTVSPost2010Prop42
 90
       50
102
RTVSPost2010PropOp42
 70
     1
102
RTVSPost2010Prop43
 90
        3
102
RTVSPost2010PropOp43
 70
     1
102
RTVSPost2010Prop44ColorIndex
 90
        5
102
RTVSPost2010Prop44ColorRGB
 90
      255
102
RTVSPost2010PropOp44
 70
     1
102
RTVSPost2010Prop45
280
     0
102
RTVSPost2010PropOp45
 70
     1
102
RTVSPost2010Prop46
 90
       50
102
RTVSPost2010PropOp46
 70
     1
102
RTVSPost2010Prop47
 90
       50
102
RTVSPost2010PropOp47
 70
     1
102
RTVSPost2010Prop48
 90
       50
102
RTVSPost2010PropOp48
 70
     1
102
RTVSPost2010Prop49
280
     0
102
RTVSPost2010PropOp49
 70
     1
102
RTVSPost2010Prop50
 90
       50
102
RTVSPost2010PropOp50
 70
     1
102
RTVSPost2010Prop51ColorIndex
 90
      256
102
RTVSPost2010Prop51ColorRGB
 90
-16777216
102
RTVSPost2010PropOp51
 70
     0
102
RTVSPost2010Prop52
140
1.0
102
RTVSPost2010PropOp52
 70
     0
102
RTVSPost2010Prop53
 90
        2
102
RTVSPost2010PropOp53
 70
     1
102
RTVSPost2010Prop54
  1
strokes_ogs.tif
102
RTVSPost2010PropOp54
 70
     1
102
RTVSPost2010Prop55
280
     0
102
RTVSPost2010PropOp55
 70
     1
102
RTVSPost2010Prop56
140
1.0
102
RTVSPost2010PropOp56
 70
     1
102
RTVSPost2010Prop57
140
1.0
102
RTVSPost2010PropOp57
 70
     1
102
RTVSPropertyOp0
 70
     1
102
RTVSPropertyOp1
 70
     1
102
RTVSPropertyOp2
 70
     1
102
RTVSPropertyOp3
 70
     1
102
RTVSPropertyOp4
 70
     1
102
RTVSPropertyOp5
 70
     1
102
RTVSPropertyOp6
 70
     1
102
RTVSPropertyOp7
 70
     1
102
RTVSPropertyOp8
 70
     1
102
RTVSPropertyOp9
 70
     1
102
RTVSPropertyOp10
 70
     1
102
RTVSPropertyOp11
 70
     1
102
RTVSPropertyOp12
 70
     1
102
RTVSPropertyOp13
 70
     1
102
RTVSPropertyOp14
 70
     1
102
RTVSPropertyOp15
 70
     1
102
RTVSPropertyOp16
 70
     1
102
RTVSPropertyOp17
 70
     1
102
RTVSPropertyOp18
 70
     1
102
RTVSPropertyOp19
 70
     1
102
RTVSPropertyOp20
 70
     1
102
RTVSPropertyOp21
 70
     1
102
RTVSPropertyOp22
 70
     1
102
RTVSPropertyOp23
 70
     1
102
RTVSPropertyOp24
 70
     1
102
RTVSPropertyOp25
 70
     1
102
RTVSPropertyOp26
 70
     1
102
RTVSPropertyOp27
 70
     1
102
RTVSPropertyOp28
 70
     1
102
RTVSPropertyOp29
 70
     1
102
RTVSPropertyOp30
 70
     1
102
RTVSPropertyOp31
 70
     1
102
RTVSPropertyOp32
 70
     1
102
RTVSPropertyOp33
 70
     1
102
RTVSPropertyOp34
 70
     1
102
RTVSPropertyOp35
 70
     1
102
RTVSPropertyOp36
 70
     1
102
RTVSPropertyOp37
 70
     1
102
RTVSPropertyOp38
 70
     1
102
RTVSPropertyOp39
 70
     1
102
RTVSPropertyOp40
 70
     1
102
RTVSPropertyOp41
 70
     1
102
RTVSPropertyOp42
 70
     1
102
RTVSPropertyOp43
 70
     1
102
RTVSPropertyOp44
 70
     1
102
RTVSPropertyOp45
 70
     1
102
RTVSPropertyOp46
 70
     1
102
RTVSPropertyOp47
 70
     1
102
RTVSPropertyOp48
 70
     1
102
RTVSPropertyOp49
 70
     1
102
RTVSPropertyOp50
 70
     1
102
RTVSPropertyOp51
 70
     0
102
RTVSPropertyOp52
 70
     0
102
RTVSPropertyOp53
 70
     1
102
RTVSPropertyOp54
 70
     1
102
RTVSPropertyOp55
 70
     1
102
RTVSPropertyOp56
 70
     1
102
RTVSPropertyOp57
 70
     1
102
RTVSPropertyOp58
 70
     1
102
RTVSPropertyOp59
 70
     1
102
RTVSPropertyOp60
 70
     1
102
RTVSPropertyOp61
 70
     1
102
RTVSPropertyOp62
 70
     1
  0
XRECORD
  5
A6C4
102
{ACAD_REACTORS
330
A6C3
102
}
330
A6C3
100
AcDbXrecord
280
     1
102
RTVSPost2010Prop28
280
     0
102
RTVSPost2010PropOp28
 70
     1
102
RTVSPost2010Prop29
280
     1
102
RTVSPost2010PropOp29
 70
     1
102
RTVSPost2010Prop30
280
     1
102
RTVSPost2010PropOp30
 70
     1
102
RTVSPost2010Prop31
280
     0
102
RTVSPost2010PropOp31
 70
     1
102
RTVSPost2010Prop32
280
     0
102
RTVSPost2010PropOp32
 70
     1
102
RTVSPost2010Prop33
280
     0
102
RTVSPost2010PropOp33
 70
     1
102
RTVSPost2010Prop34
280
     0
102
RTVSPost2010PropOp34
 70
     1
102
RTVSPost2010Prop35
280
     0
102
RTVSPost2010PropOp35
 70
     1
102
RTVSPost2010Prop36
280
     0
102
RTVSPost2010PropOp36
 70
     1
102
RTVSPost2010Prop37
 90
       50
102
RTVSPost2010PropOp37
 70
     1
102
RTVSPost2010Prop38
140
0.0
102
RTVSPost2010PropOp38
 70
     1
102
RTVSPost2010Prop39
140
1.0
102
RTVSPost2010PropOp39
 70
     1
102
RTVSPost2010Prop40
 90
        0
102
RTVSPost2010PropOp40
 70
     1
102
RTVSPost2010Prop41ColorIndex
 90
       18
102
RTVSPost2010Prop41ColorRGB
 90
        0
102
RTVSPost2010PropOp41
 70
     1
102
RTVSPost2010Prop42
 90
       50
102
RTVSPost2010PropOp42
 70
     1
102
RTVSPost2010Prop43
 90
        3
102
RTVSPost2010PropOp43
 70
     1
102
RTVSPost2010Prop44ColorIndex
 90
        5
102
RTVSPost2010Prop44ColorRGB
 90
      255
102
RTVSPost2010PropOp44
 70
     1
102
RTVSPost2010Prop45
280
     0
102
RTVSPost2010PropOp45
 70
     1
102
RTVSPost2010Prop46
 90
       50
102
RTVSPost2010PropOp46
 70
     1
102
RTVSPost2010Prop47
 90
       50
102
RTVSPost2010PropOp47
 70
     1
102
RTVSPost2010Prop48
 90
       50
102
RTVSPost2010PropOp48
 70
     1
102
RTVSPost2010Prop49
280
     0
102
RTVSPost2010PropOp49
 70
     1
102
RTVSPost2010Prop50
 90
       50
102
RTVSPost2010PropOp50
 70
     1
102
RTVSPost2010Prop51ColorIndex
 90
      256
102
RTVSPost2010Prop51ColorRGB
 90
-16777216
102
RTVSPost2010PropOp51
 70
     0
102
RTVSPost2010Prop52
140
1.0
102
RTVSPost2010PropOp52
 70
     0
102
RTVSPost2010Prop53
 90
        2
102
RTVSPost2010PropOp53
 70
     1
102
RTVSPost2010Prop54
  1
strokes_ogs.tif
102
RTVSPost2010PropOp54
 70
     1
102
RTVSPost2010Prop55
280
     0
102
RTVSPost2010PropOp55
 70
     1
102
RTVSPost2010Prop56
140
1.0
102
RTVSPost2010PropOp56
 70
     1
102
RTVSPost2010Prop57
140
1.0
102
RTVSPost2010PropOp57
 70
     1
102
RTVSPropertyOp0
 70
     1
102
RTVSPropertyOp1
 70
     1
102
RTVSPropertyOp2
 70
     1
102
RTVSPropertyOp3
 70
     1
102
RTVSPropertyOp4
 70
     1
102
RTVSPropertyOp5
 70
     1
102
RTVSPropertyOp6
 70
     1
102
RTVSPropertyOp7
 70
     1
102
RTVSPropertyOp8
 70
     1
102
RTVSPropertyOp9
 70
     1
102
RTVSPropertyOp10
 70
     1
102
RTVSPropertyOp11
 70
     1
102
RTVSPropertyOp12
 70
     1
102
RTVSPropertyOp13
 70
     1
102
RTVSPropertyOp14
 70
     1
102
RTVSPropertyOp15
 70
     1
102
RTVSPropertyOp16
 70
     1
102
RTVSPropertyOp17
 70
     1
102
RTVSPropertyOp18
 70
     1
102
RTVSPropertyOp19
 70
     1
102
RTVSPropertyOp20
 70
     1
102
RTVSPropertyOp21
 70
     1
102
RTVSPropertyOp22
 70
     1
102
RTVSPropertyOp23
 70
     1
102
RTVSPropertyOp24
 70
     1
102
RTVSPropertyOp25
 70
     1
102
RTVSPropertyOp26
 70
     1
102
RTVSPropertyOp27
 70
     1
102
RTVSPropertyOp28
 70
     1
102
RTVSPropertyOp29
 70
     1
102
RTVSPropertyOp30
 70
     1
102
RTVSPropertyOp31
 70
     1
102
RTVSPropertyOp32
 70
     1
102
RTVSPropertyOp33
 70
     1
102
RTVSPropertyOp34
 70
     1
102
RTVSPropertyOp35
 70
     1
102
RTVSPropertyOp36
 70
     1
102
RTVSPropertyOp37
 70
     1
102
RTVSPropertyOp38
 70
     1
102
RTVSPropertyOp39
 70
     1
102
RTVSPropertyOp40
 70
     1
102
RTVSPropertyOp41
 70
     1
102
RTVSPropertyOp42
 70
     1
102
RTVSPropertyOp43
 70
     1
102
RTVSPropertyOp44
 70
     1
102
RTVSPropertyOp45
 70
     1
102
RTVSPropertyOp46
 70
     1
102
RTVSPropertyOp47
 70
     1
102
RTVSPropertyOp48
 70
     1
102
RTVSPropertyOp49
 70
     1
102
RTVSPropertyOp50
 70
     1
102
RTVSPropertyOp51
 70
     0
102
RTVSPropertyOp52
 70
     0
102
RTVSPropertyOp53
 70
     1
102
RTVSPropertyOp54
 70
     1
102
RTVSPropertyOp55
 70
     1
102
RTVSPropertyOp56
 70
     1
102
RTVSPropertyOp57
 70
     1
102
RTVSPropertyOp58
 70
     1
102
RTVSPropertyOp59
 70
     1
102
RTVSPropertyOp60
 70
     1
102
RTVSPropertyOp61
 70
     1
102
RTVSPropertyOp62
 70
     1
  0
XRECORD
  5
A6BA
102
{ACAD_REACTORS
330
A6B9
102
}
330
A6B9
100
AcDbXrecord
280
     1
102
RTVSPost2010Prop28
280
     0
102
RTVSPost2010PropOp28
 70
     1
102
RTVSPost2010Prop29
280
     1
102
RTVSPost2010PropOp29
 70
     1
102
RTVSPost2010Prop30
280
     1
102
RTVSPost2010PropOp30
 70
     1
102
RTVSPost2010Prop31
280
     0
102
RTVSPost2010PropOp31
 70
     1
102
RTVSPost2010Prop32
280
     0
102
RTVSPost2010PropOp32
 70
     1
102
RTVSPost2010Prop33
280
     0
102
RTVSPost2010PropOp33
 70
     1
102
RTVSPost2010Prop34
280
     0
102
RTVSPost2010PropOp34
 70
     1
102
RTVSPost2010Prop35
280
     0
102
RTVSPost2010PropOp35
 70
     1
102
RTVSPost2010Prop36
280
     0
102
RTVSPost2010PropOp36
 70
     1
102
RTVSPost2010Prop37
 90
       50
102
RTVSPost2010PropOp37
 70
     1
102
RTVSPost2010Prop38
140
0.0
102
RTVSPost2010PropOp38
 70
     1
102
RTVSPost2010Prop39
140
1.0
102
RTVSPost2010PropOp39
 70
     1
102
RTVSPost2010Prop40
 90
        0
102
RTVSPost2010PropOp40
 70
     1
102
RTVSPost2010Prop41ColorIndex
 90
       18
102
RTVSPost2010Prop41ColorRGB
 90
        0
102
RTVSPost2010PropOp41
 70
     1
102
RTVSPost2010Prop42
 90
       50
102
RTVSPost2010PropOp42
 70
     1
102
RTVSPost2010Prop43
 90
        3
102
RTVSPost2010PropOp43
 70
     1
102
RTVSPost2010Prop44ColorIndex
 90
        5
102
RTVSPost2010Prop44ColorRGB
 90
      255
102
RTVSPost2010PropOp44
 70
     1
102
RTVSPost2010Prop45
280
     0
102
RTVSPost2010PropOp45
 70
     1
102
RTVSPost2010Prop46
 90
       50
102
RTVSPost2010PropOp46
 70
     1
102
RTVSPost2010Prop47
 90
       50
102
RTVSPost2010PropOp47
 70
     1
102
RTVSPost2010Prop48
 90
       50
102
RTVSPost2010PropOp48
 70
     1
102
RTVSPost2010Prop49
280
     0
102
RTVSPost2010PropOp49
 70
     1
102
RTVSPost2010Prop50
 90
       50
102
RTVSPost2010PropOp50
 70
     1
102
RTVSPost2010Prop51ColorIndex
 90
      256
102
RTVSPost2010Prop51ColorRGB
 90
-16777216
102
RTVSPost2010PropOp51
 70
     0
102
RTVSPost2010Prop52
140
1.0
102
RTVSPost2010PropOp52
 70
     0
102
RTVSPost2010Prop53
 90
        2
102
RTVSPost2010PropOp53
 70
     1
102
RTVSPost2010Prop54
  1
strokes_ogs.tif
102
RTVSPost2010PropOp54
 70
     1
102
RTVSPost2010Prop55
280
     0
102
RTVSPost2010PropOp55
 70
     1
102
RTVSPost2010Prop56
140
1.0
102
RTVSPost2010PropOp56
 70
     1
102
RTVSPost2010Prop57
140
1.0
102
RTVSPost2010PropOp57
 70
     1
102
RTVSPropertyOp0
 70
     1
102
RTVSPropertyOp1
 70
     1
102
RTVSPropertyOp2
 70
     1
102
RTVSPropertyOp3
 70
     1
102
RTVSPropertyOp4
 70
     1
102
RTVSPropertyOp5
 70
     1
102
RTVSPropertyOp6
 70
     1
102
RTVSPropertyOp7
 70
     1
102
RTVSPropertyOp8
 70
     1
102
RTVSPropertyOp9
 70
     1
102
RTVSPropertyOp10
 70
     1
102
RTVSPropertyOp11
 70
     1
102
RTVSPropertyOp12
 70
     1
102
RTVSPropertyOp13
 70
     1
102
RTVSPropertyOp14
 70
     1
102
RTVSPropertyOp15
 70
     1
102
RTVSPropertyOp16
 70
     1
102
RTVSPropertyOp17
 70
     1
102
RTVSPropertyOp18
 70
     1
102
RTVSPropertyOp19
 70
     1
102
RTVSPropertyOp20
 70
     1
102
RTVSPropertyOp21
 70
     1
102
RTVSPropertyOp22
 70
     1
102
RTVSPropertyOp23
 70
     1
102
RTVSPropertyOp24
 70
     1
102
RTVSPropertyOp25
 70
     1
102
RTVSPropertyOp26
 70
     1
102
RTVSPropertyOp27
 70
     1
102
RTVSPropertyOp28
 70
     1
102
RTVSPropertyOp29
 70
     1
102
RTVSPropertyOp30
 70
     1
102
RTVSPropertyOp31
 70
     1
102
RTVSPropertyOp32
 70
     1
102
RTVSPropertyOp33
 70
     1
102
RTVSPropertyOp34
 70
     1
102
RTVSPropertyOp35
 70
     1
102
RTVSPropertyOp36
 70
     1
102
RTVSPropertyOp37
 70
     1
102
RTVSPropertyOp38
 70
     1
102
RTVSPropertyOp39
 70
     1
102
RTVSPropertyOp40
 70
     1
102
RTVSPropertyOp41
 70
     1
102
RTVSPropertyOp42
 70
     1
102
RTVSPropertyOp43
 70
     1
102
RTVSPropertyOp44
 70
     1
102
RTVSPropertyOp45
 70
     1
102
RTVSPropertyOp46
 70
     1
102
RTVSPropertyOp47
 70
     1
102
RTVSPropertyOp48
 70
     1
102
RTVSPropertyOp49
 70
     1
102
RTVSPropertyOp50
 70
     1
102
RTVSPropertyOp51
 70
     0
102
RTVSPropertyOp52
 70
     0
102
RTVSPropertyOp53
 70
     1
102
RTVSPropertyOp54
 70
     1
102
RTVSPropertyOp55
 70
     1
102
RTVSPropertyOp56
 70
     1
102
RTVSPropertyOp57
 70
     1
102
RTVSPropertyOp58
 70
     1
102
RTVSPropertyOp59
 70
     1
102
RTVSPropertyOp60
 70
     1
102
RTVSPropertyOp61
 70
     1
102
RTVSPropertyOp62
 70
     1
  0
XRECORD
  5
A6AE
102
{ACAD_REACTORS
330
A6AD
102
}
330
A6AD
100
AcDbXrecord
280
     1
102
RTVSPost2010Prop28
280
     0
102
RTVSPost2010PropOp28
 70
     1
102
RTVSPost2010Prop29
280
     1
102
RTVSPost2010PropOp29
 70
     1
102
RTVSPost2010Prop30
280
     1
102
RTVSPost2010PropOp30
 70
     1
102
RTVSPost2010Prop31
280
     0
102
RTVSPost2010PropOp31
 70
     1
102
RTVSPost2010Prop32
280
     0
102
RTVSPost2010PropOp32
 70
     1
102
RTVSPost2010Prop33
280
     0
102
RTVSPost2010PropOp33
 70
     1
102
RTVSPost2010Prop34
280
     0
102
RTVSPost2010PropOp34
 70
     1
102
RTVSPost2010Prop35
280
     0
102
RTVSPost2010PropOp35
 70
     1
102
RTVSPost2010Prop36
280
     0
102
RTVSPost2010PropOp36
 70
     1
102
RTVSPost2010Prop37
 90
       50
102
RTVSPost2010PropOp37
 70
     1
102
RTVSPost2010Prop38
140
0.0
102
RTVSPost2010PropOp38
 70
     1
102
RTVSPost2010Prop39
140
1.0
102
RTVSPost2010PropOp39
 70
     1
102
RTVSPost2010Prop40
 90
        0
102
RTVSPost2010PropOp40
 70
     1
102
RTVSPost2010Prop41ColorIndex
 90
       18
102
RTVSPost2010Prop41ColorRGB
 90
        0
102
RTVSPost2010PropOp41
 70
     1
102
RTVSPost2010Prop42
 90
       50
102
RTVSPost2010PropOp42
 70
     1
102
RTVSPost2010Prop43
 90
        3
102
RTVSPost2010PropOp43
 70
     1
102
RTVSPost2010Prop44ColorIndex
 90
        5
102
RTVSPost2010Prop44ColorRGB
 90
      255
102
RTVSPost2010PropOp44
 70
     1
102
RTVSPost2010Prop45
280
     0
102
RTVSPost2010PropOp45
 70
     1
102
RTVSPost2010Prop46
 90
       50
102
RTVSPost2010PropOp46
 70
     1
102
RTVSPost2010Prop47
 90
       50
102
RTVSPost2010PropOp47
 70
     1
102
RTVSPost2010Prop48
 90
       50
102
RTVSPost2010PropOp48
 70
     1
102
RTVSPost2010Prop49
280
     0
102
RTVSPost2010PropOp49
 70
     1
102
RTVSPost2010Prop50
 90
       50
102
RTVSPost2010PropOp50
 70
     1
102
RTVSPost2010Prop51ColorIndex
 90
      256
102
RTVSPost2010Prop51ColorRGB
 90
-16777216
102
RTVSPost2010PropOp51
 70
     0
102
RTVSPost2010Prop52
140
1.0
102
RTVSPost2010PropOp52
 70
     0
102
RTVSPost2010Prop53
 90
        2
102
RTVSPost2010PropOp53
 70
     1
102
RTVSPost2010Prop54
  1
strokes_ogs.tif
102
RTVSPost2010PropOp54
 70
     1
102
RTVSPost2010Prop55
280
     0
102
RTVSPost2010PropOp55
 70
     1
102
RTVSPost2010Prop56
140
1.0
102
RTVSPost2010PropOp56
 70
     1
102
RTVSPost2010Prop57
140
1.0
102
RTVSPost2010PropOp57
 70
     1
102
RTVSPropertyOp0
 70
     1
102
RTVSPropertyOp1
 70
     1
102
RTVSPropertyOp2
 70
     1
102
RTVSPropertyOp3
 70
     1
102
RTVSPropertyOp4
 70
     1
102
RTVSPropertyOp5
 70
     1
102
RTVSPropertyOp6
 70
     1
102
RTVSPropertyOp7
 70
     1
102
RTVSPropertyOp8
 70
     1
102
RTVSPropertyOp9
 70
     1
102
RTVSPropertyOp10
 70
     1
102
RTVSPropertyOp11
 70
     1
102
RTVSPropertyOp12
 70
     1
102
RTVSPropertyOp13
 70
     1
102
RTVSPropertyOp14
 70
     1
102
RTVSPropertyOp15
 70
     1
102
RTVSPropertyOp16
 70
     1
102
RTVSPropertyOp17
 70
     1
102
RTVSPropertyOp18
 70
     1
102
RTVSPropertyOp19
 70
     1
102
RTVSPropertyOp20
 70
     1
102
RTVSPropertyOp21
 70
     1
102
RTVSPropertyOp22
 70
     1
102
RTVSPropertyOp23
 70
     1
102
RTVSPropertyOp24
 70
     1
102
RTVSPropertyOp25
 70
     1
102
RTVSPropertyOp26
 70
     1
102
RTVSPropertyOp27
 70
     1
102
RTVSPropertyOp28
 70
     1
102
RTVSPropertyOp29
 70
     1
102
RTVSPropertyOp30
 70
     1
102
RTVSPropertyOp31
 70
     1
102
RTVSPropertyOp32
 70
     1
102
RTVSPropertyOp33
 70
     1
102
RTVSPropertyOp34
 70
     1
102
RTVSPropertyOp35
 70
     1
102
RTVSPropertyOp36
 70
     1
102
RTVSPropertyOp37
 70
     1
102
RTVSPropertyOp38
 70
     1
102
RTVSPropertyOp39
 70
     1
102
RTVSPropertyOp40
 70
     1
102
RTVSPropertyOp41
 70
     1
102
RTVSPropertyOp42
 70
     1
102
RTVSPropertyOp43
 70
     1
102
RTVSPropertyOp44
 70
     1
102
RTVSPropertyOp45
 70
     1
102
RTVSPropertyOp46
 70
     1
102
RTVSPropertyOp47
 70
     1
102
RTVSPropertyOp48
 70
     1
102
RTVSPropertyOp49
 70
     1
102
RTVSPropertyOp50
 70
     1
102
RTVSPropertyOp51
 70
     0
102
RTVSPropertyOp52
 70
     0
102
RTVSPropertyOp53
 70
     1
102
RTVSPropertyOp54
 70
     1
102
RTVSPropertyOp55
 70
     1
102
RTVSPropertyOp56
 70
     1
102
RTVSPropertyOp57
 70
     1
102
RTVSPropertyOp58
 70
     1
102
RTVSPropertyOp59
 70
     1
102
RTVSPropertyOp60
 70
     1
102
RTVSPropertyOp61
 70
     1
102
RTVSPropertyOp62
 70
     1
  0
XRECORD
  5
A6C6
102
{ACAD_REACTORS
330
A6C5
102
}
330
A6C5
100
AcDbXrecord
280
     1
102
RTVSPost2010Prop28
280
     0
102
RTVSPost2010PropOp28
 70
     1
102
RTVSPost2010Prop29
280
     1
102
RTVSPost2010PropOp29
 70
     1
102
RTVSPost2010Prop30
280
     1
102
RTVSPost2010PropOp30
 70
     1
102
RTVSPost2010Prop31
280
     0
102
RTVSPost2010PropOp31
 70
     1
102
RTVSPost2010Prop32
280
     0
102
RTVSPost2010PropOp32
 70
     1
102
RTVSPost2010Prop33
280
     0
102
RTVSPost2010PropOp33
 70
     1
102
RTVSPost2010Prop34
280
     0
102
RTVSPost2010PropOp34
 70
     1
102
RTVSPost2010Prop35
280
     0
102
RTVSPost2010PropOp35
 70
     1
102
RTVSPost2010Prop36
280
     0
102
RTVSPost2010PropOp36
 70
     1
102
RTVSPost2010Prop37
 90
       50
102
RTVSPost2010PropOp37
 70
     1
102
RTVSPost2010Prop38
140
0.0
102
RTVSPost2010PropOp38
 70
     1
102
RTVSPost2010Prop39
140
1.0
102
RTVSPost2010PropOp39
 70
     1
102
RTVSPost2010Prop40
 90
        0
102
RTVSPost2010PropOp40
 70
     1
102
RTVSPost2010Prop41ColorIndex
 90
       18
102
RTVSPost2010Prop41ColorRGB
 90
        0
102
RTVSPost2010PropOp41
 70
     1
102
RTVSPost2010Prop42
 90
       50
102
RTVSPost2010PropOp42
 70
     1
102
RTVSPost2010Prop43
 90
        3
102
RTVSPost2010PropOp43
 70
     1
102
RTVSPost2010Prop44ColorIndex
 90
        5
102
RTVSPost2010Prop44ColorRGB
 90
      255
102
RTVSPost2010PropOp44
 70
     1
102
RTVSPost2010Prop45
280
     0
102
RTVSPost2010PropOp45
 70
     1
102
RTVSPost2010Prop46
 90
       50
102
RTVSPost2010PropOp46
 70
     1
102
RTVSPost2010Prop47
 90
       50
102
RTVSPost2010PropOp47
 70
     1
102
RTVSPost2010Prop48
 90
       50
102
RTVSPost2010PropOp48
 70
     1
102
RTVSPost2010Prop49
280
     0
102
RTVSPost2010PropOp49
 70
     1
102
RTVSPost2010Prop50
 90
       50
102
RTVSPost2010PropOp50
 70
     1
102
RTVSPost2010Prop51ColorIndex
 90
      256
102
RTVSPost2010Prop51ColorRGB
 90
-16777216
102
RTVSPost2010PropOp51
 70
     0
102
RTVSPost2010Prop52
140
1.0
102
RTVSPost2010PropOp52
 70
     0
102
RTVSPost2010Prop53
 90
        2
102
RTVSPost2010PropOp53
 70
     1
102
RTVSPost2010Prop54
  1
strokes_ogs.tif
102
RTVSPost2010PropOp54
 70
     1
102
RTVSPost2010Prop55
280
     0
102
RTVSPost2010PropOp55
 70
     1
102
RTVSPost2010Prop56
140
1.0
102
RTVSPost2010PropOp56
 70
     1
102
RTVSPost2010Prop57
140
1.0
102
RTVSPost2010PropOp57
 70
     1
102
RTVSPropertyOp0
 70
     1
102
RTVSPropertyOp1
 70
     1
102
RTVSPropertyOp2
 70
     1
102
RTVSPropertyOp3
 70
     1
102
RTVSPropertyOp4
 70
     1
102
RTVSPropertyOp5
 70
     1
102
RTVSPropertyOp6
 70
     1
102
RTVSPropertyOp7
 70
     1
102
RTVSPropertyOp8
 70
     1
102
RTVSPropertyOp9
 70
     1
102
RTVSPropertyOp10
 70
     1
102
RTVSPropertyOp11
 70
     1
102
RTVSPropertyOp12
 70
     1
102
RTVSPropertyOp13
 70
     1
102
RTVSPropertyOp14
 70
     1
102
RTVSPropertyOp15
 70
     1
102
RTVSPropertyOp16
 70
     1
102
RTVSPropertyOp17
 70
     1
102
RTVSPropertyOp18
 70
     1
102
RTVSPropertyOp19
 70
     1
102
RTVSPropertyOp20
 70
     1
102
RTVSPropertyOp21
 70
     1
102
RTVSPropertyOp22
 70
     1
102
RTVSPropertyOp23
 70
     1
102
RTVSPropertyOp24
 70
     1
102
RTVSPropertyOp25
 70
     1
102
RTVSPropertyOp26
 70
     1
102
RTVSPropertyOp27
 70
     1
102
RTVSPropertyOp28
 70
     1
102
RTVSPropertyOp29
 70
     1
102
RTVSPropertyOp30
 70
     1
102
RTVSPropertyOp31
 70
     1
102
RTVSPropertyOp32
 70
     1
102
RTVSPropertyOp33
 70
     1
102
RTVSPropertyOp34
 70
     1
102
RTVSPropertyOp35
 70
     1
102
RTVSPropertyOp36
 70
     1
102
RTVSPropertyOp37
 70
     1
102
RTVSPropertyOp38
 70
     1
102
RTVSPropertyOp39
 70
     1
102
RTVSPropertyOp40
 70
     1
102
RTVSPropertyOp41
 70
     1
102
RTVSPropertyOp42
 70
     1
102
RTVSPropertyOp43
 70
     1
102
RTVSPropertyOp44
 70
     1
102
RTVSPropertyOp45
 70
     1
102
RTVSPropertyOp46
 70
     1
102
RTVSPropertyOp47
 70
     1
102
RTVSPropertyOp48
 70
     1
102
RTVSPropertyOp49
 70
     1
102
RTVSPropertyOp50
 70
     1
102
RTVSPropertyOp51
 70
     0
102
RTVSPropertyOp52
 70
     0
102
RTVSPropertyOp53
 70
     1
102
RTVSPropertyOp54
 70
     1
102
RTVSPropertyOp55
 70
     1
102
RTVSPropertyOp56
 70
     1
102
RTVSPropertyOp57
 70
     1
102
RTVSPropertyOp58
 70
     1
102
RTVSPropertyOp59
 70
     1
102
RTVSPropertyOp60
 70
     1
102
RTVSPropertyOp61
 70
     1
102
RTVSPropertyOp62
 70
     1
  0
ENDSEC
  0
EOF
