  0
SECTION
  2
HEADER
  9
$ACADVER
  1
AC1015
  9
$ACADMAINTVER
 70
    20
  9
$DWGCODEPAGE
  3
ANSI_932
  9
$INSBASE
 10
0.0
 20
0.0
 30
0.0
  9
$EXTMIN
 10
10.0
 20
9.999999999999998
 30
0.0
  9
$EXTMAX
 10
333.807587
 20
265.575991
 30
0.0
  9
$LIMMIN
 10
0.0
 20
0.0
  9
$LIMMAX
 10
396.0
 20
273.0
  9
$ORTHOMODE
 70
     0
  9
$REGENMODE
 70
     1
  9
$FILLMODE
 70
     1
  9
$QTEXTMODE
 70
     0
  9
$MIRRTEXT
 70
     1
  9
$LTSCALE
 40
20.0
  9
$ATTMODE
 70
     1
  9
$TEXTSIZE
 40
5.0
  9
$TRACEWID
 40
1.0
  9
$TEXTSTYLE
  7
STANDARD
  9
$CLAYER
  8
0
  9
$CELTYPE
  6
BYLAYER
  9
$CECOLOR
 62
   256
  9
$CELTSCALE
 40
1.0
  9
$DISPSILH
 70
     0
  9
$DIMSCALE
 40
1.0
  9
$DIMASZ
 40
3.0
  9
$DIMEXO
 40
1.0
  9
$DIMDLI
 40
10.0
  9
$DIMRND
 40
0.0
  9
$DIMDLE
 40
0.0
  9
$DIMEXE
 40
1.0
  9
$DIMTP
 40
0.0
  9
$DIMTM
 40
0.0
  9
$DIMTXT
 40
3.2
  9
$DIMCEN
 40
0.0
  9
$DIMTSZ
 40
0.0
  9
$DIMTOL
 70
     0
  9
$DIMLIM
 70
     0
  9
$DIMTIH
 70
     0
  9
$DIMTOH
 70
     0
  9
$DIMSE1
 70
     0
  9
$DIMSE2
 70
     0
  9
$DIMTAD
 70
     3
  9
$DIMZIN
 70
     8
  9
$DIMBLK
  1

  9
$DIMASO
 70
     1
  9
$DIMSHO
 70
     1
  9
$DIMPOST
  1

  9
$DIMAPOST
  1

  9
$DIMALT
 70
     0
  9
$DIMALTD
 70
     2
  9
$DIMALTF
 40
25.4
  9
$DIMLFAC
 40
1.0
  9
$DIMTOFL
 70
     1
  9
$DIMTVP
 40
0.0
  9
$DIMTIX
 70
     0
  9
$DIMSOXD
 70
     0
  9
$DIMSAH
 70
     1
  9
$DIMBLK1
  1
OPEN
  9
$DIMBLK2
  1
OPEN
  9
$DIMSTYLE
  2
STANDARD
  9
$DIMCLRD
 70
     0
  9
$DIMCLRE
 70
     0
  9
$DIMCLRT
 70
     0
  9
$DIMTFAC
 40
1.0
  9
$DIMGAP
 40
1.0
  9
$DIMJUST
 70
     0
  9
$DIMSD1
 70
     0
  9
$DIMSD2
 70
     0
  9
$DIMTOLJ
 70
     1
  9
$DIMTZIN
 70
     0
  9
$DIMALTZ
 70
     0
  9
$DIMALTTZ
 70
     0
  9
$DIMUPT
 70
     0
  9
$DIMDEC
 70
     4
  9
$DIMTDEC
 70
     4
  9
$DIMALTU
 70
     2
  9
$DIMALTTD
 70
     2
  9
$DIMTXSTY
  7
STANDARD
  9
$DIMAUNIT
 70
     0
  9
$DIMADEC
 70
     0
  9
$DIMALTRND
 40
0.0
  9
$DIMAZIN
 70
     0
  9
$DIMDSEP
 70
    46
  9
$DIMATFIT
 70
     3
  9
$DIMFRAC
 70
     0
  9
$DIMLDRBLK
  1
OPEN
  9
$DIMLUNIT
 70
     2
  9
$DIMLWD
 70
    -2
  9
$DIMLWE
 70
    -2
  9
$DIMTMOVE
 70
     0
  9
$LUNITS
 70
     2
  9
$LUPREC
 70
     4
  9
$SKETCHINC
 40
1.0
  9
$FILLETRAD
 40
6.0
  9
$AUNITS
 70
     0
  9
$AUPREC
 70
     2
  9
$MENU
  1
.
  9
$ELEVATION
 40
0.0
  9
$PELEVATION
 40
0.0
  9
$THICKNESS
 40
0.0
  9
$LIMCHECK
 70
     0
  9
$CHAMFERA
 40
10.0
  9
$CHAMFERB
 40
10.0
  9
$CHAMFERC
 40
0.0
  9
$CHAMFERD
 40
0.0
  9
$SKPOLY
 70
     0
  9
$TDCREATE
 40
2451301.639540509
  9
$TDUCREATE
 40
2451301.264540509
  9
$TDUPDATE
 40
2457192.687859861
  9
$TDUUPDATE
 40
2457192.312859861
  9
$TDINDWG
 40
0.0000098495
  9
$TDUSRTIMER
 40
0.0000093634
  9
$USRTIMER
 70
     1
  9
$ANGBASE
 50
0.0
  9
$ANGDIR
 70
     0
  9
$PDMODE
 70
     0
  9
$PDSIZE
 40
0.0
  9
$PLINEWID
 40
0.0
  9
$SPLFRAME
 70
     0
  9
$SPLINETYPE
 70
     6
  9
$SPLINESEGS
 70
     8
  9
$HANDSEED
  5
A2F8
  9
$SURFTAB1
 70
     6
  9
$SURFTAB2
 70
     6
  9
$SURFTYPE
 70
     6
  9
$SURFU
 70
     6
  9
$SURFV
 70
     6
  9
$UCSBASE
  2

  9
$UCSNAME
  2

  9
$UCSORG
 10
0.0
 20
0.0
 30
0.0
  9
$UCSXDIR
 10
1.0
 20
0.0
 30
0.0
  9
$UCSYDIR
 10
0.0
 20
1.0
 30
0.0
  9
$UCSORTHOREF
  2

  9
$UCSORTHOVIEW
 70
     0
  9
$UCSORGTOP
 10
0.0
 20
0.0
 30
0.0
  9
$UCSORGBOTTOM
 10
0.0
 20
0.0
 30
0.0
  9
$UCSORGLEFT
 10
0.0
 20
0.0
 30
0.0
  9
$UCSORGRIGHT
 10
0.0
 20
0.0
 30
0.0
  9
$UCSORGFRONT
 10
0.0
 20
0.0
 30
0.0
  9
$UCSORGBACK
 10
0.0
 20
0.0
 30
0.0
  9
$PUCSBASE
  2

  9
$PUCSNAME
  2

  9
$PUCSORG
 10
0.0
 20
0.0
 30
0.0
  9
$PUCSXDIR
 10
1.0
 20
0.0
 30
0.0
  9
$PUCSYDIR
 10
0.0
 20
1.0
 30
0.0
  9
$PUCSORTHOREF
  2

  9
$PUCSORTHOVIEW
 70
     0
  9
$PUCSORGTOP
 10
0.0
 20
0.0
 30
0.0
  9
$PUCSORGBOTTOM
 10
0.0
 20
0.0
 30
0.0
  9
$PUCSORGLEFT
 10
0.0
 20
0.0
 30
0.0
  9
$PUCSORGRIGHT
 10
0.0
 20
0.0
 30
0.0
  9
$PUCSORGFRONT
 10
0.0
 20
0.0
 30
0.0
  9
$PUCSORGBACK
 10
0.0
 20
0.0
 30
0.0
  9
$USERI1
 70
     0
  9
$USERI2
 70
     0
  9
$USERI3
 70
     0
  9
$USERI4
 70
     0
  9
$USERI5
 70
     0
  9
$USERR1
 40
0.0
  9
$USERR2
 40
0.0
  9
$USERR3
 40
0.0
  9
$USERR4
 40
0.0
  9
$USERR5
 40
0.0
  9
$WORLDVIEW
 70
     1
  9
$SHADEDGE
 70
     3
  9
$SHADEDIF
 70
    70
  9
$TILEMODE
 70
     1
  9
$MAXACTVP
 70
    16
  9
$PINSBASE
 10
0.0
 20
0.0
 30
0.0
  9
$PLIMCHECK
 70
     0
  9
$PEXTMIN
 10
1.000000000000000E+20
 20
1.000000000000000E+20
 30
1.000000000000000E+20
  9
$PEXTMAX
 10
-1.000000000000000E+20
 20
-1.000000000000000E+20
 30
-1.000000000000000E+20
  9
$PLIMMIN
 10
0.0
 20
0.0
  9
$PLIMMAX
 10
420.0
 20
297.0
  9
$UNITMODE
 70
     0
  9
$VISRETAIN
 70
     0
  9
$PLINEGEN
 70
     0
  9
$PSLTSCALE
 70
     0
  9
$TREEDEPTH
 70
  3020
  9
$CMLSTYLE
  2
STANDARD
  9
$CMLJUST
 70
     0
  9
$CMLSCALE
 40
1.0
  9
$PROXYGRAPHICS
 70
     1
  9
$MEASUREMENT
 70
     0
  9
$CELWEIGHT
370
    -1
  9
$ENDCAPS
280
     0
  9
$JOINSTYLE
280
     0
  9
$LWDISPLAY
290
     0
  9
$INSUNITS
 70
     0
  9
$HYPERLINKBASE
  1

  9
$STYLESHEET
  1

  9
$XEDIT
290
     1
  9
$CEPSNTYPE
380
     0
  9
$PSTYLEMODE
290
     1
  9
$FINGERPRINTGUID
  2
{49FD4926-4E31-418C-868B-9A1733880702}
  9
$VERSIONGUID
  2
{A2C448B2-11E4-4DCC-839C-805686AC816C}
  9
$EXTNAMES
290
     1
  9
$PSVPSCALE
 40
0.0
  9
$OLESTARTUP
290
     0
  0
ENDSEC
  0
SECTION
  2
CLASSES
  0
CLASS
  1
ACDBDICTIONARYWDFLT
  2
AcDbDictionaryWithDefault
  3
ObjectDBX Classes
 90
        0
280
     0
281
     0
  0
CLASS
  1
ACDBPLACEHOLDER
  2
AcDbPlaceHolder
  3
ObjectDBX Classes
 90
        0
280
     0
281
     0
  0
CLASS
  1
LAYOUT
  2
AcDbLayout
  3
ObjectDBX Classes
 90
        0
280
     0
281
     0
  0
CLASS
  1
DICTIONARYVAR
  2
AcDbDictionaryVar
  3
ObjectDBX Classes
 90
        0
280
     0
281
     0
  0
CLASS
  1
MATERIAL
  2
AcDbMaterial
  3
ObjectDBX Classes
 90
     1153
280
     0
281
     0
  0
CLASS
  1
VISUALSTYLE
  2
AcDbVisualStyle
  3
ObjectDBX Classes
 90
     4095
280
     0
281
     0
  0
CLASS
  1
TABLESTYLE
  2
AcDbTableStyle
  3
ObjectDBX Classes
 90
     4095
280
     0
281
     0
  0
CLASS
  1
SCALE
  2
AcDbScale
  3
ObjectDBX Classes
 90
     1153
280
     0
281
     0
  0
CLASS
  1
MLEADERSTYLE
  2
AcDbMLeaderStyle
  3
ACDB_MLEADERSTYLE_CLASS
 90
     4095
280
     0
281
     0
  0
CLASS
  1
ACDBSECTIONVIEWSTYLE
  2
AcDbSectionViewStyle
  3
ObjectDBX Classes
 90
     1025
280
     0
281
     0
  0
CLASS
  1
ACDBDETAILVIEWSTYLE
  2
AcDbDetailViewStyle
  3
ObjectDBX Classes
 90
     1025
280
     0
281
     0
  0
CLASS
  1
CELLSTYLEMAP
  2
AcDbCellStyleMap
  3
ObjectDBX Classes
 90
     1152
280
     0
281
     0
  0
ENDSEC
  0
SECTION
  2
TABLES
  0
TABLE
  2
VPORT
  5
9FE6
330
0
100
AcDbSymbolTable
 70
     1
  0
VPORT
  5
A241
330
9FE6
100
AcDbSymbolTableRecord
100
AcDbViewportTableRecord
  2
*ACTIVE
 70
     0
 10
0.0
 20
0.0
 11
1.0
 21
1.0
 12
249.329506019822
 22
137.7913519554903
 13
0.0
 23
0.0
 14
10.0
 24
10.0
 15
10.0
 25
10.0
 16
0.0
 26
0.0
 36
1.0
 17
0.0
 27
0.0
 37
0.0
 40
258.4286043584096
 41
2.35006605019815
 42
50.0
 43
0.0
 44
0.0
 50
0.0
 51
0.0
 71
     0
 72
   100
 73
     1
 74
     0
 75
     0
 76
     0
 77
     0
 78
     0
281
     0
 65
     1
110
0.0
120
0.0
130
0.0
111
1.0
121
0.0
131
0.0
112
0.0
122
1.0
132
0.0
 79
     0
146
0.0
1001
ACAD_NAV_VCDISPLAY
1070
     3
  0
ENDTAB
  0
TABLE
  2
LTYPE
  5
9FE3
330
0
100
AcDbSymbolTable
 70
     4
  0
LTYPE
  5
9FF1
330
9FE3
100
AcDbSymbolTableRecord
100
AcDbLinetypeTableRecord
  2
BYBLOCK
 70
     0
  3

 72
    65
 73
     0
 40
0.0
  0
LTYPE
  5
9FF2
330
9FE3
100
AcDbSymbolTableRecord
100
AcDbLinetypeTableRecord
  2
BYLAYER
 70
     0
  3

 72
    65
 73
     0
 40
0.0
  0
LTYPE
  5
9FF3
330
9FE3
100
AcDbSymbolTableRecord
100
AcDbLinetypeTableRecord
  2
CONTINUOUS
 70
     0
  3
Solid line
 72
    65
 73
     0
 40
0.0
  0
LTYPE
  5
A001
330
9FE3
100
AcDbSymbolTableRecord
100
AcDbLinetypeTableRecord
  2
DASHED
 70
     0
  3
__ __ __ __ __ __ __ __ __ __ __ __ __ __ __ __
 72
    65
 73
     2
 40
0.75
 49
0.5
 74
     0
 49
-0.25
 74
     0
  0
LTYPE
  5
A002
330
9FE3
100
AcDbSymbolTableRecord
100
AcDbLinetypeTableRecord
  2
CENTER
 70
     0
  3
____ _ ____ _ ____ _ ____ _ ____ _ ____ _ ____ 
 72
    65
 73
     4
 40
2.0
 49
1.25
 74
     0
 49
-0.25
 74
     0
 49
0.25
 74
     0
 49
-0.25
 74
     0
  0
LTYPE
  5
A003
330
9FE3
100
AcDbSymbolTableRecord
100
AcDbLinetypeTableRecord
  2
PHANTOM
 70
     0
  3
______  __  __  ______  __  __  ______  __  __ 
 72
    65
 73
     6
 40
2.5
 49
1.25
 74
     0
 49
-0.25
 74
     0
 49
0.25
 74
     0
 49
-0.25
 74
     0
 49
0.25
 74
     0
 49
-0.25
 74
     0
  0
ENDTAB
  0
TABLE
  2
LAYER
  5
9FE0
330
0
100
AcDbSymbolTable
 70
     8
  0
LAYER
  5
9FEE
102
{ACAD_XDICTIONARY
360
A29C
102
}
330
9FE0
100
AcDbSymbolTableRecord
100
AcDbLayerTableRecord
  2
0
 70
     0
 62
     7
  6
CONTINUOUS
370
    -3
390
A24A
  0
LAYER
  5
A004
102
{ACAD_XDICTIONARY
360
A29E
102
}
330
9FE0
100
AcDbSymbolTableRecord
100
AcDbLayerTableRecord
  2
4
 70
     0
 62
     1
  6
CENTER
370
    -3
390
A24A
  0
LAYER
  5
A005
102
{ACAD_XDICTIONARY
360
A2A0
102
}
330
9FE0
100
AcDbSymbolTableRecord
100
AcDbLayerTableRecord
  2
5
 70
     0
 62
     6
  6
PHANTOM
370
    -3
390
A24A
  0
LAYER
  5
A006
102
{ACAD_XDICTIONARY
360
A2A2
102
}
330
9FE0
100
AcDbSymbolTableRecord
100
AcDbLayerTableRecord
  2
1
 70
     0
 62
     7
  6
CONTINUOUS
370
    -3
390
A24A
  0
LAYER
  5
A007
102
{ACAD_XDICTIONARY
360
A2A4
102
}
330
9FE0
100
AcDbSymbolTableRecord
100
AcDbLayerTableRecord
  2
2
 70
     0
 62
     4
  6
CONTINUOUS
370
    -3
390
A24A
  0
LAYER
  5
A008
102
{ACAD_XDICTIONARY
360
A2A6
102
}
330
9FE0
100
AcDbSymbolTableRecord
100
AcDbLayerTableRecord
  2
3
 70
     0
 62
     2
  6
DASHED
370
    -3
390
A24A
  0
LAYER
  5
A009
102
{ACAD_XDICTIONARY
360
A2A8
102
}
330
9FE0
100
AcDbSymbolTableRecord
100
AcDbLayerTableRecord
  2
6
 70
     0
 62
     5
  6
CONTINUOUS
370
    -3
390
A24A
  0
LAYER
  5
A00A
102
{ACAD_XDICTIONARY
360
A2AA
102
}
330
9FE0
100
AcDbSymbolTableRecord
100
AcDbLayerTableRecord
  2
7
 70
     0
 62
     3
  6
CONTINUOUS
370
    -3
390
A24A
  0
ENDTAB
  0
TABLE
  2
STYLE
  5
9FE1
330
0
100
AcDbSymbolTable
 70
     1
  0
STYLE
  5
9FEF
330
9FE1
100
AcDbSymbolTableRecord
100
AcDbTextStyleTableRecord
  2
STANDARD
 70
     0
 40
0.0
 41
1.0
 50
0.0
 71
     0
 42
5.0
  3
txt
  4

  0
ENDTAB
  0
TABLE
  2
VIEW
  5
9FE4
330
0
100
AcDbSymbolTable
 70
     0
  0
ENDTAB
  0
TABLE
  2
UCS
  5
9FE5
330
0
100
AcDbSymbolTable
 70
     0
  0
ENDTAB
  0
TABLE
  2
APPID
  5
9FE7
330
0
100
AcDbSymbolTable
 70
     3
  0
APPID
  5
9FF0
330
9FE7
100
AcDbSymbolTableRecord
100
AcDbRegAppTableRecord
  2
ACAD
 70
     0
  0
APPID
  5
A2B6
330
9FE7
100
AcDbSymbolTableRecord
100
AcDbRegAppTableRecord
  2
ACAD_NAV_VCDISPLAY
 70
     0
  0
APPID
  5
A2EF
330
9FE7
100
AcDbSymbolTableRecord
100
AcDbRegAppTableRecord
  2
ACAD_MLEADERVER
 70
     0
  0
ENDTAB
  0
TABLE
  2
DIMSTYLE
  5
9FE8
330
0
100
AcDbSymbolTable
 70
     1
100
AcDbDimStyleTable
 71
     0
  0
DIMSTYLE
105
A00C
330
9FE8
100
AcDbSymbolTableRecord
100
AcDbDimStyleTableRecord
  2
STANDARD
 70
     0
 41
3.0
 42
1.0
 43
10.0
 44
1.0
 73
     0
 74
     0
 77
     3
 78
     8
140
3.2
141
0.0
147
1.0
172
     1
173
     1
284
     8
285
     8
286
     8
340
9FEF
  0
ENDTAB
  0
TABLE
  2
BLOCK_RECORD
  5
9FDF
330
0
100
AcDbSymbolTable
 70
     1
  0
BLOCK_RECORD
  5
9FFC
102
{ACAD_XDICTIONARY
360
A244
102
}
330
9FDF
100
AcDbSymbolTableRecord
100
AcDbBlockTableRecord
  2
*MODEL_SPACE
340
A298
  0
BLOCK_RECORD
  5
9FF8
102
{ACAD_XDICTIONARY
360
A242
102
}
330
9FDF
100
AcDbSymbolTableRecord
100
AcDbBlockTableRecord
  2
*PAPER_SPACE
340
A299
  0
BLOCK_RECORD
  5
A014
330
9FDF
100
AcDbSymbolTableRecord
100
AcDbBlockTableRecord
  2
_OPEN
340
0
  0
ENDTAB
  0
ENDSEC
  0
SECTION
  2
BLOCKS
  0
BLOCK
  5
9FFD
330
9FFC
100
AcDbEntity
  8
0
100
AcDbBlockBegin
  2
*MODEL_SPACE
 70
     0
 10
0.0
 20
0.0
 30
0.0
  3
*MODEL_SPACE
  1

  0
ENDBLK
  5
9FFE
330
9FFC
100
AcDbEntity
  8
0
100
AcDbBlockEnd
  0
BLOCK
  5
9FF9
330
9FF8
100
AcDbEntity
 67
     1
  8
0
100
AcDbBlockBegin
  2
*PAPER_SPACE
 70
     0
 10
0.0
 20
0.0
 30
0.0
  3
*PAPER_SPACE
  1

  0
ENDBLK
  5
9FFA
330
9FF8
100
AcDbEntity
 67
     1
  8
0
100
AcDbBlockEnd
  0
BLOCK
  5
A015
330
A014
100
AcDbEntity
  8
0
100
AcDbBlockBegin
  2
_OPEN
 70
     0
 10
0.0
 20
0.0
 30
0.0
  3
_OPEN
  1

  0
LINE
  5
A016
330
A014
100
AcDbEntity
  8
0
  6
ByBlock
 62
     0
100
AcDbLine
 10
-1.0
 20
0.166667
 30
0.0
 11
0.0
 21
0.0
 31
0.0
  0
LINE
  5
A017
330
A014
100
AcDbEntity
  8
0
  6
ByBlock
 62
     0
100
AcDbLine
 10
0.0
 20
0.0
 30
0.0
 11
-1.0
 21
-0.166667
 31
0.0
  0
LINE
  5
A018
330
A014
100
AcDbEntity
  8
0
  6
ByBlock
 62
     0
100
AcDbLine
 10
0.0
 20
0.0
 30
0.0
 11
-1.0
 21
0.0
 31
0.0
  0
ENDBLK
  5
A019
330
A014
100
AcDbEntity
  8
0
100
AcDbBlockEnd
  0
ENDSEC
  0
SECTION
  2
ENTITIES
  0
TEXT
  5
A01A
330
9FFC
100
AcDbEntity
  8
7
  6
Continuous
100
AcDbText
 10
10.0
 20
18.0
 30
0.0
 40
3.0
  1
TYPE No.302
100
AcDbText
  0
TEXT
  5
A01B
330
9FFC
100
AcDbEntity
  8
7
  6
Continuous
100
AcDbText
 10
10.0
 20
26.0
 30
0.0
 40
3.0
  1
CODE No.9302
100
AcDbText
  0
TEXT
  5
A01C
330
9FFC
100
AcDbEntity
  8
1
  6
Continuous
100
AcDbText
 10
10.0
 20
10.0
 30
0.0
 40
1.399999999999999
  1
LAYER
100
AcDbText
  0
TEXT
  5
A01D
330
9FFC
100
AcDbEntity
  8
1
  6
Continuous
100
AcDbText
 10
17.97951099999998
 20
10.04873699999998
 30
0.0
 40
1.399999999999999
  1
1
100
AcDbText
  0
TEXT
  5
A01E
330
9FFC
100
AcDbEntity
  8
7
  6
Continuous
100
AcDbText
 10
29.97951099999999
 20
10.04873699999998
 30
0.0
 40
1.399999999999999
  1
7
100
AcDbText
  0
TEXT
  5
A01F
330
9FFC
100
AcDbEntity
  8
4
  6
CENTER
100
AcDbText
 10
23.97951099999999
 20
10.04873699999998
 30
0.0
 40
1.399999999999999
  1
4
100
AcDbText
  0
TEXT
  5
A020
330
9FFC
100
AcDbEntity
  8
3
  6
DASHED
100
AcDbText
 10
21.979511
 20
10.04873699999998
 30
0.0
 40
1.399999999999999
  1
3
100
AcDbText
  0
TEXT
  5
A021
330
9FFC
100
AcDbEntity
  8
2
  6
Continuous
100
AcDbText
 10
19.97951099999999
 20
10.04873699999998
 30
0.0
 40
1.399999999999999
  1
2
100
AcDbText
  0
TEXT
  5
A022
330
9FFC
100
AcDbEntity
  8
6
  6
Continuous
100
AcDbText
 10
27.979511
 20
10.04873699999998
 30
0.0
 40
1.399999999999999
  1
6
100
AcDbText
  0
TEXT
  5
A023
330
9FFC
100
AcDbEntity
  8
5
  6
PHANTOM
100
AcDbText
 10
25.97951099999999
 20
10.04873699999998
 30
0.0
 40
1.399999999999999
  1
5
100
AcDbText
  0
LINE
  5
A024
330
9FFC
100
AcDbEntity
  8
4
  6
CENTER
100
AcDbLine
 10
146.3897609999999
 20
133.9210919999999
 30
0.0
 11
100.3897609999998
 21
133.9210919999999
 31
0.0
  0
LINE
  5
A025
330
9FFC
100
AcDbEntity
  8
1
  6
Continuous
100
AcDbLine
 10
124.621729
 20
158.425546
 30
0.0
 11
121.426409
 21
158.3473569999999
 31
0.0
  0
LINE
  5
A026
330
9FFC
100
AcDbEntity
  8
1
  6
Continuous
100
AcDbLine
 10
122.6142639999999
 20
156.458
 30
0.0
 11
120.8674169999998
 21
156.4307829999999
 31
0.0
  0
ARC
  5
A027
330
9FFC
100
AcDbEntity
  8
1
  6
Continuous
100
AcDbCircle
 10
122.639761
 20
133.151092
 30
0.0
 40
7.0
100
AcDbArc
 50
163.200454
 51
297.4158479999999
  0
ARC
  5
A028
330
9FFC
100
AcDbEntity
  8
1
  6
Continuous
100
AcDbCircle
 10
123.3897609999999
 20
133.9210919999999
 30
0.0
 40
8.5
100
AcDbArc
 50
134.360001
 51
346.2696789999998
  0
ARC
  5
A029
330
9FFC
100
AcDbEntity
  8
1
  6
Continuous
100
AcDbCircle
 10
123.3897609999999
 20
133.9210919999999
 30
0.0
 40
13.5
100
AcDbArc
 50
106.312717
 51
15.276205
  0
ARC
  5
A02A
330
9FFC
100
AcDbEntity
  8
1
  6
Continuous
100
AcDbCircle
 10
123.3897609999999
 20
133.9210919999999
 30
0.0
 40
20.0
100
AcDbArc
 50
94.616828
 51
28.49641599999999
  0
LINE
  5
A02B
330
9FFC
100
AcDbEntity
  8
4
  6
CENTER
100
AcDbLine
 10
123.3897609999999
 20
110.9210919999999
 30
0.0
 11
123.3897609999999
 21
156.9210919999999
 31
0.0
  0
LINE
  5
A02C
330
9FFC
100
AcDbEntity
  8
4
  6
CENTER
100
AcDbLine
 10
142.389761
 20
190.921093
 30
0.0
 11
142.389761
 21
142.113277
 31
0.0
  0
LINE
  5
A02D
330
9FFC
100
AcDbEntity
  8
1
  6
Continuous
100
AcDbLine
 10
130.3067149999999
 20
152.777172
 30
0.0
 11
130.3067149999999
 21
136.5103219999998
 31
0.0
  0
ARC
  5
A02E
330
9FFC
100
AcDbEntity
  8
1
  6
Continuous
100
AcDbCircle
 10
226.561743
 20
75.093041
 30
0.0
 40
109.54901
100
AcDbArc
 50
135.068663
 51
142.550598
  0
ARC
  5
A02F
330
9FFC
100
AcDbEntity
  8
1
  6
Continuous
100
AcDbCircle
 10
312.067422
 20
9.602116
 30
0.0
 40
217.2536169999999
100
AcDbArc
 50
138.822846
 51
143.585047
  0
ARC
  5
A030
330
9FFC
100
AcDbEntity
  8
1
  6
Continuous
100
AcDbCircle
 10
80.801327
 20
180.199365
 30
0.0
 40
70.12666800000001
100
AcDbArc
 50
312.857186
 51
323.5850469999999
  0
LINE
  5
A031
330
9FFC
100
AcDbEntity
  8
1
  6
Continuous
100
AcDbLine
 10
158.339761
 20
154.9651059999999
 30
0.0
 11
154.215926
 21
154.975865
 31
0.0
  0
LINE
  5
A032
330
9FFC
100
AcDbEntity
  8
1
  6
Continuous
100
AcDbLine
 10
126.1397609999999
 20
161.388021
 30
0.0
 11
158.6397609999999
 21
161.388021
 31
0.0
  0
LINE
  5
A033
330
9FFC
100
AcDbEntity
  8
1
  6
Continuous
100
AcDbLine
 10
157.882261
 20
155.0308649999998
 30
0.0
 11
153.814256
 21
155.0308649999998
 31
0.0
  0
ARC
  5
A034
330
9FFC
100
AcDbEntity
  8
1
  6
Continuous
100
AcDbCircle
 10
171.835372
 20
156.994087
 30
0.0
 40
12.165422
100
AcDbArc
 50
175.4450339999999
 51
183.2702319999999
  0
LINE
  5
A035
330
9FFC
100
AcDbEntity
  8
1
  6
Continuous
100
AcDbLine
 10
158.339761
 20
154.9651059999999
 30
0.0
 11
159.689761
 21
155.13109
 31
0.0
  0
LINE
  5
A036
330
9FFC
100
AcDbEntity
  8
1
  6
Continuous
100
AcDbLine
 10
159.689761
 20
155.13109
 30
0.0
 11
159.689761
 21
156.3001059999998
 31
0.0
  0
LINE
  5
A037
330
9FFC
100
AcDbEntity
  8
1
  6
Continuous
100
AcDbLine
 10
157.882261
 20
155.0308649999998
 30
0.0
 11
158.339761
 21
154.9651059999999
 31
0.0
  0
ARC
  5
A038
330
9FFC
100
AcDbEntity
  8
1
  6
Continuous
100
AcDbCircle
 10
156.073895
 20
158.058129
 30
0.0
 40
3.635797999999998
100
AcDbArc
 50
358.456726
 51
35.58992999999999
  0
ARC
  5
A039
330
9FFC
100
AcDbEntity
  8
1
  6
Continuous
100
AcDbCircle
 10
156.6689949999999
 20
158.4840209999998
 30
0.0
 40
2.903999999999999
100
AcDbArc
 50
35.58992999999999
 51
90.0
  0
ARC
  5
A03A
330
9FFC
100
AcDbEntity
  8
1
  6
Continuous
100
AcDbCircle
 10
155.1949999999999
 20
146.288936
 30
0.0
 40
8.741928999999997
100
AcDbArc
 50
90.0
 51
135.068663
  0
ARC
  5
A03B
330
9FFC
100
AcDbEntity
  8
1
  6
Continuous
100
AcDbCircle
 10
153.814256
 20
148.0308649999998
 30
0.0
 40
7.0
100
AcDbArc
 50
90.0
 51
138.822846
  0
LINE
  5
A03C
330
9FFC
100
AcDbEntity
  8
1
  6
Continuous
100
AcDbLine
 10
127.484196
 20
158.4955899999999
 30
0.0
 11
124.621729
 21
158.425546
 31
0.0
  0
ARC
  5
A03D
330
9FFC
100
AcDbEntity
  8
1
  6
Continuous
100
AcDbCircle
 10
127.5129519999999
 20
159.88801
 30
0.0
 40
1.5
100
AcDbArc
 50
90.0
 51
181.970851
  0
ARC
  5
A03E
330
9FFC
100
AcDbEntity
  8
1
  6
Continuous
100
AcDbCircle
 10
127.4134179999998
 20
161.388021
 30
0.0
 40
2.893297
100
AcDbArc
 50
271.4017379999999
 51
344.468255
  0
ARC
  5
A03F
330
9FFC
100
AcDbEntity
  8
1
  6
Continuous
100
AcDbCircle
 10
124.8145499999999
 20
159.7951539999999
 30
0.0
 40
1.199999999999999
100
AcDbArc
 50
333.5657219999998
 51
1.970850999999999
  0
ARC
  5
A040
330
9FFC
100
AcDbEntity
  8
1
  6
Continuous
100
AcDbCircle
 10
124.536975
 20
159.933151
 30
0.0
 40
1.509986
100
AcDbArc
 50
271.4017379999999
 51
333.5657219999998
  0
ARC
  5
A041
330
9FFC
100
AcDbEntity
  8
1
  6
Continuous
100
AcDbCircle
 10
118.481709
 20
156.2842889999998
 30
0.0
 40
2.390200999999998
100
AcDbArc
 50
3.513819999999998
 51
22.028666
  0
LINE
  5
A042
330
9FFC
100
AcDbEntity
  8
1
  6
Continuous
100
AcDbLine
 10
120.6974169999998
 20
157.180783
 30
0.0
 11
120.6974169999998
 21
158.0700339999999
 31
0.0
  0
ARC
  5
A043
330
9FFC
100
AcDbEntity
  8
1
  6
Continuous
100
AcDbCircle
 10
121.48836
 20
157.082511
 30
0.0
 40
1.265223999999999
100
AcDbArc
 50
91.40173799999999
 51
128.692501
  0
LINE
  5
A044
330
9FFC
100
AcDbEntity
  8
4
  6
CENTER
100
AcDbLine
 10
164.689761
 20
243.275991
 30
0.0
 11
98.13976099999999
 21
243.275991
 31
0.0
  0
LINE
  5
A045
330
9FFC
100
AcDbEntity
  8
4
  6
CENTER
100
AcDbLine
 10
142.389761
 20
220.9759909999999
 30
0.0
 11
142.389761
 21
265.575991
 31
0.0
  0
LINE
  5
A046
330
9FFC
100
AcDbEntity
  8
4
  6
CENTER
100
AcDbLine
 10
46.18084699999999
 20
190.9211779999999
 30
0.0
 11
46.18084699999999
 21
110.934611
 31
0.0
  0
LINE
  5
A047
330
9FFC
100
AcDbEntity
  8
1
  6
Continuous
100
AcDbLine
 10
54.680847
 20
151.548086
 30
0.0
 11
54.680847
 21
116.294127
 31
0.0
  0
LINE
  5
A048
330
9FFC
100
AcDbEntity
  8
1
  6
Continuous
100
AcDbLine
 10
37.680847
 20
151.548086
 30
0.0
 11
37.680847
 21
116.294127
 31
0.0
  0
LINE
  5
A049
330
9FFC
100
AcDbEntity
  8
1
  6
Continuous
100
AcDbLine
 10
63.480885
 20
158.3881
 30
0.0
 11
63.480851
 21
142.147232
 31
0.0
  0
LINE
  5
A04A
330
9FFC
100
AcDbEntity
  8
1
  6
Continuous
100
AcDbLine
 10
28.880886
 20
158.38811
 30
0.0
 11
28.880867
 21
142.140541
 31
0.0
  0
LINE
  5
A04B
330
9FFC
100
AcDbEntity
  8
1
  6
Continuous
100
AcDbLine
 10
58.18100600000001
 20
156.570128
 30
0.0
 11
58.18096999999998
 21
126.1511059999999
 31
0.0
  0
LINE
  5
A04C
330
9FFC
100
AcDbEntity
  8
1
  6
Continuous
100
AcDbLine
 10
34.180689
 20
156.570128
 30
0.0
 11
34.18072399999999
 21
126.1536439999999
 31
0.0
  0
LINE
  5
A04D
330
9FFC
100
AcDbEntity
  8
1
  6
Continuous
100
AcDbLine
 10
56.29086
 20
155.930878
 30
0.0
 11
56.290826
 21
126.1396949999999
 31
0.0
  0
LINE
  5
A04E
330
9FFC
100
AcDbEntity
  8
1
  6
Continuous
100
AcDbLine
 10
36.070834
 20
155.930878
 30
0.0
 11
36.070869
 21
126.1511059999999
 31
0.0
  0
LINE
  5
A04F
330
9FFC
100
AcDbEntity
  8
4
  6
CENTER
100
AcDbLine
 10
27.180689
 20
133.921106
 30
0.0
 11
64.58103699999999
 21
133.921106
 31
0.0
  0
ARC
  5
A050
330
9FFC
100
AcDbEntity
  8
1
  6
Continuous
100
AcDbCircle
 10
46.18084699999999
 20
143.921106
 30
0.0
 40
30.0
100
AcDbArc
 50
255.7818759999999
 51
284.218124
  0
ARC
  5
A051
330
9FFC
100
AcDbEntity
  8
1
  6
Continuous
100
AcDbCircle
 10
20.584791
 20
126.1511059999999
 30
0.0
 40
13.60117699999998
100
AcDbArc
 50
1.591154999999999
 51
14.998938
  0
LINE
  5
A052
330
9FFC
100
AcDbEntity
  8
1
  6
Continuous
100
AcDbLine
 10
36.680847
 20
140.921106
 30
0.0
 11
36.680847
 21
126.9211059999999
 31
0.0
  0
ARC
  5
A053
330
9FFC
100
AcDbEntity
  8
1
  6
Continuous
100
AcDbCircle
 10
39.18084699999999
 20
116.294127
 30
0.0
 40
1.5
100
AcDbArc
 50
180.0
 51
255.7818759999999
  0
LINE
  5
A054
330
9FFC
100
AcDbEntity
  8
1
  6
Continuous
100
AcDbLine
 10
36.680847
 20
126.9211059999999
 30
0.0
 11
37.680847
 21
125.9211059999999
 31
0.0
  0
LINE
  5
A055
330
9FFC
100
AcDbEntity
  8
1
  6
Continuous
100
AcDbLine
 10
34.18072399999999
 20
126.1511059999999
 30
0.0
 11
36.070869
 21
126.1511059999999
 31
0.0
  0
ARC
  5
A056
330
9FFC
100
AcDbEntity
  8
1
  6
Continuous
100
AcDbCircle
 10
41.18068899999999
 20
133.921106
 30
0.0
 40
9.0
100
AcDbArc
 50
151.821357
 51
208.178643
  0
ARC
  5
A057
330
9FFC
100
AcDbEntity
  8
1
  6
Continuous
100
AcDbCircle
 10
43.08145099999999
 20
142.4912469999999
 30
0.0
 40
14.204913
100
AcDbArc
 50
181.414727
 51
216.5579559999999
  0
ARC
  5
A058
330
9FFC
100
AcDbEntity
  8
1
  6
Continuous
100
AcDbCircle
 10
20.57954099999999
 20
126.1511059999999
 30
0.0
 40
13.60117699999998
100
AcDbArc
 50
31.23398400000001
 51
35.40147000000001
  0
LINE
  5
A059
330
9FFC
100
AcDbEntity
  8
1
  6
Continuous
100
AcDbLine
 10
33.24737299999998
 20
138.171106
 30
0.0
 11
33.24737299999998
 21
129.671106
 31
0.0
  0
LINE
  5
A05A
330
9FFC
100
AcDbEntity
  8
1
  6
Continuous
100
AcDbLine
 10
36.070834
 20
130.921106
 30
0.0
 11
36.680847
 21
130.921106
 31
0.0
  0
LINE
  5
A05B
330
9FFC
100
AcDbEntity
  8
1
  6
Continuous
100
AcDbLine
 10
33.24737299999998
 20
129.671106
 30
0.0
 11
34.180689
 21
129.671106
 31
0.0
  0
LINE
  5
A05C
330
9FFC
100
AcDbEntity
  8
1
  6
Continuous
100
AcDbLine
 10
36.070834
 20
136.921106
 30
0.0
 11
36.680847
 21
136.921106
 31
0.0
  0
LINE
  5
A05D
330
9FFC
100
AcDbEntity
  8
1
  6
Continuous
100
AcDbLine
 10
33.24737299999998
 20
138.171106
 30
0.0
 11
34.180689
 21
138.171106
 31
0.0
  0
LINE
  5
A05E
330
9FFC
100
AcDbEntity
  8
1
  6
Continuous
100
AcDbLine
 10
36.680847
 20
140.921106
 30
0.0
 11
37.680847
 21
141.921106
 31
0.0
  0
ARC
  5
A05F
330
9FFC
100
AcDbEntity
  8
1
  6
Continuous
100
AcDbCircle
 10
71.848263
 20
126.1511059999999
 30
0.0
 40
13.667293
100
AcDbArc
 50
163.98786
 51
180.0
  0
LINE
  5
A060
330
9FFC
100
AcDbEntity
  8
1
  6
Continuous
100
AcDbLine
 10
55.68084699999999
 20
140.921106
 30
0.0
 11
55.68084699999999
 21
126.9211059999999
 31
0.0
  0
ARC
  5
A061
330
9FFC
100
AcDbEntity
  8
1
  6
Continuous
100
AcDbCircle
 10
53.18084699999999
 20
116.294127
 30
0.0
 40
1.5
100
AcDbArc
 50
284.218124
 51
0.0
  0
LINE
  5
A062
330
9FFC
100
AcDbEntity
  8
1
  6
Continuous
100
AcDbLine
 10
56.290826
 20
126.1511059999999
 30
0.0
 11
58.18096999999998
 21
126.1511059999999
 31
0.0
  0
LINE
  5
A063
330
9FFC
100
AcDbEntity
  8
1
  6
Continuous
100
AcDbLine
 10
55.68084699999999
 20
126.9211059999999
 30
0.0
 11
54.680847
 21
125.9211059999999
 31
0.0
  0
ARC
  5
A064
330
9FFC
100
AcDbEntity
  8
1
  6
Continuous
100
AcDbCircle
 10
49.280229
 20
142.498693
 30
0.0
 40
14.20497099999999
100
AcDbArc
 50
323.5188219999999
 51
358.5822329999999
  0
LINE
  5
A065
330
9FFC
100
AcDbEntity
  8
1
  6
Continuous
100
AcDbLine
 10
55.68084699999999
 20
130.921106
 30
0.0
 11
56.29086
 21
130.921106
 31
0.0
  0
LINE
  5
A066
330
9FFC
100
AcDbEntity
  8
1
  6
Continuous
100
AcDbLine
 10
55.68084699999999
 20
136.921106
 30
0.0
 11
56.29086
 21
136.921106
 31
0.0
  0
ARC
  5
A067
330
9FFC
100
AcDbEntity
  8
1
  6
Continuous
100
AcDbCircle
 10
71.85321999999998
 20
126.1511059999999
 30
0.0
 40
13.667293
100
AcDbArc
 50
144.678686
 51
156.5128089999998
  0
ARC
  5
A068
330
9FFC
100
AcDbEntity
  8
1
  6
Continuous
100
AcDbCircle
 10
49.181413
 20
133.921106
 30
0.0
 40
10.399624
100
AcDbArc
 50
337.379272
 51
22.62072799999998
  0
LINE
  5
A069
330
9FFC
100
AcDbEntity
  8
1
  6
Continuous
100
AcDbLine
 10
58.78100599999999
 20
137.921106
 30
0.0
 11
58.78100599999999
 21
129.921106
 31
0.0
  0
LINE
  5
A06A
330
9FFC
100
AcDbEntity
  8
1
  6
Continuous
100
AcDbLine
 10
58.18100600000001
 20
129.921106
 30
0.0
 11
58.78100599999999
 21
129.921106
 31
0.0
  0
LINE
  5
A06B
330
9FFC
100
AcDbEntity
  8
1
  6
Continuous
100
AcDbLine
 10
58.18100600000001
 20
137.921106
 30
0.0
 11
58.78100599999999
 21
137.921106
 31
0.0
  0
LINE
  5
A06C
330
9FFC
100
AcDbEntity
  8
1
  6
Continuous
100
AcDbLine
 10
55.68084699999999
 20
140.921106
 30
0.0
 11
54.680847
 21
141.921106
 31
0.0
  0
LINE
  5
A06D
330
9FFC
100
AcDbEntity
  8
1
  6
Continuous
100
AcDbLine
 10
40.03084699999997
 20
154.101376
 30
0.0
 11
52.330847
 21
154.101376
 31
0.0
  0
LINE
  5
A06E
330
9FFC
100
AcDbEntity
  8
1
  6
Continuous
100
AcDbLine
 10
36.070834
 20
155.901376
 30
0.0
 11
56.29086
 21
155.901376
 31
0.0
  0
ARC
  5
A06F
330
9FFC
100
AcDbEntity
  8
1
  6
Continuous
100
AcDbCircle
 10
46.18084699999999
 20
123.9211059999999
 30
0.0
 40
30.0
100
AcDbArc
 50
75.78187599999998
 51
104.218124
  0
LINE
  5
A070
330
9FFC
100
AcDbEntity
  8
1
  6
Continuous
100
AcDbLine
 10
29.93084699999998
 20
161.3881059999999
 30
0.0
 11
62.430847
 21
161.3881059999999
 31
0.0
  0
LINE
  5
A071
330
9FFC
100
AcDbEntity
  8
1
  6
Continuous
100
AcDbLine
 10
36.57083399999999
 20
156.430879
 30
0.0
 11
55.79086
 21
156.430879
 31
0.0
  0
LINE
  5
A072
330
9FFC
100
AcDbEntity
  8
1
  6
Continuous
100
AcDbLine
 10
35.680689
 20
158.07013
 30
0.0
 11
56.68100599999998
 21
158.07013
 31
0.0
  0
ARC
  5
A073
330
9FFC
100
AcDbEntity
  8
1
  6
Continuous
100
AcDbCircle
 10
32.05451899999999
 20
158.2075069999999
 30
0.0
 40
3.180724999999998
100
AcDbArc
 50
89.48899500000001
 51
176.1191839999999
  0
LINE
  5
A074
330
9FFC
100
AcDbEntity
  8
1
  6
Continuous
100
AcDbLine
 10
42.43084699999999
 20
154.101376
 30
0.0
 11
40.68085599999998
 21
155.101376
 31
0.0
  0
ARC
  5
A075
330
9FFC
100
AcDbEntity
  8
1
  6
Continuous
100
AcDbCircle
 10
35.680689
 20
156.57013
 30
0.0
 40
1.5
100
AcDbArc
 50
90.0
 51
179.1070109999998
  0
LINE
  5
A076
330
9FFC
100
AcDbEntity
  8
1
  6
Continuous
100
AcDbLine
 10
36.07083499999998
 20
154.975971
 30
0.0
 11
40.10373
 21
154.975971
 31
0.0
  0
ARC
  5
A077
330
9FFC
100
AcDbEntity
  8
1
  6
Continuous
100
AcDbCircle
 10
36.57083399999999
 20
155.930879
 30
0.0
 40
0.5
100
AcDbArc
 50
90.0
 51
179.1070109999998
  0
LINE
  5
A078
330
9FFC
100
AcDbEntity
  8
1
  6
Continuous
100
AcDbLine
 10
40.68085599999998
 20
155.101376
 30
0.0
 11
40.03084699999997
 21
154.101376
 31
0.0
  0
LINE
  5
A079
330
9FFC
100
AcDbEntity
  8
1
  6
Continuous
100
AcDbLine
 10
40.03084699999997
 20
154.101376
 30
0.0
 11
40.180847
 21
155.901376
 31
0.0
  0
ARC
  5
A07A
330
9FFC
100
AcDbEntity
  8
1
  6
Continuous
100
AcDbCircle
 10
39.18084699999999
 20
151.548086
 30
0.0
 40
1.5
100
AcDbArc
 50
104.218124
 51
180.0
  0
LINE
  5
A07B
330
9FFC
100
AcDbEntity
  8
1
  6
Continuous
100
AcDbLine
 10
44.43084699999999
 20
154.101376
 30
0.0
 11
46.18084699999999
 21
155.101376
 31
0.0
  0
LINE
  5
A07C
330
9FFC
100
AcDbEntity
  8
1
  6
Continuous
100
AcDbLine
 10
47.930847
 20
154.101376
 30
0.0
 11
46.18084699999999
 21
155.101376
 31
0.0
  0
ARC
  5
A07D
330
9FFC
100
AcDbEntity
  8
1
  6
Continuous
100
AcDbCircle
 10
56.68100599999998
 20
156.57013
 30
0.0
 40
1.5
100
AcDbArc
 50
0.8929889999999998
 51
90.0
  0
LINE
  5
A07E
330
9FFC
100
AcDbEntity
  8
1
  6
Continuous
100
AcDbLine
 10
52.257964
 20
154.975971
 30
0.0
 11
56.29085899999999
 21
154.975971
 31
0.0
  0
ARC
  5
A07F
330
9FFC
100
AcDbEntity
  8
1
  6
Continuous
100
AcDbCircle
 10
53.18084699999999
 20
151.548086
 30
0.0
 40
1.5
100
AcDbArc
 50
0.0
 51
75.78187599999998
  0
LINE
  5
A080
330
9FFC
100
AcDbEntity
  8
1
  6
Continuous
100
AcDbLine
 10
51.680839
 20
155.101376
 30
0.0
 11
52.330847
 21
154.101376
 31
0.0
  0
LINE
  5
A081
330
9FFC
100
AcDbEntity
  8
1
  6
Continuous
100
AcDbLine
 10
49.930847
 20
154.101376
 30
0.0
 11
51.680839
 21
155.101376
 31
0.0
  0
LINE
  5
A082
330
9FFC
100
AcDbEntity
  8
1
  6
Continuous
100
AcDbLine
 10
52.330847
 20
154.101376
 30
0.0
 11
52.180847
 21
155.901376
 31
0.0
  0
ARC
  5
A083
330
9FFC
100
AcDbEntity
  8
1
  6
Continuous
100
AcDbCircle
 10
55.79086
 20
155.930879
 30
0.0
 40
0.5
100
AcDbArc
 50
0.8929889999999998
 51
90.0
  0
ARC
  5
A084
330
9FFC
100
AcDbEntity
  8
1
  6
Continuous
100
AcDbCircle
 10
60.30723100000001
 20
158.2073709999999
 30
0.0
 40
3.180861
100
AcDbArc
 50
3.916798
 51
90.51059299999998
  0
LINE
  5
A085
330
9FFC
100
AcDbEntity
  8
1
  6
Continuous
100
AcDbLine
 10
123.1977639999999
 20
158.390701
 30
0.0
 11
115.938508
 21
135.174261
 31
0.0
  0
ARC
  5
A086
330
9FFC
100
AcDbEntity
  8
1
  6
Continuous
100
AcDbCircle
 10
120.337534
 20
137.5895319999999
 30
0.0
 40
12.0
100
AcDbArc
 50
297.4158479999999
 51
312.857186
  0
LINE
  5
A087
330
9FFC
100
AcDbEntity
  8
4
  6
CENTER
100
AcDbLine
 10
164.689761
 20
56.566591
 30
0.0
 11
98.13976099999999
 21
56.566591
 31
0.0
  0
LINE
  5
A088
330
9FFC
100
AcDbEntity
  8
4
  6
CENTER
100
AcDbLine
 10
142.389761
 20
78.866591
 30
0.0
 11
142.389761
 21
34.266591
 31
0.0
  0
LINE
  5
A089
330
9FFC
100
AcDbEntity
  8
1
  6
Continuous
100
AcDbLine
 10
202.525205
 20
155.13109
 30
0.0
 11
231.6721419999999
 21
155.13109
 31
0.0
  0
LINE
  5
A08A
330
9FFC
100
AcDbEntity
  8
4
  6
CENTER
100
AcDbLine
 10
217.098674
 20
190.9211779999999
 30
0.0
 11
217.098674
 21
110.934611
 31
0.0
  0
LINE
  5
A08B
330
9FFC
100
AcDbEntity
  8
4
  6
CENTER
100
AcDbLine
 10
236.098832
 20
133.921106
 30
0.0
 11
197.511704
 21
133.921106
 31
0.0
  0
LINE
  5
A08C
330
9FFC
100
AcDbEntity
  8
1
  6
Continuous
100
AcDbLine
 10
225.5986739999999
 20
151.548086
 30
0.0
 11
225.5986739999999
 21
116.294127
 31
0.0
  0
LINE
  5
A08D
330
9FFC
100
AcDbEntity
  8
1
  6
Continuous
100
AcDbLine
 10
208.598674
 20
151.548086
 30
0.0
 11
208.598674
 21
116.294127
 31
0.0
  0
ARC
  5
A08E
330
9FFC
100
AcDbEntity
  8
1
  6
Continuous
100
AcDbCircle
 10
217.098674
 20
143.921106
 30
0.0
 40
30.0
100
AcDbArc
 50
255.7818759999999
 51
284.218124
  0
ARC
  5
A08F
330
9FFC
100
AcDbEntity
  8
1
  6
Continuous
100
AcDbCircle
 10
224.0986739999999
 20
116.294127
 30
0.0
 40
1.5
100
AcDbArc
 50
284.218124
 51
0.0
  0
ARC
  5
A090
330
9FFC
100
AcDbEntity
  8
1
  6
Continuous
100
AcDbCircle
 10
210.0986739999999
 20
116.294127
 30
0.0
 40
1.5
100
AcDbArc
 50
180.0
 51
255.7818759999999
  0
LINE
  5
A091
330
9FFC
100
AcDbEntity
  8
1
  6
Continuous
100
AcDbLine
 10
233.348674
 20
161.3881059999999
 30
0.0
 11
200.8486739999999
 21
161.3881059999999
 31
0.0
  0
LINE
  5
A092
330
9FFC
100
AcDbEntity
  8
1
  6
Continuous
100
AcDbLine
 10
234.398635
 20
158.207109
 30
0.0
 11
234.3986529999999
 21
142.8511569999998
 31
0.0
  0
LINE
  5
A093
330
9FFC
100
AcDbEntity
  8
1
  6
Continuous
100
AcDbLine
 10
205.0985509999999
 20
126.151122
 30
0.0
 11
205.0985509999999
 21
126.1511059999999
 31
0.0
  0
LINE
  5
A094
330
9FFC
100
AcDbEntity
  8
1
  6
Continuous
100
AcDbLine
 10
227.2086859999999
 20
155.13109
 30
0.0
 11
227.208652
 21
126.1511059999999
 31
0.0
  0
LINE
  5
A095
330
9FFC
100
AcDbEntity
  8
1
  6
Continuous
100
AcDbLine
 10
206.9886939999999
 20
126.3966539999999
 30
0.0
 11
206.9886949999999
 21
126.1511059999999
 31
0.0
  0
LINE
  5
A096
330
9FFC
100
AcDbEntity
  8
1
  6
Continuous
100
AcDbLine
 10
226.5986739999999
 20
140.921106
 30
0.0
 11
225.5986739999999
 21
141.921106
 31
0.0
  0
LINE
  5
A097
330
9FFC
100
AcDbEntity
  8
1
  6
Continuous
100
AcDbLine
 10
227.2086869999998
 20
136.921106
 30
0.0
 11
226.5986739999999
 21
136.921106
 31
0.0
  0
LINE
  5
A098
330
9FFC
100
AcDbEntity
  8
1
  6
Continuous
100
AcDbLine
 10
230.032148
 20
129.671106
 30
0.0
 11
229.556936
 21
129.671106
 31
0.0
  0
LINE
  5
A099
330
9FFC
100
AcDbEntity
  8
1
  6
Continuous
100
AcDbLine
 10
227.2086869999998
 20
130.921106
 30
0.0
 11
226.5986739999999
 21
130.921106
 31
0.0
  0
LINE
  5
A09A
330
9FFC
100
AcDbEntity
  8
1
  6
Continuous
100
AcDbLine
 10
229.0987969999999
 20
126.1511059999999
 30
0.0
 11
227.208652
 21
126.1511059999999
 31
0.0
  0
LINE
  5
A09B
330
9FFC
100
AcDbEntity
  8
1
  6
Continuous
100
AcDbLine
 10
226.5986739999999
 20
126.9211059999999
 30
0.0
 11
225.5986739999999
 21
125.9211059999999
 31
0.0
  0
LINE
  5
A09C
330
9FFC
100
AcDbEntity
  8
1
  6
Continuous
100
AcDbLine
 10
230.032148
 20
131.1013959999999
 30
0.0
 11
230.032148
 21
129.671106
 31
0.0
  0
ARC
  5
A09D
330
9FFC
100
AcDbEntity
  8
1
  6
Continuous
100
AcDbCircle
 10
222.098832
 20
133.921106
 30
0.0
 40
9.0
100
AcDbArc
 50
331.82136
 51
355.5015839999999
  0
LINE
  5
A09E
330
9FFC
100
AcDbEntity
  8
1
  6
Continuous
100
AcDbLine
 10
226.5986739999999
 20
140.921106
 30
0.0
 11
226.5986739999999
 21
126.9211059999999
 31
0.0
  0
LINE
  5
A09F
330
9FFC
100
AcDbEntity
  8
1
  6
Continuous
100
AcDbLine
 10
207.5986739999999
 20
140.921106
 30
0.0
 11
208.598674
 21
141.921106
 31
0.0
  0
LINE
  5
A0A0
330
9FFC
100
AcDbEntity
  8
1
  6
Continuous
100
AcDbLine
 10
207.5986739999999
 20
136.921106
 30
0.0
 11
206.988661
 21
136.921106
 31
0.0
  0
LINE
  5
A0A1
330
9FFC
100
AcDbEntity
  8
1
  6
Continuous
100
AcDbLine
 10
204.568304
 20
129.921106
 30
0.0
 11
204.498515
 21
129.921106
 31
0.0
  0
LINE
  5
A0A2
330
9FFC
100
AcDbEntity
  8
1
  6
Continuous
100
AcDbLine
 10
207.5986739999999
 20
130.921106
 30
0.0
 11
206.988661
 21
130.921106
 31
0.0
  0
LINE
  5
A0A3
330
9FFC
100
AcDbEntity
  8
1
  6
Continuous
100
AcDbLine
 10
207.5986739999999
 20
126.9211059999999
 30
0.0
 11
208.598674
 21
125.9211059999999
 31
0.0
  0
LINE
  5
A0A4
330
9FFC
100
AcDbEntity
  8
1
  6
Continuous
100
AcDbLine
 10
206.988696
 20
126.1511059999999
 30
0.0
 11
205.0985509999999
 21
126.1511059999999
 31
0.0
  0
LINE
  5
A0A5
330
9FFC
100
AcDbEntity
  8
1
  6
Continuous
100
AcDbLine
 10
204.498515
 20
130.1563139999998
 30
0.0
 11
204.498515
 21
129.921106
 31
0.0
  0
LINE
  5
A0A6
330
9FFC
100
AcDbEntity
  8
1
  6
Continuous
100
AcDbLine
 10
207.5986739999999
 20
140.921106
 30
0.0
 11
207.5986739999999
 21
126.9211059999999
 31
0.0
  0
LINE
  5
A0A7
330
9FFC
100
AcDbEntity
  8
1
  6
Continuous
100
AcDbLine
 10
215.3486739999999
 20
154.101376
 30
0.0
 11
217.098674
 21
155.101376
 31
0.0
  0
ARC
  5
A0A8
330
9FFC
100
AcDbEntity
  8
1
  6
Continuous
100
AcDbCircle
 10
217.098674
 20
123.9211059999999
 30
0.0
 40
30.0
100
AcDbArc
 50
75.78187599999998
 51
104.218124
  0
LINE
  5
A0A9
330
9FFC
100
AcDbEntity
  8
1
  6
Continuous
100
AcDbLine
 10
223.248674
 20
154.101376
 30
0.0
 11
210.948674
 21
154.101376
 31
0.0
  0
LINE
  5
A0AA
330
9FFC
100
AcDbEntity
  8
1
  6
Continuous
100
AcDbLine
 10
218.848674
 20
154.101376
 30
0.0
 11
217.098674
 21
155.101376
 31
0.0
  0
ARC
  5
A0AB
330
9FFC
100
AcDbEntity
  8
1
  6
Continuous
100
AcDbCircle
 10
224.0986739999999
 20
151.548086
 30
0.0
 40
1.5
100
AcDbArc
 50
0.0
 51
75.78187599999998
  0
LINE
  5
A0AC
330
9FFC
100
AcDbEntity
  8
1
  6
Continuous
100
AcDbLine
 10
223.248674
 20
154.101376
 30
0.0
 11
223.162864
 21
155.13109
 31
0.0
  0
LINE
  5
A0AD
330
9FFC
100
AcDbEntity
  8
1
  6
Continuous
100
AcDbLine
 10
222.5986649999999
 20
155.101376
 30
0.0
 11
223.248674
 21
154.101376
 31
0.0
  0
LINE
  5
A0AE
330
9FFC
100
AcDbEntity
  8
1
  6
Continuous
100
AcDbLine
 10
227.2086859999999
 20
154.975971
 30
0.0
 11
223.175791
 21
154.975971
 31
0.0
  0
LINE
  5
A0AF
330
9FFC
100
AcDbEntity
  8
1
  6
Continuous
100
AcDbLine
 10
220.848674
 20
154.101376
 30
0.0
 11
222.5986649999999
 21
155.101376
 31
0.0
  0
LINE
  5
A0B0
330
9FFC
100
AcDbEntity
  8
1
  6
Continuous
100
AcDbLine
 10
210.948674
 20
154.101376
 30
0.0
 11
211.0344829999999
 21
155.13109
 31
0.0
  0
LINE
  5
A0B1
330
9FFC
100
AcDbEntity
  8
1
  6
Continuous
100
AcDbLine
 10
213.3486739999999
 20
154.101376
 30
0.0
 11
211.5986819999998
 21
155.101376
 31
0.0
  0
LINE
  5
A0B2
330
9FFC
100
AcDbEntity
  8
1
  6
Continuous
100
AcDbLine
 10
211.5986819999998
 20
155.101376
 30
0.0
 11
210.948674
 21
154.101376
 31
0.0
  0
ARC
  5
A0B3
330
9FFC
100
AcDbEntity
  8
1
  6
Continuous
100
AcDbCircle
 10
210.0986739999999
 20
151.548086
 30
0.0
 40
1.5
100
AcDbArc
 50
104.218124
 51
180.0
  0
LINE
  5
A0B4
330
9FFC
100
AcDbEntity
  8
1
  6
Continuous
100
AcDbLine
 10
211.0215569999998
 20
154.975971
 30
0.0
 11
206.988662
 21
154.975971
 31
0.0
  0
ARC
  5
A0B5
330
9FFC
100
AcDbEntity
  8
1
  6
Continuous
100
AcDbCircle
 10
231.6721419999999
 20
154.13109
 30
0.0
 40
1.0
100
AcDbArc
 50
21.900952
 51
90.0
  0
ARC
  5
A0B6
330
9FFC
100
AcDbEntity
  8
1
  6
Continuous
100
AcDbCircle
 10
202.525205
 20
154.13109
 30
0.0
 40
1.0
100
AcDbArc
 50
90.0
 51
158.099048
  0
ARC
  5
A0B7
330
9FFC
100
AcDbEntity
  8
1
  6
Continuous
100
AcDbCircle
 10
202.979712
 20
158.207106
 30
0.0
 40
3.181
100
AcDbArc
 50
90.0
 51
179.999933
  0
ARC
  5
A0B8
330
9FFC
100
AcDbEntity
  8
1
  6
Continuous
100
AcDbCircle
 10
231.217635
 20
158.207106
 30
0.0
 40
3.181
100
AcDbArc
 50
0.000067
 51
90.0
  0
LINE
  5
A0B9
330
9FFC
100
AcDbEntity
  8
1
  6
Continuous
100
AcDbLine
 10
206.988662
 20
155.13109
 30
0.0
 11
206.988696
 21
126.1511059999999
 31
0.0
  0
CIRCLE
  5
A0BA
330
9FFC
100
AcDbEntity
  8
1
  6
Continuous
100
AcDbCircle
 10
123.3897609999999
 20
133.9210919999999
 30
0.0
 40
4.0
  0
LINE
  5
A0BB
330
9FFC
100
AcDbEntity
  8
4
  6
CENTER
100
AcDbLine
 10
123.3897609999999
 20
74.96678100000003
 30
0.0
 11
123.3897609999999
 21
37.566433
 31
0.0
  0
ARC
  5
A0BC
330
9FFC
100
AcDbEntity
  8
1
  6
Continuous
100
AcDbCircle
 10
123.3897609999999
 20
59.567157
 30
0.0
 40
10.399624
100
AcDbArc
 50
67.379272
 51
112.620728
  0
LINE
  5
A0BD
330
9FFC
100
AcDbEntity
  8
1
  6
Continuous
100
AcDbLine
 10
119.389761
 20
69.16674999999999
 30
0.0
 11
127.3897609999999
 21
69.16674999999999
 31
0.0
  0
LINE
  5
A0BE
330
9FFC
100
AcDbEntity
  8
1
  6
Continuous
100
AcDbLine
 10
116.389761
 20
66.066591
 30
0.0
 11
130.3897609999999
 21
66.066591
 31
0.0
  0
LINE
  5
A0BF
330
9FFC
100
AcDbEntity
  8
1
  6
Continuous
100
AcDbLine
 10
119.1397609999999
 20
43.63311699999999
 30
0.0
 11
127.6397609999999
 21
43.63311699999999
 31
0.0
  0
ARC
  5
A0C0
330
9FFC
100
AcDbEntity
  8
1
  6
Continuous
100
AcDbCircle
 10
123.3897609999999
 20
51.566433
 30
0.0
 40
9.0
100
AcDbArc
 50
241.8213569999999
 51
298.178643
  0
LINE
  5
A0C1
330
9FFC
100
AcDbEntity
  8
1
  6
Continuous
100
AcDbLine
 10
116.389761
 20
47.06659099999998
 30
0.0
 11
130.3897609999999
 21
47.06659099999998
 31
0.0
  0
LINE
  5
A0C2
330
9FFC
100
AcDbEntity
  8
1
  6
Continuous
100
AcDbLine
 10
105.762781
 20
48.066591
 30
0.0
 11
141.0167399999999
 21
48.066591
 31
0.0
  0
LINE
  5
A0C3
330
9FFC
100
AcDbEntity
  8
1
  6
Continuous
100
AcDbLine
 10
105.762781
 20
65.066591
 30
0.0
 11
141.0167399999999
 21
65.066591
 31
0.0
  0
LINE
  5
A0C4
330
9FFC
100
AcDbEntity
  8
1
  6
Continuous
100
AcDbLine
 10
116.389761
 20
47.06659099999998
 30
0.0
 11
115.389761
 21
48.066591
 31
0.0
  0
LINE
  5
A0C5
330
9FFC
100
AcDbEntity
  8
1
  6
Continuous
100
AcDbLine
 10
119.1397609999999
 20
43.63311699999999
 30
0.0
 11
119.1397609999999
 21
44.566433
 31
0.0
  0
LINE
  5
A0C6
330
9FFC
100
AcDbEntity
  8
1
  6
Continuous
100
AcDbLine
 10
120.389761
 20
46.456578
 30
0.0
 11
120.389761
 21
47.06659099999998
 31
0.0
  0
ARC
  5
A0C7
330
9FFC
100
AcDbEntity
  8
1
  6
Continuous
100
AcDbCircle
 10
105.762781
 20
63.566591
 30
0.0
 40
1.5
100
AcDbArc
 50
90.0
 51
165.781876
  0
ARC
  5
A0C8
330
9FFC
100
AcDbEntity
  8
1
  6
Continuous
100
AcDbCircle
 10
105.762781
 20
49.56659099999999
 30
0.0
 40
1.5
100
AcDbArc
 50
194.218124
 51
270.0
  0
ARC
  5
A0C9
330
9FFC
100
AcDbEntity
  8
1
  6
Continuous
100
AcDbCircle
 10
133.3897609999999
 20
56.566591
 30
0.0
 40
30.0
100
AcDbArc
 50
165.781876
 51
194.218124
  0
LINE
  5
A0CA
330
9FFC
100
AcDbEntity
  8
1
  6
Continuous
100
AcDbLine
 10
116.389761
 20
66.066591
 30
0.0
 11
115.389761
 21
65.066591
 31
0.0
  0
LINE
  5
A0CB
330
9FFC
100
AcDbEntity
  8
1
  6
Continuous
100
AcDbLine
 10
119.389761
 20
68.56675
 30
0.0
 11
119.389761
 21
69.16674999999999
 31
0.0
  0
LINE
  5
A0CC
330
9FFC
100
AcDbEntity
  8
1
  6
Continuous
100
AcDbLine
 10
120.389761
 20
66.066591
 30
0.0
 11
120.389761
 21
66.67660399999999
 31
0.0
  0
LINE
  5
A0CD
330
9FFC
100
AcDbEntity
  8
1
  6
Continuous
100
AcDbLine
 10
130.3897609999999
 20
47.06659099999998
 30
0.0
 11
131.3897609999999
 21
48.066591
 31
0.0
  0
LINE
  5
A0CE
330
9FFC
100
AcDbEntity
  8
1
  6
Continuous
100
AcDbLine
 10
127.6397609999999
 20
43.63311699999999
 30
0.0
 11
127.6397609999999
 21
44.566433
 31
0.0
  0
LINE
  5
A0CF
330
9FFC
100
AcDbEntity
  8
1
  6
Continuous
100
AcDbLine
 10
126.3897609999999
 20
46.456578
 30
0.0
 11
126.3897609999999
 21
47.06659099999998
 31
0.0
  0
LINE
  5
A0D0
330
9FFC
100
AcDbEntity
  8
1
  6
Continuous
100
AcDbLine
 10
127.3897609999999
 20
68.56675
 30
0.0
 11
127.3897609999999
 21
69.16674999999999
 31
0.0
  0
LINE
  5
A0D1
330
9FFC
100
AcDbEntity
  8
1
  6
Continuous
100
AcDbLine
 10
126.3897609999999
 20
66.066591
 30
0.0
 11
126.3897609999999
 21
66.67660399999999
 31
0.0
  0
LINE
  5
A0D2
330
9FFC
100
AcDbEntity
  8
1
  6
Continuous
100
AcDbLine
 10
130.3897609999999
 20
66.066591
 30
0.0
 11
131.3897609999999
 21
65.066591
 31
0.0
  0
ARC
  5
A0D3
330
9FFC
100
AcDbEntity
  8
1
  6
Continuous
100
AcDbCircle
 10
141.0167399999999
 20
63.566591
 30
0.0
 40
1.5
100
AcDbArc
 50
14.218124
 51
90.0
  0
ARC
  5
A0D4
330
9FFC
100
AcDbEntity
  8
1
  6
Continuous
100
AcDbCircle
 10
141.0167399999999
 20
49.56659099999999
 30
0.0
 40
1.5
100
AcDbArc
 50
270.0
 51
345.7818759999998
  0
ARC
  5
A0D5
330
9FFC
100
AcDbEntity
  8
1
  6
Continuous
100
AcDbCircle
 10
113.389761
 20
56.566591
 30
0.0
 40
30.0
100
AcDbArc
 50
345.7818759999998
 51
14.218124
  0
LINE
  5
A0D6
330
9FFC
100
AcDbEntity
  8
1
  6
Continuous
100
AcDbLine
 10
128.288256
 20
46.45661299999999
 30
0.0
 11
115.6397609999999
 21
46.45661299999999
 31
0.0
  0
LINE
  5
A0D7
330
9FFC
100
AcDbEntity
  8
1
  6
Continuous
100
AcDbLine
 10
128.3296729999999
 20
44.566468
 30
0.0
 11
115.6397609999999
 21
44.566468
 31
0.0
  0
LINE
  5
A0D8
330
9FFC
100
AcDbEntity
  8
1
  6
Continuous
100
AcDbLine
 10
128.3296729999999
 20
68.566714
 30
0.0
 11
115.6397609999999
 21
68.566714
 31
0.0
  0
LINE
  5
A0D9
330
9FFC
100
AcDbEntity
  8
1
  6
Continuous
100
AcDbLine
 10
128.288256
 20
66.676569
 30
0.0
 11
115.6397609999999
 21
66.676569
 31
0.0
  0
ARC
  5
A0DA
330
9FFC
100
AcDbEntity
  8
1
  6
Continuous
100
AcDbCircle
 10
142.389761
 20
56.566591
 30
0.0
 40
17.3
100
AcDbArc
 50
228.692652
 51
131.3073479999999
  0
LINE
  5
A0DB
330
9FFC
100
AcDbEntity
  8
1
  6
Continuous
100
AcDbLine
 10
115.6397609999999
 20
68.566714
 30
0.0
 11
115.6397609999999
 21
66.676569
 31
0.0
  0
LINE
  5
A0DC
330
9FFC
100
AcDbEntity
  8
1
  6
Continuous
100
AcDbLine
 10
115.6397609999999
 20
46.45661299999999
 30
0.0
 11
115.6397609999999
 21
44.566468
 31
0.0
  0
ARC
  5
A0DD
330
9FFC
100
AcDbEntity
  8
1
  6
Continuous
100
AcDbCircle
 10
142.389761
 20
56.566591
 30
0.0
 40
15.4099
100
AcDbArc
 50
228.8034539999999
 51
131.1965459999999
  0
ARC
  5
A0DE
330
9FFC
100
AcDbEntity
  8
1
  6
Continuous
100
AcDbCircle
 10
128.3296729999999
 20
72.566714
 30
0.0
 40
4.0
100
AcDbArc
 50
270.0
 51
311.307348
  0
ARC
  5
A0DF
330
9FFC
100
AcDbEntity
  8
1
  6
Continuous
100
AcDbCircle
 10
128.288256
 20
72.676569
 30
0.0
 40
6.0
100
AcDbArc
 50
270.0
 51
311.196546
  0
ARC
  5
A0E0
330
9FFC
100
AcDbEntity
  8
1
  6
Continuous
100
AcDbCircle
 10
128.288256
 20
40.45661299999999
 30
0.0
 40
6.0
100
AcDbArc
 50
48.80345399999999
 51
90.0
  0
ARC
  5
A0E1
330
9FFC
100
AcDbEntity
  8
1
  6
Continuous
100
AcDbCircle
 10
128.3296729999999
 20
40.566468
 30
0.0
 40
4.0
100
AcDbArc
 50
48.692652
 51
90.0
  0
ARC
  5
A0E2
330
9FFC
100
AcDbEntity
  8
1
  6
Continuous
100
AcDbCircle
 10
142.389761
 20
56.566591
 30
0.0
 40
12.4099
100
AcDbArc
 50
223.230655
 51
136.7693449999999
  0
ARC
  5
A0E3
330
9FFC
100
AcDbEntity
  8
1
  6
Continuous
100
AcDbCircle
 10
142.389761
 20
56.566591
 30
0.0
 40
5.75
100
AcDbArc
 50
274.4606039999998
 51
85.53939599999997
  0
LINE
  5
A0E4
330
9FFC
100
AcDbEntity
  8
1
  6
Continuous
100
AcDbLine
 10
145.2647609999999
 20
61.546237
 30
0.0
 11
143.3441799999999
 21
58.219694
 31
0.0
  0
LINE
  5
A0E5
330
9FFC
100
AcDbEntity
  8
1
  6
Continuous
100
AcDbLine
 10
145.2647609999999
 20
51.586945
 30
0.0
 11
143.3441799999999
 21
54.913488
 31
0.0
  0
LINE
  5
A0E6
330
9FFC
100
AcDbEntity
  8
1
  6
Continuous
100
AcDbLine
 10
148.1397609999999
 20
56.566591
 30
0.0
 11
144.2985999999999
 21
56.566591
 31
0.0
  0
ARC
  5
A0E7
330
9FFC
100
AcDbEntity
  8
1
  6
Continuous
100
AcDbCircle
 10
142.389761
 20
56.566591
 30
0.0
 40
13.9099
100
AcDbArc
 50
217.698709
 51
142.3012909999999
  0
ARC
  5
A0E8
330
9FFC
100
AcDbEntity
  8
1
  6
Continuous
100
AcDbCircle
 10
220.198055
 20
142.498693
 30
0.0
 40
14.20497099999999
100
AcDbArc
 50
324.686006
 51
1.421809
  0
ARC
  5
A0E9
330
9FFC
100
AcDbEntity
  8
1
  6
Continuous
100
AcDbCircle
 10
209.475534
 20
145.207683
 30
0.0
 40
24.92314
100
AcDbArc
 50
359.921241
 51
21.900952
  0
ARC
  5
A0EA
330
9FFC
100
AcDbEntity
  8
1
  6
Continuous
100
AcDbCircle
 10
242.806893
 20
126.131181
 30
0.0
 40
13.708111
100
AcDbArc
 50
143.4878669999999
 51
179.916722
  0
ARC
  5
A0EB
330
9FFC
100
AcDbEntity
  8
1
  6
Continuous
100
AcDbCircle
 10
209.475534
 20
145.207683
 30
0.0
 40
23.03304
100
AcDbArc
 50
359.921241
 51
25.520474
  0
ARC
  5
A0EC
330
9FFC
100
AcDbEntity
  8
1
  6
Continuous
100
AcDbCircle
 10
220.198055
 20
142.498693
 30
0.0
 40
12.314871
100
AcDbArc
 50
359.1110269999999
 51
1.421809
  0
LINE
  5
A0ED
330
9FFC
100
AcDbEntity
  8
1
  6
Continuous
100
AcDbLine
 10
232.50855
 20
145.2406729999998
 30
0.0
 11
232.5085529999999
 21
142.851155
 31
0.0
  0
ARC
  5
A0EE
330
9FFC
100
AcDbEntity
  8
1
  6
Continuous
100
AcDbCircle
 10
240.9167479999999
 20
126.131181
 30
0.0
 40
13.708111
100
AcDbArc
 50
143.4878669999999
 51
179.916722
  0
ARC
  5
A0EF
330
9FFC
100
AcDbEntity
  8
1
  6
Continuous
100
AcDbCircle
 10
218.2227619999999
 20
142.5293429999999
 30
0.0
 40
14.290402
100
AcDbArc
 50
324.148974
 51
359.1110269999999
  0
ARC
  5
A0F0
330
9FFC
100
AcDbEntity
  8
1
  6
Continuous
100
AcDbCircle
 10
224.7218129999999
 20
145.207683
 30
0.0
 40
23.03304
100
AcDbArc
 50
154.4795259999999
 51
180.0787589999999
  0
ARC
  5
A0F1
330
9FFC
100
AcDbEntity
  8
1
  6
Continuous
100
AcDbCircle
 10
202.525205
 20
154.13109
 30
0.0
 40
1.0
100
AcDbArc
 50
90.0
 51
158.099048
  0
ARC
  5
A0F2
330
9FFC
100
AcDbEntity
  8
1
  6
Continuous
100
AcDbCircle
 10
224.7218129999999
 20
145.207683
 30
0.0
 40
24.92314
100
AcDbArc
 50
158.099048
 51
180.0787589999999
  0
ARC
  5
A0F3
330
9FFC
100
AcDbEntity
  8
1
  6
Continuous
100
AcDbCircle
 10
213.999292
 20
142.498693
 30
0.0
 40
14.20497099999999
100
AcDbArc
 50
178.578191
 51
215.3139939999999
  0
ARC
  5
A0F4
330
9FFC
100
AcDbEntity
  8
1
  6
Continuous
100
AcDbCircle
 10
213.999292
 20
142.498693
 30
0.0
 40
12.314871
100
AcDbArc
 50
178.578191
 51
180.8889729999999
  0
ARC
  5
A0F5
330
9FFC
100
AcDbEntity
  8
1
  6
Continuous
100
AcDbCircle
 10
215.9745849999999
 20
142.5293429999999
 30
0.0
 40
14.290402
100
AcDbArc
 50
180.8889729999999
 51
215.851026
  0
LINE
  5
A0F6
330
9FFC
100
AcDbEntity
  8
1
  6
Continuous
100
AcDbLine
 10
201.6887969999999
 20
145.2406729999998
 30
0.0
 11
201.688794
 21
142.851155
 31
0.0
  0
LINE
  5
A0F7
330
9FFC
100
AcDbEntity
  8
1
  6
Continuous
100
AcDbLine
 10
199.7987119999999
 20
158.207109
 30
0.0
 11
199.7986939999999
 21
142.8511569999998
 31
0.0
  0
ARC
  5
A0F8
330
9FFC
100
AcDbEntity
  8
1
  6
Continuous
100
AcDbCircle
 10
193.2806
 20
126.131181
 30
0.0
 40
13.708111
100
AcDbArc
 50
0.083278
 51
36.512133
  0
ARC
  5
A0F9
330
9FFC
100
AcDbEntity
  8
1
  6
Continuous
100
AcDbCircle
 10
191.3904549999998
 20
126.131181
 30
0.0
 40
13.708111
100
AcDbArc
 50
0.083278
 51
36.512133
  0
LINE
  5
A0FA
330
9FFC
100
AcDbEntity
  8
1
  6
Continuous
100
AcDbLine
 10
130.1906849999998
 20
167.0211119999999
 30
0.0
 11
154.588798
 21
167.0211119999999
 31
0.0
  0
LINE
  5
A0FB
330
9FFC
100
AcDbEntity
  8
1
  6
Continuous
100
AcDbLine
 10
126.1397609999999
 20
163.1912909999998
 30
0.0
 11
142.389761
 21
163.1912909999998
 31
0.0
  0
LINE
  5
A0FC
330
9FFC
100
AcDbEntity
  8
1
  6
Continuous
100
AcDbLine
 10
126.8801939999999
 20
164.9612909999999
 30
0.0
 11
157.8993279999999
 21
164.9612909999999
 31
0.0
  0
LINE
  5
A0FD
330
9FFC
100
AcDbEntity
  8
1
  6
Continuous
100
AcDbLine
 10
141.8906389999999
 20
161.388021
 30
0.0
 11
140.087369
 21
163.1912909999998
 31
0.0
  0
LINE
  5
A0FE
330
9FFC
100
AcDbEntity
  8
1
  6
Continuous
100
AcDbLine
 10
140.087369
 20
161.388021
 30
0.0
 11
141.8906389999999
 21
163.1912909999998
 31
0.0
  0
LINE
  5
A0FF
330
9FFC
100
AcDbEntity
  8
1
  6
Continuous
100
AcDbLine
 10
126.389581
 20
164.385603
 30
0.0
 11
158.3899419999999
 21
164.385603
 31
0.0
  0
LINE
  5
A100
330
9FFC
100
AcDbEntity
  8
1
  6
Continuous
100
AcDbLine
 10
133.405357
 20
161.388021
 30
0.0
 11
131.602087
 21
163.1912909999998
 31
0.0
  0
LINE
  5
A101
330
9FFC
100
AcDbEntity
  8
1
  6
Continuous
100
AcDbLine
 10
131.602087
 20
161.388021
 30
0.0
 11
133.405357
 21
163.1912909999998
 31
0.0
  0
ARC
  5
A102
330
9FFC
100
AcDbEntity
  8
1
  6
Continuous
100
AcDbCircle
 10
130.1906849999998
 20
164.5211119999999
 30
0.0
 40
2.5
100
AcDbArc
 50
90.0
 51
169.858981
  0
LINE
  5
A103
330
9FFC
100
AcDbEntity
  8
1
  6
Continuous
100
AcDbLine
 10
129.1627169999999
 20
161.388021
 30
0.0
 11
127.359447
 21
163.1912909999998
 31
0.0
  0
LINE
  5
A104
330
9FFC
100
AcDbEntity
  8
1
  6
Continuous
100
AcDbLine
 10
127.359447
 20
161.388021
 30
0.0
 11
129.1627169999999
 21
163.1912909999998
 31
0.0
  0
LINE
  5
A105
330
9FFC
100
AcDbEntity
  8
1
  6
Continuous
100
AcDbLine
 10
126.1397609999999
 20
163.1912909999998
 30
0.0
 11
126.1397609999999
 21
161.388021
 31
0.0
  0
ARC
  5
A106
330
9FFC
100
AcDbEntity
  8
1
  6
Continuous
100
AcDbCircle
 10
127.4200919999999
 20
164.004279
 30
0.0
 40
1.098799999999998
100
AcDbArc
 50
119.429525
 51
159.693839
  0
ARC
  5
A107
330
9FFC
100
AcDbEntity
  8
1
  6
Continuous
100
AcDbCircle
 10
128.7379559999999
 20
164.7164899999999
 30
0.0
 40
2.371570999999998
100
AcDbArc
 50
188.020211
 51
220.040406
  0
LINE
  5
A108
330
9FFC
100
AcDbEntity
  8
1
  6
Continuous
100
AcDbLine
 10
127.0413959999999
 20
161.388021
 30
0.0
 11
126.1397609999999
 21
162.289656
 31
0.0
  0
LINE
  5
A109
330
9FFC
100
AcDbEntity
  8
1
  6
Continuous
100
AcDbLine
 10
127.0413959999999
 20
163.1912909999998
 30
0.0
 11
126.1397609999999
 21
162.289656
 31
0.0
  0
LINE
  5
A10A
330
9FFC
100
AcDbEntity
  8
1
  6
Continuous
100
AcDbLine
 10
131.284037
 20
161.388021
 30
0.0
 11
129.4807669999999
 21
163.1912909999998
 31
0.0
  0
LINE
  5
A10B
330
9FFC
100
AcDbEntity
  8
1
  6
Continuous
100
AcDbLine
 10
129.4807669999999
 20
161.388021
 30
0.0
 11
131.284037
 21
163.1912909999998
 31
0.0
  0
LINE
  5
A10C
330
9FFC
100
AcDbEntity
  8
1
  6
Continuous
100
AcDbLine
 10
131.420106
 20
167.0211119999999
 30
0.0
 11
131.420106
 21
170.9210929999999
 31
0.0
  0
LINE
  5
A10D
330
9FFC
100
AcDbEntity
  8
1
  6
Continuous
100
AcDbLine
 10
137.647998
 20
161.388021
 30
0.0
 11
135.844728
 21
163.1912909999998
 31
0.0
  0
LINE
  5
A10E
330
9FFC
100
AcDbEntity
  8
1
  6
Continuous
100
AcDbLine
 10
135.844728
 20
161.388021
 30
0.0
 11
137.647998
 21
163.1912909999998
 31
0.0
  0
LINE
  5
A10F
330
9FFC
100
AcDbEntity
  8
1
  6
Continuous
100
AcDbLine
 10
135.526678
 20
161.388021
 30
0.0
 11
133.7234079999997
 21
163.1912909999998
 31
0.0
  0
LINE
  5
A110
330
9FFC
100
AcDbEntity
  8
1
  6
Continuous
100
AcDbLine
 10
133.7234079999997
 20
161.388021
 30
0.0
 11
135.526678
 21
163.1912909999998
 31
0.0
  0
LINE
  5
A111
330
9FFC
100
AcDbEntity
  8
1
  6
Continuous
100
AcDbLine
 10
139.769318
 20
161.388021
 30
0.0
 11
137.966048
 21
163.1912909999998
 31
0.0
  0
LINE
  5
A112
330
9FFC
100
AcDbEntity
  8
1
  6
Continuous
100
AcDbLine
 10
137.966048
 20
161.388021
 30
0.0
 11
139.769318
 21
163.1912909999998
 31
0.0
  0
LINE
  5
A113
330
9FFC
100
AcDbEntity
  8
1
  6
Continuous
100
AcDbLine
 10
136.9049339999999
 20
167.0211119999999
 30
0.0
 11
136.9049339999999
 21
170.9210929999999
 31
0.0
  0
ARC
  5
A114
330
9FFC
100
AcDbEntity
  8
1
  6
Continuous
100
AcDbCircle
 10
154.588798
 20
164.5211119999999
 30
0.0
 40
2.5
100
AcDbArc
 50
10.141019
 51
90.0
  0
LINE
  5
A115
330
9FFC
100
AcDbEntity
  8
1
  6
Continuous
100
AcDbLine
 10
158.6397609999999
 20
163.1912909999998
 30
0.0
 11
142.389761
 21
163.1912909999998
 31
0.0
  0
LINE
  5
A116
330
9FFC
100
AcDbEntity
  8
1
  6
Continuous
100
AcDbLine
 10
153.3594159999998
 20
170.9210929999999
 30
0.0
 11
131.420106
 21
170.9210929999999
 31
0.0
  0
LINE
  5
A117
330
9FFC
100
AcDbEntity
  8
1
  6
Continuous
100
AcDbLine
 10
150.37592
 20
161.388021
 30
0.0
 11
148.57265
 21
163.1912909999998
 31
0.0
  0
LINE
  5
A118
330
9FFC
100
AcDbEntity
  8
1
  6
Continuous
100
AcDbLine
 10
148.57265
 20
161.388021
 30
0.0
 11
150.37592
 21
163.1912909999998
 31
0.0
  0
LINE
  5
A119
330
9FFC
100
AcDbEntity
  8
1
  6
Continuous
100
AcDbLine
 10
146.1332789999999
 20
161.388021
 30
0.0
 11
144.3300089999999
 21
163.1912909999998
 31
0.0
  0
LINE
  5
A11A
330
9FFC
100
AcDbEntity
  8
1
  6
Continuous
100
AcDbLine
 10
144.3300089999999
 20
161.388021
 30
0.0
 11
146.1332789999999
 21
163.1912909999998
 31
0.0
  0
LINE
  5
A11B
330
9FFC
100
AcDbEntity
  8
1
  6
Continuous
100
AcDbLine
 10
144.0119589999999
 20
161.388021
 30
0.0
 11
142.2086889999999
 21
163.1912909999998
 31
0.0
  0
LINE
  5
A11C
330
9FFC
100
AcDbEntity
  8
1
  6
Continuous
100
AcDbLine
 10
142.2086889999999
 20
161.388021
 30
0.0
 11
144.0119589999999
 21
163.1912909999998
 31
0.0
  0
LINE
  5
A11D
330
9FFC
100
AcDbEntity
  8
1
  6
Continuous
100
AcDbLine
 10
148.2546
 20
161.388021
 30
0.0
 11
146.45133
 21
163.1912909999998
 31
0.0
  0
LINE
  5
A11E
330
9FFC
100
AcDbEntity
  8
1
  6
Continuous
100
AcDbLine
 10
146.45133
 20
161.388021
 30
0.0
 11
148.2546
 21
163.1912909999998
 31
0.0
  0
LINE
  5
A11F
330
9FFC
100
AcDbEntity
  8
1
  6
Continuous
100
AcDbLine
 10
147.8745889999999
 20
167.0211119999999
 30
0.0
 11
147.8745889999999
 21
170.9210929999999
 31
0.0
  0
LINE
  5
A120
330
9FFC
100
AcDbEntity
  8
1
  6
Continuous
100
AcDbLine
 10
152.497241
 20
161.388021
 30
0.0
 11
150.69397
 21
163.1912909999998
 31
0.0
  0
LINE
  5
A121
330
9FFC
100
AcDbEntity
  8
1
  6
Continuous
100
AcDbLine
 10
150.69397
 20
161.388021
 30
0.0
 11
152.497241
 21
163.1912909999998
 31
0.0
  0
LINE
  5
A122
330
9FFC
100
AcDbEntity
  8
1
  6
Continuous
100
AcDbLine
 10
156.739881
 20
161.388021
 30
0.0
 11
154.936611
 21
163.1912909999998
 31
0.0
  0
LINE
  5
A123
330
9FFC
100
AcDbEntity
  8
1
  6
Continuous
100
AcDbLine
 10
154.618561
 20
161.388021
 30
0.0
 11
152.815291
 21
163.1912909999998
 31
0.0
  0
LINE
  5
A124
330
9FFC
100
AcDbEntity
  8
1
  6
Continuous
100
AcDbLine
 10
154.936611
 20
161.388021
 30
0.0
 11
156.739881
 21
163.1912909999998
 31
0.0
  0
LINE
  5
A125
330
9FFC
100
AcDbEntity
  8
1
  6
Continuous
100
AcDbLine
 10
152.815291
 20
161.388021
 30
0.0
 11
154.618561
 21
163.1912909999998
 31
0.0
  0
LINE
  5
A126
330
9FFC
100
AcDbEntity
  8
1
  6
Continuous
100
AcDbLine
 10
153.3594159999998
 20
167.0211119999999
 30
0.0
 11
153.3594159999998
 21
170.9210929999999
 31
0.0
  0
LINE
  5
A127
330
9FFC
100
AcDbEntity
  8
1
  6
Continuous
100
AcDbLine
 10
158.6397609999999
 20
163.1912909999998
 30
0.0
 11
158.6397609999999
 21
161.388021
 31
0.0
  0
ARC
  5
A128
330
9FFC
100
AcDbEntity
  8
1
  6
Continuous
100
AcDbCircle
 10
157.359431
 20
164.004279
 30
0.0
 40
1.098799999999998
100
AcDbArc
 50
20.306161
 51
60.57047500000001
  0
ARC
  5
A129
330
9FFC
100
AcDbEntity
  8
1
  6
Continuous
100
AcDbCircle
 10
156.0415669999999
 20
164.7164899999999
 30
0.0
 40
2.371570999999998
100
AcDbArc
 50
319.959594
 51
351.9797889999999
  0
LINE
  5
A12A
330
9FFC
100
AcDbEntity
  8
1
  6
Continuous
100
AcDbLine
 10
158.6397609999999
 20
161.609461
 30
0.0
 11
157.057932
 21
163.1912909999998
 31
0.0
  0
LINE
  5
A12B
330
9FFC
100
AcDbEntity
  8
1
  6
Continuous
100
AcDbLine
 10
157.057932
 20
161.388021
 30
0.0
 11
158.6397609999999
 21
162.969851
 31
0.0
  0
LINE
  5
A12C
330
9FFC
100
AcDbEntity
  8
1
  6
Continuous
100
AcDbLine
 10
122.494552
 20
234.775991
 30
0.0
 11
105.762781
 21
234.775991
 31
0.0
  0
LINE
  5
A12D
330
9FFC
100
AcDbEntity
  8
1
  6
Continuous
100
AcDbLine
 10
122.494552
 20
251.775991
 30
0.0
 11
105.762781
 21
251.775991
 31
0.0
  0
LINE
  5
A12E
330
9FFC
100
AcDbEntity
  8
1
  6
Continuous
100
AcDbLine
 10
131.420106
 20
243.275991
 30
0.0
 11
136.9049329999998
 21
233.7759909999999
 31
0.0
  0
LINE
  5
A12F
330
9FFC
100
AcDbEntity
  8
1
  6
Continuous
100
AcDbLine
 10
147.8745879999999
 20
233.7759909999999
 30
0.0
 11
153.3594159999998
 21
243.275991
 31
0.0
  0
ARC
  5
A130
330
9FFC
100
AcDbEntity
  8
1
  6
Continuous
100
AcDbCircle
 10
141.697416
 20
243.275991
 30
0.0
 40
21.0
100
AcDbArc
 50
151.388384
 51
208.6116159999999
  0
ARC
  5
A131
330
9FFC
100
AcDbEntity
  8
1
  6
Continuous
100
AcDbCircle
 10
142.389761
 20
243.275991
 30
0.0
 40
17.3875
100
AcDbArc
 50
147.6644619999999
 51
213.538699
  0
CIRCLE
  5
A132
330
9FFC
100
AcDbEntity
  8
1
  6
Continuous
100
AcDbCircle
 10
142.389761
 20
243.275991
 30
0.0
 40
16.25
  0
CIRCLE
  5
A133
330
9FFC
100
AcDbEntity
  8
1
  6
Continuous
100
AcDbCircle
 10
142.389761
 20
243.275991
 30
0.0
 40
16.00018
  0
LINE
  5
A134
330
9FFC
100
AcDbEntity
  8
1
  6
Continuous
100
AcDbLine
 10
136.9049329999998
 20
233.7759909999999
 30
0.0
 11
147.8745879999999
 21
233.7759909999999
 31
0.0
  0
LINE
  5
A135
330
9FFC
100
AcDbEntity
  8
1
  6
Continuous
100
AcDbLine
 10
127.6397609999999
 20
256.2094649999999
 30
0.0
 11
119.1397609999999
 21
256.2094649999999
 31
0.0
  0
ARC
  5
A136
330
9FFC
100
AcDbEntity
  8
1
  6
Continuous
100
AcDbCircle
 10
123.3897609999999
 20
248.2761490000001
 30
0.0
 40
9.0
100
AcDbArc
 50
61.82135699999999
 51
118.178643
  0
LINE
  5
A137
330
9FFC
100
AcDbEntity
  8
1
  6
Continuous
100
AcDbLine
 10
116.389761
 20
233.7759909999999
 30
0.0
 11
122.9690949999999
 21
233.7759909999999
 31
0.0
  0
LINE
  5
A138
330
9FFC
100
AcDbEntity
  8
1
  6
Continuous
100
AcDbLine
 10
127.594951
 20
231.2758909999999
 30
0.0
 11
115.8897609999999
 21
231.2758909999999
 31
0.0
  0
LINE
  5
A139
330
9FFC
100
AcDbEntity
  8
1
  6
Continuous
100
AcDbLine
 10
123.291224
 20
233.1659909999999
 30
0.0
 11
115.8897609999999
 21
233.1659909999999
 31
0.0
  0
LINE
  5
A13A
330
9FFC
100
AcDbEntity
  8
1
  6
Continuous
100
AcDbLine
 10
127.6397609999999
 20
256.2094649999999
 30
0.0
 11
127.6397609999999
 21
255.278859
 31
0.0
  0
ARC
  5
A13B
330
9FFC
100
AcDbEntity
  8
1
  6
Continuous
100
AcDbCircle
 10
121.681618
 20
232.3577589999999
 30
0.0
 40
1.8
100
AcDbArc
 50
323.055762
 51
28.611616
  0
LINE
  5
A13C
330
9FFC
100
AcDbEntity
  8
1
  6
Continuous
100
AcDbLine
 10
120.389761
 20
233.7759909999999
 30
0.0
 11
120.389761
 21
233.1659779999998
 31
0.0
  0
LINE
  5
A13D
330
9FFC
100
AcDbEntity
  8
1
  6
Continuous
100
AcDbLine
 10
116.389761
 20
233.7759909999999
 30
0.0
 11
115.389761
 21
234.775991
 31
0.0
  0
LINE
  5
A13E
330
9FFC
100
AcDbEntity
  8
1
  6
Continuous
100
AcDbLine
 10
119.1397609999999
 20
256.2094649999999
 30
0.0
 11
119.1397609999999
 21
255.276149
 31
0.0
  0
LINE
  5
A13F
330
9FFC
100
AcDbEntity
  8
1
  6
Continuous
100
AcDbLine
 10
115.8897609999999
 20
231.2758909999999
 30
0.0
 11
115.8897609999999
 21
233.1659909999999
 31
0.0
  0
CIRCLE
  5
A140
330
9FFC
100
AcDbEntity
  8
1
  6
Continuous
100
AcDbCircle
 10
142.389761
 20
243.275991
 30
0.0
 40
6.0
  0
LINE
  5
A141
330
9FFC
100
AcDbEntity
  8
1
  6
Continuous
100
AcDbLine
 10
136.9049329999998
 20
252.7759909999998
 30
0.0
 11
147.8745879999999
 21
252.7759909999998
 31
0.0
  0
LINE
  5
A142
330
9FFC
100
AcDbEntity
  8
1
  6
Continuous
100
AcDbLine
 10
147.8745879999999
 20
252.7759909999998
 30
0.0
 11
153.3594159999998
 21
243.275991
 31
0.0
  0
LINE
  5
A143
330
9FFC
100
AcDbEntity
  8
1
  6
Continuous
100
AcDbLine
 10
131.420106
 20
243.275991
 30
0.0
 11
136.9049329999998
 21
252.7759909999998
 31
0.0
  0
ARC
  5
A144
330
9FFC
100
AcDbEntity
  8
1
  6
Continuous
100
AcDbCircle
 10
123.3897609999999
 20
240.275425
 30
0.0
 40
10.399624
100
AcDbArc
 50
247.379272
 51
292.6207279999998
  0
LINE
  5
A145
330
9FFC
100
AcDbEntity
  8
1
  6
Continuous
100
AcDbLine
 10
127.3897609999999
 20
230.6758319999999
 30
0.0
 11
119.389761
 21
230.6758319999999
 31
0.0
  0
LINE
  5
A146
330
9FFC
100
AcDbEntity
  8
1
  6
Continuous
100
AcDbLine
 10
116.389761
 20
252.7759909999998
 30
0.0
 11
122.9690949999999
 21
252.7759909999998
 31
0.0
  0
LINE
  5
A147
330
9FFC
100
AcDbEntity
  8
1
  6
Continuous
100
AcDbLine
 10
127.594951
 20
255.2760909999999
 30
0.0
 11
115.8897609999999
 21
255.2760909999999
 31
0.0
  0
LINE
  5
A148
330
9FFC
100
AcDbEntity
  8
1
  6
Continuous
100
AcDbLine
 10
115.8897609999999
 20
253.3859909999999
 30
0.0
 11
123.291224
 21
253.3859909999999
 31
0.0
  0
LINE
  5
A149
330
9FFC
100
AcDbEntity
  8
1
  6
Continuous
100
AcDbLine
 10
127.3897609999999
 20
231.2758909999999
 30
0.0
 11
127.3897609999999
 21
230.6758319999999
 31
0.0
  0
ARC
  5
A14A
330
9FFC
100
AcDbEntity
  8
1
  6
Continuous
100
AcDbCircle
 10
121.681618
 20
254.194224
 30
0.0
 40
1.8
100
AcDbArc
 50
331.3883839999999
 51
36.944238
  0
LINE
  5
A14B
330
9FFC
100
AcDbEntity
  8
1
  6
Continuous
100
AcDbLine
 10
120.389761
 20
253.3860049999999
 30
0.0
 11
120.389761
 21
252.7759909999998
 31
0.0
  0
LINE
  5
A14C
330
9FFC
100
AcDbEntity
  8
1
  6
Continuous
100
AcDbLine
 10
116.389761
 20
252.7759909999998
 30
0.0
 11
115.389761
 21
251.775991
 31
0.0
  0
LINE
  5
A14D
330
9FFC
100
AcDbEntity
  8
1
  6
Continuous
100
AcDbLine
 10
119.389761
 20
231.2758319999999
 30
0.0
 11
119.389761
 21
230.6758319999999
 31
0.0
  0
LINE
  5
A14E
330
9FFC
100
AcDbEntity
  8
1
  6
Continuous
100
AcDbLine
 10
115.8897609999999
 20
253.3859909999999
 30
0.0
 11
115.8897609999999
 21
255.2760909999999
 31
0.0
  0
ARC
  5
A14F
330
9FFC
100
AcDbEntity
  8
1
  6
Continuous
100
AcDbCircle
 10
105.762781
 20
236.275991
 30
0.0
 40
1.5
100
AcDbArc
 50
194.218124
 51
270.0
  0
ARC
  5
A150
330
9FFC
100
AcDbEntity
  8
1
  6
Continuous
100
AcDbCircle
 10
133.3897609999999
 20
243.275991
 30
0.0
 40
30.0
100
AcDbArc
 50
165.781876
 51
194.218124
  0
ARC
  5
A151
330
9FFC
100
AcDbEntity
  8
1
  6
Continuous
100
AcDbCircle
 10
105.762781
 20
250.2759909999999
 30
0.0
 40
1.5
100
AcDbArc
 50
90.0
 51
165.781876
  0
LINE
  5
A152
330
9FFC
100
AcDbEntity
  8
1
  6
Continuous
100
AcDbLine
 10
62.430847
 20
163.1913759999999
 30
0.0
 11
46.18084699999999
 21
163.1913759999999
 31
0.0
  0
LINE
  5
A153
330
9FFC
100
AcDbEntity
  8
1
  6
Continuous
100
AcDbLine
 10
30.180667
 20
164.3856879999999
 30
0.0
 11
62.181028
 21
164.3856879999999
 31
0.0
  0
LINE
  5
A154
330
9FFC
100
AcDbEntity
  8
1
  6
Continuous
100
AcDbLine
 10
33.981771
 20
167.0211969999998
 30
0.0
 11
58.379884
 21
167.0211969999998
 31
0.0
  0
LINE
  5
A155
330
9FFC
100
AcDbEntity
  8
1
  6
Continuous
100
AcDbLine
 10
30.67128
 20
164.961376
 30
0.0
 11
61.690415
 21
164.961376
 31
0.0
  0
LINE
  5
A156
330
9FFC
100
AcDbEntity
  8
1
  6
Continuous
100
AcDbLine
 10
55.68084699999999
 20
170.9211779999999
 30
0.0
 11
36.680847
 21
170.9211779999999
 31
0.0
  0
LINE
  5
A157
330
9FFC
100
AcDbEntity
  8
1
  6
Continuous
100
AcDbLine
 10
52.180847
 20
170.9211779999999
 30
0.0
 11
52.180847
 21
184.921178
 31
0.0
  0
LINE
  5
A158
330
9FFC
100
AcDbEntity
  8
1
  6
Continuous
100
AcDbLine
 10
40.180847
 20
170.9211779999999
 30
0.0
 11
40.180847
 21
184.921178
 31
0.0
  0
LINE
  5
A159
330
9FFC
100
AcDbEntity
  8
1
  6
Continuous
100
AcDbLine
 10
35.39317299999999
 20
161.3881059999999
 30
0.0
 11
37.19644300000001
 21
163.1913759999999
 31
0.0
  0
LINE
  5
A15A
330
9FFC
100
AcDbEntity
  8
1
  6
Continuous
100
AcDbLine
 10
37.19644300000001
 20
161.3881059999999
 30
0.0
 11
35.39317299999999
 21
163.1913759999999
 31
0.0
  0
LINE
  5
A15B
330
9FFC
100
AcDbEntity
  8
1
  6
Continuous
100
AcDbLine
 10
29.93084699999998
 20
163.1913759999999
 30
0.0
 11
46.18084699999999
 21
163.1913759999999
 31
0.0
  0
LINE
  5
A15C
330
9FFC
100
AcDbEntity
  8
1
  6
Continuous
100
AcDbLine
 10
33.271853
 20
161.3881059999999
 30
0.0
 11
35.075123
 21
163.1913759999999
 31
0.0
  0
LINE
  5
A15D
330
9FFC
100
AcDbEntity
  8
1
  6
Continuous
100
AcDbLine
 10
35.075123
 20
161.3881059999999
 30
0.0
 11
33.271853
 21
163.1913759999999
 31
0.0
  0
LINE
  5
A15E
330
9FFC
100
AcDbEntity
  8
1
  6
Continuous
100
AcDbLine
 10
30.83248199999999
 20
163.1913759999999
 30
0.0
 11
29.93084699999998
 21
162.289741
 31
0.0
  0
LINE
  5
A15F
330
9FFC
100
AcDbEntity
  8
1
  6
Continuous
100
AcDbLine
 10
30.83248199999999
 20
161.3881059999999
 30
0.0
 11
29.93084699999998
 21
162.289741
 31
0.0
  0
ARC
  5
A160
330
9FFC
100
AcDbEntity
  8
1
  6
Continuous
100
AcDbCircle
 10
32.52904199999999
 20
164.716575
 30
0.0
 40
2.371570999999998
100
AcDbArc
 50
188.020211
 51
220.040406
  0
ARC
  5
A161
330
9FFC
100
AcDbEntity
  8
1
  6
Continuous
100
AcDbCircle
 10
31.211178
 20
164.0043639999998
 30
0.0
 40
1.098799999999998
100
AcDbArc
 50
119.429525
 51
159.693839
  0
LINE
  5
A162
330
9FFC
100
AcDbEntity
  8
1
  6
Continuous
100
AcDbLine
 10
29.93084699999998
 20
163.1913759999999
 30
0.0
 11
29.93084699999998
 21
161.3881059999999
 31
0.0
  0
LINE
  5
A163
330
9FFC
100
AcDbEntity
  8
1
  6
Continuous
100
AcDbLine
 10
31.150533
 20
161.3881059999999
 30
0.0
 11
32.953803
 21
163.1913759999999
 31
0.0
  0
LINE
  5
A164
330
9FFC
100
AcDbEntity
  8
1
  6
Continuous
100
AcDbLine
 10
32.953803
 20
161.3881059999999
 30
0.0
 11
31.150533
 21
163.1913759999999
 31
0.0
  0
ARC
  5
A165
330
9FFC
100
AcDbEntity
  8
1
  6
Continuous
100
AcDbCircle
 10
33.981771
 20
164.521197
 30
0.0
 40
2.5
100
AcDbArc
 50
90.0
 51
169.858981
  0
LINE
  5
A166
330
9FFC
100
AcDbEntity
  8
1
  6
Continuous
100
AcDbLine
 10
50.24241599999999
 20
161.3881059999999
 30
0.0
 11
52.04568599999999
 21
163.1913759999999
 31
0.0
  0
LINE
  5
A167
330
9FFC
100
AcDbEntity
  8
1
  6
Continuous
100
AcDbLine
 10
52.04568599999999
 20
161.3881059999999
 30
0.0
 11
50.24241599999999
 21
163.1913759999999
 31
0.0
  0
LINE
  5
A168
330
9FFC
100
AcDbEntity
  8
1
  6
Continuous
100
AcDbLine
 10
45.999775
 20
161.3881059999999
 30
0.0
 11
47.80304499999998
 21
163.1913759999999
 31
0.0
  0
LINE
  5
A169
330
9FFC
100
AcDbEntity
  8
1
  6
Continuous
100
AcDbLine
 10
47.80304499999998
 20
161.3881059999999
 30
0.0
 11
45.999775
 21
163.1913759999999
 31
0.0
  0
LINE
  5
A16A
330
9FFC
100
AcDbEntity
  8
1
  6
Continuous
100
AcDbLine
 10
48.121095
 20
161.3881059999999
 30
0.0
 11
49.924365
 21
163.1913759999999
 31
0.0
  0
LINE
  5
A16B
330
9FFC
100
AcDbEntity
  8
1
  6
Continuous
100
AcDbLine
 10
49.924365
 20
161.3881059999999
 30
0.0
 11
48.121095
 21
163.1913759999999
 31
0.0
  0
LINE
  5
A16C
330
9FFC
100
AcDbEntity
  8
1
  6
Continuous
100
AcDbLine
 10
41.757134
 20
161.3881059999999
 30
0.0
 11
43.560404
 21
163.1913759999999
 31
0.0
  0
LINE
  5
A16D
330
9FFC
100
AcDbEntity
  8
1
  6
Continuous
100
AcDbLine
 10
43.560404
 20
161.3881059999999
 30
0.0
 11
41.757134
 21
163.1913759999999
 31
0.0
  0
LINE
  5
A16E
330
9FFC
100
AcDbEntity
  8
1
  6
Continuous
100
AcDbLine
 10
37.514494
 20
161.3881059999999
 30
0.0
 11
39.317764
 21
163.1913759999999
 31
0.0
  0
LINE
  5
A16F
330
9FFC
100
AcDbEntity
  8
1
  6
Continuous
100
AcDbLine
 10
39.317764
 20
161.3881059999999
 30
0.0
 11
37.514494
 21
163.1913759999999
 31
0.0
  0
LINE
  5
A170
330
9FFC
100
AcDbEntity
  8
1
  6
Continuous
100
AcDbLine
 10
39.63581400000001
 20
161.3881059999999
 30
0.0
 11
41.43908399999999
 21
163.1913759999999
 31
0.0
  0
LINE
  5
A171
330
9FFC
100
AcDbEntity
  8
1
  6
Continuous
100
AcDbLine
 10
41.43908399999999
 20
161.3881059999999
 30
0.0
 11
39.63581400000001
 21
163.1913759999999
 31
0.0
  0
LINE
  5
A172
330
9FFC
100
AcDbEntity
  8
1
  6
Continuous
100
AcDbLine
 10
43.878455
 20
161.3881059999999
 30
0.0
 11
45.681725
 21
163.1913759999999
 31
0.0
  0
LINE
  5
A173
330
9FFC
100
AcDbEntity
  8
1
  6
Continuous
100
AcDbLine
 10
45.681725
 20
161.3881059999999
 30
0.0
 11
43.878455
 21
163.1913759999999
 31
0.0
  0
LINE
  5
A174
330
9FFC
100
AcDbEntity
  8
1
  6
Continuous
100
AcDbLine
 10
51.180847
 20
185.921178
 30
0.0
 11
52.180847
 21
184.921178
 31
0.0
  0
LINE
  5
A175
330
9FFC
100
AcDbEntity
  8
1
  6
Continuous
100
AcDbLine
 10
41.18084699999999
 20
185.921178
 30
0.0
 11
40.180847
 21
184.921178
 31
0.0
  0
LINE
  5
A176
330
9FFC
100
AcDbEntity
  8
1
  6
Continuous
100
AcDbLine
 10
40.180847
 20
184.921178
 30
0.0
 11
52.180847
 21
184.921178
 31
0.0
  0
LINE
  5
A177
330
9FFC
100
AcDbEntity
  8
1
  6
Continuous
100
AcDbLine
 10
41.18084699999999
 20
185.921178
 30
0.0
 11
51.180847
 21
185.921178
 31
0.0
  0
LINE
  5
A178
330
9FFC
100
AcDbEntity
  8
1
  6
Continuous
100
AcDbLine
 10
60.849018
 20
161.3881059999999
 30
0.0
 11
62.430847
 21
162.969936
 31
0.0
  0
LINE
  5
A179
330
9FFC
100
AcDbEntity
  8
1
  6
Continuous
100
AcDbLine
 10
62.430847
 20
161.6095459999999
 30
0.0
 11
60.849018
 21
163.1913759999999
 31
0.0
  0
ARC
  5
A17A
330
9FFC
100
AcDbEntity
  8
1
  6
Continuous
100
AcDbCircle
 10
59.832653
 20
164.716575
 30
0.0
 40
2.371570999999998
100
AcDbArc
 50
319.959594
 51
351.9797889999999
  0
ARC
  5
A17B
330
9FFC
100
AcDbEntity
  8
1
  6
Continuous
100
AcDbCircle
 10
61.150517
 20
164.0043639999998
 30
0.0
 40
1.098799999999998
100
AcDbArc
 50
20.306161
 51
60.57047500000001
  0
LINE
  5
A17C
330
9FFC
100
AcDbEntity
  8
1
  6
Continuous
100
AcDbLine
 10
62.430847
 20
163.1913759999999
 30
0.0
 11
62.430847
 21
161.3881059999999
 31
0.0
  0
LINE
  5
A17D
330
9FFC
100
AcDbEntity
  8
1
  6
Continuous
100
AcDbLine
 10
56.606377
 20
161.3881059999999
 30
0.0
 11
58.409647
 21
163.1913759999999
 31
0.0
  0
LINE
  5
A17E
330
9FFC
100
AcDbEntity
  8
1
  6
Continuous
100
AcDbLine
 10
58.727697
 20
161.3881059999999
 30
0.0
 11
60.53096700000001
 21
163.1913759999999
 31
0.0
  0
LINE
  5
A17F
330
9FFC
100
AcDbEntity
  8
1
  6
Continuous
100
AcDbLine
 10
58.409647
 20
161.3881059999999
 30
0.0
 11
56.606377
 21
163.1913759999999
 31
0.0
  0
LINE
  5
A180
330
9FFC
100
AcDbEntity
  8
1
  6
Continuous
100
AcDbLine
 10
60.53096700000001
 20
161.3881059999999
 30
0.0
 11
58.727697
 21
163.1913759999999
 31
0.0
  0
LINE
  5
A181
330
9FFC
100
AcDbEntity
  8
1
  6
Continuous
100
AcDbLine
 10
54.485056
 20
161.3881059999999
 30
0.0
 11
56.288327
 21
163.1913759999999
 31
0.0
  0
LINE
  5
A182
330
9FFC
100
AcDbEntity
  8
1
  6
Continuous
100
AcDbLine
 10
56.288327
 20
161.3881059999999
 30
0.0
 11
54.485056
 21
163.1913759999999
 31
0.0
  0
LINE
  5
A183
330
9FFC
100
AcDbEntity
  8
1
  6
Continuous
100
AcDbLine
 10
52.363736
 20
161.3881059999999
 30
0.0
 11
54.16700600000001
 21
163.1913759999999
 31
0.0
  0
LINE
  5
A184
330
9FFC
100
AcDbEntity
  8
1
  6
Continuous
100
AcDbLine
 10
54.16700600000001
 20
161.3881059999999
 30
0.0
 11
52.363736
 21
163.1913759999999
 31
0.0
  0
ARC
  5
A185
330
9FFC
100
AcDbEntity
  8
1
  6
Continuous
100
AcDbCircle
 10
58.379884
 20
164.521197
 30
0.0
 40
2.5
100
AcDbArc
 50
10.141019
 51
90.0
  0
LINE
  5
A186
330
9FFC
100
AcDbEntity
  8
1
  6
Continuous
100
AcDbLine
 10
46.18084699999999
 20
170.9211779999999
 30
0.0
 11
46.18084699999999
 21
167.0211969999998
 31
0.0
  0
LINE
  5
A187
330
9FFC
100
AcDbEntity
  8
1
  6
Continuous
100
AcDbLine
 10
36.680847
 20
170.9211779999999
 30
0.0
 11
36.680847
 21
167.0211969999998
 31
0.0
  0
LINE
  5
A188
330
9FFC
100
AcDbEntity
  8
1
  6
Continuous
100
AcDbLine
 10
55.68084699999999
 20
170.9211779999999
 30
0.0
 11
55.68084699999999
 21
167.0211969999998
 31
0.0
  0
LINE
  5
A189
330
9FFC
100
AcDbEntity
  8
1
  6
Continuous
100
AcDbLine
 10
226.5986739999999
 20
170.9211779999999
 30
0.0
 11
226.5986739999999
 21
167.0211969999998
 31
0.0
  0
LINE
  5
A18A
330
9FFC
100
AcDbEntity
  8
1
  6
Continuous
100
AcDbLine
 10
207.5986739999999
 20
170.9211779999999
 30
0.0
 11
207.5986739999999
 21
167.0211969999998
 31
0.0
  0
LINE
  5
A18B
330
9FFC
100
AcDbEntity
  8
1
  6
Continuous
100
AcDbLine
 10
217.098674
 20
170.9211779999999
 30
0.0
 11
217.098674
 21
167.0211969999998
 31
0.0
  0
ARC
  5
A18C
330
9FFC
100
AcDbEntity
  8
1
  6
Continuous
100
AcDbCircle
 10
204.8995979999999
 20
164.521197
 30
0.0
 40
2.5
100
AcDbArc
 50
90.0
 51
169.858981
  0
LINE
  5
A18D
330
9FFC
100
AcDbEntity
  8
1
  6
Continuous
100
AcDbLine
 10
203.8716299999999
 20
161.3881059999999
 30
0.0
 11
202.06836
 21
163.1913759999999
 31
0.0
  0
LINE
  5
A18E
330
9FFC
100
AcDbEntity
  8
1
  6
Continuous
100
AcDbLine
 10
202.06836
 20
161.3881059999999
 30
0.0
 11
203.8716299999999
 21
163.1913759999999
 31
0.0
  0
LINE
  5
A18F
330
9FFC
100
AcDbEntity
  8
1
  6
Continuous
100
AcDbLine
 10
200.8486739999999
 20
163.1913759999999
 30
0.0
 11
217.098674
 21
163.1913759999999
 31
0.0
  0
LINE
  5
A190
330
9FFC
100
AcDbEntity
  8
1
  6
Continuous
100
AcDbLine
 10
201.589107
 20
164.961376
 30
0.0
 11
232.608241
 21
164.961376
 31
0.0
  0
LINE
  5
A191
330
9FFC
100
AcDbEntity
  8
1
  6
Continuous
100
AcDbLine
 10
201.0984939999999
 20
164.3856879999999
 30
0.0
 11
233.0988549999999
 21
164.3856879999999
 31
0.0
  0
LINE
  5
A192
330
9FFC
100
AcDbEntity
  8
1
  6
Continuous
100
AcDbLine
 10
200.8486739999999
 20
163.1913759999999
 30
0.0
 11
200.8486739999999
 21
161.3881059999999
 31
0.0
  0
ARC
  5
A193
330
9FFC
100
AcDbEntity
  8
1
  6
Continuous
100
AcDbCircle
 10
202.129005
 20
164.0043639999998
 30
0.0
 40
1.098799999999998
100
AcDbArc
 50
119.429525
 51
159.693839
  0
ARC
  5
A194
330
9FFC
100
AcDbEntity
  8
1
  6
Continuous
100
AcDbCircle
 10
203.4468689999999
 20
164.716575
 30
0.0
 40
2.371570999999998
100
AcDbArc
 50
188.020211
 51
220.040406
  0
LINE
  5
A195
330
9FFC
100
AcDbEntity
  8
1
  6
Continuous
100
AcDbLine
 10
201.7503089999999
 20
161.3881059999999
 30
0.0
 11
200.8486739999999
 21
162.289741
 31
0.0
  0
LINE
  5
A196
330
9FFC
100
AcDbEntity
  8
1
  6
Continuous
100
AcDbLine
 10
201.7503089999999
 20
163.1913759999999
 30
0.0
 11
200.8486739999999
 21
162.289741
 31
0.0
  0
LINE
  5
A197
330
9FFC
100
AcDbEntity
  8
1
  6
Continuous
100
AcDbLine
 10
204.8995979999999
 20
167.0211969999998
 30
0.0
 11
229.2977109999999
 21
167.0211969999998
 31
0.0
  0
LINE
  5
A198
330
9FFC
100
AcDbEntity
  8
1
  6
Continuous
100
AcDbLine
 10
233.348674
 20
163.1913759999999
 30
0.0
 11
217.098674
 21
163.1913759999999
 31
0.0
  0
LINE
  5
A199
330
9FFC
100
AcDbEntity
  8
1
  6
Continuous
100
AcDbLine
 10
216.599552
 20
161.3881059999999
 30
0.0
 11
214.796282
 21
163.1913759999999
 31
0.0
  0
LINE
  5
A19A
330
9FFC
100
AcDbEntity
  8
1
  6
Continuous
100
AcDbLine
 10
214.796282
 20
161.3881059999999
 30
0.0
 11
216.599552
 21
163.1913759999999
 31
0.0
  0
LINE
  5
A19B
330
9FFC
100
AcDbEntity
  8
1
  6
Continuous
100
AcDbLine
 10
212.356911
 20
161.3881059999999
 30
0.0
 11
210.553641
 21
163.1913759999999
 31
0.0
  0
LINE
  5
A19C
330
9FFC
100
AcDbEntity
  8
1
  6
Continuous
100
AcDbLine
 10
210.553641
 20
161.3881059999999
 30
0.0
 11
212.356911
 21
163.1913759999999
 31
0.0
  0
LINE
  5
A19D
330
9FFC
100
AcDbEntity
  8
1
  6
Continuous
100
AcDbLine
 10
210.235591
 20
161.3881059999999
 30
0.0
 11
208.4323209999999
 21
163.1913759999999
 31
0.0
  0
LINE
  5
A19E
330
9FFC
100
AcDbEntity
  8
1
  6
Continuous
100
AcDbLine
 10
208.4323209999999
 20
161.3881059999999
 30
0.0
 11
210.235591
 21
163.1913759999999
 31
0.0
  0
LINE
  5
A19F
330
9FFC
100
AcDbEntity
  8
1
  6
Continuous
100
AcDbLine
 10
214.478231
 20
161.3881059999999
 30
0.0
 11
212.674961
 21
163.1913759999999
 31
0.0
  0
LINE
  5
A1A0
330
9FFC
100
AcDbEntity
  8
1
  6
Continuous
100
AcDbLine
 10
212.674961
 20
161.3881059999999
 30
0.0
 11
214.478231
 21
163.1913759999999
 31
0.0
  0
LINE
  5
A1A1
330
9FFC
100
AcDbEntity
  8
1
  6
Continuous
100
AcDbLine
 10
218.720872
 20
161.3881059999999
 30
0.0
 11
216.917602
 21
163.1913759999999
 31
0.0
  0
LINE
  5
A1A2
330
9FFC
100
AcDbEntity
  8
1
  6
Continuous
100
AcDbLine
 10
216.917602
 20
161.3881059999999
 30
0.0
 11
218.720872
 21
163.1913759999999
 31
0.0
  0
LINE
  5
A1A3
330
9FFC
100
AcDbEntity
  8
1
  6
Continuous
100
AcDbLine
 10
205.9929499999999
 20
161.3881059999999
 30
0.0
 11
204.1896799999999
 21
163.1913759999999
 31
0.0
  0
LINE
  5
A1A4
330
9FFC
100
AcDbEntity
  8
1
  6
Continuous
100
AcDbLine
 10
204.1896799999999
 20
161.3881059999999
 30
0.0
 11
205.9929499999999
 21
163.1913759999999
 31
0.0
  0
LINE
  5
A1A5
330
9FFC
100
AcDbEntity
  8
1
  6
Continuous
100
AcDbLine
 10
208.11427
 20
161.3881059999999
 30
0.0
 11
206.3109999999999
 21
163.1913759999999
 31
0.0
  0
LINE
  5
A1A6
330
9FFC
100
AcDbEntity
  8
1
  6
Continuous
100
AcDbLine
 10
206.3109999999999
 20
161.3881059999999
 30
0.0
 11
208.11427
 21
163.1913759999999
 31
0.0
  0
ARC
  5
A1A7
330
9FFC
100
AcDbEntity
  8
1
  6
Continuous
100
AcDbCircle
 10
229.2977109999999
 20
164.521197
 30
0.0
 40
2.5
100
AcDbArc
 50
10.141019
 51
90.0
  0
LINE
  5
A1A8
330
9FFC
100
AcDbEntity
  8
1
  6
Continuous
100
AcDbLine
 10
225.084833
 20
161.3881059999999
 30
0.0
 11
223.2815629999998
 21
163.1913759999999
 31
0.0
  0
LINE
  5
A1A9
330
9FFC
100
AcDbEntity
  8
1
  6
Continuous
100
AcDbLine
 10
223.2815629999998
 20
161.3881059999999
 30
0.0
 11
225.084833
 21
163.1913759999999
 31
0.0
  0
LINE
  5
A1AA
330
9FFC
100
AcDbEntity
  8
1
  6
Continuous
100
AcDbLine
 10
227.206154
 20
161.3881059999999
 30
0.0
 11
225.402883
 21
163.1913759999999
 31
0.0
  0
LINE
  5
A1AB
330
9FFC
100
AcDbEntity
  8
1
  6
Continuous
100
AcDbLine
 10
225.402883
 20
161.3881059999999
 30
0.0
 11
227.206154
 21
163.1913759999999
 31
0.0
  0
LINE
  5
A1AC
330
9FFC
100
AcDbEntity
  8
1
  6
Continuous
100
AcDbLine
 10
231.4487939999999
 20
161.3881059999999
 30
0.0
 11
229.6455239999999
 21
163.1913759999999
 31
0.0
  0
LINE
  5
A1AD
330
9FFC
100
AcDbEntity
  8
1
  6
Continuous
100
AcDbLine
 10
229.327474
 20
161.3881059999999
 30
0.0
 11
227.524204
 21
163.1913759999999
 31
0.0
  0
LINE
  5
A1AE
330
9FFC
100
AcDbEntity
  8
1
  6
Continuous
100
AcDbLine
 10
229.6455239999999
 20
161.3881059999999
 30
0.0
 11
231.4487939999999
 21
163.1913759999999
 31
0.0
  0
LINE
  5
A1AF
330
9FFC
100
AcDbEntity
  8
1
  6
Continuous
100
AcDbLine
 10
227.524204
 20
161.3881059999999
 30
0.0
 11
229.327474
 21
163.1913759999999
 31
0.0
  0
LINE
  5
A1B0
330
9FFC
100
AcDbEntity
  8
1
  6
Continuous
100
AcDbLine
 10
233.348674
 20
163.1913759999999
 30
0.0
 11
233.348674
 21
161.3881059999999
 31
0.0
  0
ARC
  5
A1B1
330
9FFC
100
AcDbEntity
  8
1
  6
Continuous
100
AcDbCircle
 10
232.0683439999999
 20
164.0043639999998
 30
0.0
 40
1.098799999999998
100
AcDbArc
 50
20.306161
 51
60.57047500000001
  0
ARC
  5
A1B2
330
9FFC
100
AcDbEntity
  8
1
  6
Continuous
100
AcDbCircle
 10
230.7504799999999
 20
164.716575
 30
0.0
 40
2.371570999999998
100
AcDbArc
 50
319.959594
 51
351.9797889999999
  0
LINE
  5
A1B3
330
9FFC
100
AcDbEntity
  8
1
  6
Continuous
100
AcDbLine
 10
233.348674
 20
161.6095459999999
 30
0.0
 11
231.7668449999999
 21
163.1913759999999
 31
0.0
  0
LINE
  5
A1B4
330
9FFC
100
AcDbEntity
  8
1
  6
Continuous
100
AcDbLine
 10
231.7668449999999
 20
161.3881059999999
 30
0.0
 11
233.348674
 21
162.969936
 31
0.0
  0
LINE
  5
A1B5
330
9FFC
100
AcDbEntity
  8
1
  6
Continuous
100
AcDbLine
 10
220.8421919999999
 20
161.3881059999999
 30
0.0
 11
219.038922
 21
163.1913759999999
 31
0.0
  0
LINE
  5
A1B6
330
9FFC
100
AcDbEntity
  8
1
  6
Continuous
100
AcDbLine
 10
219.038922
 20
161.3881059999999
 30
0.0
 11
220.8421919999999
 21
163.1913759999999
 31
0.0
  0
LINE
  5
A1B7
330
9FFC
100
AcDbEntity
  8
1
  6
Continuous
100
AcDbLine
 10
222.9635129999998
 20
161.3881059999999
 30
0.0
 11
221.160243
 21
163.1913759999999
 31
0.0
  0
LINE
  5
A1B8
330
9FFC
100
AcDbEntity
  8
1
  6
Continuous
100
AcDbLine
 10
221.160243
 20
161.3881059999999
 30
0.0
 11
222.9635129999998
 21
163.1913759999999
 31
0.0
  0
LINE
  5
A1B9
330
9FFC
100
AcDbEntity
  8
1
  6
Continuous
100
AcDbLine
 10
226.5986739999999
 20
170.9211779999999
 30
0.0
 11
207.5986739999999
 21
170.9211779999999
 31
0.0
  0
ARC
  5
A1BA
330
9FFC
100
AcDbEntity
  8
1
  6
Continuous
100
AcDbCircle
 10
142.389761
 20
243.275991
 30
0.0
 40
17.3
100
AcDbArc
 50
230.582212
 51
129.417788
  0
ARC
  5
A1BB
330
9FFC
100
AcDbEntity
  8
1
  6
Continuous
100
AcDbCircle
 10
127.594951
 20
261.2760909999999
 30
0.0
 40
6.0
100
AcDbArc
 50
270.0
 51
309.4177879999999
  0
ARC
  5
A1BC
330
9FFC
100
AcDbEntity
  8
1
  6
Continuous
100
AcDbCircle
 10
127.594951
 20
225.275891
 30
0.0
 40
6.0
100
AcDbArc
 50
50.58221200000001
 51
90.0
  0
LINE
  5
A1BD
330
9FFC
100
AcDbEntity
  8
4
  6
CENTER
100
AcDbLine
 10
123.3897609999999
 20
224.8758009999999
 30
0.0
 11
123.3897609999999
 21
262.2761489999999
 31
0.0
  0
LINE
  5
A1BE
330
9FFC
100
AcDbEntity
  8
4
  6
CENTER
100
AcDbLine
 10
291.807587
 20
190.921093
 30
0.0
 11
291.807587
 21
142.113277
 31
0.0
  0
LINE
  5
A1BF
330
9FFC
100
AcDbEntity
  8
1
  6
Continuous
100
AcDbLine
 10
280.8379319999999
 20
167.0211119999999
 30
0.0
 11
280.8379319999999
 21
170.9210929999999
 31
0.0
  0
LINE
  5
A1C0
330
9FFC
100
AcDbEntity
  8
1
  6
Continuous
100
AcDbLine
 10
297.2924139999999
 20
167.0211119999999
 30
0.0
 11
297.2924139999999
 21
170.9210929999999
 31
0.0
  0
LINE
  5
A1C1
330
9FFC
100
AcDbEntity
  8
1
  6
Continuous
100
AcDbLine
 10
286.3227589999999
 20
167.0211119999999
 30
0.0
 11
286.3227589999999
 21
170.9210929999999
 31
0.0
  0
LINE
  5
A1C2
330
9FFC
100
AcDbEntity
  8
1
  6
Continuous
100
AcDbLine
 10
302.777242
 20
167.0211119999999
 30
0.0
 11
302.777242
 21
170.9210929999999
 31
0.0
  0
ARC
  5
A1C3
330
9FFC
100
AcDbEntity
  8
1
  6
Continuous
100
AcDbCircle
 10
304.006663
 20
164.5211119999999
 30
0.0
 40
2.5
100
AcDbArc
 50
10.141019
 51
90.0
  0
LINE
  5
A1C4
330
9FFC
100
AcDbEntity
  8
1
  6
Continuous
100
AcDbLine
 10
305.034631
 20
161.388021
 30
0.0
 11
306.837901
 21
163.1912909999998
 31
0.0
  0
LINE
  5
A1C5
330
9FFC
100
AcDbEntity
  8
1
  6
Continuous
100
AcDbLine
 10
306.837901
 20
161.388021
 30
0.0
 11
305.034631
 21
163.1912909999998
 31
0.0
  0
LINE
  5
A1C6
330
9FFC
100
AcDbEntity
  8
1
  6
Continuous
100
AcDbLine
 10
308.057587
 20
163.1912909999998
 30
0.0
 11
291.807587
 21
163.1912909999998
 31
0.0
  0
LINE
  5
A1C7
330
9FFC
100
AcDbEntity
  8
1
  6
Continuous
100
AcDbLine
 10
307.317154
 20
164.9612909999999
 30
0.0
 11
276.2980189999999
 21
164.9612909999999
 31
0.0
  0
LINE
  5
A1C8
330
9FFC
100
AcDbEntity
  8
1
  6
Continuous
100
AcDbLine
 10
307.807767
 20
164.385603
 30
0.0
 11
275.807406
 21
164.385603
 31
0.0
  0
ARC
  5
A1C9
330
9FFC
100
AcDbEntity
  8
1
  6
Continuous
100
AcDbCircle
 10
313.8598129999999
 20
137.5895319999999
 30
0.0
 40
12.0
100
AcDbArc
 50
227.1428139999999
 51
242.584152
  0
ARC
  5
A1CA
330
9FFC
100
AcDbEntity
  8
1
  6
Continuous
100
AcDbCircle
 10
306.78393
 20
161.388021
 30
0.0
 40
2.893297
100
AcDbArc
 50
195.531745
 51
268.5982619999999
  0
LINE
  5
A1CB
330
9FFC
100
AcDbEntity
  8
1
  6
Continuous
100
AcDbLine
 10
308.057587
 20
161.388021
 30
0.0
 11
275.557587
 21
161.388021
 31
0.0
  0
ARC
  5
A1CC
330
9FFC
100
AcDbEntity
  8
1
  6
Continuous
100
AcDbCircle
 10
310.807587
 20
133.9210919999999
 30
0.0
 40
20.0
100
AcDbArc
 50
151.5035839999999
 51
85.38317199999999
  0
ARC
  5
A1CD
330
9FFC
100
AcDbEntity
  8
1
  6
Continuous
100
AcDbCircle
 10
310.807587
 20
133.9210919999999
 30
0.0
 40
13.5
100
AcDbArc
 50
164.723795
 51
73.68728299999998
  0
ARC
  5
A1CE
330
9FFC
100
AcDbEntity
  8
1
  6
Continuous
100
AcDbCircle
 10
310.807587
 20
133.9210919999999
 30
0.0
 40
8.5
100
AcDbArc
 50
193.7303209999999
 51
45.63999899999998
  0
LINE
  5
A1CF
330
9FFC
100
AcDbEntity
  8
4
  6
CENTER
100
AcDbLine
 10
287.8075869999999
 20
133.9210919999999
 30
0.0
 11
333.807587
 21
133.9210919999999
 31
0.0
  0
LINE
  5
A1D0
330
9FFC
100
AcDbEntity
  8
4
  6
CENTER
100
AcDbLine
 10
310.807587
 20
110.9210919999999
 30
0.0
 11
310.807587
 21
156.9210919999999
 31
0.0
  0
ARC
  5
A1D1
330
9FFC
100
AcDbEntity
  8
1
  6
Continuous
100
AcDbCircle
 10
311.557587
 20
133.151092
 30
0.0
 40
7.0
100
AcDbArc
 50
242.584152
 51
16.799546
  0
LINE
  5
A1D2
330
9FFC
100
AcDbEntity
  8
1
  6
Continuous
100
AcDbLine
 10
310.9995839999999
 20
158.390701
 30
0.0
 11
318.258839
 21
135.174261
 31
0.0
  0
LINE
  5
A1D3
330
9FFC
100
AcDbEntity
  8
1
  6
Continuous
100
AcDbLine
 10
308.057587
 20
163.1912909999998
 30
0.0
 11
308.057587
 21
161.388021
 31
0.0
  0
ARC
  5
A1D4
330
9FFC
100
AcDbEntity
  8
1
  6
Continuous
100
AcDbCircle
 10
306.777256
 20
164.004279
 30
0.0
 40
1.098799999999998
100
AcDbArc
 50
20.306161
 51
60.57047500000001
  0
ARC
  5
A1D5
330
9FFC
100
AcDbEntity
  8
1
  6
Continuous
100
AcDbCircle
 10
305.4593919999998
 20
164.7164899999999
 30
0.0
 40
2.371570999999998
100
AcDbArc
 50
319.959594
 51
351.9797889999999
  0
LINE
  5
A1D6
330
9FFC
100
AcDbEntity
  8
1
  6
Continuous
100
AcDbLine
 10
307.155952
 20
161.388021
 30
0.0
 11
308.057587
 21
162.289656
 31
0.0
  0
LINE
  5
A1D7
330
9FFC
100
AcDbEntity
  8
1
  6
Continuous
100
AcDbLine
 10
307.155952
 20
163.1912909999998
 30
0.0
 11
308.057587
 21
162.289656
 31
0.0
  0
ARC
  5
A1D8
330
9FFC
100
AcDbEntity
  8
1
  6
Continuous
100
AcDbCircle
 10
312.7089879999999
 20
157.082511
 30
0.0
 40
1.265223999999999
100
AcDbArc
 50
51.30749900000001
 51
88.598262
  0
LINE
  5
A1D9
330
9FFC
100
AcDbEntity
  8
1
  6
Continuous
100
AcDbLine
 10
313.4999309999999
 20
157.180783
 30
0.0
 11
313.4999309999999
 21
158.0700339999999
 31
0.0
  0
ARC
  5
A1DA
330
9FFC
100
AcDbEntity
  8
1
  6
Continuous
100
AcDbCircle
 10
315.715639
 20
156.2842889999998
 30
0.0
 40
2.390200999999998
100
AcDbArc
 50
157.971334
 51
176.48618
  0
ARC
  5
A1DB
330
9FFC
100
AcDbEntity
  8
1
  6
Continuous
100
AcDbCircle
 10
309.6603729999998
 20
159.933151
 30
0.0
 40
1.509986
100
AcDbArc
 50
206.434278
 51
268.5982619999999
  0
ARC
  5
A1DC
330
9FFC
100
AcDbEntity
  8
1
  6
Continuous
100
AcDbCircle
 10
309.3827979999999
 20
159.7951539999999
 30
0.0
 40
1.199999999999999
100
AcDbArc
 50
178.0291489999999
 51
206.434278
  0
ARC
  5
A1DD
330
9FFC
100
AcDbEntity
  8
1
  6
Continuous
100
AcDbCircle
 10
306.6843959999999
 20
159.88801
 30
0.0
 40
1.5
100
AcDbArc
 50
358.029149
 51
90.0
  0
LINE
  5
A1DE
330
9FFC
100
AcDbEntity
  8
1
  6
Continuous
100
AcDbLine
 10
306.7131519999999
 20
158.4955899999999
 30
0.0
 11
309.575619
 21
158.425546
 31
0.0
  0
LINE
  5
A1DF
330
9FFC
100
AcDbEntity
  8
1
  6
Continuous
100
AcDbLine
 10
311.583084
 20
156.458
 30
0.0
 11
313.3299309999998
 21
156.4307829999999
 31
0.0
  0
LINE
  5
A1E0
330
9FFC
100
AcDbEntity
  8
1
  6
Continuous
100
AcDbLine
 10
309.575619
 20
158.425546
 30
0.0
 11
312.770939
 21
158.3473569999999
 31
0.0
  0
ARC
  5
A1E1
330
9FFC
100
AcDbEntity
  8
1
  6
Continuous
100
AcDbCircle
 10
278.1234529999999
 20
158.058129
 30
0.0
 40
3.635797999999998
100
AcDbArc
 50
144.4100699999999
 51
181.543274
  0
LINE
  5
A1E2
330
9FFC
100
AcDbEntity
  8
1
  6
Continuous
100
AcDbLine
 10
275.857587
 20
154.9651059999999
 30
0.0
 11
274.5075869999999
 21
155.13109
 31
0.0
  0
ARC
  5
A1E3
330
9FFC
100
AcDbEntity
  8
1
  6
Continuous
100
AcDbCircle
 10
122.129926
 20
9.602116
 30
0.0
 40
217.2536169999999
100
AcDbArc
 50
36.41495299999999
 51
41.17715399999997
  0
ARC
  5
A1E4
330
9FFC
100
AcDbEntity
  8
1
  6
Continuous
100
AcDbCircle
 10
207.635605
 20
75.093041
 30
0.0
 40
109.54901
100
AcDbArc
 50
37.449402
 51
44.931337
  0
LINE
  5
A1E5
330
9FFC
100
AcDbEntity
  8
1
  6
Continuous
100
AcDbLine
 10
303.8906329999999
 20
152.777172
 30
0.0
 11
303.8906329999999
 21
136.5103219999998
 31
0.0
  0
ARC
  5
A1E6
330
9FFC
100
AcDbEntity
  8
1
  6
Continuous
100
AcDbCircle
 10
353.396021
 20
180.199365
 30
0.0
 40
70.12666800000001
100
AcDbArc
 50
216.4149529999999
 51
227.1428139999999
  0
LINE
  5
A1E7
330
9FFC
100
AcDbEntity
  8
1
  6
Continuous
100
AcDbLine
 10
290.1853889999998
 20
161.388021
 30
0.0
 11
291.9886589999999
 21
163.1912909999998
 31
0.0
  0
LINE
  5
A1E8
330
9FFC
100
AcDbEntity
  8
1
  6
Continuous
100
AcDbLine
 10
291.9886589999999
 20
161.388021
 30
0.0
 11
290.1853889999998
 21
163.1912909999998
 31
0.0
  0
LINE
  5
A1E9
330
9FFC
100
AcDbEntity
  8
1
  6
Continuous
100
AcDbLine
 10
304.006663
 20
167.0211119999999
 30
0.0
 11
279.6085499999999
 21
167.0211119999999
 31
0.0
  0
LINE
  5
A1EA
330
9FFC
100
AcDbEntity
  8
1
  6
Continuous
100
AcDbLine
 10
275.557587
 20
163.1912909999998
 30
0.0
 11
291.807587
 21
163.1912909999998
 31
0.0
  0
LINE
  5
A1EB
330
9FFC
100
AcDbEntity
  8
1
  6
Continuous
100
AcDbLine
 10
292.3067089999999
 20
161.388021
 30
0.0
 11
294.1099789999999
 21
163.1912909999998
 31
0.0
  0
LINE
  5
A1EC
330
9FFC
100
AcDbEntity
  8
1
  6
Continuous
100
AcDbLine
 10
294.1099789999999
 20
161.388021
 30
0.0
 11
292.3067089999999
 21
163.1912909999998
 31
0.0
  0
LINE
  5
A1ED
330
9FFC
100
AcDbEntity
  8
1
  6
Continuous
100
AcDbLine
 10
296.54935
 20
161.388021
 30
0.0
 11
298.35262
 21
163.1912909999998
 31
0.0
  0
LINE
  5
A1EE
330
9FFC
100
AcDbEntity
  8
1
  6
Continuous
100
AcDbLine
 10
298.35262
 20
161.388021
 30
0.0
 11
296.54935
 21
163.1912909999998
 31
0.0
  0
LINE
  5
A1EF
330
9FFC
100
AcDbEntity
  8
1
  6
Continuous
100
AcDbLine
 10
298.6706699999999
 20
161.388021
 30
0.0
 11
300.4739399999999
 21
163.1912909999998
 31
0.0
  0
LINE
  5
A1F0
330
9FFC
100
AcDbEntity
  8
1
  6
Continuous
100
AcDbLine
 10
300.4739399999999
 20
161.388021
 30
0.0
 11
298.6706699999999
 21
163.1912909999998
 31
0.0
  0
LINE
  5
A1F1
330
9FFC
100
AcDbEntity
  8
1
  6
Continuous
100
AcDbLine
 10
294.4280299999999
 20
161.388021
 30
0.0
 11
296.2312999999999
 21
163.1912909999998
 31
0.0
  0
LINE
  5
A1F2
330
9FFC
100
AcDbEntity
  8
1
  6
Continuous
100
AcDbLine
 10
296.2312999999999
 20
161.388021
 30
0.0
 11
294.4280299999999
 21
163.1912909999998
 31
0.0
  0
LINE
  5
A1F3
330
9FFC
100
AcDbEntity
  8
1
  6
Continuous
100
AcDbLine
 10
302.9133109999999
 20
161.388021
 30
0.0
 11
304.716581
 21
163.1912909999998
 31
0.0
  0
LINE
  5
A1F4
330
9FFC
100
AcDbEntity
  8
1
  6
Continuous
100
AcDbLine
 10
304.716581
 20
161.388021
 30
0.0
 11
302.9133109999999
 21
163.1912909999998
 31
0.0
  0
LINE
  5
A1F5
330
9FFC
100
AcDbEntity
  8
1
  6
Continuous
100
AcDbLine
 10
300.791991
 20
161.388021
 30
0.0
 11
302.595261
 21
163.1912909999998
 31
0.0
  0
LINE
  5
A1F6
330
9FFC
100
AcDbEntity
  8
1
  6
Continuous
100
AcDbLine
 10
302.595261
 20
161.388021
 30
0.0
 11
300.791991
 21
163.1912909999998
 31
0.0
  0
ARC
  5
A1F7
330
9FFC
100
AcDbEntity
  8
1
  6
Continuous
100
AcDbCircle
 10
279.6085499999999
 20
164.5211119999999
 30
0.0
 40
2.5
100
AcDbArc
 50
90.0
 51
169.858981
  0
LINE
  5
A1F8
330
9FFC
100
AcDbEntity
  8
1
  6
Continuous
100
AcDbLine
 10
283.8214279999998
 20
161.388021
 30
0.0
 11
285.624698
 21
163.1912909999998
 31
0.0
  0
LINE
  5
A1F9
330
9FFC
100
AcDbEntity
  8
1
  6
Continuous
100
AcDbLine
 10
285.624698
 20
161.388021
 30
0.0
 11
283.8214279999998
 21
163.1912909999998
 31
0.0
  0
LINE
  5
A1FA
330
9FFC
100
AcDbEntity
  8
1
  6
Continuous
100
AcDbLine
 10
281.7001069999998
 20
161.388021
 30
0.0
 11
283.5033779999998
 21
163.1912909999998
 31
0.0
  0
LINE
  5
A1FB
330
9FFC
100
AcDbEntity
  8
1
  6
Continuous
100
AcDbLine
 10
283.5033779999998
 20
161.388021
 30
0.0
 11
281.7001069999998
 21
163.1912909999998
 31
0.0
  0
LINE
  5
A1FC
330
9FFC
100
AcDbEntity
  8
1
  6
Continuous
100
AcDbLine
 10
277.457467
 20
161.388021
 30
0.0
 11
279.260737
 21
163.1912909999998
 31
0.0
  0
LINE
  5
A1FD
330
9FFC
100
AcDbEntity
  8
1
  6
Continuous
100
AcDbLine
 10
279.5787869999999
 20
161.388021
 30
0.0
 11
281.3820569999999
 21
163.1912909999998
 31
0.0
  0
LINE
  5
A1FE
330
9FFC
100
AcDbEntity
  8
1
  6
Continuous
100
AcDbLine
 10
279.260737
 20
161.388021
 30
0.0
 11
277.457467
 21
163.1912909999998
 31
0.0
  0
LINE
  5
A1FF
330
9FFC
100
AcDbEntity
  8
1
  6
Continuous
100
AcDbLine
 10
281.3820569999999
 20
161.388021
 30
0.0
 11
279.5787869999999
 21
163.1912909999998
 31
0.0
  0
LINE
  5
A200
330
9FFC
100
AcDbEntity
  8
1
  6
Continuous
100
AcDbLine
 10
275.557587
 20
163.1912909999998
 30
0.0
 11
275.557587
 21
161.388021
 31
0.0
  0
ARC
  5
A201
330
9FFC
100
AcDbEntity
  8
1
  6
Continuous
100
AcDbCircle
 10
276.837917
 20
164.004279
 30
0.0
 40
1.098799999999998
100
AcDbArc
 50
119.429525
 51
159.693839
  0
ARC
  5
A202
330
9FFC
100
AcDbEntity
  8
1
  6
Continuous
100
AcDbCircle
 10
278.1557809999998
 20
164.7164899999999
 30
0.0
 40
2.371570999999998
100
AcDbArc
 50
188.020211
 51
220.040406
  0
LINE
  5
A203
330
9FFC
100
AcDbEntity
  8
1
  6
Continuous
100
AcDbLine
 10
275.557587
 20
161.609461
 30
0.0
 11
277.1394159999999
 21
163.1912909999998
 31
0.0
  0
LINE
  5
A204
330
9FFC
100
AcDbEntity
  8
1
  6
Continuous
100
AcDbLine
 10
277.1394159999999
 20
161.388021
 30
0.0
 11
275.557587
 21
162.969851
 31
0.0
  0
LINE
  5
A205
330
9FFC
100
AcDbEntity
  8
1
  6
Continuous
100
AcDbLine
 10
288.064069
 20
161.388021
 30
0.0
 11
289.867339
 21
163.1912909999998
 31
0.0
  0
LINE
  5
A206
330
9FFC
100
AcDbEntity
  8
1
  6
Continuous
100
AcDbLine
 10
289.867339
 20
161.388021
 30
0.0
 11
288.064069
 21
163.1912909999998
 31
0.0
  0
LINE
  5
A207
330
9FFC
100
AcDbEntity
  8
1
  6
Continuous
100
AcDbLine
 10
285.9427479999999
 20
161.388021
 30
0.0
 11
287.7460179999999
 21
163.1912909999998
 31
0.0
  0
LINE
  5
A208
330
9FFC
100
AcDbEntity
  8
1
  6
Continuous
100
AcDbLine
 10
287.7460179999999
 20
161.388021
 30
0.0
 11
285.9427479999999
 21
163.1912909999998
 31
0.0
  0
ARC
  5
A209
330
9FFC
100
AcDbEntity
  8
1
  6
Continuous
100
AcDbCircle
 10
280.3830919999999
 20
148.0308649999998
 30
0.0
 40
7.0
100
AcDbArc
 50
41.17715399999997
 51
90.0
  0
ARC
  5
A20A
330
9FFC
100
AcDbEntity
  8
1
  6
Continuous
100
AcDbCircle
 10
279.0023479999999
 20
146.288936
 30
0.0
 40
8.741928999999997
100
AcDbArc
 50
44.931337
 51
90.0
  0
ARC
  5
A20B
330
9FFC
100
AcDbEntity
  8
1
  6
Continuous
100
AcDbCircle
 10
277.5283529999999
 20
158.4840209999998
 30
0.0
 40
2.903999999999999
100
AcDbArc
 50
90.0
 51
144.4100699999999
  0
LINE
  5
A20C
330
9FFC
100
AcDbEntity
  8
1
  6
Continuous
100
AcDbLine
 10
276.315087
 20
155.0308649999998
 30
0.0
 11
275.857587
 21
154.9651059999999
 31
0.0
  0
LINE
  5
A20D
330
9FFC
100
AcDbEntity
  8
1
  6
Continuous
100
AcDbLine
 10
276.315087
 20
155.0308649999998
 30
0.0
 11
280.3830919999999
 21
155.0308649999998
 31
0.0
  0
LINE
  5
A20E
330
9FFC
100
AcDbEntity
  8
1
  6
Continuous
100
AcDbLine
 10
275.857587
 20
154.9651059999999
 30
0.0
 11
279.981422
 21
154.975865
 31
0.0
  0
LINE
  5
A20F
330
9FFC
100
AcDbEntity
  8
1
  6
Continuous
100
AcDbLine
 10
274.5075869999999
 20
155.13109
 30
0.0
 11
274.5075869999999
 21
156.3001059999998
 31
0.0
  0
ARC
  5
A210
330
9FFC
100
AcDbEntity
  8
1
  6
Continuous
100
AcDbCircle
 10
262.3619749999999
 20
156.994087
 30
0.0
 40
12.165422
100
AcDbArc
 50
356.7297679999999
 51
4.554966
  0
LINE
  5
A211
330
9FFC
100
AcDbEntity
  8
1
  6
Continuous
100
AcDbLine
 10
280.8379319999999
 20
170.9210929999999
 30
0.0
 11
302.777242
 21
170.9210929999999
 31
0.0
  0
CIRCLE
  5
A212
330
9FFC
100
AcDbEntity
  8
1
  6
Continuous
100
AcDbCircle
 10
310.807587
 20
133.9210919999999
 30
0.0
 40
4.25
  0
LINE
  5
A213
330
9FFC
100
AcDbEntity
  8
2
  6
Continuous
100
AcDbLine
 10
40.85734699999997
 20
185.5976779999998
 30
0.0
 11
40.85734699999997
 21
172.09291
 31
0.0
  0
LINE
  5
A214
330
9FFC
100
AcDbEntity
  8
2
  6
Continuous
100
AcDbLine
 10
51.50434699999999
 20
185.5976779999998
 30
0.0
 11
51.50434699999999
 21
172.09291
 31
0.0
  0
LINE
  5
A215
330
9FFC
100
AcDbEntity
  8
2
  6
Continuous
100
AcDbLine
 10
51.50434699999999
 20
172.09291
 30
0.0
 11
52.180847
 21
170.9211779999999
 31
0.0
  0
LINE
  5
A216
330
9FFC
100
AcDbEntity
  8
2
  6
Continuous
100
AcDbLine
 10
40.85734699999997
 20
172.09291
 30
0.0
 11
40.180847
 21
170.9211779999999
 31
0.0
  0
LINE
  5
A217
330
9FFC
100
AcDbEntity
  8
1
  6
Continuous
100
AcDbLine
 10
40.180847
 20
172.09291
 30
0.0
 11
52.180847
 21
172.09291
 31
0.0
  0
LINE
  5
A218
330
9FFC
100
AcDbEntity
  8
2
  6
Continuous
100
AcDbLine
 10
137.0662609999999
 20
185.5975929999999
 30
0.0
 11
137.0662609999999
 21
172.092825
 31
0.0
  0
LINE
  5
A219
330
9FFC
100
AcDbEntity
  8
2
  6
Continuous
100
AcDbLine
 10
147.7132609999999
 20
185.5975929999999
 30
0.0
 11
147.7132609999999
 21
172.092825
 31
0.0
  0
LINE
  5
A21A
330
9FFC
100
AcDbEntity
  8
1
  6
Continuous
100
AcDbLine
 10
136.3897609999999
 20
170.9210929999999
 30
0.0
 11
136.3897609999999
 21
184.9210929999999
 31
0.0
  0
LINE
  5
A21B
330
9FFC
100
AcDbEntity
  8
1
  6
Continuous
100
AcDbLine
 10
148.3897609999999
 20
170.9210929999999
 30
0.0
 11
148.3897609999999
 21
184.9210929999999
 31
0.0
  0
LINE
  5
A21C
330
9FFC
100
AcDbEntity
  8
1
  6
Continuous
100
AcDbLine
 10
136.3897609999999
 20
172.092825
 30
0.0
 11
148.3897609999999
 21
172.092825
 31
0.0
  0
LINE
  5
A21D
330
9FFC
100
AcDbEntity
  8
2
  6
Continuous
100
AcDbLine
 10
137.0662609999999
 20
172.092825
 30
0.0
 11
136.3897609999999
 21
170.9210929999999
 31
0.0
  0
LINE
  5
A21E
330
9FFC
100
AcDbEntity
  8
2
  6
Continuous
100
AcDbLine
 10
147.7132609999999
 20
172.092825
 30
0.0
 11
148.3897609999999
 21
170.9210929999999
 31
0.0
  0
LINE
  5
A21F
330
9FFC
100
AcDbEntity
  8
1
  6
Continuous
100
AcDbLine
 10
137.3897609999999
 20
185.9210929999999
 30
0.0
 11
147.3897609999999
 21
185.9210929999999
 31
0.0
  0
LINE
  5
A220
330
9FFC
100
AcDbEntity
  8
1
  6
Continuous
100
AcDbLine
 10
136.3897609999999
 20
184.9210929999999
 30
0.0
 11
148.3897609999999
 21
184.9210929999999
 31
0.0
  0
LINE
  5
A221
330
9FFC
100
AcDbEntity
  8
1
  6
Continuous
100
AcDbLine
 10
137.3897609999999
 20
185.9210929999999
 30
0.0
 11
136.3897609999999
 21
184.9210929999999
 31
0.0
  0
LINE
  5
A222
330
9FFC
100
AcDbEntity
  8
1
  6
Continuous
100
AcDbLine
 10
147.3897609999999
 20
185.9210929999999
 30
0.0
 11
148.3897609999999
 21
184.9210929999999
 31
0.0
  0
LINE
  5
A223
330
9FFC
100
AcDbEntity
  8
1
  6
Continuous
100
AcDbLine
 10
223.098674
 20
170.9211779999999
 30
0.0
 11
223.098674
 21
184.921178
 31
0.0
  0
LINE
  5
A224
330
9FFC
100
AcDbEntity
  8
1
  6
Continuous
100
AcDbLine
 10
211.0986739999999
 20
170.9211779999999
 30
0.0
 11
211.0986739999999
 21
184.921178
 31
0.0
  0
LINE
  5
A225
330
9FFC
100
AcDbEntity
  8
2
  6
Continuous
100
AcDbLine
 10
222.422174
 20
185.5976779999998
 30
0.0
 11
222.422174
 21
172.09291
 31
0.0
  0
LINE
  5
A226
330
9FFC
100
AcDbEntity
  8
2
  6
Continuous
100
AcDbLine
 10
211.775174
 20
185.5976779999998
 30
0.0
 11
211.775174
 21
172.09291
 31
0.0
  0
LINE
  5
A227
330
9FFC
100
AcDbEntity
  8
1
  6
Continuous
100
AcDbLine
 10
211.0986739999999
 20
172.09291
 30
0.0
 11
223.098674
 21
172.09291
 31
0.0
  0
LINE
  5
A228
330
9FFC
100
AcDbEntity
  8
2
  6
Continuous
100
AcDbLine
 10
211.775174
 20
172.09291
 30
0.0
 11
211.0986739999999
 21
170.9211779999999
 31
0.0
  0
LINE
  5
A229
330
9FFC
100
AcDbEntity
  8
2
  6
Continuous
100
AcDbLine
 10
222.422174
 20
172.09291
 30
0.0
 11
223.098674
 21
170.9211779999999
 31
0.0
  0
LINE
  5
A22A
330
9FFC
100
AcDbEntity
  8
1
  6
Continuous
100
AcDbLine
 10
211.0986739999999
 20
184.921178
 30
0.0
 11
223.098674
 21
184.921178
 31
0.0
  0
LINE
  5
A22B
330
9FFC
100
AcDbEntity
  8
1
  6
Continuous
100
AcDbLine
 10
212.0986739999999
 20
185.921178
 30
0.0
 11
222.0986739999999
 21
185.921178
 31
0.0
  0
LINE
  5
A22C
330
9FFC
100
AcDbEntity
  8
1
  6
Continuous
100
AcDbLine
 10
212.0986739999999
 20
185.921178
 30
0.0
 11
211.0986739999999
 21
184.921178
 31
0.0
  0
LINE
  5
A22D
330
9FFC
100
AcDbEntity
  8
1
  6
Continuous
100
AcDbLine
 10
222.0986739999999
 20
185.921178
 30
0.0
 11
223.098674
 21
184.921178
 31
0.0
  0
LINE
  5
A22E
330
9FFC
100
AcDbEntity
  8
2
  6
Continuous
100
AcDbLine
 10
286.484087
 20
185.5975929999999
 30
0.0
 11
286.484087
 21
172.092825
 31
0.0
  0
LINE
  5
A22F
330
9FFC
100
AcDbEntity
  8
2
  6
Continuous
100
AcDbLine
 10
297.1310869999999
 20
185.5975929999999
 30
0.0
 11
297.1310869999999
 21
172.092825
 31
0.0
  0
LINE
  5
A230
330
9FFC
100
AcDbEntity
  8
1
  6
Continuous
100
AcDbLine
 10
285.807587
 20
170.9210929999999
 30
0.0
 11
285.807587
 21
184.9210929999999
 31
0.0
  0
LINE
  5
A231
330
9FFC
100
AcDbEntity
  8
1
  6
Continuous
100
AcDbLine
 10
297.8075869999999
 20
170.9210929999999
 30
0.0
 11
297.8075869999999
 21
184.9210929999999
 31
0.0
  0
LINE
  5
A232
330
9FFC
100
AcDbEntity
  8
2
  6
Continuous
100
AcDbLine
 10
297.1310869999999
 20
172.092825
 30
0.0
 11
297.8075869999999
 21
170.9210929999999
 31
0.0
  0
LINE
  5
A233
330
9FFC
100
AcDbEntity
  8
2
  6
Continuous
100
AcDbLine
 10
286.484087
 20
172.092825
 30
0.0
 11
285.807587
 21
170.9210929999999
 31
0.0
  0
LINE
  5
A234
330
9FFC
100
AcDbEntity
  8
1
  6
Continuous
100
AcDbLine
 10
285.807587
 20
172.092825
 30
0.0
 11
297.8075869999999
 21
172.092825
 31
0.0
  0
LINE
  5
A235
330
9FFC
100
AcDbEntity
  8
1
  6
Continuous
100
AcDbLine
 10
296.807587
 20
185.9210929999999
 30
0.0
 11
297.8075869999999
 21
184.9210929999999
 31
0.0
  0
LINE
  5
A236
330
9FFC
100
AcDbEntity
  8
1
  6
Continuous
100
AcDbLine
 10
286.807587
 20
185.9210929999999
 30
0.0
 11
285.807587
 21
184.9210929999999
 31
0.0
  0
LINE
  5
A237
330
9FFC
100
AcDbEntity
  8
1
  6
Continuous
100
AcDbLine
 10
286.807587
 20
185.9210929999999
 30
0.0
 11
296.807587
 21
185.9210929999999
 31
0.0
  0
LINE
  5
A238
330
9FFC
100
AcDbEntity
  8
1
  6
Continuous
100
AcDbLine
 10
285.807587
 20
184.9210929999999
 30
0.0
 11
297.8075869999999
 21
184.9210929999999
 31
0.0
  0
CIRCLE
  5
A239
330
9FFC
100
AcDbEntity
  8
2
  6
Continuous
100
AcDbCircle
 10
142.389761
 20
243.275991
 30
0.0
 40
5.3235
  0
ENDSEC
  0
SECTION
  2
OBJECTS
  0
DICTIONARY
  5
9FEA
330
0
100
AcDbDictionary
281
     1
  3
ACAD_CIP_PREVIOUS_PRODUCT_INFO
350
A29B
  3
ACAD_COLOR
350
A27D
  3
ACAD_DETAILVIEWSTYLE
350
A296
  3
ACAD_GROUP
350
9FEB
  3
ACAD_LAYOUT
350
9FF7
  3
ACAD_MATERIAL
350
A24B
  3
ACAD_MLEADERSTYLE
350
A292
  3
ACAD_MLINESTYLE
350
9FF4
  3
ACAD_PLOTSETTINGS
350
9FF6
  3
ACAD_PLOTSTYLENAME
350
A249
  3
ACAD_SCALELIST
350
A280
  3
ACAD_SECTIONVIEWSTYLE
350
A294
  3
ACAD_TABLESTYLE
350
A27E
  3
ACAD_VISUALSTYLE
350
A264
  3
ACDB_RECOMPOSE_DATA
350
A2B9
  3
AcDbVariableDictionary
350
A2AC
  3
DWGPROPS
350
A2BA
  0
DICTIONARY
  5
A29C
330
9FEE
100
AcDbDictionary
280
     1
281
     1
  3
ADSK_XREC_LAYER_RECONCILED
360
A29D
  0
DICTIONARY
  5
A29E
330
A004
100
AcDbDictionary
280
     1
281
     1
  3
ADSK_XREC_LAYER_RECONCILED
360
A29F
  0
DICTIONARY
  5
A2A0
330
A005
100
AcDbDictionary
280
     1
281
     1
  3
ADSK_XREC_LAYER_RECONCILED
360
A2A1
  0
DICTIONARY
  5
A2A2
330
A006
100
AcDbDictionary
280
     1
281
     1
  3
ADSK_XREC_LAYER_RECONCILED
360
A2A3
  0
DICTIONARY
  5
A2A4
330
A007
100
AcDbDictionary
280
     1
281
     1
  3
ADSK_XREC_LAYER_RECONCILED
360
A2A5
  0
DICTIONARY
  5
A2A6
330
A008
100
AcDbDictionary
280
     1
281
     1
  3
ADSK_XREC_LAYER_RECONCILED
360
A2A7
  0
DICTIONARY
  5
A2A8
330
A009
100
AcDbDictionary
280
     1
281
     1
  3
ADSK_XREC_LAYER_RECONCILED
360
A2A9
  0
DICTIONARY
  5
A2AA
330
A00A
100
AcDbDictionary
280
     1
281
     1
  3
ADSK_XREC_LAYER_RECONCILED
360
A2AB
  0
DICTIONARY
  5
A244
330
9FFC
100
AcDbDictionary
281
     1
  3
ACAD_LAYOUTSELFREF
350
A245
  0
DICTIONARY
  5
A242
330
9FF8
100
AcDbDictionary
281
     1
  3
ACAD_LAYOUTSELFREF
350
A243
  0
XRECORD
  5
A29B
102
{ACAD_REACTORS
330
9FEA
102
}
330
9FEA
100
AcDbXrecord
280
     1
300
ACDLT
300
2014
300
ACDLT_F_S
  0
DICTIONARY
  5
A27D
102
{ACAD_REACTORS
330
9FEA
102
}
330
9FEA
100
AcDbDictionary
281
     1
  0
DICTIONARY
  5
A296
102
{ACAD_REACTORS
330
9FEA
102
}
330
9FEA
100
AcDbDictionary
281
     1
  3
Imperial24
350
A297
  0
DICTIONARY
  5
9FEB
102
{ACAD_REACTORS
330
9FEA
102
}
330
9FEA
100
AcDbDictionary
281
     1
  0
DICTIONARY
  5
9FF7
102
{ACAD_REACTORS
330
9FEA
102
}
330
9FEA
100
AcDbDictionary
281
     1
  3
Model
350
A298
  3
レイアウト1
350
A299
  0
DICTIONARY
  5
A24B
102
{ACAD_REACTORS
330
9FEA
102
}
330
9FEA
100
AcDbDictionary
281
     1
  3
ByBlock
350
A254
  3
ByLayer
350
A24C
  3
Global
350
A25C
  0
DICTIONARY
  5
A292
102
{ACAD_REACTORS
330
9FEA
102
}
330
9FEA
100
AcDbDictionary
281
     1
  3
Standard
350
A293
  0
DICTIONARY
  5
9FF4
102
{ACAD_REACTORS
330
9FEA
102
}
330
9FEA
100
AcDbDictionary
281
     1
  3
STANDARD
350
9FF5
  0
DICTIONARY
  5
9FF6
102
{ACAD_REACTORS
330
9FEA
102
}
330
9FEA
100
AcDbDictionary
281
     1
  0
ACDBDICTIONARYWDFLT
  5
A249
102
{ACAD_REACTORS
330
9FEA
102
}
330
9FEA
100
AcDbDictionary
281
     1
  3
Normal
350
A24A
100
AcDbDictionaryWithDefault
340
A24A
  0
DICTIONARY
  5
A280
102
{ACAD_REACTORS
330
9FEA
102
}
330
9FEA
100
AcDbDictionary
281
     1
  3
A0
350
A281
  3
A1
350
A282
  3
A2
350
A283
  3
A3
350
A284
  3
A4
350
A285
  3
A5
350
A286
  3
A6
350
A287
  3
A7
350
A288
  3
A8
350
A289
  3
A9
350
A28A
  3
B0
350
A28B
  3
B1
350
A28C
  3
B2
350
A28D
  3
B3
350
A28E
  3
B4
350
A28F
  3
B5
350
A290
  3
B6
350
A291
  0
DICTIONARY
  5
A294
102
{ACAD_REACTORS
330
9FEA
102
}
330
9FEA
100
AcDbDictionary
281
     1
  3
Imperial24
350
A295
  0
DICTIONARY
  5
A27E
102
{ACAD_REACTORS
330
9FEA
102
}
330
9FEA
100
AcDbDictionary
281
     1
  3
Standard
350
A27F
  0
DICTIONARY
  5
A264
102
{ACAD_REACTORS
330
9FEA
102
}
330
9FEA
100
AcDbDictionary
281
     1
  3
2dWireframe
350
A26A
  3
Basic
350
A269
  3
Brighten
350
A270
  3
ColorChange
350
A274
  3
Conceptual
350
A26D
  3
Dim
350
A26F
  3
EdgeColorOff
350
A27C
  3
Facepattern
350
A273
  3
Flat
350
A265
  3
FlatWithEdges
350
A266
  3
Gouraud
350
A267
  3
GouraudWithEdges
350
A268
  3
Hidden
350
A26C
  3
JitterOff
350
A27A
  3
Linepattern
350
A272
  3
OverhangOff
350
A27B
  3
Realistic
350
A26E
  3
Shaded
350
A279
  3
Shaded with edges
350
A278
  3
Shades of Gray
350
A275
  3
Sketchy
350
A276
  3
Thicken
350
A271
  3
Wireframe
350
A26B
  3
X-Ray
350
A277
  0
XRECORD
  5
A2B9
102
{ACAD_REACTORS
330
9FEA
102
}
330
9FEA
100
AcDbXrecord
280
     1
 90
        1
330
A27F
  0
DICTIONARY
  5
A2AC
102
{ACAD_REACTORS
330
9FEA
102
}
330
9FEA
100
AcDbDictionary
281
     1
  3
CANNOSCALE
350
A2B1
  3
CMLEADERSTYLE
350
A2AE
  3
CTABLESTYLE
350
A2AD
  3
CVIEWDETAILSTYLE
350
A2AF
  3
CVIEWSECTIONSTYLE
350
A2B0
  3
DIMASSOC
350
A2B4
  3
INDEXCTL
350
A2B3
  3
SORTENTS
350
A2B2
  3
XCLIPFRAME
350
A2B5
  0
XRECORD
  5
A2BA
102
{ACAD_REACTORS
330
9FEA
102
}
330
9FEA
100
AcDbXrecord
280
     1
  1
DWGPROPS COOKIE
  2

  3

  4

  6

  7

  8
Yoshitsune
  9

300
=
301
=
302
=
303
=
304
=
305
=
306
=
307
=
308
=
309
=
 40
0.0000091782407407
 41
2451301.639540509
 42
2457192.687859861
  1

 90
        0
  0
XRECORD
  5
A29D
102
{ACAD_REACTORS
330
A29C
102
}
330
A29C
100
AcDbXrecord
280
     1
290
     1
  0
XRECORD
  5
A29F
102
{ACAD_REACTORS
330
A29E
102
}
330
A29E
100
AcDbXrecord
280
     1
290
     1
  0
XRECORD
  5
A2A1
102
{ACAD_REACTORS
330
A2A0
102
}
330
A2A0
100
AcDbXrecord
280
     1
290
     1
  0
XRECORD
  5
A2A3
102
{ACAD_REACTORS
330
A2A2
102
}
330
A2A2
100
AcDbXrecord
280
     1
290
     1
  0
XRECORD
  5
A2A5
102
{ACAD_REACTORS
330
A2A4
102
}
330
A2A4
100
AcDbXrecord
280
     1
290
     1
  0
XRECORD
  5
A2A7
102
{ACAD_REACTORS
330
A2A6
102
}
330
A2A6
100
AcDbXrecord
280
     1
290
     1
  0
XRECORD
  5
A2A9
102
{ACAD_REACTORS
330
A2A8
102
}
330
A2A8
100
AcDbXrecord
280
     1
290
     1
  0
XRECORD
  5
A2AB
102
{ACAD_REACTORS
330
A2AA
102
}
330
A2AA
100
AcDbXrecord
280
     1
290
     1
  0
XRECORD
  5
A245
102
{ACAD_REACTORS
330
A244
102
}
330
A244
100
AcDbXrecord
280
     1
340
9FFC
  0
XRECORD
  5
A243
102
{ACAD_REACTORS
330
A242
102
}
330
A242
100
AcDbXrecord
280
     1
340
9FF8
  0
ACDBDETAILVIEWSTYLE
  5
A297
102
{ACAD_XDICTIONARY
360
A2F2
102
}
102
{ACAD_REACTORS
330
A296
102
}
330
A296
100
AcDbModelDocViewStyle
 70
     0
  3
Imperial24
290
     0
100
AcDbDetailViewStyle
 70
     0
 71
     0
 90
        3
 71
     1
340
9FEF
 40
0.24
340
0
 40
0.24
300

 40
0.36
280
     3
 71
     2
340
9FF3
 90
       25
 71
     3
340
9FEF
 40
0.24
 90
        1
 40
0.75
 90
        1
300
%<\AcVar ViewType \f "%tc1">% %<\AcVar ViewDetailId>%\PSCALE %<\AcVar ViewScale \f "%sn">%
 71
     4
340
9FF3
 90
       25
340
9FF3
 90
       25
280
     0
  0
LAYOUT
  5
A298
102
{ACAD_XDICTIONARY
360
A2F4
102
}
102
{ACAD_REACTORS
330
9FF7
102
}
330
9FF7
100
AcDbPlotSettings
  1

  2
Canon LBP9100C
  4

  6

 40
0.0
 41
0.0
 42
0.0
 43
0.0
 44
0.0
 45
0.0
 46
0.0
 47
0.0
 48
0.0
 49
0.0
140
0.0
141
0.0
142
1.0
143
1.0
 70
  1712
 72
     0
 73
     0
 74
     0
  7

 75
     0
147
1.0
148
0.0
149
0.0
100
AcDbLayout
  1
Model
 70
     1
 71
     0
 10
0.0
 20
0.0
 11
12.0
 21
9.0
 12
0.0
 22
0.0
 32
0.0
 14
0.0
 24
0.0
 34
0.0
 15
0.0
 25
0.0
 35
0.0
146
0.0
 13
0.0
 23
0.0
 33
0.0
 16
1.0
 26
0.0
 36
0.0
 17
0.0
 27
1.0
 37
0.0
 76
     0
330
9FFC
331
A241
  0
LAYOUT
  5
A299
102
{ACAD_XDICTIONARY
360
A2F6
102
}
102
{ACAD_REACTORS
330
9FF7
102
}
330
9FF7
100
AcDbPlotSettings
  1

  2
Canon LBP9100C
  4

  6

 40
0.0
 41
0.0
 42
0.0
 43
0.0
 44
0.0
 45
0.0
 46
0.0
 47
0.0
 48
0.0
 49
0.0
140
0.0
141
0.0
142
1.0
143
1.0
 70
   688
 72
     0
 73
     0
 74
     5
  7

 75
    16
147
1.0
148
0.0
149
0.0
100
AcDbLayout
  1
レイアウト1
 70
     0
 71
     1
 10
0.0
 20
0.0
 11
420.0
 21
297.0
 12
0.0
 22
0.0
 32
0.0
 14
1.000000000000000E+20
 24
1.000000000000000E+20
 34
1.000000000000000E+20
 15
-1.000000000000000E+20
 25
-1.000000000000000E+20
 35
-1.000000000000000E+20
146
0.0
 13
0.0
 23
0.0
 33
0.0
 16
1.0
 26
0.0
 36
0.0
 17
0.0
 27
1.0
 37
0.0
 76
     0
330
9FF8
  0
MATERIAL
  5
A254
102
{ACAD_XDICTIONARY
360
A255
102
}
102
{ACAD_REACTORS
330
A24B
102
}
330
A24B
100
AcDbMaterial
  1
ByBlock
 72
     0
 43
0.0208333333333333
 43
0.0
 43
0.0
 43
0.0
 43
0.0
 43
0.0208333333333333
 43
0.0
 43
0.0
 43
0.0
 43
0.0
 43
1.0
 43
0.0
 43
0.0
 43
0.0
 43
0.0
 43
1.0
 77
     0
 47
0.0208333333333333
 47
0.0
 47
0.0
 47
0.0
 47
0.0
 47
0.0208333333333333
 47
0.0
 47
0.0
 47
0.0
 47
0.0
 47
1.0
 47
0.0
 47
0.0
 47
0.0
 47
0.0
 47
1.0
171
     0
 49
0.0208333333333333
 49
0.0
 49
0.0
 49
0.0
 49
0.0
 49
0.0208333333333333
 49
0.0
 49
0.0
 49
0.0
 49
0.0
 49
1.0
 49
0.0
 49
0.0
 49
0.0
 49
0.0
 49
1.0
175
     0
142
0.0208333333333333
142
0.0
142
0.0
142
0.0
142
0.0
142
0.0208333333333333
142
0.0
142
0.0
142
0.0
142
0.0
142
1.0
142
0.0
142
0.0
142
0.0
142
0.0
142
1.0
179
     0
144
0.0208333333333333
144
0.0
144
0.0
144
0.0
144
0.0
144
0.0208333333333333
144
0.0
144
0.0
144
0.0
144
0.0
144
1.0
144
0.0
144
0.0
144
0.0
144
0.0
144
1.0
147
0.0208333333333333
147
0.0
147
0.0
147
0.0
147
0.0
147
0.0208333333333333
147
0.0
147
0.0
147
0.0
147
0.0
147
1.0
147
0.0
147
0.0
147
0.0
147
0.0
147
1.0
  0
MATERIAL
  5
A24C
102
{ACAD_XDICTIONARY
360
A24D
102
}
102
{ACAD_REACTORS
330
A24B
102
}
330
A24B
100
AcDbMaterial
  1
ByLayer
 72
     0
 43
0.0208333333333333
 43
0.0
 43
0.0
 43
0.0
 43
0.0
 43
0.0208333333333333
 43
0.0
 43
0.0
 43
0.0
 43
0.0
 43
1.0
 43
0.0
 43
0.0
 43
0.0
 43
0.0
 43
1.0
 77
     0
 47
0.0208333333333333
 47
0.0
 47
0.0
 47
0.0
 47
0.0
 47
0.0208333333333333
 47
0.0
 47
0.0
 47
0.0
 47
0.0
 47
1.0
 47
0.0
 47
0.0
 47
0.0
 47
0.0
 47
1.0
171
     0
 49
0.0208333333333333
 49
0.0
 49
0.0
 49
0.0
 49
0.0
 49
0.0208333333333333
 49
0.0
 49
0.0
 49
0.0
 49
0.0
 49
1.0
 49
0.0
 49
0.0
 49
0.0
 49
0.0
 49
1.0
175
     0
142
0.0208333333333333
142
0.0
142
0.0
142
0.0
142
0.0
142
0.0208333333333333
142
0.0
142
0.0
142
0.0
142
0.0
142
1.0
142
0.0
142
0.0
142
0.0
142
0.0
142
1.0
179
     0
144
0.0208333333333333
144
0.0
144
0.0
144
0.0
144
0.0
144
0.0208333333333333
144
0.0
144
0.0
144
0.0
144
0.0
144
1.0
144
0.0
144
0.0
144
0.0
144
0.0
144
1.0
147
0.0208333333333333
147
0.0
147
0.0
147
0.0
147
0.0
147
0.0208333333333333
147
0.0
147
0.0
147
0.0
147
0.0
147
1.0
147
0.0
147
0.0
147
0.0
147
0.0
147
1.0
  0
MATERIAL
  5
A25C
102
{ACAD_XDICTIONARY
360
A25D
102
}
102
{ACAD_REACTORS
330
A24B
102
}
330
A24B
100
AcDbMaterial
  1
Global
 72
     0
 43
0.0208333333333333
 43
0.0
 43
0.0
 43
0.0
 43
0.0
 43
0.0208333333333333
 43
0.0
 43
0.0
 43
0.0
 43
0.0
 43
1.0
 43
0.0
 43
0.0
 43
0.0
 43
0.0
 43
1.0
 77
     0
 47
0.0208333333333333
 47
0.0
 47
0.0
 47
0.0
 47
0.0
 47
0.0208333333333333
 47
0.0
 47
0.0
 47
0.0
 47
0.0
 47
1.0
 47
0.0
 47
0.0
 47
0.0
 47
0.0
 47
1.0
171
     0
 49
0.0208333333333333
 49
0.0
 49
0.0
 49
0.0
 49
0.0
 49
0.0208333333333333
 49
0.0
 49
0.0
 49
0.0
 49
0.0
 49
1.0
 49
0.0
 49
0.0
 49
0.0
 49
0.0
 49
1.0
175
     0
142
0.0208333333333333
142
0.0
142
0.0
142
0.0
142
0.0
142
0.0208333333333333
142
0.0
142
0.0
142
0.0
142
0.0
142
1.0
142
0.0
142
0.0
142
0.0
142
0.0
142
1.0
179
     0
144
0.0208333333333333
144
0.0
144
0.0
144
0.0
144
0.0
144
0.0208333333333333
144
0.0
144
0.0
144
0.0
144
0.0
144
1.0
144
0.0
144
0.0
144
0.0
144
0.0
144
1.0
147
0.0208333333333333
147
0.0
147
0.0
147
0.0
147
0.0
147
0.0208333333333333
147
0.0
147
0.0
147
0.0
147
0.0
147
1.0
147
0.0
147
0.0
147
0.0
147
0.0
147
1.0
  0
MLEADERSTYLE
  5
A293
102
{ACAD_REACTORS
330
A292
102
}
330
A292
100
AcDbMLeaderStyle
170
     2
171
     1
172
     0
 90
        2
 40
0.0
 41
0.0
173
     1
 91
-1056964608
340
9FF1
 92
       -2
290
     1
 42
0.09
291
     1
 43
0.36
  3
Standard
 44
0.18
300

342
9FEF
174
     1
178
     6
175
     1
176
     0
 93
-1056964608
 45
0.18
292
     0
297
     0
 46
0.18
 94
-1056964608
 47
1.0
 49
1.0
140
1.0
293
     1
141
0.0
294
     1
177
     0
142
1.0
295
     0
296
     0
143
0.125
1001
ACAD_MLEADERVER
1070
     2
  0
MLINESTYLE
  5
9FF5
102
{ACAD_REACTORS
330
9FF4
102
}
330
9FF4
100
AcDbMlineStyle
  2
STANDARD
 70
     0
  3

 62
   256
 51
90.0
 52
90.0
 71
     2
 49
0.5
 62
   256
  6
BYLAYER
 49
-0.5
 62
   256
  6
BYLAYER
  0
ACDBPLACEHOLDER
  5
A24A
102
{ACAD_REACTORS
330
A249
102
}
330
A249
  0
SCALE
  5
A281
102
{ACAD_REACTORS
330
A280
102
}
330
A280
100
AcDbScale
 70
     0
300
1:1
140
1.0
141
1.0
290
     1
  0
SCALE
  5
A282
102
{ACAD_REACTORS
330
A280
102
}
330
A280
100
AcDbScale
 70
     0
300
1/128" = 1'-0"
140
0.0078125
141
12.0
290
     0
  0
SCALE
  5
A283
102
{ACAD_REACTORS
330
A280
102
}
330
A280
100
AcDbScale
 70
     0
300
1/64" = 1'-0"
140
0.015625
141
12.0
290
     0
  0
SCALE
  5
A284
102
{ACAD_REACTORS
330
A280
102
}
330
A280
100
AcDbScale
 70
     0
300
1/32" = 1'-0"
140
0.03125
141
12.0
290
     0
  0
SCALE
  5
A285
102
{ACAD_REACTORS
330
A280
102
}
330
A280
100
AcDbScale
 70
     0
300
1/16" = 1'-0"
140
0.0625
141
12.0
290
     0
  0
SCALE
  5
A286
102
{ACAD_REACTORS
330
A280
102
}
330
A280
100
AcDbScale
 70
     0
300
3/32" = 1'-0"
140
0.09375
141
12.0
290
     0
  0
SCALE
  5
A287
102
{ACAD_REACTORS
330
A280
102
}
330
A280
100
AcDbScale
 70
     0
300
1/8" = 1'-0"
140
0.125
141
12.0
290
     0
  0
SCALE
  5
A288
102
{ACAD_REACTORS
330
A280
102
}
330
A280
100
AcDbScale
 70
     0
300
3/16" = 1'-0"
140
0.1875
141
12.0
290
     0
  0
SCALE
  5
A289
102
{ACAD_REACTORS
330
A280
102
}
330
A280
100
AcDbScale
 70
     0
300
1/4" = 1'-0"
140
0.25
141
12.0
290
     0
  0
SCALE
  5
A28A
102
{ACAD_REACTORS
330
A280
102
}
330
A280
100
AcDbScale
 70
     0
300
3/8" = 1'-0"
140
0.375
141
12.0
290
     0
  0
SCALE
  5
A28B
102
{ACAD_REACTORS
330
A280
102
}
330
A280
100
AcDbScale
 70
     0
300
1/2" = 1'-0"
140
0.5
141
12.0
290
     0
  0
SCALE
  5
A28C
102
{ACAD_REACTORS
330
A280
102
}
330
A280
100
AcDbScale
 70
     0
300
3/4" = 1'-0"
140
0.75
141
12.0
290
     0
  0
SCALE
  5
A28D
102
{ACAD_REACTORS
330
A280
102
}
330
A280
100
AcDbScale
 70
     0
300
1" = 1'-0"
140
1.0
141
12.0
290
     0
  0
SCALE
  5
A28E
102
{ACAD_REACTORS
330
A280
102
}
330
A280
100
AcDbScale
 70
     0
300
1-1/2" = 1'-0"
140
1.5
141
12.0
290
     0
  0
SCALE
  5
A28F
102
{ACAD_REACTORS
330
A280
102
}
330
A280
100
AcDbScale
 70
     0
300
3" = 1'-0"
140
3.0
141
12.0
290
     0
  0
SCALE
  5
A290
102
{ACAD_REACTORS
330
A280
102
}
330
A280
100
AcDbScale
 70
     0
300
6" = 1'-0"
140
6.0
141
12.0
290
     0
  0
SCALE
  5
A291
102
{ACAD_REACTORS
330
A280
102
}
330
A280
100
AcDbScale
 70
     0
300
1'-0" = 1'-0"
140
12.0
141
12.0
290
     0
  0
ACDBSECTIONVIEWSTYLE
  5
A295
102
{ACAD_XDICTIONARY
360
A2F0
102
}
102
{ACAD_REACTORS
330
A294
102
}
330
A294
100
AcDbModelDocViewStyle
 70
     0
  3
Imperial24
290
     0
100
AcDbSectionViewStyle
 70
     0
 71
     0
 90
       78
 71
     1
340
9FEF
 40
0.24
340
0
340
0
 40
0.24
300
I, O, Q, S, X, Z
 40
0.48
 90
        3
 40
0.18
 90
        1
 71
     2
340
9FF3
 90
       25
340
9FF3
 90
       50
 40
0.24
 40
0.0
 40
0.24
 71
     3
340
9FEF
 40
0.24
 90
        1
 40
0.75
 90
        1
300
%<\AcVar ViewType \f "%tc1">% %<\AcVar ViewSectionStartId>%-%<\AcVar ViewSectionEndId>%\PSCALE %<\AcVar ViewScale \f "%sn">%
 71
     4
300
ANSI31
 40
1.0
 90
        0
290
     0
290
     0
 90
        6
 40
0.0
 40
1.570796326794896
 40
0.2617993877991494
 40
1.308996938995747
 40
-0.2617993877991494
 40
1.832595714594046
  0
TABLESTYLE
  5
A27F
102
{ACAD_XDICTIONARY
360
A2B7
102
}
102
{ACAD_REACTORS
330
A27E
102
}
330
A27E
100
AcDbTableStyle
  3
Standard
 70
     0
 71
     0
 40
0.06
 41
0.06
280
     0
281
     0
  7
STANDARD
140
0.18
170
     2
 62
     0
 63
     7
283
     0
274
    -2
284
     1
 64
     0
275
    -2
285
     1
 65
     0
276
    -2
286
     1
 66
     0
277
    -2
287
     1
 67
     0
278
    -2
288
     1
 68
     0
279
    -2
289
     1
 69
     0
  7
STANDARD
140
0.25
170
     5
 62
     0
 63
     7
283
     0
274
    -2
284
     1
 64
     0
275
    -2
285
     1
 65
     0
276
    -2
286
     1
 66
     0
277
    -2
287
     1
 67
     0
278
    -2
288
     1
 68
     0
279
    -2
289
     1
 69
     0
  7
STANDARD
140
0.18
170
     5
 62
     0
 63
     7
283
     0
274
    -2
284
     1
 64
     0
275
    -2
285
     1
 65
     0
276
    -2
286
     1
 66
     0
277
    -2
287
     1
 67
     0
278
    -2
288
     1
 68
     0
279
    -2
289
     1
 69
     0
  0
VISUALSTYLE
  5
A26A
102
{ACAD_XDICTIONARY
360
A2C8
102
}
102
{ACAD_REACTORS
330
A264
102
}
330
A264
100
AcDbVisualStyle
  2
2dWireframe
 70
     4
 71
     0
 72
     2
 73
     0
 90
        0
 40
-0.6
 41
-30.0
 62
     5
 63
     7
 74
     1
 91
        4
 64
     7
 65
   257
 75
     1
175
     1
 42
1.0
 92
        0
 66
   257
 43
1.0
 76
     1
 77
     6
 78
     2
 67
     7
 79
     5
170
     0
171
     0
290
     0
174
     0
 93
        1
 44
0.0
173
     0
291
     0
 45
0.0
1001
ACAD
1000
AcDbSavedByObjectVersion
1070
     0
  0
VISUALSTYLE
  5
A269
102
{ACAD_XDICTIONARY
360
A2C6
102
}
102
{ACAD_REACTORS
330
A264
102
}
330
A264
100
AcDbVisualStyle
  2
Basic
 70
     7
 71
     1
 72
     0
 73
     1
 90
        0
 40
-0.6
 41
-30.0
 62
     5
 63
     7
 74
     0
 91
        4
 64
     7
 65
   257
 75
     1
175
     1
 42
1.0
 92
        8
 66
     7
 43
1.0
 76
     1
 77
     6
 78
     2
 67
     7
 79
     5
170
     0
171
     0
290
     0
174
     0
 93
        1
 44
0.0
173
     0
291
     1
 45
0.0
1001
ACAD
1000
AcDbSavedByObjectVersion
1070
     0
  0
VISUALSTYLE
  5
A270
102
{ACAD_XDICTIONARY
360
A2D4
102
}
102
{ACAD_REACTORS
330
A264
102
}
330
A264
100
AcDbVisualStyle
  2
Brighten
 70
    12
 71
     2
 72
     2
 73
     0
 90
        0
 40
-0.6
 41
-30.0
 62
     5
 63
     7
 74
     1
 91
        4
 64
     7
 65
   257
 75
     1
175
     1
 42
1.0
 92
        8
 66
     7
 43
1.0
 76
     1
 77
     6
 78
     2
 67
     7
 79
     5
170
     0
171
     0
290
     0
174
     0
 93
        1
 44
50.0
173
     0
291
     1
 45
0.0
1001
ACAD
1000
AcDbSavedByObjectVersion
1070
     0
  0
VISUALSTYLE
  5
A274
102
{ACAD_XDICTIONARY
360
A2DC
102
}
102
{ACAD_REACTORS
330
A264
102
}
330
A264
100
AcDbVisualStyle
  2
ColorChange
 70
    16
 71
     2
 72
     2
 73
     3
 90
        0
 40
-0.6
 41
-30.0
 62
     5
 63
     8
 74
     1
 91
        4
 64
     7
 65
   257
 75
     1
175
     1
 42
1.0
 92
        8
 66
     8
 43
1.0
 76
     1
 77
     6
 78
     2
 67
     7
 79
     5
170
     0
171
     0
290
     0
174
     0
 93
        1
 44
0.0
173
     0
291
     1
 45
0.0
1001
ACAD
1000
AcDbSavedByObjectVersion
1070
     0
  0
VISUALSTYLE
  5
A26D
102
{ACAD_XDICTIONARY
360
A2CE
102
}
102
{ACAD_REACTORS
330
A264
102
}
330
A264
100
AcDbVisualStyle
  2
Conceptual
 70
     9
 71
     3
 72
     2
 73
     0
 90
        0
 40
-0.6
 41
-30.0
 62
     5
 63
     7
 74
     2
 91
        2
 64
     7
 65
   257
 75
     1
175
     1
 42
179.0
 92
        8
 66
     7
 43
1.0
 76
     1
 77
     6
 78
     2
 67
     7
 79
     3
170
     0
171
     0
290
     0
174
     0
 93
        1
 44
0.0
173
     0
291
     0
 45
0.0
1001
ACAD
1000
AcDbSavedByObjectVersion
1070
     0
  0
VISUALSTYLE
  5
A26F
102
{ACAD_XDICTIONARY
360
A2D2
102
}
102
{ACAD_REACTORS
330
A264
102
}
330
A264
100
AcDbVisualStyle
  2
Dim
 70
    11
 71
     2
 72
     2
 73
     0
 90
        0
 40
-0.6
 41
-30.0
 62
     5
 63
     7
 74
     1
 91
        4
 64
     7
 65
   257
 75
     1
175
     1
 42
1.0
 92
        8
 66
     7
 43
1.0
 76
     1
 77
     6
 78
     2
 67
     7
 79
     5
170
     0
171
     0
290
     0
174
     0
 93
        1
 44
-50.0
173
     0
291
     1
 45
0.0
1001
ACAD
1000
AcDbSavedByObjectVersion
1070
     0
  0
VISUALSTYLE
  5
A27C
102
{ACAD_XDICTIONARY
360
A2EC
102
}
102
{ACAD_REACTORS
330
A264
102
}
330
A264
100
AcDbVisualStyle
  2
EdgeColorOff
 70
    22
 71
     2
 72
     2
 73
     0
 90
        0
 40
-0.6
 41
-30.0
 62
     5
 63
     7
 74
     1
 91
        4
 64
     7
 65
   257
 75
     1
175
     1
 42
1.0
 92
        8
 66
     7
 43
1.0
 76
     1
 77
     6
 78
     2
 67
     7
 79
     5
170
     0
171
     0
290
     0
174
     0
 93
        1
 44
0.0
173
     0
291
     1
 45
0.0
1001
ACAD
1000
AcDbSavedByObjectVersion
1070
     0
  0
VISUALSTYLE
  5
A273
102
{ACAD_XDICTIONARY
360
A2DA
102
}
102
{ACAD_REACTORS
330
A264
102
}
330
A264
100
AcDbVisualStyle
  2
Facepattern
 70
    15
 71
     2
 72
     2
 73
     0
 90
        0
 40
-0.6
 41
-30.0
 62
     5
 63
     7
 74
     1
 91
        4
 64
     7
 65
   257
 75
     1
175
     1
 42
1.0
 92
        8
 66
     7
 43
1.0
 76
     1
 77
     6
 78
     2
 67
     7
 79
     5
170
     0
171
     0
290
     0
174
     0
 93
        1
 44
0.0
173
     0
291
     1
 45
0.0
1001
ACAD
1000
AcDbSavedByObjectVersion
1070
     0
  0
VISUALSTYLE
  5
A265
102
{ACAD_XDICTIONARY
360
A2BE
102
}
102
{ACAD_REACTORS
330
A264
102
}
330
A264
100
AcDbVisualStyle
  2
Flat
 70
     0
 71
     2
 72
     1
 73
     1
 90
        2
 40
-0.6
 41
30.0
 62
     5
 63
     7
 74
     0
 91
        0
 64
     7
 65
   257
 75
     1
175
     1
 42
1.0
 92
        8
 66
     7
 43
1.0
 76
     1
 77
     6
 78
     2
 67
     7
 79
     5
170
     0
171
     0
290
     0
174
     0
 93
       13
 44
0.0
173
     0
291
     1
 45
0.0
1001
ACAD
1000
AcDbSavedByObjectVersion
1070
     0
  0
VISUALSTYLE
  5
A266
102
{ACAD_XDICTIONARY
360
A2C0
102
}
102
{ACAD_REACTORS
330
A264
102
}
330
A264
100
AcDbVisualStyle
  2
FlatWithEdges
 70
     1
 71
     2
 72
     1
 73
     1
 90
        2
 40
-0.6
 41
30.0
 62
     5
 63
     7
 74
     1
 91
        0
 64
     7
 65
   257
 75
     1
175
     1
 42
1.0
 92
        0
 66
   257
 43
1.0
 76
     1
 77
     6
 78
     2
 67
     7
 79
     5
170
     0
171
     0
290
     0
174
     0
 93
       13
 44
0.0
173
     0
291
     1
 45
0.0
1001
ACAD
1000
AcDbSavedByObjectVersion
1070
     0
  0
VISUALSTYLE
  5
A267
102
{ACAD_XDICTIONARY
360
A2C2
102
}
102
{ACAD_REACTORS
330
A264
102
}
330
A264
100
AcDbVisualStyle
  2
Gouraud
 70
     2
 71
     2
 72
     2
 73
     1
 90
        2
 40
-0.6
 41
30.0
 62
     5
 63
     7
 74
     0
 91
        0
 64
     7
 65
   257
 75
     1
175
     1
 42
1.0
 92
        0
 66
     7
 43
1.0
 76
     1
 77
     6
 78
     2
 67
     7
 79
     5
170
     0
171
     0
290
     0
174
     0
 93
       13
 44
0.0
173
     0
291
     1
 45
0.0
1001
ACAD
1000
AcDbSavedByObjectVersion
1070
     0
  0
VISUALSTYLE
  5
A268
102
{ACAD_XDICTIONARY
360
A2C4
102
}
102
{ACAD_REACTORS
330
A264
102
}
330
A264
100
AcDbVisualStyle
  2
GouraudWithEdges
 70
     3
 71
     2
 72
     2
 73
     1
 90
        2
 40
-0.6
 41
30.0
 62
     5
 63
     7
 74
     1
 91
        0
 64
     7
 65
   257
 75
     1
175
     1
 42
1.0
 92
        0
 66
   257
 43
1.0
 76
     1
 77
     6
 78
     2
 67
     7
 79
     5
170
     0
171
     0
290
     0
174
     0
 93
       13
 44
0.0
173
     0
291
     1
 45
0.0
1001
ACAD
1000
AcDbSavedByObjectVersion
1070
     0
  0
VISUALSTYLE
  5
A26C
102
{ACAD_XDICTIONARY
360
A2CC
102
}
102
{ACAD_REACTORS
330
A264
102
}
330
A264
100
AcDbVisualStyle
  2
Hidden
 70
     6
 71
     1
 72
     2
 73
     2
 90
        0
 40
-0.6
 41
-30.0
 62
     5
 63
     7
 74
     2
 91
        2
 64
     7
 65
   257
 75
     2
175
     1
 42
40.0
 92
        0
 66
   257
 43
1.0
 76
     1
 77
     6
 78
     2
 67
     7
 79
     3
170
     0
171
     0
290
     0
174
     0
 93
        1
 44
0.0
173
     0
291
     0
 45
0.0
1001
ACAD
1000
AcDbSavedByObjectVersion
1070
     0
  0
VISUALSTYLE
  5
A27A
102
{ACAD_XDICTIONARY
360
A2E8
102
}
102
{ACAD_REACTORS
330
A264
102
}
330
A264
100
AcDbVisualStyle
  2
JitterOff
 70
    20
 71
     2
 72
     2
 73
     0
 90
        0
 40
-0.6
 41
-30.0
 62
     5
 63
     7
 74
     1
 91
        4
 64
     7
 65
   257
 75
     1
175
     1
 42
1.0
 92
       10
 66
     7
 43
1.0
 76
     1
 77
     6
 78
     2
 67
     7
 79
     5
170
     0
171
     0
290
     0
174
     0
 93
        1
 44
0.0
173
     0
291
     1
 45
0.0
1001
ACAD
1000
AcDbSavedByObjectVersion
1070
     0
  0
VISUALSTYLE
  5
A272
102
{ACAD_XDICTIONARY
360
A2D8
102
}
102
{ACAD_REACTORS
330
A264
102
}
330
A264
100
AcDbVisualStyle
  2
Linepattern
 70
    14
 71
     2
 72
     2
 73
     0
 90
        0
 40
-0.6
 41
-30.0
 62
     5
 63
     7
 74
     1
 91
        4
 64
     7
 65
   257
 75
     7
175
     7
 42
1.0
 92
        8
 66
     7
 43
1.0
 76
     1
 77
     6
 78
     2
 67
     7
 79
     5
170
     0
171
     0
290
     0
174
     0
 93
        1
 44
0.0
173
     0
291
     1
 45
0.0
1001
ACAD
1000
AcDbSavedByObjectVersion
1070
     0
  0
VISUALSTYLE
  5
A27B
102
{ACAD_XDICTIONARY
360
A2EA
102
}
102
{ACAD_REACTORS
330
A264
102
}
330
A264
100
AcDbVisualStyle
  2
OverhangOff
 70
    21
 71
     2
 72
     2
 73
     0
 90
        0
 40
-0.6
 41
-30.0
 62
     5
 63
     7
 74
     1
 91
        4
 64
     7
 65
   257
 75
     1
175
     1
 42
1.0
 92
        9
 66
     7
 43
1.0
 76
     1
 77
     6
 78
     2
 67
     7
 79
     5
170
     0
171
     0
290
     0
174
     0
 93
        1
 44
0.0
173
     0
291
     1
 45
0.0
1001
ACAD
1000
AcDbSavedByObjectVersion
1070
     0
  0
VISUALSTYLE
  5
A26E
102
{ACAD_XDICTIONARY
360
A2D0
102
}
102
{ACAD_REACTORS
330
A264
102
}
330
A264
100
AcDbVisualStyle
  2
Realistic
 70
     8
 71
     2
 72
     3
 73
     0
 90
        2
 40
-0.6
 41
30.0
 62
     5
 63
     7
 74
     0
 91
        0
 64
     7
 65
   257
 75
     1
175
     1
 42
1.0
 92
        8
 66
   257
 43
1.0
 76
     1
 77
     6
 78
     2
 67
     7
 79
     3
170
     0
171
     0
290
     0
174
     0
 93
       13
 44
0.0
173
     0
291
     0
 45
0.0
1001
ACAD
1000
AcDbSavedByObjectVersion
1070
     0
  0
VISUALSTYLE
  5
A279
102
{ACAD_XDICTIONARY
360
A2E6
102
}
102
{ACAD_REACTORS
330
A264
102
}
330
A264
100
AcDbVisualStyle
  2
Shaded
 70
    27
 71
     2
 72
     2
 73
     1
 90
        2
 40
-0.6
 41
30.0
 62
     5
 63
     7
 74
     0
 91
        4
 64
     7
 65
   257
 75
     1
175
     1
 42
1.0
 92
        8
 66
   257
 43
1.0
 76
     1
 77
     6
 78
     2
 67
     8
 79
     3
170
     0
171
     0
290
     0
174
     0
 93
        5
 44
0.0
173
     0
291
     0
 45
0.0
1001
ACAD
1000
AcDbSavedByObjectVersion
1070
     0
  0
VISUALSTYLE
  5
A278
102
{ACAD_XDICTIONARY
360
A2E4
102
}
102
{ACAD_REACTORS
330
A264
102
}
330
A264
100
AcDbVisualStyle
  2
Shaded with edges
 70
    26
 71
     2
 72
     2
 73
     1
 90
        2
 40
-0.6
 41
30.0
 62
     5
 63
     7
 74
     1
 91
       10
 64
     7
 65
   257
 75
     2
175
     1
 42
1.0
 92
        8
 66
   257
 43
1.0
 76
     1
 77
     6
 78
     2
 67
     7
 79
     3
170
     0
171
     0
290
     0
174
     0
 93
        5
 44
0.0
173
     0
291
     0
 45
0.0
1001
ACAD
1000
AcDbSavedByObjectVersion
1070
     0
  0
VISUALSTYLE
  5
A275
102
{ACAD_XDICTIONARY
360
A2DE
102
}
102
{ACAD_REACTORS
330
A264
102
}
330
A264
100
AcDbVisualStyle
  2
Shades of Gray
 70
    23
 71
     2
 72
     2
 73
     3
 90
        0
 40
-0.6
 41
-30.0
 62
     5
 63
     7
 74
     2
 91
        2
 64
     7
 65
     7
 75
     1
175
     1
 42
40.0
 92
        8
 66
     7
 43
1.0
 76
     1
 77
     6
 78
     2
 67
     7
 79
     3
170
     0
171
     0
290
     0
174
     0
 93
        1
 44
0.0
173
     0
291
     0
 45
0.0
1001
ACAD
1000
AcDbSavedByObjectVersion
1070
     0
  0
VISUALSTYLE
  5
A276
102
{ACAD_XDICTIONARY
360
A2E0
102
}
102
{ACAD_REACTORS
330
A264
102
}
330
A264
100
AcDbVisualStyle
  2
Sketchy
 70
    24
 71
     1
 72
     2
 73
     2
 90
        0
 40
-0.6
 41
-30.0
 62
     5
 63
     7
 74
     2
 91
        2
 64
     7
 65
     7
 75
     1
175
     1
 42
40.0
 92
       11
 66
     7
 43
1.0
 76
     1
 77
     6
 78
     2
 67
     7
 79
     6
170
     0
171
     0
290
     0
174
     0
 93
        1
 44
0.0
173
     0
291
     0
 45
0.0
1001
ACAD
1000
AcDbSavedByObjectVersion
1070
     0
  0
VISUALSTYLE
  5
A271
102
{ACAD_XDICTIONARY
360
A2D6
102
}
102
{ACAD_REACTORS
330
A264
102
}
330
A264
100
AcDbVisualStyle
  2
Thicken
 70
    13
 71
     2
 72
     2
 73
     0
 90
        0
 40
-0.6
 41
-30.0
 62
     5
 63
     7
 74
     1
 91
        4
 64
     7
 65
   257
 75
     1
175
     1
 42
1.0
 92
       12
 66
     7
 43
1.0
 76
     1
 77
     6
 78
     2
 67
     7
 79
     5
170
     0
171
     0
290
     0
174
     0
 93
        1
 44
0.0
173
     0
291
     1
 45
0.0
1001
ACAD
1000
AcDbSavedByObjectVersion
1070
     0
  0
VISUALSTYLE
  5
A26B
102
{ACAD_XDICTIONARY
360
A2CA
102
}
102
{ACAD_REACTORS
330
A264
102
}
330
A264
100
AcDbVisualStyle
  2
Wireframe
 70
     5
 71
     0
 72
     2
 73
     0
 90
        0
 40
-0.6
 41
-30.0
 62
     5
 63
     7
 74
     1
 91
        4
 64
     7
 65
   257
 75
     1
175
     1
 42
1.0
 92
        0
 66
   257
 43
1.0
 76
     1
 77
     6
 78
     2
 67
     7
 79
     3
170
     0
171
     0
290
     0
174
     0
 93
        1
 44
0.0
173
     0
291
     0
 45
0.0
1001
ACAD
1000
AcDbSavedByObjectVersion
1070
     0
  0
VISUALSTYLE
  5
A277
102
{ACAD_XDICTIONARY
360
A2E2
102
}
102
{ACAD_REACTORS
330
A264
102
}
330
A264
100
AcDbVisualStyle
  2
X-Ray
 70
    25
 71
     2
 72
     2
 73
     1
 90
        1
 40
0.5
 41
-30.0
 62
     5
 63
     7
 74
     1
 91
        0
 64
     7
 65
   257
 75
     1
175
     1
 42
1.0
 92
        8
 66
     7
 43
1.0
 76
     1
 77
     6
 78
     2
 67
     7
 79
     3
170
     0
171
     0
290
     0
174
     0
 93
       13
 44
0.0
173
     0
291
     0
 45
0.0
1001
ACAD
1000
AcDbSavedByObjectVersion
1070
     0
  0
DICTIONARYVAR
  5
A2B1
102
{ACAD_REACTORS
330
A2AC
102
}
330
A2AC
100
DictionaryVariables
280
     0
  1
1:1
  0
DICTIONARYVAR
  5
A2AE
102
{ACAD_REACTORS
330
A2AC
102
}
330
A2AC
100
DictionaryVariables
280
     0
  1
STANDARD
  0
DICTIONARYVAR
  5
A2AD
102
{ACAD_REACTORS
330
A2AC
102
}
330
A2AC
100
DictionaryVariables
280
     0
  1
STANDARD
  0
DICTIONARYVAR
  5
A2AF
102
{ACAD_REACTORS
330
A2AC
102
}
330
A2AC
100
DictionaryVariables
280
     0
  1
Imperial24
  0
DICTIONARYVAR
  5
A2B0
102
{ACAD_REACTORS
330
A2AC
102
}
330
A2AC
100
DictionaryVariables
280
     0
  1
Imperial24
  0
DICTIONARYVAR
  5
A2B4
102
{ACAD_REACTORS
330
A2AC
102
}
330
A2AC
100
DictionaryVariables
280
     0
  1
1
  0
DICTIONARYVAR
  5
A2B3
102
{ACAD_REACTORS
330
A2AC
102
}
330
A2AC
100
DictionaryVariables
280
     0
  1
0
  0
DICTIONARYVAR
  5
A2B2
102
{ACAD_REACTORS
330
A2AC
102
}
330
A2AC
100
DictionaryVariables
280
     0
  1
127
  0
DICTIONARYVAR
  5
A2B5
102
{ACAD_REACTORS
330
A2AC
102
}
330
A2AC
100
DictionaryVariables
280
     0
  1
2
  0
DICTIONARY
  5
A2F2
330
A297
100
AcDbDictionary
280
     1
281
     1
  3
ACAD_XREC_ROUNDTRIP
360
A2F3
  0
DICTIONARY
  5
A2F4
330
A298
100
AcDbDictionary
280
     1
281
     1
  3
ACAD_XREC_ROUNDTRIP
360
A2F5
  0
DICTIONARY
  5
A2F6
330
A299
100
AcDbDictionary
280
     1
281
     1
  3
ACAD_XREC_ROUNDTRIP
360
A2F7
  0
DICTIONARY
  5
A255
330
A254
100
AcDbDictionary
280
     1
281
     1
  3
ACAD_XREC_ROUNDTRIP
360
A2BC
  3
BUMPTILE
360
A257
  3
DIFFUSETILE
360
A256
  3
OPACITYTILE
360
A25A
  3
REFLECTIONTILE
360
A259
  3
REFRACTIONTILE
360
A25B
  3
SPECULARTILE
360
A258
  0
DICTIONARY
  5
A24D
330
A24C
100
AcDbDictionary
280
     1
281
     1
  3
ACAD_XREC_ROUNDTRIP
360
A2BB
  3
BUMPTILE
360
A24F
  3
DIFFUSETILE
360
A24E
  3
OPACITYTILE
360
A252
  3
REFLECTIONTILE
360
A251
  3
REFRACTIONTILE
360
A253
  3
SPECULARTILE
360
A250
  0
DICTIONARY
  5
A25D
330
A25C
100
AcDbDictionary
280
     1
281
     1
  3
ACAD_XREC_ROUNDTRIP
360
A2BD
  3
BUMPTILE
360
A25F
  3
DIFFUSETILE
360
A25E
  3
OPACITYTILE
360
A262
  3
REFLECTIONTILE
360
A261
  3
REFRACTIONTILE
360
A263
  3
SPECULARTILE
360
A260
  0
DICTIONARY
  5
A2F0
330
A295
100
AcDbDictionary
280
     1
281
     1
  3
ACAD_XREC_ROUNDTRIP
360
A2F1
  0
DICTIONARY
  5
A2B7
330
A27F
100
AcDbDictionary
280
     1
281
     1
  3
ACAD_ROUNDTRIP_2008_TABLESTYLE_CELLSTYLEMAP
360
A2B8
  3
ACAD_XREC_ROUNDTRIP
360
A2EE
  0
DICTIONARY
  5
A2C8
330
A26A
100
AcDbDictionary
280
     1
281
     1
  3
ACAD_XREC_ROUNDTRIP
360
A2C9
  0
DICTIONARY
  5
A2C6
330
A269
100
AcDbDictionary
280
     1
281
     1
  3
ACAD_XREC_ROUNDTRIP
360
A2C7
  0
DICTIONARY
  5
A2D4
330
A270
100
AcDbDictionary
280
     1
281
     1
  3
ACAD_XREC_ROUNDTRIP
360
A2D5
  0
DICTIONARY
  5
A2DC
330
A274
100
AcDbDictionary
280
     1
281
     1
  3
ACAD_XREC_ROUNDTRIP
360
A2DD
  0
DICTIONARY
  5
A2CE
330
A26D
100
AcDbDictionary
280
     1
281
     1
  3
ACAD_XREC_ROUNDTRIP
360
A2CF
  0
DICTIONARY
  5
A2D2
330
A26F
100
AcDbDictionary
280
     1
281
     1
  3
ACAD_XREC_ROUNDTRIP
360
A2D3
  0
DICTIONARY
  5
A2EC
330
A27C
100
AcDbDictionary
280
     1
281
     1
  3
ACAD_XREC_ROUNDTRIP
360
A2ED
  0
DICTIONARY
  5
A2DA
330
A273
100
AcDbDictionary
280
     1
281
     1
  3
ACAD_XREC_ROUNDTRIP
360
A2DB
  0
DICTIONARY
  5
A2BE
330
A265
100
AcDbDictionary
280
     1
281
     1
  3
ACAD_XREC_ROUNDTRIP
360
A2BF
  0
DICTIONARY
  5
A2C0
330
A266
100
AcDbDictionary
280
     1
281
     1
  3
ACAD_XREC_ROUNDTRIP
360
A2C1
  0
DICTIONARY
  5
A2C2
330
A267
100
AcDbDictionary
280
     1
281
     1
  3
ACAD_XREC_ROUNDTRIP
360
A2C3
  0
DICTIONARY
  5
A2C4
330
A268
100
AcDbDictionary
280
     1
281
     1
  3
ACAD_XREC_ROUNDTRIP
360
A2C5
  0
DICTIONARY
  5
A2CC
330
A26C
100
AcDbDictionary
280
     1
281
     1
  3
ACAD_XREC_ROUNDTRIP
360
A2CD
  0
DICTIONARY
  5
A2E8
330
A27A
100
AcDbDictionary
280
     1
281
     1
  3
ACAD_XREC_ROUNDTRIP
360
A2E9
  0
DICTIONARY
  5
A2D8
330
A272
100
AcDbDictionary
280
     1
281
     1
  3
ACAD_XREC_ROUNDTRIP
360
A2D9
  0
DICTIONARY
  5
A2EA
330
A27B
100
AcDbDictionary
280
     1
281
     1
  3
ACAD_XREC_ROUNDTRIP
360
A2EB
  0
DICTIONARY
  5
A2D0
330
A26E
100
AcDbDictionary
280
     1
281
     1
  3
ACAD_XREC_ROUNDTRIP
360
A2D1
  0
DICTIONARY
  5
A2E6
330
A279
100
AcDbDictionary
280
     1
281
     1
  3
ACAD_XREC_ROUNDTRIP
360
A2E7
  0
DICTIONARY
  5
A2E4
330
A278
100
AcDbDictionary
280
     1
281
     1
  3
ACAD_XREC_ROUNDTRIP
360
A2E5
  0
DICTIONARY
  5
A2DE
330
A275
100
AcDbDictionary
280
     1
281
     1
  3
ACAD_XREC_ROUNDTRIP
360
A2DF
  0
DICTIONARY
  5
A2E0
330
A276
100
AcDbDictionary
280
     1
281
     1
  3
ACAD_XREC_ROUNDTRIP
360
A2E1
  0
DICTIONARY
  5
A2D6
330
A271
100
AcDbDictionary
280
     1
281
     1
  3
ACAD_XREC_ROUNDTRIP
360
A2D7
  0
DICTIONARY
  5
A2CA
330
A26B
100
AcDbDictionary
280
     1
281
     1
  3
ACAD_XREC_ROUNDTRIP
360
A2CB
  0
DICTIONARY
  5
A2E2
330
A277
100
AcDbDictionary
280
     1
281
     1
  3
ACAD_XREC_ROUNDTRIP
360
A2E3
  0
XRECORD
  5
A2F3
102
{ACAD_REACTORS
330
A2F2
102
}
330
A2F2
100
AcDbXrecord
280
     1
102
DISPLAYNAME
  1
Imperial24
102
FLAGS
 90
        0
  0
XRECORD
  5
A2F5
102
{ACAD_REACTORS
330
A2F4
102
}
330
A2F4
100
AcDbXrecord
280
     1
102
SHADEPLOT
 70
     0
102
SHADEPLOTRESLEVEL
 70
     2
102
SHADEPLOTCUSTOMDPI
 70
   300
  0
XRECORD
  5
A2F7
102
{ACAD_REACTORS
330
A2F6
102
}
330
A2F6
100
AcDbXrecord
280
     1
102
SHADEPLOT
 70
     0
102
SHADEPLOTRESLEVEL
 70
     2
102
SHADEPLOTCUSTOMDPI
 70
   300
  0
XRECORD
  5
A2BC
102
{ACAD_REACTORS
330
A255
102
}
330
A255
100
AcDbXrecord
280
     1
102
MATERIAL
148
0.0
149
0.0
149
0.0
 93
        0
 94
      127
282
     0
 72
     0
 77
     0
171
     0
175
     0
179
     0
273
     0
  0
XRECORD
  5
A257
102
{ACAD_REACTORS
330
A255
102
}
330
A255
100
AcDbXrecord
280
     1
270
     1
271
     1
  0
XRECORD
  5
A256
102
{ACAD_REACTORS
330
A255
102
}
330
A255
100
AcDbXrecord
280
     1
270
     1
271
     1
  0
XRECORD
  5
A25A
102
{ACAD_REACTORS
330
A255
102
}
330
A255
100
AcDbXrecord
280
     1
270
     1
271
     1
  0
XRECORD
  5
A259
102
{ACAD_REACTORS
330
A255
102
}
330
A255
100
AcDbXrecord
280
     1
270
     1
271
     1
  0
XRECORD
  5
A25B
102
{ACAD_REACTORS
330
A255
102
}
330
A255
100
AcDbXrecord
280
     1
270
     1
271
     1
  0
XRECORD
  5
A258
102
{ACAD_REACTORS
330
A255
102
}
330
A255
100
AcDbXrecord
280
     1
270
     1
271
     1
  0
XRECORD
  5
A2BB
102
{ACAD_REACTORS
330
A24D
102
}
330
A24D
100
AcDbXrecord
280
     1
102
MATERIAL
148
0.0
149
0.0
149
0.0
 93
        0
 94
      127
282
     0
 72
     0
 77
     0
171
     0
175
     0
179
     0
273
     0
  0
XRECORD
  5
A24F
102
{ACAD_REACTORS
330
A24D
102
}
330
A24D
100
AcDbXrecord
280
     1
270
     1
271
     1
  0
XRECORD
  5
A24E
102
{ACAD_REACTORS
330
A24D
102
}
330
A24D
100
AcDbXrecord
280
     1
270
     1
271
     1
  0
XRECORD
  5
A252
102
{ACAD_REACTORS
330
A24D
102
}
330
A24D
100
AcDbXrecord
280
     1
270
     1
271
     1
  0
XRECORD
  5
A251
102
{ACAD_REACTORS
330
A24D
102
}
330
A24D
100
AcDbXrecord
280
     1
270
     1
271
     1
  0
XRECORD
  5
A253
102
{ACAD_REACTORS
330
A24D
102
}
330
A24D
100
AcDbXrecord
280
     1
270
     1
271
     1
  0
XRECORD
  5
A250
102
{ACAD_REACTORS
330
A24D
102
}
330
A24D
100
AcDbXrecord
280
     1
270
     1
271
     1
  0
XRECORD
  5
A2BD
102
{ACAD_REACTORS
330
A25D
102
}
330
A25D
100
AcDbXrecord
280
     1
102
MATERIAL
148
0.0
149
0.0
149
0.0
 93
        0
 94
      127
282
     0
 72
     0
 77
     0
171
     0
175
     0
179
     0
273
     0
  0
XRECORD
  5
A25F
102
{ACAD_REACTORS
330
A25D
102
}
330
A25D
100
AcDbXrecord
280
     1
270
     1
271
     1
  0
XRECORD
  5
A25E
102
{ACAD_REACTORS
330
A25D
102
}
330
A25D
100
AcDbXrecord
280
     1
270
     1
271
     1
  0
XRECORD
  5
A262
102
{ACAD_REACTORS
330
A25D
102
}
330
A25D
100
AcDbXrecord
280
     1
270
     1
271
     1
  0
XRECORD
  5
A261
102
{ACAD_REACTORS
330
A25D
102
}
330
A25D
100
AcDbXrecord
280
     1
270
     1
271
     1
  0
XRECORD
  5
A263
102
{ACAD_REACTORS
330
A25D
102
}
330
A25D
100
AcDbXrecord
280
     1
270
     1
271
     1
  0
XRECORD
  5
A260
102
{ACAD_REACTORS
330
A25D
102
}
330
A25D
100
AcDbXrecord
280
     1
270
     1
271
     1
  0
XRECORD
  5
A2F1
102
{ACAD_REACTORS
330
A2F0
102
}
330
A2F0
100
AcDbXrecord
280
     1
102
DISPLAYNAME
  1
Imperial24
102
FLAGS
 90
        0
  0
CELLSTYLEMAP
  5
A2B8
102
{ACAD_REACTORS
330
A2B7
102
}
330
A2B7
100
AcDbCellStyleMap
 90
        3
300
CELLSTYLE
  1
TABLEFORMAT_BEGIN
 90
        5
170
     1
 91
        0
 92
    32768
 62
   257
 93
        1
300
CONTENTFORMAT
  1
CONTENTFORMAT_BEGIN
 90
        0
 91
        0
 92
      512
 93
        0
300

 40
0.0
140
1.0
 94
        5
 62
     0
340
9FEF
144
0.25
309
CONTENTFORMAT_END
171
     0
 94
        0
309
TABLEFORMAT_END
  1
CELLSTYLE_BEGIN
 90
        1
 91
        1
300
_TITLE
309
CELLSTYLE_END
300
CELLSTYLE
  1
TABLEFORMAT_BEGIN
 90
        5
170
     1
 91
        0
 92
        0
 62
   257
 93
        1
300
CONTENTFORMAT
  1
CONTENTFORMAT_BEGIN
 90
        0
 91
        0
 92
      512
 93
        0
300

 40
0.0
140
1.0
 94
        5
 62
     0
340
9FEF
144
0.18
309
CONTENTFORMAT_END
171
     0
 94
        0
309
TABLEFORMAT_END
  1
CELLSTYLE_BEGIN
 90
        2
 91
        1
300
_HEADER
309
CELLSTYLE_END
300
CELLSTYLE
  1
TABLEFORMAT_BEGIN
 90
        5
170
     1
 91
        0
 92
        0
 62
   257
 93
        1
300
CONTENTFORMAT
  1
CONTENTFORMAT_BEGIN
 90
        0
 91
        0
 92
      512
 93
        0
300

 40
0.0
140
1.0
 94
        2
 62
     0
340
9FEF
144
0.18
309
CONTENTFORMAT_END
171
     0
 94
        0
309
TABLEFORMAT_END
  1
CELLSTYLE_BEGIN
 90
        3
 91
        2
300
_DATA
309
CELLSTYLE_END
  0
XRECORD
  5
A2EE
102
{ACAD_REACTORS
330
A2B7
102
}
330
A2B7
100
AcDbXrecord
280
     1
102
ACAD_ROUNDTRIP_PRE2007_TABLESTYLE
 90
      512
 91
        0
  1

 92
      512
 93
        0
  2

 94
      512
 95
        0
  3

  0
XRECORD
  5
A2C9
102
{ACAD_REACTORS
330
A2C8
102
}
330
A2C8
100
AcDbXrecord
280
     1
102
RTVSPost2010Prop28
280
     1
102
RTVSPost2010PropOp28
 70
     1
102
RTVSPost2010Prop29
280
     1
102
RTVSPost2010PropOp29
 70
     1
102
RTVSPost2010Prop30
280
     0
102
RTVSPost2010PropOp30
 70
     1
102
RTVSPost2010Prop31
280
     0
102
RTVSPost2010PropOp31
 70
     1
102
RTVSPost2010Prop32
280
     0
102
RTVSPost2010PropOp32
 70
     1
102
RTVSPost2010Prop33
280
     0
102
RTVSPost2010PropOp33
 70
     1
102
RTVSPost2010Prop34
280
     0
102
RTVSPost2010PropOp34
 70
     1
102
RTVSPost2010Prop35
280
     0
102
RTVSPost2010PropOp35
 70
     1
102
RTVSPost2010Prop36
280
     0
102
RTVSPost2010PropOp36
 70
     1
102
RTVSPost2010Prop37
 90
       50
102
RTVSPost2010PropOp37
 70
     1
102
RTVSPost2010Prop38
140
0.0
102
RTVSPost2010PropOp38
 70
     1
102
RTVSPost2010Prop39
140
1.0
102
RTVSPost2010PropOp39
 70
     1
102
RTVSPost2010Prop40
 90
        0
102
RTVSPost2010PropOp40
 70
     1
102
RTVSPost2010Prop41ColorIndex
 90
       18
102
RTVSPost2010Prop41ColorRGB
 90
        0
102
RTVSPost2010PropOp41
 70
     1
102
RTVSPost2010Prop42
 90
       50
102
RTVSPost2010PropOp42
 70
     1
102
RTVSPost2010Prop43
 90
        3
102
RTVSPost2010PropOp43
 70
     1
102
RTVSPost2010Prop44ColorIndex
 90
        5
102
RTVSPost2010Prop44ColorRGB
 90
      255
102
RTVSPost2010PropOp44
 70
     1
102
RTVSPost2010Prop45
280
     0
102
RTVSPost2010PropOp45
 70
     1
102
RTVSPost2010Prop46
 90
       50
102
RTVSPost2010PropOp46
 70
     1
102
RTVSPost2010Prop47
 90
       50
102
RTVSPost2010PropOp47
 70
     1
102
RTVSPost2010Prop48
 90
       50
102
RTVSPost2010PropOp48
 70
     1
102
RTVSPost2010Prop49
280
     0
102
RTVSPost2010PropOp49
 70
     1
102
RTVSPost2010Prop50
 90
       50
102
RTVSPost2010PropOp50
 70
     1
102
RTVSPost2010Prop51ColorIndex
 90
      256
102
RTVSPost2010Prop51ColorRGB
 90
-16777216
102
RTVSPost2010PropOp51
 70
     0
102
RTVSPost2010Prop52
140
1.0
102
RTVSPost2010PropOp52
 70
     0
102
RTVSPost2010Prop53
 90
        2
102
RTVSPost2010PropOp53
 70
     1
102
RTVSPost2010Prop54
  1
strokes_ogs.tif
102
RTVSPost2010PropOp54
 70
     1
102
RTVSPost2010Prop55
280
     0
102
RTVSPost2010PropOp55
 70
     1
102
RTVSPost2010Prop56
140
1.0
102
RTVSPost2010PropOp56
 70
     1
102
RTVSPost2010Prop57
140
1.0
102
RTVSPost2010PropOp57
 70
     1
102
RTVSPropertyOp0
 70
     1
102
RTVSPropertyOp1
 70
     1
102
RTVSPropertyOp2
 70
     1
102
RTVSPropertyOp3
 70
     1
102
RTVSPropertyOp4
 70
     1
102
RTVSPropertyOp5
 70
     1
102
RTVSPropertyOp6
 70
     1
102
RTVSPropertyOp7
 70
     1
102
RTVSPropertyOp8
 70
     1
102
RTVSPropertyOp9
 70
     1
102
RTVSPropertyOp10
 70
     1
102
RTVSPropertyOp11
 70
     1
102
RTVSPropertyOp12
 70
     1
102
RTVSPropertyOp13
 70
     1
102
RTVSPropertyOp14
 70
     1
102
RTVSPropertyOp15
 70
     1
102
RTVSPropertyOp16
 70
     1
102
RTVSPropertyOp17
 70
     1
102
RTVSPropertyOp18
 70
     1
102
RTVSPropertyOp19
 70
     1
102
RTVSPropertyOp20
 70
     1
102
RTVSPropertyOp21
 70
     1
102
RTVSPropertyOp22
 70
     1
102
RTVSPropertyOp23
 70
     1
102
RTVSPropertyOp24
 70
     1
102
RTVSPropertyOp25
 70
     1
102
RTVSPropertyOp26
 70
     1
102
RTVSPropertyOp27
 70
     1
102
RTVSPropertyOp28
 70
     1
102
RTVSPropertyOp29
 70
     1
102
RTVSPropertyOp30
 70
     1
102
RTVSPropertyOp31
 70
     1
102
RTVSPropertyOp32
 70
     1
102
RTVSPropertyOp33
 70
     1
102
RTVSPropertyOp34
 70
     1
102
RTVSPropertyOp35
 70
     1
102
RTVSPropertyOp36
 70
     1
102
RTVSPropertyOp37
 70
     1
102
RTVSPropertyOp38
 70
     1
102
RTVSPropertyOp39
 70
     1
102
RTVSPropertyOp40
 70
     1
102
RTVSPropertyOp41
 70
     1
102
RTVSPropertyOp42
 70
     1
102
RTVSPropertyOp43
 70
     1
102
RTVSPropertyOp44
 70
     1
102
RTVSPropertyOp45
 70
     1
102
RTVSPropertyOp46
 70
     1
102
RTVSPropertyOp47
 70
     1
102
RTVSPropertyOp48
 70
     1
102
RTVSPropertyOp49
 70
     1
102
RTVSPropertyOp50
 70
     1
102
RTVSPropertyOp51
 70
     0
102
RTVSPropertyOp52
 70
     0
102
RTVSPropertyOp53
 70
     1
102
RTVSPropertyOp54
 70
     1
102
RTVSPropertyOp55
 70
     1
102
RTVSPropertyOp56
 70
     1
102
RTVSPropertyOp57
 70
     1
102
RTVSPropertyOp58
 70
     1
102
RTVSPropertyOp59
 70
     1
102
RTVSPropertyOp60
 70
     1
102
RTVSPropertyOp61
 70
     1
102
RTVSPropertyOp62
 70
     1
  0
XRECORD
  5
A2C7
102
{ACAD_REACTORS
330
A2C6
102
}
330
A2C6
100
AcDbXrecord
280
     1
102
RTVSPost2010Prop28
280
     0
102
RTVSPost2010PropOp28
 70
     1
102
RTVSPost2010Prop29
280
     1
102
RTVSPost2010PropOp29
 70
     1
102
RTVSPost2010Prop30
280
     1
102
RTVSPost2010PropOp30
 70
     1
102
RTVSPost2010Prop31
280
     0
102
RTVSPost2010PropOp31
 70
     1
102
RTVSPost2010Prop32
280
     0
102
RTVSPost2010PropOp32
 70
     1
102
RTVSPost2010Prop33
280
     0
102
RTVSPost2010PropOp33
 70
     1
102
RTVSPost2010Prop34
280
     0
102
RTVSPost2010PropOp34
 70
     1
102
RTVSPost2010Prop35
280
     0
102
RTVSPost2010PropOp35
 70
     1
102
RTVSPost2010Prop36
280
     0
102
RTVSPost2010PropOp36
 70
     1
102
RTVSPost2010Prop37
 90
       50
102
RTVSPost2010PropOp37
 70
     1
102
RTVSPost2010Prop38
140
0.0
102
RTVSPost2010PropOp38
 70
     1
102
RTVSPost2010Prop39
140
1.0
102
RTVSPost2010PropOp39
 70
     1
102
RTVSPost2010Prop40
 90
        0
102
RTVSPost2010PropOp40
 70
     1
102
RTVSPost2010Prop41ColorIndex
 90
       18
102
RTVSPost2010Prop41ColorRGB
 90
        0
102
RTVSPost2010PropOp41
 70
     1
102
RTVSPost2010Prop42
 90
       50
102
RTVSPost2010PropOp42
 70
     1
102
RTVSPost2010Prop43
 90
        3
102
RTVSPost2010PropOp43
 70
     1
102
RTVSPost2010Prop44ColorIndex
 90
        5
102
RTVSPost2010Prop44ColorRGB
 90
      255
102
RTVSPost2010PropOp44
 70
     1
102
RTVSPost2010Prop45
280
     0
102
RTVSPost2010PropOp45
 70
     1
102
RTVSPost2010Prop46
 90
       50
102
RTVSPost2010PropOp46
 70
     1
102
RTVSPost2010Prop47
 90
       50
102
RTVSPost2010PropOp47
 70
     1
102
RTVSPost2010Prop48
 90
       50
102
RTVSPost2010PropOp48
 70
     1
102
RTVSPost2010Prop49
280
     0
102
RTVSPost2010PropOp49
 70
     1
102
RTVSPost2010Prop50
 90
       50
102
RTVSPost2010PropOp50
 70
     1
102
RTVSPost2010Prop51ColorIndex
 90
      256
102
RTVSPost2010Prop51ColorRGB
 90
-16777216
102
RTVSPost2010PropOp51
 70
     0
102
RTVSPost2010Prop52
140
1.0
102
RTVSPost2010PropOp52
 70
     0
102
RTVSPost2010Prop53
 90
        2
102
RTVSPost2010PropOp53
 70
     1
102
RTVSPost2010Prop54
  1
strokes_ogs.tif
102
RTVSPost2010PropOp54
 70
     1
102
RTVSPost2010Prop55
280
     0
102
RTVSPost2010PropOp55
 70
     1
102
RTVSPost2010Prop56
140
1.0
102
RTVSPost2010PropOp56
 70
     1
102
RTVSPost2010Prop57
140
1.0
102
RTVSPost2010PropOp57
 70
     1
102
RTVSPropertyOp0
 70
     1
102
RTVSPropertyOp1
 70
     1
102
RTVSPropertyOp2
 70
     1
102
RTVSPropertyOp3
 70
     1
102
RTVSPropertyOp4
 70
     1
102
RTVSPropertyOp5
 70
     1
102
RTVSPropertyOp6
 70
     1
102
RTVSPropertyOp7
 70
     1
102
RTVSPropertyOp8
 70
     1
102
RTVSPropertyOp9
 70
     1
102
RTVSPropertyOp10
 70
     1
102
RTVSPropertyOp11
 70
     1
102
RTVSPropertyOp12
 70
     1
102
RTVSPropertyOp13
 70
     1
102
RTVSPropertyOp14
 70
     1
102
RTVSPropertyOp15
 70
     1
102
RTVSPropertyOp16
 70
     1
102
RTVSPropertyOp17
 70
     1
102
RTVSPropertyOp18
 70
     1
102
RTVSPropertyOp19
 70
     1
102
RTVSPropertyOp20
 70
     1
102
RTVSPropertyOp21
 70
     1
102
RTVSPropertyOp22
 70
     1
102
RTVSPropertyOp23
 70
     1
102
RTVSPropertyOp24
 70
     1
102
RTVSPropertyOp25
 70
     1
102
RTVSPropertyOp26
 70
     1
102
RTVSPropertyOp27
 70
     1
102
RTVSPropertyOp28
 70
     1
102
RTVSPropertyOp29
 70
     1
102
RTVSPropertyOp30
 70
     1
102
RTVSPropertyOp31
 70
     1
102
RTVSPropertyOp32
 70
     1
102
RTVSPropertyOp33
 70
     1
102
RTVSPropertyOp34
 70
     1
102
RTVSPropertyOp35
 70
     1
102
RTVSPropertyOp36
 70
     1
102
RTVSPropertyOp37
 70
     1
102
RTVSPropertyOp38
 70
     1
102
RTVSPropertyOp39
 70
     1
102
RTVSPropertyOp40
 70
     1
102
RTVSPropertyOp41
 70
     1
102
RTVSPropertyOp42
 70
     1
102
RTVSPropertyOp43
 70
     1
102
RTVSPropertyOp44
 70
     1
102
RTVSPropertyOp45
 70
     1
102
RTVSPropertyOp46
 70
     1
102
RTVSPropertyOp47
 70
     1
102
RTVSPropertyOp48
 70
     1
102
RTVSPropertyOp49
 70
     1
102
RTVSPropertyOp50
 70
     1
102
RTVSPropertyOp51
 70
     0
102
RTVSPropertyOp52
 70
     0
102
RTVSPropertyOp53
 70
     1
102
RTVSPropertyOp54
 70
     1
102
RTVSPropertyOp55
 70
     1
102
RTVSPropertyOp56
 70
     1
102
RTVSPropertyOp57
 70
     1
102
RTVSPropertyOp58
 70
     1
102
RTVSPropertyOp59
 70
     1
102
RTVSPropertyOp60
 70
     1
102
RTVSPropertyOp61
 70
     1
102
RTVSPropertyOp62
 70
     1
  0
XRECORD
  5
A2D5
102
{ACAD_REACTORS
330
A2D4
102
}
330
A2D4
100
AcDbXrecord
280
     1
102
RTVSPost2010Prop28
280
     0
102
RTVSPost2010PropOp28
 70
     1
102
RTVSPost2010Prop29
280
     1
102
RTVSPost2010PropOp29
 70
     1
102
RTVSPost2010Prop30
280
     1
102
RTVSPost2010PropOp30
 70
     1
102
RTVSPost2010Prop31
280
     0
102
RTVSPost2010PropOp31
 70
     1
102
RTVSPost2010Prop32
280
     0
102
RTVSPost2010PropOp32
 70
     1
102
RTVSPost2010Prop33
280
     0
102
RTVSPost2010PropOp33
 70
     1
102
RTVSPost2010Prop34
280
     0
102
RTVSPost2010PropOp34
 70
     1
102
RTVSPost2010Prop35
280
     0
102
RTVSPost2010PropOp35
 70
     1
102
RTVSPost2010Prop36
280
     0
102
RTVSPost2010PropOp36
 70
     1
102
RTVSPost2010Prop37
 90
       50
102
RTVSPost2010PropOp37
 70
     1
102
RTVSPost2010Prop38
140
0.0
102
RTVSPost2010PropOp38
 70
     1
102
RTVSPost2010Prop39
140
1.0
102
RTVSPost2010PropOp39
 70
     1
102
RTVSPost2010Prop40
 90
        0
102
RTVSPost2010PropOp40
 70
     1
102
RTVSPost2010Prop41ColorIndex
 90
       18
102
RTVSPost2010Prop41ColorRGB
 90
        0
102
RTVSPost2010PropOp41
 70
     1
102
RTVSPost2010Prop42
 90
       50
102
RTVSPost2010PropOp42
 70
     1
102
RTVSPost2010Prop43
 90
        3
102
RTVSPost2010PropOp43
 70
     1
102
RTVSPost2010Prop44ColorIndex
 90
        5
102
RTVSPost2010Prop44ColorRGB
 90
      255
102
RTVSPost2010PropOp44
 70
     1
102
RTVSPost2010Prop45
280
     0
102
RTVSPost2010PropOp45
 70
     1
102
RTVSPost2010Prop46
 90
       50
102
RTVSPost2010PropOp46
 70
     1
102
RTVSPost2010Prop47
 90
       50
102
RTVSPost2010PropOp47
 70
     1
102
RTVSPost2010Prop48
 90
       50
102
RTVSPost2010PropOp48
 70
     1
102
RTVSPost2010Prop49
280
     0
102
RTVSPost2010PropOp49
 70
     1
102
RTVSPost2010Prop50
 90
       50
102
RTVSPost2010PropOp50
 70
     1
102
RTVSPost2010Prop51ColorIndex
 90
      256
102
RTVSPost2010Prop51ColorRGB
 90
-16777216
102
RTVSPost2010PropOp51
 70
     0
102
RTVSPost2010Prop52
140
1.0
102
RTVSPost2010PropOp52
 70
     0
102
RTVSPost2010Prop53
 90
        2
102
RTVSPost2010PropOp53
 70
     1
102
RTVSPost2010Prop54
  1
strokes_ogs.tif
102
RTVSPost2010PropOp54
 70
     1
102
RTVSPost2010Prop55
280
     0
102
RTVSPost2010PropOp55
 70
     1
102
RTVSPost2010Prop56
140
1.0
102
RTVSPost2010PropOp56
 70
     1
102
RTVSPost2010Prop57
140
1.0
102
RTVSPost2010PropOp57
 70
     1
102
RTVSPropertyOp0
 70
     1
102
RTVSPropertyOp1
 70
     1
102
RTVSPropertyOp2
 70
     1
102
RTVSPropertyOp3
 70
     1
102
RTVSPropertyOp4
 70
     1
102
RTVSPropertyOp5
 70
     1
102
RTVSPropertyOp6
 70
     1
102
RTVSPropertyOp7
 70
     1
102
RTVSPropertyOp8
 70
     1
102
RTVSPropertyOp9
 70
     1
102
RTVSPropertyOp10
 70
     1
102
RTVSPropertyOp11
 70
     1
102
RTVSPropertyOp12
 70
     1
102
RTVSPropertyOp13
 70
     1
102
RTVSPropertyOp14
 70
     1
102
RTVSPropertyOp15
 70
     1
102
RTVSPropertyOp16
 70
     1
102
RTVSPropertyOp17
 70
     1
102
RTVSPropertyOp18
 70
     1
102
RTVSPropertyOp19
 70
     1
102
RTVSPropertyOp20
 70
     1
102
RTVSPropertyOp21
 70
     1
102
RTVSPropertyOp22
 70
     1
102
RTVSPropertyOp23
 70
     1
102
RTVSPropertyOp24
 70
     1
102
RTVSPropertyOp25
 70
     1
102
RTVSPropertyOp26
 70
     1
102
RTVSPropertyOp27
 70
     1
102
RTVSPropertyOp28
 70
     1
102
RTVSPropertyOp29
 70
     1
102
RTVSPropertyOp30
 70
     1
102
RTVSPropertyOp31
 70
     1
102
RTVSPropertyOp32
 70
     1
102
RTVSPropertyOp33
 70
     1
102
RTVSPropertyOp34
 70
     1
102
RTVSPropertyOp35
 70
     1
102
RTVSPropertyOp36
 70
     1
102
RTVSPropertyOp37
 70
     1
102
RTVSPropertyOp38
 70
     1
102
RTVSPropertyOp39
 70
     1
102
RTVSPropertyOp40
 70
     1
102
RTVSPropertyOp41
 70
     1
102
RTVSPropertyOp42
 70
     1
102
RTVSPropertyOp43
 70
     1
102
RTVSPropertyOp44
 70
     1
102
RTVSPropertyOp45
 70
     1
102
RTVSPropertyOp46
 70
     1
102
RTVSPropertyOp47
 70
     1
102
RTVSPropertyOp48
 70
     1
102
RTVSPropertyOp49
 70
     1
102
RTVSPropertyOp50
 70
     1
102
RTVSPropertyOp51
 70
     0
102
RTVSPropertyOp52
 70
     0
102
RTVSPropertyOp53
 70
     1
102
RTVSPropertyOp54
 70
     1
102
RTVSPropertyOp55
 70
     1
102
RTVSPropertyOp56
 70
     1
102
RTVSPropertyOp57
 70
     1
102
RTVSPropertyOp58
 70
     1
102
RTVSPropertyOp59
 70
     1
102
RTVSPropertyOp60
 70
     1
102
RTVSPropertyOp61
 70
     1
102
RTVSPropertyOp62
 70
     1
  0
XRECORD
  5
A2DD
102
{ACAD_REACTORS
330
A2DC
102
}
330
A2DC
100
AcDbXrecord
280
     1
102
RTVSPost2010Prop28
280
     0
102
RTVSPost2010PropOp28
 70
     1
102
RTVSPost2010Prop29
280
     1
102
RTVSPost2010PropOp29
 70
     1
102
RTVSPost2010Prop30
280
     1
102
RTVSPost2010PropOp30
 70
     1
102
RTVSPost2010Prop31
280
     0
102
RTVSPost2010PropOp31
 70
     1
102
RTVSPost2010Prop32
280
     0
102
RTVSPost2010PropOp32
 70
     1
102
RTVSPost2010Prop33
280
     0
102
RTVSPost2010PropOp33
 70
     1
102
RTVSPost2010Prop34
280
     0
102
RTVSPost2010PropOp34
 70
     1
102
RTVSPost2010Prop35
280
     0
102
RTVSPost2010PropOp35
 70
     1
102
RTVSPost2010Prop36
280
     0
102
RTVSPost2010PropOp36
 70
     1
102
RTVSPost2010Prop37
 90
       50
102
RTVSPost2010PropOp37
 70
     1
102
RTVSPost2010Prop38
140
0.0
102
RTVSPost2010PropOp38
 70
     1
102
RTVSPost2010Prop39
140
1.0
102
RTVSPost2010PropOp39
 70
     1
102
RTVSPost2010Prop40
 90
        0
102
RTVSPost2010PropOp40
 70
     1
102
RTVSPost2010Prop41ColorIndex
 90
       18
102
RTVSPost2010Prop41ColorRGB
 90
        0
102
RTVSPost2010PropOp41
 70
     1
102
RTVSPost2010Prop42
 90
       50
102
RTVSPost2010PropOp42
 70
     1
102
RTVSPost2010Prop43
 90
        3
102
RTVSPost2010PropOp43
 70
     1
102
RTVSPost2010Prop44ColorIndex
 90
        5
102
RTVSPost2010Prop44ColorRGB
 90
      255
102
RTVSPost2010PropOp44
 70
     1
102
RTVSPost2010Prop45
280
     0
102
RTVSPost2010PropOp45
 70
     1
102
RTVSPost2010Prop46
 90
       50
102
RTVSPost2010PropOp46
 70
     1
102
RTVSPost2010Prop47
 90
       50
102
RTVSPost2010PropOp47
 70
     1
102
RTVSPost2010Prop48
 90
       50
102
RTVSPost2010PropOp48
 70
     1
102
RTVSPost2010Prop49
280
     0
102
RTVSPost2010PropOp49
 70
     1
102
RTVSPost2010Prop50
 90
       50
102
RTVSPost2010PropOp50
 70
     1
102
RTVSPost2010Prop51ColorIndex
 90
      256
102
RTVSPost2010Prop51ColorRGB
 90
-16777216
102
RTVSPost2010PropOp51
 70
     0
102
RTVSPost2010Prop52
140
1.0
102
RTVSPost2010PropOp52
 70
     0
102
RTVSPost2010Prop53
 90
        2
102
RTVSPost2010PropOp53
 70
     1
102
RTVSPost2010Prop54
  1
strokes_ogs.tif
102
RTVSPost2010PropOp54
 70
     1
102
RTVSPost2010Prop55
280
     0
102
RTVSPost2010PropOp55
 70
     1
102
RTVSPost2010Prop56
140
1.0
102
RTVSPost2010PropOp56
 70
     1
102
RTVSPost2010Prop57
140
1.0
102
RTVSPost2010PropOp57
 70
     1
102
RTVSPropertyOp0
 70
     1
102
RTVSPropertyOp1
 70
     1
102
RTVSPropertyOp2
 70
     1
102
RTVSPropertyOp3
 70
     1
102
RTVSPropertyOp4
 70
     1
102
RTVSPropertyOp5
 70
     1
102
RTVSPropertyOp6
 70
     1
102
RTVSPropertyOp7
 70
     1
102
RTVSPropertyOp8
 70
     1
102
RTVSPropertyOp9
 70
     1
102
RTVSPropertyOp10
 70
     1
102
RTVSPropertyOp11
 70
     1
102
RTVSPropertyOp12
 70
     1
102
RTVSPropertyOp13
 70
     1
102
RTVSPropertyOp14
 70
     1
102
RTVSPropertyOp15
 70
     1
102
RTVSPropertyOp16
 70
     1
102
RTVSPropertyOp17
 70
     1
102
RTVSPropertyOp18
 70
     1
102
RTVSPropertyOp19
 70
     1
102
RTVSPropertyOp20
 70
     1
102
RTVSPropertyOp21
 70
     1
102
RTVSPropertyOp22
 70
     1
102
RTVSPropertyOp23
 70
     1
102
RTVSPropertyOp24
 70
     1
102
RTVSPropertyOp25
 70
     1
102
RTVSPropertyOp26
 70
     1
102
RTVSPropertyOp27
 70
     1
102
RTVSPropertyOp28
 70
     1
102
RTVSPropertyOp29
 70
     1
102
RTVSPropertyOp30
 70
     1
102
RTVSPropertyOp31
 70
     1
102
RTVSPropertyOp32
 70
     1
102
RTVSPropertyOp33
 70
     1
102
RTVSPropertyOp34
 70
     1
102
RTVSPropertyOp35
 70
     1
102
RTVSPropertyOp36
 70
     1
102
RTVSPropertyOp37
 70
     1
102
RTVSPropertyOp38
 70
     1
102
RTVSPropertyOp39
 70
     1
102
RTVSPropertyOp40
 70
     1
102
RTVSPropertyOp41
 70
     1
102
RTVSPropertyOp42
 70
     1
102
RTVSPropertyOp43
 70
     1
102
RTVSPropertyOp44
 70
     1
102
RTVSPropertyOp45
 70
     1
102
RTVSPropertyOp46
 70
     1
102
RTVSPropertyOp47
 70
     1
102
RTVSPropertyOp48
 70
     1
102
RTVSPropertyOp49
 70
     1
102
RTVSPropertyOp50
 70
     1
102
RTVSPropertyOp51
 70
     0
102
RTVSPropertyOp52
 70
     0
102
RTVSPropertyOp53
 70
     1
102
RTVSPropertyOp54
 70
     1
102
RTVSPropertyOp55
 70
     1
102
RTVSPropertyOp56
 70
     1
102
RTVSPropertyOp57
 70
     1
102
RTVSPropertyOp58
 70
     1
102
RTVSPropertyOp59
 70
     1
102
RTVSPropertyOp60
 70
     1
102
RTVSPropertyOp61
 70
     1
102
RTVSPropertyOp62
 70
     1
  0
XRECORD
  5
A2CF
102
{ACAD_REACTORS
330
A2CE
102
}
330
A2CE
100
AcDbXrecord
280
     1
102
RTVSPost2010Prop28
280
     0
102
RTVSPost2010PropOp28
 70
     1
102
RTVSPost2010Prop29
280
     1
102
RTVSPost2010PropOp29
 70
     1
102
RTVSPost2010Prop30
280
     1
102
RTVSPost2010PropOp30
 70
     1
102
RTVSPost2010Prop31
280
     0
102
RTVSPost2010PropOp31
 70
     1
102
RTVSPost2010Prop32
280
     0
102
RTVSPost2010PropOp32
 70
     1
102
RTVSPost2010Prop33
280
     0
102
RTVSPost2010PropOp33
 70
     1
102
RTVSPost2010Prop34
280
     0
102
RTVSPost2010PropOp34
 70
     1
102
RTVSPost2010Prop35
280
     0
102
RTVSPost2010PropOp35
 70
     1
102
RTVSPost2010Prop36
280
     0
102
RTVSPost2010PropOp36
 70
     1
102
RTVSPost2010Prop37
 90
       50
102
RTVSPost2010PropOp37
 70
     1
102
RTVSPost2010Prop38
140
0.0
102
RTVSPost2010PropOp38
 70
     1
102
RTVSPost2010Prop39
140
1.0
102
RTVSPost2010PropOp39
 70
     1
102
RTVSPost2010Prop40
 90
        0
102
RTVSPost2010PropOp40
 70
     1
102
RTVSPost2010Prop41ColorIndex
 90
       18
102
RTVSPost2010Prop41ColorRGB
 90
        0
102
RTVSPost2010PropOp41
 70
     1
102
RTVSPost2010Prop42
 90
       50
102
RTVSPost2010PropOp42
 70
     1
102
RTVSPost2010Prop43
 90
        3
102
RTVSPost2010PropOp43
 70
     1
102
RTVSPost2010Prop44ColorIndex
 90
        5
102
RTVSPost2010Prop44ColorRGB
 90
      255
102
RTVSPost2010PropOp44
 70
     1
102
RTVSPost2010Prop45
280
     0
102
RTVSPost2010PropOp45
 70
     1
102
RTVSPost2010Prop46
 90
       50
102
RTVSPost2010PropOp46
 70
     1
102
RTVSPost2010Prop47
 90
       50
102
RTVSPost2010PropOp47
 70
     1
102
RTVSPost2010Prop48
 90
       50
102
RTVSPost2010PropOp48
 70
     1
102
RTVSPost2010Prop49
280
     0
102
RTVSPost2010PropOp49
 70
     1
102
RTVSPost2010Prop50
 90
       50
102
RTVSPost2010PropOp50
 70
     1
102
RTVSPost2010Prop51ColorIndex
 90
      256
102
RTVSPost2010Prop51ColorRGB
 90
-16777216
102
RTVSPost2010PropOp51
 70
     0
102
RTVSPost2010Prop52
140
1.0
102
RTVSPost2010PropOp52
 70
     0
102
RTVSPost2010Prop53
 90
        2
102
RTVSPost2010PropOp53
 70
     1
102
RTVSPost2010Prop54
  1
strokes_ogs.tif
102
RTVSPost2010PropOp54
 70
     1
102
RTVSPost2010Prop55
280
     0
102
RTVSPost2010PropOp55
 70
     1
102
RTVSPost2010Prop56
140
1.0
102
RTVSPost2010PropOp56
 70
     1
102
RTVSPost2010Prop57
140
1.0
102
RTVSPost2010PropOp57
 70
     1
102
RTVSPropertyOp0
 70
     1
102
RTVSPropertyOp1
 70
     1
102
RTVSPropertyOp2
 70
     1
102
RTVSPropertyOp3
 70
     1
102
RTVSPropertyOp4
 70
     1
102
RTVSPropertyOp5
 70
     1
102
RTVSPropertyOp6
 70
     1
102
RTVSPropertyOp7
 70
     1
102
RTVSPropertyOp8
 70
     1
102
RTVSPropertyOp9
 70
     1
102
RTVSPropertyOp10
 70
     1
102
RTVSPropertyOp11
 70
     1
102
RTVSPropertyOp12
 70
     1
102
RTVSPropertyOp13
 70
     1
102
RTVSPropertyOp14
 70
     1
102
RTVSPropertyOp15
 70
     1
102
RTVSPropertyOp16
 70
     1
102
RTVSPropertyOp17
 70
     1
102
RTVSPropertyOp18
 70
     1
102
RTVSPropertyOp19
 70
     1
102
RTVSPropertyOp20
 70
     1
102
RTVSPropertyOp21
 70
     1
102
RTVSPropertyOp22
 70
     1
102
RTVSPropertyOp23
 70
     1
102
RTVSPropertyOp24
 70
     1
102
RTVSPropertyOp25
 70
     1
102
RTVSPropertyOp26
 70
     1
102
RTVSPropertyOp27
 70
     1
102
RTVSPropertyOp28
 70
     1
102
RTVSPropertyOp29
 70
     1
102
RTVSPropertyOp30
 70
     1
102
RTVSPropertyOp31
 70
     1
102
RTVSPropertyOp32
 70
     1
102
RTVSPropertyOp33
 70
     1
102
RTVSPropertyOp34
 70
     1
102
RTVSPropertyOp35
 70
     1
102
RTVSPropertyOp36
 70
     1
102
RTVSPropertyOp37
 70
     1
102
RTVSPropertyOp38
 70
     1
102
RTVSPropertyOp39
 70
     1
102
RTVSPropertyOp40
 70
     1
102
RTVSPropertyOp41
 70
     1
102
RTVSPropertyOp42
 70
     1
102
RTVSPropertyOp43
 70
     1
102
RTVSPropertyOp44
 70
     1
102
RTVSPropertyOp45
 70
     1
102
RTVSPropertyOp46
 70
     1
102
RTVSPropertyOp47
 70
     1
102
RTVSPropertyOp48
 70
     1
102
RTVSPropertyOp49
 70
     1
102
RTVSPropertyOp50
 70
     1
102
RTVSPropertyOp51
 70
     0
102
RTVSPropertyOp52
 70
     0
102
RTVSPropertyOp53
 70
     1
102
RTVSPropertyOp54
 70
     1
102
RTVSPropertyOp55
 70
     1
102
RTVSPropertyOp56
 70
     1
102
RTVSPropertyOp57
 70
     1
102
RTVSPropertyOp58
 70
     1
102
RTVSPropertyOp59
 70
     1
102
RTVSPropertyOp60
 70
     1
102
RTVSPropertyOp61
 70
     1
102
RTVSPropertyOp62
 70
     1
  0
XRECORD
  5
A2D3
102
{ACAD_REACTORS
330
A2D2
102
}
330
A2D2
100
AcDbXrecord
280
     1
102
RTVSPost2010Prop28
280
     0
102
RTVSPost2010PropOp28
 70
     1
102
RTVSPost2010Prop29
280
     1
102
RTVSPost2010PropOp29
 70
     1
102
RTVSPost2010Prop30
280
     1
102
RTVSPost2010PropOp30
 70
     1
102
RTVSPost2010Prop31
280
     0
102
RTVSPost2010PropOp31
 70
     1
102
RTVSPost2010Prop32
280
     0
102
RTVSPost2010PropOp32
 70
     1
102
RTVSPost2010Prop33
280
     0
102
RTVSPost2010PropOp33
 70
     1
102
RTVSPost2010Prop34
280
     0
102
RTVSPost2010PropOp34
 70
     1
102
RTVSPost2010Prop35
280
     0
102
RTVSPost2010PropOp35
 70
     1
102
RTVSPost2010Prop36
280
     0
102
RTVSPost2010PropOp36
 70
     1
102
RTVSPost2010Prop37
 90
       50
102
RTVSPost2010PropOp37
 70
     1
102
RTVSPost2010Prop38
140
0.0
102
RTVSPost2010PropOp38
 70
     1
102
RTVSPost2010Prop39
140
1.0
102
RTVSPost2010PropOp39
 70
     1
102
RTVSPost2010Prop40
 90
        0
102
RTVSPost2010PropOp40
 70
     1
102
RTVSPost2010Prop41ColorIndex
 90
       18
102
RTVSPost2010Prop41ColorRGB
 90
        0
102
RTVSPost2010PropOp41
 70
     1
102
RTVSPost2010Prop42
 90
       50
102
RTVSPost2010PropOp42
 70
     1
102
RTVSPost2010Prop43
 90
        3
102
RTVSPost2010PropOp43
 70
     1
102
RTVSPost2010Prop44ColorIndex
 90
        5
102
RTVSPost2010Prop44ColorRGB
 90
      255
102
RTVSPost2010PropOp44
 70
     1
102
RTVSPost2010Prop45
280
     0
102
RTVSPost2010PropOp45
 70
     1
102
RTVSPost2010Prop46
 90
       50
102
RTVSPost2010PropOp46
 70
     1
102
RTVSPost2010Prop47
 90
       50
102
RTVSPost2010PropOp47
 70
     1
102
RTVSPost2010Prop48
 90
       50
102
RTVSPost2010PropOp48
 70
     1
102
RTVSPost2010Prop49
280
     0
102
RTVSPost2010PropOp49
 70
     1
102
RTVSPost2010Prop50
 90
       50
102
RTVSPost2010PropOp50
 70
     1
102
RTVSPost2010Prop51ColorIndex
 90
      256
102
RTVSPost2010Prop51ColorRGB
 90
-16777216
102
RTVSPost2010PropOp51
 70
     0
102
RTVSPost2010Prop52
140
1.0
102
RTVSPost2010PropOp52
 70
     0
102
RTVSPost2010Prop53
 90
        2
102
RTVSPost2010PropOp53
 70
     1
102
RTVSPost2010Prop54
  1
strokes_ogs.tif
102
RTVSPost2010PropOp54
 70
     1
102
RTVSPost2010Prop55
280
     0
102
RTVSPost2010PropOp55
 70
     1
102
RTVSPost2010Prop56
140
1.0
102
RTVSPost2010PropOp56
 70
     1
102
RTVSPost2010Prop57
140
1.0
102
RTVSPost2010PropOp57
 70
     1
102
RTVSPropertyOp0
 70
     1
102
RTVSPropertyOp1
 70
     1
102
RTVSPropertyOp2
 70
     1
102
RTVSPropertyOp3
 70
     1
102
RTVSPropertyOp4
 70
     1
102
RTVSPropertyOp5
 70
     1
102
RTVSPropertyOp6
 70
     1
102
RTVSPropertyOp7
 70
     1
102
RTVSPropertyOp8
 70
     1
102
RTVSPropertyOp9
 70
     1
102
RTVSPropertyOp10
 70
     1
102
RTVSPropertyOp11
 70
     1
102
RTVSPropertyOp12
 70
     1
102
RTVSPropertyOp13
 70
     1
102
RTVSPropertyOp14
 70
     1
102
RTVSPropertyOp15
 70
     1
102
RTVSPropertyOp16
 70
     1
102
RTVSPropertyOp17
 70
     1
102
RTVSPropertyOp18
 70
     1
102
RTVSPropertyOp19
 70
     1
102
RTVSPropertyOp20
 70
     1
102
RTVSPropertyOp21
 70
     1
102
RTVSPropertyOp22
 70
     1
102
RTVSPropertyOp23
 70
     1
102
RTVSPropertyOp24
 70
     1
102
RTVSPropertyOp25
 70
     1
102
RTVSPropertyOp26
 70
     1
102
RTVSPropertyOp27
 70
     1
102
RTVSPropertyOp28
 70
     1
102
RTVSPropertyOp29
 70
     1
102
RTVSPropertyOp30
 70
     1
102
RTVSPropertyOp31
 70
     1
102
RTVSPropertyOp32
 70
     1
102
RTVSPropertyOp33
 70
     1
102
RTVSPropertyOp34
 70
     1
102
RTVSPropertyOp35
 70
     1
102
RTVSPropertyOp36
 70
     1
102
RTVSPropertyOp37
 70
     1
102
RTVSPropertyOp38
 70
     1
102
RTVSPropertyOp39
 70
     1
102
RTVSPropertyOp40
 70
     1
102
RTVSPropertyOp41
 70
     1
102
RTVSPropertyOp42
 70
     1
102
RTVSPropertyOp43
 70
     1
102
RTVSPropertyOp44
 70
     1
102
RTVSPropertyOp45
 70
     1
102
RTVSPropertyOp46
 70
     1
102
RTVSPropertyOp47
 70
     1
102
RTVSPropertyOp48
 70
     1
102
RTVSPropertyOp49
 70
     1
102
RTVSPropertyOp50
 70
     1
102
RTVSPropertyOp51
 70
     0
102
RTVSPropertyOp52
 70
     0
102
RTVSPropertyOp53
 70
     1
102
RTVSPropertyOp54
 70
     1
102
RTVSPropertyOp55
 70
     1
102
RTVSPropertyOp56
 70
     1
102
RTVSPropertyOp57
 70
     1
102
RTVSPropertyOp58
 70
     1
102
RTVSPropertyOp59
 70
     1
102
RTVSPropertyOp60
 70
     1
102
RTVSPropertyOp61
 70
     1
102
RTVSPropertyOp62
 70
     1
  0
XRECORD
  5
A2ED
102
{ACAD_REACTORS
330
A2EC
102
}
330
A2EC
100
AcDbXrecord
280
     1
102
RTVSPost2010Prop28
280
     0
102
RTVSPost2010PropOp28
 70
     1
102
RTVSPost2010Prop29
280
     1
102
RTVSPost2010PropOp29
 70
     1
102
RTVSPost2010Prop30
280
     1
102
RTVSPost2010PropOp30
 70
     1
102
RTVSPost2010Prop31
280
     0
102
RTVSPost2010PropOp31
 70
     1
102
RTVSPost2010Prop32
280
     0
102
RTVSPost2010PropOp32
 70
     1
102
RTVSPost2010Prop33
280
     0
102
RTVSPost2010PropOp33
 70
     1
102
RTVSPost2010Prop34
280
     0
102
RTVSPost2010PropOp34
 70
     1
102
RTVSPost2010Prop35
280
     0
102
RTVSPost2010PropOp35
 70
     1
102
RTVSPost2010Prop36
280
     0
102
RTVSPost2010PropOp36
 70
     1
102
RTVSPost2010Prop37
 90
       50
102
RTVSPost2010PropOp37
 70
     0
102
RTVSPost2010Prop38
140
0.0
102
RTVSPost2010PropOp38
 70
     0
102
RTVSPost2010Prop39
140
1.0
102
RTVSPost2010PropOp39
 70
     0
102
RTVSPost2010Prop40
 90
        0
102
RTVSPost2010PropOp40
 70
     0
102
RTVSPost2010Prop41ColorIndex
 90
       18
102
RTVSPost2010Prop41ColorRGB
 90
        0
102
RTVSPost2010PropOp41
 70
     0
102
RTVSPost2010Prop42
 90
       50
102
RTVSPost2010PropOp42
 70
     0
102
RTVSPost2010Prop43
 90
        3
102
RTVSPost2010PropOp43
 70
     0
102
RTVSPost2010Prop44ColorIndex
 90
        5
102
RTVSPost2010Prop44ColorRGB
 90
      255
102
RTVSPost2010PropOp44
 70
     0
102
RTVSPost2010Prop45
280
     0
102
RTVSPost2010PropOp45
 70
     1
102
RTVSPost2010Prop46
 90
       50
102
RTVSPost2010PropOp46
 70
     0
102
RTVSPost2010Prop47
 90
       50
102
RTVSPost2010PropOp47
 70
     0
102
RTVSPost2010Prop48
 90
       50
102
RTVSPost2010PropOp48
 70
     0
102
RTVSPost2010Prop49
280
     0
102
RTVSPost2010PropOp49
 70
     1
102
RTVSPost2010Prop50
 90
       50
102
RTVSPost2010PropOp50
 70
     0
102
RTVSPost2010Prop51ColorIndex
 90
      256
102
RTVSPost2010Prop51ColorRGB
 90
-16777216
102
RTVSPost2010PropOp51
 70
     0
102
RTVSPost2010Prop52
140
1.0
102
RTVSPost2010PropOp52
 70
     0
102
RTVSPost2010Prop53
 90
        2
102
RTVSPost2010PropOp53
 70
     0
102
RTVSPost2010Prop54
  1
strokes_ogs.tif
102
RTVSPost2010PropOp54
 70
     0
102
RTVSPost2010Prop55
280
     0
102
RTVSPost2010PropOp55
 70
     1
102
RTVSPost2010Prop56
140
1.0
102
RTVSPost2010PropOp56
 70
     0
102
RTVSPost2010Prop57
140
1.0
102
RTVSPost2010PropOp57
 70
     0
102
RTVSPropertyOp0
 70
     0
102
RTVSPropertyOp1
 70
     0
102
RTVSPropertyOp2
 70
     0
102
RTVSPropertyOp3
 70
     0
102
RTVSPropertyOp4
 70
     0
102
RTVSPropertyOp5
 70
     0
102
RTVSPropertyOp6
 70
     0
102
RTVSPropertyOp7
 70
     0
102
RTVSPropertyOp8
 70
     0
102
RTVSPropertyOp9
 70
     0
102
RTVSPropertyOp10
 70
     0
102
RTVSPropertyOp11
 70
     0
102
RTVSPropertyOp12
 70
     0
102
RTVSPropertyOp13
 70
     0
102
RTVSPropertyOp14
 70
     2
102
RTVSPropertyOp15
 70
     0
102
RTVSPropertyOp16
 70
     0
102
RTVSPropertyOp17
 70
     0
102
RTVSPropertyOp18
 70
     0
102
RTVSPropertyOp19
 70
     0
102
RTVSPropertyOp20
 70
     0
102
RTVSPropertyOp21
 70
     0
102
RTVSPropertyOp22
 70
     0
102
RTVSPropertyOp23
 70
     0
102
RTVSPropertyOp24
 70
     0
102
RTVSPropertyOp25
 70
     0
102
RTVSPropertyOp26
 70
     0
102
RTVSPropertyOp27
 70
     0
102
RTVSPropertyOp28
 70
     1
102
RTVSPropertyOp29
 70
     1
102
RTVSPropertyOp30
 70
     1
102
RTVSPropertyOp31
 70
     1
102
RTVSPropertyOp32
 70
     1
102
RTVSPropertyOp33
 70
     1
102
RTVSPropertyOp34
 70
     1
102
RTVSPropertyOp35
 70
     1
102
RTVSPropertyOp36
 70
     1
102
RTVSPropertyOp37
 70
     0
102
RTVSPropertyOp38
 70
     0
102
RTVSPropertyOp39
 70
     0
102
RTVSPropertyOp40
 70
     0
102
RTVSPropertyOp41
 70
     0
102
RTVSPropertyOp42
 70
     0
102
RTVSPropertyOp43
 70
     0
102
RTVSPropertyOp44
 70
     0
102
RTVSPropertyOp45
 70
     1
102
RTVSPropertyOp46
 70
     0
102
RTVSPropertyOp47
 70
     0
102
RTVSPropertyOp48
 70
     0
102
RTVSPropertyOp49
 70
     1
102
RTVSPropertyOp50
 70
     0
102
RTVSPropertyOp51
 70
     0
102
RTVSPropertyOp52
 70
     0
102
RTVSPropertyOp53
 70
     0
102
RTVSPropertyOp54
 70
     0
102
RTVSPropertyOp55
 70
     1
102
RTVSPropertyOp56
 70
     0
102
RTVSPropertyOp57
 70
     0
102
RTVSPropertyOp58
 70
     0
102
RTVSPropertyOp59
 70
     0
102
RTVSPropertyOp60
 70
     0
102
RTVSPropertyOp61
 70
     0
102
RTVSPropertyOp62
 70
     0
  0
XRECORD
  5
A2DB
102
{ACAD_REACTORS
330
A2DA
102
}
330
A2DA
100
AcDbXrecord
280
     1
102
RTVSPost2010Prop28
280
     0
102
RTVSPost2010PropOp28
 70
     1
102
RTVSPost2010Prop29
280
     1
102
RTVSPost2010PropOp29
 70
     1
102
RTVSPost2010Prop30
280
     1
102
RTVSPost2010PropOp30
 70
     1
102
RTVSPost2010Prop31
280
     0
102
RTVSPost2010PropOp31
 70
     1
102
RTVSPost2010Prop32
280
     0
102
RTVSPost2010PropOp32
 70
     1
102
RTVSPost2010Prop33
280
     0
102
RTVSPost2010PropOp33
 70
     1
102
RTVSPost2010Prop34
280
     0
102
RTVSPost2010PropOp34
 70
     1
102
RTVSPost2010Prop35
280
     0
102
RTVSPost2010PropOp35
 70
     1
102
RTVSPost2010Prop36
280
     0
102
RTVSPost2010PropOp36
 70
     1
102
RTVSPost2010Prop37
 90
       50
102
RTVSPost2010PropOp37
 70
     1
102
RTVSPost2010Prop38
140
0.0
102
RTVSPost2010PropOp38
 70
     1
102
RTVSPost2010Prop39
140
1.0
102
RTVSPost2010PropOp39
 70
     1
102
RTVSPost2010Prop40
 90
        0
102
RTVSPost2010PropOp40
 70
     1
102
RTVSPost2010Prop41ColorIndex
 90
       18
102
RTVSPost2010Prop41ColorRGB
 90
        0
102
RTVSPost2010PropOp41
 70
     1
102
RTVSPost2010Prop42
 90
       50
102
RTVSPost2010PropOp42
 70
     1
102
RTVSPost2010Prop43
 90
        3
102
RTVSPost2010PropOp43
 70
     1
102
RTVSPost2010Prop44ColorIndex
 90
        5
102
RTVSPost2010Prop44ColorRGB
 90
      255
102
RTVSPost2010PropOp44
 70
     1
102
RTVSPost2010Prop45
280
     0
102
RTVSPost2010PropOp45
 70
     1
102
RTVSPost2010Prop46
 90
       50
102
RTVSPost2010PropOp46
 70
     1
102
RTVSPost2010Prop47
 90
       50
102
RTVSPost2010PropOp47
 70
     1
102
RTVSPost2010Prop48
 90
       50
102
RTVSPost2010PropOp48
 70
     1
102
RTVSPost2010Prop49
280
     0
102
RTVSPost2010PropOp49
 70
     1
102
RTVSPost2010Prop50
 90
       50
102
RTVSPost2010PropOp50
 70
     1
102
RTVSPost2010Prop51ColorIndex
 90
      256
102
RTVSPost2010Prop51ColorRGB
 90
-16777216
102
RTVSPost2010PropOp51
 70
     0
102
RTVSPost2010Prop52
140
1.0
102
RTVSPost2010PropOp52
 70
     0
102
RTVSPost2010Prop53
 90
        2
102
RTVSPost2010PropOp53
 70
     1
102
RTVSPost2010Prop54
  1
strokes_ogs.tif
102
RTVSPost2010PropOp54
 70
     1
102
RTVSPost2010Prop55
280
     0
102
RTVSPost2010PropOp55
 70
     1
102
RTVSPost2010Prop56
140
1.0
102
RTVSPost2010PropOp56
 70
     1
102
RTVSPost2010Prop57
140
1.0
102
RTVSPost2010PropOp57
 70
     1
102
RTVSPropertyOp0
 70
     1
102
RTVSPropertyOp1
 70
     1
102
RTVSPropertyOp2
 70
     1
102
RTVSPropertyOp3
 70
     1
102
RTVSPropertyOp4
 70
     1
102
RTVSPropertyOp5
 70
     1
102
RTVSPropertyOp6
 70
     1
102
RTVSPropertyOp7
 70
     1
102
RTVSPropertyOp8
 70
     1
102
RTVSPropertyOp9
 70
     1
102
RTVSPropertyOp10
 70
     1
102
RTVSPropertyOp11
 70
     1
102
RTVSPropertyOp12
 70
     1
102
RTVSPropertyOp13
 70
     1
102
RTVSPropertyOp14
 70
     1
102
RTVSPropertyOp15
 70
     1
102
RTVSPropertyOp16
 70
     1
102
RTVSPropertyOp17
 70
     1
102
RTVSPropertyOp18
 70
     1
102
RTVSPropertyOp19
 70
     1
102
RTVSPropertyOp20
 70
     1
102
RTVSPropertyOp21
 70
     1
102
RTVSPropertyOp22
 70
     1
102
RTVSPropertyOp23
 70
     1
102
RTVSPropertyOp24
 70
     1
102
RTVSPropertyOp25
 70
     1
102
RTVSPropertyOp26
 70
     1
102
RTVSPropertyOp27
 70
     1
102
RTVSPropertyOp28
 70
     1
102
RTVSPropertyOp29
 70
     1
102
RTVSPropertyOp30
 70
     1
102
RTVSPropertyOp31
 70
     1
102
RTVSPropertyOp32
 70
     1
102
RTVSPropertyOp33
 70
     1
102
RTVSPropertyOp34
 70
     1
102
RTVSPropertyOp35
 70
     1
102
RTVSPropertyOp36
 70
     1
102
RTVSPropertyOp37
 70
     1
102
RTVSPropertyOp38
 70
     1
102
RTVSPropertyOp39
 70
     1
102
RTVSPropertyOp40
 70
     1
102
RTVSPropertyOp41
 70
     1
102
RTVSPropertyOp42
 70
     1
102
RTVSPropertyOp43
 70
     1
102
RTVSPropertyOp44
 70
     1
102
RTVSPropertyOp45
 70
     1
102
RTVSPropertyOp46
 70
     1
102
RTVSPropertyOp47
 70
     1
102
RTVSPropertyOp48
 70
     1
102
RTVSPropertyOp49
 70
     1
102
RTVSPropertyOp50
 70
     1
102
RTVSPropertyOp51
 70
     0
102
RTVSPropertyOp52
 70
     0
102
RTVSPropertyOp53
 70
     1
102
RTVSPropertyOp54
 70
     1
102
RTVSPropertyOp55
 70
     1
102
RTVSPropertyOp56
 70
     1
102
RTVSPropertyOp57
 70
     1
102
RTVSPropertyOp58
 70
     1
102
RTVSPropertyOp59
 70
     1
102
RTVSPropertyOp60
 70
     1
102
RTVSPropertyOp61
 70
     1
102
RTVSPropertyOp62
 70
     1
  0
XRECORD
  5
A2BF
102
{ACAD_REACTORS
330
A2BE
102
}
330
A2BE
100
AcDbXrecord
280
     1
102
RTVSPost2010Prop28
280
     0
102
RTVSPost2010PropOp28
 70
     1
102
RTVSPost2010Prop29
280
     1
102
RTVSPost2010PropOp29
 70
     1
102
RTVSPost2010Prop30
280
     1
102
RTVSPost2010PropOp30
 70
     1
102
RTVSPost2010Prop31
280
     0
102
RTVSPost2010PropOp31
 70
     1
102
RTVSPost2010Prop32
280
     0
102
RTVSPost2010PropOp32
 70
     1
102
RTVSPost2010Prop33
280
     0
102
RTVSPost2010PropOp33
 70
     1
102
RTVSPost2010Prop34
280
     0
102
RTVSPost2010PropOp34
 70
     1
102
RTVSPost2010Prop35
280
     0
102
RTVSPost2010PropOp35
 70
     1
102
RTVSPost2010Prop36
280
     0
102
RTVSPost2010PropOp36
 70
     1
102
RTVSPost2010Prop37
 90
       50
102
RTVSPost2010PropOp37
 70
     1
102
RTVSPost2010Prop38
140
0.0
102
RTVSPost2010PropOp38
 70
     1
102
RTVSPost2010Prop39
140
1.0
102
RTVSPost2010PropOp39
 70
     1
102
RTVSPost2010Prop40
 90
        0
102
RTVSPost2010PropOp40
 70
     1
102
RTVSPost2010Prop41ColorIndex
 90
       18
102
RTVSPost2010Prop41ColorRGB
 90
        0
102
RTVSPost2010PropOp41
 70
     1
102
RTVSPost2010Prop42
 90
       50
102
RTVSPost2010PropOp42
 70
     1
102
RTVSPost2010Prop43
 90
        3
102
RTVSPost2010PropOp43
 70
     1
102
RTVSPost2010Prop44ColorIndex
 90
        5
102
RTVSPost2010Prop44ColorRGB
 90
      255
102
RTVSPost2010PropOp44
 70
     1
102
RTVSPost2010Prop45
280
     0
102
RTVSPost2010PropOp45
 70
     1
102
RTVSPost2010Prop46
 90
       50
102
RTVSPost2010PropOp46
 70
     1
102
RTVSPost2010Prop47
 90
       50
102
RTVSPost2010PropOp47
 70
     1
102
RTVSPost2010Prop48
 90
       50
102
RTVSPost2010PropOp48
 70
     1
102
RTVSPost2010Prop49
280
     0
102
RTVSPost2010PropOp49
 70
     1
102
RTVSPost2010Prop50
 90
       50
102
RTVSPost2010PropOp50
 70
     1
102
RTVSPost2010Prop51ColorIndex
 90
      256
102
RTVSPost2010Prop51ColorRGB
 90
-16777216
102
RTVSPost2010PropOp51
 70
     0
102
RTVSPost2010Prop52
140
1.0
102
RTVSPost2010PropOp52
 70
     0
102
RTVSPost2010Prop53
 90
        2
102
RTVSPost2010PropOp53
 70
     1
102
RTVSPost2010Prop54
  1
strokes_ogs.tif
102
RTVSPost2010PropOp54
 70
     1
102
RTVSPost2010Prop55
280
     0
102
RTVSPost2010PropOp55
 70
     1
102
RTVSPost2010Prop56
140
1.0
102
RTVSPost2010PropOp56
 70
     1
102
RTVSPost2010Prop57
140
1.0
102
RTVSPost2010PropOp57
 70
     1
102
RTVSPropertyOp0
 70
     1
102
RTVSPropertyOp1
 70
     1
102
RTVSPropertyOp2
 70
     1
102
RTVSPropertyOp3
 70
     1
102
RTVSPropertyOp4
 70
     1
102
RTVSPropertyOp5
 70
     1
102
RTVSPropertyOp6
 70
     1
102
RTVSPropertyOp7
 70
     1
102
RTVSPropertyOp8
 70
     1
102
RTVSPropertyOp9
 70
     1
102
RTVSPropertyOp10
 70
     1
102
RTVSPropertyOp11
 70
     1
102
RTVSPropertyOp12
 70
     1
102
RTVSPropertyOp13
 70
     1
102
RTVSPropertyOp14
 70
     1
102
RTVSPropertyOp15
 70
     1
102
RTVSPropertyOp16
 70
     1
102
RTVSPropertyOp17
 70
     1
102
RTVSPropertyOp18
 70
     1
102
RTVSPropertyOp19
 70
     1
102
RTVSPropertyOp20
 70
     1
102
RTVSPropertyOp21
 70
     1
102
RTVSPropertyOp22
 70
     1
102
RTVSPropertyOp23
 70
     1
102
RTVSPropertyOp24
 70
     1
102
RTVSPropertyOp25
 70
     1
102
RTVSPropertyOp26
 70
     1
102
RTVSPropertyOp27
 70
     1
102
RTVSPropertyOp28
 70
     1
102
RTVSPropertyOp29
 70
     1
102
RTVSPropertyOp30
 70
     1
102
RTVSPropertyOp31
 70
     1
102
RTVSPropertyOp32
 70
     1
102
RTVSPropertyOp33
 70
     1
102
RTVSPropertyOp34
 70
     1
102
RTVSPropertyOp35
 70
     1
102
RTVSPropertyOp36
 70
     1
102
RTVSPropertyOp37
 70
     1
102
RTVSPropertyOp38
 70
     1
102
RTVSPropertyOp39
 70
     1
102
RTVSPropertyOp40
 70
     1
102
RTVSPropertyOp41
 70
     1
102
RTVSPropertyOp42
 70
     1
102
RTVSPropertyOp43
 70
     1
102
RTVSPropertyOp44
 70
     1
102
RTVSPropertyOp45
 70
     1
102
RTVSPropertyOp46
 70
     1
102
RTVSPropertyOp47
 70
     1
102
RTVSPropertyOp48
 70
     1
102
RTVSPropertyOp49
 70
     1
102
RTVSPropertyOp50
 70
     1
102
RTVSPropertyOp51
 70
     0
102
RTVSPropertyOp52
 70
     0
102
RTVSPropertyOp53
 70
     1
102
RTVSPropertyOp54
 70
     1
102
RTVSPropertyOp55
 70
     1
102
RTVSPropertyOp56
 70
     1
102
RTVSPropertyOp57
 70
     1
102
RTVSPropertyOp58
 70
     1
102
RTVSPropertyOp59
 70
     1
102
RTVSPropertyOp60
 70
     1
102
RTVSPropertyOp61
 70
     1
102
RTVSPropertyOp62
 70
     1
  0
XRECORD
  5
A2C1
102
{ACAD_REACTORS
330
A2C0
102
}
330
A2C0
100
AcDbXrecord
280
     1
102
RTVSPost2010Prop28
280
     0
102
RTVSPost2010PropOp28
 70
     1
102
RTVSPost2010Prop29
280
     1
102
RTVSPost2010PropOp29
 70
     1
102
RTVSPost2010Prop30
280
     1
102
RTVSPost2010PropOp30
 70
     1
102
RTVSPost2010Prop31
280
     0
102
RTVSPost2010PropOp31
 70
     1
102
RTVSPost2010Prop32
280
     0
102
RTVSPost2010PropOp32
 70
     1
102
RTVSPost2010Prop33
280
     0
102
RTVSPost2010PropOp33
 70
     1
102
RTVSPost2010Prop34
280
     0
102
RTVSPost2010PropOp34
 70
     1
102
RTVSPost2010Prop35
280
     0
102
RTVSPost2010PropOp35
 70
     1
102
RTVSPost2010Prop36
280
     0
102
RTVSPost2010PropOp36
 70
     1
102
RTVSPost2010Prop37
 90
       50
102
RTVSPost2010PropOp37
 70
     1
102
RTVSPost2010Prop38
140
0.0
102
RTVSPost2010PropOp38
 70
     1
102
RTVSPost2010Prop39
140
1.0
102
RTVSPost2010PropOp39
 70
     1
102
RTVSPost2010Prop40
 90
        0
102
RTVSPost2010PropOp40
 70
     1
102
RTVSPost2010Prop41ColorIndex
 90
       18
102
RTVSPost2010Prop41ColorRGB
 90
        0
102
RTVSPost2010PropOp41
 70
     1
102
RTVSPost2010Prop42
 90
       50
102
RTVSPost2010PropOp42
 70
     1
102
RTVSPost2010Prop43
 90
        3
102
RTVSPost2010PropOp43
 70
     1
102
RTVSPost2010Prop44ColorIndex
 90
        5
102
RTVSPost2010Prop44ColorRGB
 90
      255
102
RTVSPost2010PropOp44
 70
     1
102
RTVSPost2010Prop45
280
     0
102
RTVSPost2010PropOp45
 70
     1
102
RTVSPost2010Prop46
 90
       50
102
RTVSPost2010PropOp46
 70
     1
102
RTVSPost2010Prop47
 90
       50
102
RTVSPost2010PropOp47
 70
     1
102
RTVSPost2010Prop48
 90
       50
102
RTVSPost2010PropOp48
 70
     1
102
RTVSPost2010Prop49
280
     0
102
RTVSPost2010PropOp49
 70
     1
102
RTVSPost2010Prop50
 90
       50
102
RTVSPost2010PropOp50
 70
     1
102
RTVSPost2010Prop51ColorIndex
 90
      256
102
RTVSPost2010Prop51ColorRGB
 90
-16777216
102
RTVSPost2010PropOp51
 70
     0
102
RTVSPost2010Prop52
140
1.0
102
RTVSPost2010PropOp52
 70
     0
102
RTVSPost2010Prop53
 90
        2
102
RTVSPost2010PropOp53
 70
     1
102
RTVSPost2010Prop54
  1
strokes_ogs.tif
102
RTVSPost2010PropOp54
 70
     1
102
RTVSPost2010Prop55
280
     0
102
RTVSPost2010PropOp55
 70
     1
102
RTVSPost2010Prop56
140
1.0
102
RTVSPost2010PropOp56
 70
     1
102
RTVSPost2010Prop57
140
1.0
102
RTVSPost2010PropOp57
 70
     1
102
RTVSPropertyOp0
 70
     1
102
RTVSPropertyOp1
 70
     1
102
RTVSPropertyOp2
 70
     1
102
RTVSPropertyOp3
 70
     1
102
RTVSPropertyOp4
 70
     1
102
RTVSPropertyOp5
 70
     1
102
RTVSPropertyOp6
 70
     1
102
RTVSPropertyOp7
 70
     1
102
RTVSPropertyOp8
 70
     1
102
RTVSPropertyOp9
 70
     1
102
RTVSPropertyOp10
 70
     1
102
RTVSPropertyOp11
 70
     1
102
RTVSPropertyOp12
 70
     1
102
RTVSPropertyOp13
 70
     1
102
RTVSPropertyOp14
 70
     1
102
RTVSPropertyOp15
 70
     1
102
RTVSPropertyOp16
 70
     1
102
RTVSPropertyOp17
 70
     1
102
RTVSPropertyOp18
 70
     1
102
RTVSPropertyOp19
 70
     1
102
RTVSPropertyOp20
 70
     1
102
RTVSPropertyOp21
 70
     1
102
RTVSPropertyOp22
 70
     1
102
RTVSPropertyOp23
 70
     1
102
RTVSPropertyOp24
 70
     1
102
RTVSPropertyOp25
 70
     1
102
RTVSPropertyOp26
 70
     1
102
RTVSPropertyOp27
 70
     1
102
RTVSPropertyOp28
 70
     1
102
RTVSPropertyOp29
 70
     1
102
RTVSPropertyOp30
 70
     1
102
RTVSPropertyOp31
 70
     1
102
RTVSPropertyOp32
 70
     1
102
RTVSPropertyOp33
 70
     1
102
RTVSPropertyOp34
 70
     1
102
RTVSPropertyOp35
 70
     1
102
RTVSPropertyOp36
 70
     1
102
RTVSPropertyOp37
 70
     1
102
RTVSPropertyOp38
 70
     1
102
RTVSPropertyOp39
 70
     1
102
RTVSPropertyOp40
 70
     1
102
RTVSPropertyOp41
 70
     1
102
RTVSPropertyOp42
 70
     1
102
RTVSPropertyOp43
 70
     1
102
RTVSPropertyOp44
 70
     1
102
RTVSPropertyOp45
 70
     1
102
RTVSPropertyOp46
 70
     1
102
RTVSPropertyOp47
 70
     1
102
RTVSPropertyOp48
 70
     1
102
RTVSPropertyOp49
 70
     1
102
RTVSPropertyOp50
 70
     1
102
RTVSPropertyOp51
 70
     0
102
RTVSPropertyOp52
 70
     0
102
RTVSPropertyOp53
 70
     1
102
RTVSPropertyOp54
 70
     1
102
RTVSPropertyOp55
 70
     1
102
RTVSPropertyOp56
 70
     1
102
RTVSPropertyOp57
 70
     1
102
RTVSPropertyOp58
 70
     1
102
RTVSPropertyOp59
 70
     1
102
RTVSPropertyOp60
 70
     1
102
RTVSPropertyOp61
 70
     1
102
RTVSPropertyOp62
 70
     1
  0
XRECORD
  5
A2C3
102
{ACAD_REACTORS
330
A2C2
102
}
330
A2C2
100
AcDbXrecord
280
     1
102
RTVSPost2010Prop28
280
     0
102
RTVSPost2010PropOp28
 70
     1
102
RTVSPost2010Prop29
280
     1
102
RTVSPost2010PropOp29
 70
     1
102
RTVSPost2010Prop30
280
     1
102
RTVSPost2010PropOp30
 70
     1
102
RTVSPost2010Prop31
280
     0
102
RTVSPost2010PropOp31
 70
     1
102
RTVSPost2010Prop32
280
     0
102
RTVSPost2010PropOp32
 70
     1
102
RTVSPost2010Prop33
280
     0
102
RTVSPost2010PropOp33
 70
     1
102
RTVSPost2010Prop34
280
     0
102
RTVSPost2010PropOp34
 70
     1
102
RTVSPost2010Prop35
280
     0
102
RTVSPost2010PropOp35
 70
     1
102
RTVSPost2010Prop36
280
     0
102
RTVSPost2010PropOp36
 70
     1
102
RTVSPost2010Prop37
 90
       50
102
RTVSPost2010PropOp37
 70
     1
102
RTVSPost2010Prop38
140
0.0
102
RTVSPost2010PropOp38
 70
     1
102
RTVSPost2010Prop39
140
1.0
102
RTVSPost2010PropOp39
 70
     1
102
RTVSPost2010Prop40
 90
        0
102
RTVSPost2010PropOp40
 70
     1
102
RTVSPost2010Prop41ColorIndex
 90
       18
102
RTVSPost2010Prop41ColorRGB
 90
        0
102
RTVSPost2010PropOp41
 70
     1
102
RTVSPost2010Prop42
 90
       50
102
RTVSPost2010PropOp42
 70
     1
102
RTVSPost2010Prop43
 90
        3
102
RTVSPost2010PropOp43
 70
     1
102
RTVSPost2010Prop44ColorIndex
 90
        5
102
RTVSPost2010Prop44ColorRGB
 90
      255
102
RTVSPost2010PropOp44
 70
     1
102
RTVSPost2010Prop45
280
     0
102
RTVSPost2010PropOp45
 70
     1
102
RTVSPost2010Prop46
 90
       50
102
RTVSPost2010PropOp46
 70
     1
102
RTVSPost2010Prop47
 90
       50
102
RTVSPost2010PropOp47
 70
     1
102
RTVSPost2010Prop48
 90
       50
102
RTVSPost2010PropOp48
 70
     1
102
RTVSPost2010Prop49
280
     0
102
RTVSPost2010PropOp49
 70
     1
102
RTVSPost2010Prop50
 90
       50
102
RTVSPost2010PropOp50
 70
     1
102
RTVSPost2010Prop51ColorIndex
 90
      256
102
RTVSPost2010Prop51ColorRGB
 90
-16777216
102
RTVSPost2010PropOp51
 70
     0
102
RTVSPost2010Prop52
140
1.0
102
RTVSPost2010PropOp52
 70
     0
102
RTVSPost2010Prop53
 90
        2
102
RTVSPost2010PropOp53
 70
     1
102
RTVSPost2010Prop54
  1
strokes_ogs.tif
102
RTVSPost2010PropOp54
 70
     1
102
RTVSPost2010Prop55
280
     0
102
RTVSPost2010PropOp55
 70
     1
102
RTVSPost2010Prop56
140
1.0
102
RTVSPost2010PropOp56
 70
     1
102
RTVSPost2010Prop57
140
1.0
102
RTVSPost2010PropOp57
 70
     1
102
RTVSPropertyOp0
 70
     1
102
RTVSPropertyOp1
 70
     1
102
RTVSPropertyOp2
 70
     1
102
RTVSPropertyOp3
 70
     1
102
RTVSPropertyOp4
 70
     1
102
RTVSPropertyOp5
 70
     1
102
RTVSPropertyOp6
 70
     1
102
RTVSPropertyOp7
 70
     1
102
RTVSPropertyOp8
 70
     1
102
RTVSPropertyOp9
 70
     1
102
RTVSPropertyOp10
 70
     1
102
RTVSPropertyOp11
 70
     1
102
RTVSPropertyOp12
 70
     1
102
RTVSPropertyOp13
 70
     1
102
RTVSPropertyOp14
 70
     1
102
RTVSPropertyOp15
 70
     1
102
RTVSPropertyOp16
 70
     1
102
RTVSPropertyOp17
 70
     1
102
RTVSPropertyOp18
 70
     1
102
RTVSPropertyOp19
 70
     1
102
RTVSPropertyOp20
 70
     1
102
RTVSPropertyOp21
 70
     1
102
RTVSPropertyOp22
 70
     1
102
RTVSPropertyOp23
 70
     1
102
RTVSPropertyOp24
 70
     1
102
RTVSPropertyOp25
 70
     1
102
RTVSPropertyOp26
 70
     1
102
RTVSPropertyOp27
 70
     1
102
RTVSPropertyOp28
 70
     1
102
RTVSPropertyOp29
 70
     1
102
RTVSPropertyOp30
 70
     1
102
RTVSPropertyOp31
 70
     1
102
RTVSPropertyOp32
 70
     1
102
RTVSPropertyOp33
 70
     1
102
RTVSPropertyOp34
 70
     1
102
RTVSPropertyOp35
 70
     1
102
RTVSPropertyOp36
 70
     1
102
RTVSPropertyOp37
 70
     1
102
RTVSPropertyOp38
 70
     1
102
RTVSPropertyOp39
 70
     1
102
RTVSPropertyOp40
 70
     1
102
RTVSPropertyOp41
 70
     1
102
RTVSPropertyOp42
 70
     1
102
RTVSPropertyOp43
 70
     1
102
RTVSPropertyOp44
 70
     1
102
RTVSPropertyOp45
 70
     1
102
RTVSPropertyOp46
 70
     1
102
RTVSPropertyOp47
 70
     1
102
RTVSPropertyOp48
 70
     1
102
RTVSPropertyOp49
 70
     1
102
RTVSPropertyOp50
 70
     1
102
RTVSPropertyOp51
 70
     0
102
RTVSPropertyOp52
 70
     0
102
RTVSPropertyOp53
 70
     1
102
RTVSPropertyOp54
 70
     1
102
RTVSPropertyOp55
 70
     1
102
RTVSPropertyOp56
 70
     1
102
RTVSPropertyOp57
 70
     1
102
RTVSPropertyOp58
 70
     1
102
RTVSPropertyOp59
 70
     1
102
RTVSPropertyOp60
 70
     1
102
RTVSPropertyOp61
 70
     1
102
RTVSPropertyOp62
 70
     1
  0
XRECORD
  5
A2C5
102
{ACAD_REACTORS
330
A2C4
102
}
330
A2C4
100
AcDbXrecord
280
     1
102
RTVSPost2010Prop28
280
     0
102
RTVSPost2010PropOp28
 70
     1
102
RTVSPost2010Prop29
280
     1
102
RTVSPost2010PropOp29
 70
     1
102
RTVSPost2010Prop30
280
     1
102
RTVSPost2010PropOp30
 70
     1
102
RTVSPost2010Prop31
280
     0
102
RTVSPost2010PropOp31
 70
     1
102
RTVSPost2010Prop32
280
     0
102
RTVSPost2010PropOp32
 70
     1
102
RTVSPost2010Prop33
280
     0
102
RTVSPost2010PropOp33
 70
     1
102
RTVSPost2010Prop34
280
     0
102
RTVSPost2010PropOp34
 70
     1
102
RTVSPost2010Prop35
280
     0
102
RTVSPost2010PropOp35
 70
     1
102
RTVSPost2010Prop36
280
     0
102
RTVSPost2010PropOp36
 70
     1
102
RTVSPost2010Prop37
 90
       50
102
RTVSPost2010PropOp37
 70
     1
102
RTVSPost2010Prop38
140
0.0
102
RTVSPost2010PropOp38
 70
     1
102
RTVSPost2010Prop39
140
1.0
102
RTVSPost2010PropOp39
 70
     1
102
RTVSPost2010Prop40
 90
        0
102
RTVSPost2010PropOp40
 70
     1
102
RTVSPost2010Prop41ColorIndex
 90
       18
102
RTVSPost2010Prop41ColorRGB
 90
        0
102
RTVSPost2010PropOp41
 70
     1
102
RTVSPost2010Prop42
 90
       50
102
RTVSPost2010PropOp42
 70
     1
102
RTVSPost2010Prop43
 90
        3
102
RTVSPost2010PropOp43
 70
     1
102
RTVSPost2010Prop44ColorIndex
 90
        5
102
RTVSPost2010Prop44ColorRGB
 90
      255
102
RTVSPost2010PropOp44
 70
     1
102
RTVSPost2010Prop45
280
     0
102
RTVSPost2010PropOp45
 70
     1
102
RTVSPost2010Prop46
 90
       50
102
RTVSPost2010PropOp46
 70
     1
102
RTVSPost2010Prop47
 90
       50
102
RTVSPost2010PropOp47
 70
     1
102
RTVSPost2010Prop48
 90
       50
102
RTVSPost2010PropOp48
 70
     1
102
RTVSPost2010Prop49
280
     0
102
RTVSPost2010PropOp49
 70
     1
102
RTVSPost2010Prop50
 90
       50
102
RTVSPost2010PropOp50
 70
     1
102
RTVSPost2010Prop51ColorIndex
 90
      256
102
RTVSPost2010Prop51ColorRGB
 90
-16777216
102
RTVSPost2010PropOp51
 70
     0
102
RTVSPost2010Prop52
140
1.0
102
RTVSPost2010PropOp52
 70
     0
102
RTVSPost2010Prop53
 90
        2
102
RTVSPost2010PropOp53
 70
     1
102
RTVSPost2010Prop54
  1
strokes_ogs.tif
102
RTVSPost2010PropOp54
 70
     1
102
RTVSPost2010Prop55
280
     0
102
RTVSPost2010PropOp55
 70
     1
102
RTVSPost2010Prop56
140
1.0
102
RTVSPost2010PropOp56
 70
     1
102
RTVSPost2010Prop57
140
1.0
102
RTVSPost2010PropOp57
 70
     1
102
RTVSPropertyOp0
 70
     1
102
RTVSPropertyOp1
 70
     1
102
RTVSPropertyOp2
 70
     1
102
RTVSPropertyOp3
 70
     1
102
RTVSPropertyOp4
 70
     1
102
RTVSPropertyOp5
 70
     1
102
RTVSPropertyOp6
 70
     1
102
RTVSPropertyOp7
 70
     1
102
RTVSPropertyOp8
 70
     1
102
RTVSPropertyOp9
 70
     1
102
RTVSPropertyOp10
 70
     1
102
RTVSPropertyOp11
 70
     1
102
RTVSPropertyOp12
 70
     1
102
RTVSPropertyOp13
 70
     1
102
RTVSPropertyOp14
 70
     1
102
RTVSPropertyOp15
 70
     1
102
RTVSPropertyOp16
 70
     1
102
RTVSPropertyOp17
 70
     1
102
RTVSPropertyOp18
 70
     1
102
RTVSPropertyOp19
 70
     1
102
RTVSPropertyOp20
 70
     1
102
RTVSPropertyOp21
 70
     1
102
RTVSPropertyOp22
 70
     1
102
RTVSPropertyOp23
 70
     1
102
RTVSPropertyOp24
 70
     1
102
RTVSPropertyOp25
 70
     1
102
RTVSPropertyOp26
 70
     1
102
RTVSPropertyOp27
 70
     1
102
RTVSPropertyOp28
 70
     1
102
RTVSPropertyOp29
 70
     1
102
RTVSPropertyOp30
 70
     1
102
RTVSPropertyOp31
 70
     1
102
RTVSPropertyOp32
 70
     1
102
RTVSPropertyOp33
 70
     1
102
RTVSPropertyOp34
 70
     1
102
RTVSPropertyOp35
 70
     1
102
RTVSPropertyOp36
 70
     1
102
RTVSPropertyOp37
 70
     1
102
RTVSPropertyOp38
 70
     1
102
RTVSPropertyOp39
 70
     1
102
RTVSPropertyOp40
 70
     1
102
RTVSPropertyOp41
 70
     1
102
RTVSPropertyOp42
 70
     1
102
RTVSPropertyOp43
 70
     1
102
RTVSPropertyOp44
 70
     1
102
RTVSPropertyOp45
 70
     1
102
RTVSPropertyOp46
 70
     1
102
RTVSPropertyOp47
 70
     1
102
RTVSPropertyOp48
 70
     1
102
RTVSPropertyOp49
 70
     1
102
RTVSPropertyOp50
 70
     1
102
RTVSPropertyOp51
 70
     0
102
RTVSPropertyOp52
 70
     0
102
RTVSPropertyOp53
 70
     1
102
RTVSPropertyOp54
 70
     1
102
RTVSPropertyOp55
 70
     1
102
RTVSPropertyOp56
 70
     1
102
RTVSPropertyOp57
 70
     1
102
RTVSPropertyOp58
 70
     1
102
RTVSPropertyOp59
 70
     1
102
RTVSPropertyOp60
 70
     1
102
RTVSPropertyOp61
 70
     1
102
RTVSPropertyOp62
 70
     1
  0
XRECORD
  5
A2CD
102
{ACAD_REACTORS
330
A2CC
102
}
330
A2CC
100
AcDbXrecord
280
     1
102
RTVSPost2010Prop28
280
     0
102
RTVSPost2010PropOp28
 70
     1
102
RTVSPost2010Prop29
280
     1
102
RTVSPost2010PropOp29
 70
     1
102
RTVSPost2010Prop30
280
     1
102
RTVSPost2010PropOp30
 70
     1
102
RTVSPost2010Prop31
280
     0
102
RTVSPost2010PropOp31
 70
     1
102
RTVSPost2010Prop32
280
     0
102
RTVSPost2010PropOp32
 70
     1
102
RTVSPost2010Prop33
280
     0
102
RTVSPost2010PropOp33
 70
     1
102
RTVSPost2010Prop34
280
     0
102
RTVSPost2010PropOp34
 70
     1
102
RTVSPost2010Prop35
280
     0
102
RTVSPost2010PropOp35
 70
     1
102
RTVSPost2010Prop36
280
     0
102
RTVSPost2010PropOp36
 70
     1
102
RTVSPost2010Prop37
 90
       50
102
RTVSPost2010PropOp37
 70
     1
102
RTVSPost2010Prop38
140
0.0
102
RTVSPost2010PropOp38
 70
     1
102
RTVSPost2010Prop39
140
1.0
102
RTVSPost2010PropOp39
 70
     1
102
RTVSPost2010Prop40
 90
        0
102
RTVSPost2010PropOp40
 70
     1
102
RTVSPost2010Prop41ColorIndex
 90
       18
102
RTVSPost2010Prop41ColorRGB
 90
        0
102
RTVSPost2010PropOp41
 70
     1
102
RTVSPost2010Prop42
 90
       50
102
RTVSPost2010PropOp42
 70
     1
102
RTVSPost2010Prop43
 90
        3
102
RTVSPost2010PropOp43
 70
     1
102
RTVSPost2010Prop44ColorIndex
 90
        5
102
RTVSPost2010Prop44ColorRGB
 90
      255
102
RTVSPost2010PropOp44
 70
     1
102
RTVSPost2010Prop45
280
     0
102
RTVSPost2010PropOp45
 70
     1
102
RTVSPost2010Prop46
 90
       50
102
RTVSPost2010PropOp46
 70
     1
102
RTVSPost2010Prop47
 90
       50
102
RTVSPost2010PropOp47
 70
     1
102
RTVSPost2010Prop48
 90
       50
102
RTVSPost2010PropOp48
 70
     1
102
RTVSPost2010Prop49
280
     0
102
RTVSPost2010PropOp49
 70
     1
102
RTVSPost2010Prop50
 90
       50
102
RTVSPost2010PropOp50
 70
     1
102
RTVSPost2010Prop51ColorIndex
 90
      256
102
RTVSPost2010Prop51ColorRGB
 90
-16777216
102
RTVSPost2010PropOp51
 70
     0
102
RTVSPost2010Prop52
140
1.0
102
RTVSPost2010PropOp52
 70
     0
102
RTVSPost2010Prop53
 90
        2
102
RTVSPost2010PropOp53
 70
     1
102
RTVSPost2010Prop54
  1
strokes_ogs.tif
102
RTVSPost2010PropOp54
 70
     1
102
RTVSPost2010Prop55
280
     0
102
RTVSPost2010PropOp55
 70
     1
102
RTVSPost2010Prop56
140
1.0
102
RTVSPost2010PropOp56
 70
     1
102
RTVSPost2010Prop57
140
1.0
102
RTVSPost2010PropOp57
 70
     1
102
RTVSPropertyOp0
 70
     1
102
RTVSPropertyOp1
 70
     1
102
RTVSPropertyOp2
 70
     1
102
RTVSPropertyOp3
 70
     1
102
RTVSPropertyOp4
 70
     1
102
RTVSPropertyOp5
 70
     1
102
RTVSPropertyOp6
 70
     1
102
RTVSPropertyOp7
 70
     1
102
RTVSPropertyOp8
 70
     1
102
RTVSPropertyOp9
 70
     1
102
RTVSPropertyOp10
 70
     1
102
RTVSPropertyOp11
 70
     1
102
RTVSPropertyOp12
 70
     1
102
RTVSPropertyOp13
 70
     1
102
RTVSPropertyOp14
 70
     1
102
RTVSPropertyOp15
 70
     1
102
RTVSPropertyOp16
 70
     1
102
RTVSPropertyOp17
 70
     1
102
RTVSPropertyOp18
 70
     1
102
RTVSPropertyOp19
 70
     1
102
RTVSPropertyOp20
 70
     1
102
RTVSPropertyOp21
 70
     1
102
RTVSPropertyOp22
 70
     1
102
RTVSPropertyOp23
 70
     1
102
RTVSPropertyOp24
 70
     1
102
RTVSPropertyOp25
 70
     1
102
RTVSPropertyOp26
 70
     1
102
RTVSPropertyOp27
 70
     1
102
RTVSPropertyOp28
 70
     1
102
RTVSPropertyOp29
 70
     1
102
RTVSPropertyOp30
 70
     1
102
RTVSPropertyOp31
 70
     1
102
RTVSPropertyOp32
 70
     1
102
RTVSPropertyOp33
 70
     1
102
RTVSPropertyOp34
 70
     1
102
RTVSPropertyOp35
 70
     1
102
RTVSPropertyOp36
 70
     1
102
RTVSPropertyOp37
 70
     1
102
RTVSPropertyOp38
 70
     1
102
RTVSPropertyOp39
 70
     1
102
RTVSPropertyOp40
 70
     1
102
RTVSPropertyOp41
 70
     1
102
RTVSPropertyOp42
 70
     1
102
RTVSPropertyOp43
 70
     1
102
RTVSPropertyOp44
 70
     1
102
RTVSPropertyOp45
 70
     1
102
RTVSPropertyOp46
 70
     1
102
RTVSPropertyOp47
 70
     1
102
RTVSPropertyOp48
 70
     1
102
RTVSPropertyOp49
 70
     1
102
RTVSPropertyOp50
 70
     1
102
RTVSPropertyOp51
 70
     0
102
RTVSPropertyOp52
 70
     0
102
RTVSPropertyOp53
 70
     1
102
RTVSPropertyOp54
 70
     1
102
RTVSPropertyOp55
 70
     1
102
RTVSPropertyOp56
 70
     1
102
RTVSPropertyOp57
 70
     1
102
RTVSPropertyOp58
 70
     1
102
RTVSPropertyOp59
 70
     1
102
RTVSPropertyOp60
 70
     1
102
RTVSPropertyOp61
 70
     1
102
RTVSPropertyOp62
 70
     1
  0
XRECORD
  5
A2E9
102
{ACAD_REACTORS
330
A2E8
102
}
330
A2E8
100
AcDbXrecord
280
     1
102
RTVSPost2010Prop28
280
     0
102
RTVSPost2010PropOp28
 70
     1
102
RTVSPost2010Prop29
280
     1
102
RTVSPost2010PropOp29
 70
     1
102
RTVSPost2010Prop30
280
     1
102
RTVSPost2010PropOp30
 70
     1
102
RTVSPost2010Prop31
280
     0
102
RTVSPost2010PropOp31
 70
     1
102
RTVSPost2010Prop32
280
     0
102
RTVSPost2010PropOp32
 70
     1
102
RTVSPost2010Prop33
280
     0
102
RTVSPost2010PropOp33
 70
     1
102
RTVSPost2010Prop34
280
     0
102
RTVSPost2010PropOp34
 70
     1
102
RTVSPost2010Prop35
280
     0
102
RTVSPost2010PropOp35
 70
     1
102
RTVSPost2010Prop36
280
     0
102
RTVSPost2010PropOp36
 70
     1
102
RTVSPost2010Prop37
 90
       50
102
RTVSPost2010PropOp37
 70
     0
102
RTVSPost2010Prop38
140
0.0
102
RTVSPost2010PropOp38
 70
     0
102
RTVSPost2010Prop39
140
1.0
102
RTVSPost2010PropOp39
 70
     0
102
RTVSPost2010Prop40
 90
        0
102
RTVSPost2010PropOp40
 70
     0
102
RTVSPost2010Prop41ColorIndex
 90
       18
102
RTVSPost2010Prop41ColorRGB
 90
        0
102
RTVSPost2010PropOp41
 70
     0
102
RTVSPost2010Prop42
 90
       50
102
RTVSPost2010PropOp42
 70
     0
102
RTVSPost2010Prop43
 90
        3
102
RTVSPost2010PropOp43
 70
     0
102
RTVSPost2010Prop44ColorIndex
 90
        5
102
RTVSPost2010Prop44ColorRGB
 90
      255
102
RTVSPost2010PropOp44
 70
     0
102
RTVSPost2010Prop45
280
     0
102
RTVSPost2010PropOp45
 70
     1
102
RTVSPost2010Prop46
 90
       50
102
RTVSPost2010PropOp46
 70
     0
102
RTVSPost2010Prop47
 90
       50
102
RTVSPost2010PropOp47
 70
     0
102
RTVSPost2010Prop48
 90
       50
102
RTVSPost2010PropOp48
 70
     0
102
RTVSPost2010Prop49
280
     0
102
RTVSPost2010PropOp49
 70
     1
102
RTVSPost2010Prop50
 90
       50
102
RTVSPost2010PropOp50
 70
     0
102
RTVSPost2010Prop51ColorIndex
 90
      256
102
RTVSPost2010Prop51ColorRGB
 90
-16777216
102
RTVSPost2010PropOp51
 70
     0
102
RTVSPost2010Prop52
140
1.0
102
RTVSPost2010PropOp52
 70
     0
102
RTVSPost2010Prop53
 90
        2
102
RTVSPost2010PropOp53
 70
     0
102
RTVSPost2010Prop54
  1
strokes_ogs.tif
102
RTVSPost2010PropOp54
 70
     0
102
RTVSPost2010Prop55
280
     0
102
RTVSPost2010PropOp55
 70
     1
102
RTVSPost2010Prop56
140
1.0
102
RTVSPost2010PropOp56
 70
     0
102
RTVSPost2010Prop57
140
1.0
102
RTVSPost2010PropOp57
 70
     0
102
RTVSPropertyOp0
 70
     0
102
RTVSPropertyOp1
 70
     0
102
RTVSPropertyOp2
 70
     0
102
RTVSPropertyOp3
 70
     0
102
RTVSPropertyOp4
 70
     0
102
RTVSPropertyOp5
 70
     0
102
RTVSPropertyOp6
 70
     0
102
RTVSPropertyOp7
 70
     0
102
RTVSPropertyOp8
 70
     0
102
RTVSPropertyOp9
 70
     0
102
RTVSPropertyOp10
 70
     0
102
RTVSPropertyOp11
 70
     0
102
RTVSPropertyOp12
 70
     0
102
RTVSPropertyOp13
 70
     0
102
RTVSPropertyOp14
 70
     2
102
RTVSPropertyOp15
 70
     0
102
RTVSPropertyOp16
 70
     0
102
RTVSPropertyOp17
 70
     0
102
RTVSPropertyOp18
 70
     0
102
RTVSPropertyOp19
 70
     0
102
RTVSPropertyOp20
 70
     0
102
RTVSPropertyOp21
 70
     0
102
RTVSPropertyOp22
 70
     0
102
RTVSPropertyOp23
 70
     0
102
RTVSPropertyOp24
 70
     0
102
RTVSPropertyOp25
 70
     0
102
RTVSPropertyOp26
 70
     0
102
RTVSPropertyOp27
 70
     0
102
RTVSPropertyOp28
 70
     1
102
RTVSPropertyOp29
 70
     1
102
RTVSPropertyOp30
 70
     1
102
RTVSPropertyOp31
 70
     1
102
RTVSPropertyOp32
 70
     1
102
RTVSPropertyOp33
 70
     1
102
RTVSPropertyOp34
 70
     1
102
RTVSPropertyOp35
 70
     1
102
RTVSPropertyOp36
 70
     1
102
RTVSPropertyOp37
 70
     0
102
RTVSPropertyOp38
 70
     0
102
RTVSPropertyOp39
 70
     0
102
RTVSPropertyOp40
 70
     0
102
RTVSPropertyOp41
 70
     0
102
RTVSPropertyOp42
 70
     0
102
RTVSPropertyOp43
 70
     0
102
RTVSPropertyOp44
 70
     0
102
RTVSPropertyOp45
 70
     1
102
RTVSPropertyOp46
 70
     0
102
RTVSPropertyOp47
 70
     0
102
RTVSPropertyOp48
 70
     0
102
RTVSPropertyOp49
 70
     1
102
RTVSPropertyOp50
 70
     0
102
RTVSPropertyOp51
 70
     0
102
RTVSPropertyOp52
 70
     0
102
RTVSPropertyOp53
 70
     0
102
RTVSPropertyOp54
 70
     0
102
RTVSPropertyOp55
 70
     1
102
RTVSPropertyOp56
 70
     0
102
RTVSPropertyOp57
 70
     0
102
RTVSPropertyOp58
 70
     0
102
RTVSPropertyOp59
 70
     0
102
RTVSPropertyOp60
 70
     0
102
RTVSPropertyOp61
 70
     0
102
RTVSPropertyOp62
 70
     0
  0
XRECORD
  5
A2D9
102
{ACAD_REACTORS
330
A2D8
102
}
330
A2D8
100
AcDbXrecord
280
     1
102
RTVSPost2010Prop28
280
     0
102
RTVSPost2010PropOp28
 70
     1
102
RTVSPost2010Prop29
280
     1
102
RTVSPost2010PropOp29
 70
     1
102
RTVSPost2010Prop30
280
     1
102
RTVSPost2010PropOp30
 70
     1
102
RTVSPost2010Prop31
280
     0
102
RTVSPost2010PropOp31
 70
     1
102
RTVSPost2010Prop32
280
     0
102
RTVSPost2010PropOp32
 70
     1
102
RTVSPost2010Prop33
280
     0
102
RTVSPost2010PropOp33
 70
     1
102
RTVSPost2010Prop34
280
     0
102
RTVSPost2010PropOp34
 70
     1
102
RTVSPost2010Prop35
280
     0
102
RTVSPost2010PropOp35
 70
     1
102
RTVSPost2010Prop36
280
     0
102
RTVSPost2010PropOp36
 70
     1
102
RTVSPost2010Prop37
 90
       50
102
RTVSPost2010PropOp37
 70
     1
102
RTVSPost2010Prop38
140
0.0
102
RTVSPost2010PropOp38
 70
     1
102
RTVSPost2010Prop39
140
1.0
102
RTVSPost2010PropOp39
 70
     1
102
RTVSPost2010Prop40
 90
        0
102
RTVSPost2010PropOp40
 70
     1
102
RTVSPost2010Prop41ColorIndex
 90
       18
102
RTVSPost2010Prop41ColorRGB
 90
        0
102
RTVSPost2010PropOp41
 70
     1
102
RTVSPost2010Prop42
 90
       50
102
RTVSPost2010PropOp42
 70
     1
102
RTVSPost2010Prop43
 90
        3
102
RTVSPost2010PropOp43
 70
     1
102
RTVSPost2010Prop44ColorIndex
 90
        5
102
RTVSPost2010Prop44ColorRGB
 90
      255
102
RTVSPost2010PropOp44
 70
     1
102
RTVSPost2010Prop45
280
     0
102
RTVSPost2010PropOp45
 70
     1
102
RTVSPost2010Prop46
 90
       50
102
RTVSPost2010PropOp46
 70
     1
102
RTVSPost2010Prop47
 90
       50
102
RTVSPost2010PropOp47
 70
     1
102
RTVSPost2010Prop48
 90
       50
102
RTVSPost2010PropOp48
 70
     1
102
RTVSPost2010Prop49
280
     0
102
RTVSPost2010PropOp49
 70
     1
102
RTVSPost2010Prop50
 90
       50
102
RTVSPost2010PropOp50
 70
     1
102
RTVSPost2010Prop51ColorIndex
 90
      256
102
RTVSPost2010Prop51ColorRGB
 90
-16777216
102
RTVSPost2010PropOp51
 70
     0
102
RTVSPost2010Prop52
140
1.0
102
RTVSPost2010PropOp52
 70
     0
102
RTVSPost2010Prop53
 90
        2
102
RTVSPost2010PropOp53
 70
     1
102
RTVSPost2010Prop54
  1
strokes_ogs.tif
102
RTVSPost2010PropOp54
 70
     1
102
RTVSPost2010Prop55
280
     0
102
RTVSPost2010PropOp55
 70
     1
102
RTVSPost2010Prop56
140
1.0
102
RTVSPost2010PropOp56
 70
     1
102
RTVSPost2010Prop57
140
1.0
102
RTVSPost2010PropOp57
 70
     1
102
RTVSPropertyOp0
 70
     1
102
RTVSPropertyOp1
 70
     1
102
RTVSPropertyOp2
 70
     1
102
RTVSPropertyOp3
 70
     1
102
RTVSPropertyOp4
 70
     1
102
RTVSPropertyOp5
 70
     1
102
RTVSPropertyOp6
 70
     1
102
RTVSPropertyOp7
 70
     1
102
RTVSPropertyOp8
 70
     1
102
RTVSPropertyOp9
 70
     1
102
RTVSPropertyOp10
 70
     1
102
RTVSPropertyOp11
 70
     1
102
RTVSPropertyOp12
 70
     1
102
RTVSPropertyOp13
 70
     1
102
RTVSPropertyOp14
 70
     1
102
RTVSPropertyOp15
 70
     1
102
RTVSPropertyOp16
 70
     1
102
RTVSPropertyOp17
 70
     1
102
RTVSPropertyOp18
 70
     1
102
RTVSPropertyOp19
 70
     1
102
RTVSPropertyOp20
 70
     1
102
RTVSPropertyOp21
 70
     1
102
RTVSPropertyOp22
 70
     1
102
RTVSPropertyOp23
 70
     1
102
RTVSPropertyOp24
 70
     1
102
RTVSPropertyOp25
 70
     1
102
RTVSPropertyOp26
 70
     1
102
RTVSPropertyOp27
 70
     1
102
RTVSPropertyOp28
 70
     1
102
RTVSPropertyOp29
 70
     1
102
RTVSPropertyOp30
 70
     1
102
RTVSPropertyOp31
 70
     1
102
RTVSPropertyOp32
 70
     1
102
RTVSPropertyOp33
 70
     1
102
RTVSPropertyOp34
 70
     1
102
RTVSPropertyOp35
 70
     1
102
RTVSPropertyOp36
 70
     1
102
RTVSPropertyOp37
 70
     1
102
RTVSPropertyOp38
 70
     1
102
RTVSPropertyOp39
 70
     1
102
RTVSPropertyOp40
 70
     1
102
RTVSPropertyOp41
 70
     1
102
RTVSPropertyOp42
 70
     1
102
RTVSPropertyOp43
 70
     1
102
RTVSPropertyOp44
 70
     1
102
RTVSPropertyOp45
 70
     1
102
RTVSPropertyOp46
 70
     1
102
RTVSPropertyOp47
 70
     1
102
RTVSPropertyOp48
 70
     1
102
RTVSPropertyOp49
 70
     1
102
RTVSPropertyOp50
 70
     1
102
RTVSPropertyOp51
 70
     0
102
RTVSPropertyOp52
 70
     0
102
RTVSPropertyOp53
 70
     1
102
RTVSPropertyOp54
 70
     1
102
RTVSPropertyOp55
 70
     1
102
RTVSPropertyOp56
 70
     1
102
RTVSPropertyOp57
 70
     1
102
RTVSPropertyOp58
 70
     1
102
RTVSPropertyOp59
 70
     1
102
RTVSPropertyOp60
 70
     1
102
RTVSPropertyOp61
 70
     1
102
RTVSPropertyOp62
 70
     1
  0
XRECORD
  5
A2EB
102
{ACAD_REACTORS
330
A2EA
102
}
330
A2EA
100
AcDbXrecord
280
     1
102
RTVSPost2010Prop28
280
     0
102
RTVSPost2010PropOp28
 70
     1
102
RTVSPost2010Prop29
280
     1
102
RTVSPost2010PropOp29
 70
     1
102
RTVSPost2010Prop30
280
     1
102
RTVSPost2010PropOp30
 70
     1
102
RTVSPost2010Prop31
280
     0
102
RTVSPost2010PropOp31
 70
     1
102
RTVSPost2010Prop32
280
     0
102
RTVSPost2010PropOp32
 70
     1
102
RTVSPost2010Prop33
280
     0
102
RTVSPost2010PropOp33
 70
     1
102
RTVSPost2010Prop34
280
     0
102
RTVSPost2010PropOp34
 70
     1
102
RTVSPost2010Prop35
280
     0
102
RTVSPost2010PropOp35
 70
     1
102
RTVSPost2010Prop36
280
     0
102
RTVSPost2010PropOp36
 70
     1
102
RTVSPost2010Prop37
 90
       50
102
RTVSPost2010PropOp37
 70
     0
102
RTVSPost2010Prop38
140
0.0
102
RTVSPost2010PropOp38
 70
     0
102
RTVSPost2010Prop39
140
1.0
102
RTVSPost2010PropOp39
 70
     0
102
RTVSPost2010Prop40
 90
        0
102
RTVSPost2010PropOp40
 70
     0
102
RTVSPost2010Prop41ColorIndex
 90
       18
102
RTVSPost2010Prop41ColorRGB
 90
        0
102
RTVSPost2010PropOp41
 70
     0
102
RTVSPost2010Prop42
 90
       50
102
RTVSPost2010PropOp42
 70
     0
102
RTVSPost2010Prop43
 90
        3
102
RTVSPost2010PropOp43
 70
     0
102
RTVSPost2010Prop44ColorIndex
 90
        5
102
RTVSPost2010Prop44ColorRGB
 90
      255
102
RTVSPost2010PropOp44
 70
     0
102
RTVSPost2010Prop45
280
     0
102
RTVSPost2010PropOp45
 70
     1
102
RTVSPost2010Prop46
 90
       50
102
RTVSPost2010PropOp46
 70
     0
102
RTVSPost2010Prop47
 90
       50
102
RTVSPost2010PropOp47
 70
     0
102
RTVSPost2010Prop48
 90
       50
102
RTVSPost2010PropOp48
 70
     0
102
RTVSPost2010Prop49
280
     0
102
RTVSPost2010PropOp49
 70
     1
102
RTVSPost2010Prop50
 90
       50
102
RTVSPost2010PropOp50
 70
     0
102
RTVSPost2010Prop51ColorIndex
 90
      256
102
RTVSPost2010Prop51ColorRGB
 90
-16777216
102
RTVSPost2010PropOp51
 70
     0
102
RTVSPost2010Prop52
140
1.0
102
RTVSPost2010PropOp52
 70
     0
102
RTVSPost2010Prop53
 90
        2
102
RTVSPost2010PropOp53
 70
     0
102
RTVSPost2010Prop54
  1
strokes_ogs.tif
102
RTVSPost2010PropOp54
 70
     0
102
RTVSPost2010Prop55
280
     0
102
RTVSPost2010PropOp55
 70
     1
102
RTVSPost2010Prop56
140
1.0
102
RTVSPost2010PropOp56
 70
     0
102
RTVSPost2010Prop57
140
1.0
102
RTVSPost2010PropOp57
 70
     0
102
RTVSPropertyOp0
 70
     0
102
RTVSPropertyOp1
 70
     0
102
RTVSPropertyOp2
 70
     0
102
RTVSPropertyOp3
 70
     0
102
RTVSPropertyOp4
 70
     0
102
RTVSPropertyOp5
 70
     0
102
RTVSPropertyOp6
 70
     0
102
RTVSPropertyOp7
 70
     0
102
RTVSPropertyOp8
 70
     0
102
RTVSPropertyOp9
 70
     0
102
RTVSPropertyOp10
 70
     0
102
RTVSPropertyOp11
 70
     0
102
RTVSPropertyOp12
 70
     0
102
RTVSPropertyOp13
 70
     0
102
RTVSPropertyOp14
 70
     2
102
RTVSPropertyOp15
 70
     0
102
RTVSPropertyOp16
 70
     0
102
RTVSPropertyOp17
 70
     0
102
RTVSPropertyOp18
 70
     0
102
RTVSPropertyOp19
 70
     0
102
RTVSPropertyOp20
 70
     0
102
RTVSPropertyOp21
 70
     0
102
RTVSPropertyOp22
 70
     0
102
RTVSPropertyOp23
 70
     0
102
RTVSPropertyOp24
 70
     0
102
RTVSPropertyOp25
 70
     0
102
RTVSPropertyOp26
 70
     0
102
RTVSPropertyOp27
 70
     0
102
RTVSPropertyOp28
 70
     1
102
RTVSPropertyOp29
 70
     1
102
RTVSPropertyOp30
 70
     1
102
RTVSPropertyOp31
 70
     1
102
RTVSPropertyOp32
 70
     1
102
RTVSPropertyOp33
 70
     1
102
RTVSPropertyOp34
 70
     1
102
RTVSPropertyOp35
 70
     1
102
RTVSPropertyOp36
 70
     1
102
RTVSPropertyOp37
 70
     0
102
RTVSPropertyOp38
 70
     0
102
RTVSPropertyOp39
 70
     0
102
RTVSPropertyOp40
 70
     0
102
RTVSPropertyOp41
 70
     0
102
RTVSPropertyOp42
 70
     0
102
RTVSPropertyOp43
 70
     0
102
RTVSPropertyOp44
 70
     0
102
RTVSPropertyOp45
 70
     1
102
RTVSPropertyOp46
 70
     0
102
RTVSPropertyOp47
 70
     0
102
RTVSPropertyOp48
 70
     0
102
RTVSPropertyOp49
 70
     1
102
RTVSPropertyOp50
 70
     0
102
RTVSPropertyOp51
 70
     0
102
RTVSPropertyOp52
 70
     0
102
RTVSPropertyOp53
 70
     0
102
RTVSPropertyOp54
 70
     0
102
RTVSPropertyOp55
 70
     1
102
RTVSPropertyOp56
 70
     0
102
RTVSPropertyOp57
 70
     0
102
RTVSPropertyOp58
 70
     0
102
RTVSPropertyOp59
 70
     0
102
RTVSPropertyOp60
 70
     0
102
RTVSPropertyOp61
 70
     0
102
RTVSPropertyOp62
 70
     0
  0
XRECORD
  5
A2D1
102
{ACAD_REACTORS
330
A2D0
102
}
330
A2D0
100
AcDbXrecord
280
     1
102
RTVSPost2010Prop28
280
     0
102
RTVSPost2010PropOp28
 70
     1
102
RTVSPost2010Prop29
280
     1
102
RTVSPost2010PropOp29
 70
     1
102
RTVSPost2010Prop30
280
     1
102
RTVSPost2010PropOp30
 70
     1
102
RTVSPost2010Prop31
280
     0
102
RTVSPost2010PropOp31
 70
     1
102
RTVSPost2010Prop32
280
     0
102
RTVSPost2010PropOp32
 70
     1
102
RTVSPost2010Prop33
280
     0
102
RTVSPost2010PropOp33
 70
     1
102
RTVSPost2010Prop34
280
     0
102
RTVSPost2010PropOp34
 70
     1
102
RTVSPost2010Prop35
280
     0
102
RTVSPost2010PropOp35
 70
     1
102
RTVSPost2010Prop36
280
     0
102
RTVSPost2010PropOp36
 70
     1
102
RTVSPost2010Prop37
 90
       50
102
RTVSPost2010PropOp37
 70
     1
102
RTVSPost2010Prop38
140
0.0
102
RTVSPost2010PropOp38
 70
     1
102
RTVSPost2010Prop39
140
1.0
102
RTVSPost2010PropOp39
 70
     1
102
RTVSPost2010Prop40
 90
        0
102
RTVSPost2010PropOp40
 70
     1
102
RTVSPost2010Prop41ColorIndex
 90
       18
102
RTVSPost2010Prop41ColorRGB
 90
        0
102
RTVSPost2010PropOp41
 70
     1
102
RTVSPost2010Prop42
 90
       50
102
RTVSPost2010PropOp42
 70
     1
102
RTVSPost2010Prop43
 90
        3
102
RTVSPost2010PropOp43
 70
     1
102
RTVSPost2010Prop44ColorIndex
 90
        5
102
RTVSPost2010Prop44ColorRGB
 90
      255
102
RTVSPost2010PropOp44
 70
     1
102
RTVSPost2010Prop45
280
     0
102
RTVSPost2010PropOp45
 70
     1
102
RTVSPost2010Prop46
 90
       50
102
RTVSPost2010PropOp46
 70
     1
102
RTVSPost2010Prop47
 90
       50
102
RTVSPost2010PropOp47
 70
     1
102
RTVSPost2010Prop48
 90
       50
102
RTVSPost2010PropOp48
 70
     1
102
RTVSPost2010Prop49
280
     0
102
RTVSPost2010PropOp49
 70
     1
102
RTVSPost2010Prop50
 90
       50
102
RTVSPost2010PropOp50
 70
     1
102
RTVSPost2010Prop51ColorIndex
 90
      256
102
RTVSPost2010Prop51ColorRGB
 90
-16777216
102
RTVSPost2010PropOp51
 70
     0
102
RTVSPost2010Prop52
140
1.0
102
RTVSPost2010PropOp52
 70
     0
102
RTVSPost2010Prop53
 90
        2
102
RTVSPost2010PropOp53
 70
     1
102
RTVSPost2010Prop54
  1
strokes_ogs.tif
102
RTVSPost2010PropOp54
 70
     1
102
RTVSPost2010Prop55
280
     0
102
RTVSPost2010PropOp55
 70
     1
102
RTVSPost2010Prop56
140
1.0
102
RTVSPost2010PropOp56
 70
     1
102
RTVSPost2010Prop57
140
1.0
102
RTVSPost2010PropOp57
 70
     1
102
RTVSPropertyOp0
 70
     1
102
RTVSPropertyOp1
 70
     1
102
RTVSPropertyOp2
 70
     1
102
RTVSPropertyOp3
 70
     1
102
RTVSPropertyOp4
 70
     1
102
RTVSPropertyOp5
 70
     1
102
RTVSPropertyOp6
 70
     1
102
RTVSPropertyOp7
 70
     1
102
RTVSPropertyOp8
 70
     1
102
RTVSPropertyOp9
 70
     1
102
RTVSPropertyOp10
 70
     1
102
RTVSPropertyOp11
 70
     1
102
RTVSPropertyOp12
 70
     1
102
RTVSPropertyOp13
 70
     1
102
RTVSPropertyOp14
 70
     1
102
RTVSPropertyOp15
 70
     1
102
RTVSPropertyOp16
 70
     1
102
RTVSPropertyOp17
 70
     1
102
RTVSPropertyOp18
 70
     1
102
RTVSPropertyOp19
 70
     1
102
RTVSPropertyOp20
 70
     1
102
RTVSPropertyOp21
 70
     1
102
RTVSPropertyOp22
 70
     1
102
RTVSPropertyOp23
 70
     1
102
RTVSPropertyOp24
 70
     1
102
RTVSPropertyOp25
 70
     1
102
RTVSPropertyOp26
 70
     1
102
RTVSPropertyOp27
 70
     1
102
RTVSPropertyOp28
 70
     1
102
RTVSPropertyOp29
 70
     1
102
RTVSPropertyOp30
 70
     1
102
RTVSPropertyOp31
 70
     1
102
RTVSPropertyOp32
 70
     1
102
RTVSPropertyOp33
 70
     1
102
RTVSPropertyOp34
 70
     1
102
RTVSPropertyOp35
 70
     1
102
RTVSPropertyOp36
 70
     1
102
RTVSPropertyOp37
 70
     1
102
RTVSPropertyOp38
 70
     1
102
RTVSPropertyOp39
 70
     1
102
RTVSPropertyOp40
 70
     1
102
RTVSPropertyOp41
 70
     1
102
RTVSPropertyOp42
 70
     1
102
RTVSPropertyOp43
 70
     1
102
RTVSPropertyOp44
 70
     1
102
RTVSPropertyOp45
 70
     1
102
RTVSPropertyOp46
 70
     1
102
RTVSPropertyOp47
 70
     1
102
RTVSPropertyOp48
 70
     1
102
RTVSPropertyOp49
 70
     1
102
RTVSPropertyOp50
 70
     1
102
RTVSPropertyOp51
 70
     0
102
RTVSPropertyOp52
 70
     0
102
RTVSPropertyOp53
 70
     1
102
RTVSPropertyOp54
 70
     1
102
RTVSPropertyOp55
 70
     1
102
RTVSPropertyOp56
 70
     1
102
RTVSPropertyOp57
 70
     1
102
RTVSPropertyOp58
 70
     1
102
RTVSPropertyOp59
 70
     1
102
RTVSPropertyOp60
 70
     1
102
RTVSPropertyOp61
 70
     1
102
RTVSPropertyOp62
 70
     1
  0
XRECORD
  5
A2E7
102
{ACAD_REACTORS
330
A2E6
102
}
330
A2E6
100
AcDbXrecord
280
     1
102
RTVSPost2010Prop28
280
     0
102
RTVSPost2010PropOp28
 70
     1
102
RTVSPost2010Prop29
280
     1
102
RTVSPost2010PropOp29
 70
     1
102
RTVSPost2010Prop30
280
     1
102
RTVSPost2010PropOp30
 70
     1
102
RTVSPost2010Prop31
280
     0
102
RTVSPost2010PropOp31
 70
     1
102
RTVSPost2010Prop32
280
     0
102
RTVSPost2010PropOp32
 70
     1
102
RTVSPost2010Prop33
280
     0
102
RTVSPost2010PropOp33
 70
     1
102
RTVSPost2010Prop34
280
     0
102
RTVSPost2010PropOp34
 70
     1
102
RTVSPost2010Prop35
280
     0
102
RTVSPost2010PropOp35
 70
     1
102
RTVSPost2010Prop36
280
     0
102
RTVSPost2010PropOp36
 70
     1
102
RTVSPost2010Prop37
 90
       50
102
RTVSPost2010PropOp37
 70
     1
102
RTVSPost2010Prop38
140
0.0
102
RTVSPost2010PropOp38
 70
     1
102
RTVSPost2010Prop39
140
1.0
102
RTVSPost2010PropOp39
 70
     1
102
RTVSPost2010Prop40
 90
        0
102
RTVSPost2010PropOp40
 70
     1
102
RTVSPost2010Prop41ColorIndex
 90
       18
102
RTVSPost2010Prop41ColorRGB
 90
        0
102
RTVSPost2010PropOp41
 70
     1
102
RTVSPost2010Prop42
 90
       50
102
RTVSPost2010PropOp42
 70
     1
102
RTVSPost2010Prop43
 90
        3
102
RTVSPost2010PropOp43
 70
     1
102
RTVSPost2010Prop44ColorIndex
 90
        5
102
RTVSPost2010Prop44ColorRGB
 90
      255
102
RTVSPost2010PropOp44
 70
     1
102
RTVSPost2010Prop45
280
     0
102
RTVSPost2010PropOp45
 70
     1
102
RTVSPost2010Prop46
 90
       50
102
RTVSPost2010PropOp46
 70
     1
102
RTVSPost2010Prop47
 90
       50
102
RTVSPost2010PropOp47
 70
     1
102
RTVSPost2010Prop48
 90
       50
102
RTVSPost2010PropOp48
 70
     1
102
RTVSPost2010Prop49
280
     0
102
RTVSPost2010PropOp49
 70
     1
102
RTVSPost2010Prop50
 90
       50
102
RTVSPost2010PropOp50
 70
     1
102
RTVSPost2010Prop51ColorIndex
 90
      256
102
RTVSPost2010Prop51ColorRGB
 90
-16777216
102
RTVSPost2010PropOp51
 70
     0
102
RTVSPost2010Prop52
140
1.0
102
RTVSPost2010PropOp52
 70
     0
102
RTVSPost2010Prop53
 90
        2
102
RTVSPost2010PropOp53
 70
     1
102
RTVSPost2010Prop54
  1
strokes_ogs.tif
102
RTVSPost2010PropOp54
 70
     1
102
RTVSPost2010Prop55
280
     0
102
RTVSPost2010PropOp55
 70
     1
102
RTVSPost2010Prop56
140
1.0
102
RTVSPost2010PropOp56
 70
     1
102
RTVSPost2010Prop57
140
1.0
102
RTVSPost2010PropOp57
 70
     1
102
RTVSPropertyOp0
 70
     1
102
RTVSPropertyOp1
 70
     1
102
RTVSPropertyOp2
 70
     1
102
RTVSPropertyOp3
 70
     1
102
RTVSPropertyOp4
 70
     1
102
RTVSPropertyOp5
 70
     1
102
RTVSPropertyOp6
 70
     1
102
RTVSPropertyOp7
 70
     1
102
RTVSPropertyOp8
 70
     1
102
RTVSPropertyOp9
 70
     1
102
RTVSPropertyOp10
 70
     1
102
RTVSPropertyOp11
 70
     1
102
RTVSPropertyOp12
 70
     1
102
RTVSPropertyOp13
 70
     1
102
RTVSPropertyOp14
 70
     1
102
RTVSPropertyOp15
 70
     1
102
RTVSPropertyOp16
 70
     1
102
RTVSPropertyOp17
 70
     1
102
RTVSPropertyOp18
 70
     1
102
RTVSPropertyOp19
 70
     1
102
RTVSPropertyOp20
 70
     1
102
RTVSPropertyOp21
 70
     1
102
RTVSPropertyOp22
 70
     1
102
RTVSPropertyOp23
 70
     1
102
RTVSPropertyOp24
 70
     1
102
RTVSPropertyOp25
 70
     1
102
RTVSPropertyOp26
 70
     1
102
RTVSPropertyOp27
 70
     1
102
RTVSPropertyOp28
 70
     1
102
RTVSPropertyOp29
 70
     1
102
RTVSPropertyOp30
 70
     1
102
RTVSPropertyOp31
 70
     1
102
RTVSPropertyOp32
 70
     1
102
RTVSPropertyOp33
 70
     1
102
RTVSPropertyOp34
 70
     1
102
RTVSPropertyOp35
 70
     1
102
RTVSPropertyOp36
 70
     1
102
RTVSPropertyOp37
 70
     1
102
RTVSPropertyOp38
 70
     1
102
RTVSPropertyOp39
 70
     1
102
RTVSPropertyOp40
 70
     1
102
RTVSPropertyOp41
 70
     1
102
RTVSPropertyOp42
 70
     1
102
RTVSPropertyOp43
 70
     1
102
RTVSPropertyOp44
 70
     1
102
RTVSPropertyOp45
 70
     1
102
RTVSPropertyOp46
 70
     1
102
RTVSPropertyOp47
 70
     1
102
RTVSPropertyOp48
 70
     1
102
RTVSPropertyOp49
 70
     1
102
RTVSPropertyOp50
 70
     1
102
RTVSPropertyOp51
 70
     0
102
RTVSPropertyOp52
 70
     0
102
RTVSPropertyOp53
 70
     1
102
RTVSPropertyOp54
 70
     1
102
RTVSPropertyOp55
 70
     1
102
RTVSPropertyOp56
 70
     1
102
RTVSPropertyOp57
 70
     1
102
RTVSPropertyOp58
 70
     1
102
RTVSPropertyOp59
 70
     1
102
RTVSPropertyOp60
 70
     1
102
RTVSPropertyOp61
 70
     1
102
RTVSPropertyOp62
 70
     1
  0
XRECORD
  5
A2E5
102
{ACAD_REACTORS
330
A2E4
102
}
330
A2E4
100
AcDbXrecord
280
     1
102
RTVSPost2010Prop28
280
     0
102
RTVSPost2010PropOp28
 70
     1
102
RTVSPost2010Prop29
280
     1
102
RTVSPost2010PropOp29
 70
     1
102
RTVSPost2010Prop30
280
     1
102
RTVSPost2010PropOp30
 70
     1
102
RTVSPost2010Prop31
280
     0
102
RTVSPost2010PropOp31
 70
     1
102
RTVSPost2010Prop32
280
     0
102
RTVSPost2010PropOp32
 70
     1
102
RTVSPost2010Prop33
280
     0
102
RTVSPost2010PropOp33
 70
     1
102
RTVSPost2010Prop34
280
     0
102
RTVSPost2010PropOp34
 70
     1
102
RTVSPost2010Prop35
280
     0
102
RTVSPost2010PropOp35
 70
     1
102
RTVSPost2010Prop36
280
     0
102
RTVSPost2010PropOp36
 70
     1
102
RTVSPost2010Prop37
 90
       50
102
RTVSPost2010PropOp37
 70
     1
102
RTVSPost2010Prop38
140
0.0
102
RTVSPost2010PropOp38
 70
     1
102
RTVSPost2010Prop39
140
1.0
102
RTVSPost2010PropOp39
 70
     1
102
RTVSPost2010Prop40
 90
        0
102
RTVSPost2010PropOp40
 70
     1
102
RTVSPost2010Prop41ColorIndex
 90
       18
102
RTVSPost2010Prop41ColorRGB
 90
        0
102
RTVSPost2010PropOp41
 70
     1
102
RTVSPost2010Prop42
 90
       50
102
RTVSPost2010PropOp42
 70
     1
102
RTVSPost2010Prop43
 90
        3
102
RTVSPost2010PropOp43
 70
     1
102
RTVSPost2010Prop44ColorIndex
 90
        5
102
RTVSPost2010Prop44ColorRGB
 90
      255
102
RTVSPost2010PropOp44
 70
     1
102
RTVSPost2010Prop45
280
     0
102
RTVSPost2010PropOp45
 70
     1
102
RTVSPost2010Prop46
 90
       50
102
RTVSPost2010PropOp46
 70
     1
102
RTVSPost2010Prop47
 90
       50
102
RTVSPost2010PropOp47
 70
     1
102
RTVSPost2010Prop48
 90
       50
102
RTVSPost2010PropOp48
 70
     1
102
RTVSPost2010Prop49
280
     0
102
RTVSPost2010PropOp49
 70
     1
102
RTVSPost2010Prop50
 90
       50
102
RTVSPost2010PropOp50
 70
     1
102
RTVSPost2010Prop51ColorIndex
 90
      256
102
RTVSPost2010Prop51ColorRGB
 90
-16777216
102
RTVSPost2010PropOp51
 70
     0
102
RTVSPost2010Prop52
140
1.0
102
RTVSPost2010PropOp52
 70
     0
102
RTVSPost2010Prop53
 90
        2
102
RTVSPost2010PropOp53
 70
     1
102
RTVSPost2010Prop54
  1
strokes_ogs.tif
102
RTVSPost2010PropOp54
 70
     1
102
RTVSPost2010Prop55
280
     0
102
RTVSPost2010PropOp55
 70
     1
102
RTVSPost2010Prop56
140
1.0
102
RTVSPost2010PropOp56
 70
     1
102
RTVSPost2010Prop57
140
1.0
102
RTVSPost2010PropOp57
 70
     1
102
RTVSPropertyOp0
 70
     1
102
RTVSPropertyOp1
 70
     1
102
RTVSPropertyOp2
 70
     1
102
RTVSPropertyOp3
 70
     1
102
RTVSPropertyOp4
 70
     1
102
RTVSPropertyOp5
 70
     1
102
RTVSPropertyOp6
 70
     1
102
RTVSPropertyOp7
 70
     1
102
RTVSPropertyOp8
 70
     1
102
RTVSPropertyOp9
 70
     1
102
RTVSPropertyOp10
 70
     1
102
RTVSPropertyOp11
 70
     1
102
RTVSPropertyOp12
 70
     1
102
RTVSPropertyOp13
 70
     1
102
RTVSPropertyOp14
 70
     1
102
RTVSPropertyOp15
 70
     1
102
RTVSPropertyOp16
 70
     1
102
RTVSPropertyOp17
 70
     1
102
RTVSPropertyOp18
 70
     1
102
RTVSPropertyOp19
 70
     1
102
RTVSPropertyOp20
 70
     1
102
RTVSPropertyOp21
 70
     1
102
RTVSPropertyOp22
 70
     1
102
RTVSPropertyOp23
 70
     1
102
RTVSPropertyOp24
 70
     1
102
RTVSPropertyOp25
 70
     1
102
RTVSPropertyOp26
 70
     1
102
RTVSPropertyOp27
 70
     1
102
RTVSPropertyOp28
 70
     1
102
RTVSPropertyOp29
 70
     1
102
RTVSPropertyOp30
 70
     1
102
RTVSPropertyOp31
 70
     1
102
RTVSPropertyOp32
 70
     1
102
RTVSPropertyOp33
 70
     1
102
RTVSPropertyOp34
 70
     1
102
RTVSPropertyOp35
 70
     1
102
RTVSPropertyOp36
 70
     1
102
RTVSPropertyOp37
 70
     1
102
RTVSPropertyOp38
 70
     1
102
RTVSPropertyOp39
 70
     1
102
RTVSPropertyOp40
 70
     1
102
RTVSPropertyOp41
 70
     1
102
RTVSPropertyOp42
 70
     1
102
RTVSPropertyOp43
 70
     1
102
RTVSPropertyOp44
 70
     1
102
RTVSPropertyOp45
 70
     1
102
RTVSPropertyOp46
 70
     1
102
RTVSPropertyOp47
 70
     1
102
RTVSPropertyOp48
 70
     1
102
RTVSPropertyOp49
 70
     1
102
RTVSPropertyOp50
 70
     1
102
RTVSPropertyOp51
 70
     0
102
RTVSPropertyOp52
 70
     0
102
RTVSPropertyOp53
 70
     1
102
RTVSPropertyOp54
 70
     1
102
RTVSPropertyOp55
 70
     1
102
RTVSPropertyOp56
 70
     1
102
RTVSPropertyOp57
 70
     1
102
RTVSPropertyOp58
 70
     1
102
RTVSPropertyOp59
 70
     1
102
RTVSPropertyOp60
 70
     1
102
RTVSPropertyOp61
 70
     1
102
RTVSPropertyOp62
 70
     1
  0
XRECORD
  5
A2DF
102
{ACAD_REACTORS
330
A2DE
102
}
330
A2DE
100
AcDbXrecord
280
     1
102
RTVSPost2010Prop28
280
     0
102
RTVSPost2010PropOp28
 70
     1
102
RTVSPost2010Prop29
280
     1
102
RTVSPost2010PropOp29
 70
     1
102
RTVSPost2010Prop30
280
     1
102
RTVSPost2010PropOp30
 70
     1
102
RTVSPost2010Prop31
280
     0
102
RTVSPost2010PropOp31
 70
     1
102
RTVSPost2010Prop32
280
     0
102
RTVSPost2010PropOp32
 70
     1
102
RTVSPost2010Prop33
280
     0
102
RTVSPost2010PropOp33
 70
     1
102
RTVSPost2010Prop34
280
     0
102
RTVSPost2010PropOp34
 70
     1
102
RTVSPost2010Prop35
280
     0
102
RTVSPost2010PropOp35
 70
     1
102
RTVSPost2010Prop36
280
     0
102
RTVSPost2010PropOp36
 70
     1
102
RTVSPost2010Prop37
 90
       50
102
RTVSPost2010PropOp37
 70
     1
102
RTVSPost2010Prop38
140
0.0
102
RTVSPost2010PropOp38
 70
     1
102
RTVSPost2010Prop39
140
1.0
102
RTVSPost2010PropOp39
 70
     1
102
RTVSPost2010Prop40
 90
        0
102
RTVSPost2010PropOp40
 70
     1
102
RTVSPost2010Prop41ColorIndex
 90
       18
102
RTVSPost2010Prop41ColorRGB
 90
        0
102
RTVSPost2010PropOp41
 70
     1
102
RTVSPost2010Prop42
 90
       50
102
RTVSPost2010PropOp42
 70
     1
102
RTVSPost2010Prop43
 90
        3
102
RTVSPost2010PropOp43
 70
     1
102
RTVSPost2010Prop44ColorIndex
 90
        5
102
RTVSPost2010Prop44ColorRGB
 90
      255
102
RTVSPost2010PropOp44
 70
     1
102
RTVSPost2010Prop45
280
     0
102
RTVSPost2010PropOp45
 70
     1
102
RTVSPost2010Prop46
 90
       50
102
RTVSPost2010PropOp46
 70
     1
102
RTVSPost2010Prop47
 90
       50
102
RTVSPost2010PropOp47
 70
     1
102
RTVSPost2010Prop48
 90
       50
102
RTVSPost2010PropOp48
 70
     1
102
RTVSPost2010Prop49
280
     0
102
RTVSPost2010PropOp49
 70
     1
102
RTVSPost2010Prop50
 90
       50
102
RTVSPost2010PropOp50
 70
     1
102
RTVSPost2010Prop51ColorIndex
 90
      256
102
RTVSPost2010Prop51ColorRGB
 90
-16777216
102
RTVSPost2010PropOp51
 70
     0
102
RTVSPost2010Prop52
140
1.0
102
RTVSPost2010PropOp52
 70
     0
102
RTVSPost2010Prop53
 90
        2
102
RTVSPost2010PropOp53
 70
     1
102
RTVSPost2010Prop54
  1
strokes_ogs.tif
102
RTVSPost2010PropOp54
 70
     1
102
RTVSPost2010Prop55
280
     0
102
RTVSPost2010PropOp55
 70
     1
102
RTVSPost2010Prop56
140
1.0
102
RTVSPost2010PropOp56
 70
     1
102
RTVSPost2010Prop57
140
1.0
102
RTVSPost2010PropOp57
 70
     1
102
RTVSPropertyOp0
 70
     1
102
RTVSPropertyOp1
 70
     1
102
RTVSPropertyOp2
 70
     1
102
RTVSPropertyOp3
 70
     1
102
RTVSPropertyOp4
 70
     1
102
RTVSPropertyOp5
 70
     1
102
RTVSPropertyOp6
 70
     1
102
RTVSPropertyOp7
 70
     1
102
RTVSPropertyOp8
 70
     1
102
RTVSPropertyOp9
 70
     1
102
RTVSPropertyOp10
 70
     1
102
RTVSPropertyOp11
 70
     1
102
RTVSPropertyOp12
 70
     1
102
RTVSPropertyOp13
 70
     1
102
RTVSPropertyOp14
 70
     1
102
RTVSPropertyOp15
 70
     1
102
RTVSPropertyOp16
 70
     1
102
RTVSPropertyOp17
 70
     1
102
RTVSPropertyOp18
 70
     1
102
RTVSPropertyOp19
 70
     1
102
RTVSPropertyOp20
 70
     1
102
RTVSPropertyOp21
 70
     1
102
RTVSPropertyOp22
 70
     1
102
RTVSPropertyOp23
 70
     1
102
RTVSPropertyOp24
 70
     1
102
RTVSPropertyOp25
 70
     1
102
RTVSPropertyOp26
 70
     1
102
RTVSPropertyOp27
 70
     1
102
RTVSPropertyOp28
 70
     1
102
RTVSPropertyOp29
 70
     1
102
RTVSPropertyOp30
 70
     1
102
RTVSPropertyOp31
 70
     1
102
RTVSPropertyOp32
 70
     1
102
RTVSPropertyOp33
 70
     1
102
RTVSPropertyOp34
 70
     1
102
RTVSPropertyOp35
 70
     1
102
RTVSPropertyOp36
 70
     1
102
RTVSPropertyOp37
 70
     1
102
RTVSPropertyOp38
 70
     1
102
RTVSPropertyOp39
 70
     1
102
RTVSPropertyOp40
 70
     1
102
RTVSPropertyOp41
 70
     1
102
RTVSPropertyOp42
 70
     1
102
RTVSPropertyOp43
 70
     1
102
RTVSPropertyOp44
 70
     1
102
RTVSPropertyOp45
 70
     1
102
RTVSPropertyOp46
 70
     1
102
RTVSPropertyOp47
 70
     1
102
RTVSPropertyOp48
 70
     1
102
RTVSPropertyOp49
 70
     1
102
RTVSPropertyOp50
 70
     1
102
RTVSPropertyOp51
 70
     0
102
RTVSPropertyOp52
 70
     0
102
RTVSPropertyOp53
 70
     1
102
RTVSPropertyOp54
 70
     1
102
RTVSPropertyOp55
 70
     1
102
RTVSPropertyOp56
 70
     1
102
RTVSPropertyOp57
 70
     1
102
RTVSPropertyOp58
 70
     1
102
RTVSPropertyOp59
 70
     1
102
RTVSPropertyOp60
 70
     1
102
RTVSPropertyOp61
 70
     1
102
RTVSPropertyOp62
 70
     1
  0
XRECORD
  5
A2E1
102
{ACAD_REACTORS
330
A2E0
102
}
330
A2E0
100
AcDbXrecord
280
     1
102
RTVSPost2010Prop28
280
     0
102
RTVSPost2010PropOp28
 70
     1
102
RTVSPost2010Prop29
280
     1
102
RTVSPost2010PropOp29
 70
     1
102
RTVSPost2010Prop30
280
     1
102
RTVSPost2010PropOp30
 70
     1
102
RTVSPost2010Prop31
280
     0
102
RTVSPost2010PropOp31
 70
     1
102
RTVSPost2010Prop32
280
     0
102
RTVSPost2010PropOp32
 70
     1
102
RTVSPost2010Prop33
280
     0
102
RTVSPost2010PropOp33
 70
     1
102
RTVSPost2010Prop34
280
     0
102
RTVSPost2010PropOp34
 70
     1
102
RTVSPost2010Prop35
280
     0
102
RTVSPost2010PropOp35
 70
     1
102
RTVSPost2010Prop36
280
     0
102
RTVSPost2010PropOp36
 70
     1
102
RTVSPost2010Prop37
 90
       50
102
RTVSPost2010PropOp37
 70
     1
102
RTVSPost2010Prop38
140
0.0
102
RTVSPost2010PropOp38
 70
     1
102
RTVSPost2010Prop39
140
1.0
102
RTVSPost2010PropOp39
 70
     1
102
RTVSPost2010Prop40
 90
        0
102
RTVSPost2010PropOp40
 70
     1
102
RTVSPost2010Prop41ColorIndex
 90
       18
102
RTVSPost2010Prop41ColorRGB
 90
        0
102
RTVSPost2010PropOp41
 70
     1
102
RTVSPost2010Prop42
 90
       50
102
RTVSPost2010PropOp42
 70
     1
102
RTVSPost2010Prop43
 90
        3
102
RTVSPost2010PropOp43
 70
     1
102
RTVSPost2010Prop44ColorIndex
 90
        5
102
RTVSPost2010Prop44ColorRGB
 90
      255
102
RTVSPost2010PropOp44
 70
     1
102
RTVSPost2010Prop45
280
     0
102
RTVSPost2010PropOp45
 70
     1
102
RTVSPost2010Prop46
 90
       50
102
RTVSPost2010PropOp46
 70
     1
102
RTVSPost2010Prop47
 90
       50
102
RTVSPost2010PropOp47
 70
     1
102
RTVSPost2010Prop48
 90
       50
102
RTVSPost2010PropOp48
 70
     1
102
RTVSPost2010Prop49
280
     0
102
RTVSPost2010PropOp49
 70
     1
102
RTVSPost2010Prop50
 90
       50
102
RTVSPost2010PropOp50
 70
     1
102
RTVSPost2010Prop51ColorIndex
 90
      256
102
RTVSPost2010Prop51ColorRGB
 90
-16777216
102
RTVSPost2010PropOp51
 70
     0
102
RTVSPost2010Prop52
140
1.0
102
RTVSPost2010PropOp52
 70
     0
102
RTVSPost2010Prop53
 90
        2
102
RTVSPost2010PropOp53
 70
     1
102
RTVSPost2010Prop54
  1
strokes_ogs.tif
102
RTVSPost2010PropOp54
 70
     1
102
RTVSPost2010Prop55
280
     0
102
RTVSPost2010PropOp55
 70
     1
102
RTVSPost2010Prop56
140
1.0
102
RTVSPost2010PropOp56
 70
     1
102
RTVSPost2010Prop57
140
1.0
102
RTVSPost2010PropOp57
 70
     1
102
RTVSPropertyOp0
 70
     1
102
RTVSPropertyOp1
 70
     1
102
RTVSPropertyOp2
 70
     1
102
RTVSPropertyOp3
 70
     1
102
RTVSPropertyOp4
 70
     1
102
RTVSPropertyOp5
 70
     1
102
RTVSPropertyOp6
 70
     1
102
RTVSPropertyOp7
 70
     1
102
RTVSPropertyOp8
 70
     1
102
RTVSPropertyOp9
 70
     1
102
RTVSPropertyOp10
 70
     1
102
RTVSPropertyOp11
 70
     1
102
RTVSPropertyOp12
 70
     1
102
RTVSPropertyOp13
 70
     1
102
RTVSPropertyOp14
 70
     1
102
RTVSPropertyOp15
 70
     1
102
RTVSPropertyOp16
 70
     1
102
RTVSPropertyOp17
 70
     1
102
RTVSPropertyOp18
 70
     1
102
RTVSPropertyOp19
 70
     1
102
RTVSPropertyOp20
 70
     1
102
RTVSPropertyOp21
 70
     1
102
RTVSPropertyOp22
 70
     1
102
RTVSPropertyOp23
 70
     1
102
RTVSPropertyOp24
 70
     1
102
RTVSPropertyOp25
 70
     1
102
RTVSPropertyOp26
 70
     1
102
RTVSPropertyOp27
 70
     1
102
RTVSPropertyOp28
 70
     1
102
RTVSPropertyOp29
 70
     1
102
RTVSPropertyOp30
 70
     1
102
RTVSPropertyOp31
 70
     1
102
RTVSPropertyOp32
 70
     1
102
RTVSPropertyOp33
 70
     1
102
RTVSPropertyOp34
 70
     1
102
RTVSPropertyOp35
 70
     1
102
RTVSPropertyOp36
 70
     1
102
RTVSPropertyOp37
 70
     1
102
RTVSPropertyOp38
 70
     1
102
RTVSPropertyOp39
 70
     1
102
RTVSPropertyOp40
 70
     1
102
RTVSPropertyOp41
 70
     1
102
RTVSPropertyOp42
 70
     1
102
RTVSPropertyOp43
 70
     1
102
RTVSPropertyOp44
 70
     1
102
RTVSPropertyOp45
 70
     1
102
RTVSPropertyOp46
 70
     1
102
RTVSPropertyOp47
 70
     1
102
RTVSPropertyOp48
 70
     1
102
RTVSPropertyOp49
 70
     1
102
RTVSPropertyOp50
 70
     1
102
RTVSPropertyOp51
 70
     0
102
RTVSPropertyOp52
 70
     0
102
RTVSPropertyOp53
 70
     1
102
RTVSPropertyOp54
 70
     1
102
RTVSPropertyOp55
 70
     1
102
RTVSPropertyOp56
 70
     1
102
RTVSPropertyOp57
 70
     1
102
RTVSPropertyOp58
 70
     1
102
RTVSPropertyOp59
 70
     1
102
RTVSPropertyOp60
 70
     1
102
RTVSPropertyOp61
 70
     1
102
RTVSPropertyOp62
 70
     1
  0
XRECORD
  5
A2D7
102
{ACAD_REACTORS
330
A2D6
102
}
330
A2D6
100
AcDbXrecord
280
     1
102
RTVSPost2010Prop28
280
     0
102
RTVSPost2010PropOp28
 70
     1
102
RTVSPost2010Prop29
280
     1
102
RTVSPost2010PropOp29
 70
     1
102
RTVSPost2010Prop30
280
     1
102
RTVSPost2010PropOp30
 70
     1
102
RTVSPost2010Prop31
280
     0
102
RTVSPost2010PropOp31
 70
     1
102
RTVSPost2010Prop32
280
     0
102
RTVSPost2010PropOp32
 70
     1
102
RTVSPost2010Prop33
280
     0
102
RTVSPost2010PropOp33
 70
     1
102
RTVSPost2010Prop34
280
     0
102
RTVSPost2010PropOp34
 70
     1
102
RTVSPost2010Prop35
280
     0
102
RTVSPost2010PropOp35
 70
     1
102
RTVSPost2010Prop36
280
     0
102
RTVSPost2010PropOp36
 70
     1
102
RTVSPost2010Prop37
 90
       50
102
RTVSPost2010PropOp37
 70
     1
102
RTVSPost2010Prop38
140
0.0
102
RTVSPost2010PropOp38
 70
     1
102
RTVSPost2010Prop39
140
1.0
102
RTVSPost2010PropOp39
 70
     1
102
RTVSPost2010Prop40
 90
        0
102
RTVSPost2010PropOp40
 70
     1
102
RTVSPost2010Prop41ColorIndex
 90
       18
102
RTVSPost2010Prop41ColorRGB
 90
        0
102
RTVSPost2010PropOp41
 70
     1
102
RTVSPost2010Prop42
 90
       50
102
RTVSPost2010PropOp42
 70
     1
102
RTVSPost2010Prop43
 90
        3
102
RTVSPost2010PropOp43
 70
     1
102
RTVSPost2010Prop44ColorIndex
 90
        5
102
RTVSPost2010Prop44ColorRGB
 90
      255
102
RTVSPost2010PropOp44
 70
     1
102
RTVSPost2010Prop45
280
     0
102
RTVSPost2010PropOp45
 70
     1
102
RTVSPost2010Prop46
 90
       50
102
RTVSPost2010PropOp46
 70
     1
102
RTVSPost2010Prop47
 90
       50
102
RTVSPost2010PropOp47
 70
     1
102
RTVSPost2010Prop48
 90
       50
102
RTVSPost2010PropOp48
 70
     1
102
RTVSPost2010Prop49
280
     0
102
RTVSPost2010PropOp49
 70
     1
102
RTVSPost2010Prop50
 90
       50
102
RTVSPost2010PropOp50
 70
     1
102
RTVSPost2010Prop51ColorIndex
 90
      256
102
RTVSPost2010Prop51ColorRGB
 90
-16777216
102
RTVSPost2010PropOp51
 70
     0
102
RTVSPost2010Prop52
140
1.0
102
RTVSPost2010PropOp52
 70
     0
102
RTVSPost2010Prop53
 90
        2
102
RTVSPost2010PropOp53
 70
     1
102
RTVSPost2010Prop54
  1
strokes_ogs.tif
102
RTVSPost2010PropOp54
 70
     1
102
RTVSPost2010Prop55
280
     0
102
RTVSPost2010PropOp55
 70
     1
102
RTVSPost2010Prop56
140
1.0
102
RTVSPost2010PropOp56
 70
     1
102
RTVSPost2010Prop57
140
1.0
102
RTVSPost2010PropOp57
 70
     1
102
RTVSPropertyOp0
 70
     1
102
RTVSPropertyOp1
 70
     1
102
RTVSPropertyOp2
 70
     1
102
RTVSPropertyOp3
 70
     1
102
RTVSPropertyOp4
 70
     1
102
RTVSPropertyOp5
 70
     1
102
RTVSPropertyOp6
 70
     1
102
RTVSPropertyOp7
 70
     1
102
RTVSPropertyOp8
 70
     1
102
RTVSPropertyOp9
 70
     1
102
RTVSPropertyOp10
 70
     1
102
RTVSPropertyOp11
 70
     1
102
RTVSPropertyOp12
 70
     1
102
RTVSPropertyOp13
 70
     1
102
RTVSPropertyOp14
 70
     1
102
RTVSPropertyOp15
 70
     1
102
RTVSPropertyOp16
 70
     1
102
RTVSPropertyOp17
 70
     1
102
RTVSPropertyOp18
 70
     1
102
RTVSPropertyOp19
 70
     1
102
RTVSPropertyOp20
 70
     1
102
RTVSPropertyOp21
 70
     1
102
RTVSPropertyOp22
 70
     1
102
RTVSPropertyOp23
 70
     1
102
RTVSPropertyOp24
 70
     1
102
RTVSPropertyOp25
 70
     1
102
RTVSPropertyOp26
 70
     1
102
RTVSPropertyOp27
 70
     1
102
RTVSPropertyOp28
 70
     1
102
RTVSPropertyOp29
 70
     1
102
RTVSPropertyOp30
 70
     1
102
RTVSPropertyOp31
 70
     1
102
RTVSPropertyOp32
 70
     1
102
RTVSPropertyOp33
 70
     1
102
RTVSPropertyOp34
 70
     1
102
RTVSPropertyOp35
 70
     1
102
RTVSPropertyOp36
 70
     1
102
RTVSPropertyOp37
 70
     1
102
RTVSPropertyOp38
 70
     1
102
RTVSPropertyOp39
 70
     1
102
RTVSPropertyOp40
 70
     1
102
RTVSPropertyOp41
 70
     1
102
RTVSPropertyOp42
 70
     1
102
RTVSPropertyOp43
 70
     1
102
RTVSPropertyOp44
 70
     1
102
RTVSPropertyOp45
 70
     1
102
RTVSPropertyOp46
 70
     1
102
RTVSPropertyOp47
 70
     1
102
RTVSPropertyOp48
 70
     1
102
RTVSPropertyOp49
 70
     1
102
RTVSPropertyOp50
 70
     1
102
RTVSPropertyOp51
 70
     0
102
RTVSPropertyOp52
 70
     0
102
RTVSPropertyOp53
 70
     1
102
RTVSPropertyOp54
 70
     1
102
RTVSPropertyOp55
 70
     1
102
RTVSPropertyOp56
 70
     1
102
RTVSPropertyOp57
 70
     1
102
RTVSPropertyOp58
 70
     1
102
RTVSPropertyOp59
 70
     1
102
RTVSPropertyOp60
 70
     1
102
RTVSPropertyOp61
 70
     1
102
RTVSPropertyOp62
 70
     1
  0
XRECORD
  5
A2CB
102
{ACAD_REACTORS
330
A2CA
102
}
330
A2CA
100
AcDbXrecord
280
     1
102
RTVSPost2010Prop28
280
     0
102
RTVSPost2010PropOp28
 70
     1
102
RTVSPost2010Prop29
280
     1
102
RTVSPost2010PropOp29
 70
     1
102
RTVSPost2010Prop30
280
     1
102
RTVSPost2010PropOp30
 70
     1
102
RTVSPost2010Prop31
280
     0
102
RTVSPost2010PropOp31
 70
     1
102
RTVSPost2010Prop32
280
     0
102
RTVSPost2010PropOp32
 70
     1
102
RTVSPost2010Prop33
280
     0
102
RTVSPost2010PropOp33
 70
     1
102
RTVSPost2010Prop34
280
     0
102
RTVSPost2010PropOp34
 70
     1
102
RTVSPost2010Prop35
280
     0
102
RTVSPost2010PropOp35
 70
     1
102
RTVSPost2010Prop36
280
     0
102
RTVSPost2010PropOp36
 70
     1
102
RTVSPost2010Prop37
 90
       50
102
RTVSPost2010PropOp37
 70
     1
102
RTVSPost2010Prop38
140
0.0
102
RTVSPost2010PropOp38
 70
     1
102
RTVSPost2010Prop39
140
1.0
102
RTVSPost2010PropOp39
 70
     1
102
RTVSPost2010Prop40
 90
        0
102
RTVSPost2010PropOp40
 70
     1
102
RTVSPost2010Prop41ColorIndex
 90
       18
102
RTVSPost2010Prop41ColorRGB
 90
        0
102
RTVSPost2010PropOp41
 70
     1
102
RTVSPost2010Prop42
 90
       50
102
RTVSPost2010PropOp42
 70
     1
102
RTVSPost2010Prop43
 90
        3
102
RTVSPost2010PropOp43
 70
     1
102
RTVSPost2010Prop44ColorIndex
 90
        5
102
RTVSPost2010Prop44ColorRGB
 90
      255
102
RTVSPost2010PropOp44
 70
     1
102
RTVSPost2010Prop45
280
     0
102
RTVSPost2010PropOp45
 70
     1
102
RTVSPost2010Prop46
 90
       50
102
RTVSPost2010PropOp46
 70
     1
102
RTVSPost2010Prop47
 90
       50
102
RTVSPost2010PropOp47
 70
     1
102
RTVSPost2010Prop48
 90
       50
102
RTVSPost2010PropOp48
 70
     1
102
RTVSPost2010Prop49
280
     0
102
RTVSPost2010PropOp49
 70
     1
102
RTVSPost2010Prop50
 90
       50
102
RTVSPost2010PropOp50
 70
     1
102
RTVSPost2010Prop51ColorIndex
 90
      256
102
RTVSPost2010Prop51ColorRGB
 90
-16777216
102
RTVSPost2010PropOp51
 70
     0
102
RTVSPost2010Prop52
140
1.0
102
RTVSPost2010PropOp52
 70
     0
102
RTVSPost2010Prop53
 90
        2
102
RTVSPost2010PropOp53
 70
     1
102
RTVSPost2010Prop54
  1
strokes_ogs.tif
102
RTVSPost2010PropOp54
 70
     1
102
RTVSPost2010Prop55
280
     0
102
RTVSPost2010PropOp55
 70
     1
102
RTVSPost2010Prop56
140
1.0
102
RTVSPost2010PropOp56
 70
     1
102
RTVSPost2010Prop57
140
1.0
102
RTVSPost2010PropOp57
 70
     1
102
RTVSPropertyOp0
 70
     1
102
RTVSPropertyOp1
 70
     1
102
RTVSPropertyOp2
 70
     1
102
RTVSPropertyOp3
 70
     1
102
RTVSPropertyOp4
 70
     1
102
RTVSPropertyOp5
 70
     1
102
RTVSPropertyOp6
 70
     1
102
RTVSPropertyOp7
 70
     1
102
RTVSPropertyOp8
 70
     1
102
RTVSPropertyOp9
 70
     1
102
RTVSPropertyOp10
 70
     1
102
RTVSPropertyOp11
 70
     1
102
RTVSPropertyOp12
 70
     1
102
RTVSPropertyOp13
 70
     1
102
RTVSPropertyOp14
 70
     1
102
RTVSPropertyOp15
 70
     1
102
RTVSPropertyOp16
 70
     1
102
RTVSPropertyOp17
 70
     1
102
RTVSPropertyOp18
 70
     1
102
RTVSPropertyOp19
 70
     1
102
RTVSPropertyOp20
 70
     1
102
RTVSPropertyOp21
 70
     1
102
RTVSPropertyOp22
 70
     1
102
RTVSPropertyOp23
 70
     1
102
RTVSPropertyOp24
 70
     1
102
RTVSPropertyOp25
 70
     1
102
RTVSPropertyOp26
 70
     1
102
RTVSPropertyOp27
 70
     1
102
RTVSPropertyOp28
 70
     1
102
RTVSPropertyOp29
 70
     1
102
RTVSPropertyOp30
 70
     1
102
RTVSPropertyOp31
 70
     1
102
RTVSPropertyOp32
 70
     1
102
RTVSPropertyOp33
 70
     1
102
RTVSPropertyOp34
 70
     1
102
RTVSPropertyOp35
 70
     1
102
RTVSPropertyOp36
 70
     1
102
RTVSPropertyOp37
 70
     1
102
RTVSPropertyOp38
 70
     1
102
RTVSPropertyOp39
 70
     1
102
RTVSPropertyOp40
 70
     1
102
RTVSPropertyOp41
 70
     1
102
RTVSPropertyOp42
 70
     1
102
RTVSPropertyOp43
 70
     1
102
RTVSPropertyOp44
 70
     1
102
RTVSPropertyOp45
 70
     1
102
RTVSPropertyOp46
 70
     1
102
RTVSPropertyOp47
 70
     1
102
RTVSPropertyOp48
 70
     1
102
RTVSPropertyOp49
 70
     1
102
RTVSPropertyOp50
 70
     1
102
RTVSPropertyOp51
 70
     0
102
RTVSPropertyOp52
 70
     0
102
RTVSPropertyOp53
 70
     1
102
RTVSPropertyOp54
 70
     1
102
RTVSPropertyOp55
 70
     1
102
RTVSPropertyOp56
 70
     1
102
RTVSPropertyOp57
 70
     1
102
RTVSPropertyOp58
 70
     1
102
RTVSPropertyOp59
 70
     1
102
RTVSPropertyOp60
 70
     1
102
RTVSPropertyOp61
 70
     1
102
RTVSPropertyOp62
 70
     1
  0
XRECORD
  5
A2E3
102
{ACAD_REACTORS
330
A2E2
102
}
330
A2E2
100
AcDbXrecord
280
     1
102
RTVSPost2010Prop28
280
     0
102
RTVSPost2010PropOp28
 70
     1
102
RTVSPost2010Prop29
280
     1
102
RTVSPost2010PropOp29
 70
     1
102
RTVSPost2010Prop30
280
     1
102
RTVSPost2010PropOp30
 70
     1
102
RTVSPost2010Prop31
280
     0
102
RTVSPost2010PropOp31
 70
     1
102
RTVSPost2010Prop32
280
     0
102
RTVSPost2010PropOp32
 70
     1
102
RTVSPost2010Prop33
280
     0
102
RTVSPost2010PropOp33
 70
     1
102
RTVSPost2010Prop34
280
     0
102
RTVSPost2010PropOp34
 70
     1
102
RTVSPost2010Prop35
280
     0
102
RTVSPost2010PropOp35
 70
     1
102
RTVSPost2010Prop36
280
     0
102
RTVSPost2010PropOp36
 70
     1
102
RTVSPost2010Prop37
 90
       50
102
RTVSPost2010PropOp37
 70
     1
102
RTVSPost2010Prop38
140
0.0
102
RTVSPost2010PropOp38
 70
     1
102
RTVSPost2010Prop39
140
1.0
102
RTVSPost2010PropOp39
 70
     1
102
RTVSPost2010Prop40
 90
        0
102
RTVSPost2010PropOp40
 70
     1
102
RTVSPost2010Prop41ColorIndex
 90
       18
102
RTVSPost2010Prop41ColorRGB
 90
        0
102
RTVSPost2010PropOp41
 70
     1
102
RTVSPost2010Prop42
 90
       50
102
RTVSPost2010PropOp42
 70
     1
102
RTVSPost2010Prop43
 90
        3
102
RTVSPost2010PropOp43
 70
     1
102
RTVSPost2010Prop44ColorIndex
 90
        5
102
RTVSPost2010Prop44ColorRGB
 90
      255
102
RTVSPost2010PropOp44
 70
     1
102
RTVSPost2010Prop45
280
     0
102
RTVSPost2010PropOp45
 70
     1
102
RTVSPost2010Prop46
 90
       50
102
RTVSPost2010PropOp46
 70
     1
102
RTVSPost2010Prop47
 90
       50
102
RTVSPost2010PropOp47
 70
     1
102
RTVSPost2010Prop48
 90
       50
102
RTVSPost2010PropOp48
 70
     1
102
RTVSPost2010Prop49
280
     0
102
RTVSPost2010PropOp49
 70
     1
102
RTVSPost2010Prop50
 90
       50
102
RTVSPost2010PropOp50
 70
     1
102
RTVSPost2010Prop51ColorIndex
 90
      256
102
RTVSPost2010Prop51ColorRGB
 90
-16777216
102
RTVSPost2010PropOp51
 70
     0
102
RTVSPost2010Prop52
140
1.0
102
RTVSPost2010PropOp52
 70
     0
102
RTVSPost2010Prop53
 90
        2
102
RTVSPost2010PropOp53
 70
     1
102
RTVSPost2010Prop54
  1
strokes_ogs.tif
102
RTVSPost2010PropOp54
 70
     1
102
RTVSPost2010Prop55
280
     0
102
RTVSPost2010PropOp55
 70
     1
102
RTVSPost2010Prop56
140
1.0
102
RTVSPost2010PropOp56
 70
     1
102
RTVSPost2010Prop57
140
1.0
102
RTVSPost2010PropOp57
 70
     1
102
RTVSPropertyOp0
 70
     1
102
RTVSPropertyOp1
 70
     1
102
RTVSPropertyOp2
 70
     1
102
RTVSPropertyOp3
 70
     1
102
RTVSPropertyOp4
 70
     1
102
RTVSPropertyOp5
 70
     1
102
RTVSPropertyOp6
 70
     1
102
RTVSPropertyOp7
 70
     1
102
RTVSPropertyOp8
 70
     1
102
RTVSPropertyOp9
 70
     1
102
RTVSPropertyOp10
 70
     1
102
RTVSPropertyOp11
 70
     1
102
RTVSPropertyOp12
 70
     1
102
RTVSPropertyOp13
 70
     1
102
RTVSPropertyOp14
 70
     1
102
RTVSPropertyOp15
 70
     1
102
RTVSPropertyOp16
 70
     1
102
RTVSPropertyOp17
 70
     1
102
RTVSPropertyOp18
 70
     1
102
RTVSPropertyOp19
 70
     1
102
RTVSPropertyOp20
 70
     1
102
RTVSPropertyOp21
 70
     1
102
RTVSPropertyOp22
 70
     1
102
RTVSPropertyOp23
 70
     1
102
RTVSPropertyOp24
 70
     1
102
RTVSPropertyOp25
 70
     1
102
RTVSPropertyOp26
 70
     1
102
RTVSPropertyOp27
 70
     1
102
RTVSPropertyOp28
 70
     1
102
RTVSPropertyOp29
 70
     1
102
RTVSPropertyOp30
 70
     1
102
RTVSPropertyOp31
 70
     1
102
RTVSPropertyOp32
 70
     1
102
RTVSPropertyOp33
 70
     1
102
RTVSPropertyOp34
 70
     1
102
RTVSPropertyOp35
 70
     1
102
RTVSPropertyOp36
 70
     1
102
RTVSPropertyOp37
 70
     1
102
RTVSPropertyOp38
 70
     1
102
RTVSPropertyOp39
 70
     1
102
RTVSPropertyOp40
 70
     1
102
RTVSPropertyOp41
 70
     1
102
RTVSPropertyOp42
 70
     1
102
RTVSPropertyOp43
 70
     1
102
RTVSPropertyOp44
 70
     1
102
RTVSPropertyOp45
 70
     1
102
RTVSPropertyOp46
 70
     1
102
RTVSPropertyOp47
 70
     1
102
RTVSPropertyOp48
 70
     1
102
RTVSPropertyOp49
 70
     1
102
RTVSPropertyOp50
 70
     1
102
RTVSPropertyOp51
 70
     0
102
RTVSPropertyOp52
 70
     0
102
RTVSPropertyOp53
 70
     1
102
RTVSPropertyOp54
 70
     1
102
RTVSPropertyOp55
 70
     1
102
RTVSPropertyOp56
 70
     1
102
RTVSPropertyOp57
 70
     1
102
RTVSPropertyOp58
 70
     1
102
RTVSPropertyOp59
 70
     1
102
RTVSPropertyOp60
 70
     1
102
RTVSPropertyOp61
 70
     1
102
RTVSPropertyOp62
 70
     1
  0
ENDSEC
  0
EOF
