  0
SECTION
  2
HEADER
  9
$ACADVER
  1
AC1015
  9
$ACADMAINTVER
 70
    20
  9
$DWGCODEPAGE
  3
ANSI_932
  9
$INSBASE
 10
0.0
 20
0.0
 30
0.0
  9
$EXTMIN
 10
10.0
 20
9.999999999999998
 30
0.0
  9
$EXTMAX
 10
363.5617799999999
 20
300.0674619999998
 30
0.0
  9
$LIMMIN
 10
0.0
 20
0.0
  9
$LIMMAX
 10
495.0
 20
341.25
  9
$ORTHOMODE
 70
     1
  9
$REGENMODE
 70
     1
  9
$FILLMODE
 70
     1
  9
$QTEXTMODE
 70
     0
  9
$MIRRTEXT
 70
     1
  9
$LTSCALE
 40
20.0
  9
$ATTMODE
 70
     1
  9
$TEXTSIZE
 40
5.0
  9
$TRACEWID
 40
1.0
  9
$TEXTSTYLE
  7
STANDARD
  9
$CLAYER
  8
0
  9
$CELTYPE
  6
BYLAYER
  9
$CECOLOR
 62
   256
  9
$CELTSCALE
 40
1.0
  9
$DISPSILH
 70
     0
  9
$DIMSCALE
 40
1.0
  9
$DIMASZ
 40
3.0
  9
$DIMEXO
 40
1.0
  9
$DIMDLI
 40
10.0
  9
$DIMRND
 40
0.0
  9
$DIMDLE
 40
0.0
  9
$DIMEXE
 40
1.0
  9
$DIMTP
 40
0.0
  9
$DIMTM
 40
0.0
  9
$DIMTXT
 40
3.2
  9
$DIMCEN
 40
0.0
  9
$DIMTSZ
 40
0.0
  9
$DIMTOL
 70
     0
  9
$DIMLIM
 70
     0
  9
$DIMTIH
 70
     0
  9
$DIMTOH
 70
     0
  9
$DIMSE1
 70
     0
  9
$DIMSE2
 70
     0
  9
$DIMTAD
 70
     3
  9
$DIMZIN
 70
     8
  9
$DIMBLK
  1

  9
$DIMASO
 70
     1
  9
$DIMSHO
 70
     1
  9
$DIMPOST
  1

  9
$DIMAPOST
  1

  9
$DIMALT
 70
     0
  9
$DIMALTD
 70
     2
  9
$DIMALTF
 40
25.4
  9
$DIMLFAC
 40
1.0
  9
$DIMTOFL
 70
     1
  9
$DIMTVP
 40
0.0
  9
$DIMTIX
 70
     0
  9
$DIMSOXD
 70
     0
  9
$DIMSAH
 70
     1
  9
$DIMBLK1
  1
OPEN
  9
$DIMBLK2
  1
OPEN
  9
$DIMSTYLE
  2
STANDARD
  9
$DIMCLRD
 70
     0
  9
$DIMCLRE
 70
     0
  9
$DIMCLRT
 70
     0
  9
$DIMTFAC
 40
1.0
  9
$DIMGAP
 40
1.0
  9
$DIMJUST
 70
     0
  9
$DIMSD1
 70
     0
  9
$DIMSD2
 70
     0
  9
$DIMTOLJ
 70
     1
  9
$DIMTZIN
 70
     0
  9
$DIMALTZ
 70
     0
  9
$DIMALTTZ
 70
     0
  9
$DIMUPT
 70
     0
  9
$DIMDEC
 70
     4
  9
$DIMTDEC
 70
     4
  9
$DIMALTU
 70
     2
  9
$DIMALTTD
 70
     2
  9
$DIMTXSTY
  7
STANDARD
  9
$DIMAUNIT
 70
     0
  9
$DIMADEC
 70
     0
  9
$DIMALTRND
 40
0.0
  9
$DIMAZIN
 70
     0
  9
$DIMDSEP
 70
    46
  9
$DIMATFIT
 70
     3
  9
$DIMFRAC
 70
     0
  9
$DIMLDRBLK
  1
OPEN
  9
$DIMLUNIT
 70
     2
  9
$DIMLWD
 70
    -2
  9
$DIMLWE
 70
    -2
  9
$DIMTMOVE
 70
     0
  9
$LUNITS
 70
     2
  9
$LUPREC
 70
     4
  9
$SKETCHINC
 40
1.0
  9
$FILLETRAD
 40
6.0
  9
$AUNITS
 70
     0
  9
$AUPREC
 70
     2
  9
$MENU
  1
.
  9
$ELEVATION
 40
0.0
  9
$PELEVATION
 40
0.0
  9
$THICKNESS
 40
0.0
  9
$LIMCHECK
 70
     0
  9
$CHAMFERA
 40
10.0
  9
$CHAMFERB
 40
10.0
  9
$CHAMFERC
 40
0.0
  9
$CHAMFERD
 40
0.0
  9
$SKPOLY
 70
     0
  9
$TDCREATE
 40
2451302.666340278
  9
$TDUCREATE
 40
2451302.291340278
  9
$TDUPDATE
 40
2457192.687877395
  9
$TDUUPDATE
 40
2457192.312877396
  9
$TDINDWG
 40
0.0000100810
  9
$TDUSRTIMER
 40
0.0000095949
  9
$USRTIMER
 70
     1
  9
$ANGBASE
 50
0.0
  9
$ANGDIR
 70
     0
  9
$PDMODE
 70
     0
  9
$PDSIZE
 40
0.0
  9
$PLINEWID
 40
0.0
  9
$SPLFRAME
 70
     0
  9
$SPLINETYPE
 70
     6
  9
$SPLINESEGS
 70
     8
  9
$HANDSEED
  5
AB65
  9
$SURFTAB1
 70
     6
  9
$SURFTAB2
 70
     6
  9
$SURFTYPE
 70
     6
  9
$SURFU
 70
     6
  9
$SURFV
 70
     6
  9
$UCSBASE
  2

  9
$UCSNAME
  2

  9
$UCSORG
 10
0.0
 20
0.0
 30
0.0
  9
$UCSXDIR
 10
1.0
 20
0.0
 30
0.0
  9
$UCSYDIR
 10
0.0
 20
1.0
 30
0.0
  9
$UCSORTHOREF
  2

  9
$UCSORTHOVIEW
 70
     0
  9
$UCSORGTOP
 10
0.0
 20
0.0
 30
0.0
  9
$UCSORGBOTTOM
 10
0.0
 20
0.0
 30
0.0
  9
$UCSORGLEFT
 10
0.0
 20
0.0
 30
0.0
  9
$UCSORGRIGHT
 10
0.0
 20
0.0
 30
0.0
  9
$UCSORGFRONT
 10
0.0
 20
0.0
 30
0.0
  9
$UCSORGBACK
 10
0.0
 20
0.0
 30
0.0
  9
$PUCSBASE
  2

  9
$PUCSNAME
  2

  9
$PUCSORG
 10
0.0
 20
0.0
 30
0.0
  9
$PUCSXDIR
 10
1.0
 20
0.0
 30
0.0
  9
$PUCSYDIR
 10
0.0
 20
1.0
 30
0.0
  9
$PUCSORTHOREF
  2

  9
$PUCSORTHOVIEW
 70
     0
  9
$PUCSORGTOP
 10
0.0
 20
0.0
 30
0.0
  9
$PUCSORGBOTTOM
 10
0.0
 20
0.0
 30
0.0
  9
$PUCSORGLEFT
 10
0.0
 20
0.0
 30
0.0
  9
$PUCSORGRIGHT
 10
0.0
 20
0.0
 30
0.0
  9
$PUCSORGFRONT
 10
0.0
 20
0.0
 30
0.0
  9
$PUCSORGBACK
 10
0.0
 20
0.0
 30
0.0
  9
$USERI1
 70
     0
  9
$USERI2
 70
     0
  9
$USERI3
 70
     0
  9
$USERI4
 70
     0
  9
$USERI5
 70
     0
  9
$USERR1
 40
0.0
  9
$USERR2
 40
0.0
  9
$USERR3
 40
0.0
  9
$USERR4
 40
0.0
  9
$USERR5
 40
0.0
  9
$WORLDVIEW
 70
     1
  9
$SHADEDGE
 70
     3
  9
$SHADEDIF
 70
    70
  9
$TILEMODE
 70
     1
  9
$MAXACTVP
 70
    16
  9
$PINSBASE
 10
0.0
 20
0.0
 30
0.0
  9
$PLIMCHECK
 70
     0
  9
$PEXTMIN
 10
1.000000000000000E+20
 20
1.000000000000000E+20
 30
1.000000000000000E+20
  9
$PEXTMAX
 10
-1.000000000000000E+20
 20
-1.000000000000000E+20
 30
-1.000000000000000E+20
  9
$PLIMMIN
 10
0.0
 20
0.0
  9
$PLIMMAX
 10
420.0
 20
297.0
  9
$UNITMODE
 70
     0
  9
$VISRETAIN
 70
     0
  9
$PLINEGEN
 70
     0
  9
$PSLTSCALE
 70
     0
  9
$TREEDEPTH
 70
  3020
  9
$CMLSTYLE
  2
STANDARD
  9
$CMLJUST
 70
     0
  9
$CMLSCALE
 40
1.0
  9
$PROXYGRAPHICS
 70
     1
  9
$MEASUREMENT
 70
     0
  9
$CELWEIGHT
370
    -1
  9
$ENDCAPS
280
     0
  9
$JOINSTYLE
280
     0
  9
$LWDISPLAY
290
     0
  9
$INSUNITS
 70
     0
  9
$HYPERLINKBASE
  1

  9
$STYLESHEET
  1

  9
$XEDIT
290
     1
  9
$CEPSNTYPE
380
     0
  9
$PSTYLEMODE
290
     1
  9
$FINGERPRINTGUID
  2
{ACDE165F-700A-4E15-83C3-734FE2E19E67}
  9
$VERSIONGUID
  2
{2D67378D-E1DE-4048-85E6-F3AA399A630D}
  9
$EXTNAMES
290
     1
  9
$PSVPSCALE
 40
0.0
  9
$OLESTARTUP
290
     0
  0
ENDSEC
  0
SECTION
  2
CLASSES
  0
CLASS
  1
ACDBDICTIONARYWDFLT
  2
AcDbDictionaryWithDefault
  3
ObjectDBX Classes
 90
        0
280
     0
281
     0
  0
CLASS
  1
ACDBPLACEHOLDER
  2
AcDbPlaceHolder
  3
ObjectDBX Classes
 90
        0
280
     0
281
     0
  0
CLASS
  1
LAYOUT
  2
AcDbLayout
  3
ObjectDBX Classes
 90
        0
280
     0
281
     0
  0
CLASS
  1
DICTIONARYVAR
  2
AcDbDictionaryVar
  3
ObjectDBX Classes
 90
        0
280
     0
281
     0
  0
CLASS
  1
MATERIAL
  2
AcDbMaterial
  3
ObjectDBX Classes
 90
     1153
280
     0
281
     0
  0
CLASS
  1
VISUALSTYLE
  2
AcDbVisualStyle
  3
ObjectDBX Classes
 90
     4095
280
     0
281
     0
  0
CLASS
  1
TABLESTYLE
  2
AcDbTableStyle
  3
ObjectDBX Classes
 90
     4095
280
     0
281
     0
  0
CLASS
  1
SCALE
  2
AcDbScale
  3
ObjectDBX Classes
 90
     1153
280
     0
281
     0
  0
CLASS
  1
MLEADERSTYLE
  2
AcDbMLeaderStyle
  3
ACDB_MLEADERSTYLE_CLASS
 90
     4095
280
     0
281
     0
  0
CLASS
  1
ACDBSECTIONVIEWSTYLE
  2
AcDbSectionViewStyle
  3
ObjectDBX Classes
 90
     1025
280
     0
281
     0
  0
CLASS
  1
ACDBDETAILVIEWSTYLE
  2
AcDbDetailViewStyle
  3
ObjectDBX Classes
 90
     1025
280
     0
281
     0
  0
CLASS
  1
CELLSTYLEMAP
  2
AcDbCellStyleMap
  3
ObjectDBX Classes
 90
     1152
280
     0
281
     0
  0
ENDSEC
  0
SECTION
  2
TABLES
  0
TABLE
  2
VPORT
  5
A867
330
0
100
AcDbSymbolTable
 70
     1
  0
VPORT
  5
AAAE
330
A867
100
AcDbSymbolTableRecord
100
AcDbViewportTableRecord
  2
*ACTIVE
 70
     0
 10
0.0
 20
0.0
 11
1.0
 21
1.0
 12
274.6535917575656
 22
155.0298507824829
 13
0.0
 23
0.0
 14
10.0
 24
10.0
 15
10.0
 25
10.0
 16
0.0
 26
0.0
 36
1.0
 17
0.0
 27
0.0
 37
0.0
 40
293.2907746698074
 41
2.35006605019815
 42
50.0
 43
0.0
 44
0.0
 50
0.0
 51
0.0
 71
     0
 72
   100
 73
     1
 74
     0
 75
     0
 76
     0
 77
     0
 78
     0
281
     0
 65
     1
110
0.0
120
0.0
130
0.0
111
1.0
121
0.0
131
0.0
112
0.0
122
1.0
132
0.0
 79
     0
146
0.0
1001
ACAD_NAV_VCDISPLAY
1070
     3
  0
ENDTAB
  0
TABLE
  2
LTYPE
  5
A864
330
0
100
AcDbSymbolTable
 70
     4
  0
LTYPE
  5
A872
330
A864
100
AcDbSymbolTableRecord
100
AcDbLinetypeTableRecord
  2
BYBLOCK
 70
     0
  3

 72
    65
 73
     0
 40
0.0
  0
LTYPE
  5
A873
330
A864
100
AcDbSymbolTableRecord
100
AcDbLinetypeTableRecord
  2
BYLAYER
 70
     0
  3

 72
    65
 73
     0
 40
0.0
  0
LTYPE
  5
A874
330
A864
100
AcDbSymbolTableRecord
100
AcDbLinetypeTableRecord
  2
CONTINUOUS
 70
     0
  3
Solid line
 72
    65
 73
     0
 40
0.0
  0
LTYPE
  5
A882
330
A864
100
AcDbSymbolTableRecord
100
AcDbLinetypeTableRecord
  2
DASHED
 70
     0
  3
__ __ __ __ __ __ __ __ __ __ __ __ __ __ __ __
 72
    65
 73
     2
 40
0.75
 49
0.5
 74
     0
 49
-0.25
 74
     0
  0
LTYPE
  5
A883
330
A864
100
AcDbSymbolTableRecord
100
AcDbLinetypeTableRecord
  2
CENTER
 70
     0
  3
____ _ ____ _ ____ _ ____ _ ____ _ ____ _ ____ 
 72
    65
 73
     4
 40
2.0
 49
1.25
 74
     0
 49
-0.25
 74
     0
 49
0.25
 74
     0
 49
-0.25
 74
     0
  0
LTYPE
  5
A884
330
A864
100
AcDbSymbolTableRecord
100
AcDbLinetypeTableRecord
  2
PHANTOM
 70
     0
  3
______  __  __  ______  __  __  ______  __  __ 
 72
    65
 73
     6
 40
2.5
 49
1.25
 74
     0
 49
-0.25
 74
     0
 49
0.25
 74
     0
 49
-0.25
 74
     0
 49
0.25
 74
     0
 49
-0.25
 74
     0
  0
ENDTAB
  0
TABLE
  2
LAYER
  5
A861
330
0
100
AcDbSymbolTable
 70
     8
  0
LAYER
  5
A86F
102
{ACAD_XDICTIONARY
360
AB09
102
}
330
A861
100
AcDbSymbolTableRecord
100
AcDbLayerTableRecord
  2
0
 70
     0
 62
     7
  6
CONTINUOUS
370
    -3
390
AAB7
  0
LAYER
  5
A885
102
{ACAD_XDICTIONARY
360
AB0B
102
}
330
A861
100
AcDbSymbolTableRecord
100
AcDbLayerTableRecord
  2
4
 70
     0
 62
     1
  6
CENTER
370
    -3
390
AAB7
  0
LAYER
  5
A886
102
{ACAD_XDICTIONARY
360
AB0D
102
}
330
A861
100
AcDbSymbolTableRecord
100
AcDbLayerTableRecord
  2
5
 70
     0
 62
     6
  6
PHANTOM
370
    -3
390
AAB7
  0
LAYER
  5
A887
102
{ACAD_XDICTIONARY
360
AB0F
102
}
330
A861
100
AcDbSymbolTableRecord
100
AcDbLayerTableRecord
  2
1
 70
     0
 62
     7
  6
CONTINUOUS
370
    -3
390
AAB7
  0
LAYER
  5
A888
102
{ACAD_XDICTIONARY
360
AB11
102
}
330
A861
100
AcDbSymbolTableRecord
100
AcDbLayerTableRecord
  2
2
 70
     0
 62
     4
  6
CONTINUOUS
370
    -3
390
AAB7
  0
LAYER
  5
A889
102
{ACAD_XDICTIONARY
360
AB13
102
}
330
A861
100
AcDbSymbolTableRecord
100
AcDbLayerTableRecord
  2
3
 70
     0
 62
     2
  6
DASHED
370
    -3
390
AAB7
  0
LAYER
  5
A88A
102
{ACAD_XDICTIONARY
360
AB15
102
}
330
A861
100
AcDbSymbolTableRecord
100
AcDbLayerTableRecord
  2
6
 70
     0
 62
     5
  6
CONTINUOUS
370
    -3
390
AAB7
  0
LAYER
  5
A88B
102
{ACAD_XDICTIONARY
360
AB17
102
}
330
A861
100
AcDbSymbolTableRecord
100
AcDbLayerTableRecord
  2
7
 70
     0
 62
     3
  6
CONTINUOUS
370
    -3
390
AAB7
  0
ENDTAB
  0
TABLE
  2
STYLE
  5
A862
330
0
100
AcDbSymbolTable
 70
     1
  0
STYLE
  5
A870
330
A862
100
AcDbSymbolTableRecord
100
AcDbTextStyleTableRecord
  2
STANDARD
 70
     0
 40
0.0
 41
1.0
 50
0.0
 71
     0
 42
5.0
  3
txt
  4

  0
ENDTAB
  0
TABLE
  2
VIEW
  5
A865
330
0
100
AcDbSymbolTable
 70
     0
  0
ENDTAB
  0
TABLE
  2
UCS
  5
A866
330
0
100
AcDbSymbolTable
 70
     0
  0
ENDTAB
  0
TABLE
  2
APPID
  5
A868
330
0
100
AcDbSymbolTable
 70
     3
  0
APPID
  5
A871
330
A868
100
AcDbSymbolTableRecord
100
AcDbRegAppTableRecord
  2
ACAD
 70
     0
  0
APPID
  5
AB23
330
A868
100
AcDbSymbolTableRecord
100
AcDbRegAppTableRecord
  2
ACAD_NAV_VCDISPLAY
 70
     0
  0
APPID
  5
AB5C
330
A868
100
AcDbSymbolTableRecord
100
AcDbRegAppTableRecord
  2
ACAD_MLEADERVER
 70
     0
  0
ENDTAB
  0
TABLE
  2
DIMSTYLE
  5
A869
330
0
100
AcDbSymbolTable
 70
     1
100
AcDbDimStyleTable
 71
     0
  0
DIMSTYLE
105
A88D
330
A869
100
AcDbSymbolTableRecord
100
AcDbDimStyleTableRecord
  2
STANDARD
 70
     0
 41
3.0
 42
1.0
 43
10.0
 44
1.0
 73
     0
 74
     0
 77
     3
 78
     8
140
3.2
141
0.0
147
1.0
172
     1
173
     1
284
     8
285
     8
286
     8
340
A870
  0
ENDTAB
  0
TABLE
  2
BLOCK_RECORD
  5
A860
330
0
100
AcDbSymbolTable
 70
     1
  0
BLOCK_RECORD
  5
A87D
102
{ACAD_XDICTIONARY
360
AAB1
102
}
330
A860
100
AcDbSymbolTableRecord
100
AcDbBlockTableRecord
  2
*MODEL_SPACE
340
AB05
  0
BLOCK_RECORD
  5
A879
102
{ACAD_XDICTIONARY
360
AAAF
102
}
330
A860
100
AcDbSymbolTableRecord
100
AcDbBlockTableRecord
  2
*PAPER_SPACE
340
AB06
  0
BLOCK_RECORD
  5
A895
330
A860
100
AcDbSymbolTableRecord
100
AcDbBlockTableRecord
  2
_OPEN
340
0
  0
ENDTAB
  0
ENDSEC
  0
SECTION
  2
BLOCKS
  0
BLOCK
  5
A87E
330
A87D
100
AcDbEntity
  8
0
100
AcDbBlockBegin
  2
*MODEL_SPACE
 70
     0
 10
0.0
 20
0.0
 30
0.0
  3
*MODEL_SPACE
  1

  0
ENDBLK
  5
A87F
330
A87D
100
AcDbEntity
  8
0
100
AcDbBlockEnd
  0
BLOCK
  5
A87A
330
A879
100
AcDbEntity
 67
     1
  8
0
100
AcDbBlockBegin
  2
*PAPER_SPACE
 70
     0
 10
0.0
 20
0.0
 30
0.0
  3
*PAPER_SPACE
  1

  0
ENDBLK
  5
A87B
330
A879
100
AcDbEntity
 67
     1
  8
0
100
AcDbBlockEnd
  0
BLOCK
  5
A896
330
A895
100
AcDbEntity
  8
0
100
AcDbBlockBegin
  2
_OPEN
 70
     0
 10
0.0
 20
0.0
 30
0.0
  3
_OPEN
  1

  0
LINE
  5
A897
330
A895
100
AcDbEntity
  8
0
  6
ByBlock
 62
     0
100
AcDbLine
 10
-1.0
 20
0.166667
 30
0.0
 11
0.0
 21
0.0
 31
0.0
  0
LINE
  5
A898
330
A895
100
AcDbEntity
  8
0
  6
ByBlock
 62
     0
100
AcDbLine
 10
0.0
 20
0.0
 30
0.0
 11
-1.0
 21
-0.166667
 31
0.0
  0
LINE
  5
A899
330
A895
100
AcDbEntity
  8
0
  6
ByBlock
 62
     0
100
AcDbLine
 10
0.0
 20
0.0
 30
0.0
 11
-1.0
 21
0.0
 31
0.0
  0
ENDBLK
  5
A89A
330
A895
100
AcDbEntity
  8
0
100
AcDbBlockEnd
  0
ENDSEC
  0
SECTION
  2
ENTITIES
  0
TEXT
  5
A89B
330
A87D
100
AcDbEntity
  8
7
  6
Continuous
100
AcDbText
 10
10.0
 20
18.0
 30
0.0
 40
3.0
  1
TYPE No.303
100
AcDbText
  0
TEXT
  5
A89C
330
A87D
100
AcDbEntity
  8
7
  6
Continuous
100
AcDbText
 10
10.0
 20
26.0
 30
0.0
 40
3.0
  1
CODE No.9304
100
AcDbText
  0
TEXT
  5
A89D
330
A87D
100
AcDbEntity
  8
1
  6
Continuous
100
AcDbText
 10
10.0
 20
10.0
 30
0.0
 40
1.399999999999999
  1
LAYER
100
AcDbText
  0
TEXT
  5
A89E
330
A87D
100
AcDbEntity
  8
1
  6
Continuous
100
AcDbText
 10
17.97951099999998
 20
10.04873699999998
 30
0.0
 40
1.399999999999999
  1
1
100
AcDbText
  0
TEXT
  5
A89F
330
A87D
100
AcDbEntity
  8
7
  6
Continuous
100
AcDbText
 10
29.97951099999999
 20
10.04873699999998
 30
0.0
 40
1.399999999999999
  1
7
100
AcDbText
  0
TEXT
  5
A8A0
330
A87D
100
AcDbEntity
  8
4
  6
CENTER
100
AcDbText
 10
23.97951099999999
 20
10.04873699999998
 30
0.0
 40
1.399999999999999
  1
4
100
AcDbText
  0
TEXT
  5
A8A1
330
A87D
100
AcDbEntity
  8
3
  6
DASHED
100
AcDbText
 10
21.979511
 20
10.04873699999998
 30
0.0
 40
1.399999999999999
  1
3
100
AcDbText
  0
TEXT
  5
A8A2
330
A87D
100
AcDbEntity
  8
2
  6
Continuous
100
AcDbText
 10
19.97951099999999
 20
10.04873699999998
 30
0.0
 40
1.399999999999999
  1
2
100
AcDbText
  0
TEXT
  5
A8A3
330
A87D
100
AcDbEntity
  8
6
  6
Continuous
100
AcDbText
 10
27.979511
 20
10.04873699999998
 30
0.0
 40
1.399999999999999
  1
6
100
AcDbText
  0
TEXT
  5
A8A4
330
A87D
100
AcDbEntity
  8
5
  6
PHANTOM
100
AcDbText
 10
25.97951099999999
 20
10.04873699999998
 30
0.0
 40
1.399999999999999
  1
5
100
AcDbText
  0
LINE
  5
A8A5
330
A87D
100
AcDbEntity
  8
1
  6
Continuous
100
AcDbLine
 10
252.2132029999999
 20
187.022179
 30
0.0
 11
252.2132029999999
 21
166.6221789999999
 31
0.0
  0
ARC
  5
A8A6
330
A87D
100
AcDbEntity
  8
1
  6
Continuous
100
AcDbCircle
 10
217.5132029999998
 20
187.022179
 30
0.0
 40
3.0
100
AcDbArc
 50
90.0
 51
180.0
  0
ARC
  5
A8A7
330
A87D
100
AcDbEntity
  8
1
  6
Continuous
100
AcDbCircle
 10
249.213203
 20
187.022179
 30
0.0
 40
3.0
100
AcDbArc
 50
0.0
 51
90.0
  0
LINE
  5
A8A8
330
A87D
100
AcDbEntity
  8
1
  6
Continuous
100
AcDbLine
 10
217.113104
 20
190.0222369999999
 30
0.0
 11
249.6131039999999
 21
190.022043
 31
0.0
  0
LINE
  5
A8A9
330
A87D
100
AcDbEntity
  8
1
  6
Continuous
100
AcDbLine
 10
220.115879
 20
183.318428
 30
0.0
 11
246.6105279999999
 21
183.318428
 31
0.0
  0
ARC
  5
A8AA
330
A87D
100
AcDbEntity
  8
1
  6
Continuous
100
AcDbCircle
 10
246.6105279999999
 20
179.3697379999999
 30
0.0
 40
3.94869
100
AcDbArc
 50
33.136856
 51
90.0
  0
ARC
  5
A8AB
330
A87D
100
AcDbEntity
  8
1
  6
Continuous
100
AcDbCircle
 10
238.094448
 20
173.8103659999999
 30
0.0
 40
14.11875499999999
100
AcDbArc
 50
0.0
 51
33.136856
  0
ARC
  5
A8AC
330
A87D
100
AcDbEntity
  8
1
  6
Continuous
100
AcDbCircle
 10
236.9536839999999
 20
173.726811
 30
0.0
 40
13.262575
100
AcDbArc
 50
4.189117999999997
 51
46.32007700000001
  0
ARC
  5
A8AD
330
A87D
100
AcDbEntity
  8
1
  6
Continuous
100
AcDbCircle
 10
220.115879
 20
179.3697379999999
 30
0.0
 40
3.94869
100
AcDbArc
 50
90.0
 51
146.863144
  0
ARC
  5
A8AE
330
A87D
100
AcDbEntity
  8
1
  6
Continuous
100
AcDbCircle
 10
228.631959
 20
173.8103659999999
 30
0.0
 40
14.11875499999999
100
AcDbArc
 50
146.863144
 51
180.0
  0
LINE
  5
A8AF
330
A87D
100
AcDbEntity
  8
1
  6
Continuous
100
AcDbLine
 10
223.3632029999998
 20
179.7377409999998
 30
0.0
 11
223.3632029999998
 21
134.9303339999999
 31
0.0
  0
LINE
  5
A8B0
330
A87D
100
AcDbEntity
  8
1
  6
Continuous
100
AcDbLine
 10
221.8632029999999
 20
165.834038
 30
0.0
 11
221.8632029999999
 21
148.8340379999999
 31
0.0
  0
LINE
  5
A8B1
330
A87D
100
AcDbEntity
  8
1
  6
Continuous
100
AcDbLine
 10
221.8632029999999
 20
165.834038
 30
0.0
 11
223.3632029999998
 21
165.834038
 31
0.0
  0
ARC
  5
A8B2
330
A87D
100
AcDbEntity
  8
1
  6
Continuous
100
AcDbCircle
 10
233.3632029999999
 20
147.3340379999999
 30
0.0
 40
35.0
100
AcDbArc
 50
75.30157599999999
 51
104.698424
  0
ARC
  5
A8B3
330
A87D
100
AcDbEntity
  8
1
  6
Continuous
100
AcDbCircle
 10
224.8632029999999
 20
179.7377409999998
 30
0.0
 40
1.5
100
AcDbArc
 50
104.698424
 51
180.0
  0
LINE
  5
A8B4
330
A87D
100
AcDbEntity
  8
1
  6
Continuous
100
AcDbLine
 10
243.3632029999999
 20
179.7377409999998
 30
0.0
 11
243.3632029999999
 21
134.9303339999999
 31
0.0
  0
LINE
  5
A8B5
330
A87D
100
AcDbEntity
  8
1
  6
Continuous
100
AcDbLine
 10
244.8632029999999
 20
165.834038
 30
0.0
 11
243.3632029999999
 21
165.834038
 31
0.0
  0
ARC
  5
A8B6
330
A87D
100
AcDbEntity
  8
1
  6
Continuous
100
AcDbCircle
 10
241.8632029999999
 20
179.7377409999998
 30
0.0
 40
1.5
100
AcDbArc
 50
0.0
 51
75.30157599999999
  0
LINE
  5
A8B7
330
A87D
100
AcDbEntity
  8
1
  6
Continuous
100
AcDbLine
 10
221.8632029999999
 20
148.8340379999999
 30
0.0
 11
223.3632029999998
 21
148.8340379999999
 31
0.0
  0
ARC
  5
A8B8
330
A87D
100
AcDbEntity
  8
1
  6
Continuous
100
AcDbCircle
 10
233.3632029999999
 20
167.3340379999999
 30
0.0
 40
35.0
100
AcDbArc
 50
255.301576
 51
284.6984239999999
  0
ARC
  5
A8B9
330
A87D
100
AcDbEntity
  8
1
  6
Continuous
100
AcDbCircle
 10
224.8632029999999
 20
134.9303339999999
 30
0.0
 40
1.5
100
AcDbArc
 50
180.0
 51
255.301576
  0
LINE
  5
A8BA
330
A87D
100
AcDbEntity
  8
1
  6
Continuous
100
AcDbLine
 10
244.8632029999999
 20
148.8340379999999
 30
0.0
 11
243.3632029999999
 21
148.8340379999999
 31
0.0
  0
ARC
  5
A8BB
330
A87D
100
AcDbEntity
  8
1
  6
Continuous
100
AcDbCircle
 10
241.8632029999999
 20
134.9303339999999
 30
0.0
 40
1.5
100
AcDbArc
 50
284.6984239999999
 51
0.0
  0
LINE
  5
A8BC
330
A87D
100
AcDbEntity
  8
1
  6
Continuous
100
AcDbLine
 10
244.8632029999999
 20
165.834038
 30
0.0
 11
244.8632029999999
 21
148.8340379999999
 31
0.0
  0
LINE
  5
A8BD
330
A87D
100
AcDbEntity
  8
1
  6
Continuous
100
AcDbLine
 10
220.8632029999999
 20
160.3340379999998
 30
0.0
 11
221.8632029999999
 21
160.3340379999998
 31
0.0
  0
LINE
  5
A8BE
330
A87D
100
AcDbEntity
  8
1
  6
Continuous
100
AcDbLine
 10
244.8632029999999
 20
160.3340379999998
 30
0.0
 11
245.8632029999999
 21
160.3340379999998
 31
0.0
  0
LINE
  5
A8BF
330
A87D
100
AcDbEntity
  8
1
  6
Continuous
100
AcDbLine
 10
220.8632029999999
 20
154.334038
 30
0.0
 11
221.8632029999999
 21
154.334038
 31
0.0
  0
LINE
  5
A8C0
330
A87D
100
AcDbEntity
  8
1
  6
Continuous
100
AcDbLine
 10
244.8632029999999
 20
154.334038
 30
0.0
 11
245.8632029999999
 21
154.334038
 31
0.0
  0
LINE
  5
A8C1
330
A87D
100
AcDbEntity
  8
4
  6
CENTER
100
AcDbLine
 10
176.0146189999999
 20
276.217462
 30
0.0
 11
103.164626
 21
276.217462
 31
0.0
  0
LINE
  5
A8C2
330
A87D
100
AcDbEntity
  8
4
  6
CENTER
100
AcDbLine
 10
152.164619
 20
300.0674619999998
 30
0.0
 11
152.164619
 21
252.3674619999999
 31
0.0
  0
LINE
  5
A8C3
330
A87D
100
AcDbEntity
  8
4
  6
CENTER
100
AcDbLine
 10
233.3632029999999
 20
219.3342109999999
 30
0.0
 11
233.3632029999999
 21
127.334038
 31
0.0
  0
LINE
  5
A8C4
330
A87D
100
AcDbEntity
  8
4
  6
CENTER
100
AcDbLine
 10
211.6129629999998
 20
157.3340379999999
 30
0.0
 11
254.8634429999999
 21
157.3340379999999
 31
0.0
  0
LINE
  5
A8C5
330
A87D
100
AcDbEntity
  8
4
  6
CENTER
100
AcDbLine
 10
103.164626
 20
157.3342369999998
 30
0.0
 11
163.164626
 21
157.3342369999998
 31
0.0
  0
LINE
  5
A8C6
330
A87D
100
AcDbEntity
  8
1
  6
Continuous
100
AcDbLine
 10
135.717126
 20
187.2028379999999
 30
0.0
 11
132.0371259999998
 21
187.159028
 31
0.0
  0
ARC
  5
A8C7
330
A87D
100
AcDbEntity
  8
1
  6
Continuous
100
AcDbCircle
 10
133.5146259999999
 20
156.384237
 30
0.0
 40
7.5
100
AcDbArc
 50
174.673297
 51
295.9209009999998
  0
ARC
  5
A8C8
330
A87D
100
AcDbEntity
  8
1
  6
Continuous
100
AcDbCircle
 10
133.164626
 20
157.3342369999998
 30
0.0
 40
8.5
100
AcDbArc
 50
139.62305
 51
281.789558
  0
ARC
  5
A8C9
330
A87D
100
AcDbEntity
  8
1
  6
Continuous
100
AcDbCircle
 10
133.164626
 20
157.3342369999998
 30
0.0
 40
17.5
100
AcDbArc
 50
107.378525
 51
26.47566499999999
  0
ARC
  5
A8CA
330
A87D
100
AcDbEntity
  8
1
  6
Continuous
100
AcDbCircle
 10
133.164626
 20
157.3342369999998
 30
0.0
 40
25.0
100
AcDbArc
 50
99.78061099999999
 51
35.83806699999998
  0
LINE
  5
A8CB
330
A87D
100
AcDbEntity
  8
1
  6
Continuous
100
AcDbLine
 10
141.0146259999999
 20
186.285782
 30
0.0
 11
141.0146259999999
 21
156.101475
 31
0.0
  0
ARC
  5
A8CC
330
A87D
100
AcDbEntity
  8
1
  6
Continuous
100
AcDbCircle
 10
205.7691629999999
 20
136.210325
 30
0.0
 40
63.35981999999999
100
AcDbArc
 50
134.0470019999999
 51
143.333821
  0
LINE
  5
A8CD
330
A87D
100
AcDbEntity
  8
4
  6
CENTER
100
AcDbLine
 10
152.1646259999999
 20
219.334308
 30
0.0
 11
152.1646259999999
 21
166.79426
 31
0.0
  0
ARC
  5
A8CE
330
A87D
100
AcDbEntity
  8
1
  6
Continuous
100
AcDbCircle
 10
91.122744
 20
192.043394
 30
0.0
 40
63.31738699999998
100
AcDbArc
 50
321.97488
 51
329.982574
  0
ARC
  5
A8CF
330
A87D
100
AcDbEntity
  8
1
  6
Continuous
100
AcDbCircle
 10
268.1828499999999
 20
89.74588199999997
 30
0.0
 40
141.169928
100
AcDbArc
 50
143.333821
 51
149.982574
  0
ARC
  5
A8D0
330
A87D
100
AcDbEntity
  8
1
  6
Continuous
100
AcDbCircle
 10
165.5442449999999
 20
177.796123
 30
0.0
 40
5.502905999999999
100
AcDbArc
 50
90.0
 51
134.0470019999999
  0
LINE
  5
A8D1
330
A87D
100
AcDbEntity
  8
1
  6
Continuous
100
AcDbLine
 10
169.3501259999998
 20
183.239028
 30
0.0
 11
169.127126
 21
183.2990279999999
 31
0.0
  0
LINE
  5
A8D2
330
A87D
100
AcDbEntity
  8
1
  6
Continuous
100
AcDbLine
 10
169.127126
 20
183.2990279999999
 30
0.0
 11
165.5442449999999
 21
183.2990279999999
 31
0.0
  0
LINE
  5
A8D3
330
A87D
100
AcDbEntity
  8
1
  6
Continuous
100
AcDbLine
 10
170.764126
 20
183.326367
 30
0.0
 11
170.015126
 21
183.284028
 31
0.0
  0
ARC
  5
A8D4
330
A87D
100
AcDbEntity
  8
1
  6
Continuous
100
AcDbCircle
 10
167.9451409999998
 20
187.440998
 30
0.0
 40
2.732905
100
AcDbArc
 50
0.0
 51
70.822161
  0
LINE
  5
A8D5
330
A87D
100
AcDbEntity
  8
1
  6
Continuous
100
AcDbLine
 10
170.015126
 20
183.284028
 30
0.0
 11
169.3501259999998
 21
183.239028
 31
0.0
  0
ARC
  5
A8D6
330
A87D
100
AcDbEntity
  8
1
  6
Continuous
100
AcDbCircle
 10
136.8794169999999
 20
186.907869
 30
0.0
 40
3.266183999999998
100
AcDbArc
 50
107.537707
 51
141.743298
  0
ARC
  5
A8D7
330
A87D
100
AcDbEntity
  8
1
  6
Continuous
100
AcDbCircle
 10
137.810311
 20
186.1738349999999
 30
0.0
 40
4.451666999999998
100
AcDbArc
 50
141.743298
 51
156.849068
  0
LINE
  5
A8D8
330
A87D
100
AcDbEntity
  8
1
  6
Continuous
100
AcDbLine
 10
133.717126
 20
187.9240279999999
 30
0.0
 11
133.5721259999999
 21
187.4890279999999
 31
0.0
  0
LINE
  5
A8D9
330
A87D
100
AcDbEntity
  8
1
  6
Continuous
100
AcDbLine
 10
133.5721259999999
 20
187.4890279999999
 30
0.0
 11
133.232126
 21
187.289028
 31
0.0
  0
LINE
  5
A8DA
330
A87D
100
AcDbEntity
  8
1
  6
Continuous
100
AcDbLine
 10
133.232126
 20
187.289028
 30
0.0
 11
133.062126
 21
187.204028
 31
0.0
  0
LINE
  5
A8DB
330
A87D
100
AcDbEntity
  8
1
  6
Continuous
100
AcDbLine
 10
133.062126
 20
187.204028
 30
0.0
 11
132.877126
 21
187.1690279999999
 31
0.0
  0
ARC
  5
A8DC
330
A87D
100
AcDbEntity
  8
1
  6
Continuous
100
AcDbCircle
 10
135.6928139999999
 20
189.2450619999999
 30
0.0
 40
2.042368999999998
100
AcDbArc
 50
270.6820599999999
 51
340.178191
  0
LINE
  5
A8DD
330
A87D
100
AcDbEntity
  8
1
  6
Continuous
100
AcDbLine
 10
130.877126
 20
187.1490279999999
 30
0.0
 11
127.658798
 21
187.213395
 31
0.0
  0
LINE
  5
A8DE
330
A87D
100
AcDbEntity
  8
1
  6
Continuous
100
AcDbLine
 10
132.0371259999998
 20
187.159028
 30
0.0
 11
131.442126
 21
187.1390279999999
 31
0.0
  0
LINE
  5
A8DF
330
A87D
100
AcDbEntity
  8
1
  6
Continuous
100
AcDbLine
 10
131.442126
 20
187.1390279999999
 30
0.0
 11
130.877126
 21
187.1490279999999
 31
0.0
  0
ARC
  5
A8E0
330
A87D
100
AcDbEntity
  8
1
  6
Continuous
100
AcDbCircle
 10
127.631779
 20
185.8624879999999
 30
0.0
 40
1.351175999999999
100
AcDbArc
 50
88.85423700000002
 51
129.236686
  0
LINE
  5
A8E1
330
A87D
100
AcDbEntity
  8
1
  6
Continuous
100
AcDbLine
 10
129.217126
 20
185.182041
 30
0.0
 11
126.9481689999998
 21
185.215798
 31
0.0
  0
LINE
  5
A8E2
330
A87D
100
AcDbEntity
  8
1
  6
Continuous
100
AcDbLine
 10
126.7771259999999
 20
186.9090279999998
 30
0.0
 11
126.717126
 21
185.994028
 31
0.0
  0
LINE
  5
A8E3
330
A87D
100
AcDbEntity
  8
1
  6
Continuous
100
AcDbLine
 10
126.717126
 20
185.994028
 30
0.0
 11
126.717126
 21
185.309028
 31
0.0
  0
ARC
  5
A8E4
330
A87D
100
AcDbEntity
  8
1
  6
Continuous
100
AcDbCircle
 10
126.953311
 20
185.561442
 30
0.0
 40
0.345682
100
AcDbArc
 50
226.9023309999998
 51
269.1476279999998
  0
LINE
  5
A8E5
330
A87D
100
AcDbEntity
  8
1
  6
Continuous
100
AcDbLine
 10
214.5132029999998
 20
187.022179
 30
0.0
 11
214.5132029999998
 21
166.6221789999999
 31
0.0
  0
ARC
  5
A8E6
330
A87D
100
AcDbEntity
  8
1
  6
Continuous
100
AcDbCircle
 10
56.366049
 20
134.9303339999999
 30
0.0
 40
1.5
100
AcDbArc
 50
284.6984239999999
 51
0.0
  0
ARC
  5
A8E7
330
A87D
100
AcDbEntity
  8
1
  6
Continuous
100
AcDbCircle
 10
47.86604899999999
 20
167.3340379999999
 30
0.0
 40
35.0
100
AcDbArc
 50
255.301576
 51
284.6984239999999
  0
ARC
  5
A8E8
330
A87D
100
AcDbEntity
  8
1
  6
Continuous
100
AcDbCircle
 10
39.36604899999998
 20
134.9303339999999
 30
0.0
 40
1.5
100
AcDbArc
 50
180.0
 51
255.301576
  0
LINE
  5
A8E9
330
A87D
100
AcDbEntity
  8
4
  6
CENTER
100
AcDbLine
 10
68.822001
 20
157.3340379999999
 30
0.0
 11
26.365809
 21
157.3340379999999
 31
0.0
  0
ARC
  5
A8EA
330
A87D
100
AcDbEntity
  8
1
  6
Continuous
100
AcDbCircle
 10
56.366049
 20
179.7377409999998
 30
0.0
 40
1.5
100
AcDbArc
 50
0.0
 51
75.30157599999999
  0
LINE
  5
A8EB
330
A87D
100
AcDbEntity
  8
1
  6
Continuous
100
AcDbLine
 10
57.866049
 20
179.7377409999998
 30
0.0
 11
57.866049
 21
134.9303339999999
 31
0.0
  0
LINE
  5
A8EC
330
A87D
100
AcDbEntity
  8
1
  6
Continuous
100
AcDbLine
 10
59.36604899999998
 20
165.834038
 30
0.0
 11
59.36604899999998
 21
148.8340379999999
 31
0.0
  0
LINE
  5
A8ED
330
A87D
100
AcDbEntity
  8
1
  6
Continuous
100
AcDbLine
 10
59.36604899999998
 20
148.8340379999999
 30
0.0
 11
57.866049
 21
148.8340379999999
 31
0.0
  0
LINE
  5
A8EE
330
A87D
100
AcDbEntity
  8
1
  6
Continuous
100
AcDbLine
 10
59.86604899999999
 20
154.334038
 30
0.0
 11
59.36604899999998
 21
154.334038
 31
0.0
  0
LINE
  5
A8EF
330
A87D
100
AcDbEntity
  8
1
  6
Continuous
100
AcDbLine
 10
59.36604899999998
 20
165.834038
 30
0.0
 11
57.866049
 21
165.834038
 31
0.0
  0
LINE
  5
A8F0
330
A87D
100
AcDbEntity
  8
1
  6
Continuous
100
AcDbLine
 10
59.96955299999999
 20
160.3340379999998
 30
0.0
 11
59.36604899999998
 21
160.3340379999998
 31
0.0
  0
ARC
  5
A8F1
330
A87D
100
AcDbEntity
  8
1
  6
Continuous
100
AcDbCircle
 10
39.36604899999998
 20
179.7377409999998
 30
0.0
 40
1.5
100
AcDbArc
 50
104.698424
 51
180.0
  0
LINE
  5
A8F2
330
A87D
100
AcDbEntity
  8
1
  6
Continuous
100
AcDbLine
 10
37.86604899999999
 20
179.7377409999998
 30
0.0
 11
37.86604899999999
 21
134.9303339999999
 31
0.0
  0
LINE
  5
A8F3
330
A87D
100
AcDbEntity
  8
1
  6
Continuous
100
AcDbLine
 10
36.366049
 20
165.834038
 30
0.0
 11
36.366049
 21
148.8340379999999
 31
0.0
  0
LINE
  5
A8F4
330
A87D
100
AcDbEntity
  8
1
  6
Continuous
100
AcDbLine
 10
36.366049
 20
148.8340379999999
 30
0.0
 11
37.86604899999999
 21
148.8340379999999
 31
0.0
  0
LINE
  5
A8F5
330
A87D
100
AcDbEntity
  8
1
  6
Continuous
100
AcDbLine
 10
36.366049
 20
154.334038
 30
0.0
 11
36.266049
 21
154.334038
 31
0.0
  0
LINE
  5
A8F6
330
A87D
100
AcDbEntity
  8
1
  6
Continuous
100
AcDbLine
 10
36.366049
 20
165.834038
 30
0.0
 11
37.86604899999999
 21
165.834038
 31
0.0
  0
LINE
  5
A8F7
330
A87D
100
AcDbEntity
  8
1
  6
Continuous
100
AcDbLine
 10
36.366049
 20
160.3340379999998
 30
0.0
 11
36.162545
 21
160.3340379999998
 31
0.0
  0
ARC
  5
A8F8
330
A87D
100
AcDbEntity
  8
1
  6
Continuous
100
AcDbCircle
 10
47.86604899999999
 20
147.3340379999999
 30
0.0
 40
35.0
100
AcDbArc
 50
75.30157599999999
 51
104.698424
  0
LINE
  5
A8F9
330
A87D
100
AcDbEntity
  8
4
  6
CENTER
100
AcDbLine
 10
47.86604899999999
 20
219.334212
 30
0.0
 11
47.86604899999999
 21
127.334038
 31
0.0
  0
LINE
  5
A8FA
330
A87D
100
AcDbEntity
  8
1
  6
Continuous
100
AcDbLine
 10
31.61595
 20
190.0222369999999
 30
0.0
 11
64.116049
 21
190.022044
 31
0.0
  0
ARC
  5
A8FB
330
A87D
100
AcDbEntity
  8
1
  6
Continuous
100
AcDbCircle
 10
37.11580899999999
 20
183.2330179999999
 30
0.0
 40
3.75
100
AcDbArc
 50
90.0
 51
180.0
  0
LINE
  5
A8FC
330
A87D
100
AcDbEntity
  8
1
  6
Continuous
100
AcDbLine
 10
33.36580899999999
 20
148.897316
 30
0.0
 11
35.36604899999999
 21
148.897316
 31
0.0
  0
ARC
  5
A8FD
330
A87D
100
AcDbEntity
  8
1
  6
Continuous
100
AcDbCircle
 10
55.731462
 20
167.25423
 30
0.0
 40
26.722888
100
AcDbArc
 50
181.355289
 51
204.692905
  0
LINE
  5
A8FE
330
A87D
100
AcDbEntity
  8
1
  6
Continuous
100
AcDbLine
 10
33.36580899999999
 20
183.2330179999999
 30
0.0
 11
33.36580899999999
 21
148.897316
 31
0.0
  0
LINE
  5
A8FF
330
A87D
100
AcDbEntity
  8
1
  6
Continuous
100
AcDbLine
 10
32.432493
 20
161.5840379999999
 30
0.0
 11
32.432493
 21
153.0840379999999
 31
0.0
  0
ARC
  5
A900
330
A87D
100
AcDbEntity
  8
1
  6
Continuous
100
AcDbCircle
 10
40.36580899999999
 20
157.3340379999999
 30
0.0
 40
9.0
100
AcDbArc
 50
151.821357
 51
208.178643
  0
LINE
  5
A901
330
A87D
100
AcDbEntity
  8
1
  6
Continuous
100
AcDbLine
 10
33.36580899999999
 20
153.0840379999999
 30
0.0
 11
32.432493
 21
153.0840379999999
 31
0.0
  0
LINE
  5
A902
330
A87D
100
AcDbEntity
  8
1
  6
Continuous
100
AcDbLine
 10
29.016049
 20
187.022179
 30
0.0
 11
29.016049
 21
166.6221789999999
 31
0.0
  0
LINE
  5
A903
330
A87D
100
AcDbEntity
  8
1
  6
Continuous
100
AcDbLine
 10
33.36580899999999
 20
161.5840379999999
 30
0.0
 11
32.432493
 21
161.5840379999999
 31
0.0
  0
ARC
  5
A904
330
A87D
100
AcDbEntity
  8
1
  6
Continuous
100
AcDbCircle
 10
32.23066699999999
 20
186.8000939999998
 30
0.0
 40
3.22228
100
AcDbArc
 50
89.37084
 51
176.0479389999999
  0
ARC
  5
A905
330
A87D
100
AcDbEntity
  8
1
  6
Continuous
100
AcDbCircle
 10
40.006289
 20
167.091484
 30
0.0
 40
26.713884
100
AcDbArc
 50
326.8265529999998
 51
358.9933849999999
  0
LINE
  5
A906
330
A87D
100
AcDbEntity
  8
1
  6
Continuous
100
AcDbLine
 10
35.36604899999999
 20
183.241424
 30
0.0
 11
35.36604899999999
 21
148.897316
 31
0.0
  0
LINE
  5
A907
330
A87D
100
AcDbEntity
  8
1
  6
Continuous
100
AcDbLine
 10
60.366049
 20
183.241424
 30
0.0
 11
60.366049
 21
148.897316
 31
0.0
  0
LINE
  5
A908
330
A87D
100
AcDbEntity
  8
1
  6
Continuous
100
AcDbLine
 10
62.366289
 20
183.2330179999999
 30
0.0
 11
62.366289
 21
148.897316
 31
0.0
  0
LINE
  5
A909
330
A87D
100
AcDbEntity
  8
1
  6
Continuous
100
AcDbLine
 10
35.36604899999999
 20
154.334038
 30
0.0
 11
36.366049
 21
154.334038
 31
0.0
  0
LINE
  5
A90A
330
A87D
100
AcDbEntity
  8
1
  6
Continuous
100
AcDbLine
 10
60.366049
 20
148.897316
 30
0.0
 11
62.366289
 21
148.897316
 31
0.0
  0
LINE
  5
A90B
330
A87D
100
AcDbEntity
  8
1
  6
Continuous
100
AcDbLine
 10
60.366049
 20
154.334038
 30
0.0
 11
59.36604899999998
 21
154.334038
 31
0.0
  0
ARC
  5
A90C
330
A87D
100
AcDbEntity
  8
1
  6
Continuous
100
AcDbCircle
 10
63.50143199999997
 20
186.8000939999998
 30
0.0
 40
3.22228
100
AcDbArc
 50
3.952061
 51
90.62915999999999
  0
LINE
  5
A90D
330
A87D
100
AcDbEntity
  8
1
  6
Continuous
100
AcDbLine
 10
66.716049
 20
187.022179
 30
0.0
 11
66.716049
 21
166.6221789999999
 31
0.0
  0
LINE
  5
A90E
330
A87D
100
AcDbEntity
  8
1
  6
Continuous
100
AcDbLine
 10
35.36604899999999
 20
160.3340379999998
 30
0.0
 11
36.366049
 21
160.3340379999998
 31
0.0
  0
LINE
  5
A90F
330
A87D
100
AcDbEntity
  8
1
  6
Continuous
100
AcDbLine
 10
59.36604899999998
 20
160.3340379999998
 30
0.0
 11
60.366049
 21
160.3340379999998
 31
0.0
  0
LINE
  5
A910
330
A87D
100
AcDbEntity
  8
1
  6
Continuous
100
AcDbLine
 10
37.11604899999999
 20
184.991424
 30
0.0
 11
58.61604899999999
 21
184.991424
 31
0.0
  0
LINE
  5
A911
330
A87D
100
AcDbEntity
  8
1
  6
Continuous
100
AcDbLine
 10
37.11580899999999
 20
186.9830179999999
 30
0.0
 11
58.616289
 21
186.9830179999999
 31
0.0
  0
ARC
  5
A912
330
A87D
100
AcDbEntity
  8
1
  6
Continuous
100
AcDbCircle
 10
37.11604899999999
 20
183.241424
 30
0.0
 40
1.75
100
AcDbArc
 50
90.0
 51
180.0
  0
ARC
  5
A913
330
A87D
100
AcDbEntity
  8
1
  6
Continuous
100
AcDbCircle
 10
58.616289
 20
183.2330179999999
 30
0.0
 40
3.75
100
AcDbArc
 50
0.0
 51
90.0
  0
ARC
  5
A914
330
A87D
100
AcDbEntity
  8
1
  6
Continuous
100
AcDbCircle
 10
58.61604899999999
 20
183.241424
 30
0.0
 40
1.75
100
AcDbArc
 50
0.0
 51
90.0
  0
LINE
  5
A915
330
A87D
100
AcDbEntity
  8
1
  6
Continuous
100
AcDbLine
 10
245.8632029999999
 20
183.241424
 30
0.0
 11
245.8632029999999
 21
148.897316
 31
0.0
  0
LINE
  5
A916
330
A87D
100
AcDbEntity
  8
1
  6
Continuous
100
AcDbLine
 10
220.8632029999999
 20
183.241424
 30
0.0
 11
220.8632029999999
 21
148.897316
 31
0.0
  0
ARC
  5
A917
330
A87D
100
AcDbEntity
  8
1
  6
Continuous
100
AcDbCircle
 10
241.113443
 20
157.3340379999999
 30
0.0
 40
9.0
100
AcDbArc
 50
331.8213569999999
 51
355.5531859999998
  0
LINE
  5
A918
330
A87D
100
AcDbEntity
  8
1
  6
Continuous
100
AcDbLine
 10
249.0467589999998
 20
154.468337
 30
0.0
 11
249.0467589999998
 21
153.0840379999999
 31
0.0
  0
LINE
  5
A919
330
A87D
100
AcDbEntity
  8
1
  6
Continuous
100
AcDbLine
 10
248.4357299999998
 20
153.0840379999999
 30
0.0
 11
249.0467589999998
 21
153.0840379999999
 31
0.0
  0
LINE
  5
A91A
330
A87D
100
AcDbEntity
  8
1
  6
Continuous
100
AcDbLine
 10
129.4032709999999
 20
187.1785049999998
 30
0.0
 11
126.0470149999999
 21
157.080497
 31
0.0
  0
ARC
  5
A91B
330
A87D
100
AcDbEntity
  8
1
  6
Continuous
100
AcDbCircle
 10
131.547542
 20
160.43153
 30
0.0
 40
12.0
100
AcDbArc
 50
295.9209009999998
 51
321.97488
  0
LINE
  5
A91C
330
A87D
100
AcDbEntity
  8
4
  6
CENTER
100
AcDbLine
 10
176.0146189999999
 20
70.009612
 30
0.0
 11
103.164626
 21
70.009612
 31
0.0
  0
LINE
  5
A91D
330
A87D
100
AcDbEntity
  8
4
  6
CENTER
100
AcDbLine
 10
152.164619
 20
46.159612
 30
0.0
 11
152.164619
 21
93.859612
 31
0.0
  0
LINE
  5
A91E
330
A87D
100
AcDbEntity
  8
1
  6
Continuous
100
AcDbLine
 10
138.119246
 20
57.50961199999998
 30
0.0
 11
126.07531
 21
57.50961199999998
 31
0.0
  0
LINE
  5
A91F
330
A87D
100
AcDbEntity
  8
1
  6
Continuous
100
AcDbLine
 10
138.119597
 20
55.50937199999999
 30
0.0
 11
126.07531
 21
55.50937199999999
 31
0.0
  0
LINE
  5
A920
330
A87D
100
AcDbEntity
  8
1
  6
Continuous
100
AcDbLine
 10
138.119597
 20
84.50985199999998
 30
0.0
 11
126.07531
 21
84.50985199999998
 31
0.0
  0
LINE
  5
A921
330
A87D
100
AcDbEntity
  8
1
  6
Continuous
100
AcDbLine
 10
138.119246
 20
82.509612
 30
0.0
 11
126.07531
 21
82.509612
 31
0.0
  0
LINE
  5
A922
330
A87D
100
AcDbEntity
  8
1
  6
Continuous
100
AcDbLine
 10
130.164626
 20
81.70961199999998
 30
0.0
 11
130.164626
 21
81.50961200000002
 31
0.0
  0
LINE
  5
A923
330
A87D
100
AcDbEntity
  8
4
  6
CENTER
100
AcDbLine
 10
133.164626
 20
127.334237
 30
0.0
 11
133.164626
 21
185.334237
 31
0.0
  0
LINE
  5
A924
330
A87D
100
AcDbEntity
  8
1
  6
Continuous
100
AcDbLine
 10
126.07531
 20
55.50937199999999
 30
0.0
 11
126.07531
 21
57.50961199999998
 31
0.0
  0
LINE
  5
A925
330
A87D
100
AcDbEntity
  8
1
  6
Continuous
100
AcDbLine
 10
126.07531
 20
82.509612
 30
0.0
 11
126.07531
 21
84.50985199999998
 31
0.0
  0
ARC
  5
A926
330
A87D
100
AcDbEntity
  8
1
  6
Continuous
100
AcDbCircle
 10
152.164619
 20
70.009612
 30
0.0
 40
13.6
100
AcDbArc
 50
227.332075
 51
132.6679249999999
  0
ARC
  5
A927
330
A87D
100
AcDbEntity
  8
1
  6
Continuous
100
AcDbCircle
 10
152.164619
 20
70.009612
 30
0.0
 40
12.0
100
AcDbArc
 50
236.44269
 51
123.55731
  0
LINE
  5
A928
330
A87D
100
AcDbEntity
  8
1
  6
Continuous
100
AcDbLine
 10
110.760923
 20
80.009612
 30
0.0
 11
155.56833
 21
80.009612
 31
0.0
  0
ARC
  5
A929
330
A87D
100
AcDbEntity
  8
1
  6
Continuous
100
AcDbCircle
 10
123.1646259999999
 20
70.009612
 30
0.0
 40
35.0
100
AcDbArc
 50
345.3015759999999
 51
14.698424
  0
ARC
  5
A92A
330
A87D
100
AcDbEntity
  8
1
  6
Continuous
100
AcDbCircle
 10
155.56833
 20
78.509612
 30
0.0
 40
1.5
100
AcDbArc
 50
14.698424
 51
90.0
  0
LINE
  5
A92B
330
A87D
100
AcDbEntity
  8
1
  6
Continuous
100
AcDbLine
 10
110.760923
 20
60.00961199999998
 30
0.0
 11
155.56833
 21
60.00961199999998
 31
0.0
  0
ARC
  5
A92C
330
A87D
100
AcDbEntity
  8
1
  6
Continuous
100
AcDbCircle
 10
155.56833
 20
61.509612
 30
0.0
 40
1.5
100
AcDbArc
 50
270.0
 51
345.3015759999999
  0
LINE
  5
A92D
330
A87D
100
AcDbEntity
  8
4
  6
CENTER
100
AcDbLine
 10
133.164626
 20
90.96532399999999
 30
0.0
 11
133.164626
 21
48.509372
 31
0.0
  0
ARC
  5
A92E
330
A87D
100
AcDbEntity
  8
1
  6
Continuous
100
AcDbCircle
 10
133.164626
 20
62.509372
 30
0.0
 40
9.0
100
AcDbArc
 50
241.8213569999999
 51
298.178643
  0
LINE
  5
A92F
330
A87D
100
AcDbEntity
  8
1
  6
Continuous
100
AcDbLine
 10
128.914626
 20
54.576056
 30
0.0
 11
137.414626
 21
54.576056
 31
0.0
  0
LINE
  5
A930
330
A87D
100
AcDbEntity
  8
1
  6
Continuous
100
AcDbLine
 10
124.664626
 20
58.509612
 30
0.0
 11
141.664626
 21
58.509612
 31
0.0
  0
LINE
  5
A931
330
A87D
100
AcDbEntity
  8
1
  6
Continuous
100
AcDbLine
 10
124.664626
 20
81.50961200000002
 30
0.0
 11
141.664626
 21
81.50961200000002
 31
0.0
  0
LINE
  5
A932
330
A87D
100
AcDbEntity
  8
1
  6
Continuous
100
AcDbLine
 10
136.164626
 20
57.50961199999998
 30
0.0
 11
136.164626
 21
58.109612
 31
0.0
  0
LINE
  5
A933
330
A87D
100
AcDbEntity
  8
1
  6
Continuous
100
AcDbLine
 10
137.414626
 20
55.50937199999999
 30
0.0
 11
137.414626
 21
54.576056
 31
0.0
  0
LINE
  5
A934
330
A87D
100
AcDbEntity
  8
1
  6
Continuous
100
AcDbLine
 10
136.164626
 20
58.509612
 30
0.0
 11
136.164626
 21
58.00961199999999
 31
0.0
  0
LINE
  5
A935
330
A87D
100
AcDbEntity
  8
1
  6
Continuous
100
AcDbLine
 10
141.664626
 20
58.509612
 30
0.0
 11
141.664626
 21
60.00961199999998
 31
0.0
  0
LINE
  5
A936
330
A87D
100
AcDbEntity
  8
1
  6
Continuous
100
AcDbLine
 10
136.164626
 20
81.70961199999998
 30
0.0
 11
136.164626
 21
81.50961200000002
 31
0.0
  0
LINE
  5
A937
330
A87D
100
AcDbEntity
  8
1
  6
Continuous
100
AcDbLine
 10
136.164626
 20
82.509612
 30
0.0
 11
136.164626
 21
81.50961200000002
 31
0.0
  0
LINE
  5
A938
330
A87D
100
AcDbEntity
  8
1
  6
Continuous
100
AcDbLine
 10
141.664626
 20
81.50961200000002
 30
0.0
 11
141.664626
 21
80.009612
 31
0.0
  0
LINE
  5
A939
330
A87D
100
AcDbEntity
  8
1
  6
Continuous
100
AcDbLine
 10
130.164626
 20
57.50961199999998
 30
0.0
 11
130.164626
 21
58.109612
 31
0.0
  0
LINE
  5
A93A
330
A87D
100
AcDbEntity
  8
1
  6
Continuous
100
AcDbLine
 10
128.914626
 20
55.50937199999999
 30
0.0
 11
128.914626
 21
54.576056
 31
0.0
  0
LINE
  5
A93B
330
A87D
100
AcDbEntity
  8
1
  6
Continuous
100
AcDbLine
 10
130.164626
 20
58.509612
 30
0.0
 11
130.164626
 21
57.90610799999999
 31
0.0
  0
LINE
  5
A93C
330
A87D
100
AcDbEntity
  8
1
  6
Continuous
100
AcDbLine
 10
124.664626
 20
58.509612
 30
0.0
 11
124.664626
 21
60.00961199999998
 31
0.0
  0
LINE
  5
A93D
330
A87D
100
AcDbEntity
  8
1
  6
Continuous
100
AcDbLine
 10
130.164626
 20
81.50961200000002
 30
0.0
 11
130.164626
 21
81.70961199999998
 31
0.0
  0
LINE
  5
A93E
330
A87D
100
AcDbEntity
  8
1
  6
Continuous
100
AcDbLine
 10
130.164626
 20
82.509612
 30
0.0
 11
130.164626
 21
81.50961200000002
 31
0.0
  0
LINE
  5
A93F
330
A87D
100
AcDbEntity
  8
1
  6
Continuous
100
AcDbLine
 10
124.664626
 20
81.50961200000002
 30
0.0
 11
124.664626
 21
80.009612
 31
0.0
  0
ARC
  5
A940
330
A87D
100
AcDbEntity
  8
1
  6
Continuous
100
AcDbCircle
 10
110.760923
 20
78.509612
 30
0.0
 40
1.5
100
AcDbArc
 50
90.0
 51
165.301576
  0
ARC
  5
A941
330
A87D
100
AcDbEntity
  8
1
  6
Continuous
100
AcDbCircle
 10
143.1646259999999
 20
70.009612
 30
0.0
 40
35.0
100
AcDbArc
 50
165.301576
 51
194.698424
  0
ARC
  5
A942
330
A87D
100
AcDbEntity
  8
1
  6
Continuous
100
AcDbCircle
 10
110.760923
 20
61.509612
 30
0.0
 40
1.5
100
AcDbArc
 50
194.698424
 51
270.0
  0
ARC
  5
A943
330
A87D
100
AcDbEntity
  8
1
  6
Continuous
100
AcDbCircle
 10
167.167723
 20
70.009612
 30
0.0
 40
40.45257399999999
100
AcDbArc
 50
162.0007939999998
 51
163.4839739999998
  0
ARC
  5
A944
330
A87D
100
AcDbEntity
  8
1
  6
Continuous
100
AcDbCircle
 10
167.167723
 20
70.009612
 30
0.0
 40
40.45257399999999
100
AcDbArc
 50
196.516026
 51
197.9992059999999
  0
LINE
  5
A945
330
A87D
100
AcDbEntity
  8
1
  6
Continuous
100
AcDbLine
 10
217.5132029999998
 20
190.0221789999999
 30
0.0
 11
249.213203
 21
190.0221789999999
 31
0.0
  0
LINE
  5
A946
330
A87D
100
AcDbEntity
  8
1
  6
Continuous
100
AcDbLine
 10
170.764126
 20
183.326367
 30
0.0
 11
171.0146259999999
 21
183.326367
 31
0.0
  0
LINE
  5
A947
330
A87D
100
AcDbEntity
  8
1
  6
Continuous
100
AcDbLine
 10
171.0146259999999
 20
183.326367
 30
0.0
 11
170.6780469999999
 21
187.440998
 31
0.0
  0
ARC
  5
A948
330
A87D
100
AcDbEntity
  8
1
  6
Continuous
100
AcDbCircle
 10
152.164619
 20
70.009612
 30
0.0
 40
18.85
100
AcDbArc
 50
235.584371
 51
124.415629
  0
ARC
  5
A949
330
A87D
100
AcDbEntity
  8
1
  6
Continuous
100
AcDbCircle
 10
152.164619
 20
70.009612
 30
0.0
 40
16.85
100
AcDbArc
 50
235.583392
 51
124.416608
  0
LINE
  5
A94A
330
A87D
100
AcDbEntity
  8
1
  6
Continuous
100
AcDbLine
 10
62.666289
 20
161.3340379999999
 30
0.0
 11
62.666289
 21
153.334038
 31
0.0
  0
ARC
  5
A94B
330
A87D
100
AcDbEntity
  8
1
  6
Continuous
100
AcDbCircle
 10
56.322001
 20
157.3340379999999
 30
0.0
 40
7.5
100
AcDbArc
 50
327.769047
 51
32.230953
  0
LINE
  5
A94C
330
A87D
100
AcDbEntity
  8
1
  6
Continuous
100
AcDbLine
 10
62.666289
 20
153.334038
 30
0.0
 11
62.366289
 21
153.334038
 31
0.0
  0
LINE
  5
A94D
330
A87D
100
AcDbEntity
  8
1
  6
Continuous
100
AcDbLine
 10
62.666289
 20
161.3340379999999
 30
0.0
 11
62.366289
 21
161.3340379999999
 31
0.0
  0
CIRCLE
  5
A94E
330
A87D
100
AcDbEntity
  8
1
  6
Continuous
100
AcDbCircle
 10
133.164626
 20
157.3342369999998
 30
0.0
 40
4.0
  0
LINE
  5
A94F
330
A87D
100
AcDbEntity
  8
1
  6
Continuous
100
AcDbLine
 10
137.164626
 20
84.80961200000001
 30
0.0
 11
137.164626
 21
84.509612
 31
0.0
  0
LINE
  5
A950
330
A87D
100
AcDbEntity
  8
1
  6
Continuous
100
AcDbLine
 10
129.164626
 20
84.80961200000001
 30
0.0
 11
129.164626
 21
84.509612
 31
0.0
  0
LINE
  5
A951
330
A87D
100
AcDbEntity
  8
1
  6
Continuous
100
AcDbLine
 10
137.164626
 20
84.80961200000001
 30
0.0
 11
129.164626
 21
84.80961200000001
 31
0.0
  0
ARC
  5
A952
330
A87D
100
AcDbEntity
  8
1
  6
Continuous
100
AcDbCircle
 10
133.164626
 20
78.46532399999998
 30
0.0
 40
7.5
100
AcDbArc
 50
57.76904700000001
 51
122.230953
  0
ARC
  5
A953
330
A87D
100
AcDbEntity
  8
1
  6
Continuous
100
AcDbCircle
 10
55.731462
 20
167.25423
 30
0.0
 40
26.722888
100
AcDbArc
 50
212.0233099999999
 51
213.180835
  0
LINE
  5
A954
330
A87D
100
AcDbEntity
  8
1
  6
Continuous
100
AcDbLine
 10
247.863443
 20
149.749637
 30
0.0
 11
247.863443
 21
148.897316
 31
0.0
  0
ARC
  5
A955
330
A87D
100
AcDbEntity
  8
1
  6
Continuous
100
AcDbCircle
 10
225.503443
 20
167.091484
 30
0.0
 40
26.713884
100
AcDbArc
 50
331.812974
 51
358.9933849999999
  0
LINE
  5
A956
330
A87D
100
AcDbEntity
  8
1
  6
Continuous
100
AcDbLine
 10
245.8632029999999
 20
148.897316
 30
0.0
 11
247.863443
 21
148.897316
 31
0.0
  0
ARC
  5
A957
330
A87D
100
AcDbEntity
  8
1
  6
Continuous
100
AcDbCircle
 10
257.863443
 20
149.749637
 30
0.0
 40
10.0
100
AcDbArc
 50
151.812974
 51
180.0
  0
LINE
  5
A958
330
A87D
100
AcDbEntity
  8
1
  6
Continuous
100
AcDbLine
 10
250.180827
 20
174.695628
 30
0.0
 11
250.180827
 21
167.5074389999998
 31
0.0
  0
ARC
  5
A959
330
A87D
100
AcDbEntity
  8
1
  6
Continuous
100
AcDbCircle
 10
223.471067
 20
167.976744
 30
0.0
 40
26.713884
100
AcDbArc
 50
331.812974
 51
358.9933849999999
  0
ARC
  5
A95A
330
A87D
100
AcDbEntity
  8
1
  6
Continuous
100
AcDbCircle
 10
255.831067
 20
150.634898
 30
0.0
 40
10.0
100
AcDbArc
 50
151.812974
 51
175.405317
  0
ARC
  5
A95B
330
A87D
100
AcDbEntity
  8
1
  6
Continuous
100
AcDbCircle
 10
241.222963
 20
167.091484
 30
0.0
 40
26.713884
100
AcDbArc
 50
181.006615
 51
208.187026
  0
ARC
  5
A95C
330
A87D
100
AcDbEntity
  8
1
  6
Continuous
100
AcDbCircle
 10
208.8629629999998
 20
149.749637
 30
0.0
 40
10.0
100
AcDbArc
 50
0.0
 51
28.18702599999999
  0
LINE
  5
A95D
330
A87D
100
AcDbEntity
  8
1
  6
Continuous
100
AcDbLine
 10
220.8632029999999
 20
148.897316
 30
0.0
 11
218.8629629999998
 21
148.897316
 31
0.0
  0
LINE
  5
A95E
330
A87D
100
AcDbEntity
  8
1
  6
Continuous
100
AcDbLine
 10
218.8629629999998
 20
149.749637
 30
0.0
 11
218.8629629999998
 21
148.897316
 31
0.0
  0
ARC
  5
A95F
330
A87D
100
AcDbEntity
  8
1
  6
Continuous
100
AcDbCircle
 10
210.8953399999998
 20
150.634898
 30
0.0
 40
10.0
100
AcDbArc
 50
4.594682999999998
 51
28.18702599999999
  0
ARC
  5
A960
330
A87D
100
AcDbEntity
  8
1
  6
Continuous
100
AcDbCircle
 10
243.2553399999999
 20
167.976744
 30
0.0
 40
26.713884
100
AcDbArc
 50
181.006615
 51
208.187026
  0
LINE
  5
A961
330
A87D
100
AcDbEntity
  8
1
  6
Continuous
100
AcDbLine
 10
216.5455799999998
 20
174.695628
 30
0.0
 11
216.5455799999998
 21
167.5074389999998
 31
0.0
  0
ARC
  5
A962
330
A87D
100
AcDbEntity
  8
1
  6
Continuous
100
AcDbCircle
 10
229.772722
 20
173.726811
 30
0.0
 40
13.262575
100
AcDbArc
 50
133.679923
 51
175.810882
  0
LINE
  5
A963
330
A87D
100
AcDbEntity
  8
1
  6
Continuous
100
AcDbLine
 10
135.8952069999999
 20
190.0222369999999
 30
0.0
 11
168.842904
 21
190.0222369999999
 31
0.0
  0
LINE
  5
A964
330
A87D
100
AcDbEntity
  8
1
  6
Continuous
100
AcDbLine
 10
221.164127
 20
195.434231
 30
0.0
 11
245.56224
 21
195.434231
 31
0.0
  0
LINE
  5
A965
330
A87D
100
AcDbEntity
  8
1
  6
Continuous
100
AcDbLine
 10
227.3632029999999
 20
213.334211
 30
0.0
 11
239.3632029999999
 21
213.334211
 31
0.0
  0
LINE
  5
A966
330
A87D
100
AcDbEntity
  8
1
  6
Continuous
100
AcDbLine
 10
228.3632029999999
 20
214.3342109999999
 30
0.0
 11
238.3632029999999
 21
214.3342109999999
 31
0.0
  0
LINE
  5
A967
330
A87D
100
AcDbEntity
  8
1
  6
Continuous
100
AcDbLine
 10
223.8632029999999
 20
199.334211
 30
0.0
 11
242.8632029999999
 21
199.334211
 31
0.0
  0
LINE
  5
A968
330
A87D
100
AcDbEntity
  8
1
  6
Continuous
100
AcDbLine
 10
217.1132029999998
 20
191.60441
 30
0.0
 11
249.6132029999999
 21
191.60441
 31
0.0
  0
LINE
  5
A969
330
A87D
100
AcDbEntity
  8
1
  6
Continuous
100
AcDbLine
 10
217.8536359999999
 20
193.37441
 30
0.0
 11
248.872771
 21
193.37441
 31
0.0
  0
LINE
  5
A96A
330
A87D
100
AcDbEntity
  8
1
  6
Continuous
100
AcDbLine
 10
232.864081
 20
190.0221399999999
 30
0.0
 11
231.0608109999999
 21
191.60441
 31
0.0
  0
LINE
  5
A96B
330
A87D
100
AcDbEntity
  8
1
  6
Continuous
100
AcDbLine
 10
231.0608109999999
 20
190.0221399999999
 30
0.0
 11
232.864081
 21
191.60441
 31
0.0
  0
LINE
  5
A96C
330
A87D
100
AcDbEntity
  8
1
  6
Continuous
100
AcDbLine
 10
217.363023
 20
192.798722
 30
0.0
 11
249.363384
 21
192.798722
 31
0.0
  0
LINE
  5
A96D
330
A87D
100
AcDbEntity
  8
1
  6
Continuous
100
AcDbLine
 10
227.3632029999999
 20
199.334211
 30
0.0
 11
227.3632029999999
 21
213.334211
 31
0.0
  0
ARC
  5
A96E
330
A87D
100
AcDbEntity
  8
1
  6
Continuous
100
AcDbCircle
 10
221.164127
 20
192.934231
 30
0.0
 40
2.5
100
AcDbArc
 50
90.0
 51
169.858981
  0
LINE
  5
A96F
330
A87D
100
AcDbEntity
  8
1
  6
Continuous
100
AcDbLine
 10
224.3787989999999
 20
190.0221399999999
 30
0.0
 11
222.5755289999999
 21
191.60441
 31
0.0
  0
LINE
  5
A970
330
A87D
100
AcDbEntity
  8
1
  6
Continuous
100
AcDbLine
 10
222.5755289999999
 20
190.0221399999999
 30
0.0
 11
224.3787989999999
 21
191.60441
 31
0.0
  0
LINE
  5
A971
330
A87D
100
AcDbEntity
  8
1
  6
Continuous
100
AcDbLine
 10
220.1361589999999
 20
190.0221399999999
 30
0.0
 11
218.3328889999999
 21
191.60441
 31
0.0
  0
LINE
  5
A972
330
A87D
100
AcDbEntity
  8
1
  6
Continuous
100
AcDbLine
 10
218.3328889999999
 20
190.0221399999999
 30
0.0
 11
220.1361589999999
 21
191.60441
 31
0.0
  0
LINE
  5
A973
330
A87D
100
AcDbEntity
  8
1
  6
Continuous
100
AcDbLine
 10
217.1132029999998
 20
191.60441
 30
0.0
 11
217.1132029999998
 21
190.0221399999999
 31
0.0
  0
ARC
  5
A974
330
A87D
100
AcDbEntity
  8
1
  6
Continuous
100
AcDbCircle
 10
218.393534
 20
192.4173979999999
 30
0.0
 40
1.098799999999998
100
AcDbArc
 50
119.429525
 51
159.693839
  0
ARC
  5
A975
330
A87D
100
AcDbEntity
  8
1
  6
Continuous
100
AcDbCircle
 10
219.711398
 20
193.129609
 30
0.0
 40
2.371570999999998
100
AcDbArc
 50
188.020211
 51
220.040406
  0
LINE
  5
A976
330
A87D
100
AcDbEntity
  8
1
  6
Continuous
100
AcDbLine
 10
218.0148379999998
 20
190.0221399999999
 30
0.0
 11
217.1132029999998
 21
190.923775
 31
0.0
  0
LINE
  5
A977
330
A87D
100
AcDbEntity
  8
1
  6
Continuous
100
AcDbLine
 10
218.0148379999998
 20
191.60441
 30
0.0
 11
217.1132029999998
 21
190.923775
 31
0.0
  0
LINE
  5
A978
330
A87D
100
AcDbEntity
  8
1
  6
Continuous
100
AcDbLine
 10
222.2574789999999
 20
190.0221399999999
 30
0.0
 11
220.4542089999999
 21
191.60441
 31
0.0
  0
LINE
  5
A979
330
A87D
100
AcDbEntity
  8
1
  6
Continuous
100
AcDbLine
 10
220.4542089999999
 20
190.0221399999999
 30
0.0
 11
222.2574789999999
 21
191.60441
 31
0.0
  0
LINE
  5
A97A
330
A87D
100
AcDbEntity
  8
1
  6
Continuous
100
AcDbLine
 10
228.6214399999999
 20
190.0221399999999
 30
0.0
 11
226.8181699999999
 21
191.60441
 31
0.0
  0
LINE
  5
A97B
330
A87D
100
AcDbEntity
  8
1
  6
Continuous
100
AcDbLine
 10
226.8181699999999
 20
190.0221399999999
 30
0.0
 11
228.6214399999999
 21
191.60441
 31
0.0
  0
LINE
  5
A97C
330
A87D
100
AcDbEntity
  8
1
  6
Continuous
100
AcDbLine
 10
226.5001199999999
 20
190.0221399999999
 30
0.0
 11
224.69685
 21
191.60441
 31
0.0
  0
LINE
  5
A97D
330
A87D
100
AcDbEntity
  8
1
  6
Continuous
100
AcDbLine
 10
224.69685
 20
190.0221399999999
 30
0.0
 11
226.5001199999999
 21
191.60441
 31
0.0
  0
LINE
  5
A97E
330
A87D
100
AcDbEntity
  8
1
  6
Continuous
100
AcDbLine
 10
230.74276
 20
190.0221399999999
 30
0.0
 11
228.93949
 21
191.60441
 31
0.0
  0
LINE
  5
A97F
330
A87D
100
AcDbEntity
  8
1
  6
Continuous
100
AcDbLine
 10
228.93949
 20
190.0221399999999
 30
0.0
 11
230.74276
 21
191.60441
 31
0.0
  0
LINE
  5
A980
330
A87D
100
AcDbEntity
  8
1
  6
Continuous
100
AcDbLine
 10
228.3632029999999
 20
214.3342109999999
 30
0.0
 11
227.3632029999999
 21
213.334211
 31
0.0
  0
LINE
  5
A981
330
A87D
100
AcDbEntity
  8
1
  6
Continuous
100
AcDbLine
 10
239.3632029999999
 20
199.334211
 30
0.0
 11
239.3632029999999
 21
213.334211
 31
0.0
  0
ARC
  5
A982
330
A87D
100
AcDbEntity
  8
1
  6
Continuous
100
AcDbCircle
 10
245.56224
 20
192.934231
 30
0.0
 40
2.5
100
AcDbArc
 50
10.141019
 51
90.0
  0
LINE
  5
A983
330
A87D
100
AcDbEntity
  8
1
  6
Continuous
100
AcDbLine
 10
247.713323
 20
190.0221399999999
 30
0.0
 11
245.9100529999998
 21
191.60441
 31
0.0
  0
LINE
  5
A984
330
A87D
100
AcDbEntity
  8
1
  6
Continuous
100
AcDbLine
 10
245.9100529999998
 20
190.0221399999999
 30
0.0
 11
247.713323
 21
191.60441
 31
0.0
  0
LINE
  5
A985
330
A87D
100
AcDbEntity
  8
1
  6
Continuous
100
AcDbLine
 10
234.9854009999999
 20
190.0221399999999
 30
0.0
 11
233.182131
 21
191.60441
 31
0.0
  0
LINE
  5
A986
330
A87D
100
AcDbEntity
  8
1
  6
Continuous
100
AcDbLine
 10
233.182131
 20
190.0221399999999
 30
0.0
 11
234.9854009999999
 21
191.60441
 31
0.0
  0
LINE
  5
A987
330
A87D
100
AcDbEntity
  8
1
  6
Continuous
100
AcDbLine
 10
239.228042
 20
190.0221399999999
 30
0.0
 11
237.424772
 21
191.60441
 31
0.0
  0
LINE
  5
A988
330
A87D
100
AcDbEntity
  8
1
  6
Continuous
100
AcDbLine
 10
237.106721
 20
190.0221399999999
 30
0.0
 11
235.3034509999999
 21
191.60441
 31
0.0
  0
LINE
  5
A989
330
A87D
100
AcDbEntity
  8
1
  6
Continuous
100
AcDbLine
 10
237.424772
 20
190.0221399999999
 30
0.0
 11
239.228042
 21
191.60441
 31
0.0
  0
LINE
  5
A98A
330
A87D
100
AcDbEntity
  8
1
  6
Continuous
100
AcDbLine
 10
235.3034509999999
 20
190.0221399999999
 30
0.0
 11
237.106721
 21
191.60441
 31
0.0
  0
LINE
  5
A98B
330
A87D
100
AcDbEntity
  8
1
  6
Continuous
100
AcDbLine
 10
243.470683
 20
190.0221399999999
 30
0.0
 11
241.667412
 21
191.60441
 31
0.0
  0
LINE
  5
A98C
330
A87D
100
AcDbEntity
  8
1
  6
Continuous
100
AcDbLine
 10
241.349362
 20
190.0221399999999
 30
0.0
 11
239.546092
 21
191.60441
 31
0.0
  0
LINE
  5
A98D
330
A87D
100
AcDbEntity
  8
1
  6
Continuous
100
AcDbLine
 10
241.667412
 20
190.0221399999999
 30
0.0
 11
243.470683
 21
191.60441
 31
0.0
  0
LINE
  5
A98E
330
A87D
100
AcDbEntity
  8
1
  6
Continuous
100
AcDbLine
 10
239.546092
 20
190.0221399999999
 30
0.0
 11
241.349362
 21
191.60441
 31
0.0
  0
LINE
  5
A98F
330
A87D
100
AcDbEntity
  8
1
  6
Continuous
100
AcDbLine
 10
245.5920029999998
 20
190.0221399999999
 30
0.0
 11
243.788733
 21
191.60441
 31
0.0
  0
LINE
  5
A990
330
A87D
100
AcDbEntity
  8
1
  6
Continuous
100
AcDbLine
 10
243.788733
 20
190.0221399999999
 30
0.0
 11
245.5920029999998
 21
191.60441
 31
0.0
  0
LINE
  5
A991
330
A87D
100
AcDbEntity
  8
1
  6
Continuous
100
AcDbLine
 10
249.6132029999999
 20
191.60441
 30
0.0
 11
249.6132029999999
 21
190.0221399999999
 31
0.0
  0
ARC
  5
A992
330
A87D
100
AcDbEntity
  8
1
  6
Continuous
100
AcDbCircle
 10
248.332873
 20
192.4173979999999
 30
0.0
 40
1.098799999999998
100
AcDbArc
 50
20.306161
 51
60.57047500000001
  0
ARC
  5
A993
330
A87D
100
AcDbEntity
  8
1
  6
Continuous
100
AcDbCircle
 10
247.015009
 20
193.129609
 30
0.0
 40
2.371570999999998
100
AcDbArc
 50
319.959594
 51
351.9797889999999
  0
LINE
  5
A994
330
A87D
100
AcDbEntity
  8
1
  6
Continuous
100
AcDbLine
 10
249.6132029999999
 20
190.24358
 30
0.0
 11
248.031374
 21
191.60441
 31
0.0
  0
LINE
  5
A995
330
A87D
100
AcDbEntity
  8
1
  6
Continuous
100
AcDbLine
 10
248.031374
 20
190.0221399999999
 30
0.0
 11
249.6132029999999
 21
191.382969
 31
0.0
  0
LINE
  5
A996
330
A87D
100
AcDbEntity
  8
1
  6
Continuous
100
AcDbLine
 10
238.3632029999999
 20
214.3342109999999
 30
0.0
 11
239.3632029999999
 21
213.334211
 31
0.0
  0
ARC
  5
A997
330
A87D
100
AcDbEntity
  8
1
  6
Continuous
100
AcDbCircle
 10
151.0256709999999
 20
276.217462
 30
0.0
 40
18.0
100
AcDbArc
 50
131.3382719999999
 51
228.4216129999999
  0
CIRCLE
  5
A998
330
A87D
100
AcDbEntity
  8
1
  6
Continuous
100
AcDbCircle
 10
152.164619
 20
276.217462
 30
0.0
 40
14.660012
  0
ARC
  5
A999
330
A87D
100
AcDbEntity
  8
1
  6
Continuous
100
AcDbCircle
 10
157.1646189999999
 20
276.217462
 30
0.0
 40
30.0
100
AcDbArc
 50
154.381131
 51
205.6188689999999
  0
LINE
  5
A99A
330
A87D
100
AcDbEntity
  8
1
  6
Continuous
100
AcDbLine
 10
141.194964
 20
276.217462
 30
0.0
 11
146.6797909999999
 21
266.717462
 31
0.0
  0
LINE
  5
A99B
330
A87D
100
AcDbEntity
  8
1
  6
Continuous
100
AcDbLine
 10
157.6494459999999
 20
266.717462
 30
0.0
 11
163.134274
 21
276.217462
 31
0.0
  0
CIRCLE
  5
A99C
330
A87D
100
AcDbEntity
  8
1
  6
Continuous
100
AcDbCircle
 10
152.164619
 20
276.217462
 30
0.0
 40
16.25
  0
CIRCLE
  5
A99D
330
A87D
100
AcDbEntity
  8
1
  6
Continuous
100
AcDbCircle
 10
152.164619
 20
276.217462
 30
0.0
 40
16.00018
  0
LINE
  5
A99E
330
A87D
100
AcDbEntity
  8
1
  6
Continuous
100
AcDbLine
 10
146.6797909999999
 20
266.717462
 30
0.0
 11
157.6494459999999
 21
266.717462
 31
0.0
  0
LINE
  5
A99F
330
A87D
100
AcDbEntity
  8
1
  6
Continuous
100
AcDbLine
 10
137.414626
 20
291.651018
 30
0.0
 11
128.914626
 21
291.651018
 31
0.0
  0
ARC
  5
A9A0
330
A87D
100
AcDbEntity
  8
1
  6
Continuous
100
AcDbCircle
 10
133.164626
 20
283.717702
 30
0.0
 40
9.0
100
AcDbArc
 50
61.82135699999999
 51
118.178643
  0
ARC
  5
A9A1
330
A87D
100
AcDbEntity
  8
1
  6
Continuous
100
AcDbCircle
 10
128.3410519999999
 20
262.934592
 30
0.0
 40
1.8
100
AcDbArc
 50
317.443519
 51
9.961921999999999
  0
LINE
  5
A9A2
330
A87D
100
AcDbEntity
  8
1
  6
Continuous
100
AcDbLine
 10
137.414626
 20
291.651018
 30
0.0
 11
137.414626
 21
290.7177019999998
 31
0.0
  0
LINE
  5
A9A3
330
A87D
100
AcDbEntity
  8
1
  6
Continuous
100
AcDbLine
 10
128.914626
 20
291.651018
 30
0.0
 11
128.914626
 21
290.7177019999998
 31
0.0
  0
CIRCLE
  5
A9A4
330
A87D
100
AcDbEntity
  8
1
  6
Continuous
100
AcDbCircle
 10
152.164619
 20
276.217462
 30
0.0
 40
6.0
  0
LINE
  5
A9A5
330
A87D
100
AcDbEntity
  8
1
  6
Continuous
100
AcDbLine
 10
146.6797909999999
 20
285.717462
 30
0.0
 11
157.6494459999999
 21
285.717462
 31
0.0
  0
LINE
  5
A9A6
330
A87D
100
AcDbEntity
  8
1
  6
Continuous
100
AcDbLine
 10
157.6494459999999
 20
285.717462
 30
0.0
 11
163.134274
 21
276.217462
 31
0.0
  0
ARC
  5
A9A7
330
A87D
100
AcDbEntity
  8
1
  6
Continuous
100
AcDbCircle
 10
133.164626
 20
267.76151
 30
0.0
 40
7.5
100
AcDbArc
 50
237.769047
 51
302.230953
  0
LINE
  5
A9A8
330
A87D
100
AcDbEntity
  8
1
  6
Continuous
100
AcDbLine
 10
141.194964
 20
276.217462
 30
0.0
 11
146.6797909999999
 21
285.717462
 31
0.0
  0
LINE
  5
A9A9
330
A87D
100
AcDbEntity
  8
1
  6
Continuous
100
AcDbLine
 10
137.164626
 20
261.4172219999999
 30
0.0
 11
129.164626
 21
261.4172219999999
 31
0.0
  0
LINE
  5
A9AA
330
A87D
100
AcDbEntity
  8
1
  6
Continuous
100
AcDbLine
 10
137.164626
 20
261.4172219999999
 30
0.0
 11
137.164626
 21
261.717222
 31
0.0
  0
ARC
  5
A9AB
330
A87D
100
AcDbEntity
  8
1
  6
Continuous
100
AcDbCircle
 10
128.3410519999999
 20
289.500333
 30
0.0
 40
1.8
100
AcDbArc
 50
350.0380779999999
 51
42.556437
  0
LINE
  5
A9AC
330
A87D
100
AcDbEntity
  8
1
  6
Continuous
100
AcDbLine
 10
129.164626
 20
261.4172219999999
 30
0.0
 11
129.164626
 21
261.717222
 31
0.0
  0
LINE
  5
A9AD
330
A87D
100
AcDbEntity
  8
1
  6
Continuous
100
AcDbLine
 10
223.8632029999999
 20
199.334211
 30
0.0
 11
223.8632029999999
 21
195.43423
 31
0.0
  0
LINE
  5
A9AE
330
A87D
100
AcDbEntity
  8
1
  6
Continuous
100
AcDbLine
 10
233.3632029999999
 20
199.334211
 30
0.0
 11
233.3632029999999
 21
195.43423
 31
0.0
  0
LINE
  5
A9AF
330
A87D
100
AcDbEntity
  8
1
  6
Continuous
100
AcDbLine
 10
242.8632029999999
 20
199.334211
 30
0.0
 11
242.8632029999999
 21
195.43423
 31
0.0
  0
LINE
  5
A9B0
330
A87D
100
AcDbEntity
  8
1
  6
Continuous
100
AcDbLine
 10
41.86604899999998
 20
213.334212
 30
0.0
 11
53.866049
 21
213.334212
 31
0.0
  0
LINE
  5
A9B1
330
A87D
100
AcDbEntity
  8
1
  6
Continuous
100
AcDbLine
 10
42.86604899999999
 20
214.334212
 30
0.0
 11
52.866049
 21
214.334212
 31
0.0
  0
LINE
  5
A9B2
330
A87D
100
AcDbEntity
  8
1
  6
Continuous
100
AcDbLine
 10
43.44233599999999
 20
190.022141
 30
0.0
 11
45.245606
 21
191.6044109999999
 31
0.0
  0
LINE
  5
A9B3
330
A87D
100
AcDbEntity
  8
1
  6
Continuous
100
AcDbLine
 10
45.245606
 20
190.022141
 30
0.0
 11
43.44233599999999
 21
191.6044109999999
 31
0.0
  0
LINE
  5
A9B4
330
A87D
100
AcDbEntity
  8
1
  6
Continuous
100
AcDbLine
 10
35.66697299999999
 20
195.434232
 30
0.0
 11
60.065086
 21
195.434232
 31
0.0
  0
LINE
  5
A9B5
330
A87D
100
AcDbEntity
  8
1
  6
Continuous
100
AcDbLine
 10
31.86586899999999
 20
192.798723
 30
0.0
 11
63.86623
 21
192.798723
 31
0.0
  0
LINE
  5
A9B6
330
A87D
100
AcDbEntity
  8
1
  6
Continuous
100
AcDbLine
 10
38.36604899999999
 20
199.334212
 30
0.0
 11
57.36604899999999
 21
199.334212
 31
0.0
  0
LINE
  5
A9B7
330
A87D
100
AcDbEntity
  8
1
  6
Continuous
100
AcDbLine
 10
32.35648199999999
 20
193.374411
 30
0.0
 11
63.37561700000001
 21
193.374411
 31
0.0
  0
LINE
  5
A9B8
330
A87D
100
AcDbEntity
  8
1
  6
Continuous
100
AcDbLine
 10
31.616049
 20
191.6044109999999
 30
0.0
 11
64.116049
 21
191.6044109999999
 31
0.0
  0
LINE
  5
A9B9
330
A87D
100
AcDbEntity
  8
1
  6
Continuous
100
AcDbLine
 10
41.86604899999998
 20
199.334212
 30
0.0
 11
41.86604899999998
 21
213.334212
 31
0.0
  0
LINE
  5
A9BA
330
A87D
100
AcDbEntity
  8
1
  6
Continuous
100
AcDbLine
 10
39.199696
 20
190.022141
 30
0.0
 11
41.002966
 21
191.6044109999999
 31
0.0
  0
LINE
  5
A9BB
330
A87D
100
AcDbEntity
  8
1
  6
Continuous
100
AcDbLine
 10
41.002966
 20
190.022141
 30
0.0
 11
39.199696
 21
191.6044109999999
 31
0.0
  0
LINE
  5
A9BC
330
A87D
100
AcDbEntity
  8
1
  6
Continuous
100
AcDbLine
 10
41.321016
 20
190.022141
 30
0.0
 11
43.12428599999999
 21
191.6044109999999
 31
0.0
  0
LINE
  5
A9BD
330
A87D
100
AcDbEntity
  8
1
  6
Continuous
100
AcDbLine
 10
43.12428599999999
 20
190.022141
 30
0.0
 11
41.321016
 21
191.6044109999999
 31
0.0
  0
LINE
  5
A9BE
330
A87D
100
AcDbEntity
  8
1
  6
Continuous
100
AcDbLine
 10
37.078375
 20
190.022141
 30
0.0
 11
38.881645
 21
191.6044109999999
 31
0.0
  0
LINE
  5
A9BF
330
A87D
100
AcDbEntity
  8
1
  6
Continuous
100
AcDbLine
 10
38.881645
 20
190.022141
 30
0.0
 11
37.078375
 21
191.6044109999999
 31
0.0
  0
LINE
  5
A9C0
330
A87D
100
AcDbEntity
  8
1
  6
Continuous
100
AcDbLine
 10
32.517684
 20
191.6044109999999
 30
0.0
 11
31.616049
 21
190.923776
 31
0.0
  0
LINE
  5
A9C1
330
A87D
100
AcDbEntity
  8
1
  6
Continuous
100
AcDbLine
 10
32.517684
 20
190.022141
 30
0.0
 11
31.616049
 21
190.923776
 31
0.0
  0
ARC
  5
A9C2
330
A87D
100
AcDbEntity
  8
1
  6
Continuous
100
AcDbCircle
 10
34.214244
 20
193.12961
 30
0.0
 40
2.371570999999998
100
AcDbArc
 50
188.020211
 51
220.040406
  0
ARC
  5
A9C3
330
A87D
100
AcDbEntity
  8
1
  6
Continuous
100
AcDbCircle
 10
32.89638
 20
192.4173989999999
 30
0.0
 40
1.098799999999998
100
AcDbArc
 50
119.429525
 51
159.693839
  0
LINE
  5
A9C4
330
A87D
100
AcDbEntity
  8
1
  6
Continuous
100
AcDbLine
 10
31.616049
 20
191.6044109999999
 30
0.0
 11
31.616049
 21
190.022141
 31
0.0
  0
LINE
  5
A9C5
330
A87D
100
AcDbEntity
  8
1
  6
Continuous
100
AcDbLine
 10
32.835735
 20
190.022141
 30
0.0
 11
34.63900499999999
 21
191.6044109999999
 31
0.0
  0
LINE
  5
A9C6
330
A87D
100
AcDbEntity
  8
1
  6
Continuous
100
AcDbLine
 10
34.63900499999999
 20
190.022141
 30
0.0
 11
32.835735
 21
191.6044109999999
 31
0.0
  0
ARC
  5
A9C7
330
A87D
100
AcDbEntity
  8
1
  6
Continuous
100
AcDbCircle
 10
35.66697299999999
 20
192.934232
 30
0.0
 40
2.5
100
AcDbArc
 50
90.0
 51
169.858981
  0
LINE
  5
A9C8
330
A87D
100
AcDbEntity
  8
1
  6
Continuous
100
AcDbLine
 10
34.95705499999999
 20
190.022141
 30
0.0
 11
36.760325
 21
191.6044109999999
 31
0.0
  0
LINE
  5
A9C9
330
A87D
100
AcDbEntity
  8
1
  6
Continuous
100
AcDbLine
 10
36.760325
 20
190.022141
 30
0.0
 11
34.95705499999999
 21
191.6044109999999
 31
0.0
  0
LINE
  5
A9CA
330
A87D
100
AcDbEntity
  8
1
  6
Continuous
100
AcDbLine
 10
42.86604899999999
 20
214.334212
 30
0.0
 11
41.86604899999998
 21
213.334212
 31
0.0
  0
LINE
  5
A9CB
330
A87D
100
AcDbEntity
  8
1
  6
Continuous
100
AcDbLine
 10
53.866049
 20
199.334212
 30
0.0
 11
53.866049
 21
213.334212
 31
0.0
  0
LINE
  5
A9CC
330
A87D
100
AcDbEntity
  8
1
  6
Continuous
100
AcDbLine
 10
58.29157900000002
 20
190.022141
 30
0.0
 11
60.094849
 21
191.6044109999999
 31
0.0
  0
LINE
  5
A9CD
330
A87D
100
AcDbEntity
  8
1
  6
Continuous
100
AcDbLine
 10
60.094849
 20
190.022141
 30
0.0
 11
58.29157900000002
 21
191.6044109999999
 31
0.0
  0
LINE
  5
A9CE
330
A87D
100
AcDbEntity
  8
1
  6
Continuous
100
AcDbLine
 10
54.04893799999999
 20
190.022141
 30
0.0
 11
55.852208
 21
191.6044109999999
 31
0.0
  0
LINE
  5
A9CF
330
A87D
100
AcDbEntity
  8
1
  6
Continuous
100
AcDbLine
 10
56.170258
 20
190.022141
 30
0.0
 11
57.97352899999999
 21
191.6044109999999
 31
0.0
  0
LINE
  5
A9D0
330
A87D
100
AcDbEntity
  8
1
  6
Continuous
100
AcDbLine
 10
55.852208
 20
190.022141
 30
0.0
 11
54.04893799999999
 21
191.6044109999999
 31
0.0
  0
LINE
  5
A9D1
330
A87D
100
AcDbEntity
  8
1
  6
Continuous
100
AcDbLine
 10
57.97352899999999
 20
190.022141
 30
0.0
 11
56.170258
 21
191.6044109999999
 31
0.0
  0
LINE
  5
A9D2
330
A87D
100
AcDbEntity
  8
1
  6
Continuous
100
AcDbLine
 10
49.806297
 20
190.022141
 30
0.0
 11
51.60956699999999
 21
191.6044109999999
 31
0.0
  0
LINE
  5
A9D3
330
A87D
100
AcDbEntity
  8
1
  6
Continuous
100
AcDbLine
 10
51.60956699999999
 20
190.022141
 30
0.0
 11
49.806297
 21
191.6044109999999
 31
0.0
  0
LINE
  5
A9D4
330
A87D
100
AcDbEntity
  8
1
  6
Continuous
100
AcDbLine
 10
47.684977
 20
190.022141
 30
0.0
 11
49.48824699999999
 21
191.6044109999999
 31
0.0
  0
LINE
  5
A9D5
330
A87D
100
AcDbEntity
  8
1
  6
Continuous
100
AcDbLine
 10
49.48824699999999
 20
190.022141
 30
0.0
 11
47.684977
 21
191.6044109999999
 31
0.0
  0
LINE
  5
A9D6
330
A87D
100
AcDbEntity
  8
1
  6
Continuous
100
AcDbLine
 10
45.56365699999999
 20
190.022141
 30
0.0
 11
47.36692699999998
 21
191.6044109999999
 31
0.0
  0
LINE
  5
A9D7
330
A87D
100
AcDbEntity
  8
1
  6
Continuous
100
AcDbLine
 10
47.36692699999998
 20
190.022141
 30
0.0
 11
45.56365699999999
 21
191.6044109999999
 31
0.0
  0
LINE
  5
A9D8
330
A87D
100
AcDbEntity
  8
1
  6
Continuous
100
AcDbLine
 10
51.927618
 20
190.022141
 30
0.0
 11
53.730888
 21
191.6044109999999
 31
0.0
  0
LINE
  5
A9D9
330
A87D
100
AcDbEntity
  8
1
  6
Continuous
100
AcDbLine
 10
53.730888
 20
190.022141
 30
0.0
 11
51.927618
 21
191.6044109999999
 31
0.0
  0
LINE
  5
A9DA
330
A87D
100
AcDbEntity
  8
1
  6
Continuous
100
AcDbLine
 10
62.53422
 20
190.022141
 30
0.0
 11
64.116049
 21
191.3829699999998
 31
0.0
  0
LINE
  5
A9DB
330
A87D
100
AcDbEntity
  8
1
  6
Continuous
100
AcDbLine
 10
64.116049
 20
190.243581
 30
0.0
 11
62.53422
 21
191.6044109999999
 31
0.0
  0
ARC
  5
A9DC
330
A87D
100
AcDbEntity
  8
1
  6
Continuous
100
AcDbCircle
 10
61.51785499999999
 20
193.12961
 30
0.0
 40
2.371570999999998
100
AcDbArc
 50
319.959594
 51
351.9797889999999
  0
ARC
  5
A9DD
330
A87D
100
AcDbEntity
  8
1
  6
Continuous
100
AcDbCircle
 10
62.835719
 20
192.4173989999999
 30
0.0
 40
1.098799999999998
100
AcDbArc
 50
20.306161
 51
60.57047500000001
  0
LINE
  5
A9DE
330
A87D
100
AcDbEntity
  8
1
  6
Continuous
100
AcDbLine
 10
64.116049
 20
191.6044109999999
 30
0.0
 11
64.116049
 21
190.022044
 31
0.0
  0
LINE
  5
A9DF
330
A87D
100
AcDbEntity
  8
1
  6
Continuous
100
AcDbLine
 10
60.41289899999998
 20
190.022141
 30
0.0
 11
62.21616899999999
 21
191.6044109999999
 31
0.0
  0
LINE
  5
A9E0
330
A87D
100
AcDbEntity
  8
1
  6
Continuous
100
AcDbLine
 10
62.21616899999999
 20
190.022141
 30
0.0
 11
60.41289899999998
 21
191.6044109999999
 31
0.0
  0
ARC
  5
A9E1
330
A87D
100
AcDbEntity
  8
1
  6
Continuous
100
AcDbCircle
 10
60.065086
 20
192.934232
 30
0.0
 40
2.5
100
AcDbArc
 50
10.141019
 51
90.0
  0
LINE
  5
A9E2
330
A87D
100
AcDbEntity
  8
1
  6
Continuous
100
AcDbLine
 10
52.866049
 20
214.334212
 30
0.0
 11
53.866049
 21
213.334212
 31
0.0
  0
LINE
  5
A9E3
330
A87D
100
AcDbEntity
  8
1
  6
Continuous
100
AcDbLine
 10
38.36604899999999
 20
199.334212
 30
0.0
 11
38.36604899999999
 21
195.434231
 31
0.0
  0
LINE
  5
A9E4
330
A87D
100
AcDbEntity
  8
1
  6
Continuous
100
AcDbLine
 10
47.86604899999999
 20
199.334212
 30
0.0
 11
47.86604899999999
 21
195.434231
 31
0.0
  0
LINE
  5
A9E5
330
A87D
100
AcDbEntity
  8
1
  6
Continuous
100
AcDbLine
 10
57.36604899999999
 20
199.334212
 30
0.0
 11
57.36604899999999
 21
195.434231
 31
0.0
  0
LINE
  5
A9E6
330
A87D
100
AcDbEntity
  8
1
  6
Continuous
100
AcDbLine
 10
158.164626
 20
199.334308
 30
0.0
 11
158.164626
 21
213.3343079999999
 31
0.0
  0
LINE
  5
A9E7
330
A87D
100
AcDbEntity
  8
1
  6
Continuous
100
AcDbLine
 10
146.164626
 20
199.334308
 30
0.0
 11
146.164626
 21
213.3343079999999
 31
0.0
  0
LINE
  5
A9E8
330
A87D
100
AcDbEntity
  8
1
  6
Continuous
100
AcDbLine
 10
153.7868239999999
 20
190.0222369999999
 30
0.0
 11
151.983554
 21
191.604507
 31
0.0
  0
LINE
  5
A9E9
330
A87D
100
AcDbEntity
  8
1
  6
Continuous
100
AcDbLine
 10
151.983554
 20
190.0222369999999
 30
0.0
 11
153.7868239999999
 21
191.604507
 31
0.0
  0
LINE
  5
A9EA
330
A87D
100
AcDbEntity
  8
1
  6
Continuous
100
AcDbLine
 10
135.9146259999999
 20
191.604507
 30
0.0
 11
168.414626
 21
191.604507
 31
0.0
  0
LINE
  5
A9EB
330
A87D
100
AcDbEntity
  8
1
  6
Continuous
100
AcDbLine
 10
136.6550589999999
 20
193.374507
 30
0.0
 11
167.674194
 21
193.374507
 31
0.0
  0
LINE
  5
A9EC
330
A87D
100
AcDbEntity
  8
1
  6
Continuous
100
AcDbLine
 10
141.194971
 20
199.334308
 30
0.0
 11
163.1342809999999
 21
199.334308
 31
0.0
  0
LINE
  5
A9ED
330
A87D
100
AcDbEntity
  8
1
  6
Continuous
100
AcDbLine
 10
136.1644459999999
 20
192.7988189999999
 30
0.0
 11
168.164807
 21
192.7988189999999
 31
0.0
  0
LINE
  5
A9EE
330
A87D
100
AcDbEntity
  8
1
  6
Continuous
100
AcDbLine
 10
139.96555
 20
195.4343279999999
 30
0.0
 11
164.363663
 21
195.4343279999999
 31
0.0
  0
ARC
  5
A9EF
330
A87D
100
AcDbEntity
  8
1
  6
Continuous
100
AcDbCircle
 10
137.1949569999999
 20
192.417495
 30
0.0
 40
1.098799999999998
100
AcDbArc
 50
119.429525
 51
159.693839
  0
ARC
  5
A9F0
330
A87D
100
AcDbEntity
  8
1
  6
Continuous
100
AcDbCircle
 10
138.5128209999998
 20
193.129706
 30
0.0
 40
2.371570999999998
100
AcDbArc
 50
188.020211
 51
220.040406
  0
LINE
  5
A9F1
330
A87D
100
AcDbEntity
  8
1
  6
Continuous
100
AcDbLine
 10
136.8162609999999
 20
190.0222369999999
 30
0.0
 11
135.9146259999999
 21
190.9238719999999
 31
0.0
  0
LINE
  5
A9F2
330
A87D
100
AcDbEntity
  8
1
  6
Continuous
100
AcDbLine
 10
136.8162609999999
 20
191.604507
 30
0.0
 11
135.9146259999999
 21
190.9238719999999
 31
0.0
  0
LINE
  5
A9F3
330
A87D
100
AcDbEntity
  8
1
  6
Continuous
100
AcDbLine
 10
135.9146259999999
 20
191.604507
 30
0.0
 11
135.9146259999999
 21
190.0222369999999
 31
0.0
  0
LINE
  5
A9F4
330
A87D
100
AcDbEntity
  8
1
  6
Continuous
100
AcDbLine
 10
151.665504
 20
190.0222369999999
 30
0.0
 11
149.862234
 21
191.604507
 31
0.0
  0
LINE
  5
A9F5
330
A87D
100
AcDbEntity
  8
1
  6
Continuous
100
AcDbLine
 10
149.862234
 20
190.0222369999999
 30
0.0
 11
151.665504
 21
191.604507
 31
0.0
  0
LINE
  5
A9F6
330
A87D
100
AcDbEntity
  8
1
  6
Continuous
100
AcDbLine
 10
141.0589019999999
 20
190.0222369999999
 30
0.0
 11
139.2556319999999
 21
191.604507
 31
0.0
  0
LINE
  5
A9F7
330
A87D
100
AcDbEntity
  8
1
  6
Continuous
100
AcDbLine
 10
139.2556319999999
 20
190.0222369999999
 30
0.0
 11
141.0589019999999
 21
191.604507
 31
0.0
  0
ARC
  5
A9F8
330
A87D
100
AcDbEntity
  8
1
  6
Continuous
100
AcDbCircle
 10
139.96555
 20
192.9343279999999
 30
0.0
 40
2.5
100
AcDbArc
 50
90.0
 51
169.858981
  0
LINE
  5
A9F9
330
A87D
100
AcDbEntity
  8
1
  6
Continuous
100
AcDbLine
 10
138.9375819999999
 20
190.0222369999999
 30
0.0
 11
137.1343119999999
 21
191.604507
 31
0.0
  0
LINE
  5
A9FA
330
A87D
100
AcDbEntity
  8
1
  6
Continuous
100
AcDbLine
 10
137.1343119999999
 20
190.0222369999999
 30
0.0
 11
138.9375819999999
 21
191.604507
 31
0.0
  0
LINE
  5
A9FB
330
A87D
100
AcDbEntity
  8
1
  6
Continuous
100
AcDbLine
 10
143.1802219999999
 20
190.0222369999999
 30
0.0
 11
141.3769519999999
 21
191.604507
 31
0.0
  0
LINE
  5
A9FC
330
A87D
100
AcDbEntity
  8
1
  6
Continuous
100
AcDbLine
 10
141.3769519999999
 20
190.0222369999999
 30
0.0
 11
143.1802219999999
 21
191.604507
 31
0.0
  0
LINE
  5
A9FD
330
A87D
100
AcDbEntity
  8
1
  6
Continuous
100
AcDbLine
 10
147.4228629999998
 20
190.0222369999999
 30
0.0
 11
145.6195929999998
 21
191.604507
 31
0.0
  0
LINE
  5
A9FE
330
A87D
100
AcDbEntity
  8
1
  6
Continuous
100
AcDbLine
 10
145.6195929999998
 20
190.0222369999999
 30
0.0
 11
147.4228629999998
 21
191.604507
 31
0.0
  0
LINE
  5
A9FF
330
A87D
100
AcDbEntity
  8
1
  6
Continuous
100
AcDbLine
 10
145.3015429999998
 20
190.0222369999999
 30
0.0
 11
143.498273
 21
191.604507
 31
0.0
  0
LINE
  5
AA00
330
A87D
100
AcDbEntity
  8
1
  6
Continuous
100
AcDbLine
 10
143.498273
 20
190.0222369999999
 30
0.0
 11
145.3015429999998
 21
191.604507
 31
0.0
  0
LINE
  5
AA01
330
A87D
100
AcDbEntity
  8
1
  6
Continuous
100
AcDbLine
 10
141.194971
 20
195.4343279999999
 30
0.0
 11
141.194971
 21
199.334308
 31
0.0
  0
LINE
  5
AA02
330
A87D
100
AcDbEntity
  8
1
  6
Continuous
100
AcDbLine
 10
146.679799
 20
195.4343279999999
 30
0.0
 11
146.679799
 21
199.334308
 31
0.0
  0
LINE
  5
AA03
330
A87D
100
AcDbEntity
  8
1
  6
Continuous
100
AcDbLine
 10
149.544183
 20
190.0222369999999
 30
0.0
 11
147.7409129999998
 21
191.604507
 31
0.0
  0
LINE
  5
AA04
330
A87D
100
AcDbEntity
  8
1
  6
Continuous
100
AcDbLine
 10
147.7409129999998
 20
190.0222369999999
 30
0.0
 11
149.544183
 21
191.604507
 31
0.0
  0
ARC
  5
AA05
330
A87D
100
AcDbEntity
  8
1
  6
Continuous
100
AcDbCircle
 10
164.363663
 20
192.9343279999999
 30
0.0
 40
2.5
100
AcDbArc
 50
10.141019
 51
90.0
  0
LINE
  5
AA06
330
A87D
100
AcDbEntity
  8
1
  6
Continuous
100
AcDbLine
 10
166.514746
 20
190.0222369999999
 30
0.0
 11
164.711476
 21
191.604507
 31
0.0
  0
LINE
  5
AA07
330
A87D
100
AcDbEntity
  8
1
  6
Continuous
100
AcDbLine
 10
164.711476
 20
190.0222369999999
 30
0.0
 11
166.514746
 21
191.604507
 31
0.0
  0
LINE
  5
AA08
330
A87D
100
AcDbEntity
  8
1
  6
Continuous
100
AcDbLine
 10
168.414626
 20
191.604507
 30
0.0
 11
168.414626
 21
190.0222369999999
 31
0.0
  0
ARC
  5
AA09
330
A87D
100
AcDbEntity
  8
1
  6
Continuous
100
AcDbCircle
 10
167.134296
 20
192.417495
 30
0.0
 40
1.098799999999998
100
AcDbArc
 50
20.306161
 51
60.57047500000001
  0
ARC
  5
AA0A
330
A87D
100
AcDbEntity
  8
1
  6
Continuous
100
AcDbCircle
 10
165.816432
 20
193.129706
 30
0.0
 40
2.371570999999998
100
AcDbArc
 50
319.959594
 51
351.9797889999999
  0
LINE
  5
AA0B
330
A87D
100
AcDbEntity
  8
1
  6
Continuous
100
AcDbLine
 10
168.414626
 20
190.2436769999999
 30
0.0
 11
166.8327969999999
 21
191.604507
 31
0.0
  0
LINE
  5
AA0C
330
A87D
100
AcDbEntity
  8
1
  6
Continuous
100
AcDbLine
 10
166.8327969999999
 20
190.0222369999999
 30
0.0
 11
168.414626
 21
191.3830659999999
 31
0.0
  0
LINE
  5
AA0D
330
A87D
100
AcDbEntity
  8
1
  6
Continuous
100
AcDbLine
 10
158.0294649999999
 20
190.0222369999999
 30
0.0
 11
156.2261949999999
 21
191.604507
 31
0.0
  0
LINE
  5
AA0E
330
A87D
100
AcDbEntity
  8
1
  6
Continuous
100
AcDbLine
 10
156.2261949999999
 20
190.0222369999999
 30
0.0
 11
158.0294649999999
 21
191.604507
 31
0.0
  0
LINE
  5
AA0F
330
A87D
100
AcDbEntity
  8
1
  6
Continuous
100
AcDbLine
 10
155.9081439999999
 20
190.0222369999999
 30
0.0
 11
154.1048739999999
 21
191.604507
 31
0.0
  0
LINE
  5
AA10
330
A87D
100
AcDbEntity
  8
1
  6
Continuous
100
AcDbLine
 10
154.1048739999999
 20
190.0222369999999
 30
0.0
 11
155.9081439999999
 21
191.604507
 31
0.0
  0
LINE
  5
AA11
330
A87D
100
AcDbEntity
  8
1
  6
Continuous
100
AcDbLine
 10
162.272106
 20
190.0222369999999
 30
0.0
 11
160.468835
 21
191.604507
 31
0.0
  0
LINE
  5
AA12
330
A87D
100
AcDbEntity
  8
1
  6
Continuous
100
AcDbLine
 10
160.150785
 20
190.0222369999999
 30
0.0
 11
158.3475149999999
 21
191.604507
 31
0.0
  0
LINE
  5
AA13
330
A87D
100
AcDbEntity
  8
1
  6
Continuous
100
AcDbLine
 10
160.468835
 20
190.0222369999999
 30
0.0
 11
162.272106
 21
191.604507
 31
0.0
  0
LINE
  5
AA14
330
A87D
100
AcDbEntity
  8
1
  6
Continuous
100
AcDbLine
 10
158.3475149999999
 20
190.0222369999999
 30
0.0
 11
160.150785
 21
191.604507
 31
0.0
  0
LINE
  5
AA15
330
A87D
100
AcDbEntity
  8
1
  6
Continuous
100
AcDbLine
 10
157.6494539999998
 20
195.4343279999999
 30
0.0
 11
157.6494539999998
 21
199.334308
 31
0.0
  0
LINE
  5
AA16
330
A87D
100
AcDbEntity
  8
1
  6
Continuous
100
AcDbLine
 10
163.1342809999999
 20
195.4343279999999
 30
0.0
 11
163.1342809999999
 21
199.334308
 31
0.0
  0
LINE
  5
AA17
330
A87D
100
AcDbEntity
  8
1
  6
Continuous
100
AcDbLine
 10
164.3934259999998
 20
190.0222369999999
 30
0.0
 11
162.590156
 21
191.604507
 31
0.0
  0
LINE
  5
AA18
330
A87D
100
AcDbEntity
  8
1
  6
Continuous
100
AcDbLine
 10
162.590156
 20
190.0222369999999
 30
0.0
 11
164.3934259999998
 21
191.604507
 31
0.0
  0
LINE
  5
AA19
330
A87D
100
AcDbEntity
  8
1
  6
Continuous
100
AcDbLine
 10
147.1646259999999
 20
214.334308
 30
0.0
 11
157.164626
 21
214.334308
 31
0.0
  0
LINE
  5
AA1A
330
A87D
100
AcDbEntity
  8
1
  6
Continuous
100
AcDbLine
 10
146.164626
 20
213.3343079999999
 30
0.0
 11
158.164626
 21
213.3343079999999
 31
0.0
  0
LINE
  5
AA1B
330
A87D
100
AcDbEntity
  8
1
  6
Continuous
100
AcDbLine
 10
147.1646259999999
 20
214.334308
 30
0.0
 11
146.164626
 21
213.3343079999999
 31
0.0
  0
LINE
  5
AA1C
330
A87D
100
AcDbEntity
  8
1
  6
Continuous
100
AcDbLine
 10
157.164626
 20
214.334308
 30
0.0
 11
158.164626
 21
213.3343079999999
 31
0.0
  0
ARC
  5
AA1D
330
A87D
100
AcDbEntity
  8
1
  6
Continuous
100
AcDbCircle
 10
152.164619
 20
276.217462
 30
0.0
 40
18.85
100
AcDbArc
 50
235.584371
 51
124.415629
  0
LINE
  5
AA1E
330
A87D
100
AcDbEntity
  8
1
  6
Continuous
100
AcDbLine
 10
110.760923
 20
266.217462
 30
0.0
 11
128.880348
 21
266.217462
 31
0.0
  0
ARC
  5
AA1F
330
A87D
100
AcDbEntity
  8
1
  6
Continuous
100
AcDbCircle
 10
143.1646259999999
 20
276.217462
 30
0.0
 40
35.0
100
AcDbArc
 50
165.301576
 51
194.698424
  0
ARC
  5
AA20
330
A87D
100
AcDbEntity
  8
1
  6
Continuous
100
AcDbCircle
 10
110.760923
 20
267.717462
 30
0.0
 40
1.5
100
AcDbArc
 50
194.698424
 51
270.0
  0
LINE
  5
AA21
330
A87D
100
AcDbEntity
  8
1
  6
Continuous
100
AcDbLine
 10
110.760923
 20
286.217462
 30
0.0
 11
128.880348
 21
286.217462
 31
0.0
  0
ARC
  5
AA22
330
A87D
100
AcDbEntity
  8
1
  6
Continuous
100
AcDbCircle
 10
110.760923
 20
284.717462
 30
0.0
 40
1.5
100
AcDbArc
 50
90.0
 51
165.301576
  0
LINE
  5
AA23
330
A87D
100
AcDbEntity
  8
1
  6
Continuous
100
AcDbLine
 10
124.525671
 20
264.717462
 30
0.0
 11
129.4563169999999
 21
264.717462
 31
0.0
  0
LINE
  5
AA24
330
A87D
100
AcDbEntity
  8
1
  6
Continuous
100
AcDbLine
 10
124.525671
 20
264.717462
 30
0.0
 11
124.525671
 21
266.217462
 31
0.0
  0
LINE
  5
AA25
330
A87D
100
AcDbEntity
  8
1
  6
Continuous
100
AcDbLine
 10
124.525671
 20
287.717462
 30
0.0
 11
124.525671
 21
286.217462
 31
0.0
  0
LINE
  5
AA26
330
A87D
100
AcDbEntity
  8
1
  6
Continuous
100
AcDbLine
 10
124.525671
 20
287.717462
 30
0.0
 11
129.4563169999999
 21
287.717462
 31
0.0
  0
LINE
  5
AA27
330
A87D
100
AcDbEntity
  8
4
  6
CENTER
100
AcDbLine
 10
133.1646189999998
 20
297.3174619999999
 30
0.0
 11
133.1646189999998
 21
255.66175
 31
0.0
  0
ARC
  5
AA28
330
A87D
100
AcDbEntity
  8
1
  6
Continuous
100
AcDbCircle
 10
138.119597
 20
90.50985199999999
 30
0.0
 40
6.0
100
AcDbArc
 50
270.0
 51
304.415629
  0
ARC
  5
AA29
330
A87D
100
AcDbEntity
  8
1
  6
Continuous
100
AcDbCircle
 10
138.119597
 20
49.509372
 30
0.0
 40
6.0
100
AcDbArc
 50
55.58437099999999
 51
90.0
  0
ARC
  5
AA2A
330
A87D
100
AcDbEntity
  8
1
  6
Continuous
100
AcDbCircle
 10
138.119246
 20
90.50961200000001
 30
0.0
 40
8.0
100
AcDbArc
 50
270.0
 51
304.416608
  0
ARC
  5
AA2B
330
A87D
100
AcDbEntity
  8
1
  6
Continuous
100
AcDbCircle
 10
138.119246
 20
49.509612
 30
0.0
 40
8.0
100
AcDbArc
 50
55.583392
 51
90.0
  0
LINE
  5
AA2C
330
A87D
100
AcDbEntity
  8
4
  6
CENTER
100
AcDbLine
 10
333.56178
 20
127.334237
 30
0.0
 11
333.56178
 21
185.334237
 31
0.0
  0
LINE
  5
AA2D
330
A87D
100
AcDbEntity
  8
1
  6
Continuous
100
AcDbLine
 10
337.3231349999999
 20
187.1785049999998
 30
0.0
 11
340.679392
 21
157.080497
 31
0.0
  0
LINE
  5
AA2E
330
A87D
100
AcDbEntity
  8
4
  6
CENTER
100
AcDbLine
 10
314.56178
 20
219.334308
 30
0.0
 11
314.56178
 21
166.79426
 31
0.0
  0
ARC
  5
AA2F
330
A87D
100
AcDbEntity
  8
1
  6
Continuous
100
AcDbCircle
 10
260.957243
 20
136.210325
 30
0.0
 40
63.35981999999999
100
AcDbArc
 50
36.666179
 51
45.952998
  0
LINE
  5
AA30
330
A87D
100
AcDbEntity
  8
1
  6
Continuous
100
AcDbLine
 10
325.7117799999999
 20
186.285782
 30
0.0
 11
325.7117799999999
 21
156.101475
 31
0.0
  0
ARC
  5
AA31
330
A87D
100
AcDbEntity
  8
1
  6
Continuous
100
AcDbCircle
 10
333.56178
 20
157.3342369999998
 30
0.0
 40
25.0
100
AcDbArc
 50
144.1619329999998
 51
80.219389
  0
ARC
  5
AA32
330
A87D
100
AcDbEntity
  8
1
  6
Continuous
100
AcDbCircle
 10
333.56178
 20
157.3342369999998
 30
0.0
 40
17.5
100
AcDbArc
 50
153.524335
 51
72.62147500000001
  0
ARC
  5
AA33
330
A87D
100
AcDbEntity
  8
1
  6
Continuous
100
AcDbCircle
 10
333.56178
 20
157.3342369999998
 30
0.0
 40
8.5
100
AcDbArc
 50
258.2104419999998
 51
40.37695
  0
ARC
  5
AA34
330
A87D
100
AcDbEntity
  8
1
  6
Continuous
100
AcDbCircle
 10
333.2117799999999
 20
156.384237
 30
0.0
 40
7.5
100
AcDbArc
 50
244.0790989999999
 51
5.326703
  0
LINE
  5
AA35
330
A87D
100
AcDbEntity
  8
4
  6
CENTER
100
AcDbLine
 10
363.5617799999999
 20
157.3342369999998
 30
0.0
 11
303.56178
 21
157.3342369999998
 31
0.0
  0
ARC
  5
AA36
330
A87D
100
AcDbEntity
  8
1
  6
Continuous
100
AcDbCircle
 10
375.6036619999999
 20
192.043394
 30
0.0
 40
63.31738699999998
100
AcDbArc
 50
210.0174259999998
 51
218.02512
  0
ARC
  5
AA37
330
A87D
100
AcDbEntity
  8
1
  6
Continuous
100
AcDbCircle
 10
335.1788649999999
 20
160.43153
 30
0.0
 40
12.0
100
AcDbArc
 50
218.02512
 51
244.0790989999999
  0
ARC
  5
AA38
330
A87D
100
AcDbEntity
  8
1
  6
Continuous
100
AcDbCircle
 10
198.5435559999999
 20
89.74588199999997
 30
0.0
 40
141.169928
100
AcDbArc
 50
30.017426
 51
36.666179
  0
LINE
  5
AA39
330
A87D
100
AcDbEntity
  8
1
  6
Continuous
100
AcDbLine
 10
337.50928
 20
185.182041
 30
0.0
 11
339.7782369999998
 21
185.215798
 31
0.0
  0
ARC
  5
AA3A
330
A87D
100
AcDbEntity
  8
1
  6
Continuous
100
AcDbCircle
 10
339.094627
 20
185.8624879999999
 30
0.0
 40
1.351175999999999
100
AcDbArc
 50
50.763314
 51
91.14576300000001
  0
ARC
  5
AA3B
330
A87D
100
AcDbEntity
  8
1
  6
Continuous
100
AcDbCircle
 10
339.773095
 20
185.561442
 30
0.0
 40
0.345682
100
AcDbArc
 50
270.852372
 51
313.097669
  0
LINE
  5
AA3C
330
A87D
100
AcDbEntity
  8
1
  6
Continuous
100
AcDbLine
 10
340.0092799999999
 20
185.994028
 30
0.0
 11
340.0092799999999
 21
185.309028
 31
0.0
  0
LINE
  5
AA3D
330
A87D
100
AcDbEntity
  8
1
  6
Continuous
100
AcDbLine
 10
339.9492799999998
 20
186.9090279999998
 30
0.0
 11
340.0092799999999
 21
185.994028
 31
0.0
  0
LINE
  5
AA3E
330
A87D
100
AcDbEntity
  8
1
  6
Continuous
100
AcDbLine
 10
308.3788909999999
 20
190.0222369999999
 30
0.0
 11
306.5756209999999
 21
191.604507
 31
0.0
  0
LINE
  5
AA3F
330
A87D
100
AcDbEntity
  8
1
  6
Continuous
100
AcDbLine
 10
306.5756209999999
 20
190.0222369999999
 30
0.0
 11
308.3788909999999
 21
191.604507
 31
0.0
  0
LINE
  5
AA40
330
A87D
100
AcDbEntity
  8
1
  6
Continuous
100
AcDbLine
 10
326.7608559999998
 20
195.4343279999999
 30
0.0
 11
302.362743
 21
195.4343279999999
 31
0.0
  0
LINE
  5
AA41
330
A87D
100
AcDbEntity
  8
1
  6
Continuous
100
AcDbLine
 10
330.5619599999999
 20
192.7988189999999
 30
0.0
 11
298.5615989999999
 21
192.7988189999999
 31
0.0
  0
LINE
  5
AA42
330
A87D
100
AcDbEntity
  8
1
  6
Continuous
100
AcDbLine
 10
325.5314349999999
 20
199.334308
 30
0.0
 11
303.592125
 21
199.334308
 31
0.0
  0
LINE
  5
AA43
330
A87D
100
AcDbEntity
  8
1
  6
Continuous
100
AcDbLine
 10
330.071347
 20
193.374507
 30
0.0
 11
299.052213
 21
193.374507
 31
0.0
  0
LINE
  5
AA44
330
A87D
100
AcDbEntity
  8
1
  6
Continuous
100
AcDbLine
 10
330.81178
 20
191.604507
 30
0.0
 11
298.31178
 21
191.604507
 31
0.0
  0
LINE
  5
AA45
330
A87D
100
AcDbEntity
  8
1
  6
Continuous
100
AcDbLine
 10
330.8312
 20
190.0222369999999
 30
0.0
 11
297.883502
 21
190.0222369999999
 31
0.0
  0
LINE
  5
AA46
330
A87D
100
AcDbEntity
  8
1
  6
Continuous
100
AcDbLine
 10
309.076952
 20
195.4343279999999
 30
0.0
 11
309.076952
 21
199.334308
 31
0.0
  0
LINE
  5
AA47
330
A87D
100
AcDbEntity
  8
1
  6
Continuous
100
AcDbLine
 10
320.046607
 20
195.4343279999999
 30
0.0
 11
320.046607
 21
199.334308
 31
0.0
  0
LINE
  5
AA48
330
A87D
100
AcDbEntity
  8
1
  6
Continuous
100
AcDbLine
 10
325.5314349999999
 20
195.4343279999999
 30
0.0
 11
325.5314349999999
 21
199.334308
 31
0.0
  0
LINE
  5
AA49
330
A87D
100
AcDbEntity
  8
1
  6
Continuous
100
AcDbLine
 10
323.228133
 20
190.0222369999999
 30
0.0
 11
321.424863
 21
191.604507
 31
0.0
  0
LINE
  5
AA4A
330
A87D
100
AcDbEntity
  8
1
  6
Continuous
100
AcDbLine
 10
321.424863
 20
190.0222369999999
 30
0.0
 11
323.228133
 21
191.604507
 31
0.0
  0
LINE
  5
AA4B
330
A87D
100
AcDbEntity
  8
1
  6
Continuous
100
AcDbLine
 10
325.3494539999999
 20
190.0222369999999
 30
0.0
 11
323.5461839999999
 21
191.604507
 31
0.0
  0
LINE
  5
AA4C
330
A87D
100
AcDbEntity
  8
1
  6
Continuous
100
AcDbLine
 10
323.5461839999999
 20
190.0222369999999
 30
0.0
 11
325.3494539999999
 21
191.604507
 31
0.0
  0
LINE
  5
AA4D
330
A87D
100
AcDbEntity
  8
1
  6
Continuous
100
AcDbLine
 10
329.5920939999998
 20
190.0222369999999
 30
0.0
 11
327.7888239999999
 21
191.604507
 31
0.0
  0
LINE
  5
AA4E
330
A87D
100
AcDbEntity
  8
1
  6
Continuous
100
AcDbLine
 10
327.7888239999999
 20
190.0222369999999
 30
0.0
 11
329.5920939999998
 21
191.604507
 31
0.0
  0
ARC
  5
AA4F
330
A87D
100
AcDbEntity
  8
1
  6
Continuous
100
AcDbCircle
 10
326.7608559999998
 20
192.9343279999999
 30
0.0
 40
2.5
100
AcDbArc
 50
10.141019
 51
90.0
  0
LINE
  5
AA50
330
A87D
100
AcDbEntity
  8
1
  6
Continuous
100
AcDbLine
 10
327.470774
 20
190.0222369999999
 30
0.0
 11
325.667504
 21
191.604507
 31
0.0
  0
LINE
  5
AA51
330
A87D
100
AcDbEntity
  8
1
  6
Continuous
100
AcDbLine
 10
325.667504
 20
190.0222369999999
 30
0.0
 11
327.470774
 21
191.604507
 31
0.0
  0
LINE
  5
AA52
330
A87D
100
AcDbEntity
  8
1
  6
Continuous
100
AcDbLine
 10
330.81178
 20
191.604507
 30
0.0
 11
330.81178
 21
190.0222369999999
 31
0.0
  0
LINE
  5
AA53
330
A87D
100
AcDbEntity
  8
1
  6
Continuous
100
AcDbLine
 10
329.910145
 20
191.604507
 30
0.0
 11
330.81178
 21
190.9238719999999
 31
0.0
  0
LINE
  5
AA54
330
A87D
100
AcDbEntity
  8
1
  6
Continuous
100
AcDbLine
 10
329.910145
 20
190.0222369999999
 30
0.0
 11
330.81178
 21
190.9238719999999
 31
0.0
  0
ARC
  5
AA55
330
A87D
100
AcDbEntity
  8
1
  6
Continuous
100
AcDbCircle
 10
328.213585
 20
193.129706
 30
0.0
 40
2.371570999999998
100
AcDbArc
 50
319.959594
 51
351.9797889999999
  0
ARC
  5
AA56
330
A87D
100
AcDbEntity
  8
1
  6
Continuous
100
AcDbCircle
 10
329.5314489999999
 20
192.417495
 30
0.0
 40
1.098799999999998
100
AcDbArc
 50
20.306161
 51
60.57047500000001
  0
LINE
  5
AA57
330
A87D
100
AcDbEntity
  8
1
  6
Continuous
100
AcDbLine
 10
335.2842799999999
 20
187.1390279999999
 30
0.0
 11
335.8492799999999
 21
187.1490279999999
 31
0.0
  0
LINE
  5
AA58
330
A87D
100
AcDbEntity
  8
1
  6
Continuous
100
AcDbLine
 10
334.68928
 20
187.159028
 30
0.0
 11
335.2842799999999
 21
187.1390279999999
 31
0.0
  0
LINE
  5
AA59
330
A87D
100
AcDbEntity
  8
1
  6
Continuous
100
AcDbLine
 10
335.8492799999999
 20
187.1490279999999
 30
0.0
 11
339.0676079999999
 21
187.213395
 31
0.0
  0
ARC
  5
AA5A
330
A87D
100
AcDbEntity
  8
1
  6
Continuous
100
AcDbCircle
 10
331.0335919999999
 20
189.2450619999999
 30
0.0
 40
2.042368999999998
100
AcDbArc
 50
199.821809
 51
269.3179399999999
  0
LINE
  5
AA5B
330
A87D
100
AcDbEntity
  8
1
  6
Continuous
100
AcDbLine
 10
333.6642799999999
 20
187.204028
 30
0.0
 11
333.8492799999999
 21
187.1690279999999
 31
0.0
  0
LINE
  5
AA5C
330
A87D
100
AcDbEntity
  8
1
  6
Continuous
100
AcDbLine
 10
333.49428
 20
187.289028
 30
0.0
 11
333.6642799999999
 21
187.204028
 31
0.0
  0
LINE
  5
AA5D
330
A87D
100
AcDbEntity
  8
1
  6
Continuous
100
AcDbLine
 10
333.1542799999998
 20
187.4890279999999
 30
0.0
 11
333.49428
 21
187.289028
 31
0.0
  0
LINE
  5
AA5E
330
A87D
100
AcDbEntity
  8
1
  6
Continuous
100
AcDbLine
 10
333.00928
 20
187.9240279999999
 30
0.0
 11
333.1542799999998
 21
187.4890279999999
 31
0.0
  0
ARC
  5
AA5F
330
A87D
100
AcDbEntity
  8
1
  6
Continuous
100
AcDbCircle
 10
328.9160949999999
 20
186.1738349999999
 30
0.0
 40
4.451666999999998
100
AcDbArc
 50
23.150932
 51
38.25670199999999
  0
ARC
  5
AA60
330
A87D
100
AcDbEntity
  8
1
  6
Continuous
100
AcDbCircle
 10
329.846989
 20
186.907869
 30
0.0
 40
3.266183999999998
100
AcDbArc
 50
38.25670199999999
 51
72.462293
  0
LINE
  5
AA61
330
A87D
100
AcDbEntity
  8
1
  6
Continuous
100
AcDbLine
 10
331.00928
 20
187.2028379999999
 30
0.0
 11
334.68928
 21
187.159028
 31
0.0
  0
LINE
  5
AA62
330
A87D
100
AcDbEntity
  8
1
  6
Continuous
100
AcDbLine
 10
312.621532
 20
190.0222369999999
 30
0.0
 11
310.818262
 21
191.604507
 31
0.0
  0
LINE
  5
AA63
330
A87D
100
AcDbEntity
  8
1
  6
Continuous
100
AcDbLine
 10
310.818262
 20
190.0222369999999
 30
0.0
 11
312.621532
 21
191.604507
 31
0.0
  0
LINE
  5
AA64
330
A87D
100
AcDbEntity
  8
1
  6
Continuous
100
AcDbLine
 10
310.500211
 20
190.0222369999999
 30
0.0
 11
308.696941
 21
191.604507
 31
0.0
  0
LINE
  5
AA65
330
A87D
100
AcDbEntity
  8
1
  6
Continuous
100
AcDbLine
 10
308.696941
 20
190.0222369999999
 30
0.0
 11
310.500211
 21
191.604507
 31
0.0
  0
LINE
  5
AA66
330
A87D
100
AcDbEntity
  8
1
  6
Continuous
100
AcDbLine
 10
318.985493
 20
190.0222369999999
 30
0.0
 11
317.182223
 21
191.604507
 31
0.0
  0
LINE
  5
AA67
330
A87D
100
AcDbEntity
  8
1
  6
Continuous
100
AcDbLine
 10
317.182223
 20
190.0222369999999
 30
0.0
 11
318.985493
 21
191.604507
 31
0.0
  0
LINE
  5
AA68
330
A87D
100
AcDbEntity
  8
1
  6
Continuous
100
AcDbLine
 10
321.106813
 20
190.0222369999999
 30
0.0
 11
319.303543
 21
191.604507
 31
0.0
  0
LINE
  5
AA69
330
A87D
100
AcDbEntity
  8
1
  6
Continuous
100
AcDbLine
 10
319.303543
 20
190.0222369999999
 30
0.0
 11
321.106813
 21
191.604507
 31
0.0
  0
LINE
  5
AA6A
330
A87D
100
AcDbEntity
  8
1
  6
Continuous
100
AcDbLine
 10
316.864172
 20
190.0222369999999
 30
0.0
 11
315.060902
 21
191.604507
 31
0.0
  0
LINE
  5
AA6B
330
A87D
100
AcDbEntity
  8
1
  6
Continuous
100
AcDbLine
 10
315.060902
 20
190.0222369999999
 30
0.0
 11
316.864172
 21
191.604507
 31
0.0
  0
LINE
  5
AA6C
330
A87D
100
AcDbEntity
  8
1
  6
Continuous
100
AcDbLine
 10
314.742852
 20
190.0222369999999
 30
0.0
 11
312.9395819999999
 21
191.604507
 31
0.0
  0
LINE
  5
AA6D
330
A87D
100
AcDbEntity
  8
1
  6
Continuous
100
AcDbLine
 10
312.9395819999999
 20
190.0222369999999
 30
0.0
 11
314.742852
 21
191.604507
 31
0.0
  0
LINE
  5
AA6E
330
A87D
100
AcDbEntity
  8
1
  6
Continuous
100
AcDbLine
 10
309.5617799999998
 20
214.334308
 30
0.0
 11
308.56178
 21
213.3343079999999
 31
0.0
  0
LINE
  5
AA6F
330
A87D
100
AcDbEntity
  8
1
  6
Continuous
100
AcDbLine
 10
319.5617799999999
 20
214.334308
 30
0.0
 11
320.56178
 21
213.3343079999999
 31
0.0
  0
LINE
  5
AA70
330
A87D
100
AcDbEntity
  8
1
  6
Continuous
100
AcDbLine
 10
320.56178
 20
213.3343079999999
 30
0.0
 11
308.56178
 21
213.3343079999999
 31
0.0
  0
LINE
  5
AA71
330
A87D
100
AcDbEntity
  8
1
  6
Continuous
100
AcDbLine
 10
319.5617799999999
 20
214.334308
 30
0.0
 11
309.5617799999998
 21
214.334308
 31
0.0
  0
LINE
  5
AA72
330
A87D
100
AcDbEntity
  8
1
  6
Continuous
100
AcDbLine
 10
320.56178
 20
199.334308
 30
0.0
 11
320.56178
 21
213.3343079999999
 31
0.0
  0
LINE
  5
AA73
330
A87D
100
AcDbEntity
  8
1
  6
Continuous
100
AcDbLine
 10
308.56178
 20
199.334308
 30
0.0
 11
308.56178
 21
213.3343079999999
 31
0.0
  0
LINE
  5
AA74
330
A87D
100
AcDbEntity
  8
1
  6
Continuous
100
AcDbLine
 10
303.592125
 20
195.4343279999999
 30
0.0
 11
303.592125
 21
199.334308
 31
0.0
  0
LINE
  5
AA75
330
A87D
100
AcDbEntity
  8
1
  6
Continuous
100
AcDbLine
 10
304.13625
 20
190.0222369999999
 30
0.0
 11
302.3329799999999
 21
191.604507
 31
0.0
  0
LINE
  5
AA76
330
A87D
100
AcDbEntity
  8
1
  6
Continuous
100
AcDbLine
 10
302.3329799999999
 20
190.0222369999999
 30
0.0
 11
304.13625
 21
191.604507
 31
0.0
  0
LINE
  5
AA77
330
A87D
100
AcDbEntity
  8
1
  6
Continuous
100
AcDbLine
 10
306.2575709999999
 20
190.0222369999999
 30
0.0
 11
304.4542999999998
 21
191.604507
 31
0.0
  0
LINE
  5
AA78
330
A87D
100
AcDbEntity
  8
1
  6
Continuous
100
AcDbLine
 10
304.4542999999998
 20
190.0222369999999
 30
0.0
 11
306.2575709999999
 21
191.604507
 31
0.0
  0
LINE
  5
AA79
330
A87D
100
AcDbEntity
  8
1
  6
Continuous
100
AcDbLine
 10
299.8936089999999
 20
190.0222369999999
 30
0.0
 11
298.31178
 21
191.3830659999999
 31
0.0
  0
LINE
  5
AA7A
330
A87D
100
AcDbEntity
  8
1
  6
Continuous
100
AcDbLine
 10
298.31178
 20
190.2436769999999
 30
0.0
 11
299.8936089999999
 21
191.604507
 31
0.0
  0
ARC
  5
AA7B
330
A87D
100
AcDbEntity
  8
1
  6
Continuous
100
AcDbCircle
 10
300.9099739999999
 20
193.129706
 30
0.0
 40
2.371570999999998
100
AcDbArc
 50
188.020211
 51
220.040406
  0
ARC
  5
AA7C
330
A87D
100
AcDbEntity
  8
1
  6
Continuous
100
AcDbCircle
 10
299.5921099999998
 20
192.417495
 30
0.0
 40
1.098799999999998
100
AcDbArc
 50
119.429525
 51
159.693839
  0
LINE
  5
AA7D
330
A87D
100
AcDbEntity
  8
1
  6
Continuous
100
AcDbLine
 10
298.31178
 20
191.604507
 30
0.0
 11
298.31178
 21
190.0222369999999
 31
0.0
  0
LINE
  5
AA7E
330
A87D
100
AcDbEntity
  8
1
  6
Continuous
100
AcDbLine
 10
302.0149299999999
 20
190.0222369999999
 30
0.0
 11
300.2116599999999
 21
191.604507
 31
0.0
  0
LINE
  5
AA7F
330
A87D
100
AcDbEntity
  8
1
  6
Continuous
100
AcDbLine
 10
300.2116599999999
 20
190.0222369999999
 30
0.0
 11
302.0149299999999
 21
191.604507
 31
0.0
  0
ARC
  5
AA80
330
A87D
100
AcDbEntity
  8
1
  6
Continuous
100
AcDbCircle
 10
302.362743
 20
192.9343279999999
 30
0.0
 40
2.5
100
AcDbArc
 50
90.0
 51
169.858981
  0
LINE
  5
AA81
330
A87D
100
AcDbEntity
  8
1
  6
Continuous
100
AcDbLine
 10
295.7117799999998
 20
183.326367
 30
0.0
 11
296.0483599999998
 21
187.440998
 31
0.0
  0
LINE
  5
AA82
330
A87D
100
AcDbEntity
  8
1
  6
Continuous
100
AcDbLine
 10
295.9622799999999
 20
183.326367
 30
0.0
 11
295.7117799999998
 21
183.326367
 31
0.0
  0
LINE
  5
AA83
330
A87D
100
AcDbEntity
  8
1
  6
Continuous
100
AcDbLine
 10
296.7112799999998
 20
183.284028
 30
0.0
 11
297.37628
 21
183.239028
 31
0.0
  0
ARC
  5
AA84
330
A87D
100
AcDbEntity
  8
1
  6
Continuous
100
AcDbCircle
 10
298.781266
 20
187.440998
 30
0.0
 40
2.732905
100
AcDbArc
 50
109.1778389999999
 51
180.0
  0
LINE
  5
AA85
330
A87D
100
AcDbEntity
  8
1
  6
Continuous
100
AcDbLine
 10
295.9622799999999
 20
183.326367
 30
0.0
 11
296.7112799999998
 21
183.284028
 31
0.0
  0
LINE
  5
AA86
330
A87D
100
AcDbEntity
  8
1
  6
Continuous
100
AcDbLine
 10
297.5992799999999
 20
183.2990279999999
 30
0.0
 11
301.182161
 21
183.2990279999999
 31
0.0
  0
LINE
  5
AA87
330
A87D
100
AcDbEntity
  8
1
  6
Continuous
100
AcDbLine
 10
297.37628
 20
183.239028
 30
0.0
 11
297.5992799999999
 21
183.2990279999999
 31
0.0
  0
ARC
  5
AA88
330
A87D
100
AcDbEntity
  8
1
  6
Continuous
100
AcDbCircle
 10
301.182161
 20
177.796123
 30
0.0
 40
5.502905999999999
100
AcDbArc
 50
45.952998
 51
90.0
  0
CIRCLE
  5
AA89
330
A87D
100
AcDbEntity
  8
1
  6
Continuous
100
AcDbCircle
 10
333.56178
 20
157.3342369999998
 30
0.0
 40
4.25
  0
LINE
  5
AA8A
330
A87D
100
AcDbEntity
  8
2
  6
Continuous
100
AcDbLine
 10
42.542549
 20
214.010712
 30
0.0
 11
42.542549
 21
200.50601
 31
0.0
  0
LINE
  5
AA8B
330
A87D
100
AcDbEntity
  8
2
  6
Continuous
100
AcDbLine
 10
53.189549
 20
214.010712
 30
0.0
 11
53.189549
 21
200.50601
 31
0.0
  0
LINE
  5
AA8C
330
A87D
100
AcDbEntity
  8
2
  6
Continuous
100
AcDbLine
 10
146.841126
 20
214.010808
 30
0.0
 11
146.841126
 21
200.506106
 31
0.0
  0
LINE
  5
AA8D
330
A87D
100
AcDbEntity
  8
2
  6
Continuous
100
AcDbLine
 10
157.4881259999999
 20
214.010808
 30
0.0
 11
157.4881259999999
 21
200.506106
 31
0.0
  0
LINE
  5
AA8E
330
A87D
100
AcDbEntity
  8
2
  6
Continuous
100
AcDbLine
 10
228.0397029999999
 20
214.0107109999999
 30
0.0
 11
228.0397029999999
 21
200.506009
 31
0.0
  0
LINE
  5
AA8F
330
A87D
100
AcDbEntity
  8
2
  6
Continuous
100
AcDbLine
 10
238.6867029999999
 20
214.0107109999999
 30
0.0
 11
238.6867029999999
 21
200.506009
 31
0.0
  0
LINE
  5
AA90
330
A87D
100
AcDbEntity
  8
2
  6
Continuous
100
AcDbLine
 10
309.2382799999999
 20
214.010808
 30
0.0
 11
309.2382799999999
 21
200.506106
 31
0.0
  0
LINE
  5
AA91
330
A87D
100
AcDbEntity
  8
2
  6
Continuous
100
AcDbLine
 10
319.8852799999999
 20
214.010808
 30
0.0
 11
319.8852799999999
 21
200.506106
 31
0.0
  0
CIRCLE
  5
AA92
330
A87D
100
AcDbEntity
  8
2
  6
Continuous
100
AcDbCircle
 10
152.164619
 20
276.217462
 30
0.0
 40
5.3235
  0
LINE
  5
AA93
330
A87D
100
AcDbEntity
  8
1
  6
Continuous
100
AcDbLine
 10
41.86601099999999
 20
200.50601
 30
0.0
 11
53.866011
 21
200.50601
 31
0.0
  0
LINE
  5
AA94
330
A87D
100
AcDbEntity
  8
2
  6
Continuous
100
AcDbLine
 10
41.86601099999999
 20
199.334212
 30
0.0
 11
42.542549
 21
200.50601
 31
0.0
  0
LINE
  5
AA95
330
A87D
100
AcDbEntity
  8
2
  6
Continuous
100
AcDbLine
 10
53.866011
 20
199.334212
 30
0.0
 11
53.189473
 21
200.50601
 31
0.0
  0
LINE
  5
AA96
330
A87D
100
AcDbEntity
  8
1
  6
Continuous
100
AcDbLine
 10
146.1645879999998
 20
200.506106
 30
0.0
 11
158.1645879999999
 21
200.506106
 31
0.0
  0
LINE
  5
AA97
330
A87D
100
AcDbEntity
  8
2
  6
Continuous
100
AcDbLine
 10
146.1645879999998
 20
199.334308
 30
0.0
 11
146.841126
 21
200.506106
 31
0.0
  0
LINE
  5
AA98
330
A87D
100
AcDbEntity
  8
2
  6
Continuous
100
AcDbLine
 10
158.1645879999999
 20
199.334308
 30
0.0
 11
157.4880499999999
 21
200.506106
 31
0.0
  0
LINE
  5
AA99
330
A87D
100
AcDbEntity
  8
1
  6
Continuous
100
AcDbLine
 10
227.363165
 20
200.506009
 30
0.0
 11
239.3631649999999
 21
200.506009
 31
0.0
  0
LINE
  5
AA9A
330
A87D
100
AcDbEntity
  8
2
  6
Continuous
100
AcDbLine
 10
227.363165
 20
199.334211
 30
0.0
 11
228.0397029999999
 21
200.506009
 31
0.0
  0
LINE
  5
AA9B
330
A87D
100
AcDbEntity
  8
2
  6
Continuous
100
AcDbLine
 10
239.3631649999999
 20
199.334211
 30
0.0
 11
238.686627
 21
200.506009
 31
0.0
  0
LINE
  5
AA9C
330
A87D
100
AcDbEntity
  8
1
  6
Continuous
100
AcDbLine
 10
308.5617419999999
 20
200.506106
 30
0.0
 11
320.5617419999999
 21
200.506106
 31
0.0
  0
LINE
  5
AA9D
330
A87D
100
AcDbEntity
  8
2
  6
Continuous
100
AcDbLine
 10
308.5617419999999
 20
199.334308
 30
0.0
 11
309.2382799999999
 21
200.506106
 31
0.0
  0
LINE
  5
AA9E
330
A87D
100
AcDbEntity
  8
2
  6
Continuous
100
AcDbLine
 10
320.5617419999999
 20
199.334308
 30
0.0
 11
319.8852039999998
 21
200.506106
 31
0.0
  0
LINE
  5
AA9F
330
A87D
100
AcDbEntity
  8
1
  6
Continuous
100
AcDbLine
 10
129.8928389999999
 20
288.717462
 30
0.0
 11
126.07531
 21
288.717462
 31
0.0
  0
LINE
  5
AAA0
330
A87D
100
AcDbEntity
  8
1
  6
Continuous
100
AcDbLine
 10
138.119597
 20
290.7177019999998
 30
0.0
 11
126.07531
 21
290.7177019999998
 31
0.0
  0
LINE
  5
AAA1
330
A87D
100
AcDbEntity
  8
1
  6
Continuous
100
AcDbLine
 10
138.119597
 20
261.717222
 30
0.0
 11
126.07531
 21
261.717222
 31
0.0
  0
LINE
  5
AAA2
330
A87D
100
AcDbEntity
  8
1
  6
Continuous
100
AcDbLine
 10
129.8928389999999
 20
263.717462
 30
0.0
 11
126.07531
 21
263.717462
 31
0.0
  0
LINE
  5
AAA3
330
A87D
100
AcDbEntity
  8
1
  6
Continuous
100
AcDbLine
 10
126.07531
 20
261.717222
 30
0.0
 11
126.07531
 21
263.717462
 31
0.0
  0
LINE
  5
AAA4
330
A87D
100
AcDbEntity
  8
1
  6
Continuous
100
AcDbLine
 10
126.07531
 20
288.717462
 30
0.0
 11
126.07531
 21
290.7177019999998
 31
0.0
  0
ARC
  5
AAA5
330
A87D
100
AcDbEntity
  8
1
  6
Continuous
100
AcDbCircle
 10
138.119597
 20
296.7177019999999
 30
0.0
 40
6.0
100
AcDbArc
 50
270.0
 51
304.415629
  0
ARC
  5
AAA6
330
A87D
100
AcDbEntity
  8
1
  6
Continuous
100
AcDbCircle
 10
138.119597
 20
255.7172219999999
 30
0.0
 40
6.0
100
AcDbArc
 50
55.58437099999999
 51
90.0
  0
ENDSEC
  0
SECTION
  2
OBJECTS
  0
DICTIONARY
  5
A86B
330
0
100
AcDbDictionary
281
     1
  3
ACAD_CIP_PREVIOUS_PRODUCT_INFO
350
AB08
  3
ACAD_COLOR
350
AAEA
  3
ACAD_DETAILVIEWSTYLE
350
AB03
  3
ACAD_GROUP
350
A86C
  3
ACAD_LAYOUT
350
A878
  3
ACAD_MATERIAL
350
AAB8
  3
ACAD_MLEADERSTYLE
350
AAFF
  3
ACAD_MLINESTYLE
350
A875
  3
ACAD_PLOTSETTINGS
350
A877
  3
ACAD_PLOTSTYLENAME
350
AAB6
  3
ACAD_SCALELIST
350
AAED
  3
ACAD_SECTIONVIEWSTYLE
350
AB01
  3
ACAD_TABLESTYLE
350
AAEB
  3
ACAD_VISUALSTYLE
350
AAD1
  3
ACDB_RECOMPOSE_DATA
350
AB26
  3
AcDbVariableDictionary
350
AB19
  3
DWGPROPS
350
AB27
  0
DICTIONARY
  5
AB09
330
A86F
100
AcDbDictionary
280
     1
281
     1
  3
ADSK_XREC_LAYER_RECONCILED
360
AB0A
  0
DICTIONARY
  5
AB0B
330
A885
100
AcDbDictionary
280
     1
281
     1
  3
ADSK_XREC_LAYER_RECONCILED
360
AB0C
  0
DICTIONARY
  5
AB0D
330
A886
100
AcDbDictionary
280
     1
281
     1
  3
ADSK_XREC_LAYER_RECONCILED
360
AB0E
  0
DICTIONARY
  5
AB0F
330
A887
100
AcDbDictionary
280
     1
281
     1
  3
ADSK_XREC_LAYER_RECONCILED
360
AB10
  0
DICTIONARY
  5
AB11
330
A888
100
AcDbDictionary
280
     1
281
     1
  3
ADSK_XREC_LAYER_RECONCILED
360
AB12
  0
DICTIONARY
  5
AB13
330
A889
100
AcDbDictionary
280
     1
281
     1
  3
ADSK_XREC_LAYER_RECONCILED
360
AB14
  0
DICTIONARY
  5
AB15
330
A88A
100
AcDbDictionary
280
     1
281
     1
  3
ADSK_XREC_LAYER_RECONCILED
360
AB16
  0
DICTIONARY
  5
AB17
330
A88B
100
AcDbDictionary
280
     1
281
     1
  3
ADSK_XREC_LAYER_RECONCILED
360
AB18
  0
DICTIONARY
  5
AAB1
330
A87D
100
AcDbDictionary
281
     1
  3
ACAD_LAYOUTSELFREF
350
AAB2
  0
DICTIONARY
  5
AAAF
330
A879
100
AcDbDictionary
281
     1
  3
ACAD_LAYOUTSELFREF
350
AAB0
  0
XRECORD
  5
AB08
102
{ACAD_REACTORS
330
A86B
102
}
330
A86B
100
AcDbXrecord
280
     1
300
ACDLT
300
2014
300
ACDLT_F_S
  0
DICTIONARY
  5
AAEA
102
{ACAD_REACTORS
330
A86B
102
}
330
A86B
100
AcDbDictionary
281
     1
  0
DICTIONARY
  5
AB03
102
{ACAD_REACTORS
330
A86B
102
}
330
A86B
100
AcDbDictionary
281
     1
  3
Imperial24
350
AB04
  0
DICTIONARY
  5
A86C
102
{ACAD_REACTORS
330
A86B
102
}
330
A86B
100
AcDbDictionary
281
     1
  0
DICTIONARY
  5
A878
102
{ACAD_REACTORS
330
A86B
102
}
330
A86B
100
AcDbDictionary
281
     1
  3
Model
350
AB05
  3
レイアウト1
350
AB06
  0
DICTIONARY
  5
AAB8
102
{ACAD_REACTORS
330
A86B
102
}
330
A86B
100
AcDbDictionary
281
     1
  3
ByBlock
350
AAC1
  3
ByLayer
350
AAB9
  3
Global
350
AAC9
  0
DICTIONARY
  5
AAFF
102
{ACAD_REACTORS
330
A86B
102
}
330
A86B
100
AcDbDictionary
281
     1
  3
Standard
350
AB00
  0
DICTIONARY
  5
A875
102
{ACAD_REACTORS
330
A86B
102
}
330
A86B
100
AcDbDictionary
281
     1
  3
STANDARD
350
A876
  0
DICTIONARY
  5
A877
102
{ACAD_REACTORS
330
A86B
102
}
330
A86B
100
AcDbDictionary
281
     1
  0
ACDBDICTIONARYWDFLT
  5
AAB6
102
{ACAD_REACTORS
330
A86B
102
}
330
A86B
100
AcDbDictionary
281
     1
  3
Normal
350
AAB7
100
AcDbDictionaryWithDefault
340
AAB7
  0
DICTIONARY
  5
AAED
102
{ACAD_REACTORS
330
A86B
102
}
330
A86B
100
AcDbDictionary
281
     1
  3
A0
350
AAEE
  3
A1
350
AAEF
  3
A2
350
AAF0
  3
A3
350
AAF1
  3
A4
350
AAF2
  3
A5
350
AAF3
  3
A6
350
AAF4
  3
A7
350
AAF5
  3
A8
350
AAF6
  3
A9
350
AAF7
  3
B0
350
AAF8
  3
B1
350
AAF9
  3
B2
350
AAFA
  3
B3
350
AAFB
  3
B4
350
AAFC
  3
B5
350
AAFD
  3
B6
350
AAFE
  0
DICTIONARY
  5
AB01
102
{ACAD_REACTORS
330
A86B
102
}
330
A86B
100
AcDbDictionary
281
     1
  3
Imperial24
350
AB02
  0
DICTIONARY
  5
AAEB
102
{ACAD_REACTORS
330
A86B
102
}
330
A86B
100
AcDbDictionary
281
     1
  3
Standard
350
AAEC
  0
DICTIONARY
  5
AAD1
102
{ACAD_REACTORS
330
A86B
102
}
330
A86B
100
AcDbDictionary
281
     1
  3
2dWireframe
350
AAD7
  3
Basic
350
AAD6
  3
Brighten
350
AADD
  3
ColorChange
350
AAE1
  3
Conceptual
350
AADA
  3
Dim
350
AADC
  3
EdgeColorOff
350
AAE9
  3
Facepattern
350
AAE0
  3
Flat
350
AAD2
  3
FlatWithEdges
350
AAD3
  3
Gouraud
350
AAD4
  3
GouraudWithEdges
350
AAD5
  3
Hidden
350
AAD9
  3
JitterOff
350
AAE7
  3
Linepattern
350
AADF
  3
OverhangOff
350
AAE8
  3
Realistic
350
AADB
  3
Shaded
350
AAE6
  3
Shaded with edges
350
AAE5
  3
Shades of Gray
350
AAE2
  3
Sketchy
350
AAE3
  3
Thicken
350
AADE
  3
Wireframe
350
AAD8
  3
X-Ray
350
AAE4
  0
XRECORD
  5
AB26
102
{ACAD_REACTORS
330
A86B
102
}
330
A86B
100
AcDbXrecord
280
     1
 90
        1
330
AAEC
  0
DICTIONARY
  5
AB19
102
{ACAD_REACTORS
330
A86B
102
}
330
A86B
100
AcDbDictionary
281
     1
  3
CANNOSCALE
350
AB1E
  3
CMLEADERSTYLE
350
AB1B
  3
CTABLESTYLE
350
AB1A
  3
CVIEWDETAILSTYLE
350
AB1C
  3
CVIEWSECTIONSTYLE
350
AB1D
  3
DIMASSOC
350
AB21
  3
INDEXCTL
350
AB20
  3
SORTENTS
350
AB1F
  3
XCLIPFRAME
350
AB22
  0
XRECORD
  5
AB27
102
{ACAD_REACTORS
330
A86B
102
}
330
A86B
100
AcDbXrecord
280
     1
  1
DWGPROPS COOKIE
  2

  3

  4

  6

  7

  8
Yoshitsune
  9

300
=
301
=
302
=
303
=
304
=
305
=
306
=
307
=
308
=
309
=
 40
0.0000094097222222
 41
2451302.666340278
 42
2457192.687877395
  1

 90
        0
  0
XRECORD
  5
AB0A
102
{ACAD_REACTORS
330
AB09
102
}
330
AB09
100
AcDbXrecord
280
     1
290
     1
  0
XRECORD
  5
AB0C
102
{ACAD_REACTORS
330
AB0B
102
}
330
AB0B
100
AcDbXrecord
280
     1
290
     1
  0
XRECORD
  5
AB0E
102
{ACAD_REACTORS
330
AB0D
102
}
330
AB0D
100
AcDbXrecord
280
     1
290
     1
  0
XRECORD
  5
AB10
102
{ACAD_REACTORS
330
AB0F
102
}
330
AB0F
100
AcDbXrecord
280
     1
290
     1
  0
XRECORD
  5
AB12
102
{ACAD_REACTORS
330
AB11
102
}
330
AB11
100
AcDbXrecord
280
     1
290
     1
  0
XRECORD
  5
AB14
102
{ACAD_REACTORS
330
AB13
102
}
330
AB13
100
AcDbXrecord
280
     1
290
     1
  0
XRECORD
  5
AB16
102
{ACAD_REACTORS
330
AB15
102
}
330
AB15
100
AcDbXrecord
280
     1
290
     1
  0
XRECORD
  5
AB18
102
{ACAD_REACTORS
330
AB17
102
}
330
AB17
100
AcDbXrecord
280
     1
290
     1
  0
XRECORD
  5
AAB2
102
{ACAD_REACTORS
330
AAB1
102
}
330
AAB1
100
AcDbXrecord
280
     1
340
A87D
  0
XRECORD
  5
AAB0
102
{ACAD_REACTORS
330
AAAF
102
}
330
AAAF
100
AcDbXrecord
280
     1
340
A879
  0
ACDBDETAILVIEWSTYLE
  5
AB04
102
{ACAD_XDICTIONARY
360
AB5F
102
}
102
{ACAD_REACTORS
330
AB03
102
}
330
AB03
100
AcDbModelDocViewStyle
 70
     0
  3
Imperial24
290
     0
100
AcDbDetailViewStyle
 70
     0
 71
     0
 90
        3
 71
     1
340
A870
 40
0.24
340
0
 40
0.24
300

 40
0.36
280
     3
 71
     2
340
A874
 90
       25
 71
     3
340
A870
 40
0.24
 90
        1
 40
0.75
 90
        1
300
%<\AcVar ViewType \f "%tc1">% %<\AcVar ViewDetailId>%\PSCALE %<\AcVar ViewScale \f "%sn">%
 71
     4
340
A874
 90
       25
340
A874
 90
       25
280
     0
  0
LAYOUT
  5
AB05
102
{ACAD_XDICTIONARY
360
AB61
102
}
102
{ACAD_REACTORS
330
A878
102
}
330
A878
100
AcDbPlotSettings
  1

  2
Canon LBP9100C
  4

  6

 40
0.0
 41
0.0
 42
0.0
 43
0.0
 44
0.0
 45
0.0
 46
0.0
 47
0.0
 48
0.0
 49
0.0
140
0.0
141
0.0
142
1.0
143
1.0
 70
  1712
 72
     0
 73
     0
 74
     0
  7

 75
     0
147
1.0
148
0.0
149
0.0
100
AcDbLayout
  1
Model
 70
     1
 71
     0
 10
0.0
 20
0.0
 11
12.0
 21
9.0
 12
0.0
 22
0.0
 32
0.0
 14
0.0
 24
0.0
 34
0.0
 15
0.0
 25
0.0
 35
0.0
146
0.0
 13
0.0
 23
0.0
 33
0.0
 16
1.0
 26
0.0
 36
0.0
 17
0.0
 27
1.0
 37
0.0
 76
     0
330
A87D
331
AAAE
  0
LAYOUT
  5
AB06
102
{ACAD_XDICTIONARY
360
AB63
102
}
102
{ACAD_REACTORS
330
A878
102
}
330
A878
100
AcDbPlotSettings
  1

  2
Canon LBP9100C
  4

  6

 40
0.0
 41
0.0
 42
0.0
 43
0.0
 44
0.0
 45
0.0
 46
0.0
 47
0.0
 48
0.0
 49
0.0
140
0.0
141
0.0
142
1.0
143
1.0
 70
   688
 72
     0
 73
     0
 74
     5
  7

 75
    16
147
1.0
148
0.0
149
0.0
100
AcDbLayout
  1
レイアウト1
 70
     0
 71
     1
 10
0.0
 20
0.0
 11
420.0
 21
297.0
 12
0.0
 22
0.0
 32
0.0
 14
1.000000000000000E+20
 24
1.000000000000000E+20
 34
1.000000000000000E+20
 15
-1.000000000000000E+20
 25
-1.000000000000000E+20
 35
-1.000000000000000E+20
146
0.0
 13
0.0
 23
0.0
 33
0.0
 16
1.0
 26
0.0
 36
0.0
 17
0.0
 27
1.0
 37
0.0
 76
     0
330
A879
  0
MATERIAL
  5
AAC1
102
{ACAD_XDICTIONARY
360
AAC2
102
}
102
{ACAD_REACTORS
330
AAB8
102
}
330
AAB8
100
AcDbMaterial
  1
ByBlock
 72
     0
 43
0.0208333333333333
 43
0.0
 43
0.0
 43
0.0
 43
0.0
 43
0.0208333333333333
 43
0.0
 43
0.0
 43
0.0
 43
0.0
 43
1.0
 43
0.0
 43
0.0
 43
0.0
 43
0.0
 43
1.0
 77
     0
 47
0.0208333333333333
 47
0.0
 47
0.0
 47
0.0
 47
0.0
 47
0.0208333333333333
 47
0.0
 47
0.0
 47
0.0
 47
0.0
 47
1.0
 47
0.0
 47
0.0
 47
0.0
 47
0.0
 47
1.0
171
     0
 49
0.0208333333333333
 49
0.0
 49
0.0
 49
0.0
 49
0.0
 49
0.0208333333333333
 49
0.0
 49
0.0
 49
0.0
 49
0.0
 49
1.0
 49
0.0
 49
0.0
 49
0.0
 49
0.0
 49
1.0
175
     0
142
0.0208333333333333
142
0.0
142
0.0
142
0.0
142
0.0
142
0.0208333333333333
142
0.0
142
0.0
142
0.0
142
0.0
142
1.0
142
0.0
142
0.0
142
0.0
142
0.0
142
1.0
179
     0
144
0.0208333333333333
144
0.0
144
0.0
144
0.0
144
0.0
144
0.0208333333333333
144
0.0
144
0.0
144
0.0
144
0.0
144
1.0
144
0.0
144
0.0
144
0.0
144
0.0
144
1.0
147
0.0208333333333333
147
0.0
147
0.0
147
0.0
147
0.0
147
0.0208333333333333
147
0.0
147
0.0
147
0.0
147
0.0
147
1.0
147
0.0
147
0.0
147
0.0
147
0.0
147
1.0
  0
MATERIAL
  5
AAB9
102
{ACAD_XDICTIONARY
360
AABA
102
}
102
{ACAD_REACTORS
330
AAB8
102
}
330
AAB8
100
AcDbMaterial
  1
ByLayer
 72
     0
 43
0.0208333333333333
 43
0.0
 43
0.0
 43
0.0
 43
0.0
 43
0.0208333333333333
 43
0.0
 43
0.0
 43
0.0
 43
0.0
 43
1.0
 43
0.0
 43
0.0
 43
0.0
 43
0.0
 43
1.0
 77
     0
 47
0.0208333333333333
 47
0.0
 47
0.0
 47
0.0
 47
0.0
 47
0.0208333333333333
 47
0.0
 47
0.0
 47
0.0
 47
0.0
 47
1.0
 47
0.0
 47
0.0
 47
0.0
 47
0.0
 47
1.0
171
     0
 49
0.0208333333333333
 49
0.0
 49
0.0
 49
0.0
 49
0.0
 49
0.0208333333333333
 49
0.0
 49
0.0
 49
0.0
 49
0.0
 49
1.0
 49
0.0
 49
0.0
 49
0.0
 49
0.0
 49
1.0
175
     0
142
0.0208333333333333
142
0.0
142
0.0
142
0.0
142
0.0
142
0.0208333333333333
142
0.0
142
0.0
142
0.0
142
0.0
142
1.0
142
0.0
142
0.0
142
0.0
142
0.0
142
1.0
179
     0
144
0.0208333333333333
144
0.0
144
0.0
144
0.0
144
0.0
144
0.0208333333333333
144
0.0
144
0.0
144
0.0
144
0.0
144
1.0
144
0.0
144
0.0
144
0.0
144
0.0
144
1.0
147
0.0208333333333333
147
0.0
147
0.0
147
0.0
147
0.0
147
0.0208333333333333
147
0.0
147
0.0
147
0.0
147
0.0
147
1.0
147
0.0
147
0.0
147
0.0
147
0.0
147
1.0
  0
MATERIAL
  5
AAC9
102
{ACAD_XDICTIONARY
360
AACA
102
}
102
{ACAD_REACTORS
330
AAB8
102
}
330
AAB8
100
AcDbMaterial
  1
Global
 72
     0
 43
0.0208333333333333
 43
0.0
 43
0.0
 43
0.0
 43
0.0
 43
0.0208333333333333
 43
0.0
 43
0.0
 43
0.0
 43
0.0
 43
1.0
 43
0.0
 43
0.0
 43
0.0
 43
0.0
 43
1.0
 77
     0
 47
0.0208333333333333
 47
0.0
 47
0.0
 47
0.0
 47
0.0
 47
0.0208333333333333
 47
0.0
 47
0.0
 47
0.0
 47
0.0
 47
1.0
 47
0.0
 47
0.0
 47
0.0
 47
0.0
 47
1.0
171
     0
 49
0.0208333333333333
 49
0.0
 49
0.0
 49
0.0
 49
0.0
 49
0.0208333333333333
 49
0.0
 49
0.0
 49
0.0
 49
0.0
 49
1.0
 49
0.0
 49
0.0
 49
0.0
 49
0.0
 49
1.0
175
     0
142
0.0208333333333333
142
0.0
142
0.0
142
0.0
142
0.0
142
0.0208333333333333
142
0.0
142
0.0
142
0.0
142
0.0
142
1.0
142
0.0
142
0.0
142
0.0
142
0.0
142
1.0
179
     0
144
0.0208333333333333
144
0.0
144
0.0
144
0.0
144
0.0
144
0.0208333333333333
144
0.0
144
0.0
144
0.0
144
0.0
144
1.0
144
0.0
144
0.0
144
0.0
144
0.0
144
1.0
147
0.0208333333333333
147
0.0
147
0.0
147
0.0
147
0.0
147
0.0208333333333333
147
0.0
147
0.0
147
0.0
147
0.0
147
1.0
147
0.0
147
0.0
147
0.0
147
0.0
147
1.0
  0
MLEADERSTYLE
  5
AB00
102
{ACAD_REACTORS
330
AAFF
102
}
330
AAFF
100
AcDbMLeaderStyle
170
     2
171
     1
172
     0
 90
        2
 40
0.0
 41
0.0
173
     1
 91
-1056964608
340
A872
 92
       -2
290
     1
 42
0.09
291
     1
 43
0.36
  3
Standard
 44
0.18
300

342
A870
174
     1
178
     6
175
     1
176
     0
 93
-1056964608
 45
0.18
292
     0
297
     0
 46
0.18
 94
-1056964608
 47
1.0
 49
1.0
140
1.0
293
     1
141
0.0
294
     1
177
     0
142
1.0
295
     0
296
     0
143
0.125
1001
ACAD_MLEADERVER
1070
     2
  0
MLINESTYLE
  5
A876
102
{ACAD_REACTORS
330
A875
102
}
330
A875
100
AcDbMlineStyle
  2
STANDARD
 70
     0
  3

 62
   256
 51
90.0
 52
90.0
 71
     2
 49
0.5
 62
   256
  6
BYLAYER
 49
-0.5
 62
   256
  6
BYLAYER
  0
ACDBPLACEHOLDER
  5
AAB7
102
{ACAD_REACTORS
330
AAB6
102
}
330
AAB6
  0
SCALE
  5
AAEE
102
{ACAD_REACTORS
330
AAED
102
}
330
AAED
100
AcDbScale
 70
     0
300
1:1
140
1.0
141
1.0
290
     1
  0
SCALE
  5
AAEF
102
{ACAD_REACTORS
330
AAED
102
}
330
AAED
100
AcDbScale
 70
     0
300
1/128" = 1'-0"
140
0.0078125
141
12.0
290
     0
  0
SCALE
  5
AAF0
102
{ACAD_REACTORS
330
AAED
102
}
330
AAED
100
AcDbScale
 70
     0
300
1/64" = 1'-0"
140
0.015625
141
12.0
290
     0
  0
SCALE
  5
AAF1
102
{ACAD_REACTORS
330
AAED
102
}
330
AAED
100
AcDbScale
 70
     0
300
1/32" = 1'-0"
140
0.03125
141
12.0
290
     0
  0
SCALE
  5
AAF2
102
{ACAD_REACTORS
330
AAED
102
}
330
AAED
100
AcDbScale
 70
     0
300
1/16" = 1'-0"
140
0.0625
141
12.0
290
     0
  0
SCALE
  5
AAF3
102
{ACAD_REACTORS
330
AAED
102
}
330
AAED
100
AcDbScale
 70
     0
300
3/32" = 1'-0"
140
0.09375
141
12.0
290
     0
  0
SCALE
  5
AAF4
102
{ACAD_REACTORS
330
AAED
102
}
330
AAED
100
AcDbScale
 70
     0
300
1/8" = 1'-0"
140
0.125
141
12.0
290
     0
  0
SCALE
  5
AAF5
102
{ACAD_REACTORS
330
AAED
102
}
330
AAED
100
AcDbScale
 70
     0
300
3/16" = 1'-0"
140
0.1875
141
12.0
290
     0
  0
SCALE
  5
AAF6
102
{ACAD_REACTORS
330
AAED
102
}
330
AAED
100
AcDbScale
 70
     0
300
1/4" = 1'-0"
140
0.25
141
12.0
290
     0
  0
SCALE
  5
AAF7
102
{ACAD_REACTORS
330
AAED
102
}
330
AAED
100
AcDbScale
 70
     0
300
3/8" = 1'-0"
140
0.375
141
12.0
290
     0
  0
SCALE
  5
AAF8
102
{ACAD_REACTORS
330
AAED
102
}
330
AAED
100
AcDbScale
 70
     0
300
1/2" = 1'-0"
140
0.5
141
12.0
290
     0
  0
SCALE
  5
AAF9
102
{ACAD_REACTORS
330
AAED
102
}
330
AAED
100
AcDbScale
 70
     0
300
3/4" = 1'-0"
140
0.75
141
12.0
290
     0
  0
SCALE
  5
AAFA
102
{ACAD_REACTORS
330
AAED
102
}
330
AAED
100
AcDbScale
 70
     0
300
1" = 1'-0"
140
1.0
141
12.0
290
     0
  0
SCALE
  5
AAFB
102
{ACAD_REACTORS
330
AAED
102
}
330
AAED
100
AcDbScale
 70
     0
300
1-1/2" = 1'-0"
140
1.5
141
12.0
290
     0
  0
SCALE
  5
AAFC
102
{ACAD_REACTORS
330
AAED
102
}
330
AAED
100
AcDbScale
 70
     0
300
3" = 1'-0"
140
3.0
141
12.0
290
     0
  0
SCALE
  5
AAFD
102
{ACAD_REACTORS
330
AAED
102
}
330
AAED
100
AcDbScale
 70
     0
300
6" = 1'-0"
140
6.0
141
12.0
290
     0
  0
SCALE
  5
AAFE
102
{ACAD_REACTORS
330
AAED
102
}
330
AAED
100
AcDbScale
 70
     0
300
1'-0" = 1'-0"
140
12.0
141
12.0
290
     0
  0
ACDBSECTIONVIEWSTYLE
  5
AB02
102
{ACAD_XDICTIONARY
360
AB5D
102
}
102
{ACAD_REACTORS
330
AB01
102
}
330
AB01
100
AcDbModelDocViewStyle
 70
     0
  3
Imperial24
290
     0
100
AcDbSectionViewStyle
 70
     0
 71
     0
 90
       78
 71
     1
340
A870
 40
0.24
340
0
340
0
 40
0.24
300
I, O, Q, S, X, Z
 40
0.48
 90
        3
 40
0.18
 90
        1
 71
     2
340
A874
 90
       25
340
A874
 90
       50
 40
0.24
 40
0.0
 40
0.24
 71
     3
340
A870
 40
0.24
 90
        1
 40
0.75
 90
        1
300
%<\AcVar ViewType \f "%tc1">% %<\AcVar ViewSectionStartId>%-%<\AcVar ViewSectionEndId>%\PSCALE %<\AcVar ViewScale \f "%sn">%
 71
     4
300
ANSI31
 40
1.0
 90
        0
290
     0
290
     0
 90
        6
 40
0.0
 40
1.570796326794896
 40
0.2617993877991494
 40
1.308996938995747
 40
-0.2617993877991494
 40
1.832595714594046
  0
TABLESTYLE
  5
AAEC
102
{ACAD_XDICTIONARY
360
AB24
102
}
102
{ACAD_REACTORS
330
AAEB
102
}
330
AAEB
100
AcDbTableStyle
  3
Standard
 70
     0
 71
     0
 40
0.06
 41
0.06
280
     0
281
     0
  7
STANDARD
140
0.18
170
     2
 62
     0
 63
     7
283
     0
274
    -2
284
     1
 64
     0
275
    -2
285
     1
 65
     0
276
    -2
286
     1
 66
     0
277
    -2
287
     1
 67
     0
278
    -2
288
     1
 68
     0
279
    -2
289
     1
 69
     0
  7
STANDARD
140
0.25
170
     5
 62
     0
 63
     7
283
     0
274
    -2
284
     1
 64
     0
275
    -2
285
     1
 65
     0
276
    -2
286
     1
 66
     0
277
    -2
287
     1
 67
     0
278
    -2
288
     1
 68
     0
279
    -2
289
     1
 69
     0
  7
STANDARD
140
0.18
170
     5
 62
     0
 63
     7
283
     0
274
    -2
284
     1
 64
     0
275
    -2
285
     1
 65
     0
276
    -2
286
     1
 66
     0
277
    -2
287
     1
 67
     0
278
    -2
288
     1
 68
     0
279
    -2
289
     1
 69
     0
  0
VISUALSTYLE
  5
AAD7
102
{ACAD_XDICTIONARY
360
AB35
102
}
102
{ACAD_REACTORS
330
AAD1
102
}
330
AAD1
100
AcDbVisualStyle
  2
2dWireframe
 70
     4
 71
     0
 72
     2
 73
     0
 90
        0
 40
-0.6
 41
-30.0
 62
     5
 63
     7
 74
     1
 91
        4
 64
     7
 65
   257
 75
     1
175
     1
 42
1.0
 92
        0
 66
   257
 43
1.0
 76
     1
 77
     6
 78
     2
 67
     7
 79
     5
170
     0
171
     0
290
     0
174
     0
 93
        1
 44
0.0
173
     0
291
     0
 45
0.0
1001
ACAD
1000
AcDbSavedByObjectVersion
1070
     0
  0
VISUALSTYLE
  5
AAD6
102
{ACAD_XDICTIONARY
360
AB33
102
}
102
{ACAD_REACTORS
330
AAD1
102
}
330
AAD1
100
AcDbVisualStyle
  2
Basic
 70
     7
 71
     1
 72
     0
 73
     1
 90
        0
 40
-0.6
 41
-30.0
 62
     5
 63
     7
 74
     0
 91
        4
 64
     7
 65
   257
 75
     1
175
     1
 42
1.0
 92
        8
 66
     7
 43
1.0
 76
     1
 77
     6
 78
     2
 67
     7
 79
     5
170
     0
171
     0
290
     0
174
     0
 93
        1
 44
0.0
173
     0
291
     1
 45
0.0
1001
ACAD
1000
AcDbSavedByObjectVersion
1070
     0
  0
VISUALSTYLE
  5
AADD
102
{ACAD_XDICTIONARY
360
AB41
102
}
102
{ACAD_REACTORS
330
AAD1
102
}
330
AAD1
100
AcDbVisualStyle
  2
Brighten
 70
    12
 71
     2
 72
     2
 73
     0
 90
        0
 40
-0.6
 41
-30.0
 62
     5
 63
     7
 74
     1
 91
        4
 64
     7
 65
   257
 75
     1
175
     1
 42
1.0
 92
        8
 66
     7
 43
1.0
 76
     1
 77
     6
 78
     2
 67
     7
 79
     5
170
     0
171
     0
290
     0
174
     0
 93
        1
 44
50.0
173
     0
291
     1
 45
0.0
1001
ACAD
1000
AcDbSavedByObjectVersion
1070
     0
  0
VISUALSTYLE
  5
AAE1
102
{ACAD_XDICTIONARY
360
AB49
102
}
102
{ACAD_REACTORS
330
AAD1
102
}
330
AAD1
100
AcDbVisualStyle
  2
ColorChange
 70
    16
 71
     2
 72
     2
 73
     3
 90
        0
 40
-0.6
 41
-30.0
 62
     5
 63
     8
 74
     1
 91
        4
 64
     7
 65
   257
 75
     1
175
     1
 42
1.0
 92
        8
 66
     8
 43
1.0
 76
     1
 77
     6
 78
     2
 67
     7
 79
     5
170
     0
171
     0
290
     0
174
     0
 93
        1
 44
0.0
173
     0
291
     1
 45
0.0
1001
ACAD
1000
AcDbSavedByObjectVersion
1070
     0
  0
VISUALSTYLE
  5
AADA
102
{ACAD_XDICTIONARY
360
AB3B
102
}
102
{ACAD_REACTORS
330
AAD1
102
}
330
AAD1
100
AcDbVisualStyle
  2
Conceptual
 70
     9
 71
     3
 72
     2
 73
     0
 90
        0
 40
-0.6
 41
-30.0
 62
     5
 63
     7
 74
     2
 91
        2
 64
     7
 65
   257
 75
     1
175
     1
 42
179.0
 92
        8
 66
     7
 43
1.0
 76
     1
 77
     6
 78
     2
 67
     7
 79
     3
170
     0
171
     0
290
     0
174
     0
 93
        1
 44
0.0
173
     0
291
     0
 45
0.0
1001
ACAD
1000
AcDbSavedByObjectVersion
1070
     0
  0
VISUALSTYLE
  5
AADC
102
{ACAD_XDICTIONARY
360
AB3F
102
}
102
{ACAD_REACTORS
330
AAD1
102
}
330
AAD1
100
AcDbVisualStyle
  2
Dim
 70
    11
 71
     2
 72
     2
 73
     0
 90
        0
 40
-0.6
 41
-30.0
 62
     5
 63
     7
 74
     1
 91
        4
 64
     7
 65
   257
 75
     1
175
     1
 42
1.0
 92
        8
 66
     7
 43
1.0
 76
     1
 77
     6
 78
     2
 67
     7
 79
     5
170
     0
171
     0
290
     0
174
     0
 93
        1
 44
-50.0
173
     0
291
     1
 45
0.0
1001
ACAD
1000
AcDbSavedByObjectVersion
1070
     0
  0
VISUALSTYLE
  5
AAE9
102
{ACAD_XDICTIONARY
360
AB59
102
}
102
{ACAD_REACTORS
330
AAD1
102
}
330
AAD1
100
AcDbVisualStyle
  2
EdgeColorOff
 70
    22
 71
     2
 72
     2
 73
     0
 90
        0
 40
-0.6
 41
-30.0
 62
     5
 63
     7
 74
     1
 91
        4
 64
     7
 65
   257
 75
     1
175
     1
 42
1.0
 92
        8
 66
     7
 43
1.0
 76
     1
 77
     6
 78
     2
 67
     7
 79
     5
170
     0
171
     0
290
     0
174
     0
 93
        1
 44
0.0
173
     0
291
     1
 45
0.0
1001
ACAD
1000
AcDbSavedByObjectVersion
1070
     0
  0
VISUALSTYLE
  5
AAE0
102
{ACAD_XDICTIONARY
360
AB47
102
}
102
{ACAD_REACTORS
330
AAD1
102
}
330
AAD1
100
AcDbVisualStyle
  2
Facepattern
 70
    15
 71
     2
 72
     2
 73
     0
 90
        0
 40
-0.6
 41
-30.0
 62
     5
 63
     7
 74
     1
 91
        4
 64
     7
 65
   257
 75
     1
175
     1
 42
1.0
 92
        8
 66
     7
 43
1.0
 76
     1
 77
     6
 78
     2
 67
     7
 79
     5
170
     0
171
     0
290
     0
174
     0
 93
        1
 44
0.0
173
     0
291
     1
 45
0.0
1001
ACAD
1000
AcDbSavedByObjectVersion
1070
     0
  0
VISUALSTYLE
  5
AAD2
102
{ACAD_XDICTIONARY
360
AB2B
102
}
102
{ACAD_REACTORS
330
AAD1
102
}
330
AAD1
100
AcDbVisualStyle
  2
Flat
 70
     0
 71
     2
 72
     1
 73
     1
 90
        2
 40
-0.6
 41
30.0
 62
     5
 63
     7
 74
     0
 91
        0
 64
     7
 65
   257
 75
     1
175
     1
 42
1.0
 92
        8
 66
     7
 43
1.0
 76
     1
 77
     6
 78
     2
 67
     7
 79
     5
170
     0
171
     0
290
     0
174
     0
 93
       13
 44
0.0
173
     0
291
     1
 45
0.0
1001
ACAD
1000
AcDbSavedByObjectVersion
1070
     0
  0
VISUALSTYLE
  5
AAD3
102
{ACAD_XDICTIONARY
360
AB2D
102
}
102
{ACAD_REACTORS
330
AAD1
102
}
330
AAD1
100
AcDbVisualStyle
  2
FlatWithEdges
 70
     1
 71
     2
 72
     1
 73
     1
 90
        2
 40
-0.6
 41
30.0
 62
     5
 63
     7
 74
     1
 91
        0
 64
     7
 65
   257
 75
     1
175
     1
 42
1.0
 92
        0
 66
   257
 43
1.0
 76
     1
 77
     6
 78
     2
 67
     7
 79
     5
170
     0
171
     0
290
     0
174
     0
 93
       13
 44
0.0
173
     0
291
     1
 45
0.0
1001
ACAD
1000
AcDbSavedByObjectVersion
1070
     0
  0
VISUALSTYLE
  5
AAD4
102
{ACAD_XDICTIONARY
360
AB2F
102
}
102
{ACAD_REACTORS
330
AAD1
102
}
330
AAD1
100
AcDbVisualStyle
  2
Gouraud
 70
     2
 71
     2
 72
     2
 73
     1
 90
        2
 40
-0.6
 41
30.0
 62
     5
 63
     7
 74
     0
 91
        0
 64
     7
 65
   257
 75
     1
175
     1
 42
1.0
 92
        0
 66
     7
 43
1.0
 76
     1
 77
     6
 78
     2
 67
     7
 79
     5
170
     0
171
     0
290
     0
174
     0
 93
       13
 44
0.0
173
     0
291
     1
 45
0.0
1001
ACAD
1000
AcDbSavedByObjectVersion
1070
     0
  0
VISUALSTYLE
  5
AAD5
102
{ACAD_XDICTIONARY
360
AB31
102
}
102
{ACAD_REACTORS
330
AAD1
102
}
330
AAD1
100
AcDbVisualStyle
  2
GouraudWithEdges
 70
     3
 71
     2
 72
     2
 73
     1
 90
        2
 40
-0.6
 41
30.0
 62
     5
 63
     7
 74
     1
 91
        0
 64
     7
 65
   257
 75
     1
175
     1
 42
1.0
 92
        0
 66
   257
 43
1.0
 76
     1
 77
     6
 78
     2
 67
     7
 79
     5
170
     0
171
     0
290
     0
174
     0
 93
       13
 44
0.0
173
     0
291
     1
 45
0.0
1001
ACAD
1000
AcDbSavedByObjectVersion
1070
     0
  0
VISUALSTYLE
  5
AAD9
102
{ACAD_XDICTIONARY
360
AB39
102
}
102
{ACAD_REACTORS
330
AAD1
102
}
330
AAD1
100
AcDbVisualStyle
  2
Hidden
 70
     6
 71
     1
 72
     2
 73
     2
 90
        0
 40
-0.6
 41
-30.0
 62
     5
 63
     7
 74
     2
 91
        2
 64
     7
 65
   257
 75
     2
175
     1
 42
40.0
 92
        0
 66
   257
 43
1.0
 76
     1
 77
     6
 78
     2
 67
     7
 79
     3
170
     0
171
     0
290
     0
174
     0
 93
        1
 44
0.0
173
     0
291
     0
 45
0.0
1001
ACAD
1000
AcDbSavedByObjectVersion
1070
     0
  0
VISUALSTYLE
  5
AAE7
102
{ACAD_XDICTIONARY
360
AB55
102
}
102
{ACAD_REACTORS
330
AAD1
102
}
330
AAD1
100
AcDbVisualStyle
  2
JitterOff
 70
    20
 71
     2
 72
     2
 73
     0
 90
        0
 40
-0.6
 41
-30.0
 62
     5
 63
     7
 74
     1
 91
        4
 64
     7
 65
   257
 75
     1
175
     1
 42
1.0
 92
       10
 66
     7
 43
1.0
 76
     1
 77
     6
 78
     2
 67
     7
 79
     5
170
     0
171
     0
290
     0
174
     0
 93
        1
 44
0.0
173
     0
291
     1
 45
0.0
1001
ACAD
1000
AcDbSavedByObjectVersion
1070
     0
  0
VISUALSTYLE
  5
AADF
102
{ACAD_XDICTIONARY
360
AB45
102
}
102
{ACAD_REACTORS
330
AAD1
102
}
330
AAD1
100
AcDbVisualStyle
  2
Linepattern
 70
    14
 71
     2
 72
     2
 73
     0
 90
        0
 40
-0.6
 41
-30.0
 62
     5
 63
     7
 74
     1
 91
        4
 64
     7
 65
   257
 75
     7
175
     7
 42
1.0
 92
        8
 66
     7
 43
1.0
 76
     1
 77
     6
 78
     2
 67
     7
 79
     5
170
     0
171
     0
290
     0
174
     0
 93
        1
 44
0.0
173
     0
291
     1
 45
0.0
1001
ACAD
1000
AcDbSavedByObjectVersion
1070
     0
  0
VISUALSTYLE
  5
AAE8
102
{ACAD_XDICTIONARY
360
AB57
102
}
102
{ACAD_REACTORS
330
AAD1
102
}
330
AAD1
100
AcDbVisualStyle
  2
OverhangOff
 70
    21
 71
     2
 72
     2
 73
     0
 90
        0
 40
-0.6
 41
-30.0
 62
     5
 63
     7
 74
     1
 91
        4
 64
     7
 65
   257
 75
     1
175
     1
 42
1.0
 92
        9
 66
     7
 43
1.0
 76
     1
 77
     6
 78
     2
 67
     7
 79
     5
170
     0
171
     0
290
     0
174
     0
 93
        1
 44
0.0
173
     0
291
     1
 45
0.0
1001
ACAD
1000
AcDbSavedByObjectVersion
1070
     0
  0
VISUALSTYLE
  5
AADB
102
{ACAD_XDICTIONARY
360
AB3D
102
}
102
{ACAD_REACTORS
330
AAD1
102
}
330
AAD1
100
AcDbVisualStyle
  2
Realistic
 70
     8
 71
     2
 72
     3
 73
     0
 90
        2
 40
-0.6
 41
30.0
 62
     5
 63
     7
 74
     0
 91
        0
 64
     7
 65
   257
 75
     1
175
     1
 42
1.0
 92
        8
 66
   257
 43
1.0
 76
     1
 77
     6
 78
     2
 67
     7
 79
     3
170
     0
171
     0
290
     0
174
     0
 93
       13
 44
0.0
173
     0
291
     0
 45
0.0
1001
ACAD
1000
AcDbSavedByObjectVersion
1070
     0
  0
VISUALSTYLE
  5
AAE6
102
{ACAD_XDICTIONARY
360
AB53
102
}
102
{ACAD_REACTORS
330
AAD1
102
}
330
AAD1
100
AcDbVisualStyle
  2
Shaded
 70
    27
 71
     2
 72
     2
 73
     1
 90
        2
 40
-0.6
 41
30.0
 62
     5
 63
     7
 74
     0
 91
        4
 64
     7
 65
   257
 75
     1
175
     1
 42
1.0
 92
        8
 66
   257
 43
1.0
 76
     1
 77
     6
 78
     2
 67
     8
 79
     3
170
     0
171
     0
290
     0
174
     0
 93
        5
 44
0.0
173
     0
291
     0
 45
0.0
1001
ACAD
1000
AcDbSavedByObjectVersion
1070
     0
  0
VISUALSTYLE
  5
AAE5
102
{ACAD_XDICTIONARY
360
AB51
102
}
102
{ACAD_REACTORS
330
AAD1
102
}
330
AAD1
100
AcDbVisualStyle
  2
Shaded with edges
 70
    26
 71
     2
 72
     2
 73
     1
 90
        2
 40
-0.6
 41
30.0
 62
     5
 63
     7
 74
     1
 91
       10
 64
     7
 65
   257
 75
     2
175
     1
 42
1.0
 92
        8
 66
   257
 43
1.0
 76
     1
 77
     6
 78
     2
 67
     7
 79
     3
170
     0
171
     0
290
     0
174
     0
 93
        5
 44
0.0
173
     0
291
     0
 45
0.0
1001
ACAD
1000
AcDbSavedByObjectVersion
1070
     0
  0
VISUALSTYLE
  5
AAE2
102
{ACAD_XDICTIONARY
360
AB4B
102
}
102
{ACAD_REACTORS
330
AAD1
102
}
330
AAD1
100
AcDbVisualStyle
  2
Shades of Gray
 70
    23
 71
     2
 72
     2
 73
     3
 90
        0
 40
-0.6
 41
-30.0
 62
     5
 63
     7
 74
     2
 91
        2
 64
     7
 65
     7
 75
     1
175
     1
 42
40.0
 92
        8
 66
     7
 43
1.0
 76
     1
 77
     6
 78
     2
 67
     7
 79
     3
170
     0
171
     0
290
     0
174
     0
 93
        1
 44
0.0
173
     0
291
     0
 45
0.0
1001
ACAD
1000
AcDbSavedByObjectVersion
1070
     0
  0
VISUALSTYLE
  5
AAE3
102
{ACAD_XDICTIONARY
360
AB4D
102
}
102
{ACAD_REACTORS
330
AAD1
102
}
330
AAD1
100
AcDbVisualStyle
  2
Sketchy
 70
    24
 71
     1
 72
     2
 73
     2
 90
        0
 40
-0.6
 41
-30.0
 62
     5
 63
     7
 74
     2
 91
        2
 64
     7
 65
     7
 75
     1
175
     1
 42
40.0
 92
       11
 66
     7
 43
1.0
 76
     1
 77
     6
 78
     2
 67
     7
 79
     6
170
     0
171
     0
290
     0
174
     0
 93
        1
 44
0.0
173
     0
291
     0
 45
0.0
1001
ACAD
1000
AcDbSavedByObjectVersion
1070
     0
  0
VISUALSTYLE
  5
AADE
102
{ACAD_XDICTIONARY
360
AB43
102
}
102
{ACAD_REACTORS
330
AAD1
102
}
330
AAD1
100
AcDbVisualStyle
  2
Thicken
 70
    13
 71
     2
 72
     2
 73
     0
 90
        0
 40
-0.6
 41
-30.0
 62
     5
 63
     7
 74
     1
 91
        4
 64
     7
 65
   257
 75
     1
175
     1
 42
1.0
 92
       12
 66
     7
 43
1.0
 76
     1
 77
     6
 78
     2
 67
     7
 79
     5
170
     0
171
     0
290
     0
174
     0
 93
        1
 44
0.0
173
     0
291
     1
 45
0.0
1001
ACAD
1000
AcDbSavedByObjectVersion
1070
     0
  0
VISUALSTYLE
  5
AAD8
102
{ACAD_XDICTIONARY
360
AB37
102
}
102
{ACAD_REACTORS
330
AAD1
102
}
330
AAD1
100
AcDbVisualStyle
  2
Wireframe
 70
     5
 71
     0
 72
     2
 73
     0
 90
        0
 40
-0.6
 41
-30.0
 62
     5
 63
     7
 74
     1
 91
        4
 64
     7
 65
   257
 75
     1
175
     1
 42
1.0
 92
        0
 66
   257
 43
1.0
 76
     1
 77
     6
 78
     2
 67
     7
 79
     3
170
     0
171
     0
290
     0
174
     0
 93
        1
 44
0.0
173
     0
291
     0
 45
0.0
1001
ACAD
1000
AcDbSavedByObjectVersion
1070
     0
  0
VISUALSTYLE
  5
AAE4
102
{ACAD_XDICTIONARY
360
AB4F
102
}
102
{ACAD_REACTORS
330
AAD1
102
}
330
AAD1
100
AcDbVisualStyle
  2
X-Ray
 70
    25
 71
     2
 72
     2
 73
     1
 90
        1
 40
0.5
 41
-30.0
 62
     5
 63
     7
 74
     1
 91
        0
 64
     7
 65
   257
 75
     1
175
     1
 42
1.0
 92
        8
 66
     7
 43
1.0
 76
     1
 77
     6
 78
     2
 67
     7
 79
     3
170
     0
171
     0
290
     0
174
     0
 93
       13
 44
0.0
173
     0
291
     0
 45
0.0
1001
ACAD
1000
AcDbSavedByObjectVersion
1070
     0
  0
DICTIONARYVAR
  5
AB1E
102
{ACAD_REACTORS
330
AB19
102
}
330
AB19
100
DictionaryVariables
280
     0
  1
1:1
  0
DICTIONARYVAR
  5
AB1B
102
{ACAD_REACTORS
330
AB19
102
}
330
AB19
100
DictionaryVariables
280
     0
  1
STANDARD
  0
DICTIONARYVAR
  5
AB1A
102
{ACAD_REACTORS
330
AB19
102
}
330
AB19
100
DictionaryVariables
280
     0
  1
STANDARD
  0
DICTIONARYVAR
  5
AB1C
102
{ACAD_REACTORS
330
AB19
102
}
330
AB19
100
DictionaryVariables
280
     0
  1
Imperial24
  0
DICTIONARYVAR
  5
AB1D
102
{ACAD_REACTORS
330
AB19
102
}
330
AB19
100
DictionaryVariables
280
     0
  1
Imperial24
  0
DICTIONARYVAR
  5
AB21
102
{ACAD_REACTORS
330
AB19
102
}
330
AB19
100
DictionaryVariables
280
     0
  1
1
  0
DICTIONARYVAR
  5
AB20
102
{ACAD_REACTORS
330
AB19
102
}
330
AB19
100
DictionaryVariables
280
     0
  1
0
  0
DICTIONARYVAR
  5
AB1F
102
{ACAD_REACTORS
330
AB19
102
}
330
AB19
100
DictionaryVariables
280
     0
  1
127
  0
DICTIONARYVAR
  5
AB22
102
{ACAD_REACTORS
330
AB19
102
}
330
AB19
100
DictionaryVariables
280
     0
  1
2
  0
DICTIONARY
  5
AB5F
330
AB04
100
AcDbDictionary
280
     1
281
     1
  3
ACAD_XREC_ROUNDTRIP
360
AB60
  0
DICTIONARY
  5
AB61
330
AB05
100
AcDbDictionary
280
     1
281
     1
  3
ACAD_XREC_ROUNDTRIP
360
AB62
  0
DICTIONARY
  5
AB63
330
AB06
100
AcDbDictionary
280
     1
281
     1
  3
ACAD_XREC_ROUNDTRIP
360
AB64
  0
DICTIONARY
  5
AAC2
330
AAC1
100
AcDbDictionary
280
     1
281
     1
  3
ACAD_XREC_ROUNDTRIP
360
AB29
  3
BUMPTILE
360
AAC4
  3
DIFFUSETILE
360
AAC3
  3
OPACITYTILE
360
AAC7
  3
REFLECTIONTILE
360
AAC6
  3
REFRACTIONTILE
360
AAC8
  3
SPECULARTILE
360
AAC5
  0
DICTIONARY
  5
AABA
330
AAB9
100
AcDbDictionary
280
     1
281
     1
  3
ACAD_XREC_ROUNDTRIP
360
AB28
  3
BUMPTILE
360
AABC
  3
DIFFUSETILE
360
AABB
  3
OPACITYTILE
360
AABF
  3
REFLECTIONTILE
360
AABE
  3
REFRACTIONTILE
360
AAC0
  3
SPECULARTILE
360
AABD
  0
DICTIONARY
  5
AACA
330
AAC9
100
AcDbDictionary
280
     1
281
     1
  3
ACAD_XREC_ROUNDTRIP
360
AB2A
  3
BUMPTILE
360
AACC
  3
DIFFUSETILE
360
AACB
  3
OPACITYTILE
360
AACF
  3
REFLECTIONTILE
360
AACE
  3
REFRACTIONTILE
360
AAD0
  3
SPECULARTILE
360
AACD
  0
DICTIONARY
  5
AB5D
330
AB02
100
AcDbDictionary
280
     1
281
     1
  3
ACAD_XREC_ROUNDTRIP
360
AB5E
  0
DICTIONARY
  5
AB24
330
AAEC
100
AcDbDictionary
280
     1
281
     1
  3
ACAD_ROUNDTRIP_2008_TABLESTYLE_CELLSTYLEMAP
360
AB25
  3
ACAD_XREC_ROUNDTRIP
360
AB5B
  0
DICTIONARY
  5
AB35
330
AAD7
100
AcDbDictionary
280
     1
281
     1
  3
ACAD_XREC_ROUNDTRIP
360
AB36
  0
DICTIONARY
  5
AB33
330
AAD6
100
AcDbDictionary
280
     1
281
     1
  3
ACAD_XREC_ROUNDTRIP
360
AB34
  0
DICTIONARY
  5
AB41
330
AADD
100
AcDbDictionary
280
     1
281
     1
  3
ACAD_XREC_ROUNDTRIP
360
AB42
  0
DICTIONARY
  5
AB49
330
AAE1
100
AcDbDictionary
280
     1
281
     1
  3
ACAD_XREC_ROUNDTRIP
360
AB4A
  0
DICTIONARY
  5
AB3B
330
AADA
100
AcDbDictionary
280
     1
281
     1
  3
ACAD_XREC_ROUNDTRIP
360
AB3C
  0
DICTIONARY
  5
AB3F
330
AADC
100
AcDbDictionary
280
     1
281
     1
  3
ACAD_XREC_ROUNDTRIP
360
AB40
  0
DICTIONARY
  5
AB59
330
AAE9
100
AcDbDictionary
280
     1
281
     1
  3
ACAD_XREC_ROUNDTRIP
360
AB5A
  0
DICTIONARY
  5
AB47
330
AAE0
100
AcDbDictionary
280
     1
281
     1
  3
ACAD_XREC_ROUNDTRIP
360
AB48
  0
DICTIONARY
  5
AB2B
330
AAD2
100
AcDbDictionary
280
     1
281
     1
  3
ACAD_XREC_ROUNDTRIP
360
AB2C
  0
DICTIONARY
  5
AB2D
330
AAD3
100
AcDbDictionary
280
     1
281
     1
  3
ACAD_XREC_ROUNDTRIP
360
AB2E
  0
DICTIONARY
  5
AB2F
330
AAD4
100
AcDbDictionary
280
     1
281
     1
  3
ACAD_XREC_ROUNDTRIP
360
AB30
  0
DICTIONARY
  5
AB31
330
AAD5
100
AcDbDictionary
280
     1
281
     1
  3
ACAD_XREC_ROUNDTRIP
360
AB32
  0
DICTIONARY
  5
AB39
330
AAD9
100
AcDbDictionary
280
     1
281
     1
  3
ACAD_XREC_ROUNDTRIP
360
AB3A
  0
DICTIONARY
  5
AB55
330
AAE7
100
AcDbDictionary
280
     1
281
     1
  3
ACAD_XREC_ROUNDTRIP
360
AB56
  0
DICTIONARY
  5
AB45
330
AADF
100
AcDbDictionary
280
     1
281
     1
  3
ACAD_XREC_ROUNDTRIP
360
AB46
  0
DICTIONARY
  5
AB57
330
AAE8
100
AcDbDictionary
280
     1
281
     1
  3
ACAD_XREC_ROUNDTRIP
360
AB58
  0
DICTIONARY
  5
AB3D
330
AADB
100
AcDbDictionary
280
     1
281
     1
  3
ACAD_XREC_ROUNDTRIP
360
AB3E
  0
DICTIONARY
  5
AB53
330
AAE6
100
AcDbDictionary
280
     1
281
     1
  3
ACAD_XREC_ROUNDTRIP
360
AB54
  0
DICTIONARY
  5
AB51
330
AAE5
100
AcDbDictionary
280
     1
281
     1
  3
ACAD_XREC_ROUNDTRIP
360
AB52
  0
DICTIONARY
  5
AB4B
330
AAE2
100
AcDbDictionary
280
     1
281
     1
  3
ACAD_XREC_ROUNDTRIP
360
AB4C
  0
DICTIONARY
  5
AB4D
330
AAE3
100
AcDbDictionary
280
     1
281
     1
  3
ACAD_XREC_ROUNDTRIP
360
AB4E
  0
DICTIONARY
  5
AB43
330
AADE
100
AcDbDictionary
280
     1
281
     1
  3
ACAD_XREC_ROUNDTRIP
360
AB44
  0
DICTIONARY
  5
AB37
330
AAD8
100
AcDbDictionary
280
     1
281
     1
  3
ACAD_XREC_ROUNDTRIP
360
AB38
  0
DICTIONARY
  5
AB4F
330
AAE4
100
AcDbDictionary
280
     1
281
     1
  3
ACAD_XREC_ROUNDTRIP
360
AB50
  0
XRECORD
  5
AB60
102
{ACAD_REACTORS
330
AB5F
102
}
330
AB5F
100
AcDbXrecord
280
     1
102
DISPLAYNAME
  1
Imperial24
102
FLAGS
 90
        0
  0
XRECORD
  5
AB62
102
{ACAD_REACTORS
330
AB61
102
}
330
AB61
100
AcDbXrecord
280
     1
102
SHADEPLOT
 70
     0
102
SHADEPLOTRESLEVEL
 70
     2
102
SHADEPLOTCUSTOMDPI
 70
   300
  0
XRECORD
  5
AB64
102
{ACAD_REACTORS
330
AB63
102
}
330
AB63
100
AcDbXrecord
280
     1
102
SHADEPLOT
 70
     0
102
SHADEPLOTRESLEVEL
 70
     2
102
SHADEPLOTCUSTOMDPI
 70
   300
  0
XRECORD
  5
AB29
102
{ACAD_REACTORS
330
AAC2
102
}
330
AAC2
100
AcDbXrecord
280
     1
102
MATERIAL
148
0.0
149
0.0
149
0.0
 93
        0
 94
      127
282
     0
 72
     0
 77
     0
171
     0
175
     0
179
     0
273
     0
  0
XRECORD
  5
AAC4
102
{ACAD_REACTORS
330
AAC2
102
}
330
AAC2
100
AcDbXrecord
280
     1
270
     1
271
     1
  0
XRECORD
  5
AAC3
102
{ACAD_REACTORS
330
AAC2
102
}
330
AAC2
100
AcDbXrecord
280
     1
270
     1
271
     1
  0
XRECORD
  5
AAC7
102
{ACAD_REACTORS
330
AAC2
102
}
330
AAC2
100
AcDbXrecord
280
     1
270
     1
271
     1
  0
XRECORD
  5
AAC6
102
{ACAD_REACTORS
330
AAC2
102
}
330
AAC2
100
AcDbXrecord
280
     1
270
     1
271
     1
  0
XRECORD
  5
AAC8
102
{ACAD_REACTORS
330
AAC2
102
}
330
AAC2
100
AcDbXrecord
280
     1
270
     1
271
     1
  0
XRECORD
  5
AAC5
102
{ACAD_REACTORS
330
AAC2
102
}
330
AAC2
100
AcDbXrecord
280
     1
270
     1
271
     1
  0
XRECORD
  5
AB28
102
{ACAD_REACTORS
330
AABA
102
}
330
AABA
100
AcDbXrecord
280
     1
102
MATERIAL
148
0.0
149
0.0
149
0.0
 93
        0
 94
      127
282
     0
 72
     0
 77
     0
171
     0
175
     0
179
     0
273
     0
  0
XRECORD
  5
AABC
102
{ACAD_REACTORS
330
AABA
102
}
330
AABA
100
AcDbXrecord
280
     1
270
     1
271
     1
  0
XRECORD
  5
AABB
102
{ACAD_REACTORS
330
AABA
102
}
330
AABA
100
AcDbXrecord
280
     1
270
     1
271
     1
  0
XRECORD
  5
AABF
102
{ACAD_REACTORS
330
AABA
102
}
330
AABA
100
AcDbXrecord
280
     1
270
     1
271
     1
  0
XRECORD
  5
AABE
102
{ACAD_REACTORS
330
AABA
102
}
330
AABA
100
AcDbXrecord
280
     1
270
     1
271
     1
  0
XRECORD
  5
AAC0
102
{ACAD_REACTORS
330
AABA
102
}
330
AABA
100
AcDbXrecord
280
     1
270
     1
271
     1
  0
XRECORD
  5
AABD
102
{ACAD_REACTORS
330
AABA
102
}
330
AABA
100
AcDbXrecord
280
     1
270
     1
271
     1
  0
XRECORD
  5
AB2A
102
{ACAD_REACTORS
330
AACA
102
}
330
AACA
100
AcDbXrecord
280
     1
102
MATERIAL
148
0.0
149
0.0
149
0.0
 93
        0
 94
      127
282
     0
 72
     0
 77
     0
171
     0
175
     0
179
     0
273
     0
  0
XRECORD
  5
AACC
102
{ACAD_REACTORS
330
AACA
102
}
330
AACA
100
AcDbXrecord
280
     1
270
     1
271
     1
  0
XRECORD
  5
AACB
102
{ACAD_REACTORS
330
AACA
102
}
330
AACA
100
AcDbXrecord
280
     1
270
     1
271
     1
  0
XRECORD
  5
AACF
102
{ACAD_REACTORS
330
AACA
102
}
330
AACA
100
AcDbXrecord
280
     1
270
     1
271
     1
  0
XRECORD
  5
AACE
102
{ACAD_REACTORS
330
AACA
102
}
330
AACA
100
AcDbXrecord
280
     1
270
     1
271
     1
  0
XRECORD
  5
AAD0
102
{ACAD_REACTORS
330
AACA
102
}
330
AACA
100
AcDbXrecord
280
     1
270
     1
271
     1
  0
XRECORD
  5
AACD
102
{ACAD_REACTORS
330
AACA
102
}
330
AACA
100
AcDbXrecord
280
     1
270
     1
271
     1
  0
XRECORD
  5
AB5E
102
{ACAD_REACTORS
330
AB5D
102
}
330
AB5D
100
AcDbXrecord
280
     1
102
DISPLAYNAME
  1
Imperial24
102
FLAGS
 90
        0
  0
CELLSTYLEMAP
  5
AB25
102
{ACAD_REACTORS
330
AB24
102
}
330
AB24
100
AcDbCellStyleMap
 90
        3
300
CELLSTYLE
  1
TABLEFORMAT_BEGIN
 90
        5
170
     1
 91
        0
 92
    32768
 62
   257
 93
        1
300
CONTENTFORMAT
  1
CONTENTFORMAT_BEGIN
 90
        0
 91
        0
 92
      512
 93
        0
300

 40
0.0
140
1.0
 94
        5
 62
     0
340
A870
144
0.25
309
CONTENTFORMAT_END
171
     0
 94
        0
309
TABLEFORMAT_END
  1
CELLSTYLE_BEGIN
 90
        1
 91
        1
300
_TITLE
309
CELLSTYLE_END
300
CELLSTYLE
  1
TABLEFORMAT_BEGIN
 90
        5
170
     1
 91
        0
 92
        0
 62
   257
 93
        1
300
CONTENTFORMAT
  1
CONTENTFORMAT_BEGIN
 90
        0
 91
        0
 92
      512
 93
        0
300

 40
0.0
140
1.0
 94
        5
 62
     0
340
A870
144
0.18
309
CONTENTFORMAT_END
171
     0
 94
        0
309
TABLEFORMAT_END
  1
CELLSTYLE_BEGIN
 90
        2
 91
        1
300
_HEADER
309
CELLSTYLE_END
300
CELLSTYLE
  1
TABLEFORMAT_BEGIN
 90
        5
170
     1
 91
        0
 92
        0
 62
   257
 93
        1
300
CONTENTFORMAT
  1
CONTENTFORMAT_BEGIN
 90
        0
 91
        0
 92
      512
 93
        0
300

 40
0.0
140
1.0
 94
        2
 62
     0
340
A870
144
0.18
309
CONTENTFORMAT_END
171
     0
 94
        0
309
TABLEFORMAT_END
  1
CELLSTYLE_BEGIN
 90
        3
 91
        2
300
_DATA
309
CELLSTYLE_END
  0
XRECORD
  5
AB5B
102
{ACAD_REACTORS
330
AB24
102
}
330
AB24
100
AcDbXrecord
280
     1
102
ACAD_ROUNDTRIP_PRE2007_TABLESTYLE
 90
      512
 91
        0
  1

 92
      512
 93
        0
  2

 94
      512
 95
        0
  3

  0
XRECORD
  5
AB36
102
{ACAD_REACTORS
330
AB35
102
}
330
AB35
100
AcDbXrecord
280
     1
102
RTVSPost2010Prop28
280
     1
102
RTVSPost2010PropOp28
 70
     1
102
RTVSPost2010Prop29
280
     1
102
RTVSPost2010PropOp29
 70
     1
102
RTVSPost2010Prop30
280
     0
102
RTVSPost2010PropOp30
 70
     1
102
RTVSPost2010Prop31
280
     0
102
RTVSPost2010PropOp31
 70
     1
102
RTVSPost2010Prop32
280
     0
102
RTVSPost2010PropOp32
 70
     1
102
RTVSPost2010Prop33
280
     0
102
RTVSPost2010PropOp33
 70
     1
102
RTVSPost2010Prop34
280
     0
102
RTVSPost2010PropOp34
 70
     1
102
RTVSPost2010Prop35
280
     0
102
RTVSPost2010PropOp35
 70
     1
102
RTVSPost2010Prop36
280
     0
102
RTVSPost2010PropOp36
 70
     1
102
RTVSPost2010Prop37
 90
       50
102
RTVSPost2010PropOp37
 70
     1
102
RTVSPost2010Prop38
140
0.0
102
RTVSPost2010PropOp38
 70
     1
102
RTVSPost2010Prop39
140
1.0
102
RTVSPost2010PropOp39
 70
     1
102
RTVSPost2010Prop40
 90
        0
102
RTVSPost2010PropOp40
 70
     1
102
RTVSPost2010Prop41ColorIndex
 90
       18
102
RTVSPost2010Prop41ColorRGB
 90
        0
102
RTVSPost2010PropOp41
 70
     1
102
RTVSPost2010Prop42
 90
       50
102
RTVSPost2010PropOp42
 70
     1
102
RTVSPost2010Prop43
 90
        3
102
RTVSPost2010PropOp43
 70
     1
102
RTVSPost2010Prop44ColorIndex
 90
        5
102
RTVSPost2010Prop44ColorRGB
 90
      255
102
RTVSPost2010PropOp44
 70
     1
102
RTVSPost2010Prop45
280
     0
102
RTVSPost2010PropOp45
 70
     1
102
RTVSPost2010Prop46
 90
       50
102
RTVSPost2010PropOp46
 70
     1
102
RTVSPost2010Prop47
 90
       50
102
RTVSPost2010PropOp47
 70
     1
102
RTVSPost2010Prop48
 90
       50
102
RTVSPost2010PropOp48
 70
     1
102
RTVSPost2010Prop49
280
     0
102
RTVSPost2010PropOp49
 70
     1
102
RTVSPost2010Prop50
 90
       50
102
RTVSPost2010PropOp50
 70
     1
102
RTVSPost2010Prop51ColorIndex
 90
      256
102
RTVSPost2010Prop51ColorRGB
 90
-16777216
102
RTVSPost2010PropOp51
 70
     0
102
RTVSPost2010Prop52
140
1.0
102
RTVSPost2010PropOp52
 70
     0
102
RTVSPost2010Prop53
 90
        2
102
RTVSPost2010PropOp53
 70
     1
102
RTVSPost2010Prop54
  1
strokes_ogs.tif
102
RTVSPost2010PropOp54
 70
     1
102
RTVSPost2010Prop55
280
     0
102
RTVSPost2010PropOp55
 70
     1
102
RTVSPost2010Prop56
140
1.0
102
RTVSPost2010PropOp56
 70
     1
102
RTVSPost2010Prop57
140
1.0
102
RTVSPost2010PropOp57
 70
     1
102
RTVSPropertyOp0
 70
     1
102
RTVSPropertyOp1
 70
     1
102
RTVSPropertyOp2
 70
     1
102
RTVSPropertyOp3
 70
     1
102
RTVSPropertyOp4
 70
     1
102
RTVSPropertyOp5
 70
     1
102
RTVSPropertyOp6
 70
     1
102
RTVSPropertyOp7
 70
     1
102
RTVSPropertyOp8
 70
     1
102
RTVSPropertyOp9
 70
     1
102
RTVSPropertyOp10
 70
     1
102
RTVSPropertyOp11
 70
     1
102
RTVSPropertyOp12
 70
     1
102
RTVSPropertyOp13
 70
     1
102
RTVSPropertyOp14
 70
     1
102
RTVSPropertyOp15
 70
     1
102
RTVSPropertyOp16
 70
     1
102
RTVSPropertyOp17
 70
     1
102
RTVSPropertyOp18
 70
     1
102
RTVSPropertyOp19
 70
     1
102
RTVSPropertyOp20
 70
     1
102
RTVSPropertyOp21
 70
     1
102
RTVSPropertyOp22
 70
     1
102
RTVSPropertyOp23
 70
     1
102
RTVSPropertyOp24
 70
     1
102
RTVSPropertyOp25
 70
     1
102
RTVSPropertyOp26
 70
     1
102
RTVSPropertyOp27
 70
     1
102
RTVSPropertyOp28
 70
     1
102
RTVSPropertyOp29
 70
     1
102
RTVSPropertyOp30
 70
     1
102
RTVSPropertyOp31
 70
     1
102
RTVSPropertyOp32
 70
     1
102
RTVSPropertyOp33
 70
     1
102
RTVSPropertyOp34
 70
     1
102
RTVSPropertyOp35
 70
     1
102
RTVSPropertyOp36
 70
     1
102
RTVSPropertyOp37
 70
     1
102
RTVSPropertyOp38
 70
     1
102
RTVSPropertyOp39
 70
     1
102
RTVSPropertyOp40
 70
     1
102
RTVSPropertyOp41
 70
     1
102
RTVSPropertyOp42
 70
     1
102
RTVSPropertyOp43
 70
     1
102
RTVSPropertyOp44
 70
     1
102
RTVSPropertyOp45
 70
     1
102
RTVSPropertyOp46
 70
     1
102
RTVSPropertyOp47
 70
     1
102
RTVSPropertyOp48
 70
     1
102
RTVSPropertyOp49
 70
     1
102
RTVSPropertyOp50
 70
     1
102
RTVSPropertyOp51
 70
     0
102
RTVSPropertyOp52
 70
     0
102
RTVSPropertyOp53
 70
     1
102
RTVSPropertyOp54
 70
     1
102
RTVSPropertyOp55
 70
     1
102
RTVSPropertyOp56
 70
     1
102
RTVSPropertyOp57
 70
     1
102
RTVSPropertyOp58
 70
     1
102
RTVSPropertyOp59
 70
     1
102
RTVSPropertyOp60
 70
     1
102
RTVSPropertyOp61
 70
     1
102
RTVSPropertyOp62
 70
     1
  0
XRECORD
  5
AB34
102
{ACAD_REACTORS
330
AB33
102
}
330
AB33
100
AcDbXrecord
280
     1
102
RTVSPost2010Prop28
280
     0
102
RTVSPost2010PropOp28
 70
     1
102
RTVSPost2010Prop29
280
     1
102
RTVSPost2010PropOp29
 70
     1
102
RTVSPost2010Prop30
280
     1
102
RTVSPost2010PropOp30
 70
     1
102
RTVSPost2010Prop31
280
     0
102
RTVSPost2010PropOp31
 70
     1
102
RTVSPost2010Prop32
280
     0
102
RTVSPost2010PropOp32
 70
     1
102
RTVSPost2010Prop33
280
     0
102
RTVSPost2010PropOp33
 70
     1
102
RTVSPost2010Prop34
280
     0
102
RTVSPost2010PropOp34
 70
     1
102
RTVSPost2010Prop35
280
     0
102
RTVSPost2010PropOp35
 70
     1
102
RTVSPost2010Prop36
280
     0
102
RTVSPost2010PropOp36
 70
     1
102
RTVSPost2010Prop37
 90
       50
102
RTVSPost2010PropOp37
 70
     1
102
RTVSPost2010Prop38
140
0.0
102
RTVSPost2010PropOp38
 70
     1
102
RTVSPost2010Prop39
140
1.0
102
RTVSPost2010PropOp39
 70
     1
102
RTVSPost2010Prop40
 90
        0
102
RTVSPost2010PropOp40
 70
     1
102
RTVSPost2010Prop41ColorIndex
 90
       18
102
RTVSPost2010Prop41ColorRGB
 90
        0
102
RTVSPost2010PropOp41
 70
     1
102
RTVSPost2010Prop42
 90
       50
102
RTVSPost2010PropOp42
 70
     1
102
RTVSPost2010Prop43
 90
        3
102
RTVSPost2010PropOp43
 70
     1
102
RTVSPost2010Prop44ColorIndex
 90
        5
102
RTVSPost2010Prop44ColorRGB
 90
      255
102
RTVSPost2010PropOp44
 70
     1
102
RTVSPost2010Prop45
280
     0
102
RTVSPost2010PropOp45
 70
     1
102
RTVSPost2010Prop46
 90
       50
102
RTVSPost2010PropOp46
 70
     1
102
RTVSPost2010Prop47
 90
       50
102
RTVSPost2010PropOp47
 70
     1
102
RTVSPost2010Prop48
 90
       50
102
RTVSPost2010PropOp48
 70
     1
102
RTVSPost2010Prop49
280
     0
102
RTVSPost2010PropOp49
 70
     1
102
RTVSPost2010Prop50
 90
       50
102
RTVSPost2010PropOp50
 70
     1
102
RTVSPost2010Prop51ColorIndex
 90
      256
102
RTVSPost2010Prop51ColorRGB
 90
-16777216
102
RTVSPost2010PropOp51
 70
     0
102
RTVSPost2010Prop52
140
1.0
102
RTVSPost2010PropOp52
 70
     0
102
RTVSPost2010Prop53
 90
        2
102
RTVSPost2010PropOp53
 70
     1
102
RTVSPost2010Prop54
  1
strokes_ogs.tif
102
RTVSPost2010PropOp54
 70
     1
102
RTVSPost2010Prop55
280
     0
102
RTVSPost2010PropOp55
 70
     1
102
RTVSPost2010Prop56
140
1.0
102
RTVSPost2010PropOp56
 70
     1
102
RTVSPost2010Prop57
140
1.0
102
RTVSPost2010PropOp57
 70
     1
102
RTVSPropertyOp0
 70
     1
102
RTVSPropertyOp1
 70
     1
102
RTVSPropertyOp2
 70
     1
102
RTVSPropertyOp3
 70
     1
102
RTVSPropertyOp4
 70
     1
102
RTVSPropertyOp5
 70
     1
102
RTVSPropertyOp6
 70
     1
102
RTVSPropertyOp7
 70
     1
102
RTVSPropertyOp8
 70
     1
102
RTVSPropertyOp9
 70
     1
102
RTVSPropertyOp10
 70
     1
102
RTVSPropertyOp11
 70
     1
102
RTVSPropertyOp12
 70
     1
102
RTVSPropertyOp13
 70
     1
102
RTVSPropertyOp14
 70
     1
102
RTVSPropertyOp15
 70
     1
102
RTVSPropertyOp16
 70
     1
102
RTVSPropertyOp17
 70
     1
102
RTVSPropertyOp18
 70
     1
102
RTVSPropertyOp19
 70
     1
102
RTVSPropertyOp20
 70
     1
102
RTVSPropertyOp21
 70
     1
102
RTVSPropertyOp22
 70
     1
102
RTVSPropertyOp23
 70
     1
102
RTVSPropertyOp24
 70
     1
102
RTVSPropertyOp25
 70
     1
102
RTVSPropertyOp26
 70
     1
102
RTVSPropertyOp27
 70
     1
102
RTVSPropertyOp28
 70
     1
102
RTVSPropertyOp29
 70
     1
102
RTVSPropertyOp30
 70
     1
102
RTVSPropertyOp31
 70
     1
102
RTVSPropertyOp32
 70
     1
102
RTVSPropertyOp33
 70
     1
102
RTVSPropertyOp34
 70
     1
102
RTVSPropertyOp35
 70
     1
102
RTVSPropertyOp36
 70
     1
102
RTVSPropertyOp37
 70
     1
102
RTVSPropertyOp38
 70
     1
102
RTVSPropertyOp39
 70
     1
102
RTVSPropertyOp40
 70
     1
102
RTVSPropertyOp41
 70
     1
102
RTVSPropertyOp42
 70
     1
102
RTVSPropertyOp43
 70
     1
102
RTVSPropertyOp44
 70
     1
102
RTVSPropertyOp45
 70
     1
102
RTVSPropertyOp46
 70
     1
102
RTVSPropertyOp47
 70
     1
102
RTVSPropertyOp48
 70
     1
102
RTVSPropertyOp49
 70
     1
102
RTVSPropertyOp50
 70
     1
102
RTVSPropertyOp51
 70
     0
102
RTVSPropertyOp52
 70
     0
102
RTVSPropertyOp53
 70
     1
102
RTVSPropertyOp54
 70
     1
102
RTVSPropertyOp55
 70
     1
102
RTVSPropertyOp56
 70
     1
102
RTVSPropertyOp57
 70
     1
102
RTVSPropertyOp58
 70
     1
102
RTVSPropertyOp59
 70
     1
102
RTVSPropertyOp60
 70
     1
102
RTVSPropertyOp61
 70
     1
102
RTVSPropertyOp62
 70
     1
  0
XRECORD
  5
AB42
102
{ACAD_REACTORS
330
AB41
102
}
330
AB41
100
AcDbXrecord
280
     1
102
RTVSPost2010Prop28
280
     0
102
RTVSPost2010PropOp28
 70
     1
102
RTVSPost2010Prop29
280
     1
102
RTVSPost2010PropOp29
 70
     1
102
RTVSPost2010Prop30
280
     1
102
RTVSPost2010PropOp30
 70
     1
102
RTVSPost2010Prop31
280
     0
102
RTVSPost2010PropOp31
 70
     1
102
RTVSPost2010Prop32
280
     0
102
RTVSPost2010PropOp32
 70
     1
102
RTVSPost2010Prop33
280
     0
102
RTVSPost2010PropOp33
 70
     1
102
RTVSPost2010Prop34
280
     0
102
RTVSPost2010PropOp34
 70
     1
102
RTVSPost2010Prop35
280
     0
102
RTVSPost2010PropOp35
 70
     1
102
RTVSPost2010Prop36
280
     0
102
RTVSPost2010PropOp36
 70
     1
102
RTVSPost2010Prop37
 90
       50
102
RTVSPost2010PropOp37
 70
     1
102
RTVSPost2010Prop38
140
0.0
102
RTVSPost2010PropOp38
 70
     1
102
RTVSPost2010Prop39
140
1.0
102
RTVSPost2010PropOp39
 70
     1
102
RTVSPost2010Prop40
 90
        0
102
RTVSPost2010PropOp40
 70
     1
102
RTVSPost2010Prop41ColorIndex
 90
       18
102
RTVSPost2010Prop41ColorRGB
 90
        0
102
RTVSPost2010PropOp41
 70
     1
102
RTVSPost2010Prop42
 90
       50
102
RTVSPost2010PropOp42
 70
     1
102
RTVSPost2010Prop43
 90
        3
102
RTVSPost2010PropOp43
 70
     1
102
RTVSPost2010Prop44ColorIndex
 90
        5
102
RTVSPost2010Prop44ColorRGB
 90
      255
102
RTVSPost2010PropOp44
 70
     1
102
RTVSPost2010Prop45
280
     0
102
RTVSPost2010PropOp45
 70
     1
102
RTVSPost2010Prop46
 90
       50
102
RTVSPost2010PropOp46
 70
     1
102
RTVSPost2010Prop47
 90
       50
102
RTVSPost2010PropOp47
 70
     1
102
RTVSPost2010Prop48
 90
       50
102
RTVSPost2010PropOp48
 70
     1
102
RTVSPost2010Prop49
280
     0
102
RTVSPost2010PropOp49
 70
     1
102
RTVSPost2010Prop50
 90
       50
102
RTVSPost2010PropOp50
 70
     1
102
RTVSPost2010Prop51ColorIndex
 90
      256
102
RTVSPost2010Prop51ColorRGB
 90
-16777216
102
RTVSPost2010PropOp51
 70
     0
102
RTVSPost2010Prop52
140
1.0
102
RTVSPost2010PropOp52
 70
     0
102
RTVSPost2010Prop53
 90
        2
102
RTVSPost2010PropOp53
 70
     1
102
RTVSPost2010Prop54
  1
strokes_ogs.tif
102
RTVSPost2010PropOp54
 70
     1
102
RTVSPost2010Prop55
280
     0
102
RTVSPost2010PropOp55
 70
     1
102
RTVSPost2010Prop56
140
1.0
102
RTVSPost2010PropOp56
 70
     1
102
RTVSPost2010Prop57
140
1.0
102
RTVSPost2010PropOp57
 70
     1
102
RTVSPropertyOp0
 70
     1
102
RTVSPropertyOp1
 70
     1
102
RTVSPropertyOp2
 70
     1
102
RTVSPropertyOp3
 70
     1
102
RTVSPropertyOp4
 70
     1
102
RTVSPropertyOp5
 70
     1
102
RTVSPropertyOp6
 70
     1
102
RTVSPropertyOp7
 70
     1
102
RTVSPropertyOp8
 70
     1
102
RTVSPropertyOp9
 70
     1
102
RTVSPropertyOp10
 70
     1
102
RTVSPropertyOp11
 70
     1
102
RTVSPropertyOp12
 70
     1
102
RTVSPropertyOp13
 70
     1
102
RTVSPropertyOp14
 70
     1
102
RTVSPropertyOp15
 70
     1
102
RTVSPropertyOp16
 70
     1
102
RTVSPropertyOp17
 70
     1
102
RTVSPropertyOp18
 70
     1
102
RTVSPropertyOp19
 70
     1
102
RTVSPropertyOp20
 70
     1
102
RTVSPropertyOp21
 70
     1
102
RTVSPropertyOp22
 70
     1
102
RTVSPropertyOp23
 70
     1
102
RTVSPropertyOp24
 70
     1
102
RTVSPropertyOp25
 70
     1
102
RTVSPropertyOp26
 70
     1
102
RTVSPropertyOp27
 70
     1
102
RTVSPropertyOp28
 70
     1
102
RTVSPropertyOp29
 70
     1
102
RTVSPropertyOp30
 70
     1
102
RTVSPropertyOp31
 70
     1
102
RTVSPropertyOp32
 70
     1
102
RTVSPropertyOp33
 70
     1
102
RTVSPropertyOp34
 70
     1
102
RTVSPropertyOp35
 70
     1
102
RTVSPropertyOp36
 70
     1
102
RTVSPropertyOp37
 70
     1
102
RTVSPropertyOp38
 70
     1
102
RTVSPropertyOp39
 70
     1
102
RTVSPropertyOp40
 70
     1
102
RTVSPropertyOp41
 70
     1
102
RTVSPropertyOp42
 70
     1
102
RTVSPropertyOp43
 70
     1
102
RTVSPropertyOp44
 70
     1
102
RTVSPropertyOp45
 70
     1
102
RTVSPropertyOp46
 70
     1
102
RTVSPropertyOp47
 70
     1
102
RTVSPropertyOp48
 70
     1
102
RTVSPropertyOp49
 70
     1
102
RTVSPropertyOp50
 70
     1
102
RTVSPropertyOp51
 70
     0
102
RTVSPropertyOp52
 70
     0
102
RTVSPropertyOp53
 70
     1
102
RTVSPropertyOp54
 70
     1
102
RTVSPropertyOp55
 70
     1
102
RTVSPropertyOp56
 70
     1
102
RTVSPropertyOp57
 70
     1
102
RTVSPropertyOp58
 70
     1
102
RTVSPropertyOp59
 70
     1
102
RTVSPropertyOp60
 70
     1
102
RTVSPropertyOp61
 70
     1
102
RTVSPropertyOp62
 70
     1
  0
XRECORD
  5
AB4A
102
{ACAD_REACTORS
330
AB49
102
}
330
AB49
100
AcDbXrecord
280
     1
102
RTVSPost2010Prop28
280
     0
102
RTVSPost2010PropOp28
 70
     1
102
RTVSPost2010Prop29
280
     1
102
RTVSPost2010PropOp29
 70
     1
102
RTVSPost2010Prop30
280
     1
102
RTVSPost2010PropOp30
 70
     1
102
RTVSPost2010Prop31
280
     0
102
RTVSPost2010PropOp31
 70
     1
102
RTVSPost2010Prop32
280
     0
102
RTVSPost2010PropOp32
 70
     1
102
RTVSPost2010Prop33
280
     0
102
RTVSPost2010PropOp33
 70
     1
102
RTVSPost2010Prop34
280
     0
102
RTVSPost2010PropOp34
 70
     1
102
RTVSPost2010Prop35
280
     0
102
RTVSPost2010PropOp35
 70
     1
102
RTVSPost2010Prop36
280
     0
102
RTVSPost2010PropOp36
 70
     1
102
RTVSPost2010Prop37
 90
       50
102
RTVSPost2010PropOp37
 70
     1
102
RTVSPost2010Prop38
140
0.0
102
RTVSPost2010PropOp38
 70
     1
102
RTVSPost2010Prop39
140
1.0
102
RTVSPost2010PropOp39
 70
     1
102
RTVSPost2010Prop40
 90
        0
102
RTVSPost2010PropOp40
 70
     1
102
RTVSPost2010Prop41ColorIndex
 90
       18
102
RTVSPost2010Prop41ColorRGB
 90
        0
102
RTVSPost2010PropOp41
 70
     1
102
RTVSPost2010Prop42
 90
       50
102
RTVSPost2010PropOp42
 70
     1
102
RTVSPost2010Prop43
 90
        3
102
RTVSPost2010PropOp43
 70
     1
102
RTVSPost2010Prop44ColorIndex
 90
        5
102
RTVSPost2010Prop44ColorRGB
 90
      255
102
RTVSPost2010PropOp44
 70
     1
102
RTVSPost2010Prop45
280
     0
102
RTVSPost2010PropOp45
 70
     1
102
RTVSPost2010Prop46
 90
       50
102
RTVSPost2010PropOp46
 70
     1
102
RTVSPost2010Prop47
 90
       50
102
RTVSPost2010PropOp47
 70
     1
102
RTVSPost2010Prop48
 90
       50
102
RTVSPost2010PropOp48
 70
     1
102
RTVSPost2010Prop49
280
     0
102
RTVSPost2010PropOp49
 70
     1
102
RTVSPost2010Prop50
 90
       50
102
RTVSPost2010PropOp50
 70
     1
102
RTVSPost2010Prop51ColorIndex
 90
      256
102
RTVSPost2010Prop51ColorRGB
 90
-16777216
102
RTVSPost2010PropOp51
 70
     0
102
RTVSPost2010Prop52
140
1.0
102
RTVSPost2010PropOp52
 70
     0
102
RTVSPost2010Prop53
 90
        2
102
RTVSPost2010PropOp53
 70
     1
102
RTVSPost2010Prop54
  1
strokes_ogs.tif
102
RTVSPost2010PropOp54
 70
     1
102
RTVSPost2010Prop55
280
     0
102
RTVSPost2010PropOp55
 70
     1
102
RTVSPost2010Prop56
140
1.0
102
RTVSPost2010PropOp56
 70
     1
102
RTVSPost2010Prop57
140
1.0
102
RTVSPost2010PropOp57
 70
     1
102
RTVSPropertyOp0
 70
     1
102
RTVSPropertyOp1
 70
     1
102
RTVSPropertyOp2
 70
     1
102
RTVSPropertyOp3
 70
     1
102
RTVSPropertyOp4
 70
     1
102
RTVSPropertyOp5
 70
     1
102
RTVSPropertyOp6
 70
     1
102
RTVSPropertyOp7
 70
     1
102
RTVSPropertyOp8
 70
     1
102
RTVSPropertyOp9
 70
     1
102
RTVSPropertyOp10
 70
     1
102
RTVSPropertyOp11
 70
     1
102
RTVSPropertyOp12
 70
     1
102
RTVSPropertyOp13
 70
     1
102
RTVSPropertyOp14
 70
     1
102
RTVSPropertyOp15
 70
     1
102
RTVSPropertyOp16
 70
     1
102
RTVSPropertyOp17
 70
     1
102
RTVSPropertyOp18
 70
     1
102
RTVSPropertyOp19
 70
     1
102
RTVSPropertyOp20
 70
     1
102
RTVSPropertyOp21
 70
     1
102
RTVSPropertyOp22
 70
     1
102
RTVSPropertyOp23
 70
     1
102
RTVSPropertyOp24
 70
     1
102
RTVSPropertyOp25
 70
     1
102
RTVSPropertyOp26
 70
     1
102
RTVSPropertyOp27
 70
     1
102
RTVSPropertyOp28
 70
     1
102
RTVSPropertyOp29
 70
     1
102
RTVSPropertyOp30
 70
     1
102
RTVSPropertyOp31
 70
     1
102
RTVSPropertyOp32
 70
     1
102
RTVSPropertyOp33
 70
     1
102
RTVSPropertyOp34
 70
     1
102
RTVSPropertyOp35
 70
     1
102
RTVSPropertyOp36
 70
     1
102
RTVSPropertyOp37
 70
     1
102
RTVSPropertyOp38
 70
     1
102
RTVSPropertyOp39
 70
     1
102
RTVSPropertyOp40
 70
     1
102
RTVSPropertyOp41
 70
     1
102
RTVSPropertyOp42
 70
     1
102
RTVSPropertyOp43
 70
     1
102
RTVSPropertyOp44
 70
     1
102
RTVSPropertyOp45
 70
     1
102
RTVSPropertyOp46
 70
     1
102
RTVSPropertyOp47
 70
     1
102
RTVSPropertyOp48
 70
     1
102
RTVSPropertyOp49
 70
     1
102
RTVSPropertyOp50
 70
     1
102
RTVSPropertyOp51
 70
     0
102
RTVSPropertyOp52
 70
     0
102
RTVSPropertyOp53
 70
     1
102
RTVSPropertyOp54
 70
     1
102
RTVSPropertyOp55
 70
     1
102
RTVSPropertyOp56
 70
     1
102
RTVSPropertyOp57
 70
     1
102
RTVSPropertyOp58
 70
     1
102
RTVSPropertyOp59
 70
     1
102
RTVSPropertyOp60
 70
     1
102
RTVSPropertyOp61
 70
     1
102
RTVSPropertyOp62
 70
     1
  0
XRECORD
  5
AB3C
102
{ACAD_REACTORS
330
AB3B
102
}
330
AB3B
100
AcDbXrecord
280
     1
102
RTVSPost2010Prop28
280
     0
102
RTVSPost2010PropOp28
 70
     1
102
RTVSPost2010Prop29
280
     1
102
RTVSPost2010PropOp29
 70
     1
102
RTVSPost2010Prop30
280
     1
102
RTVSPost2010PropOp30
 70
     1
102
RTVSPost2010Prop31
280
     0
102
RTVSPost2010PropOp31
 70
     1
102
RTVSPost2010Prop32
280
     0
102
RTVSPost2010PropOp32
 70
     1
102
RTVSPost2010Prop33
280
     0
102
RTVSPost2010PropOp33
 70
     1
102
RTVSPost2010Prop34
280
     0
102
RTVSPost2010PropOp34
 70
     1
102
RTVSPost2010Prop35
280
     0
102
RTVSPost2010PropOp35
 70
     1
102
RTVSPost2010Prop36
280
     0
102
RTVSPost2010PropOp36
 70
     1
102
RTVSPost2010Prop37
 90
       50
102
RTVSPost2010PropOp37
 70
     1
102
RTVSPost2010Prop38
140
0.0
102
RTVSPost2010PropOp38
 70
     1
102
RTVSPost2010Prop39
140
1.0
102
RTVSPost2010PropOp39
 70
     1
102
RTVSPost2010Prop40
 90
        0
102
RTVSPost2010PropOp40
 70
     1
102
RTVSPost2010Prop41ColorIndex
 90
       18
102
RTVSPost2010Prop41ColorRGB
 90
        0
102
RTVSPost2010PropOp41
 70
     1
102
RTVSPost2010Prop42
 90
       50
102
RTVSPost2010PropOp42
 70
     1
102
RTVSPost2010Prop43
 90
        3
102
RTVSPost2010PropOp43
 70
     1
102
RTVSPost2010Prop44ColorIndex
 90
        5
102
RTVSPost2010Prop44ColorRGB
 90
      255
102
RTVSPost2010PropOp44
 70
     1
102
RTVSPost2010Prop45
280
     0
102
RTVSPost2010PropOp45
 70
     1
102
RTVSPost2010Prop46
 90
       50
102
RTVSPost2010PropOp46
 70
     1
102
RTVSPost2010Prop47
 90
       50
102
RTVSPost2010PropOp47
 70
     1
102
RTVSPost2010Prop48
 90
       50
102
RTVSPost2010PropOp48
 70
     1
102
RTVSPost2010Prop49
280
     0
102
RTVSPost2010PropOp49
 70
     1
102
RTVSPost2010Prop50
 90
       50
102
RTVSPost2010PropOp50
 70
     1
102
RTVSPost2010Prop51ColorIndex
 90
      256
102
RTVSPost2010Prop51ColorRGB
 90
-16777216
102
RTVSPost2010PropOp51
 70
     0
102
RTVSPost2010Prop52
140
1.0
102
RTVSPost2010PropOp52
 70
     0
102
RTVSPost2010Prop53
 90
        2
102
RTVSPost2010PropOp53
 70
     1
102
RTVSPost2010Prop54
  1
strokes_ogs.tif
102
RTVSPost2010PropOp54
 70
     1
102
RTVSPost2010Prop55
280
     0
102
RTVSPost2010PropOp55
 70
     1
102
RTVSPost2010Prop56
140
1.0
102
RTVSPost2010PropOp56
 70
     1
102
RTVSPost2010Prop57
140
1.0
102
RTVSPost2010PropOp57
 70
     1
102
RTVSPropertyOp0
 70
     1
102
RTVSPropertyOp1
 70
     1
102
RTVSPropertyOp2
 70
     1
102
RTVSPropertyOp3
 70
     1
102
RTVSPropertyOp4
 70
     1
102
RTVSPropertyOp5
 70
     1
102
RTVSPropertyOp6
 70
     1
102
RTVSPropertyOp7
 70
     1
102
RTVSPropertyOp8
 70
     1
102
RTVSPropertyOp9
 70
     1
102
RTVSPropertyOp10
 70
     1
102
RTVSPropertyOp11
 70
     1
102
RTVSPropertyOp12
 70
     1
102
RTVSPropertyOp13
 70
     1
102
RTVSPropertyOp14
 70
     1
102
RTVSPropertyOp15
 70
     1
102
RTVSPropertyOp16
 70
     1
102
RTVSPropertyOp17
 70
     1
102
RTVSPropertyOp18
 70
     1
102
RTVSPropertyOp19
 70
     1
102
RTVSPropertyOp20
 70
     1
102
RTVSPropertyOp21
 70
     1
102
RTVSPropertyOp22
 70
     1
102
RTVSPropertyOp23
 70
     1
102
RTVSPropertyOp24
 70
     1
102
RTVSPropertyOp25
 70
     1
102
RTVSPropertyOp26
 70
     1
102
RTVSPropertyOp27
 70
     1
102
RTVSPropertyOp28
 70
     1
102
RTVSPropertyOp29
 70
     1
102
RTVSPropertyOp30
 70
     1
102
RTVSPropertyOp31
 70
     1
102
RTVSPropertyOp32
 70
     1
102
RTVSPropertyOp33
 70
     1
102
RTVSPropertyOp34
 70
     1
102
RTVSPropertyOp35
 70
     1
102
RTVSPropertyOp36
 70
     1
102
RTVSPropertyOp37
 70
     1
102
RTVSPropertyOp38
 70
     1
102
RTVSPropertyOp39
 70
     1
102
RTVSPropertyOp40
 70
     1
102
RTVSPropertyOp41
 70
     1
102
RTVSPropertyOp42
 70
     1
102
RTVSPropertyOp43
 70
     1
102
RTVSPropertyOp44
 70
     1
102
RTVSPropertyOp45
 70
     1
102
RTVSPropertyOp46
 70
     1
102
RTVSPropertyOp47
 70
     1
102
RTVSPropertyOp48
 70
     1
102
RTVSPropertyOp49
 70
     1
102
RTVSPropertyOp50
 70
     1
102
RTVSPropertyOp51
 70
     0
102
RTVSPropertyOp52
 70
     0
102
RTVSPropertyOp53
 70
     1
102
RTVSPropertyOp54
 70
     1
102
RTVSPropertyOp55
 70
     1
102
RTVSPropertyOp56
 70
     1
102
RTVSPropertyOp57
 70
     1
102
RTVSPropertyOp58
 70
     1
102
RTVSPropertyOp59
 70
     1
102
RTVSPropertyOp60
 70
     1
102
RTVSPropertyOp61
 70
     1
102
RTVSPropertyOp62
 70
     1
  0
XRECORD
  5
AB40
102
{ACAD_REACTORS
330
AB3F
102
}
330
AB3F
100
AcDbXrecord
280
     1
102
RTVSPost2010Prop28
280
     0
102
RTVSPost2010PropOp28
 70
     1
102
RTVSPost2010Prop29
280
     1
102
RTVSPost2010PropOp29
 70
     1
102
RTVSPost2010Prop30
280
     1
102
RTVSPost2010PropOp30
 70
     1
102
RTVSPost2010Prop31
280
     0
102
RTVSPost2010PropOp31
 70
     1
102
RTVSPost2010Prop32
280
     0
102
RTVSPost2010PropOp32
 70
     1
102
RTVSPost2010Prop33
280
     0
102
RTVSPost2010PropOp33
 70
     1
102
RTVSPost2010Prop34
280
     0
102
RTVSPost2010PropOp34
 70
     1
102
RTVSPost2010Prop35
280
     0
102
RTVSPost2010PropOp35
 70
     1
102
RTVSPost2010Prop36
280
     0
102
RTVSPost2010PropOp36
 70
     1
102
RTVSPost2010Prop37
 90
       50
102
RTVSPost2010PropOp37
 70
     1
102
RTVSPost2010Prop38
140
0.0
102
RTVSPost2010PropOp38
 70
     1
102
RTVSPost2010Prop39
140
1.0
102
RTVSPost2010PropOp39
 70
     1
102
RTVSPost2010Prop40
 90
        0
102
RTVSPost2010PropOp40
 70
     1
102
RTVSPost2010Prop41ColorIndex
 90
       18
102
RTVSPost2010Prop41ColorRGB
 90
        0
102
RTVSPost2010PropOp41
 70
     1
102
RTVSPost2010Prop42
 90
       50
102
RTVSPost2010PropOp42
 70
     1
102
RTVSPost2010Prop43
 90
        3
102
RTVSPost2010PropOp43
 70
     1
102
RTVSPost2010Prop44ColorIndex
 90
        5
102
RTVSPost2010Prop44ColorRGB
 90
      255
102
RTVSPost2010PropOp44
 70
     1
102
RTVSPost2010Prop45
280
     0
102
RTVSPost2010PropOp45
 70
     1
102
RTVSPost2010Prop46
 90
       50
102
RTVSPost2010PropOp46
 70
     1
102
RTVSPost2010Prop47
 90
       50
102
RTVSPost2010PropOp47
 70
     1
102
RTVSPost2010Prop48
 90
       50
102
RTVSPost2010PropOp48
 70
     1
102
RTVSPost2010Prop49
280
     0
102
RTVSPost2010PropOp49
 70
     1
102
RTVSPost2010Prop50
 90
       50
102
RTVSPost2010PropOp50
 70
     1
102
RTVSPost2010Prop51ColorIndex
 90
      256
102
RTVSPost2010Prop51ColorRGB
 90
-16777216
102
RTVSPost2010PropOp51
 70
     0
102
RTVSPost2010Prop52
140
1.0
102
RTVSPost2010PropOp52
 70
     0
102
RTVSPost2010Prop53
 90
        2
102
RTVSPost2010PropOp53
 70
     1
102
RTVSPost2010Prop54
  1
strokes_ogs.tif
102
RTVSPost2010PropOp54
 70
     1
102
RTVSPost2010Prop55
280
     0
102
RTVSPost2010PropOp55
 70
     1
102
RTVSPost2010Prop56
140
1.0
102
RTVSPost2010PropOp56
 70
     1
102
RTVSPost2010Prop57
140
1.0
102
RTVSPost2010PropOp57
 70
     1
102
RTVSPropertyOp0
 70
     1
102
RTVSPropertyOp1
 70
     1
102
RTVSPropertyOp2
 70
     1
102
RTVSPropertyOp3
 70
     1
102
RTVSPropertyOp4
 70
     1
102
RTVSPropertyOp5
 70
     1
102
RTVSPropertyOp6
 70
     1
102
RTVSPropertyOp7
 70
     1
102
RTVSPropertyOp8
 70
     1
102
RTVSPropertyOp9
 70
     1
102
RTVSPropertyOp10
 70
     1
102
RTVSPropertyOp11
 70
     1
102
RTVSPropertyOp12
 70
     1
102
RTVSPropertyOp13
 70
     1
102
RTVSPropertyOp14
 70
     1
102
RTVSPropertyOp15
 70
     1
102
RTVSPropertyOp16
 70
     1
102
RTVSPropertyOp17
 70
     1
102
RTVSPropertyOp18
 70
     1
102
RTVSPropertyOp19
 70
     1
102
RTVSPropertyOp20
 70
     1
102
RTVSPropertyOp21
 70
     1
102
RTVSPropertyOp22
 70
     1
102
RTVSPropertyOp23
 70
     1
102
RTVSPropertyOp24
 70
     1
102
RTVSPropertyOp25
 70
     1
102
RTVSPropertyOp26
 70
     1
102
RTVSPropertyOp27
 70
     1
102
RTVSPropertyOp28
 70
     1
102
RTVSPropertyOp29
 70
     1
102
RTVSPropertyOp30
 70
     1
102
RTVSPropertyOp31
 70
     1
102
RTVSPropertyOp32
 70
     1
102
RTVSPropertyOp33
 70
     1
102
RTVSPropertyOp34
 70
     1
102
RTVSPropertyOp35
 70
     1
102
RTVSPropertyOp36
 70
     1
102
RTVSPropertyOp37
 70
     1
102
RTVSPropertyOp38
 70
     1
102
RTVSPropertyOp39
 70
     1
102
RTVSPropertyOp40
 70
     1
102
RTVSPropertyOp41
 70
     1
102
RTVSPropertyOp42
 70
     1
102
RTVSPropertyOp43
 70
     1
102
RTVSPropertyOp44
 70
     1
102
RTVSPropertyOp45
 70
     1
102
RTVSPropertyOp46
 70
     1
102
RTVSPropertyOp47
 70
     1
102
RTVSPropertyOp48
 70
     1
102
RTVSPropertyOp49
 70
     1
102
RTVSPropertyOp50
 70
     1
102
RTVSPropertyOp51
 70
     0
102
RTVSPropertyOp52
 70
     0
102
RTVSPropertyOp53
 70
     1
102
RTVSPropertyOp54
 70
     1
102
RTVSPropertyOp55
 70
     1
102
RTVSPropertyOp56
 70
     1
102
RTVSPropertyOp57
 70
     1
102
RTVSPropertyOp58
 70
     1
102
RTVSPropertyOp59
 70
     1
102
RTVSPropertyOp60
 70
     1
102
RTVSPropertyOp61
 70
     1
102
RTVSPropertyOp62
 70
     1
  0
XRECORD
  5
AB5A
102
{ACAD_REACTORS
330
AB59
102
}
330
AB59
100
AcDbXrecord
280
     1
102
RTVSPost2010Prop28
280
     0
102
RTVSPost2010PropOp28
 70
     1
102
RTVSPost2010Prop29
280
     1
102
RTVSPost2010PropOp29
 70
     1
102
RTVSPost2010Prop30
280
     1
102
RTVSPost2010PropOp30
 70
     1
102
RTVSPost2010Prop31
280
     0
102
RTVSPost2010PropOp31
 70
     1
102
RTVSPost2010Prop32
280
     0
102
RTVSPost2010PropOp32
 70
     1
102
RTVSPost2010Prop33
280
     0
102
RTVSPost2010PropOp33
 70
     1
102
RTVSPost2010Prop34
280
     0
102
RTVSPost2010PropOp34
 70
     1
102
RTVSPost2010Prop35
280
     0
102
RTVSPost2010PropOp35
 70
     1
102
RTVSPost2010Prop36
280
     0
102
RTVSPost2010PropOp36
 70
     1
102
RTVSPost2010Prop37
 90
       50
102
RTVSPost2010PropOp37
 70
     0
102
RTVSPost2010Prop38
140
0.0
102
RTVSPost2010PropOp38
 70
     0
102
RTVSPost2010Prop39
140
1.0
102
RTVSPost2010PropOp39
 70
     0
102
RTVSPost2010Prop40
 90
        0
102
RTVSPost2010PropOp40
 70
     0
102
RTVSPost2010Prop41ColorIndex
 90
       18
102
RTVSPost2010Prop41ColorRGB
 90
        0
102
RTVSPost2010PropOp41
 70
     0
102
RTVSPost2010Prop42
 90
       50
102
RTVSPost2010PropOp42
 70
     0
102
RTVSPost2010Prop43
 90
        3
102
RTVSPost2010PropOp43
 70
     0
102
RTVSPost2010Prop44ColorIndex
 90
        5
102
RTVSPost2010Prop44ColorRGB
 90
      255
102
RTVSPost2010PropOp44
 70
     0
102
RTVSPost2010Prop45
280
     0
102
RTVSPost2010PropOp45
 70
     1
102
RTVSPost2010Prop46
 90
       50
102
RTVSPost2010PropOp46
 70
     0
102
RTVSPost2010Prop47
 90
       50
102
RTVSPost2010PropOp47
 70
     0
102
RTVSPost2010Prop48
 90
       50
102
RTVSPost2010PropOp48
 70
     0
102
RTVSPost2010Prop49
280
     0
102
RTVSPost2010PropOp49
 70
     1
102
RTVSPost2010Prop50
 90
       50
102
RTVSPost2010PropOp50
 70
     0
102
RTVSPost2010Prop51ColorIndex
 90
      256
102
RTVSPost2010Prop51ColorRGB
 90
-16777216
102
RTVSPost2010PropOp51
 70
     0
102
RTVSPost2010Prop52
140
1.0
102
RTVSPost2010PropOp52
 70
     0
102
RTVSPost2010Prop53
 90
        2
102
RTVSPost2010PropOp53
 70
     0
102
RTVSPost2010Prop54
  1
strokes_ogs.tif
102
RTVSPost2010PropOp54
 70
     0
102
RTVSPost2010Prop55
280
     0
102
RTVSPost2010PropOp55
 70
     1
102
RTVSPost2010Prop56
140
1.0
102
RTVSPost2010PropOp56
 70
     0
102
RTVSPost2010Prop57
140
1.0
102
RTVSPost2010PropOp57
 70
     0
102
RTVSPropertyOp0
 70
     0
102
RTVSPropertyOp1
 70
     0
102
RTVSPropertyOp2
 70
     0
102
RTVSPropertyOp3
 70
     0
102
RTVSPropertyOp4
 70
     0
102
RTVSPropertyOp5
 70
     0
102
RTVSPropertyOp6
 70
     0
102
RTVSPropertyOp7
 70
     0
102
RTVSPropertyOp8
 70
     0
102
RTVSPropertyOp9
 70
     0
102
RTVSPropertyOp10
 70
     0
102
RTVSPropertyOp11
 70
     0
102
RTVSPropertyOp12
 70
     0
102
RTVSPropertyOp13
 70
     0
102
RTVSPropertyOp14
 70
     2
102
RTVSPropertyOp15
 70
     0
102
RTVSPropertyOp16
 70
     0
102
RTVSPropertyOp17
 70
     0
102
RTVSPropertyOp18
 70
     0
102
RTVSPropertyOp19
 70
     0
102
RTVSPropertyOp20
 70
     0
102
RTVSPropertyOp21
 70
     0
102
RTVSPropertyOp22
 70
     0
102
RTVSPropertyOp23
 70
     0
102
RTVSPropertyOp24
 70
     0
102
RTVSPropertyOp25
 70
     0
102
RTVSPropertyOp26
 70
     0
102
RTVSPropertyOp27
 70
     0
102
RTVSPropertyOp28
 70
     1
102
RTVSPropertyOp29
 70
     1
102
RTVSPropertyOp30
 70
     1
102
RTVSPropertyOp31
 70
     1
102
RTVSPropertyOp32
 70
     1
102
RTVSPropertyOp33
 70
     1
102
RTVSPropertyOp34
 70
     1
102
RTVSPropertyOp35
 70
     1
102
RTVSPropertyOp36
 70
     1
102
RTVSPropertyOp37
 70
     0
102
RTVSPropertyOp38
 70
     0
102
RTVSPropertyOp39
 70
     0
102
RTVSPropertyOp40
 70
     0
102
RTVSPropertyOp41
 70
     0
102
RTVSPropertyOp42
 70
     0
102
RTVSPropertyOp43
 70
     0
102
RTVSPropertyOp44
 70
     0
102
RTVSPropertyOp45
 70
     1
102
RTVSPropertyOp46
 70
     0
102
RTVSPropertyOp47
 70
     0
102
RTVSPropertyOp48
 70
     0
102
RTVSPropertyOp49
 70
     1
102
RTVSPropertyOp50
 70
     0
102
RTVSPropertyOp51
 70
     0
102
RTVSPropertyOp52
 70
     0
102
RTVSPropertyOp53
 70
     0
102
RTVSPropertyOp54
 70
     0
102
RTVSPropertyOp55
 70
     1
102
RTVSPropertyOp56
 70
     0
102
RTVSPropertyOp57
 70
     0
102
RTVSPropertyOp58
 70
     0
102
RTVSPropertyOp59
 70
     0
102
RTVSPropertyOp60
 70
     0
102
RTVSPropertyOp61
 70
     0
102
RTVSPropertyOp62
 70
     0
  0
XRECORD
  5
AB48
102
{ACAD_REACTORS
330
AB47
102
}
330
AB47
100
AcDbXrecord
280
     1
102
RTVSPost2010Prop28
280
     0
102
RTVSPost2010PropOp28
 70
     1
102
RTVSPost2010Prop29
280
     1
102
RTVSPost2010PropOp29
 70
     1
102
RTVSPost2010Prop30
280
     1
102
RTVSPost2010PropOp30
 70
     1
102
RTVSPost2010Prop31
280
     0
102
RTVSPost2010PropOp31
 70
     1
102
RTVSPost2010Prop32
280
     0
102
RTVSPost2010PropOp32
 70
     1
102
RTVSPost2010Prop33
280
     0
102
RTVSPost2010PropOp33
 70
     1
102
RTVSPost2010Prop34
280
     0
102
RTVSPost2010PropOp34
 70
     1
102
RTVSPost2010Prop35
280
     0
102
RTVSPost2010PropOp35
 70
     1
102
RTVSPost2010Prop36
280
     0
102
RTVSPost2010PropOp36
 70
     1
102
RTVSPost2010Prop37
 90
       50
102
RTVSPost2010PropOp37
 70
     1
102
RTVSPost2010Prop38
140
0.0
102
RTVSPost2010PropOp38
 70
     1
102
RTVSPost2010Prop39
140
1.0
102
RTVSPost2010PropOp39
 70
     1
102
RTVSPost2010Prop40
 90
        0
102
RTVSPost2010PropOp40
 70
     1
102
RTVSPost2010Prop41ColorIndex
 90
       18
102
RTVSPost2010Prop41ColorRGB
 90
        0
102
RTVSPost2010PropOp41
 70
     1
102
RTVSPost2010Prop42
 90
       50
102
RTVSPost2010PropOp42
 70
     1
102
RTVSPost2010Prop43
 90
        3
102
RTVSPost2010PropOp43
 70
     1
102
RTVSPost2010Prop44ColorIndex
 90
        5
102
RTVSPost2010Prop44ColorRGB
 90
      255
102
RTVSPost2010PropOp44
 70
     1
102
RTVSPost2010Prop45
280
     0
102
RTVSPost2010PropOp45
 70
     1
102
RTVSPost2010Prop46
 90
       50
102
RTVSPost2010PropOp46
 70
     1
102
RTVSPost2010Prop47
 90
       50
102
RTVSPost2010PropOp47
 70
     1
102
RTVSPost2010Prop48
 90
       50
102
RTVSPost2010PropOp48
 70
     1
102
RTVSPost2010Prop49
280
     0
102
RTVSPost2010PropOp49
 70
     1
102
RTVSPost2010Prop50
 90
       50
102
RTVSPost2010PropOp50
 70
     1
102
RTVSPost2010Prop51ColorIndex
 90
      256
102
RTVSPost2010Prop51ColorRGB
 90
-16777216
102
RTVSPost2010PropOp51
 70
     0
102
RTVSPost2010Prop52
140
1.0
102
RTVSPost2010PropOp52
 70
     0
102
RTVSPost2010Prop53
 90
        2
102
RTVSPost2010PropOp53
 70
     1
102
RTVSPost2010Prop54
  1
strokes_ogs.tif
102
RTVSPost2010PropOp54
 70
     1
102
RTVSPost2010Prop55
280
     0
102
RTVSPost2010PropOp55
 70
     1
102
RTVSPost2010Prop56
140
1.0
102
RTVSPost2010PropOp56
 70
     1
102
RTVSPost2010Prop57
140
1.0
102
RTVSPost2010PropOp57
 70
     1
102
RTVSPropertyOp0
 70
     1
102
RTVSPropertyOp1
 70
     1
102
RTVSPropertyOp2
 70
     1
102
RTVSPropertyOp3
 70
     1
102
RTVSPropertyOp4
 70
     1
102
RTVSPropertyOp5
 70
     1
102
RTVSPropertyOp6
 70
     1
102
RTVSPropertyOp7
 70
     1
102
RTVSPropertyOp8
 70
     1
102
RTVSPropertyOp9
 70
     1
102
RTVSPropertyOp10
 70
     1
102
RTVSPropertyOp11
 70
     1
102
RTVSPropertyOp12
 70
     1
102
RTVSPropertyOp13
 70
     1
102
RTVSPropertyOp14
 70
     1
102
RTVSPropertyOp15
 70
     1
102
RTVSPropertyOp16
 70
     1
102
RTVSPropertyOp17
 70
     1
102
RTVSPropertyOp18
 70
     1
102
RTVSPropertyOp19
 70
     1
102
RTVSPropertyOp20
 70
     1
102
RTVSPropertyOp21
 70
     1
102
RTVSPropertyOp22
 70
     1
102
RTVSPropertyOp23
 70
     1
102
RTVSPropertyOp24
 70
     1
102
RTVSPropertyOp25
 70
     1
102
RTVSPropertyOp26
 70
     1
102
RTVSPropertyOp27
 70
     1
102
RTVSPropertyOp28
 70
     1
102
RTVSPropertyOp29
 70
     1
102
RTVSPropertyOp30
 70
     1
102
RTVSPropertyOp31
 70
     1
102
RTVSPropertyOp32
 70
     1
102
RTVSPropertyOp33
 70
     1
102
RTVSPropertyOp34
 70
     1
102
RTVSPropertyOp35
 70
     1
102
RTVSPropertyOp36
 70
     1
102
RTVSPropertyOp37
 70
     1
102
RTVSPropertyOp38
 70
     1
102
RTVSPropertyOp39
 70
     1
102
RTVSPropertyOp40
 70
     1
102
RTVSPropertyOp41
 70
     1
102
RTVSPropertyOp42
 70
     1
102
RTVSPropertyOp43
 70
     1
102
RTVSPropertyOp44
 70
     1
102
RTVSPropertyOp45
 70
     1
102
RTVSPropertyOp46
 70
     1
102
RTVSPropertyOp47
 70
     1
102
RTVSPropertyOp48
 70
     1
102
RTVSPropertyOp49
 70
     1
102
RTVSPropertyOp50
 70
     1
102
RTVSPropertyOp51
 70
     0
102
RTVSPropertyOp52
 70
     0
102
RTVSPropertyOp53
 70
     1
102
RTVSPropertyOp54
 70
     1
102
RTVSPropertyOp55
 70
     1
102
RTVSPropertyOp56
 70
     1
102
RTVSPropertyOp57
 70
     1
102
RTVSPropertyOp58
 70
     1
102
RTVSPropertyOp59
 70
     1
102
RTVSPropertyOp60
 70
     1
102
RTVSPropertyOp61
 70
     1
102
RTVSPropertyOp62
 70
     1
  0
XRECORD
  5
AB2C
102
{ACAD_REACTORS
330
AB2B
102
}
330
AB2B
100
AcDbXrecord
280
     1
102
RTVSPost2010Prop28
280
     0
102
RTVSPost2010PropOp28
 70
     1
102
RTVSPost2010Prop29
280
     1
102
RTVSPost2010PropOp29
 70
     1
102
RTVSPost2010Prop30
280
     1
102
RTVSPost2010PropOp30
 70
     1
102
RTVSPost2010Prop31
280
     0
102
RTVSPost2010PropOp31
 70
     1
102
RTVSPost2010Prop32
280
     0
102
RTVSPost2010PropOp32
 70
     1
102
RTVSPost2010Prop33
280
     0
102
RTVSPost2010PropOp33
 70
     1
102
RTVSPost2010Prop34
280
     0
102
RTVSPost2010PropOp34
 70
     1
102
RTVSPost2010Prop35
280
     0
102
RTVSPost2010PropOp35
 70
     1
102
RTVSPost2010Prop36
280
     0
102
RTVSPost2010PropOp36
 70
     1
102
RTVSPost2010Prop37
 90
       50
102
RTVSPost2010PropOp37
 70
     1
102
RTVSPost2010Prop38
140
0.0
102
RTVSPost2010PropOp38
 70
     1
102
RTVSPost2010Prop39
140
1.0
102
RTVSPost2010PropOp39
 70
     1
102
RTVSPost2010Prop40
 90
        0
102
RTVSPost2010PropOp40
 70
     1
102
RTVSPost2010Prop41ColorIndex
 90
       18
102
RTVSPost2010Prop41ColorRGB
 90
        0
102
RTVSPost2010PropOp41
 70
     1
102
RTVSPost2010Prop42
 90
       50
102
RTVSPost2010PropOp42
 70
     1
102
RTVSPost2010Prop43
 90
        3
102
RTVSPost2010PropOp43
 70
     1
102
RTVSPost2010Prop44ColorIndex
 90
        5
102
RTVSPost2010Prop44ColorRGB
 90
      255
102
RTVSPost2010PropOp44
 70
     1
102
RTVSPost2010Prop45
280
     0
102
RTVSPost2010PropOp45
 70
     1
102
RTVSPost2010Prop46
 90
       50
102
RTVSPost2010PropOp46
 70
     1
102
RTVSPost2010Prop47
 90
       50
102
RTVSPost2010PropOp47
 70
     1
102
RTVSPost2010Prop48
 90
       50
102
RTVSPost2010PropOp48
 70
     1
102
RTVSPost2010Prop49
280
     0
102
RTVSPost2010PropOp49
 70
     1
102
RTVSPost2010Prop50
 90
       50
102
RTVSPost2010PropOp50
 70
     1
102
RTVSPost2010Prop51ColorIndex
 90
      256
102
RTVSPost2010Prop51ColorRGB
 90
-16777216
102
RTVSPost2010PropOp51
 70
     0
102
RTVSPost2010Prop52
140
1.0
102
RTVSPost2010PropOp52
 70
     0
102
RTVSPost2010Prop53
 90
        2
102
RTVSPost2010PropOp53
 70
     1
102
RTVSPost2010Prop54
  1
strokes_ogs.tif
102
RTVSPost2010PropOp54
 70
     1
102
RTVSPost2010Prop55
280
     0
102
RTVSPost2010PropOp55
 70
     1
102
RTVSPost2010Prop56
140
1.0
102
RTVSPost2010PropOp56
 70
     1
102
RTVSPost2010Prop57
140
1.0
102
RTVSPost2010PropOp57
 70
     1
102
RTVSPropertyOp0
 70
     1
102
RTVSPropertyOp1
 70
     1
102
RTVSPropertyOp2
 70
     1
102
RTVSPropertyOp3
 70
     1
102
RTVSPropertyOp4
 70
     1
102
RTVSPropertyOp5
 70
     1
102
RTVSPropertyOp6
 70
     1
102
RTVSPropertyOp7
 70
     1
102
RTVSPropertyOp8
 70
     1
102
RTVSPropertyOp9
 70
     1
102
RTVSPropertyOp10
 70
     1
102
RTVSPropertyOp11
 70
     1
102
RTVSPropertyOp12
 70
     1
102
RTVSPropertyOp13
 70
     1
102
RTVSPropertyOp14
 70
     1
102
RTVSPropertyOp15
 70
     1
102
RTVSPropertyOp16
 70
     1
102
RTVSPropertyOp17
 70
     1
102
RTVSPropertyOp18
 70
     1
102
RTVSPropertyOp19
 70
     1
102
RTVSPropertyOp20
 70
     1
102
RTVSPropertyOp21
 70
     1
102
RTVSPropertyOp22
 70
     1
102
RTVSPropertyOp23
 70
     1
102
RTVSPropertyOp24
 70
     1
102
RTVSPropertyOp25
 70
     1
102
RTVSPropertyOp26
 70
     1
102
RTVSPropertyOp27
 70
     1
102
RTVSPropertyOp28
 70
     1
102
RTVSPropertyOp29
 70
     1
102
RTVSPropertyOp30
 70
     1
102
RTVSPropertyOp31
 70
     1
102
RTVSPropertyOp32
 70
     1
102
RTVSPropertyOp33
 70
     1
102
RTVSPropertyOp34
 70
     1
102
RTVSPropertyOp35
 70
     1
102
RTVSPropertyOp36
 70
     1
102
RTVSPropertyOp37
 70
     1
102
RTVSPropertyOp38
 70
     1
102
RTVSPropertyOp39
 70
     1
102
RTVSPropertyOp40
 70
     1
102
RTVSPropertyOp41
 70
     1
102
RTVSPropertyOp42
 70
     1
102
RTVSPropertyOp43
 70
     1
102
RTVSPropertyOp44
 70
     1
102
RTVSPropertyOp45
 70
     1
102
RTVSPropertyOp46
 70
     1
102
RTVSPropertyOp47
 70
     1
102
RTVSPropertyOp48
 70
     1
102
RTVSPropertyOp49
 70
     1
102
RTVSPropertyOp50
 70
     1
102
RTVSPropertyOp51
 70
     0
102
RTVSPropertyOp52
 70
     0
102
RTVSPropertyOp53
 70
     1
102
RTVSPropertyOp54
 70
     1
102
RTVSPropertyOp55
 70
     1
102
RTVSPropertyOp56
 70
     1
102
RTVSPropertyOp57
 70
     1
102
RTVSPropertyOp58
 70
     1
102
RTVSPropertyOp59
 70
     1
102
RTVSPropertyOp60
 70
     1
102
RTVSPropertyOp61
 70
     1
102
RTVSPropertyOp62
 70
     1
  0
XRECORD
  5
AB2E
102
{ACAD_REACTORS
330
AB2D
102
}
330
AB2D
100
AcDbXrecord
280
     1
102
RTVSPost2010Prop28
280
     0
102
RTVSPost2010PropOp28
 70
     1
102
RTVSPost2010Prop29
280
     1
102
RTVSPost2010PropOp29
 70
     1
102
RTVSPost2010Prop30
280
     1
102
RTVSPost2010PropOp30
 70
     1
102
RTVSPost2010Prop31
280
     0
102
RTVSPost2010PropOp31
 70
     1
102
RTVSPost2010Prop32
280
     0
102
RTVSPost2010PropOp32
 70
     1
102
RTVSPost2010Prop33
280
     0
102
RTVSPost2010PropOp33
 70
     1
102
RTVSPost2010Prop34
280
     0
102
RTVSPost2010PropOp34
 70
     1
102
RTVSPost2010Prop35
280
     0
102
RTVSPost2010PropOp35
 70
     1
102
RTVSPost2010Prop36
280
     0
102
RTVSPost2010PropOp36
 70
     1
102
RTVSPost2010Prop37
 90
       50
102
RTVSPost2010PropOp37
 70
     1
102
RTVSPost2010Prop38
140
0.0
102
RTVSPost2010PropOp38
 70
     1
102
RTVSPost2010Prop39
140
1.0
102
RTVSPost2010PropOp39
 70
     1
102
RTVSPost2010Prop40
 90
        0
102
RTVSPost2010PropOp40
 70
     1
102
RTVSPost2010Prop41ColorIndex
 90
       18
102
RTVSPost2010Prop41ColorRGB
 90
        0
102
RTVSPost2010PropOp41
 70
     1
102
RTVSPost2010Prop42
 90
       50
102
RTVSPost2010PropOp42
 70
     1
102
RTVSPost2010Prop43
 90
        3
102
RTVSPost2010PropOp43
 70
     1
102
RTVSPost2010Prop44ColorIndex
 90
        5
102
RTVSPost2010Prop44ColorRGB
 90
      255
102
RTVSPost2010PropOp44
 70
     1
102
RTVSPost2010Prop45
280
     0
102
RTVSPost2010PropOp45
 70
     1
102
RTVSPost2010Prop46
 90
       50
102
RTVSPost2010PropOp46
 70
     1
102
RTVSPost2010Prop47
 90
       50
102
RTVSPost2010PropOp47
 70
     1
102
RTVSPost2010Prop48
 90
       50
102
RTVSPost2010PropOp48
 70
     1
102
RTVSPost2010Prop49
280
     0
102
RTVSPost2010PropOp49
 70
     1
102
RTVSPost2010Prop50
 90
       50
102
RTVSPost2010PropOp50
 70
     1
102
RTVSPost2010Prop51ColorIndex
 90
      256
102
RTVSPost2010Prop51ColorRGB
 90
-16777216
102
RTVSPost2010PropOp51
 70
     0
102
RTVSPost2010Prop52
140
1.0
102
RTVSPost2010PropOp52
 70
     0
102
RTVSPost2010Prop53
 90
        2
102
RTVSPost2010PropOp53
 70
     1
102
RTVSPost2010Prop54
  1
strokes_ogs.tif
102
RTVSPost2010PropOp54
 70
     1
102
RTVSPost2010Prop55
280
     0
102
RTVSPost2010PropOp55
 70
     1
102
RTVSPost2010Prop56
140
1.0
102
RTVSPost2010PropOp56
 70
     1
102
RTVSPost2010Prop57
140
1.0
102
RTVSPost2010PropOp57
 70
     1
102
RTVSPropertyOp0
 70
     1
102
RTVSPropertyOp1
 70
     1
102
RTVSPropertyOp2
 70
     1
102
RTVSPropertyOp3
 70
     1
102
RTVSPropertyOp4
 70
     1
102
RTVSPropertyOp5
 70
     1
102
RTVSPropertyOp6
 70
     1
102
RTVSPropertyOp7
 70
     1
102
RTVSPropertyOp8
 70
     1
102
RTVSPropertyOp9
 70
     1
102
RTVSPropertyOp10
 70
     1
102
RTVSPropertyOp11
 70
     1
102
RTVSPropertyOp12
 70
     1
102
RTVSPropertyOp13
 70
     1
102
RTVSPropertyOp14
 70
     1
102
RTVSPropertyOp15
 70
     1
102
RTVSPropertyOp16
 70
     1
102
RTVSPropertyOp17
 70
     1
102
RTVSPropertyOp18
 70
     1
102
RTVSPropertyOp19
 70
     1
102
RTVSPropertyOp20
 70
     1
102
RTVSPropertyOp21
 70
     1
102
RTVSPropertyOp22
 70
     1
102
RTVSPropertyOp23
 70
     1
102
RTVSPropertyOp24
 70
     1
102
RTVSPropertyOp25
 70
     1
102
RTVSPropertyOp26
 70
     1
102
RTVSPropertyOp27
 70
     1
102
RTVSPropertyOp28
 70
     1
102
RTVSPropertyOp29
 70
     1
102
RTVSPropertyOp30
 70
     1
102
RTVSPropertyOp31
 70
     1
102
RTVSPropertyOp32
 70
     1
102
RTVSPropertyOp33
 70
     1
102
RTVSPropertyOp34
 70
     1
102
RTVSPropertyOp35
 70
     1
102
RTVSPropertyOp36
 70
     1
102
RTVSPropertyOp37
 70
     1
102
RTVSPropertyOp38
 70
     1
102
RTVSPropertyOp39
 70
     1
102
RTVSPropertyOp40
 70
     1
102
RTVSPropertyOp41
 70
     1
102
RTVSPropertyOp42
 70
     1
102
RTVSPropertyOp43
 70
     1
102
RTVSPropertyOp44
 70
     1
102
RTVSPropertyOp45
 70
     1
102
RTVSPropertyOp46
 70
     1
102
RTVSPropertyOp47
 70
     1
102
RTVSPropertyOp48
 70
     1
102
RTVSPropertyOp49
 70
     1
102
RTVSPropertyOp50
 70
     1
102
RTVSPropertyOp51
 70
     0
102
RTVSPropertyOp52
 70
     0
102
RTVSPropertyOp53
 70
     1
102
RTVSPropertyOp54
 70
     1
102
RTVSPropertyOp55
 70
     1
102
RTVSPropertyOp56
 70
     1
102
RTVSPropertyOp57
 70
     1
102
RTVSPropertyOp58
 70
     1
102
RTVSPropertyOp59
 70
     1
102
RTVSPropertyOp60
 70
     1
102
RTVSPropertyOp61
 70
     1
102
RTVSPropertyOp62
 70
     1
  0
XRECORD
  5
AB30
102
{ACAD_REACTORS
330
AB2F
102
}
330
AB2F
100
AcDbXrecord
280
     1
102
RTVSPost2010Prop28
280
     0
102
RTVSPost2010PropOp28
 70
     1
102
RTVSPost2010Prop29
280
     1
102
RTVSPost2010PropOp29
 70
     1
102
RTVSPost2010Prop30
280
     1
102
RTVSPost2010PropOp30
 70
     1
102
RTVSPost2010Prop31
280
     0
102
RTVSPost2010PropOp31
 70
     1
102
RTVSPost2010Prop32
280
     0
102
RTVSPost2010PropOp32
 70
     1
102
RTVSPost2010Prop33
280
     0
102
RTVSPost2010PropOp33
 70
     1
102
RTVSPost2010Prop34
280
     0
102
RTVSPost2010PropOp34
 70
     1
102
RTVSPost2010Prop35
280
     0
102
RTVSPost2010PropOp35
 70
     1
102
RTVSPost2010Prop36
280
     0
102
RTVSPost2010PropOp36
 70
     1
102
RTVSPost2010Prop37
 90
       50
102
RTVSPost2010PropOp37
 70
     1
102
RTVSPost2010Prop38
140
0.0
102
RTVSPost2010PropOp38
 70
     1
102
RTVSPost2010Prop39
140
1.0
102
RTVSPost2010PropOp39
 70
     1
102
RTVSPost2010Prop40
 90
        0
102
RTVSPost2010PropOp40
 70
     1
102
RTVSPost2010Prop41ColorIndex
 90
       18
102
RTVSPost2010Prop41ColorRGB
 90
        0
102
RTVSPost2010PropOp41
 70
     1
102
RTVSPost2010Prop42
 90
       50
102
RTVSPost2010PropOp42
 70
     1
102
RTVSPost2010Prop43
 90
        3
102
RTVSPost2010PropOp43
 70
     1
102
RTVSPost2010Prop44ColorIndex
 90
        5
102
RTVSPost2010Prop44ColorRGB
 90
      255
102
RTVSPost2010PropOp44
 70
     1
102
RTVSPost2010Prop45
280
     0
102
RTVSPost2010PropOp45
 70
     1
102
RTVSPost2010Prop46
 90
       50
102
RTVSPost2010PropOp46
 70
     1
102
RTVSPost2010Prop47
 90
       50
102
RTVSPost2010PropOp47
 70
     1
102
RTVSPost2010Prop48
 90
       50
102
RTVSPost2010PropOp48
 70
     1
102
RTVSPost2010Prop49
280
     0
102
RTVSPost2010PropOp49
 70
     1
102
RTVSPost2010Prop50
 90
       50
102
RTVSPost2010PropOp50
 70
     1
102
RTVSPost2010Prop51ColorIndex
 90
      256
102
RTVSPost2010Prop51ColorRGB
 90
-16777216
102
RTVSPost2010PropOp51
 70
     0
102
RTVSPost2010Prop52
140
1.0
102
RTVSPost2010PropOp52
 70
     0
102
RTVSPost2010Prop53
 90
        2
102
RTVSPost2010PropOp53
 70
     1
102
RTVSPost2010Prop54
  1
strokes_ogs.tif
102
RTVSPost2010PropOp54
 70
     1
102
RTVSPost2010Prop55
280
     0
102
RTVSPost2010PropOp55
 70
     1
102
RTVSPost2010Prop56
140
1.0
102
RTVSPost2010PropOp56
 70
     1
102
RTVSPost2010Prop57
140
1.0
102
RTVSPost2010PropOp57
 70
     1
102
RTVSPropertyOp0
 70
     1
102
RTVSPropertyOp1
 70
     1
102
RTVSPropertyOp2
 70
     1
102
RTVSPropertyOp3
 70
     1
102
RTVSPropertyOp4
 70
     1
102
RTVSPropertyOp5
 70
     1
102
RTVSPropertyOp6
 70
     1
102
RTVSPropertyOp7
 70
     1
102
RTVSPropertyOp8
 70
     1
102
RTVSPropertyOp9
 70
     1
102
RTVSPropertyOp10
 70
     1
102
RTVSPropertyOp11
 70
     1
102
RTVSPropertyOp12
 70
     1
102
RTVSPropertyOp13
 70
     1
102
RTVSPropertyOp14
 70
     1
102
RTVSPropertyOp15
 70
     1
102
RTVSPropertyOp16
 70
     1
102
RTVSPropertyOp17
 70
     1
102
RTVSPropertyOp18
 70
     1
102
RTVSPropertyOp19
 70
     1
102
RTVSPropertyOp20
 70
     1
102
RTVSPropertyOp21
 70
     1
102
RTVSPropertyOp22
 70
     1
102
RTVSPropertyOp23
 70
     1
102
RTVSPropertyOp24
 70
     1
102
RTVSPropertyOp25
 70
     1
102
RTVSPropertyOp26
 70
     1
102
RTVSPropertyOp27
 70
     1
102
RTVSPropertyOp28
 70
     1
102
RTVSPropertyOp29
 70
     1
102
RTVSPropertyOp30
 70
     1
102
RTVSPropertyOp31
 70
     1
102
RTVSPropertyOp32
 70
     1
102
RTVSPropertyOp33
 70
     1
102
RTVSPropertyOp34
 70
     1
102
RTVSPropertyOp35
 70
     1
102
RTVSPropertyOp36
 70
     1
102
RTVSPropertyOp37
 70
     1
102
RTVSPropertyOp38
 70
     1
102
RTVSPropertyOp39
 70
     1
102
RTVSPropertyOp40
 70
     1
102
RTVSPropertyOp41
 70
     1
102
RTVSPropertyOp42
 70
     1
102
RTVSPropertyOp43
 70
     1
102
RTVSPropertyOp44
 70
     1
102
RTVSPropertyOp45
 70
     1
102
RTVSPropertyOp46
 70
     1
102
RTVSPropertyOp47
 70
     1
102
RTVSPropertyOp48
 70
     1
102
RTVSPropertyOp49
 70
     1
102
RTVSPropertyOp50
 70
     1
102
RTVSPropertyOp51
 70
     0
102
RTVSPropertyOp52
 70
     0
102
RTVSPropertyOp53
 70
     1
102
RTVSPropertyOp54
 70
     1
102
RTVSPropertyOp55
 70
     1
102
RTVSPropertyOp56
 70
     1
102
RTVSPropertyOp57
 70
     1
102
RTVSPropertyOp58
 70
     1
102
RTVSPropertyOp59
 70
     1
102
RTVSPropertyOp60
 70
     1
102
RTVSPropertyOp61
 70
     1
102
RTVSPropertyOp62
 70
     1
  0
XRECORD
  5
AB32
102
{ACAD_REACTORS
330
AB31
102
}
330
AB31
100
AcDbXrecord
280
     1
102
RTVSPost2010Prop28
280
     0
102
RTVSPost2010PropOp28
 70
     1
102
RTVSPost2010Prop29
280
     1
102
RTVSPost2010PropOp29
 70
     1
102
RTVSPost2010Prop30
280
     1
102
RTVSPost2010PropOp30
 70
     1
102
RTVSPost2010Prop31
280
     0
102
RTVSPost2010PropOp31
 70
     1
102
RTVSPost2010Prop32
280
     0
102
RTVSPost2010PropOp32
 70
     1
102
RTVSPost2010Prop33
280
     0
102
RTVSPost2010PropOp33
 70
     1
102
RTVSPost2010Prop34
280
     0
102
RTVSPost2010PropOp34
 70
     1
102
RTVSPost2010Prop35
280
     0
102
RTVSPost2010PropOp35
 70
     1
102
RTVSPost2010Prop36
280
     0
102
RTVSPost2010PropOp36
 70
     1
102
RTVSPost2010Prop37
 90
       50
102
RTVSPost2010PropOp37
 70
     1
102
RTVSPost2010Prop38
140
0.0
102
RTVSPost2010PropOp38
 70
     1
102
RTVSPost2010Prop39
140
1.0
102
RTVSPost2010PropOp39
 70
     1
102
RTVSPost2010Prop40
 90
        0
102
RTVSPost2010PropOp40
 70
     1
102
RTVSPost2010Prop41ColorIndex
 90
       18
102
RTVSPost2010Prop41ColorRGB
 90
        0
102
RTVSPost2010PropOp41
 70
     1
102
RTVSPost2010Prop42
 90
       50
102
RTVSPost2010PropOp42
 70
     1
102
RTVSPost2010Prop43
 90
        3
102
RTVSPost2010PropOp43
 70
     1
102
RTVSPost2010Prop44ColorIndex
 90
        5
102
RTVSPost2010Prop44ColorRGB
 90
      255
102
RTVSPost2010PropOp44
 70
     1
102
RTVSPost2010Prop45
280
     0
102
RTVSPost2010PropOp45
 70
     1
102
RTVSPost2010Prop46
 90
       50
102
RTVSPost2010PropOp46
 70
     1
102
RTVSPost2010Prop47
 90
       50
102
RTVSPost2010PropOp47
 70
     1
102
RTVSPost2010Prop48
 90
       50
102
RTVSPost2010PropOp48
 70
     1
102
RTVSPost2010Prop49
280
     0
102
RTVSPost2010PropOp49
 70
     1
102
RTVSPost2010Prop50
 90
       50
102
RTVSPost2010PropOp50
 70
     1
102
RTVSPost2010Prop51ColorIndex
 90
      256
102
RTVSPost2010Prop51ColorRGB
 90
-16777216
102
RTVSPost2010PropOp51
 70
     0
102
RTVSPost2010Prop52
140
1.0
102
RTVSPost2010PropOp52
 70
     0
102
RTVSPost2010Prop53
 90
        2
102
RTVSPost2010PropOp53
 70
     1
102
RTVSPost2010Prop54
  1
strokes_ogs.tif
102
RTVSPost2010PropOp54
 70
     1
102
RTVSPost2010Prop55
280
     0
102
RTVSPost2010PropOp55
 70
     1
102
RTVSPost2010Prop56
140
1.0
102
RTVSPost2010PropOp56
 70
     1
102
RTVSPost2010Prop57
140
1.0
102
RTVSPost2010PropOp57
 70
     1
102
RTVSPropertyOp0
 70
     1
102
RTVSPropertyOp1
 70
     1
102
RTVSPropertyOp2
 70
     1
102
RTVSPropertyOp3
 70
     1
102
RTVSPropertyOp4
 70
     1
102
RTVSPropertyOp5
 70
     1
102
RTVSPropertyOp6
 70
     1
102
RTVSPropertyOp7
 70
     1
102
RTVSPropertyOp8
 70
     1
102
RTVSPropertyOp9
 70
     1
102
RTVSPropertyOp10
 70
     1
102
RTVSPropertyOp11
 70
     1
102
RTVSPropertyOp12
 70
     1
102
RTVSPropertyOp13
 70
     1
102
RTVSPropertyOp14
 70
     1
102
RTVSPropertyOp15
 70
     1
102
RTVSPropertyOp16
 70
     1
102
RTVSPropertyOp17
 70
     1
102
RTVSPropertyOp18
 70
     1
102
RTVSPropertyOp19
 70
     1
102
RTVSPropertyOp20
 70
     1
102
RTVSPropertyOp21
 70
     1
102
RTVSPropertyOp22
 70
     1
102
RTVSPropertyOp23
 70
     1
102
RTVSPropertyOp24
 70
     1
102
RTVSPropertyOp25
 70
     1
102
RTVSPropertyOp26
 70
     1
102
RTVSPropertyOp27
 70
     1
102
RTVSPropertyOp28
 70
     1
102
RTVSPropertyOp29
 70
     1
102
RTVSPropertyOp30
 70
     1
102
RTVSPropertyOp31
 70
     1
102
RTVSPropertyOp32
 70
     1
102
RTVSPropertyOp33
 70
     1
102
RTVSPropertyOp34
 70
     1
102
RTVSPropertyOp35
 70
     1
102
RTVSPropertyOp36
 70
     1
102
RTVSPropertyOp37
 70
     1
102
RTVSPropertyOp38
 70
     1
102
RTVSPropertyOp39
 70
     1
102
RTVSPropertyOp40
 70
     1
102
RTVSPropertyOp41
 70
     1
102
RTVSPropertyOp42
 70
     1
102
RTVSPropertyOp43
 70
     1
102
RTVSPropertyOp44
 70
     1
102
RTVSPropertyOp45
 70
     1
102
RTVSPropertyOp46
 70
     1
102
RTVSPropertyOp47
 70
     1
102
RTVSPropertyOp48
 70
     1
102
RTVSPropertyOp49
 70
     1
102
RTVSPropertyOp50
 70
     1
102
RTVSPropertyOp51
 70
     0
102
RTVSPropertyOp52
 70
     0
102
RTVSPropertyOp53
 70
     1
102
RTVSPropertyOp54
 70
     1
102
RTVSPropertyOp55
 70
     1
102
RTVSPropertyOp56
 70
     1
102
RTVSPropertyOp57
 70
     1
102
RTVSPropertyOp58
 70
     1
102
RTVSPropertyOp59
 70
     1
102
RTVSPropertyOp60
 70
     1
102
RTVSPropertyOp61
 70
     1
102
RTVSPropertyOp62
 70
     1
  0
XRECORD
  5
AB3A
102
{ACAD_REACTORS
330
AB39
102
}
330
AB39
100
AcDbXrecord
280
     1
102
RTVSPost2010Prop28
280
     0
102
RTVSPost2010PropOp28
 70
     1
102
RTVSPost2010Prop29
280
     1
102
RTVSPost2010PropOp29
 70
     1
102
RTVSPost2010Prop30
280
     1
102
RTVSPost2010PropOp30
 70
     1
102
RTVSPost2010Prop31
280
     0
102
RTVSPost2010PropOp31
 70
     1
102
RTVSPost2010Prop32
280
     0
102
RTVSPost2010PropOp32
 70
     1
102
RTVSPost2010Prop33
280
     0
102
RTVSPost2010PropOp33
 70
     1
102
RTVSPost2010Prop34
280
     0
102
RTVSPost2010PropOp34
 70
     1
102
RTVSPost2010Prop35
280
     0
102
RTVSPost2010PropOp35
 70
     1
102
RTVSPost2010Prop36
280
     0
102
RTVSPost2010PropOp36
 70
     1
102
RTVSPost2010Prop37
 90
       50
102
RTVSPost2010PropOp37
 70
     1
102
RTVSPost2010Prop38
140
0.0
102
RTVSPost2010PropOp38
 70
     1
102
RTVSPost2010Prop39
140
1.0
102
RTVSPost2010PropOp39
 70
     1
102
RTVSPost2010Prop40
 90
        0
102
RTVSPost2010PropOp40
 70
     1
102
RTVSPost2010Prop41ColorIndex
 90
       18
102
RTVSPost2010Prop41ColorRGB
 90
        0
102
RTVSPost2010PropOp41
 70
     1
102
RTVSPost2010Prop42
 90
       50
102
RTVSPost2010PropOp42
 70
     1
102
RTVSPost2010Prop43
 90
        3
102
RTVSPost2010PropOp43
 70
     1
102
RTVSPost2010Prop44ColorIndex
 90
        5
102
RTVSPost2010Prop44ColorRGB
 90
      255
102
RTVSPost2010PropOp44
 70
     1
102
RTVSPost2010Prop45
280
     0
102
RTVSPost2010PropOp45
 70
     1
102
RTVSPost2010Prop46
 90
       50
102
RTVSPost2010PropOp46
 70
     1
102
RTVSPost2010Prop47
 90
       50
102
RTVSPost2010PropOp47
 70
     1
102
RTVSPost2010Prop48
 90
       50
102
RTVSPost2010PropOp48
 70
     1
102
RTVSPost2010Prop49
280
     0
102
RTVSPost2010PropOp49
 70
     1
102
RTVSPost2010Prop50
 90
       50
102
RTVSPost2010PropOp50
 70
     1
102
RTVSPost2010Prop51ColorIndex
 90
      256
102
RTVSPost2010Prop51ColorRGB
 90
-16777216
102
RTVSPost2010PropOp51
 70
     0
102
RTVSPost2010Prop52
140
1.0
102
RTVSPost2010PropOp52
 70
     0
102
RTVSPost2010Prop53
 90
        2
102
RTVSPost2010PropOp53
 70
     1
102
RTVSPost2010Prop54
  1
strokes_ogs.tif
102
RTVSPost2010PropOp54
 70
     1
102
RTVSPost2010Prop55
280
     0
102
RTVSPost2010PropOp55
 70
     1
102
RTVSPost2010Prop56
140
1.0
102
RTVSPost2010PropOp56
 70
     1
102
RTVSPost2010Prop57
140
1.0
102
RTVSPost2010PropOp57
 70
     1
102
RTVSPropertyOp0
 70
     1
102
RTVSPropertyOp1
 70
     1
102
RTVSPropertyOp2
 70
     1
102
RTVSPropertyOp3
 70
     1
102
RTVSPropertyOp4
 70
     1
102
RTVSPropertyOp5
 70
     1
102
RTVSPropertyOp6
 70
     1
102
RTVSPropertyOp7
 70
     1
102
RTVSPropertyOp8
 70
     1
102
RTVSPropertyOp9
 70
     1
102
RTVSPropertyOp10
 70
     1
102
RTVSPropertyOp11
 70
     1
102
RTVSPropertyOp12
 70
     1
102
RTVSPropertyOp13
 70
     1
102
RTVSPropertyOp14
 70
     1
102
RTVSPropertyOp15
 70
     1
102
RTVSPropertyOp16
 70
     1
102
RTVSPropertyOp17
 70
     1
102
RTVSPropertyOp18
 70
     1
102
RTVSPropertyOp19
 70
     1
102
RTVSPropertyOp20
 70
     1
102
RTVSPropertyOp21
 70
     1
102
RTVSPropertyOp22
 70
     1
102
RTVSPropertyOp23
 70
     1
102
RTVSPropertyOp24
 70
     1
102
RTVSPropertyOp25
 70
     1
102
RTVSPropertyOp26
 70
     1
102
RTVSPropertyOp27
 70
     1
102
RTVSPropertyOp28
 70
     1
102
RTVSPropertyOp29
 70
     1
102
RTVSPropertyOp30
 70
     1
102
RTVSPropertyOp31
 70
     1
102
RTVSPropertyOp32
 70
     1
102
RTVSPropertyOp33
 70
     1
102
RTVSPropertyOp34
 70
     1
102
RTVSPropertyOp35
 70
     1
102
RTVSPropertyOp36
 70
     1
102
RTVSPropertyOp37
 70
     1
102
RTVSPropertyOp38
 70
     1
102
RTVSPropertyOp39
 70
     1
102
RTVSPropertyOp40
 70
     1
102
RTVSPropertyOp41
 70
     1
102
RTVSPropertyOp42
 70
     1
102
RTVSPropertyOp43
 70
     1
102
RTVSPropertyOp44
 70
     1
102
RTVSPropertyOp45
 70
     1
102
RTVSPropertyOp46
 70
     1
102
RTVSPropertyOp47
 70
     1
102
RTVSPropertyOp48
 70
     1
102
RTVSPropertyOp49
 70
     1
102
RTVSPropertyOp50
 70
     1
102
RTVSPropertyOp51
 70
     0
102
RTVSPropertyOp52
 70
     0
102
RTVSPropertyOp53
 70
     1
102
RTVSPropertyOp54
 70
     1
102
RTVSPropertyOp55
 70
     1
102
RTVSPropertyOp56
 70
     1
102
RTVSPropertyOp57
 70
     1
102
RTVSPropertyOp58
 70
     1
102
RTVSPropertyOp59
 70
     1
102
RTVSPropertyOp60
 70
     1
102
RTVSPropertyOp61
 70
     1
102
RTVSPropertyOp62
 70
     1
  0
XRECORD
  5
AB56
102
{ACAD_REACTORS
330
AB55
102
}
330
AB55
100
AcDbXrecord
280
     1
102
RTVSPost2010Prop28
280
     0
102
RTVSPost2010PropOp28
 70
     1
102
RTVSPost2010Prop29
280
     1
102
RTVSPost2010PropOp29
 70
     1
102
RTVSPost2010Prop30
280
     1
102
RTVSPost2010PropOp30
 70
     1
102
RTVSPost2010Prop31
280
     0
102
RTVSPost2010PropOp31
 70
     1
102
RTVSPost2010Prop32
280
     0
102
RTVSPost2010PropOp32
 70
     1
102
RTVSPost2010Prop33
280
     0
102
RTVSPost2010PropOp33
 70
     1
102
RTVSPost2010Prop34
280
     0
102
RTVSPost2010PropOp34
 70
     1
102
RTVSPost2010Prop35
280
     0
102
RTVSPost2010PropOp35
 70
     1
102
RTVSPost2010Prop36
280
     0
102
RTVSPost2010PropOp36
 70
     1
102
RTVSPost2010Prop37
 90
       50
102
RTVSPost2010PropOp37
 70
     0
102
RTVSPost2010Prop38
140
0.0
102
RTVSPost2010PropOp38
 70
     0
102
RTVSPost2010Prop39
140
1.0
102
RTVSPost2010PropOp39
 70
     0
102
RTVSPost2010Prop40
 90
        0
102
RTVSPost2010PropOp40
 70
     0
102
RTVSPost2010Prop41ColorIndex
 90
       18
102
RTVSPost2010Prop41ColorRGB
 90
        0
102
RTVSPost2010PropOp41
 70
     0
102
RTVSPost2010Prop42
 90
       50
102
RTVSPost2010PropOp42
 70
     0
102
RTVSPost2010Prop43
 90
        3
102
RTVSPost2010PropOp43
 70
     0
102
RTVSPost2010Prop44ColorIndex
 90
        5
102
RTVSPost2010Prop44ColorRGB
 90
      255
102
RTVSPost2010PropOp44
 70
     0
102
RTVSPost2010Prop45
280
     0
102
RTVSPost2010PropOp45
 70
     1
102
RTVSPost2010Prop46
 90
       50
102
RTVSPost2010PropOp46
 70
     0
102
RTVSPost2010Prop47
 90
       50
102
RTVSPost2010PropOp47
 70
     0
102
RTVSPost2010Prop48
 90
       50
102
RTVSPost2010PropOp48
 70
     0
102
RTVSPost2010Prop49
280
     0
102
RTVSPost2010PropOp49
 70
     1
102
RTVSPost2010Prop50
 90
       50
102
RTVSPost2010PropOp50
 70
     0
102
RTVSPost2010Prop51ColorIndex
 90
      256
102
RTVSPost2010Prop51ColorRGB
 90
-16777216
102
RTVSPost2010PropOp51
 70
     0
102
RTVSPost2010Prop52
140
1.0
102
RTVSPost2010PropOp52
 70
     0
102
RTVSPost2010Prop53
 90
        2
102
RTVSPost2010PropOp53
 70
     0
102
RTVSPost2010Prop54
  1
strokes_ogs.tif
102
RTVSPost2010PropOp54
 70
     0
102
RTVSPost2010Prop55
280
     0
102
RTVSPost2010PropOp55
 70
     1
102
RTVSPost2010Prop56
140
1.0
102
RTVSPost2010PropOp56
 70
     0
102
RTVSPost2010Prop57
140
1.0
102
RTVSPost2010PropOp57
 70
     0
102
RTVSPropertyOp0
 70
     0
102
RTVSPropertyOp1
 70
     0
102
RTVSPropertyOp2
 70
     0
102
RTVSPropertyOp3
 70
     0
102
RTVSPropertyOp4
 70
     0
102
RTVSPropertyOp5
 70
     0
102
RTVSPropertyOp6
 70
     0
102
RTVSPropertyOp7
 70
     0
102
RTVSPropertyOp8
 70
     0
102
RTVSPropertyOp9
 70
     0
102
RTVSPropertyOp10
 70
     0
102
RTVSPropertyOp11
 70
     0
102
RTVSPropertyOp12
 70
     0
102
RTVSPropertyOp13
 70
     0
102
RTVSPropertyOp14
 70
     2
102
RTVSPropertyOp15
 70
     0
102
RTVSPropertyOp16
 70
     0
102
RTVSPropertyOp17
 70
     0
102
RTVSPropertyOp18
 70
     0
102
RTVSPropertyOp19
 70
     0
102
RTVSPropertyOp20
 70
     0
102
RTVSPropertyOp21
 70
     0
102
RTVSPropertyOp22
 70
     0
102
RTVSPropertyOp23
 70
     0
102
RTVSPropertyOp24
 70
     0
102
RTVSPropertyOp25
 70
     0
102
RTVSPropertyOp26
 70
     0
102
RTVSPropertyOp27
 70
     0
102
RTVSPropertyOp28
 70
     1
102
RTVSPropertyOp29
 70
     1
102
RTVSPropertyOp30
 70
     1
102
RTVSPropertyOp31
 70
     1
102
RTVSPropertyOp32
 70
     1
102
RTVSPropertyOp33
 70
     1
102
RTVSPropertyOp34
 70
     1
102
RTVSPropertyOp35
 70
     1
102
RTVSPropertyOp36
 70
     1
102
RTVSPropertyOp37
 70
     0
102
RTVSPropertyOp38
 70
     0
102
RTVSPropertyOp39
 70
     0
102
RTVSPropertyOp40
 70
     0
102
RTVSPropertyOp41
 70
     0
102
RTVSPropertyOp42
 70
     0
102
RTVSPropertyOp43
 70
     0
102
RTVSPropertyOp44
 70
     0
102
RTVSPropertyOp45
 70
     1
102
RTVSPropertyOp46
 70
     0
102
RTVSPropertyOp47
 70
     0
102
RTVSPropertyOp48
 70
     0
102
RTVSPropertyOp49
 70
     1
102
RTVSPropertyOp50
 70
     0
102
RTVSPropertyOp51
 70
     0
102
RTVSPropertyOp52
 70
     0
102
RTVSPropertyOp53
 70
     0
102
RTVSPropertyOp54
 70
     0
102
RTVSPropertyOp55
 70
     1
102
RTVSPropertyOp56
 70
     0
102
RTVSPropertyOp57
 70
     0
102
RTVSPropertyOp58
 70
     0
102
RTVSPropertyOp59
 70
     0
102
RTVSPropertyOp60
 70
     0
102
RTVSPropertyOp61
 70
     0
102
RTVSPropertyOp62
 70
     0
  0
XRECORD
  5
AB46
102
{ACAD_REACTORS
330
AB45
102
}
330
AB45
100
AcDbXrecord
280
     1
102
RTVSPost2010Prop28
280
     0
102
RTVSPost2010PropOp28
 70
     1
102
RTVSPost2010Prop29
280
     1
102
RTVSPost2010PropOp29
 70
     1
102
RTVSPost2010Prop30
280
     1
102
RTVSPost2010PropOp30
 70
     1
102
RTVSPost2010Prop31
280
     0
102
RTVSPost2010PropOp31
 70
     1
102
RTVSPost2010Prop32
280
     0
102
RTVSPost2010PropOp32
 70
     1
102
RTVSPost2010Prop33
280
     0
102
RTVSPost2010PropOp33
 70
     1
102
RTVSPost2010Prop34
280
     0
102
RTVSPost2010PropOp34
 70
     1
102
RTVSPost2010Prop35
280
     0
102
RTVSPost2010PropOp35
 70
     1
102
RTVSPost2010Prop36
280
     0
102
RTVSPost2010PropOp36
 70
     1
102
RTVSPost2010Prop37
 90
       50
102
RTVSPost2010PropOp37
 70
     1
102
RTVSPost2010Prop38
140
0.0
102
RTVSPost2010PropOp38
 70
     1
102
RTVSPost2010Prop39
140
1.0
102
RTVSPost2010PropOp39
 70
     1
102
RTVSPost2010Prop40
 90
        0
102
RTVSPost2010PropOp40
 70
     1
102
RTVSPost2010Prop41ColorIndex
 90
       18
102
RTVSPost2010Prop41ColorRGB
 90
        0
102
RTVSPost2010PropOp41
 70
     1
102
RTVSPost2010Prop42
 90
       50
102
RTVSPost2010PropOp42
 70
     1
102
RTVSPost2010Prop43
 90
        3
102
RTVSPost2010PropOp43
 70
     1
102
RTVSPost2010Prop44ColorIndex
 90
        5
102
RTVSPost2010Prop44ColorRGB
 90
      255
102
RTVSPost2010PropOp44
 70
     1
102
RTVSPost2010Prop45
280
     0
102
RTVSPost2010PropOp45
 70
     1
102
RTVSPost2010Prop46
 90
       50
102
RTVSPost2010PropOp46
 70
     1
102
RTVSPost2010Prop47
 90
       50
102
RTVSPost2010PropOp47
 70
     1
102
RTVSPost2010Prop48
 90
       50
102
RTVSPost2010PropOp48
 70
     1
102
RTVSPost2010Prop49
280
     0
102
RTVSPost2010PropOp49
 70
     1
102
RTVSPost2010Prop50
 90
       50
102
RTVSPost2010PropOp50
 70
     1
102
RTVSPost2010Prop51ColorIndex
 90
      256
102
RTVSPost2010Prop51ColorRGB
 90
-16777216
102
RTVSPost2010PropOp51
 70
     0
102
RTVSPost2010Prop52
140
1.0
102
RTVSPost2010PropOp52
 70
     0
102
RTVSPost2010Prop53
 90
        2
102
RTVSPost2010PropOp53
 70
     1
102
RTVSPost2010Prop54
  1
strokes_ogs.tif
102
RTVSPost2010PropOp54
 70
     1
102
RTVSPost2010Prop55
280
     0
102
RTVSPost2010PropOp55
 70
     1
102
RTVSPost2010Prop56
140
1.0
102
RTVSPost2010PropOp56
 70
     1
102
RTVSPost2010Prop57
140
1.0
102
RTVSPost2010PropOp57
 70
     1
102
RTVSPropertyOp0
 70
     1
102
RTVSPropertyOp1
 70
     1
102
RTVSPropertyOp2
 70
     1
102
RTVSPropertyOp3
 70
     1
102
RTVSPropertyOp4
 70
     1
102
RTVSPropertyOp5
 70
     1
102
RTVSPropertyOp6
 70
     1
102
RTVSPropertyOp7
 70
     1
102
RTVSPropertyOp8
 70
     1
102
RTVSPropertyOp9
 70
     1
102
RTVSPropertyOp10
 70
     1
102
RTVSPropertyOp11
 70
     1
102
RTVSPropertyOp12
 70
     1
102
RTVSPropertyOp13
 70
     1
102
RTVSPropertyOp14
 70
     1
102
RTVSPropertyOp15
 70
     1
102
RTVSPropertyOp16
 70
     1
102
RTVSPropertyOp17
 70
     1
102
RTVSPropertyOp18
 70
     1
102
RTVSPropertyOp19
 70
     1
102
RTVSPropertyOp20
 70
     1
102
RTVSPropertyOp21
 70
     1
102
RTVSPropertyOp22
 70
     1
102
RTVSPropertyOp23
 70
     1
102
RTVSPropertyOp24
 70
     1
102
RTVSPropertyOp25
 70
     1
102
RTVSPropertyOp26
 70
     1
102
RTVSPropertyOp27
 70
     1
102
RTVSPropertyOp28
 70
     1
102
RTVSPropertyOp29
 70
     1
102
RTVSPropertyOp30
 70
     1
102
RTVSPropertyOp31
 70
     1
102
RTVSPropertyOp32
 70
     1
102
RTVSPropertyOp33
 70
     1
102
RTVSPropertyOp34
 70
     1
102
RTVSPropertyOp35
 70
     1
102
RTVSPropertyOp36
 70
     1
102
RTVSPropertyOp37
 70
     1
102
RTVSPropertyOp38
 70
     1
102
RTVSPropertyOp39
 70
     1
102
RTVSPropertyOp40
 70
     1
102
RTVSPropertyOp41
 70
     1
102
RTVSPropertyOp42
 70
     1
102
RTVSPropertyOp43
 70
     1
102
RTVSPropertyOp44
 70
     1
102
RTVSPropertyOp45
 70
     1
102
RTVSPropertyOp46
 70
     1
102
RTVSPropertyOp47
 70
     1
102
RTVSPropertyOp48
 70
     1
102
RTVSPropertyOp49
 70
     1
102
RTVSPropertyOp50
 70
     1
102
RTVSPropertyOp51
 70
     0
102
RTVSPropertyOp52
 70
     0
102
RTVSPropertyOp53
 70
     1
102
RTVSPropertyOp54
 70
     1
102
RTVSPropertyOp55
 70
     1
102
RTVSPropertyOp56
 70
     1
102
RTVSPropertyOp57
 70
     1
102
RTVSPropertyOp58
 70
     1
102
RTVSPropertyOp59
 70
     1
102
RTVSPropertyOp60
 70
     1
102
RTVSPropertyOp61
 70
     1
102
RTVSPropertyOp62
 70
     1
  0
XRECORD
  5
AB58
102
{ACAD_REACTORS
330
AB57
102
}
330
AB57
100
AcDbXrecord
280
     1
102
RTVSPost2010Prop28
280
     0
102
RTVSPost2010PropOp28
 70
     1
102
RTVSPost2010Prop29
280
     1
102
RTVSPost2010PropOp29
 70
     1
102
RTVSPost2010Prop30
280
     1
102
RTVSPost2010PropOp30
 70
     1
102
RTVSPost2010Prop31
280
     0
102
RTVSPost2010PropOp31
 70
     1
102
RTVSPost2010Prop32
280
     0
102
RTVSPost2010PropOp32
 70
     1
102
RTVSPost2010Prop33
280
     0
102
RTVSPost2010PropOp33
 70
     1
102
RTVSPost2010Prop34
280
     0
102
RTVSPost2010PropOp34
 70
     1
102
RTVSPost2010Prop35
280
     0
102
RTVSPost2010PropOp35
 70
     1
102
RTVSPost2010Prop36
280
     0
102
RTVSPost2010PropOp36
 70
     1
102
RTVSPost2010Prop37
 90
       50
102
RTVSPost2010PropOp37
 70
     0
102
RTVSPost2010Prop38
140
0.0
102
RTVSPost2010PropOp38
 70
     0
102
RTVSPost2010Prop39
140
1.0
102
RTVSPost2010PropOp39
 70
     0
102
RTVSPost2010Prop40
 90
        0
102
RTVSPost2010PropOp40
 70
     0
102
RTVSPost2010Prop41ColorIndex
 90
       18
102
RTVSPost2010Prop41ColorRGB
 90
        0
102
RTVSPost2010PropOp41
 70
     0
102
RTVSPost2010Prop42
 90
       50
102
RTVSPost2010PropOp42
 70
     0
102
RTVSPost2010Prop43
 90
        3
102
RTVSPost2010PropOp43
 70
     0
102
RTVSPost2010Prop44ColorIndex
 90
        5
102
RTVSPost2010Prop44ColorRGB
 90
      255
102
RTVSPost2010PropOp44
 70
     0
102
RTVSPost2010Prop45
280
     0
102
RTVSPost2010PropOp45
 70
     1
102
RTVSPost2010Prop46
 90
       50
102
RTVSPost2010PropOp46
 70
     0
102
RTVSPost2010Prop47
 90
       50
102
RTVSPost2010PropOp47
 70
     0
102
RTVSPost2010Prop48
 90
       50
102
RTVSPost2010PropOp48
 70
     0
102
RTVSPost2010Prop49
280
     0
102
RTVSPost2010PropOp49
 70
     1
102
RTVSPost2010Prop50
 90
       50
102
RTVSPost2010PropOp50
 70
     0
102
RTVSPost2010Prop51ColorIndex
 90
      256
102
RTVSPost2010Prop51ColorRGB
 90
-16777216
102
RTVSPost2010PropOp51
 70
     0
102
RTVSPost2010Prop52
140
1.0
102
RTVSPost2010PropOp52
 70
     0
102
RTVSPost2010Prop53
 90
        2
102
RTVSPost2010PropOp53
 70
     0
102
RTVSPost2010Prop54
  1
strokes_ogs.tif
102
RTVSPost2010PropOp54
 70
     0
102
RTVSPost2010Prop55
280
     0
102
RTVSPost2010PropOp55
 70
     1
102
RTVSPost2010Prop56
140
1.0
102
RTVSPost2010PropOp56
 70
     0
102
RTVSPost2010Prop57
140
1.0
102
RTVSPost2010PropOp57
 70
     0
102
RTVSPropertyOp0
 70
     0
102
RTVSPropertyOp1
 70
     0
102
RTVSPropertyOp2
 70
     0
102
RTVSPropertyOp3
 70
     0
102
RTVSPropertyOp4
 70
     0
102
RTVSPropertyOp5
 70
     0
102
RTVSPropertyOp6
 70
     0
102
RTVSPropertyOp7
 70
     0
102
RTVSPropertyOp8
 70
     0
102
RTVSPropertyOp9
 70
     0
102
RTVSPropertyOp10
 70
     0
102
RTVSPropertyOp11
 70
     0
102
RTVSPropertyOp12
 70
     0
102
RTVSPropertyOp13
 70
     0
102
RTVSPropertyOp14
 70
     2
102
RTVSPropertyOp15
 70
     0
102
RTVSPropertyOp16
 70
     0
102
RTVSPropertyOp17
 70
     0
102
RTVSPropertyOp18
 70
     0
102
RTVSPropertyOp19
 70
     0
102
RTVSPropertyOp20
 70
     0
102
RTVSPropertyOp21
 70
     0
102
RTVSPropertyOp22
 70
     0
102
RTVSPropertyOp23
 70
     0
102
RTVSPropertyOp24
 70
     0
102
RTVSPropertyOp25
 70
     0
102
RTVSPropertyOp26
 70
     0
102
RTVSPropertyOp27
 70
     0
102
RTVSPropertyOp28
 70
     1
102
RTVSPropertyOp29
 70
     1
102
RTVSPropertyOp30
 70
     1
102
RTVSPropertyOp31
 70
     1
102
RTVSPropertyOp32
 70
     1
102
RTVSPropertyOp33
 70
     1
102
RTVSPropertyOp34
 70
     1
102
RTVSPropertyOp35
 70
     1
102
RTVSPropertyOp36
 70
     1
102
RTVSPropertyOp37
 70
     0
102
RTVSPropertyOp38
 70
     0
102
RTVSPropertyOp39
 70
     0
102
RTVSPropertyOp40
 70
     0
102
RTVSPropertyOp41
 70
     0
102
RTVSPropertyOp42
 70
     0
102
RTVSPropertyOp43
 70
     0
102
RTVSPropertyOp44
 70
     0
102
RTVSPropertyOp45
 70
     1
102
RTVSPropertyOp46
 70
     0
102
RTVSPropertyOp47
 70
     0
102
RTVSPropertyOp48
 70
     0
102
RTVSPropertyOp49
 70
     1
102
RTVSPropertyOp50
 70
     0
102
RTVSPropertyOp51
 70
     0
102
RTVSPropertyOp52
 70
     0
102
RTVSPropertyOp53
 70
     0
102
RTVSPropertyOp54
 70
     0
102
RTVSPropertyOp55
 70
     1
102
RTVSPropertyOp56
 70
     0
102
RTVSPropertyOp57
 70
     0
102
RTVSPropertyOp58
 70
     0
102
RTVSPropertyOp59
 70
     0
102
RTVSPropertyOp60
 70
     0
102
RTVSPropertyOp61
 70
     0
102
RTVSPropertyOp62
 70
     0
  0
XRECORD
  5
AB3E
102
{ACAD_REACTORS
330
AB3D
102
}
330
AB3D
100
AcDbXrecord
280
     1
102
RTVSPost2010Prop28
280
     0
102
RTVSPost2010PropOp28
 70
     1
102
RTVSPost2010Prop29
280
     1
102
RTVSPost2010PropOp29
 70
     1
102
RTVSPost2010Prop30
280
     1
102
RTVSPost2010PropOp30
 70
     1
102
RTVSPost2010Prop31
280
     0
102
RTVSPost2010PropOp31
 70
     1
102
RTVSPost2010Prop32
280
     0
102
RTVSPost2010PropOp32
 70
     1
102
RTVSPost2010Prop33
280
     0
102
RTVSPost2010PropOp33
 70
     1
102
RTVSPost2010Prop34
280
     0
102
RTVSPost2010PropOp34
 70
     1
102
RTVSPost2010Prop35
280
     0
102
RTVSPost2010PropOp35
 70
     1
102
RTVSPost2010Prop36
280
     0
102
RTVSPost2010PropOp36
 70
     1
102
RTVSPost2010Prop37
 90
       50
102
RTVSPost2010PropOp37
 70
     1
102
RTVSPost2010Prop38
140
0.0
102
RTVSPost2010PropOp38
 70
     1
102
RTVSPost2010Prop39
140
1.0
102
RTVSPost2010PropOp39
 70
     1
102
RTVSPost2010Prop40
 90
        0
102
RTVSPost2010PropOp40
 70
     1
102
RTVSPost2010Prop41ColorIndex
 90
       18
102
RTVSPost2010Prop41ColorRGB
 90
        0
102
RTVSPost2010PropOp41
 70
     1
102
RTVSPost2010Prop42
 90
       50
102
RTVSPost2010PropOp42
 70
     1
102
RTVSPost2010Prop43
 90
        3
102
RTVSPost2010PropOp43
 70
     1
102
RTVSPost2010Prop44ColorIndex
 90
        5
102
RTVSPost2010Prop44ColorRGB
 90
      255
102
RTVSPost2010PropOp44
 70
     1
102
RTVSPost2010Prop45
280
     0
102
RTVSPost2010PropOp45
 70
     1
102
RTVSPost2010Prop46
 90
       50
102
RTVSPost2010PropOp46
 70
     1
102
RTVSPost2010Prop47
 90
       50
102
RTVSPost2010PropOp47
 70
     1
102
RTVSPost2010Prop48
 90
       50
102
RTVSPost2010PropOp48
 70
     1
102
RTVSPost2010Prop49
280
     0
102
RTVSPost2010PropOp49
 70
     1
102
RTVSPost2010Prop50
 90
       50
102
RTVSPost2010PropOp50
 70
     1
102
RTVSPost2010Prop51ColorIndex
 90
      256
102
RTVSPost2010Prop51ColorRGB
 90
-16777216
102
RTVSPost2010PropOp51
 70
     0
102
RTVSPost2010Prop52
140
1.0
102
RTVSPost2010PropOp52
 70
     0
102
RTVSPost2010Prop53
 90
        2
102
RTVSPost2010PropOp53
 70
     1
102
RTVSPost2010Prop54
  1
strokes_ogs.tif
102
RTVSPost2010PropOp54
 70
     1
102
RTVSPost2010Prop55
280
     0
102
RTVSPost2010PropOp55
 70
     1
102
RTVSPost2010Prop56
140
1.0
102
RTVSPost2010PropOp56
 70
     1
102
RTVSPost2010Prop57
140
1.0
102
RTVSPost2010PropOp57
 70
     1
102
RTVSPropertyOp0
 70
     1
102
RTVSPropertyOp1
 70
     1
102
RTVSPropertyOp2
 70
     1
102
RTVSPropertyOp3
 70
     1
102
RTVSPropertyOp4
 70
     1
102
RTVSPropertyOp5
 70
     1
102
RTVSPropertyOp6
 70
     1
102
RTVSPropertyOp7
 70
     1
102
RTVSPropertyOp8
 70
     1
102
RTVSPropertyOp9
 70
     1
102
RTVSPropertyOp10
 70
     1
102
RTVSPropertyOp11
 70
     1
102
RTVSPropertyOp12
 70
     1
102
RTVSPropertyOp13
 70
     1
102
RTVSPropertyOp14
 70
     1
102
RTVSPropertyOp15
 70
     1
102
RTVSPropertyOp16
 70
     1
102
RTVSPropertyOp17
 70
     1
102
RTVSPropertyOp18
 70
     1
102
RTVSPropertyOp19
 70
     1
102
RTVSPropertyOp20
 70
     1
102
RTVSPropertyOp21
 70
     1
102
RTVSPropertyOp22
 70
     1
102
RTVSPropertyOp23
 70
     1
102
RTVSPropertyOp24
 70
     1
102
RTVSPropertyOp25
 70
     1
102
RTVSPropertyOp26
 70
     1
102
RTVSPropertyOp27
 70
     1
102
RTVSPropertyOp28
 70
     1
102
RTVSPropertyOp29
 70
     1
102
RTVSPropertyOp30
 70
     1
102
RTVSPropertyOp31
 70
     1
102
RTVSPropertyOp32
 70
     1
102
RTVSPropertyOp33
 70
     1
102
RTVSPropertyOp34
 70
     1
102
RTVSPropertyOp35
 70
     1
102
RTVSPropertyOp36
 70
     1
102
RTVSPropertyOp37
 70
     1
102
RTVSPropertyOp38
 70
     1
102
RTVSPropertyOp39
 70
     1
102
RTVSPropertyOp40
 70
     1
102
RTVSPropertyOp41
 70
     1
102
RTVSPropertyOp42
 70
     1
102
RTVSPropertyOp43
 70
     1
102
RTVSPropertyOp44
 70
     1
102
RTVSPropertyOp45
 70
     1
102
RTVSPropertyOp46
 70
     1
102
RTVSPropertyOp47
 70
     1
102
RTVSPropertyOp48
 70
     1
102
RTVSPropertyOp49
 70
     1
102
RTVSPropertyOp50
 70
     1
102
RTVSPropertyOp51
 70
     0
102
RTVSPropertyOp52
 70
     0
102
RTVSPropertyOp53
 70
     1
102
RTVSPropertyOp54
 70
     1
102
RTVSPropertyOp55
 70
     1
102
RTVSPropertyOp56
 70
     1
102
RTVSPropertyOp57
 70
     1
102
RTVSPropertyOp58
 70
     1
102
RTVSPropertyOp59
 70
     1
102
RTVSPropertyOp60
 70
     1
102
RTVSPropertyOp61
 70
     1
102
RTVSPropertyOp62
 70
     1
  0
XRECORD
  5
AB54
102
{ACAD_REACTORS
330
AB53
102
}
330
AB53
100
AcDbXrecord
280
     1
102
RTVSPost2010Prop28
280
     0
102
RTVSPost2010PropOp28
 70
     1
102
RTVSPost2010Prop29
280
     1
102
RTVSPost2010PropOp29
 70
     1
102
RTVSPost2010Prop30
280
     1
102
RTVSPost2010PropOp30
 70
     1
102
RTVSPost2010Prop31
280
     0
102
RTVSPost2010PropOp31
 70
     1
102
RTVSPost2010Prop32
280
     0
102
RTVSPost2010PropOp32
 70
     1
102
RTVSPost2010Prop33
280
     0
102
RTVSPost2010PropOp33
 70
     1
102
RTVSPost2010Prop34
280
     0
102
RTVSPost2010PropOp34
 70
     1
102
RTVSPost2010Prop35
280
     0
102
RTVSPost2010PropOp35
 70
     1
102
RTVSPost2010Prop36
280
     0
102
RTVSPost2010PropOp36
 70
     1
102
RTVSPost2010Prop37
 90
       50
102
RTVSPost2010PropOp37
 70
     1
102
RTVSPost2010Prop38
140
0.0
102
RTVSPost2010PropOp38
 70
     1
102
RTVSPost2010Prop39
140
1.0
102
RTVSPost2010PropOp39
 70
     1
102
RTVSPost2010Prop40
 90
        0
102
RTVSPost2010PropOp40
 70
     1
102
RTVSPost2010Prop41ColorIndex
 90
       18
102
RTVSPost2010Prop41ColorRGB
 90
        0
102
RTVSPost2010PropOp41
 70
     1
102
RTVSPost2010Prop42
 90
       50
102
RTVSPost2010PropOp42
 70
     1
102
RTVSPost2010Prop43
 90
        3
102
RTVSPost2010PropOp43
 70
     1
102
RTVSPost2010Prop44ColorIndex
 90
        5
102
RTVSPost2010Prop44ColorRGB
 90
      255
102
RTVSPost2010PropOp44
 70
     1
102
RTVSPost2010Prop45
280
     0
102
RTVSPost2010PropOp45
 70
     1
102
RTVSPost2010Prop46
 90
       50
102
RTVSPost2010PropOp46
 70
     1
102
RTVSPost2010Prop47
 90
       50
102
RTVSPost2010PropOp47
 70
     1
102
RTVSPost2010Prop48
 90
       50
102
RTVSPost2010PropOp48
 70
     1
102
RTVSPost2010Prop49
280
     0
102
RTVSPost2010PropOp49
 70
     1
102
RTVSPost2010Prop50
 90
       50
102
RTVSPost2010PropOp50
 70
     1
102
RTVSPost2010Prop51ColorIndex
 90
      256
102
RTVSPost2010Prop51ColorRGB
 90
-16777216
102
RTVSPost2010PropOp51
 70
     0
102
RTVSPost2010Prop52
140
1.0
102
RTVSPost2010PropOp52
 70
     0
102
RTVSPost2010Prop53
 90
        2
102
RTVSPost2010PropOp53
 70
     1
102
RTVSPost2010Prop54
  1
strokes_ogs.tif
102
RTVSPost2010PropOp54
 70
     1
102
RTVSPost2010Prop55
280
     0
102
RTVSPost2010PropOp55
 70
     1
102
RTVSPost2010Prop56
140
1.0
102
RTVSPost2010PropOp56
 70
     1
102
RTVSPost2010Prop57
140
1.0
102
RTVSPost2010PropOp57
 70
     1
102
RTVSPropertyOp0
 70
     1
102
RTVSPropertyOp1
 70
     1
102
RTVSPropertyOp2
 70
     1
102
RTVSPropertyOp3
 70
     1
102
RTVSPropertyOp4
 70
     1
102
RTVSPropertyOp5
 70
     1
102
RTVSPropertyOp6
 70
     1
102
RTVSPropertyOp7
 70
     1
102
RTVSPropertyOp8
 70
     1
102
RTVSPropertyOp9
 70
     1
102
RTVSPropertyOp10
 70
     1
102
RTVSPropertyOp11
 70
     1
102
RTVSPropertyOp12
 70
     1
102
RTVSPropertyOp13
 70
     1
102
RTVSPropertyOp14
 70
     1
102
RTVSPropertyOp15
 70
     1
102
RTVSPropertyOp16
 70
     1
102
RTVSPropertyOp17
 70
     1
102
RTVSPropertyOp18
 70
     1
102
RTVSPropertyOp19
 70
     1
102
RTVSPropertyOp20
 70
     1
102
RTVSPropertyOp21
 70
     1
102
RTVSPropertyOp22
 70
     1
102
RTVSPropertyOp23
 70
     1
102
RTVSPropertyOp24
 70
     1
102
RTVSPropertyOp25
 70
     1
102
RTVSPropertyOp26
 70
     1
102
RTVSPropertyOp27
 70
     1
102
RTVSPropertyOp28
 70
     1
102
RTVSPropertyOp29
 70
     1
102
RTVSPropertyOp30
 70
     1
102
RTVSPropertyOp31
 70
     1
102
RTVSPropertyOp32
 70
     1
102
RTVSPropertyOp33
 70
     1
102
RTVSPropertyOp34
 70
     1
102
RTVSPropertyOp35
 70
     1
102
RTVSPropertyOp36
 70
     1
102
RTVSPropertyOp37
 70
     1
102
RTVSPropertyOp38
 70
     1
102
RTVSPropertyOp39
 70
     1
102
RTVSPropertyOp40
 70
     1
102
RTVSPropertyOp41
 70
     1
102
RTVSPropertyOp42
 70
     1
102
RTVSPropertyOp43
 70
     1
102
RTVSPropertyOp44
 70
     1
102
RTVSPropertyOp45
 70
     1
102
RTVSPropertyOp46
 70
     1
102
RTVSPropertyOp47
 70
     1
102
RTVSPropertyOp48
 70
     1
102
RTVSPropertyOp49
 70
     1
102
RTVSPropertyOp50
 70
     1
102
RTVSPropertyOp51
 70
     0
102
RTVSPropertyOp52
 70
     0
102
RTVSPropertyOp53
 70
     1
102
RTVSPropertyOp54
 70
     1
102
RTVSPropertyOp55
 70
     1
102
RTVSPropertyOp56
 70
     1
102
RTVSPropertyOp57
 70
     1
102
RTVSPropertyOp58
 70
     1
102
RTVSPropertyOp59
 70
     1
102
RTVSPropertyOp60
 70
     1
102
RTVSPropertyOp61
 70
     1
102
RTVSPropertyOp62
 70
     1
  0
XRECORD
  5
AB52
102
{ACAD_REACTORS
330
AB51
102
}
330
AB51
100
AcDbXrecord
280
     1
102
RTVSPost2010Prop28
280
     0
102
RTVSPost2010PropOp28
 70
     1
102
RTVSPost2010Prop29
280
     1
102
RTVSPost2010PropOp29
 70
     1
102
RTVSPost2010Prop30
280
     1
102
RTVSPost2010PropOp30
 70
     1
102
RTVSPost2010Prop31
280
     0
102
RTVSPost2010PropOp31
 70
     1
102
RTVSPost2010Prop32
280
     0
102
RTVSPost2010PropOp32
 70
     1
102
RTVSPost2010Prop33
280
     0
102
RTVSPost2010PropOp33
 70
     1
102
RTVSPost2010Prop34
280
     0
102
RTVSPost2010PropOp34
 70
     1
102
RTVSPost2010Prop35
280
     0
102
RTVSPost2010PropOp35
 70
     1
102
RTVSPost2010Prop36
280
     0
102
RTVSPost2010PropOp36
 70
     1
102
RTVSPost2010Prop37
 90
       50
102
RTVSPost2010PropOp37
 70
     1
102
RTVSPost2010Prop38
140
0.0
102
RTVSPost2010PropOp38
 70
     1
102
RTVSPost2010Prop39
140
1.0
102
RTVSPost2010PropOp39
 70
     1
102
RTVSPost2010Prop40
 90
        0
102
RTVSPost2010PropOp40
 70
     1
102
RTVSPost2010Prop41ColorIndex
 90
       18
102
RTVSPost2010Prop41ColorRGB
 90
        0
102
RTVSPost2010PropOp41
 70
     1
102
RTVSPost2010Prop42
 90
       50
102
RTVSPost2010PropOp42
 70
     1
102
RTVSPost2010Prop43
 90
        3
102
RTVSPost2010PropOp43
 70
     1
102
RTVSPost2010Prop44ColorIndex
 90
        5
102
RTVSPost2010Prop44ColorRGB
 90
      255
102
RTVSPost2010PropOp44
 70
     1
102
RTVSPost2010Prop45
280
     0
102
RTVSPost2010PropOp45
 70
     1
102
RTVSPost2010Prop46
 90
       50
102
RTVSPost2010PropOp46
 70
     1
102
RTVSPost2010Prop47
 90
       50
102
RTVSPost2010PropOp47
 70
     1
102
RTVSPost2010Prop48
 90
       50
102
RTVSPost2010PropOp48
 70
     1
102
RTVSPost2010Prop49
280
     0
102
RTVSPost2010PropOp49
 70
     1
102
RTVSPost2010Prop50
 90
       50
102
RTVSPost2010PropOp50
 70
     1
102
RTVSPost2010Prop51ColorIndex
 90
      256
102
RTVSPost2010Prop51ColorRGB
 90
-16777216
102
RTVSPost2010PropOp51
 70
     0
102
RTVSPost2010Prop52
140
1.0
102
RTVSPost2010PropOp52
 70
     0
102
RTVSPost2010Prop53
 90
        2
102
RTVSPost2010PropOp53
 70
     1
102
RTVSPost2010Prop54
  1
strokes_ogs.tif
102
RTVSPost2010PropOp54
 70
     1
102
RTVSPost2010Prop55
280
     0
102
RTVSPost2010PropOp55
 70
     1
102
RTVSPost2010Prop56
140
1.0
102
RTVSPost2010PropOp56
 70
     1
102
RTVSPost2010Prop57
140
1.0
102
RTVSPost2010PropOp57
 70
     1
102
RTVSPropertyOp0
 70
     1
102
RTVSPropertyOp1
 70
     1
102
RTVSPropertyOp2
 70
     1
102
RTVSPropertyOp3
 70
     1
102
RTVSPropertyOp4
 70
     1
102
RTVSPropertyOp5
 70
     1
102
RTVSPropertyOp6
 70
     1
102
RTVSPropertyOp7
 70
     1
102
RTVSPropertyOp8
 70
     1
102
RTVSPropertyOp9
 70
     1
102
RTVSPropertyOp10
 70
     1
102
RTVSPropertyOp11
 70
     1
102
RTVSPropertyOp12
 70
     1
102
RTVSPropertyOp13
 70
     1
102
RTVSPropertyOp14
 70
     1
102
RTVSPropertyOp15
 70
     1
102
RTVSPropertyOp16
 70
     1
102
RTVSPropertyOp17
 70
     1
102
RTVSPropertyOp18
 70
     1
102
RTVSPropertyOp19
 70
     1
102
RTVSPropertyOp20
 70
     1
102
RTVSPropertyOp21
 70
     1
102
RTVSPropertyOp22
 70
     1
102
RTVSPropertyOp23
 70
     1
102
RTVSPropertyOp24
 70
     1
102
RTVSPropertyOp25
 70
     1
102
RTVSPropertyOp26
 70
     1
102
RTVSPropertyOp27
 70
     1
102
RTVSPropertyOp28
 70
     1
102
RTVSPropertyOp29
 70
     1
102
RTVSPropertyOp30
 70
     1
102
RTVSPropertyOp31
 70
     1
102
RTVSPropertyOp32
 70
     1
102
RTVSPropertyOp33
 70
     1
102
RTVSPropertyOp34
 70
     1
102
RTVSPropertyOp35
 70
     1
102
RTVSPropertyOp36
 70
     1
102
RTVSPropertyOp37
 70
     1
102
RTVSPropertyOp38
 70
     1
102
RTVSPropertyOp39
 70
     1
102
RTVSPropertyOp40
 70
     1
102
RTVSPropertyOp41
 70
     1
102
RTVSPropertyOp42
 70
     1
102
RTVSPropertyOp43
 70
     1
102
RTVSPropertyOp44
 70
     1
102
RTVSPropertyOp45
 70
     1
102
RTVSPropertyOp46
 70
     1
102
RTVSPropertyOp47
 70
     1
102
RTVSPropertyOp48
 70
     1
102
RTVSPropertyOp49
 70
     1
102
RTVSPropertyOp50
 70
     1
102
RTVSPropertyOp51
 70
     0
102
RTVSPropertyOp52
 70
     0
102
RTVSPropertyOp53
 70
     1
102
RTVSPropertyOp54
 70
     1
102
RTVSPropertyOp55
 70
     1
102
RTVSPropertyOp56
 70
     1
102
RTVSPropertyOp57
 70
     1
102
RTVSPropertyOp58
 70
     1
102
RTVSPropertyOp59
 70
     1
102
RTVSPropertyOp60
 70
     1
102
RTVSPropertyOp61
 70
     1
102
RTVSPropertyOp62
 70
     1
  0
XRECORD
  5
AB4C
102
{ACAD_REACTORS
330
AB4B
102
}
330
AB4B
100
AcDbXrecord
280
     1
102
RTVSPost2010Prop28
280
     0
102
RTVSPost2010PropOp28
 70
     1
102
RTVSPost2010Prop29
280
     1
102
RTVSPost2010PropOp29
 70
     1
102
RTVSPost2010Prop30
280
     1
102
RTVSPost2010PropOp30
 70
     1
102
RTVSPost2010Prop31
280
     0
102
RTVSPost2010PropOp31
 70
     1
102
RTVSPost2010Prop32
280
     0
102
RTVSPost2010PropOp32
 70
     1
102
RTVSPost2010Prop33
280
     0
102
RTVSPost2010PropOp33
 70
     1
102
RTVSPost2010Prop34
280
     0
102
RTVSPost2010PropOp34
 70
     1
102
RTVSPost2010Prop35
280
     0
102
RTVSPost2010PropOp35
 70
     1
102
RTVSPost2010Prop36
280
     0
102
RTVSPost2010PropOp36
 70
     1
102
RTVSPost2010Prop37
 90
       50
102
RTVSPost2010PropOp37
 70
     1
102
RTVSPost2010Prop38
140
0.0
102
RTVSPost2010PropOp38
 70
     1
102
RTVSPost2010Prop39
140
1.0
102
RTVSPost2010PropOp39
 70
     1
102
RTVSPost2010Prop40
 90
        0
102
RTVSPost2010PropOp40
 70
     1
102
RTVSPost2010Prop41ColorIndex
 90
       18
102
RTVSPost2010Prop41ColorRGB
 90
        0
102
RTVSPost2010PropOp41
 70
     1
102
RTVSPost2010Prop42
 90
       50
102
RTVSPost2010PropOp42
 70
     1
102
RTVSPost2010Prop43
 90
        3
102
RTVSPost2010PropOp43
 70
     1
102
RTVSPost2010Prop44ColorIndex
 90
        5
102
RTVSPost2010Prop44ColorRGB
 90
      255
102
RTVSPost2010PropOp44
 70
     1
102
RTVSPost2010Prop45
280
     0
102
RTVSPost2010PropOp45
 70
     1
102
RTVSPost2010Prop46
 90
       50
102
RTVSPost2010PropOp46
 70
     1
102
RTVSPost2010Prop47
 90
       50
102
RTVSPost2010PropOp47
 70
     1
102
RTVSPost2010Prop48
 90
       50
102
RTVSPost2010PropOp48
 70
     1
102
RTVSPost2010Prop49
280
     0
102
RTVSPost2010PropOp49
 70
     1
102
RTVSPost2010Prop50
 90
       50
102
RTVSPost2010PropOp50
 70
     1
102
RTVSPost2010Prop51ColorIndex
 90
      256
102
RTVSPost2010Prop51ColorRGB
 90
-16777216
102
RTVSPost2010PropOp51
 70
     0
102
RTVSPost2010Prop52
140
1.0
102
RTVSPost2010PropOp52
 70
     0
102
RTVSPost2010Prop53
 90
        2
102
RTVSPost2010PropOp53
 70
     1
102
RTVSPost2010Prop54
  1
strokes_ogs.tif
102
RTVSPost2010PropOp54
 70
     1
102
RTVSPost2010Prop55
280
     0
102
RTVSPost2010PropOp55
 70
     1
102
RTVSPost2010Prop56
140
1.0
102
RTVSPost2010PropOp56
 70
     1
102
RTVSPost2010Prop57
140
1.0
102
RTVSPost2010PropOp57
 70
     1
102
RTVSPropertyOp0
 70
     1
102
RTVSPropertyOp1
 70
     1
102
RTVSPropertyOp2
 70
     1
102
RTVSPropertyOp3
 70
     1
102
RTVSPropertyOp4
 70
     1
102
RTVSPropertyOp5
 70
     1
102
RTVSPropertyOp6
 70
     1
102
RTVSPropertyOp7
 70
     1
102
RTVSPropertyOp8
 70
     1
102
RTVSPropertyOp9
 70
     1
102
RTVSPropertyOp10
 70
     1
102
RTVSPropertyOp11
 70
     1
102
RTVSPropertyOp12
 70
     1
102
RTVSPropertyOp13
 70
     1
102
RTVSPropertyOp14
 70
     1
102
RTVSPropertyOp15
 70
     1
102
RTVSPropertyOp16
 70
     1
102
RTVSPropertyOp17
 70
     1
102
RTVSPropertyOp18
 70
     1
102
RTVSPropertyOp19
 70
     1
102
RTVSPropertyOp20
 70
     1
102
RTVSPropertyOp21
 70
     1
102
RTVSPropertyOp22
 70
     1
102
RTVSPropertyOp23
 70
     1
102
RTVSPropertyOp24
 70
     1
102
RTVSPropertyOp25
 70
     1
102
RTVSPropertyOp26
 70
     1
102
RTVSPropertyOp27
 70
     1
102
RTVSPropertyOp28
 70
     1
102
RTVSPropertyOp29
 70
     1
102
RTVSPropertyOp30
 70
     1
102
RTVSPropertyOp31
 70
     1
102
RTVSPropertyOp32
 70
     1
102
RTVSPropertyOp33
 70
     1
102
RTVSPropertyOp34
 70
     1
102
RTVSPropertyOp35
 70
     1
102
RTVSPropertyOp36
 70
     1
102
RTVSPropertyOp37
 70
     1
102
RTVSPropertyOp38
 70
     1
102
RTVSPropertyOp39
 70
     1
102
RTVSPropertyOp40
 70
     1
102
RTVSPropertyOp41
 70
     1
102
RTVSPropertyOp42
 70
     1
102
RTVSPropertyOp43
 70
     1
102
RTVSPropertyOp44
 70
     1
102
RTVSPropertyOp45
 70
     1
102
RTVSPropertyOp46
 70
     1
102
RTVSPropertyOp47
 70
     1
102
RTVSPropertyOp48
 70
     1
102
RTVSPropertyOp49
 70
     1
102
RTVSPropertyOp50
 70
     1
102
RTVSPropertyOp51
 70
     0
102
RTVSPropertyOp52
 70
     0
102
RTVSPropertyOp53
 70
     1
102
RTVSPropertyOp54
 70
     1
102
RTVSPropertyOp55
 70
     1
102
RTVSPropertyOp56
 70
     1
102
RTVSPropertyOp57
 70
     1
102
RTVSPropertyOp58
 70
     1
102
RTVSPropertyOp59
 70
     1
102
RTVSPropertyOp60
 70
     1
102
RTVSPropertyOp61
 70
     1
102
RTVSPropertyOp62
 70
     1
  0
XRECORD
  5
AB4E
102
{ACAD_REACTORS
330
AB4D
102
}
330
AB4D
100
AcDbXrecord
280
     1
102
RTVSPost2010Prop28
280
     0
102
RTVSPost2010PropOp28
 70
     1
102
RTVSPost2010Prop29
280
     1
102
RTVSPost2010PropOp29
 70
     1
102
RTVSPost2010Prop30
280
     1
102
RTVSPost2010PropOp30
 70
     1
102
RTVSPost2010Prop31
280
     0
102
RTVSPost2010PropOp31
 70
     1
102
RTVSPost2010Prop32
280
     0
102
RTVSPost2010PropOp32
 70
     1
102
RTVSPost2010Prop33
280
     0
102
RTVSPost2010PropOp33
 70
     1
102
RTVSPost2010Prop34
280
     0
102
RTVSPost2010PropOp34
 70
     1
102
RTVSPost2010Prop35
280
     0
102
RTVSPost2010PropOp35
 70
     1
102
RTVSPost2010Prop36
280
     0
102
RTVSPost2010PropOp36
 70
     1
102
RTVSPost2010Prop37
 90
       50
102
RTVSPost2010PropOp37
 70
     1
102
RTVSPost2010Prop38
140
0.0
102
RTVSPost2010PropOp38
 70
     1
102
RTVSPost2010Prop39
140
1.0
102
RTVSPost2010PropOp39
 70
     1
102
RTVSPost2010Prop40
 90
        0
102
RTVSPost2010PropOp40
 70
     1
102
RTVSPost2010Prop41ColorIndex
 90
       18
102
RTVSPost2010Prop41ColorRGB
 90
        0
102
RTVSPost2010PropOp41
 70
     1
102
RTVSPost2010Prop42
 90
       50
102
RTVSPost2010PropOp42
 70
     1
102
RTVSPost2010Prop43
 90
        3
102
RTVSPost2010PropOp43
 70
     1
102
RTVSPost2010Prop44ColorIndex
 90
        5
102
RTVSPost2010Prop44ColorRGB
 90
      255
102
RTVSPost2010PropOp44
 70
     1
102
RTVSPost2010Prop45
280
     0
102
RTVSPost2010PropOp45
 70
     1
102
RTVSPost2010Prop46
 90
       50
102
RTVSPost2010PropOp46
 70
     1
102
RTVSPost2010Prop47
 90
       50
102
RTVSPost2010PropOp47
 70
     1
102
RTVSPost2010Prop48
 90
       50
102
RTVSPost2010PropOp48
 70
     1
102
RTVSPost2010Prop49
280
     0
102
RTVSPost2010PropOp49
 70
     1
102
RTVSPost2010Prop50
 90
       50
102
RTVSPost2010PropOp50
 70
     1
102
RTVSPost2010Prop51ColorIndex
 90
      256
102
RTVSPost2010Prop51ColorRGB
 90
-16777216
102
RTVSPost2010PropOp51
 70
     0
102
RTVSPost2010Prop52
140
1.0
102
RTVSPost2010PropOp52
 70
     0
102
RTVSPost2010Prop53
 90
        2
102
RTVSPost2010PropOp53
 70
     1
102
RTVSPost2010Prop54
  1
strokes_ogs.tif
102
RTVSPost2010PropOp54
 70
     1
102
RTVSPost2010Prop55
280
     0
102
RTVSPost2010PropOp55
 70
     1
102
RTVSPost2010Prop56
140
1.0
102
RTVSPost2010PropOp56
 70
     1
102
RTVSPost2010Prop57
140
1.0
102
RTVSPost2010PropOp57
 70
     1
102
RTVSPropertyOp0
 70
     1
102
RTVSPropertyOp1
 70
     1
102
RTVSPropertyOp2
 70
     1
102
RTVSPropertyOp3
 70
     1
102
RTVSPropertyOp4
 70
     1
102
RTVSPropertyOp5
 70
     1
102
RTVSPropertyOp6
 70
     1
102
RTVSPropertyOp7
 70
     1
102
RTVSPropertyOp8
 70
     1
102
RTVSPropertyOp9
 70
     1
102
RTVSPropertyOp10
 70
     1
102
RTVSPropertyOp11
 70
     1
102
RTVSPropertyOp12
 70
     1
102
RTVSPropertyOp13
 70
     1
102
RTVSPropertyOp14
 70
     1
102
RTVSPropertyOp15
 70
     1
102
RTVSPropertyOp16
 70
     1
102
RTVSPropertyOp17
 70
     1
102
RTVSPropertyOp18
 70
     1
102
RTVSPropertyOp19
 70
     1
102
RTVSPropertyOp20
 70
     1
102
RTVSPropertyOp21
 70
     1
102
RTVSPropertyOp22
 70
     1
102
RTVSPropertyOp23
 70
     1
102
RTVSPropertyOp24
 70
     1
102
RTVSPropertyOp25
 70
     1
102
RTVSPropertyOp26
 70
     1
102
RTVSPropertyOp27
 70
     1
102
RTVSPropertyOp28
 70
     1
102
RTVSPropertyOp29
 70
     1
102
RTVSPropertyOp30
 70
     1
102
RTVSPropertyOp31
 70
     1
102
RTVSPropertyOp32
 70
     1
102
RTVSPropertyOp33
 70
     1
102
RTVSPropertyOp34
 70
     1
102
RTVSPropertyOp35
 70
     1
102
RTVSPropertyOp36
 70
     1
102
RTVSPropertyOp37
 70
     1
102
RTVSPropertyOp38
 70
     1
102
RTVSPropertyOp39
 70
     1
102
RTVSPropertyOp40
 70
     1
102
RTVSPropertyOp41
 70
     1
102
RTVSPropertyOp42
 70
     1
102
RTVSPropertyOp43
 70
     1
102
RTVSPropertyOp44
 70
     1
102
RTVSPropertyOp45
 70
     1
102
RTVSPropertyOp46
 70
     1
102
RTVSPropertyOp47
 70
     1
102
RTVSPropertyOp48
 70
     1
102
RTVSPropertyOp49
 70
     1
102
RTVSPropertyOp50
 70
     1
102
RTVSPropertyOp51
 70
     0
102
RTVSPropertyOp52
 70
     0
102
RTVSPropertyOp53
 70
     1
102
RTVSPropertyOp54
 70
     1
102
RTVSPropertyOp55
 70
     1
102
RTVSPropertyOp56
 70
     1
102
RTVSPropertyOp57
 70
     1
102
RTVSPropertyOp58
 70
     1
102
RTVSPropertyOp59
 70
     1
102
RTVSPropertyOp60
 70
     1
102
RTVSPropertyOp61
 70
     1
102
RTVSPropertyOp62
 70
     1
  0
XRECORD
  5
AB44
102
{ACAD_REACTORS
330
AB43
102
}
330
AB43
100
AcDbXrecord
280
     1
102
RTVSPost2010Prop28
280
     0
102
RTVSPost2010PropOp28
 70
     1
102
RTVSPost2010Prop29
280
     1
102
RTVSPost2010PropOp29
 70
     1
102
RTVSPost2010Prop30
280
     1
102
RTVSPost2010PropOp30
 70
     1
102
RTVSPost2010Prop31
280
     0
102
RTVSPost2010PropOp31
 70
     1
102
RTVSPost2010Prop32
280
     0
102
RTVSPost2010PropOp32
 70
     1
102
RTVSPost2010Prop33
280
     0
102
RTVSPost2010PropOp33
 70
     1
102
RTVSPost2010Prop34
280
     0
102
RTVSPost2010PropOp34
 70
     1
102
RTVSPost2010Prop35
280
     0
102
RTVSPost2010PropOp35
 70
     1
102
RTVSPost2010Prop36
280
     0
102
RTVSPost2010PropOp36
 70
     1
102
RTVSPost2010Prop37
 90
       50
102
RTVSPost2010PropOp37
 70
     1
102
RTVSPost2010Prop38
140
0.0
102
RTVSPost2010PropOp38
 70
     1
102
RTVSPost2010Prop39
140
1.0
102
RTVSPost2010PropOp39
 70
     1
102
RTVSPost2010Prop40
 90
        0
102
RTVSPost2010PropOp40
 70
     1
102
RTVSPost2010Prop41ColorIndex
 90
       18
102
RTVSPost2010Prop41ColorRGB
 90
        0
102
RTVSPost2010PropOp41
 70
     1
102
RTVSPost2010Prop42
 90
       50
102
RTVSPost2010PropOp42
 70
     1
102
RTVSPost2010Prop43
 90
        3
102
RTVSPost2010PropOp43
 70
     1
102
RTVSPost2010Prop44ColorIndex
 90
        5
102
RTVSPost2010Prop44ColorRGB
 90
      255
102
RTVSPost2010PropOp44
 70
     1
102
RTVSPost2010Prop45
280
     0
102
RTVSPost2010PropOp45
 70
     1
102
RTVSPost2010Prop46
 90
       50
102
RTVSPost2010PropOp46
 70
     1
102
RTVSPost2010Prop47
 90
       50
102
RTVSPost2010PropOp47
 70
     1
102
RTVSPost2010Prop48
 90
       50
102
RTVSPost2010PropOp48
 70
     1
102
RTVSPost2010Prop49
280
     0
102
RTVSPost2010PropOp49
 70
     1
102
RTVSPost2010Prop50
 90
       50
102
RTVSPost2010PropOp50
 70
     1
102
RTVSPost2010Prop51ColorIndex
 90
      256
102
RTVSPost2010Prop51ColorRGB
 90
-16777216
102
RTVSPost2010PropOp51
 70
     0
102
RTVSPost2010Prop52
140
1.0
102
RTVSPost2010PropOp52
 70
     0
102
RTVSPost2010Prop53
 90
        2
102
RTVSPost2010PropOp53
 70
     1
102
RTVSPost2010Prop54
  1
strokes_ogs.tif
102
RTVSPost2010PropOp54
 70
     1
102
RTVSPost2010Prop55
280
     0
102
RTVSPost2010PropOp55
 70
     1
102
RTVSPost2010Prop56
140
1.0
102
RTVSPost2010PropOp56
 70
     1
102
RTVSPost2010Prop57
140
1.0
102
RTVSPost2010PropOp57
 70
     1
102
RTVSPropertyOp0
 70
     1
102
RTVSPropertyOp1
 70
     1
102
RTVSPropertyOp2
 70
     1
102
RTVSPropertyOp3
 70
     1
102
RTVSPropertyOp4
 70
     1
102
RTVSPropertyOp5
 70
     1
102
RTVSPropertyOp6
 70
     1
102
RTVSPropertyOp7
 70
     1
102
RTVSPropertyOp8
 70
     1
102
RTVSPropertyOp9
 70
     1
102
RTVSPropertyOp10
 70
     1
102
RTVSPropertyOp11
 70
     1
102
RTVSPropertyOp12
 70
     1
102
RTVSPropertyOp13
 70
     1
102
RTVSPropertyOp14
 70
     1
102
RTVSPropertyOp15
 70
     1
102
RTVSPropertyOp16
 70
     1
102
RTVSPropertyOp17
 70
     1
102
RTVSPropertyOp18
 70
     1
102
RTVSPropertyOp19
 70
     1
102
RTVSPropertyOp20
 70
     1
102
RTVSPropertyOp21
 70
     1
102
RTVSPropertyOp22
 70
     1
102
RTVSPropertyOp23
 70
     1
102
RTVSPropertyOp24
 70
     1
102
RTVSPropertyOp25
 70
     1
102
RTVSPropertyOp26
 70
     1
102
RTVSPropertyOp27
 70
     1
102
RTVSPropertyOp28
 70
     1
102
RTVSPropertyOp29
 70
     1
102
RTVSPropertyOp30
 70
     1
102
RTVSPropertyOp31
 70
     1
102
RTVSPropertyOp32
 70
     1
102
RTVSPropertyOp33
 70
     1
102
RTVSPropertyOp34
 70
     1
102
RTVSPropertyOp35
 70
     1
102
RTVSPropertyOp36
 70
     1
102
RTVSPropertyOp37
 70
     1
102
RTVSPropertyOp38
 70
     1
102
RTVSPropertyOp39
 70
     1
102
RTVSPropertyOp40
 70
     1
102
RTVSPropertyOp41
 70
     1
102
RTVSPropertyOp42
 70
     1
102
RTVSPropertyOp43
 70
     1
102
RTVSPropertyOp44
 70
     1
102
RTVSPropertyOp45
 70
     1
102
RTVSPropertyOp46
 70
     1
102
RTVSPropertyOp47
 70
     1
102
RTVSPropertyOp48
 70
     1
102
RTVSPropertyOp49
 70
     1
102
RTVSPropertyOp50
 70
     1
102
RTVSPropertyOp51
 70
     0
102
RTVSPropertyOp52
 70
     0
102
RTVSPropertyOp53
 70
     1
102
RTVSPropertyOp54
 70
     1
102
RTVSPropertyOp55
 70
     1
102
RTVSPropertyOp56
 70
     1
102
RTVSPropertyOp57
 70
     1
102
RTVSPropertyOp58
 70
     1
102
RTVSPropertyOp59
 70
     1
102
RTVSPropertyOp60
 70
     1
102
RTVSPropertyOp61
 70
     1
102
RTVSPropertyOp62
 70
     1
  0
XRECORD
  5
AB38
102
{ACAD_REACTORS
330
AB37
102
}
330
AB37
100
AcDbXrecord
280
     1
102
RTVSPost2010Prop28
280
     0
102
RTVSPost2010PropOp28
 70
     1
102
RTVSPost2010Prop29
280
     1
102
RTVSPost2010PropOp29
 70
     1
102
RTVSPost2010Prop30
280
     1
102
RTVSPost2010PropOp30
 70
     1
102
RTVSPost2010Prop31
280
     0
102
RTVSPost2010PropOp31
 70
     1
102
RTVSPost2010Prop32
280
     0
102
RTVSPost2010PropOp32
 70
     1
102
RTVSPost2010Prop33
280
     0
102
RTVSPost2010PropOp33
 70
     1
102
RTVSPost2010Prop34
280
     0
102
RTVSPost2010PropOp34
 70
     1
102
RTVSPost2010Prop35
280
     0
102
RTVSPost2010PropOp35
 70
     1
102
RTVSPost2010Prop36
280
     0
102
RTVSPost2010PropOp36
 70
     1
102
RTVSPost2010Prop37
 90
       50
102
RTVSPost2010PropOp37
 70
     1
102
RTVSPost2010Prop38
140
0.0
102
RTVSPost2010PropOp38
 70
     1
102
RTVSPost2010Prop39
140
1.0
102
RTVSPost2010PropOp39
 70
     1
102
RTVSPost2010Prop40
 90
        0
102
RTVSPost2010PropOp40
 70
     1
102
RTVSPost2010Prop41ColorIndex
 90
       18
102
RTVSPost2010Prop41ColorRGB
 90
        0
102
RTVSPost2010PropOp41
 70
     1
102
RTVSPost2010Prop42
 90
       50
102
RTVSPost2010PropOp42
 70
     1
102
RTVSPost2010Prop43
 90
        3
102
RTVSPost2010PropOp43
 70
     1
102
RTVSPost2010Prop44ColorIndex
 90
        5
102
RTVSPost2010Prop44ColorRGB
 90
      255
102
RTVSPost2010PropOp44
 70
     1
102
RTVSPost2010Prop45
280
     0
102
RTVSPost2010PropOp45
 70
     1
102
RTVSPost2010Prop46
 90
       50
102
RTVSPost2010PropOp46
 70
     1
102
RTVSPost2010Prop47
 90
       50
102
RTVSPost2010PropOp47
 70
     1
102
RTVSPost2010Prop48
 90
       50
102
RTVSPost2010PropOp48
 70
     1
102
RTVSPost2010Prop49
280
     0
102
RTVSPost2010PropOp49
 70
     1
102
RTVSPost2010Prop50
 90
       50
102
RTVSPost2010PropOp50
 70
     1
102
RTVSPost2010Prop51ColorIndex
 90
      256
102
RTVSPost2010Prop51ColorRGB
 90
-16777216
102
RTVSPost2010PropOp51
 70
     0
102
RTVSPost2010Prop52
140
1.0
102
RTVSPost2010PropOp52
 70
     0
102
RTVSPost2010Prop53
 90
        2
102
RTVSPost2010PropOp53
 70
     1
102
RTVSPost2010Prop54
  1
strokes_ogs.tif
102
RTVSPost2010PropOp54
 70
     1
102
RTVSPost2010Prop55
280
     0
102
RTVSPost2010PropOp55
 70
     1
102
RTVSPost2010Prop56
140
1.0
102
RTVSPost2010PropOp56
 70
     1
102
RTVSPost2010Prop57
140
1.0
102
RTVSPost2010PropOp57
 70
     1
102
RTVSPropertyOp0
 70
     1
102
RTVSPropertyOp1
 70
     1
102
RTVSPropertyOp2
 70
     1
102
RTVSPropertyOp3
 70
     1
102
RTVSPropertyOp4
 70
     1
102
RTVSPropertyOp5
 70
     1
102
RTVSPropertyOp6
 70
     1
102
RTVSPropertyOp7
 70
     1
102
RTVSPropertyOp8
 70
     1
102
RTVSPropertyOp9
 70
     1
102
RTVSPropertyOp10
 70
     1
102
RTVSPropertyOp11
 70
     1
102
RTVSPropertyOp12
 70
     1
102
RTVSPropertyOp13
 70
     1
102
RTVSPropertyOp14
 70
     1
102
RTVSPropertyOp15
 70
     1
102
RTVSPropertyOp16
 70
     1
102
RTVSPropertyOp17
 70
     1
102
RTVSPropertyOp18
 70
     1
102
RTVSPropertyOp19
 70
     1
102
RTVSPropertyOp20
 70
     1
102
RTVSPropertyOp21
 70
     1
102
RTVSPropertyOp22
 70
     1
102
RTVSPropertyOp23
 70
     1
102
RTVSPropertyOp24
 70
     1
102
RTVSPropertyOp25
 70
     1
102
RTVSPropertyOp26
 70
     1
102
RTVSPropertyOp27
 70
     1
102
RTVSPropertyOp28
 70
     1
102
RTVSPropertyOp29
 70
     1
102
RTVSPropertyOp30
 70
     1
102
RTVSPropertyOp31
 70
     1
102
RTVSPropertyOp32
 70
     1
102
RTVSPropertyOp33
 70
     1
102
RTVSPropertyOp34
 70
     1
102
RTVSPropertyOp35
 70
     1
102
RTVSPropertyOp36
 70
     1
102
RTVSPropertyOp37
 70
     1
102
RTVSPropertyOp38
 70
     1
102
RTVSPropertyOp39
 70
     1
102
RTVSPropertyOp40
 70
     1
102
RTVSPropertyOp41
 70
     1
102
RTVSPropertyOp42
 70
     1
102
RTVSPropertyOp43
 70
     1
102
RTVSPropertyOp44
 70
     1
102
RTVSPropertyOp45
 70
     1
102
RTVSPropertyOp46
 70
     1
102
RTVSPropertyOp47
 70
     1
102
RTVSPropertyOp48
 70
     1
102
RTVSPropertyOp49
 70
     1
102
RTVSPropertyOp50
 70
     1
102
RTVSPropertyOp51
 70
     0
102
RTVSPropertyOp52
 70
     0
102
RTVSPropertyOp53
 70
     1
102
RTVSPropertyOp54
 70
     1
102
RTVSPropertyOp55
 70
     1
102
RTVSPropertyOp56
 70
     1
102
RTVSPropertyOp57
 70
     1
102
RTVSPropertyOp58
 70
     1
102
RTVSPropertyOp59
 70
     1
102
RTVSPropertyOp60
 70
     1
102
RTVSPropertyOp61
 70
     1
102
RTVSPropertyOp62
 70
     1
  0
XRECORD
  5
AB50
102
{ACAD_REACTORS
330
AB4F
102
}
330
AB4F
100
AcDbXrecord
280
     1
102
RTVSPost2010Prop28
280
     0
102
RTVSPost2010PropOp28
 70
     1
102
RTVSPost2010Prop29
280
     1
102
RTVSPost2010PropOp29
 70
     1
102
RTVSPost2010Prop30
280
     1
102
RTVSPost2010PropOp30
 70
     1
102
RTVSPost2010Prop31
280
     0
102
RTVSPost2010PropOp31
 70
     1
102
RTVSPost2010Prop32
280
     0
102
RTVSPost2010PropOp32
 70
     1
102
RTVSPost2010Prop33
280
     0
102
RTVSPost2010PropOp33
 70
     1
102
RTVSPost2010Prop34
280
     0
102
RTVSPost2010PropOp34
 70
     1
102
RTVSPost2010Prop35
280
     0
102
RTVSPost2010PropOp35
 70
     1
102
RTVSPost2010Prop36
280
     0
102
RTVSPost2010PropOp36
 70
     1
102
RTVSPost2010Prop37
 90
       50
102
RTVSPost2010PropOp37
 70
     1
102
RTVSPost2010Prop38
140
0.0
102
RTVSPost2010PropOp38
 70
     1
102
RTVSPost2010Prop39
140
1.0
102
RTVSPost2010PropOp39
 70
     1
102
RTVSPost2010Prop40
 90
        0
102
RTVSPost2010PropOp40
 70
     1
102
RTVSPost2010Prop41ColorIndex
 90
       18
102
RTVSPost2010Prop41ColorRGB
 90
        0
102
RTVSPost2010PropOp41
 70
     1
102
RTVSPost2010Prop42
 90
       50
102
RTVSPost2010PropOp42
 70
     1
102
RTVSPost2010Prop43
 90
        3
102
RTVSPost2010PropOp43
 70
     1
102
RTVSPost2010Prop44ColorIndex
 90
        5
102
RTVSPost2010Prop44ColorRGB
 90
      255
102
RTVSPost2010PropOp44
 70
     1
102
RTVSPost2010Prop45
280
     0
102
RTVSPost2010PropOp45
 70
     1
102
RTVSPost2010Prop46
 90
       50
102
RTVSPost2010PropOp46
 70
     1
102
RTVSPost2010Prop47
 90
       50
102
RTVSPost2010PropOp47
 70
     1
102
RTVSPost2010Prop48
 90
       50
102
RTVSPost2010PropOp48
 70
     1
102
RTVSPost2010Prop49
280
     0
102
RTVSPost2010PropOp49
 70
     1
102
RTVSPost2010Prop50
 90
       50
102
RTVSPost2010PropOp50
 70
     1
102
RTVSPost2010Prop51ColorIndex
 90
      256
102
RTVSPost2010Prop51ColorRGB
 90
-16777216
102
RTVSPost2010PropOp51
 70
     0
102
RTVSPost2010Prop52
140
1.0
102
RTVSPost2010PropOp52
 70
     0
102
RTVSPost2010Prop53
 90
        2
102
RTVSPost2010PropOp53
 70
     1
102
RTVSPost2010Prop54
  1
strokes_ogs.tif
102
RTVSPost2010PropOp54
 70
     1
102
RTVSPost2010Prop55
280
     0
102
RTVSPost2010PropOp55
 70
     1
102
RTVSPost2010Prop56
140
1.0
102
RTVSPost2010PropOp56
 70
     1
102
RTVSPost2010Prop57
140
1.0
102
RTVSPost2010PropOp57
 70
     1
102
RTVSPropertyOp0
 70
     1
102
RTVSPropertyOp1
 70
     1
102
RTVSPropertyOp2
 70
     1
102
RTVSPropertyOp3
 70
     1
102
RTVSPropertyOp4
 70
     1
102
RTVSPropertyOp5
 70
     1
102
RTVSPropertyOp6
 70
     1
102
RTVSPropertyOp7
 70
     1
102
RTVSPropertyOp8
 70
     1
102
RTVSPropertyOp9
 70
     1
102
RTVSPropertyOp10
 70
     1
102
RTVSPropertyOp11
 70
     1
102
RTVSPropertyOp12
 70
     1
102
RTVSPropertyOp13
 70
     1
102
RTVSPropertyOp14
 70
     1
102
RTVSPropertyOp15
 70
     1
102
RTVSPropertyOp16
 70
     1
102
RTVSPropertyOp17
 70
     1
102
RTVSPropertyOp18
 70
     1
102
RTVSPropertyOp19
 70
     1
102
RTVSPropertyOp20
 70
     1
102
RTVSPropertyOp21
 70
     1
102
RTVSPropertyOp22
 70
     1
102
RTVSPropertyOp23
 70
     1
102
RTVSPropertyOp24
 70
     1
102
RTVSPropertyOp25
 70
     1
102
RTVSPropertyOp26
 70
     1
102
RTVSPropertyOp27
 70
     1
102
RTVSPropertyOp28
 70
     1
102
RTVSPropertyOp29
 70
     1
102
RTVSPropertyOp30
 70
     1
102
RTVSPropertyOp31
 70
     1
102
RTVSPropertyOp32
 70
     1
102
RTVSPropertyOp33
 70
     1
102
RTVSPropertyOp34
 70
     1
102
RTVSPropertyOp35
 70
     1
102
RTVSPropertyOp36
 70
     1
102
RTVSPropertyOp37
 70
     1
102
RTVSPropertyOp38
 70
     1
102
RTVSPropertyOp39
 70
     1
102
RTVSPropertyOp40
 70
     1
102
RTVSPropertyOp41
 70
     1
102
RTVSPropertyOp42
 70
     1
102
RTVSPropertyOp43
 70
     1
102
RTVSPropertyOp44
 70
     1
102
RTVSPropertyOp45
 70
     1
102
RTVSPropertyOp46
 70
     1
102
RTVSPropertyOp47
 70
     1
102
RTVSPropertyOp48
 70
     1
102
RTVSPropertyOp49
 70
     1
102
RTVSPropertyOp50
 70
     1
102
RTVSPropertyOp51
 70
     0
102
RTVSPropertyOp52
 70
     0
102
RTVSPropertyOp53
 70
     1
102
RTVSPropertyOp54
 70
     1
102
RTVSPropertyOp55
 70
     1
102
RTVSPropertyOp56
 70
     1
102
RTVSPropertyOp57
 70
     1
102
RTVSPropertyOp58
 70
     1
102
RTVSPropertyOp59
 70
     1
102
RTVSPropertyOp60
 70
     1
102
RTVSPropertyOp61
 70
     1
102
RTVSPropertyOp62
 70
     1
  0
ENDSEC
  0
EOF
