  0
SECTION
  2
HEADER
  9
$ACADVER
  1
AC1015
  9
$ACADMAINTVER
 70
    20
  9
$DWGCODEPAGE
  3
ANSI_932
  9
$INSBASE
 10
0.0
 20
0.0
 30
0.0
  9
$EXTMIN
 10
10.0
 20
9.999999999999998
 30
0.0
  9
$EXTMAX
 10
347.6256169999999
 20
288.654083
 30
0.0
  9
$LIMMIN
 10
0.0
 20
0.0
  9
$LIMMAX
 10
495.0
 20
341.25
  9
$ORTHOMODE
 70
     1
  9
$REGENMODE
 70
     1
  9
$FILLMODE
 70
     1
  9
$QTEXTMODE
 70
     0
  9
$MIRRTEXT
 70
     1
  9
$LTSCALE
 40
20.0
  9
$ATTMODE
 70
     1
  9
$TEXTSIZE
 40
5.0
  9
$TRACEWID
 40
1.0
  9
$TEXTSTYLE
  7
STANDARD
  9
$CLAYER
  8
0
  9
$CELTYPE
  6
BYLAYER
  9
$CECOLOR
 62
   256
  9
$CELTSCALE
 40
1.0
  9
$DISPSILH
 70
     0
  9
$DIMSCALE
 40
1.0
  9
$DIMASZ
 40
3.0
  9
$DIMEXO
 40
1.0
  9
$DIMDLI
 40
10.0
  9
$DIMRND
 40
0.0
  9
$DIMDLE
 40
0.0
  9
$DIMEXE
 40
1.0
  9
$DIMTP
 40
0.0
  9
$DIMTM
 40
0.0
  9
$DIMTXT
 40
3.2
  9
$DIMCEN
 40
0.0
  9
$DIMTSZ
 40
0.0
  9
$DIMTOL
 70
     0
  9
$DIMLIM
 70
     0
  9
$DIMTIH
 70
     0
  9
$DIMTOH
 70
     0
  9
$DIMSE1
 70
     0
  9
$DIMSE2
 70
     0
  9
$DIMTAD
 70
     3
  9
$DIMZIN
 70
     8
  9
$DIMBLK
  1

  9
$DIMASO
 70
     1
  9
$DIMSHO
 70
     1
  9
$DIMPOST
  1

  9
$DIMAPOST
  1

  9
$DIMALT
 70
     0
  9
$DIMALTD
 70
     2
  9
$DIMALTF
 40
25.4
  9
$DIMLFAC
 40
1.0
  9
$DIMTOFL
 70
     1
  9
$DIMTVP
 40
0.0
  9
$DIMTIX
 70
     0
  9
$DIMSOXD
 70
     0
  9
$DIMSAH
 70
     1
  9
$DIMBLK1
  1
OPEN
  9
$DIMBLK2
  1
OPEN
  9
$DIMSTYLE
  2
STANDARD
  9
$DIMCLRD
 70
     0
  9
$DIMCLRE
 70
     0
  9
$DIMCLRT
 70
     0
  9
$DIMTFAC
 40
1.0
  9
$DIMGAP
 40
1.0
  9
$DIMJUST
 70
     0
  9
$DIMSD1
 70
     0
  9
$DIMSD2
 70
     0
  9
$DIMTOLJ
 70
     1
  9
$DIMTZIN
 70
     0
  9
$DIMALTZ
 70
     0
  9
$DIMALTTZ
 70
     0
  9
$DIMUPT
 70
     0
  9
$DIMDEC
 70
     4
  9
$DIMTDEC
 70
     4
  9
$DIMALTU
 70
     2
  9
$DIMALTTD
 70
     2
  9
$DIMTXSTY
  7
STANDARD
  9
$DIMAUNIT
 70
     0
  9
$DIMADEC
 70
     0
  9
$DIMALTRND
 40
0.0
  9
$DIMAZIN
 70
     0
  9
$DIMDSEP
 70
    46
  9
$DIMATFIT
 70
     3
  9
$DIMFRAC
 70
     0
  9
$DIMLDRBLK
  1
OPEN
  9
$DIMLUNIT
 70
     2
  9
$DIMLWD
 70
    -2
  9
$DIMLWE
 70
    -2
  9
$DIMTMOVE
 70
     0
  9
$LUNITS
 70
     2
  9
$LUPREC
 70
     4
  9
$SKETCHINC
 40
1.0
  9
$FILLETRAD
 40
9.0
  9
$AUNITS
 70
     0
  9
$AUPREC
 70
     2
  9
$MENU
  1
.
  9
$ELEVATION
 40
0.0
  9
$PELEVATION
 40
0.0
  9
$THICKNESS
 40
0.0
  9
$LIMCHECK
 70
     0
  9
$CHAMFERA
 40
10.0
  9
$CHAMFERB
 40
10.0
  9
$CHAMFERC
 40
0.0
  9
$CHAMFERD
 40
0.0
  9
$SKPOLY
 70
     0
  9
$TDCREATE
 40
2451301.641900347
  9
$TDUCREATE
 40
2451301.266900347
  9
$TDUPDATE
 40
2457192.687914214
  9
$TDUUPDATE
 40
2457192.312914213
  9
$TDINDWG
 40
0.0000108796
  9
$TDUSRTIMER
 40
0.0000105787
  9
$USRTIMER
 70
     1
  9
$ANGBASE
 50
0.0
  9
$ANGDIR
 70
     0
  9
$PDMODE
 70
     0
  9
$PDSIZE
 40
0.0
  9
$PLINEWID
 40
0.0
  9
$SPLFRAME
 70
     0
  9
$SPLINETYPE
 70
     6
  9
$SPLINESEGS
 70
     8
  9
$HANDSEED
  5
BD4D
  9
$SURFTAB1
 70
     6
  9
$SURFTAB2
 70
     6
  9
$SURFTYPE
 70
     6
  9
$SURFU
 70
     6
  9
$SURFV
 70
     6
  9
$UCSBASE
  2

  9
$UCSNAME
  2

  9
$UCSORG
 10
0.0
 20
0.0
 30
0.0
  9
$UCSXDIR
 10
1.0
 20
0.0
 30
0.0
  9
$UCSYDIR
 10
0.0
 20
1.0
 30
0.0
  9
$UCSORTHOREF
  2

  9
$UCSORTHOVIEW
 70
     0
  9
$UCSORGTOP
 10
0.0
 20
0.0
 30
0.0
  9
$UCSORGBOTTOM
 10
0.0
 20
0.0
 30
0.0
  9
$UCSORGLEFT
 10
0.0
 20
0.0
 30
0.0
  9
$UCSORGRIGHT
 10
0.0
 20
0.0
 30
0.0
  9
$UCSORGFRONT
 10
0.0
 20
0.0
 30
0.0
  9
$UCSORGBACK
 10
0.0
 20
0.0
 30
0.0
  9
$PUCSBASE
  2

  9
$PUCSNAME
  2

  9
$PUCSORG
 10
0.0
 20
0.0
 30
0.0
  9
$PUCSXDIR
 10
1.0
 20
0.0
 30
0.0
  9
$PUCSYDIR
 10
0.0
 20
1.0
 30
0.0
  9
$PUCSORTHOREF
  2

  9
$PUCSORTHOVIEW
 70
     0
  9
$PUCSORGTOP
 10
0.0
 20
0.0
 30
0.0
  9
$PUCSORGBOTTOM
 10
0.0
 20
0.0
 30
0.0
  9
$PUCSORGLEFT
 10
0.0
 20
0.0
 30
0.0
  9
$PUCSORGRIGHT
 10
0.0
 20
0.0
 30
0.0
  9
$PUCSORGFRONT
 10
0.0
 20
0.0
 30
0.0
  9
$PUCSORGBACK
 10
0.0
 20
0.0
 30
0.0
  9
$USERI1
 70
     0
  9
$USERI2
 70
     0
  9
$USERI3
 70
     0
  9
$USERI4
 70
     0
  9
$USERI5
 70
     0
  9
$USERR1
 40
0.0
  9
$USERR2
 40
0.0
  9
$USERR3
 40
0.0
  9
$USERR4
 40
0.0
  9
$USERR5
 40
0.0
  9
$WORLDVIEW
 70
     1
  9
$SHADEDGE
 70
     3
  9
$SHADEDIF
 70
    70
  9
$TILEMODE
 70
     1
  9
$MAXACTVP
 70
    16
  9
$PINSBASE
 10
0.0
 20
0.0
 30
0.0
  9
$PLIMCHECK
 70
     0
  9
$PEXTMIN
 10
1.000000000000000E+20
 20
1.000000000000000E+20
 30
1.000000000000000E+20
  9
$PEXTMAX
 10
-1.000000000000000E+20
 20
-1.000000000000000E+20
 30
-1.000000000000000E+20
  9
$PLIMMIN
 10
0.0
 20
0.0
  9
$PLIMMAX
 10
420.0
 20
297.0
  9
$UNITMODE
 70
     0
  9
$VISRETAIN
 70
     0
  9
$PLINEGEN
 70
     0
  9
$PSLTSCALE
 70
     0
  9
$TREEDEPTH
 70
  3020
  9
$CMLSTYLE
  2
STANDARD
  9
$CMLJUST
 70
     0
  9
$CMLSCALE
 40
1.0
  9
$PROXYGRAPHICS
 70
     1
  9
$MEASUREMENT
 70
     0
  9
$CELWEIGHT
370
    -1
  9
$ENDCAPS
280
     0
  9
$JOINSTYLE
280
     0
  9
$LWDISPLAY
290
     0
  9
$INSUNITS
 70
     0
  9
$HYPERLINKBASE
  1

  9
$STYLESHEET
  1

  9
$XEDIT
290
     1
  9
$CEPSNTYPE
380
     0
  9
$PSTYLEMODE
290
     1
  9
$FINGERPRINTGUID
  2
{162BAF3B-4EBB-4786-9608-9DB23AFC0ADF}
  9
$VERSIONGUID
  2
{FEA87ACC-A0D2-4BB7-832C-0B030BD09433}
  9
$EXTNAMES
290
     1
  9
$PSVPSCALE
 40
0.0
  9
$OLESTARTUP
290
     0
  0
ENDSEC
  0
SECTION
  2
CLASSES
  0
CLASS
  1
ACDBDICTIONARYWDFLT
  2
AcDbDictionaryWithDefault
  3
ObjectDBX Classes
 90
        0
280
     0
281
     0
  0
CLASS
  1
ACDBPLACEHOLDER
  2
AcDbPlaceHolder
  3
ObjectDBX Classes
 90
        0
280
     0
281
     0
  0
CLASS
  1
LAYOUT
  2
AcDbLayout
  3
ObjectDBX Classes
 90
        0
280
     0
281
     0
  0
CLASS
  1
DICTIONARYVAR
  2
AcDbDictionaryVar
  3
ObjectDBX Classes
 90
        0
280
     0
281
     0
  0
CLASS
  1
MATERIAL
  2
AcDbMaterial
  3
ObjectDBX Classes
 90
     1153
280
     0
281
     0
  0
CLASS
  1
VISUALSTYLE
  2
AcDbVisualStyle
  3
ObjectDBX Classes
 90
     4095
280
     0
281
     0
  0
CLASS
  1
TABLESTYLE
  2
AcDbTableStyle
  3
ObjectDBX Classes
 90
     4095
280
     0
281
     0
  0
CLASS
  1
SCALE
  2
AcDbScale
  3
ObjectDBX Classes
 90
     1153
280
     0
281
     0
  0
CLASS
  1
MLEADERSTYLE
  2
AcDbMLeaderStyle
  3
ACDB_MLEADERSTYLE_CLASS
 90
     4095
280
     0
281
     0
  0
CLASS
  1
ACDBSECTIONVIEWSTYLE
  2
AcDbSectionViewStyle
  3
ObjectDBX Classes
 90
     1025
280
     0
281
     0
  0
CLASS
  1
ACDBDETAILVIEWSTYLE
  2
AcDbDetailViewStyle
  3
ObjectDBX Classes
 90
     1025
280
     0
281
     0
  0
CLASS
  1
CELLSTYLEMAP
  2
AcDbCellStyleMap
  3
ObjectDBX Classes
 90
     1152
280
     0
281
     0
  0
ENDSEC
  0
SECTION
  2
TABLES
  0
TABLE
  2
VPORT
  5
B93B
330
0
100
AcDbSymbolTable
 70
     1
  0
VPORT
  5
BC96
330
B93B
100
AcDbSymbolTableRecord
100
AcDbViewportTableRecord
  2
*ACTIVE
 70
     0
 10
0.0
 20
0.0
 11
1.0
 21
1.0
 12
263.2311667619756
 22
149.3281181403471
 13
0.0
 23
0.0
 14
10.0
 24
10.0
 15
10.0
 25
10.0
 16
0.0
 26
0.0
 36
1.0
 17
0.0
 27
0.0
 37
0.0
 40
281.7613042442733
 41
2.35006605019815
 42
50.0
 43
0.0
 44
0.0
 50
0.0
 51
0.0
 71
     0
 72
   100
 73
     1
 74
     0
 75
     0
 76
     0
 77
     0
 78
     0
281
     0
 65
     1
110
0.0
120
0.0
130
0.0
111
1.0
121
0.0
131
0.0
112
0.0
122
1.0
132
0.0
 79
     0
146
0.0
1001
ACAD_NAV_VCDISPLAY
1070
     3
  0
ENDTAB
  0
TABLE
  2
LTYPE
  5
B938
330
0
100
AcDbSymbolTable
 70
     4
  0
LTYPE
  5
B946
330
B938
100
AcDbSymbolTableRecord
100
AcDbLinetypeTableRecord
  2
BYBLOCK
 70
     0
  3

 72
    65
 73
     0
 40
0.0
  0
LTYPE
  5
B947
330
B938
100
AcDbSymbolTableRecord
100
AcDbLinetypeTableRecord
  2
BYLAYER
 70
     0
  3

 72
    65
 73
     0
 40
0.0
  0
LTYPE
  5
B948
330
B938
100
AcDbSymbolTableRecord
100
AcDbLinetypeTableRecord
  2
CONTINUOUS
 70
     0
  3
Solid line
 72
    65
 73
     0
 40
0.0
  0
LTYPE
  5
B956
330
B938
100
AcDbSymbolTableRecord
100
AcDbLinetypeTableRecord
  2
DASHED
 70
     0
  3
__ __ __ __ __ __ __ __ __ __ __ __ __ __ __ __
 72
    65
 73
     2
 40
0.75
 49
0.5
 74
     0
 49
-0.25
 74
     0
  0
LTYPE
  5
B957
330
B938
100
AcDbSymbolTableRecord
100
AcDbLinetypeTableRecord
  2
CENTER
 70
     0
  3
____ _ ____ _ ____ _ ____ _ ____ _ ____ _ ____ 
 72
    65
 73
     4
 40
2.0
 49
1.25
 74
     0
 49
-0.25
 74
     0
 49
0.25
 74
     0
 49
-0.25
 74
     0
  0
LTYPE
  5
B958
330
B938
100
AcDbSymbolTableRecord
100
AcDbLinetypeTableRecord
  2
PHANTOM
 70
     0
  3
______  __  __  ______  __  __  ______  __  __ 
 72
    65
 73
     6
 40
2.5
 49
1.25
 74
     0
 49
-0.25
 74
     0
 49
0.25
 74
     0
 49
-0.25
 74
     0
 49
0.25
 74
     0
 49
-0.25
 74
     0
  0
ENDTAB
  0
TABLE
  2
LAYER
  5
B935
330
0
100
AcDbSymbolTable
 70
     8
  0
LAYER
  5
B943
102
{ACAD_XDICTIONARY
360
BCF1
102
}
330
B935
100
AcDbSymbolTableRecord
100
AcDbLayerTableRecord
  2
0
 70
     0
 62
     7
  6
CONTINUOUS
370
    -3
390
BC9F
  0
LAYER
  5
B959
102
{ACAD_XDICTIONARY
360
BCF3
102
}
330
B935
100
AcDbSymbolTableRecord
100
AcDbLayerTableRecord
  2
4
 70
     0
 62
     1
  6
CENTER
370
    -3
390
BC9F
  0
LAYER
  5
B95A
102
{ACAD_XDICTIONARY
360
BCF5
102
}
330
B935
100
AcDbSymbolTableRecord
100
AcDbLayerTableRecord
  2
5
 70
     0
 62
     6
  6
PHANTOM
370
    -3
390
BC9F
  0
LAYER
  5
B95B
102
{ACAD_XDICTIONARY
360
BCF7
102
}
330
B935
100
AcDbSymbolTableRecord
100
AcDbLayerTableRecord
  2
1
 70
     0
 62
     7
  6
CONTINUOUS
370
    -3
390
BC9F
  0
LAYER
  5
B95C
102
{ACAD_XDICTIONARY
360
BCF9
102
}
330
B935
100
AcDbSymbolTableRecord
100
AcDbLayerTableRecord
  2
2
 70
     0
 62
     4
  6
CONTINUOUS
370
    -3
390
BC9F
  0
LAYER
  5
B95D
102
{ACAD_XDICTIONARY
360
BCFB
102
}
330
B935
100
AcDbSymbolTableRecord
100
AcDbLayerTableRecord
  2
3
 70
     0
 62
     2
  6
DASHED
370
    -3
390
BC9F
  0
LAYER
  5
B95E
102
{ACAD_XDICTIONARY
360
BCFD
102
}
330
B935
100
AcDbSymbolTableRecord
100
AcDbLayerTableRecord
  2
6
 70
     0
 62
     5
  6
CONTINUOUS
370
    -3
390
BC9F
  0
LAYER
  5
B95F
102
{ACAD_XDICTIONARY
360
BCFF
102
}
330
B935
100
AcDbSymbolTableRecord
100
AcDbLayerTableRecord
  2
7
 70
     0
 62
     3
  6
CONTINUOUS
370
    -3
390
BC9F
  0
ENDTAB
  0
TABLE
  2
STYLE
  5
B936
330
0
100
AcDbSymbolTable
 70
     1
  0
STYLE
  5
B944
330
B936
100
AcDbSymbolTableRecord
100
AcDbTextStyleTableRecord
  2
STANDARD
 70
     0
 40
0.0
 41
1.0
 50
0.0
 71
     0
 42
5.0
  3
txt
  4

  0
ENDTAB
  0
TABLE
  2
VIEW
  5
B939
330
0
100
AcDbSymbolTable
 70
     0
  0
ENDTAB
  0
TABLE
  2
UCS
  5
B93A
330
0
100
AcDbSymbolTable
 70
     0
  0
ENDTAB
  0
TABLE
  2
APPID
  5
B93C
330
0
100
AcDbSymbolTable
 70
     3
  0
APPID
  5
B945
330
B93C
100
AcDbSymbolTableRecord
100
AcDbRegAppTableRecord
  2
ACAD
 70
     0
  0
APPID
  5
BD0B
330
B93C
100
AcDbSymbolTableRecord
100
AcDbRegAppTableRecord
  2
ACAD_NAV_VCDISPLAY
 70
     0
  0
APPID
  5
BD44
330
B93C
100
AcDbSymbolTableRecord
100
AcDbRegAppTableRecord
  2
ACAD_MLEADERVER
 70
     0
  0
ENDTAB
  0
TABLE
  2
DIMSTYLE
  5
B93D
330
0
100
AcDbSymbolTable
 70
     1
100
AcDbDimStyleTable
 71
     0
  0
DIMSTYLE
105
B961
330
B93D
100
AcDbSymbolTableRecord
100
AcDbDimStyleTableRecord
  2
STANDARD
 70
     0
 41
3.0
 42
1.0
 43
10.0
 44
1.0
 73
     0
 74
     0
 77
     3
 78
     8
140
3.2
141
0.0
147
1.0
172
     1
173
     1
284
     8
285
     8
286
     8
340
B944
  0
ENDTAB
  0
TABLE
  2
BLOCK_RECORD
  5
B934
330
0
100
AcDbSymbolTable
 70
     1
  0
BLOCK_RECORD
  5
B951
102
{ACAD_XDICTIONARY
360
BC99
102
}
330
B934
100
AcDbSymbolTableRecord
100
AcDbBlockTableRecord
  2
*MODEL_SPACE
340
BCED
  0
BLOCK_RECORD
  5
B94D
102
{ACAD_XDICTIONARY
360
BC97
102
}
330
B934
100
AcDbSymbolTableRecord
100
AcDbBlockTableRecord
  2
*PAPER_SPACE
340
BCEE
  0
BLOCK_RECORD
  5
B969
330
B934
100
AcDbSymbolTableRecord
100
AcDbBlockTableRecord
  2
_OPEN
340
0
  0
ENDTAB
  0
ENDSEC
  0
SECTION
  2
BLOCKS
  0
BLOCK
  5
B952
330
B951
100
AcDbEntity
  8
0
100
AcDbBlockBegin
  2
*MODEL_SPACE
 70
     0
 10
0.0
 20
0.0
 30
0.0
  3
*MODEL_SPACE
  1

  0
ENDBLK
  5
B953
330
B951
100
AcDbEntity
  8
0
100
AcDbBlockEnd
  0
BLOCK
  5
B94E
330
B94D
100
AcDbEntity
 67
     1
  8
0
100
AcDbBlockBegin
  2
*PAPER_SPACE
 70
     0
 10
0.0
 20
0.0
 30
0.0
  3
*PAPER_SPACE
  1

  0
ENDBLK
  5
B94F
330
B94D
100
AcDbEntity
 67
     1
  8
0
100
AcDbBlockEnd
  0
BLOCK
  5
B96A
330
B969
100
AcDbEntity
  8
0
100
AcDbBlockBegin
  2
_OPEN
 70
     0
 10
0.0
 20
0.0
 30
0.0
  3
_OPEN
  1

  0
LINE
  5
B96B
330
B969
100
AcDbEntity
  8
0
  6
ByBlock
 62
     0
100
AcDbLine
 10
-1.0
 20
0.166667
 30
0.0
 11
0.0
 21
0.0
 31
0.0
  0
LINE
  5
B96C
330
B969
100
AcDbEntity
  8
0
  6
ByBlock
 62
     0
100
AcDbLine
 10
0.0
 20
0.0
 30
0.0
 11
-1.0
 21
-0.166667
 31
0.0
  0
LINE
  5
B96D
330
B969
100
AcDbEntity
  8
0
  6
ByBlock
 62
     0
100
AcDbLine
 10
0.0
 20
0.0
 30
0.0
 11
-1.0
 21
0.0
 31
0.0
  0
ENDBLK
  5
B96E
330
B969
100
AcDbEntity
  8
0
100
AcDbBlockEnd
  0
ENDSEC
  0
SECTION
  2
ENTITIES
  0
TEXT
  5
B96F
330
B951
100
AcDbEntity
  8
7
  6
Continuous
100
AcDbText
 10
10.0
 20
18.0
 30
0.0
 40
3.0
  1
TYPE No.304
100
AcDbText
  0
TEXT
  5
B970
330
B951
100
AcDbEntity
  8
7
  6
Continuous
100
AcDbText
 10
10.0
 20
26.0
 30
0.0
 40
3.0
  1
CODE No.9306
100
AcDbText
  0
TEXT
  5
B971
330
B951
100
AcDbEntity
  8
1
  6
Continuous
100
AcDbText
 10
10.0
 20
10.0
 30
0.0
 40
1.399999999999999
  1
LAYER
100
AcDbText
  0
TEXT
  5
B972
330
B951
100
AcDbEntity
  8
1
  6
Continuous
100
AcDbText
 10
17.97951099999998
 20
10.04873699999998
 30
0.0
 40
1.399999999999999
  1
1
100
AcDbText
  0
TEXT
  5
B973
330
B951
100
AcDbEntity
  8
7
  6
Continuous
100
AcDbText
 10
29.97951099999999
 20
10.04873699999998
 30
0.0
 40
1.399999999999999
  1
7
100
AcDbText
  0
TEXT
  5
B974
330
B951
100
AcDbEntity
  8
4
  6
CENTER
100
AcDbText
 10
23.97951099999999
 20
10.04873699999998
 30
0.0
 40
1.399999999999999
  1
4
100
AcDbText
  0
TEXT
  5
B975
330
B951
100
AcDbEntity
  8
3
  6
DASHED
100
AcDbText
 10
21.979511
 20
10.04873699999998
 30
0.0
 40
1.399999999999999
  1
3
100
AcDbText
  0
TEXT
  5
B976
330
B951
100
AcDbEntity
  8
2
  6
Continuous
100
AcDbText
 10
19.97951099999999
 20
10.04873699999998
 30
0.0
 40
1.399999999999999
  1
2
100
AcDbText
  0
TEXT
  5
B977
330
B951
100
AcDbEntity
  8
6
  6
Continuous
100
AcDbText
 10
27.979511
 20
10.04873699999998
 30
0.0
 40
1.399999999999999
  1
6
100
AcDbText
  0
TEXT
  5
B978
330
B951
100
AcDbEntity
  8
5
  6
PHANTOM
100
AcDbText
 10
25.97951099999999
 20
10.04873699999998
 30
0.0
 40
1.399999999999999
  1
5
100
AcDbText
  0
LINE
  5
B979
330
B951
100
AcDbEntity
  8
4
  6
CENTER
100
AcDbLine
 10
203.2735849999999
 20
148.7613169999999
 30
0.0
 11
246.7601399999999
 21
148.7613169999999
 31
0.0
  0
LINE
  5
B97A
330
B951
100
AcDbEntity
  8
4
  6
CENTER
100
AcDbLine
 10
129.408073
 20
120.788876
 30
0.0
 11
129.408073
 21
176.7888759999999
 31
0.0
  0
LINE
  5
B97B
330
B951
100
AcDbEntity
  8
4
  6
CENTER
100
AcDbLine
 10
101.408073
 20
148.7888759999998
 30
0.0
 11
157.408073
 21
148.7888759999998
 31
0.0
  0
LINE
  5
B97C
330
B951
100
AcDbEntity
  8
4
  6
CENTER
100
AcDbLine
 10
149.4081879999999
 20
164.964231
 30
0.0
 11
149.4081879999999
 21
212.7884839999999
 31
0.0
  0
LINE
  5
B97D
330
B951
100
AcDbEntity
  8
4
  6
CENTER
100
AcDbLine
 10
173.4086259999999
 20
264.654083
 30
0.0
 11
99.41836700000001
 21
264.654083
 31
0.0
  0
LINE
  5
B97E
330
B951
100
AcDbEntity
  8
4
  6
CENTER
100
AcDbLine
 10
149.4086259999999
 20
288.654083
 30
0.0
 11
149.4086259999999
 21
240.654083
 31
0.0
  0
LINE
  5
B97F
330
B951
100
AcDbEntity
  8
4
  6
CENTER
100
AcDbLine
 10
224.5168449999999
 20
212.7613029999999
 30
0.0
 11
224.5168449999999
 21
118.7613169999999
 31
0.0
  0
LINE
  5
B980
330
B951
100
AcDbEntity
  8
1
  6
Continuous
100
AcDbLine
 10
243.5168449999999
 20
179.863458
 30
0.0
 11
243.5168449999999
 21
158.086295
 31
0.0
  0
LINE
  5
B981
330
B951
100
AcDbEntity
  8
1
  6
Continuous
100
AcDbLine
 10
211.777577
 20
145.7613169999999
 30
0.0
 11
213.0168449999999
 21
145.7613169999999
 31
0.0
  0
LINE
  5
B982
330
B951
100
AcDbEntity
  8
1
  6
Continuous
100
AcDbLine
 10
211.765062
 20
151.7613169999999
 30
0.0
 11
213.0168449999999
 21
151.7613169999999
 31
0.0
  0
LINE
  5
B983
330
B951
100
AcDbEntity
  8
1
  6
Continuous
100
AcDbLine
 10
211.1195209999999
 20
176.159707
 30
0.0
 11
237.9141689999999
 21
176.159707
 31
0.0
  0
LINE
  5
B984
330
B951
100
AcDbEntity
  8
1
  6
Continuous
100
AcDbLine
 10
206.0168449999999
 20
182.863527
 30
0.0
 11
243.016845
 21
182.863312
 31
0.0
  0
ARC
  5
B985
330
B951
100
AcDbEntity
  8
1
  6
Continuous
100
AcDbCircle
 10
208.5168449999999
 20
179.863458
 30
0.0
 40
3.0
100
AcDbArc
 50
90.0
 51
180.0
  0
ARC
  5
B986
330
B951
100
AcDbEntity
  8
1
  6
Continuous
100
AcDbCircle
 10
228.2573249999999
 20
166.5680909999998
 30
0.0
 40
13.262575
100
AcDbArc
 50
4.189117999999997
 51
46.32007700000001
  0
ARC
  5
B987
330
B951
100
AcDbEntity
  8
1
  6
Continuous
100
AcDbCircle
 10
229.398089
 20
166.651645
 30
0.0
 40
14.11875499999999
100
AcDbArc
 50
0.0
 51
33.136856
  0
ARC
  5
B988
330
B951
100
AcDbEntity
  8
1
  6
Continuous
100
AcDbCircle
 10
229.398089
 20
166.651645
 30
0.0
 40
12.118755
100
AcDbArc
 50
3.236625
 51
4.189117999999997
  0
ARC
  5
B989
330
B951
100
AcDbEntity
  8
1
  6
Continuous
100
AcDbCircle
 10
237.9141689999999
 20
172.211017
 30
0.0
 40
3.94869
100
AcDbArc
 50
33.136856
 51
90.0
  0
ARC
  5
B98A
330
B951
100
AcDbEntity
  8
1
  6
Continuous
100
AcDbCircle
 10
240.516845
 20
179.863458
 30
0.0
 40
3.0
100
AcDbArc
 50
0.0
 51
90.0
  0
LINE
  5
B98B
330
B951
100
AcDbEntity
  8
1
  6
Continuous
100
AcDbLine
 10
167.908188
 20
182.9176009999999
 30
0.0
 11
130.9081879999999
 21
182.9176009999999
 31
0.0
  0
ARC
  5
B98C
330
B951
100
AcDbEntity
  8
1
  6
Continuous
100
AcDbCircle
 10
86.23925600000005
 20
213.0558029999999
 30
0.0
 40
81.299728
100
AcDbArc
 50
325.0367509999999
 51
326.0955629999999
  0
ARC
  5
B98D
330
B951
100
AcDbEntity
  8
1
  6
Continuous
100
AcDbCircle
 10
158.8771219999999
 20
200.226315
 30
0.0
 40
25.564794
100
AcDbArc
 50
277.268991
 51
287.097823
  0
ARC
  5
B98E
330
B951
100
AcDbEntity
  8
1
  6
Continuous
100
AcDbCircle
 10
166.121929
 20
148.010232
 30
0.0
 40
27.174347
100
AcDbArc
 50
99.24101300000003
 51
101.2621379999999
  0
ARC
  5
B98F
330
B951
100
AcDbEntity
  8
1
  6
Continuous
100
AcDbCircle
 10
161.3085289999999
 20
181.164369
 30
0.0
 40
6.348405999999997
100
AcDbArc
 50
274.060533
 51
277.268991
  0
ARC
  5
B990
330
B951
100
AcDbEntity
  8
1
  6
Continuous
100
AcDbCircle
 10
176.1203489999998
 20
152.6481109999998
 30
0.0
 40
26.994778
100
AcDbArc
 50
137.7128429999999
 51
146.0955629999999
  0
ARC
  5
B991
330
B951
100
AcDbEntity
  8
1
  6
Continuous
100
AcDbCircle
 10
112.6187849999999
 20
210.404074
 30
0.0
 40
58.84344099999999
100
AcDbArc
 50
317.712843
 51
320.298966
  0
ARC
  5
B992
330
B951
100
AcDbEntity
  8
1
  6
Continuous
100
AcDbCircle
 10
164.236996
 20
166.4160309999998
 30
0.0
 40
9.035839999999996
100
AcDbArc
 50
119.5473379999999
 51
131.621551
  0
ARC
  5
B993
330
B951
100
AcDbEntity
  8
1
  6
Continuous
100
AcDbCircle
 10
161.492693
 20
171.257233
 30
0.0
 40
3.470911
100
AcDbArc
 50
101.2621379999999
 51
119.5473379999999
  0
ARC
  5
B994
330
B951
100
AcDbEntity
  8
1
  6
Continuous
100
AcDbCircle
 10
160.401972
 20
170.732251
 30
0.0
 40
3.262005999999998
100
AcDbArc
 50
131.621551
 51
140.2989659999998
  0
ARC
  5
B995
330
B951
100
AcDbEntity
  8
1
  6
Continuous
100
AcDbCircle
 10
163.1690709999998
 20
179.43277
 30
0.0
 40
4.757115999999999
100
AcDbArc
 50
16.00725999999999
 51
38.156408
  0
ARC
  5
B996
330
B951
100
AcDbEntity
  8
1
  6
Continuous
100
AcDbCircle
 10
166.509469
 20
176.3080879999999
 30
0.0
 40
0.529613
100
AcDbArc
 50
257.3263379999999
 51
291.788685
  0
ARC
  5
B997
330
B951
100
AcDbEntity
  8
1
  6
Continuous
100
AcDbCircle
 10
167.0381159999998
 20
185.9184069999998
 30
0.0
 40
10.10755199999998
100
AcDbArc
 50
268.1173269999998
 51
270.623572
  0
LINE
  5
B998
330
B951
100
AcDbEntity
  8
1
  6
Continuous
100
AcDbLine
 10
167.206219
 20
175.8009969999999
 30
0.0
 11
167.148119
 21
175.811453
 31
0.0
  0
ARC
  5
B999
330
B951
100
AcDbEntity
  8
1
  6
Continuous
100
AcDbCircle
 10
175.0779459999999
 20
178.9431919999999
 30
0.0
 40
6.985907
100
AcDbArc
 50
178.5787389999999
 51
186.9819969999998
  0
ARC
  5
B99A
330
B951
100
AcDbEntity
  8
1
  6
Continuous
100
AcDbCircle
 10
163.301721
 20
178.894902
 30
0.0
 40
4.797585999999999
100
AcDbArc
 50
2.646974999999998
 51
17.117355
  0
ARC
  5
B99B
330
B951
100
AcDbEntity
  8
1
  6
Continuous
100
AcDbCircle
 10
157.549482
 20
177.123375
 30
0.0
 40
10.81643699999998
100
AcDbArc
 50
17.117355
 51
19.559647
  0
ARC
  5
B99C
330
B951
100
AcDbEntity
  8
1
  6
Continuous
100
AcDbCircle
 10
165.337872
 20
180.755786
 30
0.0
 40
2.254351999999999
100
AcDbArc
 50
45.79309799999999
 51
73.52670899999998
  0
LINE
  5
B99D
330
B951
100
AcDbEntity
  8
1
  6
Continuous
100
AcDbLine
 10
134.864046
 20
178.706421
 30
0.0
 11
134.864046
 21
149.489988
 31
0.0
  0
CIRCLE
  5
B99E
330
B951
100
AcDbEntity
  8
1
  6
Continuous
100
AcDbCircle
 10
129.408073
 20
148.7888759999998
 30
0.0
 40
4.25
  0
ARC
  5
B99F
330
B951
100
AcDbEntity
  8
1
  6
Continuous
100
AcDbCircle
 10
130.257608
 20
147.770577
 30
0.0
 40
8.139077
100
AcDbArc
 50
172.1743569999999
 51
327.525749
  0
ARC
  5
B9A0
330
B951
100
AcDbEntity
  8
1
  6
Continuous
100
AcDbCircle
 10
141.173177
 20
174.643146
 30
0.0
 40
14.267886
100
AcDbArc
 50
314.297457
 51
325.0367509999999
  0
ARC
  5
B9A1
330
B951
100
AcDbEntity
  8
1
  6
Continuous
100
AcDbCircle
 10
154.0360189999999
 20
161.4609309999999
 30
0.0
 40
4.150134999999997
100
AcDbArc
 50
134.297457
 51
146.0310519999999
  0
LINE
  5
B9A2
330
B951
100
AcDbEntity
  8
1
  6
Continuous
100
AcDbLine
 10
128.275711
 20
180.071404
 30
0.0
 11
134.8762309999999
 21
180.071404
 31
0.0
  0
ARC
  5
B9A3
330
B951
100
AcDbEntity
  8
1
  6
Continuous
100
AcDbCircle
 10
128.275711
 20
186.3389709999999
 30
0.0
 40
6.267566999999997
100
AcDbArc
 50
267.0048919999999
 51
274.398035
  0
ARC
  5
B9A4
330
B951
100
AcDbEntity
  8
1
  6
Continuous
100
AcDbCircle
 10
133.756876
 20
178.574862
 30
0.0
 40
4.359511999999998
100
AcDbArc
 50
95.027632
 51
153.6752799999999
  0
ARC
  5
B9A5
330
B951
100
AcDbEntity
  8
1
  6
Continuous
100
AcDbCircle
 10
129.485943
 20
180.5191079999999
 30
0.0
 40
0.409037
100
AcDbArc
 50
274.019213
 51
314.03143
  0
ARC
  5
B9A6
330
B951
100
AcDbEntity
  8
1
  6
Continuous
100
AcDbCircle
 10
128.884097
 20
189.0846339999999
 30
0.0
 40
8.995680999999997
100
AcDbArc
 50
269.1862479999999
 51
274.019213
  0
ARC
  5
B9A7
330
B951
100
AcDbEntity
  8
1
  6
Continuous
100
AcDbCircle
 10
129.600515
 20
180.4005949999999
 30
0.0
 40
0.2441969999999999
100
AcDbArc
 50
314.03143
 51
351.316759
  0
ARC
  5
B9A8
330
B951
100
AcDbEntity
  8
1
  6
Continuous
100
AcDbCircle
 10
129.1209529999999
 20
180.473835
 30
0.0
 40
0.72932
100
AcDbArc
 50
351.316759
 51
2.694649
  0
ARC
  5
B9A9
330
B951
100
AcDbEntity
  8
1
  6
Continuous
100
AcDbCircle
 10
123.287655
 20
178.6646399999999
 30
0.0
 40
1.132387999999999
100
AcDbArc
 50
350.4059339999998
 51
9.422450999999998
  0
ARC
  5
B9AA
330
B951
100
AcDbEntity
  8
1
  6
Continuous
100
AcDbCircle
 10
124.828965
 20
178.3827409999999
 30
0.0
 40
0.434857
100
AcDbArc
 50
167.628646
 51
207.2064849999999
  0
ARC
  5
B9AB
330
B951
100
AcDbEntity
  8
1
  6
Continuous
100
AcDbCircle
 10
69.608378
 20
181.049882
 30
0.0
 40
54.840528
100
AcDbArc
 50
357.7010379999999
 51
358.7006819999999
  0
ARC
  5
B9AC
330
B951
100
AcDbEntity
  8
1
  6
Continuous
100
AcDbCircle
 10
124.743789
 20
178.7487439999999
 30
0.0
 40
0.640285
100
AcDbArc
 50
241.9011839999999
 51
272.3403379999999
  0
ARC
  5
B9AD
330
B951
100
AcDbEntity
  8
1
  6
Continuous
100
AcDbCircle
 10
125.0337429999998
 20
179.163698
 30
0.0
 40
0.9207059999999998
100
AcDbArc
 50
103.0833209999999
 51
126.033477
  0
ARC
  5
B9AE
330
B951
100
AcDbEntity
  8
1
  6
Continuous
100
AcDbCircle
 10
124.5747229999999
 20
179.794709
 30
0.0
 40
0.140401
100
AcDbArc
 50
126.033477
 51
175.244581
  0
ARC
  5
B9AF
330
B951
100
AcDbEntity
  8
1
  6
Continuous
100
AcDbCircle
 10
125.275484
 20
178.123509
 30
0.0
 40
1.988615
100
AcDbArc
 50
88.74659499999998
 51
103.0833209999999
  0
ARC
  5
B9B0
330
B951
100
AcDbEntity
  8
1
  6
Continuous
100
AcDbCircle
 10
126.964977
 20
161.2877489999999
 30
0.0
 40
18.81792199999998
100
AcDbArc
 50
87.00489199999998
 51
90.39154600000001
  0
ARC
  5
B9B1
330
B951
100
AcDbEntity
  8
1
  6
Continuous
100
AcDbCircle
 10
126.3676889999999
 20
248.6888109999999
 30
0.0
 40
68.58518100000001
100
AcDbArc
 50
269.1238819999999
 51
270.391546
  0
ARC
  5
B9B2
330
B951
100
AcDbEntity
  8
1
  6
Continuous
100
AcDbCircle
 10
220.7763649999999
 20
166.5680909999998
 30
0.0
 40
13.262575
100
AcDbArc
 50
133.679923
 51
177.089232
  0
ARC
  5
B9B3
330
B951
100
AcDbEntity
  8
1
  6
Continuous
100
AcDbCircle
 10
211.1195209999999
 20
172.211017
 30
0.0
 40
3.94869
100
AcDbArc
 50
90.0
 51
146.863144
  0
ARC
  5
B9B4
330
B951
100
AcDbEntity
  8
1
  6
Continuous
100
AcDbCircle
 10
219.6356009999998
 20
166.651645
 30
0.0
 40
14.11875499999999
100
AcDbArc
 50
146.863144
 51
180.0
  0
ARC
  5
B9B5
330
B951
100
AcDbEntity
  8
1
  6
Continuous
100
AcDbCircle
 10
286.4320859999999
 20
162.874308
 30
0.0
 40
79.02195899999998
100
AcDbArc
 50
176.7633749999999
 51
183.473732
  0
LINE
  5
B9B6
330
B951
100
AcDbEntity
  8
1
  6
Continuous
100
AcDbLine
 10
205.516845
 20
179.863458
 30
0.0
 11
205.516845
 21
158.086295
 31
0.0
  0
LINE
  5
B9B7
330
B951
100
AcDbEntity
  8
1
  6
Continuous
100
AcDbLine
 10
209.793099
 20
139.6044999999998
 30
0.0
 11
211.6168449999999
 21
139.6044999999998
 31
0.0
  0
ARC
  5
B9B8
330
B951
100
AcDbEntity
  8
1
  6
Continuous
100
AcDbCircle
 10
126.486768
 20
489.796819
 30
0.0
 40
311.6925539999999
100
AcDbArc
 50
269.6734769999998
 51
270.0096049999999
  0
LINE
  5
B9B9
330
B951
100
AcDbEntity
  8
1
  6
Continuous
100
AcDbLine
 10
236.0168449999999
 20
151.7613169999999
 30
0.0
 11
237.267727
 21
151.7613169999999
 31
0.0
  0
LINE
  5
B9BA
330
B951
100
AcDbEntity
  8
1
  6
Continuous
100
AcDbLine
 10
236.0168449999999
 20
145.7613169999999
 30
0.0
 11
237.2552119999999
 21
145.7613169999999
 31
0.0
  0
LINE
  5
B9BB
330
B951
100
AcDbEntity
  8
1
  6
Continuous
100
AcDbLine
 10
126.83638
 20
180.105232
 30
0.0
 11
122.182483
 21
148.7888759999998
 31
0.0
  0
LINE
  5
B9BC
330
B951
100
AcDbEntity
  8
1
  6
Continuous
100
AcDbLine
 10
150.5941439999998
 20
163.7797929999998
 30
0.0
 11
137.124
 21
143.4005399999998
 31
0.0
  0
ARC
  5
B9BD
330
B951
100
AcDbEntity
  8
1
  6
Continuous
100
AcDbCircle
 10
57.762867
 20
148.77567
 30
0.0
 40
6.779940999999999
100
AcDbArc
 50
321.02474
 51
38.73053499999999
  0
ARC
  5
B9BE
330
B951
100
AcDbEntity
  8
1
  6
Continuous
100
AcDbCircle
 10
37.827067
 20
148.761191
 30
0.0
 40
6.770832999999998
100
AcDbArc
 50
141.11993
 51
218.8800699999999
  0
LINE
  5
B9BF
330
B951
100
AcDbEntity
  8
1
  6
Continuous
100
AcDbLine
 10
32.55623400000001
 20
153.011191
 30
0.0
 11
32.55623400000001
 21
144.511191
 31
0.0
  0
ARC
  5
B9C0
330
B951
100
AcDbEntity
  8
1
  6
Continuous
100
AcDbCircle
 10
50.227455
 20
158.0861689999998
 30
0.0
 40
17.07205599999999
100
AcDbArc
 50
326.9847009999998
 51
0.0
  0
LINE
  5
B9C1
330
B951
100
AcDbEntity
  8
1
  6
Continuous
100
AcDbLine
 10
63.105595
 20
178.5670189999999
 30
0.0
 11
63.02324399999999
 21
139.5985
 31
0.0
  0
LINE
  5
B9C2
330
B951
100
AcDbEntity
  8
1
  6
Continuous
100
AcDbLine
 10
61.101434
 20
176.599919
 30
0.0
 11
61.023239
 21
139.5985
 31
0.0
  0
ARC
  5
B9C3
330
B951
100
AcDbEntity
  8
1
  6
Continuous
100
AcDbCircle
 10
46.371567
 20
158.0861689999998
 30
0.0
 40
17.07205599999999
100
AcDbArc
 50
180.0
 51
207.4135329999998
  0
LINE
  5
B9C4
330
B951
100
AcDbEntity
  8
1
  6
Continuous
100
AcDbLine
 10
33.49342699999999
 20
178.5670189999999
 30
0.0
 11
33.575778
 21
139.5985
 31
0.0
  0
LINE
  5
B9C5
330
B951
100
AcDbEntity
  8
1
  6
Continuous
100
AcDbLine
 10
35.497588
 20
176.599919
 30
0.0
 11
35.575783
 21
139.5985
 31
0.0
  0
LINE
  5
B9C6
330
B951
100
AcDbEntity
  8
4
  6
CENTER
100
AcDbLine
 10
26.056234
 20
148.761191
 30
0.0
 11
69.542799
 21
148.761191
 31
0.0
  0
LINE
  5
B9C7
330
B951
100
AcDbEntity
  8
1
  6
Continuous
100
AcDbLine
 10
32.55623400000001
 20
144.511191
 30
0.0
 11
33.56530999999999
 21
144.511191
 31
0.0
  0
LINE
  5
B9C8
330
B951
100
AcDbEntity
  8
1
  6
Continuous
100
AcDbLine
 10
35.56264500000001
 20
145.7611909999999
 30
0.0
 11
36.79951099999998
 21
145.7611909999999
 31
0.0
  0
LINE
  5
B9C9
330
B951
100
AcDbEntity
  8
1
  6
Continuous
100
AcDbLine
 10
35.54983099999999
 20
151.761191
 30
0.0
 11
36.79951099999998
 21
151.761191
 31
0.0
  0
LINE
  5
B9CA
330
B951
100
AcDbEntity
  8
1
  6
Continuous
100
AcDbLine
 10
59.799511
 20
145.7611909999999
 30
0.0
 11
61.036377
 21
145.7611909999999
 31
0.0
  0
LINE
  5
B9CB
330
B951
100
AcDbEntity
  8
1
  6
Continuous
100
AcDbLine
 10
59.799511
 20
151.761191
 30
0.0
 11
61.049191
 21
151.761191
 31
0.0
  0
ARC
  5
B9CC
330
B951
100
AcDbEntity
  8
1
  6
Continuous
100
AcDbCircle
 10
73.804074
 20
143.270994
 30
0.0
 40
10.77298599999999
100
AcDbArc
 50
147.8553939999999
 51
149.280112
  0
LINE
  5
B9CD
330
B951
100
AcDbEntity
  8
1
  6
Continuous
100
AcDbLine
 10
66.799961
 20
182.857773
 30
0.0
 11
29.799961
 21
182.857773
 31
0.0
  0
LINE
  5
B9CE
330
B951
100
AcDbEntity
  8
1
  6
Continuous
100
AcDbLine
 10
34.99342399999999
 20
180.070189
 30
0.0
 11
61.605598
 21
180.070189
 31
0.0
  0
LINE
  5
B9CF
330
B951
100
AcDbEntity
  8
1
  6
Continuous
100
AcDbLine
 10
29.299511
 20
180.358115
 30
0.0
 11
29.299511
 21
158.0861689999998
 31
0.0
  0
LINE
  5
B9D0
330
B951
100
AcDbEntity
  8
1
  6
Continuous
100
AcDbLine
 10
32.55623400000001
 20
153.011191
 30
0.0
 11
33.54715699999999
 21
153.011191
 31
0.0
  0
ARC
  5
B9D1
330
B951
100
AcDbEntity
  8
1
  6
Continuous
100
AcDbCircle
 10
31.799511
 20
180.358115
 30
0.0
 40
2.5
100
AcDbArc
 50
90.0
 51
180.0
  0
LINE
  5
B9D2
330
B951
100
AcDbEntity
  8
1
  6
Continuous
100
AcDbLine
 10
67.299511
 20
180.358115
 30
0.0
 11
67.299511
 21
158.0861689999998
 31
0.0
  0
LINE
  5
B9D3
330
B951
100
AcDbEntity
  8
1
  6
Continuous
100
AcDbLine
 10
59.452029
 20
180.1983319999999
 30
0.0
 11
48.29951099999998
 21
180.1983319999999
 31
0.0
  0
LINE
  5
B9D4
330
B951
100
AcDbEntity
  8
1
  6
Continuous
100
AcDbLine
 10
37.146993
 20
180.1983319999999
 30
0.0
 11
48.29951099999998
 21
180.1983319999999
 31
0.0
  0
ARC
  5
B9D5
330
B951
100
AcDbEntity
  8
1
  6
Continuous
100
AcDbCircle
 10
64.799511
 20
180.358115
 30
0.0
 40
2.5
100
AcDbArc
 50
0.0
 51
90.0
  0
LINE
  5
B9D6
330
B951
100
AcDbEntity
  8
1
  6
Continuous
100
AcDbLine
 10
66.799961
 20
182.9729959999999
 30
0.0
 11
66.68473699999998
 21
182.857773
 31
0.0
  0
LINE
  5
B9D7
330
B951
100
AcDbEntity
  8
4
  6
CENTER
100
AcDbLine
 10
48.29951099999998
 20
212.7616559999999
 30
0.0
 11
48.29951099999998
 21
118.761191
 31
0.0
  0
LINE
  5
B9D8
330
B951
100
AcDbEntity
  8
1
  6
Continuous
100
AcDbLine
 10
243.016845
 20
182.978643
 30
0.0
 11
242.9016209999999
 21
182.8634199999999
 31
0.0
  0
LINE
  5
B9D9
330
B951
100
AcDbEntity
  8
1
  6
Continuous
100
AcDbLine
 10
63.02324399999999
 20
139.5985
 30
0.0
 11
61.023239
 21
139.5985
 31
0.0
  0
LINE
  5
B9DA
330
B951
100
AcDbEntity
  8
1
  6
Continuous
100
AcDbLine
 10
35.575783
 20
139.5985
 30
0.0
 11
33.575778
 21
139.5985
 31
0.0
  0
ARC
  5
B9DB
330
B951
100
AcDbEntity
  8
1
  6
Continuous
100
AcDbCircle
 10
61.605598
 20
178.570189
 30
0.0
 40
1.5
100
AcDbArc
 50
359.87892
 51
90.0
  0
ARC
  5
B9DC
330
B951
100
AcDbEntity
  8
1
  6
Continuous
100
AcDbCircle
 10
34.99342399999999
 20
178.570189
 30
0.0
 40
1.5
100
AcDbArc
 50
90.0
 51
180.1210799999998
  0
LINE
  5
B9DD
330
B951
100
AcDbEntity
  8
1
  6
Continuous
100
AcDbLine
 10
36.997585
 20
178.1030889999999
 30
0.0
 11
59.60143699999999
 21
178.1030889999999
 31
0.0
  0
ARC
  5
B9DE
330
B951
100
AcDbEntity
  8
1
  6
Continuous
100
AcDbCircle
 10
59.60143699999999
 20
176.6030889999999
 30
0.0
 40
1.5
100
AcDbArc
 50
359.878918
 51
90.0
  0
ARC
  5
B9DF
330
B951
100
AcDbEntity
  8
1
  6
Continuous
100
AcDbCircle
 10
36.997585
 20
176.6030889999999
 30
0.0
 40
1.5
100
AcDbArc
 50
90.0
 51
180.121082
  0
LINE
  5
B9E0
330
B951
100
AcDbEntity
  8
1
  6
Continuous
100
AcDbLine
 10
58.62732499999999
 20
174.198301
 30
0.0
 11
37.97169699999999
 21
174.198301
 31
0.0
  0
LINE
  5
B9E1
330
B951
100
AcDbEntity
  8
1
  6
Continuous
100
AcDbLine
 10
60.569129
 20
177.749201
 30
0.0
 11
36.029893
 21
177.749201
 31
0.0
  0
LINE
  5
B9E2
330
B951
100
AcDbEntity
  8
1
  6
Continuous
100
AcDbLine
 10
35.543469
 20
176.971255
 30
0.0
 11
61.102723
 21
176.971255
 31
0.0
  0
LINE
  5
B9E3
330
B951
100
AcDbEntity
  8
1
  6
Continuous
100
AcDbLine
 10
42.13940899999999
 20
173.5983009999999
 30
0.0
 11
42.54151499999998
 21
174.198301
 31
0.0
  0
LINE
  5
B9E4
330
B951
100
AcDbEntity
  8
1
  6
Continuous
100
AcDbLine
 10
41.699511
 20
173.5983009999999
 30
0.0
 11
44.926716
 21
173.5983009999999
 31
0.0
  0
ARC
  5
B9E5
330
B951
100
AcDbEntity
  8
1
  6
Continuous
100
AcDbCircle
 10
38.46287
 20
178.115218
 30
0.0
 40
1.984499999999997
100
AcDbArc
 50
182.999869
 51
190.6283659999998
  0
ARC
  5
B9E6
330
B951
100
AcDbEntity
  8
1
  6
Continuous
100
AcDbCircle
 10
41.15549399999999
 20
178.115218
 30
0.0
 40
1.984499999999997
100
AcDbArc
 50
180.350187
 51
190.6283659999998
  0
ARC
  5
B9E7
330
B951
100
AcDbEntity
  8
1
  6
Continuous
100
AcDbCircle
 10
39.059021
 20
178.115218
 30
0.0
 40
1.984499999999997
100
AcDbArc
 50
180.350187
 51
190.6283659999998
  0
ARC
  5
B9E8
330
B951
100
AcDbEntity
  8
1
  6
Continuous
100
AcDbCircle
 10
37.07670999999999
 20
176.112355
 30
0.0
 40
1.683363999999999
100
AcDbArc
 50
217.387795
 51
241.092262
  0
ARC
  5
B9E9
330
B951
100
AcDbEntity
  8
1
  6
Continuous
100
AcDbCircle
 10
41.834391
 20
179.7482709999999
 30
0.0
 40
7.671302999999997
100
AcDbArc
 50
214.3194929999999
 51
217.387795
  0
LINE
  5
B9EA
330
B951
100
AcDbEntity
  8
1
  6
Continuous
100
AcDbLine
 10
41.699511
 20
174.198301
 30
0.0
 11
41.699511
 21
173.5983009999999
 31
0.0
  0
ARC
  5
B9EB
330
B951
100
AcDbEntity
  8
1
  6
Continuous
100
AcDbCircle
 10
37.97169699999999
 20
177.733103
 30
0.0
 40
3.534801999999998
100
AcDbArc
 50
241.092262
 51
270.0
  0
LINE
  5
B9EC
330
B951
100
AcDbEntity
  8
1
  6
Continuous
100
AcDbLine
 10
51.67230599999999
 20
173.5983009999999
 30
0.0
 11
54.89951099999998
 21
173.5983009999999
 31
0.0
  0
ARC
  5
B9ED
330
B951
100
AcDbEntity
  8
1
  6
Continuous
100
AcDbCircle
 10
48.29951099999998
 20
178.115218
 30
0.0
 40
1.985
100
AcDbArc
 50
349.374342
 51
359.649901
  0
ARC
  5
B9EE
330
B951
100
AcDbEntity
  8
1
  6
Continuous
100
AcDbCircle
 10
48.29951099999998
 20
178.115218
 30
0.0
 40
1.985
100
AcDbArc
 50
180.350099
 51
190.6256579999999
  0
ARC
  5
B9EF
330
B951
100
AcDbEntity
  8
1
  6
Continuous
100
AcDbCircle
 10
44.411898
 20
178.115218
 30
0.0
 40
1.984499999999997
100
AcDbArc
 50
180.350187
 51
190.6283659999998
  0
LINE
  5
B9F0
330
B951
100
AcDbEntity
  8
1
  6
Continuous
100
AcDbLine
 10
49.039022
 20
173.7584559999999
 30
0.0
 11
49.531739
 21
174.198301
 31
0.0
  0
LINE
  5
B9F1
330
B951
100
AcDbEntity
  8
1
  6
Continuous
100
AcDbLine
 10
47.067283
 20
174.198301
 30
0.0
 11
47.56
 21
173.7584559999999
 31
0.0
  0
ARC
  5
B9F2
330
B951
100
AcDbEntity
  8
1
  6
Continuous
100
AcDbCircle
 10
55.443528
 20
178.115218
 30
0.0
 40
1.984499999999997
100
AcDbArc
 50
349.3716339999999
 51
359.649813
  0
ARC
  5
B9F3
330
B951
100
AcDbEntity
  8
1
  6
Continuous
100
AcDbCircle
 10
52.187124
 20
178.115218
 30
0.0
 40
1.984499999999997
100
AcDbArc
 50
349.3716339999999
 51
359.649813
  0
LINE
  5
B9F4
330
B951
100
AcDbEntity
  8
1
  6
Continuous
100
AcDbLine
 10
54.89951099999998
 20
174.198301
 30
0.0
 11
54.89951099999998
 21
173.5983009999999
 31
0.0
  0
LINE
  5
B9F5
330
B951
100
AcDbEntity
  8
1
  6
Continuous
100
AcDbLine
 10
54.05750699999999
 20
174.198301
 30
0.0
 11
54.459613
 21
173.5983009999999
 31
0.0
  0
ARC
  5
B9F6
330
B951
100
AcDbEntity
  8
1
  6
Continuous
100
AcDbCircle
 10
57.54000099999998
 20
178.115218
 30
0.0
 40
1.984499999999997
100
AcDbArc
 50
349.3716339999999
 51
359.649813
  0
ARC
  5
B9F7
330
B951
100
AcDbEntity
  8
1
  6
Continuous
100
AcDbCircle
 10
58.136152
 20
178.115218
 30
0.0
 40
1.984499999999997
100
AcDbArc
 50
349.3716339999999
 51
357.000131
  0
ARC
  5
B9F8
330
B951
100
AcDbEntity
  8
1
  6
Continuous
100
AcDbCircle
 10
59.52231199999999
 20
176.112355
 30
0.0
 40
1.683363999999999
100
AcDbArc
 50
298.9077379999999
 51
322.6122049999998
  0
ARC
  5
B9F9
330
B951
100
AcDbEntity
  8
1
  6
Continuous
100
AcDbCircle
 10
58.62732499999999
 20
177.733103
 30
0.0
 40
3.534801999999998
100
AcDbArc
 50
270.0
 51
298.9077379999999
  0
ARC
  5
B9FA
330
B951
100
AcDbEntity
  8
1
  6
Continuous
100
AcDbCircle
 10
54.76463100000001
 20
179.7482709999999
 30
0.0
 40
7.671302999999997
100
AcDbArc
 50
322.6122049999998
 51
325.668552
  0
LINE
  5
B9FB
330
B951
100
AcDbEntity
  8
1
  6
Continuous
100
AcDbLine
 10
234.844659
 20
174.2043009999999
 30
0.0
 11
214.1890309999999
 21
174.2043009999999
 31
0.0
  0
LINE
  5
B9FC
330
B951
100
AcDbEntity
  8
1
  6
Continuous
100
AcDbLine
 10
218.356743
 20
173.6043009999999
 30
0.0
 11
218.758849
 21
174.2043009999999
 31
0.0
  0
ARC
  5
B9FD
330
B951
100
AcDbEntity
  8
1
  6
Continuous
100
AcDbCircle
 10
213.294044
 20
176.118355
 30
0.0
 40
1.683363999999999
100
AcDbArc
 50
217.387795
 51
241.092262
  0
ARC
  5
B9FE
330
B951
100
AcDbEntity
  8
1
  6
Continuous
100
AcDbCircle
 10
218.051725
 20
179.7542709999999
 30
0.0
 40
7.671302999999997
100
AcDbArc
 50
214.3194929999999
 51
217.387795
  0
LINE
  5
B9FF
330
B951
100
AcDbEntity
  8
1
  6
Continuous
100
AcDbLine
 10
217.916845
 20
174.2043009999999
 30
0.0
 11
217.916845
 21
173.6043009999999
 31
0.0
  0
ARC
  5
BA00
330
B951
100
AcDbEntity
  8
1
  6
Continuous
100
AcDbCircle
 10
214.1890309999999
 20
177.7391029999998
 30
0.0
 40
3.534801999999998
100
AcDbArc
 50
241.092262
 51
270.0
  0
LINE
  5
BA01
330
B951
100
AcDbEntity
  8
1
  6
Continuous
100
AcDbLine
 10
217.916845
 20
173.6043009999999
 30
0.0
 11
221.2052789999999
 21
173.6043009999999
 31
0.0
  0
LINE
  5
BA02
330
B951
100
AcDbEntity
  8
1
  6
Continuous
100
AcDbLine
 10
223.284617
 20
174.2043009999999
 30
0.0
 11
223.7773339999999
 21
173.7644559999999
 31
0.0
  0
LINE
  5
BA03
330
B951
100
AcDbEntity
  8
1
  6
Continuous
100
AcDbLine
 10
225.256356
 20
173.7644559999999
 30
0.0
 11
225.749073
 21
174.2043009999999
 31
0.0
  0
LINE
  5
BA04
330
B951
100
AcDbEntity
  8
1
  6
Continuous
100
AcDbLine
 10
231.116845
 20
174.2043009999999
 30
0.0
 11
231.116845
 21
173.6043009999999
 31
0.0
  0
LINE
  5
BA05
330
B951
100
AcDbEntity
  8
1
  6
Continuous
100
AcDbLine
 10
230.2748409999999
 20
174.2043009999999
 30
0.0
 11
230.676947
 21
173.6043009999999
 31
0.0
  0
ARC
  5
BA06
330
B951
100
AcDbEntity
  8
1
  6
Continuous
100
AcDbCircle
 10
235.7396459999999
 20
176.118355
 30
0.0
 40
1.683363999999999
100
AcDbArc
 50
298.9077379999999
 51
322.6122049999998
  0
ARC
  5
BA07
330
B951
100
AcDbEntity
  8
1
  6
Continuous
100
AcDbCircle
 10
234.844659
 20
177.7391029999998
 30
0.0
 40
3.534801999999998
100
AcDbArc
 50
270.0
 51
298.9077379999999
  0
ARC
  5
BA08
330
B951
100
AcDbEntity
  8
1
  6
Continuous
100
AcDbCircle
 10
230.981965
 20
179.7542709999999
 30
0.0
 40
7.671302999999997
100
AcDbArc
 50
322.6122049999998
 51
325.668552
  0
LINE
  5
BA09
330
B951
100
AcDbEntity
  8
1
  6
Continuous
100
AcDbLine
 10
227.82841
 20
173.6043009999999
 30
0.0
 11
231.116845
 21
173.6043009999999
 31
0.0
  0
LINE
  5
BA0A
330
B951
100
AcDbEntity
  8
1
  6
Continuous
100
AcDbLine
 10
211.715852
 20
176.159707
 30
0.0
 11
211.793116
 21
139.5986269999999
 31
0.0
  0
LINE
  5
BA0B
330
B951
100
AcDbEntity
  8
1
  6
Continuous
100
AcDbLine
 10
237.317837
 20
176.159707
 30
0.0
 11
237.240573
 21
139.5986269999999
 31
0.0
  0
LINE
  5
BA0C
330
B951
100
AcDbEntity
  8
1
  6
Continuous
100
AcDbLine
 10
211.793116
 20
139.5986269999999
 30
0.0
 11
209.7931109999999
 21
139.5986269999999
 31
0.0
  0
LINE
  5
BA0D
330
B951
100
AcDbEntity
  8
1
  6
Continuous
100
AcDbLine
 10
239.2405779999999
 20
139.5986269999999
 30
0.0
 11
237.240573
 21
139.5986269999999
 31
0.0
  0
LINE
  5
BA0E
330
B951
100
AcDbEntity
  8
1
  6
Continuous
100
AcDbLine
 10
209.7860379999999
 20
142.9457789999999
 30
0.0
 11
209.7931109999999
 21
139.5986269999999
 31
0.0
  0
ARC
  5
BA0F
330
B951
100
AcDbEntity
  8
1
  6
Continuous
100
AcDbCircle
 10
215.053508
 20
148.7816699999999
 30
0.0
 40
6.779940999999999
100
AcDbArc
 50
180.9908509999999
 51
213.9306609999999
  0
LINE
  5
BA10
330
B951
100
AcDbEntity
  8
1
  6
Continuous
100
AcDbLine
 10
240.2601409999999
 20
147.7448589999999
 30
0.0
 11
240.2601409999999
 21
144.517191
 31
0.0
  0
ARC
  5
BA11
330
B951
100
AcDbEntity
  8
1
  6
Continuous
100
AcDbCircle
 10
234.989308
 20
148.7671909999999
 30
0.0
 40
6.770832999999998
100
AcDbArc
 50
321.1199299999999
 51
12.459047
  0
LINE
  5
BA12
330
B951
100
AcDbEntity
  8
1
  6
Continuous
100
AcDbLine
 10
240.2601409999999
 20
144.517191
 30
0.0
 11
239.3543359999999
 21
144.517191
 31
0.0
  0
LINE
  5
BA13
330
B951
100
AcDbEntity
  8
1
  6
Continuous
100
AcDbLine
 10
168.1584039999999
 20
178.0354859999999
 30
0.0
 11
168.4081879999999
 21
176.1818759999999
 31
0.0
  0
LINE
  5
BA14
330
B951
100
AcDbEntity
  8
1
  6
Continuous
100
AcDbLine
 10
167.206219
 20
175.8009969999999
 30
0.0
 11
168.4081879999999
 21
176.1818759999999
 31
0.0
  0
LINE
  5
BA15
330
B951
100
AcDbEntity
  8
4
  6
CENTER
100
AcDbLine
 10
173.4086259999999
 20
67.085669
 30
0.0
 11
99.41836700000001
 21
67.085669
 31
0.0
  0
LINE
  5
BA16
330
B951
100
AcDbEntity
  8
4
  6
CENTER
100
AcDbLine
 10
149.4086259999999
 20
43.085669
 30
0.0
 11
149.4086259999999
 21
91.08566899999999
 31
0.0
  0
ARC
  5
BA17
330
B951
100
AcDbEntity
  8
1
  6
Continuous
100
AcDbCircle
 10
129.408173
 20
56.613225
 30
0.0
 40
6.770832999999998
100
AcDbArc
 50
231.11993
 51
308.8800700000001
  0
LINE
  5
BA18
330
B951
100
AcDbEntity
  8
1
  6
Continuous
100
AcDbLine
 10
126.408173
 20
54.33598899999999
 30
0.0
 11
126.408173
 21
55.58566899999998
 31
0.0
  0
LINE
  5
BA19
330
B951
100
AcDbEntity
  8
1
  6
Continuous
100
AcDbLine
 10
125.158173
 20
51.34239199999999
 30
0.0
 11
125.158173
 21
52.333315
 31
0.0
  0
LINE
  5
BA1A
330
B951
100
AcDbEntity
  8
1
  6
Continuous
100
AcDbLine
 10
132.408173
 20
54.34880299999999
 30
0.0
 11
132.408173
 21
55.58566899999998
 31
0.0
  0
LINE
  5
BA1B
330
B951
100
AcDbEntity
  8
1
  6
Continuous
100
AcDbLine
 10
133.658173
 20
51.34239199999999
 30
0.0
 11
133.658173
 21
52.333591
 31
0.0
  0
LINE
  5
BA1C
330
B951
100
AcDbEntity
  8
1
  6
Continuous
100
AcDbLine
 10
125.158173
 20
51.34239199999999
 30
0.0
 11
133.658173
 21
51.34239199999999
 31
0.0
  0
ARC
  5
BA1D
330
B951
100
AcDbEntity
  8
1
  6
Continuous
100
AcDbCircle
 10
129.3936939999998
 20
76.549025
 30
0.0
 40
6.779940999999999
100
AcDbArc
 50
51.02474
 51
128.730535
  0
LINE
  5
BA1E
330
B951
100
AcDbEntity
  8
1
  6
Continuous
100
AcDbLine
 10
126.408173
 20
78.58566899999998
 30
0.0
 11
126.408173
 21
79.82242099999997
 31
0.0
  0
LINE
  5
BA1F
330
B951
100
AcDbEntity
  8
1
  6
Continuous
100
AcDbLine
 10
132.408173
 20
78.58566899999998
 30
0.0
 11
132.408173
 21
79.822535
 31
0.0
  0
LINE
  5
BA20
330
B951
100
AcDbEntity
  8
1
  6
Continuous
100
AcDbLine
 10
135.185886
 20
81.840975
 30
0.0
 11
122.1186309999998
 21
81.81336100000001
 31
0.0
  0
LINE
  5
BA21
330
B951
100
AcDbEntity
  8
1
  6
Continuous
100
AcDbLine
 10
135.1901119999999
 20
79.84098
 30
0.0
 11
122.1186309999998
 21
79.813356
 31
0.0
  0
LINE
  5
BA22
330
B951
100
AcDbEntity
  8
1
  6
Continuous
100
AcDbLine
 10
135.185886
 20
52.330363
 30
0.0
 11
122.1186309999998
 21
52.35797699999999
 31
0.0
  0
LINE
  5
BA23
330
B951
100
AcDbEntity
  8
1
  6
Continuous
100
AcDbLine
 10
135.1901119999999
 20
54.330359
 30
0.0
 11
122.1186309999998
 21
54.35798199999999
 31
0.0
  0
LINE
  5
BA24
330
B951
100
AcDbEntity
  8
4
  6
CENTER
100
AcDbLine
 10
129.408173
 20
88.32895699999998
 30
0.0
 11
129.408173
 21
44.842392
 31
0.0
  0
LINE
  5
BA25
330
B951
100
AcDbEntity
  8
1
  6
Continuous
100
AcDbLine
 10
122.1186309999998
 20
81.81336100000001
 30
0.0
 11
122.1186309999998
 21
79.813356
 31
0.0
  0
LINE
  5
BA26
330
B951
100
AcDbEntity
  8
1
  6
Continuous
100
AcDbLine
 10
122.1186309999998
 20
54.35798199999999
 30
0.0
 11
122.1186309999998
 21
52.35797699999999
 31
0.0
  0
ARC
  5
BA27
330
B951
100
AcDbEntity
  8
1
  6
Continuous
100
AcDbCircle
 10
149.4086259999999
 20
67.085669
 30
0.0
 40
19.0
100
AcDbArc
 50
236.797659
 51
123.2023409999999
  0
ARC
  5
BA28
330
B951
100
AcDbEntity
  8
1
  6
Continuous
100
AcDbCircle
 10
149.4086259999999
 20
67.085669
 30
0.0
 40
17.0
100
AcDbArc
 50
236.797659
 51
123.2023409999999
  0
ARC
  5
BA29
330
B951
100
AcDbEntity
  8
1
  6
Continuous
100
AcDbCircle
 10
149.4086259999999
 20
67.085669
 30
0.0
 40
13.2
100
AcDbArc
 50
229.250946
 51
130.749054
  0
ARC
  5
BA2A
330
B951
100
AcDbEntity
  8
1
  6
Continuous
100
AcDbCircle
 10
149.4086259999999
 20
67.085669
 30
0.0
 40
15.09999999999999
100
AcDbArc
 50
221.471824
 51
138.528176
  0
ARC
  5
BA2B
330
B951
100
AcDbEntity
  8
1
  6
Continuous
100
AcDbCircle
 10
149.4086259999999
 20
67.085669
 30
0.0
 40
5.4
100
AcDbArc
 50
337.185281
 51
22.814719
  0
ARC
  5
BA2C
330
B951
100
AcDbEntity
  8
1
  6
Continuous
100
AcDbCircle
 10
162.601604
 20
162.874308
 30
0.0
 40
79.02195899999998
100
AcDbArc
 50
356.526268
 51
3.236625
  0
LINE
  5
BA2D
330
B951
100
AcDbEntity
  8
1
  6
Continuous
100
AcDbLine
 10
239.2476509999999
 20
142.9457789999999
 30
0.0
 11
239.2405779999999
 21
139.5986269999999
 31
0.0
  0
ARC
  5
BA2E
330
B951
100
AcDbEntity
  8
1
  6
Continuous
100
AcDbCircle
 10
226.444789
 20
158.086295
 30
0.0
 40
17.07205599999999
100
AcDbArc
 50
328.555994
 51
0.0
  0
ARC
  5
BA2F
330
B951
100
AcDbEntity
  8
1
  6
Continuous
100
AcDbCircle
 10
224.406318
 20
158.086295
 30
0.0
 40
17.07205599999999
100
AcDbArc
 50
328.702125
 51
0.0
  0
ARC
  5
BA30
330
B951
100
AcDbEntity
  8
1
  6
Continuous
100
AcDbCircle
 10
251.247624
 20
142.92042
 30
0.0
 40
12.0
100
AcDbArc
 50
148.5559939999999
 51
179.8789199999999
  0
ARC
  5
BA31
330
B951
100
AcDbEntity
  8
1
  6
Continuous
100
AcDbCircle
 10
249.2477529999999
 20
142.983728
 30
0.0
 40
12.0
100
AcDbArc
 50
148.7021249999999
 51
179.8789179999999
  0
ARC
  5
BA32
330
B951
100
AcDbEntity
  8
1
  6
Continuous
100
AcDbCircle
 10
224.627371
 20
158.086295
 30
0.0
 40
17.07205599999999
100
AcDbArc
 50
180.0
 51
211.2978749999999
  0
ARC
  5
BA33
330
B951
100
AcDbEntity
  8
1
  6
Continuous
100
AcDbCircle
 10
222.5889009999999
 20
158.086295
 30
0.0
 40
17.07205599999999
100
AcDbArc
 50
180.0
 51
211.444006
  0
ARC
  5
BA34
330
B951
100
AcDbEntity
  8
1
  6
Continuous
100
AcDbCircle
 10
197.7860649999998
 20
142.92042
 30
0.0
 40
12.0
100
AcDbArc
 50
0.12108
 51
31.44400599999999
  0
ARC
  5
BA35
330
B951
100
AcDbEntity
  8
1
  6
Continuous
100
AcDbCircle
 10
199.7859359999999
 20
142.983728
 30
0.0
 40
12.0
100
AcDbArc
 50
0.121082
 51
31.297875
  0
ARC
  5
BA36
330
B951
100
AcDbEntity
  8
1
  6
Continuous
100
AcDbCircle
 10
129.408073
 20
148.7888759999998
 30
0.0
 40
8.5
100
AcDbArc
 50
138.7756169999998
 51
239.981802
  0
ARC
  5
BA37
330
B951
100
AcDbEntity
  8
1
  6
Continuous
100
AcDbCircle
 10
129.408073
 20
148.7888759999998
 30
0.0
 40
25.0
100
AcDbArc
 50
98.15888300000001
 51
34.430256
  0
ARC
  5
BA38
330
B951
100
AcDbEntity
  8
1
  6
Continuous
100
AcDbCircle
 10
129.408073
 20
148.7888759999998
 30
0.0
 40
17.5
100
AcDbArc
 50
105.65191
 51
24.01566199999999
  0
ARC
  5
BA39
330
B951
100
AcDbEntity
  8
1
  6
Continuous
100
AcDbCircle
 10
48.29951099999998
 20
138.7611909999999
 30
0.0
 40
35.0
100
AcDbArc
 50
75.29954399999998
 51
104.698424
  0
ARC
  5
BA3A
330
B951
100
AcDbEntity
  8
1
  6
Continuous
100
AcDbCircle
 10
48.29951099999998
 20
158.7611909999999
 30
0.0
 40
35.0
100
AcDbArc
 50
255.301576
 51
284.7004559999998
  0
LINE
  5
BA3B
330
B951
100
AcDbEntity
  8
1
  6
Continuous
100
AcDbLine
 10
38.29951099999997
 20
126.357487
 30
0.0
 11
38.29951099999997
 21
171.164894
 31
0.0
  0
ARC
  5
BA3C
330
B951
100
AcDbEntity
  8
1
  6
Continuous
100
AcDbCircle
 10
39.79951099999999
 20
126.357487
 30
0.0
 40
1.5
100
AcDbArc
 50
180.0
 51
255.301576
  0
LINE
  5
BA3D
330
B951
100
AcDbEntity
  8
1
  6
Continuous
100
AcDbLine
 10
36.79951099999998
 20
140.261191
 30
0.0
 11
36.79951099999998
 21
157.261191
 31
0.0
  0
LINE
  5
BA3E
330
B951
100
AcDbEntity
  8
1
  6
Continuous
100
AcDbLine
 10
36.79951099999998
 20
140.261191
 30
0.0
 11
38.29951099999997
 21
140.261191
 31
0.0
  0
LINE
  5
BA3F
330
B951
100
AcDbEntity
  8
1
  6
Continuous
100
AcDbLine
 10
36.79951099999998
 20
157.261191
 30
0.0
 11
38.29951099999997
 21
157.261191
 31
0.0
  0
ARC
  5
BA40
330
B951
100
AcDbEntity
  8
1
  6
Continuous
100
AcDbCircle
 10
39.79951099999999
 20
171.164895
 30
0.0
 40
1.5
100
AcDbArc
 50
104.698424
 51
180.0
  0
LINE
  5
BA41
330
B951
100
AcDbEntity
  8
1
  6
Continuous
100
AcDbLine
 10
58.29951099999998
 20
171.164894
 30
0.0
 11
58.29951099999998
 21
126.357487
 31
0.0
  0
ARC
  5
BA42
330
B951
100
AcDbEntity
  8
1
  6
Continuous
100
AcDbCircle
 10
56.799511
 20
126.357487
 30
0.0
 40
1.5
100
AcDbArc
 50
284.6984239999999
 51
0.0
  0
LINE
  5
BA43
330
B951
100
AcDbEntity
  8
1
  6
Continuous
100
AcDbLine
 10
59.799511
 20
140.261191
 30
0.0
 11
59.799511
 21
157.261191
 31
0.0
  0
LINE
  5
BA44
330
B951
100
AcDbEntity
  8
1
  6
Continuous
100
AcDbLine
 10
59.799511
 20
140.261191
 30
0.0
 11
58.29951099999998
 21
140.261191
 31
0.0
  0
LINE
  5
BA45
330
B951
100
AcDbEntity
  8
1
  6
Continuous
100
AcDbLine
 10
59.799511
 20
157.261191
 30
0.0
 11
58.29951099999998
 21
157.261191
 31
0.0
  0
ARC
  5
BA46
330
B951
100
AcDbEntity
  8
1
  6
Continuous
100
AcDbCircle
 10
56.799511
 20
171.164895
 30
0.0
 40
1.5
100
AcDbArc
 50
0.0
 51
75.30157599999999
  0
ARC
  5
BA47
330
B951
100
AcDbEntity
  8
1
  6
Continuous
100
AcDbCircle
 10
224.5168449999999
 20
158.761317
 30
0.0
 40
35.0
100
AcDbArc
 50
255.301576
 51
284.7004559999998
  0
ARC
  5
BA48
330
B951
100
AcDbEntity
  8
1
  6
Continuous
100
AcDbCircle
 10
224.5168449999999
 20
138.7613169999999
 30
0.0
 40
35.0
100
AcDbArc
 50
75.29954399999998
 51
104.698424
  0
LINE
  5
BA49
330
B951
100
AcDbEntity
  8
1
  6
Continuous
100
AcDbLine
 10
214.5168449999999
 20
126.3576129999999
 30
0.0
 11
214.5168449999999
 21
171.16502
 31
0.0
  0
ARC
  5
BA4A
330
B951
100
AcDbEntity
  8
1
  6
Continuous
100
AcDbCircle
 10
216.016845
 20
126.3576129999999
 30
0.0
 40
1.5
100
AcDbArc
 50
180.0
 51
255.301576
  0
LINE
  5
BA4B
330
B951
100
AcDbEntity
  8
1
  6
Continuous
100
AcDbLine
 10
213.0168449999999
 20
157.2613169999999
 30
0.0
 11
214.5168449999999
 21
157.2613169999999
 31
0.0
  0
LINE
  5
BA4C
330
B951
100
AcDbEntity
  8
1
  6
Continuous
100
AcDbLine
 10
213.0168449999999
 20
140.2613169999999
 30
0.0
 11
214.5168449999999
 21
140.2613169999999
 31
0.0
  0
LINE
  5
BA4D
330
B951
100
AcDbEntity
  8
1
  6
Continuous
100
AcDbLine
 10
213.0168449999999
 20
140.2613169999999
 30
0.0
 11
213.0168449999999
 21
157.2613169999999
 31
0.0
  0
ARC
  5
BA4E
330
B951
100
AcDbEntity
  8
1
  6
Continuous
100
AcDbCircle
 10
216.016845
 20
171.1650209999999
 30
0.0
 40
1.5
100
AcDbArc
 50
104.698424
 51
180.0
  0
LINE
  5
BA4F
330
B951
100
AcDbEntity
  8
1
  6
Continuous
100
AcDbLine
 10
234.516845
 20
171.16502
 30
0.0
 11
234.516845
 21
126.3576129999999
 31
0.0
  0
ARC
  5
BA50
330
B951
100
AcDbEntity
  8
1
  6
Continuous
100
AcDbCircle
 10
233.0168449999999
 20
126.3576129999999
 30
0.0
 40
1.5
100
AcDbArc
 50
284.6984239999999
 51
0.0
  0
LINE
  5
BA51
330
B951
100
AcDbEntity
  8
1
  6
Continuous
100
AcDbLine
 10
236.0168449999999
 20
157.2613169999999
 30
0.0
 11
234.516845
 21
157.2613169999999
 31
0.0
  0
LINE
  5
BA52
330
B951
100
AcDbEntity
  8
1
  6
Continuous
100
AcDbLine
 10
236.0168449999999
 20
140.2613169999999
 30
0.0
 11
234.516845
 21
140.2613169999999
 31
0.0
  0
LINE
  5
BA53
330
B951
100
AcDbEntity
  8
1
  6
Continuous
100
AcDbLine
 10
236.0168449999999
 20
140.2613169999999
 30
0.0
 11
236.0168449999999
 21
157.2613169999999
 31
0.0
  0
ARC
  5
BA54
330
B951
100
AcDbEntity
  8
1
  6
Continuous
100
AcDbCircle
 10
233.0168449999999
 20
171.1650209999999
 30
0.0
 40
1.5
100
AcDbArc
 50
0.0
 51
75.30157599999999
  0
ARC
  5
BA55
330
B951
100
AcDbEntity
  8
1
  6
Continuous
100
AcDbCircle
 10
107.004469
 20
75.58566899999998
 30
0.0
 40
1.5
100
AcDbArc
 50
90.0
 51
165.301576
  0
LINE
  5
BA56
330
B951
100
AcDbEntity
  8
1
  6
Continuous
100
AcDbLine
 10
120.908173
 20
78.58566899999998
 30
0.0
 11
120.908173
 21
77.08566899999998
 31
0.0
  0
LINE
  5
BA57
330
B951
100
AcDbEntity
  8
1
  6
Continuous
100
AcDbLine
 10
137.908173
 20
78.58566899999998
 30
0.0
 11
137.908173
 21
77.08566899999998
 31
0.0
  0
ARC
  5
BA58
330
B951
100
AcDbEntity
  8
1
  6
Continuous
100
AcDbCircle
 10
151.811777
 20
75.58566899999998
 30
0.0
 40
1.5
100
AcDbArc
 50
14.698424
 51
90.0
  0
LINE
  5
BA59
330
B951
100
AcDbEntity
  8
1
  6
Continuous
100
AcDbLine
 10
151.811777
 20
57.085669
 30
0.0
 11
107.00437
 21
57.085669
 31
0.0
  0
LINE
  5
BA5A
330
B951
100
AcDbEntity
  8
1
  6
Continuous
100
AcDbLine
 10
107.00437
 20
77.08566899999998
 30
0.0
 11
151.811777
 21
77.08566899999998
 31
0.0
  0
ARC
  5
BA5B
330
B951
100
AcDbEntity
  8
1
  6
Continuous
100
AcDbCircle
 10
107.004469
 20
58.58566899999999
 30
0.0
 40
1.5
100
AcDbArc
 50
194.698424
 51
270.0
  0
ARC
  5
BA5C
330
B951
100
AcDbEntity
  8
1
  6
Continuous
100
AcDbCircle
 10
139.408173
 20
67.085669
 30
0.0
 40
35.0
100
AcDbArc
 50
165.2995439999999
 51
194.698424
  0
LINE
  5
BA5D
330
B951
100
AcDbEntity
  8
1
  6
Continuous
100
AcDbLine
 10
137.908173
 20
55.58566899999998
 30
0.0
 11
120.908173
 21
55.58566899999998
 31
0.0
  0
LINE
  5
BA5E
330
B951
100
AcDbEntity
  8
1
  6
Continuous
100
AcDbLine
 10
120.908173
 20
55.58566899999998
 30
0.0
 11
120.908173
 21
57.085669
 31
0.0
  0
LINE
  5
BA5F
330
B951
100
AcDbEntity
  8
1
  6
Continuous
100
AcDbLine
 10
137.908173
 20
55.58566899999998
 30
0.0
 11
137.908173
 21
57.085669
 31
0.0
  0
ARC
  5
BA60
330
B951
100
AcDbEntity
  8
1
  6
Continuous
100
AcDbCircle
 10
151.811777
 20
58.58566899999999
 30
0.0
 40
1.5
100
AcDbArc
 50
270.0
 51
345.3015759999999
  0
ARC
  5
BA61
330
B951
100
AcDbEntity
  8
1
  6
Continuous
100
AcDbCircle
 10
119.408073
 20
67.085669
 30
0.0
 40
35.0
100
AcDbArc
 50
345.3015759999999
 51
14.70045599999999
  0
LINE
  5
BA62
330
B951
100
AcDbEntity
  8
1
  6
Continuous
100
AcDbLine
 10
137.908173
 20
78.58566899999998
 30
0.0
 11
120.908173
 21
78.58566899999998
 31
0.0
  0
LINE
  5
BA63
330
B951
100
AcDbEntity
  8
1
  6
Continuous
100
AcDbLine
 10
230.5168069999998
 20
192.761303
 30
0.0
 11
230.5168069999998
 21
206.7613029999999
 31
0.0
  0
LINE
  5
BA64
330
B951
100
AcDbEntity
  8
1
  6
Continuous
100
AcDbLine
 10
218.5168069999999
 20
192.761303
 30
0.0
 11
218.5168069999999
 21
206.7613029999999
 31
0.0
  0
LINE
  5
BA65
330
B951
100
AcDbEntity
  8
1
  6
Continuous
100
AcDbLine
 10
218.0315639999999
 20
182.8634199999999
 30
0.0
 11
216.0315639999998
 21
184.47142
 31
0.0
  0
LINE
  5
BA66
330
B951
100
AcDbEntity
  8
1
  6
Continuous
100
AcDbLine
 10
219.445777
 20
182.8634199999999
 30
0.0
 11
217.445777
 21
184.47142
 31
0.0
  0
LINE
  5
BA67
330
B951
100
AcDbEntity
  8
1
  6
Continuous
100
AcDbLine
 10
216.859991
 20
182.8634199999999
 30
0.0
 11
218.859991
 21
184.47142
 31
0.0
  0
LINE
  5
BA68
330
B951
100
AcDbEntity
  8
1
  6
Continuous
100
AcDbLine
 10
206.291575
 20
186.0933379999999
 30
0.0
 11
242.723387
 21
185.951671
 31
0.0
  0
LINE
  5
BA69
330
B951
100
AcDbEntity
  8
1
  6
Continuous
100
AcDbLine
 10
241.552602
 20
186.470669
 30
0.0
 11
207.825173
 21
186.4916159999999
 31
0.0
  0
LINE
  5
BA6A
330
B951
100
AcDbEntity
  8
1
  6
Continuous
100
AcDbLine
 10
211.060154
 20
187.8160289999999
 30
0.0
 11
237.928979
 21
187.807029
 31
0.0
  0
LINE
  5
BA6B
330
B951
100
AcDbEntity
  8
1
  6
Continuous
100
AcDbLine
 10
206.0168449999999
 20
184.47142
 30
0.0
 11
243.016845
 21
184.47142
 31
0.0
  0
ARC
  5
BA6C
330
B951
100
AcDbEntity
  8
1
  6
Continuous
100
AcDbCircle
 10
211.768922
 20
183.0520749999998
 30
0.0
 40
5.076287999999999
100
AcDbArc
 50
127.3270289999999
 51
137.347955
  0
LINE
  5
BA6D
330
B951
100
AcDbEntity
  8
1
  6
Continuous
100
AcDbLine
 10
209.5462819999999
 20
182.8634199999999
 30
0.0
 11
207.5462819999999
 21
184.47142
 31
0.0
  0
LINE
  5
BA6E
330
B951
100
AcDbEntity
  8
1
  6
Continuous
100
AcDbLine
 10
210.9604959999999
 20
182.8634199999999
 30
0.0
 11
208.9604959999999
 21
184.47142
 31
0.0
  0
LINE
  5
BA6F
330
B951
100
AcDbEntity
  8
1
  6
Continuous
100
AcDbLine
 10
208.374709
 20
182.8634199999999
 30
0.0
 11
210.374709
 21
184.47142
 31
0.0
  0
LINE
  5
BA70
330
B951
100
AcDbEntity
  8
1
  6
Continuous
100
AcDbLine
 10
206.0168449999999
 20
183.56443
 30
0.0
 11
206.7178549999999
 21
182.8634199999999
 31
0.0
  0
LINE
  5
BA71
330
B951
100
AcDbEntity
  8
1
  6
Continuous
100
AcDbLine
 10
208.132069
 20
182.8634199999999
 30
0.0
 11
206.132069
 21
184.47142
 31
0.0
  0
LINE
  5
BA72
330
B951
100
AcDbEntity
  8
1
  6
Continuous
100
AcDbLine
 10
206.0168449999999
 20
184.3561959999999
 30
0.0
 11
206.132069
 21
184.47142
 31
0.0
  0
LINE
  5
BA73
330
B951
100
AcDbEntity
  8
1
  6
Continuous
100
AcDbLine
 10
206.0168449999999
 20
183.3339829999999
 30
0.0
 11
207.5462819999999
 21
184.47142
 31
0.0
  0
LINE
  5
BA74
330
B951
100
AcDbEntity
  8
1
  6
Continuous
100
AcDbLine
 10
206.9604959999999
 20
182.8634199999999
 30
0.0
 11
208.9604959999999
 21
184.47142
 31
0.0
  0
ARC
  5
BA75
330
B951
100
AcDbEntity
  8
1
  6
Continuous
100
AcDbCircle
 10
207.5524649999999
 20
184.0657069999998
 30
0.0
 40
2.428551999999998
100
AcDbArc
 50
98.61064800000001
 51
114.9342409999998
  0
LINE
  5
BA76
330
B951
100
AcDbEntity
  8
1
  6
Continuous
100
AcDbLine
 10
206.291575
 20
186.0933379999999
 30
0.0
 11
206.528641
 21
186.267899
 31
0.0
  0
ARC
  5
BA77
330
B951
100
AcDbEntity
  8
1
  6
Continuous
100
AcDbCircle
 10
207.445979
 20
185.825374
 30
0.0
 40
1.185095999999999
100
AcDbArc
 50
166.9317139999998
 51
193.2214489999998
  0
LINE
  5
BA78
330
B951
100
AcDbEntity
  8
1
  6
Continuous
100
AcDbLine
 10
206.5299829999999
 20
184.8448649999999
 30
0.0
 11
206.2922949999999
 21
185.554324
 31
0.0
  0
LINE
  5
BA79
330
B951
100
AcDbEntity
  8
1
  6
Continuous
100
AcDbLine
 10
206.727619
 20
184.47142
 30
0.0
 11
206.5299829999999
 21
184.8448649999999
 31
0.0
  0
ARC
  5
BA7A
330
B951
100
AcDbEntity
  8
1
  6
Continuous
100
AcDbCircle
 10
207.8247209999999
 20
185.763833
 30
0.0
 40
0.727783
100
AcDbArc
 50
89.964416
 51
92.27906199999999
  0
LINE
  5
BA7B
330
B951
100
AcDbEntity
  8
1
  6
Continuous
100
AcDbLine
 10
207.188864
 20
186.4668859999999
 30
0.0
 11
207.79578
 21
186.49104
 31
0.0
  0
LINE
  5
BA7C
330
B951
100
AcDbEntity
  8
1
  6
Continuous
100
AcDbLine
 10
206.0168449999999
 20
184.47142
 30
0.0
 11
206.0168449999999
 21
182.8634199999999
 31
0.0
  0
LINE
  5
BA7D
330
B951
100
AcDbEntity
  8
1
  6
Continuous
100
AcDbLine
 10
213.788923
 20
182.8634199999999
 30
0.0
 11
211.788923
 21
184.47142
 31
0.0
  0
LINE
  5
BA7E
330
B951
100
AcDbEntity
  8
1
  6
Continuous
100
AcDbLine
 10
215.203136
 20
182.8634199999999
 30
0.0
 11
213.203136
 21
184.47142
 31
0.0
  0
LINE
  5
BA7F
330
B951
100
AcDbEntity
  8
1
  6
Continuous
100
AcDbLine
 10
212.6173499999999
 20
182.8634199999999
 30
0.0
 11
214.6173499999999
 21
184.47142
 31
0.0
  0
LINE
  5
BA80
330
B951
100
AcDbEntity
  8
1
  6
Continuous
100
AcDbLine
 10
212.374709
 20
182.8634199999999
 30
0.0
 11
210.374709
 21
184.47142
 31
0.0
  0
LINE
  5
BA81
330
B951
100
AcDbEntity
  8
1
  6
Continuous
100
AcDbLine
 10
209.788923
 20
182.8634199999999
 30
0.0
 11
211.788923
 21
184.47142
 31
0.0
  0
LINE
  5
BA82
330
B951
100
AcDbEntity
  8
1
  6
Continuous
100
AcDbLine
 10
211.203136
 20
182.8634199999999
 30
0.0
 11
213.203136
 21
184.47142
 31
0.0
  0
LINE
  5
BA83
330
B951
100
AcDbEntity
  8
1
  6
Continuous
100
AcDbLine
 10
216.6173499999999
 20
182.8634199999999
 30
0.0
 11
214.6173499999999
 21
184.47142
 31
0.0
  0
LINE
  5
BA84
330
B951
100
AcDbEntity
  8
1
  6
Continuous
100
AcDbLine
 10
214.031564
 20
182.8634199999999
 30
0.0
 11
216.0315639999998
 21
184.47142
 31
0.0
  0
LINE
  5
BA85
330
B951
100
AcDbEntity
  8
1
  6
Continuous
100
AcDbLine
 10
215.445777
 20
182.8634199999999
 30
0.0
 11
217.445777
 21
184.47142
 31
0.0
  0
ARC
  5
BA86
330
B951
100
AcDbEntity
  8
1
  6
Continuous
100
AcDbCircle
 10
210.720558
 20
184.426904
 30
0.0
 40
3.347351
100
AcDbArc
 50
104.0908519999999
 51
127.3270289999999
  0
ARC
  5
BA87
330
B951
100
AcDbEntity
  8
1
  6
Continuous
100
AcDbCircle
 10
211.058568
 20
183.080319
 30
0.0
 40
4.73571
100
AcDbArc
 50
89.980807
 51
104.0908519999999
  0
LINE
  5
BA88
330
B951
100
AcDbEntity
  8
1
  6
Continuous
100
AcDbLine
 10
235.0021259999998
 20
182.8634199999999
 30
0.0
 11
233.0021259999998
 21
184.47142
 31
0.0
  0
LINE
  5
BA89
330
B951
100
AcDbEntity
  8
1
  6
Continuous
100
AcDbLine
 10
233.8305529999999
 20
182.8634199999999
 30
0.0
 11
235.8305529999999
 21
184.47142
 31
0.0
  0
LINE
  5
BA8A
330
B951
100
AcDbEntity
  8
1
  6
Continuous
100
AcDbLine
 10
232.4163399999999
 20
182.8634199999999
 30
0.0
 11
234.4163399999999
 21
184.47142
 31
0.0
  0
LINE
  5
BA8B
330
B951
100
AcDbEntity
  8
1
  6
Continuous
100
AcDbLine
 10
234.0168069999998
 20
192.761303
 30
0.0
 11
215.0168069999998
 21
192.761303
 31
0.0
  0
LINE
  5
BA8C
330
B951
100
AcDbEntity
  8
1
  6
Continuous
100
AcDbLine
 10
226.5168449999999
 20
182.8634199999999
 30
0.0
 11
224.5168449999999
 21
184.47142
 31
0.0
  0
LINE
  5
BA8D
330
B951
100
AcDbEntity
  8
1
  6
Continuous
100
AcDbLine
 10
225.3452719999999
 20
182.8634199999999
 30
0.0
 11
227.3452719999999
 21
184.47142
 31
0.0
  0
LINE
  5
BA8E
330
B951
100
AcDbEntity
  8
1
  6
Continuous
100
AcDbLine
 10
223.931058
 20
182.8634199999999
 30
0.0
 11
225.931058
 21
184.47142
 31
0.0
  0
LINE
  5
BA8F
330
B951
100
AcDbEntity
  8
1
  6
Continuous
100
AcDbLine
 10
222.2742039999999
 20
182.8634199999999
 30
0.0
 11
220.2742039999999
 21
184.47142
 31
0.0
  0
LINE
  5
BA90
330
B951
100
AcDbEntity
  8
1
  6
Continuous
100
AcDbLine
 10
219.688418
 20
182.8634199999999
 30
0.0
 11
221.688418
 21
184.47142
 31
0.0
  0
LINE
  5
BA91
330
B951
100
AcDbEntity
  8
1
  6
Continuous
100
AcDbLine
 10
221.102631
 20
182.8634199999999
 30
0.0
 11
223.102631
 21
184.47142
 31
0.0
  0
LINE
  5
BA92
330
B951
100
AcDbEntity
  8
1
  6
Continuous
100
AcDbLine
 10
220.859991
 20
182.8634199999999
 30
0.0
 11
218.859991
 21
184.47142
 31
0.0
  0
LINE
  5
BA93
330
B951
100
AcDbEntity
  8
1
  6
Continuous
100
AcDbLine
 10
218.2742039999999
 20
182.8634199999999
 30
0.0
 11
220.2742039999999
 21
184.47142
 31
0.0
  0
LINE
  5
BA94
330
B951
100
AcDbEntity
  8
1
  6
Continuous
100
AcDbLine
 10
223.688418
 20
182.8634199999999
 30
0.0
 11
221.688418
 21
184.47142
 31
0.0
  0
LINE
  5
BA95
330
B951
100
AcDbEntity
  8
1
  6
Continuous
100
AcDbLine
 10
225.1026309999998
 20
182.8634199999999
 30
0.0
 11
223.102631
 21
184.47142
 31
0.0
  0
LINE
  5
BA96
330
B951
100
AcDbEntity
  8
1
  6
Continuous
100
AcDbLine
 10
222.5168449999999
 20
182.8634199999999
 30
0.0
 11
224.5168449999999
 21
184.47142
 31
0.0
  0
LINE
  5
BA97
330
B951
100
AcDbEntity
  8
1
  6
Continuous
100
AcDbLine
 10
230.759486
 20
182.8634199999999
 30
0.0
 11
228.759486
 21
184.47142
 31
0.0
  0
LINE
  5
BA98
330
B951
100
AcDbEntity
  8
1
  6
Continuous
100
AcDbLine
 10
229.5879129999999
 20
182.8634199999999
 30
0.0
 11
231.5879129999999
 21
184.47142
 31
0.0
  0
LINE
  5
BA99
330
B951
100
AcDbEntity
  8
1
  6
Continuous
100
AcDbLine
 10
228.173699
 20
182.8634199999999
 30
0.0
 11
230.173699
 21
184.47142
 31
0.0
  0
LINE
  5
BA9A
330
B951
100
AcDbEntity
  8
1
  6
Continuous
100
AcDbLine
 10
229.3452719999999
 20
182.8634199999999
 30
0.0
 11
227.3452719999999
 21
184.47142
 31
0.0
  0
LINE
  5
BA9B
330
B951
100
AcDbEntity
  8
1
  6
Continuous
100
AcDbLine
 10
227.931058
 20
182.8634199999999
 30
0.0
 11
225.931058
 21
184.47142
 31
0.0
  0
LINE
  5
BA9C
330
B951
100
AcDbEntity
  8
1
  6
Continuous
100
AcDbLine
 10
226.7594859999999
 20
182.8634199999999
 30
0.0
 11
228.759486
 21
184.47142
 31
0.0
  0
LINE
  5
BA9D
330
B951
100
AcDbEntity
  8
1
  6
Continuous
100
AcDbLine
 10
233.5879129999999
 20
182.8634199999999
 30
0.0
 11
231.5879129999999
 21
184.47142
 31
0.0
  0
LINE
  5
BA9E
330
B951
100
AcDbEntity
  8
1
  6
Continuous
100
AcDbLine
 10
232.173699
 20
182.8634199999999
 30
0.0
 11
230.173699
 21
184.47142
 31
0.0
  0
LINE
  5
BA9F
330
B951
100
AcDbEntity
  8
1
  6
Continuous
100
AcDbLine
 10
231.0021259999998
 20
182.8634199999999
 30
0.0
 11
233.0021259999998
 21
184.47142
 31
0.0
  0
ARC
  5
BAA0
330
B951
100
AcDbEntity
  8
1
  6
Continuous
100
AcDbCircle
 10
238.3021339999999
 20
184.362931
 30
0.0
 40
3.385511999999998
100
AcDbArc
 50
38.512552
 51
72.227168
  0
LINE
  5
BAA1
330
B951
100
AcDbEntity
  8
1
  6
Continuous
100
AcDbLine
 10
243.016845
 20
183.3339829999999
 30
0.0
 11
241.487408
 21
184.47142
 31
0.0
  0
LINE
  5
BAA2
330
B951
100
AcDbEntity
  8
1
  6
Continuous
100
AcDbLine
 10
240.901621
 20
182.8634199999999
 30
0.0
 11
242.9016209999999
 21
184.47142
 31
0.0
  0
ARC
  5
BAA3
330
B951
100
AcDbEntity
  8
1
  6
Continuous
100
AcDbCircle
 10
241.449037
 20
184.5578729999998
 30
0.0
 40
1.945969999999999
100
AcDbArc
 50
60.92454800000001
 51
78.54525399999999
  0
LINE
  5
BAA4
330
B951
100
AcDbEntity
  8
1
  6
Continuous
100
AcDbLine
 10
239.244767
 20
182.8634199999999
 30
0.0
 11
237.244767
 21
184.47142
 31
0.0
  0
LINE
  5
BAA5
330
B951
100
AcDbEntity
  8
1
  6
Continuous
100
AcDbLine
 10
236.658981
 20
182.8634199999999
 30
0.0
 11
238.658981
 21
184.47142
 31
0.0
  0
LINE
  5
BAA6
330
B951
100
AcDbEntity
  8
1
  6
Continuous
100
AcDbLine
 10
237.830553
 20
182.8634199999999
 30
0.0
 11
235.8305529999999
 21
184.47142
 31
0.0
  0
LINE
  5
BAA7
330
B951
100
AcDbEntity
  8
1
  6
Continuous
100
AcDbLine
 10
236.4163399999999
 20
182.8634199999999
 30
0.0
 11
234.4163399999999
 21
184.47142
 31
0.0
  0
LINE
  5
BAA8
330
B951
100
AcDbEntity
  8
1
  6
Continuous
100
AcDbLine
 10
235.244767
 20
182.8634199999999
 30
0.0
 11
237.244767
 21
184.47142
 31
0.0
  0
LINE
  5
BAA9
330
B951
100
AcDbEntity
  8
1
  6
Continuous
100
AcDbLine
 10
242.073194
 20
182.8634199999999
 30
0.0
 11
240.073194
 21
184.47142
 31
0.0
  0
LINE
  5
BAAA
330
B951
100
AcDbEntity
  8
1
  6
Continuous
100
AcDbLine
 10
240.658981
 20
182.8634199999999
 30
0.0
 11
238.658981
 21
184.47142
 31
0.0
  0
LINE
  5
BAAB
330
B951
100
AcDbEntity
  8
1
  6
Continuous
100
AcDbLine
 10
239.487408
 20
182.8634199999999
 30
0.0
 11
241.487408
 21
184.47142
 31
0.0
  0
LINE
  5
BAAC
330
B951
100
AcDbEntity
  8
1
  6
Continuous
100
AcDbLine
 10
238.0731939999999
 20
182.8634199999999
 30
0.0
 11
240.073194
 21
184.47142
 31
0.0
  0
ARC
  5
BAAD
330
B951
100
AcDbEntity
  8
1
  6
Continuous
100
AcDbCircle
 10
241.548007
 20
179.0719219999998
 30
0.0
 40
7.398747999999997
100
AcDbArc
 50
87.773137
 51
89.964416
  0
LINE
  5
BAAE
330
B951
100
AcDbEntity
  8
1
  6
Continuous
100
AcDbLine
 10
243.016845
 20
184.3561959999999
 30
0.0
 11
242.9016209999999
 21
184.47142
 31
0.0
  0
LINE
  5
BAAF
330
B951
100
AcDbEntity
  8
1
  6
Continuous
100
AcDbLine
 10
242.315835
 20
182.8634199999999
 30
0.0
 11
243.016845
 21
183.56443
 31
0.0
  0
ARC
  5
BAB0
330
B951
100
AcDbEntity
  8
1
  6
Continuous
100
AcDbCircle
 10
242.052893
 20
185.477587
 30
0.0
 40
0.613084
100
AcDbArc
 50
326.211697
 51
353.5594259999998
  0
LINE
  5
BAB1
330
B951
100
AcDbEntity
  8
1
  6
Continuous
100
AcDbLine
 10
242.6621069999999
 20
185.408816
 30
0.0
 11
242.723387
 21
185.951671
 31
0.0
  0
ARC
  5
BAB2
330
B951
100
AcDbEntity
  8
1
  6
Continuous
100
AcDbCircle
 10
241.773966
 20
185.277482
 30
0.0
 40
0.800941
100
AcDbArc
 50
316.080757
 51
349.8717619999998
  0
LINE
  5
BAB3
330
B951
100
AcDbEntity
  8
1
  6
Continuous
100
AcDbLine
 10
242.2295389999999
 20
184.47142
 30
0.0
 11
242.350898
 21
184.7219149999999
 31
0.0
  0
ARC
  5
BAB4
330
B951
100
AcDbEntity
  8
1
  6
Continuous
100
AcDbCircle
 10
241.9419179999999
 20
185.444299
 30
0.0
 40
0.9317299999999999
100
AcDbArc
 50
32.993808
 51
60.92454800000001
  0
LINE
  5
BAB5
330
B951
100
AcDbEntity
  8
1
  6
Continuous
100
AcDbLine
 10
243.016845
 20
184.47142
 30
0.0
 11
243.016845
 21
182.8634199999999
 31
0.0
  0
ARC
  5
BAB6
330
B951
100
AcDbEntity
  8
1
  6
Continuous
100
AcDbCircle
 10
237.9274339999998
 20
183.193971
 30
0.0
 40
4.613057999999998
100
AcDbArc
 50
72.227168
 51
89.980807
  0
LINE
  5
BAB7
330
B951
100
AcDbEntity
  8
1
  6
Continuous
100
AcDbLine
 10
218.5168069999999
 20
206.7613029999999
 30
0.0
 11
230.5168069999998
 21
206.7613029999999
 31
0.0
  0
LINE
  5
BAB8
330
B951
100
AcDbEntity
  8
1
  6
Continuous
100
AcDbLine
 10
219.5168069999998
 20
207.761303
 30
0.0
 11
229.5168069999999
 21
207.761303
 31
0.0
  0
LINE
  5
BAB9
330
B951
100
AcDbEntity
  8
1
  6
Continuous
100
AcDbLine
 10
218.5168069999999
 20
206.7613029999999
 30
0.0
 11
219.5168069999998
 21
207.761303
 31
0.0
  0
LINE
  5
BABA
330
B951
100
AcDbEntity
  8
1
  6
Continuous
100
AcDbLine
 10
230.5168069999998
 20
206.7613029999999
 30
0.0
 11
229.5168069999999
 21
207.761303
 31
0.0
  0
LINE
  5
BABB
330
B951
100
AcDbEntity
  8
1
  6
Continuous
100
AcDbLine
 10
156.526733
 20
247.859373
 30
0.0
 11
156.057559
 21
247.390199
 31
0.0
  0
LINE
  5
BABC
330
B951
100
AcDbEntity
  8
1
  6
Continuous
100
AcDbLine
 10
156.476825
 20
281.75059
 30
0.0
 11
156.2779469999999
 21
281.5517119999999
 31
0.0
  0
LINE
  5
BABD
330
B951
100
AcDbEntity
  8
1
  6
Continuous
100
AcDbLine
 10
156.526733
 20
281.448793
 30
0.0
 11
156.057559
 21
281.917967
 31
0.0
  0
LINE
  5
BABE
330
B951
100
AcDbEntity
  8
1
  6
Continuous
100
AcDbLine
 10
156.476825
 20
247.557575
 30
0.0
 11
156.2779469999999
 21
247.7564539999999
 31
0.0
  0
CIRCLE
  5
BABF
330
B951
100
AcDbEntity
  8
1
  6
Continuous
100
AcDbCircle
 10
149.413292
 20
264.654083
 30
0.0
 40
17.323315
  0
CIRCLE
  5
BAC0
330
B951
100
AcDbEntity
  8
1
  6
Continuous
100
AcDbCircle
 10
149.4086259999999
 20
264.654083
 30
0.0
 40
18.5
  0
CIRCLE
  5
BAC1
330
B951
100
AcDbEntity
  8
1
  6
Continuous
100
AcDbCircle
 10
149.4333359999999
 20
264.654083
 30
0.0
 40
18.23125199999999
  0
CIRCLE
  5
BAC2
330
B951
100
AcDbEntity
  8
1
  6
Continuous
100
AcDbCircle
 10
149.434347
 20
264.654083
 30
0.0
 40
16.478245
  0
LINE
  5
BAC3
330
B951
100
AcDbEntity
  8
1
  6
Continuous
100
AcDbLine
 10
154.8934539999999
 20
274.154083
 30
0.0
 11
160.378281
 21
264.654083
 31
0.0
  0
LINE
  5
BAC4
330
B951
100
AcDbEntity
  8
1
  6
Continuous
100
AcDbLine
 10
154.8934539999999
 20
255.1540829999999
 30
0.0
 11
160.378281
 21
264.654083
 31
0.0
  0
LINE
  5
BAC5
330
B951
100
AcDbEntity
  8
1
  6
Continuous
100
AcDbLine
 10
161.695817
 20
250.823864
 30
0.0
 11
161.5170559999999
 21
251.002626
 31
0.0
  0
LINE
  5
BAC6
330
B951
100
AcDbEntity
  8
1
  6
Continuous
100
AcDbLine
 10
158.385069
 20
248.4777579999999
 30
0.0
 11
158.1960389999998
 21
248.666788
 31
0.0
  0
LINE
  5
BAC7
330
B951
100
AcDbEntity
  8
1
  6
Continuous
100
AcDbLine
 10
160.1204799999999
 20
249.570775
 30
0.0
 11
159.93792
 21
249.7533349999999
 31
0.0
  0
LINE
  5
BAC8
330
B951
100
AcDbEntity
  8
1
  6
Continuous
100
AcDbLine
 10
165.492298
 20
255.512665
 30
0.0
 11
165.310891
 21
255.694071
 31
0.0
  0
LINE
  5
BAC9
330
B951
100
AcDbEntity
  8
1
  6
Continuous
100
AcDbLine
 10
166.6725099999999
 20
258.00515
 30
0.0
 11
166.228046
 21
257.5606859999999
 31
0.0
  0
LINE
  5
BACA
330
B951
100
AcDbEntity
  8
1
  6
Continuous
100
AcDbLine
 10
167.6959569999999
 20
261.857024
 30
0.0
 11
167.400363
 21
261.5614299999999
 31
0.0
  0
LINE
  5
BACB
330
B951
100
AcDbEntity
  8
1
  6
Continuous
100
AcDbLine
 10
166.428976
 20
257.4044139999999
 30
0.0
 11
166.241283
 21
257.592107
 31
0.0
  0
LINE
  5
BACC
330
B951
100
AcDbEntity
  8
1
  6
Continuous
100
AcDbLine
 10
167.172936
 20
259.488881
 30
0.0
 11
166.974886
 21
259.686931
 31
0.0
  0
LINE
  5
BACD
330
B951
100
AcDbEntity
  8
1
  6
Continuous
100
AcDbLine
 10
167.687562
 20
261.802682
 30
0.0
 11
167.4729079999999
 21
262.0173369999998
 31
0.0
  0
LINE
  5
BACE
330
B951
100
AcDbEntity
  8
1
  6
Continuous
100
AcDbLine
 10
163.117004
 20
252.2311049999999
 30
0.0
 11
162.9397029999998
 21
252.4084049999999
 31
0.0
  0
LINE
  5
BACF
330
B951
100
AcDbEntity
  8
1
  6
Continuous
100
AcDbLine
 10
164.3842899999999
 20
253.792246
 30
0.0
 11
164.2061729999998
 21
253.9703629999999
 31
0.0
  0
LINE
  5
BAD0
330
B951
100
AcDbEntity
  8
1
  6
Continuous
100
AcDbLine
 10
167.687562
 20
267.5054839999999
 30
0.0
 11
167.4729079999999
 21
267.2908289999999
 31
0.0
  0
LINE
  5
BAD1
330
B951
100
AcDbEntity
  8
1
  6
Continuous
100
AcDbLine
 10
167.9070369999998
 20
264.8965319999999
 30
0.0
 11
167.6645889999998
 21
264.654083
 31
0.0
  0
LINE
  5
BAD2
330
B951
100
AcDbEntity
  8
1
  6
Continuous
100
AcDbLine
 10
167.6959569999999
 20
267.4511419999999
 30
0.0
 11
167.400363
 21
267.746735
 31
0.0
  0
LINE
  5
BAD3
330
B951
100
AcDbEntity
  8
1
  6
Continuous
100
AcDbLine
 10
167.9070369999998
 20
264.411634
 30
0.0
 11
167.6645889999998
 21
264.654083
 31
0.0
  0
LINE
  5
BAD4
330
B951
100
AcDbEntity
  8
1
  6
Continuous
100
AcDbLine
 10
165.492298
 20
273.7954999999999
 30
0.0
 11
165.310891
 21
273.614094
 31
0.0
  0
LINE
  5
BAD5
330
B951
100
AcDbEntity
  8
1
  6
Continuous
100
AcDbLine
 10
166.428976
 20
271.903751
 30
0.0
 11
166.241283
 21
271.7160579999999
 31
0.0
  0
LINE
  5
BAD6
330
B951
100
AcDbEntity
  8
1
  6
Continuous
100
AcDbLine
 10
167.172936
 20
269.8192839999999
 30
0.0
 11
166.974886
 21
269.6212339999998
 31
0.0
  0
LINE
  5
BAD7
330
B951
100
AcDbEntity
  8
1
  6
Continuous
100
AcDbLine
 10
166.6725099999999
 20
271.303015
 30
0.0
 11
166.228046
 21
271.747479
 31
0.0
  0
LINE
  5
BAD8
330
B951
100
AcDbEntity
  8
1
  6
Continuous
100
AcDbLine
 10
161.695817
 20
278.4843009999999
 30
0.0
 11
161.5170559999999
 21
278.30554
 31
0.0
  0
LINE
  5
BAD9
330
B951
100
AcDbEntity
  8
1
  6
Continuous
100
AcDbLine
 10
163.117004
 20
277.077061
 30
0.0
 11
162.9397029999998
 21
276.89976
 31
0.0
  0
LINE
  5
BADA
330
B951
100
AcDbEntity
  8
1
  6
Continuous
100
AcDbLine
 10
164.3842899999999
 20
275.51592
 30
0.0
 11
164.2061729999998
 21
275.3378029999999
 31
0.0
  0
LINE
  5
BADB
330
B951
100
AcDbEntity
  8
1
  6
Continuous
100
AcDbLine
 10
160.1204799999999
 20
279.737391
 30
0.0
 11
159.93792
 21
279.554831
 31
0.0
  0
LINE
  5
BADC
330
B951
100
AcDbEntity
  8
1
  6
Continuous
100
AcDbLine
 10
158.385069
 20
280.8304069999999
 30
0.0
 11
158.1960389999998
 21
280.6413779999999
 31
0.0
  0
ARC
  5
BADD
330
B951
100
AcDbEntity
  8
1
  6
Continuous
100
AcDbCircle
 10
158.4700599999999
 20
264.654083
 30
0.0
 40
33.65563199999999
100
AcDbArc
 50
157.2776909999998
 51
202.722309
  0
ARC
  5
BADE
330
B951
100
AcDbEntity
  8
1
  6
Continuous
100
AcDbCircle
 10
148.490982
 20
264.654083
 30
0.0
 40
18.577934
100
AcDbArc
 50
151.2338039999999
 51
208.766196
  0
LINE
  5
BADF
330
B951
100
AcDbEntity
  8
1
  6
Continuous
100
AcDbLine
 10
138.438971
 20
264.654083
 30
0.0
 11
143.923799
 21
255.1540829999999
 31
0.0
  0
LINE
  5
BAE0
330
B951
100
AcDbEntity
  8
1
  6
Continuous
100
AcDbLine
 10
152.5259889999998
 20
246.687056
 30
0.0
 11
152.205685
 21
246.3667519999999
 31
0.0
  0
LINE
  5
BAE1
330
B951
100
AcDbEntity
  8
1
  6
Continuous
100
AcDbLine
 10
154.373286
 20
246.8326869999999
 30
0.0
 11
154.1598139999998
 21
247.0461589999999
 31
0.0
  0
LINE
  5
BAE2
330
B951
100
AcDbEntity
  8
1
  6
Continuous
100
AcDbLine
 10
149.4333359999999
 20
246.4228299999998
 30
0.0
 11
149.166177
 21
246.155672
 31
0.0
  0
LINE
  5
BAE3
330
B951
100
AcDbEntity
  8
1
  6
Continuous
100
AcDbLine
 10
149.3950309999999
 20
246.154088
 30
0.0
 11
149.1236579999998
 21
246.4254609999999
 31
0.0
  0
LINE
  5
BAE4
330
B951
100
AcDbEntity
  8
1
  6
Continuous
100
AcDbLine
 10
152.03595
 20
246.341596
 30
0.0
 11
151.800398
 21
246.5771479999999
 31
0.0
  0
LINE
  5
BAE5
330
B951
100
AcDbEntity
  8
1
  6
Continuous
100
AcDbLine
 10
144.4661849999999
 20
247.112533
 30
0.0
 11
144.2434249999998
 21
246.889773
 31
0.0
  0
LINE
  5
BAE6
330
B951
100
AcDbEntity
  8
1
  6
Continuous
100
AcDbLine
 10
146.7965899999998
 20
246.6145109999999
 30
0.0
 11
146.5572249999999
 21
246.375146
 31
0.0
  0
LINE
  5
BAE7
330
B951
100
AcDbEntity
  8
1
  6
Continuous
100
AcDbLine
 10
146.304293
 20
246.416399
 30
0.0
 11
145.9648889999999
 21
246.7558019999999
 31
0.0
  0
LINE
  5
BAE8
330
B951
100
AcDbEntity
  8
1
  6
Continuous
100
AcDbLine
 10
140.4733249999999
 20
248.776528
 30
0.0
 11
140.267209
 21
248.5704109999999
 31
0.0
  0
LINE
  5
BAE9
330
B951
100
AcDbEntity
  8
1
  6
Continuous
100
AcDbLine
 10
142.371361
 20
247.8461359999998
 30
0.0
 11
142.1589569999999
 21
247.633733
 31
0.0
  0
LINE
  5
BAEA
330
B951
100
AcDbEntity
  8
1
  6
Continuous
100
AcDbLine
 10
142.330639
 20
247.5616249999999
 30
0.0
 11
141.7897359999998
 21
248.102529
 31
0.0
  0
LINE
  5
BAEB
330
B951
100
AcDbEntity
  8
1
  6
Continuous
100
AcDbLine
 10
143.923799
 20
255.1540829999999
 30
0.0
 11
154.8934539999999
 21
255.1540829999999
 31
0.0
  0
ARC
  5
BAEC
330
B951
100
AcDbEntity
  8
1
  6
Continuous
100
AcDbCircle
 10
149.081973
 20
264.978529
 30
0.0
 40
19.25212699999999
100
AcDbArc
 50
208.7661949999999
 51
231.795329
  0
LINE
  5
BAED
330
B951
100
AcDbEntity
  8
1
  6
Continuous
100
AcDbLine
 10
127.4265169999999
 20
251.654083
 30
0.0
 11
127.1167139999999
 21
249.915829
 31
0.0
  0
ARC
  5
BAEE
330
B951
100
AcDbEntity
  8
1
  6
Continuous
100
AcDbCircle
 10
129.408511
 20
275.1269769999999
 30
0.0
 40
6.770832999999998
100
AcDbArc
 50
51.11993
 51
128.8800699999999
  0
LINE
  5
BAEF
330
B951
100
AcDbEntity
  8
1
  6
Continuous
100
AcDbLine
 10
133.658511
 20
280.39781
 30
0.0
 11
125.158511
 21
280.39781
 31
0.0
  0
LINE
  5
BAF0
330
B951
100
AcDbEntity
  8
1
  6
Continuous
100
AcDbLine
 10
137.187659
 20
251.147716
 30
0.0
 11
136.9856479999999
 21
250.9457049999999
 31
0.0
  0
LINE
  5
BAF1
330
B951
100
AcDbEntity
  8
1
  6
Continuous
100
AcDbLine
 10
138.7496159999998
 20
249.8812459999999
 30
0.0
 11
138.5467889999999
 21
249.678419
 31
0.0
  0
LINE
  5
BAF2
330
B951
100
AcDbEntity
  8
1
  6
Continuous
100
AcDbLine
 10
133.658511
 20
280.39781
 30
0.0
 11
133.658511
 21
279.458083
 31
0.0
  0
LINE
  5
BAF3
330
B951
100
AcDbEntity
  8
1
  6
Continuous
100
AcDbLine
 10
125.158511
 20
280.39781
 30
0.0
 11
125.158511
 21
279.388199
 31
0.0
  0
LINE
  5
BAF4
330
B951
100
AcDbEntity
  8
1
  6
Continuous
100
AcDbLine
 10
131.8254129999999
 20
259.9276049999999
 30
0.0
 11
131.58723
 21
259.6894229999999
 31
0.0
  0
LINE
  5
BAF5
330
B951
100
AcDbEntity
  8
1
  6
Continuous
100
AcDbLine
 10
132.8817819999999
 20
257.0104819999999
 30
0.0
 11
132.316169
 21
257.576096
 31
0.0
  0
LINE
  5
BAF6
330
B951
100
AcDbEntity
  8
1
  6
Continuous
100
AcDbLine
 10
133.4460409999998
 20
255.8913799999999
 30
0.0
 11
133.232302
 21
255.6776399999999
 31
0.0
  0
LINE
  5
BAF7
330
B951
100
AcDbEntity
  8
1
  6
Continuous
100
AcDbLine
 10
134.5325879999998
 20
254.1494989999999
 30
0.0
 11
134.3253179999998
 21
253.942229
 31
0.0
  0
LINE
  5
BAF8
330
B951
100
AcDbEntity
  8
1
  6
Continuous
100
AcDbLine
 10
135.781879
 20
252.5703629999999
 30
0.0
 11
135.578408
 21
252.3668919999999
 31
0.0
  0
LINE
  5
BAF9
330
B951
100
AcDbEntity
  8
1
  6
Continuous
100
AcDbLine
 10
132.535707
 20
257.809472
 30
0.0
 11
132.3121189999999
 21
257.5858839999999
 31
0.0
  0
LINE
  5
BAFA
330
B951
100
AcDbEntity
  8
1
  6
Continuous
100
AcDbLine
 10
131.356401
 20
262.2870209999999
 30
0.0
 11
131.0961389999999
 21
262.0267589999999
 31
0.0
  0
LINE
  5
BAFB
330
B951
100
AcDbEntity
  8
1
  6
Continuous
100
AcDbLine
 10
131.5350559999999
 20
261.1856359999998
 30
0.0
 11
131.1709419999999
 21
261.549749
 31
0.0
  0
LINE
  5
BAFC
330
B951
100
AcDbEntity
  8
1
  6
Continuous
100
AcDbLine
 10
138.438971
 20
264.654083
 30
0.0
 11
143.923799
 21
274.154083
 31
0.0
  0
LINE
  5
BAFD
330
B951
100
AcDbEntity
  8
1
  6
Continuous
100
AcDbLine
 10
143.923799
 20
274.154083
 30
0.0
 11
154.8934539999999
 21
274.154083
 31
0.0
  0
LINE
  5
BAFE
330
B951
100
AcDbEntity
  8
1
  6
Continuous
100
AcDbLine
 10
152.5259889999998
 20
282.62111
 30
0.0
 11
152.205685
 21
282.9414129999999
 31
0.0
  0
LINE
  5
BAFF
330
B951
100
AcDbEntity
  8
1
  6
Continuous
100
AcDbLine
 10
154.373286
 20
282.475479
 30
0.0
 11
154.1598139999998
 21
282.2620059999998
 31
0.0
  0
LINE
  5
BB00
330
B951
100
AcDbEntity
  8
1
  6
Continuous
100
AcDbLine
 10
149.3950309999999
 20
283.1540779999999
 30
0.0
 11
149.1236579999998
 21
282.882705
 31
0.0
  0
LINE
  5
BB01
330
B951
100
AcDbEntity
  8
1
  6
Continuous
100
AcDbLine
 10
152.03595
 20
282.9665699999999
 30
0.0
 11
151.800398
 21
282.7310179999999
 31
0.0
  0
LINE
  5
BB02
330
B951
100
AcDbEntity
  8
1
  6
Continuous
100
AcDbLine
 10
149.4333359999999
 20
282.885335
 30
0.0
 11
149.166177
 21
283.1524939999998
 31
0.0
  0
LINE
  5
BB03
330
B951
100
AcDbEntity
  8
1
  6
Continuous
100
AcDbLine
 10
146.304293
 20
282.891767
 30
0.0
 11
145.9648889999999
 21
282.552363
 31
0.0
  0
LINE
  5
BB04
330
B951
100
AcDbEntity
  8
1
  6
Continuous
100
AcDbLine
 10
144.4661849999999
 20
282.1956329999998
 30
0.0
 11
144.2434249999998
 21
282.4183919999999
 31
0.0
  0
LINE
  5
BB05
330
B951
100
AcDbEntity
  8
1
  6
Continuous
100
AcDbLine
 10
146.7965899999998
 20
282.6936539999999
 30
0.0
 11
146.5572249999999
 21
282.9330189999998
 31
0.0
  0
LINE
  5
BB06
330
B951
100
AcDbEntity
  8
1
  6
Continuous
100
AcDbLine
 10
142.330639
 20
281.7465399999999
 30
0.0
 11
141.7897359999998
 21
281.205637
 31
0.0
  0
LINE
  5
BB07
330
B951
100
AcDbEntity
  8
1
  6
Continuous
100
AcDbLine
 10
140.4733249999999
 20
280.5316379999998
 30
0.0
 11
140.267209
 21
280.737754
 31
0.0
  0
LINE
  5
BB08
330
B951
100
AcDbEntity
  8
1
  6
Continuous
100
AcDbLine
 10
142.371361
 20
281.4620289999999
 30
0.0
 11
142.1589569999999
 21
281.674433
 31
0.0
  0
ARC
  5
BB09
330
B951
100
AcDbEntity
  8
1
  6
Continuous
100
AcDbCircle
 10
149.081973
 20
264.3296359999999
 30
0.0
 40
19.25212699999999
100
AcDbArc
 50
128.2046709999999
 51
151.2338049999999
  0
LINE
  5
BB0A
330
B951
100
AcDbEntity
  8
1
  6
Continuous
100
AcDbLine
 10
131.8254129999999
 20
269.38056
 30
0.0
 11
131.58723
 21
269.618743
 31
0.0
  0
LINE
  5
BB0B
330
B951
100
AcDbEntity
  8
1
  6
Continuous
100
AcDbLine
 10
132.8817819999999
 20
272.2976829999999
 30
0.0
 11
132.316169
 21
271.73207
 31
0.0
  0
LINE
  5
BB0C
330
B951
100
AcDbEntity
  8
1
  6
Continuous
100
AcDbLine
 10
132.535707
 20
271.498693
 30
0.0
 11
132.3121189999999
 21
271.7222819999999
 31
0.0
  0
LINE
  5
BB0D
330
B951
100
AcDbEntity
  8
1
  6
Continuous
100
AcDbLine
 10
133.4460409999998
 20
273.4167859999999
 30
0.0
 11
133.232302
 21
273.6305259999999
 31
0.0
  0
LINE
  5
BB0E
330
B951
100
AcDbEntity
  8
1
  6
Continuous
100
AcDbLine
 10
131.5350559999999
 20
268.1225299999999
 30
0.0
 11
131.1709419999999
 21
267.758416
 31
0.0
  0
LINE
  5
BB0F
330
B951
100
AcDbEntity
  8
1
  6
Continuous
100
AcDbLine
 10
131.204714
 20
264.9637609999999
 30
0.0
 11
130.908631
 21
264.6676779999999
 31
0.0
  0
LINE
  5
BB10
330
B951
100
AcDbEntity
  8
1
  6
Continuous
100
AcDbLine
 10
131.204714
 20
264.3444049999998
 30
0.0
 11
130.908631
 21
264.6404879999999
 31
0.0
  0
LINE
  5
BB11
330
B951
100
AcDbEntity
  8
1
  6
Continuous
100
AcDbLine
 10
131.356401
 20
267.021145
 30
0.0
 11
131.0961389999999
 21
267.281407
 31
0.0
  0
ARC
  5
BB12
330
B951
100
AcDbEntity
  8
1
  6
Continuous
100
AcDbCircle
 10
129.4229899999999
 20
255.1911779999998
 30
0.0
 40
6.779940999999999
100
AcDbArc
 50
231.5594249999998
 51
308.021569
  0
LINE
  5
BB13
330
B951
100
AcDbEntity
  8
1
  6
Continuous
100
AcDbLine
 10
137.187659
 20
278.16045
 30
0.0
 11
136.9856479999999
 21
278.36246
 31
0.0
  0
LINE
  5
BB14
330
B951
100
AcDbEntity
  8
1
  6
Continuous
100
AcDbLine
 10
138.7496159999998
 20
279.426919
 30
0.0
 11
138.5467889999999
 21
279.629746
 31
0.0
  0
LINE
  5
BB15
330
B951
100
AcDbEntity
  8
1
  6
Continuous
100
AcDbLine
 10
134.5325879999998
 20
275.158666
 30
0.0
 11
134.3253179999998
 21
275.3659369999999
 31
0.0
  0
LINE
  5
BB16
330
B951
100
AcDbEntity
  8
1
  6
Continuous
100
AcDbLine
 10
135.781879
 20
276.7378029999998
 30
0.0
 11
135.578408
 21
276.941274
 31
0.0
  0
LINE
  5
BB17
330
B951
100
AcDbEntity
  8
1
  6
Continuous
100
AcDbLine
 10
127.4265169999999
 20
277.654083
 30
0.0
 11
127.1167139999999
 21
279.3923369999999
 31
0.0
  0
LINE
  5
BB18
330
B951
100
AcDbEntity
  8
1
  6
Continuous
100
AcDbLine
 10
215.0168449999999
 20
187.8146609999998
 30
0.0
 11
215.0168449999999
 21
192.761303
 31
0.0
  0
LINE
  5
BB19
330
B951
100
AcDbEntity
  8
1
  6
Continuous
100
AcDbLine
 10
224.5168449999999
 20
187.8114779999999
 30
0.0
 11
224.5168449999999
 21
192.761303
 31
0.0
  0
LINE
  5
BB1A
330
B951
100
AcDbEntity
  8
1
  6
Continuous
100
AcDbLine
 10
234.0168449999999
 20
187.808296
 30
0.0
 11
234.0168449999999
 21
192.761303
 31
0.0
  0
ARC
  5
BB1B
330
B951
100
AcDbEntity
  8
1
  6
Continuous
100
AcDbCircle
 10
149.4086259999999
 20
264.654083
 30
0.0
 40
19.0
100
AcDbArc
 50
236.797659
 51
123.2023409999999
  0
ARC
  5
BB1C
330
B951
100
AcDbEntity
  8
1
  6
Continuous
100
AcDbCircle
 10
65.330673
 20
179.072275
 30
0.0
 40
7.398747999999997
100
AcDbArc
 50
87.773137
 51
89.964416
  0
LINE
  5
BB1D
330
B951
100
AcDbEntity
  8
1
  6
Continuous
100
AcDbLine
 10
65.85585999999999
 20
182.857773
 30
0.0
 11
63.85585999999999
 21
184.4717729999999
 31
0.0
  0
LINE
  5
BB1E
330
B951
100
AcDbEntity
  8
1
  6
Continuous
100
AcDbLine
 10
64.684287
 20
182.857773
 30
0.0
 11
66.68428699999998
 21
184.4717729999999
 31
0.0
  0
LINE
  5
BB1F
330
B951
100
AcDbEntity
  8
1
  6
Continuous
100
AcDbLine
 10
66.799511
 20
183.328336
 30
0.0
 11
65.27007399999999
 21
184.4717729999999
 31
0.0
  0
LINE
  5
BB20
330
B951
100
AcDbEntity
  8
1
  6
Continuous
100
AcDbLine
 10
29.799511
 20
184.4717729999999
 30
0.0
 11
66.799511
 21
184.4717729999999
 31
0.0
  0
LINE
  5
BB21
330
B951
100
AcDbEntity
  8
1
  6
Continuous
100
AcDbLine
 10
30.07424099999999
 20
186.0936909999999
 30
0.0
 11
66.50605300000001
 21
185.9520239999999
 31
0.0
  0
ARC
  5
BB22
330
B951
100
AcDbEntity
  8
1
  6
Continuous
100
AcDbCircle
 10
34.50322399999999
 20
184.427257
 30
0.0
 40
3.347351
100
AcDbArc
 50
104.0908519999999
 51
127.3270289999999
  0
LINE
  5
BB23
330
B951
100
AcDbEntity
  8
1
  6
Continuous
100
AcDbLine
 10
33.571589
 20
182.857773
 30
0.0
 11
35.57158900000001
 21
184.4717729999999
 31
0.0
  0
LINE
  5
BB24
330
B951
100
AcDbEntity
  8
1
  6
Continuous
100
AcDbLine
 10
32.157375
 20
182.857773
 30
0.0
 11
34.157375
 21
184.4717729999999
 31
0.0
  0
LINE
  5
BB25
330
B951
100
AcDbEntity
  8
1
  6
Continuous
100
AcDbLine
 10
34.743162
 20
182.857773
 30
0.0
 11
32.74316199999999
 21
184.4717729999999
 31
0.0
  0
LINE
  5
BB26
330
B951
100
AcDbEntity
  8
1
  6
Continuous
100
AcDbLine
 10
65.335268
 20
186.471022
 30
0.0
 11
31.607839
 21
186.4919689999999
 31
0.0
  0
LINE
  5
BB27
330
B951
100
AcDbEntity
  8
1
  6
Continuous
100
AcDbLine
 10
29.799511
 20
184.4717729999999
 30
0.0
 11
29.799511
 21
182.857773
 31
0.0
  0
LINE
  5
BB28
330
B951
100
AcDbEntity
  8
1
  6
Continuous
100
AcDbLine
 10
30.97153
 20
186.4672389999999
 30
0.0
 11
31.57844600000001
 21
186.4913929999999
 31
0.0
  0
ARC
  5
BB29
330
B951
100
AcDbEntity
  8
1
  6
Continuous
100
AcDbCircle
 10
31.607387
 20
185.764186
 30
0.0
 40
0.727783
100
AcDbArc
 50
89.964416
 51
92.27906199999999
  0
LINE
  5
BB2A
330
B951
100
AcDbEntity
  8
1
  6
Continuous
100
AcDbLine
 10
30.51028499999999
 20
184.4717729999999
 30
0.0
 11
30.312649
 21
184.8452179999999
 31
0.0
  0
LINE
  5
BB2B
330
B951
100
AcDbEntity
  8
1
  6
Continuous
100
AcDbLine
 10
30.312649
 20
184.8452179999999
 30
0.0
 11
30.074961
 21
185.554677
 31
0.0
  0
ARC
  5
BB2C
330
B951
100
AcDbEntity
  8
1
  6
Continuous
100
AcDbCircle
 10
31.228645
 20
185.825727
 30
0.0
 40
1.185095999999999
100
AcDbArc
 50
166.9317139999998
 51
193.2214489999998
  0
LINE
  5
BB2D
330
B951
100
AcDbEntity
  8
1
  6
Continuous
100
AcDbLine
 10
30.07424099999999
 20
186.0936909999999
 30
0.0
 11
30.311307
 21
186.2682519999999
 31
0.0
  0
ARC
  5
BB2E
330
B951
100
AcDbEntity
  8
1
  6
Continuous
100
AcDbCircle
 10
31.335131
 20
184.0660599999999
 30
0.0
 40
2.428551999999998
100
AcDbArc
 50
98.61064800000001
 51
114.9342409999998
  0
LINE
  5
BB2F
330
B951
100
AcDbEntity
  8
1
  6
Continuous
100
AcDbLine
 10
30.743162
 20
182.857773
 30
0.0
 11
32.74316199999999
 21
184.4717729999999
 31
0.0
  0
LINE
  5
BB30
330
B951
100
AcDbEntity
  8
1
  6
Continuous
100
AcDbLine
 10
29.799511
 20
183.328336
 30
0.0
 11
31.32894799999998
 21
184.4717729999999
 31
0.0
  0
LINE
  5
BB31
330
B951
100
AcDbEntity
  8
1
  6
Continuous
100
AcDbLine
 10
29.799511
 20
184.3565489999998
 30
0.0
 11
29.91473499999999
 21
184.4717729999999
 31
0.0
  0
LINE
  5
BB32
330
B951
100
AcDbEntity
  8
1
  6
Continuous
100
AcDbLine
 10
31.91473499999998
 20
182.857773
 30
0.0
 11
29.91473499999999
 21
184.4717729999999
 31
0.0
  0
LINE
  5
BB33
330
B951
100
AcDbEntity
  8
1
  6
Continuous
100
AcDbLine
 10
29.799511
 20
183.558783
 30
0.0
 11
30.500521
 21
182.857773
 31
0.0
  0
LINE
  5
BB34
330
B951
100
AcDbEntity
  8
1
  6
Continuous
100
AcDbLine
 10
33.328948
 20
182.857773
 30
0.0
 11
31.32894799999998
 21
184.4717729999999
 31
0.0
  0
ARC
  5
BB35
330
B951
100
AcDbEntity
  8
1
  6
Continuous
100
AcDbCircle
 10
35.551588
 20
183.0524279999999
 30
0.0
 40
5.076287999999999
100
AcDbArc
 50
127.3270289999999
 51
137.347955
  0
LINE
  5
BB36
330
B951
100
AcDbEntity
  8
1
  6
Continuous
100
AcDbLine
 10
54.299473
 20
192.7616559999999
 30
0.0
 11
54.299473
 21
206.7616559999999
 31
0.0
  0
LINE
  5
BB37
330
B951
100
AcDbEntity
  8
1
  6
Continuous
100
AcDbLine
 10
42.299473
 20
192.7616559999999
 30
0.0
 11
42.299473
 21
206.7616559999999
 31
0.0
  0
LINE
  5
BB38
330
B951
100
AcDbEntity
  8
1
  6
Continuous
100
AcDbLine
 10
47.71372399999999
 20
182.857773
 30
0.0
 11
49.71372399999999
 21
184.4717729999999
 31
0.0
  0
LINE
  5
BB39
330
B951
100
AcDbEntity
  8
1
  6
Continuous
100
AcDbLine
 10
49.127938
 20
182.857773
 30
0.0
 11
51.127938
 21
184.4717729999999
 31
0.0
  0
LINE
  5
BB3A
330
B951
100
AcDbEntity
  8
1
  6
Continuous
100
AcDbLine
 10
50.29951099999999
 20
182.857773
 30
0.0
 11
48.29951099999998
 21
184.4717729999999
 31
0.0
  0
LINE
  5
BB3B
330
B951
100
AcDbEntity
  8
1
  6
Continuous
100
AcDbLine
 10
57.79947299999999
 20
192.7616559999999
 30
0.0
 11
38.79947299999999
 21
192.7616559999999
 31
0.0
  0
LINE
  5
BB3C
330
B951
100
AcDbEntity
  8
1
  6
Continuous
100
AcDbLine
 10
34.84282
 20
187.816382
 30
0.0
 11
61.71164499999999
 21
187.807382
 31
0.0
  0
LINE
  5
BB3D
330
B951
100
AcDbEntity
  8
1
  6
Continuous
100
AcDbLine
 10
46.29951099999998
 20
182.857773
 30
0.0
 11
48.29951099999998
 21
184.4717729999999
 31
0.0
  0
LINE
  5
BB3E
330
B951
100
AcDbEntity
  8
1
  6
Continuous
100
AcDbLine
 10
48.88529699999999
 20
182.857773
 30
0.0
 11
46.88529699999999
 21
184.4717729999999
 31
0.0
  0
LINE
  5
BB3F
330
B951
100
AcDbEntity
  8
1
  6
Continuous
100
AcDbLine
 10
47.47108400000001
 20
182.857773
 30
0.0
 11
45.47108399999999
 21
184.4717729999999
 31
0.0
  0
LINE
  5
BB40
330
B951
100
AcDbEntity
  8
1
  6
Continuous
100
AcDbLine
 10
44.88529699999999
 20
182.857773
 30
0.0
 11
46.88529699999999
 21
184.4717729999999
 31
0.0
  0
LINE
  5
BB41
330
B951
100
AcDbEntity
  8
1
  6
Continuous
100
AcDbLine
 10
43.47108399999998
 20
182.857773
 30
0.0
 11
45.47108399999999
 21
184.4717729999999
 31
0.0
  0
LINE
  5
BB42
330
B951
100
AcDbEntity
  8
1
  6
Continuous
100
AcDbLine
 10
46.05687
 20
182.857773
 30
0.0
 11
44.05687
 21
184.4717729999999
 31
0.0
  0
ARC
  5
BB43
330
B951
100
AcDbEntity
  8
1
  6
Continuous
100
AcDbCircle
 10
34.841234
 20
183.0806719999999
 30
0.0
 40
4.73571
100
AcDbArc
 50
89.980807
 51
104.0908519999999
  0
LINE
  5
BB44
330
B951
100
AcDbEntity
  8
1
  6
Continuous
100
AcDbLine
 10
39.22844299999999
 20
182.857773
 30
0.0
 11
41.22844299999999
 21
184.4717729999999
 31
0.0
  0
LINE
  5
BB45
330
B951
100
AcDbEntity
  8
1
  6
Continuous
100
AcDbLine
 10
37.81423
 20
182.857773
 30
0.0
 11
39.81423
 21
184.4717729999999
 31
0.0
  0
LINE
  5
BB46
330
B951
100
AcDbEntity
  8
1
  6
Continuous
100
AcDbLine
 10
40.400016
 20
182.857773
 30
0.0
 11
38.400016
 21
184.4717729999999
 31
0.0
  0
LINE
  5
BB47
330
B951
100
AcDbEntity
  8
1
  6
Continuous
100
AcDbLine
 10
34.985802
 20
182.857773
 30
0.0
 11
36.985802
 21
184.4717729999999
 31
0.0
  0
LINE
  5
BB48
330
B951
100
AcDbEntity
  8
1
  6
Continuous
100
AcDbLine
 10
36.157375
 20
182.857773
 30
0.0
 11
34.157375
 21
184.4717729999999
 31
0.0
  0
LINE
  5
BB49
330
B951
100
AcDbEntity
  8
1
  6
Continuous
100
AcDbLine
 10
36.400016
 20
182.857773
 30
0.0
 11
38.400016
 21
184.4717729999999
 31
0.0
  0
LINE
  5
BB4A
330
B951
100
AcDbEntity
  8
1
  6
Continuous
100
AcDbLine
 10
38.98580199999999
 20
182.857773
 30
0.0
 11
36.985802
 21
184.4717729999999
 31
0.0
  0
LINE
  5
BB4B
330
B951
100
AcDbEntity
  8
1
  6
Continuous
100
AcDbLine
 10
37.571589
 20
182.857773
 30
0.0
 11
35.57158900000001
 21
184.4717729999999
 31
0.0
  0
LINE
  5
BB4C
330
B951
100
AcDbEntity
  8
1
  6
Continuous
100
AcDbLine
 10
40.64265699999999
 20
182.857773
 30
0.0
 11
42.642657
 21
184.4717729999999
 31
0.0
  0
LINE
  5
BB4D
330
B951
100
AcDbEntity
  8
1
  6
Continuous
100
AcDbLine
 10
43.22844299999998
 20
182.857773
 30
0.0
 11
41.22844299999999
 21
184.4717729999999
 31
0.0
  0
LINE
  5
BB4E
330
B951
100
AcDbEntity
  8
1
  6
Continuous
100
AcDbLine
 10
41.81423
 20
182.857773
 30
0.0
 11
39.81423
 21
184.4717729999999
 31
0.0
  0
LINE
  5
BB4F
330
B951
100
AcDbEntity
  8
1
  6
Continuous
100
AcDbLine
 10
42.05687
 20
182.857773
 30
0.0
 11
44.05687
 21
184.4717729999999
 31
0.0
  0
LINE
  5
BB50
330
B951
100
AcDbEntity
  8
1
  6
Continuous
100
AcDbLine
 10
44.642657
 20
182.857773
 30
0.0
 11
42.642657
 21
184.4717729999999
 31
0.0
  0
ARC
  5
BB51
330
B951
100
AcDbEntity
  8
1
  6
Continuous
100
AcDbCircle
 10
61.71009999999998
 20
183.194324
 30
0.0
 40
4.613057999999998
100
AcDbArc
 50
72.227168
 51
89.980807
  0
LINE
  5
BB52
330
B951
100
AcDbEntity
  8
1
  6
Continuous
100
AcDbLine
 10
61.85586
 20
182.857773
 30
0.0
 11
63.85585999999999
 21
184.4717729999999
 31
0.0
  0
LINE
  5
BB53
330
B951
100
AcDbEntity
  8
1
  6
Continuous
100
AcDbLine
 10
63.270074
 20
182.857773
 30
0.0
 11
65.27007399999999
 21
184.4717729999999
 31
0.0
  0
LINE
  5
BB54
330
B951
100
AcDbEntity
  8
1
  6
Continuous
100
AcDbLine
 10
64.441647
 20
182.857773
 30
0.0
 11
62.44164699999998
 21
184.4717729999999
 31
0.0
  0
LINE
  5
BB55
330
B951
100
AcDbEntity
  8
1
  6
Continuous
100
AcDbLine
 10
61.61321899999999
 20
182.857773
 30
0.0
 11
59.61321899999999
 21
184.4717729999999
 31
0.0
  0
LINE
  5
BB56
330
B951
100
AcDbEntity
  8
1
  6
Continuous
100
AcDbLine
 10
60.44164699999999
 20
182.857773
 30
0.0
 11
62.44164699999998
 21
184.4717729999999
 31
0.0
  0
LINE
  5
BB57
330
B951
100
AcDbEntity
  8
1
  6
Continuous
100
AcDbLine
 10
63.02743299999999
 20
182.857773
 30
0.0
 11
61.027433
 21
184.4717729999999
 31
0.0
  0
ARC
  5
BB58
330
B951
100
AcDbEntity
  8
1
  6
Continuous
100
AcDbCircle
 10
62.0848
 20
184.3632839999999
 30
0.0
 40
3.385511999999998
100
AcDbArc
 50
38.512552
 51
72.227168
  0
LINE
  5
BB59
330
B951
100
AcDbEntity
  8
1
  6
Continuous
100
AcDbLine
 10
54.784792
 20
182.857773
 30
0.0
 11
56.784792
 21
184.4717729999999
 31
0.0
  0
LINE
  5
BB5A
330
B951
100
AcDbEntity
  8
1
  6
Continuous
100
AcDbLine
 10
55.95636500000001
 20
182.857773
 30
0.0
 11
53.95636500000001
 21
184.4717729999999
 31
0.0
  0
LINE
  5
BB5B
330
B951
100
AcDbEntity
  8
1
  6
Continuous
100
AcDbLine
 10
57.37057899999999
 20
182.857773
 30
0.0
 11
55.370579
 21
184.4717729999999
 31
0.0
  0
LINE
  5
BB5C
330
B951
100
AcDbEntity
  8
1
  6
Continuous
100
AcDbLine
 10
50.542152
 20
182.857773
 30
0.0
 11
52.542152
 21
184.4717729999999
 31
0.0
  0
LINE
  5
BB5D
330
B951
100
AcDbEntity
  8
1
  6
Continuous
100
AcDbLine
 10
51.713724
 20
182.857773
 30
0.0
 11
49.71372399999999
 21
184.4717729999999
 31
0.0
  0
LINE
  5
BB5E
330
B951
100
AcDbEntity
  8
1
  6
Continuous
100
AcDbLine
 10
53.127938
 20
182.857773
 30
0.0
 11
51.127938
 21
184.4717729999999
 31
0.0
  0
LINE
  5
BB5F
330
B951
100
AcDbEntity
  8
1
  6
Continuous
100
AcDbLine
 10
51.95636499999999
 20
182.857773
 30
0.0
 11
53.95636500000001
 21
184.4717729999999
 31
0.0
  0
LINE
  5
BB60
330
B951
100
AcDbEntity
  8
1
  6
Continuous
100
AcDbLine
 10
53.37057900000002
 20
182.857773
 30
0.0
 11
55.370579
 21
184.4717729999999
 31
0.0
  0
LINE
  5
BB61
330
B951
100
AcDbEntity
  8
1
  6
Continuous
100
AcDbLine
 10
54.542152
 20
182.857773
 30
0.0
 11
52.542152
 21
184.4717729999999
 31
0.0
  0
LINE
  5
BB62
330
B951
100
AcDbEntity
  8
1
  6
Continuous
100
AcDbLine
 10
56.19900600000001
 20
182.857773
 30
0.0
 11
58.199006
 21
184.4717729999999
 31
0.0
  0
LINE
  5
BB63
330
B951
100
AcDbEntity
  8
1
  6
Continuous
100
AcDbLine
 10
58.78479200000001
 20
182.857773
 30
0.0
 11
56.784792
 21
184.4717729999999
 31
0.0
  0
LINE
  5
BB64
330
B951
100
AcDbEntity
  8
1
  6
Continuous
100
AcDbLine
 10
59.027433
 20
182.857773
 30
0.0
 11
61.027433
 21
184.4717729999999
 31
0.0
  0
LINE
  5
BB65
330
B951
100
AcDbEntity
  8
1
  6
Continuous
100
AcDbLine
 10
60.19900599999999
 20
182.857773
 30
0.0
 11
58.199006
 21
184.4717729999999
 31
0.0
  0
LINE
  5
BB66
330
B951
100
AcDbEntity
  8
1
  6
Continuous
100
AcDbLine
 10
57.61321899999999
 20
182.857773
 30
0.0
 11
59.61321899999999
 21
184.4717729999999
 31
0.0
  0
LINE
  5
BB67
330
B951
100
AcDbEntity
  8
1
  6
Continuous
100
AcDbLine
 10
43.29947299999999
 20
207.761656
 30
0.0
 11
53.299473
 21
207.761656
 31
0.0
  0
LINE
  5
BB68
330
B951
100
AcDbEntity
  8
1
  6
Continuous
100
AcDbLine
 10
42.299473
 20
206.7616559999999
 30
0.0
 11
54.299473
 21
206.7616559999999
 31
0.0
  0
LINE
  5
BB69
330
B951
100
AcDbEntity
  8
1
  6
Continuous
100
AcDbLine
 10
42.299473
 20
206.7616559999999
 30
0.0
 11
43.29947299999999
 21
207.761656
 31
0.0
  0
LINE
  5
BB6A
330
B951
100
AcDbEntity
  8
1
  6
Continuous
100
AcDbLine
 10
54.299473
 20
206.7616559999999
 30
0.0
 11
53.299473
 21
207.761656
 31
0.0
  0
LINE
  5
BB6B
330
B951
100
AcDbEntity
  8
1
  6
Continuous
100
AcDbLine
 10
66.799511
 20
184.4717729999999
 30
0.0
 11
66.799511
 21
182.857773
 31
0.0
  0
ARC
  5
BB6C
330
B951
100
AcDbEntity
  8
1
  6
Continuous
100
AcDbCircle
 10
65.72458399999999
 20
185.4446519999999
 30
0.0
 40
0.9317299999999999
100
AcDbArc
 50
32.993808
 51
60.92454800000001
  0
LINE
  5
BB6D
330
B951
100
AcDbEntity
  8
1
  6
Continuous
100
AcDbLine
 10
66.01220500000001
 20
184.4717729999999
 30
0.0
 11
66.133564
 21
184.7222679999999
 31
0.0
  0
ARC
  5
BB6E
330
B951
100
AcDbEntity
  8
1
  6
Continuous
100
AcDbCircle
 10
65.55663199999999
 20
185.277835
 30
0.0
 40
0.800941
100
AcDbArc
 50
316.080757
 51
349.8717619999998
  0
LINE
  5
BB6F
330
B951
100
AcDbEntity
  8
1
  6
Continuous
100
AcDbLine
 10
66.444773
 20
185.4091689999999
 30
0.0
 11
66.50605300000001
 21
185.9520239999999
 31
0.0
  0
ARC
  5
BB70
330
B951
100
AcDbEntity
  8
1
  6
Continuous
100
AcDbCircle
 10
65.835559
 20
185.4779399999999
 30
0.0
 40
0.613084
100
AcDbArc
 50
326.211697
 51
353.5594259999998
  0
LINE
  5
BB71
330
B951
100
AcDbEntity
  8
1
  6
Continuous
100
AcDbLine
 10
66.098501
 20
182.857773
 30
0.0
 11
66.799511
 21
183.558783
 31
0.0
  0
LINE
  5
BB72
330
B951
100
AcDbEntity
  8
1
  6
Continuous
100
AcDbLine
 10
66.799511
 20
184.3565489999998
 30
0.0
 11
66.68428699999998
 21
184.4717729999999
 31
0.0
  0
ARC
  5
BB73
330
B951
100
AcDbEntity
  8
1
  6
Continuous
100
AcDbCircle
 10
65.231703
 20
184.558226
 30
0.0
 40
1.945969999999999
100
AcDbArc
 50
60.92454800000001
 51
78.54525399999999
  0
LINE
  5
BB74
330
B951
100
AcDbEntity
  8
1
  6
Continuous
100
AcDbLine
 10
38.79951099999999
 20
187.8150139999999
 30
0.0
 11
38.79951099999999
 21
192.7616559999999
 31
0.0
  0
LINE
  5
BB75
330
B951
100
AcDbEntity
  8
1
  6
Continuous
100
AcDbLine
 10
57.79951099999999
 20
187.808649
 30
0.0
 11
57.79951099999999
 21
192.7616559999999
 31
0.0
  0
LINE
  5
BB76
330
B951
100
AcDbEntity
  8
1
  6
Continuous
100
AcDbLine
 10
48.29951099999998
 20
187.8118309999999
 30
0.0
 11
48.29951099999998
 21
192.7616559999999
 31
0.0
  0
ARC
  5
BB77
330
B951
100
AcDbEntity
  8
1
  6
Continuous
100
AcDbCircle
 10
166.4393499999999
 20
179.099103
 30
0.0
 40
7.398747999999997
100
AcDbArc
 50
87.773137
 51
89.964416
  0
LINE
  5
BB78
330
B951
100
AcDbEntity
  8
1
  6
Continuous
100
AcDbLine
 10
166.964537
 20
182.9176009999999
 30
0.0
 11
164.9645369999998
 21
184.498601
 31
0.0
  0
LINE
  5
BB79
330
B951
100
AcDbEntity
  8
1
  6
Continuous
100
AcDbLine
 10
165.7929639999998
 20
182.9176009999999
 30
0.0
 11
167.7929639999999
 21
184.498601
 31
0.0
  0
LINE
  5
BB7A
330
B951
100
AcDbEntity
  8
1
  6
Continuous
100
AcDbLine
 10
167.908188
 20
183.3881639999999
 30
0.0
 11
166.3787509999998
 21
184.498601
 31
0.0
  0
LINE
  5
BB7B
330
B951
100
AcDbEntity
  8
1
  6
Continuous
100
AcDbLine
 10
130.9081879999999
 20
184.498601
 30
0.0
 11
167.908188
 21
184.498601
 31
0.0
  0
LINE
  5
BB7C
330
B951
100
AcDbEntity
  8
1
  6
Continuous
100
AcDbLine
 10
131.1829179999998
 20
186.1205189999998
 30
0.0
 11
167.61473
 21
185.978852
 31
0.0
  0
ARC
  5
BB7D
330
B951
100
AcDbEntity
  8
1
  6
Continuous
100
AcDbCircle
 10
135.611901
 20
184.4540849999999
 30
0.0
 40
3.347351
100
AcDbArc
 50
104.0908519999999
 51
127.3270289999999
  0
LINE
  5
BB7E
330
B951
100
AcDbEntity
  8
1
  6
Continuous
100
AcDbLine
 10
134.6802659999999
 20
182.9176009999999
 30
0.0
 11
136.6802659999999
 21
184.498601
 31
0.0
  0
LINE
  5
BB7F
330
B951
100
AcDbEntity
  8
1
  6
Continuous
100
AcDbLine
 10
133.266052
 20
182.9176009999999
 30
0.0
 11
135.266052
 21
184.498601
 31
0.0
  0
LINE
  5
BB80
330
B951
100
AcDbEntity
  8
1
  6
Continuous
100
AcDbLine
 10
135.8518389999999
 20
182.9176009999999
 30
0.0
 11
133.8518389999999
 21
184.498601
 31
0.0
  0
LINE
  5
BB81
330
B951
100
AcDbEntity
  8
1
  6
Continuous
100
AcDbLine
 10
166.4439449999998
 20
186.49785
 30
0.0
 11
132.7165159999998
 21
186.518797
 31
0.0
  0
LINE
  5
BB82
330
B951
100
AcDbEntity
  8
1
  6
Continuous
100
AcDbLine
 10
130.9081879999999
 20
184.498601
 30
0.0
 11
130.9081879999999
 21
182.9176009999999
 31
0.0
  0
LINE
  5
BB83
330
B951
100
AcDbEntity
  8
1
  6
Continuous
100
AcDbLine
 10
132.080207
 20
186.494067
 30
0.0
 11
132.6871229999998
 21
186.518221
 31
0.0
  0
ARC
  5
BB84
330
B951
100
AcDbEntity
  8
1
  6
Continuous
100
AcDbCircle
 10
132.716064
 20
185.7910139999999
 30
0.0
 40
0.727783
100
AcDbArc
 50
89.964416
 51
92.27906199999999
  0
LINE
  5
BB85
330
B951
100
AcDbEntity
  8
1
  6
Continuous
100
AcDbLine
 10
131.618962
 20
184.498601
 30
0.0
 11
131.421326
 21
184.8720459999999
 31
0.0
  0
LINE
  5
BB86
330
B951
100
AcDbEntity
  8
1
  6
Continuous
100
AcDbLine
 10
131.421326
 20
184.8720459999999
 30
0.0
 11
131.183638
 21
185.5815049999999
 31
0.0
  0
ARC
  5
BB87
330
B951
100
AcDbEntity
  8
1
  6
Continuous
100
AcDbCircle
 10
132.337322
 20
185.8525549999999
 30
0.0
 40
1.185095999999999
100
AcDbArc
 50
166.9317139999998
 51
193.2214489999998
  0
LINE
  5
BB88
330
B951
100
AcDbEntity
  8
1
  6
Continuous
100
AcDbLine
 10
131.1829179999998
 20
186.1205189999998
 30
0.0
 11
131.419984
 21
186.29508
 31
0.0
  0
ARC
  5
BB89
330
B951
100
AcDbEntity
  8
1
  6
Continuous
100
AcDbCircle
 10
132.4438079999999
 20
184.0928879999999
 30
0.0
 40
2.428551999999998
100
AcDbArc
 50
98.61064800000001
 51
114.9342409999998
  0
LINE
  5
BB8A
330
B951
100
AcDbEntity
  8
1
  6
Continuous
100
AcDbLine
 10
131.8518389999999
 20
182.9176009999999
 30
0.0
 11
133.8518389999999
 21
184.498601
 31
0.0
  0
LINE
  5
BB8B
330
B951
100
AcDbEntity
  8
1
  6
Continuous
100
AcDbLine
 10
130.9081879999999
 20
183.3881639999999
 30
0.0
 11
132.437625
 21
184.498601
 31
0.0
  0
LINE
  5
BB8C
330
B951
100
AcDbEntity
  8
1
  6
Continuous
100
AcDbLine
 10
130.9081879999999
 20
184.3833769999999
 30
0.0
 11
131.023412
 21
184.498601
 31
0.0
  0
LINE
  5
BB8D
330
B951
100
AcDbEntity
  8
1
  6
Continuous
100
AcDbLine
 10
133.023412
 20
182.9176009999999
 30
0.0
 11
131.023412
 21
184.498601
 31
0.0
  0
LINE
  5
BB8E
330
B951
100
AcDbEntity
  8
1
  6
Continuous
100
AcDbLine
 10
130.9081879999999
 20
183.6186109999999
 30
0.0
 11
131.6091979999999
 21
182.9176009999999
 31
0.0
  0
LINE
  5
BB8F
330
B951
100
AcDbEntity
  8
1
  6
Continuous
100
AcDbLine
 10
134.437625
 20
182.9176009999999
 30
0.0
 11
132.437625
 21
184.498601
 31
0.0
  0
ARC
  5
BB90
330
B951
100
AcDbEntity
  8
1
  6
Continuous
100
AcDbCircle
 10
136.6602649999999
 20
183.0792559999999
 30
0.0
 40
5.076287999999999
100
AcDbArc
 50
127.3270289999999
 51
137.347955
  0
LINE
  5
BB91
330
B951
100
AcDbEntity
  8
1
  6
Continuous
100
AcDbLine
 10
155.40815
 20
192.788484
 30
0.0
 11
155.40815
 21
206.788484
 31
0.0
  0
LINE
  5
BB92
330
B951
100
AcDbEntity
  8
1
  6
Continuous
100
AcDbLine
 10
143.40815
 20
192.788484
 30
0.0
 11
143.40815
 21
206.788484
 31
0.0
  0
LINE
  5
BB93
330
B951
100
AcDbEntity
  8
1
  6
Continuous
100
AcDbLine
 10
148.822401
 20
182.9176009999999
 30
0.0
 11
150.822401
 21
184.498601
 31
0.0
  0
LINE
  5
BB94
330
B951
100
AcDbEntity
  8
1
  6
Continuous
100
AcDbLine
 10
150.236615
 20
182.9176009999999
 30
0.0
 11
152.236615
 21
184.498601
 31
0.0
  0
LINE
  5
BB95
330
B951
100
AcDbEntity
  8
1
  6
Continuous
100
AcDbLine
 10
151.4081879999999
 20
182.9176009999999
 30
0.0
 11
149.4081879999999
 21
184.498601
 31
0.0
  0
LINE
  5
BB96
330
B951
100
AcDbEntity
  8
1
  6
Continuous
100
AcDbLine
 10
160.378281
 20
192.788484
 30
0.0
 11
138.438971
 21
192.788484
 31
0.0
  0
LINE
  5
BB97
330
B951
100
AcDbEntity
  8
1
  6
Continuous
100
AcDbLine
 10
135.9514969999999
 20
187.8432099999999
 30
0.0
 11
162.820322
 21
187.83421
 31
0.0
  0
LINE
  5
BB98
330
B951
100
AcDbEntity
  8
1
  6
Continuous
100
AcDbLine
 10
147.4081879999999
 20
182.9176009999999
 30
0.0
 11
149.4081879999999
 21
184.498601
 31
0.0
  0
LINE
  5
BB99
330
B951
100
AcDbEntity
  8
1
  6
Continuous
100
AcDbLine
 10
149.993974
 20
182.9176009999999
 30
0.0
 11
147.993974
 21
184.498601
 31
0.0
  0
LINE
  5
BB9A
330
B951
100
AcDbEntity
  8
1
  6
Continuous
100
AcDbLine
 10
148.5797609999999
 20
182.9176009999999
 30
0.0
 11
146.5797609999999
 21
184.498601
 31
0.0
  0
LINE
  5
BB9B
330
B951
100
AcDbEntity
  8
1
  6
Continuous
100
AcDbLine
 10
145.993974
 20
182.9176009999999
 30
0.0
 11
147.993974
 21
184.498601
 31
0.0
  0
LINE
  5
BB9C
330
B951
100
AcDbEntity
  8
1
  6
Continuous
100
AcDbLine
 10
144.5797609999999
 20
182.9176009999999
 30
0.0
 11
146.5797609999999
 21
184.498601
 31
0.0
  0
LINE
  5
BB9D
330
B951
100
AcDbEntity
  8
1
  6
Continuous
100
AcDbLine
 10
147.1655469999998
 20
182.9176009999999
 30
0.0
 11
145.165547
 21
184.498601
 31
0.0
  0
LINE
  5
BB9E
330
B951
100
AcDbEntity
  8
1
  6
Continuous
100
AcDbLine
 10
143.92336
 20
192.788484
 30
0.0
 11
143.92336
 21
187.84054
 31
0.0
  0
ARC
  5
BB9F
330
B951
100
AcDbEntity
  8
1
  6
Continuous
100
AcDbCircle
 10
135.9499109999999
 20
183.1075
 30
0.0
 40
4.73571
100
AcDbArc
 50
89.980807
 51
104.0908519999999
  0
LINE
  5
BBA0
330
B951
100
AcDbEntity
  8
1
  6
Continuous
100
AcDbLine
 10
140.33712
 20
182.9176009999999
 30
0.0
 11
142.33712
 21
184.498601
 31
0.0
  0
LINE
  5
BBA1
330
B951
100
AcDbEntity
  8
1
  6
Continuous
100
AcDbLine
 10
138.922907
 20
182.9176009999999
 30
0.0
 11
140.922907
 21
184.498601
 31
0.0
  0
LINE
  5
BBA2
330
B951
100
AcDbEntity
  8
1
  6
Continuous
100
AcDbLine
 10
141.508693
 20
182.9176009999999
 30
0.0
 11
139.5086929999999
 21
184.498601
 31
0.0
  0
LINE
  5
BBA3
330
B951
100
AcDbEntity
  8
1
  6
Continuous
100
AcDbLine
 10
136.094479
 20
182.9176009999999
 30
0.0
 11
138.094479
 21
184.498601
 31
0.0
  0
LINE
  5
BBA4
330
B951
100
AcDbEntity
  8
1
  6
Continuous
100
AcDbLine
 10
137.2660519999998
 20
182.9176009999999
 30
0.0
 11
135.266052
 21
184.498601
 31
0.0
  0
LINE
  5
BBA5
330
B951
100
AcDbEntity
  8
1
  6
Continuous
100
AcDbLine
 10
137.5086929999999
 20
182.9176009999999
 30
0.0
 11
139.5086929999999
 21
184.498601
 31
0.0
  0
LINE
  5
BBA6
330
B951
100
AcDbEntity
  8
1
  6
Continuous
100
AcDbLine
 10
140.094479
 20
182.9176009999999
 30
0.0
 11
138.094479
 21
184.498601
 31
0.0
  0
LINE
  5
BBA7
330
B951
100
AcDbEntity
  8
1
  6
Continuous
100
AcDbLine
 10
138.6802659999998
 20
182.9176009999999
 30
0.0
 11
136.6802659999999
 21
184.498601
 31
0.0
  0
LINE
  5
BBA8
330
B951
100
AcDbEntity
  8
1
  6
Continuous
100
AcDbLine
 10
141.751334
 20
182.9176009999999
 30
0.0
 11
143.751334
 21
184.498601
 31
0.0
  0
LINE
  5
BBA9
330
B951
100
AcDbEntity
  8
1
  6
Continuous
100
AcDbLine
 10
144.33712
 20
182.9176009999999
 30
0.0
 11
142.33712
 21
184.498601
 31
0.0
  0
LINE
  5
BBAA
330
B951
100
AcDbEntity
  8
1
  6
Continuous
100
AcDbLine
 10
142.922907
 20
182.9176009999999
 30
0.0
 11
140.922907
 21
184.498601
 31
0.0
  0
LINE
  5
BBAB
330
B951
100
AcDbEntity
  8
1
  6
Continuous
100
AcDbLine
 10
143.165547
 20
182.9176009999999
 30
0.0
 11
145.165547
 21
184.498601
 31
0.0
  0
LINE
  5
BBAC
330
B951
100
AcDbEntity
  8
1
  6
Continuous
100
AcDbLine
 10
145.751334
 20
182.9176009999999
 30
0.0
 11
143.751334
 21
184.498601
 31
0.0
  0
ARC
  5
BBAD
330
B951
100
AcDbEntity
  8
1
  6
Continuous
100
AcDbCircle
 10
162.818777
 20
183.2211519999999
 30
0.0
 40
4.613057999999998
100
AcDbArc
 50
72.227168
 51
89.980807
  0
LINE
  5
BBAE
330
B951
100
AcDbEntity
  8
1
  6
Continuous
100
AcDbLine
 10
162.964537
 20
182.9176009999999
 30
0.0
 11
164.9645369999998
 21
184.498601
 31
0.0
  0
LINE
  5
BBAF
330
B951
100
AcDbEntity
  8
1
  6
Continuous
100
AcDbLine
 10
164.3787509999999
 20
182.9176009999999
 30
0.0
 11
166.3787509999998
 21
184.498601
 31
0.0
  0
LINE
  5
BBB0
330
B951
100
AcDbEntity
  8
1
  6
Continuous
100
AcDbLine
 10
165.5503239999999
 20
182.9176009999999
 30
0.0
 11
163.550324
 21
184.498601
 31
0.0
  0
LINE
  5
BBB1
330
B951
100
AcDbEntity
  8
1
  6
Continuous
100
AcDbLine
 10
162.7218959999999
 20
182.9176009999999
 30
0.0
 11
160.7218959999999
 21
184.498601
 31
0.0
  0
LINE
  5
BBB2
330
B951
100
AcDbEntity
  8
1
  6
Continuous
100
AcDbLine
 10
161.5503239999999
 20
182.9176009999999
 30
0.0
 11
163.550324
 21
184.498601
 31
0.0
  0
LINE
  5
BBB3
330
B951
100
AcDbEntity
  8
1
  6
Continuous
100
AcDbLine
 10
164.13611
 20
182.9176009999999
 30
0.0
 11
162.13611
 21
184.498601
 31
0.0
  0
ARC
  5
BBB4
330
B951
100
AcDbEntity
  8
1
  6
Continuous
100
AcDbCircle
 10
163.1934769999998
 20
184.3901119999999
 30
0.0
 40
3.385511999999998
100
AcDbArc
 50
38.512552
 51
72.227168
  0
LINE
  5
BBB5
330
B951
100
AcDbEntity
  8
1
  6
Continuous
100
AcDbLine
 10
154.8930149999999
 20
192.788484
 30
0.0
 11
154.8930149999999
 21
187.8368649999999
 31
0.0
  0
LINE
  5
BBB6
330
B951
100
AcDbEntity
  8
1
  6
Continuous
100
AcDbLine
 10
155.8934689999999
 20
182.9176009999999
 30
0.0
 11
157.8934689999998
 21
184.498601
 31
0.0
  0
LINE
  5
BBB7
330
B951
100
AcDbEntity
  8
1
  6
Continuous
100
AcDbLine
 10
157.0650419999998
 20
182.9176009999999
 30
0.0
 11
155.065042
 21
184.498601
 31
0.0
  0
LINE
  5
BBB8
330
B951
100
AcDbEntity
  8
1
  6
Continuous
100
AcDbLine
 10
158.4792559999999
 20
182.9176009999999
 30
0.0
 11
156.4792559999998
 21
184.498601
 31
0.0
  0
LINE
  5
BBB9
330
B951
100
AcDbEntity
  8
1
  6
Continuous
100
AcDbLine
 10
151.6508289999999
 20
182.9176009999999
 30
0.0
 11
153.6508289999999
 21
184.498601
 31
0.0
  0
LINE
  5
BBBA
330
B951
100
AcDbEntity
  8
1
  6
Continuous
100
AcDbLine
 10
152.822401
 20
182.9176009999999
 30
0.0
 11
150.822401
 21
184.498601
 31
0.0
  0
LINE
  5
BBBB
330
B951
100
AcDbEntity
  8
1
  6
Continuous
100
AcDbLine
 10
154.236615
 20
182.9176009999999
 30
0.0
 11
152.236615
 21
184.498601
 31
0.0
  0
LINE
  5
BBBC
330
B951
100
AcDbEntity
  8
1
  6
Continuous
100
AcDbLine
 10
153.065042
 20
182.9176009999999
 30
0.0
 11
155.065042
 21
184.498601
 31
0.0
  0
LINE
  5
BBBD
330
B951
100
AcDbEntity
  8
1
  6
Continuous
100
AcDbLine
 10
154.4792559999999
 20
182.9176009999999
 30
0.0
 11
156.4792559999998
 21
184.498601
 31
0.0
  0
LINE
  5
BBBE
330
B951
100
AcDbEntity
  8
1
  6
Continuous
100
AcDbLine
 10
155.650829
 20
182.9176009999999
 30
0.0
 11
153.6508289999999
 21
184.498601
 31
0.0
  0
LINE
  5
BBBF
330
B951
100
AcDbEntity
  8
1
  6
Continuous
100
AcDbLine
 10
157.3076829999999
 20
182.9176009999999
 30
0.0
 11
159.307683
 21
184.498601
 31
0.0
  0
LINE
  5
BBC0
330
B951
100
AcDbEntity
  8
1
  6
Continuous
100
AcDbLine
 10
159.8934689999999
 20
182.9176009999999
 30
0.0
 11
157.8934689999998
 21
184.498601
 31
0.0
  0
LINE
  5
BBC1
330
B951
100
AcDbEntity
  8
1
  6
Continuous
100
AcDbLine
 10
160.13611
 20
182.9176009999999
 30
0.0
 11
162.13611
 21
184.498601
 31
0.0
  0
LINE
  5
BBC2
330
B951
100
AcDbEntity
  8
1
  6
Continuous
100
AcDbLine
 10
161.3076829999999
 20
182.9176009999999
 30
0.0
 11
159.307683
 21
184.498601
 31
0.0
  0
LINE
  5
BBC3
330
B951
100
AcDbEntity
  8
1
  6
Continuous
100
AcDbLine
 10
158.7218959999999
 20
182.9176009999999
 30
0.0
 11
160.7218959999999
 21
184.498601
 31
0.0
  0
LINE
  5
BBC4
330
B951
100
AcDbEntity
  8
1
  6
Continuous
100
AcDbLine
 10
144.40815
 20
207.788484
 30
0.0
 11
154.40815
 21
207.788484
 31
0.0
  0
LINE
  5
BBC5
330
B951
100
AcDbEntity
  8
1
  6
Continuous
100
AcDbLine
 10
143.40815
 20
206.788484
 30
0.0
 11
155.40815
 21
206.788484
 31
0.0
  0
LINE
  5
BBC6
330
B951
100
AcDbEntity
  8
1
  6
Continuous
100
AcDbLine
 10
143.40815
 20
206.788484
 30
0.0
 11
144.40815
 21
207.788484
 31
0.0
  0
LINE
  5
BBC7
330
B951
100
AcDbEntity
  8
1
  6
Continuous
100
AcDbLine
 10
155.40815
 20
206.788484
 30
0.0
 11
154.40815
 21
207.788484
 31
0.0
  0
LINE
  5
BBC8
330
B951
100
AcDbEntity
  8
1
  6
Continuous
100
AcDbLine
 10
167.908188
 20
184.498601
 30
0.0
 11
167.908188
 21
182.9176009999999
 31
0.0
  0
ARC
  5
BBC9
330
B951
100
AcDbEntity
  8
1
  6
Continuous
100
AcDbCircle
 10
166.833261
 20
185.47148
 30
0.0
 40
0.9317299999999999
100
AcDbArc
 50
32.993808
 51
60.92454800000001
  0
LINE
  5
BBCA
330
B951
100
AcDbEntity
  8
1
  6
Continuous
100
AcDbLine
 10
167.1208819999999
 20
184.498601
 30
0.0
 11
167.2422409999998
 21
184.749096
 31
0.0
  0
ARC
  5
BBCB
330
B951
100
AcDbEntity
  8
1
  6
Continuous
100
AcDbCircle
 10
166.665309
 20
185.3046629999998
 30
0.0
 40
0.800941
100
AcDbArc
 50
316.080757
 51
349.8717619999998
  0
LINE
  5
BBCC
330
B951
100
AcDbEntity
  8
1
  6
Continuous
100
AcDbLine
 10
167.5534499999999
 20
185.4359969999999
 30
0.0
 11
167.61473
 21
185.978852
 31
0.0
  0
ARC
  5
BBCD
330
B951
100
AcDbEntity
  8
1
  6
Continuous
100
AcDbCircle
 10
166.9442359999999
 20
185.504768
 30
0.0
 40
0.613084
100
AcDbArc
 50
326.211697
 51
353.5594259999998
  0
LINE
  5
BBCE
330
B951
100
AcDbEntity
  8
1
  6
Continuous
100
AcDbLine
 10
167.207178
 20
182.9176009999999
 30
0.0
 11
167.908188
 21
183.6186109999999
 31
0.0
  0
LINE
  5
BBCF
330
B951
100
AcDbEntity
  8
1
  6
Continuous
100
AcDbLine
 10
167.908188
 20
184.3833769999999
 30
0.0
 11
167.7929639999999
 21
184.498601
 31
0.0
  0
ARC
  5
BBD0
330
B951
100
AcDbEntity
  8
1
  6
Continuous
100
AcDbCircle
 10
166.34038
 20
184.585054
 30
0.0
 40
1.945969999999999
100
AcDbArc
 50
60.92454800000001
 51
78.54525399999999
  0
CIRCLE
  5
BBD1
330
B951
100
AcDbEntity
  8
1
  6
Continuous
100
AcDbCircle
 10
149.4086259999999
 20
264.654083
 30
0.0
 40
6.0
  0
LINE
  5
BBD2
330
B951
100
AcDbEntity
  8
1
  6
Continuous
100
AcDbLine
 10
135.185886
 20
279.4093889999999
 30
0.0
 11
122.1186309999998
 21
279.381775
 31
0.0
  0
LINE
  5
BBD3
330
B951
100
AcDbEntity
  8
1
  6
Continuous
100
AcDbLine
 10
127.318371
 20
277.392758
 30
0.0
 11
122.1186309999998
 21
277.38177
 31
0.0
  0
LINE
  5
BBD4
330
B951
100
AcDbEntity
  8
1
  6
Continuous
100
AcDbLine
 10
135.185886
 20
249.8987769999998
 30
0.0
 11
122.1186309999998
 21
249.926391
 31
0.0
  0
LINE
  5
BBD5
330
B951
100
AcDbEntity
  8
1
  6
Continuous
100
AcDbLine
 10
127.318371
 20
251.915408
 30
0.0
 11
122.1186309999998
 21
251.9263959999999
 31
0.0
  0
LINE
  5
BBD6
330
B951
100
AcDbEntity
  8
1
  6
Continuous
100
AcDbLine
 10
126.8401439999999
 20
253.154083
 30
0.0
 11
120.908173
 21
253.154083
 31
0.0
  0
LINE
  5
BBD7
330
B951
100
AcDbEntity
  8
1
  6
Continuous
100
AcDbLine
 10
126.8401439999999
 20
276.154083
 30
0.0
 11
120.908173
 21
276.154083
 31
0.0
  0
LINE
  5
BBD8
330
B951
100
AcDbEntity
  8
1
  6
Continuous
100
AcDbLine
 10
107.00437
 20
274.654083
 30
0.0
 11
126.334385
 21
274.654083
 31
0.0
  0
LINE
  5
BBD9
330
B951
100
AcDbEntity
  8
1
  6
Continuous
100
AcDbLine
 10
126.334385
 20
254.654083
 30
0.0
 11
107.00437
 21
254.654083
 31
0.0
  0
ARC
  5
BBDA
330
B951
100
AcDbEntity
  8
1
  6
Continuous
100
AcDbCircle
 10
139.408173
 20
264.654083
 30
0.0
 40
35.0
100
AcDbArc
 50
165.2995439999999
 51
194.698424
  0
ARC
  5
BBDB
330
B951
100
AcDbEntity
  8
1
  6
Continuous
100
AcDbCircle
 10
107.004469
 20
256.154083
 30
0.0
 40
1.5
100
AcDbArc
 50
194.698424
 51
270.0
  0
LINE
  5
BBDC
330
B951
100
AcDbEntity
  8
1
  6
Continuous
100
AcDbLine
 10
126.408173
 20
251.9044029999998
 30
0.0
 11
126.408173
 21
253.154083
 31
0.0
  0
LINE
  5
BBDD
330
B951
100
AcDbEntity
  8
1
  6
Continuous
100
AcDbLine
 10
122.1186309999998
 20
251.9263959999999
 30
0.0
 11
122.1186309999998
 21
249.926391
 31
0.0
  0
LINE
  5
BBDE
330
B951
100
AcDbEntity
  8
1
  6
Continuous
100
AcDbLine
 10
120.908173
 20
253.154083
 30
0.0
 11
120.908173
 21
254.654083
 31
0.0
  0
ARC
  5
BBDF
330
B951
100
AcDbEntity
  8
1
  6
Continuous
100
AcDbCircle
 10
107.004469
 20
273.154083
 30
0.0
 40
1.5
100
AcDbArc
 50
90.0
 51
165.301576
  0
LINE
  5
BBE0
330
B951
100
AcDbEntity
  8
1
  6
Continuous
100
AcDbLine
 10
126.408173
 20
276.154083
 30
0.0
 11
126.408173
 21
277.3908349999999
 31
0.0
  0
LINE
  5
BBE1
330
B951
100
AcDbEntity
  8
1
  6
Continuous
100
AcDbLine
 10
122.1186309999998
 20
279.381775
 30
0.0
 11
122.1186309999998
 21
277.38177
 31
0.0
  0
LINE
  5
BBE2
330
B951
100
AcDbEntity
  8
1
  6
Continuous
100
AcDbLine
 10
120.908173
 20
276.154083
 30
0.0
 11
120.908173
 21
274.654083
 31
0.0
  0
ARC
  5
BBE3
330
B951
100
AcDbEntity
  8
1
  6
Continuous
100
AcDbCircle
 10
135.1710929999998
 20
286.409374
 30
0.0
 40
7.0
100
AcDbArc
 50
270.12108
 51
303.2023409999998
  0
ARC
  5
BBE4
330
B951
100
AcDbEntity
  8
1
  6
Continuous
100
AcDbCircle
 10
135.1710929999998
 20
242.898793
 30
0.0
 40
7.0
100
AcDbArc
 50
56.79765899999998
 51
89.87891999999998
  0
LINE
  5
BBE5
330
B951
100
AcDbEntity
  8
4
  6
CENTER
100
AcDbLine
 10
129.408626
 20
286.8978099999998
 30
0.0
 11
129.408626
 21
243.411246
 31
0.0
  0
LINE
  5
BBE6
330
B951
100
AcDbEntity
  8
1
  6
Continuous
100
AcDbLine
 10
281.827471
 20
175.8009969999999
 30
0.0
 11
280.625502
 21
176.1818759999999
 31
0.0
  0
LINE
  5
BBE7
330
B951
100
AcDbEntity
  8
4
  6
CENTER
100
AcDbLine
 10
319.6256169999998
 20
120.788876
 30
0.0
 11
319.6256169999998
 21
176.7888759999999
 31
0.0
  0
LINE
  5
BBE8
330
B951
100
AcDbEntity
  8
1
  6
Continuous
100
AcDbLine
 10
314.169644
 20
178.706421
 30
0.0
 11
314.169644
 21
149.489988
 31
0.0
  0
LINE
  5
BBE9
330
B951
100
AcDbEntity
  8
1
  6
Continuous
100
AcDbLine
 10
322.1973089999999
 20
180.105232
 30
0.0
 11
326.8512059999999
 21
148.7888759999998
 31
0.0
  0
LINE
  5
BBEA
330
B951
100
AcDbEntity
  8
4
  6
CENTER
100
AcDbLine
 10
299.6255019999999
 20
164.964231
 30
0.0
 11
299.6255019999999
 21
212.7884839999999
 31
0.0
  0
LINE
  5
BBEB
330
B951
100
AcDbEntity
  8
4
  6
CENTER
100
AcDbLine
 10
347.6256169999999
 20
148.7888759999998
 30
0.0
 11
291.625617
 21
148.7888759999998
 31
0.0
  0
CIRCLE
  5
BBEC
330
B951
100
AcDbEntity
  8
1
  6
Continuous
100
AcDbCircle
 10
319.6256169999998
 20
148.7888759999998
 30
0.0
 40
4.25
  0
ARC
  5
BBED
330
B951
100
AcDbEntity
  8
1
  6
Continuous
100
AcDbCircle
 10
318.7760819999998
 20
147.770577
 30
0.0
 40
8.139077
100
AcDbArc
 50
212.4742509999999
 51
7.825642999999997
  0
ARC
  5
BBEE
330
B951
100
AcDbEntity
  8
1
  6
Continuous
100
AcDbCircle
 10
319.6256169999998
 20
148.7888759999998
 30
0.0
 40
25.0
100
AcDbArc
 50
145.5697439999999
 51
81.84111699999998
  0
ARC
  5
BBEF
330
B951
100
AcDbEntity
  8
1
  6
Continuous
100
AcDbCircle
 10
319.6256169999998
 20
148.7888759999998
 30
0.0
 40
17.5
100
AcDbArc
 50
155.984338
 51
74.34809
  0
ARC
  5
BBF0
330
B951
100
AcDbEntity
  8
1
  6
Continuous
100
AcDbCircle
 10
319.6256169999998
 20
148.7888759999998
 30
0.0
 40
8.5
100
AcDbArc
 50
300.018198
 51
41.224383
  0
ARC
  5
BBF1
330
B951
100
AcDbEntity
  8
1
  6
Continuous
100
AcDbCircle
 10
284.796694
 20
166.4160309999998
 30
0.0
 40
9.035839999999996
100
AcDbArc
 50
48.378449
 51
60.452662
  0
LINE
  5
BBF2
330
B951
100
AcDbEntity
  8
1
  6
Continuous
100
AcDbLine
 10
298.4395459999999
 20
163.7797929999998
 30
0.0
 11
311.909689
 21
143.4005399999998
 31
0.0
  0
ARC
  5
BBF3
330
B951
100
AcDbEntity
  8
1
  6
Continuous
100
AcDbCircle
 10
362.7944339999999
 20
213.0558029999999
 30
0.0
 40
81.299728
100
AcDbArc
 50
213.904437
 51
214.9632489999999
  0
ARC
  5
BBF4
330
B951
100
AcDbEntity
  8
1
  6
Continuous
100
AcDbCircle
 10
272.913341
 20
152.6481109999998
 30
0.0
 40
26.994778
100
AcDbArc
 50
33.904437
 51
42.287157
  0
ARC
  5
BBF5
330
B951
100
AcDbEntity
  8
1
  6
Continuous
100
AcDbCircle
 10
336.4149049999999
 20
210.404074
 30
0.0
 40
58.84344099999999
100
AcDbArc
 50
219.7010339999999
 51
222.287157
  0
ARC
  5
BBF6
330
B951
100
AcDbEntity
  8
1
  6
Continuous
100
AcDbCircle
 10
288.6317179999998
 20
170.732251
 30
0.0
 40
3.262005999999998
100
AcDbArc
 50
39.701034
 51
48.378449
  0
ARC
  5
BBF7
330
B951
100
AcDbEntity
  8
1
  6
Continuous
100
AcDbCircle
 10
307.8605129999999
 20
174.643146
 30
0.0
 40
14.267886
100
AcDbArc
 50
214.9632489999999
 51
225.7025429999999
  0
ARC
  5
BBF8
330
B951
100
AcDbEntity
  8
1
  6
Continuous
100
AcDbCircle
 10
294.9976709999999
 20
161.4609309999999
 30
0.0
 40
4.150134999999997
100
AcDbArc
 50
33.968948
 51
45.702543
  0
ARC
  5
BBF9
330
B951
100
AcDbEntity
  8
1
  6
Continuous
100
AcDbCircle
 10
290.156568
 20
200.226315
 30
0.0
 40
25.564794
100
AcDbArc
 50
252.9021769999999
 51
262.7310089999999
  0
ARC
  5
BBFA
330
B951
100
AcDbEntity
  8
1
  6
Continuous
100
AcDbCircle
 10
282.911761
 20
148.010232
 30
0.0
 40
27.174347
100
AcDbArc
 50
78.73786199999997
 51
80.75898700000001
  0
ARC
  5
BBFB
330
B951
100
AcDbEntity
  8
1
  6
Continuous
100
AcDbCircle
 10
287.725161
 20
181.164369
 30
0.0
 40
6.348405999999997
100
AcDbArc
 50
262.7310089999999
 51
265.9394669999999
  0
ARC
  5
BBFC
330
B951
100
AcDbEntity
  8
1
  6
Continuous
100
AcDbCircle
 10
287.540997
 20
171.257233
 30
0.0
 40
3.470911
100
AcDbArc
 50
60.452662
 51
78.73786199999997
  0
ARC
  5
BBFD
330
B951
100
AcDbEntity
  8
1
  6
Continuous
100
AcDbCircle
 10
282.524221
 20
176.3080879999999
 30
0.0
 40
0.529613
100
AcDbArc
 50
248.2113149999999
 51
282.6736619999999
  0
ARC
  5
BBFE
330
B951
100
AcDbEntity
  8
1
  6
Continuous
100
AcDbCircle
 10
281.9955739999999
 20
185.9184069999998
 30
0.0
 40
10.10755199999998
100
AcDbArc
 50
269.3764279999999
 51
271.8826729999999
  0
LINE
  5
BBFF
330
B951
100
AcDbEntity
  8
1
  6
Continuous
100
AcDbLine
 10
281.827471
 20
175.8009969999999
 30
0.0
 11
281.8855709999999
 21
175.811453
 31
0.0
  0
ARC
  5
BC00
330
B951
100
AcDbEntity
  8
1
  6
Continuous
100
AcDbCircle
 10
322.0687129999999
 20
161.2877489999999
 30
0.0
 40
18.81792199999998
100
AcDbArc
 50
89.60845400000003
 51
92.995108
  0
ARC
  5
BC01
330
B951
100
AcDbEntity
  8
1
  6
Continuous
100
AcDbCircle
 10
325.746034
 20
178.6646399999999
 30
0.0
 40
1.132387999999999
100
AcDbArc
 50
170.577549
 51
189.5940659999999
  0
ARC
  5
BC02
330
B951
100
AcDbEntity
  8
1
  6
Continuous
100
AcDbCircle
 10
324.204725
 20
178.3827409999999
 30
0.0
 40
0.434857
100
AcDbArc
 50
332.793515
 51
12.371354
  0
ARC
  5
BC03
330
B951
100
AcDbEntity
  8
1
  6
Continuous
100
AcDbCircle
 10
379.425312
 20
181.049882
 30
0.0
 40
54.840528
100
AcDbArc
 50
181.299318
 51
182.2989619999999
  0
ARC
  5
BC04
330
B951
100
AcDbEntity
  8
1
  6
Continuous
100
AcDbCircle
 10
324.2899009999998
 20
178.7487439999999
 30
0.0
 40
0.640285
100
AcDbArc
 50
267.659662
 51
298.0988159999998
  0
ARC
  5
BC05
330
B951
100
AcDbEntity
  8
1
  6
Continuous
100
AcDbCircle
 10
323.999947
 20
179.163698
 30
0.0
 40
0.9207059999999998
100
AcDbArc
 50
53.96652299999998
 51
76.916679
  0
ARC
  5
BC06
330
B951
100
AcDbEntity
  8
1
  6
Continuous
100
AcDbCircle
 10
324.4589669999998
 20
179.794709
 30
0.0
 40
0.140401
100
AcDbArc
 50
4.755418999999998
 51
53.96652299999998
  0
ARC
  5
BC07
330
B951
100
AcDbEntity
  8
1
  6
Continuous
100
AcDbCircle
 10
323.7582059999998
 20
178.123509
 30
0.0
 40
1.988615
100
AcDbArc
 50
76.916679
 51
91.25340499999998
  0
ARC
  5
BC08
330
B951
100
AcDbEntity
  8
1
  6
Continuous
100
AcDbCircle
 10
322.6660009999998
 20
248.6888109999999
 30
0.0
 40
68.58518100000001
100
AcDbArc
 50
269.608454
 51
270.876118
  0
ARC
  5
BC09
330
B951
100
AcDbEntity
  8
1
  6
Continuous
100
AcDbCircle
 10
322.5469209999999
 20
489.796819
 30
0.0
 40
311.6925539999999
100
AcDbArc
 50
269.9903949999999
 51
270.3265229999999
  0
LINE
  5
BC0A
330
B951
100
AcDbEntity
  8
1
  6
Continuous
100
AcDbLine
 10
289.1402209999998
 20
182.9176009999999
 30
0.0
 11
291.1402209999998
 21
184.498601
 31
0.0
  0
LINE
  5
BC0B
330
B951
100
AcDbEntity
  8
1
  6
Continuous
100
AcDbLine
 10
287.7260069999999
 20
182.9176009999999
 30
0.0
 11
289.7260069999999
 21
184.498601
 31
0.0
  0
LINE
  5
BC0C
330
B951
100
AcDbEntity
  8
1
  6
Continuous
100
AcDbLine
 10
290.311794
 20
182.9176009999999
 30
0.0
 11
288.311794
 21
184.498601
 31
0.0
  0
LINE
  5
BC0D
330
B951
100
AcDbEntity
  8
1
  6
Continuous
100
AcDbLine
 10
281.1255019999999
 20
182.9176009999999
 30
0.0
 11
318.125502
 21
182.9176009999999
 31
0.0
  0
LINE
  5
BC0E
330
B951
100
AcDbEntity
  8
1
  6
Continuous
100
AcDbLine
 10
313.082193
 20
187.8432099999999
 30
0.0
 11
286.2133679999999
 21
187.83421
 31
0.0
  0
LINE
  5
BC0F
330
B951
100
AcDbEntity
  8
1
  6
Continuous
100
AcDbLine
 10
282.5897449999999
 20
186.49785
 30
0.0
 11
316.317174
 21
186.518797
 31
0.0
  0
LINE
  5
BC10
330
B951
100
AcDbEntity
  8
1
  6
Continuous
100
AcDbLine
 10
317.850772
 20
186.1205189999998
 30
0.0
 11
281.41896
 21
185.978852
 31
0.0
  0
LINE
  5
BC11
330
B951
100
AcDbEntity
  8
1
  6
Continuous
100
AcDbLine
 10
318.125502
 20
184.498601
 30
0.0
 11
281.1255019999999
 21
184.498601
 31
0.0
  0
LINE
  5
BC12
330
B951
100
AcDbEntity
  8
1
  6
Continuous
100
AcDbLine
 10
305.6255399999999
 20
192.788484
 30
0.0
 11
305.6255399999999
 21
206.788484
 31
0.0
  0
LINE
  5
BC13
330
B951
100
AcDbEntity
  8
1
  6
Continuous
100
AcDbLine
 10
293.6255399999998
 20
192.788484
 30
0.0
 11
293.6255399999998
 21
206.788484
 31
0.0
  0
LINE
  5
BC14
330
B951
100
AcDbEntity
  8
1
  6
Continuous
100
AcDbLine
 10
307.2823559999998
 20
182.9176009999999
 30
0.0
 11
305.282356
 21
184.498601
 31
0.0
  0
LINE
  5
BC15
330
B951
100
AcDbEntity
  8
1
  6
Continuous
100
AcDbLine
 10
304.69657
 20
182.9176009999999
 30
0.0
 11
306.69657
 21
184.498601
 31
0.0
  0
LINE
  5
BC16
330
B951
100
AcDbEntity
  8
1
  6
Continuous
100
AcDbLine
 10
305.868143
 20
182.9176009999999
 30
0.0
 11
303.868143
 21
184.498601
 31
0.0
  0
LINE
  5
BC17
330
B951
100
AcDbEntity
  8
1
  6
Continuous
100
AcDbLine
 10
288.656002
 20
192.788484
 30
0.0
 11
310.595002
 21
192.788484
 31
0.0
  0
LINE
  5
BC18
330
B951
100
AcDbEntity
  8
1
  6
Continuous
100
AcDbLine
 10
320.757979
 20
180.071404
 30
0.0
 11
314.1574589999998
 21
180.071404
 31
0.0
  0
ARC
  5
BC19
330
B951
100
AcDbEntity
  8
1
  6
Continuous
100
AcDbCircle
 10
320.757979
 20
186.3389709999999
 30
0.0
 40
6.267566999999997
100
AcDbArc
 50
265.601965
 51
272.995108
  0
ARC
  5
BC1A
330
B951
100
AcDbEntity
  8
1
  6
Continuous
100
AcDbCircle
 10
315.276814
 20
178.574862
 30
0.0
 40
4.359511999999998
100
AcDbArc
 50
26.32472
 51
84.97236800000001
  0
ARC
  5
BC1B
330
B951
100
AcDbEntity
  8
1
  6
Continuous
100
AcDbCircle
 10
319.547747
 20
180.5191079999999
 30
0.0
 40
0.409037
100
AcDbArc
 50
225.96857
 51
265.980787
  0
ARC
  5
BC1C
330
B951
100
AcDbEntity
  8
1
  6
Continuous
100
AcDbCircle
 10
320.149593
 20
189.0846339999999
 30
0.0
 40
8.995680999999997
100
AcDbArc
 50
265.980787
 51
270.813752
  0
ARC
  5
BC1D
330
B951
100
AcDbEntity
  8
1
  6
Continuous
100
AcDbCircle
 10
319.4331749999999
 20
180.4005949999999
 30
0.0
 40
0.2441969999999999
100
AcDbArc
 50
188.6832409999999
 51
225.96857
  0
ARC
  5
BC1E
330
B951
100
AcDbEntity
  8
1
  6
Continuous
100
AcDbCircle
 10
319.9127369999998
 20
180.473835
 30
0.0
 40
0.72932
100
AcDbArc
 50
177.3053509999998
 51
188.6832409999999
  0
LINE
  5
BC1F
330
B951
100
AcDbEntity
  8
1
  6
Continuous
100
AcDbLine
 10
314.353424
 20
182.9176009999999
 30
0.0
 11
312.353424
 21
184.498601
 31
0.0
  0
LINE
  5
BC20
330
B951
100
AcDbEntity
  8
1
  6
Continuous
100
AcDbLine
 10
315.7676379999998
 20
182.9176009999999
 30
0.0
 11
313.7676379999998
 21
184.498601
 31
0.0
  0
LINE
  5
BC21
330
B951
100
AcDbEntity
  8
1
  6
Continuous
100
AcDbLine
 10
313.1818509999998
 20
182.9176009999999
 30
0.0
 11
315.181851
 21
184.498601
 31
0.0
  0
LINE
  5
BC22
330
B951
100
AcDbEntity
  8
1
  6
Continuous
100
AcDbLine
 10
318.125502
 20
184.498601
 30
0.0
 11
318.125502
 21
182.9176009999999
 31
0.0
  0
LINE
  5
BC23
330
B951
100
AcDbEntity
  8
1
  6
Continuous
100
AcDbLine
 10
317.181851
 20
182.9176009999999
 30
0.0
 11
315.181851
 21
184.498601
 31
0.0
  0
LINE
  5
BC24
330
B951
100
AcDbEntity
  8
1
  6
Continuous
100
AcDbLine
 10
318.125502
 20
183.3881639999999
 30
0.0
 11
316.596065
 21
184.498601
 31
0.0
  0
LINE
  5
BC25
330
B951
100
AcDbEntity
  8
1
  6
Continuous
100
AcDbLine
 10
316.0102779999999
 20
182.9176009999999
 30
0.0
 11
318.0102779999999
 21
184.498601
 31
0.0
  0
LINE
  5
BC26
330
B951
100
AcDbEntity
  8
1
  6
Continuous
100
AcDbLine
 10
318.125502
 20
183.6186109999999
 30
0.0
 11
317.424492
 21
182.9176009999999
 31
0.0
  0
LINE
  5
BC27
330
B951
100
AcDbEntity
  8
1
  6
Continuous
100
AcDbLine
 10
314.596065
 20
182.9176009999999
 30
0.0
 11
316.596065
 21
184.498601
 31
0.0
  0
LINE
  5
BC28
330
B951
100
AcDbEntity
  8
1
  6
Continuous
100
AcDbLine
 10
308.69657
 20
182.9176009999999
 30
0.0
 11
306.69657
 21
184.498601
 31
0.0
  0
LINE
  5
BC29
330
B951
100
AcDbEntity
  8
1
  6
Continuous
100
AcDbLine
 10
310.1107830000001
 20
182.9176009999999
 30
0.0
 11
308.110783
 21
184.498601
 31
0.0
  0
LINE
  5
BC2A
330
B951
100
AcDbEntity
  8
1
  6
Continuous
100
AcDbLine
 10
307.5249969999999
 20
182.9176009999999
 30
0.0
 11
309.5249969999999
 21
184.498601
 31
0.0
  0
LINE
  5
BC2B
330
B951
100
AcDbEntity
  8
1
  6
Continuous
100
AcDbLine
 10
312.9392109999999
 20
182.9176009999999
 30
0.0
 11
310.9392109999999
 21
184.498601
 31
0.0
  0
LINE
  5
BC2C
330
B951
100
AcDbEntity
  8
1
  6
Continuous
100
AcDbLine
 10
311.7676379999999
 20
182.9176009999999
 30
0.0
 11
313.7676379999998
 21
184.498601
 31
0.0
  0
LINE
  5
BC2D
330
B951
100
AcDbEntity
  8
1
  6
Continuous
100
AcDbLine
 10
311.5249969999999
 20
182.9176009999999
 30
0.0
 11
309.5249969999999
 21
184.498601
 31
0.0
  0
LINE
  5
BC2E
330
B951
100
AcDbEntity
  8
1
  6
Continuous
100
AcDbLine
 10
308.9392109999999
 20
182.9176009999999
 30
0.0
 11
310.9392109999999
 21
184.498601
 31
0.0
  0
LINE
  5
BC2F
330
B951
100
AcDbEntity
  8
1
  6
Continuous
100
AcDbLine
 10
310.353424
 20
182.9176009999999
 30
0.0
 11
312.353424
 21
184.498601
 31
0.0
  0
LINE
  5
BC30
330
B951
100
AcDbEntity
  8
1
  6
Continuous
100
AcDbLine
 10
306.110783
 20
182.9176009999999
 30
0.0
 11
308.110783
 21
184.498601
 31
0.0
  0
ARC
  5
BC31
330
B951
100
AcDbEntity
  8
1
  6
Continuous
100
AcDbCircle
 10
313.083779
 20
183.1075
 30
0.0
 40
4.73571
100
AcDbArc
 50
75.909148
 51
90.019193
  0
ARC
  5
BC32
330
B951
100
AcDbEntity
  8
1
  6
Continuous
100
AcDbCircle
 10
312.373425
 20
183.0792559999999
 30
0.0
 40
5.076287999999999
100
AcDbArc
 50
42.652045
 51
52.672971
  0
LINE
  5
BC33
330
B951
100
AcDbEntity
  8
1
  6
Continuous
100
AcDbLine
 10
318.125502
 20
184.3833769999999
 30
0.0
 11
318.0102779999999
 21
184.498601
 31
0.0
  0
ARC
  5
BC34
330
B951
100
AcDbEntity
  8
1
  6
Continuous
100
AcDbCircle
 10
316.5898819999998
 20
184.0928879999999
 30
0.0
 40
2.428551999999998
100
AcDbArc
 50
65.065759
 51
81.389352
  0
LINE
  5
BC35
330
B951
100
AcDbEntity
  8
1
  6
Continuous
100
AcDbLine
 10
317.850772
 20
186.1205189999998
 30
0.0
 11
317.6137059999998
 21
186.29508
 31
0.0
  0
ARC
  5
BC36
330
B951
100
AcDbEntity
  8
1
  6
Continuous
100
AcDbCircle
 10
316.696368
 20
185.8525549999999
 30
0.0
 40
1.185095999999999
100
AcDbArc
 50
346.778551
 51
13.068286
  0
LINE
  5
BC37
330
B951
100
AcDbEntity
  8
1
  6
Continuous
100
AcDbLine
 10
317.612364
 20
184.8720459999999
 30
0.0
 11
317.850052
 21
185.5815049999999
 31
0.0
  0
LINE
  5
BC38
330
B951
100
AcDbEntity
  8
1
  6
Continuous
100
AcDbLine
 10
317.4147279999999
 20
184.498601
 30
0.0
 11
317.612364
 21
184.8720459999999
 31
0.0
  0
ARC
  5
BC39
330
B951
100
AcDbEntity
  8
1
  6
Continuous
100
AcDbCircle
 10
316.3176259999999
 20
185.7910139999999
 30
0.0
 40
0.727783
100
AcDbArc
 50
87.720938
 51
90.03558400000001
  0
LINE
  5
BC3A
330
B951
100
AcDbEntity
  8
1
  6
Continuous
100
AcDbLine
 10
316.9534829999999
 20
186.494067
 30
0.0
 11
316.3465669999999
 21
186.518221
 31
0.0
  0
ARC
  5
BC3B
330
B951
100
AcDbEntity
  8
1
  6
Continuous
100
AcDbCircle
 10
313.4217889999998
 20
184.4540849999999
 30
0.0
 40
3.347351
100
AcDbArc
 50
52.672971
 51
75.909148
  0
LINE
  5
BC3C
330
B951
100
AcDbEntity
  8
1
  6
Continuous
100
AcDbLine
 10
300.211289
 20
182.9176009999999
 30
0.0
 11
298.211289
 21
184.498601
 31
0.0
  0
LINE
  5
BC3D
330
B951
100
AcDbEntity
  8
1
  6
Continuous
100
AcDbLine
 10
298.797075
 20
182.9176009999999
 30
0.0
 11
296.797075
 21
184.498601
 31
0.0
  0
LINE
  5
BC3E
330
B951
100
AcDbEntity
  8
1
  6
Continuous
100
AcDbLine
 10
297.6255019999999
 20
182.9176009999999
 30
0.0
 11
299.6255019999999
 21
184.498601
 31
0.0
  0
LINE
  5
BC3F
330
B951
100
AcDbEntity
  8
1
  6
Continuous
100
AcDbLine
 10
301.625502
 20
182.9176009999999
 30
0.0
 11
299.6255019999999
 21
184.498601
 31
0.0
  0
LINE
  5
BC40
330
B951
100
AcDbEntity
  8
1
  6
Continuous
100
AcDbLine
 10
299.039716
 20
182.9176009999999
 30
0.0
 11
301.039716
 21
184.498601
 31
0.0
  0
LINE
  5
BC41
330
B951
100
AcDbEntity
  8
1
  6
Continuous
100
AcDbLine
 10
300.453929
 20
182.9176009999999
 30
0.0
 11
302.453929
 21
184.498601
 31
0.0
  0
LINE
  5
BC42
330
B951
100
AcDbEntity
  8
1
  6
Continuous
100
AcDbLine
 10
303.039716
 20
182.9176009999999
 30
0.0
 11
301.039716
 21
184.498601
 31
0.0
  0
LINE
  5
BC43
330
B951
100
AcDbEntity
  8
1
  6
Continuous
100
AcDbLine
 10
304.453929
 20
182.9176009999999
 30
0.0
 11
302.453929
 21
184.498601
 31
0.0
  0
LINE
  5
BC44
330
B951
100
AcDbEntity
  8
1
  6
Continuous
100
AcDbLine
 10
301.8681429999999
 20
182.9176009999999
 30
0.0
 11
303.868143
 21
184.498601
 31
0.0
  0
LINE
  5
BC45
330
B951
100
AcDbEntity
  8
1
  6
Continuous
100
AcDbLine
 10
303.282356
 20
182.9176009999999
 30
0.0
 11
305.282356
 21
184.498601
 31
0.0
  0
LINE
  5
BC46
330
B951
100
AcDbEntity
  8
1
  6
Continuous
100
AcDbLine
 10
293.1402209999999
 20
182.9176009999999
 30
0.0
 11
291.1402209999998
 21
184.498601
 31
0.0
  0
LINE
  5
BC47
330
B951
100
AcDbEntity
  8
1
  6
Continuous
100
AcDbLine
 10
291.9686479999999
 20
182.9176009999999
 30
0.0
 11
293.9686479999998
 21
184.498601
 31
0.0
  0
LINE
  5
BC48
330
B951
100
AcDbEntity
  8
1
  6
Continuous
100
AcDbLine
 10
290.5544339999999
 20
182.9176009999999
 30
0.0
 11
292.5544339999999
 21
184.498601
 31
0.0
  0
LINE
  5
BC49
330
B951
100
AcDbEntity
  8
1
  6
Continuous
100
AcDbLine
 10
297.3828609999998
 20
182.9176009999999
 30
0.0
 11
295.382861
 21
184.498601
 31
0.0
  0
LINE
  5
BC4A
330
B951
100
AcDbEntity
  8
1
  6
Continuous
100
AcDbLine
 10
296.211289
 20
182.9176009999999
 30
0.0
 11
298.211289
 21
184.498601
 31
0.0
  0
LINE
  5
BC4B
330
B951
100
AcDbEntity
  8
1
  6
Continuous
100
AcDbLine
 10
294.7970749999999
 20
182.9176009999999
 30
0.0
 11
296.797075
 21
184.498601
 31
0.0
  0
LINE
  5
BC4C
330
B951
100
AcDbEntity
  8
1
  6
Continuous
100
AcDbLine
 10
295.9686479999998
 20
182.9176009999999
 30
0.0
 11
293.9686479999998
 21
184.498601
 31
0.0
  0
LINE
  5
BC4D
330
B951
100
AcDbEntity
  8
1
  6
Continuous
100
AcDbLine
 10
294.5544339999999
 20
182.9176009999999
 30
0.0
 11
292.5544339999999
 21
184.498601
 31
0.0
  0
LINE
  5
BC4E
330
B951
100
AcDbEntity
  8
1
  6
Continuous
100
AcDbLine
 10
293.3828609999998
 20
182.9176009999999
 30
0.0
 11
295.382861
 21
184.498601
 31
0.0
  0
LINE
  5
BC4F
330
B951
100
AcDbEntity
  8
1
  6
Continuous
100
AcDbLine
 10
291.7260069999999
 20
182.9176009999999
 30
0.0
 11
289.7260069999999
 21
184.498601
 31
0.0
  0
LINE
  5
BC50
330
B951
100
AcDbEntity
  8
1
  6
Continuous
100
AcDbLine
 10
294.140675
 20
192.788484
 30
0.0
 11
294.140675
 21
187.8368649999999
 31
0.0
  0
LINE
  5
BC51
330
B951
100
AcDbEntity
  8
1
  6
Continuous
100
AcDbLine
 10
305.1103299999998
 20
192.788484
 30
0.0
 11
305.1103299999998
 21
187.84054
 31
0.0
  0
LINE
  5
BC52
330
B951
100
AcDbEntity
  8
1
  6
Continuous
100
AcDbLine
 10
305.6255399999999
 20
206.788484
 30
0.0
 11
304.62554
 21
207.788484
 31
0.0
  0
LINE
  5
BC53
330
B951
100
AcDbEntity
  8
1
  6
Continuous
100
AcDbLine
 10
305.6255399999999
 20
206.788484
 30
0.0
 11
293.6255399999998
 21
206.788484
 31
0.0
  0
LINE
  5
BC54
330
B951
100
AcDbEntity
  8
1
  6
Continuous
100
AcDbLine
 10
293.6255399999998
 20
206.788484
 30
0.0
 11
294.62554
 21
207.788484
 31
0.0
  0
LINE
  5
BC55
330
B951
100
AcDbEntity
  8
1
  6
Continuous
100
AcDbLine
 10
304.62554
 20
207.788484
 30
0.0
 11
294.62554
 21
207.788484
 31
0.0
  0
ARC
  5
BC56
330
B951
100
AcDbEntity
  8
1
  6
Continuous
100
AcDbCircle
 10
285.864618
 20
179.43277
 30
0.0
 40
4.757115999999999
100
AcDbArc
 50
141.843592
 51
163.9927399999999
  0
ARC
  5
BC57
330
B951
100
AcDbEntity
  8
1
  6
Continuous
100
AcDbCircle
 10
273.955744
 20
178.9431919999999
 30
0.0
 40
6.985907
100
AcDbArc
 50
353.0180029999999
 51
1.421261
  0
ARC
  5
BC58
330
B951
100
AcDbEntity
  8
1
  6
Continuous
100
AcDbCircle
 10
285.731969
 20
178.894902
 30
0.0
 40
4.797585999999999
100
AcDbArc
 50
162.882645
 51
177.353025
  0
ARC
  5
BC59
330
B951
100
AcDbEntity
  8
1
  6
Continuous
100
AcDbCircle
 10
291.484208
 20
177.123375
 30
0.0
 40
10.81643699999998
100
AcDbArc
 50
160.4403529999999
 51
162.882645
  0
ARC
  5
BC5A
330
B951
100
AcDbEntity
  8
1
  6
Continuous
100
AcDbCircle
 10
283.6958179999998
 20
180.755786
 30
0.0
 40
2.254351999999999
100
AcDbArc
 50
106.473291
 51
134.206902
  0
LINE
  5
BC5B
330
B951
100
AcDbEntity
  8
1
  6
Continuous
100
AcDbLine
 10
282.0691529999999
 20
182.9176009999999
 30
0.0
 11
284.0691529999999
 21
184.498601
 31
0.0
  0
LINE
  5
BC5C
330
B951
100
AcDbEntity
  8
1
  6
Continuous
100
AcDbLine
 10
283.240726
 20
182.9176009999999
 30
0.0
 11
281.240726
 21
184.498601
 31
0.0
  0
LINE
  5
BC5D
330
B951
100
AcDbEntity
  8
1
  6
Continuous
100
AcDbLine
 10
281.1255019999999
 20
183.3881639999999
 30
0.0
 11
282.654939
 21
184.498601
 31
0.0
  0
LINE
  5
BC5E
330
B951
100
AcDbEntity
  8
1
  6
Continuous
100
AcDbLine
 10
286.069153
 20
182.9176009999999
 30
0.0
 11
284.0691529999999
 21
184.498601
 31
0.0
  0
LINE
  5
BC5F
330
B951
100
AcDbEntity
  8
1
  6
Continuous
100
AcDbLine
 10
284.654939
 20
182.9176009999999
 30
0.0
 11
282.654939
 21
184.498601
 31
0.0
  0
LINE
  5
BC60
330
B951
100
AcDbEntity
  8
1
  6
Continuous
100
AcDbLine
 10
283.483366
 20
182.9176009999999
 30
0.0
 11
285.483366
 21
184.498601
 31
0.0
  0
LINE
  5
BC61
330
B951
100
AcDbEntity
  8
1
  6
Continuous
100
AcDbLine
 10
286.311794
 20
182.9176009999999
 30
0.0
 11
288.311794
 21
184.498601
 31
0.0
  0
LINE
  5
BC62
330
B951
100
AcDbEntity
  8
1
  6
Continuous
100
AcDbLine
 10
287.4833659999998
 20
182.9176009999999
 30
0.0
 11
285.483366
 21
184.498601
 31
0.0
  0
LINE
  5
BC63
330
B951
100
AcDbEntity
  8
1
  6
Continuous
100
AcDbLine
 10
284.89758
 20
182.9176009999999
 30
0.0
 11
286.89758
 21
184.498601
 31
0.0
  0
LINE
  5
BC64
330
B951
100
AcDbEntity
  8
1
  6
Continuous
100
AcDbLine
 10
288.89758
 20
182.9176009999999
 30
0.0
 11
286.89758
 21
184.498601
 31
0.0
  0
LINE
  5
BC65
330
B951
100
AcDbEntity
  8
1
  6
Continuous
100
AcDbLine
 10
281.1255019999999
 20
184.498601
 30
0.0
 11
281.1255019999999
 21
182.9176009999999
 31
0.0
  0
LINE
  5
BC66
330
B951
100
AcDbEntity
  8
1
  6
Continuous
100
AcDbLine
 10
281.8265119999999
 20
182.9176009999999
 30
0.0
 11
281.1255019999999
 21
183.6186109999999
 31
0.0
  0
LINE
  5
BC67
330
B951
100
AcDbEntity
  8
1
  6
Continuous
100
AcDbLine
 10
280.875285
 20
178.0354859999999
 30
0.0
 11
280.625502
 21
176.1818759999999
 31
0.0
  0
ARC
  5
BC68
330
B951
100
AcDbEntity
  8
1
  6
Continuous
100
AcDbCircle
 10
282.69331
 20
184.585054
 30
0.0
 40
1.945969999999999
100
AcDbArc
 50
101.4547459999998
 51
119.075452
  0
LINE
  5
BC69
330
B951
100
AcDbEntity
  8
1
  6
Continuous
100
AcDbLine
 10
281.1255019999999
 20
184.3833769999999
 30
0.0
 11
281.240726
 21
184.498601
 31
0.0
  0
ARC
  5
BC6A
330
B951
100
AcDbEntity
  8
1
  6
Continuous
100
AcDbCircle
 10
282.0894539999999
 20
185.504768
 30
0.0
 40
0.613084
100
AcDbArc
 50
186.440574
 51
213.7883029999999
  0
LINE
  5
BC6B
330
B951
100
AcDbEntity
  8
1
  6
Continuous
100
AcDbLine
 10
281.4802399999999
 20
185.4359969999999
 30
0.0
 11
281.41896
 21
185.978852
 31
0.0
  0
ARC
  5
BC6C
330
B951
100
AcDbEntity
  8
1
  6
Continuous
100
AcDbCircle
 10
282.3683809999998
 20
185.3046629999998
 30
0.0
 40
0.800941
100
AcDbArc
 50
190.1282379999999
 51
223.919243
  0
LINE
  5
BC6D
330
B951
100
AcDbEntity
  8
1
  6
Continuous
100
AcDbLine
 10
281.912808
 20
184.498601
 30
0.0
 11
281.791449
 21
184.749096
 31
0.0
  0
ARC
  5
BC6E
330
B951
100
AcDbEntity
  8
1
  6
Continuous
100
AcDbCircle
 10
282.2004289999998
 20
185.47148
 30
0.0
 40
0.9317299999999999
100
AcDbArc
 50
119.075452
 51
147.006192
  0
ARC
  5
BC6F
330
B951
100
AcDbEntity
  8
1
  6
Continuous
100
AcDbCircle
 10
285.8402129999999
 20
184.3901119999999
 30
0.0
 40
3.385511999999998
100
AcDbArc
 50
107.772832
 51
141.4874479999998
  0
ARC
  5
BC70
330
B951
100
AcDbEntity
  8
1
  6
Continuous
100
AcDbCircle
 10
286.2149129999999
 20
183.2211519999999
 30
0.0
 40
4.613057999999998
100
AcDbArc
 50
90.019193
 51
107.772832
  0
ARC
  5
BC71
330
B951
100
AcDbEntity
  8
1
  6
Continuous
100
AcDbCircle
 10
282.5943399999998
 20
179.099103
 30
0.0
 40
7.398747999999997
100
AcDbArc
 50
90.03558400000001
 51
92.22686299999999
  0
ARC
  5
BC72
330
B951
100
AcDbEntity
  8
1
  6
Continuous
100
AcDbCircle
 10
135.1710929999998
 20
88.84095999999997
 30
0.0
 40
7.0
100
AcDbArc
 50
270.12108
 51
303.2023409999998
  0
ARC
  5
BC73
330
B951
100
AcDbEntity
  8
1
  6
Continuous
100
AcDbCircle
 10
135.1710929999998
 20
45.330379
 30
0.0
 40
7.0
100
AcDbArc
 50
56.79765899999998
 51
89.87891999999998
  0
ARC
  5
BC74
330
B951
100
AcDbEntity
  8
1
  6
Continuous
100
AcDbCircle
 10
135.1710929999998
 20
88.84095999999997
 30
0.0
 40
9.0
100
AcDbArc
 50
270.121082
 51
303.2023409999998
  0
ARC
  5
BC75
330
B951
100
AcDbEntity
  8
1
  6
Continuous
100
AcDbCircle
 10
135.1710929999998
 20
45.330379
 30
0.0
 40
9.0
100
AcDbArc
 50
56.79765899999998
 51
89.87891799999998
  0
LINE
  5
BC76
330
B951
100
AcDbEntity
  8
2
  6
Continuous
100
AcDbLine
 10
42.976011
 20
207.4381939999999
 30
0.0
 11
42.976011
 21
193.933455
 31
0.0
  0
LINE
  5
BC77
330
B951
100
AcDbEntity
  8
2
  6
Continuous
100
AcDbLine
 10
53.62301099999999
 20
207.438118
 30
0.0
 11
53.62301099999999
 21
193.933455
 31
0.0
  0
LINE
  5
BC78
330
B951
100
AcDbEntity
  8
2
  6
Continuous
100
AcDbLine
 10
144.084688
 20
193.960282
 30
0.0
 11
144.084688
 21
207.465022
 31
0.0
  0
LINE
  5
BC79
330
B951
100
AcDbEntity
  8
2
  6
Continuous
100
AcDbLine
 10
154.7316879999999
 20
193.960282
 30
0.0
 11
154.7316879999999
 21
207.4649459999998
 31
0.0
  0
LINE
  5
BC7A
330
B951
100
AcDbEntity
  8
2
  6
Continuous
100
AcDbLine
 10
219.193345
 20
207.437841
 30
0.0
 11
219.193345
 21
193.933101
 31
0.0
  0
LINE
  5
BC7B
330
B951
100
AcDbEntity
  8
2
  6
Continuous
100
AcDbLine
 10
229.840345
 20
207.4377649999999
 30
0.0
 11
229.840345
 21
193.933101
 31
0.0
  0
LINE
  5
BC7C
330
B951
100
AcDbEntity
  8
2
  6
Continuous
100
AcDbLine
 10
294.302002
 20
193.960282
 30
0.0
 11
294.302002
 21
207.4649459999998
 31
0.0
  0
LINE
  5
BC7D
330
B951
100
AcDbEntity
  8
2
  6
Continuous
100
AcDbLine
 10
304.949002
 20
193.960282
 30
0.0
 11
304.949002
 21
207.465022
 31
0.0
  0
CIRCLE
  5
BC7E
330
B951
100
AcDbEntity
  8
2
  6
Continuous
100
AcDbCircle
 10
149.4086259999999
 20
264.654083
 30
0.0
 40
5.3235
  0
LINE
  5
BC7F
330
B951
100
AcDbEntity
  8
1
  6
Continuous
100
AcDbLine
 10
42.299473
 20
193.933455
 30
0.0
 11
54.299473
 21
193.933455
 31
0.0
  0
LINE
  5
BC80
330
B951
100
AcDbEntity
  8
2
  6
Continuous
100
AcDbLine
 10
42.299473
 20
192.7616559999999
 30
0.0
 11
42.976011
 21
193.933455
 31
0.0
  0
LINE
  5
BC81
330
B951
100
AcDbEntity
  8
2
  6
Continuous
100
AcDbLine
 10
54.299473
 20
192.7616559999999
 30
0.0
 11
53.62293499999999
 21
193.933455
 31
0.0
  0
LINE
  5
BC82
330
B951
100
AcDbEntity
  8
1
  6
Continuous
100
AcDbLine
 10
143.4081119999999
 20
193.960282
 30
0.0
 11
155.408112
 21
193.960282
 31
0.0
  0
LINE
  5
BC83
330
B951
100
AcDbEntity
  8
2
  6
Continuous
100
AcDbLine
 10
143.4081119999999
 20
192.788484
 30
0.0
 11
144.08465
 21
193.960282
 31
0.0
  0
LINE
  5
BC84
330
B951
100
AcDbEntity
  8
2
  6
Continuous
100
AcDbLine
 10
155.408112
 20
192.788484
 30
0.0
 11
154.7315739999999
 21
193.960282
 31
0.0
  0
LINE
  5
BC85
330
B951
100
AcDbEntity
  8
1
  6
Continuous
100
AcDbLine
 10
218.5168069999999
 20
193.933101
 30
0.0
 11
230.5168069999998
 21
193.933101
 31
0.0
  0
LINE
  5
BC86
330
B951
100
AcDbEntity
  8
2
  6
Continuous
100
AcDbLine
 10
218.5168069999999
 20
192.761303
 30
0.0
 11
219.193345
 21
193.933101
 31
0.0
  0
LINE
  5
BC87
330
B951
100
AcDbEntity
  8
2
  6
Continuous
100
AcDbLine
 10
230.5168069999998
 20
192.761303
 30
0.0
 11
229.840269
 21
193.933101
 31
0.0
  0
LINE
  5
BC88
330
B951
100
AcDbEntity
  8
1
  6
Continuous
100
AcDbLine
 10
293.6254640000001
 20
193.960282
 30
0.0
 11
305.625464
 21
193.960282
 31
0.0
  0
LINE
  5
BC89
330
B951
100
AcDbEntity
  8
2
  6
Continuous
100
AcDbLine
 10
293.6254640000001
 20
192.788484
 30
0.0
 11
294.302002
 21
193.960282
 31
0.0
  0
LINE
  5
BC8A
330
B951
100
AcDbEntity
  8
2
  6
Continuous
100
AcDbLine
 10
305.625464
 20
192.788484
 30
0.0
 11
304.9489259999999
 21
193.960282
 31
0.0
  0
LINE
  5
BC8B
330
B951
100
AcDbEntity
  8
1
  6
Continuous
100
AcDbLine
 10
138.438971
 20
192.788484
 30
0.0
 11
138.438971
 21
187.8423769999999
 31
0.0
  0
LINE
  5
BC8C
330
B951
100
AcDbEntity
  8
1
  6
Continuous
100
AcDbLine
 10
160.378281
 20
192.788484
 30
0.0
 11
160.378281
 21
187.835028
 31
0.0
  0
LINE
  5
BC8D
330
B951
100
AcDbEntity
  8
1
  6
Continuous
100
AcDbLine
 10
288.656002
 20
187.835028
 30
0.0
 11
288.656002
 21
192.788484
 31
0.0
  0
LINE
  5
BC8E
330
B951
100
AcDbEntity
  8
1
  6
Continuous
100
AcDbLine
 10
310.595002
 20
187.8423769999999
 30
0.0
 11
310.595002
 21
192.788484
 31
0.0
  0
ENDSEC
  0
SECTION
  2
OBJECTS
  0
DICTIONARY
  5
B93F
330
0
100
AcDbDictionary
281
     1
  3
ACAD_CIP_PREVIOUS_PRODUCT_INFO
350
BCF0
  3
ACAD_COLOR
350
BCD2
  3
ACAD_DETAILVIEWSTYLE
350
BCEB
  3
ACAD_GROUP
350
B940
  3
ACAD_LAYOUT
350
B94C
  3
ACAD_MATERIAL
350
BCA0
  3
ACAD_MLEADERSTYLE
350
BCE7
  3
ACAD_MLINESTYLE
350
B949
  3
ACAD_PLOTSETTINGS
350
B94B
  3
ACAD_PLOTSTYLENAME
350
BC9E
  3
ACAD_SCALELIST
350
BCD5
  3
ACAD_SECTIONVIEWSTYLE
350
BCE9
  3
ACAD_TABLESTYLE
350
BCD3
  3
ACAD_VISUALSTYLE
350
BCB9
  3
ACDB_RECOMPOSE_DATA
350
BD0E
  3
AcDbVariableDictionary
350
BD01
  3
DWGPROPS
350
BD0F
  0
DICTIONARY
  5
BCF1
330
B943
100
AcDbDictionary
280
     1
281
     1
  3
ADSK_XREC_LAYER_RECONCILED
360
BCF2
  0
DICTIONARY
  5
BCF3
330
B959
100
AcDbDictionary
280
     1
281
     1
  3
ADSK_XREC_LAYER_RECONCILED
360
BCF4
  0
DICTIONARY
  5
BCF5
330
B95A
100
AcDbDictionary
280
     1
281
     1
  3
ADSK_XREC_LAYER_RECONCILED
360
BCF6
  0
DICTIONARY
  5
BCF7
330
B95B
100
AcDbDictionary
280
     1
281
     1
  3
ADSK_XREC_LAYER_RECONCILED
360
BCF8
  0
DICTIONARY
  5
BCF9
330
B95C
100
AcDbDictionary
280
     1
281
     1
  3
ADSK_XREC_LAYER_RECONCILED
360
BCFA
  0
DICTIONARY
  5
BCFB
330
B95D
100
AcDbDictionary
280
     1
281
     1
  3
ADSK_XREC_LAYER_RECONCILED
360
BCFC
  0
DICTIONARY
  5
BCFD
330
B95E
100
AcDbDictionary
280
     1
281
     1
  3
ADSK_XREC_LAYER_RECONCILED
360
BCFE
  0
DICTIONARY
  5
BCFF
330
B95F
100
AcDbDictionary
280
     1
281
     1
  3
ADSK_XREC_LAYER_RECONCILED
360
BD00
  0
DICTIONARY
  5
BC99
330
B951
100
AcDbDictionary
281
     1
  3
ACAD_LAYOUTSELFREF
350
BC9A
  0
DICTIONARY
  5
BC97
330
B94D
100
AcDbDictionary
281
     1
  3
ACAD_LAYOUTSELFREF
350
BC98
  0
XRECORD
  5
BCF0
102
{ACAD_REACTORS
330
B93F
102
}
330
B93F
100
AcDbXrecord
280
     1
300
ACDLT
300
2014
300
ACDLT_F_S
  0
DICTIONARY
  5
BCD2
102
{ACAD_REACTORS
330
B93F
102
}
330
B93F
100
AcDbDictionary
281
     1
  0
DICTIONARY
  5
BCEB
102
{ACAD_REACTORS
330
B93F
102
}
330
B93F
100
AcDbDictionary
281
     1
  3
Imperial24
350
BCEC
  0
DICTIONARY
  5
B940
102
{ACAD_REACTORS
330
B93F
102
}
330
B93F
100
AcDbDictionary
281
     1
  0
DICTIONARY
  5
B94C
102
{ACAD_REACTORS
330
B93F
102
}
330
B93F
100
AcDbDictionary
281
     1
  3
Model
350
BCED
  3
レイアウト1
350
BCEE
  0
DICTIONARY
  5
BCA0
102
{ACAD_REACTORS
330
B93F
102
}
330
B93F
100
AcDbDictionary
281
     1
  3
ByBlock
350
BCA9
  3
ByLayer
350
BCA1
  3
Global
350
BCB1
  0
DICTIONARY
  5
BCE7
102
{ACAD_REACTORS
330
B93F
102
}
330
B93F
100
AcDbDictionary
281
     1
  3
Standard
350
BCE8
  0
DICTIONARY
  5
B949
102
{ACAD_REACTORS
330
B93F
102
}
330
B93F
100
AcDbDictionary
281
     1
  3
STANDARD
350
B94A
  0
DICTIONARY
  5
B94B
102
{ACAD_REACTORS
330
B93F
102
}
330
B93F
100
AcDbDictionary
281
     1
  0
ACDBDICTIONARYWDFLT
  5
BC9E
102
{ACAD_REACTORS
330
B93F
102
}
330
B93F
100
AcDbDictionary
281
     1
  3
Normal
350
BC9F
100
AcDbDictionaryWithDefault
340
BC9F
  0
DICTIONARY
  5
BCD5
102
{ACAD_REACTORS
330
B93F
102
}
330
B93F
100
AcDbDictionary
281
     1
  3
A0
350
BCD6
  3
A1
350
BCD7
  3
A2
350
BCD8
  3
A3
350
BCD9
  3
A4
350
BCDA
  3
A5
350
BCDB
  3
A6
350
BCDC
  3
A7
350
BCDD
  3
A8
350
BCDE
  3
A9
350
BCDF
  3
B0
350
BCE0
  3
B1
350
BCE1
  3
B2
350
BCE2
  3
B3
350
BCE3
  3
B4
350
BCE4
  3
B5
350
BCE5
  3
B6
350
BCE6
  0
DICTIONARY
  5
BCE9
102
{ACAD_REACTORS
330
B93F
102
}
330
B93F
100
AcDbDictionary
281
     1
  3
Imperial24
350
BCEA
  0
DICTIONARY
  5
BCD3
102
{ACAD_REACTORS
330
B93F
102
}
330
B93F
100
AcDbDictionary
281
     1
  3
Standard
350
BCD4
  0
DICTIONARY
  5
BCB9
102
{ACAD_REACTORS
330
B93F
102
}
330
B93F
100
AcDbDictionary
281
     1
  3
2dWireframe
350
BCBF
  3
Basic
350
BCBE
  3
Brighten
350
BCC5
  3
ColorChange
350
BCC9
  3
Conceptual
350
BCC2
  3
Dim
350
BCC4
  3
EdgeColorOff
350
BCD1
  3
Facepattern
350
BCC8
  3
Flat
350
BCBA
  3
FlatWithEdges
350
BCBB
  3
Gouraud
350
BCBC
  3
GouraudWithEdges
350
BCBD
  3
Hidden
350
BCC1
  3
JitterOff
350
BCCF
  3
Linepattern
350
BCC7
  3
OverhangOff
350
BCD0
  3
Realistic
350
BCC3
  3
Shaded
350
BCCE
  3
Shaded with edges
350
BCCD
  3
Shades of Gray
350
BCCA
  3
Sketchy
350
BCCB
  3
Thicken
350
BCC6
  3
Wireframe
350
BCC0
  3
X-Ray
350
BCCC
  0
XRECORD
  5
BD0E
102
{ACAD_REACTORS
330
B93F
102
}
330
B93F
100
AcDbXrecord
280
     1
 90
        1
330
BCD4
  0
DICTIONARY
  5
BD01
102
{ACAD_REACTORS
330
B93F
102
}
330
B93F
100
AcDbDictionary
281
     1
  3
CANNOSCALE
350
BD06
  3
CMLEADERSTYLE
350
BD03
  3
CTABLESTYLE
350
BD02
  3
CVIEWDETAILSTYLE
350
BD04
  3
CVIEWSECTIONSTYLE
350
BD05
  3
DIMASSOC
350
BD09
  3
INDEXCTL
350
BD08
  3
SORTENTS
350
BD07
  3
XCLIPFRAME
350
BD0A
  0
XRECORD
  5
BD0F
102
{ACAD_REACTORS
330
B93F
102
}
330
B93F
100
AcDbXrecord
280
     1
  1
DWGPROPS COOKIE
  2

  3

  4

  6

  7

  8
Yoshitsune
  9

300
=
301
=
302
=
303
=
304
=
305
=
306
=
307
=
308
=
309
=
 40
0.0000102083333333
 41
2451301.641900347
 42
2457192.687914214
  1

 90
        0
  0
XRECORD
  5
BCF2
102
{ACAD_REACTORS
330
BCF1
102
}
330
BCF1
100
AcDbXrecord
280
     1
290
     1
  0
XRECORD
  5
BCF4
102
{ACAD_REACTORS
330
BCF3
102
}
330
BCF3
100
AcDbXrecord
280
     1
290
     1
  0
XRECORD
  5
BCF6
102
{ACAD_REACTORS
330
BCF5
102
}
330
BCF5
100
AcDbXrecord
280
     1
290
     1
  0
XRECORD
  5
BCF8
102
{ACAD_REACTORS
330
BCF7
102
}
330
BCF7
100
AcDbXrecord
280
     1
290
     1
  0
XRECORD
  5
BCFA
102
{ACAD_REACTORS
330
BCF9
102
}
330
BCF9
100
AcDbXrecord
280
     1
290
     1
  0
XRECORD
  5
BCFC
102
{ACAD_REACTORS
330
BCFB
102
}
330
BCFB
100
AcDbXrecord
280
     1
290
     1
  0
XRECORD
  5
BCFE
102
{ACAD_REACTORS
330
BCFD
102
}
330
BCFD
100
AcDbXrecord
280
     1
290
     1
  0
XRECORD
  5
BD00
102
{ACAD_REACTORS
330
BCFF
102
}
330
BCFF
100
AcDbXrecord
280
     1
290
     1
  0
XRECORD
  5
BC9A
102
{ACAD_REACTORS
330
BC99
102
}
330
BC99
100
AcDbXrecord
280
     1
340
B951
  0
XRECORD
  5
BC98
102
{ACAD_REACTORS
330
BC97
102
}
330
BC97
100
AcDbXrecord
280
     1
340
B94D
  0
ACDBDETAILVIEWSTYLE
  5
BCEC
102
{ACAD_XDICTIONARY
360
BD47
102
}
102
{ACAD_REACTORS
330
BCEB
102
}
330
BCEB
100
AcDbModelDocViewStyle
 70
     0
  3
Imperial24
290
     0
100
AcDbDetailViewStyle
 70
     0
 71
     0
 90
        3
 71
     1
340
B944
 40
0.24
340
0
 40
0.24
300

 40
0.36
280
     3
 71
     2
340
B948
 90
       25
 71
     3
340
B944
 40
0.24
 90
        1
 40
0.75
 90
        1
300
%<\AcVar ViewType \f "%tc1">% %<\AcVar ViewDetailId>%\PSCALE %<\AcVar ViewScale \f "%sn">%
 71
     4
340
B948
 90
       25
340
B948
 90
       25
280
     0
  0
LAYOUT
  5
BCED
102
{ACAD_XDICTIONARY
360
BD49
102
}
102
{ACAD_REACTORS
330
B94C
102
}
330
B94C
100
AcDbPlotSettings
  1

  2
Canon LBP9100C
  4

  6

 40
0.0
 41
0.0
 42
0.0
 43
0.0
 44
0.0
 45
0.0
 46
0.0
 47
0.0
 48
0.0
 49
0.0
140
0.0
141
0.0
142
1.0
143
1.0
 70
  1712
 72
     0
 73
     0
 74
     0
  7

 75
     0
147
1.0
148
0.0
149
0.0
100
AcDbLayout
  1
Model
 70
     1
 71
     0
 10
0.0
 20
0.0
 11
12.0
 21
9.0
 12
0.0
 22
0.0
 32
0.0
 14
0.0
 24
0.0
 34
0.0
 15
0.0
 25
0.0
 35
0.0
146
0.0
 13
0.0
 23
0.0
 33
0.0
 16
1.0
 26
0.0
 36
0.0
 17
0.0
 27
1.0
 37
0.0
 76
     0
330
B951
331
BC96
  0
LAYOUT
  5
BCEE
102
{ACAD_XDICTIONARY
360
BD4B
102
}
102
{ACAD_REACTORS
330
B94C
102
}
330
B94C
100
AcDbPlotSettings
  1

  2
Canon LBP9100C
  4

  6

 40
0.0
 41
0.0
 42
0.0
 43
0.0
 44
0.0
 45
0.0
 46
0.0
 47
0.0
 48
0.0
 49
0.0
140
0.0
141
0.0
142
1.0
143
1.0
 70
   688
 72
     0
 73
     0
 74
     5
  7

 75
    16
147
1.0
148
0.0
149
0.0
100
AcDbLayout
  1
レイアウト1
 70
     0
 71
     1
 10
0.0
 20
0.0
 11
420.0
 21
297.0
 12
0.0
 22
0.0
 32
0.0
 14
1.000000000000000E+20
 24
1.000000000000000E+20
 34
1.000000000000000E+20
 15
-1.000000000000000E+20
 25
-1.000000000000000E+20
 35
-1.000000000000000E+20
146
0.0
 13
0.0
 23
0.0
 33
0.0
 16
1.0
 26
0.0
 36
0.0
 17
0.0
 27
1.0
 37
0.0
 76
     0
330
B94D
  0
MATERIAL
  5
BCA9
102
{ACAD_XDICTIONARY
360
BCAA
102
}
102
{ACAD_REACTORS
330
BCA0
102
}
330
BCA0
100
AcDbMaterial
  1
ByBlock
 72
     0
 43
0.0208333333333333
 43
0.0
 43
0.0
 43
0.0
 43
0.0
 43
0.0208333333333333
 43
0.0
 43
0.0
 43
0.0
 43
0.0
 43
1.0
 43
0.0
 43
0.0
 43
0.0
 43
0.0
 43
1.0
 77
     0
 47
0.0208333333333333
 47
0.0
 47
0.0
 47
0.0
 47
0.0
 47
0.0208333333333333
 47
0.0
 47
0.0
 47
0.0
 47
0.0
 47
1.0
 47
0.0
 47
0.0
 47
0.0
 47
0.0
 47
1.0
171
     0
 49
0.0208333333333333
 49
0.0
 49
0.0
 49
0.0
 49
0.0
 49
0.0208333333333333
 49
0.0
 49
0.0
 49
0.0
 49
0.0
 49
1.0
 49
0.0
 49
0.0
 49
0.0
 49
0.0
 49
1.0
175
     0
142
0.0208333333333333
142
0.0
142
0.0
142
0.0
142
0.0
142
0.0208333333333333
142
0.0
142
0.0
142
0.0
142
0.0
142
1.0
142
0.0
142
0.0
142
0.0
142
0.0
142
1.0
179
     0
144
0.0208333333333333
144
0.0
144
0.0
144
0.0
144
0.0
144
0.0208333333333333
144
0.0
144
0.0
144
0.0
144
0.0
144
1.0
144
0.0
144
0.0
144
0.0
144
0.0
144
1.0
147
0.0208333333333333
147
0.0
147
0.0
147
0.0
147
0.0
147
0.0208333333333333
147
0.0
147
0.0
147
0.0
147
0.0
147
1.0
147
0.0
147
0.0
147
0.0
147
0.0
147
1.0
  0
MATERIAL
  5
BCA1
102
{ACAD_XDICTIONARY
360
BCA2
102
}
102
{ACAD_REACTORS
330
BCA0
102
}
330
BCA0
100
AcDbMaterial
  1
ByLayer
 72
     0
 43
0.0208333333333333
 43
0.0
 43
0.0
 43
0.0
 43
0.0
 43
0.0208333333333333
 43
0.0
 43
0.0
 43
0.0
 43
0.0
 43
1.0
 43
0.0
 43
0.0
 43
0.0
 43
0.0
 43
1.0
 77
     0
 47
0.0208333333333333
 47
0.0
 47
0.0
 47
0.0
 47
0.0
 47
0.0208333333333333
 47
0.0
 47
0.0
 47
0.0
 47
0.0
 47
1.0
 47
0.0
 47
0.0
 47
0.0
 47
0.0
 47
1.0
171
     0
 49
0.0208333333333333
 49
0.0
 49
0.0
 49
0.0
 49
0.0
 49
0.0208333333333333
 49
0.0
 49
0.0
 49
0.0
 49
0.0
 49
1.0
 49
0.0
 49
0.0
 49
0.0
 49
0.0
 49
1.0
175
     0
142
0.0208333333333333
142
0.0
142
0.0
142
0.0
142
0.0
142
0.0208333333333333
142
0.0
142
0.0
142
0.0
142
0.0
142
1.0
142
0.0
142
0.0
142
0.0
142
0.0
142
1.0
179
     0
144
0.0208333333333333
144
0.0
144
0.0
144
0.0
144
0.0
144
0.0208333333333333
144
0.0
144
0.0
144
0.0
144
0.0
144
1.0
144
0.0
144
0.0
144
0.0
144
0.0
144
1.0
147
0.0208333333333333
147
0.0
147
0.0
147
0.0
147
0.0
147
0.0208333333333333
147
0.0
147
0.0
147
0.0
147
0.0
147
1.0
147
0.0
147
0.0
147
0.0
147
0.0
147
1.0
  0
MATERIAL
  5
BCB1
102
{ACAD_XDICTIONARY
360
BCB2
102
}
102
{ACAD_REACTORS
330
BCA0
102
}
330
BCA0
100
AcDbMaterial
  1
Global
 72
     0
 43
0.0208333333333333
 43
0.0
 43
0.0
 43
0.0
 43
0.0
 43
0.0208333333333333
 43
0.0
 43
0.0
 43
0.0
 43
0.0
 43
1.0
 43
0.0
 43
0.0
 43
0.0
 43
0.0
 43
1.0
 77
     0
 47
0.0208333333333333
 47
0.0
 47
0.0
 47
0.0
 47
0.0
 47
0.0208333333333333
 47
0.0
 47
0.0
 47
0.0
 47
0.0
 47
1.0
 47
0.0
 47
0.0
 47
0.0
 47
0.0
 47
1.0
171
     0
 49
0.0208333333333333
 49
0.0
 49
0.0
 49
0.0
 49
0.0
 49
0.0208333333333333
 49
0.0
 49
0.0
 49
0.0
 49
0.0
 49
1.0
 49
0.0
 49
0.0
 49
0.0
 49
0.0
 49
1.0
175
     0
142
0.0208333333333333
142
0.0
142
0.0
142
0.0
142
0.0
142
0.0208333333333333
142
0.0
142
0.0
142
0.0
142
0.0
142
1.0
142
0.0
142
0.0
142
0.0
142
0.0
142
1.0
179
     0
144
0.0208333333333333
144
0.0
144
0.0
144
0.0
144
0.0
144
0.0208333333333333
144
0.0
144
0.0
144
0.0
144
0.0
144
1.0
144
0.0
144
0.0
144
0.0
144
0.0
144
1.0
147
0.0208333333333333
147
0.0
147
0.0
147
0.0
147
0.0
147
0.0208333333333333
147
0.0
147
0.0
147
0.0
147
0.0
147
1.0
147
0.0
147
0.0
147
0.0
147
0.0
147
1.0
  0
MLEADERSTYLE
  5
BCE8
102
{ACAD_REACTORS
330
BCE7
102
}
330
BCE7
100
AcDbMLeaderStyle
170
     2
171
     1
172
     0
 90
        2
 40
0.0
 41
0.0
173
     1
 91
-1056964608
340
B946
 92
       -2
290
     1
 42
0.09
291
     1
 43
0.36
  3
Standard
 44
0.18
300

342
B944
174
     1
178
     6
175
     1
176
     0
 93
-1056964608
 45
0.18
292
     0
297
     0
 46
0.18
 94
-1056964608
 47
1.0
 49
1.0
140
1.0
293
     1
141
0.0
294
     1
177
     0
142
1.0
295
     0
296
     0
143
0.125
1001
ACAD_MLEADERVER
1070
     2
  0
MLINESTYLE
  5
B94A
102
{ACAD_REACTORS
330
B949
102
}
330
B949
100
AcDbMlineStyle
  2
STANDARD
 70
     0
  3

 62
   256
 51
90.0
 52
90.0
 71
     2
 49
0.5
 62
   256
  6
BYLAYER
 49
-0.5
 62
   256
  6
BYLAYER
  0
ACDBPLACEHOLDER
  5
BC9F
102
{ACAD_REACTORS
330
BC9E
102
}
330
BC9E
  0
SCALE
  5
BCD6
102
{ACAD_REACTORS
330
BCD5
102
}
330
BCD5
100
AcDbScale
 70
     0
300
1:1
140
1.0
141
1.0
290
     1
  0
SCALE
  5
BCD7
102
{ACAD_REACTORS
330
BCD5
102
}
330
BCD5
100
AcDbScale
 70
     0
300
1/128" = 1'-0"
140
0.0078125
141
12.0
290
     0
  0
SCALE
  5
BCD8
102
{ACAD_REACTORS
330
BCD5
102
}
330
BCD5
100
AcDbScale
 70
     0
300
1/64" = 1'-0"
140
0.015625
141
12.0
290
     0
  0
SCALE
  5
BCD9
102
{ACAD_REACTORS
330
BCD5
102
}
330
BCD5
100
AcDbScale
 70
     0
300
1/32" = 1'-0"
140
0.03125
141
12.0
290
     0
  0
SCALE
  5
BCDA
102
{ACAD_REACTORS
330
BCD5
102
}
330
BCD5
100
AcDbScale
 70
     0
300
1/16" = 1'-0"
140
0.0625
141
12.0
290
     0
  0
SCALE
  5
BCDB
102
{ACAD_REACTORS
330
BCD5
102
}
330
BCD5
100
AcDbScale
 70
     0
300
3/32" = 1'-0"
140
0.09375
141
12.0
290
     0
  0
SCALE
  5
BCDC
102
{ACAD_REACTORS
330
BCD5
102
}
330
BCD5
100
AcDbScale
 70
     0
300
1/8" = 1'-0"
140
0.125
141
12.0
290
     0
  0
SCALE
  5
BCDD
102
{ACAD_REACTORS
330
BCD5
102
}
330
BCD5
100
AcDbScale
 70
     0
300
3/16" = 1'-0"
140
0.1875
141
12.0
290
     0
  0
SCALE
  5
BCDE
102
{ACAD_REACTORS
330
BCD5
102
}
330
BCD5
100
AcDbScale
 70
     0
300
1/4" = 1'-0"
140
0.25
141
12.0
290
     0
  0
SCALE
  5
BCDF
102
{ACAD_REACTORS
330
BCD5
102
}
330
BCD5
100
AcDbScale
 70
     0
300
3/8" = 1'-0"
140
0.375
141
12.0
290
     0
  0
SCALE
  5
BCE0
102
{ACAD_REACTORS
330
BCD5
102
}
330
BCD5
100
AcDbScale
 70
     0
300
1/2" = 1'-0"
140
0.5
141
12.0
290
     0
  0
SCALE
  5
BCE1
102
{ACAD_REACTORS
330
BCD5
102
}
330
BCD5
100
AcDbScale
 70
     0
300
3/4" = 1'-0"
140
0.75
141
12.0
290
     0
  0
SCALE
  5
BCE2
102
{ACAD_REACTORS
330
BCD5
102
}
330
BCD5
100
AcDbScale
 70
     0
300
1" = 1'-0"
140
1.0
141
12.0
290
     0
  0
SCALE
  5
BCE3
102
{ACAD_REACTORS
330
BCD5
102
}
330
BCD5
100
AcDbScale
 70
     0
300
1-1/2" = 1'-0"
140
1.5
141
12.0
290
     0
  0
SCALE
  5
BCE4
102
{ACAD_REACTORS
330
BCD5
102
}
330
BCD5
100
AcDbScale
 70
     0
300
3" = 1'-0"
140
3.0
141
12.0
290
     0
  0
SCALE
  5
BCE5
102
{ACAD_REACTORS
330
BCD5
102
}
330
BCD5
100
AcDbScale
 70
     0
300
6" = 1'-0"
140
6.0
141
12.0
290
     0
  0
SCALE
  5
BCE6
102
{ACAD_REACTORS
330
BCD5
102
}
330
BCD5
100
AcDbScale
 70
     0
300
1'-0" = 1'-0"
140
12.0
141
12.0
290
     0
  0
ACDBSECTIONVIEWSTYLE
  5
BCEA
102
{ACAD_XDICTIONARY
360
BD45
102
}
102
{ACAD_REACTORS
330
BCE9
102
}
330
BCE9
100
AcDbModelDocViewStyle
 70
     0
  3
Imperial24
290
     0
100
AcDbSectionViewStyle
 70
     0
 71
     0
 90
       78
 71
     1
340
B944
 40
0.24
340
0
340
0
 40
0.24
300
I, O, Q, S, X, Z
 40
0.48
 90
        3
 40
0.18
 90
        1
 71
     2
340
B948
 90
       25
340
B948
 90
       50
 40
0.24
 40
0.0
 40
0.24
 71
     3
340
B944
 40
0.24
 90
        1
 40
0.75
 90
        1
300
%<\AcVar ViewType \f "%tc1">% %<\AcVar ViewSectionStartId>%-%<\AcVar ViewSectionEndId>%\PSCALE %<\AcVar ViewScale \f "%sn">%
 71
     4
300
ANSI31
 40
1.0
 90
        0
290
     0
290
     0
 90
        6
 40
0.0
 40
1.570796326794896
 40
0.2617993877991494
 40
1.308996938995747
 40
-0.2617993877991494
 40
1.832595714594046
  0
TABLESTYLE
  5
BCD4
102
{ACAD_XDICTIONARY
360
BD0C
102
}
102
{ACAD_REACTORS
330
BCD3
102
}
330
BCD3
100
AcDbTableStyle
  3
Standard
 70
     0
 71
     0
 40
0.06
 41
0.06
280
     0
281
     0
  7
STANDARD
140
0.18
170
     2
 62
     0
 63
     7
283
     0
274
    -2
284
     1
 64
     0
275
    -2
285
     1
 65
     0
276
    -2
286
     1
 66
     0
277
    -2
287
     1
 67
     0
278
    -2
288
     1
 68
     0
279
    -2
289
     1
 69
     0
  7
STANDARD
140
0.25
170
     5
 62
     0
 63
     7
283
     0
274
    -2
284
     1
 64
     0
275
    -2
285
     1
 65
     0
276
    -2
286
     1
 66
     0
277
    -2
287
     1
 67
     0
278
    -2
288
     1
 68
     0
279
    -2
289
     1
 69
     0
  7
STANDARD
140
0.18
170
     5
 62
     0
 63
     7
283
     0
274
    -2
284
     1
 64
     0
275
    -2
285
     1
 65
     0
276
    -2
286
     1
 66
     0
277
    -2
287
     1
 67
     0
278
    -2
288
     1
 68
     0
279
    -2
289
     1
 69
     0
  0
VISUALSTYLE
  5
BCBF
102
{ACAD_XDICTIONARY
360
BD1D
102
}
102
{ACAD_REACTORS
330
BCB9
102
}
330
BCB9
100
AcDbVisualStyle
  2
2dWireframe
 70
     4
 71
     0
 72
     2
 73
     0
 90
        0
 40
-0.6
 41
-30.0
 62
     5
 63
     7
 74
     1
 91
        4
 64
     7
 65
   257
 75
     1
175
     1
 42
1.0
 92
        0
 66
   257
 43
1.0
 76
     1
 77
     6
 78
     2
 67
     7
 79
     5
170
     0
171
     0
290
     0
174
     0
 93
        1
 44
0.0
173
     0
291
     0
 45
0.0
1001
ACAD
1000
AcDbSavedByObjectVersion
1070
     0
  0
VISUALSTYLE
  5
BCBE
102
{ACAD_XDICTIONARY
360
BD1B
102
}
102
{ACAD_REACTORS
330
BCB9
102
}
330
BCB9
100
AcDbVisualStyle
  2
Basic
 70
     7
 71
     1
 72
     0
 73
     1
 90
        0
 40
-0.6
 41
-30.0
 62
     5
 63
     7
 74
     0
 91
        4
 64
     7
 65
   257
 75
     1
175
     1
 42
1.0
 92
        8
 66
     7
 43
1.0
 76
     1
 77
     6
 78
     2
 67
     7
 79
     5
170
     0
171
     0
290
     0
174
     0
 93
        1
 44
0.0
173
     0
291
     1
 45
0.0
1001
ACAD
1000
AcDbSavedByObjectVersion
1070
     0
  0
VISUALSTYLE
  5
BCC5
102
{ACAD_XDICTIONARY
360
BD29
102
}
102
{ACAD_REACTORS
330
BCB9
102
}
330
BCB9
100
AcDbVisualStyle
  2
Brighten
 70
    12
 71
     2
 72
     2
 73
     0
 90
        0
 40
-0.6
 41
-30.0
 62
     5
 63
     7
 74
     1
 91
        4
 64
     7
 65
   257
 75
     1
175
     1
 42
1.0
 92
        8
 66
     7
 43
1.0
 76
     1
 77
     6
 78
     2
 67
     7
 79
     5
170
     0
171
     0
290
     0
174
     0
 93
        1
 44
50.0
173
     0
291
     1
 45
0.0
1001
ACAD
1000
AcDbSavedByObjectVersion
1070
     0
  0
VISUALSTYLE
  5
BCC9
102
{ACAD_XDICTIONARY
360
BD31
102
}
102
{ACAD_REACTORS
330
BCB9
102
}
330
BCB9
100
AcDbVisualStyle
  2
ColorChange
 70
    16
 71
     2
 72
     2
 73
     3
 90
        0
 40
-0.6
 41
-30.0
 62
     5
 63
     8
 74
     1
 91
        4
 64
     7
 65
   257
 75
     1
175
     1
 42
1.0
 92
        8
 66
     8
 43
1.0
 76
     1
 77
     6
 78
     2
 67
     7
 79
     5
170
     0
171
     0
290
     0
174
     0
 93
        1
 44
0.0
173
     0
291
     1
 45
0.0
1001
ACAD
1000
AcDbSavedByObjectVersion
1070
     0
  0
VISUALSTYLE
  5
BCC2
102
{ACAD_XDICTIONARY
360
BD23
102
}
102
{ACAD_REACTORS
330
BCB9
102
}
330
BCB9
100
AcDbVisualStyle
  2
Conceptual
 70
     9
 71
     3
 72
     2
 73
     0
 90
        0
 40
-0.6
 41
-30.0
 62
     5
 63
     7
 74
     2
 91
        2
 64
     7
 65
   257
 75
     1
175
     1
 42
179.0
 92
        8
 66
     7
 43
1.0
 76
     1
 77
     6
 78
     2
 67
     7
 79
     3
170
     0
171
     0
290
     0
174
     0
 93
        1
 44
0.0
173
     0
291
     0
 45
0.0
1001
ACAD
1000
AcDbSavedByObjectVersion
1070
     0
  0
VISUALSTYLE
  5
BCC4
102
{ACAD_XDICTIONARY
360
BD27
102
}
102
{ACAD_REACTORS
330
BCB9
102
}
330
BCB9
100
AcDbVisualStyle
  2
Dim
 70
    11
 71
     2
 72
     2
 73
     0
 90
        0
 40
-0.6
 41
-30.0
 62
     5
 63
     7
 74
     1
 91
        4
 64
     7
 65
   257
 75
     1
175
     1
 42
1.0
 92
        8
 66
     7
 43
1.0
 76
     1
 77
     6
 78
     2
 67
     7
 79
     5
170
     0
171
     0
290
     0
174
     0
 93
        1
 44
-50.0
173
     0
291
     1
 45
0.0
1001
ACAD
1000
AcDbSavedByObjectVersion
1070
     0
  0
VISUALSTYLE
  5
BCD1
102
{ACAD_XDICTIONARY
360
BD41
102
}
102
{ACAD_REACTORS
330
BCB9
102
}
330
BCB9
100
AcDbVisualStyle
  2
EdgeColorOff
 70
    22
 71
     2
 72
     2
 73
     0
 90
        0
 40
-0.6
 41
-30.0
 62
     5
 63
     7
 74
     1
 91
        4
 64
     7
 65
   257
 75
     1
175
     1
 42
1.0
 92
        8
 66
     7
 43
1.0
 76
     1
 77
     6
 78
     2
 67
     7
 79
     5
170
     0
171
     0
290
     0
174
     0
 93
        1
 44
0.0
173
     0
291
     1
 45
0.0
1001
ACAD
1000
AcDbSavedByObjectVersion
1070
     0
  0
VISUALSTYLE
  5
BCC8
102
{ACAD_XDICTIONARY
360
BD2F
102
}
102
{ACAD_REACTORS
330
BCB9
102
}
330
BCB9
100
AcDbVisualStyle
  2
Facepattern
 70
    15
 71
     2
 72
     2
 73
     0
 90
        0
 40
-0.6
 41
-30.0
 62
     5
 63
     7
 74
     1
 91
        4
 64
     7
 65
   257
 75
     1
175
     1
 42
1.0
 92
        8
 66
     7
 43
1.0
 76
     1
 77
     6
 78
     2
 67
     7
 79
     5
170
     0
171
     0
290
     0
174
     0
 93
        1
 44
0.0
173
     0
291
     1
 45
0.0
1001
ACAD
1000
AcDbSavedByObjectVersion
1070
     0
  0
VISUALSTYLE
  5
BCBA
102
{ACAD_XDICTIONARY
360
BD13
102
}
102
{ACAD_REACTORS
330
BCB9
102
}
330
BCB9
100
AcDbVisualStyle
  2
Flat
 70
     0
 71
     2
 72
     1
 73
     1
 90
        2
 40
-0.6
 41
30.0
 62
     5
 63
     7
 74
     0
 91
        0
 64
     7
 65
   257
 75
     1
175
     1
 42
1.0
 92
        8
 66
     7
 43
1.0
 76
     1
 77
     6
 78
     2
 67
     7
 79
     5
170
     0
171
     0
290
     0
174
     0
 93
       13
 44
0.0
173
     0
291
     1
 45
0.0
1001
ACAD
1000
AcDbSavedByObjectVersion
1070
     0
  0
VISUALSTYLE
  5
BCBB
102
{ACAD_XDICTIONARY
360
BD15
102
}
102
{ACAD_REACTORS
330
BCB9
102
}
330
BCB9
100
AcDbVisualStyle
  2
FlatWithEdges
 70
     1
 71
     2
 72
     1
 73
     1
 90
        2
 40
-0.6
 41
30.0
 62
     5
 63
     7
 74
     1
 91
        0
 64
     7
 65
   257
 75
     1
175
     1
 42
1.0
 92
        0
 66
   257
 43
1.0
 76
     1
 77
     6
 78
     2
 67
     7
 79
     5
170
     0
171
     0
290
     0
174
     0
 93
       13
 44
0.0
173
     0
291
     1
 45
0.0
1001
ACAD
1000
AcDbSavedByObjectVersion
1070
     0
  0
VISUALSTYLE
  5
BCBC
102
{ACAD_XDICTIONARY
360
BD17
102
}
102
{ACAD_REACTORS
330
BCB9
102
}
330
BCB9
100
AcDbVisualStyle
  2
Gouraud
 70
     2
 71
     2
 72
     2
 73
     1
 90
        2
 40
-0.6
 41
30.0
 62
     5
 63
     7
 74
     0
 91
        0
 64
     7
 65
   257
 75
     1
175
     1
 42
1.0
 92
        0
 66
     7
 43
1.0
 76
     1
 77
     6
 78
     2
 67
     7
 79
     5
170
     0
171
     0
290
     0
174
     0
 93
       13
 44
0.0
173
     0
291
     1
 45
0.0
1001
ACAD
1000
AcDbSavedByObjectVersion
1070
     0
  0
VISUALSTYLE
  5
BCBD
102
{ACAD_XDICTIONARY
360
BD19
102
}
102
{ACAD_REACTORS
330
BCB9
102
}
330
BCB9
100
AcDbVisualStyle
  2
GouraudWithEdges
 70
     3
 71
     2
 72
     2
 73
     1
 90
        2
 40
-0.6
 41
30.0
 62
     5
 63
     7
 74
     1
 91
        0
 64
     7
 65
   257
 75
     1
175
     1
 42
1.0
 92
        0
 66
   257
 43
1.0
 76
     1
 77
     6
 78
     2
 67
     7
 79
     5
170
     0
171
     0
290
     0
174
     0
 93
       13
 44
0.0
173
     0
291
     1
 45
0.0
1001
ACAD
1000
AcDbSavedByObjectVersion
1070
     0
  0
VISUALSTYLE
  5
BCC1
102
{ACAD_XDICTIONARY
360
BD21
102
}
102
{ACAD_REACTORS
330
BCB9
102
}
330
BCB9
100
AcDbVisualStyle
  2
Hidden
 70
     6
 71
     1
 72
     2
 73
     2
 90
        0
 40
-0.6
 41
-30.0
 62
     5
 63
     7
 74
     2
 91
        2
 64
     7
 65
   257
 75
     2
175
     1
 42
40.0
 92
        0
 66
   257
 43
1.0
 76
     1
 77
     6
 78
     2
 67
     7
 79
     3
170
     0
171
     0
290
     0
174
     0
 93
        1
 44
0.0
173
     0
291
     0
 45
0.0
1001
ACAD
1000
AcDbSavedByObjectVersion
1070
     0
  0
VISUALSTYLE
  5
BCCF
102
{ACAD_XDICTIONARY
360
BD3D
102
}
102
{ACAD_REACTORS
330
BCB9
102
}
330
BCB9
100
AcDbVisualStyle
  2
JitterOff
 70
    20
 71
     2
 72
     2
 73
     0
 90
        0
 40
-0.6
 41
-30.0
 62
     5
 63
     7
 74
     1
 91
        4
 64
     7
 65
   257
 75
     1
175
     1
 42
1.0
 92
       10
 66
     7
 43
1.0
 76
     1
 77
     6
 78
     2
 67
     7
 79
     5
170
     0
171
     0
290
     0
174
     0
 93
        1
 44
0.0
173
     0
291
     1
 45
0.0
1001
ACAD
1000
AcDbSavedByObjectVersion
1070
     0
  0
VISUALSTYLE
  5
BCC7
102
{ACAD_XDICTIONARY
360
BD2D
102
}
102
{ACAD_REACTORS
330
BCB9
102
}
330
BCB9
100
AcDbVisualStyle
  2
Linepattern
 70
    14
 71
     2
 72
     2
 73
     0
 90
        0
 40
-0.6
 41
-30.0
 62
     5
 63
     7
 74
     1
 91
        4
 64
     7
 65
   257
 75
     7
175
     7
 42
1.0
 92
        8
 66
     7
 43
1.0
 76
     1
 77
     6
 78
     2
 67
     7
 79
     5
170
     0
171
     0
290
     0
174
     0
 93
        1
 44
0.0
173
     0
291
     1
 45
0.0
1001
ACAD
1000
AcDbSavedByObjectVersion
1070
     0
  0
VISUALSTYLE
  5
BCD0
102
{ACAD_XDICTIONARY
360
BD3F
102
}
102
{ACAD_REACTORS
330
BCB9
102
}
330
BCB9
100
AcDbVisualStyle
  2
OverhangOff
 70
    21
 71
     2
 72
     2
 73
     0
 90
        0
 40
-0.6
 41
-30.0
 62
     5
 63
     7
 74
     1
 91
        4
 64
     7
 65
   257
 75
     1
175
     1
 42
1.0
 92
        9
 66
     7
 43
1.0
 76
     1
 77
     6
 78
     2
 67
     7
 79
     5
170
     0
171
     0
290
     0
174
     0
 93
        1
 44
0.0
173
     0
291
     1
 45
0.0
1001
ACAD
1000
AcDbSavedByObjectVersion
1070
     0
  0
VISUALSTYLE
  5
BCC3
102
{ACAD_XDICTIONARY
360
BD25
102
}
102
{ACAD_REACTORS
330
BCB9
102
}
330
BCB9
100
AcDbVisualStyle
  2
Realistic
 70
     8
 71
     2
 72
     3
 73
     0
 90
        2
 40
-0.6
 41
30.0
 62
     5
 63
     7
 74
     0
 91
        0
 64
     7
 65
   257
 75
     1
175
     1
 42
1.0
 92
        8
 66
   257
 43
1.0
 76
     1
 77
     6
 78
     2
 67
     7
 79
     3
170
     0
171
     0
290
     0
174
     0
 93
       13
 44
0.0
173
     0
291
     0
 45
0.0
1001
ACAD
1000
AcDbSavedByObjectVersion
1070
     0
  0
VISUALSTYLE
  5
BCCE
102
{ACAD_XDICTIONARY
360
BD3B
102
}
102
{ACAD_REACTORS
330
BCB9
102
}
330
BCB9
100
AcDbVisualStyle
  2
Shaded
 70
    27
 71
     2
 72
     2
 73
     1
 90
        2
 40
-0.6
 41
30.0
 62
     5
 63
     7
 74
     0
 91
        4
 64
     7
 65
   257
 75
     1
175
     1
 42
1.0
 92
        8
 66
   257
 43
1.0
 76
     1
 77
     6
 78
     2
 67
     8
 79
     3
170
     0
171
     0
290
     0
174
     0
 93
        5
 44
0.0
173
     0
291
     0
 45
0.0
1001
ACAD
1000
AcDbSavedByObjectVersion
1070
     0
  0
VISUALSTYLE
  5
BCCD
102
{ACAD_XDICTIONARY
360
BD39
102
}
102
{ACAD_REACTORS
330
BCB9
102
}
330
BCB9
100
AcDbVisualStyle
  2
Shaded with edges
 70
    26
 71
     2
 72
     2
 73
     1
 90
        2
 40
-0.6
 41
30.0
 62
     5
 63
     7
 74
     1
 91
       10
 64
     7
 65
   257
 75
     2
175
     1
 42
1.0
 92
        8
 66
   257
 43
1.0
 76
     1
 77
     6
 78
     2
 67
     7
 79
     3
170
     0
171
     0
290
     0
174
     0
 93
        5
 44
0.0
173
     0
291
     0
 45
0.0
1001
ACAD
1000
AcDbSavedByObjectVersion
1070
     0
  0
VISUALSTYLE
  5
BCCA
102
{ACAD_XDICTIONARY
360
BD33
102
}
102
{ACAD_REACTORS
330
BCB9
102
}
330
BCB9
100
AcDbVisualStyle
  2
Shades of Gray
 70
    23
 71
     2
 72
     2
 73
     3
 90
        0
 40
-0.6
 41
-30.0
 62
     5
 63
     7
 74
     2
 91
        2
 64
     7
 65
     7
 75
     1
175
     1
 42
40.0
 92
        8
 66
     7
 43
1.0
 76
     1
 77
     6
 78
     2
 67
     7
 79
     3
170
     0
171
     0
290
     0
174
     0
 93
        1
 44
0.0
173
     0
291
     0
 45
0.0
1001
ACAD
1000
AcDbSavedByObjectVersion
1070
     0
  0
VISUALSTYLE
  5
BCCB
102
{ACAD_XDICTIONARY
360
BD35
102
}
102
{ACAD_REACTORS
330
BCB9
102
}
330
BCB9
100
AcDbVisualStyle
  2
Sketchy
 70
    24
 71
     1
 72
     2
 73
     2
 90
        0
 40
-0.6
 41
-30.0
 62
     5
 63
     7
 74
     2
 91
        2
 64
     7
 65
     7
 75
     1
175
     1
 42
40.0
 92
       11
 66
     7
 43
1.0
 76
     1
 77
     6
 78
     2
 67
     7
 79
     6
170
     0
171
     0
290
     0
174
     0
 93
        1
 44
0.0
173
     0
291
     0
 45
0.0
1001
ACAD
1000
AcDbSavedByObjectVersion
1070
     0
  0
VISUALSTYLE
  5
BCC6
102
{ACAD_XDICTIONARY
360
BD2B
102
}
102
{ACAD_REACTORS
330
BCB9
102
}
330
BCB9
100
AcDbVisualStyle
  2
Thicken
 70
    13
 71
     2
 72
     2
 73
     0
 90
        0
 40
-0.6
 41
-30.0
 62
     5
 63
     7
 74
     1
 91
        4
 64
     7
 65
   257
 75
     1
175
     1
 42
1.0
 92
       12
 66
     7
 43
1.0
 76
     1
 77
     6
 78
     2
 67
     7
 79
     5
170
     0
171
     0
290
     0
174
     0
 93
        1
 44
0.0
173
     0
291
     1
 45
0.0
1001
ACAD
1000
AcDbSavedByObjectVersion
1070
     0
  0
VISUALSTYLE
  5
BCC0
102
{ACAD_XDICTIONARY
360
BD1F
102
}
102
{ACAD_REACTORS
330
BCB9
102
}
330
BCB9
100
AcDbVisualStyle
  2
Wireframe
 70
     5
 71
     0
 72
     2
 73
     0
 90
        0
 40
-0.6
 41
-30.0
 62
     5
 63
     7
 74
     1
 91
        4
 64
     7
 65
   257
 75
     1
175
     1
 42
1.0
 92
        0
 66
   257
 43
1.0
 76
     1
 77
     6
 78
     2
 67
     7
 79
     3
170
     0
171
     0
290
     0
174
     0
 93
        1
 44
0.0
173
     0
291
     0
 45
0.0
1001
ACAD
1000
AcDbSavedByObjectVersion
1070
     0
  0
VISUALSTYLE
  5
BCCC
102
{ACAD_XDICTIONARY
360
BD37
102
}
102
{ACAD_REACTORS
330
BCB9
102
}
330
BCB9
100
AcDbVisualStyle
  2
X-Ray
 70
    25
 71
     2
 72
     2
 73
     1
 90
        1
 40
0.5
 41
-30.0
 62
     5
 63
     7
 74
     1
 91
        0
 64
     7
 65
   257
 75
     1
175
     1
 42
1.0
 92
        8
 66
     7
 43
1.0
 76
     1
 77
     6
 78
     2
 67
     7
 79
     3
170
     0
171
     0
290
     0
174
     0
 93
       13
 44
0.0
173
     0
291
     0
 45
0.0
1001
ACAD
1000
AcDbSavedByObjectVersion
1070
     0
  0
DICTIONARYVAR
  5
BD06
102
{ACAD_REACTORS
330
BD01
102
}
330
BD01
100
DictionaryVariables
280
     0
  1
1:1
  0
DICTIONARYVAR
  5
BD03
102
{ACAD_REACTORS
330
BD01
102
}
330
BD01
100
DictionaryVariables
280
     0
  1
STANDARD
  0
DICTIONARYVAR
  5
BD02
102
{ACAD_REACTORS
330
BD01
102
}
330
BD01
100
DictionaryVariables
280
     0
  1
STANDARD
  0
DICTIONARYVAR
  5
BD04
102
{ACAD_REACTORS
330
BD01
102
}
330
BD01
100
DictionaryVariables
280
     0
  1
Imperial24
  0
DICTIONARYVAR
  5
BD05
102
{ACAD_REACTORS
330
BD01
102
}
330
BD01
100
DictionaryVariables
280
     0
  1
Imperial24
  0
DICTIONARYVAR
  5
BD09
102
{ACAD_REACTORS
330
BD01
102
}
330
BD01
100
DictionaryVariables
280
     0
  1
1
  0
DICTIONARYVAR
  5
BD08
102
{ACAD_REACTORS
330
BD01
102
}
330
BD01
100
DictionaryVariables
280
     0
  1
0
  0
DICTIONARYVAR
  5
BD07
102
{ACAD_REACTORS
330
BD01
102
}
330
BD01
100
DictionaryVariables
280
     0
  1
127
  0
DICTIONARYVAR
  5
BD0A
102
{ACAD_REACTORS
330
BD01
102
}
330
BD01
100
DictionaryVariables
280
     0
  1
2
  0
DICTIONARY
  5
BD47
330
BCEC
100
AcDbDictionary
280
     1
281
     1
  3
ACAD_XREC_ROUNDTRIP
360
BD48
  0
DICTIONARY
  5
BD49
330
BCED
100
AcDbDictionary
280
     1
281
     1
  3
ACAD_XREC_ROUNDTRIP
360
BD4A
  0
DICTIONARY
  5
BD4B
330
BCEE
100
AcDbDictionary
280
     1
281
     1
  3
ACAD_XREC_ROUNDTRIP
360
BD4C
  0
DICTIONARY
  5
BCAA
330
BCA9
100
AcDbDictionary
280
     1
281
     1
  3
ACAD_XREC_ROUNDTRIP
360
BD11
  3
BUMPTILE
360
BCAC
  3
DIFFUSETILE
360
BCAB
  3
OPACITYTILE
360
BCAF
  3
REFLECTIONTILE
360
BCAE
  3
REFRACTIONTILE
360
BCB0
  3
SPECULARTILE
360
BCAD
  0
DICTIONARY
  5
BCA2
330
BCA1
100
AcDbDictionary
280
     1
281
     1
  3
ACAD_XREC_ROUNDTRIP
360
BD10
  3
BUMPTILE
360
BCA4
  3
DIFFUSETILE
360
BCA3
  3
OPACITYTILE
360
BCA7
  3
REFLECTIONTILE
360
BCA6
  3
REFRACTIONTILE
360
BCA8
  3
SPECULARTILE
360
BCA5
  0
DICTIONARY
  5
BCB2
330
BCB1
100
AcDbDictionary
280
     1
281
     1
  3
ACAD_XREC_ROUNDTRIP
360
BD12
  3
BUMPTILE
360
BCB4
  3
DIFFUSETILE
360
BCB3
  3
OPACITYTILE
360
BCB7
  3
REFLECTIONTILE
360
BCB6
  3
REFRACTIONTILE
360
BCB8
  3
SPECULARTILE
360
BCB5
  0
DICTIONARY
  5
BD45
330
BCEA
100
AcDbDictionary
280
     1
281
     1
  3
ACAD_XREC_ROUNDTRIP
360
BD46
  0
DICTIONARY
  5
BD0C
330
BCD4
100
AcDbDictionary
280
     1
281
     1
  3
ACAD_ROUNDTRIP_2008_TABLESTYLE_CELLSTYLEMAP
360
BD0D
  3
ACAD_XREC_ROUNDTRIP
360
BD43
  0
DICTIONARY
  5
BD1D
330
BCBF
100
AcDbDictionary
280
     1
281
     1
  3
ACAD_XREC_ROUNDTRIP
360
BD1E
  0
DICTIONARY
  5
BD1B
330
BCBE
100
AcDbDictionary
280
     1
281
     1
  3
ACAD_XREC_ROUNDTRIP
360
BD1C
  0
DICTIONARY
  5
BD29
330
BCC5
100
AcDbDictionary
280
     1
281
     1
  3
ACAD_XREC_ROUNDTRIP
360
BD2A
  0
DICTIONARY
  5
BD31
330
BCC9
100
AcDbDictionary
280
     1
281
     1
  3
ACAD_XREC_ROUNDTRIP
360
BD32
  0
DICTIONARY
  5
BD23
330
BCC2
100
AcDbDictionary
280
     1
281
     1
  3
ACAD_XREC_ROUNDTRIP
360
BD24
  0
DICTIONARY
  5
BD27
330
BCC4
100
AcDbDictionary
280
     1
281
     1
  3
ACAD_XREC_ROUNDTRIP
360
BD28
  0
DICTIONARY
  5
BD41
330
BCD1
100
AcDbDictionary
280
     1
281
     1
  3
ACAD_XREC_ROUNDTRIP
360
BD42
  0
DICTIONARY
  5
BD2F
330
BCC8
100
AcDbDictionary
280
     1
281
     1
  3
ACAD_XREC_ROUNDTRIP
360
BD30
  0
DICTIONARY
  5
BD13
330
BCBA
100
AcDbDictionary
280
     1
281
     1
  3
ACAD_XREC_ROUNDTRIP
360
BD14
  0
DICTIONARY
  5
BD15
330
BCBB
100
AcDbDictionary
280
     1
281
     1
  3
ACAD_XREC_ROUNDTRIP
360
BD16
  0
DICTIONARY
  5
BD17
330
BCBC
100
AcDbDictionary
280
     1
281
     1
  3
ACAD_XREC_ROUNDTRIP
360
BD18
  0
DICTIONARY
  5
BD19
330
BCBD
100
AcDbDictionary
280
     1
281
     1
  3
ACAD_XREC_ROUNDTRIP
360
BD1A
  0
DICTIONARY
  5
BD21
330
BCC1
100
AcDbDictionary
280
     1
281
     1
  3
ACAD_XREC_ROUNDTRIP
360
BD22
  0
DICTIONARY
  5
BD3D
330
BCCF
100
AcDbDictionary
280
     1
281
     1
  3
ACAD_XREC_ROUNDTRIP
360
BD3E
  0
DICTIONARY
  5
BD2D
330
BCC7
100
AcDbDictionary
280
     1
281
     1
  3
ACAD_XREC_ROUNDTRIP
360
BD2E
  0
DICTIONARY
  5
BD3F
330
BCD0
100
AcDbDictionary
280
     1
281
     1
  3
ACAD_XREC_ROUNDTRIP
360
BD40
  0
DICTIONARY
  5
BD25
330
BCC3
100
AcDbDictionary
280
     1
281
     1
  3
ACAD_XREC_ROUNDTRIP
360
BD26
  0
DICTIONARY
  5
BD3B
330
BCCE
100
AcDbDictionary
280
     1
281
     1
  3
ACAD_XREC_ROUNDTRIP
360
BD3C
  0
DICTIONARY
  5
BD39
330
BCCD
100
AcDbDictionary
280
     1
281
     1
  3
ACAD_XREC_ROUNDTRIP
360
BD3A
  0
DICTIONARY
  5
BD33
330
BCCA
100
AcDbDictionary
280
     1
281
     1
  3
ACAD_XREC_ROUNDTRIP
360
BD34
  0
DICTIONARY
  5
BD35
330
BCCB
100
AcDbDictionary
280
     1
281
     1
  3
ACAD_XREC_ROUNDTRIP
360
BD36
  0
DICTIONARY
  5
BD2B
330
BCC6
100
AcDbDictionary
280
     1
281
     1
  3
ACAD_XREC_ROUNDTRIP
360
BD2C
  0
DICTIONARY
  5
BD1F
330
BCC0
100
AcDbDictionary
280
     1
281
     1
  3
ACAD_XREC_ROUNDTRIP
360
BD20
  0
DICTIONARY
  5
BD37
330
BCCC
100
AcDbDictionary
280
     1
281
     1
  3
ACAD_XREC_ROUNDTRIP
360
BD38
  0
XRECORD
  5
BD48
102
{ACAD_REACTORS
330
BD47
102
}
330
BD47
100
AcDbXrecord
280
     1
102
DISPLAYNAME
  1
Imperial24
102
FLAGS
 90
        0
  0
XRECORD
  5
BD4A
102
{ACAD_REACTORS
330
BD49
102
}
330
BD49
100
AcDbXrecord
280
     1
102
SHADEPLOT
 70
     0
102
SHADEPLOTRESLEVEL
 70
     2
102
SHADEPLOTCUSTOMDPI
 70
   300
  0
XRECORD
  5
BD4C
102
{ACAD_REACTORS
330
BD4B
102
}
330
BD4B
100
AcDbXrecord
280
     1
102
SHADEPLOT
 70
     0
102
SHADEPLOTRESLEVEL
 70
     2
102
SHADEPLOTCUSTOMDPI
 70
   300
  0
XRECORD
  5
BD11
102
{ACAD_REACTORS
330
BCAA
102
}
330
BCAA
100
AcDbXrecord
280
     1
102
MATERIAL
148
0.0
149
0.0
149
0.0
 93
        0
 94
      127
282
     0
 72
     0
 77
     0
171
     0
175
     0
179
     0
273
     0
  0
XRECORD
  5
BCAC
102
{ACAD_REACTORS
330
BCAA
102
}
330
BCAA
100
AcDbXrecord
280
     1
270
     1
271
     1
  0
XRECORD
  5
BCAB
102
{ACAD_REACTORS
330
BCAA
102
}
330
BCAA
100
AcDbXrecord
280
     1
270
     1
271
     1
  0
XRECORD
  5
BCAF
102
{ACAD_REACTORS
330
BCAA
102
}
330
BCAA
100
AcDbXrecord
280
     1
270
     1
271
     1
  0
XRECORD
  5
BCAE
102
{ACAD_REACTORS
330
BCAA
102
}
330
BCAA
100
AcDbXrecord
280
     1
270
     1
271
     1
  0
XRECORD
  5
BCB0
102
{ACAD_REACTORS
330
BCAA
102
}
330
BCAA
100
AcDbXrecord
280
     1
270
     1
271
     1
  0
XRECORD
  5
BCAD
102
{ACAD_REACTORS
330
BCAA
102
}
330
BCAA
100
AcDbXrecord
280
     1
270
     1
271
     1
  0
XRECORD
  5
BD10
102
{ACAD_REACTORS
330
BCA2
102
}
330
BCA2
100
AcDbXrecord
280
     1
102
MATERIAL
148
0.0
149
0.0
149
0.0
 93
        0
 94
      127
282
     0
 72
     0
 77
     0
171
     0
175
     0
179
     0
273
     0
  0
XRECORD
  5
BCA4
102
{ACAD_REACTORS
330
BCA2
102
}
330
BCA2
100
AcDbXrecord
280
     1
270
     1
271
     1
  0
XRECORD
  5
BCA3
102
{ACAD_REACTORS
330
BCA2
102
}
330
BCA2
100
AcDbXrecord
280
     1
270
     1
271
     1
  0
XRECORD
  5
BCA7
102
{ACAD_REACTORS
330
BCA2
102
}
330
BCA2
100
AcDbXrecord
280
     1
270
     1
271
     1
  0
XRECORD
  5
BCA6
102
{ACAD_REACTORS
330
BCA2
102
}
330
BCA2
100
AcDbXrecord
280
     1
270
     1
271
     1
  0
XRECORD
  5
BCA8
102
{ACAD_REACTORS
330
BCA2
102
}
330
BCA2
100
AcDbXrecord
280
     1
270
     1
271
     1
  0
XRECORD
  5
BCA5
102
{ACAD_REACTORS
330
BCA2
102
}
330
BCA2
100
AcDbXrecord
280
     1
270
     1
271
     1
  0
XRECORD
  5
BD12
102
{ACAD_REACTORS
330
BCB2
102
}
330
BCB2
100
AcDbXrecord
280
     1
102
MATERIAL
148
0.0
149
0.0
149
0.0
 93
        0
 94
      127
282
     0
 72
     0
 77
     0
171
     0
175
     0
179
     0
273
     0
  0
XRECORD
  5
BCB4
102
{ACAD_REACTORS
330
BCB2
102
}
330
BCB2
100
AcDbXrecord
280
     1
270
     1
271
     1
  0
XRECORD
  5
BCB3
102
{ACAD_REACTORS
330
BCB2
102
}
330
BCB2
100
AcDbXrecord
280
     1
270
     1
271
     1
  0
XRECORD
  5
BCB7
102
{ACAD_REACTORS
330
BCB2
102
}
330
BCB2
100
AcDbXrecord
280
     1
270
     1
271
     1
  0
XRECORD
  5
BCB6
102
{ACAD_REACTORS
330
BCB2
102
}
330
BCB2
100
AcDbXrecord
280
     1
270
     1
271
     1
  0
XRECORD
  5
BCB8
102
{ACAD_REACTORS
330
BCB2
102
}
330
BCB2
100
AcDbXrecord
280
     1
270
     1
271
     1
  0
XRECORD
  5
BCB5
102
{ACAD_REACTORS
330
BCB2
102
}
330
BCB2
100
AcDbXrecord
280
     1
270
     1
271
     1
  0
XRECORD
  5
BD46
102
{ACAD_REACTORS
330
BD45
102
}
330
BD45
100
AcDbXrecord
280
     1
102
DISPLAYNAME
  1
Imperial24
102
FLAGS
 90
        0
  0
CELLSTYLEMAP
  5
BD0D
102
{ACAD_REACTORS
330
BD0C
102
}
330
BD0C
100
AcDbCellStyleMap
 90
        3
300
CELLSTYLE
  1
TABLEFORMAT_BEGIN
 90
        5
170
     1
 91
        0
 92
    32768
 62
   257
 93
        1
300
CONTENTFORMAT
  1
CONTENTFORMAT_BEGIN
 90
        0
 91
        0
 92
      512
 93
        0
300

 40
0.0
140
1.0
 94
        5
 62
     0
340
B944
144
0.25
309
CONTENTFORMAT_END
171
     0
 94
        0
309
TABLEFORMAT_END
  1
CELLSTYLE_BEGIN
 90
        1
 91
        1
300
_TITLE
309
CELLSTYLE_END
300
CELLSTYLE
  1
TABLEFORMAT_BEGIN
 90
        5
170
     1
 91
        0
 92
        0
 62
   257
 93
        1
300
CONTENTFORMAT
  1
CONTENTFORMAT_BEGIN
 90
        0
 91
        0
 92
      512
 93
        0
300

 40
0.0
140
1.0
 94
        5
 62
     0
340
B944
144
0.18
309
CONTENTFORMAT_END
171
     0
 94
        0
309
TABLEFORMAT_END
  1
CELLSTYLE_BEGIN
 90
        2
 91
        1
300
_HEADER
309
CELLSTYLE_END
300
CELLSTYLE
  1
TABLEFORMAT_BEGIN
 90
        5
170
     1
 91
        0
 92
        0
 62
   257
 93
        1
300
CONTENTFORMAT
  1
CONTENTFORMAT_BEGIN
 90
        0
 91
        0
 92
      512
 93
        0
300

 40
0.0
140
1.0
 94
        2
 62
     0
340
B944
144
0.18
309
CONTENTFORMAT_END
171
     0
 94
        0
309
TABLEFORMAT_END
  1
CELLSTYLE_BEGIN
 90
        3
 91
        2
300
_DATA
309
CELLSTYLE_END
  0
XRECORD
  5
BD43
102
{ACAD_REACTORS
330
BD0C
102
}
330
BD0C
100
AcDbXrecord
280
     1
102
ACAD_ROUNDTRIP_PRE2007_TABLESTYLE
 90
      512
 91
        0
  1

 92
      512
 93
        0
  2

 94
      512
 95
        0
  3

  0
XRECORD
  5
BD1E
102
{ACAD_REACTORS
330
BD1D
102
}
330
BD1D
100
AcDbXrecord
280
     1
102
RTVSPost2010Prop28
280
     1
102
RTVSPost2010PropOp28
 70
     1
102
RTVSPost2010Prop29
280
     1
102
RTVSPost2010PropOp29
 70
     1
102
RTVSPost2010Prop30
280
     0
102
RTVSPost2010PropOp30
 70
     1
102
RTVSPost2010Prop31
280
     0
102
RTVSPost2010PropOp31
 70
     1
102
RTVSPost2010Prop32
280
     0
102
RTVSPost2010PropOp32
 70
     1
102
RTVSPost2010Prop33
280
     0
102
RTVSPost2010PropOp33
 70
     1
102
RTVSPost2010Prop34
280
     0
102
RTVSPost2010PropOp34
 70
     1
102
RTVSPost2010Prop35
280
     0
102
RTVSPost2010PropOp35
 70
     1
102
RTVSPost2010Prop36
280
     0
102
RTVSPost2010PropOp36
 70
     1
102
RTVSPost2010Prop37
 90
       50
102
RTVSPost2010PropOp37
 70
     1
102
RTVSPost2010Prop38
140
0.0
102
RTVSPost2010PropOp38
 70
     1
102
RTVSPost2010Prop39
140
1.0
102
RTVSPost2010PropOp39
 70
     1
102
RTVSPost2010Prop40
 90
        0
102
RTVSPost2010PropOp40
 70
     1
102
RTVSPost2010Prop41ColorIndex
 90
       18
102
RTVSPost2010Prop41ColorRGB
 90
        0
102
RTVSPost2010PropOp41
 70
     1
102
RTVSPost2010Prop42
 90
       50
102
RTVSPost2010PropOp42
 70
     1
102
RTVSPost2010Prop43
 90
        3
102
RTVSPost2010PropOp43
 70
     1
102
RTVSPost2010Prop44ColorIndex
 90
        5
102
RTVSPost2010Prop44ColorRGB
 90
      255
102
RTVSPost2010PropOp44
 70
     1
102
RTVSPost2010Prop45
280
     0
102
RTVSPost2010PropOp45
 70
     1
102
RTVSPost2010Prop46
 90
       50
102
RTVSPost2010PropOp46
 70
     1
102
RTVSPost2010Prop47
 90
       50
102
RTVSPost2010PropOp47
 70
     1
102
RTVSPost2010Prop48
 90
       50
102
RTVSPost2010PropOp48
 70
     1
102
RTVSPost2010Prop49
280
     0
102
RTVSPost2010PropOp49
 70
     1
102
RTVSPost2010Prop50
 90
       50
102
RTVSPost2010PropOp50
 70
     1
102
RTVSPost2010Prop51ColorIndex
 90
      256
102
RTVSPost2010Prop51ColorRGB
 90
-16777216
102
RTVSPost2010PropOp51
 70
     0
102
RTVSPost2010Prop52
140
1.0
102
RTVSPost2010PropOp52
 70
     0
102
RTVSPost2010Prop53
 90
        2
102
RTVSPost2010PropOp53
 70
     1
102
RTVSPost2010Prop54
  1
strokes_ogs.tif
102
RTVSPost2010PropOp54
 70
     1
102
RTVSPost2010Prop55
280
     0
102
RTVSPost2010PropOp55
 70
     1
102
RTVSPost2010Prop56
140
1.0
102
RTVSPost2010PropOp56
 70
     1
102
RTVSPost2010Prop57
140
1.0
102
RTVSPost2010PropOp57
 70
     1
102
RTVSPropertyOp0
 70
     1
102
RTVSPropertyOp1
 70
     1
102
RTVSPropertyOp2
 70
     1
102
RTVSPropertyOp3
 70
     1
102
RTVSPropertyOp4
 70
     1
102
RTVSPropertyOp5
 70
     1
102
RTVSPropertyOp6
 70
     1
102
RTVSPropertyOp7
 70
     1
102
RTVSPropertyOp8
 70
     1
102
RTVSPropertyOp9
 70
     1
102
RTVSPropertyOp10
 70
     1
102
RTVSPropertyOp11
 70
     1
102
RTVSPropertyOp12
 70
     1
102
RTVSPropertyOp13
 70
     1
102
RTVSPropertyOp14
 70
     1
102
RTVSPropertyOp15
 70
     1
102
RTVSPropertyOp16
 70
     1
102
RTVSPropertyOp17
 70
     1
102
RTVSPropertyOp18
 70
     1
102
RTVSPropertyOp19
 70
     1
102
RTVSPropertyOp20
 70
     1
102
RTVSPropertyOp21
 70
     1
102
RTVSPropertyOp22
 70
     1
102
RTVSPropertyOp23
 70
     1
102
RTVSPropertyOp24
 70
     1
102
RTVSPropertyOp25
 70
     1
102
RTVSPropertyOp26
 70
     1
102
RTVSPropertyOp27
 70
     1
102
RTVSPropertyOp28
 70
     1
102
RTVSPropertyOp29
 70
     1
102
RTVSPropertyOp30
 70
     1
102
RTVSPropertyOp31
 70
     1
102
RTVSPropertyOp32
 70
     1
102
RTVSPropertyOp33
 70
     1
102
RTVSPropertyOp34
 70
     1
102
RTVSPropertyOp35
 70
     1
102
RTVSPropertyOp36
 70
     1
102
RTVSPropertyOp37
 70
     1
102
RTVSPropertyOp38
 70
     1
102
RTVSPropertyOp39
 70
     1
102
RTVSPropertyOp40
 70
     1
102
RTVSPropertyOp41
 70
     1
102
RTVSPropertyOp42
 70
     1
102
RTVSPropertyOp43
 70
     1
102
RTVSPropertyOp44
 70
     1
102
RTVSPropertyOp45
 70
     1
102
RTVSPropertyOp46
 70
     1
102
RTVSPropertyOp47
 70
     1
102
RTVSPropertyOp48
 70
     1
102
RTVSPropertyOp49
 70
     1
102
RTVSPropertyOp50
 70
     1
102
RTVSPropertyOp51
 70
     0
102
RTVSPropertyOp52
 70
     0
102
RTVSPropertyOp53
 70
     1
102
RTVSPropertyOp54
 70
     1
102
RTVSPropertyOp55
 70
     1
102
RTVSPropertyOp56
 70
     1
102
RTVSPropertyOp57
 70
     1
102
RTVSPropertyOp58
 70
     1
102
RTVSPropertyOp59
 70
     1
102
RTVSPropertyOp60
 70
     1
102
RTVSPropertyOp61
 70
     1
102
RTVSPropertyOp62
 70
     1
  0
XRECORD
  5
BD1C
102
{ACAD_REACTORS
330
BD1B
102
}
330
BD1B
100
AcDbXrecord
280
     1
102
RTVSPost2010Prop28
280
     0
102
RTVSPost2010PropOp28
 70
     1
102
RTVSPost2010Prop29
280
     1
102
RTVSPost2010PropOp29
 70
     1
102
RTVSPost2010Prop30
280
     1
102
RTVSPost2010PropOp30
 70
     1
102
RTVSPost2010Prop31
280
     0
102
RTVSPost2010PropOp31
 70
     1
102
RTVSPost2010Prop32
280
     0
102
RTVSPost2010PropOp32
 70
     1
102
RTVSPost2010Prop33
280
     0
102
RTVSPost2010PropOp33
 70
     1
102
RTVSPost2010Prop34
280
     0
102
RTVSPost2010PropOp34
 70
     1
102
RTVSPost2010Prop35
280
     0
102
RTVSPost2010PropOp35
 70
     1
102
RTVSPost2010Prop36
280
     0
102
RTVSPost2010PropOp36
 70
     1
102
RTVSPost2010Prop37
 90
       50
102
RTVSPost2010PropOp37
 70
     1
102
RTVSPost2010Prop38
140
0.0
102
RTVSPost2010PropOp38
 70
     1
102
RTVSPost2010Prop39
140
1.0
102
RTVSPost2010PropOp39
 70
     1
102
RTVSPost2010Prop40
 90
        0
102
RTVSPost2010PropOp40
 70
     1
102
RTVSPost2010Prop41ColorIndex
 90
       18
102
RTVSPost2010Prop41ColorRGB
 90
        0
102
RTVSPost2010PropOp41
 70
     1
102
RTVSPost2010Prop42
 90
       50
102
RTVSPost2010PropOp42
 70
     1
102
RTVSPost2010Prop43
 90
        3
102
RTVSPost2010PropOp43
 70
     1
102
RTVSPost2010Prop44ColorIndex
 90
        5
102
RTVSPost2010Prop44ColorRGB
 90
      255
102
RTVSPost2010PropOp44
 70
     1
102
RTVSPost2010Prop45
280
     0
102
RTVSPost2010PropOp45
 70
     1
102
RTVSPost2010Prop46
 90
       50
102
RTVSPost2010PropOp46
 70
     1
102
RTVSPost2010Prop47
 90
       50
102
RTVSPost2010PropOp47
 70
     1
102
RTVSPost2010Prop48
 90
       50
102
RTVSPost2010PropOp48
 70
     1
102
RTVSPost2010Prop49
280
     0
102
RTVSPost2010PropOp49
 70
     1
102
RTVSPost2010Prop50
 90
       50
102
RTVSPost2010PropOp50
 70
     1
102
RTVSPost2010Prop51ColorIndex
 90
      256
102
RTVSPost2010Prop51ColorRGB
 90
-16777216
102
RTVSPost2010PropOp51
 70
     0
102
RTVSPost2010Prop52
140
1.0
102
RTVSPost2010PropOp52
 70
     0
102
RTVSPost2010Prop53
 90
        2
102
RTVSPost2010PropOp53
 70
     1
102
RTVSPost2010Prop54
  1
strokes_ogs.tif
102
RTVSPost2010PropOp54
 70
     1
102
RTVSPost2010Prop55
280
     0
102
RTVSPost2010PropOp55
 70
     1
102
RTVSPost2010Prop56
140
1.0
102
RTVSPost2010PropOp56
 70
     1
102
RTVSPost2010Prop57
140
1.0
102
RTVSPost2010PropOp57
 70
     1
102
RTVSPropertyOp0
 70
     1
102
RTVSPropertyOp1
 70
     1
102
RTVSPropertyOp2
 70
     1
102
RTVSPropertyOp3
 70
     1
102
RTVSPropertyOp4
 70
     1
102
RTVSPropertyOp5
 70
     1
102
RTVSPropertyOp6
 70
     1
102
RTVSPropertyOp7
 70
     1
102
RTVSPropertyOp8
 70
     1
102
RTVSPropertyOp9
 70
     1
102
RTVSPropertyOp10
 70
     1
102
RTVSPropertyOp11
 70
     1
102
RTVSPropertyOp12
 70
     1
102
RTVSPropertyOp13
 70
     1
102
RTVSPropertyOp14
 70
     1
102
RTVSPropertyOp15
 70
     1
102
RTVSPropertyOp16
 70
     1
102
RTVSPropertyOp17
 70
     1
102
RTVSPropertyOp18
 70
     1
102
RTVSPropertyOp19
 70
     1
102
RTVSPropertyOp20
 70
     1
102
RTVSPropertyOp21
 70
     1
102
RTVSPropertyOp22
 70
     1
102
RTVSPropertyOp23
 70
     1
102
RTVSPropertyOp24
 70
     1
102
RTVSPropertyOp25
 70
     1
102
RTVSPropertyOp26
 70
     1
102
RTVSPropertyOp27
 70
     1
102
RTVSPropertyOp28
 70
     1
102
RTVSPropertyOp29
 70
     1
102
RTVSPropertyOp30
 70
     1
102
RTVSPropertyOp31
 70
     1
102
RTVSPropertyOp32
 70
     1
102
RTVSPropertyOp33
 70
     1
102
RTVSPropertyOp34
 70
     1
102
RTVSPropertyOp35
 70
     1
102
RTVSPropertyOp36
 70
     1
102
RTVSPropertyOp37
 70
     1
102
RTVSPropertyOp38
 70
     1
102
RTVSPropertyOp39
 70
     1
102
RTVSPropertyOp40
 70
     1
102
RTVSPropertyOp41
 70
     1
102
RTVSPropertyOp42
 70
     1
102
RTVSPropertyOp43
 70
     1
102
RTVSPropertyOp44
 70
     1
102
RTVSPropertyOp45
 70
     1
102
RTVSPropertyOp46
 70
     1
102
RTVSPropertyOp47
 70
     1
102
RTVSPropertyOp48
 70
     1
102
RTVSPropertyOp49
 70
     1
102
RTVSPropertyOp50
 70
     1
102
RTVSPropertyOp51
 70
     0
102
RTVSPropertyOp52
 70
     0
102
RTVSPropertyOp53
 70
     1
102
RTVSPropertyOp54
 70
     1
102
RTVSPropertyOp55
 70
     1
102
RTVSPropertyOp56
 70
     1
102
RTVSPropertyOp57
 70
     1
102
RTVSPropertyOp58
 70
     1
102
RTVSPropertyOp59
 70
     1
102
RTVSPropertyOp60
 70
     1
102
RTVSPropertyOp61
 70
     1
102
RTVSPropertyOp62
 70
     1
  0
XRECORD
  5
BD2A
102
{ACAD_REACTORS
330
BD29
102
}
330
BD29
100
AcDbXrecord
280
     1
102
RTVSPost2010Prop28
280
     0
102
RTVSPost2010PropOp28
 70
     1
102
RTVSPost2010Prop29
280
     1
102
RTVSPost2010PropOp29
 70
     1
102
RTVSPost2010Prop30
280
     1
102
RTVSPost2010PropOp30
 70
     1
102
RTVSPost2010Prop31
280
     0
102
RTVSPost2010PropOp31
 70
     1
102
RTVSPost2010Prop32
280
     0
102
RTVSPost2010PropOp32
 70
     1
102
RTVSPost2010Prop33
280
     0
102
RTVSPost2010PropOp33
 70
     1
102
RTVSPost2010Prop34
280
     0
102
RTVSPost2010PropOp34
 70
     1
102
RTVSPost2010Prop35
280
     0
102
RTVSPost2010PropOp35
 70
     1
102
RTVSPost2010Prop36
280
     0
102
RTVSPost2010PropOp36
 70
     1
102
RTVSPost2010Prop37
 90
       50
102
RTVSPost2010PropOp37
 70
     1
102
RTVSPost2010Prop38
140
0.0
102
RTVSPost2010PropOp38
 70
     1
102
RTVSPost2010Prop39
140
1.0
102
RTVSPost2010PropOp39
 70
     1
102
RTVSPost2010Prop40
 90
        0
102
RTVSPost2010PropOp40
 70
     1
102
RTVSPost2010Prop41ColorIndex
 90
       18
102
RTVSPost2010Prop41ColorRGB
 90
        0
102
RTVSPost2010PropOp41
 70
     1
102
RTVSPost2010Prop42
 90
       50
102
RTVSPost2010PropOp42
 70
     1
102
RTVSPost2010Prop43
 90
        3
102
RTVSPost2010PropOp43
 70
     1
102
RTVSPost2010Prop44ColorIndex
 90
        5
102
RTVSPost2010Prop44ColorRGB
 90
      255
102
RTVSPost2010PropOp44
 70
     1
102
RTVSPost2010Prop45
280
     0
102
RTVSPost2010PropOp45
 70
     1
102
RTVSPost2010Prop46
 90
       50
102
RTVSPost2010PropOp46
 70
     1
102
RTVSPost2010Prop47
 90
       50
102
RTVSPost2010PropOp47
 70
     1
102
RTVSPost2010Prop48
 90
       50
102
RTVSPost2010PropOp48
 70
     1
102
RTVSPost2010Prop49
280
     0
102
RTVSPost2010PropOp49
 70
     1
102
RTVSPost2010Prop50
 90
       50
102
RTVSPost2010PropOp50
 70
     1
102
RTVSPost2010Prop51ColorIndex
 90
      256
102
RTVSPost2010Prop51ColorRGB
 90
-16777216
102
RTVSPost2010PropOp51
 70
     0
102
RTVSPost2010Prop52
140
1.0
102
RTVSPost2010PropOp52
 70
     0
102
RTVSPost2010Prop53
 90
        2
102
RTVSPost2010PropOp53
 70
     1
102
RTVSPost2010Prop54
  1
strokes_ogs.tif
102
RTVSPost2010PropOp54
 70
     1
102
RTVSPost2010Prop55
280
     0
102
RTVSPost2010PropOp55
 70
     1
102
RTVSPost2010Prop56
140
1.0
102
RTVSPost2010PropOp56
 70
     1
102
RTVSPost2010Prop57
140
1.0
102
RTVSPost2010PropOp57
 70
     1
102
RTVSPropertyOp0
 70
     1
102
RTVSPropertyOp1
 70
     1
102
RTVSPropertyOp2
 70
     1
102
RTVSPropertyOp3
 70
     1
102
RTVSPropertyOp4
 70
     1
102
RTVSPropertyOp5
 70
     1
102
RTVSPropertyOp6
 70
     1
102
RTVSPropertyOp7
 70
     1
102
RTVSPropertyOp8
 70
     1
102
RTVSPropertyOp9
 70
     1
102
RTVSPropertyOp10
 70
     1
102
RTVSPropertyOp11
 70
     1
102
RTVSPropertyOp12
 70
     1
102
RTVSPropertyOp13
 70
     1
102
RTVSPropertyOp14
 70
     1
102
RTVSPropertyOp15
 70
     1
102
RTVSPropertyOp16
 70
     1
102
RTVSPropertyOp17
 70
     1
102
RTVSPropertyOp18
 70
     1
102
RTVSPropertyOp19
 70
     1
102
RTVSPropertyOp20
 70
     1
102
RTVSPropertyOp21
 70
     1
102
RTVSPropertyOp22
 70
     1
102
RTVSPropertyOp23
 70
     1
102
RTVSPropertyOp24
 70
     1
102
RTVSPropertyOp25
 70
     1
102
RTVSPropertyOp26
 70
     1
102
RTVSPropertyOp27
 70
     1
102
RTVSPropertyOp28
 70
     1
102
RTVSPropertyOp29
 70
     1
102
RTVSPropertyOp30
 70
     1
102
RTVSPropertyOp31
 70
     1
102
RTVSPropertyOp32
 70
     1
102
RTVSPropertyOp33
 70
     1
102
RTVSPropertyOp34
 70
     1
102
RTVSPropertyOp35
 70
     1
102
RTVSPropertyOp36
 70
     1
102
RTVSPropertyOp37
 70
     1
102
RTVSPropertyOp38
 70
     1
102
RTVSPropertyOp39
 70
     1
102
RTVSPropertyOp40
 70
     1
102
RTVSPropertyOp41
 70
     1
102
RTVSPropertyOp42
 70
     1
102
RTVSPropertyOp43
 70
     1
102
RTVSPropertyOp44
 70
     1
102
RTVSPropertyOp45
 70
     1
102
RTVSPropertyOp46
 70
     1
102
RTVSPropertyOp47
 70
     1
102
RTVSPropertyOp48
 70
     1
102
RTVSPropertyOp49
 70
     1
102
RTVSPropertyOp50
 70
     1
102
RTVSPropertyOp51
 70
     0
102
RTVSPropertyOp52
 70
     0
102
RTVSPropertyOp53
 70
     1
102
RTVSPropertyOp54
 70
     1
102
RTVSPropertyOp55
 70
     1
102
RTVSPropertyOp56
 70
     1
102
RTVSPropertyOp57
 70
     1
102
RTVSPropertyOp58
 70
     1
102
RTVSPropertyOp59
 70
     1
102
RTVSPropertyOp60
 70
     1
102
RTVSPropertyOp61
 70
     1
102
RTVSPropertyOp62
 70
     1
  0
XRECORD
  5
BD32
102
{ACAD_REACTORS
330
BD31
102
}
330
BD31
100
AcDbXrecord
280
     1
102
RTVSPost2010Prop28
280
     0
102
RTVSPost2010PropOp28
 70
     1
102
RTVSPost2010Prop29
280
     1
102
RTVSPost2010PropOp29
 70
     1
102
RTVSPost2010Prop30
280
     1
102
RTVSPost2010PropOp30
 70
     1
102
RTVSPost2010Prop31
280
     0
102
RTVSPost2010PropOp31
 70
     1
102
RTVSPost2010Prop32
280
     0
102
RTVSPost2010PropOp32
 70
     1
102
RTVSPost2010Prop33
280
     0
102
RTVSPost2010PropOp33
 70
     1
102
RTVSPost2010Prop34
280
     0
102
RTVSPost2010PropOp34
 70
     1
102
RTVSPost2010Prop35
280
     0
102
RTVSPost2010PropOp35
 70
     1
102
RTVSPost2010Prop36
280
     0
102
RTVSPost2010PropOp36
 70
     1
102
RTVSPost2010Prop37
 90
       50
102
RTVSPost2010PropOp37
 70
     1
102
RTVSPost2010Prop38
140
0.0
102
RTVSPost2010PropOp38
 70
     1
102
RTVSPost2010Prop39
140
1.0
102
RTVSPost2010PropOp39
 70
     1
102
RTVSPost2010Prop40
 90
        0
102
RTVSPost2010PropOp40
 70
     1
102
RTVSPost2010Prop41ColorIndex
 90
       18
102
RTVSPost2010Prop41ColorRGB
 90
        0
102
RTVSPost2010PropOp41
 70
     1
102
RTVSPost2010Prop42
 90
       50
102
RTVSPost2010PropOp42
 70
     1
102
RTVSPost2010Prop43
 90
        3
102
RTVSPost2010PropOp43
 70
     1
102
RTVSPost2010Prop44ColorIndex
 90
        5
102
RTVSPost2010Prop44ColorRGB
 90
      255
102
RTVSPost2010PropOp44
 70
     1
102
RTVSPost2010Prop45
280
     0
102
RTVSPost2010PropOp45
 70
     1
102
RTVSPost2010Prop46
 90
       50
102
RTVSPost2010PropOp46
 70
     1
102
RTVSPost2010Prop47
 90
       50
102
RTVSPost2010PropOp47
 70
     1
102
RTVSPost2010Prop48
 90
       50
102
RTVSPost2010PropOp48
 70
     1
102
RTVSPost2010Prop49
280
     0
102
RTVSPost2010PropOp49
 70
     1
102
RTVSPost2010Prop50
 90
       50
102
RTVSPost2010PropOp50
 70
     1
102
RTVSPost2010Prop51ColorIndex
 90
      256
102
RTVSPost2010Prop51ColorRGB
 90
-16777216
102
RTVSPost2010PropOp51
 70
     0
102
RTVSPost2010Prop52
140
1.0
102
RTVSPost2010PropOp52
 70
     0
102
RTVSPost2010Prop53
 90
        2
102
RTVSPost2010PropOp53
 70
     1
102
RTVSPost2010Prop54
  1
strokes_ogs.tif
102
RTVSPost2010PropOp54
 70
     1
102
RTVSPost2010Prop55
280
     0
102
RTVSPost2010PropOp55
 70
     1
102
RTVSPost2010Prop56
140
1.0
102
RTVSPost2010PropOp56
 70
     1
102
RTVSPost2010Prop57
140
1.0
102
RTVSPost2010PropOp57
 70
     1
102
RTVSPropertyOp0
 70
     1
102
RTVSPropertyOp1
 70
     1
102
RTVSPropertyOp2
 70
     1
102
RTVSPropertyOp3
 70
     1
102
RTVSPropertyOp4
 70
     1
102
RTVSPropertyOp5
 70
     1
102
RTVSPropertyOp6
 70
     1
102
RTVSPropertyOp7
 70
     1
102
RTVSPropertyOp8
 70
     1
102
RTVSPropertyOp9
 70
     1
102
RTVSPropertyOp10
 70
     1
102
RTVSPropertyOp11
 70
     1
102
RTVSPropertyOp12
 70
     1
102
RTVSPropertyOp13
 70
     1
102
RTVSPropertyOp14
 70
     1
102
RTVSPropertyOp15
 70
     1
102
RTVSPropertyOp16
 70
     1
102
RTVSPropertyOp17
 70
     1
102
RTVSPropertyOp18
 70
     1
102
RTVSPropertyOp19
 70
     1
102
RTVSPropertyOp20
 70
     1
102
RTVSPropertyOp21
 70
     1
102
RTVSPropertyOp22
 70
     1
102
RTVSPropertyOp23
 70
     1
102
RTVSPropertyOp24
 70
     1
102
RTVSPropertyOp25
 70
     1
102
RTVSPropertyOp26
 70
     1
102
RTVSPropertyOp27
 70
     1
102
RTVSPropertyOp28
 70
     1
102
RTVSPropertyOp29
 70
     1
102
RTVSPropertyOp30
 70
     1
102
RTVSPropertyOp31
 70
     1
102
RTVSPropertyOp32
 70
     1
102
RTVSPropertyOp33
 70
     1
102
RTVSPropertyOp34
 70
     1
102
RTVSPropertyOp35
 70
     1
102
RTVSPropertyOp36
 70
     1
102
RTVSPropertyOp37
 70
     1
102
RTVSPropertyOp38
 70
     1
102
RTVSPropertyOp39
 70
     1
102
RTVSPropertyOp40
 70
     1
102
RTVSPropertyOp41
 70
     1
102
RTVSPropertyOp42
 70
     1
102
RTVSPropertyOp43
 70
     1
102
RTVSPropertyOp44
 70
     1
102
RTVSPropertyOp45
 70
     1
102
RTVSPropertyOp46
 70
     1
102
RTVSPropertyOp47
 70
     1
102
RTVSPropertyOp48
 70
     1
102
RTVSPropertyOp49
 70
     1
102
RTVSPropertyOp50
 70
     1
102
RTVSPropertyOp51
 70
     0
102
RTVSPropertyOp52
 70
     0
102
RTVSPropertyOp53
 70
     1
102
RTVSPropertyOp54
 70
     1
102
RTVSPropertyOp55
 70
     1
102
RTVSPropertyOp56
 70
     1
102
RTVSPropertyOp57
 70
     1
102
RTVSPropertyOp58
 70
     1
102
RTVSPropertyOp59
 70
     1
102
RTVSPropertyOp60
 70
     1
102
RTVSPropertyOp61
 70
     1
102
RTVSPropertyOp62
 70
     1
  0
XRECORD
  5
BD24
102
{ACAD_REACTORS
330
BD23
102
}
330
BD23
100
AcDbXrecord
280
     1
102
RTVSPost2010Prop28
280
     0
102
RTVSPost2010PropOp28
 70
     1
102
RTVSPost2010Prop29
280
     1
102
RTVSPost2010PropOp29
 70
     1
102
RTVSPost2010Prop30
280
     1
102
RTVSPost2010PropOp30
 70
     1
102
RTVSPost2010Prop31
280
     0
102
RTVSPost2010PropOp31
 70
     1
102
RTVSPost2010Prop32
280
     0
102
RTVSPost2010PropOp32
 70
     1
102
RTVSPost2010Prop33
280
     0
102
RTVSPost2010PropOp33
 70
     1
102
RTVSPost2010Prop34
280
     0
102
RTVSPost2010PropOp34
 70
     1
102
RTVSPost2010Prop35
280
     0
102
RTVSPost2010PropOp35
 70
     1
102
RTVSPost2010Prop36
280
     0
102
RTVSPost2010PropOp36
 70
     1
102
RTVSPost2010Prop37
 90
       50
102
RTVSPost2010PropOp37
 70
     1
102
RTVSPost2010Prop38
140
0.0
102
RTVSPost2010PropOp38
 70
     1
102
RTVSPost2010Prop39
140
1.0
102
RTVSPost2010PropOp39
 70
     1
102
RTVSPost2010Prop40
 90
        0
102
RTVSPost2010PropOp40
 70
     1
102
RTVSPost2010Prop41ColorIndex
 90
       18
102
RTVSPost2010Prop41ColorRGB
 90
        0
102
RTVSPost2010PropOp41
 70
     1
102
RTVSPost2010Prop42
 90
       50
102
RTVSPost2010PropOp42
 70
     1
102
RTVSPost2010Prop43
 90
        3
102
RTVSPost2010PropOp43
 70
     1
102
RTVSPost2010Prop44ColorIndex
 90
        5
102
RTVSPost2010Prop44ColorRGB
 90
      255
102
RTVSPost2010PropOp44
 70
     1
102
RTVSPost2010Prop45
280
     0
102
RTVSPost2010PropOp45
 70
     1
102
RTVSPost2010Prop46
 90
       50
102
RTVSPost2010PropOp46
 70
     1
102
RTVSPost2010Prop47
 90
       50
102
RTVSPost2010PropOp47
 70
     1
102
RTVSPost2010Prop48
 90
       50
102
RTVSPost2010PropOp48
 70
     1
102
RTVSPost2010Prop49
280
     0
102
RTVSPost2010PropOp49
 70
     1
102
RTVSPost2010Prop50
 90
       50
102
RTVSPost2010PropOp50
 70
     1
102
RTVSPost2010Prop51ColorIndex
 90
      256
102
RTVSPost2010Prop51ColorRGB
 90
-16777216
102
RTVSPost2010PropOp51
 70
     0
102
RTVSPost2010Prop52
140
1.0
102
RTVSPost2010PropOp52
 70
     0
102
RTVSPost2010Prop53
 90
        2
102
RTVSPost2010PropOp53
 70
     1
102
RTVSPost2010Prop54
  1
strokes_ogs.tif
102
RTVSPost2010PropOp54
 70
     1
102
RTVSPost2010Prop55
280
     0
102
RTVSPost2010PropOp55
 70
     1
102
RTVSPost2010Prop56
140
1.0
102
RTVSPost2010PropOp56
 70
     1
102
RTVSPost2010Prop57
140
1.0
102
RTVSPost2010PropOp57
 70
     1
102
RTVSPropertyOp0
 70
     1
102
RTVSPropertyOp1
 70
     1
102
RTVSPropertyOp2
 70
     1
102
RTVSPropertyOp3
 70
     1
102
RTVSPropertyOp4
 70
     1
102
RTVSPropertyOp5
 70
     1
102
RTVSPropertyOp6
 70
     1
102
RTVSPropertyOp7
 70
     1
102
RTVSPropertyOp8
 70
     1
102
RTVSPropertyOp9
 70
     1
102
RTVSPropertyOp10
 70
     1
102
RTVSPropertyOp11
 70
     1
102
RTVSPropertyOp12
 70
     1
102
RTVSPropertyOp13
 70
     1
102
RTVSPropertyOp14
 70
     1
102
RTVSPropertyOp15
 70
     1
102
RTVSPropertyOp16
 70
     1
102
RTVSPropertyOp17
 70
     1
102
RTVSPropertyOp18
 70
     1
102
RTVSPropertyOp19
 70
     1
102
RTVSPropertyOp20
 70
     1
102
RTVSPropertyOp21
 70
     1
102
RTVSPropertyOp22
 70
     1
102
RTVSPropertyOp23
 70
     1
102
RTVSPropertyOp24
 70
     1
102
RTVSPropertyOp25
 70
     1
102
RTVSPropertyOp26
 70
     1
102
RTVSPropertyOp27
 70
     1
102
RTVSPropertyOp28
 70
     1
102
RTVSPropertyOp29
 70
     1
102
RTVSPropertyOp30
 70
     1
102
RTVSPropertyOp31
 70
     1
102
RTVSPropertyOp32
 70
     1
102
RTVSPropertyOp33
 70
     1
102
RTVSPropertyOp34
 70
     1
102
RTVSPropertyOp35
 70
     1
102
RTVSPropertyOp36
 70
     1
102
RTVSPropertyOp37
 70
     1
102
RTVSPropertyOp38
 70
     1
102
RTVSPropertyOp39
 70
     1
102
RTVSPropertyOp40
 70
     1
102
RTVSPropertyOp41
 70
     1
102
RTVSPropertyOp42
 70
     1
102
RTVSPropertyOp43
 70
     1
102
RTVSPropertyOp44
 70
     1
102
RTVSPropertyOp45
 70
     1
102
RTVSPropertyOp46
 70
     1
102
RTVSPropertyOp47
 70
     1
102
RTVSPropertyOp48
 70
     1
102
RTVSPropertyOp49
 70
     1
102
RTVSPropertyOp50
 70
     1
102
RTVSPropertyOp51
 70
     0
102
RTVSPropertyOp52
 70
     0
102
RTVSPropertyOp53
 70
     1
102
RTVSPropertyOp54
 70
     1
102
RTVSPropertyOp55
 70
     1
102
RTVSPropertyOp56
 70
     1
102
RTVSPropertyOp57
 70
     1
102
RTVSPropertyOp58
 70
     1
102
RTVSPropertyOp59
 70
     1
102
RTVSPropertyOp60
 70
     1
102
RTVSPropertyOp61
 70
     1
102
RTVSPropertyOp62
 70
     1
  0
XRECORD
  5
BD28
102
{ACAD_REACTORS
330
BD27
102
}
330
BD27
100
AcDbXrecord
280
     1
102
RTVSPost2010Prop28
280
     0
102
RTVSPost2010PropOp28
 70
     1
102
RTVSPost2010Prop29
280
     1
102
RTVSPost2010PropOp29
 70
     1
102
RTVSPost2010Prop30
280
     1
102
RTVSPost2010PropOp30
 70
     1
102
RTVSPost2010Prop31
280
     0
102
RTVSPost2010PropOp31
 70
     1
102
RTVSPost2010Prop32
280
     0
102
RTVSPost2010PropOp32
 70
     1
102
RTVSPost2010Prop33
280
     0
102
RTVSPost2010PropOp33
 70
     1
102
RTVSPost2010Prop34
280
     0
102
RTVSPost2010PropOp34
 70
     1
102
RTVSPost2010Prop35
280
     0
102
RTVSPost2010PropOp35
 70
     1
102
RTVSPost2010Prop36
280
     0
102
RTVSPost2010PropOp36
 70
     1
102
RTVSPost2010Prop37
 90
       50
102
RTVSPost2010PropOp37
 70
     1
102
RTVSPost2010Prop38
140
0.0
102
RTVSPost2010PropOp38
 70
     1
102
RTVSPost2010Prop39
140
1.0
102
RTVSPost2010PropOp39
 70
     1
102
RTVSPost2010Prop40
 90
        0
102
RTVSPost2010PropOp40
 70
     1
102
RTVSPost2010Prop41ColorIndex
 90
       18
102
RTVSPost2010Prop41ColorRGB
 90
        0
102
RTVSPost2010PropOp41
 70
     1
102
RTVSPost2010Prop42
 90
       50
102
RTVSPost2010PropOp42
 70
     1
102
RTVSPost2010Prop43
 90
        3
102
RTVSPost2010PropOp43
 70
     1
102
RTVSPost2010Prop44ColorIndex
 90
        5
102
RTVSPost2010Prop44ColorRGB
 90
      255
102
RTVSPost2010PropOp44
 70
     1
102
RTVSPost2010Prop45
280
     0
102
RTVSPost2010PropOp45
 70
     1
102
RTVSPost2010Prop46
 90
       50
102
RTVSPost2010PropOp46
 70
     1
102
RTVSPost2010Prop47
 90
       50
102
RTVSPost2010PropOp47
 70
     1
102
RTVSPost2010Prop48
 90
       50
102
RTVSPost2010PropOp48
 70
     1
102
RTVSPost2010Prop49
280
     0
102
RTVSPost2010PropOp49
 70
     1
102
RTVSPost2010Prop50
 90
       50
102
RTVSPost2010PropOp50
 70
     1
102
RTVSPost2010Prop51ColorIndex
 90
      256
102
RTVSPost2010Prop51ColorRGB
 90
-16777216
102
RTVSPost2010PropOp51
 70
     0
102
RTVSPost2010Prop52
140
1.0
102
RTVSPost2010PropOp52
 70
     0
102
RTVSPost2010Prop53
 90
        2
102
RTVSPost2010PropOp53
 70
     1
102
RTVSPost2010Prop54
  1
strokes_ogs.tif
102
RTVSPost2010PropOp54
 70
     1
102
RTVSPost2010Prop55
280
     0
102
RTVSPost2010PropOp55
 70
     1
102
RTVSPost2010Prop56
140
1.0
102
RTVSPost2010PropOp56
 70
     1
102
RTVSPost2010Prop57
140
1.0
102
RTVSPost2010PropOp57
 70
     1
102
RTVSPropertyOp0
 70
     1
102
RTVSPropertyOp1
 70
     1
102
RTVSPropertyOp2
 70
     1
102
RTVSPropertyOp3
 70
     1
102
RTVSPropertyOp4
 70
     1
102
RTVSPropertyOp5
 70
     1
102
RTVSPropertyOp6
 70
     1
102
RTVSPropertyOp7
 70
     1
102
RTVSPropertyOp8
 70
     1
102
RTVSPropertyOp9
 70
     1
102
RTVSPropertyOp10
 70
     1
102
RTVSPropertyOp11
 70
     1
102
RTVSPropertyOp12
 70
     1
102
RTVSPropertyOp13
 70
     1
102
RTVSPropertyOp14
 70
     1
102
RTVSPropertyOp15
 70
     1
102
RTVSPropertyOp16
 70
     1
102
RTVSPropertyOp17
 70
     1
102
RTVSPropertyOp18
 70
     1
102
RTVSPropertyOp19
 70
     1
102
RTVSPropertyOp20
 70
     1
102
RTVSPropertyOp21
 70
     1
102
RTVSPropertyOp22
 70
     1
102
RTVSPropertyOp23
 70
     1
102
RTVSPropertyOp24
 70
     1
102
RTVSPropertyOp25
 70
     1
102
RTVSPropertyOp26
 70
     1
102
RTVSPropertyOp27
 70
     1
102
RTVSPropertyOp28
 70
     1
102
RTVSPropertyOp29
 70
     1
102
RTVSPropertyOp30
 70
     1
102
RTVSPropertyOp31
 70
     1
102
RTVSPropertyOp32
 70
     1
102
RTVSPropertyOp33
 70
     1
102
RTVSPropertyOp34
 70
     1
102
RTVSPropertyOp35
 70
     1
102
RTVSPropertyOp36
 70
     1
102
RTVSPropertyOp37
 70
     1
102
RTVSPropertyOp38
 70
     1
102
RTVSPropertyOp39
 70
     1
102
RTVSPropertyOp40
 70
     1
102
RTVSPropertyOp41
 70
     1
102
RTVSPropertyOp42
 70
     1
102
RTVSPropertyOp43
 70
     1
102
RTVSPropertyOp44
 70
     1
102
RTVSPropertyOp45
 70
     1
102
RTVSPropertyOp46
 70
     1
102
RTVSPropertyOp47
 70
     1
102
RTVSPropertyOp48
 70
     1
102
RTVSPropertyOp49
 70
     1
102
RTVSPropertyOp50
 70
     1
102
RTVSPropertyOp51
 70
     0
102
RTVSPropertyOp52
 70
     0
102
RTVSPropertyOp53
 70
     1
102
RTVSPropertyOp54
 70
     1
102
RTVSPropertyOp55
 70
     1
102
RTVSPropertyOp56
 70
     1
102
RTVSPropertyOp57
 70
     1
102
RTVSPropertyOp58
 70
     1
102
RTVSPropertyOp59
 70
     1
102
RTVSPropertyOp60
 70
     1
102
RTVSPropertyOp61
 70
     1
102
RTVSPropertyOp62
 70
     1
  0
XRECORD
  5
BD42
102
{ACAD_REACTORS
330
BD41
102
}
330
BD41
100
AcDbXrecord
280
     1
102
RTVSPost2010Prop28
280
     0
102
RTVSPost2010PropOp28
 70
     1
102
RTVSPost2010Prop29
280
     1
102
RTVSPost2010PropOp29
 70
     1
102
RTVSPost2010Prop30
280
     1
102
RTVSPost2010PropOp30
 70
     1
102
RTVSPost2010Prop31
280
     0
102
RTVSPost2010PropOp31
 70
     1
102
RTVSPost2010Prop32
280
     0
102
RTVSPost2010PropOp32
 70
     1
102
RTVSPost2010Prop33
280
     0
102
RTVSPost2010PropOp33
 70
     1
102
RTVSPost2010Prop34
280
     0
102
RTVSPost2010PropOp34
 70
     1
102
RTVSPost2010Prop35
280
     0
102
RTVSPost2010PropOp35
 70
     1
102
RTVSPost2010Prop36
280
     0
102
RTVSPost2010PropOp36
 70
     1
102
RTVSPost2010Prop37
 90
       50
102
RTVSPost2010PropOp37
 70
     0
102
RTVSPost2010Prop38
140
0.0
102
RTVSPost2010PropOp38
 70
     0
102
RTVSPost2010Prop39
140
1.0
102
RTVSPost2010PropOp39
 70
     0
102
RTVSPost2010Prop40
 90
        0
102
RTVSPost2010PropOp40
 70
     0
102
RTVSPost2010Prop41ColorIndex
 90
       18
102
RTVSPost2010Prop41ColorRGB
 90
        0
102
RTVSPost2010PropOp41
 70
     0
102
RTVSPost2010Prop42
 90
       50
102
RTVSPost2010PropOp42
 70
     0
102
RTVSPost2010Prop43
 90
        3
102
RTVSPost2010PropOp43
 70
     0
102
RTVSPost2010Prop44ColorIndex
 90
        5
102
RTVSPost2010Prop44ColorRGB
 90
      255
102
RTVSPost2010PropOp44
 70
     0
102
RTVSPost2010Prop45
280
     0
102
RTVSPost2010PropOp45
 70
     1
102
RTVSPost2010Prop46
 90
       50
102
RTVSPost2010PropOp46
 70
     0
102
RTVSPost2010Prop47
 90
       50
102
RTVSPost2010PropOp47
 70
     0
102
RTVSPost2010Prop48
 90
       50
102
RTVSPost2010PropOp48
 70
     0
102
RTVSPost2010Prop49
280
     0
102
RTVSPost2010PropOp49
 70
     1
102
RTVSPost2010Prop50
 90
       50
102
RTVSPost2010PropOp50
 70
     0
102
RTVSPost2010Prop51ColorIndex
 90
      256
102
RTVSPost2010Prop51ColorRGB
 90
-16777216
102
RTVSPost2010PropOp51
 70
     0
102
RTVSPost2010Prop52
140
1.0
102
RTVSPost2010PropOp52
 70
     0
102
RTVSPost2010Prop53
 90
        2
102
RTVSPost2010PropOp53
 70
     0
102
RTVSPost2010Prop54
  1
strokes_ogs.tif
102
RTVSPost2010PropOp54
 70
     0
102
RTVSPost2010Prop55
280
     0
102
RTVSPost2010PropOp55
 70
     1
102
RTVSPost2010Prop56
140
1.0
102
RTVSPost2010PropOp56
 70
     0
102
RTVSPost2010Prop57
140
1.0
102
RTVSPost2010PropOp57
 70
     0
102
RTVSPropertyOp0
 70
     0
102
RTVSPropertyOp1
 70
     0
102
RTVSPropertyOp2
 70
     0
102
RTVSPropertyOp3
 70
     0
102
RTVSPropertyOp4
 70
     0
102
RTVSPropertyOp5
 70
     0
102
RTVSPropertyOp6
 70
     0
102
RTVSPropertyOp7
 70
     0
102
RTVSPropertyOp8
 70
     0
102
RTVSPropertyOp9
 70
     0
102
RTVSPropertyOp10
 70
     0
102
RTVSPropertyOp11
 70
     0
102
RTVSPropertyOp12
 70
     0
102
RTVSPropertyOp13
 70
     0
102
RTVSPropertyOp14
 70
     2
102
RTVSPropertyOp15
 70
     0
102
RTVSPropertyOp16
 70
     0
102
RTVSPropertyOp17
 70
     0
102
RTVSPropertyOp18
 70
     0
102
RTVSPropertyOp19
 70
     0
102
RTVSPropertyOp20
 70
     0
102
RTVSPropertyOp21
 70
     0
102
RTVSPropertyOp22
 70
     0
102
RTVSPropertyOp23
 70
     0
102
RTVSPropertyOp24
 70
     0
102
RTVSPropertyOp25
 70
     0
102
RTVSPropertyOp26
 70
     0
102
RTVSPropertyOp27
 70
     0
102
RTVSPropertyOp28
 70
     1
102
RTVSPropertyOp29
 70
     1
102
RTVSPropertyOp30
 70
     1
102
RTVSPropertyOp31
 70
     1
102
RTVSPropertyOp32
 70
     1
102
RTVSPropertyOp33
 70
     1
102
RTVSPropertyOp34
 70
     1
102
RTVSPropertyOp35
 70
     1
102
RTVSPropertyOp36
 70
     1
102
RTVSPropertyOp37
 70
     0
102
RTVSPropertyOp38
 70
     0
102
RTVSPropertyOp39
 70
     0
102
RTVSPropertyOp40
 70
     0
102
RTVSPropertyOp41
 70
     0
102
RTVSPropertyOp42
 70
     0
102
RTVSPropertyOp43
 70
     0
102
RTVSPropertyOp44
 70
     0
102
RTVSPropertyOp45
 70
     1
102
RTVSPropertyOp46
 70
     0
102
RTVSPropertyOp47
 70
     0
102
RTVSPropertyOp48
 70
     0
102
RTVSPropertyOp49
 70
     1
102
RTVSPropertyOp50
 70
     0
102
RTVSPropertyOp51
 70
     0
102
RTVSPropertyOp52
 70
     0
102
RTVSPropertyOp53
 70
     0
102
RTVSPropertyOp54
 70
     0
102
RTVSPropertyOp55
 70
     1
102
RTVSPropertyOp56
 70
     0
102
RTVSPropertyOp57
 70
     0
102
RTVSPropertyOp58
 70
     0
102
RTVSPropertyOp59
 70
     0
102
RTVSPropertyOp60
 70
     0
102
RTVSPropertyOp61
 70
     0
102
RTVSPropertyOp62
 70
     0
  0
XRECORD
  5
BD30
102
{ACAD_REACTORS
330
BD2F
102
}
330
BD2F
100
AcDbXrecord
280
     1
102
RTVSPost2010Prop28
280
     0
102
RTVSPost2010PropOp28
 70
     1
102
RTVSPost2010Prop29
280
     1
102
RTVSPost2010PropOp29
 70
     1
102
RTVSPost2010Prop30
280
     1
102
RTVSPost2010PropOp30
 70
     1
102
RTVSPost2010Prop31
280
     0
102
RTVSPost2010PropOp31
 70
     1
102
RTVSPost2010Prop32
280
     0
102
RTVSPost2010PropOp32
 70
     1
102
RTVSPost2010Prop33
280
     0
102
RTVSPost2010PropOp33
 70
     1
102
RTVSPost2010Prop34
280
     0
102
RTVSPost2010PropOp34
 70
     1
102
RTVSPost2010Prop35
280
     0
102
RTVSPost2010PropOp35
 70
     1
102
RTVSPost2010Prop36
280
     0
102
RTVSPost2010PropOp36
 70
     1
102
RTVSPost2010Prop37
 90
       50
102
RTVSPost2010PropOp37
 70
     1
102
RTVSPost2010Prop38
140
0.0
102
RTVSPost2010PropOp38
 70
     1
102
RTVSPost2010Prop39
140
1.0
102
RTVSPost2010PropOp39
 70
     1
102
RTVSPost2010Prop40
 90
        0
102
RTVSPost2010PropOp40
 70
     1
102
RTVSPost2010Prop41ColorIndex
 90
       18
102
RTVSPost2010Prop41ColorRGB
 90
        0
102
RTVSPost2010PropOp41
 70
     1
102
RTVSPost2010Prop42
 90
       50
102
RTVSPost2010PropOp42
 70
     1
102
RTVSPost2010Prop43
 90
        3
102
RTVSPost2010PropOp43
 70
     1
102
RTVSPost2010Prop44ColorIndex
 90
        5
102
RTVSPost2010Prop44ColorRGB
 90
      255
102
RTVSPost2010PropOp44
 70
     1
102
RTVSPost2010Prop45
280
     0
102
RTVSPost2010PropOp45
 70
     1
102
RTVSPost2010Prop46
 90
       50
102
RTVSPost2010PropOp46
 70
     1
102
RTVSPost2010Prop47
 90
       50
102
RTVSPost2010PropOp47
 70
     1
102
RTVSPost2010Prop48
 90
       50
102
RTVSPost2010PropOp48
 70
     1
102
RTVSPost2010Prop49
280
     0
102
RTVSPost2010PropOp49
 70
     1
102
RTVSPost2010Prop50
 90
       50
102
RTVSPost2010PropOp50
 70
     1
102
RTVSPost2010Prop51ColorIndex
 90
      256
102
RTVSPost2010Prop51ColorRGB
 90
-16777216
102
RTVSPost2010PropOp51
 70
     0
102
RTVSPost2010Prop52
140
1.0
102
RTVSPost2010PropOp52
 70
     0
102
RTVSPost2010Prop53
 90
        2
102
RTVSPost2010PropOp53
 70
     1
102
RTVSPost2010Prop54
  1
strokes_ogs.tif
102
RTVSPost2010PropOp54
 70
     1
102
RTVSPost2010Prop55
280
     0
102
RTVSPost2010PropOp55
 70
     1
102
RTVSPost2010Prop56
140
1.0
102
RTVSPost2010PropOp56
 70
     1
102
RTVSPost2010Prop57
140
1.0
102
RTVSPost2010PropOp57
 70
     1
102
RTVSPropertyOp0
 70
     1
102
RTVSPropertyOp1
 70
     1
102
RTVSPropertyOp2
 70
     1
102
RTVSPropertyOp3
 70
     1
102
RTVSPropertyOp4
 70
     1
102
RTVSPropertyOp5
 70
     1
102
RTVSPropertyOp6
 70
     1
102
RTVSPropertyOp7
 70
     1
102
RTVSPropertyOp8
 70
     1
102
RTVSPropertyOp9
 70
     1
102
RTVSPropertyOp10
 70
     1
102
RTVSPropertyOp11
 70
     1
102
RTVSPropertyOp12
 70
     1
102
RTVSPropertyOp13
 70
     1
102
RTVSPropertyOp14
 70
     1
102
RTVSPropertyOp15
 70
     1
102
RTVSPropertyOp16
 70
     1
102
RTVSPropertyOp17
 70
     1
102
RTVSPropertyOp18
 70
     1
102
RTVSPropertyOp19
 70
     1
102
RTVSPropertyOp20
 70
     1
102
RTVSPropertyOp21
 70
     1
102
RTVSPropertyOp22
 70
     1
102
RTVSPropertyOp23
 70
     1
102
RTVSPropertyOp24
 70
     1
102
RTVSPropertyOp25
 70
     1
102
RTVSPropertyOp26
 70
     1
102
RTVSPropertyOp27
 70
     1
102
RTVSPropertyOp28
 70
     1
102
RTVSPropertyOp29
 70
     1
102
RTVSPropertyOp30
 70
     1
102
RTVSPropertyOp31
 70
     1
102
RTVSPropertyOp32
 70
     1
102
RTVSPropertyOp33
 70
     1
102
RTVSPropertyOp34
 70
     1
102
RTVSPropertyOp35
 70
     1
102
RTVSPropertyOp36
 70
     1
102
RTVSPropertyOp37
 70
     1
102
RTVSPropertyOp38
 70
     1
102
RTVSPropertyOp39
 70
     1
102
RTVSPropertyOp40
 70
     1
102
RTVSPropertyOp41
 70
     1
102
RTVSPropertyOp42
 70
     1
102
RTVSPropertyOp43
 70
     1
102
RTVSPropertyOp44
 70
     1
102
RTVSPropertyOp45
 70
     1
102
RTVSPropertyOp46
 70
     1
102
RTVSPropertyOp47
 70
     1
102
RTVSPropertyOp48
 70
     1
102
RTVSPropertyOp49
 70
     1
102
RTVSPropertyOp50
 70
     1
102
RTVSPropertyOp51
 70
     0
102
RTVSPropertyOp52
 70
     0
102
RTVSPropertyOp53
 70
     1
102
RTVSPropertyOp54
 70
     1
102
RTVSPropertyOp55
 70
     1
102
RTVSPropertyOp56
 70
     1
102
RTVSPropertyOp57
 70
     1
102
RTVSPropertyOp58
 70
     1
102
RTVSPropertyOp59
 70
     1
102
RTVSPropertyOp60
 70
     1
102
RTVSPropertyOp61
 70
     1
102
RTVSPropertyOp62
 70
     1
  0
XRECORD
  5
BD14
102
{ACAD_REACTORS
330
BD13
102
}
330
BD13
100
AcDbXrecord
280
     1
102
RTVSPost2010Prop28
280
     0
102
RTVSPost2010PropOp28
 70
     1
102
RTVSPost2010Prop29
280
     1
102
RTVSPost2010PropOp29
 70
     1
102
RTVSPost2010Prop30
280
     1
102
RTVSPost2010PropOp30
 70
     1
102
RTVSPost2010Prop31
280
     0
102
RTVSPost2010PropOp31
 70
     1
102
RTVSPost2010Prop32
280
     0
102
RTVSPost2010PropOp32
 70
     1
102
RTVSPost2010Prop33
280
     0
102
RTVSPost2010PropOp33
 70
     1
102
RTVSPost2010Prop34
280
     0
102
RTVSPost2010PropOp34
 70
     1
102
RTVSPost2010Prop35
280
     0
102
RTVSPost2010PropOp35
 70
     1
102
RTVSPost2010Prop36
280
     0
102
RTVSPost2010PropOp36
 70
     1
102
RTVSPost2010Prop37
 90
       50
102
RTVSPost2010PropOp37
 70
     1
102
RTVSPost2010Prop38
140
0.0
102
RTVSPost2010PropOp38
 70
     1
102
RTVSPost2010Prop39
140
1.0
102
RTVSPost2010PropOp39
 70
     1
102
RTVSPost2010Prop40
 90
        0
102
RTVSPost2010PropOp40
 70
     1
102
RTVSPost2010Prop41ColorIndex
 90
       18
102
RTVSPost2010Prop41ColorRGB
 90
        0
102
RTVSPost2010PropOp41
 70
     1
102
RTVSPost2010Prop42
 90
       50
102
RTVSPost2010PropOp42
 70
     1
102
RTVSPost2010Prop43
 90
        3
102
RTVSPost2010PropOp43
 70
     1
102
RTVSPost2010Prop44ColorIndex
 90
        5
102
RTVSPost2010Prop44ColorRGB
 90
      255
102
RTVSPost2010PropOp44
 70
     1
102
RTVSPost2010Prop45
280
     0
102
RTVSPost2010PropOp45
 70
     1
102
RTVSPost2010Prop46
 90
       50
102
RTVSPost2010PropOp46
 70
     1
102
RTVSPost2010Prop47
 90
       50
102
RTVSPost2010PropOp47
 70
     1
102
RTVSPost2010Prop48
 90
       50
102
RTVSPost2010PropOp48
 70
     1
102
RTVSPost2010Prop49
280
     0
102
RTVSPost2010PropOp49
 70
     1
102
RTVSPost2010Prop50
 90
       50
102
RTVSPost2010PropOp50
 70
     1
102
RTVSPost2010Prop51ColorIndex
 90
      256
102
RTVSPost2010Prop51ColorRGB
 90
-16777216
102
RTVSPost2010PropOp51
 70
     0
102
RTVSPost2010Prop52
140
1.0
102
RTVSPost2010PropOp52
 70
     0
102
RTVSPost2010Prop53
 90
        2
102
RTVSPost2010PropOp53
 70
     1
102
RTVSPost2010Prop54
  1
strokes_ogs.tif
102
RTVSPost2010PropOp54
 70
     1
102
RTVSPost2010Prop55
280
     0
102
RTVSPost2010PropOp55
 70
     1
102
RTVSPost2010Prop56
140
1.0
102
RTVSPost2010PropOp56
 70
     1
102
RTVSPost2010Prop57
140
1.0
102
RTVSPost2010PropOp57
 70
     1
102
RTVSPropertyOp0
 70
     1
102
RTVSPropertyOp1
 70
     1
102
RTVSPropertyOp2
 70
     1
102
RTVSPropertyOp3
 70
     1
102
RTVSPropertyOp4
 70
     1
102
RTVSPropertyOp5
 70
     1
102
RTVSPropertyOp6
 70
     1
102
RTVSPropertyOp7
 70
     1
102
RTVSPropertyOp8
 70
     1
102
RTVSPropertyOp9
 70
     1
102
RTVSPropertyOp10
 70
     1
102
RTVSPropertyOp11
 70
     1
102
RTVSPropertyOp12
 70
     1
102
RTVSPropertyOp13
 70
     1
102
RTVSPropertyOp14
 70
     1
102
RTVSPropertyOp15
 70
     1
102
RTVSPropertyOp16
 70
     1
102
RTVSPropertyOp17
 70
     1
102
RTVSPropertyOp18
 70
     1
102
RTVSPropertyOp19
 70
     1
102
RTVSPropertyOp20
 70
     1
102
RTVSPropertyOp21
 70
     1
102
RTVSPropertyOp22
 70
     1
102
RTVSPropertyOp23
 70
     1
102
RTVSPropertyOp24
 70
     1
102
RTVSPropertyOp25
 70
     1
102
RTVSPropertyOp26
 70
     1
102
RTVSPropertyOp27
 70
     1
102
RTVSPropertyOp28
 70
     1
102
RTVSPropertyOp29
 70
     1
102
RTVSPropertyOp30
 70
     1
102
RTVSPropertyOp31
 70
     1
102
RTVSPropertyOp32
 70
     1
102
RTVSPropertyOp33
 70
     1
102
RTVSPropertyOp34
 70
     1
102
RTVSPropertyOp35
 70
     1
102
RTVSPropertyOp36
 70
     1
102
RTVSPropertyOp37
 70
     1
102
RTVSPropertyOp38
 70
     1
102
RTVSPropertyOp39
 70
     1
102
RTVSPropertyOp40
 70
     1
102
RTVSPropertyOp41
 70
     1
102
RTVSPropertyOp42
 70
     1
102
RTVSPropertyOp43
 70
     1
102
RTVSPropertyOp44
 70
     1
102
RTVSPropertyOp45
 70
     1
102
RTVSPropertyOp46
 70
     1
102
RTVSPropertyOp47
 70
     1
102
RTVSPropertyOp48
 70
     1
102
RTVSPropertyOp49
 70
     1
102
RTVSPropertyOp50
 70
     1
102
RTVSPropertyOp51
 70
     0
102
RTVSPropertyOp52
 70
     0
102
RTVSPropertyOp53
 70
     1
102
RTVSPropertyOp54
 70
     1
102
RTVSPropertyOp55
 70
     1
102
RTVSPropertyOp56
 70
     1
102
RTVSPropertyOp57
 70
     1
102
RTVSPropertyOp58
 70
     1
102
RTVSPropertyOp59
 70
     1
102
RTVSPropertyOp60
 70
     1
102
RTVSPropertyOp61
 70
     1
102
RTVSPropertyOp62
 70
     1
  0
XRECORD
  5
BD16
102
{ACAD_REACTORS
330
BD15
102
}
330
BD15
100
AcDbXrecord
280
     1
102
RTVSPost2010Prop28
280
     0
102
RTVSPost2010PropOp28
 70
     1
102
RTVSPost2010Prop29
280
     1
102
RTVSPost2010PropOp29
 70
     1
102
RTVSPost2010Prop30
280
     1
102
RTVSPost2010PropOp30
 70
     1
102
RTVSPost2010Prop31
280
     0
102
RTVSPost2010PropOp31
 70
     1
102
RTVSPost2010Prop32
280
     0
102
RTVSPost2010PropOp32
 70
     1
102
RTVSPost2010Prop33
280
     0
102
RTVSPost2010PropOp33
 70
     1
102
RTVSPost2010Prop34
280
     0
102
RTVSPost2010PropOp34
 70
     1
102
RTVSPost2010Prop35
280
     0
102
RTVSPost2010PropOp35
 70
     1
102
RTVSPost2010Prop36
280
     0
102
RTVSPost2010PropOp36
 70
     1
102
RTVSPost2010Prop37
 90
       50
102
RTVSPost2010PropOp37
 70
     1
102
RTVSPost2010Prop38
140
0.0
102
RTVSPost2010PropOp38
 70
     1
102
RTVSPost2010Prop39
140
1.0
102
RTVSPost2010PropOp39
 70
     1
102
RTVSPost2010Prop40
 90
        0
102
RTVSPost2010PropOp40
 70
     1
102
RTVSPost2010Prop41ColorIndex
 90
       18
102
RTVSPost2010Prop41ColorRGB
 90
        0
102
RTVSPost2010PropOp41
 70
     1
102
RTVSPost2010Prop42
 90
       50
102
RTVSPost2010PropOp42
 70
     1
102
RTVSPost2010Prop43
 90
        3
102
RTVSPost2010PropOp43
 70
     1
102
RTVSPost2010Prop44ColorIndex
 90
        5
102
RTVSPost2010Prop44ColorRGB
 90
      255
102
RTVSPost2010PropOp44
 70
     1
102
RTVSPost2010Prop45
280
     0
102
RTVSPost2010PropOp45
 70
     1
102
RTVSPost2010Prop46
 90
       50
102
RTVSPost2010PropOp46
 70
     1
102
RTVSPost2010Prop47
 90
       50
102
RTVSPost2010PropOp47
 70
     1
102
RTVSPost2010Prop48
 90
       50
102
RTVSPost2010PropOp48
 70
     1
102
RTVSPost2010Prop49
280
     0
102
RTVSPost2010PropOp49
 70
     1
102
RTVSPost2010Prop50
 90
       50
102
RTVSPost2010PropOp50
 70
     1
102
RTVSPost2010Prop51ColorIndex
 90
      256
102
RTVSPost2010Prop51ColorRGB
 90
-16777216
102
RTVSPost2010PropOp51
 70
     0
102
RTVSPost2010Prop52
140
1.0
102
RTVSPost2010PropOp52
 70
     0
102
RTVSPost2010Prop53
 90
        2
102
RTVSPost2010PropOp53
 70
     1
102
RTVSPost2010Prop54
  1
strokes_ogs.tif
102
RTVSPost2010PropOp54
 70
     1
102
RTVSPost2010Prop55
280
     0
102
RTVSPost2010PropOp55
 70
     1
102
RTVSPost2010Prop56
140
1.0
102
RTVSPost2010PropOp56
 70
     1
102
RTVSPost2010Prop57
140
1.0
102
RTVSPost2010PropOp57
 70
     1
102
RTVSPropertyOp0
 70
     1
102
RTVSPropertyOp1
 70
     1
102
RTVSPropertyOp2
 70
     1
102
RTVSPropertyOp3
 70
     1
102
RTVSPropertyOp4
 70
     1
102
RTVSPropertyOp5
 70
     1
102
RTVSPropertyOp6
 70
     1
102
RTVSPropertyOp7
 70
     1
102
RTVSPropertyOp8
 70
     1
102
RTVSPropertyOp9
 70
     1
102
RTVSPropertyOp10
 70
     1
102
RTVSPropertyOp11
 70
     1
102
RTVSPropertyOp12
 70
     1
102
RTVSPropertyOp13
 70
     1
102
RTVSPropertyOp14
 70
     1
102
RTVSPropertyOp15
 70
     1
102
RTVSPropertyOp16
 70
     1
102
RTVSPropertyOp17
 70
     1
102
RTVSPropertyOp18
 70
     1
102
RTVSPropertyOp19
 70
     1
102
RTVSPropertyOp20
 70
     1
102
RTVSPropertyOp21
 70
     1
102
RTVSPropertyOp22
 70
     1
102
RTVSPropertyOp23
 70
     1
102
RTVSPropertyOp24
 70
     1
102
RTVSPropertyOp25
 70
     1
102
RTVSPropertyOp26
 70
     1
102
RTVSPropertyOp27
 70
     1
102
RTVSPropertyOp28
 70
     1
102
RTVSPropertyOp29
 70
     1
102
RTVSPropertyOp30
 70
     1
102
RTVSPropertyOp31
 70
     1
102
RTVSPropertyOp32
 70
     1
102
RTVSPropertyOp33
 70
     1
102
RTVSPropertyOp34
 70
     1
102
RTVSPropertyOp35
 70
     1
102
RTVSPropertyOp36
 70
     1
102
RTVSPropertyOp37
 70
     1
102
RTVSPropertyOp38
 70
     1
102
RTVSPropertyOp39
 70
     1
102
RTVSPropertyOp40
 70
     1
102
RTVSPropertyOp41
 70
     1
102
RTVSPropertyOp42
 70
     1
102
RTVSPropertyOp43
 70
     1
102
RTVSPropertyOp44
 70
     1
102
RTVSPropertyOp45
 70
     1
102
RTVSPropertyOp46
 70
     1
102
RTVSPropertyOp47
 70
     1
102
RTVSPropertyOp48
 70
     1
102
RTVSPropertyOp49
 70
     1
102
RTVSPropertyOp50
 70
     1
102
RTVSPropertyOp51
 70
     0
102
RTVSPropertyOp52
 70
     0
102
RTVSPropertyOp53
 70
     1
102
RTVSPropertyOp54
 70
     1
102
RTVSPropertyOp55
 70
     1
102
RTVSPropertyOp56
 70
     1
102
RTVSPropertyOp57
 70
     1
102
RTVSPropertyOp58
 70
     1
102
RTVSPropertyOp59
 70
     1
102
RTVSPropertyOp60
 70
     1
102
RTVSPropertyOp61
 70
     1
102
RTVSPropertyOp62
 70
     1
  0
XRECORD
  5
BD18
102
{ACAD_REACTORS
330
BD17
102
}
330
BD17
100
AcDbXrecord
280
     1
102
RTVSPost2010Prop28
280
     0
102
RTVSPost2010PropOp28
 70
     1
102
RTVSPost2010Prop29
280
     1
102
RTVSPost2010PropOp29
 70
     1
102
RTVSPost2010Prop30
280
     1
102
RTVSPost2010PropOp30
 70
     1
102
RTVSPost2010Prop31
280
     0
102
RTVSPost2010PropOp31
 70
     1
102
RTVSPost2010Prop32
280
     0
102
RTVSPost2010PropOp32
 70
     1
102
RTVSPost2010Prop33
280
     0
102
RTVSPost2010PropOp33
 70
     1
102
RTVSPost2010Prop34
280
     0
102
RTVSPost2010PropOp34
 70
     1
102
RTVSPost2010Prop35
280
     0
102
RTVSPost2010PropOp35
 70
     1
102
RTVSPost2010Prop36
280
     0
102
RTVSPost2010PropOp36
 70
     1
102
RTVSPost2010Prop37
 90
       50
102
RTVSPost2010PropOp37
 70
     1
102
RTVSPost2010Prop38
140
0.0
102
RTVSPost2010PropOp38
 70
     1
102
RTVSPost2010Prop39
140
1.0
102
RTVSPost2010PropOp39
 70
     1
102
RTVSPost2010Prop40
 90
        0
102
RTVSPost2010PropOp40
 70
     1
102
RTVSPost2010Prop41ColorIndex
 90
       18
102
RTVSPost2010Prop41ColorRGB
 90
        0
102
RTVSPost2010PropOp41
 70
     1
102
RTVSPost2010Prop42
 90
       50
102
RTVSPost2010PropOp42
 70
     1
102
RTVSPost2010Prop43
 90
        3
102
RTVSPost2010PropOp43
 70
     1
102
RTVSPost2010Prop44ColorIndex
 90
        5
102
RTVSPost2010Prop44ColorRGB
 90
      255
102
RTVSPost2010PropOp44
 70
     1
102
RTVSPost2010Prop45
280
     0
102
RTVSPost2010PropOp45
 70
     1
102
RTVSPost2010Prop46
 90
       50
102
RTVSPost2010PropOp46
 70
     1
102
RTVSPost2010Prop47
 90
       50
102
RTVSPost2010PropOp47
 70
     1
102
RTVSPost2010Prop48
 90
       50
102
RTVSPost2010PropOp48
 70
     1
102
RTVSPost2010Prop49
280
     0
102
RTVSPost2010PropOp49
 70
     1
102
RTVSPost2010Prop50
 90
       50
102
RTVSPost2010PropOp50
 70
     1
102
RTVSPost2010Prop51ColorIndex
 90
      256
102
RTVSPost2010Prop51ColorRGB
 90
-16777216
102
RTVSPost2010PropOp51
 70
     0
102
RTVSPost2010Prop52
140
1.0
102
RTVSPost2010PropOp52
 70
     0
102
RTVSPost2010Prop53
 90
        2
102
RTVSPost2010PropOp53
 70
     1
102
RTVSPost2010Prop54
  1
strokes_ogs.tif
102
RTVSPost2010PropOp54
 70
     1
102
RTVSPost2010Prop55
280
     0
102
RTVSPost2010PropOp55
 70
     1
102
RTVSPost2010Prop56
140
1.0
102
RTVSPost2010PropOp56
 70
     1
102
RTVSPost2010Prop57
140
1.0
102
RTVSPost2010PropOp57
 70
     1
102
RTVSPropertyOp0
 70
     1
102
RTVSPropertyOp1
 70
     1
102
RTVSPropertyOp2
 70
     1
102
RTVSPropertyOp3
 70
     1
102
RTVSPropertyOp4
 70
     1
102
RTVSPropertyOp5
 70
     1
102
RTVSPropertyOp6
 70
     1
102
RTVSPropertyOp7
 70
     1
102
RTVSPropertyOp8
 70
     1
102
RTVSPropertyOp9
 70
     1
102
RTVSPropertyOp10
 70
     1
102
RTVSPropertyOp11
 70
     1
102
RTVSPropertyOp12
 70
     1
102
RTVSPropertyOp13
 70
     1
102
RTVSPropertyOp14
 70
     1
102
RTVSPropertyOp15
 70
     1
102
RTVSPropertyOp16
 70
     1
102
RTVSPropertyOp17
 70
     1
102
RTVSPropertyOp18
 70
     1
102
RTVSPropertyOp19
 70
     1
102
RTVSPropertyOp20
 70
     1
102
RTVSPropertyOp21
 70
     1
102
RTVSPropertyOp22
 70
     1
102
RTVSPropertyOp23
 70
     1
102
RTVSPropertyOp24
 70
     1
102
RTVSPropertyOp25
 70
     1
102
RTVSPropertyOp26
 70
     1
102
RTVSPropertyOp27
 70
     1
102
RTVSPropertyOp28
 70
     1
102
RTVSPropertyOp29
 70
     1
102
RTVSPropertyOp30
 70
     1
102
RTVSPropertyOp31
 70
     1
102
RTVSPropertyOp32
 70
     1
102
RTVSPropertyOp33
 70
     1
102
RTVSPropertyOp34
 70
     1
102
RTVSPropertyOp35
 70
     1
102
RTVSPropertyOp36
 70
     1
102
RTVSPropertyOp37
 70
     1
102
RTVSPropertyOp38
 70
     1
102
RTVSPropertyOp39
 70
     1
102
RTVSPropertyOp40
 70
     1
102
RTVSPropertyOp41
 70
     1
102
RTVSPropertyOp42
 70
     1
102
RTVSPropertyOp43
 70
     1
102
RTVSPropertyOp44
 70
     1
102
RTVSPropertyOp45
 70
     1
102
RTVSPropertyOp46
 70
     1
102
RTVSPropertyOp47
 70
     1
102
RTVSPropertyOp48
 70
     1
102
RTVSPropertyOp49
 70
     1
102
RTVSPropertyOp50
 70
     1
102
RTVSPropertyOp51
 70
     0
102
RTVSPropertyOp52
 70
     0
102
RTVSPropertyOp53
 70
     1
102
RTVSPropertyOp54
 70
     1
102
RTVSPropertyOp55
 70
     1
102
RTVSPropertyOp56
 70
     1
102
RTVSPropertyOp57
 70
     1
102
RTVSPropertyOp58
 70
     1
102
RTVSPropertyOp59
 70
     1
102
RTVSPropertyOp60
 70
     1
102
RTVSPropertyOp61
 70
     1
102
RTVSPropertyOp62
 70
     1
  0
XRECORD
  5
BD1A
102
{ACAD_REACTORS
330
BD19
102
}
330
BD19
100
AcDbXrecord
280
     1
102
RTVSPost2010Prop28
280
     0
102
RTVSPost2010PropOp28
 70
     1
102
RTVSPost2010Prop29
280
     1
102
RTVSPost2010PropOp29
 70
     1
102
RTVSPost2010Prop30
280
     1
102
RTVSPost2010PropOp30
 70
     1
102
RTVSPost2010Prop31
280
     0
102
RTVSPost2010PropOp31
 70
     1
102
RTVSPost2010Prop32
280
     0
102
RTVSPost2010PropOp32
 70
     1
102
RTVSPost2010Prop33
280
     0
102
RTVSPost2010PropOp33
 70
     1
102
RTVSPost2010Prop34
280
     0
102
RTVSPost2010PropOp34
 70
     1
102
RTVSPost2010Prop35
280
     0
102
RTVSPost2010PropOp35
 70
     1
102
RTVSPost2010Prop36
280
     0
102
RTVSPost2010PropOp36
 70
     1
102
RTVSPost2010Prop37
 90
       50
102
RTVSPost2010PropOp37
 70
     1
102
RTVSPost2010Prop38
140
0.0
102
RTVSPost2010PropOp38
 70
     1
102
RTVSPost2010Prop39
140
1.0
102
RTVSPost2010PropOp39
 70
     1
102
RTVSPost2010Prop40
 90
        0
102
RTVSPost2010PropOp40
 70
     1
102
RTVSPost2010Prop41ColorIndex
 90
       18
102
RTVSPost2010Prop41ColorRGB
 90
        0
102
RTVSPost2010PropOp41
 70
     1
102
RTVSPost2010Prop42
 90
       50
102
RTVSPost2010PropOp42
 70
     1
102
RTVSPost2010Prop43
 90
        3
102
RTVSPost2010PropOp43
 70
     1
102
RTVSPost2010Prop44ColorIndex
 90
        5
102
RTVSPost2010Prop44ColorRGB
 90
      255
102
RTVSPost2010PropOp44
 70
     1
102
RTVSPost2010Prop45
280
     0
102
RTVSPost2010PropOp45
 70
     1
102
RTVSPost2010Prop46
 90
       50
102
RTVSPost2010PropOp46
 70
     1
102
RTVSPost2010Prop47
 90
       50
102
RTVSPost2010PropOp47
 70
     1
102
RTVSPost2010Prop48
 90
       50
102
RTVSPost2010PropOp48
 70
     1
102
RTVSPost2010Prop49
280
     0
102
RTVSPost2010PropOp49
 70
     1
102
RTVSPost2010Prop50
 90
       50
102
RTVSPost2010PropOp50
 70
     1
102
RTVSPost2010Prop51ColorIndex
 90
      256
102
RTVSPost2010Prop51ColorRGB
 90
-16777216
102
RTVSPost2010PropOp51
 70
     0
102
RTVSPost2010Prop52
140
1.0
102
RTVSPost2010PropOp52
 70
     0
102
RTVSPost2010Prop53
 90
        2
102
RTVSPost2010PropOp53
 70
     1
102
RTVSPost2010Prop54
  1
strokes_ogs.tif
102
RTVSPost2010PropOp54
 70
     1
102
RTVSPost2010Prop55
280
     0
102
RTVSPost2010PropOp55
 70
     1
102
RTVSPost2010Prop56
140
1.0
102
RTVSPost2010PropOp56
 70
     1
102
RTVSPost2010Prop57
140
1.0
102
RTVSPost2010PropOp57
 70
     1
102
RTVSPropertyOp0
 70
     1
102
RTVSPropertyOp1
 70
     1
102
RTVSPropertyOp2
 70
     1
102
RTVSPropertyOp3
 70
     1
102
RTVSPropertyOp4
 70
     1
102
RTVSPropertyOp5
 70
     1
102
RTVSPropertyOp6
 70
     1
102
RTVSPropertyOp7
 70
     1
102
RTVSPropertyOp8
 70
     1
102
RTVSPropertyOp9
 70
     1
102
RTVSPropertyOp10
 70
     1
102
RTVSPropertyOp11
 70
     1
102
RTVSPropertyOp12
 70
     1
102
RTVSPropertyOp13
 70
     1
102
RTVSPropertyOp14
 70
     1
102
RTVSPropertyOp15
 70
     1
102
RTVSPropertyOp16
 70
     1
102
RTVSPropertyOp17
 70
     1
102
RTVSPropertyOp18
 70
     1
102
RTVSPropertyOp19
 70
     1
102
RTVSPropertyOp20
 70
     1
102
RTVSPropertyOp21
 70
     1
102
RTVSPropertyOp22
 70
     1
102
RTVSPropertyOp23
 70
     1
102
RTVSPropertyOp24
 70
     1
102
RTVSPropertyOp25
 70
     1
102
RTVSPropertyOp26
 70
     1
102
RTVSPropertyOp27
 70
     1
102
RTVSPropertyOp28
 70
     1
102
RTVSPropertyOp29
 70
     1
102
RTVSPropertyOp30
 70
     1
102
RTVSPropertyOp31
 70
     1
102
RTVSPropertyOp32
 70
     1
102
RTVSPropertyOp33
 70
     1
102
RTVSPropertyOp34
 70
     1
102
RTVSPropertyOp35
 70
     1
102
RTVSPropertyOp36
 70
     1
102
RTVSPropertyOp37
 70
     1
102
RTVSPropertyOp38
 70
     1
102
RTVSPropertyOp39
 70
     1
102
RTVSPropertyOp40
 70
     1
102
RTVSPropertyOp41
 70
     1
102
RTVSPropertyOp42
 70
     1
102
RTVSPropertyOp43
 70
     1
102
RTVSPropertyOp44
 70
     1
102
RTVSPropertyOp45
 70
     1
102
RTVSPropertyOp46
 70
     1
102
RTVSPropertyOp47
 70
     1
102
RTVSPropertyOp48
 70
     1
102
RTVSPropertyOp49
 70
     1
102
RTVSPropertyOp50
 70
     1
102
RTVSPropertyOp51
 70
     0
102
RTVSPropertyOp52
 70
     0
102
RTVSPropertyOp53
 70
     1
102
RTVSPropertyOp54
 70
     1
102
RTVSPropertyOp55
 70
     1
102
RTVSPropertyOp56
 70
     1
102
RTVSPropertyOp57
 70
     1
102
RTVSPropertyOp58
 70
     1
102
RTVSPropertyOp59
 70
     1
102
RTVSPropertyOp60
 70
     1
102
RTVSPropertyOp61
 70
     1
102
RTVSPropertyOp62
 70
     1
  0
XRECORD
  5
BD22
102
{ACAD_REACTORS
330
BD21
102
}
330
BD21
100
AcDbXrecord
280
     1
102
RTVSPost2010Prop28
280
     0
102
RTVSPost2010PropOp28
 70
     1
102
RTVSPost2010Prop29
280
     1
102
RTVSPost2010PropOp29
 70
     1
102
RTVSPost2010Prop30
280
     1
102
RTVSPost2010PropOp30
 70
     1
102
RTVSPost2010Prop31
280
     0
102
RTVSPost2010PropOp31
 70
     1
102
RTVSPost2010Prop32
280
     0
102
RTVSPost2010PropOp32
 70
     1
102
RTVSPost2010Prop33
280
     0
102
RTVSPost2010PropOp33
 70
     1
102
RTVSPost2010Prop34
280
     0
102
RTVSPost2010PropOp34
 70
     1
102
RTVSPost2010Prop35
280
     0
102
RTVSPost2010PropOp35
 70
     1
102
RTVSPost2010Prop36
280
     0
102
RTVSPost2010PropOp36
 70
     1
102
RTVSPost2010Prop37
 90
       50
102
RTVSPost2010PropOp37
 70
     1
102
RTVSPost2010Prop38
140
0.0
102
RTVSPost2010PropOp38
 70
     1
102
RTVSPost2010Prop39
140
1.0
102
RTVSPost2010PropOp39
 70
     1
102
RTVSPost2010Prop40
 90
        0
102
RTVSPost2010PropOp40
 70
     1
102
RTVSPost2010Prop41ColorIndex
 90
       18
102
RTVSPost2010Prop41ColorRGB
 90
        0
102
RTVSPost2010PropOp41
 70
     1
102
RTVSPost2010Prop42
 90
       50
102
RTVSPost2010PropOp42
 70
     1
102
RTVSPost2010Prop43
 90
        3
102
RTVSPost2010PropOp43
 70
     1
102
RTVSPost2010Prop44ColorIndex
 90
        5
102
RTVSPost2010Prop44ColorRGB
 90
      255
102
RTVSPost2010PropOp44
 70
     1
102
RTVSPost2010Prop45
280
     0
102
RTVSPost2010PropOp45
 70
     1
102
RTVSPost2010Prop46
 90
       50
102
RTVSPost2010PropOp46
 70
     1
102
RTVSPost2010Prop47
 90
       50
102
RTVSPost2010PropOp47
 70
     1
102
RTVSPost2010Prop48
 90
       50
102
RTVSPost2010PropOp48
 70
     1
102
RTVSPost2010Prop49
280
     0
102
RTVSPost2010PropOp49
 70
     1
102
RTVSPost2010Prop50
 90
       50
102
RTVSPost2010PropOp50
 70
     1
102
RTVSPost2010Prop51ColorIndex
 90
      256
102
RTVSPost2010Prop51ColorRGB
 90
-16777216
102
RTVSPost2010PropOp51
 70
     0
102
RTVSPost2010Prop52
140
1.0
102
RTVSPost2010PropOp52
 70
     0
102
RTVSPost2010Prop53
 90
        2
102
RTVSPost2010PropOp53
 70
     1
102
RTVSPost2010Prop54
  1
strokes_ogs.tif
102
RTVSPost2010PropOp54
 70
     1
102
RTVSPost2010Prop55
280
     0
102
RTVSPost2010PropOp55
 70
     1
102
RTVSPost2010Prop56
140
1.0
102
RTVSPost2010PropOp56
 70
     1
102
RTVSPost2010Prop57
140
1.0
102
RTVSPost2010PropOp57
 70
     1
102
RTVSPropertyOp0
 70
     1
102
RTVSPropertyOp1
 70
     1
102
RTVSPropertyOp2
 70
     1
102
RTVSPropertyOp3
 70
     1
102
RTVSPropertyOp4
 70
     1
102
RTVSPropertyOp5
 70
     1
102
RTVSPropertyOp6
 70
     1
102
RTVSPropertyOp7
 70
     1
102
RTVSPropertyOp8
 70
     1
102
RTVSPropertyOp9
 70
     1
102
RTVSPropertyOp10
 70
     1
102
RTVSPropertyOp11
 70
     1
102
RTVSPropertyOp12
 70
     1
102
RTVSPropertyOp13
 70
     1
102
RTVSPropertyOp14
 70
     1
102
RTVSPropertyOp15
 70
     1
102
RTVSPropertyOp16
 70
     1
102
RTVSPropertyOp17
 70
     1
102
RTVSPropertyOp18
 70
     1
102
RTVSPropertyOp19
 70
     1
102
RTVSPropertyOp20
 70
     1
102
RTVSPropertyOp21
 70
     1
102
RTVSPropertyOp22
 70
     1
102
RTVSPropertyOp23
 70
     1
102
RTVSPropertyOp24
 70
     1
102
RTVSPropertyOp25
 70
     1
102
RTVSPropertyOp26
 70
     1
102
RTVSPropertyOp27
 70
     1
102
RTVSPropertyOp28
 70
     1
102
RTVSPropertyOp29
 70
     1
102
RTVSPropertyOp30
 70
     1
102
RTVSPropertyOp31
 70
     1
102
RTVSPropertyOp32
 70
     1
102
RTVSPropertyOp33
 70
     1
102
RTVSPropertyOp34
 70
     1
102
RTVSPropertyOp35
 70
     1
102
RTVSPropertyOp36
 70
     1
102
RTVSPropertyOp37
 70
     1
102
RTVSPropertyOp38
 70
     1
102
RTVSPropertyOp39
 70
     1
102
RTVSPropertyOp40
 70
     1
102
RTVSPropertyOp41
 70
     1
102
RTVSPropertyOp42
 70
     1
102
RTVSPropertyOp43
 70
     1
102
RTVSPropertyOp44
 70
     1
102
RTVSPropertyOp45
 70
     1
102
RTVSPropertyOp46
 70
     1
102
RTVSPropertyOp47
 70
     1
102
RTVSPropertyOp48
 70
     1
102
RTVSPropertyOp49
 70
     1
102
RTVSPropertyOp50
 70
     1
102
RTVSPropertyOp51
 70
     0
102
RTVSPropertyOp52
 70
     0
102
RTVSPropertyOp53
 70
     1
102
RTVSPropertyOp54
 70
     1
102
RTVSPropertyOp55
 70
     1
102
RTVSPropertyOp56
 70
     1
102
RTVSPropertyOp57
 70
     1
102
RTVSPropertyOp58
 70
     1
102
RTVSPropertyOp59
 70
     1
102
RTVSPropertyOp60
 70
     1
102
RTVSPropertyOp61
 70
     1
102
RTVSPropertyOp62
 70
     1
  0
XRECORD
  5
BD3E
102
{ACAD_REACTORS
330
BD3D
102
}
330
BD3D
100
AcDbXrecord
280
     1
102
RTVSPost2010Prop28
280
     0
102
RTVSPost2010PropOp28
 70
     1
102
RTVSPost2010Prop29
280
     1
102
RTVSPost2010PropOp29
 70
     1
102
RTVSPost2010Prop30
280
     1
102
RTVSPost2010PropOp30
 70
     1
102
RTVSPost2010Prop31
280
     0
102
RTVSPost2010PropOp31
 70
     1
102
RTVSPost2010Prop32
280
     0
102
RTVSPost2010PropOp32
 70
     1
102
RTVSPost2010Prop33
280
     0
102
RTVSPost2010PropOp33
 70
     1
102
RTVSPost2010Prop34
280
     0
102
RTVSPost2010PropOp34
 70
     1
102
RTVSPost2010Prop35
280
     0
102
RTVSPost2010PropOp35
 70
     1
102
RTVSPost2010Prop36
280
     0
102
RTVSPost2010PropOp36
 70
     1
102
RTVSPost2010Prop37
 90
       50
102
RTVSPost2010PropOp37
 70
     0
102
RTVSPost2010Prop38
140
0.0
102
RTVSPost2010PropOp38
 70
     0
102
RTVSPost2010Prop39
140
1.0
102
RTVSPost2010PropOp39
 70
     0
102
RTVSPost2010Prop40
 90
        0
102
RTVSPost2010PropOp40
 70
     0
102
RTVSPost2010Prop41ColorIndex
 90
       18
102
RTVSPost2010Prop41ColorRGB
 90
        0
102
RTVSPost2010PropOp41
 70
     0
102
RTVSPost2010Prop42
 90
       50
102
RTVSPost2010PropOp42
 70
     0
102
RTVSPost2010Prop43
 90
        3
102
RTVSPost2010PropOp43
 70
     0
102
RTVSPost2010Prop44ColorIndex
 90
        5
102
RTVSPost2010Prop44ColorRGB
 90
      255
102
RTVSPost2010PropOp44
 70
     0
102
RTVSPost2010Prop45
280
     0
102
RTVSPost2010PropOp45
 70
     1
102
RTVSPost2010Prop46
 90
       50
102
RTVSPost2010PropOp46
 70
     0
102
RTVSPost2010Prop47
 90
       50
102
RTVSPost2010PropOp47
 70
     0
102
RTVSPost2010Prop48
 90
       50
102
RTVSPost2010PropOp48
 70
     0
102
RTVSPost2010Prop49
280
     0
102
RTVSPost2010PropOp49
 70
     1
102
RTVSPost2010Prop50
 90
       50
102
RTVSPost2010PropOp50
 70
     0
102
RTVSPost2010Prop51ColorIndex
 90
      256
102
RTVSPost2010Prop51ColorRGB
 90
-16777216
102
RTVSPost2010PropOp51
 70
     0
102
RTVSPost2010Prop52
140
1.0
102
RTVSPost2010PropOp52
 70
     0
102
RTVSPost2010Prop53
 90
        2
102
RTVSPost2010PropOp53
 70
     0
102
RTVSPost2010Prop54
  1
strokes_ogs.tif
102
RTVSPost2010PropOp54
 70
     0
102
RTVSPost2010Prop55
280
     0
102
RTVSPost2010PropOp55
 70
     1
102
RTVSPost2010Prop56
140
1.0
102
RTVSPost2010PropOp56
 70
     0
102
RTVSPost2010Prop57
140
1.0
102
RTVSPost2010PropOp57
 70
     0
102
RTVSPropertyOp0
 70
     0
102
RTVSPropertyOp1
 70
     0
102
RTVSPropertyOp2
 70
     0
102
RTVSPropertyOp3
 70
     0
102
RTVSPropertyOp4
 70
     0
102
RTVSPropertyOp5
 70
     0
102
RTVSPropertyOp6
 70
     0
102
RTVSPropertyOp7
 70
     0
102
RTVSPropertyOp8
 70
     0
102
RTVSPropertyOp9
 70
     0
102
RTVSPropertyOp10
 70
     0
102
RTVSPropertyOp11
 70
     0
102
RTVSPropertyOp12
 70
     0
102
RTVSPropertyOp13
 70
     0
102
RTVSPropertyOp14
 70
     2
102
RTVSPropertyOp15
 70
     0
102
RTVSPropertyOp16
 70
     0
102
RTVSPropertyOp17
 70
     0
102
RTVSPropertyOp18
 70
     0
102
RTVSPropertyOp19
 70
     0
102
RTVSPropertyOp20
 70
     0
102
RTVSPropertyOp21
 70
     0
102
RTVSPropertyOp22
 70
     0
102
RTVSPropertyOp23
 70
     0
102
RTVSPropertyOp24
 70
     0
102
RTVSPropertyOp25
 70
     0
102
RTVSPropertyOp26
 70
     0
102
RTVSPropertyOp27
 70
     0
102
RTVSPropertyOp28
 70
     1
102
RTVSPropertyOp29
 70
     1
102
RTVSPropertyOp30
 70
     1
102
RTVSPropertyOp31
 70
     1
102
RTVSPropertyOp32
 70
     1
102
RTVSPropertyOp33
 70
     1
102
RTVSPropertyOp34
 70
     1
102
RTVSPropertyOp35
 70
     1
102
RTVSPropertyOp36
 70
     1
102
RTVSPropertyOp37
 70
     0
102
RTVSPropertyOp38
 70
     0
102
RTVSPropertyOp39
 70
     0
102
RTVSPropertyOp40
 70
     0
102
RTVSPropertyOp41
 70
     0
102
RTVSPropertyOp42
 70
     0
102
RTVSPropertyOp43
 70
     0
102
RTVSPropertyOp44
 70
     0
102
RTVSPropertyOp45
 70
     1
102
RTVSPropertyOp46
 70
     0
102
RTVSPropertyOp47
 70
     0
102
RTVSPropertyOp48
 70
     0
102
RTVSPropertyOp49
 70
     1
102
RTVSPropertyOp50
 70
     0
102
RTVSPropertyOp51
 70
     0
102
RTVSPropertyOp52
 70
     0
102
RTVSPropertyOp53
 70
     0
102
RTVSPropertyOp54
 70
     0
102
RTVSPropertyOp55
 70
     1
102
RTVSPropertyOp56
 70
     0
102
RTVSPropertyOp57
 70
     0
102
RTVSPropertyOp58
 70
     0
102
RTVSPropertyOp59
 70
     0
102
RTVSPropertyOp60
 70
     0
102
RTVSPropertyOp61
 70
     0
102
RTVSPropertyOp62
 70
     0
  0
XRECORD
  5
BD2E
102
{ACAD_REACTORS
330
BD2D
102
}
330
BD2D
100
AcDbXrecord
280
     1
102
RTVSPost2010Prop28
280
     0
102
RTVSPost2010PropOp28
 70
     1
102
RTVSPost2010Prop29
280
     1
102
RTVSPost2010PropOp29
 70
     1
102
RTVSPost2010Prop30
280
     1
102
RTVSPost2010PropOp30
 70
     1
102
RTVSPost2010Prop31
280
     0
102
RTVSPost2010PropOp31
 70
     1
102
RTVSPost2010Prop32
280
     0
102
RTVSPost2010PropOp32
 70
     1
102
RTVSPost2010Prop33
280
     0
102
RTVSPost2010PropOp33
 70
     1
102
RTVSPost2010Prop34
280
     0
102
RTVSPost2010PropOp34
 70
     1
102
RTVSPost2010Prop35
280
     0
102
RTVSPost2010PropOp35
 70
     1
102
RTVSPost2010Prop36
280
     0
102
RTVSPost2010PropOp36
 70
     1
102
RTVSPost2010Prop37
 90
       50
102
RTVSPost2010PropOp37
 70
     1
102
RTVSPost2010Prop38
140
0.0
102
RTVSPost2010PropOp38
 70
     1
102
RTVSPost2010Prop39
140
1.0
102
RTVSPost2010PropOp39
 70
     1
102
RTVSPost2010Prop40
 90
        0
102
RTVSPost2010PropOp40
 70
     1
102
RTVSPost2010Prop41ColorIndex
 90
       18
102
RTVSPost2010Prop41ColorRGB
 90
        0
102
RTVSPost2010PropOp41
 70
     1
102
RTVSPost2010Prop42
 90
       50
102
RTVSPost2010PropOp42
 70
     1
102
RTVSPost2010Prop43
 90
        3
102
RTVSPost2010PropOp43
 70
     1
102
RTVSPost2010Prop44ColorIndex
 90
        5
102
RTVSPost2010Prop44ColorRGB
 90
      255
102
RTVSPost2010PropOp44
 70
     1
102
RTVSPost2010Prop45
280
     0
102
RTVSPost2010PropOp45
 70
     1
102
RTVSPost2010Prop46
 90
       50
102
RTVSPost2010PropOp46
 70
     1
102
RTVSPost2010Prop47
 90
       50
102
RTVSPost2010PropOp47
 70
     1
102
RTVSPost2010Prop48
 90
       50
102
RTVSPost2010PropOp48
 70
     1
102
RTVSPost2010Prop49
280
     0
102
RTVSPost2010PropOp49
 70
     1
102
RTVSPost2010Prop50
 90
       50
102
RTVSPost2010PropOp50
 70
     1
102
RTVSPost2010Prop51ColorIndex
 90
      256
102
RTVSPost2010Prop51ColorRGB
 90
-16777216
102
RTVSPost2010PropOp51
 70
     0
102
RTVSPost2010Prop52
140
1.0
102
RTVSPost2010PropOp52
 70
     0
102
RTVSPost2010Prop53
 90
        2
102
RTVSPost2010PropOp53
 70
     1
102
RTVSPost2010Prop54
  1
strokes_ogs.tif
102
RTVSPost2010PropOp54
 70
     1
102
RTVSPost2010Prop55
280
     0
102
RTVSPost2010PropOp55
 70
     1
102
RTVSPost2010Prop56
140
1.0
102
RTVSPost2010PropOp56
 70
     1
102
RTVSPost2010Prop57
140
1.0
102
RTVSPost2010PropOp57
 70
     1
102
RTVSPropertyOp0
 70
     1
102
RTVSPropertyOp1
 70
     1
102
RTVSPropertyOp2
 70
     1
102
RTVSPropertyOp3
 70
     1
102
RTVSPropertyOp4
 70
     1
102
RTVSPropertyOp5
 70
     1
102
RTVSPropertyOp6
 70
     1
102
RTVSPropertyOp7
 70
     1
102
RTVSPropertyOp8
 70
     1
102
RTVSPropertyOp9
 70
     1
102
RTVSPropertyOp10
 70
     1
102
RTVSPropertyOp11
 70
     1
102
RTVSPropertyOp12
 70
     1
102
RTVSPropertyOp13
 70
     1
102
RTVSPropertyOp14
 70
     1
102
RTVSPropertyOp15
 70
     1
102
RTVSPropertyOp16
 70
     1
102
RTVSPropertyOp17
 70
     1
102
RTVSPropertyOp18
 70
     1
102
RTVSPropertyOp19
 70
     1
102
RTVSPropertyOp20
 70
     1
102
RTVSPropertyOp21
 70
     1
102
RTVSPropertyOp22
 70
     1
102
RTVSPropertyOp23
 70
     1
102
RTVSPropertyOp24
 70
     1
102
RTVSPropertyOp25
 70
     1
102
RTVSPropertyOp26
 70
     1
102
RTVSPropertyOp27
 70
     1
102
RTVSPropertyOp28
 70
     1
102
RTVSPropertyOp29
 70
     1
102
RTVSPropertyOp30
 70
     1
102
RTVSPropertyOp31
 70
     1
102
RTVSPropertyOp32
 70
     1
102
RTVSPropertyOp33
 70
     1
102
RTVSPropertyOp34
 70
     1
102
RTVSPropertyOp35
 70
     1
102
RTVSPropertyOp36
 70
     1
102
RTVSPropertyOp37
 70
     1
102
RTVSPropertyOp38
 70
     1
102
RTVSPropertyOp39
 70
     1
102
RTVSPropertyOp40
 70
     1
102
RTVSPropertyOp41
 70
     1
102
RTVSPropertyOp42
 70
     1
102
RTVSPropertyOp43
 70
     1
102
RTVSPropertyOp44
 70
     1
102
RTVSPropertyOp45
 70
     1
102
RTVSPropertyOp46
 70
     1
102
RTVSPropertyOp47
 70
     1
102
RTVSPropertyOp48
 70
     1
102
RTVSPropertyOp49
 70
     1
102
RTVSPropertyOp50
 70
     1
102
RTVSPropertyOp51
 70
     0
102
RTVSPropertyOp52
 70
     0
102
RTVSPropertyOp53
 70
     1
102
RTVSPropertyOp54
 70
     1
102
RTVSPropertyOp55
 70
     1
102
RTVSPropertyOp56
 70
     1
102
RTVSPropertyOp57
 70
     1
102
RTVSPropertyOp58
 70
     1
102
RTVSPropertyOp59
 70
     1
102
RTVSPropertyOp60
 70
     1
102
RTVSPropertyOp61
 70
     1
102
RTVSPropertyOp62
 70
     1
  0
XRECORD
  5
BD40
102
{ACAD_REACTORS
330
BD3F
102
}
330
BD3F
100
AcDbXrecord
280
     1
102
RTVSPost2010Prop28
280
     0
102
RTVSPost2010PropOp28
 70
     1
102
RTVSPost2010Prop29
280
     1
102
RTVSPost2010PropOp29
 70
     1
102
RTVSPost2010Prop30
280
     1
102
RTVSPost2010PropOp30
 70
     1
102
RTVSPost2010Prop31
280
     0
102
RTVSPost2010PropOp31
 70
     1
102
RTVSPost2010Prop32
280
     0
102
RTVSPost2010PropOp32
 70
     1
102
RTVSPost2010Prop33
280
     0
102
RTVSPost2010PropOp33
 70
     1
102
RTVSPost2010Prop34
280
     0
102
RTVSPost2010PropOp34
 70
     1
102
RTVSPost2010Prop35
280
     0
102
RTVSPost2010PropOp35
 70
     1
102
RTVSPost2010Prop36
280
     0
102
RTVSPost2010PropOp36
 70
     1
102
RTVSPost2010Prop37
 90
       50
102
RTVSPost2010PropOp37
 70
     0
102
RTVSPost2010Prop38
140
0.0
102
RTVSPost2010PropOp38
 70
     0
102
RTVSPost2010Prop39
140
1.0
102
RTVSPost2010PropOp39
 70
     0
102
RTVSPost2010Prop40
 90
        0
102
RTVSPost2010PropOp40
 70
     0
102
RTVSPost2010Prop41ColorIndex
 90
       18
102
RTVSPost2010Prop41ColorRGB
 90
        0
102
RTVSPost2010PropOp41
 70
     0
102
RTVSPost2010Prop42
 90
       50
102
RTVSPost2010PropOp42
 70
     0
102
RTVSPost2010Prop43
 90
        3
102
RTVSPost2010PropOp43
 70
     0
102
RTVSPost2010Prop44ColorIndex
 90
        5
102
RTVSPost2010Prop44ColorRGB
 90
      255
102
RTVSPost2010PropOp44
 70
     0
102
RTVSPost2010Prop45
280
     0
102
RTVSPost2010PropOp45
 70
     1
102
RTVSPost2010Prop46
 90
       50
102
RTVSPost2010PropOp46
 70
     0
102
RTVSPost2010Prop47
 90
       50
102
RTVSPost2010PropOp47
 70
     0
102
RTVSPost2010Prop48
 90
       50
102
RTVSPost2010PropOp48
 70
     0
102
RTVSPost2010Prop49
280
     0
102
RTVSPost2010PropOp49
 70
     1
102
RTVSPost2010Prop50
 90
       50
102
RTVSPost2010PropOp50
 70
     0
102
RTVSPost2010Prop51ColorIndex
 90
      256
102
RTVSPost2010Prop51ColorRGB
 90
-16777216
102
RTVSPost2010PropOp51
 70
     0
102
RTVSPost2010Prop52
140
1.0
102
RTVSPost2010PropOp52
 70
     0
102
RTVSPost2010Prop53
 90
        2
102
RTVSPost2010PropOp53
 70
     0
102
RTVSPost2010Prop54
  1
strokes_ogs.tif
102
RTVSPost2010PropOp54
 70
     0
102
RTVSPost2010Prop55
280
     0
102
RTVSPost2010PropOp55
 70
     1
102
RTVSPost2010Prop56
140
1.0
102
RTVSPost2010PropOp56
 70
     0
102
RTVSPost2010Prop57
140
1.0
102
RTVSPost2010PropOp57
 70
     0
102
RTVSPropertyOp0
 70
     0
102
RTVSPropertyOp1
 70
     0
102
RTVSPropertyOp2
 70
     0
102
RTVSPropertyOp3
 70
     0
102
RTVSPropertyOp4
 70
     0
102
RTVSPropertyOp5
 70
     0
102
RTVSPropertyOp6
 70
     0
102
RTVSPropertyOp7
 70
     0
102
RTVSPropertyOp8
 70
     0
102
RTVSPropertyOp9
 70
     0
102
RTVSPropertyOp10
 70
     0
102
RTVSPropertyOp11
 70
     0
102
RTVSPropertyOp12
 70
     0
102
RTVSPropertyOp13
 70
     0
102
RTVSPropertyOp14
 70
     2
102
RTVSPropertyOp15
 70
     0
102
RTVSPropertyOp16
 70
     0
102
RTVSPropertyOp17
 70
     0
102
RTVSPropertyOp18
 70
     0
102
RTVSPropertyOp19
 70
     0
102
RTVSPropertyOp20
 70
     0
102
RTVSPropertyOp21
 70
     0
102
RTVSPropertyOp22
 70
     0
102
RTVSPropertyOp23
 70
     0
102
RTVSPropertyOp24
 70
     0
102
RTVSPropertyOp25
 70
     0
102
RTVSPropertyOp26
 70
     0
102
RTVSPropertyOp27
 70
     0
102
RTVSPropertyOp28
 70
     1
102
RTVSPropertyOp29
 70
     1
102
RTVSPropertyOp30
 70
     1
102
RTVSPropertyOp31
 70
     1
102
RTVSPropertyOp32
 70
     1
102
RTVSPropertyOp33
 70
     1
102
RTVSPropertyOp34
 70
     1
102
RTVSPropertyOp35
 70
     1
102
RTVSPropertyOp36
 70
     1
102
RTVSPropertyOp37
 70
     0
102
RTVSPropertyOp38
 70
     0
102
RTVSPropertyOp39
 70
     0
102
RTVSPropertyOp40
 70
     0
102
RTVSPropertyOp41
 70
     0
102
RTVSPropertyOp42
 70
     0
102
RTVSPropertyOp43
 70
     0
102
RTVSPropertyOp44
 70
     0
102
RTVSPropertyOp45
 70
     1
102
RTVSPropertyOp46
 70
     0
102
RTVSPropertyOp47
 70
     0
102
RTVSPropertyOp48
 70
     0
102
RTVSPropertyOp49
 70
     1
102
RTVSPropertyOp50
 70
     0
102
RTVSPropertyOp51
 70
     0
102
RTVSPropertyOp52
 70
     0
102
RTVSPropertyOp53
 70
     0
102
RTVSPropertyOp54
 70
     0
102
RTVSPropertyOp55
 70
     1
102
RTVSPropertyOp56
 70
     0
102
RTVSPropertyOp57
 70
     0
102
RTVSPropertyOp58
 70
     0
102
RTVSPropertyOp59
 70
     0
102
RTVSPropertyOp60
 70
     0
102
RTVSPropertyOp61
 70
     0
102
RTVSPropertyOp62
 70
     0
  0
XRECORD
  5
BD26
102
{ACAD_REACTORS
330
BD25
102
}
330
BD25
100
AcDbXrecord
280
     1
102
RTVSPost2010Prop28
280
     0
102
RTVSPost2010PropOp28
 70
     1
102
RTVSPost2010Prop29
280
     1
102
RTVSPost2010PropOp29
 70
     1
102
RTVSPost2010Prop30
280
     1
102
RTVSPost2010PropOp30
 70
     1
102
RTVSPost2010Prop31
280
     0
102
RTVSPost2010PropOp31
 70
     1
102
RTVSPost2010Prop32
280
     0
102
RTVSPost2010PropOp32
 70
     1
102
RTVSPost2010Prop33
280
     0
102
RTVSPost2010PropOp33
 70
     1
102
RTVSPost2010Prop34
280
     0
102
RTVSPost2010PropOp34
 70
     1
102
RTVSPost2010Prop35
280
     0
102
RTVSPost2010PropOp35
 70
     1
102
RTVSPost2010Prop36
280
     0
102
RTVSPost2010PropOp36
 70
     1
102
RTVSPost2010Prop37
 90
       50
102
RTVSPost2010PropOp37
 70
     1
102
RTVSPost2010Prop38
140
0.0
102
RTVSPost2010PropOp38
 70
     1
102
RTVSPost2010Prop39
140
1.0
102
RTVSPost2010PropOp39
 70
     1
102
RTVSPost2010Prop40
 90
        0
102
RTVSPost2010PropOp40
 70
     1
102
RTVSPost2010Prop41ColorIndex
 90
       18
102
RTVSPost2010Prop41ColorRGB
 90
        0
102
RTVSPost2010PropOp41
 70
     1
102
RTVSPost2010Prop42
 90
       50
102
RTVSPost2010PropOp42
 70
     1
102
RTVSPost2010Prop43
 90
        3
102
RTVSPost2010PropOp43
 70
     1
102
RTVSPost2010Prop44ColorIndex
 90
        5
102
RTVSPost2010Prop44ColorRGB
 90
      255
102
RTVSPost2010PropOp44
 70
     1
102
RTVSPost2010Prop45
280
     0
102
RTVSPost2010PropOp45
 70
     1
102
RTVSPost2010Prop46
 90
       50
102
RTVSPost2010PropOp46
 70
     1
102
RTVSPost2010Prop47
 90
       50
102
RTVSPost2010PropOp47
 70
     1
102
RTVSPost2010Prop48
 90
       50
102
RTVSPost2010PropOp48
 70
     1
102
RTVSPost2010Prop49
280
     0
102
RTVSPost2010PropOp49
 70
     1
102
RTVSPost2010Prop50
 90
       50
102
RTVSPost2010PropOp50
 70
     1
102
RTVSPost2010Prop51ColorIndex
 90
      256
102
RTVSPost2010Prop51ColorRGB
 90
-16777216
102
RTVSPost2010PropOp51
 70
     0
102
RTVSPost2010Prop52
140
1.0
102
RTVSPost2010PropOp52
 70
     0
102
RTVSPost2010Prop53
 90
        2
102
RTVSPost2010PropOp53
 70
     1
102
RTVSPost2010Prop54
  1
strokes_ogs.tif
102
RTVSPost2010PropOp54
 70
     1
102
RTVSPost2010Prop55
280
     0
102
RTVSPost2010PropOp55
 70
     1
102
RTVSPost2010Prop56
140
1.0
102
RTVSPost2010PropOp56
 70
     1
102
RTVSPost2010Prop57
140
1.0
102
RTVSPost2010PropOp57
 70
     1
102
RTVSPropertyOp0
 70
     1
102
RTVSPropertyOp1
 70
     1
102
RTVSPropertyOp2
 70
     1
102
RTVSPropertyOp3
 70
     1
102
RTVSPropertyOp4
 70
     1
102
RTVSPropertyOp5
 70
     1
102
RTVSPropertyOp6
 70
     1
102
RTVSPropertyOp7
 70
     1
102
RTVSPropertyOp8
 70
     1
102
RTVSPropertyOp9
 70
     1
102
RTVSPropertyOp10
 70
     1
102
RTVSPropertyOp11
 70
     1
102
RTVSPropertyOp12
 70
     1
102
RTVSPropertyOp13
 70
     1
102
RTVSPropertyOp14
 70
     1
102
RTVSPropertyOp15
 70
     1
102
RTVSPropertyOp16
 70
     1
102
RTVSPropertyOp17
 70
     1
102
RTVSPropertyOp18
 70
     1
102
RTVSPropertyOp19
 70
     1
102
RTVSPropertyOp20
 70
     1
102
RTVSPropertyOp21
 70
     1
102
RTVSPropertyOp22
 70
     1
102
RTVSPropertyOp23
 70
     1
102
RTVSPropertyOp24
 70
     1
102
RTVSPropertyOp25
 70
     1
102
RTVSPropertyOp26
 70
     1
102
RTVSPropertyOp27
 70
     1
102
RTVSPropertyOp28
 70
     1
102
RTVSPropertyOp29
 70
     1
102
RTVSPropertyOp30
 70
     1
102
RTVSPropertyOp31
 70
     1
102
RTVSPropertyOp32
 70
     1
102
RTVSPropertyOp33
 70
     1
102
RTVSPropertyOp34
 70
     1
102
RTVSPropertyOp35
 70
     1
102
RTVSPropertyOp36
 70
     1
102
RTVSPropertyOp37
 70
     1
102
RTVSPropertyOp38
 70
     1
102
RTVSPropertyOp39
 70
     1
102
RTVSPropertyOp40
 70
     1
102
RTVSPropertyOp41
 70
     1
102
RTVSPropertyOp42
 70
     1
102
RTVSPropertyOp43
 70
     1
102
RTVSPropertyOp44
 70
     1
102
RTVSPropertyOp45
 70
     1
102
RTVSPropertyOp46
 70
     1
102
RTVSPropertyOp47
 70
     1
102
RTVSPropertyOp48
 70
     1
102
RTVSPropertyOp49
 70
     1
102
RTVSPropertyOp50
 70
     1
102
RTVSPropertyOp51
 70
     0
102
RTVSPropertyOp52
 70
     0
102
RTVSPropertyOp53
 70
     1
102
RTVSPropertyOp54
 70
     1
102
RTVSPropertyOp55
 70
     1
102
RTVSPropertyOp56
 70
     1
102
RTVSPropertyOp57
 70
     1
102
RTVSPropertyOp58
 70
     1
102
RTVSPropertyOp59
 70
     1
102
RTVSPropertyOp60
 70
     1
102
RTVSPropertyOp61
 70
     1
102
RTVSPropertyOp62
 70
     1
  0
XRECORD
  5
BD3C
102
{ACAD_REACTORS
330
BD3B
102
}
330
BD3B
100
AcDbXrecord
280
     1
102
RTVSPost2010Prop28
280
     0
102
RTVSPost2010PropOp28
 70
     1
102
RTVSPost2010Prop29
280
     1
102
RTVSPost2010PropOp29
 70
     1
102
RTVSPost2010Prop30
280
     1
102
RTVSPost2010PropOp30
 70
     1
102
RTVSPost2010Prop31
280
     0
102
RTVSPost2010PropOp31
 70
     1
102
RTVSPost2010Prop32
280
     0
102
RTVSPost2010PropOp32
 70
     1
102
RTVSPost2010Prop33
280
     0
102
RTVSPost2010PropOp33
 70
     1
102
RTVSPost2010Prop34
280
     0
102
RTVSPost2010PropOp34
 70
     1
102
RTVSPost2010Prop35
280
     0
102
RTVSPost2010PropOp35
 70
     1
102
RTVSPost2010Prop36
280
     0
102
RTVSPost2010PropOp36
 70
     1
102
RTVSPost2010Prop37
 90
       50
102
RTVSPost2010PropOp37
 70
     1
102
RTVSPost2010Prop38
140
0.0
102
RTVSPost2010PropOp38
 70
     1
102
RTVSPost2010Prop39
140
1.0
102
RTVSPost2010PropOp39
 70
     1
102
RTVSPost2010Prop40
 90
        0
102
RTVSPost2010PropOp40
 70
     1
102
RTVSPost2010Prop41ColorIndex
 90
       18
102
RTVSPost2010Prop41ColorRGB
 90
        0
102
RTVSPost2010PropOp41
 70
     1
102
RTVSPost2010Prop42
 90
       50
102
RTVSPost2010PropOp42
 70
     1
102
RTVSPost2010Prop43
 90
        3
102
RTVSPost2010PropOp43
 70
     1
102
RTVSPost2010Prop44ColorIndex
 90
        5
102
RTVSPost2010Prop44ColorRGB
 90
      255
102
RTVSPost2010PropOp44
 70
     1
102
RTVSPost2010Prop45
280
     0
102
RTVSPost2010PropOp45
 70
     1
102
RTVSPost2010Prop46
 90
       50
102
RTVSPost2010PropOp46
 70
     1
102
RTVSPost2010Prop47
 90
       50
102
RTVSPost2010PropOp47
 70
     1
102
RTVSPost2010Prop48
 90
       50
102
RTVSPost2010PropOp48
 70
     1
102
RTVSPost2010Prop49
280
     0
102
RTVSPost2010PropOp49
 70
     1
102
RTVSPost2010Prop50
 90
       50
102
RTVSPost2010PropOp50
 70
     1
102
RTVSPost2010Prop51ColorIndex
 90
      256
102
RTVSPost2010Prop51ColorRGB
 90
-16777216
102
RTVSPost2010PropOp51
 70
     0
102
RTVSPost2010Prop52
140
1.0
102
RTVSPost2010PropOp52
 70
     0
102
RTVSPost2010Prop53
 90
        2
102
RTVSPost2010PropOp53
 70
     1
102
RTVSPost2010Prop54
  1
strokes_ogs.tif
102
RTVSPost2010PropOp54
 70
     1
102
RTVSPost2010Prop55
280
     0
102
RTVSPost2010PropOp55
 70
     1
102
RTVSPost2010Prop56
140
1.0
102
RTVSPost2010PropOp56
 70
     1
102
RTVSPost2010Prop57
140
1.0
102
RTVSPost2010PropOp57
 70
     1
102
RTVSPropertyOp0
 70
     1
102
RTVSPropertyOp1
 70
     1
102
RTVSPropertyOp2
 70
     1
102
RTVSPropertyOp3
 70
     1
102
RTVSPropertyOp4
 70
     1
102
RTVSPropertyOp5
 70
     1
102
RTVSPropertyOp6
 70
     1
102
RTVSPropertyOp7
 70
     1
102
RTVSPropertyOp8
 70
     1
102
RTVSPropertyOp9
 70
     1
102
RTVSPropertyOp10
 70
     1
102
RTVSPropertyOp11
 70
     1
102
RTVSPropertyOp12
 70
     1
102
RTVSPropertyOp13
 70
     1
102
RTVSPropertyOp14
 70
     1
102
RTVSPropertyOp15
 70
     1
102
RTVSPropertyOp16
 70
     1
102
RTVSPropertyOp17
 70
     1
102
RTVSPropertyOp18
 70
     1
102
RTVSPropertyOp19
 70
     1
102
RTVSPropertyOp20
 70
     1
102
RTVSPropertyOp21
 70
     1
102
RTVSPropertyOp22
 70
     1
102
RTVSPropertyOp23
 70
     1
102
RTVSPropertyOp24
 70
     1
102
RTVSPropertyOp25
 70
     1
102
RTVSPropertyOp26
 70
     1
102
RTVSPropertyOp27
 70
     1
102
RTVSPropertyOp28
 70
     1
102
RTVSPropertyOp29
 70
     1
102
RTVSPropertyOp30
 70
     1
102
RTVSPropertyOp31
 70
     1
102
RTVSPropertyOp32
 70
     1
102
RTVSPropertyOp33
 70
     1
102
RTVSPropertyOp34
 70
     1
102
RTVSPropertyOp35
 70
     1
102
RTVSPropertyOp36
 70
     1
102
RTVSPropertyOp37
 70
     1
102
RTVSPropertyOp38
 70
     1
102
RTVSPropertyOp39
 70
     1
102
RTVSPropertyOp40
 70
     1
102
RTVSPropertyOp41
 70
     1
102
RTVSPropertyOp42
 70
     1
102
RTVSPropertyOp43
 70
     1
102
RTVSPropertyOp44
 70
     1
102
RTVSPropertyOp45
 70
     1
102
RTVSPropertyOp46
 70
     1
102
RTVSPropertyOp47
 70
     1
102
RTVSPropertyOp48
 70
     1
102
RTVSPropertyOp49
 70
     1
102
RTVSPropertyOp50
 70
     1
102
RTVSPropertyOp51
 70
     0
102
RTVSPropertyOp52
 70
     0
102
RTVSPropertyOp53
 70
     1
102
RTVSPropertyOp54
 70
     1
102
RTVSPropertyOp55
 70
     1
102
RTVSPropertyOp56
 70
     1
102
RTVSPropertyOp57
 70
     1
102
RTVSPropertyOp58
 70
     1
102
RTVSPropertyOp59
 70
     1
102
RTVSPropertyOp60
 70
     1
102
RTVSPropertyOp61
 70
     1
102
RTVSPropertyOp62
 70
     1
  0
XRECORD
  5
BD3A
102
{ACAD_REACTORS
330
BD39
102
}
330
BD39
100
AcDbXrecord
280
     1
102
RTVSPost2010Prop28
280
     0
102
RTVSPost2010PropOp28
 70
     1
102
RTVSPost2010Prop29
280
     1
102
RTVSPost2010PropOp29
 70
     1
102
RTVSPost2010Prop30
280
     1
102
RTVSPost2010PropOp30
 70
     1
102
RTVSPost2010Prop31
280
     0
102
RTVSPost2010PropOp31
 70
     1
102
RTVSPost2010Prop32
280
     0
102
RTVSPost2010PropOp32
 70
     1
102
RTVSPost2010Prop33
280
     0
102
RTVSPost2010PropOp33
 70
     1
102
RTVSPost2010Prop34
280
     0
102
RTVSPost2010PropOp34
 70
     1
102
RTVSPost2010Prop35
280
     0
102
RTVSPost2010PropOp35
 70
     1
102
RTVSPost2010Prop36
280
     0
102
RTVSPost2010PropOp36
 70
     1
102
RTVSPost2010Prop37
 90
       50
102
RTVSPost2010PropOp37
 70
     1
102
RTVSPost2010Prop38
140
0.0
102
RTVSPost2010PropOp38
 70
     1
102
RTVSPost2010Prop39
140
1.0
102
RTVSPost2010PropOp39
 70
     1
102
RTVSPost2010Prop40
 90
        0
102
RTVSPost2010PropOp40
 70
     1
102
RTVSPost2010Prop41ColorIndex
 90
       18
102
RTVSPost2010Prop41ColorRGB
 90
        0
102
RTVSPost2010PropOp41
 70
     1
102
RTVSPost2010Prop42
 90
       50
102
RTVSPost2010PropOp42
 70
     1
102
RTVSPost2010Prop43
 90
        3
102
RTVSPost2010PropOp43
 70
     1
102
RTVSPost2010Prop44ColorIndex
 90
        5
102
RTVSPost2010Prop44ColorRGB
 90
      255
102
RTVSPost2010PropOp44
 70
     1
102
RTVSPost2010Prop45
280
     0
102
RTVSPost2010PropOp45
 70
     1
102
RTVSPost2010Prop46
 90
       50
102
RTVSPost2010PropOp46
 70
     1
102
RTVSPost2010Prop47
 90
       50
102
RTVSPost2010PropOp47
 70
     1
102
RTVSPost2010Prop48
 90
       50
102
RTVSPost2010PropOp48
 70
     1
102
RTVSPost2010Prop49
280
     0
102
RTVSPost2010PropOp49
 70
     1
102
RTVSPost2010Prop50
 90
       50
102
RTVSPost2010PropOp50
 70
     1
102
RTVSPost2010Prop51ColorIndex
 90
      256
102
RTVSPost2010Prop51ColorRGB
 90
-16777216
102
RTVSPost2010PropOp51
 70
     0
102
RTVSPost2010Prop52
140
1.0
102
RTVSPost2010PropOp52
 70
     0
102
RTVSPost2010Prop53
 90
        2
102
RTVSPost2010PropOp53
 70
     1
102
RTVSPost2010Prop54
  1
strokes_ogs.tif
102
RTVSPost2010PropOp54
 70
     1
102
RTVSPost2010Prop55
280
     0
102
RTVSPost2010PropOp55
 70
     1
102
RTVSPost2010Prop56
140
1.0
102
RTVSPost2010PropOp56
 70
     1
102
RTVSPost2010Prop57
140
1.0
102
RTVSPost2010PropOp57
 70
     1
102
RTVSPropertyOp0
 70
     1
102
RTVSPropertyOp1
 70
     1
102
RTVSPropertyOp2
 70
     1
102
RTVSPropertyOp3
 70
     1
102
RTVSPropertyOp4
 70
     1
102
RTVSPropertyOp5
 70
     1
102
RTVSPropertyOp6
 70
     1
102
RTVSPropertyOp7
 70
     1
102
RTVSPropertyOp8
 70
     1
102
RTVSPropertyOp9
 70
     1
102
RTVSPropertyOp10
 70
     1
102
RTVSPropertyOp11
 70
     1
102
RTVSPropertyOp12
 70
     1
102
RTVSPropertyOp13
 70
     1
102
RTVSPropertyOp14
 70
     1
102
RTVSPropertyOp15
 70
     1
102
RTVSPropertyOp16
 70
     1
102
RTVSPropertyOp17
 70
     1
102
RTVSPropertyOp18
 70
     1
102
RTVSPropertyOp19
 70
     1
102
RTVSPropertyOp20
 70
     1
102
RTVSPropertyOp21
 70
     1
102
RTVSPropertyOp22
 70
     1
102
RTVSPropertyOp23
 70
     1
102
RTVSPropertyOp24
 70
     1
102
RTVSPropertyOp25
 70
     1
102
RTVSPropertyOp26
 70
     1
102
RTVSPropertyOp27
 70
     1
102
RTVSPropertyOp28
 70
     1
102
RTVSPropertyOp29
 70
     1
102
RTVSPropertyOp30
 70
     1
102
RTVSPropertyOp31
 70
     1
102
RTVSPropertyOp32
 70
     1
102
RTVSPropertyOp33
 70
     1
102
RTVSPropertyOp34
 70
     1
102
RTVSPropertyOp35
 70
     1
102
RTVSPropertyOp36
 70
     1
102
RTVSPropertyOp37
 70
     1
102
RTVSPropertyOp38
 70
     1
102
RTVSPropertyOp39
 70
     1
102
RTVSPropertyOp40
 70
     1
102
RTVSPropertyOp41
 70
     1
102
RTVSPropertyOp42
 70
     1
102
RTVSPropertyOp43
 70
     1
102
RTVSPropertyOp44
 70
     1
102
RTVSPropertyOp45
 70
     1
102
RTVSPropertyOp46
 70
     1
102
RTVSPropertyOp47
 70
     1
102
RTVSPropertyOp48
 70
     1
102
RTVSPropertyOp49
 70
     1
102
RTVSPropertyOp50
 70
     1
102
RTVSPropertyOp51
 70
     0
102
RTVSPropertyOp52
 70
     0
102
RTVSPropertyOp53
 70
     1
102
RTVSPropertyOp54
 70
     1
102
RTVSPropertyOp55
 70
     1
102
RTVSPropertyOp56
 70
     1
102
RTVSPropertyOp57
 70
     1
102
RTVSPropertyOp58
 70
     1
102
RTVSPropertyOp59
 70
     1
102
RTVSPropertyOp60
 70
     1
102
RTVSPropertyOp61
 70
     1
102
RTVSPropertyOp62
 70
     1
  0
XRECORD
  5
BD34
102
{ACAD_REACTORS
330
BD33
102
}
330
BD33
100
AcDbXrecord
280
     1
102
RTVSPost2010Prop28
280
     0
102
RTVSPost2010PropOp28
 70
     1
102
RTVSPost2010Prop29
280
     1
102
RTVSPost2010PropOp29
 70
     1
102
RTVSPost2010Prop30
280
     1
102
RTVSPost2010PropOp30
 70
     1
102
RTVSPost2010Prop31
280
     0
102
RTVSPost2010PropOp31
 70
     1
102
RTVSPost2010Prop32
280
     0
102
RTVSPost2010PropOp32
 70
     1
102
RTVSPost2010Prop33
280
     0
102
RTVSPost2010PropOp33
 70
     1
102
RTVSPost2010Prop34
280
     0
102
RTVSPost2010PropOp34
 70
     1
102
RTVSPost2010Prop35
280
     0
102
RTVSPost2010PropOp35
 70
     1
102
RTVSPost2010Prop36
280
     0
102
RTVSPost2010PropOp36
 70
     1
102
RTVSPost2010Prop37
 90
       50
102
RTVSPost2010PropOp37
 70
     1
102
RTVSPost2010Prop38
140
0.0
102
RTVSPost2010PropOp38
 70
     1
102
RTVSPost2010Prop39
140
1.0
102
RTVSPost2010PropOp39
 70
     1
102
RTVSPost2010Prop40
 90
        0
102
RTVSPost2010PropOp40
 70
     1
102
RTVSPost2010Prop41ColorIndex
 90
       18
102
RTVSPost2010Prop41ColorRGB
 90
        0
102
RTVSPost2010PropOp41
 70
     1
102
RTVSPost2010Prop42
 90
       50
102
RTVSPost2010PropOp42
 70
     1
102
RTVSPost2010Prop43
 90
        3
102
RTVSPost2010PropOp43
 70
     1
102
RTVSPost2010Prop44ColorIndex
 90
        5
102
RTVSPost2010Prop44ColorRGB
 90
      255
102
RTVSPost2010PropOp44
 70
     1
102
RTVSPost2010Prop45
280
     0
102
RTVSPost2010PropOp45
 70
     1
102
RTVSPost2010Prop46
 90
       50
102
RTVSPost2010PropOp46
 70
     1
102
RTVSPost2010Prop47
 90
       50
102
RTVSPost2010PropOp47
 70
     1
102
RTVSPost2010Prop48
 90
       50
102
RTVSPost2010PropOp48
 70
     1
102
RTVSPost2010Prop49
280
     0
102
RTVSPost2010PropOp49
 70
     1
102
RTVSPost2010Prop50
 90
       50
102
RTVSPost2010PropOp50
 70
     1
102
RTVSPost2010Prop51ColorIndex
 90
      256
102
RTVSPost2010Prop51ColorRGB
 90
-16777216
102
RTVSPost2010PropOp51
 70
     0
102
RTVSPost2010Prop52
140
1.0
102
RTVSPost2010PropOp52
 70
     0
102
RTVSPost2010Prop53
 90
        2
102
RTVSPost2010PropOp53
 70
     1
102
RTVSPost2010Prop54
  1
strokes_ogs.tif
102
RTVSPost2010PropOp54
 70
     1
102
RTVSPost2010Prop55
280
     0
102
RTVSPost2010PropOp55
 70
     1
102
RTVSPost2010Prop56
140
1.0
102
RTVSPost2010PropOp56
 70
     1
102
RTVSPost2010Prop57
140
1.0
102
RTVSPost2010PropOp57
 70
     1
102
RTVSPropertyOp0
 70
     1
102
RTVSPropertyOp1
 70
     1
102
RTVSPropertyOp2
 70
     1
102
RTVSPropertyOp3
 70
     1
102
RTVSPropertyOp4
 70
     1
102
RTVSPropertyOp5
 70
     1
102
RTVSPropertyOp6
 70
     1
102
RTVSPropertyOp7
 70
     1
102
RTVSPropertyOp8
 70
     1
102
RTVSPropertyOp9
 70
     1
102
RTVSPropertyOp10
 70
     1
102
RTVSPropertyOp11
 70
     1
102
RTVSPropertyOp12
 70
     1
102
RTVSPropertyOp13
 70
     1
102
RTVSPropertyOp14
 70
     1
102
RTVSPropertyOp15
 70
     1
102
RTVSPropertyOp16
 70
     1
102
RTVSPropertyOp17
 70
     1
102
RTVSPropertyOp18
 70
     1
102
RTVSPropertyOp19
 70
     1
102
RTVSPropertyOp20
 70
     1
102
RTVSPropertyOp21
 70
     1
102
RTVSPropertyOp22
 70
     1
102
RTVSPropertyOp23
 70
     1
102
RTVSPropertyOp24
 70
     1
102
RTVSPropertyOp25
 70
     1
102
RTVSPropertyOp26
 70
     1
102
RTVSPropertyOp27
 70
     1
102
RTVSPropertyOp28
 70
     1
102
RTVSPropertyOp29
 70
     1
102
RTVSPropertyOp30
 70
     1
102
RTVSPropertyOp31
 70
     1
102
RTVSPropertyOp32
 70
     1
102
RTVSPropertyOp33
 70
     1
102
RTVSPropertyOp34
 70
     1
102
RTVSPropertyOp35
 70
     1
102
RTVSPropertyOp36
 70
     1
102
RTVSPropertyOp37
 70
     1
102
RTVSPropertyOp38
 70
     1
102
RTVSPropertyOp39
 70
     1
102
RTVSPropertyOp40
 70
     1
102
RTVSPropertyOp41
 70
     1
102
RTVSPropertyOp42
 70
     1
102
RTVSPropertyOp43
 70
     1
102
RTVSPropertyOp44
 70
     1
102
RTVSPropertyOp45
 70
     1
102
RTVSPropertyOp46
 70
     1
102
RTVSPropertyOp47
 70
     1
102
RTVSPropertyOp48
 70
     1
102
RTVSPropertyOp49
 70
     1
102
RTVSPropertyOp50
 70
     1
102
RTVSPropertyOp51
 70
     0
102
RTVSPropertyOp52
 70
     0
102
RTVSPropertyOp53
 70
     1
102
RTVSPropertyOp54
 70
     1
102
RTVSPropertyOp55
 70
     1
102
RTVSPropertyOp56
 70
     1
102
RTVSPropertyOp57
 70
     1
102
RTVSPropertyOp58
 70
     1
102
RTVSPropertyOp59
 70
     1
102
RTVSPropertyOp60
 70
     1
102
RTVSPropertyOp61
 70
     1
102
RTVSPropertyOp62
 70
     1
  0
XRECORD
  5
BD36
102
{ACAD_REACTORS
330
BD35
102
}
330
BD35
100
AcDbXrecord
280
     1
102
RTVSPost2010Prop28
280
     0
102
RTVSPost2010PropOp28
 70
     1
102
RTVSPost2010Prop29
280
     1
102
RTVSPost2010PropOp29
 70
     1
102
RTVSPost2010Prop30
280
     1
102
RTVSPost2010PropOp30
 70
     1
102
RTVSPost2010Prop31
280
     0
102
RTVSPost2010PropOp31
 70
     1
102
RTVSPost2010Prop32
280
     0
102
RTVSPost2010PropOp32
 70
     1
102
RTVSPost2010Prop33
280
     0
102
RTVSPost2010PropOp33
 70
     1
102
RTVSPost2010Prop34
280
     0
102
RTVSPost2010PropOp34
 70
     1
102
RTVSPost2010Prop35
280
     0
102
RTVSPost2010PropOp35
 70
     1
102
RTVSPost2010Prop36
280
     0
102
RTVSPost2010PropOp36
 70
     1
102
RTVSPost2010Prop37
 90
       50
102
RTVSPost2010PropOp37
 70
     1
102
RTVSPost2010Prop38
140
0.0
102
RTVSPost2010PropOp38
 70
     1
102
RTVSPost2010Prop39
140
1.0
102
RTVSPost2010PropOp39
 70
     1
102
RTVSPost2010Prop40
 90
        0
102
RTVSPost2010PropOp40
 70
     1
102
RTVSPost2010Prop41ColorIndex
 90
       18
102
RTVSPost2010Prop41ColorRGB
 90
        0
102
RTVSPost2010PropOp41
 70
     1
102
RTVSPost2010Prop42
 90
       50
102
RTVSPost2010PropOp42
 70
     1
102
RTVSPost2010Prop43
 90
        3
102
RTVSPost2010PropOp43
 70
     1
102
RTVSPost2010Prop44ColorIndex
 90
        5
102
RTVSPost2010Prop44ColorRGB
 90
      255
102
RTVSPost2010PropOp44
 70
     1
102
RTVSPost2010Prop45
280
     0
102
RTVSPost2010PropOp45
 70
     1
102
RTVSPost2010Prop46
 90
       50
102
RTVSPost2010PropOp46
 70
     1
102
RTVSPost2010Prop47
 90
       50
102
RTVSPost2010PropOp47
 70
     1
102
RTVSPost2010Prop48
 90
       50
102
RTVSPost2010PropOp48
 70
     1
102
RTVSPost2010Prop49
280
     0
102
RTVSPost2010PropOp49
 70
     1
102
RTVSPost2010Prop50
 90
       50
102
RTVSPost2010PropOp50
 70
     1
102
RTVSPost2010Prop51ColorIndex
 90
      256
102
RTVSPost2010Prop51ColorRGB
 90
-16777216
102
RTVSPost2010PropOp51
 70
     0
102
RTVSPost2010Prop52
140
1.0
102
RTVSPost2010PropOp52
 70
     0
102
RTVSPost2010Prop53
 90
        2
102
RTVSPost2010PropOp53
 70
     1
102
RTVSPost2010Prop54
  1
strokes_ogs.tif
102
RTVSPost2010PropOp54
 70
     1
102
RTVSPost2010Prop55
280
     0
102
RTVSPost2010PropOp55
 70
     1
102
RTVSPost2010Prop56
140
1.0
102
RTVSPost2010PropOp56
 70
     1
102
RTVSPost2010Prop57
140
1.0
102
RTVSPost2010PropOp57
 70
     1
102
RTVSPropertyOp0
 70
     1
102
RTVSPropertyOp1
 70
     1
102
RTVSPropertyOp2
 70
     1
102
RTVSPropertyOp3
 70
     1
102
RTVSPropertyOp4
 70
     1
102
RTVSPropertyOp5
 70
     1
102
RTVSPropertyOp6
 70
     1
102
RTVSPropertyOp7
 70
     1
102
RTVSPropertyOp8
 70
     1
102
RTVSPropertyOp9
 70
     1
102
RTVSPropertyOp10
 70
     1
102
RTVSPropertyOp11
 70
     1
102
RTVSPropertyOp12
 70
     1
102
RTVSPropertyOp13
 70
     1
102
RTVSPropertyOp14
 70
     1
102
RTVSPropertyOp15
 70
     1
102
RTVSPropertyOp16
 70
     1
102
RTVSPropertyOp17
 70
     1
102
RTVSPropertyOp18
 70
     1
102
RTVSPropertyOp19
 70
     1
102
RTVSPropertyOp20
 70
     1
102
RTVSPropertyOp21
 70
     1
102
RTVSPropertyOp22
 70
     1
102
RTVSPropertyOp23
 70
     1
102
RTVSPropertyOp24
 70
     1
102
RTVSPropertyOp25
 70
     1
102
RTVSPropertyOp26
 70
     1
102
RTVSPropertyOp27
 70
     1
102
RTVSPropertyOp28
 70
     1
102
RTVSPropertyOp29
 70
     1
102
RTVSPropertyOp30
 70
     1
102
RTVSPropertyOp31
 70
     1
102
RTVSPropertyOp32
 70
     1
102
RTVSPropertyOp33
 70
     1
102
RTVSPropertyOp34
 70
     1
102
RTVSPropertyOp35
 70
     1
102
RTVSPropertyOp36
 70
     1
102
RTVSPropertyOp37
 70
     1
102
RTVSPropertyOp38
 70
     1
102
RTVSPropertyOp39
 70
     1
102
RTVSPropertyOp40
 70
     1
102
RTVSPropertyOp41
 70
     1
102
RTVSPropertyOp42
 70
     1
102
RTVSPropertyOp43
 70
     1
102
RTVSPropertyOp44
 70
     1
102
RTVSPropertyOp45
 70
     1
102
RTVSPropertyOp46
 70
     1
102
RTVSPropertyOp47
 70
     1
102
RTVSPropertyOp48
 70
     1
102
RTVSPropertyOp49
 70
     1
102
RTVSPropertyOp50
 70
     1
102
RTVSPropertyOp51
 70
     0
102
RTVSPropertyOp52
 70
     0
102
RTVSPropertyOp53
 70
     1
102
RTVSPropertyOp54
 70
     1
102
RTVSPropertyOp55
 70
     1
102
RTVSPropertyOp56
 70
     1
102
RTVSPropertyOp57
 70
     1
102
RTVSPropertyOp58
 70
     1
102
RTVSPropertyOp59
 70
     1
102
RTVSPropertyOp60
 70
     1
102
RTVSPropertyOp61
 70
     1
102
RTVSPropertyOp62
 70
     1
  0
XRECORD
  5
BD2C
102
{ACAD_REACTORS
330
BD2B
102
}
330
BD2B
100
AcDbXrecord
280
     1
102
RTVSPost2010Prop28
280
     0
102
RTVSPost2010PropOp28
 70
     1
102
RTVSPost2010Prop29
280
     1
102
RTVSPost2010PropOp29
 70
     1
102
RTVSPost2010Prop30
280
     1
102
RTVSPost2010PropOp30
 70
     1
102
RTVSPost2010Prop31
280
     0
102
RTVSPost2010PropOp31
 70
     1
102
RTVSPost2010Prop32
280
     0
102
RTVSPost2010PropOp32
 70
     1
102
RTVSPost2010Prop33
280
     0
102
RTVSPost2010PropOp33
 70
     1
102
RTVSPost2010Prop34
280
     0
102
RTVSPost2010PropOp34
 70
     1
102
RTVSPost2010Prop35
280
     0
102
RTVSPost2010PropOp35
 70
     1
102
RTVSPost2010Prop36
280
     0
102
RTVSPost2010PropOp36
 70
     1
102
RTVSPost2010Prop37
 90
       50
102
RTVSPost2010PropOp37
 70
     1
102
RTVSPost2010Prop38
140
0.0
102
RTVSPost2010PropOp38
 70
     1
102
RTVSPost2010Prop39
140
1.0
102
RTVSPost2010PropOp39
 70
     1
102
RTVSPost2010Prop40
 90
        0
102
RTVSPost2010PropOp40
 70
     1
102
RTVSPost2010Prop41ColorIndex
 90
       18
102
RTVSPost2010Prop41ColorRGB
 90
        0
102
RTVSPost2010PropOp41
 70
     1
102
RTVSPost2010Prop42
 90
       50
102
RTVSPost2010PropOp42
 70
     1
102
RTVSPost2010Prop43
 90
        3
102
RTVSPost2010PropOp43
 70
     1
102
RTVSPost2010Prop44ColorIndex
 90
        5
102
RTVSPost2010Prop44ColorRGB
 90
      255
102
RTVSPost2010PropOp44
 70
     1
102
RTVSPost2010Prop45
280
     0
102
RTVSPost2010PropOp45
 70
     1
102
RTVSPost2010Prop46
 90
       50
102
RTVSPost2010PropOp46
 70
     1
102
RTVSPost2010Prop47
 90
       50
102
RTVSPost2010PropOp47
 70
     1
102
RTVSPost2010Prop48
 90
       50
102
RTVSPost2010PropOp48
 70
     1
102
RTVSPost2010Prop49
280
     0
102
RTVSPost2010PropOp49
 70
     1
102
RTVSPost2010Prop50
 90
       50
102
RTVSPost2010PropOp50
 70
     1
102
RTVSPost2010Prop51ColorIndex
 90
      256
102
RTVSPost2010Prop51ColorRGB
 90
-16777216
102
RTVSPost2010PropOp51
 70
     0
102
RTVSPost2010Prop52
140
1.0
102
RTVSPost2010PropOp52
 70
     0
102
RTVSPost2010Prop53
 90
        2
102
RTVSPost2010PropOp53
 70
     1
102
RTVSPost2010Prop54
  1
strokes_ogs.tif
102
RTVSPost2010PropOp54
 70
     1
102
RTVSPost2010Prop55
280
     0
102
RTVSPost2010PropOp55
 70
     1
102
RTVSPost2010Prop56
140
1.0
102
RTVSPost2010PropOp56
 70
     1
102
RTVSPost2010Prop57
140
1.0
102
RTVSPost2010PropOp57
 70
     1
102
RTVSPropertyOp0
 70
     1
102
RTVSPropertyOp1
 70
     1
102
RTVSPropertyOp2
 70
     1
102
RTVSPropertyOp3
 70
     1
102
RTVSPropertyOp4
 70
     1
102
RTVSPropertyOp5
 70
     1
102
RTVSPropertyOp6
 70
     1
102
RTVSPropertyOp7
 70
     1
102
RTVSPropertyOp8
 70
     1
102
RTVSPropertyOp9
 70
     1
102
RTVSPropertyOp10
 70
     1
102
RTVSPropertyOp11
 70
     1
102
RTVSPropertyOp12
 70
     1
102
RTVSPropertyOp13
 70
     1
102
RTVSPropertyOp14
 70
     1
102
RTVSPropertyOp15
 70
     1
102
RTVSPropertyOp16
 70
     1
102
RTVSPropertyOp17
 70
     1
102
RTVSPropertyOp18
 70
     1
102
RTVSPropertyOp19
 70
     1
102
RTVSPropertyOp20
 70
     1
102
RTVSPropertyOp21
 70
     1
102
RTVSPropertyOp22
 70
     1
102
RTVSPropertyOp23
 70
     1
102
RTVSPropertyOp24
 70
     1
102
RTVSPropertyOp25
 70
     1
102
RTVSPropertyOp26
 70
     1
102
RTVSPropertyOp27
 70
     1
102
RTVSPropertyOp28
 70
     1
102
RTVSPropertyOp29
 70
     1
102
RTVSPropertyOp30
 70
     1
102
RTVSPropertyOp31
 70
     1
102
RTVSPropertyOp32
 70
     1
102
RTVSPropertyOp33
 70
     1
102
RTVSPropertyOp34
 70
     1
102
RTVSPropertyOp35
 70
     1
102
RTVSPropertyOp36
 70
     1
102
RTVSPropertyOp37
 70
     1
102
RTVSPropertyOp38
 70
     1
102
RTVSPropertyOp39
 70
     1
102
RTVSPropertyOp40
 70
     1
102
RTVSPropertyOp41
 70
     1
102
RTVSPropertyOp42
 70
     1
102
RTVSPropertyOp43
 70
     1
102
RTVSPropertyOp44
 70
     1
102
RTVSPropertyOp45
 70
     1
102
RTVSPropertyOp46
 70
     1
102
RTVSPropertyOp47
 70
     1
102
RTVSPropertyOp48
 70
     1
102
RTVSPropertyOp49
 70
     1
102
RTVSPropertyOp50
 70
     1
102
RTVSPropertyOp51
 70
     0
102
RTVSPropertyOp52
 70
     0
102
RTVSPropertyOp53
 70
     1
102
RTVSPropertyOp54
 70
     1
102
RTVSPropertyOp55
 70
     1
102
RTVSPropertyOp56
 70
     1
102
RTVSPropertyOp57
 70
     1
102
RTVSPropertyOp58
 70
     1
102
RTVSPropertyOp59
 70
     1
102
RTVSPropertyOp60
 70
     1
102
RTVSPropertyOp61
 70
     1
102
RTVSPropertyOp62
 70
     1
  0
XRECORD
  5
BD20
102
{ACAD_REACTORS
330
BD1F
102
}
330
BD1F
100
AcDbXrecord
280
     1
102
RTVSPost2010Prop28
280
     0
102
RTVSPost2010PropOp28
 70
     1
102
RTVSPost2010Prop29
280
     1
102
RTVSPost2010PropOp29
 70
     1
102
RTVSPost2010Prop30
280
     1
102
RTVSPost2010PropOp30
 70
     1
102
RTVSPost2010Prop31
280
     0
102
RTVSPost2010PropOp31
 70
     1
102
RTVSPost2010Prop32
280
     0
102
RTVSPost2010PropOp32
 70
     1
102
RTVSPost2010Prop33
280
     0
102
RTVSPost2010PropOp33
 70
     1
102
RTVSPost2010Prop34
280
     0
102
RTVSPost2010PropOp34
 70
     1
102
RTVSPost2010Prop35
280
     0
102
RTVSPost2010PropOp35
 70
     1
102
RTVSPost2010Prop36
280
     0
102
RTVSPost2010PropOp36
 70
     1
102
RTVSPost2010Prop37
 90
       50
102
RTVSPost2010PropOp37
 70
     1
102
RTVSPost2010Prop38
140
0.0
102
RTVSPost2010PropOp38
 70
     1
102
RTVSPost2010Prop39
140
1.0
102
RTVSPost2010PropOp39
 70
     1
102
RTVSPost2010Prop40
 90
        0
102
RTVSPost2010PropOp40
 70
     1
102
RTVSPost2010Prop41ColorIndex
 90
       18
102
RTVSPost2010Prop41ColorRGB
 90
        0
102
RTVSPost2010PropOp41
 70
     1
102
RTVSPost2010Prop42
 90
       50
102
RTVSPost2010PropOp42
 70
     1
102
RTVSPost2010Prop43
 90
        3
102
RTVSPost2010PropOp43
 70
     1
102
RTVSPost2010Prop44ColorIndex
 90
        5
102
RTVSPost2010Prop44ColorRGB
 90
      255
102
RTVSPost2010PropOp44
 70
     1
102
RTVSPost2010Prop45
280
     0
102
RTVSPost2010PropOp45
 70
     1
102
RTVSPost2010Prop46
 90
       50
102
RTVSPost2010PropOp46
 70
     1
102
RTVSPost2010Prop47
 90
       50
102
RTVSPost2010PropOp47
 70
     1
102
RTVSPost2010Prop48
 90
       50
102
RTVSPost2010PropOp48
 70
     1
102
RTVSPost2010Prop49
280
     0
102
RTVSPost2010PropOp49
 70
     1
102
RTVSPost2010Prop50
 90
       50
102
RTVSPost2010PropOp50
 70
     1
102
RTVSPost2010Prop51ColorIndex
 90
      256
102
RTVSPost2010Prop51ColorRGB
 90
-16777216
102
RTVSPost2010PropOp51
 70
     0
102
RTVSPost2010Prop52
140
1.0
102
RTVSPost2010PropOp52
 70
     0
102
RTVSPost2010Prop53
 90
        2
102
RTVSPost2010PropOp53
 70
     1
102
RTVSPost2010Prop54
  1
strokes_ogs.tif
102
RTVSPost2010PropOp54
 70
     1
102
RTVSPost2010Prop55
280
     0
102
RTVSPost2010PropOp55
 70
     1
102
RTVSPost2010Prop56
140
1.0
102
RTVSPost2010PropOp56
 70
     1
102
RTVSPost2010Prop57
140
1.0
102
RTVSPost2010PropOp57
 70
     1
102
RTVSPropertyOp0
 70
     1
102
RTVSPropertyOp1
 70
     1
102
RTVSPropertyOp2
 70
     1
102
RTVSPropertyOp3
 70
     1
102
RTVSPropertyOp4
 70
     1
102
RTVSPropertyOp5
 70
     1
102
RTVSPropertyOp6
 70
     1
102
RTVSPropertyOp7
 70
     1
102
RTVSPropertyOp8
 70
     1
102
RTVSPropertyOp9
 70
     1
102
RTVSPropertyOp10
 70
     1
102
RTVSPropertyOp11
 70
     1
102
RTVSPropertyOp12
 70
     1
102
RTVSPropertyOp13
 70
     1
102
RTVSPropertyOp14
 70
     1
102
RTVSPropertyOp15
 70
     1
102
RTVSPropertyOp16
 70
     1
102
RTVSPropertyOp17
 70
     1
102
RTVSPropertyOp18
 70
     1
102
RTVSPropertyOp19
 70
     1
102
RTVSPropertyOp20
 70
     1
102
RTVSPropertyOp21
 70
     1
102
RTVSPropertyOp22
 70
     1
102
RTVSPropertyOp23
 70
     1
102
RTVSPropertyOp24
 70
     1
102
RTVSPropertyOp25
 70
     1
102
RTVSPropertyOp26
 70
     1
102
RTVSPropertyOp27
 70
     1
102
RTVSPropertyOp28
 70
     1
102
RTVSPropertyOp29
 70
     1
102
RTVSPropertyOp30
 70
     1
102
RTVSPropertyOp31
 70
     1
102
RTVSPropertyOp32
 70
     1
102
RTVSPropertyOp33
 70
     1
102
RTVSPropertyOp34
 70
     1
102
RTVSPropertyOp35
 70
     1
102
RTVSPropertyOp36
 70
     1
102
RTVSPropertyOp37
 70
     1
102
RTVSPropertyOp38
 70
     1
102
RTVSPropertyOp39
 70
     1
102
RTVSPropertyOp40
 70
     1
102
RTVSPropertyOp41
 70
     1
102
RTVSPropertyOp42
 70
     1
102
RTVSPropertyOp43
 70
     1
102
RTVSPropertyOp44
 70
     1
102
RTVSPropertyOp45
 70
     1
102
RTVSPropertyOp46
 70
     1
102
RTVSPropertyOp47
 70
     1
102
RTVSPropertyOp48
 70
     1
102
RTVSPropertyOp49
 70
     1
102
RTVSPropertyOp50
 70
     1
102
RTVSPropertyOp51
 70
     0
102
RTVSPropertyOp52
 70
     0
102
RTVSPropertyOp53
 70
     1
102
RTVSPropertyOp54
 70
     1
102
RTVSPropertyOp55
 70
     1
102
RTVSPropertyOp56
 70
     1
102
RTVSPropertyOp57
 70
     1
102
RTVSPropertyOp58
 70
     1
102
RTVSPropertyOp59
 70
     1
102
RTVSPropertyOp60
 70
     1
102
RTVSPropertyOp61
 70
     1
102
RTVSPropertyOp62
 70
     1
  0
XRECORD
  5
BD38
102
{ACAD_REACTORS
330
BD37
102
}
330
BD37
100
AcDbXrecord
280
     1
102
RTVSPost2010Prop28
280
     0
102
RTVSPost2010PropOp28
 70
     1
102
RTVSPost2010Prop29
280
     1
102
RTVSPost2010PropOp29
 70
     1
102
RTVSPost2010Prop30
280
     1
102
RTVSPost2010PropOp30
 70
     1
102
RTVSPost2010Prop31
280
     0
102
RTVSPost2010PropOp31
 70
     1
102
RTVSPost2010Prop32
280
     0
102
RTVSPost2010PropOp32
 70
     1
102
RTVSPost2010Prop33
280
     0
102
RTVSPost2010PropOp33
 70
     1
102
RTVSPost2010Prop34
280
     0
102
RTVSPost2010PropOp34
 70
     1
102
RTVSPost2010Prop35
280
     0
102
RTVSPost2010PropOp35
 70
     1
102
RTVSPost2010Prop36
280
     0
102
RTVSPost2010PropOp36
 70
     1
102
RTVSPost2010Prop37
 90
       50
102
RTVSPost2010PropOp37
 70
     1
102
RTVSPost2010Prop38
140
0.0
102
RTVSPost2010PropOp38
 70
     1
102
RTVSPost2010Prop39
140
1.0
102
RTVSPost2010PropOp39
 70
     1
102
RTVSPost2010Prop40
 90
        0
102
RTVSPost2010PropOp40
 70
     1
102
RTVSPost2010Prop41ColorIndex
 90
       18
102
RTVSPost2010Prop41ColorRGB
 90
        0
102
RTVSPost2010PropOp41
 70
     1
102
RTVSPost2010Prop42
 90
       50
102
RTVSPost2010PropOp42
 70
     1
102
RTVSPost2010Prop43
 90
        3
102
RTVSPost2010PropOp43
 70
     1
102
RTVSPost2010Prop44ColorIndex
 90
        5
102
RTVSPost2010Prop44ColorRGB
 90
      255
102
RTVSPost2010PropOp44
 70
     1
102
RTVSPost2010Prop45
280
     0
102
RTVSPost2010PropOp45
 70
     1
102
RTVSPost2010Prop46
 90
       50
102
RTVSPost2010PropOp46
 70
     1
102
RTVSPost2010Prop47
 90
       50
102
RTVSPost2010PropOp47
 70
     1
102
RTVSPost2010Prop48
 90
       50
102
RTVSPost2010PropOp48
 70
     1
102
RTVSPost2010Prop49
280
     0
102
RTVSPost2010PropOp49
 70
     1
102
RTVSPost2010Prop50
 90
       50
102
RTVSPost2010PropOp50
 70
     1
102
RTVSPost2010Prop51ColorIndex
 90
      256
102
RTVSPost2010Prop51ColorRGB
 90
-16777216
102
RTVSPost2010PropOp51
 70
     0
102
RTVSPost2010Prop52
140
1.0
102
RTVSPost2010PropOp52
 70
     0
102
RTVSPost2010Prop53
 90
        2
102
RTVSPost2010PropOp53
 70
     1
102
RTVSPost2010Prop54
  1
strokes_ogs.tif
102
RTVSPost2010PropOp54
 70
     1
102
RTVSPost2010Prop55
280
     0
102
RTVSPost2010PropOp55
 70
     1
102
RTVSPost2010Prop56
140
1.0
102
RTVSPost2010PropOp56
 70
     1
102
RTVSPost2010Prop57
140
1.0
102
RTVSPost2010PropOp57
 70
     1
102
RTVSPropertyOp0
 70
     1
102
RTVSPropertyOp1
 70
     1
102
RTVSPropertyOp2
 70
     1
102
RTVSPropertyOp3
 70
     1
102
RTVSPropertyOp4
 70
     1
102
RTVSPropertyOp5
 70
     1
102
RTVSPropertyOp6
 70
     1
102
RTVSPropertyOp7
 70
     1
102
RTVSPropertyOp8
 70
     1
102
RTVSPropertyOp9
 70
     1
102
RTVSPropertyOp10
 70
     1
102
RTVSPropertyOp11
 70
     1
102
RTVSPropertyOp12
 70
     1
102
RTVSPropertyOp13
 70
     1
102
RTVSPropertyOp14
 70
     1
102
RTVSPropertyOp15
 70
     1
102
RTVSPropertyOp16
 70
     1
102
RTVSPropertyOp17
 70
     1
102
RTVSPropertyOp18
 70
     1
102
RTVSPropertyOp19
 70
     1
102
RTVSPropertyOp20
 70
     1
102
RTVSPropertyOp21
 70
     1
102
RTVSPropertyOp22
 70
     1
102
RTVSPropertyOp23
 70
     1
102
RTVSPropertyOp24
 70
     1
102
RTVSPropertyOp25
 70
     1
102
RTVSPropertyOp26
 70
     1
102
RTVSPropertyOp27
 70
     1
102
RTVSPropertyOp28
 70
     1
102
RTVSPropertyOp29
 70
     1
102
RTVSPropertyOp30
 70
     1
102
RTVSPropertyOp31
 70
     1
102
RTVSPropertyOp32
 70
     1
102
RTVSPropertyOp33
 70
     1
102
RTVSPropertyOp34
 70
     1
102
RTVSPropertyOp35
 70
     1
102
RTVSPropertyOp36
 70
     1
102
RTVSPropertyOp37
 70
     1
102
RTVSPropertyOp38
 70
     1
102
RTVSPropertyOp39
 70
     1
102
RTVSPropertyOp40
 70
     1
102
RTVSPropertyOp41
 70
     1
102
RTVSPropertyOp42
 70
     1
102
RTVSPropertyOp43
 70
     1
102
RTVSPropertyOp44
 70
     1
102
RTVSPropertyOp45
 70
     1
102
RTVSPropertyOp46
 70
     1
102
RTVSPropertyOp47
 70
     1
102
RTVSPropertyOp48
 70
     1
102
RTVSPropertyOp49
 70
     1
102
RTVSPropertyOp50
 70
     1
102
RTVSPropertyOp51
 70
     0
102
RTVSPropertyOp52
 70
     0
102
RTVSPropertyOp53
 70
     1
102
RTVSPropertyOp54
 70
     1
102
RTVSPropertyOp55
 70
     1
102
RTVSPropertyOp56
 70
     1
102
RTVSPropertyOp57
 70
     1
102
RTVSPropertyOp58
 70
     1
102
RTVSPropertyOp59
 70
     1
102
RTVSPropertyOp60
 70
     1
102
RTVSPropertyOp61
 70
     1
102
RTVSPropertyOp62
 70
     1
  0
ENDSEC
  0
EOF
