  0
SECTION
  2
HEADER
  9
$ACADVER
  1
AC1015
  9
$ACADMAINTVER
 70
    20
  9
$DWGCODEPAGE
  3
ANSI_932
  9
$INSBASE
 10
0.0
 20
0.0
 30
0.0
  9
$EXTMIN
 10
9.9999975266385
 20
10.0
 30
0.0
  9
$EXTMAX
 10
615.0903004532778
 20
429.1833169515881
 30
0.0
  9
$LIMMIN
 10
0.0000015376083204
 20
-0.0000001931532552
  9
$LIMMAX
 10
640.054946592553
 20
441.2499998068464
  9
$ORTHOMODE
 70
     1
  9
$REGENMODE
 70
     1
  9
$FILLMODE
 70
     1
  9
$QTEXTMODE
 70
     0
  9
$MIRRTEXT
 70
     1
  9
$LTSCALE
 40
0.5
  9
$ATTMODE
 70
     1
  9
$TEXTSIZE
 40
2.5
  9
$TRACEWID
 40
1.0
  9
$TEXTSTYLE
  7
STANDARD
  9
$CLAYER
  8
0
  9
$CELTYPE
  6
BYLAYER
  9
$CECOLOR
 62
   256
  9
$CELTSCALE
 40
1.0
  9
$DISPSILH
 70
     0
  9
$DIMSCALE
 40
1.0
  9
$DIMASZ
 40
3.0
  9
$DIMEXO
 40
1.0
  9
$DIMDLI
 40
10.0
  9
$DIMRND
 40
0.0
  9
$DIMDLE
 40
0.0
  9
$DIMEXE
 40
1.0
  9
$DIMTP
 40
0.0
  9
$DIMTM
 40
0.0
  9
$DIMTXT
 40
3.2
  9
$DIMCEN
 40
0.0
  9
$DIMTSZ
 40
0.0
  9
$DIMTOL
 70
     0
  9
$DIMLIM
 70
     0
  9
$DIMTIH
 70
     0
  9
$DIMTOH
 70
     0
  9
$DIMSE1
 70
     0
  9
$DIMSE2
 70
     0
  9
$DIMTAD
 70
     3
  9
$DIMZIN
 70
     8
  9
$DIMBLK
  1

  9
$DIMASO
 70
     1
  9
$DIMSHO
 70
     1
  9
$DIMPOST
  1

  9
$DIMAPOST
  1

  9
$DIMALT
 70
     0
  9
$DIMALTD
 70
     2
  9
$DIMALTF
 40
25.4
  9
$DIMLFAC
 40
1.0
  9
$DIMTOFL
 70
     1
  9
$DIMTVP
 40
0.0
  9
$DIMTIX
 70
     0
  9
$DIMSOXD
 70
     0
  9
$DIMSAH
 70
     1
  9
$DIMBLK1
  1
OPEN
  9
$DIMBLK2
  1
OPEN
  9
$DIMSTYLE
  2
STANDARD
  9
$DIMCLRD
 70
     0
  9
$DIMCLRE
 70
     0
  9
$DIMCLRT
 70
     0
  9
$DIMTFAC
 40
1.0
  9
$DIMGAP
 40
1.0
  9
$DIMJUST
 70
     0
  9
$DIMSD1
 70
     0
  9
$DIMSD2
 70
     0
  9
$DIMTOLJ
 70
     1
  9
$DIMTZIN
 70
     0
  9
$DIMALTZ
 70
     0
  9
$DIMALTTZ
 70
     0
  9
$DIMUPT
 70
     0
  9
$DIMDEC
 70
     4
  9
$DIMTDEC
 70
     4
  9
$DIMALTU
 70
     2
  9
$DIMALTTD
 70
     2
  9
$DIMTXSTY
  7
STANDARD
  9
$DIMAUNIT
 70
     0
  9
$DIMADEC
 70
     0
  9
$DIMALTRND
 40
0.0
  9
$DIMAZIN
 70
     0
  9
$DIMDSEP
 70
    46
  9
$DIMATFIT
 70
     3
  9
$DIMFRAC
 70
     0
  9
$DIMLDRBLK
  1
OPEN
  9
$DIMLUNIT
 70
     2
  9
$DIMLWD
 70
    -2
  9
$DIMLWE
 70
    -2
  9
$DIMTMOVE
 70
     0
  9
$LUNITS
 70
     2
  9
$LUPREC
 70
     4
  9
$SKETCHINC
 40
1.0
  9
$FILLETRAD
 40
10.0
  9
$AUNITS
 70
     0
  9
$AUPREC
 70
     0
  9
$MENU
  1
.
  9
$ELEVATION
 40
0.0
  9
$PELEVATION
 40
0.0
  9
$THICKNESS
 40
0.0
  9
$LIMCHECK
 70
     0
  9
$CHAMFERA
 40
10.0
  9
$CHAMFERB
 40
10.0
  9
$CHAMFERC
 40
20.0
  9
$CHAMFERD
 40
0.0
  9
$SKPOLY
 70
     0
  9
$TDCREATE
 40
2452961.567088033
  9
$TDUCREATE
 40
2452961.192088033
  9
$TDUPDATE
 40
2457192.687931285
  9
$TDUUPDATE
 40
2457192.312931285
  9
$TDINDWG
 40
0.3214656366
  9
$TDUSRTIMER
 40
0.3214656250
  9
$USRTIMER
 70
     1
  9
$ANGBASE
 50
0.0
  9
$ANGDIR
 70
     0
  9
$PDMODE
 70
     0
  9
$PDSIZE
 40
0.0
  9
$PLINEWID
 40
0.0
  9
$SPLFRAME
 70
     0
  9
$SPLINETYPE
 70
     6
  9
$SPLINESEGS
 70
     8
  9
$HANDSEED
  5
BE1
  9
$SURFTAB1
 70
     6
  9
$SURFTAB2
 70
     6
  9
$SURFTYPE
 70
     6
  9
$SURFU
 70
     6
  9
$SURFV
 70
     6
  9
$UCSBASE
  2

  9
$UCSNAME
  2

  9
$UCSORG
 10
0.0
 20
0.0
 30
0.0
  9
$UCSXDIR
 10
1.0
 20
0.0
 30
0.0
  9
$UCSYDIR
 10
0.0
 20
1.0
 30
0.0
  9
$UCSORTHOREF
  2

  9
$UCSORTHOVIEW
 70
     0
  9
$UCSORGTOP
 10
0.0
 20
0.0
 30
0.0
  9
$UCSORGBOTTOM
 10
0.0
 20
0.0
 30
0.0
  9
$UCSORGLEFT
 10
0.0
 20
0.0
 30
0.0
  9
$UCSORGRIGHT
 10
0.0
 20
0.0
 30
0.0
  9
$UCSORGFRONT
 10
0.0
 20
0.0
 30
0.0
  9
$UCSORGBACK
 10
0.0
 20
0.0
 30
0.0
  9
$PUCSBASE
  2

  9
$PUCSNAME
  2

  9
$PUCSORG
 10
0.0
 20
0.0
 30
0.0
  9
$PUCSXDIR
 10
1.0
 20
0.0
 30
0.0
  9
$PUCSYDIR
 10
0.0
 20
1.0
 30
0.0
  9
$PUCSORTHOREF
  2

  9
$PUCSORTHOVIEW
 70
     0
  9
$PUCSORGTOP
 10
0.0
 20
0.0
 30
0.0
  9
$PUCSORGBOTTOM
 10
0.0
 20
0.0
 30
0.0
  9
$PUCSORGLEFT
 10
0.0
 20
0.0
 30
0.0
  9
$PUCSORGRIGHT
 10
0.0
 20
0.0
 30
0.0
  9
$PUCSORGFRONT
 10
0.0
 20
0.0
 30
0.0
  9
$PUCSORGBACK
 10
0.0
 20
0.0
 30
0.0
  9
$USERI1
 70
     0
  9
$USERI2
 70
     0
  9
$USERI3
 70
     0
  9
$USERI4
 70
     0
  9
$USERI5
 70
     0
  9
$USERR1
 40
0.0
  9
$USERR2
 40
0.0
  9
$USERR3
 40
0.0
  9
$USERR4
 40
0.0
  9
$USERR5
 40
0.0
  9
$WORLDVIEW
 70
     1
  9
$SHADEDGE
 70
     3
  9
$SHADEDIF
 70
    70
  9
$TILEMODE
 70
     1
  9
$MAXACTVP
 70
    48
  9
$PINSBASE
 10
0.0
 20
0.0
 30
0.0
  9
$PLIMCHECK
 70
     0
  9
$PEXTMIN
 10
1.000000000000000E+20
 20
1.000000000000000E+20
 30
1.000000000000000E+20
  9
$PEXTMAX
 10
-1.000000000000000E+20
 20
-1.000000000000000E+20
 30
-1.000000000000000E+20
  9
$PLIMMIN
 10
0.0
 20
0.0
  9
$PLIMMAX
 10
420.0
 20
297.0
  9
$UNITMODE
 70
     0
  9
$VISRETAIN
 70
     1
  9
$PLINEGEN
 70
     0
  9
$PSLTSCALE
 70
     1
  9
$TREEDEPTH
 70
  3020
  9
$CMLSTYLE
  2
STANDARD
  9
$CMLJUST
 70
     0
  9
$CMLSCALE
 40
20.0
  9
$PROXYGRAPHICS
 70
     1
  9
$MEASUREMENT
 70
     0
  9
$CELWEIGHT
370
    -1
  9
$ENDCAPS
280
     0
  9
$JOINSTYLE
280
     0
  9
$LWDISPLAY
290
     0
  9
$INSUNITS
 70
     0
  9
$HYPERLINKBASE
  1

  9
$STYLESHEET
  1

  9
$XEDIT
290
     1
  9
$CEPSNTYPE
380
     0
  9
$PSTYLEMODE
290
     1
  9
$FINGERPRINTGUID
  2
{C261F086-8315-4581-A925-7C6C2D497D66}
  9
$VERSIONGUID
  2
{6F1B5FED-D4D5-402D-A2F8-BBD3FCBCE09E}
  9
$EXTNAMES
290
     1
  9
$PSVPSCALE
 40
0.0
  9
$OLESTARTUP
290
     0
  0
ENDSEC
  0
SECTION
  2
CLASSES
  0
CLASS
  1
ACDBDICTIONARYWDFLT
  2
AcDbDictionaryWithDefault
  3
ObjectDBX Classes
 90
        0
280
     0
281
     0
  0
CLASS
  1
ACDBPLACEHOLDER
  2
AcDbPlaceHolder
  3
ObjectDBX Classes
 90
        0
280
     0
281
     0
  0
CLASS
  1
LAYOUT
  2
AcDbLayout
  3
ObjectDBX Classes
 90
        0
280
     0
281
     0
  0
CLASS
  1
DICTIONARYVAR
  2
AcDbDictionaryVar
  3
ObjectDBX Classes
 90
        0
280
     0
281
     0
  0
CLASS
  1
MATERIAL
  2
AcDbMaterial
  3
ObjectDBX Classes
 90
     1153
280
     0
281
     0
  0
CLASS
  1
VISUALSTYLE
  2
AcDbVisualStyle
  3
ObjectDBX Classes
 90
     4095
280
     0
281
     0
  0
CLASS
  1
TABLESTYLE
  2
AcDbTableStyle
  3
ObjectDBX Classes
 90
     4095
280
     0
281
     0
  0
CLASS
  1
SCALE
  2
AcDbScale
  3
ObjectDBX Classes
 90
     1153
280
     0
281
     0
  0
CLASS
  1
MLEADERSTYLE
  2
AcDbMLeaderStyle
  3
ACDB_MLEADERSTYLE_CLASS
 90
     4095
280
     0
281
     0
  0
CLASS
  1
ACDBSECTIONVIEWSTYLE
  2
AcDbSectionViewStyle
  3
ObjectDBX Classes
 90
     1025
280
     0
281
     0
  0
CLASS
  1
ACDBDETAILVIEWSTYLE
  2
AcDbDetailViewStyle
  3
ObjectDBX Classes
 90
     1025
280
     0
281
     0
  0
CLASS
  1
CELLSTYLEMAP
  2
AcDbCellStyleMap
  3
ObjectDBX Classes
 90
     1152
280
     0
281
     0
  0
ENDSEC
  0
SECTION
  2
TABLES
  0
TABLE
  2
VPORT
  5
8
330
0
100
AcDbSymbolTable
 70
     1
  0
VPORT
  5
B2B
330
8
100
AcDbSymbolTableRecord
100
AcDbViewportTableRecord
  2
*ACTIVE
 70
     0
 10
0.0
 20
0.0
 11
1.0
 21
1.0
 12
439.5322887470136
 22
219.5982273802579
 13
0.0
 23
0.0
 14
10.0
 24
10.0
 15
10.0
 25
10.0
 16
0.0
 26
0.0
 36
1.0
 17
0.0
 27
0.0
 37
0.0
 40
423.8588886107143
 41
2.35006605019815
 42
50.0
 43
0.0
 44
0.0
 50
0.0
 51
0.0
 71
     0
 72
   100
 73
     1
 74
     0
 75
     0
 76
     0
 77
     0
 78
     0
281
     0
 65
     1
110
0.0
120
0.0
130
0.0
111
1.0
121
0.0
131
0.0
112
0.0
122
1.0
132
0.0
 79
     0
146
0.0
1001
ACAD_NAV_VCDISPLAY
1070
     3
  0
ENDTAB
  0
TABLE
  2
LTYPE
  5
5
330
0
100
AcDbSymbolTable
 70
     4
  0
LTYPE
  5
12
330
5
100
AcDbSymbolTableRecord
100
AcDbLinetypeTableRecord
  2
BYBLOCK
 70
     0
  3

 72
    65
 73
     0
 40
0.0
  0
LTYPE
  5
13
330
5
100
AcDbSymbolTableRecord
100
AcDbLinetypeTableRecord
  2
BYLAYER
 70
     0
  3

 72
    65
 73
     0
 40
0.0
  0
LTYPE
  5
14
330
5
100
AcDbSymbolTableRecord
100
AcDbLinetypeTableRecord
  2
CONTINUOUS
 70
     0
  3
Solid line
 72
    65
 73
     0
 40
0.0
  0
LTYPE
  5
4B
330
5
100
AcDbSymbolTableRecord
100
AcDbLinetypeTableRecord
  2
DASHED
 70
     0
  3
Dashed __ __ __ __ __ __ __ __ __ __ __ __ __ _
 72
    65
 73
     2
 40
19.04999999999999
 49
12.7
 74
     0
 49
-6.349999999999998
 74
     0
  0
LTYPE
  5
4C
330
5
100
AcDbSymbolTableRecord
100
AcDbLinetypeTableRecord
  2
CENTER
 70
     0
  3
Center ____ _ ____ _ ____ _ ____ _ ____ _ ____
 72
    65
 73
     4
 40
50.8
 49
31.75
 74
     0
 49
-6.349999999999998
 74
     0
 49
6.349999999999998
 74
     0
 49
-6.349999999999998
 74
     0
  0
LTYPE
  5
4D
330
5
100
AcDbSymbolTableRecord
100
AcDbLinetypeTableRecord
  2
PHANTOM
 70
     0
  3
Phantom ______  __  __  ______  __  __  ______
 72
    65
 73
     6
 40
63.5
 49
31.75
 74
     0
 49
-6.349999999999998
 74
     0
 49
6.349999999999998
 74
     0
 49
-6.349999999999998
 74
     0
 49
6.349999999999998
 74
     0
 49
-6.349999999999998
 74
     0
  0
ENDTAB
  0
TABLE
  2
LAYER
  5
2
330
0
100
AcDbSymbolTable
 70
     8
  0
LAYER
  5
E
102
{ACAD_XDICTIONARY
360
B85
102
}
330
2
100
AcDbSymbolTableRecord
100
AcDbLayerTableRecord
  2
0
 70
     0
 62
     7
  6
CONTINUOUS
370
    -3
390
B34
  0
LAYER
  5
4E
102
{ACAD_XDICTIONARY
360
B87
102
}
330
2
100
AcDbSymbolTableRecord
100
AcDbLayerTableRecord
  2
4
 70
     0
 62
     1
  6
CENTER
370
    -3
390
B34
  0
LAYER
  5
4F
102
{ACAD_XDICTIONARY
360
B89
102
}
330
2
100
AcDbSymbolTableRecord
100
AcDbLayerTableRecord
  2
5
 70
     0
 62
     6
  6
PHANTOM
370
    -3
390
B34
  0
LAYER
  5
50
102
{ACAD_XDICTIONARY
360
B8B
102
}
330
2
100
AcDbSymbolTableRecord
100
AcDbLayerTableRecord
  2
1
 70
     0
 62
     7
  6
CONTINUOUS
370
    -3
390
B34
  0
LAYER
  5
51
102
{ACAD_XDICTIONARY
360
B8D
102
}
330
2
100
AcDbSymbolTableRecord
100
AcDbLayerTableRecord
  2
2
 70
     0
 62
     4
  6
CONTINUOUS
370
    -3
390
B34
  0
LAYER
  5
52
102
{ACAD_XDICTIONARY
360
B8F
102
}
330
2
100
AcDbSymbolTableRecord
100
AcDbLayerTableRecord
  2
3
 70
     0
 62
     2
  6
DASHED
370
    -3
390
B34
  0
LAYER
  5
53
102
{ACAD_XDICTIONARY
360
B91
102
}
330
2
100
AcDbSymbolTableRecord
100
AcDbLayerTableRecord
  2
6
 70
     0
 62
     5
  6
CONTINUOUS
370
    -3
390
B34
  0
LAYER
  5
54
102
{ACAD_XDICTIONARY
360
B93
102
}
330
2
100
AcDbSymbolTableRecord
100
AcDbLayerTableRecord
  2
7
 70
     0
 62
     3
  6
CONTINUOUS
370
    -3
390
B34
  0
ENDTAB
  0
TABLE
  2
STYLE
  5
3
330
0
100
AcDbSymbolTable
 70
     1
  0
STYLE
  5
F
330
3
100
AcDbSymbolTableRecord
100
AcDbTextStyleTableRecord
  2
STANDARD
 70
     0
 40
0.0
 41
1.0
 50
0.0
 71
     0
 42
2.5
  3
simplex.shx
  4

  0
ENDTAB
  0
TABLE
  2
VIEW
  5
6
330
0
100
AcDbSymbolTable
 70
     0
  0
ENDTAB
  0
TABLE
  2
UCS
  5
7
330
0
100
AcDbSymbolTable
 70
     0
  0
ENDTAB
  0
TABLE
  2
APPID
  5
9
330
0
100
AcDbSymbolTable
 70
     5
  0
APPID
  5
10
330
9
100
AcDbSymbolTableRecord
100
AcDbRegAppTableRecord
  2
ACAD
 70
     0
  0
APPID
  5
3E
330
9
100
AcDbSymbolTableRecord
100
AcDbRegAppTableRecord
  2
CONTENTTABDATA
 70
     0
  0
APPID
  5
3F
330
9
100
AcDbSymbolTableRecord
100
AcDbRegAppTableRecord
  2
CONTENTCURRENTTAB
 70
     0
  0
APPID
  5
B9F
330
9
100
AcDbSymbolTableRecord
100
AcDbRegAppTableRecord
  2
ACAD_NAV_VCDISPLAY
 70
     0
  0
APPID
  5
BD8
330
9
100
AcDbSymbolTableRecord
100
AcDbRegAppTableRecord
  2
ACAD_MLEADERVER
 70
     0
  0
ENDTAB
  0
TABLE
  2
DIMSTYLE
  5
A
330
0
100
AcDbSymbolTable
 70
     1
100
AcDbDimStyleTable
 71
     0
  0
DIMSTYLE
105
1D
330
A
100
AcDbSymbolTableRecord
100
AcDbDimStyleTableRecord
  2
STANDARD
 70
     0
 41
3.0
 42
1.0
 43
10.0
 44
1.0
 73
     0
 74
     0
 77
     3
 78
     8
140
3.2
141
0.0
147
1.0
172
     1
173
     1
340
F
341
2E
343
2E
344
2E
  0
ENDTAB
  0
TABLE
  2
BLOCK_RECORD
  5
1
330
0
100
AcDbSymbolTable
 70
     1
  0
BLOCK_RECORD
  5
18
102
{ACAD_XDICTIONARY
360
B2E
102
}
330
1
100
AcDbSymbolTableRecord
100
AcDbBlockTableRecord
  2
*MODEL_SPACE
340
B82
  0
BLOCK_RECORD
  5
15
102
{ACAD_XDICTIONARY
360
B2C
102
}
330
1
100
AcDbSymbolTableRecord
100
AcDbBlockTableRecord
  2
*PAPER_SPACE
340
B83
  0
BLOCK_RECORD
  5
2E
330
1
100
AcDbSymbolTableRecord
100
AcDbBlockTableRecord
  2
_OPEN
340
0
  0
ENDTAB
  0
ENDSEC
  0
SECTION
  2
BLOCKS
  0
BLOCK
  5
19
330
18
100
AcDbEntity
  8
0
100
AcDbBlockBegin
  2
*MODEL_SPACE
 70
     0
 10
0.0
 20
0.0
 30
0.0
  3
*MODEL_SPACE
  1

  0
ENDBLK
  5
1A
330
18
100
AcDbEntity
  8
0
100
AcDbBlockEnd
  0
BLOCK
  5
16
330
15
100
AcDbEntity
 67
     1
  8
0
100
AcDbBlockBegin
  2
*PAPER_SPACE
 70
     0
 10
0.0
 20
0.0
 30
0.0
  3
*PAPER_SPACE
  1

  0
ENDBLK
  5
17
330
15
100
AcDbEntity
 67
     1
  8
0
100
AcDbBlockEnd
  0
BLOCK
  5
2F
330
2E
100
AcDbEntity
  8
0
100
AcDbBlockBegin
  2
_OPEN
 70
     0
 10
0.0
 20
0.0
 30
0.0
  3
_OPEN
  1

  0
LINE
  5
30
330
2E
100
AcDbEntity
  8
0
  6
ByBlock
 62
     0
100
AcDbLine
 10
-1.0
 20
0.1666666666666666
 30
0.0
 11
0.0
 21
0.0
 31
0.0
  0
LINE
  5
31
330
2E
100
AcDbEntity
  8
0
  6
ByBlock
 62
     0
100
AcDbLine
 10
0.0
 20
0.0
 30
0.0
 11
-1.0
 21
-0.1666666666666666
 31
0.0
  0
LINE
  5
32
330
2E
100
AcDbEntity
  8
0
  6
ByBlock
 62
     0
100
AcDbLine
 10
0.0
 20
0.0
 30
0.0
 11
-1.0
 21
0.0
 31
0.0
  0
ENDBLK
  5
33
330
2E
100
AcDbEntity
  8
0
100
AcDbBlockEnd
  0
ENDSEC
  0
SECTION
  2
ENTITIES
  0
TEXT
  5
63
330
18
100
AcDbEntity
  8
4
  6
CENTER
 48
0.25
100
AcDbText
 10
23.97950852663849
 20
10.0
 30
0.0
 40
1.399999999999999
  1
4
100
AcDbText
  0
TEXT
  5
64
330
18
100
AcDbEntity
  8
7
  6
Continuous
 48
0.25
100
AcDbText
 10
9.999997526638502
 20
26.0000007607689
 30
0.0
 40
3.0
  1
CODE No.9840
100
AcDbText
  0
TEXT
  5
65
330
18
100
AcDbEntity
  8
7
  6
Continuous
 48
0.25
100
AcDbText
 10
9.999997526638502
 20
18.00000076076889
 30
0.0
 40
3.0
  1
TYPE No.304X-N
100
AcDbText
  0
TEXT
  5
66
330
18
100
AcDbEntity
  8
1
  6
Continuous
 48
0.25
100
AcDbText
 10
9.999997526638502
 20
10.00000076076889
 30
0.0
 40
1.399999999999999
  1
LAYER
100
AcDbText
  0
TEXT
  5
67
330
18
100
AcDbEntity
  8
2
  6
Continuous
 48
0.25
100
AcDbText
 10
19.9795085266385
 20
10.0
 30
0.0
 40
1.399999999999999
  1
2
100
AcDbText
  0
TEXT
  5
68
330
18
100
AcDbEntity
  8
3
  6
DASHED
 48
0.25
100
AcDbText
 10
21.9795085266385
 20
10.0
 30
0.0
 40
1.399999999999999
  1
3
100
AcDbText
  0
TEXT
  5
69
330
18
100
AcDbEntity
  8
1
  6
Continuous
 48
0.25
100
AcDbText
 10
17.9795085266385
 20
10.0
 30
0.0
 40
1.399999999999999
  1
1
100
AcDbText
  0
TEXT
  5
6A
330
18
100
AcDbEntity
  8
5
  6
PHANTOM
 48
0.25
100
AcDbText
 10
25.9795085266385
 20
10.0
 30
0.0
 40
1.399999999999999
  1
5
100
AcDbText
  0
TEXT
  5
6B
330
18
100
AcDbEntity
  8
6
  6
Continuous
 48
0.25
100
AcDbText
 10
27.9795085266385
 20
10.0
 30
0.0
 40
1.399999999999999
  1
6
100
AcDbText
  0
TEXT
  5
6C
330
18
100
AcDbEntity
  8
7
  6
Continuous
 48
0.25
100
AcDbText
 10
29.9795085266385
 20
10.0
 30
0.0
 40
1.399999999999999
  1
7
100
AcDbText
  0
LINE
  5
26F
330
18
100
AcDbEntity
  8
4
  6
CENTER
100
AcDbLine
 10
83.55188663493072
 20
200.7527677581277
 30
0.0
 11
15.94364863493046
 21
200.7527677581277
 31
0.0
  0
LINE
  5
270
330
18
100
AcDbEntity
  8
1
  6
Continuous
100
AcDbLine
 10
76.11883963493074
 20
252.7527677581277
 30
0.0
 11
23.23247663493066
 21
252.7527677581277
 31
0.0
  0
LINE
  5
271
330
18
100
AcDbEntity
  8
1
  6
Continuous
100
AcDbLine
 10
76.11883963493074
 20
260.7527677581277
 30
0.0
 11
23.23247663493066
 21
260.7527677581277
 31
0.0
  0
ARC
  5
272
330
18
100
AcDbEntity
  8
1
  6
Continuous
100
AcDbCircle
 10
34.17565763493076
 20
179.8778327581277
 30
0.0
 40
4.0
100
AcDbArc
 50
180.0
 51
267.3947489999975
  0
ARC
  5
273
330
18
100
AcDbEntity
  8
1
  6
Continuous
100
AcDbCircle
 10
34.17565763493076
 20
221.6277027581277
 30
0.0
 40
4.0
100
AcDbArc
 50
92.60525100000243
 51
180.0
  0
LINE
  5
274
330
18
100
AcDbEntity
  8
1
  6
Continuous
100
AcDbLine
 10
29.19757863493078
 20
188.4419107581276
 30
0.0
 11
30.17565763493076
 21
185.6672217581277
 31
0.0
  0
LINE
  5
275
330
18
100
AcDbEntity
  8
1
  6
Continuous
100
AcDbLine
 10
29.19757863493078
 20
213.0636247581277
 30
0.0
 11
30.17565763493076
 21
215.8383137581277
 31
0.0
  0
ARC
  5
276
330
18
100
AcDbEntity
  8
1
  6
Continuous
100
AcDbCircle
 10
30.87565763493057
 20
221.7527677581277
 30
0.0
 40
2.0
100
AcDbArc
 50
92.58182399999984
 51
180.0
  0
LINE
  5
277
330
18
100
AcDbEntity
  8
1
  6
Continuous
100
AcDbLine
 10
21.67565763493076
 20
251.2527677581277
 30
0.0
 11
49.67565763493075
 21
251.2527677581277
 31
0.0
  0
LINE
  5
27A
330
18
100
AcDbEntity
  8
4
  6
CENTER
100
AcDbLine
 10
49.67565763493075
 20
170.4739648318908
 30
0.0
 11
49.67565763493075
 21
314.5783327581276
 31
0.0
  0
LINE
  5
280
330
18
100
AcDbEntity
  8
1
  6
Continuous
100
AcDbLine
 10
237.289278732662
 20
268.5982267581277
 30
0.0
 11
237.289278732662
 21
308.2527677581277
 31
0.0
  0
LINE
  5
281
330
18
100
AcDbEntity
  8
1
  6
Continuous
100
AcDbLine
 10
217.289278732662
 20
265.7527677581277
 30
0.0
 11
217.289278732662
 21
308.2527677581277
 31
0.0
  0
LINE
  5
282
330
18
100
AcDbEntity
  8
1
  6
Continuous
100
AcDbLine
 10
39.67565763493075
 20
268.5982267581277
 30
0.0
 11
39.67565763493075
 21
308.2527677581277
 31
0.0
  0
LINE
  5
283
330
18
100
AcDbEntity
  8
1
  6
Continuous
100
AcDbLine
 10
59.67565763493075
 20
265.7527677581277
 30
0.0
 11
59.67565763493075
 21
308.2527677581277
 31
0.0
  0
LINE
  5
28C
330
18
100
AcDbEntity
  8
1
  6
Continuous
100
AcDbLine
 10
237.289278732662
 20
265.7527677581277
 30
0.0
 11
217.289278732662
 21
265.7527677581277
 31
0.0
  0
ARC
  5
28D
330
18
100
AcDbEntity
  8
1
  6
Continuous
100
AcDbCircle
 10
233.289278732662
 20
250.2527677581277
 30
0.0
 40
1.0
100
AcDbArc
 50
0.000000000000007
 51
90.0
  0
LINE
  5
28E
330
18
100
AcDbEntity
  8
1
  6
Continuous
100
AcDbLine
 10
191.3617517326622
 20
186.9708877581278
 30
0.0
 11
246.2356627326621
 21
223.0938297581277
 31
0.0
  0
LINE
  5
28F
330
18
100
AcDbEntity
  8
1
  6
Continuous
100
AcDbLine
 10
253.5892787326622
 20
251.2527677581277
 30
0.0
 11
200.289278732662
 21
251.2527677581277
 31
0.0
  0
ARC
  5
290
330
18
100
AcDbEntity
  8
1
  6
Continuous
100
AcDbCircle
 10
227.289278732662
 20
253.8366417581277
 30
0.0
 40
48.49987399999999
100
AcDbArc
 50
270.0
 51
278.2127929999983
  0
LINE
  5
291
330
18
100
AcDbEntity
  8
1
  6
Continuous
100
AcDbLine
 10
227.289278732662
 20
205.2027677581277
 30
0.0
 11
238.789278732662
 21
205.2027677581277
 31
0.0
  0
LINE
  5
292
330
18
100
AcDbEntity
  8
1
  6
Continuous
100
AcDbLine
 10
254.789278732662
 20
252.7527677581277
 30
0.0
 11
227.289278732662
 21
252.7527677581277
 31
0.0
  0
LINE
  5
293
330
18
100
AcDbEntity
  8
1
  6
Continuous
100
AcDbLine
 10
254.789278732662
 20
260.7527677581277
 30
0.0
 11
227.289278732662
 21
260.7527677581277
 31
0.0
  0
LINE
  5
297
330
18
100
AcDbEntity
  8
1
  6
Continuous
100
AcDbLine
 10
257.5892787326622
 20
247.2527677581277
 30
0.0
 11
257.5892787326622
 21
227.7527677581277
 31
0.0
  0
LINE
  5
298
330
18
100
AcDbEntity
  8
1
  6
Continuous
100
AcDbLine
 10
234.289278732662
 20
215.7685797581276
 30
0.0
 11
234.289278732662
 21
250.2527677581277
 31
0.0
  0
LINE
  5
299
330
18
100
AcDbEntity
  8
1
  6
Continuous
100
AcDbLine
 10
256.012078732662
 20
247.2527677581277
 30
0.0
 11
256.012078732662
 21
227.7527677581277
 31
0.0
  0
LINE
  5
29A
330
18
100
AcDbEntity
  8
1
  6
Continuous
100
AcDbLine
 10
241.145685732662
 20
205.8341647581277
 30
0.0
 11
241.145685732662
 21
215.2027677581277
 31
0.0
  0
LINE
  5
29B
330
18
100
AcDbEntity
  8
1
  6
Continuous
100
AcDbLine
 10
234.2174817326622
 20
205.8341647581277
 30
0.0
 11
234.2174817326622
 21
214.8014287581276
 31
0.0
  0
ARC
  5
29C
330
18
100
AcDbEntity
  8
1
  6
Continuous
100
AcDbCircle
 10
237.6815837326621
 20
217.6482607581277
 30
0.0
 40
12.31149199999999
100
AcDbArc
 50
253.6579300000016
 51
283.6579300000028
  0
LINE
  5
29D
330
18
100
AcDbEntity
  8
1
  6
Continuous
100
AcDbLine
 10
238.789278732662
 20
205.2027677581277
 30
0.0
 11
241.145685732662
 21
205.8341647581277
 31
0.0
  0
LINE
  5
29E
330
18
100
AcDbEntity
  8
1
  6
Continuous
100
AcDbLine
 10
253.5892787326622
 20
223.7527677581277
 30
0.0
 11
248.435049732662
 21
223.7527677581277
 31
0.0
  0
ARC
  5
29F
330
18
100
AcDbEntity
  8
1
  6
Continuous
100
AcDbCircle
 10
253.5892787326622
 20
227.7527677581277
 30
0.0
 40
4.0
100
AcDbArc
 50
270.0
 51
0.000000000000007
  0
ARC
  5
2A0
330
18
100
AcDbEntity
  8
1
  6
Continuous
100
AcDbCircle
 10
252.012078732662
 20
227.7527677581277
 30
0.0
 40
4.0
100
AcDbArc
 50
270.0
 51
0.000000000000007
  0
LINE
  5
2A1
330
18
100
AcDbEntity
  8
1
  6
Continuous
100
AcDbLine
 10
246.289278732662
 20
222.7027677581276
 30
0.0
 11
244.2685527326621
 21
219.2027677581277
 31
0.0
  0
LINE
  5
2A2
330
18
100
AcDbEntity
  8
1
  6
Continuous
100
AcDbLine
 10
242.5365017326621
 20
218.2027677581277
 30
0.0
 11
239.0269587326622
 21
218.2027677581277
 31
0.0
  0
ARC
  5
2A3
330
18
100
AcDbEntity
  8
1
  6
Continuous
100
AcDbCircle
 10
242.5365017326621
 20
220.2027677581277
 30
0.0
 40
2.0
100
AcDbArc
 50
270.0
 51
329.9999999999994
  0
ARC
  5
2A4
330
18
100
AcDbEntity
  8
1
  6
Continuous
100
AcDbCircle
 10
233.289278732662
 20
215.7685797581276
 30
0.0
 40
1.0
100
AcDbArc
 50
303.3565069999992
 51
0.000000000000007
  0
LINE
  5
2A5
330
18
100
AcDbEntity
  8
1
  6
Continuous
100
AcDbLine
 10
241.289278732662
 20
215.2027677581277
 30
0.0
 11
234.4484507326622
 21
215.2027677581277
 31
0.0
  0
LINE
  5
2A6
330
18
100
AcDbEntity
  8
1
  6
Continuous
100
AcDbLine
 10
241.289278732662
 20
215.2027677581277
 30
0.0
 11
241.289278732662
 21
218.2027677581277
 31
0.0
  0
ARC
  5
2A7
330
18
100
AcDbEntity
  8
1
  6
Continuous
100
AcDbCircle
 10
248.435049732662
 20
219.7527677581277
 30
0.0
 40
4.0
100
AcDbArc
 50
90.0
 51
123.3565069999992
  0
LINE
  5
2A8
330
18
100
AcDbEntity
  8
1
  6
Continuous
100
AcDbLine
 10
246.289278732662
 20
222.7027677581276
 30
0.0
 11
245.6416057326621
 21
222.7027677581276
 31
0.0
  0
LINE
  5
2A9
330
18
100
AcDbEntity
  8
1
  6
Continuous
100
AcDbLine
 10
254.789278732662
 20
260.7527677581277
 30
0.0
 11
254.789278732662
 21
252.7527677581277
 31
0.0
  0
LINE
  5
2AA
330
18
100
AcDbEntity
  8
1
  6
Continuous
100
AcDbLine
 10
234.8396517326621
 20
260.7527677581277
 30
0.0
 11
234.8396517326621
 21
252.7527677581277
 31
0.0
  0
LINE
  5
2AB
330
18
100
AcDbEntity
  8
1
  6
Continuous
100
AcDbLine
 10
246.4145597326621
 20
260.7527677581277
 30
0.0
 11
246.4145597326621
 21
252.7527677581277
 31
0.0
  0
LINE
  5
2AC
330
18
100
AcDbEntity
  8
1
  6
Continuous
100
AcDbLine
 10
253.9649327326622
 20
260.7527677581277
 30
0.0
 11
253.9649327326622
 21
252.7527677581277
 31
0.0
  0
ARC
  5
2AD
330
18
100
AcDbEntity
  8
1
  6
Continuous
100
AcDbCircle
 10
253.5892787326622
 20
247.2527677581277
 30
0.0
 40
4.0
100
AcDbArc
 50
0.000000000000007
 51
90.0
  0
ARC
  5
2AE
330
18
100
AcDbEntity
  8
1
  6
Continuous
100
AcDbCircle
 10
252.012078732662
 20
247.2527677581277
 30
0.0
 40
4.0
100
AcDbArc
 50
0.000000000000007
 51
90.0
  0
LINE
  5
2AF
330
18
100
AcDbEntity
  8
1
  6
Continuous
100
AcDbLine
 10
248.289278732662
 20
251.2527677581277
 30
0.0
 11
248.289278732662
 21
252.1527677581277
 31
0.0
  0
ARC
  5
2B0
330
18
100
AcDbEntity
  8
1
  6
Continuous
100
AcDbCircle
 10
247.6892787326621
 20
252.1527677581277
 30
0.0
 40
0.6
100
AcDbArc
 50
0.000000000000007
 51
90.0
  0
LINE
  5
2B1
330
18
100
AcDbEntity
  8
1
  6
Continuous
100
AcDbLine
 10
237.289278732662
 20
265.7527677581277
 30
0.0
 11
237.289278732662
 21
268.5982267581277
 31
0.0
  0
LINE
  5
2B2
330
18
100
AcDbEntity
  8
1
  6
Continuous
100
AcDbLine
 10
235.936278732662
 20
260.7527677581277
 30
0.0
 11
235.936278732662
 21
263.4093027581277
 31
0.0
  0
LINE
  5
2B3
330
18
100
AcDbEntity
  8
1
  6
Continuous
100
AcDbLine
 10
235.936278732662
 20
263.4093027581277
 30
0.0
 11
237.289278732662
 21
265.7527677581277
 31
0.0
  0
LINE
  5
2B8
330
18
100
AcDbEntity
  8
4
  6
CENTER
100
AcDbLine
 10
182.289278732662
 20
172.7527677581278
 30
0.0
 11
182.289278732662
 21
228.7527677581278
 31
0.0
  0
ARC
  5
2B9
330
18
100
AcDbEntity
  8
1
  6
Continuous
100
AcDbCircle
 10
182.289278732662
 20
200.7527677581277
 30
0.0
 40
16.5
100
AcDbArc
 50
144.4704290000012
 51
303.3565069999992
  0
ARC
  5
2BA
330
18
100
AcDbEntity
  8
1
  6
Continuous
100
AcDbCircle
 10
182.289278732662
 20
200.7527677581277
 30
0.0
 40
25.0
100
AcDbArc
 50
95.77030200000157
 51
352.0566339999996
  0
LINE
  5
2C8
330
18
100
AcDbEntity
  8
4
  6
CENTER
100
AcDbLine
 10
210.289278732662
 20
200.7527677581277
 30
0.0
 11
154.289278732662
 21
200.7527677581277
 31
0.0
  0
LINE
  5
2C9
330
18
100
AcDbEntity
  8
1
  6
Continuous
100
AcDbLine
 10
168.8613197326622
 20
210.3412977581277
 30
0.0
 11
195.682190732662
 21
247.9017517581277
 31
0.0
  0
ARC
  5
2D9
330
18
100
AcDbEntity
  8
1
  6
Continuous
100
AcDbCircle
 10
227.289278732662
 20
253.8366417581277
 30
0.0
 40
48.49987399999999
100
AcDbArc
 50
261.5815309999971
 51
270.0
  0
LINE
  5
2DA
330
18
100
AcDbEntity
  8
1
  6
Continuous
100
AcDbLine
 10
227.289278732662
 20
205.2027677581277
 30
0.0
 11
219.186757732662
 21
205.2027677581277
 31
0.0
  0
CIRCLE
  5
30A
330
18
100
AcDbEntity
  8
1
  6
Continuous
100
AcDbCircle
 10
182.289278732662
 20
200.7527677581277
 30
0.0
 40
8.5
  0
CIRCLE
  5
30B
330
18
100
AcDbEntity
  8
1
  6
Continuous
100
AcDbCircle
 10
182.289278732662
 20
200.7527677581277
 30
0.0
 40
9.0
  0
ARC
  5
317
330
18
100
AcDbEntity
  8
1
  6
Continuous
100
AcDbCircle
 10
202.1927167326621
 20
243.2527677581277
 30
0.0
 40
8.0
100
AcDbArc
 50
90.0
 51
144.4704290000012
  0
LINE
  5
318
330
18
100
AcDbEntity
  8
1
  6
Continuous
100
AcDbLine
 10
199.789278732662
 20
252.7527677581277
 30
0.0
 11
227.289278732662
 21
252.7527677581277
 31
0.0
  0
LINE
  5
319
330
18
100
AcDbEntity
  8
1
  6
Continuous
100
AcDbLine
 10
199.789278732662
 20
260.7527677581277
 30
0.0
 11
227.289278732662
 21
260.7527677581277
 31
0.0
  0
LINE
  5
31C
330
18
100
AcDbEntity
  8
1
  6
Continuous
100
AcDbLine
 10
219.738905732662
 20
260.7527677581277
 30
0.0
 11
219.738905732662
 21
252.7527677581277
 31
0.0
  0
LINE
  5
31D
330
18
100
AcDbEntity
  8
1
  6
Continuous
100
AcDbLine
 10
208.163998732662
 20
260.7527677581277
 30
0.0
 11
208.163998732662
 21
252.7527677581277
 31
0.0
  0
LINE
  5
31E
330
18
100
AcDbEntity
  8
1
  6
Continuous
100
AcDbLine
 10
200.6136247326621
 20
260.7527677581277
 30
0.0
 11
200.6136247326621
 21
252.7527677581277
 31
0.0
  0
ARC
  5
32A
330
18
100
AcDbEntity
  8
1
  6
Continuous
100
AcDbCircle
 10
206.8892787326619
 20
252.1527677581277
 30
0.0
 40
0.6
100
AcDbArc
 50
90.0
 51
180.0
  0
LINE
  5
32B
330
18
100
AcDbEntity
  8
1
  6
Continuous
100
AcDbLine
 10
206.289278732662
 20
251.2527677581277
 30
0.0
 11
206.289278732662
 21
252.1527677581277
 31
0.0
  0
LINE
  5
32C
330
18
100
AcDbEntity
  8
1
  6
Continuous
100
AcDbLine
 10
218.6422787326621
 20
260.7527677581277
 30
0.0
 11
218.6422787326621
 21
263.4093027581277
 31
0.0
  0
LINE
  5
32D
330
18
100
AcDbEntity
  8
1
  6
Continuous
100
AcDbLine
 10
218.6422787326621
 20
263.4093027581275
 30
0.0
 11
217.289278732662
 21
265.7527677581277
 31
0.0
  0
LINE
  5
32E
330
18
100
AcDbEntity
  8
1
  6
Continuous
100
AcDbLine
 10
199.789278732662
 20
260.7527677581277
 30
0.0
 11
199.789278732662
 21
252.7527677581277
 31
0.0
  0
ARC
  5
32F
330
18
100
AcDbEntity
  8
1
  6
Continuous
100
AcDbCircle
 10
200.289278732662
 20
249.2527677581277
 30
0.0
 40
2.0
100
AcDbArc
 50
90.0
 51
143.5743900000016
  0
LINE
  5
331
330
18
100
AcDbEntity
  8
1
  6
Continuous
100
AcDbLine
 10
49.17565763493075
 20
177.9816397581276
 30
0.0
 11
49.17565763493075
 21
223.5238967581277
 31
0.0
  0
LINE
  5
332
330
18
100
AcDbEntity
  8
1
  6
Continuous
100
AcDbLine
 10
30.17565763493076
 20
179.8778327581277
 30
0.0
 11
30.17565763493076
 21
221.6277027581277
 31
0.0
  0
LINE
  5
333
330
18
100
AcDbEntity
  8
1
  6
Continuous
100
AcDbLine
 10
50.17565763493075
 20
177.9816397581276
 30
0.0
 11
50.17565763493075
 21
223.5238967581277
 31
0.0
  0
LINE
  5
334
330
18
100
AcDbEntity
  8
1
  6
Continuous
100
AcDbLine
 10
69.17565863493064
 20
179.8778327581277
 30
0.0
 11
69.17565863493064
 21
221.6277027581277
 31
0.0
  0
ARC
  5
335
330
18
100
AcDbEntity
  8
1
  6
Continuous
100
AcDbCircle
 10
72.47565763493049
 20
186.2527677581278
 30
0.0
 40
2.0
100
AcDbArc
 50
180.0
 51
270.0
  0
ARC
  5
336
330
18
100
AcDbEntity
  8
1
  6
Continuous
100
AcDbCircle
 10
77.67565763493076
 20
186.2527677581278
 30
0.0
 40
2.0
100
AcDbArc
 50
270.0
 51
0.000000000000007
  0
ARC
  5
338
330
18
100
AcDbEntity
  8
1
  6
Continuous
100
AcDbCircle
 10
59.67565763493075
 20
300.7527677581277
 30
0.0
 40
125.0
100
AcDbArc
 50
266.5041860000016
 51
272.6052510000024
  0
LINE
  5
339
330
18
100
AcDbEntity
  8
1
  6
Continuous
100
AcDbLine
 10
77.67565763493076
 20
184.2527677581277
 30
0.0
 11
72.47565763493049
 21
184.2527677581277
 31
0.0
  0
ARC
  5
33A
330
18
100
AcDbEntity
  8
1
  6
Continuous
100
AcDbCircle
 10
65.17565863493064
 20
179.8778327581277
 30
0.0
 40
4.0
100
AcDbArc
 50
272.6052510000024
 51
0.000000000000007
  0
ARC
  5
33B
330
18
100
AcDbEntity
  8
1
  6
Continuous
100
AcDbCircle
 10
39.67565763493075
 20
300.7527677581277
 30
0.0
 40
125.0
100
AcDbArc
 50
267.3947489999975
 51
273.4958139999982
  0
ARC
  5
33C
330
18
100
AcDbEntity
  8
1
  6
Continuous
100
AcDbCircle
 10
47.17565763493075
 20
177.9816397581276
 30
0.0
 40
2.0
100
AcDbArc
 50
273.4958139999982
 51
0.000000000000007
  0
ARC
  5
33D
330
18
100
AcDbEntity
  8
1
  6
Continuous
100
AcDbCircle
 10
52.17565763493075
 20
177.9816397581276
 30
0.0
 40
2.0
100
AcDbArc
 50
180.0
 51
266.5041860000016
  0
LINE
  5
33E
330
18
100
AcDbEntity
  8
1
  6
Continuous
100
AcDbLine
 10
70.47565763493048
 20
186.2527677581278
 30
0.0
 11
70.47565763493048
 21
251.2527677581277
 31
0.0
  0
LINE
  5
33F
330
18
100
AcDbEntity
  8
1
  6
Continuous
100
AcDbLine
 10
79.67565763493076
 20
186.2527677581278
 30
0.0
 11
79.67565763493076
 21
249.2527677581277
 31
0.0
  0
ARC
  5
340
330
18
100
AcDbEntity
  8
1
  6
Continuous
100
AcDbCircle
 10
59.67565763493075
 20
100.7527677581277
 30
0.0
 40
125.0
100
AcDbArc
 50
87.39474899999756
 51
93.49581399999822
  0
ARC
  5
341
330
18
100
AcDbEntity
  8
1
  6
Continuous
100
AcDbCircle
 10
70.27565763493067
 20
188.8821107581277
 30
0.0
 40
0.2
100
AcDbArc
 50
299.9659989999985
 51
0.000000000000007
  0
ARC
  5
342
330
18
100
AcDbEntity
  8
1
  6
Continuous
100
AcDbCircle
 10
70.62529863493044
 20
188.2756847581276
 30
0.0
 40
0.5
100
AcDbArc
 50
119.9659989999984
 51
160.5824050000006
  0
LINE
  5
343
330
18
100
AcDbEntity
  8
1
  6
Continuous
100
AcDbLine
 10
70.15373763493062
 20
188.4419107581276
 30
0.0
 11
69.17565863493064
 21
185.6672217581277
 31
0.0
  0
ARC
  5
344
330
18
100
AcDbEntity
  8
1
  6
Continuous
100
AcDbCircle
 10
70.27565763493067
 20
212.6234247581276
 30
0.0
 40
0.2
100
AcDbArc
 50
0.000000000000007
 51
60.03400100000154
  0
ARC
  5
345
330
18
100
AcDbEntity
  8
1
  6
Continuous
100
AcDbCircle
 10
70.62529863493044
 20
213.2298507581277
 30
0.0
 40
0.5
100
AcDbArc
 50
199.4175949999992
 51
240.0340010000014
  0
LINE
  5
346
330
18
100
AcDbEntity
  8
1
  6
Continuous
100
AcDbLine
 10
70.15373763493062
 20
213.0636247581277
 30
0.0
 11
69.17565863493064
 21
215.8383137581277
 31
0.0
  0
ARC
  5
347
330
18
100
AcDbEntity
  8
1
  6
Continuous
100
AcDbCircle
 10
65.17565863493064
 20
221.6277027581277
 30
0.0
 40
4.0
100
AcDbArc
 50
0.000000000000007
 51
87.39474899999756
  0
ARC
  5
348
330
18
100
AcDbEntity
  8
1
  6
Continuous
100
AcDbCircle
 10
68.47565763493047
 20
221.7527677581277
 30
0.0
 40
2.0
100
AcDbArc
 50
0.000000000000007
 51
87.41817600000016
  0
LINE
  5
349
330
18
100
AcDbEntity
  8
1
  6
Continuous
100
AcDbLine
 10
49.67565763493075
 20
192.2527677581276
 30
0.0
 11
49.67565763493075
 21
209.2527677581277
 31
0.0
  0
LINE
  5
34A
330
18
100
AcDbEntity
  8
1
  6
Continuous
100
AcDbLine
 10
49.17565763493075
 20
191.7527677581277
 30
0.0
 11
49.67565763493075
 21
192.2527677581276
 31
0.0
  0
LINE
  5
34B
330
18
100
AcDbEntity
  8
1
  6
Continuous
100
AcDbLine
 10
50.17565763493075
 20
191.7527677581277
 30
0.0
 11
49.67565763493075
 21
192.2527677581276
 31
0.0
  0
ARC
  5
34C
330
18
100
AcDbEntity
  8
1
  6
Continuous
100
AcDbCircle
 10
39.67565763493075
 20
100.7527677581277
 30
0.0
 40
125.0
100
AcDbArc
 50
86.50418600000177
 51
92.60525100000243
  0
LINE
  5
34D
330
18
100
AcDbEntity
  8
1
  6
Continuous
100
AcDbLine
 10
49.17565763493075
 20
209.7527677581278
 30
0.0
 11
49.67565763493075
 21
209.2527677581277
 31
0.0
  0
LINE
  5
34E
330
18
100
AcDbEntity
  8
1
  6
Continuous
100
AcDbLine
 10
50.17565763493075
 20
209.7527677581278
 30
0.0
 11
49.67565763493075
 21
209.2527677581277
 31
0.0
  0
ARC
  5
34F
330
18
100
AcDbEntity
  8
1
  6
Continuous
100
AcDbCircle
 10
47.17565763493075
 20
223.5238967581277
 30
0.0
 40
2.0
100
AcDbArc
 50
0.000000000000007
 51
86.50418600000177
  0
ARC
  5
350
330
18
100
AcDbEntity
  8
1
  6
Continuous
100
AcDbCircle
 10
52.17565763493075
 20
223.5238967581277
 30
0.0
 40
2.0
100
AcDbArc
 50
93.49581399999822
 51
180.0
  0
LINE
  5
351
330
18
100
AcDbEntity
  8
1
  6
Continuous
100
AcDbLine
 10
49.16251963493049
 20
223.7527677581277
 30
0.0
 11
50.18879663493044
 21
223.7527677581277
 31
0.0
  0
LINE
  5
352
330
18
100
AcDbEntity
  8
1
  6
Continuous
100
AcDbLine
 10
77.67565763493076
 20
251.2527677581277
 30
0.0
 11
49.67565763493075
 21
251.2527677581277
 31
0.0
  0
LINE
  5
353
330
18
100
AcDbEntity
  8
1
  6
Continuous
100
AcDbLine
 10
69.43606363493064
 20
260.7527677581277
 30
0.0
 11
69.43606363493064
 21
252.7527677581277
 31
0.0
  0
LINE
  5
354
330
18
100
AcDbEntity
  8
1
  6
Continuous
100
AcDbLine
 10
76.11883963493074
 20
260.7527677581277
 30
0.0
 11
76.11883963493074
 21
252.7527677581277
 31
0.0
  0
ARC
  5
355
330
18
100
AcDbEntity
  8
1
  6
Continuous
100
AcDbCircle
 10
77.67565763493076
 20
249.2527677581277
 30
0.0
 40
2.0
100
AcDbArc
 50
0.000000000000007
 51
90.0
  0
ARC
  5
356
330
18
100
AcDbEntity
  8
1
  6
Continuous
100
AcDbCircle
 10
70.07565763493039
 20
252.1527677581277
 30
0.0
 40
0.6
100
AcDbArc
 50
0.000000000000007
 51
90.0
  0
LINE
  5
357
330
18
100
AcDbEntity
  8
1
  6
Continuous
100
AcDbLine
 10
70.67565763493075
 20
251.2527677581277
 30
0.0
 11
70.67565763493075
 21
252.1527677581277
 31
0.0
  0
LINE
  5
358
330
18
100
AcDbEntity
  8
1
  6
Continuous
100
AcDbLine
 10
42.99288263493052
 20
260.7527677581277
 30
0.0
 11
42.99288263493052
 21
252.7527677581277
 31
0.0
  0
LINE
  5
359
330
18
100
AcDbEntity
  8
1
  6
Continuous
100
AcDbLine
 10
56.35843363493041
 20
260.7527677581277
 30
0.0
 11
56.35843363493041
 21
252.7527677581277
 31
0.0
  0
LINE
  5
35A
330
18
100
AcDbEntity
  8
1
  6
Continuous
100
AcDbLine
 10
39.67565763493075
 20
265.7527677581277
 30
0.0
 11
59.67565763493075
 21
265.7527677581277
 31
0.0
  0
LINE
  5
35B
330
18
100
AcDbEntity
  8
1
  6
Continuous
100
AcDbLine
 10
58.32265763493069
 20
260.7527677581277
 30
0.0
 11
58.32265763493069
 21
263.4093027581277
 31
0.0
  0
LINE
  5
35C
330
18
100
AcDbEntity
  8
1
  6
Continuous
100
AcDbLine
 10
58.32265763493069
 20
263.4093027581277
 30
0.0
 11
59.67565763493075
 21
265.7527677581277
 31
0.0
  0
LINE
  5
35D
330
18
100
AcDbEntity
  8
1
  6
Continuous
100
AcDbLine
 10
39.67565763493075
 20
265.7527677581277
 30
0.0
 11
39.67565763493075
 21
268.5982267581277
 31
0.0
  0
LINE
  5
35E
330
18
100
AcDbEntity
  8
1
  6
Continuous
100
AcDbLine
 10
41.02865763493082
 20
260.7527677581277
 30
0.0
 11
41.02865763493082
 21
263.4093027581277
 31
0.0
  0
LINE
  5
35F
330
18
100
AcDbEntity
  8
1
  6
Continuous
100
AcDbLine
 10
41.02865763493082
 20
263.4093027581277
 30
0.0
 11
39.67565763493075
 21
265.7527677581277
 31
0.0
  0
LINE
  5
360
330
18
100
AcDbEntity
  8
4
  6
CENTER
100
AcDbLine
 10
263.1973281036437
 20
395.3472419515882
 30
0.0
 11
151.5384816345109
 21
395.3472419515882
 31
0.0
  0
LINE
  5
362
330
18
100
AcDbEntity
  8
1
  6
Continuous
100
AcDbLine
 10
237.289278732662
 20
308.2527677581277
 30
0.0
 11
227.289278732662
 21
308.2527677581277
 31
0.0
  0
LINE
  5
363
330
18
100
AcDbEntity
  8
1
  6
Continuous
100
AcDbLine
 10
234.789278732662
 20
310.7527677581277
 30
0.0
 11
227.289278732662
 21
310.7527677581277
 31
0.0
  0
ARC
  5
364
330
18
100
AcDbEntity
  8
1
  6
Continuous
100
AcDbCircle
 10
227.289278732662
 20
362.3472419515882
 30
0.0
 40
10.0
100
AcDbArc
 50
40.97136900000239
 51
139.0286310000018
  0
ARC
  5
365
330
18
100
AcDbEntity
  8
1
  6
Continuous
100
AcDbCircle
 10
227.289278732662
 20
428.3472419515882
 30
0.0
 40
10.0
100
AcDbArc
 50
220.9713689999981
 51
319.0286310000018
  0
ARC
  5
366
330
18
100
AcDbEntity
  8
1
  6
Continuous
100
AcDbCircle
 10
233.289278732662
 20
366.3472419515882
 30
0.0
 40
1.0
100
AcDbArc
 50
270.0
 51
0.000000000000007
  0
ARC
  5
367
330
18
100
AcDbEntity
  8
1
  6
Continuous
100
AcDbCircle
 10
233.289278732662
 20
424.3472419515882
 30
0.0
 40
1.0
100
AcDbArc
 50
0.000000000000007
 51
90.0
  0
CIRCLE
  5
368
330
18
100
AcDbEntity
  8
1
  6
Continuous
100
AcDbCircle
 10
227.289278732662
 20
395.3472419515882
 30
0.0
 40
10.0
  0
ARC
  5
369
330
18
100
AcDbEntity
  8
1
  6
Continuous
100
AcDbCircle
 10
227.289278732662
 20
395.3472419515882
 30
0.0
 40
27.5
100
AcDbArc
 50
45.93573699999924
 51
74.06426299999816
  0
ARC
  5
36A
330
18
100
AcDbEntity
  8
1
  6
Continuous
100
AcDbCircle
 10
227.289278732662
 20
395.3472419515882
 30
0.0
 40
29.0
100
AcDbArc
 50
8.774289999999707
 51
74.53399000000058
  0
LINE
  5
36B
330
18
100
AcDbEntity
  8
1
  6
Continuous
100
AcDbLine
 10
237.2892787326623
 20
308.2527677581277
 30
0.0
 11
234.7892787326622
 21
310.7527677581277
 31
0.0
  0
ARC
  5
36C
330
18
100
AcDbEntity
  8
1
  6
Continuous
100
AcDbCircle
 10
227.289278732662
 20
395.3472419515882
 30
0.0
 40
27.5
100
AcDbArc
 50
285.9357370000018
 51
314.0642630000006
  0
ARC
  5
36D
330
18
100
AcDbEntity
  8
1
  6
Continuous
100
AcDbCircle
 10
227.289278732662
 20
395.3472419515882
 30
0.0
 40
29.0
100
AcDbArc
 50
285.4660099999994
 51
351.2257100000003
  0
LINE
  5
36E
330
18
100
AcDbEntity
  8
1
  6
Continuous
100
AcDbLine
 10
234.289278732662
 20
366.4335769515882
 30
0.0
 11
234.289278732662
 21
366.3472419515882
 31
0.0
  0
ARC
  5
36F
330
18
100
AcDbEntity
  8
1
  6
Continuous
100
AcDbCircle
 10
235.289278732662
 20
366.4335769515882
 30
0.0
 40
1.0
100
AcDbArc
 50
105.4660099999994
 51
180.0
  0
LINE
  5
370
330
18
100
AcDbEntity
  8
1
  6
Continuous
100
AcDbLine
 10
257.5892787326622
 20
395.3472419515882
 30
0.0
 11
257.5892787326622
 21
391.8472419515882
 31
0.0
  0
ARC
  5
371
330
18
100
AcDbEntity
  8
1
  6
Continuous
100
AcDbCircle
 10
227.289278732662
 20
395.3472419515882
 30
0.0
 40
27.5
100
AcDbArc
 50
345.9357370000006
 51
14.06426299999934
  0
ARC
  5
372
330
18
100
AcDbEntity
  8
1
  6
Continuous
100
AcDbCircle
 10
255.868117732662
 20
378.8472419515882
 30
0.0
 40
10.0
100
AcDbArc
 50
100.9713689999986
 51
199.0286309999993
  0
ARC
  5
373
330
18
100
AcDbEntity
  8
1
  6
Continuous
100
AcDbCircle
 10
257.0892787326622
 20
391.8472419515882
 30
0.0
 40
0.5
100
AcDbArc
 50
270.0
 51
0.000000000000007
  0
ARC
  5
374
330
18
100
AcDbEntity
  8
1
  6
Continuous
100
AcDbCircle
 10
256.4440387326622
 20
390.8472419515882
 30
0.0
 40
0.5
100
AcDbArc
 50
90.0
 51
171.2257100000003
  0
LINE
  5
375
330
18
100
AcDbEntity
  8
1
  6
Continuous
100
AcDbLine
 10
257.0892787326622
 20
391.3472419515882
 30
0.0
 11
254.4968147326621
 21
391.3472419515882
 31
0.0
  0
ARC
  5
376
330
18
100
AcDbEntity
  8
1
  6
Continuous
100
AcDbCircle
 10
255.868117732662
 20
411.8472419515882
 30
0.0
 40
10.0
100
AcDbArc
 50
160.9713690000005
 51
259.0286310000013
  0
ARC
  5
377
330
18
100
AcDbEntity
  8
1
  6
Continuous
100
AcDbCircle
 10
257.0892787326622
 20
398.8472419515882
 30
0.0
 40
0.5
100
AcDbArc
 50
0.000000000000007
 51
90.0
  0
ARC
  5
378
330
18
100
AcDbEntity
  8
1
  6
Continuous
100
AcDbCircle
 10
256.4440387326622
 20
399.8472419515882
 30
0.0
 40
0.5
100
AcDbArc
 50
188.7742899999997
 51
270.0
  0
LINE
  5
379
330
18
100
AcDbEntity
  8
1
  6
Continuous
100
AcDbLine
 10
257.0892787326622
 20
399.3472419515882
 30
0.0
 11
254.4968147326621
 21
399.3472419515882
 31
0.0
  0
LINE
  5
37A
330
18
100
AcDbEntity
  8
1
  6
Continuous
100
AcDbLine
 10
257.5892787326622
 20
395.3472419515882
 30
0.0
 11
257.5892787326622
 21
398.8472419515882
 31
0.0
  0
LINE
  5
37B
330
18
100
AcDbEntity
  8
1
  6
Continuous
100
AcDbLine
 10
234.289278732662
 20
424.2609069515881
 30
0.0
 11
234.289278732662
 21
424.3472419515882
 31
0.0
  0
ARC
  5
37C
330
18
100
AcDbEntity
  8
1
  6
Continuous
100
AcDbCircle
 10
235.289278732662
 20
424.2609069515881
 30
0.0
 40
1.0
100
AcDbArc
 50
180.0
 51
254.5339900000005
  0
LINE
  5
37D
330
18
100
AcDbEntity
  8
4
  6
CENTER
100
AcDbLine
 10
227.289278732662
 20
363.3472419515882
 30
0.0
 11
227.289278732662
 21
427.3472419515882
 31
0.0
  0
LINE
  5
37E
330
18
100
AcDbEntity
  8
4
  6
CENTER
100
AcDbLine
 10
182.289278732662
 20
361.5548299515882
 30
0.0
 11
182.289278732662
 21
429.1833169515881
 31
0.0
  0
ARC
  5
37F
330
18
100
AcDbEntity
  8
1
  6
Continuous
100
AcDbCircle
 10
161.4143437326622
 20
410.8472419515882
 30
0.0
 40
4.0
100
AcDbArc
 50
90.0
 51
177.3947489999999
  0
LINE
  5
380
330
18
100
AcDbEntity
  8
1
  6
Continuous
100
AcDbLine
 10
194.6001357326622
 20
415.8253219515883
 30
0.0
 11
196.302199732662
 21
415.2253429515882
 31
0.0
  0
ARC
  5
381
330
18
100
AcDbEntity
  8
1
  6
Continuous
100
AcDbCircle
 10
192.573864732662
 20
408.1472419515883
 30
0.0
 40
8.0
100
AcDbArc
 50
339.7604489999997
 51
90.0
  0
LINE
  5
382
330
18
100
AcDbEntity
  8
1
  6
Continuous
100
AcDbLine
 10
169.9784217326621
 20
415.8253219515883
 30
0.0
 11
167.2037337326621
 21
414.8472419515882
 31
0.0
  0
ARC
  5
383
330
18
100
AcDbEntity
  8
1
  6
Continuous
100
AcDbCircle
 10
227.289278732662
 20
395.3472419515882
 30
0.0
 40
27.5
100
AcDbArc
 50
105.9357370000018
 51
134.0642630000007
  0
LINE
  5
385
330
18
100
AcDbEntity
  8
1
  6
Continuous
100
AcDbLine
 10
217.289278732662
 20
308.2527677581277
 30
0.0
 11
227.289278732662
 21
308.2527677581277
 31
0.0
  0
LINE
  5
386
330
18
100
AcDbEntity
  8
1
  6
Continuous
100
AcDbLine
 10
219.789278732662
 20
310.7527677581277
 30
0.0
 11
227.289278732662
 21
310.7527677581277
 31
0.0
  0
LINE
  5
387
330
18
100
AcDbEntity
  8
1
  6
Continuous
100
AcDbLine
 10
217.289278732662
 20
308.2527677581277
 30
0.0
 11
219.789278732662
 21
310.7527677581277
 31
0.0
  0
LINE
  5
389
330
18
100
AcDbEntity
  8
1
  6
Continuous
100
AcDbLine
 10
169.9784217326621
 20
374.8691619515883
 30
0.0
 11
167.2037337326621
 21
375.8472419515882
 31
0.0
  0
LINE
  5
38A
330
18
100
AcDbEntity
  8
1
  6
Continuous
100
AcDbLine
 10
159.5181507326621
 20
394.8472419515882
 30
0.0
 11
198.2935897326619
 21
394.8472419515882
 31
0.0
  0
LINE
  5
38B
330
18
100
AcDbEntity
  8
1
  6
Continuous
100
AcDbLine
 10
196.945362732662
 20
375.8472419515882
 30
0.0
 11
161.4143437326622
 21
375.8472419515882
 31
0.0
  0
LINE
  5
38C
330
18
100
AcDbEntity
  8
1
  6
Continuous
100
AcDbLine
 10
159.5181507326621
 20
395.8472419515882
 30
0.0
 11
198.2935897326619
 21
395.8472419515882
 31
0.0
  0
LINE
  5
38D
330
18
100
AcDbEntity
  8
1
  6
Continuous
100
AcDbLine
 10
196.945362732662
 20
414.8472419515882
 30
0.0
 11
161.4143437326622
 21
414.8472419515882
 31
0.0
  0
ARC
  5
38E
330
18
100
AcDbEntity
  8
1
  6
Continuous
100
AcDbCircle
 10
167.789278732662
 20
372.5472419515882
 30
0.0
 40
2.0
100
AcDbArc
 50
90.0
 51
180.0
  0
ARC
  5
38F
330
18
100
AcDbEntity
  8
1
  6
Continuous
100
AcDbCircle
 10
167.789278732662
 20
367.3472419515882
 30
0.0
 40
2.0
100
AcDbArc
 50
180.0
 51
270.0
  0
LINE
  5
390
330
18
100
AcDbEntity
  8
1
  6
Continuous
100
AcDbLine
 10
198.289278732662
 20
367.6627024355494
 30
0.0
 11
198.289278732662
 21
375.1976059515883
 31
0.0
  0
ARC
  5
391
330
18
100
AcDbEntity
  8
1
  6
Continuous
100
AcDbCircle
 10
227.289278732662
 20
395.3472419515882
 30
0.0
 40
27.5
100
AcDbArc
 50
225.9357369999992
 51
254.0642629999982
  0
LINE
  5
392
330
18
100
AcDbEntity
  8
1
  6
Continuous
100
AcDbLine
 10
233.289278732662
 20
365.3472419515882
 30
0.0
 11
167.789278732662
 21
365.3472419515882
 31
0.0
  0
ARC
  5
393
330
18
100
AcDbEntity
  8
1
  6
Continuous
100
AcDbCircle
 10
192.573864732662
 20
382.5472419515882
 30
0.0
 40
8.0
100
AcDbArc
 50
270.0
 51
20.23955100000025
  0
ARC
  5
394
330
18
100
AcDbEntity
  8
1
  6
Continuous
100
AcDbCircle
 10
227.289278732662
 20
395.3472419515882
 30
0.0
 40
27.5
100
AcDbArc
 50
165.9357370000006
 51
194.0642629999993
  0
ARC
  5
395
330
18
100
AcDbEntity
  8
1
  6
Continuous
100
AcDbCircle
 10
198.7104407326621
 20
378.8472419515882
 30
0.0
 40
10.0
100
AcDbArc
 50
340.9713690000006
 51
79.02863100000137
  0
ARC
  5
396
330
18
100
AcDbEntity
  8
1
  6
Continuous
100
AcDbCircle
 10
198.7104407326621
 20
411.8472419515882
 30
0.0
 40
10.0
100
AcDbArc
 50
280.9713689999986
 51
19.02863099999936
  0
ARC
  5
397
330
18
100
AcDbEntity
  8
1
  6
Continuous
100
AcDbCircle
 10
227.289278732662
 20
395.3472419515882
 30
0.0
 40
29.0
100
AcDbArc
 50
180.0
 51
200.2395510000002
  0
LINE
  5
398
330
18
100
AcDbEntity
  8
1
  6
Continuous
100
AcDbLine
 10
167.789278732662
 20
374.5472419515882
 30
0.0
 11
192.573864732662
 21
374.5472419515882
 31
0.0
  0
ARC
  5
399
330
18
100
AcDbEntity
  8
1
  6
Continuous
100
AcDbCircle
 10
194.766361732662
 20
374.3976019515883
 30
0.0
 40
0.5
100
AcDbArc
 50
109.4175950000018
 51
132.7361809999987
  0
LINE
  5
39A
330
18
100
AcDbEntity
  8
1
  6
Continuous
100
AcDbLine
 10
194.6001357326622
 20
374.8691619515883
 30
0.0
 11
196.302199732662
 21
375.4691409515881
 31
0.0
  0
ARC
  5
39B
330
18
100
AcDbEntity
  8
1
  6
Continuous
100
AcDbCircle
 10
170.418621732662
 20
374.7472419515883
 30
0.0
 40
0.2
100
AcDbArc
 50
209.9659989999987
 51
270.0
  0
ARC
  5
39C
330
18
100
AcDbEntity
  8
1
  6
Continuous
100
AcDbCircle
 10
169.8121967326621
 20
374.3976019515883
 30
0.0
 40
0.5
100
AcDbArc
 50
29.96599899999868
 51
70.58240499999811
  0
LINE
  5
39D
330
18
100
AcDbEntity
  8
1
  6
Continuous
100
AcDbLine
 10
173.789278732662
 20
395.3472419515882
 30
0.0
 11
190.789278732662
 21
395.3472419515882
 31
0.0
  0
ARC
  5
39E
330
18
100
AcDbEntity
  8
1
  6
Continuous
100
AcDbCircle
 10
227.289278732662
 20
395.3472419515882
 30
0.0
 40
29.0
100
AcDbArc
 50
159.7604489999997
 51
180.0
  0
LINE
  5
39F
330
18
100
AcDbEntity
  8
1
  6
Continuous
100
AcDbLine
 10
191.2892787326623
 20
394.847241951588
 30
0.0
 11
190.7892787326622
 21
395.3472419515882
 31
0.0
  0
LINE
  5
3A0
330
18
100
AcDbEntity
  8
1
  6
Continuous
100
AcDbLine
 10
191.2892787326623
 20
395.8472419515882
 30
0.0
 11
190.789278732662
 21
395.3472419515882
 31
0.0
  0
LINE
  5
3A1
330
18
100
AcDbEntity
  8
1
  6
Continuous
100
AcDbLine
 10
173.289278732662
 20
394.8472419515882
 30
0.0
 11
173.789278732662
 21
395.3472419515882
 31
0.0
  0
LINE
  5
3A2
330
18
100
AcDbEntity
  8
1
  6
Continuous
100
AcDbLine
 10
173.2892787326623
 20
395.8472419515882
 30
0.0
 11
173.789278732662
 21
395.3472419515882
 31
0.0
  0
LINE
  5
3A3
330
18
100
AcDbEntity
  8
1
  6
Continuous
100
AcDbLine
 10
165.789278732662
 20
372.5472419515882
 30
0.0
 11
165.789278732662
 21
367.3472419515882
 31
0.0
  0
ARC
  5
3A4
330
18
100
AcDbEntity
  8
1
  6
Continuous
100
AcDbCircle
 10
282.289278732662
 20
385.3472419515881
 30
0.0
 40
125.0
100
AcDbArc
 50
176.5041860000003
 51
182.605251
  0
ARC
  5
3A5
330
18
100
AcDbEntity
  8
1
  6
Continuous
100
AcDbCircle
 10
161.4143437326622
 20
379.8472419515882
 30
0.0
 40
4.0
100
AcDbArc
 50
182.605251
 51
270.0
  0
ARC
  5
3A6
330
18
100
AcDbEntity
  8
1
  6
Continuous
100
AcDbCircle
 10
282.289278732662
 20
405.3472419515882
 30
0.0
 40
125.0
100
AcDbArc
 50
177.3947489999999
 51
183.4958139999995
  0
ARC
  5
3A7
330
18
100
AcDbEntity
  8
1
  6
Continuous
100
AcDbCircle
 10
159.5181507326621
 20
397.8472419515881
 30
0.0
 40
2.0
100
AcDbArc
 50
183.4958139999995
 51
270.0
  0
ARC
  5
3A8
330
18
100
AcDbEntity
  8
1
  6
Continuous
100
AcDbCircle
 10
159.5181507326621
 20
392.8472419515882
 30
0.0
 40
2.0
100
AcDbArc
 50
90.0
 51
176.5041860000003
  0
LINE
  5
3A9
330
18
100
AcDbEntity
  8
1
  6
Continuous
100
AcDbLine
 10
39.67565763493075
 20
308.2527677581277
 30
0.0
 11
49.67565763493075
 21
308.2527677581277
 31
0.0
  0
LINE
  5
3AA
330
18
100
AcDbEntity
  8
1
  6
Continuous
100
AcDbLine
 10
42.17565763493076
 20
310.7527677581277
 30
0.0
 11
49.67565763493075
 21
310.7527677581277
 31
0.0
  0
LINE
  5
3AB
330
18
100
AcDbEntity
  8
1
  6
Continuous
100
AcDbLine
 10
59.67565763493075
 20
308.2527677581277
 30
0.0
 11
49.67565763493075
 21
308.2527677581277
 31
0.0
  0
LINE
  5
3AC
330
18
100
AcDbEntity
  8
1
  6
Continuous
100
AcDbLine
 10
57.17565763493075
 20
310.7527677581277
 30
0.0
 11
49.67565763493075
 21
310.7527677581277
 31
0.0
  0
LINE
  5
3AD
330
18
100
AcDbEntity
  8
1
  6
Continuous
100
AcDbLine
 10
59.67565763493075
 20
308.2527677581277
 30
0.0
 11
57.17565763493075
 21
310.7527677581277
 31
0.0
  0
LINE
  5
3AE
330
18
100
AcDbEntity
  8
1
  6
Continuous
100
AcDbLine
 10
39.67565763493075
 20
308.2527677581277
 30
0.0
 11
42.17565763493076
 21
310.7527677581277
 31
0.0
  0
ARC
  5
3B0
330
18
100
AcDbEntity
  8
1
  6
Continuous
100
AcDbCircle
 10
167.789278732662
 20
418.1472419515882
 30
0.0
 40
2.0
100
AcDbArc
 50
180.0
 51
270.0
  0
ARC
  5
3B1
330
18
100
AcDbEntity
  8
1
  6
Continuous
100
AcDbCircle
 10
167.789278732662
 20
423.3472419515882
 30
0.0
 40
2.0
100
AcDbArc
 50
90.0
 51
180.0
  0
LINE
  5
3B2
330
18
100
AcDbEntity
  8
1
  6
Continuous
100
AcDbLine
 10
233.289278732662
 20
425.3472419515881
 30
0.0
 11
167.789278732662
 21
425.3472419515881
 31
0.0
  0
LINE
  5
3B3
330
18
100
AcDbEntity
  8
1
  6
Continuous
100
AcDbLine
 10
167.789278732662
 20
416.1472419515883
 30
0.0
 11
192.573864732662
 21
416.1472419515883
 31
0.0
  0
LINE
  5
3B4
330
18
100
AcDbEntity
  8
1
  6
Continuous
100
AcDbLine
 10
198.289278732662
 20
415.4968779515882
 30
0.0
 11
198.289278732662
 21
423.7520920725436
 31
0.0
  0
ARC
  5
3B5
330
18
100
AcDbEntity
  8
1
  6
Continuous
100
AcDbCircle
 10
194.766361732662
 20
416.2968819515882
 30
0.0
 40
0.5
100
AcDbArc
 50
227.2638190000012
 51
250.5824049999981
  0
ARC
  5
3B6
330
18
100
AcDbEntity
  8
1
  6
Continuous
100
AcDbCircle
 10
170.418621732662
 20
415.9472419515882
 30
0.0
 40
0.2
100
AcDbArc
 50
90.0
 51
150.0340010000013
  0
ARC
  5
3B7
330
18
100
AcDbEntity
  8
1
  6
Continuous
100
AcDbCircle
 10
169.8121967326621
 20
416.2968819515882
 30
0.0
 40
0.5
100
AcDbArc
 50
289.4175950000018
 51
330.0340010000013
  0
LINE
  5
3B8
330
18
100
AcDbEntity
  8
1
  6
Continuous
100
AcDbLine
 10
165.789278732662
 20
418.1472419515882
 30
0.0
 11
165.789278732662
 21
423.3472419515882
 31
0.0
  0
ARC
  5
3B9
330
18
100
AcDbEntity
  8
1
  6
Continuous
100
AcDbCircle
 10
26.87565763493057
 20
186.2527677581278
 30
0.0
 40
2.0
100
AcDbArc
 50
270.0
 51
0.000000000000007
  0
ARC
  5
3BA
330
18
100
AcDbEntity
  8
1
  6
Continuous
100
AcDbCircle
 10
21.67565763493076
 20
186.2527677581278
 30
0.0
 40
2.0
100
AcDbArc
 50
180.0
 51
270.0
  0
LINE
  5
3BB
330
18
100
AcDbEntity
  8
1
  6
Continuous
100
AcDbLine
 10
21.67565763493076
 20
184.2527677581277
 30
0.0
 11
26.87565763493057
 21
184.2527677581277
 31
0.0
  0
LINE
  5
3BC
330
18
100
AcDbEntity
  8
1
  6
Continuous
100
AcDbLine
 10
28.87565763493057
 20
186.2527677581278
 30
0.0
 11
28.87565763493057
 21
251.2527677581277
 31
0.0
  0
LINE
  5
3BD
330
18
100
AcDbEntity
  8
1
  6
Continuous
100
AcDbLine
 10
19.6756576349303
 20
186.2527677581278
 30
0.0
 11
19.6756576349303
 21
249.2527677581277
 31
0.0
  0
ARC
  5
3BE
330
18
100
AcDbEntity
  8
1
  6
Continuous
100
AcDbCircle
 10
29.07565763493039
 20
188.8821107581277
 30
0.0
 40
0.2
100
AcDbArc
 50
180.0
 51
240.0340010000014
  0
ARC
  5
3BF
330
18
100
AcDbEntity
  8
1
  6
Continuous
100
AcDbCircle
 10
28.72601763493048
 20
188.2756847581276
 30
0.0
 40
0.5
100
AcDbArc
 50
19.41759499999931
 51
60.03400100000154
  0
ARC
  5
3C0
330
18
100
AcDbEntity
  8
1
  6
Continuous
100
AcDbCircle
 10
29.07565763493039
 20
212.6234247581276
 30
0.0
 40
0.2
100
AcDbArc
 50
119.9659989999984
 51
180.0
  0
ARC
  5
3C1
330
18
100
AcDbEntity
  8
1
  6
Continuous
100
AcDbCircle
 10
28.72601763493048
 20
213.2298507581277
 30
0.0
 40
0.5
100
AcDbArc
 50
299.9659989999985
 51
340.5824050000007
  0
LINE
  5
3C2
330
18
100
AcDbEntity
  8
1
  6
Continuous
100
AcDbLine
 10
23.23247663493066
 20
260.7527677581277
 30
0.0
 11
23.23247663493066
 21
252.7527677581277
 31
0.0
  0
LINE
  5
3C3
330
18
100
AcDbEntity
  8
1
  6
Continuous
100
AcDbLine
 10
29.91525263493076
 20
260.7527677581277
 30
0.0
 11
29.91525263493076
 21
252.7527677581277
 31
0.0
  0
LINE
  5
3C4
330
18
100
AcDbEntity
  8
1
  6
Continuous
100
AcDbLine
 10
28.67565763493075
 20
251.2527677581277
 30
0.0
 11
28.67565763493075
 21
252.1527677581277
 31
0.0
  0
ARC
  5
3C5
330
18
100
AcDbEntity
  8
1
  6
Continuous
100
AcDbCircle
 10
29.27565763493067
 20
252.1527677581277
 30
0.0
 40
0.6
100
AcDbArc
 50
90.0
 51
180.0
  0
ARC
  5
3C6
330
18
100
AcDbEntity
  8
1
  6
Continuous
100
AcDbCircle
 10
21.67565763493076
 20
249.2527677581277
 30
0.0
 40
2.0
100
AcDbArc
 50
90.0
 51
180.0
  0
LINE
  5
461
330
18
100
AcDbEntity
  8
4
  6
CENTER
100
AcDbLine
 10
227.289278732662
 20
199.0893574481045
 30
0.0
 11
227.289278732662
 21
313.1062107581276
 31
0.0
  0
LINE
  5
46F
330
18
100
AcDbEntity
  8
1
  6
Continuous
100
AcDbLine
 10
412.6897895929698
 20
251.2527677581277
 30
0.0
 11
384.6897895929698
 21
251.2527677581277
 31
0.0
  0
ARC
  5
471
330
18
100
AcDbEntity
  8
1
  6
Continuous
100
AcDbCircle
 10
400.1897895929698
 20
179.8778327581277
 30
0.0
 40
4.0
100
AcDbArc
 50
272.6052510000024
 51
0.000000000000007
  0
LINE
  5
472
330
18
100
AcDbEntity
  8
1
  6
Continuous
100
AcDbLine
 10
358.2466075929699
 20
260.7527677581277
 30
0.0
 11
411.13297059297
 21
260.7527677581277
 31
0.0
  0
LINE
  5
473
330
18
100
AcDbEntity
  8
1
  6
Continuous
100
AcDbLine
 10
358.2466075929699
 20
252.7527677581277
 30
0.0
 11
411.13297059297
 21
252.7527677581277
 31
0.0
  0
LINE
  5
474
330
18
100
AcDbEntity
  8
4
  6
CENTER
100
AcDbLine
 10
350.8135605929699
 20
200.7527677581277
 30
0.0
 11
418.42179859297
 21
200.7527677581277
 31
0.0
  0
LINE
  5
475
330
18
100
AcDbEntity
  8
1
  6
Continuous
100
AcDbLine
 10
414.6897895929702
 20
186.2527677581278
 30
0.0
 11
414.6897895929702
 21
249.2527677581277
 31
0.0
  0
LINE
  5
478
330
18
100
AcDbEntity
  8
1
  6
Continuous
100
AcDbLine
 10
404.1897895929698
 20
179.8778327581277
 30
0.0
 11
404.1897895929698
 21
215.8383165950039
 31
0.0
  0
ARC
  5
479
330
18
100
AcDbEntity
  8
1
  6
Continuous
100
AcDbCircle
 10
405.6394295929701
 20
188.2756847581276
 30
0.0
 40
0.5
100
AcDbArc
 50
119.9659989999984
 51
160.5824050000006
  0
ARC
  5
47A
330
18
100
AcDbEntity
  8
1
  6
Continuous
100
AcDbCircle
 10
405.2897895929701
 20
188.8821107581277
 30
0.0
 40
0.2
100
AcDbArc
 50
299.9659989999985
 51
0.000000000000007
  0
LINE
  5
47B
330
18
100
AcDbEntity
  8
1
  6
Continuous
100
AcDbLine
 10
412.6897895929698
 20
184.2527677581277
 30
0.0
 11
407.48978959297
 21
184.2527677581277
 31
0.0
  0
ARC
  5
47C
330
18
100
AcDbEntity
  8
1
  6
Continuous
100
AcDbCircle
 10
412.6897895929698
 20
186.2527677581278
 30
0.0
 40
2.0
100
AcDbArc
 50
270.0
 51
0.000000000000007
  0
ARC
  5
47D
330
18
100
AcDbEntity
  8
1
  6
Continuous
100
AcDbCircle
 10
407.48978959297
 20
186.2527677581278
 30
0.0
 40
2.0
100
AcDbArc
 50
180.0
 51
270.0
  0
LINE
  5
47E
330
18
100
AcDbEntity
  8
1
  6
Continuous
100
AcDbLine
 10
405.1678685929697
 20
188.4419107581276
 30
0.0
 11
404.1897895929698
 21
185.6672217581277
 31
0.0
  0
ARC
  5
482
330
18
100
AcDbEntity
  8
1
  6
Continuous
100
AcDbCircle
 10
412.6897895929698
 20
249.2527677581277
 30
0.0
 40
2.0
100
AcDbArc
 50
0.000000000000007
 51
90.0
  0
ARC
  5
483
330
18
100
AcDbEntity
  8
1
  6
Continuous
100
AcDbCircle
 10
405.0897895929699
 20
252.1527677581277
 30
0.0
 40
0.6
100
AcDbArc
 50
0.000000000000007
 51
90.0
  0
LINE
  5
484
330
18
100
AcDbEntity
  8
1
  6
Continuous
100
AcDbLine
 10
405.6897895929698
 20
251.2527677581277
 30
0.0
 11
405.6897895929698
 21
252.1527677581277
 31
0.0
  0
LINE
  5
485
330
18
100
AcDbEntity
  8
1
  6
Continuous
100
AcDbLine
 10
404.4501945929698
 20
260.7527677581277
 30
0.0
 11
404.4501945929698
 21
252.7527677581277
 31
0.0
  0
LINE
  5
486
330
18
100
AcDbEntity
  8
1
  6
Continuous
100
AcDbLine
 10
411.13297059297
 20
260.7527677581277
 30
0.0
 11
411.13297059297
 21
252.7527677581277
 31
0.0
  0
LINE
  5
487
330
18
100
AcDbEntity
  8
1
  6
Continuous
100
AcDbLine
 10
393.3367895929698
 20
263.4093027581277
 30
0.0
 11
394.6897895929698
 21
265.7527677581277
 31
0.0
  0
LINE
  5
488
330
18
100
AcDbEntity
  8
1
  6
Continuous
100
AcDbLine
 10
376.0427895929699
 20
263.4093027581277
 30
0.0
 11
374.6897895929699
 21
265.7527677581277
 31
0.0
  0
LINE
  5
48B
330
18
100
AcDbEntity
  8
4
  6
CENTER
100
AcDbLine
 10
384.6897895929698
 20
170.4739648318908
 30
0.0
 11
384.6897895929698
 21
314.5783327581276
 31
0.0
  0
ARC
  5
48C
330
18
100
AcDbEntity
  8
1
  6
Continuous
100
AcDbCircle
 10
369.1897885929699
 20
179.8778327581277
 30
0.0
 40
4.0
100
AcDbArc
 50
180.0
 51
267.3947489999975
  0
LINE
  5
48D
330
18
100
AcDbEntity
  8
1
  6
Continuous
100
AcDbLine
 10
384.1897895929698
 20
177.9816397581276
 30
0.0
 11
384.1897895929698
 21
205.2027677581277
 31
0.0
  0
LINE
  5
48E
330
18
100
AcDbEntity
  8
1
  6
Continuous
100
AcDbLine
 10
385.1897895929699
 20
177.9816397581276
 30
0.0
 11
385.1897895929699
 21
205.2027677581277
 31
0.0
  0
ARC
  5
48F
330
18
100
AcDbEntity
  8
1
  6
Continuous
100
AcDbCircle
 10
374.6897895929699
 20
300.7527677581277
 30
0.0
 40
125.0
100
AcDbArc
 50
267.3947489999975
 51
273.4958139999982
  0
ARC
  5
490
330
18
100
AcDbEntity
  8
1
  6
Continuous
100
AcDbCircle
 10
394.6897895929698
 20
300.7527677581277
 30
0.0
 40
125.0
100
AcDbArc
 50
266.5041860000016
 51
272.6052510000024
  0
ARC
  5
491
330
18
100
AcDbEntity
  8
1
  6
Continuous
100
AcDbCircle
 10
382.1897895929698
 20
177.9816397581276
 30
0.0
 40
2.0
100
AcDbArc
 50
273.4958139999982
 51
0.000000000000007
  0
ARC
  5
492
330
18
100
AcDbEntity
  8
1
  6
Continuous
100
AcDbCircle
 10
387.1897895929699
 20
177.9816397581276
 30
0.0
 40
2.0
100
AcDbArc
 50
180.0
 51
266.5041860000016
  0
LINE
  5
495
330
18
100
AcDbEntity
  8
1
  6
Continuous
100
AcDbLine
 10
354.6897895929698
 20
186.2527677581278
 30
0.0
 11
354.6897895929698
 21
249.2527677581277
 31
0.0
  0
LINE
  5
496
330
18
100
AcDbEntity
  8
1
  6
Continuous
100
AcDbLine
 10
363.8897895929702
 20
186.2527677581278
 30
0.0
 11
363.8897895929702
 21
211.4660136432973
 31
0.0
  0
LINE
  5
497
330
18
100
AcDbEntity
  8
1
  6
Continuous
100
AcDbLine
 10
384.6897895929698
 20
192.2527677581276
 30
0.0
 11
384.6897895929699
 21
205.2027677581277
 31
0.0
  0
LINE
  5
498
330
18
100
AcDbEntity
  8
1
  6
Continuous
100
AcDbLine
 10
384.1897895929698
 20
191.7527677581277
 30
0.0
 11
384.6897895929698
 21
192.2527677581276
 31
0.0
  0
LINE
  5
499
330
18
100
AcDbEntity
  8
1
  6
Continuous
100
AcDbLine
 10
385.1897895929699
 20
191.7527677581277
 30
0.0
 11
384.6897895929698
 21
192.2527677581276
 31
0.0
  0
LINE
  5
49C
330
18
100
AcDbEntity
  8
1
  6
Continuous
100
AcDbLine
 10
365.1897885929699
 20
179.8778327581277
 30
0.0
 11
365.1897885929699
 21
215.8383137581277
 31
0.0
  0
LINE
  5
49D
330
18
100
AcDbEntity
  8
1
  6
Continuous
100
AcDbLine
 10
356.6897895929698
 20
184.2527677581277
 30
0.0
 11
361.8897895929702
 21
184.2527677581277
 31
0.0
  0
LINE
  5
49E
330
18
100
AcDbEntity
  8
1
  6
Continuous
100
AcDbLine
 10
364.2117095929701
 20
188.4419107581276
 30
0.0
 11
365.1897885929699
 21
185.6672217581277
 31
0.0
  0
ARC
  5
49F
330
18
100
AcDbEntity
  8
1
  6
Continuous
100
AcDbCircle
 10
363.7401485929701
 20
188.2756847581276
 30
0.0
 40
0.5
100
AcDbArc
 50
19.41759499999931
 51
60.03400100000154
  0
ARC
  5
4A0
330
18
100
AcDbEntity
  8
1
  6
Continuous
100
AcDbCircle
 10
364.0897895929699
 20
188.8821107581277
 30
0.0
 40
0.2
100
AcDbArc
 50
180.0
 51
240.0340010000014
  0
ARC
  5
4A1
330
18
100
AcDbEntity
  8
1
  6
Continuous
100
AcDbCircle
 10
361.8897895929702
 20
186.2527677581278
 30
0.0
 40
2.0
100
AcDbArc
 50
270.0
 51
0.000000000000007
  0
ARC
  5
4A2
330
18
100
AcDbEntity
  8
1
  6
Continuous
100
AcDbCircle
 10
356.6897895929698
 20
186.2527677581278
 30
0.0
 40
2.0
100
AcDbArc
 50
180.0
 51
270.0
  0
LINE
  5
4A3
330
18
100
AcDbEntity
  8
1
  6
Continuous
100
AcDbLine
 10
364.1173066857717
 20
212.79581540104
 30
0.0
 11
367.509013861305
 21
222.4176686369991
 31
0.0
  0
LINE
  5
4A6
330
18
100
AcDbEntity
  8
1
  6
Continuous
100
AcDbLine
 10
356.6897895929698
 20
251.2527677581277
 30
0.0
 11
384.6897895929698
 21
251.2527677581277
 31
0.0
  0
LINE
  5
4A9
330
18
100
AcDbEntity
  8
1
  6
Continuous
100
AcDbLine
 10
385.2029275929701
 20
223.7527677581277
 30
0.0
 11
384.1766505929701
 21
223.7527677581277
 31
0.0
  0
LINE
  5
4AC
330
18
100
AcDbEntity
  8
1
  6
Continuous
100
AcDbLine
 10
393.3367895929698
 20
260.7527677581277
 30
0.0
 11
393.3367895929698
 21
263.4093027581277
 31
0.0
  0
LINE
  5
4AD
330
18
100
AcDbEntity
  8
1
  6
Continuous
100
AcDbLine
 10
391.3725645929702
 20
260.7527677581277
 30
0.0
 11
391.3725645929702
 21
252.7527677581277
 31
0.0
  0
LINE
  5
4AE
330
18
100
AcDbEntity
  8
1
  6
Continuous
100
AcDbLine
 10
376.0427895929699
 20
260.7527677581277
 30
0.0
 11
376.0427895929699
 21
263.4093027581277
 31
0.0
  0
LINE
  5
4AF
330
18
100
AcDbEntity
  8
1
  6
Continuous
100
AcDbLine
 10
378.0070135929702
 20
260.7527677581277
 30
0.0
 11
378.0070135929702
 21
252.7527677581277
 31
0.0
  0
LINE
  5
4B0
330
18
100
AcDbEntity
  8
1
  6
Continuous
100
AcDbLine
 10
363.6897895929698
 20
251.2527677581277
 30
0.0
 11
363.6897895929698
 21
252.1527677581277
 31
0.0
  0
ARC
  5
4B1
330
18
100
AcDbEntity
  8
1
  6
Continuous
100
AcDbCircle
 10
364.2897895929702
 20
252.1527677581277
 30
0.0
 40
0.6
100
AcDbArc
 50
90.0
 51
180.0
  0
LINE
  5
4B2
330
18
100
AcDbEntity
  8
1
  6
Continuous
100
AcDbLine
 10
358.2466075929699
 20
260.7527677581277
 30
0.0
 11
358.2466075929699
 21
252.7527677581277
 31
0.0
  0
LINE
  5
4B3
330
18
100
AcDbEntity
  8
1
  6
Continuous
100
AcDbLine
 10
364.9293835929701
 20
260.7527677581277
 30
0.0
 11
364.9293835929701
 21
252.7527677581277
 31
0.0
  0
ARC
  5
4B4
330
18
100
AcDbEntity
  8
1
  6
Continuous
100
AcDbCircle
 10
356.6897895929698
 20
249.2527677581277
 30
0.0
 40
2.0
100
AcDbArc
 50
90.0
 51
180.0
  0
LINE
  5
4B5
330
18
100
AcDbEntity
  8
1
  6
Continuous
100
AcDbLine
 10
374.6897895929699
 20
265.7527677581277
 30
0.0
 11
374.6897895929699
 21
308.2527677581277
 31
0.0
  0
LINE
  5
4B6
330
18
100
AcDbEntity
  8
1
  6
Continuous
100
AcDbLine
 10
394.6897895929698
 20
268.5982267581277
 30
0.0
 11
394.6897895929698
 21
308.2527677581277
 31
0.0
  0
LINE
  5
4B7
330
18
100
AcDbEntity
  8
1
  6
Continuous
100
AcDbLine
 10
394.6897895929698
 20
265.7527677581277
 30
0.0
 11
374.6897895929699
 21
265.7527677581277
 31
0.0
  0
LINE
  5
4B8
330
18
100
AcDbEntity
  8
1
  6
Continuous
100
AcDbLine
 10
394.6897895929698
 20
265.7527677581277
 30
0.0
 11
394.6897895929698
 21
268.5982267581277
 31
0.0
  0
LINE
  5
4B9
330
18
100
AcDbEntity
  8
1
  6
Continuous
100
AcDbLine
 10
392.1897895929698
 20
310.7527677581277
 30
0.0
 11
384.6897895929698
 21
310.7527677581277
 31
0.0
  0
LINE
  5
4BA
330
18
100
AcDbEntity
  8
1
  6
Continuous
100
AcDbLine
 10
394.6897895929698
 20
308.2527677581277
 30
0.0
 11
384.6897895929698
 21
308.2527677581277
 31
0.0
  0
LINE
  5
4BB
330
18
100
AcDbEntity
  8
1
  6
Continuous
100
AcDbLine
 10
394.6897895929698
 20
308.2527677581277
 30
0.0
 11
392.1897895929698
 21
310.7527677581277
 31
0.0
  0
LINE
  5
4BC
330
18
100
AcDbEntity
  8
1
  6
Continuous
100
AcDbLine
 10
374.6897895929699
 20
308.2527677581277
 30
0.0
 11
377.1897895929698
 21
310.7527677581277
 31
0.0
  0
LINE
  5
4BD
330
18
100
AcDbEntity
  8
1
  6
Continuous
100
AcDbLine
 10
377.1897895929698
 20
310.7527677581277
 30
0.0
 11
384.6897895929698
 21
310.7527677581277
 31
0.0
  0
LINE
  5
4BE
330
18
100
AcDbEntity
  8
1
  6
Continuous
100
AcDbLine
 10
374.6897895929699
 20
308.2527677581277
 30
0.0
 11
384.6897895929698
 21
308.2527677581277
 31
0.0
  0
ARC
  5
55A
330
18
100
AcDbEntity
  8
1
  6
Continuous
100
AcDbCircle
 10
282.289278732662
 20
88.47043057062533
 30
0.0
 40
125.0
100
AcDbArc
 50
177.3947489999999
 51
183.4958139999995
  0
LINE
  5
55D
330
18
100
AcDbEntity
  8
4
  6
CENTER
100
AcDbLine
 10
182.289278732662
 20
112.2628425706253
 30
0.0
 11
182.289278732662
 21
44.63435557062529
 31
0.0
  0
LINE
  5
55E
330
18
100
AcDbEntity
  8
4
  6
CENTER
100
AcDbLine
 10
227.289278732662
 20
110.4704305706253
 30
0.0
 11
227.289278732662
 21
46.47043057062535
 31
0.0
  0
ARC
  5
560
330
18
100
AcDbEntity
  8
1
  6
Continuous
100
AcDbCircle
 10
227.289278732662
 20
78.47043057062534
 30
0.0
 40
29.0
100
AcDbArc
 50
8.774289999999689
 51
74.53399000000056
  0
LINE
  5
563
330
18
100
AcDbEntity
  8
1
  6
Continuous
100
AcDbLine
 10
233.289278732662
 20
108.4704305706253
 30
0.0
 11
167.789278732662
 21
108.4704305706253
 31
0.0
  0
ARC
  5
565
330
18
100
AcDbEntity
  8
1
  6
Continuous
100
AcDbCircle
 10
161.4143437326622
 20
93.97043057062537
 30
0.0
 40
4.0
100
AcDbArc
 50
90.00000000000005
 51
177.3947489999999
  0
LINE
  5
566
330
18
100
AcDbEntity
  8
1
  6
Continuous
100
AcDbLine
 10
167.789278732662
 20
99.27043057062531
 30
0.0
 11
233.1451796138335
 21
99.27043057062531
 31
0.0
  0
LINE
  5
567
330
18
100
AcDbEntity
  8
1
  6
Continuous
100
AcDbLine
 10
203.1642137326619
 20
97.97043057062538
 30
0.0
 11
161.4143437326622
 21
97.97043057062538
 31
0.0
  0
ARC
  5
568
330
18
100
AcDbEntity
  8
1
  6
Continuous
100
AcDbCircle
 10
167.789278732662
 20
106.4704305706253
 30
0.0
 40
2.0
100
AcDbArc
 50
90.00000000000005
 51
180.0
  0
LINE
  5
569
330
18
100
AcDbEntity
  8
1
  6
Continuous
100
AcDbLine
 10
165.789278732662
 20
101.2704305706253
 30
0.0
 11
165.789278732662
 21
106.4704305706253
 31
0.0
  0
ARC
  5
56A
330
18
100
AcDbEntity
  8
1
  6
Continuous
100
AcDbCircle
 10
169.8121967326621
 20
99.42007057062529
 30
0.0
 40
0.5
100
AcDbArc
 50
289.4175950000018
 51
330.0340010000013
  0
ARC
  5
56B
330
18
100
AcDbEntity
  8
1
  6
Continuous
100
AcDbCircle
 10
170.418621732662
 20
99.07043057062526
 30
0.0
 40
0.2
100
AcDbArc
 50
90.00000000000005
 51
150.0340010000013
  0
ARC
  5
56C
330
18
100
AcDbEntity
  8
1
  6
Continuous
100
AcDbCircle
 10
167.789278732662
 20
101.2704305706253
 30
0.0
 40
2.0
100
AcDbArc
 50
180.0
 51
270.0
  0
LINE
  5
56D
330
18
100
AcDbEntity
  8
1
  6
Continuous
100
AcDbLine
 10
169.9784217326621
 20
98.94851057062531
 30
0.0
 11
167.2037337326621
 21
97.97043057062538
 31
0.0
  0
ARC
  5
572
330
18
100
AcDbEntity
  8
1
  6
Continuous
100
AcDbCircle
 10
233.289278732662
 20
107.4704305706253
 30
0.0
 40
1.0
100
AcDbArc
 50
0.0
 51
90.00000000000005
  0
ARC
  5
574
330
18
100
AcDbEntity
  8
1
  6
Continuous
100
AcDbCircle
 10
235.289278732662
 20
107.3840955706252
 30
0.0
 40
1.0
100
AcDbArc
 50
180.0
 51
254.5339900000006
  0
LINE
  5
575
330
18
100
AcDbEntity
  8
1
  6
Continuous
100
AcDbLine
 10
234.289278732662
 20
107.3840955706252
 30
0.0
 11
234.289278732662
 21
107.4704305706253
 31
0.0
  0
LINE
  5
577
330
18
100
AcDbEntity
  8
1
  6
Continuous
100
AcDbLine
 10
233.289278732662
 20
48.47043057062535
 30
0.0
 11
167.789278732662
 21
48.47043057062535
 31
0.0
  0
LINE
  5
579
330
18
100
AcDbEntity
  8
4
  6
CENTER
100
AcDbLine
 10
263.1973281036437
 20
78.47043057062534
 30
0.0
 11
151.5384816345109
 21
78.47043057062534
 31
0.0
  0
ARC
  5
57A
330
18
100
AcDbEntity
  8
1
  6
Continuous
100
AcDbCircle
 10
159.5181507326621
 20
80.97043057062533
 30
0.0
 40
2.0
100
AcDbArc
 50
183.4958139999995
 51
270.0
  0
ARC
  5
57B
330
18
100
AcDbEntity
  8
1
  6
Continuous
100
AcDbCircle
 10
159.5181507326621
 20
75.97043057062534
 30
0.0
 40
2.0
100
AcDbArc
 50
90.00000000000005
 51
176.5041860000003
  0
ARC
  5
57C
330
18
100
AcDbEntity
  8
1
  6
Continuous
100
AcDbCircle
 10
161.4143437326622
 20
62.97043057062535
 30
0.0
 40
4.0
100
AcDbArc
 50
182.605251
 51
270.0
  0
ARC
  5
57D
330
18
100
AcDbEntity
  8
1
  6
Continuous
100
AcDbCircle
 10
282.289278732662
 20
68.47043057062535
 30
0.0
 40
125.0
100
AcDbArc
 50
176.5041860000003
 51
182.605251
  0
LINE
  5
57F
330
18
100
AcDbEntity
  8
1
  6
Continuous
100
AcDbLine
 10
173.789278732662
 20
78.47043057062534
 30
0.0
 11
190.789278732662
 21
78.47043057062534
 31
0.0
  0
LINE
  5
580
330
18
100
AcDbEntity
  8
1
  6
Continuous
100
AcDbLine
 10
203.1642137326619
 20
58.97043057062536
 30
0.0
 11
161.4143437326622
 21
58.97043057062536
 31
0.0
  0
LINE
  5
581
330
18
100
AcDbEntity
  8
1
  6
Continuous
100
AcDbLine
 10
159.5181507326621
 20
77.97043057062534
 30
0.0
 11
205.0604067326619
 21
77.97043057062534
 31
0.0
  0
LINE
  5
582
330
18
100
AcDbEntity
  8
1
  6
Continuous
100
AcDbLine
 10
159.5181507326621
 20
78.97043057062536
 30
0.0
 11
205.0604067326619
 21
78.97043057062536
 31
0.0
  0
LINE
  5
583
330
18
100
AcDbEntity
  8
1
  6
Continuous
100
AcDbLine
 10
173.2892787326623
 20
77.97043057062547
 30
0.0
 11
173.789278732662
 21
78.47043057062534
 31
0.0
  0
LINE
  5
584
330
18
100
AcDbEntity
  8
1
  6
Continuous
100
AcDbLine
 10
173.289278732662
 20
78.97043057062536
 30
0.0
 11
173.789278732662
 21
78.47043057062534
 31
0.0
  0
LINE
  5
585
330
18
100
AcDbEntity
  8
1
  6
Continuous
100
AcDbLine
 10
165.789278732662
 20
55.67043057062527
 30
0.0
 11
165.789278732662
 21
50.47043057062535
 31
0.0
  0
ARC
  5
586
330
18
100
AcDbEntity
  8
1
  6
Continuous
100
AcDbCircle
 10
169.8121967326621
 20
57.52079057062529
 30
0.0
 40
0.5
100
AcDbArc
 50
29.9659989999987
 51
70.58240499999811
  0
ARC
  5
587
330
18
100
AcDbEntity
  8
1
  6
Continuous
100
AcDbCircle
 10
170.418621732662
 20
57.87043057062533
 30
0.0
 40
0.2
100
AcDbArc
 50
209.9659989999986
 51
270.0
  0
ARC
  5
588
330
18
100
AcDbEntity
  8
1
  6
Continuous
100
AcDbCircle
 10
167.789278732662
 20
50.47043057062535
 30
0.0
 40
2.0
100
AcDbArc
 50
180.0
 51
270.0
  0
ARC
  5
589
330
18
100
AcDbEntity
  8
1
  6
Continuous
100
AcDbCircle
 10
167.789278732662
 20
55.67043057062527
 30
0.0
 40
2.0
100
AcDbArc
 50
90.00000000000005
 51
180.0
  0
LINE
  5
58A
330
18
100
AcDbEntity
  8
1
  6
Continuous
100
AcDbLine
 10
169.9784217326621
 20
57.99235057062525
 30
0.0
 11
167.2037337326621
 21
58.97043057062536
 31
0.0
  0
LINE
  5
58D
330
18
100
AcDbEntity
  8
1
  6
Continuous
100
AcDbLine
 10
191.2892787326623
 20
77.97043057062547
 30
0.0
 11
190.789278732662
 21
78.47043057062546
 31
0.0
  0
LINE
  5
58E
330
18
100
AcDbEntity
  8
1
  6
Continuous
100
AcDbLine
 10
191.2892787326623
 20
78.97043057062545
 30
0.0
 11
190.7892787326622
 21
78.47043057062534
 31
0.0
  0
ARC
  5
591
330
18
100
AcDbEntity
  8
1
  6
Continuous
100
AcDbCircle
 10
194.766361732662
 20
57.52079057062529
 30
0.0
 40
0.5
100
AcDbArc
 50
109.4175950000018
 51
132.7361809999987
  0
ARC
  5
595
330
18
100
AcDbEntity
  8
1
  6
Continuous
100
AcDbCircle
 10
227.289278732662
 20
78.47043057062534
 30
0.0
 40
29.0
100
AcDbArc
 50
285.4660099999994
 51
351.2257100000002
  0
ARC
  5
597
330
18
100
AcDbEntity
  8
1
  6
Continuous
100
AcDbCircle
 10
235.289278732662
 20
49.55676557062531
 30
0.0
 40
1.0
100
AcDbArc
 50
105.4660099999994
 51
180.0
  0
LINE
  5
598
330
18
100
AcDbEntity
  8
1
  6
Continuous
100
AcDbLine
 10
234.289278732662
 20
49.55676557062531
 30
0.0
 11
234.289278732662
 21
49.47043057062535
 31
0.0
  0
ARC
  5
599
330
18
100
AcDbEntity
  8
1
  6
Continuous
100
AcDbCircle
 10
233.289278732662
 20
49.47043057062535
 30
0.0
 40
1.0
100
AcDbArc
 50
270.0
 51
0.0
  0
LINE
  5
59B
330
18
100
AcDbEntity
  8
1
  6
Continuous
100
AcDbLine
 10
257.5892787326622
 20
78.47043057062534
 30
0.0
 11
257.5892787326622
 21
74.97043057062533
 31
0.0
  0
LINE
  5
59C
330
18
100
AcDbEntity
  8
1
  6
Continuous
100
AcDbLine
 10
257.0892787326622
 20
74.47043057062534
 30
0.0
 11
254.4968147326621
 21
74.47043057062534
 31
0.0
  0
ARC
  5
59D
330
18
100
AcDbEntity
  8
1
  6
Continuous
100
AcDbCircle
 10
256.4440387326622
 20
73.97043057062536
 30
0.0
 40
0.5
100
AcDbArc
 50
90.00000000000005
 51
171.2257100000002
  0
ARC
  5
59E
330
18
100
AcDbEntity
  8
1
  6
Continuous
100
AcDbCircle
 10
257.0892787326622
 20
74.97043057062533
 30
0.0
 40
0.5
100
AcDbArc
 50
270.0
 51
0.0
  0
LINE
  5
59F
330
18
100
AcDbEntity
  8
1
  6
Continuous
100
AcDbLine
 10
257.0892787326622
 20
82.47043057062533
 30
0.0
 11
254.4968147326621
 21
82.47043057062533
 31
0.0
  0
ARC
  5
5A0
330
18
100
AcDbEntity
  8
1
  6
Continuous
100
AcDbCircle
 10
256.4440387326622
 20
82.97043057062536
 30
0.0
 40
0.5
100
AcDbArc
 50
188.7742899999997
 51
270.0
  0
ARC
  5
5A1
330
18
100
AcDbEntity
  8
1
  6
Continuous
100
AcDbCircle
 10
257.0892787326622
 20
81.97043057062534
 30
0.0
 40
0.5
100
AcDbArc
 50
0.0
 51
90.00000000000005
  0
LINE
  5
5A3
330
18
100
AcDbEntity
  8
1
  6
Continuous
100
AcDbLine
 10
257.5892787326622
 20
78.47043057062534
 30
0.0
 11
257.5892787326622
 21
81.97043057062534
 31
0.0
  0
LINE
  5
5D8
330
18
100
AcDbEntity
  8
1
  6
Continuous
100
AcDbLine
 10
380.6897895929699
 20
251.2527677581276
 30
0.0
 11
380.6897895929699
 21
223.7527677581277
 31
0.0
  0
LINE
  5
5DB
330
18
100
AcDbEntity
  8
1
  6
Continuous
100
AcDbLine
 10
388.6897895929699
 20
251.2527677581276
 30
0.0
 11
388.6897895929701
 21
223.7527677581277
 31
0.0
  0
LINE
  5
5EF
330
18
100
AcDbEntity
  8
1
  6
Continuous
100
AcDbLine
 10
369.3952553149042
 20
223.7527677581277
 30
0.0
 11
399.9843238710354
 21
223.7527677581277
 31
0.0
  0
LINE
  5
5F3
330
18
100
AcDbEntity
  8
1
  6
Continuous
100
AcDbLine
 10
384.6897895929698
 20
205.2027677581277
 30
0.0
 11
396.6897895929698
 21
205.2027677581277
 31
0.0
  0
ARC
  5
5F5
330
18
100
AcDbEntity
  8
1
  6
Continuous
100
AcDbCircle
 10
389.7615861152618
 20
253.8366417581277
 30
0.0
 40
48.49987399999999
100
AcDbArc
 50
271.0761496568311
 51
278.2127929999983
  0
LINE
  5
5F8
330
18
100
AcDbEntity
  8
1
  6
Continuous
100
AcDbLine
 10
398.6897895929698
 20
215.2027677581277
 30
0.0
 11
384.6897895929698
 21
215.2027677581277
 31
0.0
  0
LINE
  5
5FA
330
18
100
AcDbEntity
  8
1
  6
Continuous
100
AcDbLine
 10
399.9370125929699
 20
218.2027677581277
 30
0.0
 11
384.6897895929698
 21
218.2027677581277
 31
0.0
  0
ARC
  5
5FB
330
18
100
AcDbEntity
  8
1
  6
Continuous
100
AcDbCircle
 10
399.9370125929699
 20
220.2027677581277
 30
0.0
 40
2.0
100
AcDbArc
 50
270.0
 51
329.9999999999994
  0
LINE
  5
5FC
330
18
100
AcDbEntity
  8
1
  6
Continuous
100
AcDbLine
 10
398.6897895929698
 20
215.2027677581277
 30
0.0
 11
398.6897895929698
 21
218.2027677581277
 31
0.0
  0
LINE
  5
5FF
330
18
100
AcDbEntity
  8
1
  6
Continuous
100
AcDbLine
 10
402.4978219434787
 20
220.6382192873213
 30
0.0
 11
401.6690635929697
 21
219.2027677581277
 31
0.0
  0
LINE
  5
600
330
18
100
AcDbEntity
  8
1
  6
Continuous
100
AcDbLine
 10
396.6897895929698
 20
205.2027677581277
 30
0.0
 11
396.6897895929698
 21
215.2027677581277
 31
0.0
  0
ARC
  5
61E
330
18
100
AcDbEntity
  8
1
  6
Continuous
100
AcDbCircle
 10
391.6179930706779
 20
253.8366417581277
 30
0.0
 40
48.49987399999999
100
AcDbArc
 50
261.7872070000016
 51
268.9238503431688
  0
LINE
  5
61F
330
18
100
AcDbEntity
  8
1
  6
Continuous
100
AcDbLine
 10
370.6897895929698
 20
215.2027677581277
 30
0.0
 11
384.6897895929698
 21
215.2027677581277
 31
0.0
  0
LINE
  5
620
330
18
100
AcDbEntity
  8
1
  6
Continuous
100
AcDbLine
 10
369.4425665929697
 20
218.2027677581277
 30
0.0
 11
384.6897895929698
 21
218.2027677581277
 31
0.0
  0
LINE
  5
621
330
18
100
AcDbEntity
  8
1
  6
Continuous
100
AcDbLine
 10
372.6897895929699
 20
205.2027677581277
 30
0.0
 11
372.6897895929699
 21
215.2027677581277
 31
0.0
  0
LINE
  5
622
330
18
100
AcDbEntity
  8
1
  6
Continuous
100
AcDbLine
 10
370.6897895929698
 20
215.2027677581277
 30
0.0
 11
370.6897895929698
 21
218.2027677581277
 31
0.0
  0
ARC
  5
623
330
18
100
AcDbEntity
  8
1
  6
Continuous
100
AcDbCircle
 10
369.4425665929697
 20
220.2027677581277
 30
0.0
 40
2.0
100
AcDbArc
 50
210.0000000000004
 51
270.0
  0
ARC
  5
624
330
18
100
AcDbEntity
  8
1
  6
Continuous
100
AcDbCircle
 10
379.6179930706779
 20
253.8366417581277
 30
0.0
 40
48.49987399999999
100
AcDbArc
 50
261.7872070000016
 51
268.9238503431688
  0
LINE
  5
625
330
18
100
AcDbEntity
  8
1
  6
Continuous
100
AcDbLine
 10
384.6897895929698
 20
205.2027677581277
 30
0.0
 11
372.6897895929699
 21
205.2027677581277
 31
0.0
  0
ARC
  5
627
330
18
100
AcDbEntity
  8
1
  6
Continuous
100
AcDbCircle
 10
377.7615861152618
 20
253.8366417581277
 30
0.0
 40
48.49987399999999
100
AcDbArc
 50
271.0761496568311
 51
278.2127929999983
  0
LINE
  5
628
330
18
100
AcDbEntity
  8
1
  6
Continuous
100
AcDbLine
 10
366.8817572424611
 20
220.6382192873212
 30
0.0
 11
367.7105155929698
 21
219.2027677581277
 31
0.0
  0
LINE
  5
629
330
18
100
AcDbEntity
  8
1
  6
Continuous
100
AcDbLine
 10
367.6352837242244
 20
222.7027677581276
 30
0.0
 11
401.7442954617153
 21
222.7027677581276
 31
0.0
  0
LINE
  5
62B
330
18
100
AcDbEntity
  8
1
  6
Continuous
100
AcDbLine
 10
355.7761245929701
 20
247.2527677581277
 30
0.0
 11
355.7761245929701
 21
216.9151328456532
 31
0.0
  0
LINE
  5
62F
330
18
100
AcDbEntity
  8
1
  6
Continuous
100
AcDbLine
 10
359.7761245929701
 20
212.9151328456532
 30
0.0
 11
356.6897895929698
 21
212.9151328456532
 31
0.0
  0
ARC
  5
630
330
18
100
AcDbEntity
  8
1
  6
Continuous
100
AcDbCircle
 10
359.7761245929701
 20
247.2527677581277
 30
0.0
 40
4.0
100
AcDbArc
 50
90.0
 51
180.0
  0
ARC
  5
631
330
18
100
AcDbEntity
  8
1
  6
Continuous
100
AcDbCircle
 10
359.7761245929702
 20
216.9151328456532
 30
0.0
 40
4.000000000000055
100
AcDbArc
 50
180.0000000000007
 51
269.9999999999992
  0
ARC
  5
632
330
18
100
AcDbEntity
  8
1
  6
Continuous
100
AcDbCircle
 10
356.6897895929698
 20
214.9151328456532
 30
0.0
 40
2.0
100
AcDbArc
 50
180.0
 51
270.0
  0
ARC
  5
635
330
18
100
AcDbEntity
  8
1
  6
Continuous
100
AcDbCircle
 10
367.8897895929702
 20
211.4660136432973
 30
0.0
 40
4.0
100
AcDbArc
 50
160.5824251494034
 51
180.0
  0
CIRCLE
  5
65B
330
18
100
AcDbEntity
  8
1
  6
Continuous
100
AcDbCircle
 10
227.289278732662
 20
78.47043057062534
 30
0.0
 40
8.0
  0
CIRCLE
  5
65D
330
18
100
AcDbEntity
  8
1
  6
Continuous
100
AcDbCircle
 10
227.289278732662
 20
78.47043057062534
 30
0.0
 40
11.5
  0
LINE
  5
65E
330
18
100
AcDbEntity
  8
1
  6
Continuous
100
AcDbLine
 10
234.2174817326622
 20
90.47043057062536
 30
0.0
 11
241.145685732662
 21
78.47043057062534
 31
0.0
  0
LINE
  5
65F
330
18
100
AcDbEntity
  8
1
  6
Continuous
100
AcDbLine
 10
234.217481732662
 20
66.47043057062536
 30
0.0
 11
241.145685732662
 21
78.47043057062534
 31
0.0
  0
LINE
  5
660
330
18
100
AcDbEntity
  8
1
  6
Continuous
100
AcDbLine
 10
234.2174817326622
 20
66.47043057062536
 30
0.0
 11
220.3610757326621
 21
66.47043057062536
 31
0.0
  0
LINE
  5
661
330
18
100
AcDbEntity
  8
1
  6
Continuous
100
AcDbLine
 10
227.289278732662
 20
75.00632957062531
 30
0.0
 11
224.289278732662
 21
76.73837957062527
 31
0.0
  0
LINE
  5
662
330
18
100
AcDbEntity
  8
1
  6
Continuous
100
AcDbLine
 10
227.289278732662
 20
81.93453257062527
 30
0.0
 11
224.289278732662
 21
80.20248157062525
 31
0.0
  0
CIRCLE
  5
663
330
18
100
AcDbEntity
  8
1
  6
Continuous
100
AcDbCircle
 10
227.289278732662
 20
78.47043057062534
 30
0.0
 40
1.199999999999999
  0
LINE
  5
664
330
18
100
AcDbEntity
  8
1
  6
Continuous
100
AcDbLine
 10
230.289278732662
 20
80.20248157062537
 30
0.0
 11
227.289278732662
 21
81.93453257062538
 31
0.0
  0
LINE
  5
665
330
18
100
AcDbEntity
  8
1
  6
Continuous
100
AcDbLine
 10
230.289278732662
 20
76.73837957062534
 30
0.0
 11
230.289278732662
 21
80.2024815706253
 31
0.0
  0
LINE
  5
666
330
18
100
AcDbEntity
  8
1
  6
Continuous
100
AcDbLine
 10
230.289278732662
 20
76.73837957062534
 30
0.0
 11
227.289278732662
 21
75.00632957062531
 31
0.0
  0
LINE
  5
667
330
18
100
AcDbEntity
  8
1
  6
Continuous
100
AcDbLine
 10
224.289278732662
 20
76.73837957062534
 30
0.0
 11
224.289278732662
 21
80.2024815706253
 31
0.0
  0
LINE
  5
668
330
18
100
AcDbEntity
  8
1
  6
Continuous
100
AcDbLine
 10
220.3610757326621
 20
90.47043057062536
 30
0.0
 11
234.2174817326622
 21
90.47043057062536
 31
0.0
  0
CIRCLE
  5
669
330
18
100
AcDbEntity
  8
1
  6
Continuous
100
AcDbCircle
 10
227.289278732662
 20
78.47043057062534
 30
0.0
 40
14.0
  0
LINE
  5
66A
330
18
100
AcDbEntity
  8
1
  6
Continuous
100
AcDbLine
 10
220.3610757326621
 20
90.47043057062536
 30
0.0
 11
213.4328727326619
 21
78.47043057062534
 31
0.0
  0
LINE
  5
66B
330
18
100
AcDbEntity
  8
1
  6
Continuous
100
AcDbLine
 10
220.3610757326621
 20
66.47043057062536
 30
0.0
 11
213.4328727326622
 21
78.47043057062534
 31
0.0
  0
CIRCLE
  5
66C
330
18
100
AcDbEntity
  8
1
  6
Continuous
100
AcDbCircle
 10
227.289278732662
 20
78.47043057062534
 30
0.0
 40
19.0
  0
ARC
  5
66F
330
18
100
AcDbEntity
  8
1
  6
Continuous
100
AcDbCircle
 10
227.289278732662
 20
78.47043057062534
 30
0.0
 40
16.40192371428577
100
AcDbArc
 50
27.85249097569569
 51
64.5569132649813
  0
ARC
  5
683
330
18
100
AcDbEntity
  8
1
  6
Continuous
100
AcDbCircle
 10
399.8207163015145
 20
217.7208034470928
 30
0.0
 40
6.034182702438211
100
AcDbArc
 50
60.77973091936524
 51
88.44632278993243
  0
ARC
  5
684
330
18
100
AcDbEntity
  8
1
  6
Continuous
100
AcDbCircle
 10
399.9843238710354
 20
221.7527677581277
 30
0.0
 40
2.0
100
AcDbArc
 50
19.41757485059677
 51
90.0
  0
LINE
  5
685
330
18
100
AcDbEntity
  8
1
  6
Continuous
100
AcDbLine
 10
405.262272500168
 20
212.79581540104
 30
0.0
 11
401.8705653246347
 21
222.4176686369991
 31
0.0
  0
LINE
  5
686
330
18
100
AcDbEntity
  8
1
  6
Continuous
100
AcDbLine
 10
410.7902738521955
 20
215.8611144515968
 30
0.0
 11
402.7664138304853
 21
222.9871329994679
 31
0.0
  0
ARC
  5
687
330
18
100
AcDbEntity
  8
1
  6
Continuous
100
AcDbCircle
 10
401.4897895929696
 20
211.4660136432973
 30
0.0
 40
4.0
100
AcDbArc
 50
0.000000000000007
 51
19.41757485059659
  0
LINE
  5
688
330
18
100
AcDbEntity
  8
1
  6
Continuous
100
AcDbLine
 10
405.4897895929696
 20
186.2527677581278
 30
0.0
 11
405.4897895929696
 21
211.4660136432973
 31
0.0
  0
ARC
  5
689
330
18
100
AcDbEntity
  8
1
  6
Continuous
100
AcDbCircle
 10
409.6034545929693
 20
216.9151328456532
 30
0.0
 40
4.000000000000055
100
AcDbArc
 50
270.0000000000008
 51
359.9999999999992
  0
LINE
  5
68A
330
18
100
AcDbEntity
  8
1
  6
Continuous
100
AcDbLine
 10
409.6034545929695
 20
212.9151328456532
 30
0.0
 11
412.6897895929698
 21
212.9151328456532
 31
0.0
  0
ARC
  5
68B
330
18
100
AcDbEntity
  8
1
  6
Continuous
100
AcDbCircle
 10
412.6897895929698
 20
214.9151328456532
 30
0.0
 40
2.0
100
AcDbArc
 50
270.0
 51
0.000000000000007
  0
LINE
  5
68C
330
18
100
AcDbEntity
  8
1
  6
Continuous
100
AcDbLine
 10
413.6034545929695
 20
247.2527677581277
 30
0.0
 11
413.6034545929694
 21
216.9151328456532
 31
0.0
  0
ARC
  5
68D
330
18
100
AcDbEntity
  8
1
  6
Continuous
100
AcDbCircle
 10
409.6034545929695
 20
247.2527677581277
 30
0.0
 40
4.0
100
AcDbArc
 50
0.000000000000007
 51
90.0
  0
ARC
  5
690
330
18
100
AcDbEntity
  8
1
  6
Continuous
100
AcDbCircle
 10
227.289278732662
 20
78.47043057062534
 30
0.0
 40
16.40192371428577
100
AcDbArc
 50
115.4430867350187
 51
152.1475090243043
  0
ARC
  5
691
330
18
100
AcDbEntity
  8
1
  6
Continuous
100
AcDbCircle
 10
227.289278732662
 20
78.47043057062534
 30
0.0
 40
16.40192371428577
100
AcDbArc
 50
207.8524909756956
 51
244.5569132649813
  0
ARC
  5
692
330
18
100
AcDbEntity
  8
1
  6
Continuous
100
AcDbCircle
 10
227.289278732662
 20
78.47043057062534
 30
0.0
 40
16.40192371428577
100
AcDbArc
 50
295.4430867350187
 51
332.1475090243043
  0
LINE
  5
693
330
18
100
AcDbEntity
  8
1
  6
Continuous
100
AcDbLine
 10
600.5182594532775
 20
210.3412977581277
 30
0.0
 11
573.6973884532775
 21
247.9017517581277
 31
0.0
  0
ARC
  5
694
330
18
100
AcDbEntity
  8
1
  6
Continuous
100
AcDbCircle
 10
587.0903004532777
 20
200.7527677581277
 30
0.0
 40
25.0
100
AcDbArc
 50
187.9433660000003
 51
84.22969799999844
  0
ARC
  5
695
330
18
100
AcDbEntity
  8
1
  6
Continuous
100
AcDbCircle
 10
587.0903004532777
 20
200.7527677581277
 30
0.0
 40
16.5
100
AcDbArc
 50
236.6434930000007
 51
35.52957099999876
  0
CIRCLE
  5
696
330
18
100
AcDbEntity
  8
1
  6
Continuous
100
AcDbCircle
 10
587.0903004532777
 20
200.7527677581277
 30
0.0
 40
9.0
  0
CIRCLE
  5
697
330
18
100
AcDbEntity
  8
1
  6
Continuous
100
AcDbCircle
 10
587.0903004532777
 20
200.7527677581277
 30
0.0
 40
8.5
  0
LINE
  5
69A
330
18
100
AcDbEntity
  8
4
  6
CENTER
100
AcDbLine
 10
587.0903004532777
 20
172.7527677581278
 30
0.0
 11
587.0903004532777
 21
228.7527677581278
 31
0.0
  0
LINE
  5
6BB
330
18
100
AcDbEntity
  8
1
  6
Continuous
100
AcDbLine
 10
569.5903004532778
 20
260.7527677581277
 30
0.0
 11
569.5903004532778
 21
252.7527677581277
 31
0.0
  0
LINE
  5
6BC
330
18
100
AcDbEntity
  8
1
  6
Continuous
100
AcDbLine
 10
568.7659544532776
 20
260.7527677581277
 30
0.0
 11
568.7659544532776
 21
252.7527677581277
 31
0.0
  0
ARC
  5
6BD
330
18
100
AcDbEntity
  8
1
  6
Continuous
100
AcDbCircle
 10
567.1868624532776
 20
243.2527677581277
 30
0.0
 40
8.0
100
AcDbArc
 50
35.52957099999876
 51
90.0
  0
ARC
  5
6BE
330
18
100
AcDbEntity
  8
1
  6
Continuous
100
AcDbCircle
 10
569.0903004532778
 20
249.2527677581277
 30
0.0
 40
2.0
100
AcDbArc
 50
36.42560999999829
 51
90.0
  0
LINE
  5
6BF
330
18
100
AcDbEntity
  8
1
  6
Continuous
100
AcDbLine
 10
563.0903004532775
 20
251.2527677581277
 30
0.0
 11
563.0903004532775
 21
252.1527677581277
 31
0.0
  0
ARC
  5
6C0
330
18
100
AcDbEntity
  8
1
  6
Continuous
100
AcDbCircle
 10
562.4903004532776
 20
252.1527677581277
 30
0.0
 40
0.6
100
AcDbArc
 50
0.000000000000007
 51
90.0
  0
LINE
  5
6C1
330
18
100
AcDbEntity
  8
1
  6
Continuous
100
AcDbLine
 10
535.0903004532775
 20
215.7685797581276
 30
0.0
 11
535.0903004532775
 21
250.2527677581277
 31
0.0
  0
LINE
  5
6C2
330
18
100
AcDbEntity
  8
1
  6
Continuous
100
AcDbLine
 10
513.3675004532777
 20
247.2527677581277
 30
0.0
 11
513.3675004532777
 21
227.7527677581277
 31
0.0
  0
LINE
  5
6C3
330
18
100
AcDbEntity
  8
1
  6
Continuous
100
AcDbLine
 10
511.7903004532775
 20
247.2527677581277
 30
0.0
 11
511.7903004532775
 21
227.7527677581277
 31
0.0
  0
LINE
  5
6C4
330
18
100
AcDbEntity
  8
4
  6
CENTER
100
AcDbLine
 10
542.0903004532775
 20
199.0893574481045
 30
0.0
 11
542.0903004532775
 21
313.1062107581276
 31
0.0
  0
LINE
  5
6C9
330
18
100
AcDbEntity
  8
4
  6
CENTER
100
AcDbLine
 10
559.0903004532775
 20
200.7527677581277
 30
0.0
 11
615.0903004532778
 21
200.7527677581277
 31
0.0
  0
LINE
  5
6CA
330
18
100
AcDbEntity
  8
1
  6
Continuous
100
AcDbLine
 10
515.7903004532775
 20
223.7527677581277
 30
0.0
 11
520.9445294532777
 21
223.7527677581277
 31
0.0
  0
LINE
  5
6CC
330
18
100
AcDbEntity
  8
1
  6
Continuous
100
AcDbLine
 10
578.0178274532775
 20
186.9708877581278
 30
0.0
 11
523.1439164532774
 21
223.0938297581277
 31
0.0
  0
ARC
  5
6CD
330
18
100
AcDbEntity
  8
1
  6
Continuous
100
AcDbCircle
 10
542.0903004532775
 20
253.8366417581277
 30
0.0
 40
48.49987399999999
100
AcDbArc
 50
270.0
 51
278.4184690000028
  0
LINE
  5
6D7
330
18
100
AcDbEntity
  8
1
  6
Continuous
100
AcDbLine
 10
542.0903004532775
 20
205.2027677581277
 30
0.0
 11
550.1928214532775
 21
205.2027677581277
 31
0.0
  0
LINE
  5
6FB
330
18
100
AcDbEntity
  8
1
  6
Continuous
100
AcDbLine
 10
523.0903004532775
 20
222.7027677581276
 30
0.0
 11
525.1110264532775
 21
219.2027677581277
 31
0.0
  0
LINE
  5
6FC
330
18
100
AcDbEntity
  8
1
  6
Continuous
100
AcDbLine
 10
528.0903004532777
 20
215.2027677581277
 30
0.0
 11
534.9311284532775
 21
215.2027677581277
 31
0.0
  0
ARC
  5
6FD
330
18
100
AcDbEntity
  8
1
  6
Continuous
100
AcDbCircle
 10
531.6979954532776
 20
217.6482607581277
 30
0.0
 40
12.31149199999999
100
AcDbArc
 50
256.3420699999972
 51
286.3420699999983
  0
LINE
  5
6FE
330
18
100
AcDbEntity
  8
1
  6
Continuous
100
AcDbLine
 10
542.0903004532775
 20
205.2027677581277
 30
0.0
 11
530.5903004532775
 21
205.2027677581277
 31
0.0
  0
LINE
  5
6FF
330
18
100
AcDbEntity
  8
1
  6
Continuous
100
AcDbLine
 10
535.1620974532774
 20
205.8341647581277
 30
0.0
 11
535.1620974532774
 21
214.8014287581276
 31
0.0
  0
ARC
  5
700
330
18
100
AcDbEntity
  8
1
  6
Continuous
100
AcDbCircle
 10
542.0903004532775
 20
253.8366417581277
 30
0.0
 40
48.49987399999999
100
AcDbArc
 50
261.7872070000016
 51
270.0
  0
ARC
  5
701
330
18
100
AcDbEntity
  8
1
  6
Continuous
100
AcDbCircle
 10
536.0903004532777
 20
215.7685797581276
 30
0.0
 40
1.0
100
AcDbArc
 50
180.0
 51
236.6434930000007
  0
LINE
  5
702
330
18
100
AcDbEntity
  8
1
  6
Continuous
100
AcDbLine
 10
528.2338934532775
 20
205.8341647581277
 30
0.0
 11
528.2338934532775
 21
215.2027677581277
 31
0.0
  0
LINE
  5
703
330
18
100
AcDbEntity
  8
1
  6
Continuous
100
AcDbLine
 10
530.5903004532775
 20
205.2027677581277
 30
0.0
 11
528.2338934532775
 21
205.8341647581277
 31
0.0
  0
ARC
  5
704
330
18
100
AcDbEntity
  8
1
  6
Continuous
100
AcDbCircle
 10
526.8430774532776
 20
220.2027677581277
 30
0.0
 40
2.0
100
AcDbArc
 50
210.0000000000004
 51
270.0
  0
LINE
  5
705
330
18
100
AcDbEntity
  8
1
  6
Continuous
100
AcDbLine
 10
528.0903004532777
 20
215.2027677581277
 30
0.0
 11
528.0903004532777
 21
218.2027677581277
 31
0.0
  0
LINE
  5
706
330
18
100
AcDbEntity
  8
1
  6
Continuous
100
AcDbLine
 10
526.8430774532776
 20
218.2027677581277
 30
0.0
 11
530.3526204532775
 21
218.2027677581277
 31
0.0
  0
LINE
  5
70B
330
18
100
AcDbEntity
  8
1
  6
Continuous
100
AcDbLine
 10
523.0903004532775
 20
222.7027677581276
 30
0.0
 11
523.7379734532776
 21
222.7027677581276
 31
0.0
  0
ARC
  5
70C
330
18
100
AcDbEntity
  8
1
  6
Continuous
100
AcDbCircle
 10
520.9445294532777
 20
219.7527677581277
 30
0.0
 40
4.0
100
AcDbArc
 50
56.6434930000007
 51
90.0
  0
ARC
  5
70D
330
18
100
AcDbEntity
  8
1
  6
Continuous
100
AcDbCircle
 10
517.3675004532777
 20
227.7527677581277
 30
0.0
 40
4.0
100
AcDbArc
 50
180.0
 51
270.0
  0
ARC
  5
70E
330
18
100
AcDbEntity
  8
1
  6
Continuous
100
AcDbCircle
 10
515.7903004532775
 20
227.7527677581277
 30
0.0
 40
4.0
100
AcDbArc
 50
180.0
 51
270.0
  0
LINE
  5
70F
330
18
100
AcDbEntity
  8
1
  6
Continuous
100
AcDbLine
 10
514.5903004532775
 20
260.7527677581277
 30
0.0
 11
542.0903004532775
 21
260.7527677581277
 31
0.0
  0
LINE
  5
710
330
18
100
AcDbEntity
  8
1
  6
Continuous
100
AcDbLine
 10
514.5903004532775
 20
252.7527677581277
 30
0.0
 11
542.0903004532775
 21
252.7527677581277
 31
0.0
  0
LINE
  5
711
330
18
100
AcDbEntity
  8
1
  6
Continuous
100
AcDbLine
 10
515.7903004532775
 20
251.2527677581277
 30
0.0
 11
569.0903004532778
 21
251.2527677581277
 31
0.0
  0
LINE
  5
712
330
18
100
AcDbEntity
  8
2
  6
Continuous
100
AcDbLine
 10
533.4433004532775
 20
263.4093027581281
 30
0.0
 11
533.4433004532778
 21
309.605767758128
 31
0.0
  0
LINE
  5
713
330
18
100
AcDbEntity
  8
1
  6
Continuous
100
AcDbLine
 10
532.0903004532777
 20
268.5982267581277
 30
0.0
 11
532.0903004532777
 21
308.2527677581277
 31
0.0
  0
LINE
  5
714
330
18
100
AcDbEntity
  8
2
  6
Continuous
100
AcDbLine
 10
550.7373004532776
 20
263.4093027581275
 30
0.0
 11
550.7373004532776
 21
309.6057677581276
 31
0.0
  0
LINE
  5
715
330
18
100
AcDbEntity
  8
1
  6
Continuous
100
AcDbLine
 10
552.0903004532775
 20
265.7527677581277
 30
0.0
 11
552.0903004532775
 21
308.2527677581277
 31
0.0
  0
LINE
  5
716
330
18
100
AcDbEntity
  8
1
  6
Continuous
100
AcDbLine
 10
569.5903004532778
 20
260.7527677581277
 30
0.0
 11
542.0903004532775
 21
260.7527677581277
 31
0.0
  0
LINE
  5
717
330
18
100
AcDbEntity
  8
1
  6
Continuous
100
AcDbLine
 10
569.5903004532778
 20
252.7527677581277
 30
0.0
 11
542.0903004532775
 21
252.7527677581277
 31
0.0
  0
LINE
  5
718
330
18
100
AcDbEntity
  8
1
  6
Continuous
100
AcDbLine
 10
532.0903004532777
 20
265.7527677581277
 30
0.0
 11
552.0903004532775
 21
265.7527677581277
 31
0.0
  0
LINE
  5
719
330
18
100
AcDbEntity
  8
1
  6
Continuous
100
AcDbLine
 10
550.7373004532776
 20
263.4093027581275
 30
0.0
 11
552.0903004532775
 21
265.7527677581277
 31
0.0
  0
LINE
  5
71A
330
18
100
AcDbEntity
  8
1
  6
Continuous
100
AcDbLine
 10
549.6406734532777
 20
260.7527677581277
 30
0.0
 11
549.6406734532777
 21
252.7527677581277
 31
0.0
  0
LINE
  5
71B
330
18
100
AcDbEntity
  8
1
  6
Continuous
100
AcDbLine
 10
561.2155804532775
 20
260.7527677581277
 30
0.0
 11
561.2155804532775
 21
252.7527677581277
 31
0.0
  0
LINE
  5
71C
330
18
100
AcDbEntity
  8
1
  6
Continuous
100
AcDbLine
 10
550.7373004532776
 20
260.7527677581277
 30
0.0
 11
550.7373004532776
 21
263.4093027581277
 31
0.0
  0
LINE
  5
71D
330
18
100
AcDbEntity
  8
1
  6
Continuous
100
AcDbLine
 10
533.4433004532776
 20
263.4093027581277
 30
0.0
 11
532.0903004532777
 21
265.7527677581277
 31
0.0
  0
LINE
  5
71E
330
18
100
AcDbEntity
  8
1
  6
Continuous
100
AcDbLine
 10
534.5399274532776
 20
260.7527677581277
 30
0.0
 11
534.5399274532776
 21
252.7527677581277
 31
0.0
  0
ARC
  5
71F
330
18
100
AcDbEntity
  8
1
  6
Continuous
100
AcDbCircle
 10
536.0903004532777
 20
250.2527677581277
 30
0.0
 40
1.0
100
AcDbArc
 50
90.0
 51
180.0
  0
LINE
  5
720
330
18
100
AcDbEntity
  8
1
  6
Continuous
100
AcDbLine
 10
533.4433004532776
 20
260.7527677581277
 30
0.0
 11
533.4433004532776
 21
263.4093027581277
 31
0.0
  0
LINE
  5
721
330
18
100
AcDbEntity
  8
1
  6
Continuous
100
AcDbLine
 10
522.9650194532776
 20
260.7527677581277
 30
0.0
 11
522.9650194532776
 21
252.7527677581277
 31
0.0
  0
ARC
  5
722
330
18
100
AcDbEntity
  8
1
  6
Continuous
100
AcDbCircle
 10
521.6903004532776
 20
252.1527677581277
 30
0.0
 40
0.6
100
AcDbArc
 50
90.0
 51
180.0
  0
LINE
  5
723
330
18
100
AcDbEntity
  8
1
  6
Continuous
100
AcDbLine
 10
521.0903004532775
 20
251.2527677581277
 30
0.0
 11
521.0903004532775
 21
252.1527677581277
 31
0.0
  0
LINE
  5
724
330
18
100
AcDbEntity
  8
1
  6
Continuous
100
AcDbLine
 10
532.0903004532777
 20
265.7527677581277
 30
0.0
 11
532.0903004532777
 21
268.5982267581277
 31
0.0
  0
LINE
  5
725
330
18
100
AcDbEntity
  8
1
  6
Continuous
100
AcDbLine
 10
549.5903004532777
 20
310.7527677581277
 30
0.0
 11
542.0903004532775
 21
310.7527677581277
 31
0.0
  0
LINE
  5
726
330
18
100
AcDbEntity
  8
1
  6
Continuous
100
AcDbLine
 10
552.0903004532775
 20
308.2527677581277
 30
0.0
 11
542.0903004532775
 21
308.2527677581277
 31
0.0
  0
LINE
  5
727
330
18
100
AcDbEntity
  8
1
  6
Continuous
100
AcDbLine
 10
552.0903004532775
 20
308.2527677581277
 30
0.0
 11
549.5903004532777
 21
310.7527677581277
 31
0.0
  0
LINE
  5
728
330
18
100
AcDbEntity
  8
1
  6
Continuous
100
AcDbLine
 10
532.0903004532773
 20
308.2527677581277
 30
0.0
 11
534.5903004532773
 21
310.7527677581277
 31
0.0
  0
LINE
  5
729
330
18
100
AcDbEntity
  8
1
  6
Continuous
100
AcDbLine
 10
532.0903004532777
 20
308.2527677581277
 30
0.0
 11
542.0903004532775
 21
308.2527677581277
 31
0.0
  0
LINE
  5
72A
330
18
100
AcDbEntity
  8
1
  6
Continuous
100
AcDbLine
 10
534.5903004532775
 20
310.7527677581277
 30
0.0
 11
542.0903004532775
 21
310.7527677581277
 31
0.0
  0
LINE
  5
72B
330
18
100
AcDbEntity
  8
1
  6
Continuous
100
AcDbLine
 10
515.4146464532775
 20
260.7527677581277
 30
0.0
 11
515.4146464532775
 21
252.7527677581277
 31
0.0
  0
LINE
  5
72C
330
18
100
AcDbEntity
  8
1
  6
Continuous
100
AcDbLine
 10
514.5903004532775
 20
260.7527677581277
 30
0.0
 11
514.5903004532775
 21
252.7527677581277
 31
0.0
  0
ARC
  5
72D
330
18
100
AcDbEntity
  8
1
  6
Continuous
100
AcDbCircle
 10
517.3675004532777
 20
247.2527677581277
 30
0.0
 40
4.0
100
AcDbArc
 50
90.0
 51
180.0
  0
ARC
  5
72E
330
18
100
AcDbEntity
  8
1
  6
Continuous
100
AcDbCircle
 10
515.7903004532775
 20
247.2527677581277
 30
0.0
 40
4.0
100
AcDbArc
 50
90.0
 51
180.0
  0
LINE
  5
732
330
18
100
AcDbEntity
  8
1
  6
Continuous
100
AcDbLine
 10
358.589305333744
 20
215.8611144515968
 30
0.0
 11
366.6131653554543
 21
222.9871329994679
 31
0.0
  0
ARC
  5
733
330
18
100
AcDbEntity
  8
1
  6
Continuous
100
AcDbCircle
 10
369.5588628844252
 20
217.7208034470928
 30
0.0
 40
6.034182702438211
100
AcDbArc
 50
91.55367721006756
 51
119.2202690806347
  0
ARC
  5
734
330
18
100
AcDbEntity
  8
1
  6
Continuous
100
AcDbCircle
 10
369.3952553149042
 20
221.7527677581277
 30
0.0
 40
2.0
100
AcDbArc
 50
90.0
 51
160.5824251494031
  0
ARC
  5
737
330
18
100
AcDbEntity
  8
1
  6
Continuous
100
AcDbCircle
 10
227.289278732662
 20
78.47043057062534
 30
0.0
 40
22.28542124349455
100
AcDbArc
 50
38.59115015116035
 51
61.5328732031761
  0
LINE
  5
738
330
18
100
AcDbEntity
  8
1
  6
Continuous
100
AcDbLine
 10
244.7079389714623
 20
92.37115988549362
 30
0.0
 11
244.7079389714623
 21
96.66898478869008
 31
0.0
  0
LINE
  5
73B
330
18
100
AcDbEntity
  8
1
  6
Continuous
100
AcDbLine
 10
167.789278732662
 20
57.6704305706254
 30
0.0
 11
233.1451796138335
 21
57.6704305706254
 31
0.0
  0
ARC
  5
73C
330
18
100
AcDbEntity
  8
1
  6
Continuous
100
AcDbCircle
 10
227.289278732662
 20
78.47043057062534
 30
0.0
 40
22.28542124349455
100
AcDbArc
 50
298.4671267968237
 51
321.4088498488396
  0
LINE
  5
73D
330
18
100
AcDbEntity
  8
1
  6
Continuous
100
AcDbLine
 10
244.7079389714623
 20
64.56970125575707
 30
0.0
 11
244.7079389714623
 21
60.27187635256065
 31
0.0
  0
LINE
  5
73F
330
18
100
AcDbEntity
  8
1
  6
Continuous
100
AcDbLine
 10
234.289278732662
 20
107.3840955706252
 30
0.0
 11
234.289278732662
 21
105.2662900652562
 31
0.0
  0
LINE
  5
740
330
18
100
AcDbEntity
  8
1
  6
Continuous
100
AcDbLine
 10
234.289278732662
 20
49.55676557062543
 30
0.0
 11
234.289278732662
 21
51.67457107599443
 31
0.0
  0
ARC
  5
744
330
18
100
AcDbEntity
  8
1
  6
Continuous
100
AcDbCircle
 10
82.28927873266206
 20
88.47043057062533
 30
0.0
 40
125.0
100
AcDbArc
 50
356.5041860000003
 51
2.605251000000023
  0
ARC
  5
745
330
18
100
AcDbEntity
  8
1
  6
Continuous
100
AcDbCircle
 10
203.1642137326619
 20
93.97043057062537
 30
0.0
 40
4.0
100
AcDbArc
 50
2.605251000000023
 51
89.99999999999998
  0
ARC
  5
746
330
18
100
AcDbEntity
  8
1
  6
Continuous
100
AcDbCircle
 10
205.0604067326619
 20
80.97043057062533
 30
0.0
 40
2.0
100
AcDbArc
 50
270.0
 51
356.5041860000003
  0
ARC
  5
747
330
18
100
AcDbEntity
  8
1
  6
Continuous
100
AcDbCircle
 10
205.0604067326619
 20
75.97043057062534
 30
0.0
 40
2.0
100
AcDbArc
 50
3.495813999999673
 51
89.99999999999998
  0
ARC
  5
748
330
18
100
AcDbEntity
  8
1
  6
Continuous
100
AcDbCircle
 10
82.28927873266206
 20
68.47043057062535
 30
0.0
 40
125.0
100
AcDbArc
 50
357.3947490000001
 51
3.495813999999673
  0
ARC
  5
749
330
18
100
AcDbEntity
  8
1
  6
Continuous
100
AcDbCircle
 10
203.1642137326619
 20
62.97043057062535
 30
0.0
 40
4.0
100
AcDbArc
 50
270.0
 51
357.3947490000001
  0
LINE
  5
74A
330
18
100
AcDbEntity
  8
1
  6
Continuous
100
AcDbLine
 10
194.600135732662
 20
98.94851057062531
 30
0.0
 11
197.3748237326619
 21
97.97043057062538
 31
0.0
  0
ARC
  5
74B
330
18
100
AcDbEntity
  8
1
  6
Continuous
100
AcDbCircle
 10
194.159935732662
 20
99.07043057062526
 30
0.0
 40
0.2
100
AcDbArc
 50
29.9659989999987
 51
89.99999999999998
  0
ARC
  5
74C
330
18
100
AcDbEntity
  8
1
  6
Continuous
100
AcDbCircle
 10
194.7663607326619
 20
99.42007057062529
 30
0.0
 40
0.5
100
AcDbArc
 50
209.9659989999987
 51
250.5824049999981
  0
LINE
  5
74D
330
18
100
AcDbEntity
  8
1
  6
Continuous
100
AcDbLine
 10
194.600135732662
 20
57.99235057062525
 30
0.0
 11
197.3748237326619
 21
58.97043057062536
 31
0.0
  0
ARC
  5
74E
330
18
100
AcDbEntity
  8
1
  6
Continuous
100
AcDbCircle
 10
194.159935732662
 20
57.87043057062533
 30
0.0
 40
0.2
100
AcDbArc
 50
270.0
 51
330.0340010000013
  0
ARC
  5
74F
330
18
100
AcDbEntity
  8
1
  6
Continuous
100
AcDbCircle
 10
194.7663607326619
 20
57.52079057062529
 30
0.0
 40
0.5
100
AcDbArc
 50
109.4175950000018
 51
150.0340010000013
  0
CIRCLE
  5
750
330
18
100
AcDbEntity
  8
1
  6
Continuous
100
AcDbCircle
 10
182.289278732662
 20
200.7527677581277
 30
0.0
 40
4.0
  0
LINE
  5
751
330
18
100
AcDbEntity
  8
1
  6
Continuous
100
AcDbLine
 10
587.0903004532777
 20
204.2168697581277
 30
0.0
 11
584.0903004532775
 21
202.4848187581277
 31
0.0
  0
LINE
  5
752
330
18
100
AcDbEntity
  8
1
  6
Continuous
100
AcDbLine
 10
584.0903004532775
 20
199.0207167581276
 30
0.0
 11
584.0903004532775
 21
202.4848187581277
 31
0.0
  0
LINE
  5
753
330
18
100
AcDbEntity
  8
1
  6
Continuous
100
AcDbLine
 10
587.0903004532777
 20
197.2886657581277
 30
0.0
 11
584.0903004532775
 21
199.0207167581276
 31
0.0
  0
LINE
  5
754
330
18
100
AcDbEntity
  8
1
  6
Continuous
100
AcDbLine
 10
590.0903004532778
 20
199.0207167581276
 30
0.0
 11
587.0903004532777
 21
197.2886657581277
 31
0.0
  0
LINE
  5
755
330
18
100
AcDbEntity
  8
1
  6
Continuous
100
AcDbLine
 10
590.0903004532778
 20
199.0207167581276
 30
0.0
 11
590.0903004532778
 21
202.4848187581277
 31
0.0
  0
LINE
  5
756
330
18
100
AcDbEntity
  8
1
  6
Continuous
100
AcDbLine
 10
590.0903004532778
 20
202.4848187581277
 30
0.0
 11
587.0903004532777
 21
204.2168697581277
 31
0.0
  0
LINE
  5
971
330
18
100
AcDbEntity
  8
2
  6
Continuous
100
AcDbLine
 10
376.0427895929697
 20
263.4093027581281
 30
0.0
 11
376.0427895929701
 21
309.605767758128
 31
0.0
  0
LINE
  5
972
330
18
100
AcDbEntity
  8
2
  6
Continuous
100
AcDbLine
 10
393.3367895929699
 20
263.4093027581275
 30
0.0
 11
393.3367895929698
 21
309.6057677581276
 31
0.0
  0
LINE
  5
98B
330
18
100
AcDbEntity
  8
2
  6
Continuous
100
AcDbLine
 10
235.9362787326621
 20
263.4093027581275
 30
0.0
 11
235.936278732662
 21
309.6057677581276
 31
0.0
  0
LINE
  5
98C
330
18
100
AcDbEntity
  8
2
  6
Continuous
100
AcDbLine
 10
218.6422787326619
 20
263.4093027581281
 30
0.0
 11
218.6422787326622
 21
309.605767758128
 31
0.0
  0
LINE
  5
9A4
330
18
100
AcDbEntity
  8
2
  6
Continuous
100
AcDbLine
 10
41.02865763493059
 20
263.4093027581281
 30
0.0
 11
41.02865763493094
 21
309.605767758128
 31
0.0
  0
LINE
  5
9A5
330
18
100
AcDbEntity
  8
2
  6
Continuous
100
AcDbLine
 10
58.32265763493079
 20
263.4093027581275
 30
0.0
 11
58.32265763493069
 21
309.6057677581276
 31
0.0
  0
ARC
  5
9CA
330
18
100
AcDbEntity
  8
1
  6
Continuous
100
AcDbCircle
 10
233.1451796138335
 20
89.27043057062531
 30
0.0
 40
10.0
100
AcDbArc
 50
61.5328732031761
 51
90.0
  0
ARC
  5
9CB
330
18
100
AcDbEntity
  8
1
  6
Continuous
100
AcDbCircle
 10
233.1451796138335
 20
67.6704305706254
 30
0.0
 40
10.0
100
AcDbArc
 50
269.9999999999998
 51
298.4671267968237
  0
CIRCLE
  5
9EA
330
18
100
AcDbEntity
  8
2
  6
Continuous
100
AcDbCircle
 10
227.289278732662
 20
395.3472419515882
 30
0.0
 40
8.647
  0
LINE
  5
B16
330
18
100
AcDbEntity
  8
1
  6
Continuous
100
AcDbLine
 10
384.6897895929699
 20
205.8341650034086
 30
0.0
 11
384.6897895929698
 21
215.2027677581277
 31
0.0
  0
ENDSEC
  0
SECTION
  2
OBJECTS
  0
DICTIONARY
  5
C
330
0
100
AcDbDictionary
281
     1
  3
ACAD_CIP_PREVIOUS_PRODUCT_INFO
350
B84
  3
ACAD_COLOR
350
B67
  3
ACAD_DETAILVIEWSTYLE
350
B80
  3
ACAD_GROUP
350
D
  3
ACAD_LAYOUT
350
94
  3
ACAD_MATERIAL
350
B35
  3
ACAD_MLEADERSTYLE
350
B7C
  3
ACAD_MLINESTYLE
350
1B
  3
ACAD_PLOTSETTINGS
350
95
  3
ACAD_PLOTSTYLENAME
350
B33
  3
ACAD_SCALELIST
350
B6A
  3
ACAD_SECTIONVIEWSTYLE
350
B7E
  3
ACAD_TABLESTYLE
350
B68
  3
ACAD_VISUALSTYLE
350
B4E
  3
ACDB_RECOMPOSE_DATA
350
BA2
  3
AcDbVariableDictionary
350
B95
  3
CONTENTDICTIONARY
350
3D
  3
DWGPROPS
350
BA3
  0
DICTIONARY
  5
B85
330
E
100
AcDbDictionary
280
     1
281
     1
  3
ADSK_XREC_LAYER_RECONCILED
360
B86
  0
DICTIONARY
  5
B87
330
4E
100
AcDbDictionary
280
     1
281
     1
  3
ADSK_XREC_LAYER_RECONCILED
360
B88
  0
DICTIONARY
  5
B89
330
4F
100
AcDbDictionary
280
     1
281
     1
  3
ADSK_XREC_LAYER_RECONCILED
360
B8A
  0
DICTIONARY
  5
B8B
330
50
100
AcDbDictionary
280
     1
281
     1
  3
ADSK_XREC_LAYER_RECONCILED
360
B8C
  0
DICTIONARY
  5
B8D
330
51
100
AcDbDictionary
280
     1
281
     1
  3
ADSK_XREC_LAYER_RECONCILED
360
B8E
  0
DICTIONARY
  5
B8F
330
52
100
AcDbDictionary
280
     1
281
     1
  3
ADSK_XREC_LAYER_RECONCILED
360
B90
  0
DICTIONARY
  5
B91
330
53
100
AcDbDictionary
280
     1
281
     1
  3
ADSK_XREC_LAYER_RECONCILED
360
B92
  0
DICTIONARY
  5
B93
330
54
100
AcDbDictionary
280
     1
281
     1
  3
ADSK_XREC_LAYER_RECONCILED
360
B94
  0
DICTIONARY
  5
B2E
330
18
100
AcDbDictionary
281
     1
  3
ACAD_LAYOUTSELFREF
350
B2F
  0
DICTIONARY
  5
B2C
330
15
100
AcDbDictionary
281
     1
  3
ACAD_LAYOUTSELFREF
350
B2D
  0
XRECORD
  5
B84
102
{ACAD_REACTORS
330
C
102
}
330
C
100
AcDbXrecord
280
     1
300
ACDLT
300
2014
300
ACDLT_F_S
  0
DICTIONARY
  5
B67
102
{ACAD_REACTORS
330
C
102
}
330
C
100
AcDbDictionary
281
     1
  0
DICTIONARY
  5
B80
102
{ACAD_REACTORS
330
C
102
}
330
C
100
AcDbDictionary
281
     1
  3
Imperial24
350
B81
  0
DICTIONARY
  5
D
102
{ACAD_REACTORS
330
C
102
}
330
C
100
AcDbDictionary
281
     1
  0
DICTIONARY
  5
94
102
{ACAD_REACTORS
330
C
102
}
330
C
100
AcDbDictionary
281
     1
  3
Model
350
B82
  3
レイアウト1
350
B83
  0
DICTIONARY
  5
B35
102
{ACAD_REACTORS
330
C
102
}
330
C
100
AcDbDictionary
281
     1
  3
ByBlock
350
B3E
  3
ByLayer
350
B36
  3
Global
350
B46
  0
DICTIONARY
  5
B7C
102
{ACAD_REACTORS
330
C
102
}
330
C
100
AcDbDictionary
281
     1
  3
Standard
350
B7D
  0
DICTIONARY
  5
1B
102
{ACAD_REACTORS
330
C
102
}
330
C
100
AcDbDictionary
281
     1
  3
STANDARD
350
1C
  0
DICTIONARY
  5
95
102
{ACAD_REACTORS
330
C
102
}
330
C
100
AcDbDictionary
281
     1
  0
ACDBDICTIONARYWDFLT
  5
B33
102
{ACAD_REACTORS
330
C
102
}
330
C
100
AcDbDictionary
281
     1
  3
Normal
350
B34
100
AcDbDictionaryWithDefault
340
B34
  0
DICTIONARY
  5
B6A
102
{ACAD_REACTORS
330
C
102
}
330
C
100
AcDbDictionary
281
     1
  3
A0
350
B6B
  3
A1
350
B6C
  3
A2
350
B6D
  3
A3
350
B6E
  3
A4
350
B6F
  3
A5
350
B70
  3
A6
350
B71
  3
A7
350
B72
  3
A8
350
B73
  3
A9
350
B74
  3
B0
350
B75
  3
B1
350
B76
  3
B2
350
B77
  3
B3
350
B78
  3
B4
350
B79
  3
B5
350
B7A
  3
B6
350
B7B
  0
DICTIONARY
  5
B7E
102
{ACAD_REACTORS
330
C
102
}
330
C
100
AcDbDictionary
281
     1
  3
Imperial24
350
B7F
  0
DICTIONARY
  5
B68
102
{ACAD_REACTORS
330
C
102
}
330
C
100
AcDbDictionary
281
     1
  3
Standard
350
B69
  0
DICTIONARY
  5
B4E
102
{ACAD_REACTORS
330
C
102
}
330
C
100
AcDbDictionary
281
     1
  3
2dWireframe
350
B54
  3
Basic
350
B53
  3
Brighten
350
B5A
  3
ColorChange
350
B5E
  3
Conceptual
350
B57
  3
Dim
350
B59
  3
EdgeColorOff
350
B66
  3
Facepattern
350
B5D
  3
Flat
350
B4F
  3
FlatWithEdges
350
B50
  3
Gouraud
350
B51
  3
GouraudWithEdges
350
B52
  3
Hidden
350
B56
  3
JitterOff
350
B64
  3
Linepattern
350
B5C
  3
OverhangOff
350
B65
  3
Realistic
350
B58
  3
Shaded
350
B63
  3
Shaded with edges
350
B62
  3
Shades of Gray
350
B5F
  3
Sketchy
350
B60
  3
Thicken
350
B5B
  3
Wireframe
350
B55
  3
X-Ray
350
B61
  0
XRECORD
  5
BA2
102
{ACAD_REACTORS
330
C
102
}
330
C
100
AcDbXrecord
280
     1
 90
        1
330
B69
  0
DICTIONARY
  5
B95
102
{ACAD_REACTORS
330
C
102
}
330
C
100
AcDbDictionary
281
     1
  3
CANNOSCALE
350
B9A
  3
CMLEADERSTYLE
350
B97
  3
CTABLESTYLE
350
B96
  3
CVIEWDETAILSTYLE
350
B98
  3
CVIEWSECTIONSTYLE
350
B99
  3
DIMASSOC
350
B9D
  3
INDEXCTL
350
B9C
  3
SORTENTS
350
B9B
  3
XCLIPFRAME
350
B9E
  0
DICTIONARY
  5
3D
102
{ACAD_REACTORS
330
C
102
}
330
C
100
AcDbDictionary
281
     1
  0
XRECORD
  5
BA3
102
{ACAD_REACTORS
330
C
102
}
330
C
100
AcDbXrecord
280
     1
  1
DWGPROPS COOKIE
  2

  3

  4

  6

  7

  8
Yoshitsune
  9

300
=
301
=
302
=
303
=
304
=
305
=
306
=
307
=
308
=
309
=
 40
0.3214649768518518
 41
2452961.567088033
 42
2457192.687931285
  1

 90
        0
  0
XRECORD
  5
B86
102
{ACAD_REACTORS
330
B85
102
}
330
B85
100
AcDbXrecord
280
     1
290
     1
  0
XRECORD
  5
B88
102
{ACAD_REACTORS
330
B87
102
}
330
B87
100
AcDbXrecord
280
     1
290
     1
  0
XRECORD
  5
B8A
102
{ACAD_REACTORS
330
B89
102
}
330
B89
100
AcDbXrecord
280
     1
290
     1
  0
XRECORD
  5
B8C
102
{ACAD_REACTORS
330
B8B
102
}
330
B8B
100
AcDbXrecord
280
     1
290
     1
  0
XRECORD
  5
B8E
102
{ACAD_REACTORS
330
B8D
102
}
330
B8D
100
AcDbXrecord
280
     1
290
     1
  0
XRECORD
  5
B90
102
{ACAD_REACTORS
330
B8F
102
}
330
B8F
100
AcDbXrecord
280
     1
290
     1
  0
XRECORD
  5
B92
102
{ACAD_REACTORS
330
B91
102
}
330
B91
100
AcDbXrecord
280
     1
290
     1
  0
XRECORD
  5
B94
102
{ACAD_REACTORS
330
B93
102
}
330
B93
100
AcDbXrecord
280
     1
290
     1
  0
XRECORD
  5
B2F
102
{ACAD_REACTORS
330
B2E
102
}
330
B2E
100
AcDbXrecord
280
     1
340
18
  0
XRECORD
  5
B2D
102
{ACAD_REACTORS
330
B2C
102
}
330
B2C
100
AcDbXrecord
280
     1
340
15
  0
ACDBDETAILVIEWSTYLE
  5
B81
102
{ACAD_XDICTIONARY
360
BDB
102
}
102
{ACAD_REACTORS
330
B80
102
}
330
B80
100
AcDbModelDocViewStyle
 70
     0
  3
Imperial24
290
     0
100
AcDbDetailViewStyle
 70
     0
 71
     0
 90
        3
 71
     1
340
F
 40
0.24
340
0
 40
0.24
300

 40
0.36
280
     3
 71
     2
340
14
 90
       25
 71
     3
340
F
 40
0.24
 90
        1
 40
0.75
 90
        1
300
%<\AcVar ViewType \f "%tc1">% %<\AcVar ViewDetailId>%\PSCALE %<\AcVar ViewScale \f "%sn">%
 71
     4
340
14
 90
       25
340
14
 90
       25
280
     0
  0
LAYOUT
  5
B82
102
{ACAD_XDICTIONARY
360
BDD
102
}
102
{ACAD_REACTORS
330
94
102
}
330
94
100
AcDbPlotSettings
  1

  2
Canon LBP9100C
  4

  6

 40
0.0
 41
0.0
 42
0.0
 43
0.0
 44
0.0
 45
0.0
 46
0.0
 47
0.0
 48
0.0
 49
0.0
140
0.0
141
0.0
142
1.0
143
1.0
 70
  1712
 72
     0
 73
     0
 74
     0
  7

 75
     0
147
1.0
148
0.0
149
0.0
100
AcDbLayout
  1
Model
 70
     1
 71
     0
 10
0.0
 20
0.0
 11
12.0
 21
9.0
 12
0.0
 22
0.0
 32
0.0
 14
0.0
 24
0.0
 34
0.0
 15
0.0
 25
0.0
 35
0.0
146
0.0
 13
0.0
 23
0.0
 33
0.0
 16
1.0
 26
0.0
 36
0.0
 17
0.0
 27
1.0
 37
0.0
 76
     0
330
18
331
B2B
  0
LAYOUT
  5
B83
102
{ACAD_XDICTIONARY
360
BDF
102
}
102
{ACAD_REACTORS
330
94
102
}
330
94
100
AcDbPlotSettings
  1

  2
Canon LBP9100C
  4

  6

 40
0.0
 41
0.0
 42
0.0
 43
0.0
 44
0.0
 45
0.0
 46
0.0
 47
0.0
 48
0.0
 49
0.0
140
0.0
141
0.0
142
1.0
143
1.0
 70
   688
 72
     0
 73
     0
 74
     5
  7

 75
    16
147
1.0
148
0.0
149
0.0
100
AcDbLayout
  1
レイアウト1
 70
     1
 71
     1
 10
0.0
 20
0.0
 11
420.0
 21
297.0
 12
0.0
 22
0.0
 32
0.0
 14
1.000000000000000E+20
 24
1.000000000000000E+20
 34
1.000000000000000E+20
 15
-1.000000000000000E+20
 25
-1.000000000000000E+20
 35
-1.000000000000000E+20
146
0.0
 13
0.0
 23
0.0
 33
0.0
 16
1.0
 26
0.0
 36
0.0
 17
0.0
 27
1.0
 37
0.0
 76
     0
330
15
  0
MATERIAL
  5
B3E
102
{ACAD_XDICTIONARY
360
B3F
102
}
102
{ACAD_REACTORS
330
B35
102
}
330
B35
100
AcDbMaterial
  1
ByBlock
 72
     0
 43
0.0208333333333333
 43
0.0
 43
0.0
 43
0.0
 43
0.0
 43
0.0208333333333333
 43
0.0
 43
0.0
 43
0.0
 43
0.0
 43
1.0
 43
0.0
 43
0.0
 43
0.0
 43
0.0
 43
1.0
 77
     0
 47
0.0208333333333333
 47
0.0
 47
0.0
 47
0.0
 47
0.0
 47
0.0208333333333333
 47
0.0
 47
0.0
 47
0.0
 47
0.0
 47
1.0
 47
0.0
 47
0.0
 47
0.0
 47
0.0
 47
1.0
171
     0
 49
0.0208333333333333
 49
0.0
 49
0.0
 49
0.0
 49
0.0
 49
0.0208333333333333
 49
0.0
 49
0.0
 49
0.0
 49
0.0
 49
1.0
 49
0.0
 49
0.0
 49
0.0
 49
0.0
 49
1.0
175
     0
142
0.0208333333333333
142
0.0
142
0.0
142
0.0
142
0.0
142
0.0208333333333333
142
0.0
142
0.0
142
0.0
142
0.0
142
1.0
142
0.0
142
0.0
142
0.0
142
0.0
142
1.0
179
     0
144
0.0208333333333333
144
0.0
144
0.0
144
0.0
144
0.0
144
0.0208333333333333
144
0.0
144
0.0
144
0.0
144
0.0
144
1.0
144
0.0
144
0.0
144
0.0
144
0.0
144
1.0
147
0.0208333333333333
147
0.0
147
0.0
147
0.0
147
0.0
147
0.0208333333333333
147
0.0
147
0.0
147
0.0
147
0.0
147
1.0
147
0.0
147
0.0
147
0.0
147
0.0
147
1.0
  0
MATERIAL
  5
B36
102
{ACAD_XDICTIONARY
360
B37
102
}
102
{ACAD_REACTORS
330
B35
102
}
330
B35
100
AcDbMaterial
  1
ByLayer
 72
     0
 43
0.0208333333333333
 43
0.0
 43
0.0
 43
0.0
 43
0.0
 43
0.0208333333333333
 43
0.0
 43
0.0
 43
0.0
 43
0.0
 43
1.0
 43
0.0
 43
0.0
 43
0.0
 43
0.0
 43
1.0
 77
     0
 47
0.0208333333333333
 47
0.0
 47
0.0
 47
0.0
 47
0.0
 47
0.0208333333333333
 47
0.0
 47
0.0
 47
0.0
 47
0.0
 47
1.0
 47
0.0
 47
0.0
 47
0.0
 47
0.0
 47
1.0
171
     0
 49
0.0208333333333333
 49
0.0
 49
0.0
 49
0.0
 49
0.0
 49
0.0208333333333333
 49
0.0
 49
0.0
 49
0.0
 49
0.0
 49
1.0
 49
0.0
 49
0.0
 49
0.0
 49
0.0
 49
1.0
175
     0
142
0.0208333333333333
142
0.0
142
0.0
142
0.0
142
0.0
142
0.0208333333333333
142
0.0
142
0.0
142
0.0
142
0.0
142
1.0
142
0.0
142
0.0
142
0.0
142
0.0
142
1.0
179
     0
144
0.0208333333333333
144
0.0
144
0.0
144
0.0
144
0.0
144
0.0208333333333333
144
0.0
144
0.0
144
0.0
144
0.0
144
1.0
144
0.0
144
0.0
144
0.0
144
0.0
144
1.0
147
0.0208333333333333
147
0.0
147
0.0
147
0.0
147
0.0
147
0.0208333333333333
147
0.0
147
0.0
147
0.0
147
0.0
147
1.0
147
0.0
147
0.0
147
0.0
147
0.0
147
1.0
  0
MATERIAL
  5
B46
102
{ACAD_XDICTIONARY
360
B47
102
}
102
{ACAD_REACTORS
330
B35
102
}
330
B35
100
AcDbMaterial
  1
Global
 72
     0
 43
0.0208333333333333
 43
0.0
 43
0.0
 43
0.0
 43
0.0
 43
0.0208333333333333
 43
0.0
 43
0.0
 43
0.0
 43
0.0
 43
1.0
 43
0.0
 43
0.0
 43
0.0
 43
0.0
 43
1.0
 77
     0
 47
0.0208333333333333
 47
0.0
 47
0.0
 47
0.0
 47
0.0
 47
0.0208333333333333
 47
0.0
 47
0.0
 47
0.0
 47
0.0
 47
1.0
 47
0.0
 47
0.0
 47
0.0
 47
0.0
 47
1.0
171
     0
 49
0.0208333333333333
 49
0.0
 49
0.0
 49
0.0
 49
0.0
 49
0.0208333333333333
 49
0.0
 49
0.0
 49
0.0
 49
0.0
 49
1.0
 49
0.0
 49
0.0
 49
0.0
 49
0.0
 49
1.0
175
     0
142
0.0208333333333333
142
0.0
142
0.0
142
0.0
142
0.0
142
0.0208333333333333
142
0.0
142
0.0
142
0.0
142
0.0
142
1.0
142
0.0
142
0.0
142
0.0
142
0.0
142
1.0
179
     0
144
0.0208333333333333
144
0.0
144
0.0
144
0.0
144
0.0
144
0.0208333333333333
144
0.0
144
0.0
144
0.0
144
0.0
144
1.0
144
0.0
144
0.0
144
0.0
144
0.0
144
1.0
147
0.0208333333333333
147
0.0
147
0.0
147
0.0
147
0.0
147
0.0208333333333333
147
0.0
147
0.0
147
0.0
147
0.0
147
1.0
147
0.0
147
0.0
147
0.0
147
0.0
147
1.0
  0
MLEADERSTYLE
  5
B7D
102
{ACAD_REACTORS
330
B7C
102
}
330
B7C
100
AcDbMLeaderStyle
170
     2
171
     1
172
     0
 90
        2
 40
0.0
 41
0.0
173
     1
 91
-1056964608
340
12
 92
       -2
290
     1
 42
0.09
291
     1
 43
0.36
  3
Standard
 44
0.18
300

342
F
174
     1
178
     6
175
     1
176
     0
 93
-1056964608
 45
0.18
292
     0
297
     0
 46
0.18
 94
-1056964608
 47
1.0
 49
1.0
140
1.0
293
     1
141
0.0
294
     1
177
     0
142
1.0
295
     0
296
     0
143
0.125
1001
ACAD_MLEADERVER
1070
     2
  0
MLINESTYLE
  5
1C
102
{ACAD_REACTORS
330
1B
102
}
330
1B
100
AcDbMlineStyle
  2
STANDARD
 70
     0
  3

 62
   256
 51
90.0
 52
90.0
 71
     2
 49
0.5
 62
   256
  6
BYLAYER
 49
-0.5
 62
   256
  6
BYLAYER
  0
ACDBPLACEHOLDER
  5
B34
102
{ACAD_REACTORS
330
B33
102
}
330
B33
  0
SCALE
  5
B6B
102
{ACAD_REACTORS
330
B6A
102
}
330
B6A
100
AcDbScale
 70
     0
300
1:1
140
1.0
141
1.0
290
     1
  0
SCALE
  5
B6C
102
{ACAD_REACTORS
330
B6A
102
}
330
B6A
100
AcDbScale
 70
     0
300
1/128" = 1'-0"
140
0.0078125
141
12.0
290
     0
  0
SCALE
  5
B6D
102
{ACAD_REACTORS
330
B6A
102
}
330
B6A
100
AcDbScale
 70
     0
300
1/64" = 1'-0"
140
0.015625
141
12.0
290
     0
  0
SCALE
  5
B6E
102
{ACAD_REACTORS
330
B6A
102
}
330
B6A
100
AcDbScale
 70
     0
300
1/32" = 1'-0"
140
0.03125
141
12.0
290
     0
  0
SCALE
  5
B6F
102
{ACAD_REACTORS
330
B6A
102
}
330
B6A
100
AcDbScale
 70
     0
300
1/16" = 1'-0"
140
0.0625
141
12.0
290
     0
  0
SCALE
  5
B70
102
{ACAD_REACTORS
330
B6A
102
}
330
B6A
100
AcDbScale
 70
     0
300
3/32" = 1'-0"
140
0.09375
141
12.0
290
     0
  0
SCALE
  5
B71
102
{ACAD_REACTORS
330
B6A
102
}
330
B6A
100
AcDbScale
 70
     0
300
1/8" = 1'-0"
140
0.125
141
12.0
290
     0
  0
SCALE
  5
B72
102
{ACAD_REACTORS
330
B6A
102
}
330
B6A
100
AcDbScale
 70
     0
300
3/16" = 1'-0"
140
0.1875
141
12.0
290
     0
  0
SCALE
  5
B73
102
{ACAD_REACTORS
330
B6A
102
}
330
B6A
100
AcDbScale
 70
     0
300
1/4" = 1'-0"
140
0.25
141
12.0
290
     0
  0
SCALE
  5
B74
102
{ACAD_REACTORS
330
B6A
102
}
330
B6A
100
AcDbScale
 70
     0
300
3/8" = 1'-0"
140
0.375
141
12.0
290
     0
  0
SCALE
  5
B75
102
{ACAD_REACTORS
330
B6A
102
}
330
B6A
100
AcDbScale
 70
     0
300
1/2" = 1'-0"
140
0.5
141
12.0
290
     0
  0
SCALE
  5
B76
102
{ACAD_REACTORS
330
B6A
102
}
330
B6A
100
AcDbScale
 70
     0
300
3/4" = 1'-0"
140
0.75
141
12.0
290
     0
  0
SCALE
  5
B77
102
{ACAD_REACTORS
330
B6A
102
}
330
B6A
100
AcDbScale
 70
     0
300
1" = 1'-0"
140
1.0
141
12.0
290
     0
  0
SCALE
  5
B78
102
{ACAD_REACTORS
330
B6A
102
}
330
B6A
100
AcDbScale
 70
     0
300
1-1/2" = 1'-0"
140
1.5
141
12.0
290
     0
  0
SCALE
  5
B79
102
{ACAD_REACTORS
330
B6A
102
}
330
B6A
100
AcDbScale
 70
     0
300
3" = 1'-0"
140
3.0
141
12.0
290
     0
  0
SCALE
  5
B7A
102
{ACAD_REACTORS
330
B6A
102
}
330
B6A
100
AcDbScale
 70
     0
300
6" = 1'-0"
140
6.0
141
12.0
290
     0
  0
SCALE
  5
B7B
102
{ACAD_REACTORS
330
B6A
102
}
330
B6A
100
AcDbScale
 70
     0
300
1'-0" = 1'-0"
140
12.0
141
12.0
290
     0
  0
ACDBSECTIONVIEWSTYLE
  5
B7F
102
{ACAD_XDICTIONARY
360
BD9
102
}
102
{ACAD_REACTORS
330
B7E
102
}
330
B7E
100
AcDbModelDocViewStyle
 70
     0
  3
Imperial24
290
     0
100
AcDbSectionViewStyle
 70
     0
 71
     0
 90
       78
 71
     1
340
F
 40
0.24
340
0
340
0
 40
0.24
300
I, O, Q, S, X, Z
 40
0.48
 90
        3
 40
0.18
 90
        1
 71
     2
340
14
 90
       25
340
14
 90
       50
 40
0.24
 40
0.0
 40
0.24
 71
     3
340
F
 40
0.24
 90
        1
 40
0.75
 90
        1
300
%<\AcVar ViewType \f "%tc1">% %<\AcVar ViewSectionStartId>%-%<\AcVar ViewSectionEndId>%\PSCALE %<\AcVar ViewScale \f "%sn">%
 71
     4
300
ANSI31
 40
1.0
 90
        0
290
     0
290
     0
 90
        6
 40
0.0
 40
1.570796326794896
 40
0.2617993877991494
 40
1.308996938995747
 40
-0.2617993877991494
 40
1.832595714594046
  0
TABLESTYLE
  5
B69
102
{ACAD_XDICTIONARY
360
BA0
102
}
102
{ACAD_REACTORS
330
B68
102
}
330
B68
100
AcDbTableStyle
  3
Standard
 70
     0
 71
     0
 40
0.06
 41
0.06
280
     0
281
     0
  7
STANDARD
140
0.18
170
     2
 62
     0
 63
     7
283
     0
274
    -2
284
     1
 64
     0
275
    -2
285
     1
 65
     0
276
    -2
286
     1
 66
     0
277
    -2
287
     1
 67
     0
278
    -2
288
     1
 68
     0
279
    -2
289
     1
 69
     0
  7
STANDARD
140
0.25
170
     5
 62
     0
 63
     7
283
     0
274
    -2
284
     1
 64
     0
275
    -2
285
     1
 65
     0
276
    -2
286
     1
 66
     0
277
    -2
287
     1
 67
     0
278
    -2
288
     1
 68
     0
279
    -2
289
     1
 69
     0
  7
STANDARD
140
0.18
170
     5
 62
     0
 63
     7
283
     0
274
    -2
284
     1
 64
     0
275
    -2
285
     1
 65
     0
276
    -2
286
     1
 66
     0
277
    -2
287
     1
 67
     0
278
    -2
288
     1
 68
     0
279
    -2
289
     1
 69
     0
  0
VISUALSTYLE
  5
B54
102
{ACAD_XDICTIONARY
360
BB1
102
}
102
{ACAD_REACTORS
330
B4E
102
}
330
B4E
100
AcDbVisualStyle
  2
2dWireframe
 70
     4
 71
     0
 72
     2
 73
     0
 90
        0
 40
-0.6
 41
-30.0
 62
     5
 63
     7
 74
     1
 91
        4
 64
     7
 65
   257
 75
     1
175
     1
 42
1.0
 92
        0
 66
   257
 43
1.0
 76
     1
 77
     6
 78
     2
 67
     7
 79
     5
170
     0
171
     0
290
     0
174
     0
 93
        1
 44
0.0
173
     0
291
     0
 45
0.0
1001
ACAD
1000
AcDbSavedByObjectVersion
1070
     0
  0
VISUALSTYLE
  5
B53
102
{ACAD_XDICTIONARY
360
BAF
102
}
102
{ACAD_REACTORS
330
B4E
102
}
330
B4E
100
AcDbVisualStyle
  2
Basic
 70
     7
 71
     1
 72
     0
 73
     1
 90
        0
 40
-0.6
 41
-30.0
 62
     5
 63
     7
 74
     0
 91
        4
 64
     7
 65
   257
 75
     1
175
     1
 42
1.0
 92
        8
 66
     7
 43
1.0
 76
     1
 77
     6
 78
     2
 67
     7
 79
     5
170
     0
171
     0
290
     0
174
     0
 93
        1
 44
0.0
173
     0
291
     1
 45
0.0
1001
ACAD
1000
AcDbSavedByObjectVersion
1070
     0
  0
VISUALSTYLE
  5
B5A
102
{ACAD_XDICTIONARY
360
BBD
102
}
102
{ACAD_REACTORS
330
B4E
102
}
330
B4E
100
AcDbVisualStyle
  2
Brighten
 70
    12
 71
     2
 72
     2
 73
     0
 90
        0
 40
-0.6
 41
-30.0
 62
     5
 63
     7
 74
     1
 91
        4
 64
     7
 65
   257
 75
     1
175
     1
 42
1.0
 92
        8
 66
     7
 43
1.0
 76
     1
 77
     6
 78
     2
 67
     7
 79
     5
170
     0
171
     0
290
     0
174
     0
 93
        1
 44
50.0
173
     0
291
     1
 45
0.0
1001
ACAD
1000
AcDbSavedByObjectVersion
1070
     0
  0
VISUALSTYLE
  5
B5E
102
{ACAD_XDICTIONARY
360
BC5
102
}
102
{ACAD_REACTORS
330
B4E
102
}
330
B4E
100
AcDbVisualStyle
  2
ColorChange
 70
    16
 71
     2
 72
     2
 73
     3
 90
        0
 40
-0.6
 41
-30.0
 62
     5
 63
     8
 74
     1
 91
        4
 64
     7
 65
   257
 75
     1
175
     1
 42
1.0
 92
        8
 66
     8
 43
1.0
 76
     1
 77
     6
 78
     2
 67
     7
 79
     5
170
     0
171
     0
290
     0
174
     0
 93
        1
 44
0.0
173
     0
291
     1
 45
0.0
1001
ACAD
1000
AcDbSavedByObjectVersion
1070
     0
  0
VISUALSTYLE
  5
B57
102
{ACAD_XDICTIONARY
360
BB7
102
}
102
{ACAD_REACTORS
330
B4E
102
}
330
B4E
100
AcDbVisualStyle
  2
Conceptual
 70
     9
 71
     3
 72
     2
 73
     0
 90
        0
 40
-0.6
 41
-30.0
 62
     5
 63
     7
 74
     2
 91
        2
 64
     7
 65
   257
 75
     1
175
     1
 42
179.0
 92
        8
 66
     7
 43
1.0
 76
     1
 77
     6
 78
     2
 67
     7
 79
     3
170
     0
171
     0
290
     0
174
     0
 93
        1
 44
0.0
173
     0
291
     0
 45
0.0
1001
ACAD
1000
AcDbSavedByObjectVersion
1070
     0
  0
VISUALSTYLE
  5
B59
102
{ACAD_XDICTIONARY
360
BBB
102
}
102
{ACAD_REACTORS
330
B4E
102
}
330
B4E
100
AcDbVisualStyle
  2
Dim
 70
    11
 71
     2
 72
     2
 73
     0
 90
        0
 40
-0.6
 41
-30.0
 62
     5
 63
     7
 74
     1
 91
        4
 64
     7
 65
   257
 75
     1
175
     1
 42
1.0
 92
        8
 66
     7
 43
1.0
 76
     1
 77
     6
 78
     2
 67
     7
 79
     5
170
     0
171
     0
290
     0
174
     0
 93
        1
 44
-50.0
173
     0
291
     1
 45
0.0
1001
ACAD
1000
AcDbSavedByObjectVersion
1070
     0
  0
VISUALSTYLE
  5
B66
102
{ACAD_XDICTIONARY
360
BD5
102
}
102
{ACAD_REACTORS
330
B4E
102
}
330
B4E
100
AcDbVisualStyle
  2
EdgeColorOff
 70
    22
 71
     2
 72
     2
 73
     0
 90
        0
 40
-0.6
 41
-30.0
 62
     5
 63
     7
 74
     1
 91
        4
 64
     7
 65
   257
 75
     1
175
     1
 42
1.0
 92
        8
 66
     7
 43
1.0
 76
     1
 77
     6
 78
     2
 67
     7
 79
     5
170
     0
171
     0
290
     0
174
     0
 93
        1
 44
0.0
173
     0
291
     1
 45
0.0
1001
ACAD
1000
AcDbSavedByObjectVersion
1070
     0
  0
VISUALSTYLE
  5
B5D
102
{ACAD_XDICTIONARY
360
BC3
102
}
102
{ACAD_REACTORS
330
B4E
102
}
330
B4E
100
AcDbVisualStyle
  2
Facepattern
 70
    15
 71
     2
 72
     2
 73
     0
 90
        0
 40
-0.6
 41
-30.0
 62
     5
 63
     7
 74
     1
 91
        4
 64
     7
 65
   257
 75
     1
175
     1
 42
1.0
 92
        8
 66
     7
 43
1.0
 76
     1
 77
     6
 78
     2
 67
     7
 79
     5
170
     0
171
     0
290
     0
174
     0
 93
        1
 44
0.0
173
     0
291
     1
 45
0.0
1001
ACAD
1000
AcDbSavedByObjectVersion
1070
     0
  0
VISUALSTYLE
  5
B4F
102
{ACAD_XDICTIONARY
360
BA7
102
}
102
{ACAD_REACTORS
330
B4E
102
}
330
B4E
100
AcDbVisualStyle
  2
Flat
 70
     0
 71
     2
 72
     1
 73
     1
 90
        2
 40
-0.6
 41
30.0
 62
     5
 63
     7
 74
     0
 91
        0
 64
     7
 65
   257
 75
     1
175
     1
 42
1.0
 92
        8
 66
     7
 43
1.0
 76
     1
 77
     6
 78
     2
 67
     7
 79
     5
170
     0
171
     0
290
     0
174
     0
 93
       13
 44
0.0
173
     0
291
     1
 45
0.0
1001
ACAD
1000
AcDbSavedByObjectVersion
1070
     0
  0
VISUALSTYLE
  5
B50
102
{ACAD_XDICTIONARY
360
BA9
102
}
102
{ACAD_REACTORS
330
B4E
102
}
330
B4E
100
AcDbVisualStyle
  2
FlatWithEdges
 70
     1
 71
     2
 72
     1
 73
     1
 90
        2
 40
-0.6
 41
30.0
 62
     5
 63
     7
 74
     1
 91
        0
 64
     7
 65
   257
 75
     1
175
     1
 42
1.0
 92
        0
 66
   257
 43
1.0
 76
     1
 77
     6
 78
     2
 67
     7
 79
     5
170
     0
171
     0
290
     0
174
     0
 93
       13
 44
0.0
173
     0
291
     1
 45
0.0
1001
ACAD
1000
AcDbSavedByObjectVersion
1070
     0
  0
VISUALSTYLE
  5
B51
102
{ACAD_XDICTIONARY
360
BAB
102
}
102
{ACAD_REACTORS
330
B4E
102
}
330
B4E
100
AcDbVisualStyle
  2
Gouraud
 70
     2
 71
     2
 72
     2
 73
     1
 90
        2
 40
-0.6
 41
30.0
 62
     5
 63
     7
 74
     0
 91
        0
 64
     7
 65
   257
 75
     1
175
     1
 42
1.0
 92
        0
 66
     7
 43
1.0
 76
     1
 77
     6
 78
     2
 67
     7
 79
     5
170
     0
171
     0
290
     0
174
     0
 93
       13
 44
0.0
173
     0
291
     1
 45
0.0
1001
ACAD
1000
AcDbSavedByObjectVersion
1070
     0
  0
VISUALSTYLE
  5
B52
102
{ACAD_XDICTIONARY
360
BAD
102
}
102
{ACAD_REACTORS
330
B4E
102
}
330
B4E
100
AcDbVisualStyle
  2
GouraudWithEdges
 70
     3
 71
     2
 72
     2
 73
     1
 90
        2
 40
-0.6
 41
30.0
 62
     5
 63
     7
 74
     1
 91
        0
 64
     7
 65
   257
 75
     1
175
     1
 42
1.0
 92
        0
 66
   257
 43
1.0
 76
     1
 77
     6
 78
     2
 67
     7
 79
     5
170
     0
171
     0
290
     0
174
     0
 93
       13
 44
0.0
173
     0
291
     1
 45
0.0
1001
ACAD
1000
AcDbSavedByObjectVersion
1070
     0
  0
VISUALSTYLE
  5
B56
102
{ACAD_XDICTIONARY
360
BB5
102
}
102
{ACAD_REACTORS
330
B4E
102
}
330
B4E
100
AcDbVisualStyle
  2
Hidden
 70
     6
 71
     1
 72
     2
 73
     2
 90
        0
 40
-0.6
 41
-30.0
 62
     5
 63
     7
 74
     2
 91
        2
 64
     7
 65
   257
 75
     2
175
     1
 42
40.0
 92
        0
 66
   257
 43
1.0
 76
     1
 77
     6
 78
     2
 67
     7
 79
     3
170
     0
171
     0
290
     0
174
     0
 93
        1
 44
0.0
173
     0
291
     0
 45
0.0
1001
ACAD
1000
AcDbSavedByObjectVersion
1070
     0
  0
VISUALSTYLE
  5
B64
102
{ACAD_XDICTIONARY
360
BD1
102
}
102
{ACAD_REACTORS
330
B4E
102
}
330
B4E
100
AcDbVisualStyle
  2
JitterOff
 70
    20
 71
     2
 72
     2
 73
     0
 90
        0
 40
-0.6
 41
-30.0
 62
     5
 63
     7
 74
     1
 91
        4
 64
     7
 65
   257
 75
     1
175
     1
 42
1.0
 92
       10
 66
     7
 43
1.0
 76
     1
 77
     6
 78
     2
 67
     7
 79
     5
170
     0
171
     0
290
     0
174
     0
 93
        1
 44
0.0
173
     0
291
     1
 45
0.0
1001
ACAD
1000
AcDbSavedByObjectVersion
1070
     0
  0
VISUALSTYLE
  5
B5C
102
{ACAD_XDICTIONARY
360
BC1
102
}
102
{ACAD_REACTORS
330
B4E
102
}
330
B4E
100
AcDbVisualStyle
  2
Linepattern
 70
    14
 71
     2
 72
     2
 73
     0
 90
        0
 40
-0.6
 41
-30.0
 62
     5
 63
     7
 74
     1
 91
        4
 64
     7
 65
   257
 75
     7
175
     7
 42
1.0
 92
        8
 66
     7
 43
1.0
 76
     1
 77
     6
 78
     2
 67
     7
 79
     5
170
     0
171
     0
290
     0
174
     0
 93
        1
 44
0.0
173
     0
291
     1
 45
0.0
1001
ACAD
1000
AcDbSavedByObjectVersion
1070
     0
  0
VISUALSTYLE
  5
B65
102
{ACAD_XDICTIONARY
360
BD3
102
}
102
{ACAD_REACTORS
330
B4E
102
}
330
B4E
100
AcDbVisualStyle
  2
OverhangOff
 70
    21
 71
     2
 72
     2
 73
     0
 90
        0
 40
-0.6
 41
-30.0
 62
     5
 63
     7
 74
     1
 91
        4
 64
     7
 65
   257
 75
     1
175
     1
 42
1.0
 92
        9
 66
     7
 43
1.0
 76
     1
 77
     6
 78
     2
 67
     7
 79
     5
170
     0
171
     0
290
     0
174
     0
 93
        1
 44
0.0
173
     0
291
     1
 45
0.0
1001
ACAD
1000
AcDbSavedByObjectVersion
1070
     0
  0
VISUALSTYLE
  5
B58
102
{ACAD_XDICTIONARY
360
BB9
102
}
102
{ACAD_REACTORS
330
B4E
102
}
330
B4E
100
AcDbVisualStyle
  2
Realistic
 70
     8
 71
     2
 72
     3
 73
     0
 90
        2
 40
-0.6
 41
30.0
 62
     5
 63
     7
 74
     0
 91
        0
 64
     7
 65
   257
 75
     1
175
     1
 42
1.0
 92
        8
 66
   257
 43
1.0
 76
     1
 77
     6
 78
     2
 67
     7
 79
     3
170
     0
171
     0
290
     0
174
     0
 93
       13
 44
0.0
173
     0
291
     0
 45
0.0
1001
ACAD
1000
AcDbSavedByObjectVersion
1070
     0
  0
VISUALSTYLE
  5
B63
102
{ACAD_XDICTIONARY
360
BCF
102
}
102
{ACAD_REACTORS
330
B4E
102
}
330
B4E
100
AcDbVisualStyle
  2
Shaded
 70
    27
 71
     2
 72
     2
 73
     1
 90
        2
 40
-0.6
 41
30.0
 62
     5
 63
     7
 74
     0
 91
        4
 64
     7
 65
   257
 75
     1
175
     1
 42
1.0
 92
        8
 66
   257
 43
1.0
 76
     1
 77
     6
 78
     2
 67
     8
 79
     3
170
     0
171
     0
290
     0
174
     0
 93
        5
 44
0.0
173
     0
291
     0
 45
0.0
1001
ACAD
1000
AcDbSavedByObjectVersion
1070
     0
  0
VISUALSTYLE
  5
B62
102
{ACAD_XDICTIONARY
360
BCD
102
}
102
{ACAD_REACTORS
330
B4E
102
}
330
B4E
100
AcDbVisualStyle
  2
Shaded with edges
 70
    26
 71
     2
 72
     2
 73
     1
 90
        2
 40
-0.6
 41
30.0
 62
     5
 63
     7
 74
     1
 91
       10
 64
     7
 65
   257
 75
     2
175
     1
 42
1.0
 92
        8
 66
   257
 43
1.0
 76
     1
 77
     6
 78
     2
 67
     7
 79
     3
170
     0
171
     0
290
     0
174
     0
 93
        5
 44
0.0
173
     0
291
     0
 45
0.0
1001
ACAD
1000
AcDbSavedByObjectVersion
1070
     0
  0
VISUALSTYLE
  5
B5F
102
{ACAD_XDICTIONARY
360
BC7
102
}
102
{ACAD_REACTORS
330
B4E
102
}
330
B4E
100
AcDbVisualStyle
  2
Shades of Gray
 70
    23
 71
     2
 72
     2
 73
     3
 90
        0
 40
-0.6
 41
-30.0
 62
     5
 63
     7
 74
     2
 91
        2
 64
     7
 65
     7
 75
     1
175
     1
 42
40.0
 92
        8
 66
     7
 43
1.0
 76
     1
 77
     6
 78
     2
 67
     7
 79
     3
170
     0
171
     0
290
     0
174
     0
 93
        1
 44
0.0
173
     0
291
     0
 45
0.0
1001
ACAD
1000
AcDbSavedByObjectVersion
1070
     0
  0
VISUALSTYLE
  5
B60
102
{ACAD_XDICTIONARY
360
BC9
102
}
102
{ACAD_REACTORS
330
B4E
102
}
330
B4E
100
AcDbVisualStyle
  2
Sketchy
 70
    24
 71
     1
 72
     2
 73
     2
 90
        0
 40
-0.6
 41
-30.0
 62
     5
 63
     7
 74
     2
 91
        2
 64
     7
 65
     7
 75
     1
175
     1
 42
40.0
 92
       11
 66
     7
 43
1.0
 76
     1
 77
     6
 78
     2
 67
     7
 79
     6
170
     0
171
     0
290
     0
174
     0
 93
        1
 44
0.0
173
     0
291
     0
 45
0.0
1001
ACAD
1000
AcDbSavedByObjectVersion
1070
     0
  0
VISUALSTYLE
  5
B5B
102
{ACAD_XDICTIONARY
360
BBF
102
}
102
{ACAD_REACTORS
330
B4E
102
}
330
B4E
100
AcDbVisualStyle
  2
Thicken
 70
    13
 71
     2
 72
     2
 73
     0
 90
        0
 40
-0.6
 41
-30.0
 62
     5
 63
     7
 74
     1
 91
        4
 64
     7
 65
   257
 75
     1
175
     1
 42
1.0
 92
       12
 66
     7
 43
1.0
 76
     1
 77
     6
 78
     2
 67
     7
 79
     5
170
     0
171
     0
290
     0
174
     0
 93
        1
 44
0.0
173
     0
291
     1
 45
0.0
1001
ACAD
1000
AcDbSavedByObjectVersion
1070
     0
  0
VISUALSTYLE
  5
B55
102
{ACAD_XDICTIONARY
360
BB3
102
}
102
{ACAD_REACTORS
330
B4E
102
}
330
B4E
100
AcDbVisualStyle
  2
Wireframe
 70
     5
 71
     0
 72
     2
 73
     0
 90
        0
 40
-0.6
 41
-30.0
 62
     5
 63
     7
 74
     1
 91
        4
 64
     7
 65
   257
 75
     1
175
     1
 42
1.0
 92
        0
 66
   257
 43
1.0
 76
     1
 77
     6
 78
     2
 67
     7
 79
     3
170
     0
171
     0
290
     0
174
     0
 93
        1
 44
0.0
173
     0
291
     0
 45
0.0
1001
ACAD
1000
AcDbSavedByObjectVersion
1070
     0
  0
VISUALSTYLE
  5
B61
102
{ACAD_XDICTIONARY
360
BCB
102
}
102
{ACAD_REACTORS
330
B4E
102
}
330
B4E
100
AcDbVisualStyle
  2
X-Ray
 70
    25
 71
     2
 72
     2
 73
     1
 90
        1
 40
0.5
 41
-30.0
 62
     5
 63
     7
 74
     1
 91
        0
 64
     7
 65
   257
 75
     1
175
     1
 42
1.0
 92
        8
 66
     7
 43
1.0
 76
     1
 77
     6
 78
     2
 67
     7
 79
     3
170
     0
171
     0
290
     0
174
     0
 93
       13
 44
0.0
173
     0
291
     0
 45
0.0
1001
ACAD
1000
AcDbSavedByObjectVersion
1070
     0
  0
DICTIONARYVAR
  5
B9A
102
{ACAD_REACTORS
330
B95
102
}
330
B95
100
DictionaryVariables
280
     0
  1
1:1
  0
DICTIONARYVAR
  5
B97
102
{ACAD_REACTORS
330
B95
102
}
330
B95
100
DictionaryVariables
280
     0
  1
STANDARD
  0
DICTIONARYVAR
  5
B96
102
{ACAD_REACTORS
330
B95
102
}
330
B95
100
DictionaryVariables
280
     0
  1
STANDARD
  0
DICTIONARYVAR
  5
B98
102
{ACAD_REACTORS
330
B95
102
}
330
B95
100
DictionaryVariables
280
     0
  1
Imperial24
  0
DICTIONARYVAR
  5
B99
102
{ACAD_REACTORS
330
B95
102
}
330
B95
100
DictionaryVariables
280
     0
  1
Imperial24
  0
DICTIONARYVAR
  5
B9D
102
{ACAD_REACTORS
330
B95
102
}
330
B95
100
DictionaryVariables
280
     0
  1
1
  0
DICTIONARYVAR
  5
B9C
102
{ACAD_REACTORS
330
B95
102
}
330
B95
100
DictionaryVariables
280
     0
  1
0
  0
DICTIONARYVAR
  5
B9B
102
{ACAD_REACTORS
330
B95
102
}
330
B95
100
DictionaryVariables
280
     0
  1
127
  0
DICTIONARYVAR
  5
B9E
102
{ACAD_REACTORS
330
B95
102
}
330
B95
100
DictionaryVariables
280
     0
  1
2
  0
DICTIONARY
  5
BDB
330
B81
100
AcDbDictionary
280
     1
281
     1
  3
ACAD_XREC_ROUNDTRIP
360
BDC
  0
DICTIONARY
  5
BDD
330
B82
100
AcDbDictionary
280
     1
281
     1
  3
ACAD_XREC_ROUNDTRIP
360
BDE
  0
DICTIONARY
  5
BDF
330
B83
100
AcDbDictionary
280
     1
281
     1
  3
ACAD_XREC_ROUNDTRIP
360
BE0
  0
DICTIONARY
  5
B3F
330
B3E
100
AcDbDictionary
280
     1
281
     1
  3
ACAD_XREC_ROUNDTRIP
360
BA5
  3
BUMPTILE
360
B41
  3
DIFFUSETILE
360
B40
  3
OPACITYTILE
360
B44
  3
REFLECTIONTILE
360
B43
  3
REFRACTIONTILE
360
B45
  3
SPECULARTILE
360
B42
  0
DICTIONARY
  5
B37
330
B36
100
AcDbDictionary
280
     1
281
     1
  3
ACAD_XREC_ROUNDTRIP
360
BA4
  3
BUMPTILE
360
B39
  3
DIFFUSETILE
360
B38
  3
OPACITYTILE
360
B3C
  3
REFLECTIONTILE
360
B3B
  3
REFRACTIONTILE
360
B3D
  3
SPECULARTILE
360
B3A
  0
DICTIONARY
  5
B47
330
B46
100
AcDbDictionary
280
     1
281
     1
  3
ACAD_XREC_ROUNDTRIP
360
BA6
  3
BUMPTILE
360
B49
  3
DIFFUSETILE
360
B48
  3
OPACITYTILE
360
B4C
  3
REFLECTIONTILE
360
B4B
  3
REFRACTIONTILE
360
B4D
  3
SPECULARTILE
360
B4A
  0
DICTIONARY
  5
BD9
330
B7F
100
AcDbDictionary
280
     1
281
     1
  3
ACAD_XREC_ROUNDTRIP
360
BDA
  0
DICTIONARY
  5
BA0
330
B69
100
AcDbDictionary
280
     1
281
     1
  3
ACAD_ROUNDTRIP_2008_TABLESTYLE_CELLSTYLEMAP
360
BA1
  3
ACAD_XREC_ROUNDTRIP
360
BD7
  0
DICTIONARY
  5
BB1
330
B54
100
AcDbDictionary
280
     1
281
     1
  3
ACAD_XREC_ROUNDTRIP
360
BB2
  0
DICTIONARY
  5
BAF
330
B53
100
AcDbDictionary
280
     1
281
     1
  3
ACAD_XREC_ROUNDTRIP
360
BB0
  0
DICTIONARY
  5
BBD
330
B5A
100
AcDbDictionary
280
     1
281
     1
  3
ACAD_XREC_ROUNDTRIP
360
BBE
  0
DICTIONARY
  5
BC5
330
B5E
100
AcDbDictionary
280
     1
281
     1
  3
ACAD_XREC_ROUNDTRIP
360
BC6
  0
DICTIONARY
  5
BB7
330
B57
100
AcDbDictionary
280
     1
281
     1
  3
ACAD_XREC_ROUNDTRIP
360
BB8
  0
DICTIONARY
  5
BBB
330
B59
100
AcDbDictionary
280
     1
281
     1
  3
ACAD_XREC_ROUNDTRIP
360
BBC
  0
DICTIONARY
  5
BD5
330
B66
100
AcDbDictionary
280
     1
281
     1
  3
ACAD_XREC_ROUNDTRIP
360
BD6
  0
DICTIONARY
  5
BC3
330
B5D
100
AcDbDictionary
280
     1
281
     1
  3
ACAD_XREC_ROUNDTRIP
360
BC4
  0
DICTIONARY
  5
BA7
330
B4F
100
AcDbDictionary
280
     1
281
     1
  3
ACAD_XREC_ROUNDTRIP
360
BA8
  0
DICTIONARY
  5
BA9
330
B50
100
AcDbDictionary
280
     1
281
     1
  3
ACAD_XREC_ROUNDTRIP
360
BAA
  0
DICTIONARY
  5
BAB
330
B51
100
AcDbDictionary
280
     1
281
     1
  3
ACAD_XREC_ROUNDTRIP
360
BAC
  0
DICTIONARY
  5
BAD
330
B52
100
AcDbDictionary
280
     1
281
     1
  3
ACAD_XREC_ROUNDTRIP
360
BAE
  0
DICTIONARY
  5
BB5
330
B56
100
AcDbDictionary
280
     1
281
     1
  3
ACAD_XREC_ROUNDTRIP
360
BB6
  0
DICTIONARY
  5
BD1
330
B64
100
AcDbDictionary
280
     1
281
     1
  3
ACAD_XREC_ROUNDTRIP
360
BD2
  0
DICTIONARY
  5
BC1
330
B5C
100
AcDbDictionary
280
     1
281
     1
  3
ACAD_XREC_ROUNDTRIP
360
BC2
  0
DICTIONARY
  5
BD3
330
B65
100
AcDbDictionary
280
     1
281
     1
  3
ACAD_XREC_ROUNDTRIP
360
BD4
  0
DICTIONARY
  5
BB9
330
B58
100
AcDbDictionary
280
     1
281
     1
  3
ACAD_XREC_ROUNDTRIP
360
BBA
  0
DICTIONARY
  5
BCF
330
B63
100
AcDbDictionary
280
     1
281
     1
  3
ACAD_XREC_ROUNDTRIP
360
BD0
  0
DICTIONARY
  5
BCD
330
B62
100
AcDbDictionary
280
     1
281
     1
  3
ACAD_XREC_ROUNDTRIP
360
BCE
  0
DICTIONARY
  5
BC7
330
B5F
100
AcDbDictionary
280
     1
281
     1
  3
ACAD_XREC_ROUNDTRIP
360
BC8
  0
DICTIONARY
  5
BC9
330
B60
100
AcDbDictionary
280
     1
281
     1
  3
ACAD_XREC_ROUNDTRIP
360
BCA
  0
DICTIONARY
  5
BBF
330
B5B
100
AcDbDictionary
280
     1
281
     1
  3
ACAD_XREC_ROUNDTRIP
360
BC0
  0
DICTIONARY
  5
BB3
330
B55
100
AcDbDictionary
280
     1
281
     1
  3
ACAD_XREC_ROUNDTRIP
360
BB4
  0
DICTIONARY
  5
BCB
330
B61
100
AcDbDictionary
280
     1
281
     1
  3
ACAD_XREC_ROUNDTRIP
360
BCC
  0
XRECORD
  5
BDC
102
{ACAD_REACTORS
330
BDB
102
}
330
BDB
100
AcDbXrecord
280
     1
102
DISPLAYNAME
  1
Imperial24
102
FLAGS
 90
        0
  0
XRECORD
  5
BDE
102
{ACAD_REACTORS
330
BDD
102
}
330
BDD
100
AcDbXrecord
280
     1
102
SHADEPLOT
 70
     0
102
SHADEPLOTRESLEVEL
 70
     2
102
SHADEPLOTCUSTOMDPI
 70
   300
  0
XRECORD
  5
BE0
102
{ACAD_REACTORS
330
BDF
102
}
330
BDF
100
AcDbXrecord
280
     1
102
SHADEPLOT
 70
     0
102
SHADEPLOTRESLEVEL
 70
     2
102
SHADEPLOTCUSTOMDPI
 70
   300
  0
XRECORD
  5
BA5
102
{ACAD_REACTORS
330
B3F
102
}
330
B3F
100
AcDbXrecord
280
     1
102
MATERIAL
148
0.0
149
0.0
149
0.0
 93
        0
 94
      127
282
     0
 72
     0
 77
     0
171
     0
175
     0
179
     0
273
     0
  0
XRECORD
  5
B41
102
{ACAD_REACTORS
330
B3F
102
}
330
B3F
100
AcDbXrecord
280
     1
270
     1
271
     1
  0
XRECORD
  5
B40
102
{ACAD_REACTORS
330
B3F
102
}
330
B3F
100
AcDbXrecord
280
     1
270
     1
271
     1
  0
XRECORD
  5
B44
102
{ACAD_REACTORS
330
B3F
102
}
330
B3F
100
AcDbXrecord
280
     1
270
     1
271
     1
  0
XRECORD
  5
B43
102
{ACAD_REACTORS
330
B3F
102
}
330
B3F
100
AcDbXrecord
280
     1
270
     1
271
     1
  0
XRECORD
  5
B45
102
{ACAD_REACTORS
330
B3F
102
}
330
B3F
100
AcDbXrecord
280
     1
270
     1
271
     1
  0
XRECORD
  5
B42
102
{ACAD_REACTORS
330
B3F
102
}
330
B3F
100
AcDbXrecord
280
     1
270
     1
271
     1
  0
XRECORD
  5
BA4
102
{ACAD_REACTORS
330
B37
102
}
330
B37
100
AcDbXrecord
280
     1
102
MATERIAL
148
0.0
149
0.0
149
0.0
 93
        0
 94
      127
282
     0
 72
     0
 77
     0
171
     0
175
     0
179
     0
273
     0
  0
XRECORD
  5
B39
102
{ACAD_REACTORS
330
B37
102
}
330
B37
100
AcDbXrecord
280
     1
270
     1
271
     1
  0
XRECORD
  5
B38
102
{ACAD_REACTORS
330
B37
102
}
330
B37
100
AcDbXrecord
280
     1
270
     1
271
     1
  0
XRECORD
  5
B3C
102
{ACAD_REACTORS
330
B37
102
}
330
B37
100
AcDbXrecord
280
     1
270
     1
271
     1
  0
XRECORD
  5
B3B
102
{ACAD_REACTORS
330
B37
102
}
330
B37
100
AcDbXrecord
280
     1
270
     1
271
     1
  0
XRECORD
  5
B3D
102
{ACAD_REACTORS
330
B37
102
}
330
B37
100
AcDbXrecord
280
     1
270
     1
271
     1
  0
XRECORD
  5
B3A
102
{ACAD_REACTORS
330
B37
102
}
330
B37
100
AcDbXrecord
280
     1
270
     1
271
     1
  0
XRECORD
  5
BA6
102
{ACAD_REACTORS
330
B47
102
}
330
B47
100
AcDbXrecord
280
     1
102
MATERIAL
148
0.0
149
0.0
149
0.0
 93
        0
 94
      127
282
     0
 72
     0
 77
     0
171
     0
175
     0
179
     0
273
     0
  0
XRECORD
  5
B49
102
{ACAD_REACTORS
330
B47
102
}
330
B47
100
AcDbXrecord
280
     1
270
     1
271
     1
  0
XRECORD
  5
B48
102
{ACAD_REACTORS
330
B47
102
}
330
B47
100
AcDbXrecord
280
     1
270
     1
271
     1
  0
XRECORD
  5
B4C
102
{ACAD_REACTORS
330
B47
102
}
330
B47
100
AcDbXrecord
280
     1
270
     1
271
     1
  0
XRECORD
  5
B4B
102
{ACAD_REACTORS
330
B47
102
}
330
B47
100
AcDbXrecord
280
     1
270
     1
271
     1
  0
XRECORD
  5
B4D
102
{ACAD_REACTORS
330
B47
102
}
330
B47
100
AcDbXrecord
280
     1
270
     1
271
     1
  0
XRECORD
  5
B4A
102
{ACAD_REACTORS
330
B47
102
}
330
B47
100
AcDbXrecord
280
     1
270
     1
271
     1
  0
XRECORD
  5
BDA
102
{ACAD_REACTORS
330
BD9
102
}
330
BD9
100
AcDbXrecord
280
     1
102
DISPLAYNAME
  1
Imperial24
102
FLAGS
 90
        0
  0
CELLSTYLEMAP
  5
BA1
102
{ACAD_REACTORS
330
BA0
102
}
330
BA0
100
AcDbCellStyleMap
 90
        3
300
CELLSTYLE
  1
TABLEFORMAT_BEGIN
 90
        5
170
     1
 91
        0
 92
    32768
 62
   257
 93
        1
300
CONTENTFORMAT
  1
CONTENTFORMAT_BEGIN
 90
        0
 91
        0
 92
      512
 93
        0
300

 40
0.0
140
1.0
 94
        5
 62
     0
340
F
144
0.25
309
CONTENTFORMAT_END
171
     0
 94
        0
309
TABLEFORMAT_END
  1
CELLSTYLE_BEGIN
 90
        1
 91
        1
300
_TITLE
309
CELLSTYLE_END
300
CELLSTYLE
  1
TABLEFORMAT_BEGIN
 90
        5
170
     1
 91
        0
 92
        0
 62
   257
 93
        1
300
CONTENTFORMAT
  1
CONTENTFORMAT_BEGIN
 90
        0
 91
        0
 92
      512
 93
        0
300

 40
0.0
140
1.0
 94
        5
 62
     0
340
F
144
0.18
309
CONTENTFORMAT_END
171
     0
 94
        0
309
TABLEFORMAT_END
  1
CELLSTYLE_BEGIN
 90
        2
 91
        1
300
_HEADER
309
CELLSTYLE_END
300
CELLSTYLE
  1
TABLEFORMAT_BEGIN
 90
        5
170
     1
 91
        0
 92
        0
 62
   257
 93
        1
300
CONTENTFORMAT
  1
CONTENTFORMAT_BEGIN
 90
        0
 91
        0
 92
      512
 93
        0
300

 40
0.0
140
1.0
 94
        2
 62
     0
340
F
144
0.18
309
CONTENTFORMAT_END
171
     0
 94
        0
309
TABLEFORMAT_END
  1
CELLSTYLE_BEGIN
 90
        3
 91
        2
300
_DATA
309
CELLSTYLE_END
  0
XRECORD
  5
BD7
102
{ACAD_REACTORS
330
BA0
102
}
330
BA0
100
AcDbXrecord
280
     1
102
ACAD_ROUNDTRIP_PRE2007_TABLESTYLE
 90
      512
 91
        0
  1

 92
      512
 93
        0
  2

 94
      512
 95
        0
  3

  0
XRECORD
  5
BB2
102
{ACAD_REACTORS
330
BB1
102
}
330
BB1
100
AcDbXrecord
280
     1
102
RTVSPost2010Prop28
280
     1
102
RTVSPost2010PropOp28
 70
     1
102
RTVSPost2010Prop29
280
     1
102
RTVSPost2010PropOp29
 70
     1
102
RTVSPost2010Prop30
280
     0
102
RTVSPost2010PropOp30
 70
     1
102
RTVSPost2010Prop31
280
     0
102
RTVSPost2010PropOp31
 70
     1
102
RTVSPost2010Prop32
280
     0
102
RTVSPost2010PropOp32
 70
     1
102
RTVSPost2010Prop33
280
     0
102
RTVSPost2010PropOp33
 70
     1
102
RTVSPost2010Prop34
280
     0
102
RTVSPost2010PropOp34
 70
     1
102
RTVSPost2010Prop35
280
     0
102
RTVSPost2010PropOp35
 70
     1
102
RTVSPost2010Prop36
280
     0
102
RTVSPost2010PropOp36
 70
     1
102
RTVSPost2010Prop37
 90
       50
102
RTVSPost2010PropOp37
 70
     1
102
RTVSPost2010Prop38
140
0.0
102
RTVSPost2010PropOp38
 70
     1
102
RTVSPost2010Prop39
140
1.0
102
RTVSPost2010PropOp39
 70
     1
102
RTVSPost2010Prop40
 90
        0
102
RTVSPost2010PropOp40
 70
     1
102
RTVSPost2010Prop41ColorIndex
 90
       18
102
RTVSPost2010Prop41ColorRGB
 90
        0
102
RTVSPost2010PropOp41
 70
     1
102
RTVSPost2010Prop42
 90
       50
102
RTVSPost2010PropOp42
 70
     1
102
RTVSPost2010Prop43
 90
        3
102
RTVSPost2010PropOp43
 70
     1
102
RTVSPost2010Prop44ColorIndex
 90
        5
102
RTVSPost2010Prop44ColorRGB
 90
      255
102
RTVSPost2010PropOp44
 70
     1
102
RTVSPost2010Prop45
280
     0
102
RTVSPost2010PropOp45
 70
     1
102
RTVSPost2010Prop46
 90
       50
102
RTVSPost2010PropOp46
 70
     1
102
RTVSPost2010Prop47
 90
       50
102
RTVSPost2010PropOp47
 70
     1
102
RTVSPost2010Prop48
 90
       50
102
RTVSPost2010PropOp48
 70
     1
102
RTVSPost2010Prop49
280
     0
102
RTVSPost2010PropOp49
 70
     1
102
RTVSPost2010Prop50
 90
       50
102
RTVSPost2010PropOp50
 70
     1
102
RTVSPost2010Prop51ColorIndex
 90
      256
102
RTVSPost2010Prop51ColorRGB
 90
-16777216
102
RTVSPost2010PropOp51
 70
     0
102
RTVSPost2010Prop52
140
1.0
102
RTVSPost2010PropOp52
 70
     0
102
RTVSPost2010Prop53
 90
        2
102
RTVSPost2010PropOp53
 70
     1
102
RTVSPost2010Prop54
  1
strokes_ogs.tif
102
RTVSPost2010PropOp54
 70
     1
102
RTVSPost2010Prop55
280
     0
102
RTVSPost2010PropOp55
 70
     1
102
RTVSPost2010Prop56
140
1.0
102
RTVSPost2010PropOp56
 70
     1
102
RTVSPost2010Prop57
140
1.0
102
RTVSPost2010PropOp57
 70
     1
102
RTVSPropertyOp0
 70
     1
102
RTVSPropertyOp1
 70
     1
102
RTVSPropertyOp2
 70
     1
102
RTVSPropertyOp3
 70
     1
102
RTVSPropertyOp4
 70
     1
102
RTVSPropertyOp5
 70
     1
102
RTVSPropertyOp6
 70
     1
102
RTVSPropertyOp7
 70
     1
102
RTVSPropertyOp8
 70
     1
102
RTVSPropertyOp9
 70
     1
102
RTVSPropertyOp10
 70
     1
102
RTVSPropertyOp11
 70
     1
102
RTVSPropertyOp12
 70
     1
102
RTVSPropertyOp13
 70
     1
102
RTVSPropertyOp14
 70
     1
102
RTVSPropertyOp15
 70
     1
102
RTVSPropertyOp16
 70
     1
102
RTVSPropertyOp17
 70
     1
102
RTVSPropertyOp18
 70
     1
102
RTVSPropertyOp19
 70
     1
102
RTVSPropertyOp20
 70
     1
102
RTVSPropertyOp21
 70
     1
102
RTVSPropertyOp22
 70
     1
102
RTVSPropertyOp23
 70
     1
102
RTVSPropertyOp24
 70
     1
102
RTVSPropertyOp25
 70
     1
102
RTVSPropertyOp26
 70
     1
102
RTVSPropertyOp27
 70
     1
102
RTVSPropertyOp28
 70
     1
102
RTVSPropertyOp29
 70
     1
102
RTVSPropertyOp30
 70
     1
102
RTVSPropertyOp31
 70
     1
102
RTVSPropertyOp32
 70
     1
102
RTVSPropertyOp33
 70
     1
102
RTVSPropertyOp34
 70
     1
102
RTVSPropertyOp35
 70
     1
102
RTVSPropertyOp36
 70
     1
102
RTVSPropertyOp37
 70
     1
102
RTVSPropertyOp38
 70
     1
102
RTVSPropertyOp39
 70
     1
102
RTVSPropertyOp40
 70
     1
102
RTVSPropertyOp41
 70
     1
102
RTVSPropertyOp42
 70
     1
102
RTVSPropertyOp43
 70
     1
102
RTVSPropertyOp44
 70
     1
102
RTVSPropertyOp45
 70
     1
102
RTVSPropertyOp46
 70
     1
102
RTVSPropertyOp47
 70
     1
102
RTVSPropertyOp48
 70
     1
102
RTVSPropertyOp49
 70
     1
102
RTVSPropertyOp50
 70
     1
102
RTVSPropertyOp51
 70
     0
102
RTVSPropertyOp52
 70
     0
102
RTVSPropertyOp53
 70
     1
102
RTVSPropertyOp54
 70
     1
102
RTVSPropertyOp55
 70
     1
102
RTVSPropertyOp56
 70
     1
102
RTVSPropertyOp57
 70
     1
102
RTVSPropertyOp58
 70
     1
102
RTVSPropertyOp59
 70
     1
102
RTVSPropertyOp60
 70
     1
102
RTVSPropertyOp61
 70
     1
102
RTVSPropertyOp62
 70
     1
  0
XRECORD
  5
BB0
102
{ACAD_REACTORS
330
BAF
102
}
330
BAF
100
AcDbXrecord
280
     1
102
RTVSPost2010Prop28
280
     0
102
RTVSPost2010PropOp28
 70
     1
102
RTVSPost2010Prop29
280
     1
102
RTVSPost2010PropOp29
 70
     1
102
RTVSPost2010Prop30
280
     1
102
RTVSPost2010PropOp30
 70
     1
102
RTVSPost2010Prop31
280
     0
102
RTVSPost2010PropOp31
 70
     1
102
RTVSPost2010Prop32
280
     0
102
RTVSPost2010PropOp32
 70
     1
102
RTVSPost2010Prop33
280
     0
102
RTVSPost2010PropOp33
 70
     1
102
RTVSPost2010Prop34
280
     0
102
RTVSPost2010PropOp34
 70
     1
102
RTVSPost2010Prop35
280
     0
102
RTVSPost2010PropOp35
 70
     1
102
RTVSPost2010Prop36
280
     0
102
RTVSPost2010PropOp36
 70
     1
102
RTVSPost2010Prop37
 90
       50
102
RTVSPost2010PropOp37
 70
     1
102
RTVSPost2010Prop38
140
0.0
102
RTVSPost2010PropOp38
 70
     1
102
RTVSPost2010Prop39
140
1.0
102
RTVSPost2010PropOp39
 70
     1
102
RTVSPost2010Prop40
 90
        0
102
RTVSPost2010PropOp40
 70
     1
102
RTVSPost2010Prop41ColorIndex
 90
       18
102
RTVSPost2010Prop41ColorRGB
 90
        0
102
RTVSPost2010PropOp41
 70
     1
102
RTVSPost2010Prop42
 90
       50
102
RTVSPost2010PropOp42
 70
     1
102
RTVSPost2010Prop43
 90
        3
102
RTVSPost2010PropOp43
 70
     1
102
RTVSPost2010Prop44ColorIndex
 90
        5
102
RTVSPost2010Prop44ColorRGB
 90
      255
102
RTVSPost2010PropOp44
 70
     1
102
RTVSPost2010Prop45
280
     0
102
RTVSPost2010PropOp45
 70
     1
102
RTVSPost2010Prop46
 90
       50
102
RTVSPost2010PropOp46
 70
     1
102
RTVSPost2010Prop47
 90
       50
102
RTVSPost2010PropOp47
 70
     1
102
RTVSPost2010Prop48
 90
       50
102
RTVSPost2010PropOp48
 70
     1
102
RTVSPost2010Prop49
280
     0
102
RTVSPost2010PropOp49
 70
     1
102
RTVSPost2010Prop50
 90
       50
102
RTVSPost2010PropOp50
 70
     1
102
RTVSPost2010Prop51ColorIndex
 90
      256
102
RTVSPost2010Prop51ColorRGB
 90
-16777216
102
RTVSPost2010PropOp51
 70
     0
102
RTVSPost2010Prop52
140
1.0
102
RTVSPost2010PropOp52
 70
     0
102
RTVSPost2010Prop53
 90
        2
102
RTVSPost2010PropOp53
 70
     1
102
RTVSPost2010Prop54
  1
strokes_ogs.tif
102
RTVSPost2010PropOp54
 70
     1
102
RTVSPost2010Prop55
280
     0
102
RTVSPost2010PropOp55
 70
     1
102
RTVSPost2010Prop56
140
1.0
102
RTVSPost2010PropOp56
 70
     1
102
RTVSPost2010Prop57
140
1.0
102
RTVSPost2010PropOp57
 70
     1
102
RTVSPropertyOp0
 70
     1
102
RTVSPropertyOp1
 70
     1
102
RTVSPropertyOp2
 70
     1
102
RTVSPropertyOp3
 70
     1
102
RTVSPropertyOp4
 70
     1
102
RTVSPropertyOp5
 70
     1
102
RTVSPropertyOp6
 70
     1
102
RTVSPropertyOp7
 70
     1
102
RTVSPropertyOp8
 70
     1
102
RTVSPropertyOp9
 70
     1
102
RTVSPropertyOp10
 70
     1
102
RTVSPropertyOp11
 70
     1
102
RTVSPropertyOp12
 70
     1
102
RTVSPropertyOp13
 70
     1
102
RTVSPropertyOp14
 70
     1
102
RTVSPropertyOp15
 70
     1
102
RTVSPropertyOp16
 70
     1
102
RTVSPropertyOp17
 70
     1
102
RTVSPropertyOp18
 70
     1
102
RTVSPropertyOp19
 70
     1
102
RTVSPropertyOp20
 70
     1
102
RTVSPropertyOp21
 70
     1
102
RTVSPropertyOp22
 70
     1
102
RTVSPropertyOp23
 70
     1
102
RTVSPropertyOp24
 70
     1
102
RTVSPropertyOp25
 70
     1
102
RTVSPropertyOp26
 70
     1
102
RTVSPropertyOp27
 70
     1
102
RTVSPropertyOp28
 70
     1
102
RTVSPropertyOp29
 70
     1
102
RTVSPropertyOp30
 70
     1
102
RTVSPropertyOp31
 70
     1
102
RTVSPropertyOp32
 70
     1
102
RTVSPropertyOp33
 70
     1
102
RTVSPropertyOp34
 70
     1
102
RTVSPropertyOp35
 70
     1
102
RTVSPropertyOp36
 70
     1
102
RTVSPropertyOp37
 70
     1
102
RTVSPropertyOp38
 70
     1
102
RTVSPropertyOp39
 70
     1
102
RTVSPropertyOp40
 70
     1
102
RTVSPropertyOp41
 70
     1
102
RTVSPropertyOp42
 70
     1
102
RTVSPropertyOp43
 70
     1
102
RTVSPropertyOp44
 70
     1
102
RTVSPropertyOp45
 70
     1
102
RTVSPropertyOp46
 70
     1
102
RTVSPropertyOp47
 70
     1
102
RTVSPropertyOp48
 70
     1
102
RTVSPropertyOp49
 70
     1
102
RTVSPropertyOp50
 70
     1
102
RTVSPropertyOp51
 70
     0
102
RTVSPropertyOp52
 70
     0
102
RTVSPropertyOp53
 70
     1
102
RTVSPropertyOp54
 70
     1
102
RTVSPropertyOp55
 70
     1
102
RTVSPropertyOp56
 70
     1
102
RTVSPropertyOp57
 70
     1
102
RTVSPropertyOp58
 70
     1
102
RTVSPropertyOp59
 70
     1
102
RTVSPropertyOp60
 70
     1
102
RTVSPropertyOp61
 70
     1
102
RTVSPropertyOp62
 70
     1
  0
XRECORD
  5
BBE
102
{ACAD_REACTORS
330
BBD
102
}
330
BBD
100
AcDbXrecord
280
     1
102
RTVSPost2010Prop28
280
     0
102
RTVSPost2010PropOp28
 70
     1
102
RTVSPost2010Prop29
280
     1
102
RTVSPost2010PropOp29
 70
     1
102
RTVSPost2010Prop30
280
     1
102
RTVSPost2010PropOp30
 70
     1
102
RTVSPost2010Prop31
280
     0
102
RTVSPost2010PropOp31
 70
     1
102
RTVSPost2010Prop32
280
     0
102
RTVSPost2010PropOp32
 70
     1
102
RTVSPost2010Prop33
280
     0
102
RTVSPost2010PropOp33
 70
     1
102
RTVSPost2010Prop34
280
     0
102
RTVSPost2010PropOp34
 70
     1
102
RTVSPost2010Prop35
280
     0
102
RTVSPost2010PropOp35
 70
     1
102
RTVSPost2010Prop36
280
     0
102
RTVSPost2010PropOp36
 70
     1
102
RTVSPost2010Prop37
 90
       50
102
RTVSPost2010PropOp37
 70
     1
102
RTVSPost2010Prop38
140
0.0
102
RTVSPost2010PropOp38
 70
     1
102
RTVSPost2010Prop39
140
1.0
102
RTVSPost2010PropOp39
 70
     1
102
RTVSPost2010Prop40
 90
        0
102
RTVSPost2010PropOp40
 70
     1
102
RTVSPost2010Prop41ColorIndex
 90
       18
102
RTVSPost2010Prop41ColorRGB
 90
        0
102
RTVSPost2010PropOp41
 70
     1
102
RTVSPost2010Prop42
 90
       50
102
RTVSPost2010PropOp42
 70
     1
102
RTVSPost2010Prop43
 90
        3
102
RTVSPost2010PropOp43
 70
     1
102
RTVSPost2010Prop44ColorIndex
 90
        5
102
RTVSPost2010Prop44ColorRGB
 90
      255
102
RTVSPost2010PropOp44
 70
     1
102
RTVSPost2010Prop45
280
     0
102
RTVSPost2010PropOp45
 70
     1
102
RTVSPost2010Prop46
 90
       50
102
RTVSPost2010PropOp46
 70
     1
102
RTVSPost2010Prop47
 90
       50
102
RTVSPost2010PropOp47
 70
     1
102
RTVSPost2010Prop48
 90
       50
102
RTVSPost2010PropOp48
 70
     1
102
RTVSPost2010Prop49
280
     0
102
RTVSPost2010PropOp49
 70
     1
102
RTVSPost2010Prop50
 90
       50
102
RTVSPost2010PropOp50
 70
     1
102
RTVSPost2010Prop51ColorIndex
 90
      256
102
RTVSPost2010Prop51ColorRGB
 90
-16777216
102
RTVSPost2010PropOp51
 70
     0
102
RTVSPost2010Prop52
140
1.0
102
RTVSPost2010PropOp52
 70
     0
102
RTVSPost2010Prop53
 90
        2
102
RTVSPost2010PropOp53
 70
     1
102
RTVSPost2010Prop54
  1
strokes_ogs.tif
102
RTVSPost2010PropOp54
 70
     1
102
RTVSPost2010Prop55
280
     0
102
RTVSPost2010PropOp55
 70
     1
102
RTVSPost2010Prop56
140
1.0
102
RTVSPost2010PropOp56
 70
     1
102
RTVSPost2010Prop57
140
1.0
102
RTVSPost2010PropOp57
 70
     1
102
RTVSPropertyOp0
 70
     1
102
RTVSPropertyOp1
 70
     1
102
RTVSPropertyOp2
 70
     1
102
RTVSPropertyOp3
 70
     1
102
RTVSPropertyOp4
 70
     1
102
RTVSPropertyOp5
 70
     1
102
RTVSPropertyOp6
 70
     1
102
RTVSPropertyOp7
 70
     1
102
RTVSPropertyOp8
 70
     1
102
RTVSPropertyOp9
 70
     1
102
RTVSPropertyOp10
 70
     1
102
RTVSPropertyOp11
 70
     1
102
RTVSPropertyOp12
 70
     1
102
RTVSPropertyOp13
 70
     1
102
RTVSPropertyOp14
 70
     1
102
RTVSPropertyOp15
 70
     1
102
RTVSPropertyOp16
 70
     1
102
RTVSPropertyOp17
 70
     1
102
RTVSPropertyOp18
 70
     1
102
RTVSPropertyOp19
 70
     1
102
RTVSPropertyOp20
 70
     1
102
RTVSPropertyOp21
 70
     1
102
RTVSPropertyOp22
 70
     1
102
RTVSPropertyOp23
 70
     1
102
RTVSPropertyOp24
 70
     1
102
RTVSPropertyOp25
 70
     1
102
RTVSPropertyOp26
 70
     1
102
RTVSPropertyOp27
 70
     1
102
RTVSPropertyOp28
 70
     1
102
RTVSPropertyOp29
 70
     1
102
RTVSPropertyOp30
 70
     1
102
RTVSPropertyOp31
 70
     1
102
RTVSPropertyOp32
 70
     1
102
RTVSPropertyOp33
 70
     1
102
RTVSPropertyOp34
 70
     1
102
RTVSPropertyOp35
 70
     1
102
RTVSPropertyOp36
 70
     1
102
RTVSPropertyOp37
 70
     1
102
RTVSPropertyOp38
 70
     1
102
RTVSPropertyOp39
 70
     1
102
RTVSPropertyOp40
 70
     1
102
RTVSPropertyOp41
 70
     1
102
RTVSPropertyOp42
 70
     1
102
RTVSPropertyOp43
 70
     1
102
RTVSPropertyOp44
 70
     1
102
RTVSPropertyOp45
 70
     1
102
RTVSPropertyOp46
 70
     1
102
RTVSPropertyOp47
 70
     1
102
RTVSPropertyOp48
 70
     1
102
RTVSPropertyOp49
 70
     1
102
RTVSPropertyOp50
 70
     1
102
RTVSPropertyOp51
 70
     0
102
RTVSPropertyOp52
 70
     0
102
RTVSPropertyOp53
 70
     1
102
RTVSPropertyOp54
 70
     1
102
RTVSPropertyOp55
 70
     1
102
RTVSPropertyOp56
 70
     1
102
RTVSPropertyOp57
 70
     1
102
RTVSPropertyOp58
 70
     1
102
RTVSPropertyOp59
 70
     1
102
RTVSPropertyOp60
 70
     1
102
RTVSPropertyOp61
 70
     1
102
RTVSPropertyOp62
 70
     1
  0
XRECORD
  5
BC6
102
{ACAD_REACTORS
330
BC5
102
}
330
BC5
100
AcDbXrecord
280
     1
102
RTVSPost2010Prop28
280
     0
102
RTVSPost2010PropOp28
 70
     1
102
RTVSPost2010Prop29
280
     1
102
RTVSPost2010PropOp29
 70
     1
102
RTVSPost2010Prop30
280
     1
102
RTVSPost2010PropOp30
 70
     1
102
RTVSPost2010Prop31
280
     0
102
RTVSPost2010PropOp31
 70
     1
102
RTVSPost2010Prop32
280
     0
102
RTVSPost2010PropOp32
 70
     1
102
RTVSPost2010Prop33
280
     0
102
RTVSPost2010PropOp33
 70
     1
102
RTVSPost2010Prop34
280
     0
102
RTVSPost2010PropOp34
 70
     1
102
RTVSPost2010Prop35
280
     0
102
RTVSPost2010PropOp35
 70
     1
102
RTVSPost2010Prop36
280
     0
102
RTVSPost2010PropOp36
 70
     1
102
RTVSPost2010Prop37
 90
       50
102
RTVSPost2010PropOp37
 70
     1
102
RTVSPost2010Prop38
140
0.0
102
RTVSPost2010PropOp38
 70
     1
102
RTVSPost2010Prop39
140
1.0
102
RTVSPost2010PropOp39
 70
     1
102
RTVSPost2010Prop40
 90
        0
102
RTVSPost2010PropOp40
 70
     1
102
RTVSPost2010Prop41ColorIndex
 90
       18
102
RTVSPost2010Prop41ColorRGB
 90
        0
102
RTVSPost2010PropOp41
 70
     1
102
RTVSPost2010Prop42
 90
       50
102
RTVSPost2010PropOp42
 70
     1
102
RTVSPost2010Prop43
 90
        3
102
RTVSPost2010PropOp43
 70
     1
102
RTVSPost2010Prop44ColorIndex
 90
        5
102
RTVSPost2010Prop44ColorRGB
 90
      255
102
RTVSPost2010PropOp44
 70
     1
102
RTVSPost2010Prop45
280
     0
102
RTVSPost2010PropOp45
 70
     1
102
RTVSPost2010Prop46
 90
       50
102
RTVSPost2010PropOp46
 70
     1
102
RTVSPost2010Prop47
 90
       50
102
RTVSPost2010PropOp47
 70
     1
102
RTVSPost2010Prop48
 90
       50
102
RTVSPost2010PropOp48
 70
     1
102
RTVSPost2010Prop49
280
     0
102
RTVSPost2010PropOp49
 70
     1
102
RTVSPost2010Prop50
 90
       50
102
RTVSPost2010PropOp50
 70
     1
102
RTVSPost2010Prop51ColorIndex
 90
      256
102
RTVSPost2010Prop51ColorRGB
 90
-16777216
102
RTVSPost2010PropOp51
 70
     0
102
RTVSPost2010Prop52
140
1.0
102
RTVSPost2010PropOp52
 70
     0
102
RTVSPost2010Prop53
 90
        2
102
RTVSPost2010PropOp53
 70
     1
102
RTVSPost2010Prop54
  1
strokes_ogs.tif
102
RTVSPost2010PropOp54
 70
     1
102
RTVSPost2010Prop55
280
     0
102
RTVSPost2010PropOp55
 70
     1
102
RTVSPost2010Prop56
140
1.0
102
RTVSPost2010PropOp56
 70
     1
102
RTVSPost2010Prop57
140
1.0
102
RTVSPost2010PropOp57
 70
     1
102
RTVSPropertyOp0
 70
     1
102
RTVSPropertyOp1
 70
     1
102
RTVSPropertyOp2
 70
     1
102
RTVSPropertyOp3
 70
     1
102
RTVSPropertyOp4
 70
     1
102
RTVSPropertyOp5
 70
     1
102
RTVSPropertyOp6
 70
     1
102
RTVSPropertyOp7
 70
     1
102
RTVSPropertyOp8
 70
     1
102
RTVSPropertyOp9
 70
     1
102
RTVSPropertyOp10
 70
     1
102
RTVSPropertyOp11
 70
     1
102
RTVSPropertyOp12
 70
     1
102
RTVSPropertyOp13
 70
     1
102
RTVSPropertyOp14
 70
     1
102
RTVSPropertyOp15
 70
     1
102
RTVSPropertyOp16
 70
     1
102
RTVSPropertyOp17
 70
     1
102
RTVSPropertyOp18
 70
     1
102
RTVSPropertyOp19
 70
     1
102
RTVSPropertyOp20
 70
     1
102
RTVSPropertyOp21
 70
     1
102
RTVSPropertyOp22
 70
     1
102
RTVSPropertyOp23
 70
     1
102
RTVSPropertyOp24
 70
     1
102
RTVSPropertyOp25
 70
     1
102
RTVSPropertyOp26
 70
     1
102
RTVSPropertyOp27
 70
     1
102
RTVSPropertyOp28
 70
     1
102
RTVSPropertyOp29
 70
     1
102
RTVSPropertyOp30
 70
     1
102
RTVSPropertyOp31
 70
     1
102
RTVSPropertyOp32
 70
     1
102
RTVSPropertyOp33
 70
     1
102
RTVSPropertyOp34
 70
     1
102
RTVSPropertyOp35
 70
     1
102
RTVSPropertyOp36
 70
     1
102
RTVSPropertyOp37
 70
     1
102
RTVSPropertyOp38
 70
     1
102
RTVSPropertyOp39
 70
     1
102
RTVSPropertyOp40
 70
     1
102
RTVSPropertyOp41
 70
     1
102
RTVSPropertyOp42
 70
     1
102
RTVSPropertyOp43
 70
     1
102
RTVSPropertyOp44
 70
     1
102
RTVSPropertyOp45
 70
     1
102
RTVSPropertyOp46
 70
     1
102
RTVSPropertyOp47
 70
     1
102
RTVSPropertyOp48
 70
     1
102
RTVSPropertyOp49
 70
     1
102
RTVSPropertyOp50
 70
     1
102
RTVSPropertyOp51
 70
     0
102
RTVSPropertyOp52
 70
     0
102
RTVSPropertyOp53
 70
     1
102
RTVSPropertyOp54
 70
     1
102
RTVSPropertyOp55
 70
     1
102
RTVSPropertyOp56
 70
     1
102
RTVSPropertyOp57
 70
     1
102
RTVSPropertyOp58
 70
     1
102
RTVSPropertyOp59
 70
     1
102
RTVSPropertyOp60
 70
     1
102
RTVSPropertyOp61
 70
     1
102
RTVSPropertyOp62
 70
     1
  0
XRECORD
  5
BB8
102
{ACAD_REACTORS
330
BB7
102
}
330
BB7
100
AcDbXrecord
280
     1
102
RTVSPost2010Prop28
280
     0
102
RTVSPost2010PropOp28
 70
     1
102
RTVSPost2010Prop29
280
     1
102
RTVSPost2010PropOp29
 70
     1
102
RTVSPost2010Prop30
280
     1
102
RTVSPost2010PropOp30
 70
     1
102
RTVSPost2010Prop31
280
     0
102
RTVSPost2010PropOp31
 70
     1
102
RTVSPost2010Prop32
280
     0
102
RTVSPost2010PropOp32
 70
     1
102
RTVSPost2010Prop33
280
     0
102
RTVSPost2010PropOp33
 70
     1
102
RTVSPost2010Prop34
280
     0
102
RTVSPost2010PropOp34
 70
     1
102
RTVSPost2010Prop35
280
     0
102
RTVSPost2010PropOp35
 70
     1
102
RTVSPost2010Prop36
280
     0
102
RTVSPost2010PropOp36
 70
     1
102
RTVSPost2010Prop37
 90
       50
102
RTVSPost2010PropOp37
 70
     1
102
RTVSPost2010Prop38
140
0.0
102
RTVSPost2010PropOp38
 70
     1
102
RTVSPost2010Prop39
140
1.0
102
RTVSPost2010PropOp39
 70
     1
102
RTVSPost2010Prop40
 90
        0
102
RTVSPost2010PropOp40
 70
     1
102
RTVSPost2010Prop41ColorIndex
 90
       18
102
RTVSPost2010Prop41ColorRGB
 90
        0
102
RTVSPost2010PropOp41
 70
     1
102
RTVSPost2010Prop42
 90
       50
102
RTVSPost2010PropOp42
 70
     1
102
RTVSPost2010Prop43
 90
        3
102
RTVSPost2010PropOp43
 70
     1
102
RTVSPost2010Prop44ColorIndex
 90
        5
102
RTVSPost2010Prop44ColorRGB
 90
      255
102
RTVSPost2010PropOp44
 70
     1
102
RTVSPost2010Prop45
280
     0
102
RTVSPost2010PropOp45
 70
     1
102
RTVSPost2010Prop46
 90
       50
102
RTVSPost2010PropOp46
 70
     1
102
RTVSPost2010Prop47
 90
       50
102
RTVSPost2010PropOp47
 70
     1
102
RTVSPost2010Prop48
 90
       50
102
RTVSPost2010PropOp48
 70
     1
102
RTVSPost2010Prop49
280
     0
102
RTVSPost2010PropOp49
 70
     1
102
RTVSPost2010Prop50
 90
       50
102
RTVSPost2010PropOp50
 70
     1
102
RTVSPost2010Prop51ColorIndex
 90
      256
102
RTVSPost2010Prop51ColorRGB
 90
-16777216
102
RTVSPost2010PropOp51
 70
     0
102
RTVSPost2010Prop52
140
1.0
102
RTVSPost2010PropOp52
 70
     0
102
RTVSPost2010Prop53
 90
        2
102
RTVSPost2010PropOp53
 70
     1
102
RTVSPost2010Prop54
  1
strokes_ogs.tif
102
RTVSPost2010PropOp54
 70
     1
102
RTVSPost2010Prop55
280
     0
102
RTVSPost2010PropOp55
 70
     1
102
RTVSPost2010Prop56
140
1.0
102
RTVSPost2010PropOp56
 70
     1
102
RTVSPost2010Prop57
140
1.0
102
RTVSPost2010PropOp57
 70
     1
102
RTVSPropertyOp0
 70
     1
102
RTVSPropertyOp1
 70
     1
102
RTVSPropertyOp2
 70
     1
102
RTVSPropertyOp3
 70
     1
102
RTVSPropertyOp4
 70
     1
102
RTVSPropertyOp5
 70
     1
102
RTVSPropertyOp6
 70
     1
102
RTVSPropertyOp7
 70
     1
102
RTVSPropertyOp8
 70
     1
102
RTVSPropertyOp9
 70
     1
102
RTVSPropertyOp10
 70
     1
102
RTVSPropertyOp11
 70
     1
102
RTVSPropertyOp12
 70
     1
102
RTVSPropertyOp13
 70
     1
102
RTVSPropertyOp14
 70
     1
102
RTVSPropertyOp15
 70
     1
102
RTVSPropertyOp16
 70
     1
102
RTVSPropertyOp17
 70
     1
102
RTVSPropertyOp18
 70
     1
102
RTVSPropertyOp19
 70
     1
102
RTVSPropertyOp20
 70
     1
102
RTVSPropertyOp21
 70
     1
102
RTVSPropertyOp22
 70
     1
102
RTVSPropertyOp23
 70
     1
102
RTVSPropertyOp24
 70
     1
102
RTVSPropertyOp25
 70
     1
102
RTVSPropertyOp26
 70
     1
102
RTVSPropertyOp27
 70
     1
102
RTVSPropertyOp28
 70
     1
102
RTVSPropertyOp29
 70
     1
102
RTVSPropertyOp30
 70
     1
102
RTVSPropertyOp31
 70
     1
102
RTVSPropertyOp32
 70
     1
102
RTVSPropertyOp33
 70
     1
102
RTVSPropertyOp34
 70
     1
102
RTVSPropertyOp35
 70
     1
102
RTVSPropertyOp36
 70
     1
102
RTVSPropertyOp37
 70
     1
102
RTVSPropertyOp38
 70
     1
102
RTVSPropertyOp39
 70
     1
102
RTVSPropertyOp40
 70
     1
102
RTVSPropertyOp41
 70
     1
102
RTVSPropertyOp42
 70
     1
102
RTVSPropertyOp43
 70
     1
102
RTVSPropertyOp44
 70
     1
102
RTVSPropertyOp45
 70
     1
102
RTVSPropertyOp46
 70
     1
102
RTVSPropertyOp47
 70
     1
102
RTVSPropertyOp48
 70
     1
102
RTVSPropertyOp49
 70
     1
102
RTVSPropertyOp50
 70
     1
102
RTVSPropertyOp51
 70
     0
102
RTVSPropertyOp52
 70
     0
102
RTVSPropertyOp53
 70
     1
102
RTVSPropertyOp54
 70
     1
102
RTVSPropertyOp55
 70
     1
102
RTVSPropertyOp56
 70
     1
102
RTVSPropertyOp57
 70
     1
102
RTVSPropertyOp58
 70
     1
102
RTVSPropertyOp59
 70
     1
102
RTVSPropertyOp60
 70
     1
102
RTVSPropertyOp61
 70
     1
102
RTVSPropertyOp62
 70
     1
  0
XRECORD
  5
BBC
102
{ACAD_REACTORS
330
BBB
102
}
330
BBB
100
AcDbXrecord
280
     1
102
RTVSPost2010Prop28
280
     0
102
RTVSPost2010PropOp28
 70
     1
102
RTVSPost2010Prop29
280
     1
102
RTVSPost2010PropOp29
 70
     1
102
RTVSPost2010Prop30
280
     1
102
RTVSPost2010PropOp30
 70
     1
102
RTVSPost2010Prop31
280
     0
102
RTVSPost2010PropOp31
 70
     1
102
RTVSPost2010Prop32
280
     0
102
RTVSPost2010PropOp32
 70
     1
102
RTVSPost2010Prop33
280
     0
102
RTVSPost2010PropOp33
 70
     1
102
RTVSPost2010Prop34
280
     0
102
RTVSPost2010PropOp34
 70
     1
102
RTVSPost2010Prop35
280
     0
102
RTVSPost2010PropOp35
 70
     1
102
RTVSPost2010Prop36
280
     0
102
RTVSPost2010PropOp36
 70
     1
102
RTVSPost2010Prop37
 90
       50
102
RTVSPost2010PropOp37
 70
     1
102
RTVSPost2010Prop38
140
0.0
102
RTVSPost2010PropOp38
 70
     1
102
RTVSPost2010Prop39
140
1.0
102
RTVSPost2010PropOp39
 70
     1
102
RTVSPost2010Prop40
 90
        0
102
RTVSPost2010PropOp40
 70
     1
102
RTVSPost2010Prop41ColorIndex
 90
       18
102
RTVSPost2010Prop41ColorRGB
 90
        0
102
RTVSPost2010PropOp41
 70
     1
102
RTVSPost2010Prop42
 90
       50
102
RTVSPost2010PropOp42
 70
     1
102
RTVSPost2010Prop43
 90
        3
102
RTVSPost2010PropOp43
 70
     1
102
RTVSPost2010Prop44ColorIndex
 90
        5
102
RTVSPost2010Prop44ColorRGB
 90
      255
102
RTVSPost2010PropOp44
 70
     1
102
RTVSPost2010Prop45
280
     0
102
RTVSPost2010PropOp45
 70
     1
102
RTVSPost2010Prop46
 90
       50
102
RTVSPost2010PropOp46
 70
     1
102
RTVSPost2010Prop47
 90
       50
102
RTVSPost2010PropOp47
 70
     1
102
RTVSPost2010Prop48
 90
       50
102
RTVSPost2010PropOp48
 70
     1
102
RTVSPost2010Prop49
280
     0
102
RTVSPost2010PropOp49
 70
     1
102
RTVSPost2010Prop50
 90
       50
102
RTVSPost2010PropOp50
 70
     1
102
RTVSPost2010Prop51ColorIndex
 90
      256
102
RTVSPost2010Prop51ColorRGB
 90
-16777216
102
RTVSPost2010PropOp51
 70
     0
102
RTVSPost2010Prop52
140
1.0
102
RTVSPost2010PropOp52
 70
     0
102
RTVSPost2010Prop53
 90
        2
102
RTVSPost2010PropOp53
 70
     1
102
RTVSPost2010Prop54
  1
strokes_ogs.tif
102
RTVSPost2010PropOp54
 70
     1
102
RTVSPost2010Prop55
280
     0
102
RTVSPost2010PropOp55
 70
     1
102
RTVSPost2010Prop56
140
1.0
102
RTVSPost2010PropOp56
 70
     1
102
RTVSPost2010Prop57
140
1.0
102
RTVSPost2010PropOp57
 70
     1
102
RTVSPropertyOp0
 70
     1
102
RTVSPropertyOp1
 70
     1
102
RTVSPropertyOp2
 70
     1
102
RTVSPropertyOp3
 70
     1
102
RTVSPropertyOp4
 70
     1
102
RTVSPropertyOp5
 70
     1
102
RTVSPropertyOp6
 70
     1
102
RTVSPropertyOp7
 70
     1
102
RTVSPropertyOp8
 70
     1
102
RTVSPropertyOp9
 70
     1
102
RTVSPropertyOp10
 70
     1
102
RTVSPropertyOp11
 70
     1
102
RTVSPropertyOp12
 70
     1
102
RTVSPropertyOp13
 70
     1
102
RTVSPropertyOp14
 70
     1
102
RTVSPropertyOp15
 70
     1
102
RTVSPropertyOp16
 70
     1
102
RTVSPropertyOp17
 70
     1
102
RTVSPropertyOp18
 70
     1
102
RTVSPropertyOp19
 70
     1
102
RTVSPropertyOp20
 70
     1
102
RTVSPropertyOp21
 70
     1
102
RTVSPropertyOp22
 70
     1
102
RTVSPropertyOp23
 70
     1
102
RTVSPropertyOp24
 70
     1
102
RTVSPropertyOp25
 70
     1
102
RTVSPropertyOp26
 70
     1
102
RTVSPropertyOp27
 70
     1
102
RTVSPropertyOp28
 70
     1
102
RTVSPropertyOp29
 70
     1
102
RTVSPropertyOp30
 70
     1
102
RTVSPropertyOp31
 70
     1
102
RTVSPropertyOp32
 70
     1
102
RTVSPropertyOp33
 70
     1
102
RTVSPropertyOp34
 70
     1
102
RTVSPropertyOp35
 70
     1
102
RTVSPropertyOp36
 70
     1
102
RTVSPropertyOp37
 70
     1
102
RTVSPropertyOp38
 70
     1
102
RTVSPropertyOp39
 70
     1
102
RTVSPropertyOp40
 70
     1
102
RTVSPropertyOp41
 70
     1
102
RTVSPropertyOp42
 70
     1
102
RTVSPropertyOp43
 70
     1
102
RTVSPropertyOp44
 70
     1
102
RTVSPropertyOp45
 70
     1
102
RTVSPropertyOp46
 70
     1
102
RTVSPropertyOp47
 70
     1
102
RTVSPropertyOp48
 70
     1
102
RTVSPropertyOp49
 70
     1
102
RTVSPropertyOp50
 70
     1
102
RTVSPropertyOp51
 70
     0
102
RTVSPropertyOp52
 70
     0
102
RTVSPropertyOp53
 70
     1
102
RTVSPropertyOp54
 70
     1
102
RTVSPropertyOp55
 70
     1
102
RTVSPropertyOp56
 70
     1
102
RTVSPropertyOp57
 70
     1
102
RTVSPropertyOp58
 70
     1
102
RTVSPropertyOp59
 70
     1
102
RTVSPropertyOp60
 70
     1
102
RTVSPropertyOp61
 70
     1
102
RTVSPropertyOp62
 70
     1
  0
XRECORD
  5
BD6
102
{ACAD_REACTORS
330
BD5
102
}
330
BD5
100
AcDbXrecord
280
     1
102
RTVSPost2010Prop28
280
     0
102
RTVSPost2010PropOp28
 70
     1
102
RTVSPost2010Prop29
280
     1
102
RTVSPost2010PropOp29
 70
     1
102
RTVSPost2010Prop30
280
     1
102
RTVSPost2010PropOp30
 70
     1
102
RTVSPost2010Prop31
280
     0
102
RTVSPost2010PropOp31
 70
     1
102
RTVSPost2010Prop32
280
     0
102
RTVSPost2010PropOp32
 70
     1
102
RTVSPost2010Prop33
280
     0
102
RTVSPost2010PropOp33
 70
     1
102
RTVSPost2010Prop34
280
     0
102
RTVSPost2010PropOp34
 70
     1
102
RTVSPost2010Prop35
280
     0
102
RTVSPost2010PropOp35
 70
     1
102
RTVSPost2010Prop36
280
     0
102
RTVSPost2010PropOp36
 70
     1
102
RTVSPost2010Prop37
 90
       50
102
RTVSPost2010PropOp37
 70
     0
102
RTVSPost2010Prop38
140
0.0
102
RTVSPost2010PropOp38
 70
     0
102
RTVSPost2010Prop39
140
1.0
102
RTVSPost2010PropOp39
 70
     0
102
RTVSPost2010Prop40
 90
        0
102
RTVSPost2010PropOp40
 70
     0
102
RTVSPost2010Prop41ColorIndex
 90
       18
102
RTVSPost2010Prop41ColorRGB
 90
        0
102
RTVSPost2010PropOp41
 70
     0
102
RTVSPost2010Prop42
 90
       50
102
RTVSPost2010PropOp42
 70
     0
102
RTVSPost2010Prop43
 90
        3
102
RTVSPost2010PropOp43
 70
     0
102
RTVSPost2010Prop44ColorIndex
 90
        5
102
RTVSPost2010Prop44ColorRGB
 90
      255
102
RTVSPost2010PropOp44
 70
     0
102
RTVSPost2010Prop45
280
     0
102
RTVSPost2010PropOp45
 70
     1
102
RTVSPost2010Prop46
 90
       50
102
RTVSPost2010PropOp46
 70
     0
102
RTVSPost2010Prop47
 90
       50
102
RTVSPost2010PropOp47
 70
     0
102
RTVSPost2010Prop48
 90
       50
102
RTVSPost2010PropOp48
 70
     0
102
RTVSPost2010Prop49
280
     0
102
RTVSPost2010PropOp49
 70
     1
102
RTVSPost2010Prop50
 90
       50
102
RTVSPost2010PropOp50
 70
     0
102
RTVSPost2010Prop51ColorIndex
 90
      256
102
RTVSPost2010Prop51ColorRGB
 90
-16777216
102
RTVSPost2010PropOp51
 70
     0
102
RTVSPost2010Prop52
140
1.0
102
RTVSPost2010PropOp52
 70
     0
102
RTVSPost2010Prop53
 90
        2
102
RTVSPost2010PropOp53
 70
     0
102
RTVSPost2010Prop54
  1
strokes_ogs.tif
102
RTVSPost2010PropOp54
 70
     0
102
RTVSPost2010Prop55
280
     0
102
RTVSPost2010PropOp55
 70
     1
102
RTVSPost2010Prop56
140
1.0
102
RTVSPost2010PropOp56
 70
     0
102
RTVSPost2010Prop57
140
1.0
102
RTVSPost2010PropOp57
 70
     0
102
RTVSPropertyOp0
 70
     0
102
RTVSPropertyOp1
 70
     0
102
RTVSPropertyOp2
 70
     0
102
RTVSPropertyOp3
 70
     0
102
RTVSPropertyOp4
 70
     0
102
RTVSPropertyOp5
 70
     0
102
RTVSPropertyOp6
 70
     0
102
RTVSPropertyOp7
 70
     0
102
RTVSPropertyOp8
 70
     0
102
RTVSPropertyOp9
 70
     0
102
RTVSPropertyOp10
 70
     0
102
RTVSPropertyOp11
 70
     0
102
RTVSPropertyOp12
 70
     0
102
RTVSPropertyOp13
 70
     0
102
RTVSPropertyOp14
 70
     2
102
RTVSPropertyOp15
 70
     0
102
RTVSPropertyOp16
 70
     0
102
RTVSPropertyOp17
 70
     0
102
RTVSPropertyOp18
 70
     0
102
RTVSPropertyOp19
 70
     0
102
RTVSPropertyOp20
 70
     0
102
RTVSPropertyOp21
 70
     0
102
RTVSPropertyOp22
 70
     0
102
RTVSPropertyOp23
 70
     0
102
RTVSPropertyOp24
 70
     0
102
RTVSPropertyOp25
 70
     0
102
RTVSPropertyOp26
 70
     0
102
RTVSPropertyOp27
 70
     0
102
RTVSPropertyOp28
 70
     1
102
RTVSPropertyOp29
 70
     1
102
RTVSPropertyOp30
 70
     1
102
RTVSPropertyOp31
 70
     1
102
RTVSPropertyOp32
 70
     1
102
RTVSPropertyOp33
 70
     1
102
RTVSPropertyOp34
 70
     1
102
RTVSPropertyOp35
 70
     1
102
RTVSPropertyOp36
 70
     1
102
RTVSPropertyOp37
 70
     0
102
RTVSPropertyOp38
 70
     0
102
RTVSPropertyOp39
 70
     0
102
RTVSPropertyOp40
 70
     0
102
RTVSPropertyOp41
 70
     0
102
RTVSPropertyOp42
 70
     0
102
RTVSPropertyOp43
 70
     0
102
RTVSPropertyOp44
 70
     0
102
RTVSPropertyOp45
 70
     1
102
RTVSPropertyOp46
 70
     0
102
RTVSPropertyOp47
 70
     0
102
RTVSPropertyOp48
 70
     0
102
RTVSPropertyOp49
 70
     1
102
RTVSPropertyOp50
 70
     0
102
RTVSPropertyOp51
 70
     0
102
RTVSPropertyOp52
 70
     0
102
RTVSPropertyOp53
 70
     0
102
RTVSPropertyOp54
 70
     0
102
RTVSPropertyOp55
 70
     1
102
RTVSPropertyOp56
 70
     0
102
RTVSPropertyOp57
 70
     0
102
RTVSPropertyOp58
 70
     0
102
RTVSPropertyOp59
 70
     0
102
RTVSPropertyOp60
 70
     0
102
RTVSPropertyOp61
 70
     0
102
RTVSPropertyOp62
 70
     0
  0
XRECORD
  5
BC4
102
{ACAD_REACTORS
330
BC3
102
}
330
BC3
100
AcDbXrecord
280
     1
102
RTVSPost2010Prop28
280
     0
102
RTVSPost2010PropOp28
 70
     1
102
RTVSPost2010Prop29
280
     1
102
RTVSPost2010PropOp29
 70
     1
102
RTVSPost2010Prop30
280
     1
102
RTVSPost2010PropOp30
 70
     1
102
RTVSPost2010Prop31
280
     0
102
RTVSPost2010PropOp31
 70
     1
102
RTVSPost2010Prop32
280
     0
102
RTVSPost2010PropOp32
 70
     1
102
RTVSPost2010Prop33
280
     0
102
RTVSPost2010PropOp33
 70
     1
102
RTVSPost2010Prop34
280
     0
102
RTVSPost2010PropOp34
 70
     1
102
RTVSPost2010Prop35
280
     0
102
RTVSPost2010PropOp35
 70
     1
102
RTVSPost2010Prop36
280
     0
102
RTVSPost2010PropOp36
 70
     1
102
RTVSPost2010Prop37
 90
       50
102
RTVSPost2010PropOp37
 70
     1
102
RTVSPost2010Prop38
140
0.0
102
RTVSPost2010PropOp38
 70
     1
102
RTVSPost2010Prop39
140
1.0
102
RTVSPost2010PropOp39
 70
     1
102
RTVSPost2010Prop40
 90
        0
102
RTVSPost2010PropOp40
 70
     1
102
RTVSPost2010Prop41ColorIndex
 90
       18
102
RTVSPost2010Prop41ColorRGB
 90
        0
102
RTVSPost2010PropOp41
 70
     1
102
RTVSPost2010Prop42
 90
       50
102
RTVSPost2010PropOp42
 70
     1
102
RTVSPost2010Prop43
 90
        3
102
RTVSPost2010PropOp43
 70
     1
102
RTVSPost2010Prop44ColorIndex
 90
        5
102
RTVSPost2010Prop44ColorRGB
 90
      255
102
RTVSPost2010PropOp44
 70
     1
102
RTVSPost2010Prop45
280
     0
102
RTVSPost2010PropOp45
 70
     1
102
RTVSPost2010Prop46
 90
       50
102
RTVSPost2010PropOp46
 70
     1
102
RTVSPost2010Prop47
 90
       50
102
RTVSPost2010PropOp47
 70
     1
102
RTVSPost2010Prop48
 90
       50
102
RTVSPost2010PropOp48
 70
     1
102
RTVSPost2010Prop49
280
     0
102
RTVSPost2010PropOp49
 70
     1
102
RTVSPost2010Prop50
 90
       50
102
RTVSPost2010PropOp50
 70
     1
102
RTVSPost2010Prop51ColorIndex
 90
      256
102
RTVSPost2010Prop51ColorRGB
 90
-16777216
102
RTVSPost2010PropOp51
 70
     0
102
RTVSPost2010Prop52
140
1.0
102
RTVSPost2010PropOp52
 70
     0
102
RTVSPost2010Prop53
 90
        2
102
RTVSPost2010PropOp53
 70
     1
102
RTVSPost2010Prop54
  1
strokes_ogs.tif
102
RTVSPost2010PropOp54
 70
     1
102
RTVSPost2010Prop55
280
     0
102
RTVSPost2010PropOp55
 70
     1
102
RTVSPost2010Prop56
140
1.0
102
RTVSPost2010PropOp56
 70
     1
102
RTVSPost2010Prop57
140
1.0
102
RTVSPost2010PropOp57
 70
     1
102
RTVSPropertyOp0
 70
     1
102
RTVSPropertyOp1
 70
     1
102
RTVSPropertyOp2
 70
     1
102
RTVSPropertyOp3
 70
     1
102
RTVSPropertyOp4
 70
     1
102
RTVSPropertyOp5
 70
     1
102
RTVSPropertyOp6
 70
     1
102
RTVSPropertyOp7
 70
     1
102
RTVSPropertyOp8
 70
     1
102
RTVSPropertyOp9
 70
     1
102
RTVSPropertyOp10
 70
     1
102
RTVSPropertyOp11
 70
     1
102
RTVSPropertyOp12
 70
     1
102
RTVSPropertyOp13
 70
     1
102
RTVSPropertyOp14
 70
     1
102
RTVSPropertyOp15
 70
     1
102
RTVSPropertyOp16
 70
     1
102
RTVSPropertyOp17
 70
     1
102
RTVSPropertyOp18
 70
     1
102
RTVSPropertyOp19
 70
     1
102
RTVSPropertyOp20
 70
     1
102
RTVSPropertyOp21
 70
     1
102
RTVSPropertyOp22
 70
     1
102
RTVSPropertyOp23
 70
     1
102
RTVSPropertyOp24
 70
     1
102
RTVSPropertyOp25
 70
     1
102
RTVSPropertyOp26
 70
     1
102
RTVSPropertyOp27
 70
     1
102
RTVSPropertyOp28
 70
     1
102
RTVSPropertyOp29
 70
     1
102
RTVSPropertyOp30
 70
     1
102
RTVSPropertyOp31
 70
     1
102
RTVSPropertyOp32
 70
     1
102
RTVSPropertyOp33
 70
     1
102
RTVSPropertyOp34
 70
     1
102
RTVSPropertyOp35
 70
     1
102
RTVSPropertyOp36
 70
     1
102
RTVSPropertyOp37
 70
     1
102
RTVSPropertyOp38
 70
     1
102
RTVSPropertyOp39
 70
     1
102
RTVSPropertyOp40
 70
     1
102
RTVSPropertyOp41
 70
     1
102
RTVSPropertyOp42
 70
     1
102
RTVSPropertyOp43
 70
     1
102
RTVSPropertyOp44
 70
     1
102
RTVSPropertyOp45
 70
     1
102
RTVSPropertyOp46
 70
     1
102
RTVSPropertyOp47
 70
     1
102
RTVSPropertyOp48
 70
     1
102
RTVSPropertyOp49
 70
     1
102
RTVSPropertyOp50
 70
     1
102
RTVSPropertyOp51
 70
     0
102
RTVSPropertyOp52
 70
     0
102
RTVSPropertyOp53
 70
     1
102
RTVSPropertyOp54
 70
     1
102
RTVSPropertyOp55
 70
     1
102
RTVSPropertyOp56
 70
     1
102
RTVSPropertyOp57
 70
     1
102
RTVSPropertyOp58
 70
     1
102
RTVSPropertyOp59
 70
     1
102
RTVSPropertyOp60
 70
     1
102
RTVSPropertyOp61
 70
     1
102
RTVSPropertyOp62
 70
     1
  0
XRECORD
  5
BA8
102
{ACAD_REACTORS
330
BA7
102
}
330
BA7
100
AcDbXrecord
280
     1
102
RTVSPost2010Prop28
280
     0
102
RTVSPost2010PropOp28
 70
     1
102
RTVSPost2010Prop29
280
     1
102
RTVSPost2010PropOp29
 70
     1
102
RTVSPost2010Prop30
280
     1
102
RTVSPost2010PropOp30
 70
     1
102
RTVSPost2010Prop31
280
     0
102
RTVSPost2010PropOp31
 70
     1
102
RTVSPost2010Prop32
280
     0
102
RTVSPost2010PropOp32
 70
     1
102
RTVSPost2010Prop33
280
     0
102
RTVSPost2010PropOp33
 70
     1
102
RTVSPost2010Prop34
280
     0
102
RTVSPost2010PropOp34
 70
     1
102
RTVSPost2010Prop35
280
     0
102
RTVSPost2010PropOp35
 70
     1
102
RTVSPost2010Prop36
280
     0
102
RTVSPost2010PropOp36
 70
     1
102
RTVSPost2010Prop37
 90
       50
102
RTVSPost2010PropOp37
 70
     1
102
RTVSPost2010Prop38
140
0.0
102
RTVSPost2010PropOp38
 70
     1
102
RTVSPost2010Prop39
140
1.0
102
RTVSPost2010PropOp39
 70
     1
102
RTVSPost2010Prop40
 90
        0
102
RTVSPost2010PropOp40
 70
     1
102
RTVSPost2010Prop41ColorIndex
 90
       18
102
RTVSPost2010Prop41ColorRGB
 90
        0
102
RTVSPost2010PropOp41
 70
     1
102
RTVSPost2010Prop42
 90
       50
102
RTVSPost2010PropOp42
 70
     1
102
RTVSPost2010Prop43
 90
        3
102
RTVSPost2010PropOp43
 70
     1
102
RTVSPost2010Prop44ColorIndex
 90
        5
102
RTVSPost2010Prop44ColorRGB
 90
      255
102
RTVSPost2010PropOp44
 70
     1
102
RTVSPost2010Prop45
280
     0
102
RTVSPost2010PropOp45
 70
     1
102
RTVSPost2010Prop46
 90
       50
102
RTVSPost2010PropOp46
 70
     1
102
RTVSPost2010Prop47
 90
       50
102
RTVSPost2010PropOp47
 70
     1
102
RTVSPost2010Prop48
 90
       50
102
RTVSPost2010PropOp48
 70
     1
102
RTVSPost2010Prop49
280
     0
102
RTVSPost2010PropOp49
 70
     1
102
RTVSPost2010Prop50
 90
       50
102
RTVSPost2010PropOp50
 70
     1
102
RTVSPost2010Prop51ColorIndex
 90
      256
102
RTVSPost2010Prop51ColorRGB
 90
-16777216
102
RTVSPost2010PropOp51
 70
     0
102
RTVSPost2010Prop52
140
1.0
102
RTVSPost2010PropOp52
 70
     0
102
RTVSPost2010Prop53
 90
        2
102
RTVSPost2010PropOp53
 70
     1
102
RTVSPost2010Prop54
  1
strokes_ogs.tif
102
RTVSPost2010PropOp54
 70
     1
102
RTVSPost2010Prop55
280
     0
102
RTVSPost2010PropOp55
 70
     1
102
RTVSPost2010Prop56
140
1.0
102
RTVSPost2010PropOp56
 70
     1
102
RTVSPost2010Prop57
140
1.0
102
RTVSPost2010PropOp57
 70
     1
102
RTVSPropertyOp0
 70
     1
102
RTVSPropertyOp1
 70
     1
102
RTVSPropertyOp2
 70
     1
102
RTVSPropertyOp3
 70
     1
102
RTVSPropertyOp4
 70
     1
102
RTVSPropertyOp5
 70
     1
102
RTVSPropertyOp6
 70
     1
102
RTVSPropertyOp7
 70
     1
102
RTVSPropertyOp8
 70
     1
102
RTVSPropertyOp9
 70
     1
102
RTVSPropertyOp10
 70
     1
102
RTVSPropertyOp11
 70
     1
102
RTVSPropertyOp12
 70
     1
102
RTVSPropertyOp13
 70
     1
102
RTVSPropertyOp14
 70
     1
102
RTVSPropertyOp15
 70
     1
102
RTVSPropertyOp16
 70
     1
102
RTVSPropertyOp17
 70
     1
102
RTVSPropertyOp18
 70
     1
102
RTVSPropertyOp19
 70
     1
102
RTVSPropertyOp20
 70
     1
102
RTVSPropertyOp21
 70
     1
102
RTVSPropertyOp22
 70
     1
102
RTVSPropertyOp23
 70
     1
102
RTVSPropertyOp24
 70
     1
102
RTVSPropertyOp25
 70
     1
102
RTVSPropertyOp26
 70
     1
102
RTVSPropertyOp27
 70
     1
102
RTVSPropertyOp28
 70
     1
102
RTVSPropertyOp29
 70
     1
102
RTVSPropertyOp30
 70
     1
102
RTVSPropertyOp31
 70
     1
102
RTVSPropertyOp32
 70
     1
102
RTVSPropertyOp33
 70
     1
102
RTVSPropertyOp34
 70
     1
102
RTVSPropertyOp35
 70
     1
102
RTVSPropertyOp36
 70
     1
102
RTVSPropertyOp37
 70
     1
102
RTVSPropertyOp38
 70
     1
102
RTVSPropertyOp39
 70
     1
102
RTVSPropertyOp40
 70
     1
102
RTVSPropertyOp41
 70
     1
102
RTVSPropertyOp42
 70
     1
102
RTVSPropertyOp43
 70
     1
102
RTVSPropertyOp44
 70
     1
102
RTVSPropertyOp45
 70
     1
102
RTVSPropertyOp46
 70
     1
102
RTVSPropertyOp47
 70
     1
102
RTVSPropertyOp48
 70
     1
102
RTVSPropertyOp49
 70
     1
102
RTVSPropertyOp50
 70
     1
102
RTVSPropertyOp51
 70
     0
102
RTVSPropertyOp52
 70
     0
102
RTVSPropertyOp53
 70
     1
102
RTVSPropertyOp54
 70
     1
102
RTVSPropertyOp55
 70
     1
102
RTVSPropertyOp56
 70
     1
102
RTVSPropertyOp57
 70
     1
102
RTVSPropertyOp58
 70
     1
102
RTVSPropertyOp59
 70
     1
102
RTVSPropertyOp60
 70
     1
102
RTVSPropertyOp61
 70
     1
102
RTVSPropertyOp62
 70
     1
  0
XRECORD
  5
BAA
102
{ACAD_REACTORS
330
BA9
102
}
330
BA9
100
AcDbXrecord
280
     1
102
RTVSPost2010Prop28
280
     0
102
RTVSPost2010PropOp28
 70
     1
102
RTVSPost2010Prop29
280
     1
102
RTVSPost2010PropOp29
 70
     1
102
RTVSPost2010Prop30
280
     1
102
RTVSPost2010PropOp30
 70
     1
102
RTVSPost2010Prop31
280
     0
102
RTVSPost2010PropOp31
 70
     1
102
RTVSPost2010Prop32
280
     0
102
RTVSPost2010PropOp32
 70
     1
102
RTVSPost2010Prop33
280
     0
102
RTVSPost2010PropOp33
 70
     1
102
RTVSPost2010Prop34
280
     0
102
RTVSPost2010PropOp34
 70
     1
102
RTVSPost2010Prop35
280
     0
102
RTVSPost2010PropOp35
 70
     1
102
RTVSPost2010Prop36
280
     0
102
RTVSPost2010PropOp36
 70
     1
102
RTVSPost2010Prop37
 90
       50
102
RTVSPost2010PropOp37
 70
     1
102
RTVSPost2010Prop38
140
0.0
102
RTVSPost2010PropOp38
 70
     1
102
RTVSPost2010Prop39
140
1.0
102
RTVSPost2010PropOp39
 70
     1
102
RTVSPost2010Prop40
 90
        0
102
RTVSPost2010PropOp40
 70
     1
102
RTVSPost2010Prop41ColorIndex
 90
       18
102
RTVSPost2010Prop41ColorRGB
 90
        0
102
RTVSPost2010PropOp41
 70
     1
102
RTVSPost2010Prop42
 90
       50
102
RTVSPost2010PropOp42
 70
     1
102
RTVSPost2010Prop43
 90
        3
102
RTVSPost2010PropOp43
 70
     1
102
RTVSPost2010Prop44ColorIndex
 90
        5
102
RTVSPost2010Prop44ColorRGB
 90
      255
102
RTVSPost2010PropOp44
 70
     1
102
RTVSPost2010Prop45
280
     0
102
RTVSPost2010PropOp45
 70
     1
102
RTVSPost2010Prop46
 90
       50
102
RTVSPost2010PropOp46
 70
     1
102
RTVSPost2010Prop47
 90
       50
102
RTVSPost2010PropOp47
 70
     1
102
RTVSPost2010Prop48
 90
       50
102
RTVSPost2010PropOp48
 70
     1
102
RTVSPost2010Prop49
280
     0
102
RTVSPost2010PropOp49
 70
     1
102
RTVSPost2010Prop50
 90
       50
102
RTVSPost2010PropOp50
 70
     1
102
RTVSPost2010Prop51ColorIndex
 90
      256
102
RTVSPost2010Prop51ColorRGB
 90
-16777216
102
RTVSPost2010PropOp51
 70
     0
102
RTVSPost2010Prop52
140
1.0
102
RTVSPost2010PropOp52
 70
     0
102
RTVSPost2010Prop53
 90
        2
102
RTVSPost2010PropOp53
 70
     1
102
RTVSPost2010Prop54
  1
strokes_ogs.tif
102
RTVSPost2010PropOp54
 70
     1
102
RTVSPost2010Prop55
280
     0
102
RTVSPost2010PropOp55
 70
     1
102
RTVSPost2010Prop56
140
1.0
102
RTVSPost2010PropOp56
 70
     1
102
RTVSPost2010Prop57
140
1.0
102
RTVSPost2010PropOp57
 70
     1
102
RTVSPropertyOp0
 70
     1
102
RTVSPropertyOp1
 70
     1
102
RTVSPropertyOp2
 70
     1
102
RTVSPropertyOp3
 70
     1
102
RTVSPropertyOp4
 70
     1
102
RTVSPropertyOp5
 70
     1
102
RTVSPropertyOp6
 70
     1
102
RTVSPropertyOp7
 70
     1
102
RTVSPropertyOp8
 70
     1
102
RTVSPropertyOp9
 70
     1
102
RTVSPropertyOp10
 70
     1
102
RTVSPropertyOp11
 70
     1
102
RTVSPropertyOp12
 70
     1
102
RTVSPropertyOp13
 70
     1
102
RTVSPropertyOp14
 70
     1
102
RTVSPropertyOp15
 70
     1
102
RTVSPropertyOp16
 70
     1
102
RTVSPropertyOp17
 70
     1
102
RTVSPropertyOp18
 70
     1
102
RTVSPropertyOp19
 70
     1
102
RTVSPropertyOp20
 70
     1
102
RTVSPropertyOp21
 70
     1
102
RTVSPropertyOp22
 70
     1
102
RTVSPropertyOp23
 70
     1
102
RTVSPropertyOp24
 70
     1
102
RTVSPropertyOp25
 70
     1
102
RTVSPropertyOp26
 70
     1
102
RTVSPropertyOp27
 70
     1
102
RTVSPropertyOp28
 70
     1
102
RTVSPropertyOp29
 70
     1
102
RTVSPropertyOp30
 70
     1
102
RTVSPropertyOp31
 70
     1
102
RTVSPropertyOp32
 70
     1
102
RTVSPropertyOp33
 70
     1
102
RTVSPropertyOp34
 70
     1
102
RTVSPropertyOp35
 70
     1
102
RTVSPropertyOp36
 70
     1
102
RTVSPropertyOp37
 70
     1
102
RTVSPropertyOp38
 70
     1
102
RTVSPropertyOp39
 70
     1
102
RTVSPropertyOp40
 70
     1
102
RTVSPropertyOp41
 70
     1
102
RTVSPropertyOp42
 70
     1
102
RTVSPropertyOp43
 70
     1
102
RTVSPropertyOp44
 70
     1
102
RTVSPropertyOp45
 70
     1
102
RTVSPropertyOp46
 70
     1
102
RTVSPropertyOp47
 70
     1
102
RTVSPropertyOp48
 70
     1
102
RTVSPropertyOp49
 70
     1
102
RTVSPropertyOp50
 70
     1
102
RTVSPropertyOp51
 70
     0
102
RTVSPropertyOp52
 70
     0
102
RTVSPropertyOp53
 70
     1
102
RTVSPropertyOp54
 70
     1
102
RTVSPropertyOp55
 70
     1
102
RTVSPropertyOp56
 70
     1
102
RTVSPropertyOp57
 70
     1
102
RTVSPropertyOp58
 70
     1
102
RTVSPropertyOp59
 70
     1
102
RTVSPropertyOp60
 70
     1
102
RTVSPropertyOp61
 70
     1
102
RTVSPropertyOp62
 70
     1
  0
XRECORD
  5
BAC
102
{ACAD_REACTORS
330
BAB
102
}
330
BAB
100
AcDbXrecord
280
     1
102
RTVSPost2010Prop28
280
     0
102
RTVSPost2010PropOp28
 70
     1
102
RTVSPost2010Prop29
280
     1
102
RTVSPost2010PropOp29
 70
     1
102
RTVSPost2010Prop30
280
     1
102
RTVSPost2010PropOp30
 70
     1
102
RTVSPost2010Prop31
280
     0
102
RTVSPost2010PropOp31
 70
     1
102
RTVSPost2010Prop32
280
     0
102
RTVSPost2010PropOp32
 70
     1
102
RTVSPost2010Prop33
280
     0
102
RTVSPost2010PropOp33
 70
     1
102
RTVSPost2010Prop34
280
     0
102
RTVSPost2010PropOp34
 70
     1
102
RTVSPost2010Prop35
280
     0
102
RTVSPost2010PropOp35
 70
     1
102
RTVSPost2010Prop36
280
     0
102
RTVSPost2010PropOp36
 70
     1
102
RTVSPost2010Prop37
 90
       50
102
RTVSPost2010PropOp37
 70
     1
102
RTVSPost2010Prop38
140
0.0
102
RTVSPost2010PropOp38
 70
     1
102
RTVSPost2010Prop39
140
1.0
102
RTVSPost2010PropOp39
 70
     1
102
RTVSPost2010Prop40
 90
        0
102
RTVSPost2010PropOp40
 70
     1
102
RTVSPost2010Prop41ColorIndex
 90
       18
102
RTVSPost2010Prop41ColorRGB
 90
        0
102
RTVSPost2010PropOp41
 70
     1
102
RTVSPost2010Prop42
 90
       50
102
RTVSPost2010PropOp42
 70
     1
102
RTVSPost2010Prop43
 90
        3
102
RTVSPost2010PropOp43
 70
     1
102
RTVSPost2010Prop44ColorIndex
 90
        5
102
RTVSPost2010Prop44ColorRGB
 90
      255
102
RTVSPost2010PropOp44
 70
     1
102
RTVSPost2010Prop45
280
     0
102
RTVSPost2010PropOp45
 70
     1
102
RTVSPost2010Prop46
 90
       50
102
RTVSPost2010PropOp46
 70
     1
102
RTVSPost2010Prop47
 90
       50
102
RTVSPost2010PropOp47
 70
     1
102
RTVSPost2010Prop48
 90
       50
102
RTVSPost2010PropOp48
 70
     1
102
RTVSPost2010Prop49
280
     0
102
RTVSPost2010PropOp49
 70
     1
102
RTVSPost2010Prop50
 90
       50
102
RTVSPost2010PropOp50
 70
     1
102
RTVSPost2010Prop51ColorIndex
 90
      256
102
RTVSPost2010Prop51ColorRGB
 90
-16777216
102
RTVSPost2010PropOp51
 70
     0
102
RTVSPost2010Prop52
140
1.0
102
RTVSPost2010PropOp52
 70
     0
102
RTVSPost2010Prop53
 90
        2
102
RTVSPost2010PropOp53
 70
     1
102
RTVSPost2010Prop54
  1
strokes_ogs.tif
102
RTVSPost2010PropOp54
 70
     1
102
RTVSPost2010Prop55
280
     0
102
RTVSPost2010PropOp55
 70
     1
102
RTVSPost2010Prop56
140
1.0
102
RTVSPost2010PropOp56
 70
     1
102
RTVSPost2010Prop57
140
1.0
102
RTVSPost2010PropOp57
 70
     1
102
RTVSPropertyOp0
 70
     1
102
RTVSPropertyOp1
 70
     1
102
RTVSPropertyOp2
 70
     1
102
RTVSPropertyOp3
 70
     1
102
RTVSPropertyOp4
 70
     1
102
RTVSPropertyOp5
 70
     1
102
RTVSPropertyOp6
 70
     1
102
RTVSPropertyOp7
 70
     1
102
RTVSPropertyOp8
 70
     1
102
RTVSPropertyOp9
 70
     1
102
RTVSPropertyOp10
 70
     1
102
RTVSPropertyOp11
 70
     1
102
RTVSPropertyOp12
 70
     1
102
RTVSPropertyOp13
 70
     1
102
RTVSPropertyOp14
 70
     1
102
RTVSPropertyOp15
 70
     1
102
RTVSPropertyOp16
 70
     1
102
RTVSPropertyOp17
 70
     1
102
RTVSPropertyOp18
 70
     1
102
RTVSPropertyOp19
 70
     1
102
RTVSPropertyOp20
 70
     1
102
RTVSPropertyOp21
 70
     1
102
RTVSPropertyOp22
 70
     1
102
RTVSPropertyOp23
 70
     1
102
RTVSPropertyOp24
 70
     1
102
RTVSPropertyOp25
 70
     1
102
RTVSPropertyOp26
 70
     1
102
RTVSPropertyOp27
 70
     1
102
RTVSPropertyOp28
 70
     1
102
RTVSPropertyOp29
 70
     1
102
RTVSPropertyOp30
 70
     1
102
RTVSPropertyOp31
 70
     1
102
RTVSPropertyOp32
 70
     1
102
RTVSPropertyOp33
 70
     1
102
RTVSPropertyOp34
 70
     1
102
RTVSPropertyOp35
 70
     1
102
RTVSPropertyOp36
 70
     1
102
RTVSPropertyOp37
 70
     1
102
RTVSPropertyOp38
 70
     1
102
RTVSPropertyOp39
 70
     1
102
RTVSPropertyOp40
 70
     1
102
RTVSPropertyOp41
 70
     1
102
RTVSPropertyOp42
 70
     1
102
RTVSPropertyOp43
 70
     1
102
RTVSPropertyOp44
 70
     1
102
RTVSPropertyOp45
 70
     1
102
RTVSPropertyOp46
 70
     1
102
RTVSPropertyOp47
 70
     1
102
RTVSPropertyOp48
 70
     1
102
RTVSPropertyOp49
 70
     1
102
RTVSPropertyOp50
 70
     1
102
RTVSPropertyOp51
 70
     0
102
RTVSPropertyOp52
 70
     0
102
RTVSPropertyOp53
 70
     1
102
RTVSPropertyOp54
 70
     1
102
RTVSPropertyOp55
 70
     1
102
RTVSPropertyOp56
 70
     1
102
RTVSPropertyOp57
 70
     1
102
RTVSPropertyOp58
 70
     1
102
RTVSPropertyOp59
 70
     1
102
RTVSPropertyOp60
 70
     1
102
RTVSPropertyOp61
 70
     1
102
RTVSPropertyOp62
 70
     1
  0
XRECORD
  5
BAE
102
{ACAD_REACTORS
330
BAD
102
}
330
BAD
100
AcDbXrecord
280
     1
102
RTVSPost2010Prop28
280
     0
102
RTVSPost2010PropOp28
 70
     1
102
RTVSPost2010Prop29
280
     1
102
RTVSPost2010PropOp29
 70
     1
102
RTVSPost2010Prop30
280
     1
102
RTVSPost2010PropOp30
 70
     1
102
RTVSPost2010Prop31
280
     0
102
RTVSPost2010PropOp31
 70
     1
102
RTVSPost2010Prop32
280
     0
102
RTVSPost2010PropOp32
 70
     1
102
RTVSPost2010Prop33
280
     0
102
RTVSPost2010PropOp33
 70
     1
102
RTVSPost2010Prop34
280
     0
102
RTVSPost2010PropOp34
 70
     1
102
RTVSPost2010Prop35
280
     0
102
RTVSPost2010PropOp35
 70
     1
102
RTVSPost2010Prop36
280
     0
102
RTVSPost2010PropOp36
 70
     1
102
RTVSPost2010Prop37
 90
       50
102
RTVSPost2010PropOp37
 70
     1
102
RTVSPost2010Prop38
140
0.0
102
RTVSPost2010PropOp38
 70
     1
102
RTVSPost2010Prop39
140
1.0
102
RTVSPost2010PropOp39
 70
     1
102
RTVSPost2010Prop40
 90
        0
102
RTVSPost2010PropOp40
 70
     1
102
RTVSPost2010Prop41ColorIndex
 90
       18
102
RTVSPost2010Prop41ColorRGB
 90
        0
102
RTVSPost2010PropOp41
 70
     1
102
RTVSPost2010Prop42
 90
       50
102
RTVSPost2010PropOp42
 70
     1
102
RTVSPost2010Prop43
 90
        3
102
RTVSPost2010PropOp43
 70
     1
102
RTVSPost2010Prop44ColorIndex
 90
        5
102
RTVSPost2010Prop44ColorRGB
 90
      255
102
RTVSPost2010PropOp44
 70
     1
102
RTVSPost2010Prop45
280
     0
102
RTVSPost2010PropOp45
 70
     1
102
RTVSPost2010Prop46
 90
       50
102
RTVSPost2010PropOp46
 70
     1
102
RTVSPost2010Prop47
 90
       50
102
RTVSPost2010PropOp47
 70
     1
102
RTVSPost2010Prop48
 90
       50
102
RTVSPost2010PropOp48
 70
     1
102
RTVSPost2010Prop49
280
     0
102
RTVSPost2010PropOp49
 70
     1
102
RTVSPost2010Prop50
 90
       50
102
RTVSPost2010PropOp50
 70
     1
102
RTVSPost2010Prop51ColorIndex
 90
      256
102
RTVSPost2010Prop51ColorRGB
 90
-16777216
102
RTVSPost2010PropOp51
 70
     0
102
RTVSPost2010Prop52
140
1.0
102
RTVSPost2010PropOp52
 70
     0
102
RTVSPost2010Prop53
 90
        2
102
RTVSPost2010PropOp53
 70
     1
102
RTVSPost2010Prop54
  1
strokes_ogs.tif
102
RTVSPost2010PropOp54
 70
     1
102
RTVSPost2010Prop55
280
     0
102
RTVSPost2010PropOp55
 70
     1
102
RTVSPost2010Prop56
140
1.0
102
RTVSPost2010PropOp56
 70
     1
102
RTVSPost2010Prop57
140
1.0
102
RTVSPost2010PropOp57
 70
     1
102
RTVSPropertyOp0
 70
     1
102
RTVSPropertyOp1
 70
     1
102
RTVSPropertyOp2
 70
     1
102
RTVSPropertyOp3
 70
     1
102
RTVSPropertyOp4
 70
     1
102
RTVSPropertyOp5
 70
     1
102
RTVSPropertyOp6
 70
     1
102
RTVSPropertyOp7
 70
     1
102
RTVSPropertyOp8
 70
     1
102
RTVSPropertyOp9
 70
     1
102
RTVSPropertyOp10
 70
     1
102
RTVSPropertyOp11
 70
     1
102
RTVSPropertyOp12
 70
     1
102
RTVSPropertyOp13
 70
     1
102
RTVSPropertyOp14
 70
     1
102
RTVSPropertyOp15
 70
     1
102
RTVSPropertyOp16
 70
     1
102
RTVSPropertyOp17
 70
     1
102
RTVSPropertyOp18
 70
     1
102
RTVSPropertyOp19
 70
     1
102
RTVSPropertyOp20
 70
     1
102
RTVSPropertyOp21
 70
     1
102
RTVSPropertyOp22
 70
     1
102
RTVSPropertyOp23
 70
     1
102
RTVSPropertyOp24
 70
     1
102
RTVSPropertyOp25
 70
     1
102
RTVSPropertyOp26
 70
     1
102
RTVSPropertyOp27
 70
     1
102
RTVSPropertyOp28
 70
     1
102
RTVSPropertyOp29
 70
     1
102
RTVSPropertyOp30
 70
     1
102
RTVSPropertyOp31
 70
     1
102
RTVSPropertyOp32
 70
     1
102
RTVSPropertyOp33
 70
     1
102
RTVSPropertyOp34
 70
     1
102
RTVSPropertyOp35
 70
     1
102
RTVSPropertyOp36
 70
     1
102
RTVSPropertyOp37
 70
     1
102
RTVSPropertyOp38
 70
     1
102
RTVSPropertyOp39
 70
     1
102
RTVSPropertyOp40
 70
     1
102
RTVSPropertyOp41
 70
     1
102
RTVSPropertyOp42
 70
     1
102
RTVSPropertyOp43
 70
     1
102
RTVSPropertyOp44
 70
     1
102
RTVSPropertyOp45
 70
     1
102
RTVSPropertyOp46
 70
     1
102
RTVSPropertyOp47
 70
     1
102
RTVSPropertyOp48
 70
     1
102
RTVSPropertyOp49
 70
     1
102
RTVSPropertyOp50
 70
     1
102
RTVSPropertyOp51
 70
     0
102
RTVSPropertyOp52
 70
     0
102
RTVSPropertyOp53
 70
     1
102
RTVSPropertyOp54
 70
     1
102
RTVSPropertyOp55
 70
     1
102
RTVSPropertyOp56
 70
     1
102
RTVSPropertyOp57
 70
     1
102
RTVSPropertyOp58
 70
     1
102
RTVSPropertyOp59
 70
     1
102
RTVSPropertyOp60
 70
     1
102
RTVSPropertyOp61
 70
     1
102
RTVSPropertyOp62
 70
     1
  0
XRECORD
  5
BB6
102
{ACAD_REACTORS
330
BB5
102
}
330
BB5
100
AcDbXrecord
280
     1
102
RTVSPost2010Prop28
280
     0
102
RTVSPost2010PropOp28
 70
     1
102
RTVSPost2010Prop29
280
     1
102
RTVSPost2010PropOp29
 70
     1
102
RTVSPost2010Prop30
280
     1
102
RTVSPost2010PropOp30
 70
     1
102
RTVSPost2010Prop31
280
     0
102
RTVSPost2010PropOp31
 70
     1
102
RTVSPost2010Prop32
280
     0
102
RTVSPost2010PropOp32
 70
     1
102
RTVSPost2010Prop33
280
     0
102
RTVSPost2010PropOp33
 70
     1
102
RTVSPost2010Prop34
280
     0
102
RTVSPost2010PropOp34
 70
     1
102
RTVSPost2010Prop35
280
     0
102
RTVSPost2010PropOp35
 70
     1
102
RTVSPost2010Prop36
280
     0
102
RTVSPost2010PropOp36
 70
     1
102
RTVSPost2010Prop37
 90
       50
102
RTVSPost2010PropOp37
 70
     1
102
RTVSPost2010Prop38
140
0.0
102
RTVSPost2010PropOp38
 70
     1
102
RTVSPost2010Prop39
140
1.0
102
RTVSPost2010PropOp39
 70
     1
102
RTVSPost2010Prop40
 90
        0
102
RTVSPost2010PropOp40
 70
     1
102
RTVSPost2010Prop41ColorIndex
 90
       18
102
RTVSPost2010Prop41ColorRGB
 90
        0
102
RTVSPost2010PropOp41
 70
     1
102
RTVSPost2010Prop42
 90
       50
102
RTVSPost2010PropOp42
 70
     1
102
RTVSPost2010Prop43
 90
        3
102
RTVSPost2010PropOp43
 70
     1
102
RTVSPost2010Prop44ColorIndex
 90
        5
102
RTVSPost2010Prop44ColorRGB
 90
      255
102
RTVSPost2010PropOp44
 70
     1
102
RTVSPost2010Prop45
280
     0
102
RTVSPost2010PropOp45
 70
     1
102
RTVSPost2010Prop46
 90
       50
102
RTVSPost2010PropOp46
 70
     1
102
RTVSPost2010Prop47
 90
       50
102
RTVSPost2010PropOp47
 70
     1
102
RTVSPost2010Prop48
 90
       50
102
RTVSPost2010PropOp48
 70
     1
102
RTVSPost2010Prop49
280
     0
102
RTVSPost2010PropOp49
 70
     1
102
RTVSPost2010Prop50
 90
       50
102
RTVSPost2010PropOp50
 70
     1
102
RTVSPost2010Prop51ColorIndex
 90
      256
102
RTVSPost2010Prop51ColorRGB
 90
-16777216
102
RTVSPost2010PropOp51
 70
     0
102
RTVSPost2010Prop52
140
1.0
102
RTVSPost2010PropOp52
 70
     0
102
RTVSPost2010Prop53
 90
        2
102
RTVSPost2010PropOp53
 70
     1
102
RTVSPost2010Prop54
  1
strokes_ogs.tif
102
RTVSPost2010PropOp54
 70
     1
102
RTVSPost2010Prop55
280
     0
102
RTVSPost2010PropOp55
 70
     1
102
RTVSPost2010Prop56
140
1.0
102
RTVSPost2010PropOp56
 70
     1
102
RTVSPost2010Prop57
140
1.0
102
RTVSPost2010PropOp57
 70
     1
102
RTVSPropertyOp0
 70
     1
102
RTVSPropertyOp1
 70
     1
102
RTVSPropertyOp2
 70
     1
102
RTVSPropertyOp3
 70
     1
102
RTVSPropertyOp4
 70
     1
102
RTVSPropertyOp5
 70
     1
102
RTVSPropertyOp6
 70
     1
102
RTVSPropertyOp7
 70
     1
102
RTVSPropertyOp8
 70
     1
102
RTVSPropertyOp9
 70
     1
102
RTVSPropertyOp10
 70
     1
102
RTVSPropertyOp11
 70
     1
102
RTVSPropertyOp12
 70
     1
102
RTVSPropertyOp13
 70
     1
102
RTVSPropertyOp14
 70
     1
102
RTVSPropertyOp15
 70
     1
102
RTVSPropertyOp16
 70
     1
102
RTVSPropertyOp17
 70
     1
102
RTVSPropertyOp18
 70
     1
102
RTVSPropertyOp19
 70
     1
102
RTVSPropertyOp20
 70
     1
102
RTVSPropertyOp21
 70
     1
102
RTVSPropertyOp22
 70
     1
102
RTVSPropertyOp23
 70
     1
102
RTVSPropertyOp24
 70
     1
102
RTVSPropertyOp25
 70
     1
102
RTVSPropertyOp26
 70
     1
102
RTVSPropertyOp27
 70
     1
102
RTVSPropertyOp28
 70
     1
102
RTVSPropertyOp29
 70
     1
102
RTVSPropertyOp30
 70
     1
102
RTVSPropertyOp31
 70
     1
102
RTVSPropertyOp32
 70
     1
102
RTVSPropertyOp33
 70
     1
102
RTVSPropertyOp34
 70
     1
102
RTVSPropertyOp35
 70
     1
102
RTVSPropertyOp36
 70
     1
102
RTVSPropertyOp37
 70
     1
102
RTVSPropertyOp38
 70
     1
102
RTVSPropertyOp39
 70
     1
102
RTVSPropertyOp40
 70
     1
102
RTVSPropertyOp41
 70
     1
102
RTVSPropertyOp42
 70
     1
102
RTVSPropertyOp43
 70
     1
102
RTVSPropertyOp44
 70
     1
102
RTVSPropertyOp45
 70
     1
102
RTVSPropertyOp46
 70
     1
102
RTVSPropertyOp47
 70
     1
102
RTVSPropertyOp48
 70
     1
102
RTVSPropertyOp49
 70
     1
102
RTVSPropertyOp50
 70
     1
102
RTVSPropertyOp51
 70
     0
102
RTVSPropertyOp52
 70
     0
102
RTVSPropertyOp53
 70
     1
102
RTVSPropertyOp54
 70
     1
102
RTVSPropertyOp55
 70
     1
102
RTVSPropertyOp56
 70
     1
102
RTVSPropertyOp57
 70
     1
102
RTVSPropertyOp58
 70
     1
102
RTVSPropertyOp59
 70
     1
102
RTVSPropertyOp60
 70
     1
102
RTVSPropertyOp61
 70
     1
102
RTVSPropertyOp62
 70
     1
  0
XRECORD
  5
BD2
102
{ACAD_REACTORS
330
BD1
102
}
330
BD1
100
AcDbXrecord
280
     1
102
RTVSPost2010Prop28
280
     0
102
RTVSPost2010PropOp28
 70
     1
102
RTVSPost2010Prop29
280
     1
102
RTVSPost2010PropOp29
 70
     1
102
RTVSPost2010Prop30
280
     1
102
RTVSPost2010PropOp30
 70
     1
102
RTVSPost2010Prop31
280
     0
102
RTVSPost2010PropOp31
 70
     1
102
RTVSPost2010Prop32
280
     0
102
RTVSPost2010PropOp32
 70
     1
102
RTVSPost2010Prop33
280
     0
102
RTVSPost2010PropOp33
 70
     1
102
RTVSPost2010Prop34
280
     0
102
RTVSPost2010PropOp34
 70
     1
102
RTVSPost2010Prop35
280
     0
102
RTVSPost2010PropOp35
 70
     1
102
RTVSPost2010Prop36
280
     0
102
RTVSPost2010PropOp36
 70
     1
102
RTVSPost2010Prop37
 90
       50
102
RTVSPost2010PropOp37
 70
     0
102
RTVSPost2010Prop38
140
0.0
102
RTVSPost2010PropOp38
 70
     0
102
RTVSPost2010Prop39
140
1.0
102
RTVSPost2010PropOp39
 70
     0
102
RTVSPost2010Prop40
 90
        0
102
RTVSPost2010PropOp40
 70
     0
102
RTVSPost2010Prop41ColorIndex
 90
       18
102
RTVSPost2010Prop41ColorRGB
 90
        0
102
RTVSPost2010PropOp41
 70
     0
102
RTVSPost2010Prop42
 90
       50
102
RTVSPost2010PropOp42
 70
     0
102
RTVSPost2010Prop43
 90
        3
102
RTVSPost2010PropOp43
 70
     0
102
RTVSPost2010Prop44ColorIndex
 90
        5
102
RTVSPost2010Prop44ColorRGB
 90
      255
102
RTVSPost2010PropOp44
 70
     0
102
RTVSPost2010Prop45
280
     0
102
RTVSPost2010PropOp45
 70
     1
102
RTVSPost2010Prop46
 90
       50
102
RTVSPost2010PropOp46
 70
     0
102
RTVSPost2010Prop47
 90
       50
102
RTVSPost2010PropOp47
 70
     0
102
RTVSPost2010Prop48
 90
       50
102
RTVSPost2010PropOp48
 70
     0
102
RTVSPost2010Prop49
280
     0
102
RTVSPost2010PropOp49
 70
     1
102
RTVSPost2010Prop50
 90
       50
102
RTVSPost2010PropOp50
 70
     0
102
RTVSPost2010Prop51ColorIndex
 90
      256
102
RTVSPost2010Prop51ColorRGB
 90
-16777216
102
RTVSPost2010PropOp51
 70
     0
102
RTVSPost2010Prop52
140
1.0
102
RTVSPost2010PropOp52
 70
     0
102
RTVSPost2010Prop53
 90
        2
102
RTVSPost2010PropOp53
 70
     0
102
RTVSPost2010Prop54
  1
strokes_ogs.tif
102
RTVSPost2010PropOp54
 70
     0
102
RTVSPost2010Prop55
280
     0
102
RTVSPost2010PropOp55
 70
     1
102
RTVSPost2010Prop56
140
1.0
102
RTVSPost2010PropOp56
 70
     0
102
RTVSPost2010Prop57
140
1.0
102
RTVSPost2010PropOp57
 70
     0
102
RTVSPropertyOp0
 70
     0
102
RTVSPropertyOp1
 70
     0
102
RTVSPropertyOp2
 70
     0
102
RTVSPropertyOp3
 70
     0
102
RTVSPropertyOp4
 70
     0
102
RTVSPropertyOp5
 70
     0
102
RTVSPropertyOp6
 70
     0
102
RTVSPropertyOp7
 70
     0
102
RTVSPropertyOp8
 70
     0
102
RTVSPropertyOp9
 70
     0
102
RTVSPropertyOp10
 70
     0
102
RTVSPropertyOp11
 70
     0
102
RTVSPropertyOp12
 70
     0
102
RTVSPropertyOp13
 70
     0
102
RTVSPropertyOp14
 70
     2
102
RTVSPropertyOp15
 70
     0
102
RTVSPropertyOp16
 70
     0
102
RTVSPropertyOp17
 70
     0
102
RTVSPropertyOp18
 70
     0
102
RTVSPropertyOp19
 70
     0
102
RTVSPropertyOp20
 70
     0
102
RTVSPropertyOp21
 70
     0
102
RTVSPropertyOp22
 70
     0
102
RTVSPropertyOp23
 70
     0
102
RTVSPropertyOp24
 70
     0
102
RTVSPropertyOp25
 70
     0
102
RTVSPropertyOp26
 70
     0
102
RTVSPropertyOp27
 70
     0
102
RTVSPropertyOp28
 70
     1
102
RTVSPropertyOp29
 70
     1
102
RTVSPropertyOp30
 70
     1
102
RTVSPropertyOp31
 70
     1
102
RTVSPropertyOp32
 70
     1
102
RTVSPropertyOp33
 70
     1
102
RTVSPropertyOp34
 70
     1
102
RTVSPropertyOp35
 70
     1
102
RTVSPropertyOp36
 70
     1
102
RTVSPropertyOp37
 70
     0
102
RTVSPropertyOp38
 70
     0
102
RTVSPropertyOp39
 70
     0
102
RTVSPropertyOp40
 70
     0
102
RTVSPropertyOp41
 70
     0
102
RTVSPropertyOp42
 70
     0
102
RTVSPropertyOp43
 70
     0
102
RTVSPropertyOp44
 70
     0
102
RTVSPropertyOp45
 70
     1
102
RTVSPropertyOp46
 70
     0
102
RTVSPropertyOp47
 70
     0
102
RTVSPropertyOp48
 70
     0
102
RTVSPropertyOp49
 70
     1
102
RTVSPropertyOp50
 70
     0
102
RTVSPropertyOp51
 70
     0
102
RTVSPropertyOp52
 70
     0
102
RTVSPropertyOp53
 70
     0
102
RTVSPropertyOp54
 70
     0
102
RTVSPropertyOp55
 70
     1
102
RTVSPropertyOp56
 70
     0
102
RTVSPropertyOp57
 70
     0
102
RTVSPropertyOp58
 70
     0
102
RTVSPropertyOp59
 70
     0
102
RTVSPropertyOp60
 70
     0
102
RTVSPropertyOp61
 70
     0
102
RTVSPropertyOp62
 70
     0
  0
XRECORD
  5
BC2
102
{ACAD_REACTORS
330
BC1
102
}
330
BC1
100
AcDbXrecord
280
     1
102
RTVSPost2010Prop28
280
     0
102
RTVSPost2010PropOp28
 70
     1
102
RTVSPost2010Prop29
280
     1
102
RTVSPost2010PropOp29
 70
     1
102
RTVSPost2010Prop30
280
     1
102
RTVSPost2010PropOp30
 70
     1
102
RTVSPost2010Prop31
280
     0
102
RTVSPost2010PropOp31
 70
     1
102
RTVSPost2010Prop32
280
     0
102
RTVSPost2010PropOp32
 70
     1
102
RTVSPost2010Prop33
280
     0
102
RTVSPost2010PropOp33
 70
     1
102
RTVSPost2010Prop34
280
     0
102
RTVSPost2010PropOp34
 70
     1
102
RTVSPost2010Prop35
280
     0
102
RTVSPost2010PropOp35
 70
     1
102
RTVSPost2010Prop36
280
     0
102
RTVSPost2010PropOp36
 70
     1
102
RTVSPost2010Prop37
 90
       50
102
RTVSPost2010PropOp37
 70
     1
102
RTVSPost2010Prop38
140
0.0
102
RTVSPost2010PropOp38
 70
     1
102
RTVSPost2010Prop39
140
1.0
102
RTVSPost2010PropOp39
 70
     1
102
RTVSPost2010Prop40
 90
        0
102
RTVSPost2010PropOp40
 70
     1
102
RTVSPost2010Prop41ColorIndex
 90
       18
102
RTVSPost2010Prop41ColorRGB
 90
        0
102
RTVSPost2010PropOp41
 70
     1
102
RTVSPost2010Prop42
 90
       50
102
RTVSPost2010PropOp42
 70
     1
102
RTVSPost2010Prop43
 90
        3
102
RTVSPost2010PropOp43
 70
     1
102
RTVSPost2010Prop44ColorIndex
 90
        5
102
RTVSPost2010Prop44ColorRGB
 90
      255
102
RTVSPost2010PropOp44
 70
     1
102
RTVSPost2010Prop45
280
     0
102
RTVSPost2010PropOp45
 70
     1
102
RTVSPost2010Prop46
 90
       50
102
RTVSPost2010PropOp46
 70
     1
102
RTVSPost2010Prop47
 90
       50
102
RTVSPost2010PropOp47
 70
     1
102
RTVSPost2010Prop48
 90
       50
102
RTVSPost2010PropOp48
 70
     1
102
RTVSPost2010Prop49
280
     0
102
RTVSPost2010PropOp49
 70
     1
102
RTVSPost2010Prop50
 90
       50
102
RTVSPost2010PropOp50
 70
     1
102
RTVSPost2010Prop51ColorIndex
 90
      256
102
RTVSPost2010Prop51ColorRGB
 90
-16777216
102
RTVSPost2010PropOp51
 70
     0
102
RTVSPost2010Prop52
140
1.0
102
RTVSPost2010PropOp52
 70
     0
102
RTVSPost2010Prop53
 90
        2
102
RTVSPost2010PropOp53
 70
     1
102
RTVSPost2010Prop54
  1
strokes_ogs.tif
102
RTVSPost2010PropOp54
 70
     1
102
RTVSPost2010Prop55
280
     0
102
RTVSPost2010PropOp55
 70
     1
102
RTVSPost2010Prop56
140
1.0
102
RTVSPost2010PropOp56
 70
     1
102
RTVSPost2010Prop57
140
1.0
102
RTVSPost2010PropOp57
 70
     1
102
RTVSPropertyOp0
 70
     1
102
RTVSPropertyOp1
 70
     1
102
RTVSPropertyOp2
 70
     1
102
RTVSPropertyOp3
 70
     1
102
RTVSPropertyOp4
 70
     1
102
RTVSPropertyOp5
 70
     1
102
RTVSPropertyOp6
 70
     1
102
RTVSPropertyOp7
 70
     1
102
RTVSPropertyOp8
 70
     1
102
RTVSPropertyOp9
 70
     1
102
RTVSPropertyOp10
 70
     1
102
RTVSPropertyOp11
 70
     1
102
RTVSPropertyOp12
 70
     1
102
RTVSPropertyOp13
 70
     1
102
RTVSPropertyOp14
 70
     1
102
RTVSPropertyOp15
 70
     1
102
RTVSPropertyOp16
 70
     1
102
RTVSPropertyOp17
 70
     1
102
RTVSPropertyOp18
 70
     1
102
RTVSPropertyOp19
 70
     1
102
RTVSPropertyOp20
 70
     1
102
RTVSPropertyOp21
 70
     1
102
RTVSPropertyOp22
 70
     1
102
RTVSPropertyOp23
 70
     1
102
RTVSPropertyOp24
 70
     1
102
RTVSPropertyOp25
 70
     1
102
RTVSPropertyOp26
 70
     1
102
RTVSPropertyOp27
 70
     1
102
RTVSPropertyOp28
 70
     1
102
RTVSPropertyOp29
 70
     1
102
RTVSPropertyOp30
 70
     1
102
RTVSPropertyOp31
 70
     1
102
RTVSPropertyOp32
 70
     1
102
RTVSPropertyOp33
 70
     1
102
RTVSPropertyOp34
 70
     1
102
RTVSPropertyOp35
 70
     1
102
RTVSPropertyOp36
 70
     1
102
RTVSPropertyOp37
 70
     1
102
RTVSPropertyOp38
 70
     1
102
RTVSPropertyOp39
 70
     1
102
RTVSPropertyOp40
 70
     1
102
RTVSPropertyOp41
 70
     1
102
RTVSPropertyOp42
 70
     1
102
RTVSPropertyOp43
 70
     1
102
RTVSPropertyOp44
 70
     1
102
RTVSPropertyOp45
 70
     1
102
RTVSPropertyOp46
 70
     1
102
RTVSPropertyOp47
 70
     1
102
RTVSPropertyOp48
 70
     1
102
RTVSPropertyOp49
 70
     1
102
RTVSPropertyOp50
 70
     1
102
RTVSPropertyOp51
 70
     0
102
RTVSPropertyOp52
 70
     0
102
RTVSPropertyOp53
 70
     1
102
RTVSPropertyOp54
 70
     1
102
RTVSPropertyOp55
 70
     1
102
RTVSPropertyOp56
 70
     1
102
RTVSPropertyOp57
 70
     1
102
RTVSPropertyOp58
 70
     1
102
RTVSPropertyOp59
 70
     1
102
RTVSPropertyOp60
 70
     1
102
RTVSPropertyOp61
 70
     1
102
RTVSPropertyOp62
 70
     1
  0
XRECORD
  5
BD4
102
{ACAD_REACTORS
330
BD3
102
}
330
BD3
100
AcDbXrecord
280
     1
102
RTVSPost2010Prop28
280
     0
102
RTVSPost2010PropOp28
 70
     1
102
RTVSPost2010Prop29
280
     1
102
RTVSPost2010PropOp29
 70
     1
102
RTVSPost2010Prop30
280
     1
102
RTVSPost2010PropOp30
 70
     1
102
RTVSPost2010Prop31
280
     0
102
RTVSPost2010PropOp31
 70
     1
102
RTVSPost2010Prop32
280
     0
102
RTVSPost2010PropOp32
 70
     1
102
RTVSPost2010Prop33
280
     0
102
RTVSPost2010PropOp33
 70
     1
102
RTVSPost2010Prop34
280
     0
102
RTVSPost2010PropOp34
 70
     1
102
RTVSPost2010Prop35
280
     0
102
RTVSPost2010PropOp35
 70
     1
102
RTVSPost2010Prop36
280
     0
102
RTVSPost2010PropOp36
 70
     1
102
RTVSPost2010Prop37
 90
       50
102
RTVSPost2010PropOp37
 70
     0
102
RTVSPost2010Prop38
140
0.0
102
RTVSPost2010PropOp38
 70
     0
102
RTVSPost2010Prop39
140
1.0
102
RTVSPost2010PropOp39
 70
     0
102
RTVSPost2010Prop40
 90
        0
102
RTVSPost2010PropOp40
 70
     0
102
RTVSPost2010Prop41ColorIndex
 90
       18
102
RTVSPost2010Prop41ColorRGB
 90
        0
102
RTVSPost2010PropOp41
 70
     0
102
RTVSPost2010Prop42
 90
       50
102
RTVSPost2010PropOp42
 70
     0
102
RTVSPost2010Prop43
 90
        3
102
RTVSPost2010PropOp43
 70
     0
102
RTVSPost2010Prop44ColorIndex
 90
        5
102
RTVSPost2010Prop44ColorRGB
 90
      255
102
RTVSPost2010PropOp44
 70
     0
102
RTVSPost2010Prop45
280
     0
102
RTVSPost2010PropOp45
 70
     1
102
RTVSPost2010Prop46
 90
       50
102
RTVSPost2010PropOp46
 70
     0
102
RTVSPost2010Prop47
 90
       50
102
RTVSPost2010PropOp47
 70
     0
102
RTVSPost2010Prop48
 90
       50
102
RTVSPost2010PropOp48
 70
     0
102
RTVSPost2010Prop49
280
     0
102
RTVSPost2010PropOp49
 70
     1
102
RTVSPost2010Prop50
 90
       50
102
RTVSPost2010PropOp50
 70
     0
102
RTVSPost2010Prop51ColorIndex
 90
      256
102
RTVSPost2010Prop51ColorRGB
 90
-16777216
102
RTVSPost2010PropOp51
 70
     0
102
RTVSPost2010Prop52
140
1.0
102
RTVSPost2010PropOp52
 70
     0
102
RTVSPost2010Prop53
 90
        2
102
RTVSPost2010PropOp53
 70
     0
102
RTVSPost2010Prop54
  1
strokes_ogs.tif
102
RTVSPost2010PropOp54
 70
     0
102
RTVSPost2010Prop55
280
     0
102
RTVSPost2010PropOp55
 70
     1
102
RTVSPost2010Prop56
140
1.0
102
RTVSPost2010PropOp56
 70
     0
102
RTVSPost2010Prop57
140
1.0
102
RTVSPost2010PropOp57
 70
     0
102
RTVSPropertyOp0
 70
     0
102
RTVSPropertyOp1
 70
     0
102
RTVSPropertyOp2
 70
     0
102
RTVSPropertyOp3
 70
     0
102
RTVSPropertyOp4
 70
     0
102
RTVSPropertyOp5
 70
     0
102
RTVSPropertyOp6
 70
     0
102
RTVSPropertyOp7
 70
     0
102
RTVSPropertyOp8
 70
     0
102
RTVSPropertyOp9
 70
     0
102
RTVSPropertyOp10
 70
     0
102
RTVSPropertyOp11
 70
     0
102
RTVSPropertyOp12
 70
     0
102
RTVSPropertyOp13
 70
     0
102
RTVSPropertyOp14
 70
     2
102
RTVSPropertyOp15
 70
     0
102
RTVSPropertyOp16
 70
     0
102
RTVSPropertyOp17
 70
     0
102
RTVSPropertyOp18
 70
     0
102
RTVSPropertyOp19
 70
     0
102
RTVSPropertyOp20
 70
     0
102
RTVSPropertyOp21
 70
     0
102
RTVSPropertyOp22
 70
     0
102
RTVSPropertyOp23
 70
     0
102
RTVSPropertyOp24
 70
     0
102
RTVSPropertyOp25
 70
     0
102
RTVSPropertyOp26
 70
     0
102
RTVSPropertyOp27
 70
     0
102
RTVSPropertyOp28
 70
     1
102
RTVSPropertyOp29
 70
     1
102
RTVSPropertyOp30
 70
     1
102
RTVSPropertyOp31
 70
     1
102
RTVSPropertyOp32
 70
     1
102
RTVSPropertyOp33
 70
     1
102
RTVSPropertyOp34
 70
     1
102
RTVSPropertyOp35
 70
     1
102
RTVSPropertyOp36
 70
     1
102
RTVSPropertyOp37
 70
     0
102
RTVSPropertyOp38
 70
     0
102
RTVSPropertyOp39
 70
     0
102
RTVSPropertyOp40
 70
     0
102
RTVSPropertyOp41
 70
     0
102
RTVSPropertyOp42
 70
     0
102
RTVSPropertyOp43
 70
     0
102
RTVSPropertyOp44
 70
     0
102
RTVSPropertyOp45
 70
     1
102
RTVSPropertyOp46
 70
     0
102
RTVSPropertyOp47
 70
     0
102
RTVSPropertyOp48
 70
     0
102
RTVSPropertyOp49
 70
     1
102
RTVSPropertyOp50
 70
     0
102
RTVSPropertyOp51
 70
     0
102
RTVSPropertyOp52
 70
     0
102
RTVSPropertyOp53
 70
     0
102
RTVSPropertyOp54
 70
     0
102
RTVSPropertyOp55
 70
     1
102
RTVSPropertyOp56
 70
     0
102
RTVSPropertyOp57
 70
     0
102
RTVSPropertyOp58
 70
     0
102
RTVSPropertyOp59
 70
     0
102
RTVSPropertyOp60
 70
     0
102
RTVSPropertyOp61
 70
     0
102
RTVSPropertyOp62
 70
     0
  0
XRECORD
  5
BBA
102
{ACAD_REACTORS
330
BB9
102
}
330
BB9
100
AcDbXrecord
280
     1
102
RTVSPost2010Prop28
280
     0
102
RTVSPost2010PropOp28
 70
     1
102
RTVSPost2010Prop29
280
     1
102
RTVSPost2010PropOp29
 70
     1
102
RTVSPost2010Prop30
280
     1
102
RTVSPost2010PropOp30
 70
     1
102
RTVSPost2010Prop31
280
     0
102
RTVSPost2010PropOp31
 70
     1
102
RTVSPost2010Prop32
280
     0
102
RTVSPost2010PropOp32
 70
     1
102
RTVSPost2010Prop33
280
     0
102
RTVSPost2010PropOp33
 70
     1
102
RTVSPost2010Prop34
280
     0
102
RTVSPost2010PropOp34
 70
     1
102
RTVSPost2010Prop35
280
     0
102
RTVSPost2010PropOp35
 70
     1
102
RTVSPost2010Prop36
280
     0
102
RTVSPost2010PropOp36
 70
     1
102
RTVSPost2010Prop37
 90
       50
102
RTVSPost2010PropOp37
 70
     1
102
RTVSPost2010Prop38
140
0.0
102
RTVSPost2010PropOp38
 70
     1
102
RTVSPost2010Prop39
140
1.0
102
RTVSPost2010PropOp39
 70
     1
102
RTVSPost2010Prop40
 90
        0
102
RTVSPost2010PropOp40
 70
     1
102
RTVSPost2010Prop41ColorIndex
 90
       18
102
RTVSPost2010Prop41ColorRGB
 90
        0
102
RTVSPost2010PropOp41
 70
     1
102
RTVSPost2010Prop42
 90
       50
102
RTVSPost2010PropOp42
 70
     1
102
RTVSPost2010Prop43
 90
        3
102
RTVSPost2010PropOp43
 70
     1
102
RTVSPost2010Prop44ColorIndex
 90
        5
102
RTVSPost2010Prop44ColorRGB
 90
      255
102
RTVSPost2010PropOp44
 70
     1
102
RTVSPost2010Prop45
280
     0
102
RTVSPost2010PropOp45
 70
     1
102
RTVSPost2010Prop46
 90
       50
102
RTVSPost2010PropOp46
 70
     1
102
RTVSPost2010Prop47
 90
       50
102
RTVSPost2010PropOp47
 70
     1
102
RTVSPost2010Prop48
 90
       50
102
RTVSPost2010PropOp48
 70
     1
102
RTVSPost2010Prop49
280
     0
102
RTVSPost2010PropOp49
 70
     1
102
RTVSPost2010Prop50
 90
       50
102
RTVSPost2010PropOp50
 70
     1
102
RTVSPost2010Prop51ColorIndex
 90
      256
102
RTVSPost2010Prop51ColorRGB
 90
-16777216
102
RTVSPost2010PropOp51
 70
     0
102
RTVSPost2010Prop52
140
1.0
102
RTVSPost2010PropOp52
 70
     0
102
RTVSPost2010Prop53
 90
        2
102
RTVSPost2010PropOp53
 70
     1
102
RTVSPost2010Prop54
  1
strokes_ogs.tif
102
RTVSPost2010PropOp54
 70
     1
102
RTVSPost2010Prop55
280
     0
102
RTVSPost2010PropOp55
 70
     1
102
RTVSPost2010Prop56
140
1.0
102
RTVSPost2010PropOp56
 70
     1
102
RTVSPost2010Prop57
140
1.0
102
RTVSPost2010PropOp57
 70
     1
102
RTVSPropertyOp0
 70
     1
102
RTVSPropertyOp1
 70
     1
102
RTVSPropertyOp2
 70
     1
102
RTVSPropertyOp3
 70
     1
102
RTVSPropertyOp4
 70
     1
102
RTVSPropertyOp5
 70
     1
102
RTVSPropertyOp6
 70
     1
102
RTVSPropertyOp7
 70
     1
102
RTVSPropertyOp8
 70
     1
102
RTVSPropertyOp9
 70
     1
102
RTVSPropertyOp10
 70
     1
102
RTVSPropertyOp11
 70
     1
102
RTVSPropertyOp12
 70
     1
102
RTVSPropertyOp13
 70
     1
102
RTVSPropertyOp14
 70
     1
102
RTVSPropertyOp15
 70
     1
102
RTVSPropertyOp16
 70
     1
102
RTVSPropertyOp17
 70
     1
102
RTVSPropertyOp18
 70
     1
102
RTVSPropertyOp19
 70
     1
102
RTVSPropertyOp20
 70
     1
102
RTVSPropertyOp21
 70
     1
102
RTVSPropertyOp22
 70
     1
102
RTVSPropertyOp23
 70
     1
102
RTVSPropertyOp24
 70
     1
102
RTVSPropertyOp25
 70
     1
102
RTVSPropertyOp26
 70
     1
102
RTVSPropertyOp27
 70
     1
102
RTVSPropertyOp28
 70
     1
102
RTVSPropertyOp29
 70
     1
102
RTVSPropertyOp30
 70
     1
102
RTVSPropertyOp31
 70
     1
102
RTVSPropertyOp32
 70
     1
102
RTVSPropertyOp33
 70
     1
102
RTVSPropertyOp34
 70
     1
102
RTVSPropertyOp35
 70
     1
102
RTVSPropertyOp36
 70
     1
102
RTVSPropertyOp37
 70
     1
102
RTVSPropertyOp38
 70
     1
102
RTVSPropertyOp39
 70
     1
102
RTVSPropertyOp40
 70
     1
102
RTVSPropertyOp41
 70
     1
102
RTVSPropertyOp42
 70
     1
102
RTVSPropertyOp43
 70
     1
102
RTVSPropertyOp44
 70
     1
102
RTVSPropertyOp45
 70
     1
102
RTVSPropertyOp46
 70
     1
102
RTVSPropertyOp47
 70
     1
102
RTVSPropertyOp48
 70
     1
102
RTVSPropertyOp49
 70
     1
102
RTVSPropertyOp50
 70
     1
102
RTVSPropertyOp51
 70
     0
102
RTVSPropertyOp52
 70
     0
102
RTVSPropertyOp53
 70
     1
102
RTVSPropertyOp54
 70
     1
102
RTVSPropertyOp55
 70
     1
102
RTVSPropertyOp56
 70
     1
102
RTVSPropertyOp57
 70
     1
102
RTVSPropertyOp58
 70
     1
102
RTVSPropertyOp59
 70
     1
102
RTVSPropertyOp60
 70
     1
102
RTVSPropertyOp61
 70
     1
102
RTVSPropertyOp62
 70
     1
  0
XRECORD
  5
BD0
102
{ACAD_REACTORS
330
BCF
102
}
330
BCF
100
AcDbXrecord
280
     1
102
RTVSPost2010Prop28
280
     0
102
RTVSPost2010PropOp28
 70
     1
102
RTVSPost2010Prop29
280
     1
102
RTVSPost2010PropOp29
 70
     1
102
RTVSPost2010Prop30
280
     1
102
RTVSPost2010PropOp30
 70
     1
102
RTVSPost2010Prop31
280
     0
102
RTVSPost2010PropOp31
 70
     1
102
RTVSPost2010Prop32
280
     0
102
RTVSPost2010PropOp32
 70
     1
102
RTVSPost2010Prop33
280
     0
102
RTVSPost2010PropOp33
 70
     1
102
RTVSPost2010Prop34
280
     0
102
RTVSPost2010PropOp34
 70
     1
102
RTVSPost2010Prop35
280
     0
102
RTVSPost2010PropOp35
 70
     1
102
RTVSPost2010Prop36
280
     0
102
RTVSPost2010PropOp36
 70
     1
102
RTVSPost2010Prop37
 90
       50
102
RTVSPost2010PropOp37
 70
     1
102
RTVSPost2010Prop38
140
0.0
102
RTVSPost2010PropOp38
 70
     1
102
RTVSPost2010Prop39
140
1.0
102
RTVSPost2010PropOp39
 70
     1
102
RTVSPost2010Prop40
 90
        0
102
RTVSPost2010PropOp40
 70
     1
102
RTVSPost2010Prop41ColorIndex
 90
       18
102
RTVSPost2010Prop41ColorRGB
 90
        0
102
RTVSPost2010PropOp41
 70
     1
102
RTVSPost2010Prop42
 90
       50
102
RTVSPost2010PropOp42
 70
     1
102
RTVSPost2010Prop43
 90
        3
102
RTVSPost2010PropOp43
 70
     1
102
RTVSPost2010Prop44ColorIndex
 90
        5
102
RTVSPost2010Prop44ColorRGB
 90
      255
102
RTVSPost2010PropOp44
 70
     1
102
RTVSPost2010Prop45
280
     0
102
RTVSPost2010PropOp45
 70
     1
102
RTVSPost2010Prop46
 90
       50
102
RTVSPost2010PropOp46
 70
     1
102
RTVSPost2010Prop47
 90
       50
102
RTVSPost2010PropOp47
 70
     1
102
RTVSPost2010Prop48
 90
       50
102
RTVSPost2010PropOp48
 70
     1
102
RTVSPost2010Prop49
280
     0
102
RTVSPost2010PropOp49
 70
     1
102
RTVSPost2010Prop50
 90
       50
102
RTVSPost2010PropOp50
 70
     1
102
RTVSPost2010Prop51ColorIndex
 90
      256
102
RTVSPost2010Prop51ColorRGB
 90
-16777216
102
RTVSPost2010PropOp51
 70
     0
102
RTVSPost2010Prop52
140
1.0
102
RTVSPost2010PropOp52
 70
     0
102
RTVSPost2010Prop53
 90
        2
102
RTVSPost2010PropOp53
 70
     1
102
RTVSPost2010Prop54
  1
strokes_ogs.tif
102
RTVSPost2010PropOp54
 70
     1
102
RTVSPost2010Prop55
280
     0
102
RTVSPost2010PropOp55
 70
     1
102
RTVSPost2010Prop56
140
1.0
102
RTVSPost2010PropOp56
 70
     1
102
RTVSPost2010Prop57
140
1.0
102
RTVSPost2010PropOp57
 70
     1
102
RTVSPropertyOp0
 70
     1
102
RTVSPropertyOp1
 70
     1
102
RTVSPropertyOp2
 70
     1
102
RTVSPropertyOp3
 70
     1
102
RTVSPropertyOp4
 70
     1
102
RTVSPropertyOp5
 70
     1
102
RTVSPropertyOp6
 70
     1
102
RTVSPropertyOp7
 70
     1
102
RTVSPropertyOp8
 70
     1
102
RTVSPropertyOp9
 70
     1
102
RTVSPropertyOp10
 70
     1
102
RTVSPropertyOp11
 70
     1
102
RTVSPropertyOp12
 70
     1
102
RTVSPropertyOp13
 70
     1
102
RTVSPropertyOp14
 70
     1
102
RTVSPropertyOp15
 70
     1
102
RTVSPropertyOp16
 70
     1
102
RTVSPropertyOp17
 70
     1
102
RTVSPropertyOp18
 70
     1
102
RTVSPropertyOp19
 70
     1
102
RTVSPropertyOp20
 70
     1
102
RTVSPropertyOp21
 70
     1
102
RTVSPropertyOp22
 70
     1
102
RTVSPropertyOp23
 70
     1
102
RTVSPropertyOp24
 70
     1
102
RTVSPropertyOp25
 70
     1
102
RTVSPropertyOp26
 70
     1
102
RTVSPropertyOp27
 70
     1
102
RTVSPropertyOp28
 70
     1
102
RTVSPropertyOp29
 70
     1
102
RTVSPropertyOp30
 70
     1
102
RTVSPropertyOp31
 70
     1
102
RTVSPropertyOp32
 70
     1
102
RTVSPropertyOp33
 70
     1
102
RTVSPropertyOp34
 70
     1
102
RTVSPropertyOp35
 70
     1
102
RTVSPropertyOp36
 70
     1
102
RTVSPropertyOp37
 70
     1
102
RTVSPropertyOp38
 70
     1
102
RTVSPropertyOp39
 70
     1
102
RTVSPropertyOp40
 70
     1
102
RTVSPropertyOp41
 70
     1
102
RTVSPropertyOp42
 70
     1
102
RTVSPropertyOp43
 70
     1
102
RTVSPropertyOp44
 70
     1
102
RTVSPropertyOp45
 70
     1
102
RTVSPropertyOp46
 70
     1
102
RTVSPropertyOp47
 70
     1
102
RTVSPropertyOp48
 70
     1
102
RTVSPropertyOp49
 70
     1
102
RTVSPropertyOp50
 70
     1
102
RTVSPropertyOp51
 70
     0
102
RTVSPropertyOp52
 70
     0
102
RTVSPropertyOp53
 70
     1
102
RTVSPropertyOp54
 70
     1
102
RTVSPropertyOp55
 70
     1
102
RTVSPropertyOp56
 70
     1
102
RTVSPropertyOp57
 70
     1
102
RTVSPropertyOp58
 70
     1
102
RTVSPropertyOp59
 70
     1
102
RTVSPropertyOp60
 70
     1
102
RTVSPropertyOp61
 70
     1
102
RTVSPropertyOp62
 70
     1
  0
XRECORD
  5
BCE
102
{ACAD_REACTORS
330
BCD
102
}
330
BCD
100
AcDbXrecord
280
     1
102
RTVSPost2010Prop28
280
     0
102
RTVSPost2010PropOp28
 70
     1
102
RTVSPost2010Prop29
280
     1
102
RTVSPost2010PropOp29
 70
     1
102
RTVSPost2010Prop30
280
     1
102
RTVSPost2010PropOp30
 70
     1
102
RTVSPost2010Prop31
280
     0
102
RTVSPost2010PropOp31
 70
     1
102
RTVSPost2010Prop32
280
     0
102
RTVSPost2010PropOp32
 70
     1
102
RTVSPost2010Prop33
280
     0
102
RTVSPost2010PropOp33
 70
     1
102
RTVSPost2010Prop34
280
     0
102
RTVSPost2010PropOp34
 70
     1
102
RTVSPost2010Prop35
280
     0
102
RTVSPost2010PropOp35
 70
     1
102
RTVSPost2010Prop36
280
     0
102
RTVSPost2010PropOp36
 70
     1
102
RTVSPost2010Prop37
 90
       50
102
RTVSPost2010PropOp37
 70
     1
102
RTVSPost2010Prop38
140
0.0
102
RTVSPost2010PropOp38
 70
     1
102
RTVSPost2010Prop39
140
1.0
102
RTVSPost2010PropOp39
 70
     1
102
RTVSPost2010Prop40
 90
        0
102
RTVSPost2010PropOp40
 70
     1
102
RTVSPost2010Prop41ColorIndex
 90
       18
102
RTVSPost2010Prop41ColorRGB
 90
        0
102
RTVSPost2010PropOp41
 70
     1
102
RTVSPost2010Prop42
 90
       50
102
RTVSPost2010PropOp42
 70
     1
102
RTVSPost2010Prop43
 90
        3
102
RTVSPost2010PropOp43
 70
     1
102
RTVSPost2010Prop44ColorIndex
 90
        5
102
RTVSPost2010Prop44ColorRGB
 90
      255
102
RTVSPost2010PropOp44
 70
     1
102
RTVSPost2010Prop45
280
     0
102
RTVSPost2010PropOp45
 70
     1
102
RTVSPost2010Prop46
 90
       50
102
RTVSPost2010PropOp46
 70
     1
102
RTVSPost2010Prop47
 90
       50
102
RTVSPost2010PropOp47
 70
     1
102
RTVSPost2010Prop48
 90
       50
102
RTVSPost2010PropOp48
 70
     1
102
RTVSPost2010Prop49
280
     0
102
RTVSPost2010PropOp49
 70
     1
102
RTVSPost2010Prop50
 90
       50
102
RTVSPost2010PropOp50
 70
     1
102
RTVSPost2010Prop51ColorIndex
 90
      256
102
RTVSPost2010Prop51ColorRGB
 90
-16777216
102
RTVSPost2010PropOp51
 70
     0
102
RTVSPost2010Prop52
140
1.0
102
RTVSPost2010PropOp52
 70
     0
102
RTVSPost2010Prop53
 90
        2
102
RTVSPost2010PropOp53
 70
     1
102
RTVSPost2010Prop54
  1
strokes_ogs.tif
102
RTVSPost2010PropOp54
 70
     1
102
RTVSPost2010Prop55
280
     0
102
RTVSPost2010PropOp55
 70
     1
102
RTVSPost2010Prop56
140
1.0
102
RTVSPost2010PropOp56
 70
     1
102
RTVSPost2010Prop57
140
1.0
102
RTVSPost2010PropOp57
 70
     1
102
RTVSPropertyOp0
 70
     1
102
RTVSPropertyOp1
 70
     1
102
RTVSPropertyOp2
 70
     1
102
RTVSPropertyOp3
 70
     1
102
RTVSPropertyOp4
 70
     1
102
RTVSPropertyOp5
 70
     1
102
RTVSPropertyOp6
 70
     1
102
RTVSPropertyOp7
 70
     1
102
RTVSPropertyOp8
 70
     1
102
RTVSPropertyOp9
 70
     1
102
RTVSPropertyOp10
 70
     1
102
RTVSPropertyOp11
 70
     1
102
RTVSPropertyOp12
 70
     1
102
RTVSPropertyOp13
 70
     1
102
RTVSPropertyOp14
 70
     1
102
RTVSPropertyOp15
 70
     1
102
RTVSPropertyOp16
 70
     1
102
RTVSPropertyOp17
 70
     1
102
RTVSPropertyOp18
 70
     1
102
RTVSPropertyOp19
 70
     1
102
RTVSPropertyOp20
 70
     1
102
RTVSPropertyOp21
 70
     1
102
RTVSPropertyOp22
 70
     1
102
RTVSPropertyOp23
 70
     1
102
RTVSPropertyOp24
 70
     1
102
RTVSPropertyOp25
 70
     1
102
RTVSPropertyOp26
 70
     1
102
RTVSPropertyOp27
 70
     1
102
RTVSPropertyOp28
 70
     1
102
RTVSPropertyOp29
 70
     1
102
RTVSPropertyOp30
 70
     1
102
RTVSPropertyOp31
 70
     1
102
RTVSPropertyOp32
 70
     1
102
RTVSPropertyOp33
 70
     1
102
RTVSPropertyOp34
 70
     1
102
RTVSPropertyOp35
 70
     1
102
RTVSPropertyOp36
 70
     1
102
RTVSPropertyOp37
 70
     1
102
RTVSPropertyOp38
 70
     1
102
RTVSPropertyOp39
 70
     1
102
RTVSPropertyOp40
 70
     1
102
RTVSPropertyOp41
 70
     1
102
RTVSPropertyOp42
 70
     1
102
RTVSPropertyOp43
 70
     1
102
RTVSPropertyOp44
 70
     1
102
RTVSPropertyOp45
 70
     1
102
RTVSPropertyOp46
 70
     1
102
RTVSPropertyOp47
 70
     1
102
RTVSPropertyOp48
 70
     1
102
RTVSPropertyOp49
 70
     1
102
RTVSPropertyOp50
 70
     1
102
RTVSPropertyOp51
 70
     0
102
RTVSPropertyOp52
 70
     0
102
RTVSPropertyOp53
 70
     1
102
RTVSPropertyOp54
 70
     1
102
RTVSPropertyOp55
 70
     1
102
RTVSPropertyOp56
 70
     1
102
RTVSPropertyOp57
 70
     1
102
RTVSPropertyOp58
 70
     1
102
RTVSPropertyOp59
 70
     1
102
RTVSPropertyOp60
 70
     1
102
RTVSPropertyOp61
 70
     1
102
RTVSPropertyOp62
 70
     1
  0
XRECORD
  5
BC8
102
{ACAD_REACTORS
330
BC7
102
}
330
BC7
100
AcDbXrecord
280
     1
102
RTVSPost2010Prop28
280
     0
102
RTVSPost2010PropOp28
 70
     1
102
RTVSPost2010Prop29
280
     1
102
RTVSPost2010PropOp29
 70
     1
102
RTVSPost2010Prop30
280
     1
102
RTVSPost2010PropOp30
 70
     1
102
RTVSPost2010Prop31
280
     0
102
RTVSPost2010PropOp31
 70
     1
102
RTVSPost2010Prop32
280
     0
102
RTVSPost2010PropOp32
 70
     1
102
RTVSPost2010Prop33
280
     0
102
RTVSPost2010PropOp33
 70
     1
102
RTVSPost2010Prop34
280
     0
102
RTVSPost2010PropOp34
 70
     1
102
RTVSPost2010Prop35
280
     0
102
RTVSPost2010PropOp35
 70
     1
102
RTVSPost2010Prop36
280
     0
102
RTVSPost2010PropOp36
 70
     1
102
RTVSPost2010Prop37
 90
       50
102
RTVSPost2010PropOp37
 70
     1
102
RTVSPost2010Prop38
140
0.0
102
RTVSPost2010PropOp38
 70
     1
102
RTVSPost2010Prop39
140
1.0
102
RTVSPost2010PropOp39
 70
     1
102
RTVSPost2010Prop40
 90
        0
102
RTVSPost2010PropOp40
 70
     1
102
RTVSPost2010Prop41ColorIndex
 90
       18
102
RTVSPost2010Prop41ColorRGB
 90
        0
102
RTVSPost2010PropOp41
 70
     1
102
RTVSPost2010Prop42
 90
       50
102
RTVSPost2010PropOp42
 70
     1
102
RTVSPost2010Prop43
 90
        3
102
RTVSPost2010PropOp43
 70
     1
102
RTVSPost2010Prop44ColorIndex
 90
        5
102
RTVSPost2010Prop44ColorRGB
 90
      255
102
RTVSPost2010PropOp44
 70
     1
102
RTVSPost2010Prop45
280
     0
102
RTVSPost2010PropOp45
 70
     1
102
RTVSPost2010Prop46
 90
       50
102
RTVSPost2010PropOp46
 70
     1
102
RTVSPost2010Prop47
 90
       50
102
RTVSPost2010PropOp47
 70
     1
102
RTVSPost2010Prop48
 90
       50
102
RTVSPost2010PropOp48
 70
     1
102
RTVSPost2010Prop49
280
     0
102
RTVSPost2010PropOp49
 70
     1
102
RTVSPost2010Prop50
 90
       50
102
RTVSPost2010PropOp50
 70
     1
102
RTVSPost2010Prop51ColorIndex
 90
      256
102
RTVSPost2010Prop51ColorRGB
 90
-16777216
102
RTVSPost2010PropOp51
 70
     0
102
RTVSPost2010Prop52
140
1.0
102
RTVSPost2010PropOp52
 70
     0
102
RTVSPost2010Prop53
 90
        2
102
RTVSPost2010PropOp53
 70
     1
102
RTVSPost2010Prop54
  1
strokes_ogs.tif
102
RTVSPost2010PropOp54
 70
     1
102
RTVSPost2010Prop55
280
     0
102
RTVSPost2010PropOp55
 70
     1
102
RTVSPost2010Prop56
140
1.0
102
RTVSPost2010PropOp56
 70
     1
102
RTVSPost2010Prop57
140
1.0
102
RTVSPost2010PropOp57
 70
     1
102
RTVSPropertyOp0
 70
     1
102
RTVSPropertyOp1
 70
     1
102
RTVSPropertyOp2
 70
     1
102
RTVSPropertyOp3
 70
     1
102
RTVSPropertyOp4
 70
     1
102
RTVSPropertyOp5
 70
     1
102
RTVSPropertyOp6
 70
     1
102
RTVSPropertyOp7
 70
     1
102
RTVSPropertyOp8
 70
     1
102
RTVSPropertyOp9
 70
     1
102
RTVSPropertyOp10
 70
     1
102
RTVSPropertyOp11
 70
     1
102
RTVSPropertyOp12
 70
     1
102
RTVSPropertyOp13
 70
     1
102
RTVSPropertyOp14
 70
     1
102
RTVSPropertyOp15
 70
     1
102
RTVSPropertyOp16
 70
     1
102
RTVSPropertyOp17
 70
     1
102
RTVSPropertyOp18
 70
     1
102
RTVSPropertyOp19
 70
     1
102
RTVSPropertyOp20
 70
     1
102
RTVSPropertyOp21
 70
     1
102
RTVSPropertyOp22
 70
     1
102
RTVSPropertyOp23
 70
     1
102
RTVSPropertyOp24
 70
     1
102
RTVSPropertyOp25
 70
     1
102
RTVSPropertyOp26
 70
     1
102
RTVSPropertyOp27
 70
     1
102
RTVSPropertyOp28
 70
     1
102
RTVSPropertyOp29
 70
     1
102
RTVSPropertyOp30
 70
     1
102
RTVSPropertyOp31
 70
     1
102
RTVSPropertyOp32
 70
     1
102
RTVSPropertyOp33
 70
     1
102
RTVSPropertyOp34
 70
     1
102
RTVSPropertyOp35
 70
     1
102
RTVSPropertyOp36
 70
     1
102
RTVSPropertyOp37
 70
     1
102
RTVSPropertyOp38
 70
     1
102
RTVSPropertyOp39
 70
     1
102
RTVSPropertyOp40
 70
     1
102
RTVSPropertyOp41
 70
     1
102
RTVSPropertyOp42
 70
     1
102
RTVSPropertyOp43
 70
     1
102
RTVSPropertyOp44
 70
     1
102
RTVSPropertyOp45
 70
     1
102
RTVSPropertyOp46
 70
     1
102
RTVSPropertyOp47
 70
     1
102
RTVSPropertyOp48
 70
     1
102
RTVSPropertyOp49
 70
     1
102
RTVSPropertyOp50
 70
     1
102
RTVSPropertyOp51
 70
     0
102
RTVSPropertyOp52
 70
     0
102
RTVSPropertyOp53
 70
     1
102
RTVSPropertyOp54
 70
     1
102
RTVSPropertyOp55
 70
     1
102
RTVSPropertyOp56
 70
     1
102
RTVSPropertyOp57
 70
     1
102
RTVSPropertyOp58
 70
     1
102
RTVSPropertyOp59
 70
     1
102
RTVSPropertyOp60
 70
     1
102
RTVSPropertyOp61
 70
     1
102
RTVSPropertyOp62
 70
     1
  0
XRECORD
  5
BCA
102
{ACAD_REACTORS
330
BC9
102
}
330
BC9
100
AcDbXrecord
280
     1
102
RTVSPost2010Prop28
280
     0
102
RTVSPost2010PropOp28
 70
     1
102
RTVSPost2010Prop29
280
     1
102
RTVSPost2010PropOp29
 70
     1
102
RTVSPost2010Prop30
280
     1
102
RTVSPost2010PropOp30
 70
     1
102
RTVSPost2010Prop31
280
     0
102
RTVSPost2010PropOp31
 70
     1
102
RTVSPost2010Prop32
280
     0
102
RTVSPost2010PropOp32
 70
     1
102
RTVSPost2010Prop33
280
     0
102
RTVSPost2010PropOp33
 70
     1
102
RTVSPost2010Prop34
280
     0
102
RTVSPost2010PropOp34
 70
     1
102
RTVSPost2010Prop35
280
     0
102
RTVSPost2010PropOp35
 70
     1
102
RTVSPost2010Prop36
280
     0
102
RTVSPost2010PropOp36
 70
     1
102
RTVSPost2010Prop37
 90
       50
102
RTVSPost2010PropOp37
 70
     1
102
RTVSPost2010Prop38
140
0.0
102
RTVSPost2010PropOp38
 70
     1
102
RTVSPost2010Prop39
140
1.0
102
RTVSPost2010PropOp39
 70
     1
102
RTVSPost2010Prop40
 90
        0
102
RTVSPost2010PropOp40
 70
     1
102
RTVSPost2010Prop41ColorIndex
 90
       18
102
RTVSPost2010Prop41ColorRGB
 90
        0
102
RTVSPost2010PropOp41
 70
     1
102
RTVSPost2010Prop42
 90
       50
102
RTVSPost2010PropOp42
 70
     1
102
RTVSPost2010Prop43
 90
        3
102
RTVSPost2010PropOp43
 70
     1
102
RTVSPost2010Prop44ColorIndex
 90
        5
102
RTVSPost2010Prop44ColorRGB
 90
      255
102
RTVSPost2010PropOp44
 70
     1
102
RTVSPost2010Prop45
280
     0
102
RTVSPost2010PropOp45
 70
     1
102
RTVSPost2010Prop46
 90
       50
102
RTVSPost2010PropOp46
 70
     1
102
RTVSPost2010Prop47
 90
       50
102
RTVSPost2010PropOp47
 70
     1
102
RTVSPost2010Prop48
 90
       50
102
RTVSPost2010PropOp48
 70
     1
102
RTVSPost2010Prop49
280
     0
102
RTVSPost2010PropOp49
 70
     1
102
RTVSPost2010Prop50
 90
       50
102
RTVSPost2010PropOp50
 70
     1
102
RTVSPost2010Prop51ColorIndex
 90
      256
102
RTVSPost2010Prop51ColorRGB
 90
-16777216
102
RTVSPost2010PropOp51
 70
     0
102
RTVSPost2010Prop52
140
1.0
102
RTVSPost2010PropOp52
 70
     0
102
RTVSPost2010Prop53
 90
        2
102
RTVSPost2010PropOp53
 70
     1
102
RTVSPost2010Prop54
  1
strokes_ogs.tif
102
RTVSPost2010PropOp54
 70
     1
102
RTVSPost2010Prop55
280
     0
102
RTVSPost2010PropOp55
 70
     1
102
RTVSPost2010Prop56
140
1.0
102
RTVSPost2010PropOp56
 70
     1
102
RTVSPost2010Prop57
140
1.0
102
RTVSPost2010PropOp57
 70
     1
102
RTVSPropertyOp0
 70
     1
102
RTVSPropertyOp1
 70
     1
102
RTVSPropertyOp2
 70
     1
102
RTVSPropertyOp3
 70
     1
102
RTVSPropertyOp4
 70
     1
102
RTVSPropertyOp5
 70
     1
102
RTVSPropertyOp6
 70
     1
102
RTVSPropertyOp7
 70
     1
102
RTVSPropertyOp8
 70
     1
102
RTVSPropertyOp9
 70
     1
102
RTVSPropertyOp10
 70
     1
102
RTVSPropertyOp11
 70
     1
102
RTVSPropertyOp12
 70
     1
102
RTVSPropertyOp13
 70
     1
102
RTVSPropertyOp14
 70
     1
102
RTVSPropertyOp15
 70
     1
102
RTVSPropertyOp16
 70
     1
102
RTVSPropertyOp17
 70
     1
102
RTVSPropertyOp18
 70
     1
102
RTVSPropertyOp19
 70
     1
102
RTVSPropertyOp20
 70
     1
102
RTVSPropertyOp21
 70
     1
102
RTVSPropertyOp22
 70
     1
102
RTVSPropertyOp23
 70
     1
102
RTVSPropertyOp24
 70
     1
102
RTVSPropertyOp25
 70
     1
102
RTVSPropertyOp26
 70
     1
102
RTVSPropertyOp27
 70
     1
102
RTVSPropertyOp28
 70
     1
102
RTVSPropertyOp29
 70
     1
102
RTVSPropertyOp30
 70
     1
102
RTVSPropertyOp31
 70
     1
102
RTVSPropertyOp32
 70
     1
102
RTVSPropertyOp33
 70
     1
102
RTVSPropertyOp34
 70
     1
102
RTVSPropertyOp35
 70
     1
102
RTVSPropertyOp36
 70
     1
102
RTVSPropertyOp37
 70
     1
102
RTVSPropertyOp38
 70
     1
102
RTVSPropertyOp39
 70
     1
102
RTVSPropertyOp40
 70
     1
102
RTVSPropertyOp41
 70
     1
102
RTVSPropertyOp42
 70
     1
102
RTVSPropertyOp43
 70
     1
102
RTVSPropertyOp44
 70
     1
102
RTVSPropertyOp45
 70
     1
102
RTVSPropertyOp46
 70
     1
102
RTVSPropertyOp47
 70
     1
102
RTVSPropertyOp48
 70
     1
102
RTVSPropertyOp49
 70
     1
102
RTVSPropertyOp50
 70
     1
102
RTVSPropertyOp51
 70
     0
102
RTVSPropertyOp52
 70
     0
102
RTVSPropertyOp53
 70
     1
102
RTVSPropertyOp54
 70
     1
102
RTVSPropertyOp55
 70
     1
102
RTVSPropertyOp56
 70
     1
102
RTVSPropertyOp57
 70
     1
102
RTVSPropertyOp58
 70
     1
102
RTVSPropertyOp59
 70
     1
102
RTVSPropertyOp60
 70
     1
102
RTVSPropertyOp61
 70
     1
102
RTVSPropertyOp62
 70
     1
  0
XRECORD
  5
BC0
102
{ACAD_REACTORS
330
BBF
102
}
330
BBF
100
AcDbXrecord
280
     1
102
RTVSPost2010Prop28
280
     0
102
RTVSPost2010PropOp28
 70
     1
102
RTVSPost2010Prop29
280
     1
102
RTVSPost2010PropOp29
 70
     1
102
RTVSPost2010Prop30
280
     1
102
RTVSPost2010PropOp30
 70
     1
102
RTVSPost2010Prop31
280
     0
102
RTVSPost2010PropOp31
 70
     1
102
RTVSPost2010Prop32
280
     0
102
RTVSPost2010PropOp32
 70
     1
102
RTVSPost2010Prop33
280
     0
102
RTVSPost2010PropOp33
 70
     1
102
RTVSPost2010Prop34
280
     0
102
RTVSPost2010PropOp34
 70
     1
102
RTVSPost2010Prop35
280
     0
102
RTVSPost2010PropOp35
 70
     1
102
RTVSPost2010Prop36
280
     0
102
RTVSPost2010PropOp36
 70
     1
102
RTVSPost2010Prop37
 90
       50
102
RTVSPost2010PropOp37
 70
     1
102
RTVSPost2010Prop38
140
0.0
102
RTVSPost2010PropOp38
 70
     1
102
RTVSPost2010Prop39
140
1.0
102
RTVSPost2010PropOp39
 70
     1
102
RTVSPost2010Prop40
 90
        0
102
RTVSPost2010PropOp40
 70
     1
102
RTVSPost2010Prop41ColorIndex
 90
       18
102
RTVSPost2010Prop41ColorRGB
 90
        0
102
RTVSPost2010PropOp41
 70
     1
102
RTVSPost2010Prop42
 90
       50
102
RTVSPost2010PropOp42
 70
     1
102
RTVSPost2010Prop43
 90
        3
102
RTVSPost2010PropOp43
 70
     1
102
RTVSPost2010Prop44ColorIndex
 90
        5
102
RTVSPost2010Prop44ColorRGB
 90
      255
102
RTVSPost2010PropOp44
 70
     1
102
RTVSPost2010Prop45
280
     0
102
RTVSPost2010PropOp45
 70
     1
102
RTVSPost2010Prop46
 90
       50
102
RTVSPost2010PropOp46
 70
     1
102
RTVSPost2010Prop47
 90
       50
102
RTVSPost2010PropOp47
 70
     1
102
RTVSPost2010Prop48
 90
       50
102
RTVSPost2010PropOp48
 70
     1
102
RTVSPost2010Prop49
280
     0
102
RTVSPost2010PropOp49
 70
     1
102
RTVSPost2010Prop50
 90
       50
102
RTVSPost2010PropOp50
 70
     1
102
RTVSPost2010Prop51ColorIndex
 90
      256
102
RTVSPost2010Prop51ColorRGB
 90
-16777216
102
RTVSPost2010PropOp51
 70
     0
102
RTVSPost2010Prop52
140
1.0
102
RTVSPost2010PropOp52
 70
     0
102
RTVSPost2010Prop53
 90
        2
102
RTVSPost2010PropOp53
 70
     1
102
RTVSPost2010Prop54
  1
strokes_ogs.tif
102
RTVSPost2010PropOp54
 70
     1
102
RTVSPost2010Prop55
280
     0
102
RTVSPost2010PropOp55
 70
     1
102
RTVSPost2010Prop56
140
1.0
102
RTVSPost2010PropOp56
 70
     1
102
RTVSPost2010Prop57
140
1.0
102
RTVSPost2010PropOp57
 70
     1
102
RTVSPropertyOp0
 70
     1
102
RTVSPropertyOp1
 70
     1
102
RTVSPropertyOp2
 70
     1
102
RTVSPropertyOp3
 70
     1
102
RTVSPropertyOp4
 70
     1
102
RTVSPropertyOp5
 70
     1
102
RTVSPropertyOp6
 70
     1
102
RTVSPropertyOp7
 70
     1
102
RTVSPropertyOp8
 70
     1
102
RTVSPropertyOp9
 70
     1
102
RTVSPropertyOp10
 70
     1
102
RTVSPropertyOp11
 70
     1
102
RTVSPropertyOp12
 70
     1
102
RTVSPropertyOp13
 70
     1
102
RTVSPropertyOp14
 70
     1
102
RTVSPropertyOp15
 70
     1
102
RTVSPropertyOp16
 70
     1
102
RTVSPropertyOp17
 70
     1
102
RTVSPropertyOp18
 70
     1
102
RTVSPropertyOp19
 70
     1
102
RTVSPropertyOp20
 70
     1
102
RTVSPropertyOp21
 70
     1
102
RTVSPropertyOp22
 70
     1
102
RTVSPropertyOp23
 70
     1
102
RTVSPropertyOp24
 70
     1
102
RTVSPropertyOp25
 70
     1
102
RTVSPropertyOp26
 70
     1
102
RTVSPropertyOp27
 70
     1
102
RTVSPropertyOp28
 70
     1
102
RTVSPropertyOp29
 70
     1
102
RTVSPropertyOp30
 70
     1
102
RTVSPropertyOp31
 70
     1
102
RTVSPropertyOp32
 70
     1
102
RTVSPropertyOp33
 70
     1
102
RTVSPropertyOp34
 70
     1
102
RTVSPropertyOp35
 70
     1
102
RTVSPropertyOp36
 70
     1
102
RTVSPropertyOp37
 70
     1
102
RTVSPropertyOp38
 70
     1
102
RTVSPropertyOp39
 70
     1
102
RTVSPropertyOp40
 70
     1
102
RTVSPropertyOp41
 70
     1
102
RTVSPropertyOp42
 70
     1
102
RTVSPropertyOp43
 70
     1
102
RTVSPropertyOp44
 70
     1
102
RTVSPropertyOp45
 70
     1
102
RTVSPropertyOp46
 70
     1
102
RTVSPropertyOp47
 70
     1
102
RTVSPropertyOp48
 70
     1
102
RTVSPropertyOp49
 70
     1
102
RTVSPropertyOp50
 70
     1
102
RTVSPropertyOp51
 70
     0
102
RTVSPropertyOp52
 70
     0
102
RTVSPropertyOp53
 70
     1
102
RTVSPropertyOp54
 70
     1
102
RTVSPropertyOp55
 70
     1
102
RTVSPropertyOp56
 70
     1
102
RTVSPropertyOp57
 70
     1
102
RTVSPropertyOp58
 70
     1
102
RTVSPropertyOp59
 70
     1
102
RTVSPropertyOp60
 70
     1
102
RTVSPropertyOp61
 70
     1
102
RTVSPropertyOp62
 70
     1
  0
XRECORD
  5
BB4
102
{ACAD_REACTORS
330
BB3
102
}
330
BB3
100
AcDbXrecord
280
     1
102
RTVSPost2010Prop28
280
     0
102
RTVSPost2010PropOp28
 70
     1
102
RTVSPost2010Prop29
280
     1
102
RTVSPost2010PropOp29
 70
     1
102
RTVSPost2010Prop30
280
     1
102
RTVSPost2010PropOp30
 70
     1
102
RTVSPost2010Prop31
280
     0
102
RTVSPost2010PropOp31
 70
     1
102
RTVSPost2010Prop32
280
     0
102
RTVSPost2010PropOp32
 70
     1
102
RTVSPost2010Prop33
280
     0
102
RTVSPost2010PropOp33
 70
     1
102
RTVSPost2010Prop34
280
     0
102
RTVSPost2010PropOp34
 70
     1
102
RTVSPost2010Prop35
280
     0
102
RTVSPost2010PropOp35
 70
     1
102
RTVSPost2010Prop36
280
     0
102
RTVSPost2010PropOp36
 70
     1
102
RTVSPost2010Prop37
 90
       50
102
RTVSPost2010PropOp37
 70
     1
102
RTVSPost2010Prop38
140
0.0
102
RTVSPost2010PropOp38
 70
     1
102
RTVSPost2010Prop39
140
1.0
102
RTVSPost2010PropOp39
 70
     1
102
RTVSPost2010Prop40
 90
        0
102
RTVSPost2010PropOp40
 70
     1
102
RTVSPost2010Prop41ColorIndex
 90
       18
102
RTVSPost2010Prop41ColorRGB
 90
        0
102
RTVSPost2010PropOp41
 70
     1
102
RTVSPost2010Prop42
 90
       50
102
RTVSPost2010PropOp42
 70
     1
102
RTVSPost2010Prop43
 90
        3
102
RTVSPost2010PropOp43
 70
     1
102
RTVSPost2010Prop44ColorIndex
 90
        5
102
RTVSPost2010Prop44ColorRGB
 90
      255
102
RTVSPost2010PropOp44
 70
     1
102
RTVSPost2010Prop45
280
     0
102
RTVSPost2010PropOp45
 70
     1
102
RTVSPost2010Prop46
 90
       50
102
RTVSPost2010PropOp46
 70
     1
102
RTVSPost2010Prop47
 90
       50
102
RTVSPost2010PropOp47
 70
     1
102
RTVSPost2010Prop48
 90
       50
102
RTVSPost2010PropOp48
 70
     1
102
RTVSPost2010Prop49
280
     0
102
RTVSPost2010PropOp49
 70
     1
102
RTVSPost2010Prop50
 90
       50
102
RTVSPost2010PropOp50
 70
     1
102
RTVSPost2010Prop51ColorIndex
 90
      256
102
RTVSPost2010Prop51ColorRGB
 90
-16777216
102
RTVSPost2010PropOp51
 70
     0
102
RTVSPost2010Prop52
140
1.0
102
RTVSPost2010PropOp52
 70
     0
102
RTVSPost2010Prop53
 90
        2
102
RTVSPost2010PropOp53
 70
     1
102
RTVSPost2010Prop54
  1
strokes_ogs.tif
102
RTVSPost2010PropOp54
 70
     1
102
RTVSPost2010Prop55
280
     0
102
RTVSPost2010PropOp55
 70
     1
102
RTVSPost2010Prop56
140
1.0
102
RTVSPost2010PropOp56
 70
     1
102
RTVSPost2010Prop57
140
1.0
102
RTVSPost2010PropOp57
 70
     1
102
RTVSPropertyOp0
 70
     1
102
RTVSPropertyOp1
 70
     1
102
RTVSPropertyOp2
 70
     1
102
RTVSPropertyOp3
 70
     1
102
RTVSPropertyOp4
 70
     1
102
RTVSPropertyOp5
 70
     1
102
RTVSPropertyOp6
 70
     1
102
RTVSPropertyOp7
 70
     1
102
RTVSPropertyOp8
 70
     1
102
RTVSPropertyOp9
 70
     1
102
RTVSPropertyOp10
 70
     1
102
RTVSPropertyOp11
 70
     1
102
RTVSPropertyOp12
 70
     1
102
RTVSPropertyOp13
 70
     1
102
RTVSPropertyOp14
 70
     1
102
RTVSPropertyOp15
 70
     1
102
RTVSPropertyOp16
 70
     1
102
RTVSPropertyOp17
 70
     1
102
RTVSPropertyOp18
 70
     1
102
RTVSPropertyOp19
 70
     1
102
RTVSPropertyOp20
 70
     1
102
RTVSPropertyOp21
 70
     1
102
RTVSPropertyOp22
 70
     1
102
RTVSPropertyOp23
 70
     1
102
RTVSPropertyOp24
 70
     1
102
RTVSPropertyOp25
 70
     1
102
RTVSPropertyOp26
 70
     1
102
RTVSPropertyOp27
 70
     1
102
RTVSPropertyOp28
 70
     1
102
RTVSPropertyOp29
 70
     1
102
RTVSPropertyOp30
 70
     1
102
RTVSPropertyOp31
 70
     1
102
RTVSPropertyOp32
 70
     1
102
RTVSPropertyOp33
 70
     1
102
RTVSPropertyOp34
 70
     1
102
RTVSPropertyOp35
 70
     1
102
RTVSPropertyOp36
 70
     1
102
RTVSPropertyOp37
 70
     1
102
RTVSPropertyOp38
 70
     1
102
RTVSPropertyOp39
 70
     1
102
RTVSPropertyOp40
 70
     1
102
RTVSPropertyOp41
 70
     1
102
RTVSPropertyOp42
 70
     1
102
RTVSPropertyOp43
 70
     1
102
RTVSPropertyOp44
 70
     1
102
RTVSPropertyOp45
 70
     1
102
RTVSPropertyOp46
 70
     1
102
RTVSPropertyOp47
 70
     1
102
RTVSPropertyOp48
 70
     1
102
RTVSPropertyOp49
 70
     1
102
RTVSPropertyOp50
 70
     1
102
RTVSPropertyOp51
 70
     0
102
RTVSPropertyOp52
 70
     0
102
RTVSPropertyOp53
 70
     1
102
RTVSPropertyOp54
 70
     1
102
RTVSPropertyOp55
 70
     1
102
RTVSPropertyOp56
 70
     1
102
RTVSPropertyOp57
 70
     1
102
RTVSPropertyOp58
 70
     1
102
RTVSPropertyOp59
 70
     1
102
RTVSPropertyOp60
 70
     1
102
RTVSPropertyOp61
 70
     1
102
RTVSPropertyOp62
 70
     1
  0
XRECORD
  5
BCC
102
{ACAD_REACTORS
330
BCB
102
}
330
BCB
100
AcDbXrecord
280
     1
102
RTVSPost2010Prop28
280
     0
102
RTVSPost2010PropOp28
 70
     1
102
RTVSPost2010Prop29
280
     1
102
RTVSPost2010PropOp29
 70
     1
102
RTVSPost2010Prop30
280
     1
102
RTVSPost2010PropOp30
 70
     1
102
RTVSPost2010Prop31
280
     0
102
RTVSPost2010PropOp31
 70
     1
102
RTVSPost2010Prop32
280
     0
102
RTVSPost2010PropOp32
 70
     1
102
RTVSPost2010Prop33
280
     0
102
RTVSPost2010PropOp33
 70
     1
102
RTVSPost2010Prop34
280
     0
102
RTVSPost2010PropOp34
 70
     1
102
RTVSPost2010Prop35
280
     0
102
RTVSPost2010PropOp35
 70
     1
102
RTVSPost2010Prop36
280
     0
102
RTVSPost2010PropOp36
 70
     1
102
RTVSPost2010Prop37
 90
       50
102
RTVSPost2010PropOp37
 70
     1
102
RTVSPost2010Prop38
140
0.0
102
RTVSPost2010PropOp38
 70
     1
102
RTVSPost2010Prop39
140
1.0
102
RTVSPost2010PropOp39
 70
     1
102
RTVSPost2010Prop40
 90
        0
102
RTVSPost2010PropOp40
 70
     1
102
RTVSPost2010Prop41ColorIndex
 90
       18
102
RTVSPost2010Prop41ColorRGB
 90
        0
102
RTVSPost2010PropOp41
 70
     1
102
RTVSPost2010Prop42
 90
       50
102
RTVSPost2010PropOp42
 70
     1
102
RTVSPost2010Prop43
 90
        3
102
RTVSPost2010PropOp43
 70
     1
102
RTVSPost2010Prop44ColorIndex
 90
        5
102
RTVSPost2010Prop44ColorRGB
 90
      255
102
RTVSPost2010PropOp44
 70
     1
102
RTVSPost2010Prop45
280
     0
102
RTVSPost2010PropOp45
 70
     1
102
RTVSPost2010Prop46
 90
       50
102
RTVSPost2010PropOp46
 70
     1
102
RTVSPost2010Prop47
 90
       50
102
RTVSPost2010PropOp47
 70
     1
102
RTVSPost2010Prop48
 90
       50
102
RTVSPost2010PropOp48
 70
     1
102
RTVSPost2010Prop49
280
     0
102
RTVSPost2010PropOp49
 70
     1
102
RTVSPost2010Prop50
 90
       50
102
RTVSPost2010PropOp50
 70
     1
102
RTVSPost2010Prop51ColorIndex
 90
      256
102
RTVSPost2010Prop51ColorRGB
 90
-16777216
102
RTVSPost2010PropOp51
 70
     0
102
RTVSPost2010Prop52
140
1.0
102
RTVSPost2010PropOp52
 70
     0
102
RTVSPost2010Prop53
 90
        2
102
RTVSPost2010PropOp53
 70
     1
102
RTVSPost2010Prop54
  1
strokes_ogs.tif
102
RTVSPost2010PropOp54
 70
     1
102
RTVSPost2010Prop55
280
     0
102
RTVSPost2010PropOp55
 70
     1
102
RTVSPost2010Prop56
140
1.0
102
RTVSPost2010PropOp56
 70
     1
102
RTVSPost2010Prop57
140
1.0
102
RTVSPost2010PropOp57
 70
     1
102
RTVSPropertyOp0
 70
     1
102
RTVSPropertyOp1
 70
     1
102
RTVSPropertyOp2
 70
     1
102
RTVSPropertyOp3
 70
     1
102
RTVSPropertyOp4
 70
     1
102
RTVSPropertyOp5
 70
     1
102
RTVSPropertyOp6
 70
     1
102
RTVSPropertyOp7
 70
     1
102
RTVSPropertyOp8
 70
     1
102
RTVSPropertyOp9
 70
     1
102
RTVSPropertyOp10
 70
     1
102
RTVSPropertyOp11
 70
     1
102
RTVSPropertyOp12
 70
     1
102
RTVSPropertyOp13
 70
     1
102
RTVSPropertyOp14
 70
     1
102
RTVSPropertyOp15
 70
     1
102
RTVSPropertyOp16
 70
     1
102
RTVSPropertyOp17
 70
     1
102
RTVSPropertyOp18
 70
     1
102
RTVSPropertyOp19
 70
     1
102
RTVSPropertyOp20
 70
     1
102
RTVSPropertyOp21
 70
     1
102
RTVSPropertyOp22
 70
     1
102
RTVSPropertyOp23
 70
     1
102
RTVSPropertyOp24
 70
     1
102
RTVSPropertyOp25
 70
     1
102
RTVSPropertyOp26
 70
     1
102
RTVSPropertyOp27
 70
     1
102
RTVSPropertyOp28
 70
     1
102
RTVSPropertyOp29
 70
     1
102
RTVSPropertyOp30
 70
     1
102
RTVSPropertyOp31
 70
     1
102
RTVSPropertyOp32
 70
     1
102
RTVSPropertyOp33
 70
     1
102
RTVSPropertyOp34
 70
     1
102
RTVSPropertyOp35
 70
     1
102
RTVSPropertyOp36
 70
     1
102
RTVSPropertyOp37
 70
     1
102
RTVSPropertyOp38
 70
     1
102
RTVSPropertyOp39
 70
     1
102
RTVSPropertyOp40
 70
     1
102
RTVSPropertyOp41
 70
     1
102
RTVSPropertyOp42
 70
     1
102
RTVSPropertyOp43
 70
     1
102
RTVSPropertyOp44
 70
     1
102
RTVSPropertyOp45
 70
     1
102
RTVSPropertyOp46
 70
     1
102
RTVSPropertyOp47
 70
     1
102
RTVSPropertyOp48
 70
     1
102
RTVSPropertyOp49
 70
     1
102
RTVSPropertyOp50
 70
     1
102
RTVSPropertyOp51
 70
     0
102
RTVSPropertyOp52
 70
     0
102
RTVSPropertyOp53
 70
     1
102
RTVSPropertyOp54
 70
     1
102
RTVSPropertyOp55
 70
     1
102
RTVSPropertyOp56
 70
     1
102
RTVSPropertyOp57
 70
     1
102
RTVSPropertyOp58
 70
     1
102
RTVSPropertyOp59
 70
     1
102
RTVSPropertyOp60
 70
     1
102
RTVSPropertyOp61
 70
     1
102
RTVSPropertyOp62
 70
     1
  0
ENDSEC
  0
EOF
