  0
SECTION
  2
HEADER
  9
$ACADVER
  1
AC1015
  9
$ACADMAINTVER
 70
    20
  9
$DWGCODEPAGE
  3
ANSI_932
  9
$INSBASE
 10
0.0
 20
0.0
 30
0.0
  9
$EXTMIN
 10
10.0
 20
9.999999999999998
 30
0.0
  9
$EXTMAX
 10
445.8294781981407
 20
370.768937
 30
0.0
  9
$LIMMIN
 10
0.0
 20
0.0
  9
$LIMMAX
 10
565.3084730000001
 20
389.720235
  9
$ORTHOMODE
 70
     1
  9
$REGENMODE
 70
     1
  9
$FILLMODE
 70
     1
  9
$QTEXTMODE
 70
     0
  9
$MIRRTEXT
 70
     1
  9
$LTSCALE
 40
20.0
  9
$ATTMODE
 70
     1
  9
$TEXTSIZE
 40
5.0
  9
$TRACEWID
 40
1.0
  9
$TEXTSTYLE
  7
STANDARD
  9
$CLAYER
  8
0
  9
$CELTYPE
  6
BYLAYER
  9
$CECOLOR
 62
   256
  9
$CELTSCALE
 40
1.0
  9
$DISPSILH
 70
     0
  9
$DIMSCALE
 40
1.0
  9
$DIMASZ
 40
3.0
  9
$DIMEXO
 40
1.0
  9
$DIMDLI
 40
10.0
  9
$DIMRND
 40
0.0
  9
$DIMDLE
 40
0.0
  9
$DIMEXE
 40
1.0
  9
$DIMTP
 40
0.0
  9
$DIMTM
 40
0.0
  9
$DIMTXT
 40
3.2
  9
$DIMCEN
 40
0.0
  9
$DIMTSZ
 40
0.0
  9
$DIMTOL
 70
     0
  9
$DIMLIM
 70
     0
  9
$DIMTIH
 70
     0
  9
$DIMTOH
 70
     0
  9
$DIMSE1
 70
     0
  9
$DIMSE2
 70
     0
  9
$DIMTAD
 70
     3
  9
$DIMZIN
 70
     8
  9
$DIMBLK
  1

  9
$DIMASO
 70
     1
  9
$DIMSHO
 70
     1
  9
$DIMPOST
  1

  9
$DIMAPOST
  1

  9
$DIMALT
 70
     0
  9
$DIMALTD
 70
     2
  9
$DIMALTF
 40
25.4
  9
$DIMLFAC
 40
1.0
  9
$DIMTOFL
 70
     1
  9
$DIMTVP
 40
0.0
  9
$DIMTIX
 70
     0
  9
$DIMSOXD
 70
     0
  9
$DIMSAH
 70
     1
  9
$DIMBLK1
  1
OPEN
  9
$DIMBLK2
  1
OPEN
  9
$DIMSTYLE
  2
STANDARD
  9
$DIMCLRD
 70
     0
  9
$DIMCLRE
 70
     0
  9
$DIMCLRT
 70
     0
  9
$DIMTFAC
 40
1.0
  9
$DIMGAP
 40
1.0
  9
$DIMJUST
 70
     0
  9
$DIMSD1
 70
     0
  9
$DIMSD2
 70
     0
  9
$DIMTOLJ
 70
     1
  9
$DIMTZIN
 70
     0
  9
$DIMALTZ
 70
     0
  9
$DIMALTTZ
 70
     0
  9
$DIMUPT
 70
     0
  9
$DIMDEC
 70
     4
  9
$DIMTDEC
 70
     4
  9
$DIMALTU
 70
     2
  9
$DIMALTTD
 70
     2
  9
$DIMTXSTY
  7
STANDARD
  9
$DIMAUNIT
 70
     0
  9
$DIMADEC
 70
     0
  9
$DIMALTRND
 40
0.0
  9
$DIMAZIN
 70
     0
  9
$DIMDSEP
 70
    46
  9
$DIMATFIT
 70
     3
  9
$DIMFRAC
 70
     0
  9
$DIMLDRBLK
  1
OPEN
  9
$DIMLUNIT
 70
     2
  9
$DIMLWD
 70
    -2
  9
$DIMLWE
 70
    -2
  9
$DIMTMOVE
 70
     0
  9
$LUNITS
 70
     2
  9
$LUPREC
 70
     4
  9
$SKETCHINC
 40
1.0
  9
$FILLETRAD
 40
18.0
  9
$AUNITS
 70
     0
  9
$AUPREC
 70
     2
  9
$MENU
  1
.
  9
$ELEVATION
 40
0.0
  9
$PELEVATION
 40
0.0
  9
$THICKNESS
 40
0.0
  9
$LIMCHECK
 70
     0
  9
$CHAMFERA
 40
10.0
  9
$CHAMFERB
 40
10.0
  9
$CHAMFERC
 40
0.0
  9
$CHAMFERD
 40
0.0
  9
$SKPOLY
 70
     0
  9
$TDCREATE
 40
2451301.673722106
  9
$TDUCREATE
 40
2451301.298722107
  9
$TDUPDATE
 40
2457192.687985984
  9
$TDUUPDATE
 40
2457192.312985984
  9
$TDINDWG
 40
0.0000143287
  9
$TDUSRTIMER
 40
0.0000136574
  9
$USRTIMER
 70
     1
  9
$ANGBASE
 50
0.0
  9
$ANGDIR
 70
     0
  9
$PDMODE
 70
     0
  9
$PDSIZE
 40
0.0
  9
$PLINEWID
 40
0.0
  9
$SPLFRAME
 70
     0
  9
$SPLINETYPE
 70
     6
  9
$SPLINESEGS
 70
     8
  9
$HANDSEED
  5
B7B0
  9
$SURFTAB1
 70
     6
  9
$SURFTAB2
 70
     6
  9
$SURFTYPE
 70
     6
  9
$SURFU
 70
     6
  9
$SURFV
 70
     6
  9
$UCSBASE
  2

  9
$UCSNAME
  2

  9
$UCSORG
 10
0.0
 20
0.0
 30
0.0
  9
$UCSXDIR
 10
1.0
 20
0.0
 30
0.0
  9
$UCSYDIR
 10
0.0
 20
1.0
 30
0.0
  9
$UCSORTHOREF
  2

  9
$UCSORTHOVIEW
 70
     0
  9
$UCSORGTOP
 10
0.0
 20
0.0
 30
0.0
  9
$UCSORGBOTTOM
 10
0.0
 20
0.0
 30
0.0
  9
$UCSORGLEFT
 10
0.0
 20
0.0
 30
0.0
  9
$UCSORGRIGHT
 10
0.0
 20
0.0
 30
0.0
  9
$UCSORGFRONT
 10
0.0
 20
0.0
 30
0.0
  9
$UCSORGBACK
 10
0.0
 20
0.0
 30
0.0
  9
$PUCSBASE
  2

  9
$PUCSNAME
  2

  9
$PUCSORG
 10
0.0
 20
0.0
 30
0.0
  9
$PUCSXDIR
 10
1.0
 20
0.0
 30
0.0
  9
$PUCSYDIR
 10
0.0
 20
1.0
 30
0.0
  9
$PUCSORTHOREF
  2

  9
$PUCSORTHOVIEW
 70
     0
  9
$PUCSORGTOP
 10
0.0
 20
0.0
 30
0.0
  9
$PUCSORGBOTTOM
 10
0.0
 20
0.0
 30
0.0
  9
$PUCSORGLEFT
 10
0.0
 20
0.0
 30
0.0
  9
$PUCSORGRIGHT
 10
0.0
 20
0.0
 30
0.0
  9
$PUCSORGFRONT
 10
0.0
 20
0.0
 30
0.0
  9
$PUCSORGBACK
 10
0.0
 20
0.0
 30
0.0
  9
$USERI1
 70
     0
  9
$USERI2
 70
     0
  9
$USERI3
 70
     0
  9
$USERI4
 70
     0
  9
$USERI5
 70
     0
  9
$USERR1
 40
0.0
  9
$USERR2
 40
0.0
  9
$USERR3
 40
0.0
  9
$USERR4
 40
0.0
  9
$USERR5
 40
0.0
  9
$WORLDVIEW
 70
     1
  9
$SHADEDGE
 70
     3
  9
$SHADEDIF
 70
    70
  9
$TILEMODE
 70
     1
  9
$MAXACTVP
 70
    16
  9
$PINSBASE
 10
0.0
 20
0.0
 30
0.0
  9
$PLIMCHECK
 70
     0
  9
$PEXTMIN
 10
1.000000000000000E+20
 20
1.000000000000000E+20
 30
1.000000000000000E+20
  9
$PEXTMAX
 10
-1.000000000000000E+20
 20
-1.000000000000000E+20
 30
-1.000000000000000E+20
  9
$PLIMMIN
 10
0.0
 20
0.0
  9
$PLIMMAX
 10
420.0
 20
297.0
  9
$UNITMODE
 70
     0
  9
$VISRETAIN
 70
     0
  9
$PLINEGEN
 70
     0
  9
$PSLTSCALE
 70
     0
  9
$TREEDEPTH
 70
  3020
  9
$CMLSTYLE
  2
STANDARD
  9
$CMLJUST
 70
     0
  9
$CMLSCALE
 40
1.0
  9
$PROXYGRAPHICS
 70
     1
  9
$MEASUREMENT
 70
     0
  9
$CELWEIGHT
370
    -1
  9
$ENDCAPS
280
     0
  9
$JOINSTYLE
280
     0
  9
$LWDISPLAY
290
     0
  9
$INSUNITS
 70
     0
  9
$HYPERLINKBASE
  1

  9
$STYLESHEET
  1

  9
$XEDIT
290
     1
  9
$CEPSNTYPE
380
     0
  9
$PSTYLEMODE
290
     1
  9
$FINGERPRINTGUID
  2
{C23EE289-4BBD-48EF-B908-08B49BE7ABE3}
  9
$VERSIONGUID
  2
{70AB6D79-F769-4464-B03A-7CE7A8363115}
  9
$EXTNAMES
290
     1
  9
$PSVPSCALE
 40
0.0
  9
$OLESTARTUP
290
     0
  0
ENDSEC
  0
SECTION
  2
CLASSES
  0
CLASS
  1
ACDBDICTIONARYWDFLT
  2
AcDbDictionaryWithDefault
  3
ObjectDBX Classes
 90
        0
280
     0
281
     0
  0
CLASS
  1
ACDBPLACEHOLDER
  2
AcDbPlaceHolder
  3
ObjectDBX Classes
 90
        0
280
     0
281
     0
  0
CLASS
  1
LAYOUT
  2
AcDbLayout
  3
ObjectDBX Classes
 90
        0
280
     0
281
     0
  0
CLASS
  1
DICTIONARYVAR
  2
AcDbDictionaryVar
  3
ObjectDBX Classes
 90
        0
280
     0
281
     0
  0
CLASS
  1
MATERIAL
  2
AcDbMaterial
  3
ObjectDBX Classes
 90
     1153
280
     0
281
     0
  0
CLASS
  1
VISUALSTYLE
  2
AcDbVisualStyle
  3
ObjectDBX Classes
 90
     4095
280
     0
281
     0
  0
CLASS
  1
TABLESTYLE
  2
AcDbTableStyle
  3
ObjectDBX Classes
 90
     4095
280
     0
281
     0
  0
CLASS
  1
SCALE
  2
AcDbScale
  3
ObjectDBX Classes
 90
     1153
280
     0
281
     0
  0
CLASS
  1
MLEADERSTYLE
  2
AcDbMLeaderStyle
  3
ACDB_MLEADERSTYLE_CLASS
 90
     4095
280
     0
281
     0
  0
CLASS
  1
ACDBSECTIONVIEWSTYLE
  2
AcDbSectionViewStyle
  3
ObjectDBX Classes
 90
     1025
280
     0
281
     0
  0
CLASS
  1
ACDBDETAILVIEWSTYLE
  2
AcDbDetailViewStyle
  3
ObjectDBX Classes
 90
     1025
280
     0
281
     0
  0
CLASS
  1
CELLSTYLEMAP
  2
AcDbCellStyleMap
  3
ObjectDBX Classes
 90
     1152
280
     0
281
     0
  0
ENDSEC
  0
SECTION
  2
TABLES
  0
TABLE
  2
VPORT
  5
B263
330
0
100
AcDbSymbolTable
 70
     1
  0
VPORT
  5
B6F9
330
B263
100
AcDbSymbolTableRecord
100
AcDbViewportTableRecord
  2
*ACTIVE
 70
     0
 10
0.0
 20
0.0
 11
1.0
 21
1.0
 12
337.2066644456804
 22
190.3852576105908
 13
0.0
 23
0.0
 14
10.0
 24
10.0
 15
10.0
 25
10.0
 16
0.0
 26
0.0
 36
1.0
 17
0.0
 27
0.0
 37
0.0
 40
364.8004160443541
 41
2.35006605019815
 42
50.0
 43
0.0
 44
0.0
 50
0.0
 51
0.0
 71
     0
 72
   100
 73
     1
 74
     0
 75
     0
 76
     0
 77
     0
 78
     0
281
     0
 65
     1
110
0.0
120
0.0
130
0.0
111
1.0
121
0.0
131
0.0
112
0.0
122
1.0
132
0.0
 79
     0
146
0.0
1001
ACAD_NAV_VCDISPLAY
1070
     3
  0
ENDTAB
  0
TABLE
  2
LTYPE
  5
B260
330
0
100
AcDbSymbolTable
 70
     4
  0
LTYPE
  5
B26E
330
B260
100
AcDbSymbolTableRecord
100
AcDbLinetypeTableRecord
  2
BYBLOCK
 70
     0
  3

 72
    65
 73
     0
 40
0.0
  0
LTYPE
  5
B26F
330
B260
100
AcDbSymbolTableRecord
100
AcDbLinetypeTableRecord
  2
BYLAYER
 70
     0
  3

 72
    65
 73
     0
 40
0.0
  0
LTYPE
  5
B270
330
B260
100
AcDbSymbolTableRecord
100
AcDbLinetypeTableRecord
  2
CONTINUOUS
 70
     0
  3
Solid line
 72
    65
 73
     0
 40
0.0
  0
LTYPE
  5
B27E
330
B260
100
AcDbSymbolTableRecord
100
AcDbLinetypeTableRecord
  2
DASHED
 70
     0
  3
__ __ __ __ __ __ __ __ __ __ __ __ __ __ __ __
 72
    65
 73
     2
 40
0.75
 49
0.5
 74
     0
 49
-0.25
 74
     0
  0
LTYPE
  5
B27F
330
B260
100
AcDbSymbolTableRecord
100
AcDbLinetypeTableRecord
  2
CENTER
 70
     0
  3
____ _ ____ _ ____ _ ____ _ ____ _ ____ _ ____ 
 72
    65
 73
     4
 40
2.0
 49
1.25
 74
     0
 49
-0.25
 74
     0
 49
0.25
 74
     0
 49
-0.25
 74
     0
  0
LTYPE
  5
B280
330
B260
100
AcDbSymbolTableRecord
100
AcDbLinetypeTableRecord
  2
PHANTOM
 70
     0
  3
______  __  __  ______  __  __  ______  __  __ 
 72
    65
 73
     6
 40
2.5
 49
1.25
 74
     0
 49
-0.25
 74
     0
 49
0.25
 74
     0
 49
-0.25
 74
     0
 49
0.25
 74
     0
 49
-0.25
 74
     0
  0
ENDTAB
  0
TABLE
  2
LAYER
  5
B25D
330
0
100
AcDbSymbolTable
 70
     8
  0
LAYER
  5
B26B
102
{ACAD_XDICTIONARY
360
B754
102
}
330
B25D
100
AcDbSymbolTableRecord
100
AcDbLayerTableRecord
  2
0
 70
     0
 62
     7
  6
CONTINUOUS
370
    -3
390
B702
  0
LAYER
  5
B281
102
{ACAD_XDICTIONARY
360
B756
102
}
330
B25D
100
AcDbSymbolTableRecord
100
AcDbLayerTableRecord
  2
4
 70
     0
 62
     1
  6
CENTER
370
    -3
390
B702
  0
LAYER
  5
B282
102
{ACAD_XDICTIONARY
360
B758
102
}
330
B25D
100
AcDbSymbolTableRecord
100
AcDbLayerTableRecord
  2
5
 70
     0
 62
     6
  6
PHANTOM
370
    -3
390
B702
  0
LAYER
  5
B283
102
{ACAD_XDICTIONARY
360
B75A
102
}
330
B25D
100
AcDbSymbolTableRecord
100
AcDbLayerTableRecord
  2
1
 70
     0
 62
     7
  6
CONTINUOUS
370
    -3
390
B702
  0
LAYER
  5
B284
102
{ACAD_XDICTIONARY
360
B75C
102
}
330
B25D
100
AcDbSymbolTableRecord
100
AcDbLayerTableRecord
  2
2
 70
     0
 62
     4
  6
CONTINUOUS
370
    -3
390
B702
  0
LAYER
  5
B285
102
{ACAD_XDICTIONARY
360
B75E
102
}
330
B25D
100
AcDbSymbolTableRecord
100
AcDbLayerTableRecord
  2
3
 70
     0
 62
     2
  6
DASHED
370
    -3
390
B702
  0
LAYER
  5
B286
102
{ACAD_XDICTIONARY
360
B760
102
}
330
B25D
100
AcDbSymbolTableRecord
100
AcDbLayerTableRecord
  2
6
 70
     0
 62
     5
  6
CONTINUOUS
370
    -3
390
B702
  0
LAYER
  5
B287
102
{ACAD_XDICTIONARY
360
B762
102
}
330
B25D
100
AcDbSymbolTableRecord
100
AcDbLayerTableRecord
  2
7
 70
     0
 62
     3
  6
CONTINUOUS
370
    -3
390
B702
  0
ENDTAB
  0
TABLE
  2
STYLE
  5
B25E
330
0
100
AcDbSymbolTable
 70
     1
  0
STYLE
  5
B26C
330
B25E
100
AcDbSymbolTableRecord
100
AcDbTextStyleTableRecord
  2
STANDARD
 70
     0
 40
0.0
 41
1.0
 50
0.0
 71
     0
 42
5.0
  3
txt
  4

  0
ENDTAB
  0
TABLE
  2
VIEW
  5
B261
330
0
100
AcDbSymbolTable
 70
     0
  0
ENDTAB
  0
TABLE
  2
UCS
  5
B262
330
0
100
AcDbSymbolTable
 70
     0
  0
ENDTAB
  0
TABLE
  2
APPID
  5
B264
330
0
100
AcDbSymbolTable
 70
     3
  0
APPID
  5
B26D
330
B264
100
AcDbSymbolTableRecord
100
AcDbRegAppTableRecord
  2
ACAD
 70
     0
  0
APPID
  5
B76E
330
B264
100
AcDbSymbolTableRecord
100
AcDbRegAppTableRecord
  2
ACAD_NAV_VCDISPLAY
 70
     0
  0
APPID
  5
B7A7
330
B264
100
AcDbSymbolTableRecord
100
AcDbRegAppTableRecord
  2
ACAD_MLEADERVER
 70
     0
  0
ENDTAB
  0
TABLE
  2
DIMSTYLE
  5
B265
330
0
100
AcDbSymbolTable
 70
     1
100
AcDbDimStyleTable
 71
     0
  0
DIMSTYLE
105
B289
330
B265
100
AcDbSymbolTableRecord
100
AcDbDimStyleTableRecord
  2
STANDARD
 70
     0
 41
3.0
 42
1.0
 43
10.0
 44
1.0
 73
     0
 74
     0
 77
     3
 78
     8
140
3.2
141
0.0
147
1.0
172
     1
173
     1
284
     8
285
     8
286
     8
340
B26C
  0
ENDTAB
  0
TABLE
  2
BLOCK_RECORD
  5
B25C
330
0
100
AcDbSymbolTable
 70
     1
  0
BLOCK_RECORD
  5
B279
102
{ACAD_XDICTIONARY
360
B6FC
102
}
330
B25C
100
AcDbSymbolTableRecord
100
AcDbBlockTableRecord
  2
*MODEL_SPACE
340
B750
  0
BLOCK_RECORD
  5
B275
102
{ACAD_XDICTIONARY
360
B6FA
102
}
330
B25C
100
AcDbSymbolTableRecord
100
AcDbBlockTableRecord
  2
*PAPER_SPACE
340
B751
  0
BLOCK_RECORD
  5
B291
330
B25C
100
AcDbSymbolTableRecord
100
AcDbBlockTableRecord
  2
_OPEN
340
0
  0
ENDTAB
  0
ENDSEC
  0
SECTION
  2
BLOCKS
  0
BLOCK
  5
B27A
330
B279
100
AcDbEntity
  8
0
100
AcDbBlockBegin
  2
*MODEL_SPACE
 70
     0
 10
0.0
 20
0.0
 30
0.0
  3
*MODEL_SPACE
  1

  0
ENDBLK
  5
B27B
330
B279
100
AcDbEntity
  8
0
100
AcDbBlockEnd
  0
BLOCK
  5
B276
330
B275
100
AcDbEntity
 67
     1
  8
0
100
AcDbBlockBegin
  2
*PAPER_SPACE
 70
     0
 10
0.0
 20
0.0
 30
0.0
  3
*PAPER_SPACE
  1

  0
ENDBLK
  5
B277
330
B275
100
AcDbEntity
 67
     1
  8
0
100
AcDbBlockEnd
  0
BLOCK
  5
B292
330
B291
100
AcDbEntity
  8
0
100
AcDbBlockBegin
  2
_OPEN
 70
     0
 10
0.0
 20
0.0
 30
0.0
  3
_OPEN
  1

  0
LINE
  5
B293
330
B291
100
AcDbEntity
  8
0
  6
ByBlock
 62
     0
100
AcDbLine
 10
-1.0
 20
0.166667
 30
0.0
 11
0.0
 21
0.0
 31
0.0
  0
LINE
  5
B294
330
B291
100
AcDbEntity
  8
0
  6
ByBlock
 62
     0
100
AcDbLine
 10
0.0
 20
0.0
 30
0.0
 11
-1.0
 21
-0.166667
 31
0.0
  0
LINE
  5
B295
330
B291
100
AcDbEntity
  8
0
  6
ByBlock
 62
     0
100
AcDbLine
 10
0.0
 20
0.0
 30
0.0
 11
-1.0
 21
0.0
 31
0.0
  0
ENDBLK
  5
B296
330
B291
100
AcDbEntity
  8
0
100
AcDbBlockEnd
  0
ENDSEC
  0
SECTION
  2
ENTITIES
  0
TEXT
  5
B297
330
B279
100
AcDbEntity
  8
7
  6
Continuous
100
AcDbText
 10
10.0
 20
18.0
 30
0.0
 40
3.0
  1
TYPE No.305S
100
AcDbText
  0
TEXT
  5
B298
330
B279
100
AcDbEntity
  8
7
  6
Continuous
100
AcDbText
 10
10.0
 20
26.0
 30
0.0
 40
3.0
  1
CODE No.9319
100
AcDbText
  0
TEXT
  5
B299
330
B279
100
AcDbEntity
  8
1
  6
Continuous
100
AcDbText
 10
10.0
 20
10.0
 30
0.0
 40
1.399999999999999
  1
LAYER
100
AcDbText
  0
TEXT
  5
B29A
330
B279
100
AcDbEntity
  8
1
  6
Continuous
100
AcDbText
 10
17.97951099999998
 20
10.04873699999998
 30
0.0
 40
1.399999999999999
  1
1
100
AcDbText
  0
TEXT
  5
B29B
330
B279
100
AcDbEntity
  8
7
  6
Continuous
100
AcDbText
 10
29.97951099999999
 20
10.04873699999998
 30
0.0
 40
1.399999999999999
  1
7
100
AcDbText
  0
TEXT
  5
B29C
330
B279
100
AcDbEntity
  8
4
  6
CENTER
100
AcDbText
 10
23.97951099999999
 20
10.04873699999998
 30
0.0
 40
1.399999999999999
  1
4
100
AcDbText
  0
TEXT
  5
B29D
330
B279
100
AcDbEntity
  8
3
  6
DASHED
100
AcDbText
 10
21.979511
 20
10.04873699999998
 30
0.0
 40
1.399999999999999
  1
3
100
AcDbText
  0
TEXT
  5
B29E
330
B279
100
AcDbEntity
  8
2
  6
Continuous
100
AcDbText
 10
19.97951099999999
 20
10.04873699999998
 30
0.0
 40
1.399999999999999
  1
2
100
AcDbText
  0
TEXT
  5
B29F
330
B279
100
AcDbEntity
  8
6
  6
Continuous
100
AcDbText
 10
27.979511
 20
10.04873699999998
 30
0.0
 40
1.399999999999999
  1
6
100
AcDbText
  0
TEXT
  5
B2A0
330
B279
100
AcDbEntity
  8
5
  6
PHANTOM
100
AcDbText
 10
25.97951099999999
 20
10.04873699999998
 30
0.0
 40
1.399999999999999
  1
5
100
AcDbText
  0
ARC
  5
B2A1
330
B279
100
AcDbEntity
  8
1
  6
Continuous
100
AcDbCircle
 10
205.427976
 20
211.132781
 30
0.0
 40
4.377608
100
AcDbArc
 50
8.294477
 51
67.581971
  0
ARC
  5
B2A2
330
B279
100
AcDbEntity
  8
1
  6
Continuous
100
AcDbCircle
 10
80.27936399999999
 20
191.216185
 30
0.0
 40
131.100749
100
AcDbArc
 50
7.561295
 51
9.017450999999999
  0
ARC
  5
B2A3
330
B279
100
AcDbEntity
  8
1
  6
Continuous
100
AcDbCircle
 10
160.854892
 20
214.858092
 30
0.0
 40
1.997709
100
AcDbArc
 50
270.1599779999999
 51
299.197035
  0
ARC
  5
B2A4
330
B279
100
AcDbEntity
  8
1
  6
Continuous
100
AcDbCircle
 10
165.5953659999999
 20
211.2232759999999
 30
0.0
 40
4.224822999999998
100
AcDbArc
 50
110.5384659999999
 51
148.632099
  0
ARC
  5
B2A5
330
B279
100
AcDbEntity
  8
1
  6
Continuous
100
AcDbCircle
 10
161.6764959999999
 20
213.3878249999999
 30
0.0
 40
0.313453
100
AcDbArc
 50
299.197035
 51
6.338015999999998
  0
LINE
  5
B2A6
330
B279
100
AcDbEntity
  8
1
  6
Continuous
100
AcDbLine
 10
210.240147
 20
208.4673099999998
 30
0.0
 11
202.222361
 21
208.4673099999998
 31
0.0
  0
ARC
  5
B2A7
330
B279
100
AcDbEntity
  8
1
  6
Continuous
100
AcDbCircle
 10
160.490146
 20
175.717882
 30
0.0
 40
31.5
100
AcDbArc
 50
96.61782700000001
 51
149.9482249999998
  0
LINE
  5
B2A8
330
B279
100
AcDbEntity
  8
1
  6
Continuous
100
AcDbLine
 10
259.242441
 20
211.191224
 30
0.0
 11
259.242441
 21
189.4850059999999
 31
0.0
  0
LINE
  5
B2A9
330
B279
100
AcDbEntity
  8
1
  6
Continuous
100
AcDbLine
 10
308.7424410000001
 20
211.191224
 30
0.0
 11
308.7424410000001
 21
189.4850059999999
 31
0.0
  0
ARC
  5
B2AA
330
B279
100
AcDbEntity
  8
1
  6
Continuous
100
AcDbCircle
 10
263.242441
 20
211.191224
 30
0.0
 40
4.0
100
AcDbArc
 50
94.384039
 51
180.0
  0
ARC
  5
B2AB
330
B279
100
AcDbEntity
  8
1
  6
Continuous
100
AcDbCircle
 10
304.742441
 20
211.191224
 30
0.0
 40
4.0
100
AcDbArc
 50
0.0
 51
85.615961
  0
ARC
  5
B2AC
330
B279
100
AcDbEntity
  8
1
  6
Continuous
100
AcDbCircle
 10
280.5841909999999
 20
189.4850059999999
 30
0.0
 40
28.15825
100
AcDbArc
 50
323.663991
 51
0.0
  0
ARC
  5
B2AD
330
B279
100
AcDbEntity
  8
1
  6
Continuous
100
AcDbCircle
 10
287.4006909999998
 20
189.4850059999999
 30
0.0
 40
28.15825
100
AcDbArc
 50
180.0
 51
182.984359
  0
LINE
  5
B2AE
330
B279
100
AcDbEntity
  8
1
  6
Continuous
100
AcDbLine
 10
263.0637259999999
 20
208.46721
 30
0.0
 11
304.9211559999998
 21
208.46721
 31
0.0
  0
ARC
  5
B2AF
330
B279
100
AcDbEntity
  8
1
  6
Continuous
100
AcDbCircle
 10
341.326634
 20
189.4850059999999
 30
0.0
 40
82.084193
100
AcDbArc
 50
167.757229
 51
180.0
  0
ARC
  5
B2B0
330
B279
100
AcDbEntity
  8
1
  6
Continuous
100
AcDbCircle
 10
341.326634
 20
189.4850059999999
 30
0.0
 40
79.784193
100
AcDbArc
 50
167.389352
 51
180.0
  0
ARC
  5
B2B1
330
B279
100
AcDbEntity
  8
1
  6
Continuous
100
AcDbCircle
 10
263.0637259999999
 20
206.46721
 30
0.0
 40
2.0
100
AcDbArc
 50
90.0
 51
167.757229
  0
ARC
  5
B2B2
330
B279
100
AcDbEntity
  8
1
  6
Continuous
100
AcDbCircle
 10
265.4188909999999
 20
206.46721
 30
0.0
 40
2.0
100
AcDbArc
 50
90.0
 51
167.389352
  0
ARC
  5
B2B3
330
B279
100
AcDbEntity
  8
1
  6
Continuous
100
AcDbCircle
 10
280.5841909999999
 20
189.4850059999999
 30
0.0
 40
25.85825
100
AcDbArc
 50
322.428066
 51
0.0
  0
ARC
  5
B2B4
330
B279
100
AcDbEntity
  8
1
  6
Continuous
100
AcDbCircle
 10
226.6582479999999
 20
189.4850059999999
 30
0.0
 40
82.084193
100
AcDbArc
 50
0.0
 51
12.242771
  0
ARC
  5
B2B5
330
B279
100
AcDbEntity
  8
1
  6
Continuous
100
AcDbCircle
 10
226.6582479999999
 20
189.4850059999999
 30
0.0
 40
79.784193
100
AcDbArc
 50
0.0
 51
12.61064799999999
  0
ARC
  5
B2B6
330
B279
100
AcDbEntity
  8
1
  6
Continuous
100
AcDbCircle
 10
304.9211559999998
 20
206.46721
 30
0.0
 40
2.0
100
AcDbArc
 50
12.242771
 51
90.0
  0
ARC
  5
B2B7
330
B279
100
AcDbEntity
  8
1
  6
Continuous
100
AcDbCircle
 10
302.5659909999999
 20
206.46721
 30
0.0
 40
2.0
100
AcDbArc
 50
12.61064799999999
 51
90.0
  0
ARC
  5
B2B8
330
B279
100
AcDbEntity
  8
1
  6
Continuous
100
AcDbCircle
 10
292.9924409999999
 20
204.651056
 30
0.0
 40
1.5
100
AcDbArc
 50
0.0
 51
36.98973999999999
  0
ARC
  5
B2B9
330
B279
100
AcDbEntity
  8
1
  6
Continuous
100
AcDbCircle
 10
274.9924409999999
 20
204.651056
 30
0.0
 40
1.5
100
AcDbArc
 50
143.0102599999999
 51
180.0
  0
LINE
  5
B2BA
330
B279
100
AcDbEntity
  8
1
  6
Continuous
100
AcDbLine
 10
270.9924409999999
 20
188.2192639999999
 30
0.0
 11
270.9924409999999
 21
163.2163
 31
0.0
  0
LINE
  5
B2BB
330
B279
100
AcDbEntity
  8
1
  6
Continuous
100
AcDbLine
 10
296.9924409999999
 20
185.2177819999998
 30
0.0
 11
298.4924409999999
 21
183.7177819999998
 31
0.0
  0
LINE
  5
B2BC
330
B279
100
AcDbEntity
  8
1
  6
Continuous
100
AcDbLine
 10
270.9924409999999
 20
185.2177819999998
 30
0.0
 11
269.492441
 21
183.7177819999998
 31
0.0
  0
LINE
  5
B2BD
330
B279
100
AcDbEntity
  8
1
  6
Continuous
100
AcDbLine
 10
294.492441
 20
191.789634
 30
0.0
 11
296.9924409999999
 21
188.2192639999999
 31
0.0
  0
LINE
  5
B2BE
330
B279
100
AcDbEntity
  8
1
  6
Continuous
100
AcDbLine
 10
273.492441
 20
191.789634
 30
0.0
 11
270.9924409999999
 21
188.2192639999999
 31
0.0
  0
LINE
  5
B2BF
330
B279
100
AcDbEntity
  8
1
  6
Continuous
100
AcDbLine
 10
269.492441
 20
167.7177819999998
 30
0.0
 11
269.492441
 21
183.7177819999998
 31
0.0
  0
LINE
  5
B2C0
330
B279
100
AcDbEntity
  8
1
  6
Continuous
100
AcDbLine
 10
294.492441
 20
146.7845079999999
 30
0.0
 11
294.492441
 21
204.651056
 31
0.0
  0
LINE
  5
B2C1
330
B279
100
AcDbEntity
  8
1
  6
Continuous
100
AcDbLine
 10
273.492441
 20
146.7845079999999
 30
0.0
 11
273.492441
 21
204.651056
 31
0.0
  0
ARC
  5
B2C2
330
B279
100
AcDbEntity
  8
1
  6
Continuous
100
AcDbCircle
 10
283.992441
 20
184.217782
 30
0.0
 40
40.0
100
AcDbArc
 50
256.4810919999998
 51
283.518908
  0
ARC
  5
B2C3
330
B279
100
AcDbEntity
  8
1
  6
Continuous
100
AcDbCircle
 10
292.9924409999999
 20
146.7845079999999
 30
0.0
 40
1.5
100
AcDbArc
 50
283.518908
 51
0.0
  0
ARC
  5
B2C4
330
B279
100
AcDbEntity
  8
1
  6
Continuous
100
AcDbCircle
 10
274.9924409999999
 20
146.7845079999999
 30
0.0
 40
1.5
100
AcDbArc
 50
180.0
 51
256.4810919999998
  0
LINE
  5
B2C5
330
B279
100
AcDbEntity
  8
1
  6
Continuous
100
AcDbLine
 10
296.9924409999999
 20
163.2163
 30
0.0
 11
296.9924409999999
 21
188.2192639999999
 31
0.0
  0
LINE
  5
B2C6
330
B279
100
AcDbEntity
  8
1
  6
Continuous
100
AcDbLine
 10
296.9924409999999
 20
166.217782
 30
0.0
 11
298.4924409999999
 21
167.7177819999998
 31
0.0
  0
LINE
  5
B2C7
330
B279
100
AcDbEntity
  8
1
  6
Continuous
100
AcDbLine
 10
270.9924409999999
 20
166.217782
 30
0.0
 11
269.492441
 21
167.7177819999998
 31
0.0
  0
LINE
  5
B2C8
330
B279
100
AcDbEntity
  8
1
  6
Continuous
100
AcDbLine
 10
294.492441
 20
159.64593
 30
0.0
 11
296.9924409999999
 21
163.2163
 31
0.0
  0
LINE
  5
B2C9
330
B279
100
AcDbEntity
  8
1
  6
Continuous
100
AcDbLine
 10
273.492441
 20
159.64593
 30
0.0
 11
270.9924409999999
 21
163.2163
 31
0.0
  0
LINE
  5
B2CA
330
B279
100
AcDbEntity
  8
1
  6
Continuous
100
AcDbLine
 10
298.4924409999999
 20
167.7177819999998
 30
0.0
 11
298.4924409999999
 21
183.7177819999998
 31
0.0
  0
LINE
  5
B2CB
330
B279
100
AcDbEntity
  8
1
  6
Continuous
100
AcDbLine
 10
268.5886899999998
 20
165.1057189999999
 30
0.0
 11
265.2598049999999
 21
165.1057189999999
 31
0.0
  0
LINE
  5
B2CC
330
B279
100
AcDbEntity
  8
1
  6
Continuous
100
AcDbLine
 10
268.4497519999998
 20
179.7177819999998
 30
0.0
 11
269.492441
 21
179.7177819999998
 31
0.0
  0
LINE
  5
B2CD
330
B279
100
AcDbEntity
  8
1
  6
Continuous
100
AcDbLine
 10
298.4924409999999
 20
179.7177819999998
 30
0.0
 11
299.5351309999999
 21
179.7177819999998
 31
0.0
  0
LINE
  5
B2CE
330
B279
100
AcDbEntity
  8
1
  6
Continuous
100
AcDbLine
 10
268.534866
 20
171.717782
 30
0.0
 11
269.492441
 21
171.717782
 31
0.0
  0
LINE
  5
B2CF
330
B279
100
AcDbEntity
  8
1
  6
Continuous
100
AcDbLine
 10
298.4924409999999
 20
171.717782
 30
0.0
 11
299.450016
 21
171.717782
 31
0.0
  0
LINE
  5
B2D0
330
B279
100
AcDbEntity
  8
1
  6
Continuous
100
AcDbLine
 10
162.490146
 20
215.179556
 30
0.0
 11
208.490146
 21
215.179556
 31
0.0
  0
LINE
  5
B2D1
330
B279
100
AcDbEntity
  8
1
  6
Continuous
100
AcDbLine
 10
306.992441
 20
215.17952
 30
0.0
 11
260.992441
 21
215.17952
 31
0.0
  0
ARC
  5
B2D2
330
B279
100
AcDbEntity
  8
1
  6
Continuous
100
AcDbCircle
 10
160.490146
 20
175.717882
 30
0.0
 40
24.0
100
AcDbArc
 50
102.730931
 51
145.488629
  0
LINE
  5
B2D3
330
B279
100
AcDbEntity
  8
4
  6
CENTER
100
AcDbLine
 10
215.240146
 20
341.0189369999998
 30
0.0
 11
123.990146
 21
341.0189369999998
 31
0.0
  0
LINE
  5
B2D4
330
B279
100
AcDbEntity
  8
4
  6
CENTER
100
AcDbLine
 10
185.490146
 20
311.268937
 30
0.0
 11
185.490146
 21
370.768937
 31
0.0
  0
LINE
  5
B2D5
330
B279
100
AcDbEntity
  8
4
  6
CENTER
100
AcDbLine
 10
185.490146
 20
202.215713
 30
0.0
 11
185.490146
 21
271.2178819999999
 31
0.0
  0
LINE
  5
B2D6
330
B279
100
AcDbEntity
  8
4
  6
CENTER
100
AcDbLine
 10
196.990146
 20
175.717882
 30
0.0
 11
123.990146
 21
175.717882
 31
0.0
  0
LINE
  5
B2D7
330
B279
100
AcDbEntity
  8
4
  6
CENTER
100
AcDbLine
 10
160.490146
 20
139.217882
 30
0.0
 11
160.490146
 21
207.891468
 31
0.0
  0
LINE
  5
B2D8
330
B279
100
AcDbEntity
  8
4
  6
CENTER
100
AcDbLine
 10
250.8093319999999
 20
175.717782
 30
0.0
 11
311.792704
 21
175.717782
 31
0.0
  0
LINE
  5
B2D9
330
B279
100
AcDbEntity
  8
4
  6
CENTER
100
AcDbLine
 10
283.992441
 20
271.217846
 30
0.0
 11
283.992441
 21
139.217782
 31
0.0
  0
ARC
  5
B2DA
330
B279
100
AcDbEntity
  8
1
  6
Continuous
100
AcDbCircle
 10
161.590146
 20
176.117882
 30
0.0
 40
11.0
100
AcDbArc
 50
236.9033229999998
 51
272.0894609999999
  0
LINE
  5
B2DB
330
B279
100
AcDbEntity
  8
1
  6
Continuous
100
AcDbLine
 10
166.8243219999999
 20
212.8770429999999
 30
0.0
 11
155.702287
 21
212.845989
 31
0.0
  0
ARC
  5
B2DC
330
B279
100
AcDbEntity
  8
1
  6
Continuous
100
AcDbCircle
 10
202.222361
 20
194.23831
 30
0.0
 40
14.229
100
AcDbArc
 50
90.0
 51
133.500573
  0
ARC
  5
B2DD
330
B279
100
AcDbEntity
  8
1
  6
Continuous
100
AcDbCircle
 10
200.835986
 20
197.46731
 30
0.0
 40
11.0
100
AcDbArc
 50
139.8530389999999
 51
146.327459
  0
ARC
  5
B2DE
330
B279
100
AcDbEntity
  8
1
  6
Continuous
100
AcDbCircle
 10
156.646199
 20
294.757624
 30
0.0
 40
84.15427099999998
100
AcDbArc
 50
268.6251529999998
 51
270.661561
  0
ARC
  5
B2DF
330
B279
100
AcDbEntity
  8
1
  6
Continuous
100
AcDbCircle
 10
155.716879
 20
207.620059
 30
0.0
 40
5.22595
100
AcDbArc
 50
90.15997800000002
 51
100.38805
  0
ARC
  5
B2E0
330
B279
100
AcDbEntity
  8
1
  6
Continuous
100
AcDbCircle
 10
154.9009879999998
 20
212.0707279999999
 30
0.0
 40
0.7011149999999999
100
AcDbArc
 50
100.38805
 51
140.399055
  0
ARC
  5
B2E1
330
B279
100
AcDbEntity
  8
1
  6
Continuous
100
AcDbCircle
 10
154.63379
 20
210.907969
 30
0.0
 40
0.28047
100
AcDbArc
 50
216.5458509999999
 51
268.6251529999998
  0
ARC
  5
B2E2
330
B279
100
AcDbEntity
  8
1
  6
Continuous
100
AcDbCircle
 10
141.337801
 20
209.431971
 30
0.0
 40
13.13604599999999
100
AcDbArc
 50
5.718930999999998
 51
8.653186999999999
  0
ARC
  5
B2E3
330
B279
100
AcDbEntity
  8
1
  6
Continuous
100
AcDbCircle
 10
122.542776
 20
213.0080229999999
 30
0.0
 40
31.82178
100
AcDbArc
 50
357.118506
 51
359.117028
  0
LINE
  5
B2E4
330
B279
100
AcDbEntity
  8
1
  6
Continuous
100
AcDbLine
 10
158.090134
 20
212.852656
 30
0.0
 11
152.6227849999999
 21
186.8782929999999
 31
0.0
  0
LINE
  5
B2E5
330
B279
100
AcDbEntity
  8
1
  6
Continuous
100
AcDbLine
 10
191.681567
 20
203.5662129999999
 30
0.0
 11
179.015971
 21
183.2722039999999
 31
0.0
  0
ARC
  5
B2E6
330
B279
100
AcDbEntity
  8
1
  6
Continuous
100
AcDbCircle
 10
160.490146
 20
175.717882
 30
0.0
 40
17.5
100
AcDbArc
 50
112.953035
 51
137.6352139999999
  0
LINE
  5
B2E7
330
B279
100
AcDbEntity
  8
1
  6
Continuous
100
AcDbLine
 10
43.48785099999999
 20
146.7845079999999
 30
0.0
 11
43.48785099999999
 21
204.651056
 31
0.0
  0
LINE
  5
B2E8
330
B279
100
AcDbEntity
  8
1
  6
Continuous
100
AcDbLine
 10
64.48785100000001
 20
146.7845079999999
 30
0.0
 11
64.48785100000001
 21
204.651056
 31
0.0
  0
LINE
  5
B2E9
330
B279
100
AcDbEntity
  8
1
  6
Continuous
100
AcDbLine
 10
64.48785100000001
 20
191.789634
 30
0.0
 11
66.218824
 21
189.31755
 31
0.0
  0
LINE
  5
B2EA
330
B279
100
AcDbEntity
  8
1
  6
Continuous
100
AcDbLine
 10
43.48785099999999
 20
191.789634
 30
0.0
 11
40.98785099999999
 21
188.2192639999999
 31
0.0
  0
LINE
  5
B2EB
330
B279
100
AcDbEntity
  8
4
  6
CENTER
100
AcDbLine
 10
53.987851
 20
271.217846
 30
0.0
 11
53.987851
 21
139.217782
 31
0.0
  0
LINE
  5
B2EC
330
B279
100
AcDbEntity
  8
4
  6
CENTER
100
AcDbLine
 10
87.17095999999996
 20
175.717782
 30
0.0
 11
27.18796199999999
 21
175.717782
 31
0.0
  0
ARC
  5
B2ED
330
B279
100
AcDbEntity
  8
1
  6
Continuous
100
AcDbCircle
 10
53.987851
 20
184.217782
 30
0.0
 40
40.0
100
AcDbArc
 50
256.4810919999998
 51
283.518908
  0
LINE
  5
B2EE
330
B279
100
AcDbEntity
  8
1
  6
Continuous
100
AcDbLine
 10
66.98785100000001
 20
174.8352549999999
 30
0.0
 11
66.98785100000001
 21
163.2163
 31
0.0
  0
LINE
  5
B2EF
330
B279
100
AcDbEntity
  8
1
  6
Continuous
100
AcDbLine
 10
66.98785100000001
 20
166.217782
 30
0.0
 11
68.487851
 21
167.7177819999998
 31
0.0
  0
LINE
  5
B2F0
330
B279
100
AcDbEntity
  8
1
  6
Continuous
100
AcDbLine
 10
64.48785100000001
 20
159.64593
 30
0.0
 11
66.98785100000001
 21
163.2163
 31
0.0
  0
ARC
  5
B2F1
330
B279
100
AcDbEntity
  8
1
  6
Continuous
100
AcDbCircle
 10
62.98785099999999
 20
146.7845079999999
 30
0.0
 40
1.5
100
AcDbArc
 50
283.518908
 51
0.0
  0
LINE
  5
B2F2
330
B279
100
AcDbEntity
  8
1
  6
Continuous
100
AcDbLine
 10
69.445426
 20
171.717782
 30
0.0
 11
68.487851
 21
171.717782
 31
0.0
  0
LINE
  5
B2F3
330
B279
100
AcDbEntity
  8
1
  6
Continuous
100
AcDbLine
 10
68.487851
 20
167.7177819999998
 30
0.0
 11
68.487851
 21
174.1813389999999
 31
0.0
  0
LINE
  5
B2F4
330
B279
100
AcDbEntity
  8
1
  6
Continuous
100
AcDbLine
 10
40.98785099999999
 20
163.2163
 30
0.0
 11
40.98785099999999
 21
188.2192639999999
 31
0.0
  0
LINE
  5
B2F5
330
B279
100
AcDbEntity
  8
1
  6
Continuous
100
AcDbLine
 10
40.98785099999999
 20
166.217782
 30
0.0
 11
39.487851
 21
167.7177819999998
 31
0.0
  0
ARC
  5
B2F6
330
B279
100
AcDbEntity
  8
1
  6
Continuous
100
AcDbCircle
 10
44.987851
 20
146.7845079999999
 30
0.0
 40
1.5
100
AcDbArc
 50
180.0
 51
256.4810919999998
  0
LINE
  5
B2F7
330
B279
100
AcDbEntity
  8
1
  6
Continuous
100
AcDbLine
 10
43.48785099999999
 20
159.64593
 30
0.0
 11
40.98785099999999
 21
163.2163
 31
0.0
  0
LINE
  5
B2F8
330
B279
100
AcDbEntity
  8
1
  6
Continuous
100
AcDbLine
 10
39.487851
 20
171.717782
 30
0.0
 11
38.530276
 21
171.717782
 31
0.0
  0
LINE
  5
B2F9
330
B279
100
AcDbEntity
  8
1
  6
Continuous
100
AcDbLine
 10
39.487851
 20
179.7177819999998
 30
0.0
 11
38.44516199999999
 21
179.7177819999998
 31
0.0
  0
LINE
  5
B2FA
330
B279
100
AcDbEntity
  8
1
  6
Continuous
100
AcDbLine
 10
40.98785099999999
 20
185.2177819999998
 30
0.0
 11
39.487851
 21
183.7177819999998
 31
0.0
  0
LINE
  5
B2FB
330
B279
100
AcDbEntity
  8
1
  6
Continuous
100
AcDbLine
 10
39.487851
 20
167.7177819999998
 30
0.0
 11
39.487851
 21
183.7177819999998
 31
0.0
  0
ARC
  5
B2FC
330
B279
100
AcDbEntity
  8
1
  6
Continuous
100
AcDbCircle
 10
53.987851
 20
167.2177819999998
 30
0.0
 40
40.0
100
AcDbArc
 50
76.481092
 51
103.5189079999999
  0
LINE
  5
B2FD
330
B279
100
AcDbEntity
  8
1
  6
Continuous
100
AcDbLine
 10
30.98785100000001
 20
215.17952
 30
0.0
 11
76.98785100000002
 21
215.17952
 31
0.0
  0
ARC
  5
B2FE
330
B279
100
AcDbEntity
  8
1
  6
Continuous
100
AcDbCircle
 10
74.737851
 20
211.191224
 30
0.0
 40
4.0
100
AcDbArc
 50
0.0
 51
85.615961
  0
LINE
  5
B2FF
330
B279
100
AcDbEntity
  8
1
  6
Continuous
100
AcDbLine
 10
78.737851
 20
211.191224
 30
0.0
 11
78.737851
 21
192.9900909999999
 31
0.0
  0
ARC
  5
B300
330
B279
100
AcDbEntity
  8
1
  6
Continuous
100
AcDbCircle
 10
62.98785099999999
 20
204.651056
 30
0.0
 40
1.5
100
AcDbArc
 50
0.0
 51
76.481092
  0
ARC
  5
B301
330
B279
100
AcDbEntity
  8
1
  6
Continuous
100
AcDbCircle
 10
33.237851
 20
211.191224
 30
0.0
 40
4.0
100
AcDbArc
 50
94.384039
 51
180.0
  0
ARC
  5
B302
330
B279
100
AcDbEntity
  8
1
  6
Continuous
100
AcDbCircle
 10
44.987851
 20
204.651056
 30
0.0
 40
1.5
100
AcDbArc
 50
103.5189079999999
 51
180.0
  0
LINE
  5
B303
330
B279
100
AcDbEntity
  8
1
  6
Continuous
100
AcDbLine
 10
29.23785099999999
 20
211.191224
 30
0.0
 11
29.23785099999999
 21
189.4850059999999
 31
0.0
  0
LINE
  5
B304
330
B279
100
AcDbEntity
  8
1
  6
Continuous
100
AcDbLine
 10
39.087182
 20
210.5764409999999
 30
0.0
 11
68.88851999999999
 21
210.5764409999999
 31
0.0
  0
LINE
  5
B305
330
B279
100
AcDbEntity
  8
1
  6
Continuous
100
AcDbLine
 10
38.98785099999999
 20
212.80205
 30
0.0
 11
68.98785100000001
 21
212.80205
 31
0.0
  0
ARC
  5
B306
330
B279
100
AcDbEntity
  8
1
  6
Continuous
100
AcDbCircle
 10
67.63674399999999
 20
208.509672
 30
0.0
 40
4.5
100
AcDbArc
 50
359.391148
 51
72.527617
  0
ARC
  5
B307
330
B279
100
AcDbEntity
  8
1
  6
Continuous
100
AcDbCircle
 10
67.337851
 20
208.615465
 30
0.0
 40
2.5
100
AcDbArc
 50
0.0
 51
51.66432999999999
  0
LINE
  5
B308
330
B279
100
AcDbEntity
  8
1
  6
Continuous
100
AcDbLine
 10
69.83771
 20
208.5888989999999
 30
0.0
 11
69.671749
 21
192.9900909999999
 31
0.0
  0
LINE
  5
B309
330
B279
100
AcDbEntity
  8
1
  6
Continuous
100
AcDbLine
 10
72.13649000000002
 20
208.461854
 30
0.0
 11
71.97188100000002
 21
192.9900909999999
 31
0.0
  0
LINE
  5
B30A
330
B279
100
AcDbEntity
  8
1
  6
Continuous
100
AcDbLine
 10
69.375078
 20
165.1057189999999
 30
0.0
 11
71.675208
 21
165.1057189999999
 31
0.0
  0
LINE
  5
B30B
330
B279
100
AcDbEntity
  8
1
  6
Continuous
100
AcDbLine
 10
35.83921199999998
 20
208.461854
 30
0.0
 11
36.300494
 21
165.1057189999999
 31
0.0
  0
LINE
  5
B30C
330
B279
100
AcDbEntity
  8
1
  6
Continuous
100
AcDbLine
 10
38.60062399999998
 20
165.1057189999999
 30
0.0
 11
36.300494
 21
165.1057189999999
 31
0.0
  0
LINE
  5
B30D
330
B279
100
AcDbEntity
  8
1
  6
Continuous
100
AcDbLine
 10
38.137992
 20
208.5888989999999
 30
0.0
 11
38.60062399999998
 21
165.1057189999999
 31
0.0
  0
ARC
  5
B30E
330
B279
100
AcDbEntity
  8
1
  6
Continuous
100
AcDbCircle
 10
40.33895799999998
 20
208.509672
 30
0.0
 40
4.5
100
AcDbArc
 50
107.4723829999999
 51
180.608852
  0
ARC
  5
B30F
330
B279
100
AcDbEntity
  8
1
  6
Continuous
100
AcDbCircle
 10
40.63785099999999
 20
208.615465
 30
0.0
 40
2.5
100
AcDbArc
 50
128.3356699999999
 51
180.608852
  0
ARC
  5
B310
330
B279
100
AcDbEntity
  8
1
  6
Continuous
100
AcDbCircle
 10
57.396101
 20
189.4850059999999
 30
0.0
 40
28.15825
100
AcDbArc
 50
180.0
 51
203.2610639999998
  0
ARC
  5
B311
330
B279
100
AcDbEntity
  8
1
  6
Continuous
100
AcDbCircle
 10
50.57960099999998
 20
189.4850059999999
 30
0.0
 40
28.15825
100
AcDbArc
 50
346.414646
 51
357.094602
  0
LINE
  5
B312
330
B279
100
AcDbEntity
  8
1
  6
Continuous
100
AcDbLine
 10
268.1438769999999
 20
208.46721
 30
0.0
 11
268.605214
 21
165.1057189999999
 31
0.0
  0
LINE
  5
B313
330
B279
100
AcDbEntity
  8
1
  6
Continuous
100
AcDbLine
 10
299.8410059999999
 20
208.46721
 30
0.0
 11
299.3796679999999
 21
165.1057189999999
 31
0.0
  0
LINE
  5
B314
330
B279
100
AcDbEntity
  8
1
  6
Continuous
100
AcDbLine
 10
299.3961929999999
 20
165.1057189999999
 30
0.0
 11
301.679798
 21
165.1057189999999
 31
0.0
  0
LINE
  5
B315
330
B279
100
AcDbEntity
  8
4
  6
CENTER
100
AcDbLine
 10
185.490146
 20
98.56031800000003
 30
0.0
 11
185.490146
 21
39.060318
 31
0.0
  0
LINE
  5
B316
330
B279
100
AcDbEntity
  8
4
  6
CENTER
100
AcDbLine
 10
215.240146
 20
68.81031800000001
 30
0.0
 11
123.990146
 21
68.81031800000001
 31
0.0
  0
ARC
  5
B317
330
B279
100
AcDbEntity
  8
1
  6
Continuous
100
AcDbCircle
 10
131.5568719999999
 20
59.810318
 30
0.0
 40
1.5
100
AcDbArc
 50
193.518908
 51
270.0
  0
LINE
  5
B318
330
B279
100
AcDbEntity
  8
1
  6
Continuous
100
AcDbLine
 10
189.4234199999999
 20
58.310318
 30
0.0
 11
131.5568719999999
 21
58.310318
 31
0.0
  0
ARC
  5
B319
330
B279
100
AcDbEntity
  8
1
  6
Continuous
100
AcDbCircle
 10
168.990146
 20
68.81031800000001
 30
0.0
 40
40.0
100
AcDbArc
 50
166.4810919999998
 51
193.518908
  0
ARC
  5
B31A
330
B279
100
AcDbEntity
  8
1
  6
Continuous
100
AcDbCircle
 10
131.5568719999999
 20
77.81031799999998
 30
0.0
 40
1.5
100
AcDbArc
 50
90.0
 51
166.4810919999998
  0
LINE
  5
B31B
330
B279
100
AcDbEntity
  8
1
  6
Continuous
100
AcDbLine
 10
189.4234199999999
 20
79.31031800000003
 30
0.0
 11
131.5568719999999
 21
79.31031800000003
 31
0.0
  0
LINE
  5
B31C
330
B279
100
AcDbEntity
  8
1
  6
Continuous
100
AcDbLine
 10
168.490146
 20
83.31031800000003
 30
0.0
 11
152.490146
 21
83.31031800000003
 31
0.0
  0
LINE
  5
B31D
330
B279
100
AcDbEntity
  8
1
  6
Continuous
100
AcDbLine
 10
147.9886639999998
 20
81.81031800000003
 30
0.0
 11
172.9916279999999
 21
81.81031800000003
 31
0.0
  0
LINE
  5
B31E
330
B279
100
AcDbEntity
  8
1
  6
Continuous
100
AcDbLine
 10
156.490146
 20
84.353008
 30
0.0
 11
156.490146
 21
83.31031800000003
 31
0.0
  0
LINE
  5
B31F
330
B279
100
AcDbEntity
  8
1
  6
Continuous
100
AcDbLine
 10
164.4901459999998
 20
84.464144
 30
0.0
 11
164.4901459999998
 21
83.31031800000003
 31
0.0
  0
LINE
  5
B320
330
B279
100
AcDbEntity
  8
1
  6
Continuous
100
AcDbLine
 10
176.5619979999999
 20
79.31031800000003
 30
0.0
 11
172.9916279999999
 21
81.81031800000003
 31
0.0
  0
LINE
  5
B321
330
B279
100
AcDbEntity
  8
1
  6
Continuous
100
AcDbLine
 10
169.990146
 20
81.81031800000003
 30
0.0
 11
168.490146
 21
83.31031800000003
 31
0.0
  0
LINE
  5
B322
330
B279
100
AcDbEntity
  8
1
  6
Continuous
100
AcDbLine
 10
150.990146
 20
81.81031800000003
 30
0.0
 11
152.490146
 21
83.31031800000003
 31
0.0
  0
LINE
  5
B323
330
B279
100
AcDbEntity
  8
1
  6
Continuous
100
AcDbLine
 10
144.418294
 20
79.31031800000003
 30
0.0
 11
147.9886639999998
 21
81.81031800000003
 31
0.0
  0
ARC
  5
B324
330
B279
100
AcDbEntity
  8
1
  6
Continuous
100
AcDbCircle
 10
189.4234199999999
 20
77.81031799999998
 30
0.0
 40
1.5
100
AcDbArc
 50
13.51890799999999
 51
90.0
  0
ARC
  5
B325
330
B279
100
AcDbEntity
  8
1
  6
Continuous
100
AcDbCircle
 10
151.9901459999998
 20
68.81031800000001
 30
0.0
 40
40.0
100
AcDbArc
 50
346.481092
 51
13.51890799999999
  0
ARC
  5
B326
330
B279
100
AcDbEntity
  8
1
  6
Continuous
100
AcDbCircle
 10
189.4234199999999
 20
59.810318
 30
0.0
 40
1.5
100
AcDbArc
 50
270.0
 51
346.481092
  0
LINE
  5
B327
330
B279
100
AcDbEntity
  8
1
  6
Continuous
100
AcDbLine
 10
168.490146
 20
54.310318
 30
0.0
 11
152.490146
 21
54.310318
 31
0.0
  0
LINE
  5
B328
330
B279
100
AcDbEntity
  8
1
  6
Continuous
100
AcDbLine
 10
172.9916279999999
 20
55.810318
 30
0.0
 11
147.9886639999998
 21
55.810318
 31
0.0
  0
LINE
  5
B329
330
B279
100
AcDbEntity
  8
1
  6
Continuous
100
AcDbLine
 10
176.5619979999999
 20
58.310318
 30
0.0
 11
172.9916279999999
 21
55.810318
 31
0.0
  0
LINE
  5
B32A
330
B279
100
AcDbEntity
  8
1
  6
Continuous
100
AcDbLine
 10
169.990146
 20
55.810318
 30
0.0
 11
168.490146
 21
54.310318
 31
0.0
  0
LINE
  5
B32B
330
B279
100
AcDbEntity
  8
1
  6
Continuous
100
AcDbLine
 10
150.990146
 20
55.810318
 30
0.0
 11
152.490146
 21
54.310318
 31
0.0
  0
LINE
  5
B32C
330
B279
100
AcDbEntity
  8
1
  6
Continuous
100
AcDbLine
 10
144.418294
 20
58.310318
 30
0.0
 11
147.9886639999998
 21
55.810318
 31
0.0
  0
LINE
  5
B32D
330
B279
100
AcDbEntity
  8
1
  6
Continuous
100
AcDbLine
 10
156.490146
 20
54.310318
 30
0.0
 11
156.490146
 21
53.26762900000001
 31
0.0
  0
LINE
  5
B32E
330
B279
100
AcDbEntity
  8
1
  6
Continuous
100
AcDbLine
 10
164.4901459999998
 20
54.310318
 30
0.0
 11
164.4901459999998
 21
53.156493
 31
0.0
  0
LINE
  5
B32F
330
B279
100
AcDbEntity
  8
1
  6
Continuous
100
AcDbLine
 10
162.3702449999998
 20
84.33045400000002
 30
0.0
 11
150.5974219999998
 21
84.20519899999998
 31
0.0
  0
LINE
  5
B330
330
B279
100
AcDbEntity
  8
1
  6
Continuous
100
AcDbLine
 10
162.3457769999999
 20
86.630324
 30
0.0
 11
150.5974219999998
 21
86.50532899999998
 31
0.0
  0
LINE
  5
B331
330
B279
100
AcDbEntity
  8
1
  6
Continuous
100
AcDbLine
 10
162.3457769999999
 20
50.990313
 30
0.0
 11
150.5974219999998
 21
51.115308
 31
0.0
  0
LINE
  5
B332
330
B279
100
AcDbEntity
  8
1
  6
Continuous
100
AcDbLine
 10
162.3702449999998
 20
53.290183
 30
0.0
 11
150.5974219999998
 21
53.415438
 31
0.0
  0
LINE
  5
B333
330
B279
100
AcDbEntity
  8
4
  6
CENTER
100
AcDbLine
 10
160.490146
 20
101.993427
 30
0.0
 11
160.490146
 21
41.01005599999999
 31
0.0
  0
LINE
  5
B334
330
B279
100
AcDbEntity
  8
1
  6
Continuous
100
AcDbLine
 10
150.5974219999998
 20
86.50532899999998
 30
0.0
 11
150.5974219999998
 21
84.20519899999998
 31
0.0
  0
LINE
  5
B335
330
B279
100
AcDbEntity
  8
1
  6
Continuous
100
AcDbLine
 10
150.5974219999998
 20
53.415438
 30
0.0
 11
150.5974219999998
 21
51.115308
 31
0.0
  0
ARC
  5
B336
330
B279
100
AcDbEntity
  8
1
  6
Continuous
100
AcDbCircle
 10
185.490146
 20
68.81031800000001
 30
0.0
 40
24.75
100
AcDbArc
 50
236.915984
 51
62.43460699999999
  0
ARC
  5
B337
330
B279
100
AcDbEntity
  8
1
  6
Continuous
100
AcDbCircle
 10
185.490146
 20
68.81031800000001
 30
0.0
 40
22.45
100
AcDbArc
 50
236.915984
 51
77.769526
  0
ARC
  5
B338
330
B279
100
AcDbEntity
  8
1
  6
Continuous
100
AcDbCircle
 10
185.490146
 20
68.81031800000001
 30
0.0
 40
20.44999999999999
100
AcDbArc
 50
219.4716859999998
 51
84.56916900000001
  0
ARC
  5
B339
330
B279
100
AcDbEntity
  8
1
  6
Continuous
100
AcDbCircle
 10
185.490146
 20
68.81031800000001
 30
0.0
 40
18.44999999999998
100
AcDbArc
 50
224.7978069999998
 51
135.202193
  0
ARC
  5
B33A
330
B279
100
AcDbEntity
  8
1
  6
Continuous
100
AcDbCircle
 10
185.490146
 20
68.81031800000001
 30
0.0
 40
9.449999999999999
100
AcDbArc
 50
307.8441509999998
 51
52.15584899999999
  0
LINE
  5
B33B
330
B279
100
AcDbEntity
  8
1
  6
Continuous
100
AcDbLine
 10
301.7121409999999
 20
168.1456459999999
 30
0.0
 11
301.679798
 21
165.1057189999999
 31
0.0
  0
ARC
  5
B33C
330
B279
100
AcDbEntity
  8
1
  6
Continuous
100
AcDbCircle
 10
309.7116889999999
 20
168.060536
 30
0.0
 40
8.0
100
AcDbArc
 50
143.6639909999998
 51
179.390432
  0
ARC
  5
B33D
330
B279
100
AcDbEntity
  8
1
  6
Continuous
100
AcDbCircle
 10
307.419848
 20
168.839702
 30
0.0
 40
8.0
100
AcDbArc
 50
142.4280659999998
 51
179.390434
  0
ARC
  5
B33E
330
B279
100
AcDbEntity
  8
1
  6
Continuous
100
AcDbCircle
 10
287.4006909999998
 20
189.4850059999999
 30
0.0
 40
28.15825
100
AcDbArc
 50
180.0
 51
216.3360089999999
  0
ARC
  5
B33F
330
B279
100
AcDbEntity
  8
1
  6
Continuous
100
AcDbCircle
 10
287.4006909999998
 20
189.4850059999999
 30
0.0
 40
25.85825
100
AcDbArc
 50
180.0
 51
217.571934
  0
ARC
  5
B340
330
B279
100
AcDbEntity
  8
1
  6
Continuous
100
AcDbCircle
 10
258.2731939999998
 20
168.060536
 30
0.0
 40
8.0
100
AcDbArc
 50
0.609568
 51
36.33600899999999
  0
ARC
  5
B341
330
B279
100
AcDbEntity
  8
1
  6
Continuous
100
AcDbCircle
 10
260.565035
 20
168.839702
 30
0.0
 40
8.0
100
AcDbArc
 50
0.6095660000000001
 51
37.57193400000001
  0
LINE
  5
B342
330
B279
100
AcDbEntity
  8
1
  6
Continuous
100
AcDbLine
 10
266.2727419999999
 20
168.1456459999999
 30
0.0
 11
266.3050839999999
 21
165.1057189999999
 31
0.0
  0
LINE
  5
B343
330
B279
100
AcDbEntity
  8
1
  6
Continuous
100
AcDbLine
 10
59.588285
 20
209.3610889999999
 30
0.0
 11
60.803637
 21
210.5764409999999
 31
0.0
  0
LINE
  5
B344
330
B279
100
AcDbEntity
  8
1
  6
Continuous
100
AcDbLine
 10
69.38942
 20
209.3610889999999
 30
0.0
 11
38.586282
 21
209.3610889999999
 31
0.0
  0
LINE
  5
B345
330
B279
100
AcDbEntity
  8
1
  6
Continuous
100
AcDbLine
 10
38.507466
 20
208.353936
 30
0.0
 11
69.468237
 21
208.353936
 31
0.0
  0
LINE
  5
B346
330
B279
100
AcDbEntity
  8
1
  6
Continuous
100
AcDbLine
 10
44.031936
 20
209.3610889999999
 30
0.0
 11
45.24728699999999
 21
210.5764409999999
 31
0.0
  0
LINE
  5
B347
330
B279
100
AcDbEntity
  8
1
  6
Continuous
100
AcDbLine
 10
45.150426
 20
209.3610889999999
 30
0.0
 11
43.93507399999999
 21
210.5764409999999
 31
0.0
  0
LINE
  5
B348
330
B279
100
AcDbEntity
  8
1
  6
Continuous
100
AcDbLine
 10
42.72191999999999
 20
205.5535639999999
 30
0.0
 11
43.789737
 21
205.5535639999999
 31
0.0
  0
LINE
  5
B349
330
B279
100
AcDbEntity
  8
1
  6
Continuous
100
AcDbLine
 10
43.736212
 20
209.3610889999999
 30
0.0
 11
42.52086
 21
210.5764409999999
 31
0.0
  0
LINE
  5
B34A
330
B279
100
AcDbEntity
  8
1
  6
Continuous
100
AcDbLine
 10
42.617722
 20
209.3610889999999
 30
0.0
 11
43.83307399999998
 21
210.5764409999999
 31
0.0
  0
LINE
  5
B34B
330
B279
100
AcDbEntity
  8
1
  6
Continuous
100
AcDbLine
 10
38.866056
 20
209.988604
 30
0.0
 11
39.493571
 21
209.3610889999999
 31
0.0
  0
ARC
  5
B34C
330
B279
100
AcDbEntity
  8
1
  6
Continuous
100
AcDbCircle
 10
42.227783
 20
210.0128329999999
 30
0.0
 40
4.217937
100
AcDbArc
 50
212.9024809999999
 51
227.0719179999999
  0
ARC
  5
B34D
330
B279
100
AcDbEntity
  8
1
  6
Continuous
100
AcDbCircle
 10
43.003175
 20
210.846435
 30
0.0
 40
5.356411999999998
100
AcDbArc
 50
227.0719179999999
 51
260.59491
  0
ARC
  5
B34E
330
B279
100
AcDbEntity
  8
1
  6
Continuous
100
AcDbCircle
 10
37.49265799999999
 20
210.1638349999999
 30
0.0
 40
2.088299
100
AcDbArc
 50
319.8145149999998
 51
335.385289
  0
LINE
  5
B34F
330
B279
100
AcDbEntity
  8
1
  6
Continuous
100
AcDbLine
 10
38.709404
 20
209.6954119999999
 30
0.0
 11
39.59043299999999
 21
210.5764409999999
 31
0.0
  0
ARC
  5
B350
330
B279
100
AcDbEntity
  8
1
  6
Continuous
100
AcDbCircle
 10
40.98785099999999
 20
208.6664889999999
 30
0.0
 40
2.5
100
AcDbArc
 50
130.183595
 51
187.18198
  0
ARC
  5
B351
330
B279
100
AcDbEntity
  8
1
  6
Continuous
100
AcDbCircle
 10
38.82010499999999
 20
209.042632
 30
0.0
 40
0.3507099999999999
100
AcDbArc
 50
305.759494
 51
319.8145149999998
  0
LINE
  5
B352
330
B279
100
AcDbEntity
  8
1
  6
Continuous
100
AcDbLine
 10
39.025055
 20
208.7580389999998
 30
0.0
 11
38.806344
 21
208.353936
 31
0.0
  0
LINE
  5
B353
330
B279
100
AcDbEntity
  8
1
  6
Continuous
100
AcDbLine
 10
38.730922
 20
208.353936
 30
0.0
 11
38.62296699999999
 21
208.3471679999999
 31
0.0
  0
ARC
  5
B354
330
B279
100
AcDbEntity
  8
1
  6
Continuous
100
AcDbCircle
 10
38.78015299999999
 20
208.2492709999999
 30
0.0
 40
0.18518
100
AcDbArc
 50
148.0847599999999
 51
201.017471
  0
ARC
  5
B355
330
B279
100
AcDbEntity
  8
1
  6
Continuous
100
AcDbCircle
 10
37.490958
 20
207.7539439999999
 30
0.0
 40
1.195896999999998
100
AcDbArc
 50
358.4503999999999
 51
21.017471
  0
ARC
  5
B356
330
B279
100
AcDbEntity
  8
1
  6
Continuous
100
AcDbCircle
 10
39.527945
 20
209.231376
 30
0.0
 40
0.150422
100
AcDbArc
 50
120.421811
 51
155.3852889999998
  0
LINE
  5
B357
330
B279
100
AcDbEntity
  8
1
  6
Continuous
100
AcDbLine
 10
41.20350799999999
 20
209.3610889999999
 30
0.0
 11
42.41886
 21
210.5764409999999
 31
0.0
  0
LINE
  5
B358
330
B279
100
AcDbEntity
  8
1
  6
Continuous
100
AcDbLine
 10
39.789295
 20
209.3610889999999
 30
0.0
 11
41.00464699999998
 21
210.5764409999999
 31
0.0
  0
LINE
  5
B359
330
B279
100
AcDbEntity
  8
1
  6
Continuous
100
AcDbLine
 10
42.321999
 20
209.3610889999999
 30
0.0
 11
41.106647
 21
210.5764409999999
 31
0.0
  0
LINE
  5
B35A
330
B279
100
AcDbEntity
  8
1
  6
Continuous
100
AcDbLine
 10
40.90778499999998
 20
209.3610889999999
 30
0.0
 11
39.692433
 21
210.5764409999999
 31
0.0
  0
ARC
  5
B35B
330
B279
100
AcDbEntity
  8
1
  6
Continuous
100
AcDbCircle
 10
42.72191999999999
 20
226.412562
 30
0.0
 40
20.85899799999999
100
AcDbArc
 50
268.368019
 51
270.0
  0
LINE
  5
B35C
330
B279
100
AcDbEntity
  8
1
  6
Continuous
100
AcDbLine
 10
56.464134
 20
209.3610889999999
 30
0.0
 11
55.24878199999999
 21
210.5764409999999
 31
0.0
  0
LINE
  5
B35D
330
B279
100
AcDbEntity
  8
1
  6
Continuous
100
AcDbLine
 10
49.393066
 20
209.3610889999999
 30
0.0
 11
48.177715
 21
210.5764409999999
 31
0.0
  0
LINE
  5
B35E
330
B279
100
AcDbEntity
  8
1
  6
Continuous
100
AcDbLine
 10
50.80728
 20
209.3610889999999
 30
0.0
 11
49.591928
 21
210.5764409999999
 31
0.0
  0
LINE
  5
B35F
330
B279
100
AcDbEntity
  8
1
  6
Continuous
100
AcDbLine
 10
48.274576
 20
209.3610889999999
 30
0.0
 11
49.489928
 21
210.5764409999999
 31
0.0
  0
LINE
  5
B360
330
B279
100
AcDbEntity
  8
1
  6
Continuous
100
AcDbLine
 10
49.68879000000001
 20
209.3610889999999
 30
0.0
 11
50.904142
 21
210.5764409999999
 31
0.0
  0
LINE
  5
B361
330
B279
100
AcDbEntity
  8
1
  6
Continuous
100
AcDbLine
 10
52.221494
 20
209.3610889999999
 30
0.0
 11
51.00614199999998
 21
210.5764409999999
 31
0.0
  0
LINE
  5
B362
330
B279
100
AcDbEntity
  8
1
  6
Continuous
100
AcDbLine
 10
51.103003
 20
209.3610889999999
 30
0.0
 11
52.31835499999998
 21
210.5764409999999
 31
0.0
  0
LINE
  5
B363
330
B279
100
AcDbEntity
  8
1
  6
Continuous
100
AcDbLine
 10
55.04992099999999
 20
209.3610889999999
 30
0.0
 11
53.83456899999998
 21
210.5764409999999
 31
0.0
  0
LINE
  5
B364
330
B279
100
AcDbEntity
  8
1
  6
Continuous
100
AcDbLine
 10
52.517217
 20
209.3610889999999
 30
0.0
 11
53.73256899999999
 21
210.5764409999999
 31
0.0
  0
LINE
  5
B365
330
B279
100
AcDbEntity
  8
1
  6
Continuous
100
AcDbLine
 10
53.93143000000002
 20
209.3610889999999
 30
0.0
 11
55.14678199999998
 21
210.5764409999999
 31
0.0
  0
LINE
  5
B366
330
B279
100
AcDbEntity
  8
1
  6
Continuous
100
AcDbLine
 10
53.635707
 20
209.3610889999999
 30
0.0
 11
52.420355
 21
210.5764409999999
 31
0.0
  0
LINE
  5
B367
330
B279
100
AcDbEntity
  8
1
  6
Continuous
100
AcDbLine
 10
46.564639
 20
209.3610889999999
 30
0.0
 11
45.349287
 21
210.5764409999999
 31
0.0
  0
LINE
  5
B368
330
B279
100
AcDbEntity
  8
1
  6
Continuous
100
AcDbLine
 10
45.446149
 20
209.3610889999999
 30
0.0
 11
46.661501
 21
210.5764409999999
 31
0.0
  0
LINE
  5
B369
330
B279
100
AcDbEntity
  8
1
  6
Continuous
100
AcDbLine
 10
47.97885299999999
 20
209.3610889999999
 30
0.0
 11
46.76350099999999
 21
210.5764409999999
 31
0.0
  0
LINE
  5
B36A
330
B279
100
AcDbEntity
  8
1
  6
Continuous
100
AcDbLine
 10
46.860363
 20
209.3610889999999
 30
0.0
 11
48.075715
 21
210.5764409999999
 31
0.0
  0
LINE
  5
B36B
330
B279
100
AcDbEntity
  8
1
  6
Continuous
100
AcDbLine
 10
55.34564399999999
 20
209.3610889999999
 30
0.0
 11
56.56099600000001
 21
210.5764409999999
 31
0.0
  0
LINE
  5
B36C
330
B279
100
AcDbEntity
  8
1
  6
Continuous
100
AcDbLine
 10
57.87834799999998
 20
209.3610889999999
 30
0.0
 11
56.662996
 21
210.5764409999999
 31
0.0
  0
LINE
  5
B36D
330
B279
100
AcDbEntity
  8
1
  6
Continuous
100
AcDbLine
 10
56.75985799999999
 20
209.3610889999999
 30
0.0
 11
57.975209
 21
210.5764409999999
 31
0.0
  0
LINE
  5
B36E
330
B279
100
AcDbEntity
  8
1
  6
Continuous
100
AcDbLine
 10
59.29256099999999
 20
209.3610889999999
 30
0.0
 11
58.07720899999999
 21
210.5764409999999
 31
0.0
  0
LINE
  5
B36F
330
B279
100
AcDbEntity
  8
1
  6
Continuous
100
AcDbLine
 10
68.073566
 20
209.3610889999999
 30
0.0
 11
68.940326
 21
210.2278479999999
 31
0.0
  0
ARC
  5
B370
330
B279
100
AcDbEntity
  8
1
  6
Continuous
100
AcDbCircle
 10
68.44775699999999
 20
209.231376
 30
0.0
 40
0.150422
100
AcDbArc
 50
24.614711
 51
59.57818899999999
  0
ARC
  5
B371
330
B279
100
AcDbEntity
  8
1
  6
Continuous
100
AcDbCircle
 10
65.747919
 20
210.0128329999999
 30
0.0
 40
4.217937
100
AcDbArc
 50
312.9280819999999
 51
327.0975189999999
  0
ARC
  5
B372
330
B279
100
AcDbEntity
  8
1
  6
Continuous
100
AcDbCircle
 10
70.48304399999998
 20
210.1638349999999
 30
0.0
 40
2.088299
100
AcDbArc
 50
204.614711
 51
220.185485
  0
ARC
  5
B373
330
B279
100
AcDbEntity
  8
1
  6
Continuous
100
AcDbCircle
 10
69.155597
 20
209.042632
 30
0.0
 40
0.3507099999999999
100
AcDbArc
 50
220.185485
 51
234.240506
  0
LINE
  5
B374
330
B279
100
AcDbEntity
  8
1
  6
Continuous
100
AcDbLine
 10
68.950647
 20
208.7580389999998
 30
0.0
 11
69.169358
 21
208.353936
 31
0.0
  0
LINE
  5
B375
330
B279
100
AcDbEntity
  8
1
  6
Continuous
100
AcDbLine
 10
69.24478
 20
208.353936
 30
0.0
 11
69.352735
 21
208.3471679999999
 31
0.0
  0
ARC
  5
B376
330
B279
100
AcDbEntity
  8
1
  6
Continuous
100
AcDbCircle
 10
69.195549
 20
208.2492709999999
 30
0.0
 40
0.18518
100
AcDbArc
 50
338.982529
 51
31.91524
  0
ARC
  5
B377
330
B279
100
AcDbEntity
  8
1
  6
Continuous
100
AcDbCircle
 10
70.48474399999998
 20
207.7539439999999
 30
0.0
 40
1.195896999999998
100
AcDbArc
 50
158.982529
 51
181.5495999999999
  0
LINE
  5
B378
330
B279
100
AcDbEntity
  8
1
  6
Continuous
100
AcDbLine
 10
64.18596599999999
 20
205.5535639999999
 30
0.0
 11
65.253782
 21
205.5535639999999
 31
0.0
  0
ARC
  5
B379
330
B279
100
AcDbEntity
  8
1
  6
Continuous
100
AcDbCircle
 10
65.253782
 20
226.412562
 30
0.0
 40
20.85899799999999
100
AcDbArc
 50
270.0
 51
271.6319809999999
  0
ARC
  5
B37A
330
B279
100
AcDbEntity
  8
1
  6
Continuous
100
AcDbCircle
 10
64.972527
 20
210.846435
 30
0.0
 40
5.356411999999998
100
AcDbArc
 50
279.4050899999999
 51
312.9280819999999
  0
LINE
  5
B37B
330
B279
100
AcDbEntity
  8
1
  6
Continuous
100
AcDbLine
 10
66.363629
 20
209.3610889999999
 30
0.0
 11
65.14827700000001
 21
210.5764409999999
 31
0.0
  0
LINE
  5
B37C
330
B279
100
AcDbEntity
  8
1
  6
Continuous
100
AcDbLine
 10
63.830925
 20
209.3610889999999
 30
0.0
 11
65.046277
 21
210.5764409999999
 31
0.0
  0
LINE
  5
B37D
330
B279
100
AcDbEntity
  8
1
  6
Continuous
100
AcDbLine
 10
65.24513899999999
 20
209.3610889999999
 30
0.0
 11
66.460491
 21
210.5764409999999
 31
0.0
  0
LINE
  5
B37E
330
B279
100
AcDbEntity
  8
1
  6
Continuous
100
AcDbLine
 10
67.777843
 20
209.3610889999999
 30
0.0
 11
66.56249100000001
 21
210.5764409999999
 31
0.0
  0
LINE
  5
B37F
330
B279
100
AcDbEntity
  8
1
  6
Continuous
100
AcDbLine
 10
66.659353
 20
209.3610889999999
 30
0.0
 11
67.87470400000001
 21
210.5764409999999
 31
0.0
  0
LINE
  5
B380
330
B279
100
AcDbEntity
  8
1
  6
Continuous
100
AcDbLine
 10
69.19205600000001
 20
209.3610889999999
 30
0.0
 11
67.976704
 21
210.5764409999999
 31
0.0
  0
ARC
  5
B381
330
B279
100
AcDbEntity
  8
1
  6
Continuous
100
AcDbCircle
 10
66.98785100000001
 20
208.6664889999999
 30
0.0
 40
2.5
100
AcDbArc
 50
352.8180199999998
 51
49.81640500000001
  0
LINE
  5
B382
330
B279
100
AcDbEntity
  8
1
  6
Continuous
100
AcDbLine
 10
61.002498
 20
209.3610889999999
 30
0.0
 11
62.21785
 21
210.5764409999999
 31
0.0
  0
LINE
  5
B383
330
B279
100
AcDbEntity
  8
1
  6
Continuous
100
AcDbLine
 10
63.53520200000001
 20
209.3610889999999
 30
0.0
 11
62.31985
 21
210.5764409999999
 31
0.0
  0
LINE
  5
B384
330
B279
100
AcDbEntity
  8
1
  6
Continuous
100
AcDbLine
 10
62.12098799999999
 20
209.3610889999999
 30
0.0
 11
60.905637
 21
210.5764409999999
 31
0.0
  0
LINE
  5
B385
330
B279
100
AcDbEntity
  8
1
  6
Continuous
100
AcDbLine
 10
62.41671199999998
 20
209.3610889999999
 30
0.0
 11
63.632064
 21
210.5764409999999
 31
0.0
  0
LINE
  5
B386
330
B279
100
AcDbEntity
  8
1
  6
Continuous
100
AcDbLine
 10
64.949416
 20
209.3610889999999
 30
0.0
 11
63.734064
 21
210.5764409999999
 31
0.0
  0
ARC
  5
B387
330
B279
100
AcDbEntity
  8
1
  6
Continuous
100
AcDbCircle
 10
294.9771169999999
 20
210.846435
 30
0.0
 40
5.356411999999998
100
AcDbArc
 50
279.4050899999999
 51
333.628947
  0
ARC
  5
B388
330
B279
100
AcDbEntity
  8
1
  6
Continuous
100
AcDbCircle
 10
295.258372
 20
226.412562
 30
0.0
 40
20.85899799999999
100
AcDbArc
 50
270.0
 51
271.6319809999999
  0
LINE
  5
B389
330
B279
100
AcDbEntity
  8
1
  6
Continuous
100
AcDbLine
 10
272.72651
 20
205.5535639999999
 30
0.0
 11
295.258372
 21
205.5535639999999
 31
0.0
  0
ARC
  5
B38A
330
B279
100
AcDbEntity
  8
1
  6
Continuous
100
AcDbCircle
 10
273.007765
 20
210.846435
 30
0.0
 40
5.356411999999998
100
AcDbArc
 50
206.371053
 51
260.59491
  0
ARC
  5
B38B
330
B279
100
AcDbEntity
  8
1
  6
Continuous
100
AcDbCircle
 10
272.72651
 20
226.412562
 30
0.0
 40
20.85899799999999
100
AcDbArc
 50
268.368019
 51
270.0
  0
ARC
  5
B38C
330
B279
100
AcDbEntity
  8
1
  6
Continuous
100
AcDbCircle
 10
196.4748219999999
 20
210.84647
 30
0.0
 40
5.356411999999998
100
AcDbArc
 50
279.4050899999999
 51
333.2380249999999
  0
ARC
  5
B38D
330
B279
100
AcDbEntity
  8
1
  6
Continuous
100
AcDbCircle
 10
196.756077
 20
226.412597
 30
0.0
 40
20.85899799999999
100
AcDbArc
 50
270.0
 51
271.6319809999999
  0
LINE
  5
B38E
330
B279
100
AcDbEntity
  8
1
  6
Continuous
100
AcDbLine
 10
193.595156
 20
205.553599
 30
0.0
 11
196.756077
 21
205.553599
 31
0.0
  0
ARC
  5
B38F
330
B279
100
AcDbEntity
  8
1
  6
Continuous
100
AcDbCircle
 10
185.490146
 20
68.81031800000001
 30
0.0
 40
15.0
100
AcDbArc
 50
228.415325
 51
131.584675
  0
LINE
  5
B390
330
B279
100
AcDbEntity
  8
1
  6
Continuous
100
AcDbLine
 10
169.597422
 20
182.102318
 30
0.0
 11
169.597422
 21
209.884775
 31
0.0
  0
LINE
  5
B391
330
B279
100
AcDbEntity
  8
1
  6
Continuous
100
AcDbLine
 10
289.992441
 20
226.217846
 30
0.0
 11
289.992441
 21
265.217846
 31
0.0
  0
LINE
  5
B392
330
B279
100
AcDbEntity
  8
1
  6
Continuous
100
AcDbLine
 10
277.992441
 20
226.217846
 30
0.0
 11
277.992441
 21
265.217846
 31
0.0
  0
LINE
  5
B393
330
B279
100
AcDbEntity
  8
1
  6
Continuous
100
AcDbLine
 10
296.9924409999999
 20
226.217846
 30
0.0
 11
270.9924409999999
 21
226.217846
 31
0.0
  0
LINE
  5
B394
330
B279
100
AcDbEntity
  8
1
  6
Continuous
100
AcDbLine
 10
300.639294
 20
222.217846
 30
0.0
 11
267.3455879999999
 21
222.217846
 31
0.0
  0
LINE
  5
B395
330
B279
100
AcDbEntity
  8
1
  6
Continuous
100
AcDbLine
 10
260.992441
 20
217.17952
 30
0.0
 11
306.992441
 21
217.17952
 31
0.0
  0
LINE
  5
B396
330
B279
100
AcDbEntity
  8
1
  6
Continuous
100
AcDbLine
 10
261.0166479999999
 20
217.2325199999999
 30
0.0
 11
306.9682339999999
 21
217.2325199999999
 31
0.0
  0
LINE
  5
B397
330
B279
100
AcDbEntity
  8
1
  6
Continuous
100
AcDbLine
 10
261.8173569999999
 20
218.7147809999999
 30
0.0
 11
306.167525
 21
218.7147809999999
 31
0.0
  0
LINE
  5
B398
330
B279
100
AcDbEntity
  8
1
  6
Continuous
100
AcDbLine
 10
269.0218779999999
 20
215.17952
 30
0.0
 11
267.0218779999999
 21
217.17952
 31
0.0
  0
LINE
  5
B399
330
B279
100
AcDbEntity
  8
1
  6
Continuous
100
AcDbLine
 10
267.8503049999998
 20
215.17952
 30
0.0
 11
269.8503049999998
 21
217.17952
 31
0.0
  0
ARC
  5
B39A
330
B279
100
AcDbEntity
  8
1
  6
Continuous
100
AcDbCircle
 10
261.266327
 20
217.7949279999999
 30
0.0
 40
0.9569799999999998
100
AcDbArc
 50
106.011913
 51
155.9597349999999
  0
ARC
  5
B39B
330
B279
100
AcDbEntity
  8
1
  6
Continuous
100
AcDbCircle
 10
264.603839
 20
220.265008
 30
0.0
 40
4.697225
100
AcDbArc
 50
206.286695
 51
220.210037
  0
LINE
  5
B39C
330
B279
100
AcDbEntity
  8
1
  6
Continuous
100
AcDbLine
 10
266.193451
 20
215.17952
 30
0.0
 11
264.193451
 21
217.17952
 31
0.0
  0
LINE
  5
B39D
330
B279
100
AcDbEntity
  8
1
  6
Continuous
100
AcDbLine
 10
263.607665
 20
215.17952
 30
0.0
 11
265.607665
 21
217.17952
 31
0.0
  0
LINE
  5
B39E
330
B279
100
AcDbEntity
  8
1
  6
Continuous
100
AcDbLine
 10
260.992441
 20
217.17952
 30
0.0
 11
260.992441
 21
215.17952
 31
0.0
  0
LINE
  5
B39F
330
B279
100
AcDbEntity
  8
1
  6
Continuous
100
AcDbLine
 10
263.365024
 20
215.17952
 30
0.0
 11
261.365024
 21
217.17952
 31
0.0
  0
LINE
  5
B3A0
330
B279
100
AcDbEntity
  8
1
  6
Continuous
100
AcDbLine
 10
260.992441
 20
216.8069369999999
 30
0.0
 11
261.365024
 21
217.17952
 31
0.0
  0
LINE
  5
B3A1
330
B279
100
AcDbEntity
  8
1
  6
Continuous
100
AcDbLine
 10
260.992441
 20
215.3927229999999
 30
0.0
 11
262.7792379999998
 21
217.17952
 31
0.0
  0
LINE
  5
B3A2
330
B279
100
AcDbEntity
  8
1
  6
Continuous
100
AcDbLine
 10
262.1934509999999
 20
215.17952
 30
0.0
 11
264.193451
 21
217.17952
 31
0.0
  0
LINE
  5
B3A3
330
B279
100
AcDbEntity
  8
1
  6
Continuous
100
AcDbLine
 10
265.0218779999998
 20
215.17952
 30
0.0
 11
267.0218779999999
 21
217.17952
 31
0.0
  0
LINE
  5
B3A4
330
B279
100
AcDbEntity
  8
1
  6
Continuous
100
AcDbLine
 10
266.4360919999999
 20
215.17952
 30
0.0
 11
268.4360919999999
 21
217.17952
 31
0.0
  0
ARC
  5
B3A5
330
B279
100
AcDbEntity
  8
1
  6
Continuous
100
AcDbCircle
 10
267.3455879999999
 20
216.1042279999998
 30
0.0
 40
6.113617999999997
100
AcDbArc
 50
90.0
 51
154.722278
  0
LINE
  5
B3A6
330
B279
100
AcDbEntity
  8
1
  6
Continuous
100
AcDbLine
 10
261.0023569999999
 20
218.7147809999999
 30
0.0
 11
261.8173569999999
 21
218.7147809999999
 31
0.0
  0
ARC
  5
B3A7
330
B279
100
AcDbEntity
  8
1
  6
Continuous
100
AcDbCircle
 10
300.639294
 20
216.1042279999998
 30
0.0
 40
6.113617999999997
100
AcDbArc
 50
25.277722
 51
90.0
  0
LINE
  5
B3A8
330
B279
100
AcDbEntity
  8
1
  6
Continuous
100
AcDbLine
 10
302.963004
 20
215.17952
 30
0.0
 11
300.963004
 21
217.17952
 31
0.0
  0
LINE
  5
B3A9
330
B279
100
AcDbEntity
  8
1
  6
Continuous
100
AcDbLine
 10
301.791431
 20
215.17952
 30
0.0
 11
303.791431
 21
217.17952
 31
0.0
  0
LINE
  5
B3AA
330
B279
100
AcDbEntity
  8
1
  6
Continuous
100
AcDbLine
 10
300.3772169999999
 20
215.17952
 30
0.0
 11
302.3772169999999
 21
217.17952
 31
0.0
  0
LINE
  5
B3AB
330
B279
100
AcDbEntity
  8
1
  6
Continuous
100
AcDbLine
 10
285.9924409999999
 20
215.17952
 30
0.0
 11
283.992441
 21
217.17952
 31
0.0
  0
LINE
  5
B3AC
330
B279
100
AcDbEntity
  8
1
  6
Continuous
100
AcDbLine
 10
284.820868
 20
215.17952
 30
0.0
 11
286.820868
 21
217.17952
 31
0.0
  0
LINE
  5
B3AD
330
B279
100
AcDbEntity
  8
1
  6
Continuous
100
AcDbLine
 10
283.406655
 20
215.17952
 30
0.0
 11
285.406655
 21
217.17952
 31
0.0
  0
LINE
  5
B3AE
330
B279
100
AcDbEntity
  8
1
  6
Continuous
100
AcDbLine
 10
277.5071599999999
 20
215.17952
 30
0.0
 11
275.5071599999999
 21
217.17952
 31
0.0
  0
LINE
  5
B3AF
330
B279
100
AcDbEntity
  8
1
  6
Continuous
100
AcDbLine
 10
276.3355869999999
 20
215.17952
 30
0.0
 11
278.3355869999999
 21
217.17952
 31
0.0
  0
LINE
  5
B3B0
330
B279
100
AcDbEntity
  8
1
  6
Continuous
100
AcDbLine
 10
274.6787319999999
 20
215.17952
 30
0.0
 11
272.6787319999999
 21
217.17952
 31
0.0
  0
LINE
  5
B3B1
330
B279
100
AcDbEntity
  8
1
  6
Continuous
100
AcDbLine
 10
272.0929459999999
 20
215.17952
 30
0.0
 11
274.0929459999999
 21
217.17952
 31
0.0
  0
LINE
  5
B3B2
330
B279
100
AcDbEntity
  8
1
  6
Continuous
100
AcDbLine
 10
271.8503049999998
 20
215.17952
 30
0.0
 11
269.8503049999998
 21
217.17952
 31
0.0
  0
LINE
  5
B3B3
330
B279
100
AcDbEntity
  8
1
  6
Continuous
100
AcDbLine
 10
269.2645189999999
 20
215.17952
 30
0.0
 11
271.2645189999999
 21
217.17952
 31
0.0
  0
LINE
  5
B3B4
330
B279
100
AcDbEntity
  8
1
  6
Continuous
100
AcDbLine
 10
270.6787319999999
 20
215.17952
 30
0.0
 11
272.6787319999999
 21
217.17952
 31
0.0
  0
LINE
  5
B3B5
330
B279
100
AcDbEntity
  8
1
  6
Continuous
100
AcDbLine
 10
273.5071599999999
 20
215.17952
 30
0.0
 11
275.5071599999999
 21
217.17952
 31
0.0
  0
LINE
  5
B3B6
330
B279
100
AcDbEntity
  8
1
  6
Continuous
100
AcDbLine
 10
274.921373
 20
215.17952
 30
0.0
 11
276.921373
 21
217.17952
 31
0.0
  0
LINE
  5
B3B7
330
B279
100
AcDbEntity
  8
1
  6
Continuous
100
AcDbLine
 10
283.164014
 20
215.17952
 30
0.0
 11
281.164014
 21
217.17952
 31
0.0
  0
LINE
  5
B3B8
330
B279
100
AcDbEntity
  8
1
  6
Continuous
100
AcDbLine
 10
280.578227
 20
215.17952
 30
0.0
 11
282.578227
 21
217.17952
 31
0.0
  0
LINE
  5
B3B9
330
B279
100
AcDbEntity
  8
1
  6
Continuous
100
AcDbLine
 10
280.3355869999999
 20
215.17952
 30
0.0
 11
278.3355869999999
 21
217.17952
 31
0.0
  0
LINE
  5
B3BA
330
B279
100
AcDbEntity
  8
1
  6
Continuous
100
AcDbLine
 10
277.7498
 20
215.17952
 30
0.0
 11
279.7498
 21
217.17952
 31
0.0
  0
LINE
  5
B3BB
330
B279
100
AcDbEntity
  8
1
  6
Continuous
100
AcDbLine
 10
279.164014
 20
215.17952
 30
0.0
 11
281.164014
 21
217.17952
 31
0.0
  0
LINE
  5
B3BC
330
B279
100
AcDbEntity
  8
1
  6
Continuous
100
AcDbLine
 10
281.992441
 20
215.17952
 30
0.0
 11
283.992441
 21
217.17952
 31
0.0
  0
LINE
  5
B3BD
330
B279
100
AcDbEntity
  8
1
  6
Continuous
100
AcDbLine
 10
294.477722
 20
215.17952
 30
0.0
 11
292.4777220000001
 21
217.17952
 31
0.0
  0
LINE
  5
B3BE
330
B279
100
AcDbEntity
  8
1
  6
Continuous
100
AcDbLine
 10
293.306149
 20
215.17952
 30
0.0
 11
295.3061489999999
 21
217.17952
 31
0.0
  0
LINE
  5
B3BF
330
B279
100
AcDbEntity
  8
1
  6
Continuous
100
AcDbLine
 10
291.8919359999998
 20
215.17952
 30
0.0
 11
293.8919359999998
 21
217.17952
 31
0.0
  0
LINE
  5
B3C0
330
B279
100
AcDbEntity
  8
1
  6
Continuous
100
AcDbLine
 10
289.0635089999999
 20
215.17952
 30
0.0
 11
291.0635089999999
 21
217.17952
 31
0.0
  0
LINE
  5
B3C1
330
B279
100
AcDbEntity
  8
1
  6
Continuous
100
AcDbLine
 10
287.6492949999999
 20
215.17952
 30
0.0
 11
289.6492949999998
 21
217.17952
 31
0.0
  0
LINE
  5
B3C2
330
B279
100
AcDbEntity
  8
1
  6
Continuous
100
AcDbLine
 10
288.820868
 20
215.17952
 30
0.0
 11
286.820868
 21
217.17952
 31
0.0
  0
LINE
  5
B3C3
330
B279
100
AcDbEntity
  8
1
  6
Continuous
100
AcDbLine
 10
286.2350819999999
 20
215.17952
 30
0.0
 11
288.2350819999999
 21
217.17952
 31
0.0
  0
LINE
  5
B3C4
330
B279
100
AcDbEntity
  8
1
  6
Continuous
100
AcDbLine
 10
291.6492949999998
 20
215.17952
 30
0.0
 11
289.6492949999998
 21
217.17952
 31
0.0
  0
LINE
  5
B3C5
330
B279
100
AcDbEntity
  8
1
  6
Continuous
100
AcDbLine
 10
290.4777220000001
 20
215.17952
 30
0.0
 11
292.4777220000001
 21
217.17952
 31
0.0
  0
LINE
  5
B3C6
330
B279
100
AcDbEntity
  8
1
  6
Continuous
100
AcDbLine
 10
297.54879
 20
215.17952
 30
0.0
 11
299.54879
 21
217.17952
 31
0.0
  0
LINE
  5
B3C7
330
B279
100
AcDbEntity
  8
1
  6
Continuous
100
AcDbLine
 10
296.1345769999999
 20
215.17952
 30
0.0
 11
298.1345769999999
 21
217.17952
 31
0.0
  0
LINE
  5
B3C8
330
B279
100
AcDbEntity
  8
1
  6
Continuous
100
AcDbLine
 10
297.306149
 20
215.17952
 30
0.0
 11
295.3061489999999
 21
217.17952
 31
0.0
  0
LINE
  5
B3C9
330
B279
100
AcDbEntity
  8
1
  6
Continuous
100
AcDbLine
 10
294.7203629999999
 20
215.17952
 30
0.0
 11
296.7203629999999
 21
217.17952
 31
0.0
  0
LINE
  5
B3CA
330
B279
100
AcDbEntity
  8
1
  6
Continuous
100
AcDbLine
 10
300.1345769999999
 20
215.17952
 30
0.0
 11
298.1345769999999
 21
217.17952
 31
0.0
  0
LINE
  5
B3CB
330
B279
100
AcDbEntity
  8
1
  6
Continuous
100
AcDbLine
 10
298.963004
 20
215.17952
 30
0.0
 11
300.963004
 21
217.17952
 31
0.0
  0
ARC
  5
B3CC
330
B279
100
AcDbEntity
  8
1
  6
Continuous
100
AcDbCircle
 10
306.718554
 20
217.7949279999999
 30
0.0
 40
0.9569799999999998
100
AcDbArc
 50
24.04026499999999
 51
73.98808699999998
  0
LINE
  5
B3CD
330
B279
100
AcDbEntity
  8
1
  6
Continuous
100
AcDbLine
 10
304.619858
 20
215.17952
 30
0.0
 11
306.619858
 21
217.17952
 31
0.0
  0
LINE
  5
B3CE
330
B279
100
AcDbEntity
  8
1
  6
Continuous
100
AcDbLine
 10
305.791431
 20
215.17952
 30
0.0
 11
303.791431
 21
217.17952
 31
0.0
  0
LINE
  5
B3CF
330
B279
100
AcDbEntity
  8
1
  6
Continuous
100
AcDbLine
 10
303.205644
 20
215.17952
 30
0.0
 11
305.205644
 21
217.17952
 31
0.0
  0
LINE
  5
B3D0
330
B279
100
AcDbEntity
  8
1
  6
Continuous
100
AcDbLine
 10
306.992441
 20
217.17952
 30
0.0
 11
306.992441
 21
215.17952
 31
0.0
  0
ARC
  5
B3D1
330
B279
100
AcDbEntity
  8
1
  6
Continuous
100
AcDbCircle
 10
303.3810429999999
 20
220.265008
 30
0.0
 40
4.697225
100
AcDbArc
 50
319.789963
 51
333.713305
  0
LINE
  5
B3D2
330
B279
100
AcDbEntity
  8
1
  6
Continuous
100
AcDbLine
 10
306.992441
 20
216.8069369999999
 30
0.0
 11
306.619858
 21
217.17952
 31
0.0
  0
LINE
  5
B3D3
330
B279
100
AcDbEntity
  8
1
  6
Continuous
100
AcDbLine
 10
306.0340719999999
 20
215.17952
 30
0.0
 11
306.992441
 21
216.1378889999999
 31
0.0
  0
LINE
  5
B3D4
330
B279
100
AcDbEntity
  8
1
  6
Continuous
100
AcDbLine
 10
306.982525
 20
218.7147809999999
 30
0.0
 11
306.167525
 21
218.7147809999999
 31
0.0
  0
CIRCLE
  5
B3D5
330
B279
100
AcDbEntity
  8
1
  6
Continuous
100
AcDbCircle
 10
185.490146
 20
341.0189369999998
 30
0.0
 40
22.17508399999999
  0
CIRCLE
  5
B3D6
330
B279
100
AcDbEntity
  8
1
  6
Continuous
100
AcDbCircle
 10
185.490146
 20
341.0189369999998
 30
0.0
 40
23.60008399999999
  0
LINE
  5
B3D7
330
B279
100
AcDbEntity
  8
1
  6
Continuous
100
AcDbLine
 10
192.9957
 20
328.0189369999998
 30
0.0
 11
200.501253
 21
341.0189369999998
 31
0.0
  0
LINE
  5
B3D8
330
B279
100
AcDbEntity
  8
1
  6
Continuous
100
AcDbLine
 10
192.9957
 20
354.018937
 30
0.0
 11
200.501253
 21
341.0189369999998
 31
0.0
  0
LINE
  5
B3D9
330
B279
100
AcDbEntity
  8
1
  6
Continuous
100
AcDbLine
 10
277.992441
 20
265.217846
 30
0.0
 11
289.992441
 21
265.217846
 31
0.0
  0
LINE
  5
B3DA
330
B279
100
AcDbEntity
  8
1
  6
Continuous
100
AcDbLine
 10
288.9924409999998
 20
266.217846
 30
0.0
 11
278.9924409999999
 21
266.217846
 31
0.0
  0
LINE
  5
B3DB
330
B279
100
AcDbEntity
  8
1
  6
Continuous
100
AcDbLine
 10
277.992441
 20
265.217846
 30
0.0
 11
278.9924409999999
 21
266.217846
 31
0.0
  0
LINE
  5
B3DC
330
B279
100
AcDbEntity
  8
1
  6
Continuous
100
AcDbLine
 10
289.992441
 20
265.217846
 30
0.0
 11
288.9924409999998
 21
266.217846
 31
0.0
  0
ARC
  5
B3DD
330
B279
100
AcDbEntity
  8
1
  6
Continuous
100
AcDbCircle
 10
154.6173699999999
 20
297.855237
 30
0.0
 40
27.938726
100
AcDbArc
 50
60.419052
 51
82.30457099999998
  0
ARC
  5
B3DE
330
B279
100
AcDbEntity
  8
1
  6
Continuous
100
AcDbCircle
 10
154.624277
 20
384.1835709999998
 30
0.0
 40
27.938726
100
AcDbArc
 50
277.6954289999998
 51
299.6041389999998
  0
ARC
  5
B3DF
330
B279
100
AcDbEntity
  8
1
  6
Continuous
100
AcDbCircle
 10
185.824322
 20
341.0189369999998
 30
0.0
 40
25.5
100
AcDbArc
 50
131.8398469999999
 51
228.1601529999999
  0
CIRCLE
  5
B3E0
330
B279
100
AcDbEntity
  8
1
  6
Continuous
100
AcDbCircle
 10
185.490146
 20
341.0189369999998
 30
0.0
 40
6.0
  0
LINE
  5
B3E1
330
B279
100
AcDbEntity
  8
1
  6
Continuous
100
AcDbLine
 10
170.479039
 20
341.0189369999998
 30
0.0
 11
177.984593
 21
354.018937
 31
0.0
  0
LINE
  5
B3E2
330
B279
100
AcDbEntity
  8
1
  6
Continuous
100
AcDbLine
 10
177.984593
 20
328.0189369999998
 30
0.0
 11
192.9957
 21
328.0189369999998
 31
0.0
  0
LINE
  5
B3E3
330
B279
100
AcDbEntity
  8
1
  6
Continuous
100
AcDbLine
 10
170.479039
 20
341.0189369999998
 30
0.0
 11
177.984593
 21
328.0189369999998
 31
0.0
  0
LINE
  5
B3E4
330
B279
100
AcDbEntity
  8
1
  6
Continuous
100
AcDbLine
 10
177.984593
 20
354.018937
 30
0.0
 11
192.9957
 21
354.018937
 31
0.0
  0
ARC
  5
B3E5
330
B279
100
AcDbEntity
  8
1
  6
Continuous
100
AcDbCircle
 10
185.824322
 20
341.0189369999998
 30
0.0
 40
31.5
100
AcDbArc
 50
151.146925
 51
209.1507419999998
  0
ARC
  5
B3E6
330
B279
100
AcDbEntity
  8
1
  6
Continuous
100
AcDbCircle
 10
156.0788389999999
 20
324.6303189999999
 30
0.0
 40
2.461456999999998
100
AcDbArc
 50
325.720974
 51
28.853075
  0
ARC
  5
B3E7
330
B279
100
AcDbEntity
  8
1
  6
Continuous
100
AcDbCircle
 10
156.0788389999999
 20
357.4075549999998
 30
0.0
 40
2.461456999999998
100
AcDbArc
 50
331.146925
 51
34.279026
  0
LINE
  5
B3E8
330
B279
100
AcDbEntity
  8
1
  6
Continuous
100
AcDbLine
 10
270.9924409999999
 20
226.217846
 30
0.0
 11
270.9924409999999
 21
222.217846
 31
0.0
  0
LINE
  5
B3E9
330
B279
100
AcDbEntity
  8
1
  6
Continuous
100
AcDbLine
 10
283.992441
 20
226.217846
 30
0.0
 11
283.992441
 21
222.217846
 31
0.0
  0
LINE
  5
B3EA
330
B279
100
AcDbEntity
  8
1
  6
Continuous
100
AcDbLine
 10
296.9924409999999
 20
226.217846
 30
0.0
 11
296.9924409999999
 21
222.217846
 31
0.0
  0
ARC
  5
B3EB
330
B279
100
AcDbEntity
  8
1
  6
Continuous
100
AcDbCircle
 10
185.490146
 20
341.0189369999998
 30
0.0
 40
24.75
100
AcDbArc
 50
236.486358
 51
123.513642
  0
ARC
  5
B3EC
330
B279
100
AcDbEntity
  8
1
  6
Continuous
100
AcDbCircle
 10
161.886353
 20
376.661937
 30
0.0
 40
18.0
100
AcDbArc
 50
278.562581
 51
303.513642
  0
ARC
  5
B3ED
330
B279
100
AcDbEntity
  8
1
  6
Continuous
100
AcDbCircle
 10
161.886353
 20
305.375937
 30
0.0
 40
18.0
100
AcDbArc
 50
56.486358
 51
81.437419
  0
CIRCLE
  5
B3EE
330
B279
100
AcDbEntity
  8
2
  6
Continuous
100
AcDbCircle
 10
185.490146
 20
341.0189369999998
 30
0.0
 40
5.3235
  0
LINE
  5
B3EF
330
B279
100
AcDbEntity
  8
2
  6
Continuous
100
AcDbLine
 10
278.668941
 20
227.389645
 30
0.0
 11
278.668941
 21
265.8943459999999
 31
0.0
  0
LINE
  5
B3F0
330
B279
100
AcDbEntity
  8
2
  6
Continuous
100
AcDbLine
 10
289.3159409999999
 20
227.389645
 30
0.0
 11
289.3159409999999
 21
265.8943459999999
 31
0.0
  0
LINE
  5
B3F1
330
B279
100
AcDbEntity
  8
1
  6
Continuous
100
AcDbLine
 10
47.98785099999999
 20
226.217846
 30
0.0
 11
47.98785099999999
 21
265.217846
 31
0.0
  0
LINE
  5
B3F2
330
B279
100
AcDbEntity
  8
1
  6
Continuous
100
AcDbLine
 10
59.987851
 20
226.217846
 30
0.0
 11
59.987851
 21
265.217846
 31
0.0
  0
LINE
  5
B3F3
330
B279
100
AcDbEntity
  8
2
  6
Continuous
100
AcDbLine
 10
59.311351
 20
227.389645
 30
0.0
 11
59.311351
 21
265.8943459999999
 31
0.0
  0
LINE
  5
B3F4
330
B279
100
AcDbEntity
  8
2
  6
Continuous
100
AcDbLine
 10
48.664351
 20
227.389645
 30
0.0
 11
48.664351
 21
265.8943459999999
 31
0.0
  0
LINE
  5
B3F5
330
B279
100
AcDbEntity
  8
1
  6
Continuous
100
AcDbLine
 10
53.402065
 20
215.17952
 30
0.0
 11
55.402065
 21
217.17952
 31
0.0
  0
LINE
  5
B3F6
330
B279
100
AcDbEntity
  8
1
  6
Continuous
100
AcDbLine
 10
55.987851
 20
215.17952
 30
0.0
 11
53.987851
 21
217.17952
 31
0.0
  0
LINE
  5
B3F7
330
B279
100
AcDbEntity
  8
1
  6
Continuous
100
AcDbLine
 10
31.81276699999999
 20
218.7147809999999
 30
0.0
 11
76.16293500000002
 21
218.7147809999999
 31
0.0
  0
LINE
  5
B3F8
330
B279
100
AcDbEntity
  8
1
  6
Continuous
100
AcDbLine
 10
31.01205800000001
 20
217.2325199999999
 30
0.0
 11
76.96364399999999
 21
217.2325199999999
 31
0.0
  0
LINE
  5
B3F9
330
B279
100
AcDbEntity
  8
1
  6
Continuous
100
AcDbLine
 10
30.98785100000001
 20
217.17952
 30
0.0
 11
76.98785100000002
 21
217.17952
 31
0.0
  0
LINE
  5
B3FA
330
B279
100
AcDbEntity
  8
1
  6
Continuous
100
AcDbLine
 10
70.63470399999999
 20
222.217846
 30
0.0
 11
37.340998
 21
222.217846
 31
0.0
  0
LINE
  5
B3FB
330
B279
100
AcDbEntity
  8
1
  6
Continuous
100
AcDbLine
 10
66.98785100000001
 20
226.217846
 30
0.0
 11
40.98785099999999
 21
226.217846
 31
0.0
  0
ARC
  5
B3FC
330
B279
100
AcDbEntity
  8
1
  6
Continuous
100
AcDbCircle
 10
37.340998
 20
216.1042279999998
 30
0.0
 40
6.113617999999997
100
AcDbArc
 50
90.0
 51
154.722278
  0
LINE
  5
B3FD
330
B279
100
AcDbEntity
  8
1
  6
Continuous
100
AcDbLine
 10
36.431502
 20
215.17952
 30
0.0
 11
38.431502
 21
217.17952
 31
0.0
  0
LINE
  5
B3FE
330
B279
100
AcDbEntity
  8
1
  6
Continuous
100
AcDbLine
 10
35.017288
 20
215.17952
 30
0.0
 11
37.017288
 21
217.17952
 31
0.0
  0
LINE
  5
B3FF
330
B279
100
AcDbEntity
  8
1
  6
Continuous
100
AcDbLine
 10
30.997767
 20
218.7147809999999
 30
0.0
 11
31.81276699999999
 21
218.7147809999999
 31
0.0
  0
LINE
  5
B400
330
B279
100
AcDbEntity
  8
1
  6
Continuous
100
AcDbLine
 10
32.18886099999998
 20
215.17952
 30
0.0
 11
34.18886099999999
 21
217.17952
 31
0.0
  0
LINE
  5
B401
330
B279
100
AcDbEntity
  8
1
  6
Continuous
100
AcDbLine
 10
30.98785100000001
 20
215.3927229999999
 30
0.0
 11
32.774648
 21
217.17952
 31
0.0
  0
LINE
  5
B402
330
B279
100
AcDbEntity
  8
1
  6
Continuous
100
AcDbLine
 10
30.98785100000001
 20
216.8069369999999
 30
0.0
 11
31.360434
 21
217.17952
 31
0.0
  0
LINE
  5
B403
330
B279
100
AcDbEntity
  8
1
  6
Continuous
100
AcDbLine
 10
33.36043399999999
 20
215.17952
 30
0.0
 11
31.360434
 21
217.17952
 31
0.0
  0
LINE
  5
B404
330
B279
100
AcDbEntity
  8
1
  6
Continuous
100
AcDbLine
 10
30.98785100000001
 20
217.17952
 30
0.0
 11
30.98785100000001
 21
215.17952
 31
0.0
  0
LINE
  5
B405
330
B279
100
AcDbEntity
  8
1
  6
Continuous
100
AcDbLine
 10
33.60307499999999
 20
215.17952
 30
0.0
 11
35.60307499999999
 21
217.17952
 31
0.0
  0
LINE
  5
B406
330
B279
100
AcDbEntity
  8
1
  6
Continuous
100
AcDbLine
 10
36.18886099999999
 20
215.17952
 30
0.0
 11
34.18886099999999
 21
217.17952
 31
0.0
  0
ARC
  5
B407
330
B279
100
AcDbEntity
  8
1
  6
Continuous
100
AcDbCircle
 10
34.599249
 20
220.265008
 30
0.0
 40
4.697225
100
AcDbArc
 50
206.286695
 51
220.210037
  0
ARC
  5
B408
330
B279
100
AcDbEntity
  8
1
  6
Continuous
100
AcDbCircle
 10
31.261737
 20
217.7949279999999
 30
0.0
 40
0.9569799999999998
100
AcDbArc
 50
106.011913
 51
155.9597349999999
  0
LINE
  5
B409
330
B279
100
AcDbEntity
  8
1
  6
Continuous
100
AcDbLine
 10
51.987851
 20
215.17952
 30
0.0
 11
53.987851
 21
217.17952
 31
0.0
  0
LINE
  5
B40A
330
B279
100
AcDbEntity
  8
1
  6
Continuous
100
AcDbLine
 10
49.159424
 20
215.17952
 30
0.0
 11
51.159424
 21
217.17952
 31
0.0
  0
LINE
  5
B40B
330
B279
100
AcDbEntity
  8
1
  6
Continuous
100
AcDbLine
 10
47.74521
 20
215.17952
 30
0.0
 11
49.74521
 21
217.17952
 31
0.0
  0
LINE
  5
B40C
330
B279
100
AcDbEntity
  8
1
  6
Continuous
100
AcDbLine
 10
50.33099700000001
 20
215.17952
 30
0.0
 11
48.33099699999999
 21
217.17952
 31
0.0
  0
LINE
  5
B40D
330
B279
100
AcDbEntity
  8
1
  6
Continuous
100
AcDbLine
 10
50.57363699999999
 20
215.17952
 30
0.0
 11
52.57363699999999
 21
217.17952
 31
0.0
  0
LINE
  5
B40E
330
B279
100
AcDbEntity
  8
1
  6
Continuous
100
AcDbLine
 10
53.159424
 20
215.17952
 30
0.0
 11
51.159424
 21
217.17952
 31
0.0
  0
LINE
  5
B40F
330
B279
100
AcDbEntity
  8
1
  6
Continuous
100
AcDbLine
 10
44.916783
 20
215.17952
 30
0.0
 11
46.916783
 21
217.17952
 31
0.0
  0
LINE
  5
B410
330
B279
100
AcDbEntity
  8
1
  6
Continuous
100
AcDbLine
 10
43.50257
 20
215.17952
 30
0.0
 11
45.50257
 21
217.17952
 31
0.0
  0
LINE
  5
B411
330
B279
100
AcDbEntity
  8
1
  6
Continuous
100
AcDbLine
 10
40.67414199999999
 20
215.17952
 30
0.0
 11
42.674142
 21
217.17952
 31
0.0
  0
LINE
  5
B412
330
B279
100
AcDbEntity
  8
1
  6
Continuous
100
AcDbLine
 10
39.259929
 20
215.17952
 30
0.0
 11
41.25992899999999
 21
217.17952
 31
0.0
  0
LINE
  5
B413
330
B279
100
AcDbEntity
  8
1
  6
Continuous
100
AcDbLine
 10
41.84571499999999
 20
215.17952
 30
0.0
 11
39.84571499999999
 21
217.17952
 31
0.0
  0
LINE
  5
B414
330
B279
100
AcDbEntity
  8
1
  6
Continuous
100
AcDbLine
 10
42.08835599999999
 20
215.17952
 30
0.0
 11
44.08835599999998
 21
217.17952
 31
0.0
  0
LINE
  5
B415
330
B279
100
AcDbEntity
  8
1
  6
Continuous
100
AcDbLine
 10
44.67414199999999
 20
215.17952
 30
0.0
 11
42.674142
 21
217.17952
 31
0.0
  0
LINE
  5
B416
330
B279
100
AcDbEntity
  8
1
  6
Continuous
100
AcDbLine
 10
37.84571500000001
 20
215.17952
 30
0.0
 11
39.84571499999999
 21
217.17952
 31
0.0
  0
LINE
  5
B417
330
B279
100
AcDbEntity
  8
1
  6
Continuous
100
AcDbLine
 10
39.017288
 20
215.17952
 30
0.0
 11
37.017288
 21
217.17952
 31
0.0
  0
LINE
  5
B418
330
B279
100
AcDbEntity
  8
1
  6
Continuous
100
AcDbLine
 10
46.33099699999998
 20
215.17952
 30
0.0
 11
48.33099699999999
 21
217.17952
 31
0.0
  0
LINE
  5
B419
330
B279
100
AcDbEntity
  8
1
  6
Continuous
100
AcDbLine
 10
47.50257
 20
215.17952
 30
0.0
 11
45.50257
 21
217.17952
 31
0.0
  0
LINE
  5
B41A
330
B279
100
AcDbEntity
  8
1
  6
Continuous
100
AcDbLine
 10
70.37262700000002
 20
215.17952
 30
0.0
 11
72.37262699999998
 21
217.17952
 31
0.0
  0
LINE
  5
B41B
330
B279
100
AcDbEntity
  8
1
  6
Continuous
100
AcDbLine
 10
72.958414
 20
215.17952
 30
0.0
 11
70.95841400000002
 21
217.17952
 31
0.0
  0
ARC
  5
B41C
330
B279
100
AcDbEntity
  8
1
  6
Continuous
100
AcDbCircle
 10
70.63470399999999
 20
216.1042279999998
 30
0.0
 40
6.113617999999997
100
AcDbArc
 50
25.277722
 51
90.0
  0
LINE
  5
B41D
330
B279
100
AcDbEntity
  8
1
  6
Continuous
100
AcDbLine
 10
68.95841400000001
 20
215.17952
 30
0.0
 11
70.95841400000002
 21
217.17952
 31
0.0
  0
LINE
  5
B41E
330
B279
100
AcDbEntity
  8
1
  6
Continuous
100
AcDbLine
 10
70.129987
 20
215.17952
 30
0.0
 11
68.129987
 21
217.17952
 31
0.0
  0
LINE
  5
B41F
330
B279
100
AcDbEntity
  8
1
  6
Continuous
100
AcDbLine
 10
67.30155899999998
 20
215.17952
 30
0.0
 11
65.301559
 21
217.17952
 31
0.0
  0
LINE
  5
B420
330
B279
100
AcDbEntity
  8
1
  6
Continuous
100
AcDbLine
 10
66.129987
 20
215.17952
 30
0.0
 11
68.129987
 21
217.17952
 31
0.0
  0
LINE
  5
B421
330
B279
100
AcDbEntity
  8
1
  6
Continuous
100
AcDbLine
 10
67.5442
 20
215.17952
 30
0.0
 11
69.5442
 21
217.17952
 31
0.0
  0
LINE
  5
B422
330
B279
100
AcDbEntity
  8
1
  6
Continuous
100
AcDbLine
 10
60.47313199999999
 20
215.17952
 30
0.0
 11
62.47313199999999
 21
217.17952
 31
0.0
  0
LINE
  5
B423
330
B279
100
AcDbEntity
  8
1
  6
Continuous
100
AcDbLine
 10
61.644705
 20
215.17952
 30
0.0
 11
59.644705
 21
217.17952
 31
0.0
  0
LINE
  5
B424
330
B279
100
AcDbEntity
  8
1
  6
Continuous
100
AcDbLine
 10
56.230492
 20
215.17952
 30
0.0
 11
58.23049199999999
 21
217.17952
 31
0.0
  0
LINE
  5
B425
330
B279
100
AcDbEntity
  8
1
  6
Continuous
100
AcDbLine
 10
58.816278
 20
215.17952
 30
0.0
 11
56.81627800000001
 21
217.17952
 31
0.0
  0
LINE
  5
B426
330
B279
100
AcDbEntity
  8
1
  6
Continuous
100
AcDbLine
 10
57.644705
 20
215.17952
 30
0.0
 11
59.644705
 21
217.17952
 31
0.0
  0
LINE
  5
B427
330
B279
100
AcDbEntity
  8
1
  6
Continuous
100
AcDbLine
 10
59.058919
 20
215.17952
 30
0.0
 11
61.05891899999999
 21
217.17952
 31
0.0
  0
LINE
  5
B428
330
B279
100
AcDbEntity
  8
1
  6
Continuous
100
AcDbLine
 10
61.887346
 20
215.17952
 30
0.0
 11
63.88734599999999
 21
217.17952
 31
0.0
  0
LINE
  5
B429
330
B279
100
AcDbEntity
  8
1
  6
Continuous
100
AcDbLine
 10
64.47313199999999
 20
215.17952
 30
0.0
 11
62.47313199999999
 21
217.17952
 31
0.0
  0
LINE
  5
B42A
330
B279
100
AcDbEntity
  8
1
  6
Continuous
100
AcDbLine
 10
54.816278
 20
215.17952
 30
0.0
 11
56.81627800000001
 21
217.17952
 31
0.0
  0
LINE
  5
B42B
330
B279
100
AcDbEntity
  8
1
  6
Continuous
100
AcDbLine
 10
64.71577299999998
 20
215.17952
 30
0.0
 11
66.715773
 21
217.17952
 31
0.0
  0
LINE
  5
B42C
330
B279
100
AcDbEntity
  8
1
  6
Continuous
100
AcDbLine
 10
63.301559
 20
215.17952
 30
0.0
 11
65.301559
 21
217.17952
 31
0.0
  0
LINE
  5
B42D
330
B279
100
AcDbEntity
  8
1
  6
Continuous
100
AcDbLine
 10
76.977935
 20
218.7147809999999
 30
0.0
 11
76.16293500000002
 21
218.7147809999999
 31
0.0
  0
LINE
  5
B42E
330
B279
100
AcDbEntity
  8
1
  6
Continuous
100
AcDbLine
 10
76.029482
 20
215.17952
 30
0.0
 11
76.98785100000002
 21
216.1378889999999
 31
0.0
  0
LINE
  5
B42F
330
B279
100
AcDbEntity
  8
1
  6
Continuous
100
AcDbLine
 10
76.98785100000002
 20
216.8069369999999
 30
0.0
 11
76.615268
 21
217.17952
 31
0.0
  0
ARC
  5
B430
330
B279
100
AcDbEntity
  8
1
  6
Continuous
100
AcDbCircle
 10
73.376453
 20
220.265008
 30
0.0
 40
4.697225
100
AcDbArc
 50
319.789963
 51
333.713305
  0
LINE
  5
B431
330
B279
100
AcDbEntity
  8
1
  6
Continuous
100
AcDbLine
 10
76.98785100000002
 20
217.17952
 30
0.0
 11
76.98785100000002
 21
215.17952
 31
0.0
  0
LINE
  5
B432
330
B279
100
AcDbEntity
  8
1
  6
Continuous
100
AcDbLine
 10
73.201054
 20
215.17952
 30
0.0
 11
75.201054
 21
217.17952
 31
0.0
  0
LINE
  5
B433
330
B279
100
AcDbEntity
  8
1
  6
Continuous
100
AcDbLine
 10
75.78684100000002
 20
215.17952
 30
0.0
 11
73.78684099999998
 21
217.17952
 31
0.0
  0
LINE
  5
B434
330
B279
100
AcDbEntity
  8
1
  6
Continuous
100
AcDbLine
 10
74.615268
 20
215.17952
 30
0.0
 11
76.615268
 21
217.17952
 31
0.0
  0
ARC
  5
B435
330
B279
100
AcDbEntity
  8
1
  6
Continuous
100
AcDbCircle
 10
76.713964
 20
217.7949279999999
 30
0.0
 40
0.9569799999999998
100
AcDbArc
 50
24.04026499999999
 51
73.98808699999998
  0
LINE
  5
B436
330
B279
100
AcDbEntity
  8
1
  6
Continuous
100
AcDbLine
 10
71.78684100000002
 20
215.17952
 30
0.0
 11
73.78684099999998
 21
217.17952
 31
0.0
  0
LINE
  5
B437
330
B279
100
AcDbEntity
  8
1
  6
Continuous
100
AcDbLine
 10
47.98785099999999
 20
265.217846
 30
0.0
 11
48.987851
 21
266.217846
 31
0.0
  0
LINE
  5
B438
330
B279
100
AcDbEntity
  8
1
  6
Continuous
100
AcDbLine
 10
58.987851
 20
266.217846
 30
0.0
 11
48.987851
 21
266.217846
 31
0.0
  0
LINE
  5
B439
330
B279
100
AcDbEntity
  8
1
  6
Continuous
100
AcDbLine
 10
47.98785099999999
 20
265.217846
 30
0.0
 11
59.987851
 21
265.217846
 31
0.0
  0
LINE
  5
B43A
330
B279
100
AcDbEntity
  8
1
  6
Continuous
100
AcDbLine
 10
59.987851
 20
265.217846
 30
0.0
 11
58.987851
 21
266.217846
 31
0.0
  0
LINE
  5
B43B
330
B279
100
AcDbEntity
  8
1
  6
Continuous
100
AcDbLine
 10
53.987851
 20
226.217846
 30
0.0
 11
53.987851
 21
222.217846
 31
0.0
  0
LINE
  5
B43C
330
B279
100
AcDbEntity
  8
1
  6
Continuous
100
AcDbLine
 10
40.98785099999999
 20
226.217846
 30
0.0
 11
40.98785099999999
 21
222.217846
 31
0.0
  0
LINE
  5
B43D
330
B279
100
AcDbEntity
  8
1
  6
Continuous
100
AcDbLine
 10
66.98785100000001
 20
226.217846
 30
0.0
 11
66.98785100000001
 21
222.217846
 31
0.0
  0
LINE
  5
B43E
330
B279
100
AcDbEntity
  8
1
  6
Continuous
100
AcDbLine
 10
179.490146
 20
226.2178819999999
 30
0.0
 11
179.490146
 21
265.2178819999999
 31
0.0
  0
LINE
  5
B43F
330
B279
100
AcDbEntity
  8
1
  6
Continuous
100
AcDbLine
 10
191.490146
 20
226.2178819999999
 30
0.0
 11
191.490146
 21
265.2178819999999
 31
0.0
  0
LINE
  5
B440
330
B279
100
AcDbEntity
  8
2
  6
Continuous
100
AcDbLine
 10
190.813646
 20
227.389681
 30
0.0
 11
190.813646
 21
265.894382
 31
0.0
  0
LINE
  5
B441
330
B279
100
AcDbEntity
  8
2
  6
Continuous
100
AcDbLine
 10
180.1666459999999
 20
227.389681
 30
0.0
 11
180.1666459999999
 21
265.894382
 31
0.0
  0
LINE
  5
B442
330
B279
100
AcDbEntity
  8
1
  6
Continuous
100
AcDbLine
 10
184.9043599999999
 20
215.179556
 30
0.0
 11
186.9043599999999
 21
217.179556
 31
0.0
  0
LINE
  5
B443
330
B279
100
AcDbEntity
  8
1
  6
Continuous
100
AcDbLine
 10
187.490146
 20
215.179556
 30
0.0
 11
185.490146
 21
217.179556
 31
0.0
  0
LINE
  5
B444
330
B279
100
AcDbEntity
  8
1
  6
Continuous
100
AcDbLine
 10
163.315062
 20
218.7148169999999
 30
0.0
 11
207.66523
 21
218.7148169999999
 31
0.0
  0
LINE
  5
B445
330
B279
100
AcDbEntity
  8
1
  6
Continuous
100
AcDbLine
 10
162.514353
 20
217.2325559999999
 30
0.0
 11
208.465939
 21
217.2325559999999
 31
0.0
  0
LINE
  5
B446
330
B279
100
AcDbEntity
  8
1
  6
Continuous
100
AcDbLine
 10
162.490146
 20
217.179556
 30
0.0
 11
208.490146
 21
217.179556
 31
0.0
  0
LINE
  5
B447
330
B279
100
AcDbEntity
  8
1
  6
Continuous
100
AcDbLine
 10
202.136999
 20
222.2178819999998
 30
0.0
 11
168.8432929999999
 21
222.2178819999998
 31
0.0
  0
LINE
  5
B448
330
B279
100
AcDbEntity
  8
1
  6
Continuous
100
AcDbLine
 10
200.501253
 20
226.2178819999999
 30
0.0
 11
170.479039
 21
226.2178819999999
 31
0.0
  0
ARC
  5
B449
330
B279
100
AcDbEntity
  8
1
  6
Continuous
100
AcDbCircle
 10
168.8432929999999
 20
216.104264
 30
0.0
 40
6.113617999999997
100
AcDbArc
 50
90.0
 51
154.722278
  0
LINE
  5
B44A
330
B279
100
AcDbEntity
  8
1
  6
Continuous
100
AcDbLine
 10
167.9337969999999
 20
215.179556
 30
0.0
 11
169.933797
 21
217.179556
 31
0.0
  0
LINE
  5
B44B
330
B279
100
AcDbEntity
  8
1
  6
Continuous
100
AcDbLine
 10
166.519583
 20
215.179556
 30
0.0
 11
168.519583
 21
217.179556
 31
0.0
  0
LINE
  5
B44C
330
B279
100
AcDbEntity
  8
1
  6
Continuous
100
AcDbLine
 10
162.500062
 20
218.7148169999999
 30
0.0
 11
163.315062
 21
218.7148169999999
 31
0.0
  0
LINE
  5
B44D
330
B279
100
AcDbEntity
  8
1
  6
Continuous
100
AcDbLine
 10
163.691156
 20
215.179556
 30
0.0
 11
165.691156
 21
217.179556
 31
0.0
  0
LINE
  5
B44E
330
B279
100
AcDbEntity
  8
1
  6
Continuous
100
AcDbLine
 10
162.490146
 20
215.3927589999999
 30
0.0
 11
164.2769429999999
 21
217.179556
 31
0.0
  0
LINE
  5
B44F
330
B279
100
AcDbEntity
  8
1
  6
Continuous
100
AcDbLine
 10
162.490146
 20
216.806973
 30
0.0
 11
162.862729
 21
217.179556
 31
0.0
  0
LINE
  5
B450
330
B279
100
AcDbEntity
  8
1
  6
Continuous
100
AcDbLine
 10
164.862729
 20
215.179556
 30
0.0
 11
162.862729
 21
217.179556
 31
0.0
  0
LINE
  5
B451
330
B279
100
AcDbEntity
  8
1
  6
Continuous
100
AcDbLine
 10
162.490146
 20
217.179556
 30
0.0
 11
162.490146
 21
215.179556
 31
0.0
  0
LINE
  5
B452
330
B279
100
AcDbEntity
  8
1
  6
Continuous
100
AcDbLine
 10
165.10537
 20
215.179556
 30
0.0
 11
167.1053699999999
 21
217.179556
 31
0.0
  0
LINE
  5
B453
330
B279
100
AcDbEntity
  8
1
  6
Continuous
100
AcDbLine
 10
167.691156
 20
215.179556
 30
0.0
 11
165.691156
 21
217.179556
 31
0.0
  0
ARC
  5
B454
330
B279
100
AcDbEntity
  8
1
  6
Continuous
100
AcDbCircle
 10
166.1015439999999
 20
220.2650439999999
 30
0.0
 40
4.697225
100
AcDbArc
 50
206.286695
 51
220.210037
  0
ARC
  5
B455
330
B279
100
AcDbEntity
  8
1
  6
Continuous
100
AcDbCircle
 10
162.7640319999999
 20
217.794964
 30
0.0
 40
0.9569799999999998
100
AcDbArc
 50
106.011913
 51
155.9597349999999
  0
LINE
  5
B456
330
B279
100
AcDbEntity
  8
1
  6
Continuous
100
AcDbLine
 10
183.490146
 20
215.179556
 30
0.0
 11
185.490146
 21
217.179556
 31
0.0
  0
LINE
  5
B457
330
B279
100
AcDbEntity
  8
1
  6
Continuous
100
AcDbLine
 10
180.661719
 20
215.179556
 30
0.0
 11
182.661719
 21
217.179556
 31
0.0
  0
LINE
  5
B458
330
B279
100
AcDbEntity
  8
1
  6
Continuous
100
AcDbLine
 10
179.247505
 20
215.179556
 30
0.0
 11
181.2475049999999
 21
217.179556
 31
0.0
  0
LINE
  5
B459
330
B279
100
AcDbEntity
  8
1
  6
Continuous
100
AcDbLine
 10
181.8332919999998
 20
215.179556
 30
0.0
 11
179.833292
 21
217.179556
 31
0.0
  0
LINE
  5
B45A
330
B279
100
AcDbEntity
  8
1
  6
Continuous
100
AcDbLine
 10
182.075932
 20
215.179556
 30
0.0
 11
184.075932
 21
217.179556
 31
0.0
  0
LINE
  5
B45B
330
B279
100
AcDbEntity
  8
1
  6
Continuous
100
AcDbLine
 10
184.661719
 20
215.179556
 30
0.0
 11
182.661719
 21
217.179556
 31
0.0
  0
LINE
  5
B45C
330
B279
100
AcDbEntity
  8
1
  6
Continuous
100
AcDbLine
 10
177.9845919999999
 20
226.2178819999999
 30
0.0
 11
177.9845919999999
 21
222.2178819999998
 31
0.0
  0
LINE
  5
B45D
330
B279
100
AcDbEntity
  8
1
  6
Continuous
100
AcDbLine
 10
176.419078
 20
215.179556
 30
0.0
 11
178.419078
 21
217.179556
 31
0.0
  0
LINE
  5
B45E
330
B279
100
AcDbEntity
  8
1
  6
Continuous
100
AcDbLine
 10
175.004865
 20
215.179556
 30
0.0
 11
177.0048649999999
 21
217.179556
 31
0.0
  0
LINE
  5
B45F
330
B279
100
AcDbEntity
  8
1
  6
Continuous
100
AcDbLine
 10
172.1764369999999
 20
215.179556
 30
0.0
 11
174.176437
 21
217.179556
 31
0.0
  0
LINE
  5
B460
330
B279
100
AcDbEntity
  8
1
  6
Continuous
100
AcDbLine
 10
170.762224
 20
215.179556
 30
0.0
 11
172.762224
 21
217.179556
 31
0.0
  0
LINE
  5
B461
330
B279
100
AcDbEntity
  8
1
  6
Continuous
100
AcDbLine
 10
173.3480099999999
 20
215.179556
 30
0.0
 11
171.3480099999999
 21
217.179556
 31
0.0
  0
LINE
  5
B462
330
B279
100
AcDbEntity
  8
1
  6
Continuous
100
AcDbLine
 10
173.590651
 20
215.179556
 30
0.0
 11
175.590651
 21
217.179556
 31
0.0
  0
LINE
  5
B463
330
B279
100
AcDbEntity
  8
1
  6
Continuous
100
AcDbLine
 10
176.1764369999999
 20
215.179556
 30
0.0
 11
174.176437
 21
217.179556
 31
0.0
  0
LINE
  5
B464
330
B279
100
AcDbEntity
  8
1
  6
Continuous
100
AcDbLine
 10
170.479039
 20
226.2178819999999
 30
0.0
 11
170.479039
 21
222.2178819999998
 31
0.0
  0
LINE
  5
B465
330
B279
100
AcDbEntity
  8
1
  6
Continuous
100
AcDbLine
 10
169.3480099999999
 20
215.179556
 30
0.0
 11
171.3480099999999
 21
217.179556
 31
0.0
  0
LINE
  5
B466
330
B279
100
AcDbEntity
  8
1
  6
Continuous
100
AcDbLine
 10
170.519583
 20
215.179556
 30
0.0
 11
168.519583
 21
217.179556
 31
0.0
  0
LINE
  5
B467
330
B279
100
AcDbEntity
  8
1
  6
Continuous
100
AcDbLine
 10
177.8332919999998
 20
215.179556
 30
0.0
 11
179.833292
 21
217.179556
 31
0.0
  0
LINE
  5
B468
330
B279
100
AcDbEntity
  8
1
  6
Continuous
100
AcDbLine
 10
179.0048649999999
 20
215.179556
 30
0.0
 11
177.0048649999999
 21
217.179556
 31
0.0
  0
LINE
  5
B469
330
B279
100
AcDbEntity
  8
1
  6
Continuous
100
AcDbLine
 10
201.874922
 20
215.179556
 30
0.0
 11
203.874922
 21
217.179556
 31
0.0
  0
LINE
  5
B46A
330
B279
100
AcDbEntity
  8
1
  6
Continuous
100
AcDbLine
 10
204.4607089999999
 20
215.179556
 30
0.0
 11
202.4607089999999
 21
217.179556
 31
0.0
  0
ARC
  5
B46B
330
B279
100
AcDbEntity
  8
1
  6
Continuous
100
AcDbCircle
 10
202.136999
 20
216.104264
 30
0.0
 40
6.113617999999997
100
AcDbArc
 50
25.277722
 51
90.0
  0
LINE
  5
B46C
330
B279
100
AcDbEntity
  8
1
  6
Continuous
100
AcDbLine
 10
200.501253
 20
226.2178819999999
 30
0.0
 11
200.501253
 21
222.2178819999998
 31
0.0
  0
LINE
  5
B46D
330
B279
100
AcDbEntity
  8
1
  6
Continuous
100
AcDbLine
 10
200.4607089999999
 20
215.179556
 30
0.0
 11
202.4607089999999
 21
217.179556
 31
0.0
  0
LINE
  5
B46E
330
B279
100
AcDbEntity
  8
1
  6
Continuous
100
AcDbLine
 10
201.632282
 20
215.179556
 30
0.0
 11
199.6322819999998
 21
217.179556
 31
0.0
  0
LINE
  5
B46F
330
B279
100
AcDbEntity
  8
1
  6
Continuous
100
AcDbLine
 10
198.8038539999998
 20
215.179556
 30
0.0
 11
196.803854
 21
217.179556
 31
0.0
  0
LINE
  5
B470
330
B279
100
AcDbEntity
  8
1
  6
Continuous
100
AcDbLine
 10
197.632282
 20
215.179556
 30
0.0
 11
199.6322819999998
 21
217.179556
 31
0.0
  0
LINE
  5
B471
330
B279
100
AcDbEntity
  8
1
  6
Continuous
100
AcDbLine
 10
199.0464949999999
 20
215.179556
 30
0.0
 11
201.0464949999999
 21
217.179556
 31
0.0
  0
LINE
  5
B472
330
B279
100
AcDbEntity
  8
1
  6
Continuous
100
AcDbLine
 10
192.9956989999998
 20
226.2178819999999
 30
0.0
 11
192.9956989999998
 21
222.2178819999998
 31
0.0
  0
LINE
  5
B473
330
B279
100
AcDbEntity
  8
1
  6
Continuous
100
AcDbLine
 10
191.975427
 20
215.179556
 30
0.0
 11
193.975427
 21
217.179556
 31
0.0
  0
LINE
  5
B474
330
B279
100
AcDbEntity
  8
1
  6
Continuous
100
AcDbLine
 10
193.147
 20
215.179556
 30
0.0
 11
191.1469999999999
 21
217.179556
 31
0.0
  0
LINE
  5
B475
330
B279
100
AcDbEntity
  8
1
  6
Continuous
100
AcDbLine
 10
187.732787
 20
215.179556
 30
0.0
 11
189.7327869999998
 21
217.179556
 31
0.0
  0
LINE
  5
B476
330
B279
100
AcDbEntity
  8
1
  6
Continuous
100
AcDbLine
 10
190.3185729999999
 20
215.179556
 30
0.0
 11
188.3185729999999
 21
217.179556
 31
0.0
  0
LINE
  5
B477
330
B279
100
AcDbEntity
  8
1
  6
Continuous
100
AcDbLine
 10
189.1469999999999
 20
215.179556
 30
0.0
 11
191.1469999999999
 21
217.179556
 31
0.0
  0
LINE
  5
B478
330
B279
100
AcDbEntity
  8
1
  6
Continuous
100
AcDbLine
 10
190.5612139999998
 20
215.179556
 30
0.0
 11
192.5612139999999
 21
217.179556
 31
0.0
  0
LINE
  5
B479
330
B279
100
AcDbEntity
  8
1
  6
Continuous
100
AcDbLine
 10
193.3896409999999
 20
215.179556
 30
0.0
 11
195.3896409999999
 21
217.179556
 31
0.0
  0
LINE
  5
B47A
330
B279
100
AcDbEntity
  8
1
  6
Continuous
100
AcDbLine
 10
195.9754269999999
 20
215.179556
 30
0.0
 11
193.975427
 21
217.179556
 31
0.0
  0
LINE
  5
B47B
330
B279
100
AcDbEntity
  8
1
  6
Continuous
100
AcDbLine
 10
186.3185729999999
 20
215.179556
 30
0.0
 11
188.3185729999999
 21
217.179556
 31
0.0
  0
LINE
  5
B47C
330
B279
100
AcDbEntity
  8
1
  6
Continuous
100
AcDbLine
 10
196.2180679999999
 20
215.179556
 30
0.0
 11
198.2180679999999
 21
217.179556
 31
0.0
  0
LINE
  5
B47D
330
B279
100
AcDbEntity
  8
1
  6
Continuous
100
AcDbLine
 10
194.8038539999998
 20
215.179556
 30
0.0
 11
196.803854
 21
217.179556
 31
0.0
  0
LINE
  5
B47E
330
B279
100
AcDbEntity
  8
1
  6
Continuous
100
AcDbLine
 10
208.48023
 20
218.7148169999999
 30
0.0
 11
207.66523
 21
218.7148169999999
 31
0.0
  0
LINE
  5
B47F
330
B279
100
AcDbEntity
  8
1
  6
Continuous
100
AcDbLine
 10
207.531777
 20
215.179556
 30
0.0
 11
208.490146
 21
216.1379249999999
 31
0.0
  0
LINE
  5
B480
330
B279
100
AcDbEntity
  8
1
  6
Continuous
100
AcDbLine
 10
208.490146
 20
216.806973
 30
0.0
 11
208.1175629999999
 21
217.179556
 31
0.0
  0
ARC
  5
B481
330
B279
100
AcDbEntity
  8
1
  6
Continuous
100
AcDbCircle
 10
204.878748
 20
220.2650439999999
 30
0.0
 40
4.697225
100
AcDbArc
 50
319.789963
 51
333.713305
  0
LINE
  5
B482
330
B279
100
AcDbEntity
  8
1
  6
Continuous
100
AcDbLine
 10
208.490146
 20
217.179556
 30
0.0
 11
208.490146
 21
215.179556
 31
0.0
  0
LINE
  5
B483
330
B279
100
AcDbEntity
  8
1
  6
Continuous
100
AcDbLine
 10
204.703349
 20
215.179556
 30
0.0
 11
206.703349
 21
217.179556
 31
0.0
  0
LINE
  5
B484
330
B279
100
AcDbEntity
  8
1
  6
Continuous
100
AcDbLine
 10
207.289136
 20
215.179556
 30
0.0
 11
205.289136
 21
217.179556
 31
0.0
  0
LINE
  5
B485
330
B279
100
AcDbEntity
  8
1
  6
Continuous
100
AcDbLine
 10
206.117563
 20
215.179556
 30
0.0
 11
208.1175629999999
 21
217.179556
 31
0.0
  0
ARC
  5
B486
330
B279
100
AcDbEntity
  8
1
  6
Continuous
100
AcDbCircle
 10
208.216259
 20
217.794964
 30
0.0
 40
0.9569799999999998
100
AcDbArc
 50
24.04026499999999
 51
73.98808699999998
  0
LINE
  5
B487
330
B279
100
AcDbEntity
  8
1
  6
Continuous
100
AcDbLine
 10
203.289136
 20
215.179556
 30
0.0
 11
205.289136
 21
217.179556
 31
0.0
  0
LINE
  5
B488
330
B279
100
AcDbEntity
  8
1
  6
Continuous
100
AcDbLine
 10
179.490146
 20
265.2178819999999
 30
0.0
 11
191.490146
 21
265.2178819999999
 31
0.0
  0
LINE
  5
B489
330
B279
100
AcDbEntity
  8
1
  6
Continuous
100
AcDbLine
 10
190.4901459999999
 20
266.2178819999999
 30
0.0
 11
180.490146
 21
266.2178819999999
 31
0.0
  0
LINE
  5
B48A
330
B279
100
AcDbEntity
  8
1
  6
Continuous
100
AcDbLine
 10
179.490146
 20
265.2178819999999
 30
0.0
 11
180.490146
 21
266.2178819999999
 31
0.0
  0
LINE
  5
B48B
330
B279
100
AcDbEntity
  8
1
  6
Continuous
100
AcDbLine
 10
191.490146
 20
265.2178819999999
 30
0.0
 11
190.4901459999999
 21
266.2178819999999
 31
0.0
  0
LINE
  5
B48C
330
B279
100
AcDbEntity
  8
1
  6
Continuous
100
AcDbLine
 10
156.1258379999999
 20
351.5189369999998
 30
0.0
 11
131.5568719999999
 21
351.5189369999998
 31
0.0
  0
LINE
  5
B48D
330
B279
100
AcDbEntity
  8
1
  6
Continuous
100
AcDbLine
 10
156.1258379999999
 20
330.5189369999999
 30
0.0
 11
131.5568719999999
 21
330.5189369999999
 31
0.0
  0
ARC
  5
B48E
330
B279
100
AcDbEntity
  8
1
  6
Continuous
100
AcDbCircle
 10
168.990146
 20
341.0189369999998
 30
0.0
 40
40.0
100
AcDbArc
 50
166.4810919999998
 51
193.518908
  0
ARC
  5
B48F
330
B279
100
AcDbEntity
  8
1
  6
Continuous
100
AcDbCircle
 10
131.5568719999999
 20
332.018937
 30
0.0
 40
1.5
100
AcDbArc
 50
193.518908
 51
270.0
  0
ARC
  5
B490
330
B279
100
AcDbEntity
  8
1
  6
Continuous
100
AcDbCircle
 10
131.5568719999999
 20
350.018937
 30
0.0
 40
1.5
100
AcDbArc
 50
90.0
 51
166.4810919999998
  0
LINE
  5
B491
330
B279
100
AcDbEntity
  8
1
  6
Continuous
100
AcDbLine
 10
157.1319889999998
 20
328.0189369999998
 30
0.0
 11
147.9886639999998
 21
328.0189369999998
 31
0.0
  0
LINE
  5
B492
330
B279
100
AcDbEntity
  8
1
  6
Continuous
100
AcDbLine
 10
147.9886639999998
 20
354.018937
 30
0.0
 11
157.1319889999998
 21
354.018937
 31
0.0
  0
LINE
  5
B493
330
B279
100
AcDbEntity
  8
1
  6
Continuous
100
AcDbLine
 10
158.3654709999999
 20
325.5414099999999
 30
0.0
 11
152.338739
 21
325.6055299999998
 31
0.0
  0
LINE
  5
B494
330
B279
100
AcDbEntity
  8
1
  6
Continuous
100
AcDbLine
 10
157.860059
 20
326.5189369999998
 30
0.0
 11
152.490146
 21
326.5189369999998
 31
0.0
  0
LINE
  5
B495
330
B279
100
AcDbEntity
  8
1
  6
Continuous
100
AcDbLine
 10
144.418294
 20
330.5189369999999
 30
0.0
 11
147.9886639999998
 21
328.0189369999998
 31
0.0
  0
LINE
  5
B496
330
B279
100
AcDbEntity
  8
1
  6
Continuous
100
AcDbLine
 10
150.990146
 20
328.0189369999998
 30
0.0
 11
151.986469
 21
327.0226139999999
 31
0.0
  0
LINE
  5
B497
330
B279
100
AcDbEntity
  8
1
  6
Continuous
100
AcDbLine
 10
156.490146
 20
326.5189369999998
 30
0.0
 11
156.490146
 21
325.5613619999999
 31
0.0
  0
LINE
  5
B498
330
B279
100
AcDbEntity
  8
1
  6
Continuous
100
AcDbLine
 10
164.5663659999998
 20
358.862568
 30
0.0
 11
150.5974219999998
 21
358.713947
 31
0.0
  0
LINE
  5
B499
330
B279
100
AcDbEntity
  8
1
  6
Continuous
100
AcDbLine
 10
158.3654709999999
 20
356.4964639999999
 30
0.0
 11
150.5974219999998
 21
356.413817
 31
0.0
  0
LINE
  5
B49A
330
B279
100
AcDbEntity
  8
1
  6
Continuous
100
AcDbLine
 10
157.860059
 20
355.5189369999998
 30
0.0
 11
152.490146
 21
355.5189369999998
 31
0.0
  0
LINE
  5
B49B
330
B279
100
AcDbEntity
  8
1
  6
Continuous
100
AcDbLine
 10
150.5974219999998
 20
358.713947
 30
0.0
 11
150.5974219999998
 21
356.413817
 31
0.0
  0
LINE
  5
B49C
330
B279
100
AcDbEntity
  8
1
  6
Continuous
100
AcDbLine
 10
144.418294
 20
351.5189369999998
 30
0.0
 11
147.9886639999998
 21
354.018937
 31
0.0
  0
LINE
  5
B49D
330
B279
100
AcDbEntity
  8
1
  6
Continuous
100
AcDbLine
 10
150.990146
 20
354.018937
 30
0.0
 11
152.490146
 21
355.5189369999998
 31
0.0
  0
LINE
  5
B49E
330
B279
100
AcDbEntity
  8
1
  6
Continuous
100
AcDbLine
 10
156.490146
 20
356.476512
 30
0.0
 11
156.490146
 21
355.5189369999998
 31
0.0
  0
ARC
  5
B49F
330
B279
100
AcDbEntity
  8
1
  6
Continuous
100
AcDbCircle
 10
162.154279
 20
104.629305
 30
0.0
 40
20.3
100
AcDbArc
 50
270.6095659999999
 51
303.084016
  0
ARC
  5
B4A0
330
B279
100
AcDbEntity
  8
1
  6
Continuous
100
AcDbCircle
 10
162.154279
 20
32.99133199999999
 30
0.0
 40
20.3
100
AcDbArc
 50
56.915984
 51
89.390434
  0
ARC
  5
B4A1
330
B279
100
AcDbEntity
  8
1
  6
Continuous
100
AcDbCircle
 10
162.154279
 20
32.99133199999999
 30
0.0
 40
18.0
100
AcDbArc
 50
56.915984
 51
89.39043199999996
  0
LINE
  5
B4A2
330
B279
100
AcDbEntity
  8
4
  6
CENTER
100
AcDbLine
 10
160.490146
 20
307.8358279999998
 30
0.0
 11
160.490146
 21
368.8192
 31
0.0
  0
LINE
  5
B4A3
330
B279
100
AcDbEntity
  8
1
  6
Continuous
100
AcDbLine
 10
47.987813
 20
227.389645
 30
0.0
 11
59.987813
 21
227.389645
 31
0.0
  0
LINE
  5
B4A4
330
B279
100
AcDbEntity
  8
2
  6
Continuous
100
AcDbLine
 10
47.987813
 20
226.217846
 30
0.0
 11
48.664351
 21
227.389645
 31
0.0
  0
LINE
  5
B4A5
330
B279
100
AcDbEntity
  8
2
  6
Continuous
100
AcDbLine
 10
59.987813
 20
226.217846
 30
0.0
 11
59.311275
 21
227.389645
 31
0.0
  0
LINE
  5
B4A6
330
B279
100
AcDbEntity
  8
1
  6
Continuous
100
AcDbLine
 10
179.4901079999999
 20
227.389681
 30
0.0
 11
191.4901079999999
 21
227.389681
 31
0.0
  0
LINE
  5
B4A7
330
B279
100
AcDbEntity
  8
2
  6
Continuous
100
AcDbLine
 10
179.4901079999999
 20
226.2178819999999
 30
0.0
 11
180.1666459999999
 21
227.389681
 31
0.0
  0
LINE
  5
B4A8
330
B279
100
AcDbEntity
  8
2
  6
Continuous
100
AcDbLine
 10
191.4901079999999
 20
226.2178819999999
 30
0.0
 11
190.81357
 21
227.389681
 31
0.0
  0
LINE
  5
B4A9
330
B279
100
AcDbEntity
  8
1
  6
Continuous
100
AcDbLine
 10
277.9924029999999
 20
227.389645
 30
0.0
 11
289.9924029999999
 21
227.389645
 31
0.0
  0
LINE
  5
B4AA
330
B279
100
AcDbEntity
  8
2
  6
Continuous
100
AcDbLine
 10
277.9924029999999
 20
226.217846
 30
0.0
 11
278.668941
 21
227.389645
 31
0.0
  0
LINE
  5
B4AB
330
B279
100
AcDbEntity
  8
2
  6
Continuous
100
AcDbLine
 10
289.9924029999999
 20
226.217846
 30
0.0
 11
289.3158649999999
 21
227.389645
 31
0.0
  0
ARC
  5
B4AC
330
B279
100
AcDbEntity
  8
1
  6
Continuous
100
AcDbCircle
 10
163.548435
 20
91.61058099999999
 30
0.0
 40
5.0
100
AcDbArc
 50
269.9999969999999
 51
310.236358
  0
ARC
  5
B4AD
330
B279
100
AcDbEntity
  8
1
  6
Continuous
100
AcDbCircle
 10
184.6046939999999
 20
88.312989
 30
0.0
 40
59.110611
100
AcDbArc
 50
175.5217639999999
 51
185.782634
  0
ARC
  5
B4AE
330
B279
100
AcDbEntity
  8
1
  6
Continuous
100
AcDbCircle
 10
144.263653
 20
83.61058100000002
 30
0.0
 40
5.0
100
AcDbArc
 50
90.00000300000001
 51
136.218875
  0
ARC
  5
B4AF
330
B279
100
AcDbEntity
  8
1
  6
Continuous
100
AcDbCircle
 10
44.85318399999999
 20
92.121796
 30
0.0
 40
95.85849000000001
100
AcDbArc
 50
356.9281329999999
 51
0.019878
  0
ARC
  5
B4B0
330
B279
100
AcDbEntity
  8
1
  6
Continuous
100
AcDbCircle
 10
44.581333
 20
92.121796
 30
0.0
 40
95.85849000000001
100
AcDbArc
 50
356.7491959999999
 51
0.019878
  0
ARC
  5
B4B1
330
B279
100
AcDbEntity
  8
1
  6
Continuous
100
AcDbCircle
 10
167.7913849999999
 20
91.61058099999999
 30
0.0
 40
5.0
100
AcDbArc
 50
269.9999969999999
 51
310.236358
  0
LINE
  5
B4B2
330
B279
100
AcDbEntity
  8
1
  6
Continuous
100
AcDbLine
 10
184.435161
 20
87.44072799999997
 30
0.0
 11
182.669801
 21
90.75077099999999
 31
0.0
  0
LINE
  5
B4B3
330
B279
100
AcDbEntity
  8
1
  6
Continuous
100
AcDbLine
 10
186.158558
 20
87.44071299999998
 30
0.0
 11
188.585932
 21
90.75077099999999
 31
0.0
  0
LINE
  5
B4B4
330
B279
100
AcDbEntity
  8
1
  6
Continuous
100
AcDbLine
 10
185.53853
 20
87.44072799999997
 30
0.0
 11
187.9659039999999
 21
90.750779
 31
0.0
  0
LINE
  5
B4B5
330
B279
100
AcDbEntity
  8
1
  6
Continuous
100
AcDbLine
 10
142.9834549999999
 20
86.61058100000003
 30
0.0
 11
167.7913849999999
 21
86.61058100000003
 31
0.0
  0
LINE
  5
B4B6
330
B279
100
AcDbEntity
  8
1
  6
Continuous
100
AcDbLine
 10
127.250919
 20
81.04129099999999
 30
0.0
 11
139.909809
 21
81.04129099999999
 31
0.0
  0
ARC
  5
B4B7
330
B279
100
AcDbEntity
  8
1
  6
Continuous
100
AcDbCircle
 10
135.5125689999999
 20
86.04129099999999
 30
0.0
 40
5.0
100
AcDbArc
 50
269.9999969999999
 51
316.218873
  0
LINE
  5
B4B8
330
B279
100
AcDbEntity
  8
1
  6
Continuous
100
AcDbLine
 10
140.6537109999999
 20
87.070115
 30
0.0
 11
136.792753
 21
83.041291
 31
0.0
  0
LINE
  5
B4B9
330
B279
100
AcDbEntity
  8
1
  6
Continuous
100
AcDbLine
 10
129.2509189999998
 20
83.041291
 30
0.0
 11
136.7927589999999
 21
83.041291
 31
0.0
  0
ARC
  5
B4BA
330
B279
100
AcDbEntity
  8
1
  6
Continuous
100
AcDbCircle
 10
129.2509189999998
 20
81.04129099999999
 30
0.0
 40
2.0
100
AcDbArc
 50
90.00000300000001
 51
180.000005
  0
ARC
  5
B4BB
330
B279
100
AcDbEntity
  8
1
  6
Continuous
100
AcDbCircle
 10
127.250919
 20
82.50477700000002
 30
0.0
 40
1.463484999999999
100
AcDbArc
 50
185.7826379999999
 51
269.9999969999999
  0
ARC
  5
B4BC
330
B279
100
AcDbEntity
  8
1
  6
Continuous
100
AcDbCircle
 10
139.909809
 20
86.04129099999999
 30
0.0
 40
5.0
100
AcDbArc
 50
269.9999969999999
 51
316.218873
  0
LINE
  5
B4BD
330
B279
100
AcDbEntity
  8
1
  6
Continuous
100
AcDbLine
 10
147.3099249999999
 20
82.806641
 30
0.0
 11
151.986469
 21
82.806641
 31
0.0
  0
LINE
  5
B4BE
330
B279
100
AcDbEntity
  8
1
  6
Continuous
100
AcDbLine
 10
148.0497419999998
 20
86.61057300000001
 30
0.0
 11
148.76298
 21
82.806641
 31
0.0
  0
LINE
  5
B4BF
330
B279
100
AcDbEntity
  8
1
  6
Continuous
100
AcDbLine
 10
142.9834539999999
 20
86.61058100000003
 30
0.0
 11
139.1225029999999
 21
82.58176500000002
 31
0.0
  0
LINE
  5
B4C0
330
B279
100
AcDbEntity
  8
1
  6
Continuous
100
AcDbLine
 10
147.3807009999999
 20
86.61058100000003
 30
0.0
 11
143.5197499999999
 21
82.58176500000002
 31
0.0
  0
LINE
  5
B4C1
330
B279
100
AcDbEntity
  8
1
  6
Continuous
100
AcDbLine
 10
146.724983
 20
85.926354
 30
0.0
 11
147.309931
 21
82.80663399999998
 31
0.0
  0
LINE
  5
B4C2
330
B279
100
AcDbEntity
  8
1
  6
Continuous
100
AcDbLine
 10
152.338736
 20
84.22372499999999
 30
0.0
 11
152.093009
 21
82.91318100000003
 31
0.0
  0
LINE
  5
B4C3
330
B279
100
AcDbEntity
  8
1
  6
Continuous
100
AcDbLine
 10
186.1585499999999
 20
87.44072
 30
0.0
 11
184.435169
 21
87.44072
 31
0.0
  0
LINE
  5
B4C4
330
B279
100
AcDbEntity
  8
1
  6
Continuous
100
AcDbLine
 10
144.263653
 20
88.61058100000002
 30
0.0
 11
164.6473649999998
 21
88.61058100000002
 31
0.0
  0
LINE
  5
B4C5
330
B279
100
AcDbEntity
  8
1
  6
Continuous
100
AcDbLine
 10
144.263652
 20
321.218674
 30
0.0
 11
168.890308
 21
321.218674
 31
0.0
  0
LINE
  5
B4C6
330
B279
100
AcDbEntity
  8
1
  6
Continuous
100
AcDbLine
 10
148.762981
 20
327.0226139999999
 30
0.0
 11
152.073032
 21
327.0226139999999
 31
0.0
  0
LINE
  5
B4C7
330
B279
100
AcDbEntity
  8
1
  6
Continuous
100
AcDbLine
 10
75.05826
 20
164.2601559999999
 30
0.0
 11
73.52822399999998
 21
164.460687
 31
0.0
  0
ARC
  5
B4C8
330
B279
100
AcDbEntity
  8
1
  6
Continuous
100
AcDbCircle
 10
74.78811399999997
 20
166.209085
 30
0.0
 40
1.0
100
AcDbArc
 50
179.999997
 51
245.4705209999999
  0
LINE
  5
B4C9
330
B279
100
AcDbEntity
  8
1
  6
Continuous
100
AcDbLine
 10
68.21882399999998
 20
192.9900909999999
 30
0.0
 11
80.219175
 21
192.9900909999999
 31
0.0
  0
LINE
  5
B4CA
330
B279
100
AcDbEntity
  8
1
  6
Continuous
100
AcDbLine
 10
69.019041
 20
188.057748
 30
0.0
 11
80.219175
 21
188.057748
 31
0.0
  0
LINE
  5
B4CB
330
B279
100
AcDbEntity
  8
1
  6
Continuous
100
AcDbLine
 10
68.21882399999998
 20
191.0083399999998
 30
0.0
 11
80.219175
 21
191.0083399999998
 31
0.0
  0
LINE
  5
B4CC
330
B279
100
AcDbEntity
  8
1
  6
Continuous
100
AcDbLine
 10
73.78811399999998
 20
185.323755
 30
0.0
 11
73.78811399999998
 21
166.209085
 31
0.0
  0
LINE
  5
B4CD
330
B279
100
AcDbEntity
  8
1
  6
Continuous
100
AcDbLine
 10
66.218824
 20
175.8254479999999
 30
0.0
 11
66.218824
 21
190.9900909999999
 31
0.0
  0
LINE
  5
B4CE
330
B279
100
AcDbEntity
  8
1
  6
Continuous
100
AcDbLine
 10
68.21882399999998
 20
175.170511
 30
0.0
 11
68.21882399999998
 21
191.0083399999998
 31
0.0
  0
ARC
  5
B4CF
330
B279
100
AcDbEntity
  8
1
  6
Continuous
100
AcDbCircle
 10
73.78811399999998
 20
166.4437189999999
 30
0.0
 40
2.0
100
AcDbArc
 50
179.999997
 51
262.5335079999999
  0
ARC
  5
B4D0
330
B279
100
AcDbEntity
  8
1
  6
Continuous
100
AcDbCircle
 10
72.78811399999998
 20
172.087655
 30
0.0
 40
1.0
100
AcDbArc
 50
0.000003
 51
66.44556500000001
  0
ARC
  5
B4D1
330
B279
100
AcDbEntity
  8
1
  6
Continuous
100
AcDbCircle
 10
67.218824
 20
175.8254479999999
 30
0.0
 40
1.0
100
AcDbArc
 50
179.999997
 51
246.445558
  0
LINE
  5
B4D2
330
B279
100
AcDbEntity
  8
1
  6
Continuous
100
AcDbLine
 10
66.218824
 20
176.7561889999998
 30
0.0
 11
68.21882399999998
 21
176.7561889999998
 31
0.0
  0
LINE
  5
B4D3
330
B279
100
AcDbEntity
  8
1
  6
Continuous
100
AcDbLine
 10
68.21883099999999
 20
175.1704949999999
 30
0.0
 11
73.187742
 21
173.004343
 31
0.0
  0
LINE
  5
B4D4
330
B279
100
AcDbEntity
  8
1
  6
Continuous
100
AcDbLine
 10
66.819202
 20
174.9087769999999
 30
0.0
 11
71.78811299999998
 21
172.7426089999999
 31
0.0
  0
LINE
  5
B4D5
330
B279
100
AcDbEntity
  8
1
  6
Continuous
100
AcDbLine
 10
71.78811399999998
 20
172.7426089999999
 30
0.0
 11
71.78811399999998
 21
166.6767969999999
 31
0.0
  0
LINE
  5
B4D6
330
B279
100
AcDbEntity
  8
1
  6
Continuous
100
AcDbLine
 10
71.78811399999998
 20
172.7426089999999
 30
0.0
 11
71.78811399999998
 21
166.4437189999999
 31
0.0
  0
ARC
  5
B4D7
330
B279
100
AcDbEntity
  8
1
  6
Continuous
100
AcDbCircle
 10
72.78811399999998
 20
185.323755
 30
0.0
 40
1.0
100
AcDbArc
 50
0.000003
 51
66.44556500000001
  0
LINE
  5
B4D8
330
B279
100
AcDbEntity
  8
1
  6
Continuous
100
AcDbLine
 10
73.78811399999998
 20
185.173318
 30
0.0
 11
73.78811399999998
 21
182.498743
 31
0.0
  0
ARC
  5
B4D9
330
B279
100
AcDbEntity
  8
1
  6
Continuous
100
AcDbCircle
 10
68.21882399999998
 20
190.9900909999999
 30
0.0
 40
2.0
100
AcDbArc
 50
90.00000500000002
 51
180.0000009999999
  0
LINE
  5
B4DA
330
B279
100
AcDbEntity
  8
1
  6
Continuous
100
AcDbLine
 10
68.24027700000001
 20
188.3972259999999
 30
0.0
 11
73.18773199999998
 21
186.2404109999999
 31
0.0
  0
LINE
  5
B4DB
330
B279
100
AcDbEntity
  8
1
  6
Continuous
100
AcDbLine
 10
75.928312
 20
158.4711699999998
 30
0.0
 11
75.928312
 21
163.2686249999999
 31
0.0
  0
LINE
  5
B4DC
330
B279
100
AcDbEntity
  8
1
  6
Continuous
100
AcDbLine
 10
77.92831200000001
 20
158.4711699999998
 30
0.0
 11
77.92831200000001
 21
168.7895789999998
 31
0.0
  0
LINE
  5
B4DD
330
B279
100
AcDbEntity
  8
1
  6
Continuous
100
AcDbLine
 10
75.928312
 20
158.4711699999998
 30
0.0
 11
77.92831200000001
 21
158.4711699999998
 31
0.0
  0
ARC
  5
B4DE
330
B279
100
AcDbEntity
  8
1
  6
Continuous
100
AcDbCircle
 10
132.473003
 20
64.446389
 30
0.0
 40
31.59524499999999
100
AcDbArc
 50
79.824394
 51
97.448098
  0
ARC
  5
B4DF
330
B279
100
AcDbEntity
  8
1
  6
Continuous
100
AcDbCircle
 10
128.78133
 20
92.68505899999999
 30
0.0
 40
3.116303999999998
100
AcDbArc
 50
97.448098
 51
175.5217639999999
  0
ARC
  5
B4E0
330
B279
100
AcDbEntity
  8
1
  6
Continuous
100
AcDbCircle
 10
137.2666509999999
 20
92.15386999999996
 30
0.0
 40
3.444999999999998
100
AcDbArc
 50
0.019878
 51
79.824394
  0
ARC
  5
B4E1
330
B279
100
AcDbEntity
  8
1
  6
Continuous
100
AcDbCircle
 10
136.9948159999998
 20
92.15386999999996
 30
0.0
 40
3.444999999999998
100
AcDbArc
 50
0.019878
 51
79.824394
  0
LINE
  5
B4E2
330
B279
100
AcDbEntity
  8
1
  6
Continuous
100
AcDbLine
 10
78.428312
 20
182.6459859999999
 30
0.0
 11
78.428312
 21
182.8155909999999
 31
0.0
  0
LINE
  5
B4E3
330
B279
100
AcDbEntity
  8
1
  6
Continuous
100
AcDbLine
 10
76.44150500000002
 20
183.0449769999999
 30
0.0
 11
76.39544100000001
 21
182.6459859999999
 31
0.0
  0
LINE
  5
B4E4
330
B279
100
AcDbEntity
  8
1
  6
Continuous
100
AcDbLine
 10
78.428314
 20
182.8155909999999
 30
0.0
 11
78.408022
 21
182.6459859999999
 31
0.0
  0
ARC
  5
B4E5
330
B279
100
AcDbEntity
  8
1
  6
Continuous
100
AcDbCircle
 10
89.92831200000003
 20
162.583108
 30
0.0
 40
1.0
100
AcDbArc
 50
269.9999969999999
 51
0.000003
  0
ARC
  5
B4E6
330
B279
100
AcDbEntity
  8
1
  6
Continuous
100
AcDbCircle
 10
89.92831200000003
 20
169.299112
 30
0.0
 40
1.0
100
AcDbArc
 50
0.000003
 51
90.00000500000002
  0
ARC
  5
B4E7
330
B279
100
AcDbEntity
  8
1
  6
Continuous
100
AcDbCircle
 10
89.92831200000003
 20
167.4713219999999
 30
0.0
 40
1.0
100
AcDbArc
 50
0.000003
 51
90.00000500000002
  0
LINE
  5
B4E8
330
B279
100
AcDbEntity
  8
1
  6
Continuous
100
AcDbLine
 10
74.37295699999999
 20
165.299325
 30
0.0
 11
76.758628
 21
164.2106409999998
 31
0.0
  0
ARC
  5
B4E9
330
B279
100
AcDbEntity
  8
1
  6
Continuous
100
AcDbCircle
 10
74.92831200000002
 20
163.2686249999999
 30
0.0
 40
1.0
100
AcDbArc
 50
0.000003
 51
82.53350199999998
  0
ARC
  5
B4EA
330
B279
100
AcDbEntity
  8
1
  6
Continuous
100
AcDbCircle
 10
75.928312
 20
162.3911379999999
 30
0.0
 40
2.0
100
AcDbArc
 50
0.000003
 51
65.47051399999999
  0
LINE
  5
B4EB
330
B279
100
AcDbEntity
  8
1
  6
Continuous
100
AcDbLine
 10
77.92831200000001
 20
161.583108
 30
0.0
 11
89.92831200000003
 21
161.583108
 31
0.0
  0
LINE
  5
B4EC
330
B279
100
AcDbEntity
  8
1
  6
Continuous
100
AcDbLine
 10
77.92831200000001
 20
168.4713219999999
 30
0.0
 11
89.92831200000003
 21
168.4713219999999
 31
0.0
  0
LINE
  5
B4ED
330
B279
100
AcDbEntity
  8
1
  6
Continuous
100
AcDbLine
 10
80.28811399999998
 20
170.299112
 30
0.0
 11
89.92831200000003
 21
170.299112
 31
0.0
  0
LINE
  5
B4EE
330
B279
100
AcDbEntity
  8
1
  6
Continuous
100
AcDbLine
 10
90.928312
 20
162.583108
 30
0.0
 11
90.928312
 21
169.299112
 31
0.0
  0
LINE
  5
B4EF
330
B279
100
AcDbEntity
  8
1
  6
Continuous
100
AcDbLine
 10
76.44150500000002
 20
183.0449769999999
 30
0.0
 11
78.428306
 21
182.8155909999999
 31
0.0
  0
LINE
  5
B4F0
330
B279
100
AcDbEntity
  8
1
  6
Continuous
100
AcDbLine
 10
81.219175
 20
189.057748
 30
0.0
 11
81.219175
 21
191.9900909999999
 31
0.0
  0
ARC
  5
B4F1
330
B279
100
AcDbEntity
  8
1
  6
Continuous
100
AcDbCircle
 10
80.219175
 20
190.0083399999998
 30
0.0
 40
1.0
100
AcDbArc
 50
0.000003
 51
90.00000500000002
  0
ARC
  5
B4F2
330
B279
100
AcDbEntity
  8
1
  6
Continuous
100
AcDbCircle
 10
80.219175
 20
191.9900909999999
 30
0.0
 40
1.0
100
AcDbArc
 50
0.000003
 51
90.00000500000002
  0
ARC
  5
B4F3
330
B279
100
AcDbEntity
  8
1
  6
Continuous
100
AcDbCircle
 10
80.219175
 20
189.057748
 30
0.0
 40
1.0
100
AcDbArc
 50
269.9999969999999
 51
0.000003
  0
ARC
  5
B4F4
330
B279
100
AcDbEntity
  8
1
  6
Continuous
100
AcDbCircle
 10
184.6046929999999
 20
321.5162669999999
 30
0.0
 40
59.110611
100
AcDbArc
 50
174.217362
 51
184.478232
  0
ARC
  5
B4F5
330
B279
100
AcDbEntity
  8
1
  6
Continuous
100
AcDbCircle
 10
184.876529
 20
321.5162669999999
 30
0.0
 40
59.110611
100
AcDbArc
 50
174.217362
 51
184.478232
  0
ARC
  5
B4F6
330
B279
100
AcDbEntity
  8
1
  6
Continuous
100
AcDbCircle
 10
44.85318099999999
 20
317.7074589999999
 30
0.0
 40
95.85849000000001
100
AcDbArc
 50
359.980122
 51
5.435683
  0
ARC
  5
B4F7
330
B279
100
AcDbEntity
  8
1
  6
Continuous
100
AcDbCircle
 10
132.473003
 20
345.382859
 30
0.0
 40
31.59524499999999
100
AcDbArc
 50
262.551902
 51
280.175606
  0
ARC
  5
B4F8
330
B279
100
AcDbEntity
  8
1
  6
Continuous
100
AcDbCircle
 10
129.053166
 20
317.144211
 30
0.0
 40
3.116303999999998
100
AcDbArc
 50
184.478236
 51
262.551902
  0
ARC
  5
B4F9
330
B279
100
AcDbEntity
  8
1
  6
Continuous
100
AcDbCircle
 10
128.7813309999999
 20
317.144211
 30
0.0
 40
3.116303999999998
100
AcDbArc
 50
184.478236
 51
262.551902
  0
ARC
  5
B4FA
330
B279
100
AcDbEntity
  8
1
  6
Continuous
100
AcDbCircle
 10
137.26665
 20
317.6754
 30
0.0
 40
3.444999999999998
100
AcDbArc
 50
280.175606
 51
359.980122
  0
LINE
  5
B4FB
330
B279
100
AcDbEntity
  8
1
  6
Continuous
100
AcDbLine
 10
127.25092
 20
328.7879649999998
 30
0.0
 11
139.9098079999999
 21
328.7879649999998
 31
0.0
  0
ARC
  5
B4FC
330
B279
100
AcDbEntity
  8
1
  6
Continuous
100
AcDbCircle
 10
127.25092
 20
327.324479
 30
0.0
 40
1.463484999999999
100
AcDbArc
 50
90.00000300000001
 51
174.217362
  0
ARC
  5
B4FD
330
B279
100
AcDbEntity
  8
1
  6
Continuous
100
AcDbCircle
 10
127.522756
 20
327.324479
 30
0.0
 40
1.463484999999999
100
AcDbArc
 50
90.00000300000001
 51
174.217362
  0
ARC
  5
B4FE
330
B279
100
AcDbEntity
  8
1
  6
Continuous
100
AcDbCircle
 10
139.9098079999999
 20
323.7879649999998
 30
0.0
 40
5.0
100
AcDbArc
 50
43.78112699999999
 51
90.00000300000001
  0
ARC
  5
B4FF
330
B279
100
AcDbEntity
  8
1
  6
Continuous
100
AcDbCircle
 10
148.6608929999998
 20
326.218674
 30
0.0
 40
5.0
100
AcDbArc
 50
223.781125
 51
269.9999969999999
  0
LINE
  5
B500
330
B279
100
AcDbEntity
  8
1
  6
Continuous
100
AcDbLine
 10
145.0509539999998
 20
322.759156
 30
0.0
 11
141.189998
 21
326.78798
 31
0.0
  0
LINE
  5
B501
330
B279
100
AcDbEntity
  8
1
  6
Continuous
100
AcDbLine
 10
147.380705
 20
323.218674
 30
0.0
 11
143.5197499999999
 21
327.247498
 31
0.0
  0
ARC
  5
B502
330
B279
100
AcDbEntity
  8
1
  6
Continuous
100
AcDbCircle
 10
144.263652
 20
326.218674
 30
0.0
 40
5.0
100
AcDbArc
 50
222.443419
 51
269.9999969999999
  0
LINE
  5
B503
330
B279
100
AcDbEntity
  8
1
  6
Continuous
100
AcDbLine
 10
140.280604
 20
326.7879649999998
 30
0.0
 11
141.190005
 21
326.7879649999998
 31
0.0
  0
LINE
  5
B504
330
B279
100
AcDbEntity
  8
1
  6
Continuous
100
AcDbLine
 10
147.7907679999999
 20
321.837464
 30
0.0
 11
148.762987
 21
327.022629
 31
0.0
  0
ARC
  5
B505
330
B279
100
AcDbEntity
  8
1
  6
Continuous
100
AcDbCircle
 10
147.299328
 20
321.929612
 30
0.0
 40
0.5
100
AcDbArc
 50
252.388
 51
349.3803450000001
  0
LINE
  5
B506
330
B279
100
AcDbEntity
  8
1
  6
Continuous
100
AcDbLine
 10
147.380703
 20
323.218674
 30
0.0
 11
148.0497479999999
 21
323.218674
 31
0.0
  0
LINE
  5
B507
330
B279
100
AcDbEntity
  8
1
  6
Continuous
100
AcDbLine
 10
171.3718599999999
 20
92.75077900000002
 30
0.0
 11
202.7941929999999
 21
92.75077900000002
 31
0.0
  0
LINE
  5
B508
330
B279
100
AcDbEntity
  8
1
  6
Continuous
100
AcDbLine
 10
170.2729449999999
 20
90.750779
 30
0.0
 11
204.7598869999999
 21
90.750779
 31
0.0
  0
ARC
  5
B509
330
B279
100
AcDbEntity
  8
1
  6
Continuous
100
AcDbCircle
 10
171.3718599999999
 20
87.75077900000002
 30
0.0
 40
5.0
100
AcDbArc
 50
90.00000300000001
 51
130.236353
  0
LINE
  5
B50A
330
B279
100
AcDbEntity
  8
1
  6
Continuous
100
AcDbLine
 10
170.2729439999998
 20
90.75077099999999
 30
0.0
 11
166.7781479999999
 21
87.79364099999998
 31
0.0
  0
LINE
  5
B50B
330
B279
100
AcDbEntity
  8
1
  6
Continuous
100
AcDbLine
 10
168.1421459999999
 20
91.567696
 30
0.0
 11
164.6473609999999
 21
88.610573
 31
0.0
  0
LINE
  5
B50C
330
B279
100
AcDbEntity
  8
1
  6
Continuous
100
AcDbLine
 10
173.9249759999999
 20
90.25077900000002
 30
0.0
 11
182.9364659999999
 21
90.25077900000002
 31
0.0
  0
LINE
  5
B50D
330
B279
100
AcDbEntity
  8
1
  6
Continuous
100
AcDbLine
 10
174.5158889999999
 20
90.750779
 30
0.0
 11
171.0210959999998
 21
87.79364800000001
 31
0.0
  0
ARC
  5
B50E
330
B279
100
AcDbEntity
  8
1
  6
Continuous
100
AcDbCircle
 10
198.299652
 20
80.16504000000002
 30
0.0
 40
25.585737
100
AcDbArc
 50
81.893647
 51
98.30342900000005
  0
ARC
  5
B50F
330
B279
100
AcDbEntity
  8
1
  6
Continuous
100
AcDbCircle
 10
194.98016
 20
102.9098209999998
 30
0.0
 40
2.6
100
AcDbArc
 50
98.30342900000005
 51
155.497958
  0
LINE
  5
B510
330
B279
100
AcDbEntity
  8
1
  6
Continuous
100
AcDbLine
 10
191.90642
 20
100.9154979999999
 30
0.0
 11
191.7004259999999
 21
92.750771
 31
0.0
  0
ARC
  5
B511
330
B279
100
AcDbEntity
  8
1
  6
Continuous
100
AcDbCircle
 10
199.792404
 20
100.7165529999999
 30
0.0
 40
7.888494999999998
100
AcDbArc
 50
155.497958
 51
178.554751
  0
ARC
  5
B512
330
B279
100
AcDbEntity
  8
1
  6
Continuous
100
AcDbCircle
 10
201.712681
 20
101.9879769999999
 30
0.0
 40
3.542552999999998
100
AcDbArc
 50
9.463780999999999
 51
81.893647
  0
ARC
  5
B513
330
B279
100
AcDbEntity
  8
1
  6
Continuous
100
AcDbCircle
 10
201.407982
 20
101.9879769999999
 30
0.0
 40
3.542552999999998
100
AcDbArc
 50
9.463780999999999
 51
81.893647
  0
ARC
  5
B514
330
B279
100
AcDbEntity
  8
1
  6
Continuous
100
AcDbCircle
 10
176.2698629999999
 20
97.74684200000001
 30
0.0
 40
29.336432
100
AcDbArc
 50
346.203344
 51
9.463780999999999
  0
ARC
  5
B515
330
B279
100
AcDbEntity
  8
1
  6
Continuous
100
AcDbCircle
 10
202.7941929999999
 20
90.750779
 30
0.0
 40
2.0
100
AcDbArc
 50
0.0
 51
90.00000300000001
  0
ARC
  5
B516
330
B279
100
AcDbEntity
  8
1
  6
Continuous
100
AcDbCircle
 10
175.965168
 20
97.74684200000001
 30
0.0
 40
29.336432
100
AcDbArc
 50
347.768027
 51
9.463780999999999
  0
LINE
  5
B517
330
B279
100
AcDbEntity
  8
1
  6
Continuous
100
AcDbLine
 10
259.278636
 20
188.057748
 30
0.0
 11
257.5911199999999
 21
188.057748
 31
0.0
  0
LINE
  5
B518
330
B279
100
AcDbEntity
  8
1
  6
Continuous
100
AcDbLine
 10
259.3173109999999
 20
192.9900909999999
 30
0.0
 11
257.5911199999999
 21
192.9900909999999
 31
0.0
  0
LINE
  5
B519
330
B279
100
AcDbEntity
  8
1
  6
Continuous
100
AcDbLine
 10
259.2443139999999
 20
190.039499
 30
0.0
 11
257.5911199999999
 21
190.039499
 31
0.0
  0
LINE
  5
B51A
330
B279
100
AcDbEntity
  8
1
  6
Continuous
100
AcDbLine
 10
259.881983
 20
170.299112
 30
0.0
 11
247.8819829999999
 21
170.299112
 31
0.0
  0
LINE
  5
B51B
330
B279
100
AcDbEntity
  8
1
  6
Continuous
100
AcDbLine
 10
259.881983
 20
163.4108819999999
 30
0.0
 11
247.8819829999999
 21
163.4108819999999
 31
0.0
  0
LINE
  5
B51C
330
B279
100
AcDbEntity
  8
1
  6
Continuous
100
AcDbLine
 10
259.881983
 20
161.583108
 30
0.0
 11
247.8819829999999
 21
161.583108
 31
0.0
  0
ARC
  5
B51D
330
B279
100
AcDbEntity
  8
1
  6
Continuous
100
AcDbCircle
 10
247.8819829999999
 20
169.299112
 30
0.0
 40
1.0
100
AcDbArc
 50
90.00000300000001
 51
180.0000029999999
  0
ARC
  5
B51E
330
B279
100
AcDbEntity
  8
1
  6
Continuous
100
AcDbCircle
 10
247.8819829999999
 20
164.4108819999999
 30
0.0
 40
1.0
100
AcDbArc
 50
180.0000029999999
 51
269.999991
  0
ARC
  5
B51F
330
B279
100
AcDbEntity
  8
1
  6
Continuous
100
AcDbCircle
 10
247.8819829999999
 20
162.583108
 30
0.0
 40
1.0
100
AcDbArc
 50
180.0000029999999
 51
269.999991
  0
LINE
  5
B520
330
B279
100
AcDbEntity
  8
1
  6
Continuous
100
AcDbLine
 10
246.881983
 20
162.583108
 30
0.0
 11
246.881983
 21
169.299112
 31
0.0
  0
LINE
  5
B521
330
B279
100
AcDbEntity
  8
1
  6
Continuous
100
AcDbLine
 10
256.5911199999999
 20
189.057748
 30
0.0
 11
256.5911199999999
 21
191.9900909999999
 31
0.0
  0
ARC
  5
B522
330
B279
100
AcDbEntity
  8
1
  6
Continuous
100
AcDbCircle
 10
257.5911199999999
 20
191.9900909999999
 30
0.0
 40
1.0
100
AcDbArc
 50
90.00000300000001
 51
180.0000029999999
  0
ARC
  5
B523
330
B279
100
AcDbEntity
  8
1
  6
Continuous
100
AcDbCircle
 10
257.5911199999999
 20
191.039499
 30
0.0
 40
1.0
100
AcDbArc
 50
180.0000029999999
 51
269.999991
  0
ARC
  5
B524
330
B279
100
AcDbEntity
  8
1
  6
Continuous
100
AcDbCircle
 10
257.5911199999999
 20
189.057748
 30
0.0
 40
1.0
100
AcDbArc
 50
180.0000029999999
 51
269.999991
  0
LINE
  5
B525
330
B279
100
AcDbEntity
  8
1
  6
Continuous
100
AcDbLine
 10
259.381983
 20
180.836648
 30
0.0
 11
259.881983
 21
176.5058229999999
 31
0.0
  0
LINE
  5
B526
330
B279
100
AcDbEntity
  8
1
  6
Continuous
100
AcDbLine
 10
261.733715
 20
177.905137
 30
0.0
 11
261.895268
 21
176.5058379999999
 31
0.0
  0
LINE
  5
B527
330
B279
100
AcDbEntity
  8
1
  6
Continuous
100
AcDbLine
 10
266.0221809999999
 20
170.0488029999999
 30
0.0
 11
266.0221809999999
 21
166.6767969999999
 31
0.0
  0
LINE
  5
B528
330
B279
100
AcDbEntity
  8
1
  6
Continuous
100
AcDbLine
 10
261.881983
 20
173.4989709999999
 30
0.0
 11
259.881983
 21
173.4989709999999
 31
0.0
  0
ARC
  5
B529
330
B279
100
AcDbEntity
  8
1
  6
Continuous
100
AcDbCircle
 10
260.8819829999998
 20
171.545129
 30
0.0
 40
1.0
100
AcDbArc
 50
82.11423499999998
 51
180.0000029999999
  0
ARC
  5
B52A
330
B279
100
AcDbEntity
  8
1
  6
Continuous
100
AcDbCircle
 10
259.881983
 20
168.299112
 30
0.0
 40
2.0
100
AcDbArc
 50
359.999997
 51
90.00000300000001
  0
LINE
  5
B52B
330
B279
100
AcDbEntity
  8
1
  6
Continuous
100
AcDbLine
 10
265.192042
 20
168.972406
 30
0.0
 11
265.192042
 21
171.9576959999999
 31
0.0
  0
LINE
  5
B52C
330
B279
100
AcDbEntity
  8
1
  6
Continuous
100
AcDbLine
 10
261.019182
 20
172.535684
 30
0.0
 11
265.192042
 21
171.9577119999999
 31
0.0
  0
LINE
  5
B52D
330
B279
100
AcDbEntity
  8
1
  6
Continuous
100
AcDbLine
 10
265.192043
 20
170.4867189999999
 30
0.0
 11
261.6075859999999
 21
169.9902429999999
 31
0.0
  0
LINE
  5
B52E
330
B279
100
AcDbEntity
  8
1
  6
Continuous
100
AcDbLine
 10
265.192041
 20
168.972406
 30
0.0
 11
261.8133849999999
 21
168.504434
 31
0.0
  0
LINE
  5
B52F
330
B279
100
AcDbEntity
  8
1
  6
Continuous
100
AcDbLine
 10
259.881983
 20
170.299112
 30
0.0
 11
259.881983
 21
176.5058229999999
 31
0.0
  0
LINE
  5
B530
330
B279
100
AcDbEntity
  8
1
  6
Continuous
100
AcDbLine
 10
261.881983
 20
172.416162
 30
0.0
 11
261.881983
 21
177.5819579999999
 31
0.0
  0
LINE
  5
B531
330
B279
100
AcDbEntity
  8
1
  6
Continuous
100
AcDbLine
 10
261.881983
 20
158.4711849999999
 30
0.0
 11
259.881983
 21
158.4711849999999
 31
0.0
  0
LINE
  5
B532
330
B279
100
AcDbEntity
  8
1
  6
Continuous
100
AcDbLine
 10
259.881983
 20
158.4711849999999
 30
0.0
 11
259.881983
 21
161.583108
 31
0.0
  0
ARC
  5
B533
330
B279
100
AcDbEntity
  8
1
  6
Continuous
100
AcDbCircle
 10
259.881983
 20
161.410882
 30
0.0
 40
2.0
100
AcDbArc
 50
359.999997
 51
90.00000300000001
  0
LINE
  5
B534
330
B279
100
AcDbEntity
  8
1
  6
Continuous
100
AcDbLine
 10
261.8819889999999
 20
163.430475
 30
0.0
 11
264.8879229999999
 21
164.87388
 31
0.0
  0
LINE
  5
B535
330
B279
100
AcDbEntity
  8
1
  6
Continuous
100
AcDbLine
 10
261.881983
 20
158.4711849999999
 30
0.0
 11
261.881983
 21
168.5139249999998
 31
0.0
  0
ARC
  5
B536
330
B279
100
AcDbEntity
  8
1
  6
Continuous
100
AcDbCircle
 10
264.0221809999999
 20
166.6767969999999
 30
0.0
 40
2.0
100
AcDbArc
 50
295.64965
 51
359.999997
  0
LINE
  5
B537
330
B279
100
AcDbEntity
  8
1
  6
Continuous
100
AcDbLine
 10
260.0256729999999
 20
182.889903
 30
0.0
 11
259.381985
 21
182.8155909999999
 31
0.0
  0
LINE
  5
B538
330
B279
100
AcDbEntity
  8
1
  6
Continuous
100
AcDbLine
 10
260.559927
 20
180.9726379999999
 30
0.0
 11
259.381983
 21
180.836648
 31
0.0
  0
LINE
  5
B539
330
B279
100
AcDbEntity
  8
1
  6
Continuous
100
AcDbLine
 10
259.381983
 20
180.836633
 30
0.0
 11
259.381983
 21
182.8155909999999
 31
0.0
  0
LINE
  5
B53A
330
B279
100
AcDbEntity
  8
1
  6
Continuous
100
AcDbLine
 10
172.3850939999999
 20
318.261552
 30
0.0
 11
168.8903029999998
 21
321.218674
 31
0.0
  0
LINE
  5
B53B
330
B279
100
AcDbEntity
  8
1
  6
Continuous
100
AcDbLine
 10
168.1421459999999
 20
318.261552
 30
0.0
 11
166.490146
 21
319.6594039999999
 31
0.0
  0
LINE
  5
B53C
330
B279
100
AcDbEntity
  8
1
  6
Continuous
100
AcDbLine
 10
175.6148109999998
 20
316.578477
 30
0.0
 11
181.5880449999999
 21
316.578477
 31
0.0
  0
LINE
  5
B53D
330
B279
100
AcDbEntity
  8
1
  6
Continuous
100
AcDbLine
 10
176.614811
 20
317.915021
 30
0.0
 11
176.614811
 21
316.578477
 31
0.0
  0
LINE
  5
B53E
330
B279
100
AcDbEntity
  8
1
  6
Continuous
100
AcDbLine
 10
175.6148109999998
 20
318.324439
 30
0.0
 11
175.6148109999998
 21
316.578477
 31
0.0
  0
ARC
  5
B53F
330
B279
100
AcDbEntity
  8
1
  6
Continuous
100
AcDbCircle
 10
171.371861
 20
322.078477
 30
0.0
 40
5.0
100
AcDbArc
 50
229.763647
 51
269.9999969999999
  0
ARC
  5
B540
330
B279
100
AcDbEntity
  8
1
  6
Continuous
100
AcDbCircle
 10
175.6148109999998
 20
322.078477
 30
0.0
 40
5.0
100
AcDbArc
 50
229.763647
 51
269.9999969999999
  0
LINE
  5
B541
330
B279
100
AcDbEntity
  8
1
  6
Continuous
100
AcDbLine
 10
171.371861
 20
317.078477
 30
0.0
 11
175.6148109999998
 21
317.078477
 31
0.0
  0
ARC
  5
B542
330
B279
100
AcDbEntity
  8
1
  6
Continuous
100
AcDbCircle
 10
198.299653
 20
329.664216
 30
0.0
 40
25.585737
100
AcDbArc
 50
261.696571
 51
280.245834
  0
LINE
  5
B543
330
B279
100
AcDbEntity
  8
1
  6
Continuous
100
AcDbLine
 10
196.943473
 20
319.078477
 30
0.0
 11
204.7598889999999
 21
319.078477
 31
0.0
  0
ARC
  5
B544
330
B279
100
AcDbEntity
  8
1
  6
Continuous
100
AcDbCircle
 10
194.980161
 20
306.9194339999999
 30
0.0
 40
2.6
100
AcDbArc
 50
204.502042
 51
261.696571
  0
ARC
  5
B545
330
B279
100
AcDbEntity
  8
1
  6
Continuous
100
AcDbCircle
 10
195.2848559999999
 20
306.9194339999999
 30
0.0
 40
2.6
100
AcDbArc
 50
204.502042
 51
261.696571
  0
LINE
  5
B546
330
B279
100
AcDbEntity
  8
1
  6
Continuous
100
AcDbLine
 10
191.906425
 20
308.913743
 30
0.0
 11
191.700429
 21
317.078492
 31
0.0
  0
LINE
  5
B547
330
B279
100
AcDbEntity
  8
1
  6
Continuous
100
AcDbLine
 10
192.211124
 20
308.9137579999999
 30
0.0
 11
192.003544
 21
317.1413709999999
 31
0.0
  0
ARC
  5
B548
330
B279
100
AcDbEntity
  8
1
  6
Continuous
100
AcDbCircle
 10
199.792405
 20
309.112717
 30
0.0
 40
7.888494999999998
100
AcDbArc
 50
181.4452489999999
 51
204.502042
  0
ARC
  5
B549
330
B279
100
AcDbEntity
  8
1
  6
Continuous
100
AcDbCircle
 10
200.0971079999999
 20
309.112717
 30
0.0
 40
7.888494999999998
100
AcDbArc
 50
181.4452489999999
 51
204.502042
  0
ARC
  5
B54A
330
B279
100
AcDbEntity
  8
1
  6
Continuous
100
AcDbCircle
 10
201.712682
 20
307.841294
 30
0.0
 40
3.542552999999998
100
AcDbArc
 50
288.7370029999999
 51
350.536219
  0
ARC
  5
B54B
330
B279
100
AcDbEntity
  8
1
  6
Continuous
100
AcDbCircle
 10
176.2698629999999
 20
312.0824289999998
 30
0.0
 40
29.336432
100
AcDbArc
 50
350.536219
 51
13.796656
  0
LINE
  5
B54C
330
B279
100
AcDbEntity
  8
1
  6
Continuous
100
AcDbLine
 10
152.7862739999999
 20
323.218674
 30
0.0
 11
164.556971
 21
323.218674
 31
0.0
  0
LINE
  5
B54D
330
B279
100
AcDbEntity
  8
1
  6
Continuous
100
AcDbLine
 10
153.1612739999999
 20
321.218674
 30
0.0
 11
152.0730359999998
 21
327.0226139999999
 31
0.0
  0
CIRCLE
  5
B54E
330
B279
100
AcDbEntity
  8
2
  6
Continuous
100
AcDbCircle
 10
160.490146
 20
175.717882
 30
0.0
 40
3.3235
  0
CIRCLE
  5
B54F
330
B279
100
AcDbEntity
  8
1
  6
Continuous
100
AcDbCircle
 10
160.490146
 20
175.717882
 30
0.0
 40
4.0
  0
CIRCLE
  5
B550
330
B279
100
AcDbEntity
  8
1
  6
Continuous
100
AcDbCircle
 10
160.490146
 20
175.717882
 30
0.0
 40
6.0
  0
LINE
  5
B551
330
B279
100
AcDbEntity
  8
1
  6
Continuous
100
AcDbLine
 10
166.490146
 20
179.181984
 30
0.0
 11
166.490146
 21
172.253781
 31
0.0
  0
LINE
  5
B552
330
B279
100
AcDbEntity
  8
1
  6
Continuous
100
AcDbLine
 10
154.490146
 20
179.181984
 30
0.0
 11
154.490146
 21
172.253781
 31
0.0
  0
LINE
  5
B553
330
B279
100
AcDbEntity
  8
1
  6
Continuous
100
AcDbLine
 10
160.490146
 20
168.789679
 30
0.0
 11
166.490146
 21
172.253781
 31
0.0
  0
LINE
  5
B554
330
B279
100
AcDbEntity
  8
1
  6
Continuous
100
AcDbLine
 10
160.490146
 20
168.789679
 30
0.0
 11
154.490146
 21
172.253781
 31
0.0
  0
LINE
  5
B555
330
B279
100
AcDbEntity
  8
1
  6
Continuous
100
AcDbLine
 10
166.490146
 20
179.181984
 30
0.0
 11
160.490146
 21
182.646086
 31
0.0
  0
LINE
  5
B556
330
B279
100
AcDbEntity
  8
1
  6
Continuous
100
AcDbLine
 10
154.490146
 20
179.181984
 30
0.0
 11
160.490146
 21
182.646086
 31
0.0
  0
ARC
  5
B557
330
B279
100
AcDbEntity
  8
5
  6
PHANTOM
100
AcDbCircle
 10
184.4499929999998
 20
197.263274
 30
0.0
 40
22.155483
100
AcDbArc
 50
288.1491279999999
 51
328.7024339999998
  0
LINE
  5
B558
330
B279
100
AcDbEntity
  8
5
  6
PHANTOM
100
AcDbLine
 10
163.8972639999998
 20
185.7383379999999
 30
0.0
 11
165.489315
 21
181.316243
 31
0.0
  0
ARC
  5
B559
330
B279
100
AcDbEntity
  8
1
  6
Continuous
100
AcDbCircle
 10
156.9572029999999
 20
165.8756579999999
 30
0.0
 40
20.10314199999999
100
AcDbArc
 50
63.65045099999999
 51
94.23723999999999
  0
LINE
  5
B55A
330
B279
100
AcDbEntity
  8
5
  6
PHANTOM
100
AcDbLine
 10
146.51696
 20
186.562343
 30
0.0
 11
143.4265609999999
 21
173.5902069999999
 31
0.0
  0
LINE
  5
B55B
330
B279
100
AcDbEntity
  8
1
  6
Continuous
100
AcDbLine
 10
139.883157
 20
188.142737
 30
0.0
 11
136.7927589999999
 21
175.170602
 31
0.0
  0
ARC
  5
B55C
330
B279
100
AcDbEntity
  8
1
  6
Continuous
100
AcDbCircle
 10
486.323826
 20
212.8767439999998
 30
0.0
 40
359.841339
100
AcDbArc
 50
184.5489009999998
 51
185.373783
  0
ARC
  5
B55D
330
B279
100
AcDbEntity
  8
5
  6
PHANTOM
100
AcDbCircle
 10
162.923137
 20
165.5477469999999
 30
0.0
 40
20.10314199999999
100
AcDbArc
 50
96.85045
 51
127.437246
  0
LINE
  5
B55E
330
B279
100
AcDbEntity
  8
1
  6
Continuous
100
AcDbLine
 10
165.947109
 20
170.144593
 30
0.0
 11
164.653285
 21
164.7136919999999
 31
0.0
  0
ARC
  5
B55F
330
B279
100
AcDbEntity
  8
5
  6
PHANTOM
100
AcDbCircle
 10
152.296184
 20
204.533858
 30
0.0
 40
39.88799999999999
100
AcDbArc
 50
274.7626409999999
 51
297.811414
  0
ARC
  5
B560
330
B279
100
AcDbEntity
  8
1
  6
Continuous
100
AcDbCircle
 10
169.412304
 20
204.316775
 30
0.0
 40
39.88799999999999
100
AcDbArc
 50
241.562635
 51
264.6114149999998
  0
ARC
  5
B561
330
B279
100
AcDbEntity
  8
1
  6
Continuous
100
AcDbCircle
 10
169.412304
 20
204.316775
 30
0.0
 40
39.88799999999999
100
AcDbArc
 50
241.562635
 51
264.6114149999998
  0
ARC
  5
B562
330
B279
100
AcDbEntity
  8
5
  6
PHANTOM
100
AcDbCircle
 10
133.8026919999998
 20
162.7224379999999
 30
0.0
 40
2.992333999999998
100
AcDbArc
 50
218.5737889999999
 51
295.2233059999999
  0
LINE
  5
B563
330
B279
100
AcDbEntity
  8
5
  6
PHANTOM
100
AcDbLine
 10
123.251053
 20
171.643113
 30
0.0
 11
135.3314049999999
 21
176.5382289999998
 31
0.0
  0
LINE
  5
B564
330
B279
100
AcDbEntity
  8
5
  6
PHANTOM
100
AcDbLine
 10
124.002159
 20
169.789508
 30
0.0
 11
136.0825079999999
 21
174.6846239999999
 31
0.0
  0
ARC
  5
B565
330
B279
100
AcDbEntity
  8
1
  6
Continuous
100
AcDbCircle
 10
124.5596499999999
 20
133.187318
 30
0.0
 40
43.729221
100
AcDbArc
 50
66.534696
 51
82.02330500000002
  0
ARC
  5
B566
330
B279
100
AcDbEntity
  8
5
  6
PHANTOM
100
AcDbCircle
 10
412.789325
 20
385.225644
 30
0.0
 40
359.841339
100
AcDbArc
 50
217.7488929999999
 51
218.5737889999999
  0
ARC
  5
B567
330
B279
100
AcDbEntity
  8
5
  6
PHANTOM
100
AcDbCircle
 10
120.1300079999999
 20
158.633586
 30
0.0
 40
10.28489299999999
100
AcDbArc
 50
37.74889799999999
 51
63.73062400000002
  0
ARC
  5
B568
330
B279
100
AcDbEntity
  8
5
  6
PHANTOM
100
AcDbCircle
 10
124.294254
 20
170.0054869999999
 30
0.0
 40
1.721049999999999
100
AcDbArc
 50
189.9039469999999
 51
208.5966169999999
  0
ARC
  5
B569
330
B279
100
AcDbEntity
  8
5
  6
PHANTOM
100
AcDbCircle
 10
114.8326299999999
 20
168.353495
 30
0.0
 40
7.883719999999997
100
AcDbArc
 50
9.903945
 51
21.744057
  0
ARC
  5
B56A
330
B279
100
AcDbEntity
  8
5
  6
PHANTOM
100
AcDbCircle
 10
128.0907929999999
 20
174.762705
 30
0.0
 40
7.701836
100
AcDbArc
 50
226.438041
 51
243.730632
  0
ARC
  5
B56B
330
B279
100
AcDbEntity
  8
5
  6
PHANTOM
100
AcDbCircle
 10
119.639011
 20
180.557063
 30
0.0
 40
11.617975
100
AcDbArc
 50
285.2903119999999
 51
292.058442
  0
ARC
  5
B56C
330
B279
100
AcDbEntity
  8
5
  6
PHANTOM
100
AcDbCircle
 10
119.639011
 20
180.557063
 30
0.0
 40
9.617974999999999
100
AcDbArc
 50
285.1670679999998
 51
292.058442
  0
ARC
  5
B56D
330
B279
100
AcDbEntity
  8
1
  6
Continuous
100
AcDbCircle
 10
131.043201
 20
179.456828
 30
0.0
 40
2.992333999999998
100
AcDbArc
 50
185.373783
 51
262.0233059999999
  0
ARC
  5
B56E
330
B279
100
AcDbEntity
  8
5
  6
PHANTOM
100
AcDbCircle
 10
153.7129549999999
 20
120.455598
 30
0.0
 40
43.729221
100
AcDbArc
 50
99.734695
 51
115.223311
  0
ARC
  5
B56F
330
B279
100
AcDbEntity
  8
5
  6
PHANTOM
100
AcDbCircle
 10
134.9341239999999
 20
202.106589
 30
0.0
 40
25.939594
100
AcDbArc
 50
301.488693
 51
307.437244
  0
ARC
  5
B570
330
B279
100
AcDbEntity
  8
5
  6
PHANTOM
100
AcDbCircle
 10
158.81126
 20
90.73768300000001
 30
0.0
 40
73.881302
100
AcDbArc
 50
96.160901
 51
99.734695
  0
ARC
  5
B571
330
B279
100
AcDbEntity
  8
1
  6
Continuous
100
AcDbCircle
 10
136.3356819999999
 20
143.238069
 30
0.0
 40
29.571854
100
AcDbArc
 50
61.56264000000001
 51
68.620281
  0
ARC
  5
B572
330
B279
100
AcDbEntity
  8
1
  6
Continuous
100
AcDbCircle
 10
136.3356819999999
 20
143.238069
 30
0.0
 40
29.571854
100
AcDbArc
 50
61.56264000000001
 51
68.620281
  0
LINE
  5
B573
330
B279
100
AcDbEntity
  8
5
  6
PHANTOM
100
AcDbLine
 10
147.884531
 20
180.708212
 30
0.0
 11
148.414197
 21
179.9491459999999
 31
0.0
  0
ARC
  5
B574
330
B279
100
AcDbEntity
  8
5
  6
PHANTOM
100
AcDbCircle
 10
138.782383
 20
176.337252
 30
0.0
 40
10.09724599999999
100
AcDbArc
 50
20.588675
 51
25.650881
  0
ARC
  5
B575
330
B279
100
AcDbEntity
  8
5
  6
PHANTOM
100
AcDbCircle
 10
148.07336
 20
180.655806
 30
0.0
 40
0.784566
100
AcDbArc
 50
281.868045
 51
301.488693
  0
ARC
  5
B576
330
B279
100
AcDbEntity
  8
5
  6
PHANTOM
100
AcDbCircle
 10
147.7733879999999
 20
180.5819729999998
 30
0.0
 40
0.16819
100
AcDbArc
 50
48.638091
 51
87.51543199999996
  0
ARC
  5
B577
330
B279
100
AcDbEntity
  8
5
  6
PHANTOM
100
AcDbCircle
 10
147.7013049999999
 20
178.920695
 30
0.0
 40
1.831034
100
AcDbArc
 50
87.51543199999996
 51
115.9107549999999
  0
LINE
  5
B578
330
B279
100
AcDbEntity
  8
5
  6
PHANTOM
100
AcDbLine
 10
143.4903239999998
 20
178.9767629999998
 30
0.0
 11
143.666616
 21
179.201234
 31
0.0
  0
ARC
  5
B579
330
B279
100
AcDbEntity
  8
5
  6
PHANTOM
100
AcDbCircle
 10
129.100132
 20
226.62605
 30
0.0
 40
50.9091
100
AcDbArc
 50
283.256725
 51
285.6012489999999
  0
ARC
  5
B57A
330
B279
100
AcDbEntity
  8
5
  6
PHANTOM
100
AcDbCircle
 10
150.2009539999999
 20
174.721125
 30
0.0
 40
7.946253999999998
100
AcDbArc
 50
147.6186109999999
 51
159.8025759999998
  0
ARC
  5
B57B
330
B279
100
AcDbEntity
  8
5
  6
PHANTOM
100
AcDbCircle
 10
142.032467
 20
178.3309039999998
 30
0.0
 40
1.120613999999998
100
AcDbArc
 50
269.292772
 51
309.3717279999999
  0
ARC
  5
B57C
330
B279
100
AcDbEntity
  8
5
  6
PHANTOM
100
AcDbCircle
 10
141.955074
 20
172.06177
 30
0.0
 40
5.149
100
AcDbArc
 50
89.292771
 51
102.58145
  0
ARC
  5
B57D
330
B279
100
AcDbEntity
  8
1
  6
Continuous
100
AcDbCircle
 10
140.8677329999999
 20
161.005405
 30
0.0
 40
11.596752
100
AcDbArc
 50
57.398314
 51
62.960902
  0
ARC
  5
B57E
330
B279
100
AcDbEntity
  8
1
  6
Continuous
100
AcDbCircle
 10
140.8677329999999
 20
161.005405
 30
0.0
 40
11.596752
100
AcDbArc
 50
57.398314
 51
66.68448199999999
  0
ARC
  5
B57F
330
B279
100
AcDbEntity
  8
1
  6
Continuous
100
AcDbCircle
 10
112.553287
 20
105.5287749999999
 30
0.0
 40
73.881302
100
AcDbArc
 50
62.960902
 51
66.534696
  0
ARC
  5
B580
330
B279
100
AcDbEntity
  8
1
  6
Continuous
100
AcDbCircle
 10
112.553287
 20
105.5287749999999
 30
0.0
 40
73.881302
100
AcDbArc
 50
62.960902
 51
66.534696
  0
ARC
  5
B581
330
B279
100
AcDbEntity
  8
5
  6
PHANTOM
100
AcDbCircle
 10
127.713657
 20
195.3375989999999
 30
0.0
 40
20.284143
100
AcDbArc
 50
292.058442
 51
294.3486379999999
  0
ARC
  5
B582
330
B279
100
AcDbEntity
  8
5
  6
PHANTOM
100
AcDbCircle
 10
129.942127
 20
225.886495
 30
0.0
 40
50.0
100
AcDbArc
 50
277.500577
 51
282.5814449999999
  0
ARC
  5
B583
330
B279
100
AcDbEntity
  8
5
  6
PHANTOM
100
AcDbCircle
 10
133.274135
 20
174.4205189999999
 30
0.0
 40
3.713918
100
AcDbArc
 50
9.766933999999999
 51
41.011915
  0
LINE
  5
B584
330
B279
100
AcDbEntity
  8
5
  6
PHANTOM
100
AcDbLine
 10
136.4435649999998
 20
174.830926
 30
0.0
 11
140.9606949999998
 21
162.2841159999999
 31
0.0
  0
ARC
  5
B585
330
B279
100
AcDbEntity
  8
5
  6
PHANTOM
100
AcDbCircle
 10
127.713657
 20
195.3375989999999
 30
0.0
 40
22.284143
100
AcDbArc
 50
292.058442
 51
294.4420549999999
  0
LINE
  5
B586
330
B279
100
AcDbEntity
  8
5
  6
PHANTOM
100
AcDbLine
 10
143.666622
 20
179.201236
 30
0.0
 11
147.078304
 21
180.642479
 31
0.0
  0
ARC
  5
B587
330
B279
100
AcDbEntity
  8
5
  6
PHANTOM
100
AcDbCircle
 10
152.126827
 20
152.6624939999998
 30
0.0
 40
11.596752
100
AcDbArc
 50
90.59831300000002
 51
99.88448200000002
  0
ARC
  5
B588
330
B279
100
AcDbEntity
  8
5
  6
PHANTOM
100
AcDbCircle
 10
152.126827
 20
152.662501
 30
0.0
 40
11.596752
100
AcDbArc
 50
90.59831300000002
 51
96.160901
  0
ARC
  5
B589
330
B279
100
AcDbEntity
  8
5
  6
PHANTOM
100
AcDbCircle
 10
158.063305
 20
135.313836
 30
0.0
 40
29.571854
100
AcDbArc
 50
94.76263899999999
 51
101.8202869999998
  0
ARC
  5
B58A
330
B279
100
AcDbEntity
  8
5
  6
PHANTOM
100
AcDbCircle
 10
158.063305
 20
135.313836
 30
0.0
 40
29.571854
100
AcDbArc
 50
94.76263899999999
 51
101.8202869999998
  0
LINE
  5
B58B
330
B279
100
AcDbEntity
  8
1
  6
Continuous
100
AcDbLine
 10
193.196384
 20
169.7850599999999
 30
0.0
 11
204.78524
 21
163.804325
 31
0.0
  0
ARC
  5
B58C
330
B279
100
AcDbEntity
  8
1
  6
Continuous
100
AcDbCircle
 10
192.3363529999998
 20
180.6267649999998
 30
0.0
 40
22.155483
100
AcDbArc
 50
254.949129
 51
295.502435
  0
ARC
  5
B58D
330
B279
100
AcDbEntity
  8
1
  6
Continuous
100
AcDbCircle
 10
-175.6965909999999
 20
-559.236178
 30
0.0
 40
815.039795
100
AcDbArc
 50
62.233521
 51
63.24001099999999
  0
ARC
  5
B58E
330
B279
100
AcDbEntity
  8
1
  6
Continuous
100
AcDbCircle
 10
250.806049
 20
398.0661749999999
 30
0.0
 40
247.318985
100
AcDbArc
 50
252.089534
 51
254.949129
  0
ARC
  5
B58F
330
B279
100
AcDbEntity
  8
1
  6
Continuous
100
AcDbCircle
 10
174.665828
 20
151.0515009999998
 30
0.0
 40
32.51303499999998
100
AcDbArc
 50
73.00248899999998
 51
84.200817
  0
ARC
  5
B590
330
B279
100
AcDbEntity
  8
5
  6
PHANTOM
100
AcDbCircle
 10
114.3135259999999
 20
411.224668
 30
0.0
 40
247.318985
100
AcDbArc
 50
285.2895329999999
 51
288.1491279999999
  0
ARC
  5
B591
330
B279
100
AcDbEntity
  8
1
  6
Continuous
100
AcDbCircle
 10
172.4195209999998
 20
137.6244439999998
 30
0.0
 40
45.539955
100
AcDbArc
 50
74.610855
 51
82.904966
  0
LINE
  5
B592
330
B279
100
AcDbEntity
  8
1
  6
Continuous
100
AcDbLine
 10
174.0526419999999
 20
180.2065759999999
 30
0.0
 11
185.6868399999999
 21
176.9686049999999
 31
0.0
  0
ARC
  5
B593
330
B279
100
AcDbEntity
  8
1
  6
Continuous
100
AcDbCircle
 10
241.197956
 20
93.106488
 30
0.0
 40
110.8852159999998
100
AcDbArc
 50
125.909702
 51
127.904021
  0
ARC
  5
B594
330
B279
100
AcDbEntity
  8
1
  6
Continuous
100
AcDbCircle
 10
170.078853
 20
188.979254
 30
0.0
 40
8.945066
100
AcDbArc
 50
293.152256
 51
310.39931
  0
ARC
  5
B595
330
B279
100
AcDbEntity
  8
1
  6
Continuous
100
AcDbCircle
 10
177.688205
 20
180.8104919999999
 30
0.0
 40
2.600959
100
AcDbArc
 50
84.200817
 51
125.909702
  0
ARC
  5
B596
330
B279
100
AcDbEntity
  8
1
  6
Continuous
100
AcDbCircle
 10
177.697346
 20
180.027331
 30
0.0
 40
2.809866999999998
100
AcDbArc
 50
82.904966
 51
130.3993079999999
  0
ARC
  5
B597
330
B279
100
AcDbEntity
  8
1
  6
Continuous
100
AcDbCircle
 10
167.5816689999998
 20
178.842341
 30
0.0
 40
3.832845999999998
100
AcDbArc
 50
54.46392800000001
 51
65.62292099999999
  0
ARC
  5
B598
330
B279
100
AcDbEntity
  8
1
  6
Continuous
100
AcDbCircle
 10
202.6043739999999
 20
242.7671899999999
 30
0.0
 40
69.05731199999999
100
AcDbArc
 50
241.282856
 51
243.4588039999999
  0
ARC
  5
B599
330
B279
100
AcDbEntity
  8
1
  6
Continuous
100
AcDbCircle
 10
183.460521
 20
201.0740499999998
 30
0.0
 40
23.48722799999999
100
AcDbArc
 50
234.4639229999999
 51
239.2022579999999
  0
ARC
  5
B59A
330
B279
100
AcDbEntity
  8
1
  6
Continuous
100
AcDbCircle
 10
173.9505349999998
 20
185.3997939999999
 30
0.0
 40
4.931963999999998
100
AcDbArc
 50
243.4588039999999
 51
257.9341609999999
  0
ARC
  5
B59B
330
B279
100
AcDbEntity
  8
1
  6
Continuous
100
AcDbCircle
 10
172.6571919999999
 20
182.949667
 30
0.0
 40
2.387342999999999
100
AcDbArc
 50
239.2022579999999
 51
293.152256
  0
ARC
  5
B59C
330
B279
100
AcDbEntity
  8
1
  6
Continuous
100
AcDbCircle
 10
212.7346879999998
 20
278.487546
 30
0.0
 40
105.565331
100
AcDbArc
 50
243.650446
 51
245.6229229999999
  0
ARC
  5
B59D
330
B279
100
AcDbEntity
  8
5
  6
PHANTOM
100
AcDbCircle
 10
190.7411079999999
 20
131.6517729999999
 30
0.0
 40
42.51230200000001
100
AcDbArc
 50
105.289531
 51
117.811419
  0
LINE
  5
B59E
330
B279
100
AcDbEntity
  8
5
  6
PHANTOM
100
AcDbLine
 10
167.910604
 20
174.5908649999998
 30
0.0
 11
169.9992059999999
 21
168.7895519999999
 31
0.0
  0
ARC
  5
B59F
330
B279
100
AcDbEntity
  8
1
  6
Continuous
100
AcDbCircle
 10
161.674091
 20
122.280625
 30
0.0
 40
42.51230200000001
100
AcDbArc
 50
72.08953199999998
 51
84.61141399999998
  0
LINE
  5
B5A0
330
B279
100
AcDbEntity
  8
1
  6
Continuous
100
AcDbLine
 10
168.8279359999999
 20
182.237029
 30
0.0
 11
167.873826
 21
178.232098
 31
0.0
  0
LINE
  5
B5A1
330
B279
100
AcDbEntity
  8
1
  6
Continuous
100
AcDbLine
 10
172.9596569999999
 20
180.5107689999999
 30
0.0
 11
169.061072
 21
164.146226
 31
0.0
  0
ARC
  5
B5A2
330
B279
100
AcDbEntity
  8
1
  6
Continuous
100
AcDbCircle
 10
183.7920109999998
 20
178.942576
 30
0.0
 40
2.685296
100
AcDbArc
 50
44.86038899999999
 51
74.610855
  0
ARC
  5
B5A3
330
B279
100
AcDbEntity
  8
1
  6
Continuous
100
AcDbCircle
 10
193.355907
 20
168.705996
 30
0.0
 40
1.899032
100
AcDbArc
 50
121.577012
 51
148.0066199999999
  0
ARC
  5
B5A4
330
B279
100
AcDbEntity
  8
1
  6
Continuous
100
AcDbCircle
 10
190.134823
 20
168.9232879999998
 30
0.0
 40
1.214896999999999
100
AcDbArc
 50
306.95546
 51
341.7472309999999
  0
ARC
  5
B5A5
330
B279
100
AcDbEntity
  8
1
  6
Continuous
100
AcDbCircle
 10
194.6235619999999
 20
167.9140869999999
 30
0.0
 40
3.393712999999998
100
AcDbArc
 50
148.0066199999999
 51
169.32431
  0
ARC
  5
B5A6
330
B279
100
AcDbEntity
  8
1
  6
Continuous
100
AcDbCircle
 10
195.3437309999999
 20
174.028727
 30
0.0
 40
4.756031
100
AcDbArc
 50
231.1676879999999
 51
243.160079
  0
ARC
  5
B5A7
330
B279
100
AcDbEntity
  8
1
  6
Continuous
100
AcDbCircle
 10
166.33482
 20
180.630919
 30
0.0
 40
19.695513
100
AcDbArc
 50
347.9105839999999
 51
354.5097689999999
  0
ARC
  5
B5A8
330
B279
100
AcDbEntity
  8
1
  6
Continuous
100
AcDbCircle
 10
180.737301
 20
177.194857
 30
0.0
 40
4.760283
100
AcDbArc
 50
349.863987
 51
357.920874
  0
ARC
  5
B5A9
330
B279
100
AcDbEntity
  8
1
  6
Continuous
100
AcDbCircle
 10
189.555172
 20
169.2571889999999
 30
0.0
 40
1.634177
100
AcDbArc
 50
162.3994129999998
 51
233.4456209999999
  0
ARC
  5
B5AA
330
B279
100
AcDbEntity
  8
1
  6
Continuous
100
AcDbCircle
 10
135.5501209999999
 20
141.7854089999999
 30
0.0
 40
59.437527
100
AcDbArc
 50
28.067371
 51
31.332649
  0
ARC
  5
B5AB
330
B279
100
AcDbEntity
  8
1
  6
Continuous
100
AcDbCircle
 10
185.3569369999999
 20
171.900691
 30
0.0
 40
1.246833
100
AcDbArc
 50
39.470396
 51
68.33362499999998
  0
ARC
  5
B5AC
330
B279
100
AcDbEntity
  8
1
  6
Continuous
100
AcDbCircle
 10
198.1847759999999
 20
204.190768
 30
0.0
 40
33.49799
100
AcDbArc
 50
246.3802879999999
 51
248.3336269999998
  0
ARC
  5
B5AD
330
B279
100
AcDbEntity
  8
1
  6
Continuous
100
AcDbCircle
 10
206.9872129999999
 20
168.9811039999999
 30
0.0
 40
22.67846899999998
100
AcDbArc
 50
160.621652
 51
168.508744
  0
ARC
  5
B5AE
330
B279
100
AcDbEntity
  8
1
  6
Continuous
100
AcDbCircle
 10
190.5513799999999
 20
173.667758
 30
0.0
 40
5.790506999999997
100
AcDbArc
 50
152.3258409999999
 51
181.6692899999999
  0
ARC
  5
B5AF
330
B279
100
AcDbEntity
  8
1
  6
Continuous
100
AcDbCircle
 10
189.7181889999998
 20
169.47706
 30
0.0
 40
1.907894999999999
100
AcDbArc
 50
233.445611
 51
306.95546
  0
ARC
  5
B5B0
330
B279
100
AcDbEntity
  8
1
  6
Continuous
100
AcDbCircle
 10
180.968952
 20
179.224329
 30
0.0
 40
4.993939
100
AcDbArc
 50
354.5097689999999
 51
13.35799399999999
  0
ARC
  5
B5B1
330
B279
100
AcDbEntity
  8
1
  6
Continuous
100
AcDbCircle
 10
183.4584999999999
 20
179.815493
 30
0.0
 40
2.435163999999998
100
AcDbArc
 50
13.35799399999999
 51
73.00248899999998
  0
ARC
  5
B5B2
330
B279
100
AcDbEntity
  8
1
  6
Continuous
100
AcDbCircle
 10
202.152645
 20
163.6917439999998
 30
0.0
 40
3.379898999999998
100
AcDbArc
 50
321.402423
 51
342.624456
  0
LINE
  5
B5B3
330
B279
100
AcDbEntity
  8
1
  6
Continuous
100
AcDbLine
 10
204.0051919999999
 20
161.9547719999999
 30
0.0
 11
204.7941929999999
 21
161.5832029999999
 31
0.0
  0
ARC
  5
B5B4
330
B279
100
AcDbEntity
  8
1
  6
Continuous
100
AcDbCircle
 10
197.016739
 20
170.81521
 30
0.0
 40
11.28476
100
AcDbArc
 50
295.502435
 51
308.263745
  0
LINE
  5
B5B5
330
B279
100
AcDbEntity
  8
1
  6
Continuous
100
AcDbLine
 10
205.6062959999999
 20
163.410978
 30
0.0
 11
205.3783109999999
 21
162.682387
 31
0.0
  0
ARC
  5
B5B6
330
B279
100
AcDbEntity
  8
1
  6
Continuous
100
AcDbCircle
 10
210.418091
 20
174.5085929999999
 30
0.0
 40
12.095881
100
AcDbArc
 50
242.2455439999999
 51
246.5590000000001
  0
ARC
  5
B5B7
330
B279
100
AcDbEntity
  8
5
  6
PHANTOM
100
AcDbCircle
 10
159.0160939999998
 20
254.8825499999999
 30
0.0
 40
69.05731199999999
100
AcDbArc
 50
274.4828489999999
 51
276.65881
  0
ARC
  5
B5B8
330
B279
100
AcDbEntity
  8
5
  6
PHANTOM
100
AcDbCircle
 10
165.8268319999999
 20
209.512752
 30
0.0
 40
23.48722799999999
100
AcDbArc
 50
267.663929
 51
272.4022569999998
  0
LINE
  5
B5B9
330
B279
100
AcDbEntity
  8
1
  6
Continuous
100
AcDbLine
 10
127.0986139999999
 20
192.699012
 30
0.0
 11
139.887399
 21
190.180316
 31
0.0
  0
LINE
  5
B5BA
330
B279
100
AcDbEntity
  8
1
  6
Continuous
100
AcDbLine
 10
126.7121469999999
 20
190.7367049999998
 30
0.0
 11
139.500931
 21
188.218011
 31
0.0
  0
ARC
  5
B5BB
330
B279
100
AcDbEntity
  8
1
  6
Continuous
100
AcDbCircle
 10
118.2531009999999
 20
194.556006
 30
0.0
 40
7.883719999999997
100
AcDbArc
 50
336.7039439999999
 51
348.544058
  0
ARC
  5
B5BC
330
B279
100
AcDbEntity
  8
1
  6
Continuous
100
AcDbCircle
 10
128.9571259999999
 20
202.135715
 30
0.0
 40
9.617974999999999
100
AcDbArc
 50
251.9670689999999
 51
258.858436
  0
ARC
  5
B5BD
330
B279
100
AcDbEntity
  8
1
  6
Continuous
100
AcDbCircle
 10
132.856502
 20
192.6593189999999
 30
0.0
 40
7.701836
100
AcDbArc
 50
193.2380489999999
 51
210.530626
  0
ARC
  5
B5BE
330
B279
100
AcDbEntity
  8
1
  6
Continuous
100
AcDbCircle
 10
117.3634979999998
 20
183.522082
 30
0.0
 40
10.28489299999999
100
AcDbArc
 50
4.548898
 51
30.53062800000001
  0
ARC
  5
B5BF
330
B279
100
AcDbEntity
  8
1
  6
Continuous
100
AcDbCircle
 10
127.074817
 20
190.757494
 30
0.0
 40
1.721049999999999
100
AcDbArc
 50
156.7039509999998
 51
175.396621
  0
ARC
  5
B5C0
330
B279
100
AcDbEntity
  8
1
  6
Continuous
100
AcDbCircle
 10
128.9571259999999
 20
202.135715
 30
0.0
 40
11.617975
100
AcDbArc
 50
252.0903129999999
 51
258.858436
  0
LINE
  5
B5C1
330
B279
100
AcDbEntity
  8
1
  6
Continuous
100
AcDbLine
 10
148.320176
 20
187.844575
 30
0.0
 11
151.964121
 21
187.182445
 31
0.0
  0
LINE
  5
B5C2
330
B279
100
AcDbEntity
  8
1
  6
Continuous
100
AcDbLine
 10
148.049751
 20
187.753274
 30
0.0
 11
148.3201779999999
 21
187.8445729999999
 31
0.0
  0
ARC
  5
B5C3
330
B279
100
AcDbEntity
  8
1
  6
Continuous
100
AcDbCircle
 10
146.476215
 20
188.0111179999999
 30
0.0
 40
1.120613999999998
100
AcDbArc
 50
236.092773
 51
276.171729
  0
ARC
  5
B5C4
330
B279
100
AcDbEntity
  8
1
  6
Continuous
100
AcDbCircle
 10
162.0995439999999
 20
235.5040409999999
 30
0.0
 40
50.9091
100
AcDbArc
 50
250.0567259999999
 51
252.40125
  0
ARC
  5
B5C5
330
B279
100
AcDbEntity
  8
1
  6
Continuous
100
AcDbCircle
 10
142.97871
 20
182.8076989999999
 30
0.0
 40
5.149
100
AcDbArc
 50
56.09277099999999
 51
69.38145099999998
  0
ARC
  5
B5C6
330
B279
100
AcDbEntity
  8
1
  6
Continuous
100
AcDbCircle
 10
143.80698
 20
210.0821639999999
 30
0.0
 40
20.284143
100
AcDbArc
 50
258.858436
 51
261.148639
  0
ARC
  5
B5C7
330
B279
100
AcDbEntity
  8
1
  6
Continuous
100
AcDbCircle
 10
143.80698
 20
210.0821639999999
 30
0.0
 40
22.284143
100
AcDbArc
 50
258.858436
 51
261.2420559999999
  0
ARC
  5
B5C8
330
B279
100
AcDbEntity
  8
1
  6
Continuous
100
AcDbCircle
 10
137.0063739999999
 20
189.534784
 30
0.0
 40
3.713918
100
AcDbArc
 50
336.566934
 51
7.811913999999998
  0
ARC
  5
B5C9
330
B279
100
AcDbEntity
  8
1
  6
Continuous
100
AcDbCircle
 10
162.399135
 20
234.424161
 30
0.0
 40
50.0
100
AcDbArc
 50
244.300584
 51
249.3814459999999
  0
ARC
  5
B5CA
330
B279
100
AcDbEntity
  8
1
  6
Continuous
100
AcDbCircle
 10
151.334728
 20
180.5178169999998
 30
0.0
 40
7.946253999999998
100
AcDbArc
 50
114.418612
 51
126.602583
  0
ARC
  5
B5CB
330
B279
100
AcDbEntity
  8
5
  6
PHANTOM
100
AcDbCircle
 10
147.9336199999998
 20
290.319058
 30
0.0
 40
105.565331
100
AcDbArc
 50
276.850452
 51
278.822922
  0
ARC
  5
B5CC
330
B279
100
AcDbEntity
  8
5
  6
PHANTOM
100
AcDbCircle
 10
164.7132449999998
 20
182.21538
 30
0.0
 40
3.832845999999998
100
AcDbArc
 50
87.663928
 51
98.82291999999999
  0
LINE
  5
B5CD
330
B279
100
AcDbEntity
  8
1
  6
Continuous
100
AcDbLine
 10
152.674737
 20
186.795979
 30
0.0
 11
152.7023049999999
 21
185.870799
 31
0.0
  0
ARC
  5
B5CE
330
B279
100
AcDbEntity
  8
1
  6
Continuous
100
AcDbCircle
 10
152.512615
 20
186.751208
 30
0.0
 40
0.16819
100
AcDbArc
 50
15.43808999999998
 51
54.315433
  0
ARC
  5
B5CF
330
B279
100
AcDbEntity
  8
1
  6
Continuous
100
AcDbCircle
 10
153.5552629999999
 20
211.7925459999999
 30
0.0
 40
25.939594
100
AcDbArc
 50
268.288694
 51
274.2372419999999
  0
ARC
  5
B5D0
330
B279
100
AcDbEntity
  8
1
  6
Continuous
100
AcDbCircle
 10
152.8040499999999
 20
186.648737
 30
0.0
 40
0.784566
100
AcDbArc
 50
248.668039
 51
268.288694
  0
ARC
  5
B5D1
330
B279
100
AcDbEntity
  8
1
  6
Continuous
100
AcDbCircle
 10
142.6650119999999
 20
188.1225189999999
 30
0.0
 40
10.09724599999999
100
AcDbArc
 50
347.3886749999999
 51
352.4508809999999
  0
ARC
  5
B5D2
330
B279
100
AcDbEntity
  8
1
  6
Continuous
100
AcDbCircle
 10
151.5426439999998
 20
185.4005799999999
 30
0.0
 40
1.831034
100
AcDbArc
 50
54.315433
 51
82.71075600000001
  0
LINE
  5
B5D3
330
B279
100
AcDbEntity
  8
5
  6
PHANTOM
100
AcDbLine
 10
191.106157
 20
188.6622369999998
 30
0.0
 11
204.0781289999999
 21
190.0034039999999
 31
0.0
  0
ARC
  5
B5D4
330
B279
100
AcDbEntity
  8
5
  6
PHANTOM
100
AcDbCircle
 10
281.614918
 20
-623.348971
 30
0.0
 40
815.039795
100
AcDbArc
 50
95.43352
 51
96.44001000000001
  0
ARC
  5
B5D5
330
B279
100
AcDbEntity
  8
5
  6
PHANTOM
100
AcDbCircle
 10
186.7668869999999
 20
190.462835
 30
0.0
 40
5.790506999999997
100
AcDbArc
 50
185.525837
 51
214.8692849999999
  0
ARC
  5
B5D6
330
B279
100
AcDbEntity
  8
5
  6
PHANTOM
100
AcDbCircle
 10
203.0860399999999
 20
195.540874
 30
0.0
 40
22.67846899999998
100
AcDbArc
 50
193.821648
 51
201.7087399999998
  0
ARC
  5
B5D7
330
B279
100
AcDbEntity
  8
5
  6
PHANTOM
100
AcDbCircle
 10
176.6235079999999
 20
188.040358
 30
0.0
 40
4.760283
100
AcDbArc
 50
23.063986
 51
31.12087199999999
  0
ARC
  5
B5D8
330
B279
100
AcDbEntity
  8
5
  6
PHANTOM
100
AcDbCircle
 10
178.222591
 20
191.1754359999999
 30
0.0
 40
2.685296
100
AcDbArc
 50
78.060388
 51
107.810855
  0
ARC
  5
B5D9
330
B279
100
AcDbEntity
  8
5
  6
PHANTOM
100
AcDbCircle
 10
175.706074
 20
189.865389
 30
0.0
 40
4.993939
100
AcDbArc
 50
27.709768
 51
46.55799499999999
  0
ARC
  5
B5DA
330
B279
100
AcDbEntity
  8
5
  6
PHANTOM
100
AcDbCircle
 10
177.465542
 20
191.7232419999999
 30
0.0
 40
2.435163999999998
100
AcDbArc
 50
46.55799499999999
 51
106.202488
  0
ARC
  5
B5DB
330
B279
100
AcDbEntity
  8
5
  6
PHANTOM
100
AcDbCircle
 10
191.330791
 20
150.3747439999999
 30
0.0
 40
45.539955
100
AcDbArc
 50
107.810855
 51
116.104965
  0
ARC
  5
B5DC
330
B279
100
AcDbEntity
  8
5
  6
PHANTOM
100
AcDbCircle
 10
185.858249
 20
162.840015
 30
0.0
 40
32.51303499999998
100
AcDbArc
 50
106.202488
 51
117.4008159999999
  0
LINE
  5
B5DD
330
B279
100
AcDbEntity
  8
5
  6
PHANTOM
100
AcDbLine
 10
169.380912
 20
186.9001879999999
 30
0.0
 11
180.888983
 21
190.5612269999998
 31
0.0
  0
ARC
  5
B5DE
330
B279
100
AcDbEntity
  8
5
  6
PHANTOM
100
AcDbCircle
 10
162.6905629999999
 20
183.0292609999999
 30
0.0
 40
19.695513
100
AcDbArc
 50
21.11058499999999
 51
27.709768
  0
ARC
  5
B5DF
330
B279
100
AcDbEntity
  8
5
  6
PHANTOM
100
AcDbCircle
 10
161.2521929999998
 20
192.0649469999999
 30
0.0
 40
8.945066
100
AcDbArc
 50
326.3522549999998
 51
343.59931
  0
ARC
  5
B5E0
330
B279
100
AcDbEntity
  8
5
  6
PHANTOM
100
AcDbCircle
 10
172.52882
 20
188.745905
 30
0.0
 40
2.809866999999998
100
AcDbArc
 50
116.104965
 51
163.599314
  0
ARC
  5
B5E1
330
B279
100
AcDbEntity
  8
5
  6
PHANTOM
100
AcDbCircle
 10
172.092342
 20
189.396219
 30
0.0
 40
2.600959
100
AcDbArc
 50
117.4008159999999
 51
159.1096939999999
  0
ARC
  5
B5E2
330
B279
100
AcDbEntity
  8
5
  6
PHANTOM
100
AcDbCircle
 10
166.4518539999999
 20
191.189776
 30
0.0
 40
4.931963999999998
100
AcDbArc
 50
276.65881
 51
291.13416
  0
ARC
  5
B5E3
330
B279
100
AcDbEntity
  8
5
  6
PHANTOM
100
AcDbCircle
 10
273.258518
 20
150.7842359999999
 30
0.0
 40
110.8852159999998
100
AcDbArc
 50
159.1096939999999
 51
161.1040129999999
  0
ARC
  5
B5E4
330
B279
100
AcDbEntity
  8
5
  6
PHANTOM
100
AcDbCircle
 10
166.711231
 20
188.431406
 30
0.0
 40
2.387342999999999
100
AcDbArc
 50
272.4022569999998
 51
326.3522549999998
  0
ARC
  5
B5E5
330
B279
100
AcDbEntity
  8
5
  6
PHANTOM
100
AcDbCircle
 10
190.579296
 20
193.388998
 30
0.0
 40
4.756031
100
AcDbArc
 50
264.3676869999998
 51
276.3600779999998
  0
ARC
  5
B5E6
330
B279
100
AcDbEntity
  8
5
  6
PHANTOM
100
AcDbCircle
 10
188.364376
 20
186.4999909999999
 30
0.0
 40
1.907894999999999
100
AcDbArc
 50
266.6456099999999
 51
340.1554589999999
  0
ARC
  5
B5E7
330
B279
100
AcDbEntity
  8
5
  6
PHANTOM
100
AcDbCircle
 10
189.016224
 20
186.264739
 30
0.0
 40
1.214896999999999
100
AcDbArc
 50
340.1554589999999
 51
14.94723
  0
ARC
  5
B5E8
330
B279
100
AcDbEntity
  8
5
  6
PHANTOM
100
AcDbCircle
 10
193.32484
 20
187.8781449999999
 30
0.0
 40
3.393712999999998
100
AcDbArc
 50
181.206616
 51
202.524306
  0
ARC
  5
B5E9
330
B279
100
AcDbEntity
  8
5
  6
PHANTOM
100
AcDbCircle
 10
191.8304939999999
 20
187.8466699999999
 30
0.0
 40
1.899032
100
AcDbArc
 50
154.777004
 51
181.206613
  0
ARC
  5
B5EA
330
B279
100
AcDbEntity
  8
5
  6
PHANTOM
100
AcDbCircle
 10
188.3483619999999
 20
186.226744
 30
0.0
 40
1.634177
100
AcDbArc
 50
195.5994089999999
 51
266.6456099999999
  0
ARC
  5
B5EB
330
B279
100
AcDbEntity
  8
5
  6
PHANTOM
100
AcDbCircle
 10
176.44096
 20
220.1831709999999
 30
0.0
 40
33.49799
100
AcDbArc
 50
279.580287
 51
281.5336259999999
  0
ARC
  5
B5EC
330
B279
100
AcDbEntity
  8
5
  6
PHANTOM
100
AcDbCircle
 10
183.3879429999998
 20
186.139933
 30
0.0
 40
1.246833
100
AcDbArc
 50
72.670399
 51
101.533624
  0
ARC
  5
B5ED
330
B279
100
AcDbEntity
  8
5
  6
PHANTOM
100
AcDbCircle
 10
158.201397
 20
133.66816
 30
0.0
 40
59.437527
100
AcDbArc
 50
61.26737099999999
 51
64.532645
  0
ARC
  5
B5EE
330
B279
100
AcDbEntity
  8
5
  6
PHANTOM
100
AcDbCircle
 10
201.9369119999999
 20
188.4676879999999
 30
0.0
 40
3.379898999999998
100
AcDbArc
 50
354.602423
 51
15.824455
  0
ARC
  5
B5EF
330
B279
100
AcDbEntity
  8
5
  6
PHANTOM
100
AcDbCircle
 10
193.738819
 20
191.6161179999998
 30
0.0
 40
11.28476
100
AcDbArc
 50
328.7024339999998
 51
341.463744
  0
ARC
  5
B5F0
330
B279
100
AcDbEntity
  8
5
  6
PHANTOM
100
AcDbCircle
 10
202.9302329999999
 20
202.044696
 30
0.0
 40
12.095881
100
AcDbArc
 50
275.4455429999999
 51
279.759006
  0
LINE
  5
B5F1
330
B279
100
AcDbEntity
  8
5
  6
PHANTOM
100
AcDbLine
 10
204.4381519999999
 20
188.0286399999999
 30
0.0
 11
205.3018189999999
 21
188.149751
 31
0.0
  0
LINE
  5
B5F2
330
B279
100
AcDbEntity
  8
5
  6
PHANTOM
100
AcDbLine
 10
204.9805409999999
 20
190.1238509999998
 30
0.0
 11
205.1887199999999
 21
189.389356
 31
0.0
  0
LINE
  5
B5F3
330
B279
100
AcDbEntity
  8
1
  6
Continuous
100
AcDbLine
 10
167.490146
 20
361.145438
 30
0.0
 11
167.490146
 21
359.5564549999999
 31
0.0
  0
LINE
  5
B5F4
330
B279
100
AcDbEntity
  8
1
  6
Continuous
100
AcDbLine
 10
153.490146
 20
361.145438
 30
0.0
 11
167.490146
 21
361.145438
 31
0.0
  0
ARC
  5
B5F5
330
B279
100
AcDbEntity
  8
1
  6
Continuous
100
AcDbCircle
 10
160.490146
 20
353.3192
 30
0.0
 40
10.5
100
AcDbArc
 50
48.189685
 51
131.810315
  0
LINE
  5
B5F6
330
B279
100
AcDbEntity
  8
1
  6
Continuous
100
AcDbLine
 10
153.490146
 20
361.145438
 30
0.0
 11
153.490146
 21
358.8192
 31
0.0
  0
LINE
  5
B5F7
330
B279
100
AcDbEntity
  8
1
  6
Continuous
100
AcDbLine
 10
33.861351
 20
168.717782
 30
0.0
 11
36.187589
 21
168.717782
 31
0.0
  0
LINE
  5
B5F8
330
B279
100
AcDbEntity
  8
1
  6
Continuous
100
AcDbLine
 10
33.861351
 20
182.7177819999998
 30
0.0
 11
36.187589
 21
182.7177819999998
 31
0.0
  0
LINE
  5
B5F9
330
B279
100
AcDbEntity
  8
1
  6
Continuous
100
AcDbLine
 10
33.861351
 20
182.7177819999998
 30
0.0
 11
33.861351
 21
168.717782
 31
0.0
  0
ARC
  5
B5FA
330
B279
100
AcDbEntity
  8
1
  6
Continuous
100
AcDbCircle
 10
41.687589
 20
175.717782
 30
0.0
 40
10.5
100
AcDbArc
 50
138.1896849999999
 51
221.810315
  0
LINE
  5
B5FB
330
B279
100
AcDbEntity
  8
1
  6
Continuous
100
AcDbLine
 10
69.467095
 20
173.7544429999999
 30
0.0
 11
69.375078
 21
165.1057189999999
 31
0.0
  0
LINE
  5
B5FC
330
B279
100
AcDbEntity
  8
1
  6
Continuous
100
AcDbLine
 10
71.75660600000002
 20
172.7563439999999
 30
0.0
 11
71.675208
 21
165.1057189999999
 31
0.0
  0
LINE
  5
B5FD
330
B279
100
AcDbEntity
  8
1
  6
Continuous
100
AcDbLine
 10
153.490146
 20
48.683818
 30
0.0
 11
167.490146
 21
48.683818
 31
0.0
  0
ARC
  5
B5FE
330
B279
100
AcDbEntity
  8
1
  6
Continuous
100
AcDbCircle
 10
160.490146
 20
56.51005600000001
 30
0.0
 40
10.5
100
AcDbArc
 50
228.1896849999998
 51
311.810315
  0
LINE
  5
B5FF
330
B279
100
AcDbEntity
  8
1
  6
Continuous
100
AcDbLine
 10
153.490146
 20
48.683818
 30
0.0
 11
153.490146
 21
51.010056
 31
0.0
  0
LINE
  5
B600
330
B279
100
AcDbEntity
  8
1
  6
Continuous
100
AcDbLine
 10
167.490146
 20
48.683818
 30
0.0
 11
167.490146
 21
50.182275
 31
0.0
  0
ARC
  5
B601
330
B279
100
AcDbEntity
  8
1
  6
Continuous
100
AcDbCircle
 10
185.490146
 20
68.81031800000001
 30
0.0
 40
22.45
100
AcDbArc
 50
107.2477389999999
 51
123.084016
  0
ARC
  5
B602
330
B279
100
AcDbEntity
  8
1
  6
Continuous
100
AcDbCircle
 10
185.490146
 20
68.81031800000001
 30
0.0
 40
20.44999999999999
100
AcDbArc
 50
95.54062700000001
 51
140.5283139999999
  0
ARC
  5
B603
330
B279
100
AcDbEntity
  8
1
  6
Continuous
100
AcDbCircle
 10
185.490146
 20
68.81031800000001
 30
0.0
 40
24.75
100
AcDbArc
 50
75.30532499999998
 51
104.6946749999999
  0
LINE
  5
B604
330
B279
100
AcDbEntity
  8
1
  6
Continuous
100
AcDbLine
 10
152.0930129999999
 20
326.91607
 30
0.0
 11
152.490146
 21
326.5189369999998
 31
0.0
  0
LINE
  5
B605
330
B279
100
AcDbEntity
  8
5
  6
PHANTOM
100
AcDbLine
 10
444.7338299999998
 20
171.643113
 30
0.0
 11
438.9471969999998
 21
173.987932
 31
0.0
  0
ARC
  5
B606
330
B279
100
AcDbEntity
  8
5
  6
PHANTOM
100
AcDbCircle
 10
383.5348899999999
 20
197.263274
 30
0.0
 40
22.155483
100
AcDbArc
 50
211.297566
 51
250.1250599999999
  0
LINE
  5
B607
330
B279
100
AcDbEntity
  8
1
  6
Continuous
100
AcDbLine
 10
398.3874609999999
 20
175.717882
 30
0.0
 11
398.3874609999999
 21
209.884775
 31
0.0
  0
ARC
  5
B608
330
B279
100
AcDbEntity
  8
1
  6
Continuous
100
AcDbCircle
 10
407.494736
 20
175.717882
 30
0.0
 40
17.5
100
AcDbArc
 50
163.99821
 51
67.046965
  0
LINE
  5
B609
330
B279
100
AcDbEntity
  8
1
  6
Continuous
100
AcDbLine
 10
376.3033159999998
 20
203.5662129999999
 30
0.0
 11
397.240317
 21
170.0189799999999
 31
0.0
  0
ARC
  5
B60A
330
B279
100
AcDbEntity
  8
1
  6
Continuous
100
AcDbCircle
 10
406.3947359999998
 20
176.117882
 30
0.0
 40
11.0
100
AcDbArc
 50
213.672541
 51
14.14360199999999
  0
LINE
  5
B60B
330
B279
100
AcDbEntity
  8
4
  6
CENTER
100
AcDbLine
 10
407.494736
 20
139.217882
 30
0.0
 11
407.494736
 21
207.891468
 31
0.0
  0
ARC
  5
B60C
330
B279
100
AcDbEntity
  8
1
  6
Continuous
100
AcDbCircle
 10
407.494736
 20
175.717882
 30
0.0
 40
24.0
100
AcDbArc
 50
151.190096
 51
77.26906899999999
  0
ARC
  5
B60D
330
B279
100
AcDbEntity
  8
1
  6
Continuous
100
AcDbCircle
 10
407.494736
 20
175.717882
 30
0.0
 40
31.5
100
AcDbArc
 50
143.80463
 51
83.38217299999998
  0
ARC
  5
B60E
330
B279
100
AcDbEntity
  8
5
  6
PHANTOM
100
AcDbCircle
 10
447.8548739999998
 20
158.633586
 30
0.0
 40
10.28489299999999
100
AcDbArc
 50
116.269376
 51
142.2511019999998
  0
LINE
  5
B60F
330
B279
100
AcDbEntity
  8
4
  6
CENTER
100
AcDbLine
 10
370.994736
 20
175.717882
 30
0.0
 11
443.9947359999998
 21
175.717882
 31
0.0
  0
ARC
  5
B610
330
B279
100
AcDbEntity
  8
5
  6
PHANTOM
100
AcDbCircle
 10
448.3458719999998
 20
180.557063
 30
0.0
 40
9.617974999999999
100
AcDbArc
 50
247.9415579999999
 51
254.8329319999999
  0
ARC
  5
B611
330
B279
100
AcDbEntity
  8
5
  6
PHANTOM
100
AcDbCircle
 10
439.8940889999998
 20
174.762705
 30
0.0
 40
7.701836
100
AcDbArc
 50
296.269368
 51
313.561959
  0
ARC
  5
B612
330
B279
100
AcDbEntity
  8
5
  6
PHANTOM
100
AcDbCircle
 10
453.152253
 20
168.353495
 30
0.0
 40
7.883719999999997
100
AcDbArc
 50
158.255943
 51
170.096055
  0
ARC
  5
B613
330
B279
100
AcDbEntity
  8
5
  6
PHANTOM
100
AcDbCircle
 10
443.690629
 20
170.0054869999999
 30
0.0
 40
1.721049999999999
100
AcDbArc
 50
331.403383
 51
350.0960529999999
  0
ARC
  5
B614
330
B279
100
AcDbEntity
  8
1
  6
Continuous
100
AcDbCircle
 10
373.3613209999999
 20
167.9140869999999
 30
0.0
 40
3.393712999999998
100
AcDbArc
 50
10.67568999999999
 51
31.99338
  0
ARC
  5
B615
330
B279
100
AcDbEntity
  8
1
  6
Continuous
100
AcDbCircle
 10
375.64853
 20
180.6267649999998
 30
0.0
 40
22.155483
100
AcDbArc
 50
244.4975649999999
 51
283.3250579999999
  0
ARC
  5
B616
330
B279
100
AcDbEntity
  8
5
  6
PHANTOM
100
AcDbCircle
 10
155.195557
 20
385.225644
 30
0.0
 40
359.841339
100
AcDbArc
 50
321.4262109999999
 51
322.2511069999999
  0
ARC
  5
B617
330
B279
100
AcDbEntity
  8
5
  6
PHANTOM
100
AcDbCircle
 10
434.182191
 20
162.7224379999999
 30
0.0
 40
2.992333999999998
100
AcDbArc
 50
279.154908
 51
321.4262109999999
  0
ARC
  5
B618
330
B279
100
AcDbEntity
  8
1
  6
Continuous
100
AcDbCircle
 10
377.85006
 20
168.9232879999998
 30
0.0
 40
1.214896999999999
100
AcDbArc
 50
198.252769
 51
219.982837
  0
ARC
  5
B619
330
B279
100
AcDbEntity
  8
1
  6
Continuous
100
AcDbCircle
 10
357.566792
 20
174.5085929999999
 30
0.0
 40
12.095881
100
AcDbArc
 50
293.4409999999999
 51
297.754456
  0
LINE
  5
B61A
330
B279
100
AcDbEntity
  8
1
  6
Continuous
100
AcDbLine
 10
362.3785869999999
 20
163.410978
 30
0.0
 11
362.606572
 21
162.682387
 31
0.0
  0
ARC
  5
B61B
330
B279
100
AcDbEntity
  8
1
  6
Continuous
100
AcDbCircle
 10
370.968144
 20
170.81521
 30
0.0
 40
11.28476
100
AcDbArc
 50
231.7362549999999
 51
244.4975649999999
  0
LINE
  5
B61C
330
B279
100
AcDbEntity
  8
1
  6
Continuous
100
AcDbLine
 10
363.979691
 20
161.9547719999999
 30
0.0
 11
363.19069
 21
161.5832029999999
 31
0.0
  0
ARC
  5
B61D
330
B279
100
AcDbEntity
  8
1
  6
Continuous
100
AcDbCircle
 10
365.8322379999999
 20
163.6917439999998
 30
0.0
 40
3.379898999999998
100
AcDbArc
 50
197.3755439999999
 51
218.597577
  0
ARC
  5
B61E
330
B279
100
AcDbEntity
  8
1
  6
Continuous
100
AcDbCircle
 10
372.6411519999999
 20
174.028727
 30
0.0
 40
4.756031
100
AcDbArc
 50
296.839921
 51
308.832312
  0
ARC
  5
B61F
330
B279
100
AcDbEntity
  8
1
  6
Continuous
100
AcDbCircle
 10
374.6289759999998
 20
168.705996
 30
0.0
 40
1.899032
100
AcDbArc
 50
31.99338
 51
58.422988
  0
LINE
  5
B620
330
B279
100
AcDbEntity
  8
1
  6
Continuous
100
AcDbLine
 10
374.788499
 20
169.7850599999999
 30
0.0
 11
363.199643
 21
163.804325
 31
0.0
  0
ARC
  5
B621
330
B279
100
AcDbEntity
  8
1
  6
Continuous
100
AcDbCircle
 10
450.621384
 20
183.522082
 30
0.0
 40
10.28489299999999
100
AcDbArc
 50
149.4693719999999
 51
175.4511019999999
  0
LINE
  5
B622
330
B279
100
AcDbEntity
  8
1
  6
Continuous
100
AcDbLine
 10
440.886269
 20
192.699012
 30
0.0
 11
434.7602929999998
 21
191.4925269999999
 31
0.0
  0
ARC
  5
B623
330
B279
100
AcDbEntity
  8
1
  6
Continuous
100
AcDbCircle
 10
436.941682
 20
179.456828
 30
0.0
 40
2.992333999999998
100
AcDbArc
 50
312.3546989999999
 51
354.6262169999998
  0
ARC
  5
B624
330
B279
100
AcDbEntity
  8
1
  6
Continuous
100
AcDbCircle
 10
81.66105700000001
 20
212.8767439999998
 30
0.0
 40
359.841339
100
AcDbArc
 50
354.6262169999998
 51
355.451099
  0
ARC
  5
B625
330
B279
100
AcDbEntity
  8
1
  6
Continuous
100
AcDbCircle
 10
440.910065
 20
190.757494
 30
0.0
 40
1.721049999999999
100
AcDbArc
 50
4.603379000000001
 51
23.296049
  0
ARC
  5
B626
330
B279
100
AcDbEntity
  8
1
  6
Continuous
100
AcDbCircle
 10
435.1283809999998
 20
192.6593189999999
 30
0.0
 40
7.701836
100
AcDbArc
 50
329.469374
 51
346.7619509999999
  0
ARC
  5
B627
330
B279
100
AcDbEntity
  8
1
  6
Continuous
100
AcDbCircle
 10
439.0277559999998
 20
202.135715
 30
0.0
 40
9.617974999999999
100
AcDbArc
 50
281.141564
 51
288.032931
  0
ARC
  5
B628
330
B279
100
AcDbEntity
  8
1
  6
Continuous
100
AcDbCircle
 10
449.731782
 20
194.556006
 30
0.0
 40
7.883719999999997
100
AcDbArc
 50
191.455942
 51
203.2960559999999
  0
LINE
  5
B629
330
B279
100
AcDbEntity
  8
2
  6
Continuous
100
AcDbLine
 10
387.818236
 20
227.389681
 30
0.0
 11
387.818236
 21
265.894382
 31
0.0
  0
LINE
  5
B62A
330
B279
100
AcDbEntity
  8
2
  6
Continuous
100
AcDbLine
 10
377.1712359999999
 20
227.389681
 30
0.0
 11
377.1712359999999
 21
265.894382
 31
0.0
  0
LINE
  5
B62B
330
B279
100
AcDbEntity
  8
1
  6
Continuous
100
AcDbLine
 10
376.4947359999999
 20
226.2178819999999
 30
0.0
 11
376.4947359999999
 21
265.2178819999999
 31
0.0
  0
LINE
  5
B62C
330
B279
100
AcDbEntity
  8
1
  6
Continuous
100
AcDbLine
 10
388.4947359999999
 20
226.2178819999999
 30
0.0
 11
388.4947359999999
 21
265.2178819999999
 31
0.0
  0
LINE
  5
B62D
330
B279
100
AcDbEntity
  8
4
  6
CENTER
100
AcDbLine
 10
382.4947359999999
 20
202.215713
 30
0.0
 11
382.4947359999999
 21
271.2178819999999
 31
0.0
  0
LINE
  5
B62E
330
B279
100
AcDbEntity
  8
5
  6
PHANTOM
100
AcDbLine
 10
376.8787259999998
 20
188.6622369999998
 30
0.0
 11
363.9067539999999
 21
190.0034039999999
 31
0.0
  0
LINE
  5
B62F
330
B279
100
AcDbEntity
  8
2
  6
Continuous
100
AcDbLine
 10
376.494774
 20
226.2178819999999
 30
0.0
 11
377.171312
 21
227.389681
 31
0.0
  0
LINE
  5
B630
330
B279
100
AcDbEntity
  8
1
  6
Continuous
100
AcDbLine
 10
388.494774
 20
227.389681
 30
0.0
 11
376.494774
 21
227.389681
 31
0.0
  0
LINE
  5
B631
330
B279
100
AcDbEntity
  8
1
  6
Continuous
100
AcDbLine
 10
377.423668
 20
215.179556
 30
0.0
 11
375.423668
 21
217.179556
 31
0.0
  0
LINE
  5
B632
330
B279
100
AcDbEntity
  8
1
  6
Continuous
100
AcDbLine
 10
374.8378819999999
 20
215.179556
 30
0.0
 11
376.8378819999999
 21
217.179556
 31
0.0
  0
LINE
  5
B633
330
B279
100
AcDbEntity
  8
1
  6
Continuous
100
AcDbLine
 10
367.483629
 20
226.2178819999999
 30
0.0
 11
397.505843
 21
226.2178819999999
 31
0.0
  0
LINE
  5
B634
330
B279
100
AcDbEntity
  8
1
  6
Continuous
100
AcDbLine
 10
365.847883
 20
222.2178819999998
 30
0.0
 11
399.141589
 21
222.2178819999998
 31
0.0
  0
LINE
  5
B635
330
B279
100
AcDbEntity
  8
1
  6
Continuous
100
AcDbLine
 10
405.4947359999999
 20
217.179556
 30
0.0
 11
359.4947359999999
 21
217.179556
 31
0.0
  0
LINE
  5
B636
330
B279
100
AcDbEntity
  8
1
  6
Continuous
100
AcDbLine
 10
405.470529
 20
217.2325559999999
 30
0.0
 11
359.518943
 21
217.2325559999999
 31
0.0
  0
LINE
  5
B637
330
B279
100
AcDbEntity
  8
1
  6
Continuous
100
AcDbLine
 10
404.6698199999998
 20
218.7148169999999
 30
0.0
 11
360.319652
 21
218.7148169999999
 31
0.0
  0
LINE
  5
B638
330
B279
100
AcDbEntity
  8
1
  6
Continuous
100
AcDbLine
 10
405.4947359999999
 20
215.179556
 30
0.0
 11
359.4947359999999
 21
215.179556
 31
0.0
  0
ARC
  5
B639
330
B279
100
AcDbEntity
  8
1
  6
Continuous
100
AcDbCircle
 10
399.141589
 20
216.104264
 30
0.0
 40
6.113617999999997
100
AcDbArc
 50
25.277722
 51
90.0
  0
LINE
  5
B63A
330
B279
100
AcDbEntity
  8
1
  6
Continuous
100
AcDbLine
 10
401.16056
 20
212.8770429999999
 30
0.0
 11
412.282595
 21
212.845989
 31
0.0
  0
LINE
  5
B63B
330
B279
100
AcDbEntity
  8
1
  6
Continuous
100
AcDbLine
 10
409.8947479999997
 20
212.852656
 30
0.0
 11
417.061286
 21
178.8057659999998
 31
0.0
  0
ARC
  5
B63C
330
B279
100
AcDbEntity
  8
1
  6
Continuous
100
AcDbCircle
 10
445.4421059999998
 20
213.0080229999999
 30
0.0
 40
31.82178
100
AcDbArc
 50
180.882972
 51
182.8814939999999
  0
ARC
  5
B63D
330
B279
100
AcDbEntity
  8
1
  6
Continuous
100
AcDbCircle
 10
426.6470809999998
 20
209.431971
 30
0.0
 40
13.13604599999999
100
AcDbArc
 50
171.346813
 51
174.2810689999998
  0
ARC
  5
B63E
330
B279
100
AcDbEntity
  8
1
  6
Continuous
100
AcDbCircle
 10
413.3510919999998
 20
210.907969
 30
0.0
 40
0.28047
100
AcDbArc
 50
271.374847
 51
323.4541489999998
  0
ARC
  5
B63F
330
B279
100
AcDbEntity
  8
1
  6
Continuous
100
AcDbCircle
 10
413.083894
 20
212.0707279999999
 30
0.0
 40
0.7011149999999999
100
AcDbArc
 50
39.600945
 51
79.61194999999998
  0
ARC
  5
B640
330
B279
100
AcDbEntity
  8
1
  6
Continuous
100
AcDbCircle
 10
412.2680029999998
 20
207.620059
 30
0.0
 40
5.22595
100
AcDbArc
 50
79.61194999999998
 51
89.84002199999997
  0
ARC
  5
B641
330
B279
100
AcDbEntity
  8
1
  6
Continuous
100
AcDbCircle
 10
411.338683
 20
294.757624
 30
0.0
 40
84.15427099999998
100
AcDbArc
 50
269.3384389999998
 51
271.374847
  0
ARC
  5
B642
330
B279
100
AcDbEntity
  8
5
  6
PHANTOM
100
AcDbCircle
 10
376.154389
 20
187.8466699999999
 30
0.0
 40
1.899032
100
AcDbArc
 50
358.793387
 51
25.222996
  0
ARC
  5
B643
330
B279
100
AcDbEntity
  8
5
  6
PHANTOM
100
AcDbCircle
 10
374.660042
 20
187.8781449999999
 30
0.0
 40
3.393712999999998
100
AcDbArc
 50
337.4756939999999
 51
358.793384
  0
ARC
  5
B644
330
B279
100
AcDbEntity
  8
5
  6
PHANTOM
100
AcDbCircle
 10
378.968659
 20
186.264739
 30
0.0
 40
1.214896999999999
100
AcDbArc
 50
165.05277
 51
186.782711
  0
ARC
  5
B645
330
B279
100
AcDbEntity
  8
5
  6
PHANTOM
100
AcDbCircle
 10
377.405587
 20
193.388998
 30
0.0
 40
4.756031
100
AcDbArc
 50
263.639922
 51
275.632313
  0
LINE
  5
B646
330
B279
100
AcDbEntity
  8
1
  6
Continuous
100
AcDbLine
 10
391.808445
 20
215.179556
 30
0.0
 11
393.808445
 21
217.179556
 31
0.0
  0
LINE
  5
B647
330
B279
100
AcDbEntity
  8
1
  6
Continuous
100
AcDbLine
 10
394.394231
 20
215.179556
 30
0.0
 11
392.394231
 21
217.179556
 31
0.0
  0
LINE
  5
B648
330
B279
100
AcDbEntity
  8
1
  6
Continuous
100
AcDbLine
 10
392.980017
 20
215.179556
 30
0.0
 11
390.980017
 21
217.179556
 31
0.0
  0
LINE
  5
B649
330
B279
100
AcDbEntity
  8
1
  6
Continuous
100
AcDbLine
 10
397.465299
 20
215.179556
 30
0.0
 11
399.465299
 21
217.179556
 31
0.0
  0
LINE
  5
B64A
330
B279
100
AcDbEntity
  8
1
  6
Continuous
100
AcDbLine
 10
398.6368719999999
 20
215.179556
 30
0.0
 11
396.6368719999999
 21
217.179556
 31
0.0
  0
LINE
  5
B64B
330
B279
100
AcDbEntity
  8
1
  6
Continuous
100
AcDbLine
 10
394.6368719999999
 20
215.179556
 30
0.0
 11
396.6368719999999
 21
217.179556
 31
0.0
  0
LINE
  5
B64C
330
B279
100
AcDbEntity
  8
1
  6
Continuous
100
AcDbLine
 10
397.222658
 20
215.179556
 30
0.0
 11
395.2226580000001
 21
217.179556
 31
0.0
  0
LINE
  5
B64D
330
B279
100
AcDbEntity
  8
1
  6
Continuous
100
AcDbLine
 10
395.808445
 20
215.179556
 30
0.0
 11
393.808445
 21
217.179556
 31
0.0
  0
ARC
  5
B64E
330
B279
100
AcDbEntity
  8
1
  6
Continuous
100
AcDbCircle
 10
405.2208499999998
 20
217.794964
 30
0.0
 40
0.9569799999999998
100
AcDbArc
 50
24.04026499999999
 51
73.98808699999998
  0
ARC
  5
B64F
330
B279
100
AcDbEntity
  8
1
  6
Continuous
100
AcDbCircle
 10
401.883338
 20
220.2650439999999
 30
0.0
 40
4.697225
100
AcDbArc
 50
319.789963
 51
333.713305
  0
LINE
  5
B650
330
B279
100
AcDbEntity
  8
1
  6
Continuous
100
AcDbLine
 10
400.293726
 20
215.179556
 30
0.0
 11
402.2937259999998
 21
217.179556
 31
0.0
  0
LINE
  5
B651
330
B279
100
AcDbEntity
  8
1
  6
Continuous
100
AcDbLine
 10
402.8795119999998
 20
215.179556
 30
0.0
 11
400.879512
 21
217.179556
 31
0.0
  0
LINE
  5
B652
330
B279
100
AcDbEntity
  8
1
  6
Continuous
100
AcDbLine
 10
405.4947359999999
 20
217.179556
 30
0.0
 11
405.4947359999999
 21
215.179556
 31
0.0
  0
LINE
  5
B653
330
B279
100
AcDbEntity
  8
1
  6
Continuous
100
AcDbLine
 10
403.1221529999998
 20
215.179556
 30
0.0
 11
405.1221529999998
 21
217.179556
 31
0.0
  0
LINE
  5
B654
330
B279
100
AcDbEntity
  8
1
  6
Continuous
100
AcDbLine
 10
405.4947359999999
 20
216.806973
 30
0.0
 11
405.1221529999998
 21
217.179556
 31
0.0
  0
LINE
  5
B655
330
B279
100
AcDbEntity
  8
1
  6
Continuous
100
AcDbLine
 10
405.4947359999999
 20
215.3927589999999
 30
0.0
 11
403.707939
 21
217.179556
 31
0.0
  0
LINE
  5
B656
330
B279
100
AcDbEntity
  8
1
  6
Continuous
100
AcDbLine
 10
404.293726
 20
215.179556
 30
0.0
 11
402.2937259999998
 21
217.179556
 31
0.0
  0
LINE
  5
B657
330
B279
100
AcDbEntity
  8
1
  6
Continuous
100
AcDbLine
 10
405.48482
 20
218.7148169999999
 30
0.0
 11
404.6698199999998
 21
218.7148169999999
 31
0.0
  0
LINE
  5
B658
330
B279
100
AcDbEntity
  8
1
  6
Continuous
100
AcDbLine
 10
401.465299
 20
215.179556
 30
0.0
 11
399.465299
 21
217.179556
 31
0.0
  0
LINE
  5
B659
330
B279
100
AcDbEntity
  8
1
  6
Continuous
100
AcDbLine
 10
400.051085
 20
215.179556
 30
0.0
 11
398.0510849999999
 21
217.179556
 31
0.0
  0
ARC
  5
B65A
330
B279
100
AcDbEntity
  8
1
  6
Continuous
100
AcDbCircle
 10
406.3083859999998
 20
213.3878249999999
 30
0.0
 40
0.313453
100
AcDbArc
 50
173.6619839999999
 51
240.802965
  0
ARC
  5
B65B
330
B279
100
AcDbEntity
  8
1
  6
Continuous
100
AcDbCircle
 10
402.389516
 20
211.2232759999999
 30
0.0
 40
4.224822999999998
100
AcDbArc
 50
31.367901
 51
69.461534
  0
ARC
  5
B65C
330
B279
100
AcDbEntity
  8
1
  6
Continuous
100
AcDbCircle
 10
407.1299899999998
 20
214.858092
 30
0.0
 40
1.997709
100
AcDbArc
 50
240.802965
 51
269.8400219999999
  0
LINE
  5
B65D
330
B279
100
AcDbEntity
  8
1
  6
Continuous
100
AcDbLine
 10
381.666309
 20
215.179556
 30
0.0
 11
379.666309
 21
217.179556
 31
0.0
  0
LINE
  5
B65E
330
B279
100
AcDbEntity
  8
1
  6
Continuous
100
AcDbLine
 10
378.8378819999999
 20
215.179556
 30
0.0
 11
376.8378819999999
 21
217.179556
 31
0.0
  0
LINE
  5
B65F
330
B279
100
AcDbEntity
  8
1
  6
Continuous
100
AcDbLine
 10
377.666309
 20
215.179556
 30
0.0
 11
379.666309
 21
217.179556
 31
0.0
  0
LINE
  5
B660
330
B279
100
AcDbEntity
  8
1
  6
Continuous
100
AcDbLine
 10
380.2520949999998
 20
215.179556
 30
0.0
 11
378.2520949999998
 21
217.179556
 31
0.0
  0
LINE
  5
B661
330
B279
100
AcDbEntity
  8
1
  6
Continuous
100
AcDbLine
 10
388.980017
 20
215.179556
 30
0.0
 11
390.980017
 21
217.179556
 31
0.0
  0
LINE
  5
B662
330
B279
100
AcDbEntity
  8
1
  6
Continuous
100
AcDbLine
 10
390.15159
 20
215.179556
 30
0.0
 11
388.15159
 21
217.179556
 31
0.0
  0
LINE
  5
B663
330
B279
100
AcDbEntity
  8
1
  6
Continuous
100
AcDbLine
 10
391.565804
 20
215.179556
 30
0.0
 11
389.565804
 21
217.179556
 31
0.0
  0
LINE
  5
B664
330
B279
100
AcDbEntity
  8
1
  6
Continuous
100
AcDbLine
 10
383.3231629999998
 20
215.179556
 30
0.0
 11
385.3231629999998
 21
217.179556
 31
0.0
  0
LINE
  5
B665
330
B279
100
AcDbEntity
  8
1
  6
Continuous
100
AcDbLine
 10
385.9089499999998
 20
215.179556
 30
0.0
 11
383.90895
 21
217.179556
 31
0.0
  0
LINE
  5
B666
330
B279
100
AcDbEntity
  8
1
  6
Continuous
100
AcDbLine
 10
386.15159
 20
215.179556
 30
0.0
 11
388.15159
 21
217.179556
 31
0.0
  0
LINE
  5
B667
330
B279
100
AcDbEntity
  8
1
  6
Continuous
100
AcDbLine
 10
388.7373769999999
 20
215.179556
 30
0.0
 11
386.737377
 21
217.179556
 31
0.0
  0
LINE
  5
B668
330
B279
100
AcDbEntity
  8
1
  6
Continuous
100
AcDbLine
 10
387.3231629999999
 20
215.179556
 30
0.0
 11
385.3231629999998
 21
217.179556
 31
0.0
  0
LINE
  5
B669
330
B279
100
AcDbEntity
  8
1
  6
Continuous
100
AcDbLine
 10
384.4947359999999
 20
215.179556
 30
0.0
 11
382.4947359999999
 21
217.179556
 31
0.0
  0
LINE
  5
B66A
330
B279
100
AcDbEntity
  8
1
  6
Continuous
100
AcDbLine
 10
380.4947359999999
 20
215.179556
 30
0.0
 11
382.4947359999999
 21
217.179556
 31
0.0
  0
LINE
  5
B66B
330
B279
100
AcDbEntity
  8
1
  6
Continuous
100
AcDbLine
 10
383.0805219999998
 20
215.179556
 30
0.0
 11
381.0805219999999
 21
217.179556
 31
0.0
  0
LINE
  5
B66C
330
B279
100
AcDbEntity
  8
1
  6
Continuous
100
AcDbLine
 10
397.505843
 20
226.2178819999999
 30
0.0
 11
397.505843
 21
222.2178819999998
 31
0.0
  0
LINE
  5
B66D
330
B279
100
AcDbEntity
  8
2
  6
Continuous
100
AcDbLine
 10
388.494774
 20
226.2178819999999
 30
0.0
 11
387.818236
 21
227.389681
 31
0.0
  0
LINE
  5
B66E
330
B279
100
AcDbEntity
  8
1
  6
Continuous
100
AcDbLine
 10
390.00029
 20
226.2178819999999
 30
0.0
 11
390.00029
 21
222.2178819999998
 31
0.0
  0
ARC
  5
B66F
330
B279
100
AcDbEntity
  8
1
  6
Continuous
100
AcDbCircle
 10
365.847883
 20
216.104264
 30
0.0
 40
6.113617999999997
100
AcDbArc
 50
90.0
 51
154.722278
  0
LINE
  5
B670
330
B279
100
AcDbEntity
  8
5
  6
PHANTOM
100
AcDbLine
 10
363.004342
 20
190.1238509999998
 30
0.0
 11
362.7961619999999
 21
189.389356
 31
0.0
  0
LINE
  5
B671
330
B279
100
AcDbEntity
  8
5
  6
PHANTOM
100
AcDbLine
 10
363.546731
 20
188.0286399999999
 30
0.0
 11
362.683064
 21
188.149751
 31
0.0
  0
ARC
  5
B672
330
B279
100
AcDbEntity
  8
5
  6
PHANTOM
100
AcDbCircle
 10
365.0546499999999
 20
202.044696
 30
0.0
 40
12.095881
100
AcDbArc
 50
260.240994
 51
264.5544569999998
  0
ARC
  5
B673
330
B279
100
AcDbEntity
  8
5
  6
PHANTOM
100
AcDbCircle
 10
374.246064
 20
191.6161179999998
 30
0.0
 40
11.28476
100
AcDbArc
 50
198.536256
 51
211.297566
  0
ARC
  5
B674
330
B279
100
AcDbEntity
  8
5
  6
PHANTOM
100
AcDbCircle
 10
366.047971
 20
188.4676879999999
 30
0.0
 40
3.379898999999998
100
AcDbArc
 50
164.1755449999998
 51
185.397577
  0
LINE
  5
B675
330
B279
100
AcDbEntity
  8
1
  6
Continuous
100
AcDbLine
 10
361.8673189999999
 20
215.179556
 30
0.0
 11
359.8673189999999
 21
217.179556
 31
0.0
  0
LINE
  5
B676
330
B279
100
AcDbEntity
  8
1
  6
Continuous
100
AcDbLine
 10
357.7447359999999
 20
208.4673099999998
 30
0.0
 11
365.7625209999998
 21
208.4673099999998
 31
0.0
  0
ARC
  5
B677
330
B279
100
AcDbEntity
  8
1
  6
Continuous
100
AcDbCircle
 10
362.556906
 20
211.132781
 30
0.0
 40
4.377608
100
AcDbArc
 50
112.4180289999999
 51
171.7055229999999
  0
LINE
  5
B678
330
B279
100
AcDbEntity
  8
1
  6
Continuous
100
AcDbLine
 10
364.6957459999999
 20
215.179556
 30
0.0
 11
362.6957459999999
 21
217.179556
 31
0.0
  0
LINE
  5
B679
330
B279
100
AcDbEntity
  8
1
  6
Continuous
100
AcDbLine
 10
360.6957459999999
 20
215.179556
 30
0.0
 11
362.6957459999999
 21
217.179556
 31
0.0
  0
LINE
  5
B67A
330
B279
100
AcDbEntity
  8
1
  6
Continuous
100
AcDbLine
 10
363.281533
 20
215.179556
 30
0.0
 11
361.281533
 21
217.179556
 31
0.0
  0
LINE
  5
B67B
330
B279
100
AcDbEntity
  8
1
  6
Continuous
100
AcDbLine
 10
373.1810279999999
 20
215.179556
 30
0.0
 11
371.1810279999999
 21
217.179556
 31
0.0
  0
LINE
  5
B67C
330
B279
100
AcDbEntity
  8
1
  6
Continuous
100
AcDbLine
 10
371.766814
 20
215.179556
 30
0.0
 11
369.766814
 21
217.179556
 31
0.0
  0
LINE
  5
B67D
330
B279
100
AcDbEntity
  8
1
  6
Continuous
100
AcDbLine
 10
372.009455
 20
215.179556
 30
0.0
 11
374.009455
 21
217.179556
 31
0.0
  0
LINE
  5
B67E
330
B279
100
AcDbEntity
  8
1
  6
Continuous
100
AcDbLine
 10
374.595241
 20
215.179556
 30
0.0
 11
372.595241
 21
217.179556
 31
0.0
  0
LINE
  5
B67F
330
B279
100
AcDbEntity
  8
1
  6
Continuous
100
AcDbLine
 10
376.009455
 20
215.179556
 30
0.0
 11
374.009455
 21
217.179556
 31
0.0
  0
LINE
  5
B680
330
B279
100
AcDbEntity
  8
1
  6
Continuous
100
AcDbLine
 10
368.9383869999999
 20
215.179556
 30
0.0
 11
366.9383869999998
 21
217.179556
 31
0.0
  0
LINE
  5
B681
330
B279
100
AcDbEntity
  8
1
  6
Continuous
100
AcDbLine
 10
370.3526
 20
215.179556
 30
0.0
 11
368.3526
 21
217.179556
 31
0.0
  0
LINE
  5
B682
330
B279
100
AcDbEntity
  8
1
  6
Continuous
100
AcDbLine
 10
369.1810279999999
 20
215.179556
 30
0.0
 11
371.1810279999999
 21
217.179556
 31
0.0
  0
LINE
  5
B683
330
B279
100
AcDbEntity
  8
1
  6
Continuous
100
AcDbLine
 10
366.3526
 20
215.179556
 30
0.0
 11
368.3526
 21
217.179556
 31
0.0
  0
LINE
  5
B684
330
B279
100
AcDbEntity
  8
1
  6
Continuous
100
AcDbLine
 10
367.524173
 20
215.179556
 30
0.0
 11
365.524173
 21
217.179556
 31
0.0
  0
LINE
  5
B685
330
B279
100
AcDbEntity
  8
1
  6
Continuous
100
AcDbLine
 10
363.524173
 20
215.179556
 30
0.0
 11
365.524173
 21
217.179556
 31
0.0
  0
LINE
  5
B686
330
B279
100
AcDbEntity
  8
1
  6
Continuous
100
AcDbLine
 10
366.10996
 20
215.179556
 30
0.0
 11
364.1099599999998
 21
217.179556
 31
0.0
  0
LINE
  5
B687
330
B279
100
AcDbEntity
  8
1
  6
Continuous
100
AcDbLine
 10
374.389727
 20
205.553599
 30
0.0
 11
371.2288049999998
 21
205.553599
 31
0.0
  0
ARC
  5
B688
330
B279
100
AcDbEntity
  8
1
  6
Continuous
100
AcDbCircle
 10
371.2288049999998
 20
226.412597
 30
0.0
 40
20.85899799999999
100
AcDbArc
 50
268.368019
 51
270.0
  0
ARC
  5
B689
330
B279
100
AcDbEntity
  8
1
  6
Continuous
100
AcDbCircle
 10
371.5100599999999
 20
210.84647
 30
0.0
 40
5.356411999999998
100
AcDbArc
 50
206.7619749999999
 51
260.59491
  0
ARC
  5
B68A
330
B279
100
AcDbEntity
  8
1
  6
Continuous
100
AcDbCircle
 10
367.148896
 20
197.46731
 30
0.0
 40
11.0
100
AcDbArc
 50
33.67254099999998
 51
40.146961
  0
ARC
  5
B68B
330
B279
100
AcDbEntity
  8
1
  6
Continuous
100
AcDbCircle
 10
365.7625209999998
 20
194.23831
 30
0.0
 40
14.229
100
AcDbArc
 50
46.49942699999999
 51
90.0
  0
ARC
  5
B68C
330
B279
100
AcDbEntity
  8
1
  6
Continuous
100
AcDbCircle
 10
359.7686229999998
 20
217.794964
 30
0.0
 40
0.9569799999999998
100
AcDbArc
 50
106.011913
 51
155.9597349999999
  0
LINE
  5
B68D
330
B279
100
AcDbEntity
  8
1
  6
Continuous
100
AcDbLine
 10
359.4947359999999
 20
217.179556
 30
0.0
 11
359.4947359999999
 21
215.179556
 31
0.0
  0
ARC
  5
B68E
330
B279
100
AcDbEntity
  8
1
  6
Continuous
100
AcDbCircle
 10
363.106134
 20
220.2650439999999
 30
0.0
 40
4.697225
100
AcDbArc
 50
206.286695
 51
220.210037
  0
LINE
  5
B68F
330
B279
100
AcDbEntity
  8
1
  6
Continuous
100
AcDbLine
 10
359.4947359999999
 20
216.806973
 30
0.0
 11
359.8673189999999
 21
217.179556
 31
0.0
  0
LINE
  5
B690
330
B279
100
AcDbEntity
  8
1
  6
Continuous
100
AcDbLine
 10
360.4531049999998
 20
215.179556
 30
0.0
 11
359.4947359999999
 21
216.1379249999999
 31
0.0
  0
LINE
  5
B691
330
B279
100
AcDbEntity
  8
1
  6
Continuous
100
AcDbLine
 10
359.504652
 20
218.7148169999999
 30
0.0
 11
360.319652
 21
218.7148169999999
 31
0.0
  0
ARC
  5
B692
330
B279
100
AcDbEntity
  8
1
  6
Continuous
100
AcDbCircle
 10
487.705519
 20
191.216185
 30
0.0
 40
131.100749
100
AcDbArc
 50
170.982549
 51
172.4387049999999
  0
LINE
  5
B693
330
B279
100
AcDbEntity
  8
1
  6
Continuous
100
AcDbLine
 10
374.989183
 20
226.2178819999999
 30
0.0
 11
374.989183
 21
222.2178819999998
 31
0.0
  0
LINE
  5
B694
330
B279
100
AcDbEntity
  8
1
  6
Continuous
100
AcDbLine
 10
367.483629
 20
226.2178819999999
 30
0.0
 11
367.483629
 21
222.2178819999998
 31
0.0
  0
LINE
  5
B695
330
B279
100
AcDbEntity
  8
1
  6
Continuous
100
AcDbLine
 10
376.4947359999999
 20
265.2178819999999
 30
0.0
 11
377.494736
 21
266.2178819999999
 31
0.0
  0
LINE
  5
B696
330
B279
100
AcDbEntity
  8
1
  6
Continuous
100
AcDbLine
 10
388.4947359999999
 20
265.2178819999999
 30
0.0
 11
376.4947359999999
 21
265.2178819999999
 31
0.0
  0
LINE
  5
B697
330
B279
100
AcDbEntity
  8
1
  6
Continuous
100
AcDbLine
 10
388.4947359999999
 20
265.2178819999999
 30
0.0
 11
387.494736
 21
266.2178819999999
 31
0.0
  0
LINE
  5
B698
330
B279
100
AcDbEntity
  8
1
  6
Continuous
100
AcDbLine
 10
377.494736
 20
266.2178819999999
 30
0.0
 11
387.494736
 21
266.2178819999999
 31
0.0
  0
CIRCLE
  5
B699
330
B279
100
AcDbEntity
  8
1
  6
Continuous
100
AcDbCircle
 10
407.494736
 20
175.717882
 30
0.0
 40
7.0
  0
ARC
  5
B69A
330
B279
100
AcDbEntity
  8
1
  6
Continuous
100
AcDbCircle
 10
160.490146
 20
175.717882
 30
0.0
 40
31.5
100
AcDbArc
 50
177.220254
 51
328.0907279999999
  0
ARC
  5
B69B
330
B279
100
AcDbEntity
  8
1
  6
Continuous
100
AcDbCircle
 10
160.490146
 20
175.717882
 30
0.0
 40
24.0
100
AcDbArc
 50
181.101933
 51
322.8240739999999
  0
ARC
  5
B69C
330
B279
100
AcDbEntity
  8
1
  6
Continuous
100
AcDbCircle
 10
160.490146
 20
175.717882
 30
0.0
 40
17.5
100
AcDbArc
 50
189.8217129999999
 51
314.818467
  0
ARC
  5
B69D
330
B279
100
AcDbEntity
  8
1
  6
Continuous
100
AcDbCircle
 10
160.490146
 20
175.717882
 30
0.0
 40
24.0
100
AcDbArc
 50
15.975804
 51
28.80990399999999
  0
ARC
  5
B69E
330
B279
100
AcDbEntity
  8
1
  6
Continuous
100
AcDbCircle
 10
160.490146
 20
175.717882
 30
0.0
 40
31.5
100
AcDbArc
 50
346.0849109999998
 51
36.19536999999999
  0
ARC
  5
B69F
330
B279
100
AcDbEntity
  8
1
  6
Continuous
100
AcDbCircle
 10
296.292704
 20
175.717782
 30
0.0
 40
10.5
100
AcDbArc
 50
318.189685
 51
14.601151
  0
LINE
  5
B6A0
330
B279
100
AcDbEntity
  8
1
  6
Continuous
100
AcDbLine
 10
304.118942
 20
174.0252989999999
 30
0.0
 11
304.118942
 21
168.717782
 31
0.0
  0
LINE
  5
B6A1
330
B279
100
AcDbEntity
  8
1
  6
Continuous
100
AcDbLine
 10
304.118942
 20
168.717782
 30
0.0
 11
301.792704
 21
168.717782
 31
0.0
  0
LINE
  5
B6A2
330
B279
100
AcDbEntity
  8
1
  6
Continuous
100
AcDbLine
 10
167.490146
 20
319.718674
 30
0.0
 11
167.490146
 21
321.218674
 31
0.0
  0
LINE
  5
B6A3
330
B279
100
AcDbEntity
  8
1
  6
Continuous
100
AcDbLine
 10
153.490146
 20
319.718674
 30
0.0
 11
153.490146
 21
321.218674
 31
0.0
  0
LINE
  5
B6A4
330
B279
100
AcDbEntity
  8
1
  6
Continuous
100
AcDbLine
 10
167.490146
 20
319.718674
 30
0.0
 11
153.490146
 21
319.718674
 31
0.0
  0
LINE
  5
B6A5
330
B279
100
AcDbEntity
  8
1
  6
Continuous
100
AcDbLine
 10
81.17093199999997
 20
178.9177819999999
 30
0.0
 11
80.37093199999999
 21
179.7177819999998
 31
0.0
  0
LINE
  5
B6A6
330
B279
100
AcDbEntity
  8
2
  6
Continuous
100
AcDbLine
 10
81.04743199999999
 20
179.041282
 30
0.0
 11
80.28811399999998
 21
179.041282
 31
0.0
  0
ARC
  5
B6A7
330
B279
100
AcDbEntity
  8
1
  6
Continuous
100
AcDbCircle
 10
163.490146
 20
323.383738
 30
0.0
 40
8.665063999999999
100
AcDbArc
 50
249.7438419999999
 51
290.256158
  0
LINE
  5
B6A8
330
B279
100
AcDbEntity
  8
1
  6
Continuous
100
AcDbLine
 10
156.490146
 20
314.6358559999999
 30
0.0
 11
164.4901459999998
 21
314.6358559999999
 31
0.0
  0
LINE
  5
B6A9
330
B279
100
AcDbEntity
  8
1
  6
Continuous
100
AcDbLine
 10
163.6901459999999
 20
313.8358559999999
 30
0.0
 11
157.2901459999999
 21
313.8358559999999
 31
0.0
  0
LINE
  5
B6AA
330
B279
100
AcDbEntity
  8
1
  6
Continuous
100
AcDbLine
 10
154.490146
 20
314.718674
 30
0.0
 11
166.490146
 21
314.718674
 31
0.0
  0
LINE
  5
B6AB
330
B279
100
AcDbEntity
  8
1
  6
Continuous
100
AcDbLine
 10
81.17093199999997
 20
172.517782
 30
0.0
 11
80.37093199999999
 21
171.717782
 31
0.0
  0
LINE
  5
B6AC
330
B279
100
AcDbEntity
  8
2
  6
Continuous
100
AcDbLine
 10
81.04743199999999
 20
172.3942819999998
 30
0.0
 11
80.28811399999998
 21
172.3942819999998
 31
0.0
  0
ARC
  5
B6AD
330
B279
100
AcDbEntity
  8
1
  6
Continuous
100
AcDbCircle
 10
163.490146
 20
311.0536109999998
 30
0.0
 40
8.665063999999999
100
AcDbArc
 50
69.743842
 51
110.256158
  0
LINE
  5
B6AE
330
B279
100
AcDbEntity
  8
1
  6
Continuous
100
AcDbLine
 10
75.28811399999998
 20
168.717782
 30
0.0
 11
75.28811399999998
 21
182.7177819999998
 31
0.0
  0
LINE
  5
B6AF
330
B279
100
AcDbEntity
  8
1
  6
Continuous
100
AcDbLine
 10
80.37093199999999
 20
179.7177819999998
 30
0.0
 11
80.37093199999999
 21
171.717782
 31
0.0
  0
ARC
  5
B6B0
330
B279
100
AcDbEntity
  8
1
  6
Continuous
100
AcDbCircle
 10
86.752216
 20
175.717782
 30
0.0
 40
11.464102
100
AcDbArc
 50
162.412046
 51
197.5879539999999
  0
ARC
  5
B6B1
330
B279
100
AcDbEntity
  8
1
  6
Continuous
100
AcDbCircle
 10
68.824012
 20
175.717782
 30
0.0
 40
11.464102
100
AcDbArc
 50
342.4120459999999
 51
17.587954
  0
LINE
  5
B6B2
330
B279
100
AcDbEntity
  8
1
  6
Continuous
100
AcDbLine
 10
80.28811399999998
 20
181.7177819999998
 30
0.0
 11
80.28811399999998
 21
169.717782
 31
0.0
  0
LINE
  5
B6B3
330
B279
100
AcDbEntity
  8
1
  6
Continuous
100
AcDbLine
 10
75.28811399999998
 20
168.717782
 30
0.0
 11
73.78811399999998
 21
168.717782
 31
0.0
  0
LINE
  5
B6B4
330
B279
100
AcDbEntity
  8
2
  6
Continuous
100
AcDbLine
 10
157.1666459999998
 20
313.959356
 30
0.0
 11
157.1666459999998
 21
314.718674
 31
0.0
  0
LINE
  5
B6B5
330
B279
100
AcDbEntity
  8
1
  6
Continuous
100
AcDbLine
 10
157.2901459999999
 20
313.8358559999999
 30
0.0
 11
156.490146
 21
314.6358559999999
 31
0.0
  0
LINE
  5
B6B6
330
B279
100
AcDbEntity
  8
1
  6
Continuous
100
AcDbLine
 10
156.490146
 20
314.718674
 30
0.0
 11
156.490146
 21
314.6358559999999
 31
0.0
  0
ARC
  5
B6B7
330
B279
100
AcDbEntity
  8
1
  6
Continuous
100
AcDbCircle
 10
157.490146
 20
323.383738
 30
0.0
 40
8.665063999999999
100
AcDbArc
 50
249.7438419999999
 51
290.256158
  0
LINE
  5
B6B8
330
B279
100
AcDbEntity
  8
1
  6
Continuous
100
AcDbLine
 10
160.490146
 20
319.1827759999998
 30
0.0
 11
160.490146
 21
315.2545729999999
 31
0.0
  0
LINE
  5
B6B9
330
B279
100
AcDbEntity
  8
1
  6
Continuous
100
AcDbLine
 10
80.28811399999998
 20
171.717782
 30
0.0
 11
80.37093199999999
 21
171.717782
 31
0.0
  0
ARC
  5
B6BA
330
B279
100
AcDbEntity
  8
1
  6
Continuous
100
AcDbCircle
 10
77.22112699999998
 20
170.52163
 30
0.0
 40
3.066986999999998
100
AcDbArc
 50
334.384247
 51
34.38424699999998
  0
ARC
  5
B6BB
330
B279
100
AcDbEntity
  8
1
  6
Continuous
100
AcDbCircle
 10
78.355101
 20
170.52163
 30
0.0
 40
3.066986999999998
100
AcDbArc
 50
145.615753
 51
205.615753
  0
LINE
  5
B6BC
330
B279
100
AcDbEntity
  8
1
  6
Continuous
100
AcDbLine
 10
75.82401199999998
 20
172.253681
 30
0.0
 11
79.75221600000002
 21
172.253681
 31
0.0
  0
LINE
  5
B6BD
330
B279
100
AcDbEntity
  8
1
  6
Continuous
100
AcDbLine
 10
75.82401199999998
 20
168.7895789999998
 30
0.0
 11
79.75221600000002
 21
168.7895789999998
 31
0.0
  0
LINE
  5
B6BE
330
B279
100
AcDbEntity
  8
1
  6
Continuous
100
AcDbLine
 10
75.82401199999998
 20
168.7895789999998
 30
0.0
 11
75.28811399999998
 21
169.717782
 31
0.0
  0
LINE
  5
B6BF
330
B279
100
AcDbEntity
  8
1
  6
Continuous
100
AcDbLine
 10
79.75221600000002
 20
168.7895789999998
 30
0.0
 11
80.28811399999998
 21
169.717782
 31
0.0
  0
ARC
  5
B6C0
330
B279
100
AcDbEntity
  8
1
  6
Continuous
100
AcDbCircle
 10
157.490146
 20
311.0536109999998
 30
0.0
 40
8.665063999999999
100
AcDbArc
 50
69.743842
 51
110.256158
  0
LINE
  5
B6C1
330
B279
100
AcDbEntity
  8
1
  6
Continuous
100
AcDbLine
 10
154.490146
 20
314.718674
 30
0.0
 11
154.490146
 21
319.718674
 31
0.0
  0
LINE
  5
B6C2
330
B279
100
AcDbEntity
  8
1
  6
Continuous
100
AcDbLine
 10
75.28811399999998
 20
182.7177819999998
 30
0.0
 11
73.78811399999998
 21
182.7177819999998
 31
0.0
  0
LINE
  5
B6C3
330
B279
100
AcDbEntity
  8
1
  6
Continuous
100
AcDbLine
 10
80.28811399999998
 20
179.7177819999998
 30
0.0
 11
80.37093199999999
 21
179.7177819999998
 31
0.0
  0
LINE
  5
B6C4
330
B279
100
AcDbEntity
  8
1
  6
Continuous
100
AcDbLine
 10
79.75221600000002
 20
182.6459859999999
 30
0.0
 11
80.28811399999998
 21
181.7177819999998
 31
0.0
  0
LINE
  5
B6C5
330
B279
100
AcDbEntity
  8
1
  6
Continuous
100
AcDbLine
 10
75.82401199999998
 20
182.6459859999999
 30
0.0
 11
75.28811399999998
 21
181.7177819999998
 31
0.0
  0
LINE
  5
B6C6
330
B279
100
AcDbEntity
  8
1
  6
Continuous
100
AcDbLine
 10
75.82401199999998
 20
182.6459859999999
 30
0.0
 11
79.75221600000002
 21
182.6459859999999
 31
0.0
  0
LINE
  5
B6C7
330
B279
100
AcDbEntity
  8
1
  6
Continuous
100
AcDbLine
 10
75.82401199999998
 20
179.1818839999999
 30
0.0
 11
79.75221600000002
 21
179.1818839999999
 31
0.0
  0
ARC
  5
B6C8
330
B279
100
AcDbEntity
  8
1
  6
Continuous
100
AcDbCircle
 10
78.355101
 20
180.913935
 30
0.0
 40
3.066986999999998
100
AcDbArc
 50
154.3842469999999
 51
214.384247
  0
ARC
  5
B6C9
330
B279
100
AcDbEntity
  8
1
  6
Continuous
100
AcDbCircle
 10
77.22112699999998
 20
180.913935
 30
0.0
 40
3.066986999999998
100
AcDbArc
 50
325.6157529999999
 51
25.615753
  0
LINE
  5
B6CA
330
B279
100
AcDbEntity
  8
1
  6
Continuous
100
AcDbLine
 10
81.17093199999997
 20
172.517782
 30
0.0
 11
81.17093199999997
 21
178.9177819999999
 31
0.0
  0
LINE
  5
B6CB
330
B279
100
AcDbEntity
  8
2
  6
Continuous
100
AcDbLine
 10
163.813646
 20
313.959356
 30
0.0
 11
163.813646
 21
314.718674
 31
0.0
  0
LINE
  5
B6CC
330
B279
100
AcDbEntity
  8
1
  6
Continuous
100
AcDbLine
 10
163.6901459999999
 20
313.8358559999999
 30
0.0
 11
164.4901459999998
 21
314.6358559999999
 31
0.0
  0
LINE
  5
B6CD
330
B279
100
AcDbEntity
  8
1
  6
Continuous
100
AcDbLine
 10
164.4901459999998
 20
314.718674
 30
0.0
 11
164.4901459999998
 21
314.6358559999999
 31
0.0
  0
LINE
  5
B6CE
330
B279
100
AcDbEntity
  8
1
  6
Continuous
100
AcDbLine
 10
166.490146
 20
314.718674
 30
0.0
 11
166.490146
 21
319.718674
 31
0.0
  0
CIRCLE
  5
B6CF
330
B279
100
AcDbEntity
  8
1
  6
Continuous
100
AcDbCircle
 10
160.490146
 20
175.717882
 30
0.0
 40
7.0
  0
ARC
  5
B6D0
330
B279
100
AcDbEntity
  8
1
  6
Continuous
100
AcDbCircle
 10
163.490146
 20
86.445518
 30
0.0
 40
8.665063999999999
100
AcDbArc
 50
69.743842
 51
110.256158
  0
LINE
  5
B6D1
330
B279
100
AcDbEntity
  8
1
  6
Continuous
100
AcDbLine
 10
156.490146
 20
95.19339900000002
 30
0.0
 11
164.4901459999998
 21
95.19339900000002
 31
0.0
  0
LINE
  5
B6D2
330
B279
100
AcDbEntity
  8
1
  6
Continuous
100
AcDbLine
 10
163.6901459999999
 20
95.993399
 30
0.0
 11
157.2901459999999
 21
95.993399
 31
0.0
  0
LINE
  5
B6D3
330
B279
100
AcDbEntity
  8
1
  6
Continuous
100
AcDbLine
 10
154.490146
 20
95.11058099999999
 30
0.0
 11
166.490146
 21
95.11058099999999
 31
0.0
  0
ARC
  5
B6D4
330
B279
100
AcDbEntity
  8
1
  6
Continuous
100
AcDbCircle
 10
163.490146
 20
98.775645
 30
0.0
 40
8.665063999999999
100
AcDbArc
 50
249.7438419999999
 51
290.256158
  0
LINE
  5
B6D5
330
B279
100
AcDbEntity
  8
2
  6
Continuous
100
AcDbLine
 10
157.1666459999998
 20
95.869899
 30
0.0
 11
157.1666459999998
 21
95.11058099999999
 31
0.0
  0
LINE
  5
B6D6
330
B279
100
AcDbEntity
  8
1
  6
Continuous
100
AcDbLine
 10
157.2901459999999
 20
95.993399
 30
0.0
 11
156.490146
 21
95.19339900000002
 31
0.0
  0
LINE
  5
B6D7
330
B279
100
AcDbEntity
  8
1
  6
Continuous
100
AcDbLine
 10
156.490146
 20
95.11058099999999
 30
0.0
 11
156.490146
 21
95.19339900000002
 31
0.0
  0
ARC
  5
B6D8
330
B279
100
AcDbEntity
  8
1
  6
Continuous
100
AcDbCircle
 10
157.490146
 20
86.445518
 30
0.0
 40
8.665063999999999
100
AcDbArc
 50
69.743842
 51
110.256158
  0
LINE
  5
B6D9
330
B279
100
AcDbEntity
  8
1
  6
Continuous
100
AcDbLine
 10
160.490146
 20
90.64648000000001
 30
0.0
 11
160.490146
 21
94.574683
 31
0.0
  0
ARC
  5
B6DA
330
B279
100
AcDbEntity
  8
1
  6
Continuous
100
AcDbCircle
 10
157.490146
 20
98.775645
 30
0.0
 40
8.665063999999999
100
AcDbArc
 50
249.7438419999999
 51
290.256158
  0
LINE
  5
B6DB
330
B279
100
AcDbEntity
  8
1
  6
Continuous
100
AcDbLine
 10
154.490146
 20
95.11058099999999
 30
0.0
 11
154.490146
 21
90.11058099999999
 31
0.0
  0
LINE
  5
B6DC
330
B279
100
AcDbEntity
  8
2
  6
Continuous
100
AcDbLine
 10
163.813646
 20
95.869899
 30
0.0
 11
163.813646
 21
95.11058099999999
 31
0.0
  0
LINE
  5
B6DD
330
B279
100
AcDbEntity
  8
1
  6
Continuous
100
AcDbLine
 10
163.6901459999999
 20
95.993399
 30
0.0
 11
164.4901459999998
 21
95.19339900000002
 31
0.0
  0
LINE
  5
B6DE
330
B279
100
AcDbEntity
  8
1
  6
Continuous
100
AcDbLine
 10
164.4901459999998
 20
95.11058099999999
 30
0.0
 11
164.4901459999998
 21
95.19339900000002
 31
0.0
  0
LINE
  5
B6DF
330
B279
100
AcDbEntity
  8
1
  6
Continuous
100
AcDbLine
 10
166.490146
 20
95.11058099999999
 30
0.0
 11
166.490146
 21
90.11058099999999
 31
0.0
  0
LINE
  5
B6E0
330
B279
100
AcDbEntity
  8
1
  6
Continuous
100
AcDbLine
 10
153.490146
 20
90.11058099999999
 30
0.0
 11
153.490146
 21
88.61058100000002
 31
0.0
  0
LINE
  5
B6E1
330
B279
100
AcDbEntity
  8
1
  6
Continuous
100
AcDbLine
 10
166.4200989999999
 20
90.11058099999999
 30
0.0
 11
153.490146
 21
90.11058099999999
 31
0.0
  0
LINE
  5
B6E2
330
B279
100
AcDbEntity
  8
1
  6
Continuous
100
AcDbLine
 10
259.381983
 20
182.6459859999999
 30
0.0
 11
258.228077
 21
182.6459859999999
 31
0.0
  0
LINE
  5
B6E3
330
B279
100
AcDbEntity
  8
1
  6
Continuous
100
AcDbLine
 10
259.881983
 20
172.253681
 30
0.0
 11
258.228077
 21
172.253681
 31
0.0
  0
LINE
  5
B6E4
330
B279
100
AcDbEntity
  8
1
  6
Continuous
100
AcDbLine
 10
259.5730279999999
 20
179.1818839999999
 30
0.0
 11
258.228077
 21
179.1818839999999
 31
0.0
  0
LINE
  5
B6E5
330
B279
100
AcDbEntity
  8
1
  6
Continuous
100
AcDbLine
 10
257.692179
 20
179.7177819999998
 30
0.0
 11
257.609361
 21
179.7177819999998
 31
0.0
  0
LINE
  5
B6E6
330
B279
100
AcDbEntity
  8
1
  6
Continuous
100
AcDbLine
 10
258.228077
 20
182.6459859999999
 30
0.0
 11
257.692179
 21
181.7177819999998
 31
0.0
  0
ARC
  5
B6E7
330
B279
100
AcDbEntity
  8
1
  6
Continuous
100
AcDbCircle
 10
269.1562799999999
 20
175.717782
 30
0.0
 40
11.464102
100
AcDbArc
 50
162.412046
 51
197.5879539999999
  0
LINE
  5
B6E8
330
B279
100
AcDbEntity
  8
1
  6
Continuous
100
AcDbLine
 10
256.8093609999999
 20
172.517782
 30
0.0
 11
256.8093609999999
 21
178.9177819999999
 31
0.0
  0
LINE
  5
B6E9
330
B279
100
AcDbEntity
  8
1
  6
Continuous
100
AcDbLine
 10
256.8093609999999
 20
172.517782
 30
0.0
 11
257.609361
 21
171.717782
 31
0.0
  0
LINE
  5
B6EA
330
B279
100
AcDbEntity
  8
2
  6
Continuous
100
AcDbLine
 10
256.9328609999999
 20
172.3942819999998
 30
0.0
 11
257.692179
 21
172.3942819999998
 31
0.0
  0
LINE
  5
B6EB
330
B279
100
AcDbEntity
  8
1
  6
Continuous
100
AcDbLine
 10
257.692179
 20
171.717782
 30
0.0
 11
257.609361
 21
171.717782
 31
0.0
  0
ARC
  5
B6EC
330
B279
100
AcDbEntity
  8
1
  6
Continuous
100
AcDbCircle
 10
260.759166
 20
170.52163
 30
0.0
 40
3.066986999999998
100
AcDbArc
 50
145.615753
 51
184.16062
  0
LINE
  5
B6ED
330
B279
100
AcDbEntity
  8
2
  6
Continuous
100
AcDbLine
 10
256.9328609999999
 20
179.041282
 30
0.0
 11
257.692179
 21
179.041282
 31
0.0
  0
LINE
  5
B6EE
330
B279
100
AcDbEntity
  8
1
  6
Continuous
100
AcDbLine
 10
257.609361
 20
179.7177819999998
 30
0.0
 11
257.609361
 21
171.717782
 31
0.0
  0
LINE
  5
B6EF
330
B279
100
AcDbEntity
  8
1
  6
Continuous
100
AcDbLine
 10
257.692179
 20
181.7177819999998
 30
0.0
 11
257.692179
 21
170.299112
 31
0.0
  0
LINE
  5
B6F0
330
B279
100
AcDbEntity
  8
1
  6
Continuous
100
AcDbLine
 10
256.8093609999999
 20
178.9177819999999
 30
0.0
 11
257.609361
 21
179.7177819999998
 31
0.0
  0
ARC
  5
B6F1
330
B279
100
AcDbEntity
  8
1
  6
Continuous
100
AcDbCircle
 10
260.759166
 20
180.913935
 30
0.0
 40
3.066986999999998
100
AcDbArc
 50
154.3842469999999
 51
214.384247
  0
ENDSEC
  0
SECTION
  2
OBJECTS
  0
DICTIONARY
  5
B267
330
0
100
AcDbDictionary
281
     1
  3
ACAD_CIP_PREVIOUS_PRODUCT_INFO
350
B753
  3
ACAD_COLOR
350
B735
  3
ACAD_DETAILVIEWSTYLE
350
B74E
  3
ACAD_GROUP
350
B268
  3
ACAD_LAYOUT
350
B274
  3
ACAD_MATERIAL
350
B703
  3
ACAD_MLEADERSTYLE
350
B74A
  3
ACAD_MLINESTYLE
350
B271
  3
ACAD_PLOTSETTINGS
350
B273
  3
ACAD_PLOTSTYLENAME
350
B701
  3
ACAD_SCALELIST
350
B738
  3
ACAD_SECTIONVIEWSTYLE
350
B74C
  3
ACAD_TABLESTYLE
350
B736
  3
ACAD_VISUALSTYLE
350
B71C
  3
ACDB_RECOMPOSE_DATA
350
B771
  3
AcDbVariableDictionary
350
B764
  3
DWGPROPS
350
B772
  0
DICTIONARY
  5
B754
330
B26B
100
AcDbDictionary
280
     1
281
     1
  3
ADSK_XREC_LAYER_RECONCILED
360
B755
  0
DICTIONARY
  5
B756
330
B281
100
AcDbDictionary
280
     1
281
     1
  3
ADSK_XREC_LAYER_RECONCILED
360
B757
  0
DICTIONARY
  5
B758
330
B282
100
AcDbDictionary
280
     1
281
     1
  3
ADSK_XREC_LAYER_RECONCILED
360
B759
  0
DICTIONARY
  5
B75A
330
B283
100
AcDbDictionary
280
     1
281
     1
  3
ADSK_XREC_LAYER_RECONCILED
360
B75B
  0
DICTIONARY
  5
B75C
330
B284
100
AcDbDictionary
280
     1
281
     1
  3
ADSK_XREC_LAYER_RECONCILED
360
B75D
  0
DICTIONARY
  5
B75E
330
B285
100
AcDbDictionary
280
     1
281
     1
  3
ADSK_XREC_LAYER_RECONCILED
360
B75F
  0
DICTIONARY
  5
B760
330
B286
100
AcDbDictionary
280
     1
281
     1
  3
ADSK_XREC_LAYER_RECONCILED
360
B761
  0
DICTIONARY
  5
B762
330
B287
100
AcDbDictionary
280
     1
281
     1
  3
ADSK_XREC_LAYER_RECONCILED
360
B763
  0
DICTIONARY
  5
B6FC
330
B279
100
AcDbDictionary
281
     1
  3
ACAD_LAYOUTSELFREF
350
B6FD
  0
DICTIONARY
  5
B6FA
330
B275
100
AcDbDictionary
281
     1
  3
ACAD_LAYOUTSELFREF
350
B6FB
  0
XRECORD
  5
B753
102
{ACAD_REACTORS
330
B267
102
}
330
B267
100
AcDbXrecord
280
     1
300
ACDLT
300
2014
300
ACDLT_F_S
  0
DICTIONARY
  5
B735
102
{ACAD_REACTORS
330
B267
102
}
330
B267
100
AcDbDictionary
281
     1
  0
DICTIONARY
  5
B74E
102
{ACAD_REACTORS
330
B267
102
}
330
B267
100
AcDbDictionary
281
     1
  3
Imperial24
350
B74F
  0
DICTIONARY
  5
B268
102
{ACAD_REACTORS
330
B267
102
}
330
B267
100
AcDbDictionary
281
     1
  0
DICTIONARY
  5
B274
102
{ACAD_REACTORS
330
B267
102
}
330
B267
100
AcDbDictionary
281
     1
  3
Model
350
B750
  3
レイアウト1
350
B751
  0
DICTIONARY
  5
B703
102
{ACAD_REACTORS
330
B267
102
}
330
B267
100
AcDbDictionary
281
     1
  3
ByBlock
350
B70C
  3
ByLayer
350
B704
  3
Global
350
B714
  0
DICTIONARY
  5
B74A
102
{ACAD_REACTORS
330
B267
102
}
330
B267
100
AcDbDictionary
281
     1
  3
Standard
350
B74B
  0
DICTIONARY
  5
B271
102
{ACAD_REACTORS
330
B267
102
}
330
B267
100
AcDbDictionary
281
     1
  3
STANDARD
350
B272
  0
DICTIONARY
  5
B273
102
{ACAD_REACTORS
330
B267
102
}
330
B267
100
AcDbDictionary
281
     1
  0
ACDBDICTIONARYWDFLT
  5
B701
102
{ACAD_REACTORS
330
B267
102
}
330
B267
100
AcDbDictionary
281
     1
  3
Normal
350
B702
100
AcDbDictionaryWithDefault
340
B702
  0
DICTIONARY
  5
B738
102
{ACAD_REACTORS
330
B267
102
}
330
B267
100
AcDbDictionary
281
     1
  3
A0
350
B739
  3
A1
350
B73A
  3
A2
350
B73B
  3
A3
350
B73C
  3
A4
350
B73D
  3
A5
350
B73E
  3
A6
350
B73F
  3
A7
350
B740
  3
A8
350
B741
  3
A9
350
B742
  3
B0
350
B743
  3
B1
350
B744
  3
B2
350
B745
  3
B3
350
B746
  3
B4
350
B747
  3
B5
350
B748
  3
B6
350
B749
  0
DICTIONARY
  5
B74C
102
{ACAD_REACTORS
330
B267
102
}
330
B267
100
AcDbDictionary
281
     1
  3
Imperial24
350
B74D
  0
DICTIONARY
  5
B736
102
{ACAD_REACTORS
330
B267
102
}
330
B267
100
AcDbDictionary
281
     1
  3
Standard
350
B737
  0
DICTIONARY
  5
B71C
102
{ACAD_REACTORS
330
B267
102
}
330
B267
100
AcDbDictionary
281
     1
  3
2dWireframe
350
B722
  3
Basic
350
B721
  3
Brighten
350
B728
  3
ColorChange
350
B72C
  3
Conceptual
350
B725
  3
Dim
350
B727
  3
EdgeColorOff
350
B734
  3
Facepattern
350
B72B
  3
Flat
350
B71D
  3
FlatWithEdges
350
B71E
  3
Gouraud
350
B71F
  3
GouraudWithEdges
350
B720
  3
Hidden
350
B724
  3
JitterOff
350
B732
  3
Linepattern
350
B72A
  3
OverhangOff
350
B733
  3
Realistic
350
B726
  3
Shaded
350
B731
  3
Shaded with edges
350
B730
  3
Shades of Gray
350
B72D
  3
Sketchy
350
B72E
  3
Thicken
350
B729
  3
Wireframe
350
B723
  3
X-Ray
350
B72F
  0
XRECORD
  5
B771
102
{ACAD_REACTORS
330
B267
102
}
330
B267
100
AcDbXrecord
280
     1
 90
        1
330
B737
  0
DICTIONARY
  5
B764
102
{ACAD_REACTORS
330
B267
102
}
330
B267
100
AcDbDictionary
281
     1
  3
CANNOSCALE
350
B769
  3
CMLEADERSTYLE
350
B766
  3
CTABLESTYLE
350
B765
  3
CVIEWDETAILSTYLE
350
B767
  3
CVIEWSECTIONSTYLE
350
B768
  3
DIMASSOC
350
B76C
  3
INDEXCTL
350
B76B
  3
SORTENTS
350
B76A
  3
XCLIPFRAME
350
B76D
  0
XRECORD
  5
B772
102
{ACAD_REACTORS
330
B267
102
}
330
B267
100
AcDbXrecord
280
     1
  1
DWGPROPS COOKIE
  2

  3

  4

  6

  7

  8
Yoshitsune
  9

300
=
301
=
302
=
303
=
304
=
305
=
306
=
307
=
308
=
309
=
 40
0.0000136574074074
 41
2451301.673722106
 42
2457192.687985984
  1

 90
        0
  0
XRECORD
  5
B755
102
{ACAD_REACTORS
330
B754
102
}
330
B754
100
AcDbXrecord
280
     1
290
     1
  0
XRECORD
  5
B757
102
{ACAD_REACTORS
330
B756
102
}
330
B756
100
AcDbXrecord
280
     1
290
     1
  0
XRECORD
  5
B759
102
{ACAD_REACTORS
330
B758
102
}
330
B758
100
AcDbXrecord
280
     1
290
     1
  0
XRECORD
  5
B75B
102
{ACAD_REACTORS
330
B75A
102
}
330
B75A
100
AcDbXrecord
280
     1
290
     1
  0
XRECORD
  5
B75D
102
{ACAD_REACTORS
330
B75C
102
}
330
B75C
100
AcDbXrecord
280
     1
290
     1
  0
XRECORD
  5
B75F
102
{ACAD_REACTORS
330
B75E
102
}
330
B75E
100
AcDbXrecord
280
     1
290
     1
  0
XRECORD
  5
B761
102
{ACAD_REACTORS
330
B760
102
}
330
B760
100
AcDbXrecord
280
     1
290
     1
  0
XRECORD
  5
B763
102
{ACAD_REACTORS
330
B762
102
}
330
B762
100
AcDbXrecord
280
     1
290
     1
  0
XRECORD
  5
B6FD
102
{ACAD_REACTORS
330
B6FC
102
}
330
B6FC
100
AcDbXrecord
280
     1
340
B279
  0
XRECORD
  5
B6FB
102
{ACAD_REACTORS
330
B6FA
102
}
330
B6FA
100
AcDbXrecord
280
     1
340
B275
  0
ACDBDETAILVIEWSTYLE
  5
B74F
102
{ACAD_XDICTIONARY
360
B7AA
102
}
102
{ACAD_REACTORS
330
B74E
102
}
330
B74E
100
AcDbModelDocViewStyle
 70
     0
  3
Imperial24
290
     0
100
AcDbDetailViewStyle
 70
     0
 71
     0
 90
        3
 71
     1
340
B26C
 40
0.24
340
0
 40
0.24
300

 40
0.36
280
     3
 71
     2
340
B270
 90
       25
 71
     3
340
B26C
 40
0.24
 90
        1
 40
0.75
 90
        1
300
%<\AcVar ViewType \f "%tc1">% %<\AcVar ViewDetailId>%\PSCALE %<\AcVar ViewScale \f "%sn">%
 71
     4
340
B270
 90
       25
340
B270
 90
       25
280
     0
  0
LAYOUT
  5
B750
102
{ACAD_XDICTIONARY
360
B7AC
102
}
102
{ACAD_REACTORS
330
B274
102
}
330
B274
100
AcDbPlotSettings
  1

  2
Canon LBP9100C
  4

  6

 40
0.0
 41
0.0
 42
0.0
 43
0.0
 44
0.0
 45
0.0
 46
0.0
 47
0.0
 48
0.0
 49
0.0
140
0.0
141
0.0
142
1.0
143
1.0
 70
  1712
 72
     0
 73
     0
 74
     0
  7

 75
     0
147
1.0
148
0.0
149
0.0
100
AcDbLayout
  1
Model
 70
     1
 71
     0
 10
0.0
 20
0.0
 11
12.0
 21
9.0
 12
0.0
 22
0.0
 32
0.0
 14
0.0
 24
0.0
 34
0.0
 15
0.0
 25
0.0
 35
0.0
146
0.0
 13
0.0
 23
0.0
 33
0.0
 16
1.0
 26
0.0
 36
0.0
 17
0.0
 27
1.0
 37
0.0
 76
     0
330
B279
331
B6F9
  0
LAYOUT
  5
B751
102
{ACAD_XDICTIONARY
360
B7AE
102
}
102
{ACAD_REACTORS
330
B274
102
}
330
B274
100
AcDbPlotSettings
  1

  2
Canon LBP9100C
  4

  6

 40
0.0
 41
0.0
 42
0.0
 43
0.0
 44
0.0
 45
0.0
 46
0.0
 47
0.0
 48
0.0
 49
0.0
140
0.0
141
0.0
142
1.0
143
1.0
 70
   688
 72
     0
 73
     0
 74
     5
  7

 75
    16
147
1.0
148
0.0
149
0.0
100
AcDbLayout
  1
レイアウト1
 70
     0
 71
     1
 10
0.0
 20
0.0
 11
420.0
 21
297.0
 12
0.0
 22
0.0
 32
0.0
 14
1.000000000000000E+20
 24
1.000000000000000E+20
 34
1.000000000000000E+20
 15
-1.000000000000000E+20
 25
-1.000000000000000E+20
 35
-1.000000000000000E+20
146
0.0
 13
0.0
 23
0.0
 33
0.0
 16
1.0
 26
0.0
 36
0.0
 17
0.0
 27
1.0
 37
0.0
 76
     0
330
B275
  0
MATERIAL
  5
B70C
102
{ACAD_XDICTIONARY
360
B70D
102
}
102
{ACAD_REACTORS
330
B703
102
}
330
B703
100
AcDbMaterial
  1
ByBlock
 72
     0
 43
0.0208333333333333
 43
0.0
 43
0.0
 43
0.0
 43
0.0
 43
0.0208333333333333
 43
0.0
 43
0.0
 43
0.0
 43
0.0
 43
1.0
 43
0.0
 43
0.0
 43
0.0
 43
0.0
 43
1.0
 77
     0
 47
0.0208333333333333
 47
0.0
 47
0.0
 47
0.0
 47
0.0
 47
0.0208333333333333
 47
0.0
 47
0.0
 47
0.0
 47
0.0
 47
1.0
 47
0.0
 47
0.0
 47
0.0
 47
0.0
 47
1.0
171
     0
 49
0.0208333333333333
 49
0.0
 49
0.0
 49
0.0
 49
0.0
 49
0.0208333333333333
 49
0.0
 49
0.0
 49
0.0
 49
0.0
 49
1.0
 49
0.0
 49
0.0
 49
0.0
 49
0.0
 49
1.0
175
     0
142
0.0208333333333333
142
0.0
142
0.0
142
0.0
142
0.0
142
0.0208333333333333
142
0.0
142
0.0
142
0.0
142
0.0
142
1.0
142
0.0
142
0.0
142
0.0
142
0.0
142
1.0
179
     0
144
0.0208333333333333
144
0.0
144
0.0
144
0.0
144
0.0
144
0.0208333333333333
144
0.0
144
0.0
144
0.0
144
0.0
144
1.0
144
0.0
144
0.0
144
0.0
144
0.0
144
1.0
147
0.0208333333333333
147
0.0
147
0.0
147
0.0
147
0.0
147
0.0208333333333333
147
0.0
147
0.0
147
0.0
147
0.0
147
1.0
147
0.0
147
0.0
147
0.0
147
0.0
147
1.0
  0
MATERIAL
  5
B704
102
{ACAD_XDICTIONARY
360
B705
102
}
102
{ACAD_REACTORS
330
B703
102
}
330
B703
100
AcDbMaterial
  1
ByLayer
 72
     0
 43
0.0208333333333333
 43
0.0
 43
0.0
 43
0.0
 43
0.0
 43
0.0208333333333333
 43
0.0
 43
0.0
 43
0.0
 43
0.0
 43
1.0
 43
0.0
 43
0.0
 43
0.0
 43
0.0
 43
1.0
 77
     0
 47
0.0208333333333333
 47
0.0
 47
0.0
 47
0.0
 47
0.0
 47
0.0208333333333333
 47
0.0
 47
0.0
 47
0.0
 47
0.0
 47
1.0
 47
0.0
 47
0.0
 47
0.0
 47
0.0
 47
1.0
171
     0
 49
0.0208333333333333
 49
0.0
 49
0.0
 49
0.0
 49
0.0
 49
0.0208333333333333
 49
0.0
 49
0.0
 49
0.0
 49
0.0
 49
1.0
 49
0.0
 49
0.0
 49
0.0
 49
0.0
 49
1.0
175
     0
142
0.0208333333333333
142
0.0
142
0.0
142
0.0
142
0.0
142
0.0208333333333333
142
0.0
142
0.0
142
0.0
142
0.0
142
1.0
142
0.0
142
0.0
142
0.0
142
0.0
142
1.0
179
     0
144
0.0208333333333333
144
0.0
144
0.0
144
0.0
144
0.0
144
0.0208333333333333
144
0.0
144
0.0
144
0.0
144
0.0
144
1.0
144
0.0
144
0.0
144
0.0
144
0.0
144
1.0
147
0.0208333333333333
147
0.0
147
0.0
147
0.0
147
0.0
147
0.0208333333333333
147
0.0
147
0.0
147
0.0
147
0.0
147
1.0
147
0.0
147
0.0
147
0.0
147
0.0
147
1.0
  0
MATERIAL
  5
B714
102
{ACAD_XDICTIONARY
360
B715
102
}
102
{ACAD_REACTORS
330
B703
102
}
330
B703
100
AcDbMaterial
  1
Global
 72
     0
 43
0.0208333333333333
 43
0.0
 43
0.0
 43
0.0
 43
0.0
 43
0.0208333333333333
 43
0.0
 43
0.0
 43
0.0
 43
0.0
 43
1.0
 43
0.0
 43
0.0
 43
0.0
 43
0.0
 43
1.0
 77
     0
 47
0.0208333333333333
 47
0.0
 47
0.0
 47
0.0
 47
0.0
 47
0.0208333333333333
 47
0.0
 47
0.0
 47
0.0
 47
0.0
 47
1.0
 47
0.0
 47
0.0
 47
0.0
 47
0.0
 47
1.0
171
     0
 49
0.0208333333333333
 49
0.0
 49
0.0
 49
0.0
 49
0.0
 49
0.0208333333333333
 49
0.0
 49
0.0
 49
0.0
 49
0.0
 49
1.0
 49
0.0
 49
0.0
 49
0.0
 49
0.0
 49
1.0
175
     0
142
0.0208333333333333
142
0.0
142
0.0
142
0.0
142
0.0
142
0.0208333333333333
142
0.0
142
0.0
142
0.0
142
0.0
142
1.0
142
0.0
142
0.0
142
0.0
142
0.0
142
1.0
179
     0
144
0.0208333333333333
144
0.0
144
0.0
144
0.0
144
0.0
144
0.0208333333333333
144
0.0
144
0.0
144
0.0
144
0.0
144
1.0
144
0.0
144
0.0
144
0.0
144
0.0
144
1.0
147
0.0208333333333333
147
0.0
147
0.0
147
0.0
147
0.0
147
0.0208333333333333
147
0.0
147
0.0
147
0.0
147
0.0
147
1.0
147
0.0
147
0.0
147
0.0
147
0.0
147
1.0
  0
MLEADERSTYLE
  5
B74B
102
{ACAD_REACTORS
330
B74A
102
}
330
B74A
100
AcDbMLeaderStyle
170
     2
171
     1
172
     0
 90
        2
 40
0.0
 41
0.0
173
     1
 91
-1056964608
340
B26E
 92
       -2
290
     1
 42
0.09
291
     1
 43
0.36
  3
Standard
 44
0.18
300

342
B26C
174
     1
178
     6
175
     1
176
     0
 93
-1056964608
 45
0.18
292
     0
297
     0
 46
0.18
 94
-1056964608
 47
1.0
 49
1.0
140
1.0
293
     1
141
0.0
294
     1
177
     0
142
1.0
295
     0
296
     0
143
0.125
1001
ACAD_MLEADERVER
1070
     2
  0
MLINESTYLE
  5
B272
102
{ACAD_REACTORS
330
B271
102
}
330
B271
100
AcDbMlineStyle
  2
STANDARD
 70
     0
  3

 62
   256
 51
90.0
 52
90.0
 71
     2
 49
0.5
 62
   256
  6
BYLAYER
 49
-0.5
 62
   256
  6
BYLAYER
  0
ACDBPLACEHOLDER
  5
B702
102
{ACAD_REACTORS
330
B701
102
}
330
B701
  0
SCALE
  5
B739
102
{ACAD_REACTORS
330
B738
102
}
330
B738
100
AcDbScale
 70
     0
300
1:1
140
1.0
141
1.0
290
     1
  0
SCALE
  5
B73A
102
{ACAD_REACTORS
330
B738
102
}
330
B738
100
AcDbScale
 70
     0
300
1/128" = 1'-0"
140
0.0078125
141
12.0
290
     0
  0
SCALE
  5
B73B
102
{ACAD_REACTORS
330
B738
102
}
330
B738
100
AcDbScale
 70
     0
300
1/64" = 1'-0"
140
0.015625
141
12.0
290
     0
  0
SCALE
  5
B73C
102
{ACAD_REACTORS
330
B738
102
}
330
B738
100
AcDbScale
 70
     0
300
1/32" = 1'-0"
140
0.03125
141
12.0
290
     0
  0
SCALE
  5
B73D
102
{ACAD_REACTORS
330
B738
102
}
330
B738
100
AcDbScale
 70
     0
300
1/16" = 1'-0"
140
0.0625
141
12.0
290
     0
  0
SCALE
  5
B73E
102
{ACAD_REACTORS
330
B738
102
}
330
B738
100
AcDbScale
 70
     0
300
3/32" = 1'-0"
140
0.09375
141
12.0
290
     0
  0
SCALE
  5
B73F
102
{ACAD_REACTORS
330
B738
102
}
330
B738
100
AcDbScale
 70
     0
300
1/8" = 1'-0"
140
0.125
141
12.0
290
     0
  0
SCALE
  5
B740
102
{ACAD_REACTORS
330
B738
102
}
330
B738
100
AcDbScale
 70
     0
300
3/16" = 1'-0"
140
0.1875
141
12.0
290
     0
  0
SCALE
  5
B741
102
{ACAD_REACTORS
330
B738
102
}
330
B738
100
AcDbScale
 70
     0
300
1/4" = 1'-0"
140
0.25
141
12.0
290
     0
  0
SCALE
  5
B742
102
{ACAD_REACTORS
330
B738
102
}
330
B738
100
AcDbScale
 70
     0
300
3/8" = 1'-0"
140
0.375
141
12.0
290
     0
  0
SCALE
  5
B743
102
{ACAD_REACTORS
330
B738
102
}
330
B738
100
AcDbScale
 70
     0
300
1/2" = 1'-0"
140
0.5
141
12.0
290
     0
  0
SCALE
  5
B744
102
{ACAD_REACTORS
330
B738
102
}
330
B738
100
AcDbScale
 70
     0
300
3/4" = 1'-0"
140
0.75
141
12.0
290
     0
  0
SCALE
  5
B745
102
{ACAD_REACTORS
330
B738
102
}
330
B738
100
AcDbScale
 70
     0
300
1" = 1'-0"
140
1.0
141
12.0
290
     0
  0
SCALE
  5
B746
102
{ACAD_REACTORS
330
B738
102
}
330
B738
100
AcDbScale
 70
     0
300
1-1/2" = 1'-0"
140
1.5
141
12.0
290
     0
  0
SCALE
  5
B747
102
{ACAD_REACTORS
330
B738
102
}
330
B738
100
AcDbScale
 70
     0
300
3" = 1'-0"
140
3.0
141
12.0
290
     0
  0
SCALE
  5
B748
102
{ACAD_REACTORS
330
B738
102
}
330
B738
100
AcDbScale
 70
     0
300
6" = 1'-0"
140
6.0
141
12.0
290
     0
  0
SCALE
  5
B749
102
{ACAD_REACTORS
330
B738
102
}
330
B738
100
AcDbScale
 70
     0
300
1'-0" = 1'-0"
140
12.0
141
12.0
290
     0
  0
ACDBSECTIONVIEWSTYLE
  5
B74D
102
{ACAD_XDICTIONARY
360
B7A8
102
}
102
{ACAD_REACTORS
330
B74C
102
}
330
B74C
100
AcDbModelDocViewStyle
 70
     0
  3
Imperial24
290
     0
100
AcDbSectionViewStyle
 70
     0
 71
     0
 90
       78
 71
     1
340
B26C
 40
0.24
340
0
340
0
 40
0.24
300
I, O, Q, S, X, Z
 40
0.48
 90
        3
 40
0.18
 90
        1
 71
     2
340
B270
 90
       25
340
B270
 90
       50
 40
0.24
 40
0.0
 40
0.24
 71
     3
340
B26C
 40
0.24
 90
        1
 40
0.75
 90
        1
300
%<\AcVar ViewType \f "%tc1">% %<\AcVar ViewSectionStartId>%-%<\AcVar ViewSectionEndId>%\PSCALE %<\AcVar ViewScale \f "%sn">%
 71
     4
300
ANSI31
 40
1.0
 90
        0
290
     0
290
     0
 90
        6
 40
0.0
 40
1.570796326794896
 40
0.2617993877991494
 40
1.308996938995747
 40
-0.2617993877991494
 40
1.832595714594046
  0
TABLESTYLE
  5
B737
102
{ACAD_XDICTIONARY
360
B76F
102
}
102
{ACAD_REACTORS
330
B736
102
}
330
B736
100
AcDbTableStyle
  3
Standard
 70
     0
 71
     0
 40
0.06
 41
0.06
280
     0
281
     0
  7
STANDARD
140
0.18
170
     2
 62
     0
 63
     7
283
     0
274
    -2
284
     1
 64
     0
275
    -2
285
     1
 65
     0
276
    -2
286
     1
 66
     0
277
    -2
287
     1
 67
     0
278
    -2
288
     1
 68
     0
279
    -2
289
     1
 69
     0
  7
STANDARD
140
0.25
170
     5
 62
     0
 63
     7
283
     0
274
    -2
284
     1
 64
     0
275
    -2
285
     1
 65
     0
276
    -2
286
     1
 66
     0
277
    -2
287
     1
 67
     0
278
    -2
288
     1
 68
     0
279
    -2
289
     1
 69
     0
  7
STANDARD
140
0.18
170
     5
 62
     0
 63
     7
283
     0
274
    -2
284
     1
 64
     0
275
    -2
285
     1
 65
     0
276
    -2
286
     1
 66
     0
277
    -2
287
     1
 67
     0
278
    -2
288
     1
 68
     0
279
    -2
289
     1
 69
     0
  0
VISUALSTYLE
  5
B722
102
{ACAD_XDICTIONARY
360
B780
102
}
102
{ACAD_REACTORS
330
B71C
102
}
330
B71C
100
AcDbVisualStyle
  2
2dWireframe
 70
     4
 71
     0
 72
     2
 73
     0
 90
        0
 40
-0.6
 41
-30.0
 62
     5
 63
     7
 74
     1
 91
        4
 64
     7
 65
   257
 75
     1
175
     1
 42
1.0
 92
        0
 66
   257
 43
1.0
 76
     1
 77
     6
 78
     2
 67
     7
 79
     5
170
     0
171
     0
290
     0
174
     0
 93
        1
 44
0.0
173
     0
291
     0
 45
0.0
1001
ACAD
1000
AcDbSavedByObjectVersion
1070
     0
  0
VISUALSTYLE
  5
B721
102
{ACAD_XDICTIONARY
360
B77E
102
}
102
{ACAD_REACTORS
330
B71C
102
}
330
B71C
100
AcDbVisualStyle
  2
Basic
 70
     7
 71
     1
 72
     0
 73
     1
 90
        0
 40
-0.6
 41
-30.0
 62
     5
 63
     7
 74
     0
 91
        4
 64
     7
 65
   257
 75
     1
175
     1
 42
1.0
 92
        8
 66
     7
 43
1.0
 76
     1
 77
     6
 78
     2
 67
     7
 79
     5
170
     0
171
     0
290
     0
174
     0
 93
        1
 44
0.0
173
     0
291
     1
 45
0.0
1001
ACAD
1000
AcDbSavedByObjectVersion
1070
     0
  0
VISUALSTYLE
  5
B728
102
{ACAD_XDICTIONARY
360
B78C
102
}
102
{ACAD_REACTORS
330
B71C
102
}
330
B71C
100
AcDbVisualStyle
  2
Brighten
 70
    12
 71
     2
 72
     2
 73
     0
 90
        0
 40
-0.6
 41
-30.0
 62
     5
 63
     7
 74
     1
 91
        4
 64
     7
 65
   257
 75
     1
175
     1
 42
1.0
 92
        8
 66
     7
 43
1.0
 76
     1
 77
     6
 78
     2
 67
     7
 79
     5
170
     0
171
     0
290
     0
174
     0
 93
        1
 44
50.0
173
     0
291
     1
 45
0.0
1001
ACAD
1000
AcDbSavedByObjectVersion
1070
     0
  0
VISUALSTYLE
  5
B72C
102
{ACAD_XDICTIONARY
360
B794
102
}
102
{ACAD_REACTORS
330
B71C
102
}
330
B71C
100
AcDbVisualStyle
  2
ColorChange
 70
    16
 71
     2
 72
     2
 73
     3
 90
        0
 40
-0.6
 41
-30.0
 62
     5
 63
     8
 74
     1
 91
        4
 64
     7
 65
   257
 75
     1
175
     1
 42
1.0
 92
        8
 66
     8
 43
1.0
 76
     1
 77
     6
 78
     2
 67
     7
 79
     5
170
     0
171
     0
290
     0
174
     0
 93
        1
 44
0.0
173
     0
291
     1
 45
0.0
1001
ACAD
1000
AcDbSavedByObjectVersion
1070
     0
  0
VISUALSTYLE
  5
B725
102
{ACAD_XDICTIONARY
360
B786
102
}
102
{ACAD_REACTORS
330
B71C
102
}
330
B71C
100
AcDbVisualStyle
  2
Conceptual
 70
     9
 71
     3
 72
     2
 73
     0
 90
        0
 40
-0.6
 41
-30.0
 62
     5
 63
     7
 74
     2
 91
        2
 64
     7
 65
   257
 75
     1
175
     1
 42
179.0
 92
        8
 66
     7
 43
1.0
 76
     1
 77
     6
 78
     2
 67
     7
 79
     3
170
     0
171
     0
290
     0
174
     0
 93
        1
 44
0.0
173
     0
291
     0
 45
0.0
1001
ACAD
1000
AcDbSavedByObjectVersion
1070
     0
  0
VISUALSTYLE
  5
B727
102
{ACAD_XDICTIONARY
360
B78A
102
}
102
{ACAD_REACTORS
330
B71C
102
}
330
B71C
100
AcDbVisualStyle
  2
Dim
 70
    11
 71
     2
 72
     2
 73
     0
 90
        0
 40
-0.6
 41
-30.0
 62
     5
 63
     7
 74
     1
 91
        4
 64
     7
 65
   257
 75
     1
175
     1
 42
1.0
 92
        8
 66
     7
 43
1.0
 76
     1
 77
     6
 78
     2
 67
     7
 79
     5
170
     0
171
     0
290
     0
174
     0
 93
        1
 44
-50.0
173
     0
291
     1
 45
0.0
1001
ACAD
1000
AcDbSavedByObjectVersion
1070
     0
  0
VISUALSTYLE
  5
B734
102
{ACAD_XDICTIONARY
360
B7A4
102
}
102
{ACAD_REACTORS
330
B71C
102
}
330
B71C
100
AcDbVisualStyle
  2
EdgeColorOff
 70
    22
 71
     2
 72
     2
 73
     0
 90
        0
 40
-0.6
 41
-30.0
 62
     5
 63
     7
 74
     1
 91
        4
 64
     7
 65
   257
 75
     1
175
     1
 42
1.0
 92
        8
 66
     7
 43
1.0
 76
     1
 77
     6
 78
     2
 67
     7
 79
     5
170
     0
171
     0
290
     0
174
     0
 93
        1
 44
0.0
173
     0
291
     1
 45
0.0
1001
ACAD
1000
AcDbSavedByObjectVersion
1070
     0
  0
VISUALSTYLE
  5
B72B
102
{ACAD_XDICTIONARY
360
B792
102
}
102
{ACAD_REACTORS
330
B71C
102
}
330
B71C
100
AcDbVisualStyle
  2
Facepattern
 70
    15
 71
     2
 72
     2
 73
     0
 90
        0
 40
-0.6
 41
-30.0
 62
     5
 63
     7
 74
     1
 91
        4
 64
     7
 65
   257
 75
     1
175
     1
 42
1.0
 92
        8
 66
     7
 43
1.0
 76
     1
 77
     6
 78
     2
 67
     7
 79
     5
170
     0
171
     0
290
     0
174
     0
 93
        1
 44
0.0
173
     0
291
     1
 45
0.0
1001
ACAD
1000
AcDbSavedByObjectVersion
1070
     0
  0
VISUALSTYLE
  5
B71D
102
{ACAD_XDICTIONARY
360
B776
102
}
102
{ACAD_REACTORS
330
B71C
102
}
330
B71C
100
AcDbVisualStyle
  2
Flat
 70
     0
 71
     2
 72
     1
 73
     1
 90
        2
 40
-0.6
 41
30.0
 62
     5
 63
     7
 74
     0
 91
        0
 64
     7
 65
   257
 75
     1
175
     1
 42
1.0
 92
        8
 66
     7
 43
1.0
 76
     1
 77
     6
 78
     2
 67
     7
 79
     5
170
     0
171
     0
290
     0
174
     0
 93
       13
 44
0.0
173
     0
291
     1
 45
0.0
1001
ACAD
1000
AcDbSavedByObjectVersion
1070
     0
  0
VISUALSTYLE
  5
B71E
102
{ACAD_XDICTIONARY
360
B778
102
}
102
{ACAD_REACTORS
330
B71C
102
}
330
B71C
100
AcDbVisualStyle
  2
FlatWithEdges
 70
     1
 71
     2
 72
     1
 73
     1
 90
        2
 40
-0.6
 41
30.0
 62
     5
 63
     7
 74
     1
 91
        0
 64
     7
 65
   257
 75
     1
175
     1
 42
1.0
 92
        0
 66
   257
 43
1.0
 76
     1
 77
     6
 78
     2
 67
     7
 79
     5
170
     0
171
     0
290
     0
174
     0
 93
       13
 44
0.0
173
     0
291
     1
 45
0.0
1001
ACAD
1000
AcDbSavedByObjectVersion
1070
     0
  0
VISUALSTYLE
  5
B71F
102
{ACAD_XDICTIONARY
360
B77A
102
}
102
{ACAD_REACTORS
330
B71C
102
}
330
B71C
100
AcDbVisualStyle
  2
Gouraud
 70
     2
 71
     2
 72
     2
 73
     1
 90
        2
 40
-0.6
 41
30.0
 62
     5
 63
     7
 74
     0
 91
        0
 64
     7
 65
   257
 75
     1
175
     1
 42
1.0
 92
        0
 66
     7
 43
1.0
 76
     1
 77
     6
 78
     2
 67
     7
 79
     5
170
     0
171
     0
290
     0
174
     0
 93
       13
 44
0.0
173
     0
291
     1
 45
0.0
1001
ACAD
1000
AcDbSavedByObjectVersion
1070
     0
  0
VISUALSTYLE
  5
B720
102
{ACAD_XDICTIONARY
360
B77C
102
}
102
{ACAD_REACTORS
330
B71C
102
}
330
B71C
100
AcDbVisualStyle
  2
GouraudWithEdges
 70
     3
 71
     2
 72
     2
 73
     1
 90
        2
 40
-0.6
 41
30.0
 62
     5
 63
     7
 74
     1
 91
        0
 64
     7
 65
   257
 75
     1
175
     1
 42
1.0
 92
        0
 66
   257
 43
1.0
 76
     1
 77
     6
 78
     2
 67
     7
 79
     5
170
     0
171
     0
290
     0
174
     0
 93
       13
 44
0.0
173
     0
291
     1
 45
0.0
1001
ACAD
1000
AcDbSavedByObjectVersion
1070
     0
  0
VISUALSTYLE
  5
B724
102
{ACAD_XDICTIONARY
360
B784
102
}
102
{ACAD_REACTORS
330
B71C
102
}
330
B71C
100
AcDbVisualStyle
  2
Hidden
 70
     6
 71
     1
 72
     2
 73
     2
 90
        0
 40
-0.6
 41
-30.0
 62
     5
 63
     7
 74
     2
 91
        2
 64
     7
 65
   257
 75
     2
175
     1
 42
40.0
 92
        0
 66
   257
 43
1.0
 76
     1
 77
     6
 78
     2
 67
     7
 79
     3
170
     0
171
     0
290
     0
174
     0
 93
        1
 44
0.0
173
     0
291
     0
 45
0.0
1001
ACAD
1000
AcDbSavedByObjectVersion
1070
     0
  0
VISUALSTYLE
  5
B732
102
{ACAD_XDICTIONARY
360
B7A0
102
}
102
{ACAD_REACTORS
330
B71C
102
}
330
B71C
100
AcDbVisualStyle
  2
JitterOff
 70
    20
 71
     2
 72
     2
 73
     0
 90
        0
 40
-0.6
 41
-30.0
 62
     5
 63
     7
 74
     1
 91
        4
 64
     7
 65
   257
 75
     1
175
     1
 42
1.0
 92
       10
 66
     7
 43
1.0
 76
     1
 77
     6
 78
     2
 67
     7
 79
     5
170
     0
171
     0
290
     0
174
     0
 93
        1
 44
0.0
173
     0
291
     1
 45
0.0
1001
ACAD
1000
AcDbSavedByObjectVersion
1070
     0
  0
VISUALSTYLE
  5
B72A
102
{ACAD_XDICTIONARY
360
B790
102
}
102
{ACAD_REACTORS
330
B71C
102
}
330
B71C
100
AcDbVisualStyle
  2
Linepattern
 70
    14
 71
     2
 72
     2
 73
     0
 90
        0
 40
-0.6
 41
-30.0
 62
     5
 63
     7
 74
     1
 91
        4
 64
     7
 65
   257
 75
     7
175
     7
 42
1.0
 92
        8
 66
     7
 43
1.0
 76
     1
 77
     6
 78
     2
 67
     7
 79
     5
170
     0
171
     0
290
     0
174
     0
 93
        1
 44
0.0
173
     0
291
     1
 45
0.0
1001
ACAD
1000
AcDbSavedByObjectVersion
1070
     0
  0
VISUALSTYLE
  5
B733
102
{ACAD_XDICTIONARY
360
B7A2
102
}
102
{ACAD_REACTORS
330
B71C
102
}
330
B71C
100
AcDbVisualStyle
  2
OverhangOff
 70
    21
 71
     2
 72
     2
 73
     0
 90
        0
 40
-0.6
 41
-30.0
 62
     5
 63
     7
 74
     1
 91
        4
 64
     7
 65
   257
 75
     1
175
     1
 42
1.0
 92
        9
 66
     7
 43
1.0
 76
     1
 77
     6
 78
     2
 67
     7
 79
     5
170
     0
171
     0
290
     0
174
     0
 93
        1
 44
0.0
173
     0
291
     1
 45
0.0
1001
ACAD
1000
AcDbSavedByObjectVersion
1070
     0
  0
VISUALSTYLE
  5
B726
102
{ACAD_XDICTIONARY
360
B788
102
}
102
{ACAD_REACTORS
330
B71C
102
}
330
B71C
100
AcDbVisualStyle
  2
Realistic
 70
     8
 71
     2
 72
     3
 73
     0
 90
        2
 40
-0.6
 41
30.0
 62
     5
 63
     7
 74
     0
 91
        0
 64
     7
 65
   257
 75
     1
175
     1
 42
1.0
 92
        8
 66
   257
 43
1.0
 76
     1
 77
     6
 78
     2
 67
     7
 79
     3
170
     0
171
     0
290
     0
174
     0
 93
       13
 44
0.0
173
     0
291
     0
 45
0.0
1001
ACAD
1000
AcDbSavedByObjectVersion
1070
     0
  0
VISUALSTYLE
  5
B731
102
{ACAD_XDICTIONARY
360
B79E
102
}
102
{ACAD_REACTORS
330
B71C
102
}
330
B71C
100
AcDbVisualStyle
  2
Shaded
 70
    27
 71
     2
 72
     2
 73
     1
 90
        2
 40
-0.6
 41
30.0
 62
     5
 63
     7
 74
     0
 91
        4
 64
     7
 65
   257
 75
     1
175
     1
 42
1.0
 92
        8
 66
   257
 43
1.0
 76
     1
 77
     6
 78
     2
 67
     8
 79
     3
170
     0
171
     0
290
     0
174
     0
 93
        5
 44
0.0
173
     0
291
     0
 45
0.0
1001
ACAD
1000
AcDbSavedByObjectVersion
1070
     0
  0
VISUALSTYLE
  5
B730
102
{ACAD_XDICTIONARY
360
B79C
102
}
102
{ACAD_REACTORS
330
B71C
102
}
330
B71C
100
AcDbVisualStyle
  2
Shaded with edges
 70
    26
 71
     2
 72
     2
 73
     1
 90
        2
 40
-0.6
 41
30.0
 62
     5
 63
     7
 74
     1
 91
       10
 64
     7
 65
   257
 75
     2
175
     1
 42
1.0
 92
        8
 66
   257
 43
1.0
 76
     1
 77
     6
 78
     2
 67
     7
 79
     3
170
     0
171
     0
290
     0
174
     0
 93
        5
 44
0.0
173
     0
291
     0
 45
0.0
1001
ACAD
1000
AcDbSavedByObjectVersion
1070
     0
  0
VISUALSTYLE
  5
B72D
102
{ACAD_XDICTIONARY
360
B796
102
}
102
{ACAD_REACTORS
330
B71C
102
}
330
B71C
100
AcDbVisualStyle
  2
Shades of Gray
 70
    23
 71
     2
 72
     2
 73
     3
 90
        0
 40
-0.6
 41
-30.0
 62
     5
 63
     7
 74
     2
 91
        2
 64
     7
 65
     7
 75
     1
175
     1
 42
40.0
 92
        8
 66
     7
 43
1.0
 76
     1
 77
     6
 78
     2
 67
     7
 79
     3
170
     0
171
     0
290
     0
174
     0
 93
        1
 44
0.0
173
     0
291
     0
 45
0.0
1001
ACAD
1000
AcDbSavedByObjectVersion
1070
     0
  0
VISUALSTYLE
  5
B72E
102
{ACAD_XDICTIONARY
360
B798
102
}
102
{ACAD_REACTORS
330
B71C
102
}
330
B71C
100
AcDbVisualStyle
  2
Sketchy
 70
    24
 71
     1
 72
     2
 73
     2
 90
        0
 40
-0.6
 41
-30.0
 62
     5
 63
     7
 74
     2
 91
        2
 64
     7
 65
     7
 75
     1
175
     1
 42
40.0
 92
       11
 66
     7
 43
1.0
 76
     1
 77
     6
 78
     2
 67
     7
 79
     6
170
     0
171
     0
290
     0
174
     0
 93
        1
 44
0.0
173
     0
291
     0
 45
0.0
1001
ACAD
1000
AcDbSavedByObjectVersion
1070
     0
  0
VISUALSTYLE
  5
B729
102
{ACAD_XDICTIONARY
360
B78E
102
}
102
{ACAD_REACTORS
330
B71C
102
}
330
B71C
100
AcDbVisualStyle
  2
Thicken
 70
    13
 71
     2
 72
     2
 73
     0
 90
        0
 40
-0.6
 41
-30.0
 62
     5
 63
     7
 74
     1
 91
        4
 64
     7
 65
   257
 75
     1
175
     1
 42
1.0
 92
       12
 66
     7
 43
1.0
 76
     1
 77
     6
 78
     2
 67
     7
 79
     5
170
     0
171
     0
290
     0
174
     0
 93
        1
 44
0.0
173
     0
291
     1
 45
0.0
1001
ACAD
1000
AcDbSavedByObjectVersion
1070
     0
  0
VISUALSTYLE
  5
B723
102
{ACAD_XDICTIONARY
360
B782
102
}
102
{ACAD_REACTORS
330
B71C
102
}
330
B71C
100
AcDbVisualStyle
  2
Wireframe
 70
     5
 71
     0
 72
     2
 73
     0
 90
        0
 40
-0.6
 41
-30.0
 62
     5
 63
     7
 74
     1
 91
        4
 64
     7
 65
   257
 75
     1
175
     1
 42
1.0
 92
        0
 66
   257
 43
1.0
 76
     1
 77
     6
 78
     2
 67
     7
 79
     3
170
     0
171
     0
290
     0
174
     0
 93
        1
 44
0.0
173
     0
291
     0
 45
0.0
1001
ACAD
1000
AcDbSavedByObjectVersion
1070
     0
  0
VISUALSTYLE
  5
B72F
102
{ACAD_XDICTIONARY
360
B79A
102
}
102
{ACAD_REACTORS
330
B71C
102
}
330
B71C
100
AcDbVisualStyle
  2
X-Ray
 70
    25
 71
     2
 72
     2
 73
     1
 90
        1
 40
0.5
 41
-30.0
 62
     5
 63
     7
 74
     1
 91
        0
 64
     7
 65
   257
 75
     1
175
     1
 42
1.0
 92
        8
 66
     7
 43
1.0
 76
     1
 77
     6
 78
     2
 67
     7
 79
     3
170
     0
171
     0
290
     0
174
     0
 93
       13
 44
0.0
173
     0
291
     0
 45
0.0
1001
ACAD
1000
AcDbSavedByObjectVersion
1070
     0
  0
DICTIONARYVAR
  5
B769
102
{ACAD_REACTORS
330
B764
102
}
330
B764
100
DictionaryVariables
280
     0
  1
1:1
  0
DICTIONARYVAR
  5
B766
102
{ACAD_REACTORS
330
B764
102
}
330
B764
100
DictionaryVariables
280
     0
  1
STANDARD
  0
DICTIONARYVAR
  5
B765
102
{ACAD_REACTORS
330
B764
102
}
330
B764
100
DictionaryVariables
280
     0
  1
STANDARD
  0
DICTIONARYVAR
  5
B767
102
{ACAD_REACTORS
330
B764
102
}
330
B764
100
DictionaryVariables
280
     0
  1
Imperial24
  0
DICTIONARYVAR
  5
B768
102
{ACAD_REACTORS
330
B764
102
}
330
B764
100
DictionaryVariables
280
     0
  1
Imperial24
  0
DICTIONARYVAR
  5
B76C
102
{ACAD_REACTORS
330
B764
102
}
330
B764
100
DictionaryVariables
280
     0
  1
1
  0
DICTIONARYVAR
  5
B76B
102
{ACAD_REACTORS
330
B764
102
}
330
B764
100
DictionaryVariables
280
     0
  1
0
  0
DICTIONARYVAR
  5
B76A
102
{ACAD_REACTORS
330
B764
102
}
330
B764
100
DictionaryVariables
280
     0
  1
127
  0
DICTIONARYVAR
  5
B76D
102
{ACAD_REACTORS
330
B764
102
}
330
B764
100
DictionaryVariables
280
     0
  1
2
  0
DICTIONARY
  5
B7AA
330
B74F
100
AcDbDictionary
280
     1
281
     1
  3
ACAD_XREC_ROUNDTRIP
360
B7AB
  0
DICTIONARY
  5
B7AC
330
B750
100
AcDbDictionary
280
     1
281
     1
  3
ACAD_XREC_ROUNDTRIP
360
B7AD
  0
DICTIONARY
  5
B7AE
330
B751
100
AcDbDictionary
280
     1
281
     1
  3
ACAD_XREC_ROUNDTRIP
360
B7AF
  0
DICTIONARY
  5
B70D
330
B70C
100
AcDbDictionary
280
     1
281
     1
  3
ACAD_XREC_ROUNDTRIP
360
B774
  3
BUMPTILE
360
B70F
  3
DIFFUSETILE
360
B70E
  3
OPACITYTILE
360
B712
  3
REFLECTIONTILE
360
B711
  3
REFRACTIONTILE
360
B713
  3
SPECULARTILE
360
B710
  0
DICTIONARY
  5
B705
330
B704
100
AcDbDictionary
280
     1
281
     1
  3
ACAD_XREC_ROUNDTRIP
360
B773
  3
BUMPTILE
360
B707
  3
DIFFUSETILE
360
B706
  3
OPACITYTILE
360
B70A
  3
REFLECTIONTILE
360
B709
  3
REFRACTIONTILE
360
B70B
  3
SPECULARTILE
360
B708
  0
DICTIONARY
  5
B715
330
B714
100
AcDbDictionary
280
     1
281
     1
  3
ACAD_XREC_ROUNDTRIP
360
B775
  3
BUMPTILE
360
B717
  3
DIFFUSETILE
360
B716
  3
OPACITYTILE
360
B71A
  3
REFLECTIONTILE
360
B719
  3
REFRACTIONTILE
360
B71B
  3
SPECULARTILE
360
B718
  0
DICTIONARY
  5
B7A8
330
B74D
100
AcDbDictionary
280
     1
281
     1
  3
ACAD_XREC_ROUNDTRIP
360
B7A9
  0
DICTIONARY
  5
B76F
330
B737
100
AcDbDictionary
280
     1
281
     1
  3
ACAD_ROUNDTRIP_2008_TABLESTYLE_CELLSTYLEMAP
360
B770
  3
ACAD_XREC_ROUNDTRIP
360
B7A6
  0
DICTIONARY
  5
B780
330
B722
100
AcDbDictionary
280
     1
281
     1
  3
ACAD_XREC_ROUNDTRIP
360
B781
  0
DICTIONARY
  5
B77E
330
B721
100
AcDbDictionary
280
     1
281
     1
  3
ACAD_XREC_ROUNDTRIP
360
B77F
  0
DICTIONARY
  5
B78C
330
B728
100
AcDbDictionary
280
     1
281
     1
  3
ACAD_XREC_ROUNDTRIP
360
B78D
  0
DICTIONARY
  5
B794
330
B72C
100
AcDbDictionary
280
     1
281
     1
  3
ACAD_XREC_ROUNDTRIP
360
B795
  0
DICTIONARY
  5
B786
330
B725
100
AcDbDictionary
280
     1
281
     1
  3
ACAD_XREC_ROUNDTRIP
360
B787
  0
DICTIONARY
  5
B78A
330
B727
100
AcDbDictionary
280
     1
281
     1
  3
ACAD_XREC_ROUNDTRIP
360
B78B
  0
DICTIONARY
  5
B7A4
330
B734
100
AcDbDictionary
280
     1
281
     1
  3
ACAD_XREC_ROUNDTRIP
360
B7A5
  0
DICTIONARY
  5
B792
330
B72B
100
AcDbDictionary
280
     1
281
     1
  3
ACAD_XREC_ROUNDTRIP
360
B793
  0
DICTIONARY
  5
B776
330
B71D
100
AcDbDictionary
280
     1
281
     1
  3
ACAD_XREC_ROUNDTRIP
360
B777
  0
DICTIONARY
  5
B778
330
B71E
100
AcDbDictionary
280
     1
281
     1
  3
ACAD_XREC_ROUNDTRIP
360
B779
  0
DICTIONARY
  5
B77A
330
B71F
100
AcDbDictionary
280
     1
281
     1
  3
ACAD_XREC_ROUNDTRIP
360
B77B
  0
DICTIONARY
  5
B77C
330
B720
100
AcDbDictionary
280
     1
281
     1
  3
ACAD_XREC_ROUNDTRIP
360
B77D
  0
DICTIONARY
  5
B784
330
B724
100
AcDbDictionary
280
     1
281
     1
  3
ACAD_XREC_ROUNDTRIP
360
B785
  0
DICTIONARY
  5
B7A0
330
B732
100
AcDbDictionary
280
     1
281
     1
  3
ACAD_XREC_ROUNDTRIP
360
B7A1
  0
DICTIONARY
  5
B790
330
B72A
100
AcDbDictionary
280
     1
281
     1
  3
ACAD_XREC_ROUNDTRIP
360
B791
  0
DICTIONARY
  5
B7A2
330
B733
100
AcDbDictionary
280
     1
281
     1
  3
ACAD_XREC_ROUNDTRIP
360
B7A3
  0
DICTIONARY
  5
B788
330
B726
100
AcDbDictionary
280
     1
281
     1
  3
ACAD_XREC_ROUNDTRIP
360
B789
  0
DICTIONARY
  5
B79E
330
B731
100
AcDbDictionary
280
     1
281
     1
  3
ACAD_XREC_ROUNDTRIP
360
B79F
  0
DICTIONARY
  5
B79C
330
B730
100
AcDbDictionary
280
     1
281
     1
  3
ACAD_XREC_ROUNDTRIP
360
B79D
  0
DICTIONARY
  5
B796
330
B72D
100
AcDbDictionary
280
     1
281
     1
  3
ACAD_XREC_ROUNDTRIP
360
B797
  0
DICTIONARY
  5
B798
330
B72E
100
AcDbDictionary
280
     1
281
     1
  3
ACAD_XREC_ROUNDTRIP
360
B799
  0
DICTIONARY
  5
B78E
330
B729
100
AcDbDictionary
280
     1
281
     1
  3
ACAD_XREC_ROUNDTRIP
360
B78F
  0
DICTIONARY
  5
B782
330
B723
100
AcDbDictionary
280
     1
281
     1
  3
ACAD_XREC_ROUNDTRIP
360
B783
  0
DICTIONARY
  5
B79A
330
B72F
100
AcDbDictionary
280
     1
281
     1
  3
ACAD_XREC_ROUNDTRIP
360
B79B
  0
XRECORD
  5
B7AB
102
{ACAD_REACTORS
330
B7AA
102
}
330
B7AA
100
AcDbXrecord
280
     1
102
DISPLAYNAME
  1
Imperial24
102
FLAGS
 90
        0
  0
XRECORD
  5
B7AD
102
{ACAD_REACTORS
330
B7AC
102
}
330
B7AC
100
AcDbXrecord
280
     1
102
SHADEPLOT
 70
     0
102
SHADEPLOTRESLEVEL
 70
     2
102
SHADEPLOTCUSTOMDPI
 70
   300
  0
XRECORD
  5
B7AF
102
{ACAD_REACTORS
330
B7AE
102
}
330
B7AE
100
AcDbXrecord
280
     1
102
SHADEPLOT
 70
     0
102
SHADEPLOTRESLEVEL
 70
     2
102
SHADEPLOTCUSTOMDPI
 70
   300
  0
XRECORD
  5
B774
102
{ACAD_REACTORS
330
B70D
102
}
330
B70D
100
AcDbXrecord
280
     1
102
MATERIAL
148
0.0
149
0.0
149
0.0
 93
        0
 94
      127
282
     0
 72
     0
 77
     0
171
     0
175
     0
179
     0
273
     0
  0
XRECORD
  5
B70F
102
{ACAD_REACTORS
330
B70D
102
}
330
B70D
100
AcDbXrecord
280
     1
270
     1
271
     1
  0
XRECORD
  5
B70E
102
{ACAD_REACTORS
330
B70D
102
}
330
B70D
100
AcDbXrecord
280
     1
270
     1
271
     1
  0
XRECORD
  5
B712
102
{ACAD_REACTORS
330
B70D
102
}
330
B70D
100
AcDbXrecord
280
     1
270
     1
271
     1
  0
XRECORD
  5
B711
102
{ACAD_REACTORS
330
B70D
102
}
330
B70D
100
AcDbXrecord
280
     1
270
     1
271
     1
  0
XRECORD
  5
B713
102
{ACAD_REACTORS
330
B70D
102
}
330
B70D
100
AcDbXrecord
280
     1
270
     1
271
     1
  0
XRECORD
  5
B710
102
{ACAD_REACTORS
330
B70D
102
}
330
B70D
100
AcDbXrecord
280
     1
270
     1
271
     1
  0
XRECORD
  5
B773
102
{ACAD_REACTORS
330
B705
102
}
330
B705
100
AcDbXrecord
280
     1
102
MATERIAL
148
0.0
149
0.0
149
0.0
 93
        0
 94
      127
282
     0
 72
     0
 77
     0
171
     0
175
     0
179
     0
273
     0
  0
XRECORD
  5
B707
102
{ACAD_REACTORS
330
B705
102
}
330
B705
100
AcDbXrecord
280
     1
270
     1
271
     1
  0
XRECORD
  5
B706
102
{ACAD_REACTORS
330
B705
102
}
330
B705
100
AcDbXrecord
280
     1
270
     1
271
     1
  0
XRECORD
  5
B70A
102
{ACAD_REACTORS
330
B705
102
}
330
B705
100
AcDbXrecord
280
     1
270
     1
271
     1
  0
XRECORD
  5
B709
102
{ACAD_REACTORS
330
B705
102
}
330
B705
100
AcDbXrecord
280
     1
270
     1
271
     1
  0
XRECORD
  5
B70B
102
{ACAD_REACTORS
330
B705
102
}
330
B705
100
AcDbXrecord
280
     1
270
     1
271
     1
  0
XRECORD
  5
B708
102
{ACAD_REACTORS
330
B705
102
}
330
B705
100
AcDbXrecord
280
     1
270
     1
271
     1
  0
XRECORD
  5
B775
102
{ACAD_REACTORS
330
B715
102
}
330
B715
100
AcDbXrecord
280
     1
102
MATERIAL
148
0.0
149
0.0
149
0.0
 93
        0
 94
      127
282
     0
 72
     0
 77
     0
171
     0
175
     0
179
     0
273
     0
  0
XRECORD
  5
B717
102
{ACAD_REACTORS
330
B715
102
}
330
B715
100
AcDbXrecord
280
     1
270
     1
271
     1
  0
XRECORD
  5
B716
102
{ACAD_REACTORS
330
B715
102
}
330
B715
100
AcDbXrecord
280
     1
270
     1
271
     1
  0
XRECORD
  5
B71A
102
{ACAD_REACTORS
330
B715
102
}
330
B715
100
AcDbXrecord
280
     1
270
     1
271
     1
  0
XRECORD
  5
B719
102
{ACAD_REACTORS
330
B715
102
}
330
B715
100
AcDbXrecord
280
     1
270
     1
271
     1
  0
XRECORD
  5
B71B
102
{ACAD_REACTORS
330
B715
102
}
330
B715
100
AcDbXrecord
280
     1
270
     1
271
     1
  0
XRECORD
  5
B718
102
{ACAD_REACTORS
330
B715
102
}
330
B715
100
AcDbXrecord
280
     1
270
     1
271
     1
  0
XRECORD
  5
B7A9
102
{ACAD_REACTORS
330
B7A8
102
}
330
B7A8
100
AcDbXrecord
280
     1
102
DISPLAYNAME
  1
Imperial24
102
FLAGS
 90
        0
  0
CELLSTYLEMAP
  5
B770
102
{ACAD_REACTORS
330
B76F
102
}
330
B76F
100
AcDbCellStyleMap
 90
        3
300
CELLSTYLE
  1
TABLEFORMAT_BEGIN
 90
        5
170
     1
 91
        0
 92
    32768
 62
   257
 93
        1
300
CONTENTFORMAT
  1
CONTENTFORMAT_BEGIN
 90
        0
 91
        0
 92
      512
 93
        0
300

 40
0.0
140
1.0
 94
        5
 62
     0
340
B26C
144
0.25
309
CONTENTFORMAT_END
171
     0
 94
        0
309
TABLEFORMAT_END
  1
CELLSTYLE_BEGIN
 90
        1
 91
        1
300
_TITLE
309
CELLSTYLE_END
300
CELLSTYLE
  1
TABLEFORMAT_BEGIN
 90
        5
170
     1
 91
        0
 92
        0
 62
   257
 93
        1
300
CONTENTFORMAT
  1
CONTENTFORMAT_BEGIN
 90
        0
 91
        0
 92
      512
 93
        0
300

 40
0.0
140
1.0
 94
        5
 62
     0
340
B26C
144
0.18
309
CONTENTFORMAT_END
171
     0
 94
        0
309
TABLEFORMAT_END
  1
CELLSTYLE_BEGIN
 90
        2
 91
        1
300
_HEADER
309
CELLSTYLE_END
300
CELLSTYLE
  1
TABLEFORMAT_BEGIN
 90
        5
170
     1
 91
        0
 92
        0
 62
   257
 93
        1
300
CONTENTFORMAT
  1
CONTENTFORMAT_BEGIN
 90
        0
 91
        0
 92
      512
 93
        0
300

 40
0.0
140
1.0
 94
        2
 62
     0
340
B26C
144
0.18
309
CONTENTFORMAT_END
171
     0
 94
        0
309
TABLEFORMAT_END
  1
CELLSTYLE_BEGIN
 90
        3
 91
        2
300
_DATA
309
CELLSTYLE_END
  0
XRECORD
  5
B7A6
102
{ACAD_REACTORS
330
B76F
102
}
330
B76F
100
AcDbXrecord
280
     1
102
ACAD_ROUNDTRIP_PRE2007_TABLESTYLE
 90
      512
 91
        0
  1

 92
      512
 93
        0
  2

 94
      512
 95
        0
  3

  0
XRECORD
  5
B781
102
{ACAD_REACTORS
330
B780
102
}
330
B780
100
AcDbXrecord
280
     1
102
RTVSPost2010Prop28
280
     1
102
RTVSPost2010PropOp28
 70
     1
102
RTVSPost2010Prop29
280
     1
102
RTVSPost2010PropOp29
 70
     1
102
RTVSPost2010Prop30
280
     0
102
RTVSPost2010PropOp30
 70
     1
102
RTVSPost2010Prop31
280
     0
102
RTVSPost2010PropOp31
 70
     1
102
RTVSPost2010Prop32
280
     0
102
RTVSPost2010PropOp32
 70
     1
102
RTVSPost2010Prop33
280
     0
102
RTVSPost2010PropOp33
 70
     1
102
RTVSPost2010Prop34
280
     0
102
RTVSPost2010PropOp34
 70
     1
102
RTVSPost2010Prop35
280
     0
102
RTVSPost2010PropOp35
 70
     1
102
RTVSPost2010Prop36
280
     0
102
RTVSPost2010PropOp36
 70
     1
102
RTVSPost2010Prop37
 90
       50
102
RTVSPost2010PropOp37
 70
     1
102
RTVSPost2010Prop38
140
0.0
102
RTVSPost2010PropOp38
 70
     1
102
RTVSPost2010Prop39
140
1.0
102
RTVSPost2010PropOp39
 70
     1
102
RTVSPost2010Prop40
 90
        0
102
RTVSPost2010PropOp40
 70
     1
102
RTVSPost2010Prop41ColorIndex
 90
       18
102
RTVSPost2010Prop41ColorRGB
 90
        0
102
RTVSPost2010PropOp41
 70
     1
102
RTVSPost2010Prop42
 90
       50
102
RTVSPost2010PropOp42
 70
     1
102
RTVSPost2010Prop43
 90
        3
102
RTVSPost2010PropOp43
 70
     1
102
RTVSPost2010Prop44ColorIndex
 90
        5
102
RTVSPost2010Prop44ColorRGB
 90
      255
102
RTVSPost2010PropOp44
 70
     1
102
RTVSPost2010Prop45
280
     0
102
RTVSPost2010PropOp45
 70
     1
102
RTVSPost2010Prop46
 90
       50
102
RTVSPost2010PropOp46
 70
     1
102
RTVSPost2010Prop47
 90
       50
102
RTVSPost2010PropOp47
 70
     1
102
RTVSPost2010Prop48
 90
       50
102
RTVSPost2010PropOp48
 70
     1
102
RTVSPost2010Prop49
280
     0
102
RTVSPost2010PropOp49
 70
     1
102
RTVSPost2010Prop50
 90
       50
102
RTVSPost2010PropOp50
 70
     1
102
RTVSPost2010Prop51ColorIndex
 90
      256
102
RTVSPost2010Prop51ColorRGB
 90
-16777216
102
RTVSPost2010PropOp51
 70
     0
102
RTVSPost2010Prop52
140
1.0
102
RTVSPost2010PropOp52
 70
     0
102
RTVSPost2010Prop53
 90
        2
102
RTVSPost2010PropOp53
 70
     1
102
RTVSPost2010Prop54
  1
strokes_ogs.tif
102
RTVSPost2010PropOp54
 70
     1
102
RTVSPost2010Prop55
280
     0
102
RTVSPost2010PropOp55
 70
     1
102
RTVSPost2010Prop56
140
1.0
102
RTVSPost2010PropOp56
 70
     1
102
RTVSPost2010Prop57
140
1.0
102
RTVSPost2010PropOp57
 70
     1
102
RTVSPropertyOp0
 70
     1
102
RTVSPropertyOp1
 70
     1
102
RTVSPropertyOp2
 70
     1
102
RTVSPropertyOp3
 70
     1
102
RTVSPropertyOp4
 70
     1
102
RTVSPropertyOp5
 70
     1
102
RTVSPropertyOp6
 70
     1
102
RTVSPropertyOp7
 70
     1
102
RTVSPropertyOp8
 70
     1
102
RTVSPropertyOp9
 70
     1
102
RTVSPropertyOp10
 70
     1
102
RTVSPropertyOp11
 70
     1
102
RTVSPropertyOp12
 70
     1
102
RTVSPropertyOp13
 70
     1
102
RTVSPropertyOp14
 70
     1
102
RTVSPropertyOp15
 70
     1
102
RTVSPropertyOp16
 70
     1
102
RTVSPropertyOp17
 70
     1
102
RTVSPropertyOp18
 70
     1
102
RTVSPropertyOp19
 70
     1
102
RTVSPropertyOp20
 70
     1
102
RTVSPropertyOp21
 70
     1
102
RTVSPropertyOp22
 70
     1
102
RTVSPropertyOp23
 70
     1
102
RTVSPropertyOp24
 70
     1
102
RTVSPropertyOp25
 70
     1
102
RTVSPropertyOp26
 70
     1
102
RTVSPropertyOp27
 70
     1
102
RTVSPropertyOp28
 70
     1
102
RTVSPropertyOp29
 70
     1
102
RTVSPropertyOp30
 70
     1
102
RTVSPropertyOp31
 70
     1
102
RTVSPropertyOp32
 70
     1
102
RTVSPropertyOp33
 70
     1
102
RTVSPropertyOp34
 70
     1
102
RTVSPropertyOp35
 70
     1
102
RTVSPropertyOp36
 70
     1
102
RTVSPropertyOp37
 70
     1
102
RTVSPropertyOp38
 70
     1
102
RTVSPropertyOp39
 70
     1
102
RTVSPropertyOp40
 70
     1
102
RTVSPropertyOp41
 70
     1
102
RTVSPropertyOp42
 70
     1
102
RTVSPropertyOp43
 70
     1
102
RTVSPropertyOp44
 70
     1
102
RTVSPropertyOp45
 70
     1
102
RTVSPropertyOp46
 70
     1
102
RTVSPropertyOp47
 70
     1
102
RTVSPropertyOp48
 70
     1
102
RTVSPropertyOp49
 70
     1
102
RTVSPropertyOp50
 70
     1
102
RTVSPropertyOp51
 70
     0
102
RTVSPropertyOp52
 70
     0
102
RTVSPropertyOp53
 70
     1
102
RTVSPropertyOp54
 70
     1
102
RTVSPropertyOp55
 70
     1
102
RTVSPropertyOp56
 70
     1
102
RTVSPropertyOp57
 70
     1
102
RTVSPropertyOp58
 70
     1
102
RTVSPropertyOp59
 70
     1
102
RTVSPropertyOp60
 70
     1
102
RTVSPropertyOp61
 70
     1
102
RTVSPropertyOp62
 70
     1
  0
XRECORD
  5
B77F
102
{ACAD_REACTORS
330
B77E
102
}
330
B77E
100
AcDbXrecord
280
     1
102
RTVSPost2010Prop28
280
     0
102
RTVSPost2010PropOp28
 70
     1
102
RTVSPost2010Prop29
280
     1
102
RTVSPost2010PropOp29
 70
     1
102
RTVSPost2010Prop30
280
     1
102
RTVSPost2010PropOp30
 70
     1
102
RTVSPost2010Prop31
280
     0
102
RTVSPost2010PropOp31
 70
     1
102
RTVSPost2010Prop32
280
     0
102
RTVSPost2010PropOp32
 70
     1
102
RTVSPost2010Prop33
280
     0
102
RTVSPost2010PropOp33
 70
     1
102
RTVSPost2010Prop34
280
     0
102
RTVSPost2010PropOp34
 70
     1
102
RTVSPost2010Prop35
280
     0
102
RTVSPost2010PropOp35
 70
     1
102
RTVSPost2010Prop36
280
     0
102
RTVSPost2010PropOp36
 70
     1
102
RTVSPost2010Prop37
 90
       50
102
RTVSPost2010PropOp37
 70
     1
102
RTVSPost2010Prop38
140
0.0
102
RTVSPost2010PropOp38
 70
     1
102
RTVSPost2010Prop39
140
1.0
102
RTVSPost2010PropOp39
 70
     1
102
RTVSPost2010Prop40
 90
        0
102
RTVSPost2010PropOp40
 70
     1
102
RTVSPost2010Prop41ColorIndex
 90
       18
102
RTVSPost2010Prop41ColorRGB
 90
        0
102
RTVSPost2010PropOp41
 70
     1
102
RTVSPost2010Prop42
 90
       50
102
RTVSPost2010PropOp42
 70
     1
102
RTVSPost2010Prop43
 90
        3
102
RTVSPost2010PropOp43
 70
     1
102
RTVSPost2010Prop44ColorIndex
 90
        5
102
RTVSPost2010Prop44ColorRGB
 90
      255
102
RTVSPost2010PropOp44
 70
     1
102
RTVSPost2010Prop45
280
     0
102
RTVSPost2010PropOp45
 70
     1
102
RTVSPost2010Prop46
 90
       50
102
RTVSPost2010PropOp46
 70
     1
102
RTVSPost2010Prop47
 90
       50
102
RTVSPost2010PropOp47
 70
     1
102
RTVSPost2010Prop48
 90
       50
102
RTVSPost2010PropOp48
 70
     1
102
RTVSPost2010Prop49
280
     0
102
RTVSPost2010PropOp49
 70
     1
102
RTVSPost2010Prop50
 90
       50
102
RTVSPost2010PropOp50
 70
     1
102
RTVSPost2010Prop51ColorIndex
 90
      256
102
RTVSPost2010Prop51ColorRGB
 90
-16777216
102
RTVSPost2010PropOp51
 70
     0
102
RTVSPost2010Prop52
140
1.0
102
RTVSPost2010PropOp52
 70
     0
102
RTVSPost2010Prop53
 90
        2
102
RTVSPost2010PropOp53
 70
     1
102
RTVSPost2010Prop54
  1
strokes_ogs.tif
102
RTVSPost2010PropOp54
 70
     1
102
RTVSPost2010Prop55
280
     0
102
RTVSPost2010PropOp55
 70
     1
102
RTVSPost2010Prop56
140
1.0
102
RTVSPost2010PropOp56
 70
     1
102
RTVSPost2010Prop57
140
1.0
102
RTVSPost2010PropOp57
 70
     1
102
RTVSPropertyOp0
 70
     1
102
RTVSPropertyOp1
 70
     1
102
RTVSPropertyOp2
 70
     1
102
RTVSPropertyOp3
 70
     1
102
RTVSPropertyOp4
 70
     1
102
RTVSPropertyOp5
 70
     1
102
RTVSPropertyOp6
 70
     1
102
RTVSPropertyOp7
 70
     1
102
RTVSPropertyOp8
 70
     1
102
RTVSPropertyOp9
 70
     1
102
RTVSPropertyOp10
 70
     1
102
RTVSPropertyOp11
 70
     1
102
RTVSPropertyOp12
 70
     1
102
RTVSPropertyOp13
 70
     1
102
RTVSPropertyOp14
 70
     1
102
RTVSPropertyOp15
 70
     1
102
RTVSPropertyOp16
 70
     1
102
RTVSPropertyOp17
 70
     1
102
RTVSPropertyOp18
 70
     1
102
RTVSPropertyOp19
 70
     1
102
RTVSPropertyOp20
 70
     1
102
RTVSPropertyOp21
 70
     1
102
RTVSPropertyOp22
 70
     1
102
RTVSPropertyOp23
 70
     1
102
RTVSPropertyOp24
 70
     1
102
RTVSPropertyOp25
 70
     1
102
RTVSPropertyOp26
 70
     1
102
RTVSPropertyOp27
 70
     1
102
RTVSPropertyOp28
 70
     1
102
RTVSPropertyOp29
 70
     1
102
RTVSPropertyOp30
 70
     1
102
RTVSPropertyOp31
 70
     1
102
RTVSPropertyOp32
 70
     1
102
RTVSPropertyOp33
 70
     1
102
RTVSPropertyOp34
 70
     1
102
RTVSPropertyOp35
 70
     1
102
RTVSPropertyOp36
 70
     1
102
RTVSPropertyOp37
 70
     1
102
RTVSPropertyOp38
 70
     1
102
RTVSPropertyOp39
 70
     1
102
RTVSPropertyOp40
 70
     1
102
RTVSPropertyOp41
 70
     1
102
RTVSPropertyOp42
 70
     1
102
RTVSPropertyOp43
 70
     1
102
RTVSPropertyOp44
 70
     1
102
RTVSPropertyOp45
 70
     1
102
RTVSPropertyOp46
 70
     1
102
RTVSPropertyOp47
 70
     1
102
RTVSPropertyOp48
 70
     1
102
RTVSPropertyOp49
 70
     1
102
RTVSPropertyOp50
 70
     1
102
RTVSPropertyOp51
 70
     0
102
RTVSPropertyOp52
 70
     0
102
RTVSPropertyOp53
 70
     1
102
RTVSPropertyOp54
 70
     1
102
RTVSPropertyOp55
 70
     1
102
RTVSPropertyOp56
 70
     1
102
RTVSPropertyOp57
 70
     1
102
RTVSPropertyOp58
 70
     1
102
RTVSPropertyOp59
 70
     1
102
RTVSPropertyOp60
 70
     1
102
RTVSPropertyOp61
 70
     1
102
RTVSPropertyOp62
 70
     1
  0
XRECORD
  5
B78D
102
{ACAD_REACTORS
330
B78C
102
}
330
B78C
100
AcDbXrecord
280
     1
102
RTVSPost2010Prop28
280
     0
102
RTVSPost2010PropOp28
 70
     1
102
RTVSPost2010Prop29
280
     1
102
RTVSPost2010PropOp29
 70
     1
102
RTVSPost2010Prop30
280
     1
102
RTVSPost2010PropOp30
 70
     1
102
RTVSPost2010Prop31
280
     0
102
RTVSPost2010PropOp31
 70
     1
102
RTVSPost2010Prop32
280
     0
102
RTVSPost2010PropOp32
 70
     1
102
RTVSPost2010Prop33
280
     0
102
RTVSPost2010PropOp33
 70
     1
102
RTVSPost2010Prop34
280
     0
102
RTVSPost2010PropOp34
 70
     1
102
RTVSPost2010Prop35
280
     0
102
RTVSPost2010PropOp35
 70
     1
102
RTVSPost2010Prop36
280
     0
102
RTVSPost2010PropOp36
 70
     1
102
RTVSPost2010Prop37
 90
       50
102
RTVSPost2010PropOp37
 70
     1
102
RTVSPost2010Prop38
140
0.0
102
RTVSPost2010PropOp38
 70
     1
102
RTVSPost2010Prop39
140
1.0
102
RTVSPost2010PropOp39
 70
     1
102
RTVSPost2010Prop40
 90
        0
102
RTVSPost2010PropOp40
 70
     1
102
RTVSPost2010Prop41ColorIndex
 90
       18
102
RTVSPost2010Prop41ColorRGB
 90
        0
102
RTVSPost2010PropOp41
 70
     1
102
RTVSPost2010Prop42
 90
       50
102
RTVSPost2010PropOp42
 70
     1
102
RTVSPost2010Prop43
 90
        3
102
RTVSPost2010PropOp43
 70
     1
102
RTVSPost2010Prop44ColorIndex
 90
        5
102
RTVSPost2010Prop44ColorRGB
 90
      255
102
RTVSPost2010PropOp44
 70
     1
102
RTVSPost2010Prop45
280
     0
102
RTVSPost2010PropOp45
 70
     1
102
RTVSPost2010Prop46
 90
       50
102
RTVSPost2010PropOp46
 70
     1
102
RTVSPost2010Prop47
 90
       50
102
RTVSPost2010PropOp47
 70
     1
102
RTVSPost2010Prop48
 90
       50
102
RTVSPost2010PropOp48
 70
     1
102
RTVSPost2010Prop49
280
     0
102
RTVSPost2010PropOp49
 70
     1
102
RTVSPost2010Prop50
 90
       50
102
RTVSPost2010PropOp50
 70
     1
102
RTVSPost2010Prop51ColorIndex
 90
      256
102
RTVSPost2010Prop51ColorRGB
 90
-16777216
102
RTVSPost2010PropOp51
 70
     0
102
RTVSPost2010Prop52
140
1.0
102
RTVSPost2010PropOp52
 70
     0
102
RTVSPost2010Prop53
 90
        2
102
RTVSPost2010PropOp53
 70
     1
102
RTVSPost2010Prop54
  1
strokes_ogs.tif
102
RTVSPost2010PropOp54
 70
     1
102
RTVSPost2010Prop55
280
     0
102
RTVSPost2010PropOp55
 70
     1
102
RTVSPost2010Prop56
140
1.0
102
RTVSPost2010PropOp56
 70
     1
102
RTVSPost2010Prop57
140
1.0
102
RTVSPost2010PropOp57
 70
     1
102
RTVSPropertyOp0
 70
     1
102
RTVSPropertyOp1
 70
     1
102
RTVSPropertyOp2
 70
     1
102
RTVSPropertyOp3
 70
     1
102
RTVSPropertyOp4
 70
     1
102
RTVSPropertyOp5
 70
     1
102
RTVSPropertyOp6
 70
     1
102
RTVSPropertyOp7
 70
     1
102
RTVSPropertyOp8
 70
     1
102
RTVSPropertyOp9
 70
     1
102
RTVSPropertyOp10
 70
     1
102
RTVSPropertyOp11
 70
     1
102
RTVSPropertyOp12
 70
     1
102
RTVSPropertyOp13
 70
     1
102
RTVSPropertyOp14
 70
     1
102
RTVSPropertyOp15
 70
     1
102
RTVSPropertyOp16
 70
     1
102
RTVSPropertyOp17
 70
     1
102
RTVSPropertyOp18
 70
     1
102
RTVSPropertyOp19
 70
     1
102
RTVSPropertyOp20
 70
     1
102
RTVSPropertyOp21
 70
     1
102
RTVSPropertyOp22
 70
     1
102
RTVSPropertyOp23
 70
     1
102
RTVSPropertyOp24
 70
     1
102
RTVSPropertyOp25
 70
     1
102
RTVSPropertyOp26
 70
     1
102
RTVSPropertyOp27
 70
     1
102
RTVSPropertyOp28
 70
     1
102
RTVSPropertyOp29
 70
     1
102
RTVSPropertyOp30
 70
     1
102
RTVSPropertyOp31
 70
     1
102
RTVSPropertyOp32
 70
     1
102
RTVSPropertyOp33
 70
     1
102
RTVSPropertyOp34
 70
     1
102
RTVSPropertyOp35
 70
     1
102
RTVSPropertyOp36
 70
     1
102
RTVSPropertyOp37
 70
     1
102
RTVSPropertyOp38
 70
     1
102
RTVSPropertyOp39
 70
     1
102
RTVSPropertyOp40
 70
     1
102
RTVSPropertyOp41
 70
     1
102
RTVSPropertyOp42
 70
     1
102
RTVSPropertyOp43
 70
     1
102
RTVSPropertyOp44
 70
     1
102
RTVSPropertyOp45
 70
     1
102
RTVSPropertyOp46
 70
     1
102
RTVSPropertyOp47
 70
     1
102
RTVSPropertyOp48
 70
     1
102
RTVSPropertyOp49
 70
     1
102
RTVSPropertyOp50
 70
     1
102
RTVSPropertyOp51
 70
     0
102
RTVSPropertyOp52
 70
     0
102
RTVSPropertyOp53
 70
     1
102
RTVSPropertyOp54
 70
     1
102
RTVSPropertyOp55
 70
     1
102
RTVSPropertyOp56
 70
     1
102
RTVSPropertyOp57
 70
     1
102
RTVSPropertyOp58
 70
     1
102
RTVSPropertyOp59
 70
     1
102
RTVSPropertyOp60
 70
     1
102
RTVSPropertyOp61
 70
     1
102
RTVSPropertyOp62
 70
     1
  0
XRECORD
  5
B795
102
{ACAD_REACTORS
330
B794
102
}
330
B794
100
AcDbXrecord
280
     1
102
RTVSPost2010Prop28
280
     0
102
RTVSPost2010PropOp28
 70
     1
102
RTVSPost2010Prop29
280
     1
102
RTVSPost2010PropOp29
 70
     1
102
RTVSPost2010Prop30
280
     1
102
RTVSPost2010PropOp30
 70
     1
102
RTVSPost2010Prop31
280
     0
102
RTVSPost2010PropOp31
 70
     1
102
RTVSPost2010Prop32
280
     0
102
RTVSPost2010PropOp32
 70
     1
102
RTVSPost2010Prop33
280
     0
102
RTVSPost2010PropOp33
 70
     1
102
RTVSPost2010Prop34
280
     0
102
RTVSPost2010PropOp34
 70
     1
102
RTVSPost2010Prop35
280
     0
102
RTVSPost2010PropOp35
 70
     1
102
RTVSPost2010Prop36
280
     0
102
RTVSPost2010PropOp36
 70
     1
102
RTVSPost2010Prop37
 90
       50
102
RTVSPost2010PropOp37
 70
     1
102
RTVSPost2010Prop38
140
0.0
102
RTVSPost2010PropOp38
 70
     1
102
RTVSPost2010Prop39
140
1.0
102
RTVSPost2010PropOp39
 70
     1
102
RTVSPost2010Prop40
 90
        0
102
RTVSPost2010PropOp40
 70
     1
102
RTVSPost2010Prop41ColorIndex
 90
       18
102
RTVSPost2010Prop41ColorRGB
 90
        0
102
RTVSPost2010PropOp41
 70
     1
102
RTVSPost2010Prop42
 90
       50
102
RTVSPost2010PropOp42
 70
     1
102
RTVSPost2010Prop43
 90
        3
102
RTVSPost2010PropOp43
 70
     1
102
RTVSPost2010Prop44ColorIndex
 90
        5
102
RTVSPost2010Prop44ColorRGB
 90
      255
102
RTVSPost2010PropOp44
 70
     1
102
RTVSPost2010Prop45
280
     0
102
RTVSPost2010PropOp45
 70
     1
102
RTVSPost2010Prop46
 90
       50
102
RTVSPost2010PropOp46
 70
     1
102
RTVSPost2010Prop47
 90
       50
102
RTVSPost2010PropOp47
 70
     1
102
RTVSPost2010Prop48
 90
       50
102
RTVSPost2010PropOp48
 70
     1
102
RTVSPost2010Prop49
280
     0
102
RTVSPost2010PropOp49
 70
     1
102
RTVSPost2010Prop50
 90
       50
102
RTVSPost2010PropOp50
 70
     1
102
RTVSPost2010Prop51ColorIndex
 90
      256
102
RTVSPost2010Prop51ColorRGB
 90
-16777216
102
RTVSPost2010PropOp51
 70
     0
102
RTVSPost2010Prop52
140
1.0
102
RTVSPost2010PropOp52
 70
     0
102
RTVSPost2010Prop53
 90
        2
102
RTVSPost2010PropOp53
 70
     1
102
RTVSPost2010Prop54
  1
strokes_ogs.tif
102
RTVSPost2010PropOp54
 70
     1
102
RTVSPost2010Prop55
280
     0
102
RTVSPost2010PropOp55
 70
     1
102
RTVSPost2010Prop56
140
1.0
102
RTVSPost2010PropOp56
 70
     1
102
RTVSPost2010Prop57
140
1.0
102
RTVSPost2010PropOp57
 70
     1
102
RTVSPropertyOp0
 70
     1
102
RTVSPropertyOp1
 70
     1
102
RTVSPropertyOp2
 70
     1
102
RTVSPropertyOp3
 70
     1
102
RTVSPropertyOp4
 70
     1
102
RTVSPropertyOp5
 70
     1
102
RTVSPropertyOp6
 70
     1
102
RTVSPropertyOp7
 70
     1
102
RTVSPropertyOp8
 70
     1
102
RTVSPropertyOp9
 70
     1
102
RTVSPropertyOp10
 70
     1
102
RTVSPropertyOp11
 70
     1
102
RTVSPropertyOp12
 70
     1
102
RTVSPropertyOp13
 70
     1
102
RTVSPropertyOp14
 70
     1
102
RTVSPropertyOp15
 70
     1
102
RTVSPropertyOp16
 70
     1
102
RTVSPropertyOp17
 70
     1
102
RTVSPropertyOp18
 70
     1
102
RTVSPropertyOp19
 70
     1
102
RTVSPropertyOp20
 70
     1
102
RTVSPropertyOp21
 70
     1
102
RTVSPropertyOp22
 70
     1
102
RTVSPropertyOp23
 70
     1
102
RTVSPropertyOp24
 70
     1
102
RTVSPropertyOp25
 70
     1
102
RTVSPropertyOp26
 70
     1
102
RTVSPropertyOp27
 70
     1
102
RTVSPropertyOp28
 70
     1
102
RTVSPropertyOp29
 70
     1
102
RTVSPropertyOp30
 70
     1
102
RTVSPropertyOp31
 70
     1
102
RTVSPropertyOp32
 70
     1
102
RTVSPropertyOp33
 70
     1
102
RTVSPropertyOp34
 70
     1
102
RTVSPropertyOp35
 70
     1
102
RTVSPropertyOp36
 70
     1
102
RTVSPropertyOp37
 70
     1
102
RTVSPropertyOp38
 70
     1
102
RTVSPropertyOp39
 70
     1
102
RTVSPropertyOp40
 70
     1
102
RTVSPropertyOp41
 70
     1
102
RTVSPropertyOp42
 70
     1
102
RTVSPropertyOp43
 70
     1
102
RTVSPropertyOp44
 70
     1
102
RTVSPropertyOp45
 70
     1
102
RTVSPropertyOp46
 70
     1
102
RTVSPropertyOp47
 70
     1
102
RTVSPropertyOp48
 70
     1
102
RTVSPropertyOp49
 70
     1
102
RTVSPropertyOp50
 70
     1
102
RTVSPropertyOp51
 70
     0
102
RTVSPropertyOp52
 70
     0
102
RTVSPropertyOp53
 70
     1
102
RTVSPropertyOp54
 70
     1
102
RTVSPropertyOp55
 70
     1
102
RTVSPropertyOp56
 70
     1
102
RTVSPropertyOp57
 70
     1
102
RTVSPropertyOp58
 70
     1
102
RTVSPropertyOp59
 70
     1
102
RTVSPropertyOp60
 70
     1
102
RTVSPropertyOp61
 70
     1
102
RTVSPropertyOp62
 70
     1
  0
XRECORD
  5
B787
102
{ACAD_REACTORS
330
B786
102
}
330
B786
100
AcDbXrecord
280
     1
102
RTVSPost2010Prop28
280
     0
102
RTVSPost2010PropOp28
 70
     1
102
RTVSPost2010Prop29
280
     1
102
RTVSPost2010PropOp29
 70
     1
102
RTVSPost2010Prop30
280
     1
102
RTVSPost2010PropOp30
 70
     1
102
RTVSPost2010Prop31
280
     0
102
RTVSPost2010PropOp31
 70
     1
102
RTVSPost2010Prop32
280
     0
102
RTVSPost2010PropOp32
 70
     1
102
RTVSPost2010Prop33
280
     0
102
RTVSPost2010PropOp33
 70
     1
102
RTVSPost2010Prop34
280
     0
102
RTVSPost2010PropOp34
 70
     1
102
RTVSPost2010Prop35
280
     0
102
RTVSPost2010PropOp35
 70
     1
102
RTVSPost2010Prop36
280
     0
102
RTVSPost2010PropOp36
 70
     1
102
RTVSPost2010Prop37
 90
       50
102
RTVSPost2010PropOp37
 70
     1
102
RTVSPost2010Prop38
140
0.0
102
RTVSPost2010PropOp38
 70
     1
102
RTVSPost2010Prop39
140
1.0
102
RTVSPost2010PropOp39
 70
     1
102
RTVSPost2010Prop40
 90
        0
102
RTVSPost2010PropOp40
 70
     1
102
RTVSPost2010Prop41ColorIndex
 90
       18
102
RTVSPost2010Prop41ColorRGB
 90
        0
102
RTVSPost2010PropOp41
 70
     1
102
RTVSPost2010Prop42
 90
       50
102
RTVSPost2010PropOp42
 70
     1
102
RTVSPost2010Prop43
 90
        3
102
RTVSPost2010PropOp43
 70
     1
102
RTVSPost2010Prop44ColorIndex
 90
        5
102
RTVSPost2010Prop44ColorRGB
 90
      255
102
RTVSPost2010PropOp44
 70
     1
102
RTVSPost2010Prop45
280
     0
102
RTVSPost2010PropOp45
 70
     1
102
RTVSPost2010Prop46
 90
       50
102
RTVSPost2010PropOp46
 70
     1
102
RTVSPost2010Prop47
 90
       50
102
RTVSPost2010PropOp47
 70
     1
102
RTVSPost2010Prop48
 90
       50
102
RTVSPost2010PropOp48
 70
     1
102
RTVSPost2010Prop49
280
     0
102
RTVSPost2010PropOp49
 70
     1
102
RTVSPost2010Prop50
 90
       50
102
RTVSPost2010PropOp50
 70
     1
102
RTVSPost2010Prop51ColorIndex
 90
      256
102
RTVSPost2010Prop51ColorRGB
 90
-16777216
102
RTVSPost2010PropOp51
 70
     0
102
RTVSPost2010Prop52
140
1.0
102
RTVSPost2010PropOp52
 70
     0
102
RTVSPost2010Prop53
 90
        2
102
RTVSPost2010PropOp53
 70
     1
102
RTVSPost2010Prop54
  1
strokes_ogs.tif
102
RTVSPost2010PropOp54
 70
     1
102
RTVSPost2010Prop55
280
     0
102
RTVSPost2010PropOp55
 70
     1
102
RTVSPost2010Prop56
140
1.0
102
RTVSPost2010PropOp56
 70
     1
102
RTVSPost2010Prop57
140
1.0
102
RTVSPost2010PropOp57
 70
     1
102
RTVSPropertyOp0
 70
     1
102
RTVSPropertyOp1
 70
     1
102
RTVSPropertyOp2
 70
     1
102
RTVSPropertyOp3
 70
     1
102
RTVSPropertyOp4
 70
     1
102
RTVSPropertyOp5
 70
     1
102
RTVSPropertyOp6
 70
     1
102
RTVSPropertyOp7
 70
     1
102
RTVSPropertyOp8
 70
     1
102
RTVSPropertyOp9
 70
     1
102
RTVSPropertyOp10
 70
     1
102
RTVSPropertyOp11
 70
     1
102
RTVSPropertyOp12
 70
     1
102
RTVSPropertyOp13
 70
     1
102
RTVSPropertyOp14
 70
     1
102
RTVSPropertyOp15
 70
     1
102
RTVSPropertyOp16
 70
     1
102
RTVSPropertyOp17
 70
     1
102
RTVSPropertyOp18
 70
     1
102
RTVSPropertyOp19
 70
     1
102
RTVSPropertyOp20
 70
     1
102
RTVSPropertyOp21
 70
     1
102
RTVSPropertyOp22
 70
     1
102
RTVSPropertyOp23
 70
     1
102
RTVSPropertyOp24
 70
     1
102
RTVSPropertyOp25
 70
     1
102
RTVSPropertyOp26
 70
     1
102
RTVSPropertyOp27
 70
     1
102
RTVSPropertyOp28
 70
     1
102
RTVSPropertyOp29
 70
     1
102
RTVSPropertyOp30
 70
     1
102
RTVSPropertyOp31
 70
     1
102
RTVSPropertyOp32
 70
     1
102
RTVSPropertyOp33
 70
     1
102
RTVSPropertyOp34
 70
     1
102
RTVSPropertyOp35
 70
     1
102
RTVSPropertyOp36
 70
     1
102
RTVSPropertyOp37
 70
     1
102
RTVSPropertyOp38
 70
     1
102
RTVSPropertyOp39
 70
     1
102
RTVSPropertyOp40
 70
     1
102
RTVSPropertyOp41
 70
     1
102
RTVSPropertyOp42
 70
     1
102
RTVSPropertyOp43
 70
     1
102
RTVSPropertyOp44
 70
     1
102
RTVSPropertyOp45
 70
     1
102
RTVSPropertyOp46
 70
     1
102
RTVSPropertyOp47
 70
     1
102
RTVSPropertyOp48
 70
     1
102
RTVSPropertyOp49
 70
     1
102
RTVSPropertyOp50
 70
     1
102
RTVSPropertyOp51
 70
     0
102
RTVSPropertyOp52
 70
     0
102
RTVSPropertyOp53
 70
     1
102
RTVSPropertyOp54
 70
     1
102
RTVSPropertyOp55
 70
     1
102
RTVSPropertyOp56
 70
     1
102
RTVSPropertyOp57
 70
     1
102
RTVSPropertyOp58
 70
     1
102
RTVSPropertyOp59
 70
     1
102
RTVSPropertyOp60
 70
     1
102
RTVSPropertyOp61
 70
     1
102
RTVSPropertyOp62
 70
     1
  0
XRECORD
  5
B78B
102
{ACAD_REACTORS
330
B78A
102
}
330
B78A
100
AcDbXrecord
280
     1
102
RTVSPost2010Prop28
280
     0
102
RTVSPost2010PropOp28
 70
     1
102
RTVSPost2010Prop29
280
     1
102
RTVSPost2010PropOp29
 70
     1
102
RTVSPost2010Prop30
280
     1
102
RTVSPost2010PropOp30
 70
     1
102
RTVSPost2010Prop31
280
     0
102
RTVSPost2010PropOp31
 70
     1
102
RTVSPost2010Prop32
280
     0
102
RTVSPost2010PropOp32
 70
     1
102
RTVSPost2010Prop33
280
     0
102
RTVSPost2010PropOp33
 70
     1
102
RTVSPost2010Prop34
280
     0
102
RTVSPost2010PropOp34
 70
     1
102
RTVSPost2010Prop35
280
     0
102
RTVSPost2010PropOp35
 70
     1
102
RTVSPost2010Prop36
280
     0
102
RTVSPost2010PropOp36
 70
     1
102
RTVSPost2010Prop37
 90
       50
102
RTVSPost2010PropOp37
 70
     1
102
RTVSPost2010Prop38
140
0.0
102
RTVSPost2010PropOp38
 70
     1
102
RTVSPost2010Prop39
140
1.0
102
RTVSPost2010PropOp39
 70
     1
102
RTVSPost2010Prop40
 90
        0
102
RTVSPost2010PropOp40
 70
     1
102
RTVSPost2010Prop41ColorIndex
 90
       18
102
RTVSPost2010Prop41ColorRGB
 90
        0
102
RTVSPost2010PropOp41
 70
     1
102
RTVSPost2010Prop42
 90
       50
102
RTVSPost2010PropOp42
 70
     1
102
RTVSPost2010Prop43
 90
        3
102
RTVSPost2010PropOp43
 70
     1
102
RTVSPost2010Prop44ColorIndex
 90
        5
102
RTVSPost2010Prop44ColorRGB
 90
      255
102
RTVSPost2010PropOp44
 70
     1
102
RTVSPost2010Prop45
280
     0
102
RTVSPost2010PropOp45
 70
     1
102
RTVSPost2010Prop46
 90
       50
102
RTVSPost2010PropOp46
 70
     1
102
RTVSPost2010Prop47
 90
       50
102
RTVSPost2010PropOp47
 70
     1
102
RTVSPost2010Prop48
 90
       50
102
RTVSPost2010PropOp48
 70
     1
102
RTVSPost2010Prop49
280
     0
102
RTVSPost2010PropOp49
 70
     1
102
RTVSPost2010Prop50
 90
       50
102
RTVSPost2010PropOp50
 70
     1
102
RTVSPost2010Prop51ColorIndex
 90
      256
102
RTVSPost2010Prop51ColorRGB
 90
-16777216
102
RTVSPost2010PropOp51
 70
     0
102
RTVSPost2010Prop52
140
1.0
102
RTVSPost2010PropOp52
 70
     0
102
RTVSPost2010Prop53
 90
        2
102
RTVSPost2010PropOp53
 70
     1
102
RTVSPost2010Prop54
  1
strokes_ogs.tif
102
RTVSPost2010PropOp54
 70
     1
102
RTVSPost2010Prop55
280
     0
102
RTVSPost2010PropOp55
 70
     1
102
RTVSPost2010Prop56
140
1.0
102
RTVSPost2010PropOp56
 70
     1
102
RTVSPost2010Prop57
140
1.0
102
RTVSPost2010PropOp57
 70
     1
102
RTVSPropertyOp0
 70
     1
102
RTVSPropertyOp1
 70
     1
102
RTVSPropertyOp2
 70
     1
102
RTVSPropertyOp3
 70
     1
102
RTVSPropertyOp4
 70
     1
102
RTVSPropertyOp5
 70
     1
102
RTVSPropertyOp6
 70
     1
102
RTVSPropertyOp7
 70
     1
102
RTVSPropertyOp8
 70
     1
102
RTVSPropertyOp9
 70
     1
102
RTVSPropertyOp10
 70
     1
102
RTVSPropertyOp11
 70
     1
102
RTVSPropertyOp12
 70
     1
102
RTVSPropertyOp13
 70
     1
102
RTVSPropertyOp14
 70
     1
102
RTVSPropertyOp15
 70
     1
102
RTVSPropertyOp16
 70
     1
102
RTVSPropertyOp17
 70
     1
102
RTVSPropertyOp18
 70
     1
102
RTVSPropertyOp19
 70
     1
102
RTVSPropertyOp20
 70
     1
102
RTVSPropertyOp21
 70
     1
102
RTVSPropertyOp22
 70
     1
102
RTVSPropertyOp23
 70
     1
102
RTVSPropertyOp24
 70
     1
102
RTVSPropertyOp25
 70
     1
102
RTVSPropertyOp26
 70
     1
102
RTVSPropertyOp27
 70
     1
102
RTVSPropertyOp28
 70
     1
102
RTVSPropertyOp29
 70
     1
102
RTVSPropertyOp30
 70
     1
102
RTVSPropertyOp31
 70
     1
102
RTVSPropertyOp32
 70
     1
102
RTVSPropertyOp33
 70
     1
102
RTVSPropertyOp34
 70
     1
102
RTVSPropertyOp35
 70
     1
102
RTVSPropertyOp36
 70
     1
102
RTVSPropertyOp37
 70
     1
102
RTVSPropertyOp38
 70
     1
102
RTVSPropertyOp39
 70
     1
102
RTVSPropertyOp40
 70
     1
102
RTVSPropertyOp41
 70
     1
102
RTVSPropertyOp42
 70
     1
102
RTVSPropertyOp43
 70
     1
102
RTVSPropertyOp44
 70
     1
102
RTVSPropertyOp45
 70
     1
102
RTVSPropertyOp46
 70
     1
102
RTVSPropertyOp47
 70
     1
102
RTVSPropertyOp48
 70
     1
102
RTVSPropertyOp49
 70
     1
102
RTVSPropertyOp50
 70
     1
102
RTVSPropertyOp51
 70
     0
102
RTVSPropertyOp52
 70
     0
102
RTVSPropertyOp53
 70
     1
102
RTVSPropertyOp54
 70
     1
102
RTVSPropertyOp55
 70
     1
102
RTVSPropertyOp56
 70
     1
102
RTVSPropertyOp57
 70
     1
102
RTVSPropertyOp58
 70
     1
102
RTVSPropertyOp59
 70
     1
102
RTVSPropertyOp60
 70
     1
102
RTVSPropertyOp61
 70
     1
102
RTVSPropertyOp62
 70
     1
  0
XRECORD
  5
B7A5
102
{ACAD_REACTORS
330
B7A4
102
}
330
B7A4
100
AcDbXrecord
280
     1
102
RTVSPost2010Prop28
280
     0
102
RTVSPost2010PropOp28
 70
     1
102
RTVSPost2010Prop29
280
     1
102
RTVSPost2010PropOp29
 70
     1
102
RTVSPost2010Prop30
280
     1
102
RTVSPost2010PropOp30
 70
     1
102
RTVSPost2010Prop31
280
     0
102
RTVSPost2010PropOp31
 70
     1
102
RTVSPost2010Prop32
280
     0
102
RTVSPost2010PropOp32
 70
     1
102
RTVSPost2010Prop33
280
     0
102
RTVSPost2010PropOp33
 70
     1
102
RTVSPost2010Prop34
280
     0
102
RTVSPost2010PropOp34
 70
     1
102
RTVSPost2010Prop35
280
     0
102
RTVSPost2010PropOp35
 70
     1
102
RTVSPost2010Prop36
280
     0
102
RTVSPost2010PropOp36
 70
     1
102
RTVSPost2010Prop37
 90
       50
102
RTVSPost2010PropOp37
 70
     0
102
RTVSPost2010Prop38
140
0.0
102
RTVSPost2010PropOp38
 70
     0
102
RTVSPost2010Prop39
140
1.0
102
RTVSPost2010PropOp39
 70
     0
102
RTVSPost2010Prop40
 90
        0
102
RTVSPost2010PropOp40
 70
     0
102
RTVSPost2010Prop41ColorIndex
 90
       18
102
RTVSPost2010Prop41ColorRGB
 90
        0
102
RTVSPost2010PropOp41
 70
     0
102
RTVSPost2010Prop42
 90
       50
102
RTVSPost2010PropOp42
 70
     0
102
RTVSPost2010Prop43
 90
        3
102
RTVSPost2010PropOp43
 70
     0
102
RTVSPost2010Prop44ColorIndex
 90
        5
102
RTVSPost2010Prop44ColorRGB
 90
      255
102
RTVSPost2010PropOp44
 70
     0
102
RTVSPost2010Prop45
280
     0
102
RTVSPost2010PropOp45
 70
     1
102
RTVSPost2010Prop46
 90
       50
102
RTVSPost2010PropOp46
 70
     0
102
RTVSPost2010Prop47
 90
       50
102
RTVSPost2010PropOp47
 70
     0
102
RTVSPost2010Prop48
 90
       50
102
RTVSPost2010PropOp48
 70
     0
102
RTVSPost2010Prop49
280
     0
102
RTVSPost2010PropOp49
 70
     1
102
RTVSPost2010Prop50
 90
       50
102
RTVSPost2010PropOp50
 70
     0
102
RTVSPost2010Prop51ColorIndex
 90
      256
102
RTVSPost2010Prop51ColorRGB
 90
-16777216
102
RTVSPost2010PropOp51
 70
     0
102
RTVSPost2010Prop52
140
1.0
102
RTVSPost2010PropOp52
 70
     0
102
RTVSPost2010Prop53
 90
        2
102
RTVSPost2010PropOp53
 70
     0
102
RTVSPost2010Prop54
  1
strokes_ogs.tif
102
RTVSPost2010PropOp54
 70
     0
102
RTVSPost2010Prop55
280
     0
102
RTVSPost2010PropOp55
 70
     1
102
RTVSPost2010Prop56
140
1.0
102
RTVSPost2010PropOp56
 70
     0
102
RTVSPost2010Prop57
140
1.0
102
RTVSPost2010PropOp57
 70
     0
102
RTVSPropertyOp0
 70
     0
102
RTVSPropertyOp1
 70
     0
102
RTVSPropertyOp2
 70
     0
102
RTVSPropertyOp3
 70
     0
102
RTVSPropertyOp4
 70
     0
102
RTVSPropertyOp5
 70
     0
102
RTVSPropertyOp6
 70
     0
102
RTVSPropertyOp7
 70
     0
102
RTVSPropertyOp8
 70
     0
102
RTVSPropertyOp9
 70
     0
102
RTVSPropertyOp10
 70
     0
102
RTVSPropertyOp11
 70
     0
102
RTVSPropertyOp12
 70
     0
102
RTVSPropertyOp13
 70
     0
102
RTVSPropertyOp14
 70
     2
102
RTVSPropertyOp15
 70
     0
102
RTVSPropertyOp16
 70
     0
102
RTVSPropertyOp17
 70
     0
102
RTVSPropertyOp18
 70
     0
102
RTVSPropertyOp19
 70
     0
102
RTVSPropertyOp20
 70
     0
102
RTVSPropertyOp21
 70
     0
102
RTVSPropertyOp22
 70
     0
102
RTVSPropertyOp23
 70
     0
102
RTVSPropertyOp24
 70
     0
102
RTVSPropertyOp25
 70
     0
102
RTVSPropertyOp26
 70
     0
102
RTVSPropertyOp27
 70
     0
102
RTVSPropertyOp28
 70
     1
102
RTVSPropertyOp29
 70
     1
102
RTVSPropertyOp30
 70
     1
102
RTVSPropertyOp31
 70
     1
102
RTVSPropertyOp32
 70
     1
102
RTVSPropertyOp33
 70
     1
102
RTVSPropertyOp34
 70
     1
102
RTVSPropertyOp35
 70
     1
102
RTVSPropertyOp36
 70
     1
102
RTVSPropertyOp37
 70
     0
102
RTVSPropertyOp38
 70
     0
102
RTVSPropertyOp39
 70
     0
102
RTVSPropertyOp40
 70
     0
102
RTVSPropertyOp41
 70
     0
102
RTVSPropertyOp42
 70
     0
102
RTVSPropertyOp43
 70
     0
102
RTVSPropertyOp44
 70
     0
102
RTVSPropertyOp45
 70
     1
102
RTVSPropertyOp46
 70
     0
102
RTVSPropertyOp47
 70
     0
102
RTVSPropertyOp48
 70
     0
102
RTVSPropertyOp49
 70
     1
102
RTVSPropertyOp50
 70
     0
102
RTVSPropertyOp51
 70
     0
102
RTVSPropertyOp52
 70
     0
102
RTVSPropertyOp53
 70
     0
102
RTVSPropertyOp54
 70
     0
102
RTVSPropertyOp55
 70
     1
102
RTVSPropertyOp56
 70
     0
102
RTVSPropertyOp57
 70
     0
102
RTVSPropertyOp58
 70
     0
102
RTVSPropertyOp59
 70
     0
102
RTVSPropertyOp60
 70
     0
102
RTVSPropertyOp61
 70
     0
102
RTVSPropertyOp62
 70
     0
  0
XRECORD
  5
B793
102
{ACAD_REACTORS
330
B792
102
}
330
B792
100
AcDbXrecord
280
     1
102
RTVSPost2010Prop28
280
     0
102
RTVSPost2010PropOp28
 70
     1
102
RTVSPost2010Prop29
280
     1
102
RTVSPost2010PropOp29
 70
     1
102
RTVSPost2010Prop30
280
     1
102
RTVSPost2010PropOp30
 70
     1
102
RTVSPost2010Prop31
280
     0
102
RTVSPost2010PropOp31
 70
     1
102
RTVSPost2010Prop32
280
     0
102
RTVSPost2010PropOp32
 70
     1
102
RTVSPost2010Prop33
280
     0
102
RTVSPost2010PropOp33
 70
     1
102
RTVSPost2010Prop34
280
     0
102
RTVSPost2010PropOp34
 70
     1
102
RTVSPost2010Prop35
280
     0
102
RTVSPost2010PropOp35
 70
     1
102
RTVSPost2010Prop36
280
     0
102
RTVSPost2010PropOp36
 70
     1
102
RTVSPost2010Prop37
 90
       50
102
RTVSPost2010PropOp37
 70
     1
102
RTVSPost2010Prop38
140
0.0
102
RTVSPost2010PropOp38
 70
     1
102
RTVSPost2010Prop39
140
1.0
102
RTVSPost2010PropOp39
 70
     1
102
RTVSPost2010Prop40
 90
        0
102
RTVSPost2010PropOp40
 70
     1
102
RTVSPost2010Prop41ColorIndex
 90
       18
102
RTVSPost2010Prop41ColorRGB
 90
        0
102
RTVSPost2010PropOp41
 70
     1
102
RTVSPost2010Prop42
 90
       50
102
RTVSPost2010PropOp42
 70
     1
102
RTVSPost2010Prop43
 90
        3
102
RTVSPost2010PropOp43
 70
     1
102
RTVSPost2010Prop44ColorIndex
 90
        5
102
RTVSPost2010Prop44ColorRGB
 90
      255
102
RTVSPost2010PropOp44
 70
     1
102
RTVSPost2010Prop45
280
     0
102
RTVSPost2010PropOp45
 70
     1
102
RTVSPost2010Prop46
 90
       50
102
RTVSPost2010PropOp46
 70
     1
102
RTVSPost2010Prop47
 90
       50
102
RTVSPost2010PropOp47
 70
     1
102
RTVSPost2010Prop48
 90
       50
102
RTVSPost2010PropOp48
 70
     1
102
RTVSPost2010Prop49
280
     0
102
RTVSPost2010PropOp49
 70
     1
102
RTVSPost2010Prop50
 90
       50
102
RTVSPost2010PropOp50
 70
     1
102
RTVSPost2010Prop51ColorIndex
 90
      256
102
RTVSPost2010Prop51ColorRGB
 90
-16777216
102
RTVSPost2010PropOp51
 70
     0
102
RTVSPost2010Prop52
140
1.0
102
RTVSPost2010PropOp52
 70
     0
102
RTVSPost2010Prop53
 90
        2
102
RTVSPost2010PropOp53
 70
     1
102
RTVSPost2010Prop54
  1
strokes_ogs.tif
102
RTVSPost2010PropOp54
 70
     1
102
RTVSPost2010Prop55
280
     0
102
RTVSPost2010PropOp55
 70
     1
102
RTVSPost2010Prop56
140
1.0
102
RTVSPost2010PropOp56
 70
     1
102
RTVSPost2010Prop57
140
1.0
102
RTVSPost2010PropOp57
 70
     1
102
RTVSPropertyOp0
 70
     1
102
RTVSPropertyOp1
 70
     1
102
RTVSPropertyOp2
 70
     1
102
RTVSPropertyOp3
 70
     1
102
RTVSPropertyOp4
 70
     1
102
RTVSPropertyOp5
 70
     1
102
RTVSPropertyOp6
 70
     1
102
RTVSPropertyOp7
 70
     1
102
RTVSPropertyOp8
 70
     1
102
RTVSPropertyOp9
 70
     1
102
RTVSPropertyOp10
 70
     1
102
RTVSPropertyOp11
 70
     1
102
RTVSPropertyOp12
 70
     1
102
RTVSPropertyOp13
 70
     1
102
RTVSPropertyOp14
 70
     1
102
RTVSPropertyOp15
 70
     1
102
RTVSPropertyOp16
 70
     1
102
RTVSPropertyOp17
 70
     1
102
RTVSPropertyOp18
 70
     1
102
RTVSPropertyOp19
 70
     1
102
RTVSPropertyOp20
 70
     1
102
RTVSPropertyOp21
 70
     1
102
RTVSPropertyOp22
 70
     1
102
RTVSPropertyOp23
 70
     1
102
RTVSPropertyOp24
 70
     1
102
RTVSPropertyOp25
 70
     1
102
RTVSPropertyOp26
 70
     1
102
RTVSPropertyOp27
 70
     1
102
RTVSPropertyOp28
 70
     1
102
RTVSPropertyOp29
 70
     1
102
RTVSPropertyOp30
 70
     1
102
RTVSPropertyOp31
 70
     1
102
RTVSPropertyOp32
 70
     1
102
RTVSPropertyOp33
 70
     1
102
RTVSPropertyOp34
 70
     1
102
RTVSPropertyOp35
 70
     1
102
RTVSPropertyOp36
 70
     1
102
RTVSPropertyOp37
 70
     1
102
RTVSPropertyOp38
 70
     1
102
RTVSPropertyOp39
 70
     1
102
RTVSPropertyOp40
 70
     1
102
RTVSPropertyOp41
 70
     1
102
RTVSPropertyOp42
 70
     1
102
RTVSPropertyOp43
 70
     1
102
RTVSPropertyOp44
 70
     1
102
RTVSPropertyOp45
 70
     1
102
RTVSPropertyOp46
 70
     1
102
RTVSPropertyOp47
 70
     1
102
RTVSPropertyOp48
 70
     1
102
RTVSPropertyOp49
 70
     1
102
RTVSPropertyOp50
 70
     1
102
RTVSPropertyOp51
 70
     0
102
RTVSPropertyOp52
 70
     0
102
RTVSPropertyOp53
 70
     1
102
RTVSPropertyOp54
 70
     1
102
RTVSPropertyOp55
 70
     1
102
RTVSPropertyOp56
 70
     1
102
RTVSPropertyOp57
 70
     1
102
RTVSPropertyOp58
 70
     1
102
RTVSPropertyOp59
 70
     1
102
RTVSPropertyOp60
 70
     1
102
RTVSPropertyOp61
 70
     1
102
RTVSPropertyOp62
 70
     1
  0
XRECORD
  5
B777
102
{ACAD_REACTORS
330
B776
102
}
330
B776
100
AcDbXrecord
280
     1
102
RTVSPost2010Prop28
280
     0
102
RTVSPost2010PropOp28
 70
     1
102
RTVSPost2010Prop29
280
     1
102
RTVSPost2010PropOp29
 70
     1
102
RTVSPost2010Prop30
280
     1
102
RTVSPost2010PropOp30
 70
     1
102
RTVSPost2010Prop31
280
     0
102
RTVSPost2010PropOp31
 70
     1
102
RTVSPost2010Prop32
280
     0
102
RTVSPost2010PropOp32
 70
     1
102
RTVSPost2010Prop33
280
     0
102
RTVSPost2010PropOp33
 70
     1
102
RTVSPost2010Prop34
280
     0
102
RTVSPost2010PropOp34
 70
     1
102
RTVSPost2010Prop35
280
     0
102
RTVSPost2010PropOp35
 70
     1
102
RTVSPost2010Prop36
280
     0
102
RTVSPost2010PropOp36
 70
     1
102
RTVSPost2010Prop37
 90
       50
102
RTVSPost2010PropOp37
 70
     1
102
RTVSPost2010Prop38
140
0.0
102
RTVSPost2010PropOp38
 70
     1
102
RTVSPost2010Prop39
140
1.0
102
RTVSPost2010PropOp39
 70
     1
102
RTVSPost2010Prop40
 90
        0
102
RTVSPost2010PropOp40
 70
     1
102
RTVSPost2010Prop41ColorIndex
 90
       18
102
RTVSPost2010Prop41ColorRGB
 90
        0
102
RTVSPost2010PropOp41
 70
     1
102
RTVSPost2010Prop42
 90
       50
102
RTVSPost2010PropOp42
 70
     1
102
RTVSPost2010Prop43
 90
        3
102
RTVSPost2010PropOp43
 70
     1
102
RTVSPost2010Prop44ColorIndex
 90
        5
102
RTVSPost2010Prop44ColorRGB
 90
      255
102
RTVSPost2010PropOp44
 70
     1
102
RTVSPost2010Prop45
280
     0
102
RTVSPost2010PropOp45
 70
     1
102
RTVSPost2010Prop46
 90
       50
102
RTVSPost2010PropOp46
 70
     1
102
RTVSPost2010Prop47
 90
       50
102
RTVSPost2010PropOp47
 70
     1
102
RTVSPost2010Prop48
 90
       50
102
RTVSPost2010PropOp48
 70
     1
102
RTVSPost2010Prop49
280
     0
102
RTVSPost2010PropOp49
 70
     1
102
RTVSPost2010Prop50
 90
       50
102
RTVSPost2010PropOp50
 70
     1
102
RTVSPost2010Prop51ColorIndex
 90
      256
102
RTVSPost2010Prop51ColorRGB
 90
-16777216
102
RTVSPost2010PropOp51
 70
     0
102
RTVSPost2010Prop52
140
1.0
102
RTVSPost2010PropOp52
 70
     0
102
RTVSPost2010Prop53
 90
        2
102
RTVSPost2010PropOp53
 70
     1
102
RTVSPost2010Prop54
  1
strokes_ogs.tif
102
RTVSPost2010PropOp54
 70
     1
102
RTVSPost2010Prop55
280
     0
102
RTVSPost2010PropOp55
 70
     1
102
RTVSPost2010Prop56
140
1.0
102
RTVSPost2010PropOp56
 70
     1
102
RTVSPost2010Prop57
140
1.0
102
RTVSPost2010PropOp57
 70
     1
102
RTVSPropertyOp0
 70
     1
102
RTVSPropertyOp1
 70
     1
102
RTVSPropertyOp2
 70
     1
102
RTVSPropertyOp3
 70
     1
102
RTVSPropertyOp4
 70
     1
102
RTVSPropertyOp5
 70
     1
102
RTVSPropertyOp6
 70
     1
102
RTVSPropertyOp7
 70
     1
102
RTVSPropertyOp8
 70
     1
102
RTVSPropertyOp9
 70
     1
102
RTVSPropertyOp10
 70
     1
102
RTVSPropertyOp11
 70
     1
102
RTVSPropertyOp12
 70
     1
102
RTVSPropertyOp13
 70
     1
102
RTVSPropertyOp14
 70
     1
102
RTVSPropertyOp15
 70
     1
102
RTVSPropertyOp16
 70
     1
102
RTVSPropertyOp17
 70
     1
102
RTVSPropertyOp18
 70
     1
102
RTVSPropertyOp19
 70
     1
102
RTVSPropertyOp20
 70
     1
102
RTVSPropertyOp21
 70
     1
102
RTVSPropertyOp22
 70
     1
102
RTVSPropertyOp23
 70
     1
102
RTVSPropertyOp24
 70
     1
102
RTVSPropertyOp25
 70
     1
102
RTVSPropertyOp26
 70
     1
102
RTVSPropertyOp27
 70
     1
102
RTVSPropertyOp28
 70
     1
102
RTVSPropertyOp29
 70
     1
102
RTVSPropertyOp30
 70
     1
102
RTVSPropertyOp31
 70
     1
102
RTVSPropertyOp32
 70
     1
102
RTVSPropertyOp33
 70
     1
102
RTVSPropertyOp34
 70
     1
102
RTVSPropertyOp35
 70
     1
102
RTVSPropertyOp36
 70
     1
102
RTVSPropertyOp37
 70
     1
102
RTVSPropertyOp38
 70
     1
102
RTVSPropertyOp39
 70
     1
102
RTVSPropertyOp40
 70
     1
102
RTVSPropertyOp41
 70
     1
102
RTVSPropertyOp42
 70
     1
102
RTVSPropertyOp43
 70
     1
102
RTVSPropertyOp44
 70
     1
102
RTVSPropertyOp45
 70
     1
102
RTVSPropertyOp46
 70
     1
102
RTVSPropertyOp47
 70
     1
102
RTVSPropertyOp48
 70
     1
102
RTVSPropertyOp49
 70
     1
102
RTVSPropertyOp50
 70
     1
102
RTVSPropertyOp51
 70
     0
102
RTVSPropertyOp52
 70
     0
102
RTVSPropertyOp53
 70
     1
102
RTVSPropertyOp54
 70
     1
102
RTVSPropertyOp55
 70
     1
102
RTVSPropertyOp56
 70
     1
102
RTVSPropertyOp57
 70
     1
102
RTVSPropertyOp58
 70
     1
102
RTVSPropertyOp59
 70
     1
102
RTVSPropertyOp60
 70
     1
102
RTVSPropertyOp61
 70
     1
102
RTVSPropertyOp62
 70
     1
  0
XRECORD
  5
B779
102
{ACAD_REACTORS
330
B778
102
}
330
B778
100
AcDbXrecord
280
     1
102
RTVSPost2010Prop28
280
     0
102
RTVSPost2010PropOp28
 70
     1
102
RTVSPost2010Prop29
280
     1
102
RTVSPost2010PropOp29
 70
     1
102
RTVSPost2010Prop30
280
     1
102
RTVSPost2010PropOp30
 70
     1
102
RTVSPost2010Prop31
280
     0
102
RTVSPost2010PropOp31
 70
     1
102
RTVSPost2010Prop32
280
     0
102
RTVSPost2010PropOp32
 70
     1
102
RTVSPost2010Prop33
280
     0
102
RTVSPost2010PropOp33
 70
     1
102
RTVSPost2010Prop34
280
     0
102
RTVSPost2010PropOp34
 70
     1
102
RTVSPost2010Prop35
280
     0
102
RTVSPost2010PropOp35
 70
     1
102
RTVSPost2010Prop36
280
     0
102
RTVSPost2010PropOp36
 70
     1
102
RTVSPost2010Prop37
 90
       50
102
RTVSPost2010PropOp37
 70
     1
102
RTVSPost2010Prop38
140
0.0
102
RTVSPost2010PropOp38
 70
     1
102
RTVSPost2010Prop39
140
1.0
102
RTVSPost2010PropOp39
 70
     1
102
RTVSPost2010Prop40
 90
        0
102
RTVSPost2010PropOp40
 70
     1
102
RTVSPost2010Prop41ColorIndex
 90
       18
102
RTVSPost2010Prop41ColorRGB
 90
        0
102
RTVSPost2010PropOp41
 70
     1
102
RTVSPost2010Prop42
 90
       50
102
RTVSPost2010PropOp42
 70
     1
102
RTVSPost2010Prop43
 90
        3
102
RTVSPost2010PropOp43
 70
     1
102
RTVSPost2010Prop44ColorIndex
 90
        5
102
RTVSPost2010Prop44ColorRGB
 90
      255
102
RTVSPost2010PropOp44
 70
     1
102
RTVSPost2010Prop45
280
     0
102
RTVSPost2010PropOp45
 70
     1
102
RTVSPost2010Prop46
 90
       50
102
RTVSPost2010PropOp46
 70
     1
102
RTVSPost2010Prop47
 90
       50
102
RTVSPost2010PropOp47
 70
     1
102
RTVSPost2010Prop48
 90
       50
102
RTVSPost2010PropOp48
 70
     1
102
RTVSPost2010Prop49
280
     0
102
RTVSPost2010PropOp49
 70
     1
102
RTVSPost2010Prop50
 90
       50
102
RTVSPost2010PropOp50
 70
     1
102
RTVSPost2010Prop51ColorIndex
 90
      256
102
RTVSPost2010Prop51ColorRGB
 90
-16777216
102
RTVSPost2010PropOp51
 70
     0
102
RTVSPost2010Prop52
140
1.0
102
RTVSPost2010PropOp52
 70
     0
102
RTVSPost2010Prop53
 90
        2
102
RTVSPost2010PropOp53
 70
     1
102
RTVSPost2010Prop54
  1
strokes_ogs.tif
102
RTVSPost2010PropOp54
 70
     1
102
RTVSPost2010Prop55
280
     0
102
RTVSPost2010PropOp55
 70
     1
102
RTVSPost2010Prop56
140
1.0
102
RTVSPost2010PropOp56
 70
     1
102
RTVSPost2010Prop57
140
1.0
102
RTVSPost2010PropOp57
 70
     1
102
RTVSPropertyOp0
 70
     1
102
RTVSPropertyOp1
 70
     1
102
RTVSPropertyOp2
 70
     1
102
RTVSPropertyOp3
 70
     1
102
RTVSPropertyOp4
 70
     1
102
RTVSPropertyOp5
 70
     1
102
RTVSPropertyOp6
 70
     1
102
RTVSPropertyOp7
 70
     1
102
RTVSPropertyOp8
 70
     1
102
RTVSPropertyOp9
 70
     1
102
RTVSPropertyOp10
 70
     1
102
RTVSPropertyOp11
 70
     1
102
RTVSPropertyOp12
 70
     1
102
RTVSPropertyOp13
 70
     1
102
RTVSPropertyOp14
 70
     1
102
RTVSPropertyOp15
 70
     1
102
RTVSPropertyOp16
 70
     1
102
RTVSPropertyOp17
 70
     1
102
RTVSPropertyOp18
 70
     1
102
RTVSPropertyOp19
 70
     1
102
RTVSPropertyOp20
 70
     1
102
RTVSPropertyOp21
 70
     1
102
RTVSPropertyOp22
 70
     1
102
RTVSPropertyOp23
 70
     1
102
RTVSPropertyOp24
 70
     1
102
RTVSPropertyOp25
 70
     1
102
RTVSPropertyOp26
 70
     1
102
RTVSPropertyOp27
 70
     1
102
RTVSPropertyOp28
 70
     1
102
RTVSPropertyOp29
 70
     1
102
RTVSPropertyOp30
 70
     1
102
RTVSPropertyOp31
 70
     1
102
RTVSPropertyOp32
 70
     1
102
RTVSPropertyOp33
 70
     1
102
RTVSPropertyOp34
 70
     1
102
RTVSPropertyOp35
 70
     1
102
RTVSPropertyOp36
 70
     1
102
RTVSPropertyOp37
 70
     1
102
RTVSPropertyOp38
 70
     1
102
RTVSPropertyOp39
 70
     1
102
RTVSPropertyOp40
 70
     1
102
RTVSPropertyOp41
 70
     1
102
RTVSPropertyOp42
 70
     1
102
RTVSPropertyOp43
 70
     1
102
RTVSPropertyOp44
 70
     1
102
RTVSPropertyOp45
 70
     1
102
RTVSPropertyOp46
 70
     1
102
RTVSPropertyOp47
 70
     1
102
RTVSPropertyOp48
 70
     1
102
RTVSPropertyOp49
 70
     1
102
RTVSPropertyOp50
 70
     1
102
RTVSPropertyOp51
 70
     0
102
RTVSPropertyOp52
 70
     0
102
RTVSPropertyOp53
 70
     1
102
RTVSPropertyOp54
 70
     1
102
RTVSPropertyOp55
 70
     1
102
RTVSPropertyOp56
 70
     1
102
RTVSPropertyOp57
 70
     1
102
RTVSPropertyOp58
 70
     1
102
RTVSPropertyOp59
 70
     1
102
RTVSPropertyOp60
 70
     1
102
RTVSPropertyOp61
 70
     1
102
RTVSPropertyOp62
 70
     1
  0
XRECORD
  5
B77B
102
{ACAD_REACTORS
330
B77A
102
}
330
B77A
100
AcDbXrecord
280
     1
102
RTVSPost2010Prop28
280
     0
102
RTVSPost2010PropOp28
 70
     1
102
RTVSPost2010Prop29
280
     1
102
RTVSPost2010PropOp29
 70
     1
102
RTVSPost2010Prop30
280
     1
102
RTVSPost2010PropOp30
 70
     1
102
RTVSPost2010Prop31
280
     0
102
RTVSPost2010PropOp31
 70
     1
102
RTVSPost2010Prop32
280
     0
102
RTVSPost2010PropOp32
 70
     1
102
RTVSPost2010Prop33
280
     0
102
RTVSPost2010PropOp33
 70
     1
102
RTVSPost2010Prop34
280
     0
102
RTVSPost2010PropOp34
 70
     1
102
RTVSPost2010Prop35
280
     0
102
RTVSPost2010PropOp35
 70
     1
102
RTVSPost2010Prop36
280
     0
102
RTVSPost2010PropOp36
 70
     1
102
RTVSPost2010Prop37
 90
       50
102
RTVSPost2010PropOp37
 70
     1
102
RTVSPost2010Prop38
140
0.0
102
RTVSPost2010PropOp38
 70
     1
102
RTVSPost2010Prop39
140
1.0
102
RTVSPost2010PropOp39
 70
     1
102
RTVSPost2010Prop40
 90
        0
102
RTVSPost2010PropOp40
 70
     1
102
RTVSPost2010Prop41ColorIndex
 90
       18
102
RTVSPost2010Prop41ColorRGB
 90
        0
102
RTVSPost2010PropOp41
 70
     1
102
RTVSPost2010Prop42
 90
       50
102
RTVSPost2010PropOp42
 70
     1
102
RTVSPost2010Prop43
 90
        3
102
RTVSPost2010PropOp43
 70
     1
102
RTVSPost2010Prop44ColorIndex
 90
        5
102
RTVSPost2010Prop44ColorRGB
 90
      255
102
RTVSPost2010PropOp44
 70
     1
102
RTVSPost2010Prop45
280
     0
102
RTVSPost2010PropOp45
 70
     1
102
RTVSPost2010Prop46
 90
       50
102
RTVSPost2010PropOp46
 70
     1
102
RTVSPost2010Prop47
 90
       50
102
RTVSPost2010PropOp47
 70
     1
102
RTVSPost2010Prop48
 90
       50
102
RTVSPost2010PropOp48
 70
     1
102
RTVSPost2010Prop49
280
     0
102
RTVSPost2010PropOp49
 70
     1
102
RTVSPost2010Prop50
 90
       50
102
RTVSPost2010PropOp50
 70
     1
102
RTVSPost2010Prop51ColorIndex
 90
      256
102
RTVSPost2010Prop51ColorRGB
 90
-16777216
102
RTVSPost2010PropOp51
 70
     0
102
RTVSPost2010Prop52
140
1.0
102
RTVSPost2010PropOp52
 70
     0
102
RTVSPost2010Prop53
 90
        2
102
RTVSPost2010PropOp53
 70
     1
102
RTVSPost2010Prop54
  1
strokes_ogs.tif
102
RTVSPost2010PropOp54
 70
     1
102
RTVSPost2010Prop55
280
     0
102
RTVSPost2010PropOp55
 70
     1
102
RTVSPost2010Prop56
140
1.0
102
RTVSPost2010PropOp56
 70
     1
102
RTVSPost2010Prop57
140
1.0
102
RTVSPost2010PropOp57
 70
     1
102
RTVSPropertyOp0
 70
     1
102
RTVSPropertyOp1
 70
     1
102
RTVSPropertyOp2
 70
     1
102
RTVSPropertyOp3
 70
     1
102
RTVSPropertyOp4
 70
     1
102
RTVSPropertyOp5
 70
     1
102
RTVSPropertyOp6
 70
     1
102
RTVSPropertyOp7
 70
     1
102
RTVSPropertyOp8
 70
     1
102
RTVSPropertyOp9
 70
     1
102
RTVSPropertyOp10
 70
     1
102
RTVSPropertyOp11
 70
     1
102
RTVSPropertyOp12
 70
     1
102
RTVSPropertyOp13
 70
     1
102
RTVSPropertyOp14
 70
     1
102
RTVSPropertyOp15
 70
     1
102
RTVSPropertyOp16
 70
     1
102
RTVSPropertyOp17
 70
     1
102
RTVSPropertyOp18
 70
     1
102
RTVSPropertyOp19
 70
     1
102
RTVSPropertyOp20
 70
     1
102
RTVSPropertyOp21
 70
     1
102
RTVSPropertyOp22
 70
     1
102
RTVSPropertyOp23
 70
     1
102
RTVSPropertyOp24
 70
     1
102
RTVSPropertyOp25
 70
     1
102
RTVSPropertyOp26
 70
     1
102
RTVSPropertyOp27
 70
     1
102
RTVSPropertyOp28
 70
     1
102
RTVSPropertyOp29
 70
     1
102
RTVSPropertyOp30
 70
     1
102
RTVSPropertyOp31
 70
     1
102
RTVSPropertyOp32
 70
     1
102
RTVSPropertyOp33
 70
     1
102
RTVSPropertyOp34
 70
     1
102
RTVSPropertyOp35
 70
     1
102
RTVSPropertyOp36
 70
     1
102
RTVSPropertyOp37
 70
     1
102
RTVSPropertyOp38
 70
     1
102
RTVSPropertyOp39
 70
     1
102
RTVSPropertyOp40
 70
     1
102
RTVSPropertyOp41
 70
     1
102
RTVSPropertyOp42
 70
     1
102
RTVSPropertyOp43
 70
     1
102
RTVSPropertyOp44
 70
     1
102
RTVSPropertyOp45
 70
     1
102
RTVSPropertyOp46
 70
     1
102
RTVSPropertyOp47
 70
     1
102
RTVSPropertyOp48
 70
     1
102
RTVSPropertyOp49
 70
     1
102
RTVSPropertyOp50
 70
     1
102
RTVSPropertyOp51
 70
     0
102
RTVSPropertyOp52
 70
     0
102
RTVSPropertyOp53
 70
     1
102
RTVSPropertyOp54
 70
     1
102
RTVSPropertyOp55
 70
     1
102
RTVSPropertyOp56
 70
     1
102
RTVSPropertyOp57
 70
     1
102
RTVSPropertyOp58
 70
     1
102
RTVSPropertyOp59
 70
     1
102
RTVSPropertyOp60
 70
     1
102
RTVSPropertyOp61
 70
     1
102
RTVSPropertyOp62
 70
     1
  0
XRECORD
  5
B77D
102
{ACAD_REACTORS
330
B77C
102
}
330
B77C
100
AcDbXrecord
280
     1
102
RTVSPost2010Prop28
280
     0
102
RTVSPost2010PropOp28
 70
     1
102
RTVSPost2010Prop29
280
     1
102
RTVSPost2010PropOp29
 70
     1
102
RTVSPost2010Prop30
280
     1
102
RTVSPost2010PropOp30
 70
     1
102
RTVSPost2010Prop31
280
     0
102
RTVSPost2010PropOp31
 70
     1
102
RTVSPost2010Prop32
280
     0
102
RTVSPost2010PropOp32
 70
     1
102
RTVSPost2010Prop33
280
     0
102
RTVSPost2010PropOp33
 70
     1
102
RTVSPost2010Prop34
280
     0
102
RTVSPost2010PropOp34
 70
     1
102
RTVSPost2010Prop35
280
     0
102
RTVSPost2010PropOp35
 70
     1
102
RTVSPost2010Prop36
280
     0
102
RTVSPost2010PropOp36
 70
     1
102
RTVSPost2010Prop37
 90
       50
102
RTVSPost2010PropOp37
 70
     1
102
RTVSPost2010Prop38
140
0.0
102
RTVSPost2010PropOp38
 70
     1
102
RTVSPost2010Prop39
140
1.0
102
RTVSPost2010PropOp39
 70
     1
102
RTVSPost2010Prop40
 90
        0
102
RTVSPost2010PropOp40
 70
     1
102
RTVSPost2010Prop41ColorIndex
 90
       18
102
RTVSPost2010Prop41ColorRGB
 90
        0
102
RTVSPost2010PropOp41
 70
     1
102
RTVSPost2010Prop42
 90
       50
102
RTVSPost2010PropOp42
 70
     1
102
RTVSPost2010Prop43
 90
        3
102
RTVSPost2010PropOp43
 70
     1
102
RTVSPost2010Prop44ColorIndex
 90
        5
102
RTVSPost2010Prop44ColorRGB
 90
      255
102
RTVSPost2010PropOp44
 70
     1
102
RTVSPost2010Prop45
280
     0
102
RTVSPost2010PropOp45
 70
     1
102
RTVSPost2010Prop46
 90
       50
102
RTVSPost2010PropOp46
 70
     1
102
RTVSPost2010Prop47
 90
       50
102
RTVSPost2010PropOp47
 70
     1
102
RTVSPost2010Prop48
 90
       50
102
RTVSPost2010PropOp48
 70
     1
102
RTVSPost2010Prop49
280
     0
102
RTVSPost2010PropOp49
 70
     1
102
RTVSPost2010Prop50
 90
       50
102
RTVSPost2010PropOp50
 70
     1
102
RTVSPost2010Prop51ColorIndex
 90
      256
102
RTVSPost2010Prop51ColorRGB
 90
-16777216
102
RTVSPost2010PropOp51
 70
     0
102
RTVSPost2010Prop52
140
1.0
102
RTVSPost2010PropOp52
 70
     0
102
RTVSPost2010Prop53
 90
        2
102
RTVSPost2010PropOp53
 70
     1
102
RTVSPost2010Prop54
  1
strokes_ogs.tif
102
RTVSPost2010PropOp54
 70
     1
102
RTVSPost2010Prop55
280
     0
102
RTVSPost2010PropOp55
 70
     1
102
RTVSPost2010Prop56
140
1.0
102
RTVSPost2010PropOp56
 70
     1
102
RTVSPost2010Prop57
140
1.0
102
RTVSPost2010PropOp57
 70
     1
102
RTVSPropertyOp0
 70
     1
102
RTVSPropertyOp1
 70
     1
102
RTVSPropertyOp2
 70
     1
102
RTVSPropertyOp3
 70
     1
102
RTVSPropertyOp4
 70
     1
102
RTVSPropertyOp5
 70
     1
102
RTVSPropertyOp6
 70
     1
102
RTVSPropertyOp7
 70
     1
102
RTVSPropertyOp8
 70
     1
102
RTVSPropertyOp9
 70
     1
102
RTVSPropertyOp10
 70
     1
102
RTVSPropertyOp11
 70
     1
102
RTVSPropertyOp12
 70
     1
102
RTVSPropertyOp13
 70
     1
102
RTVSPropertyOp14
 70
     1
102
RTVSPropertyOp15
 70
     1
102
RTVSPropertyOp16
 70
     1
102
RTVSPropertyOp17
 70
     1
102
RTVSPropertyOp18
 70
     1
102
RTVSPropertyOp19
 70
     1
102
RTVSPropertyOp20
 70
     1
102
RTVSPropertyOp21
 70
     1
102
RTVSPropertyOp22
 70
     1
102
RTVSPropertyOp23
 70
     1
102
RTVSPropertyOp24
 70
     1
102
RTVSPropertyOp25
 70
     1
102
RTVSPropertyOp26
 70
     1
102
RTVSPropertyOp27
 70
     1
102
RTVSPropertyOp28
 70
     1
102
RTVSPropertyOp29
 70
     1
102
RTVSPropertyOp30
 70
     1
102
RTVSPropertyOp31
 70
     1
102
RTVSPropertyOp32
 70
     1
102
RTVSPropertyOp33
 70
     1
102
RTVSPropertyOp34
 70
     1
102
RTVSPropertyOp35
 70
     1
102
RTVSPropertyOp36
 70
     1
102
RTVSPropertyOp37
 70
     1
102
RTVSPropertyOp38
 70
     1
102
RTVSPropertyOp39
 70
     1
102
RTVSPropertyOp40
 70
     1
102
RTVSPropertyOp41
 70
     1
102
RTVSPropertyOp42
 70
     1
102
RTVSPropertyOp43
 70
     1
102
RTVSPropertyOp44
 70
     1
102
RTVSPropertyOp45
 70
     1
102
RTVSPropertyOp46
 70
     1
102
RTVSPropertyOp47
 70
     1
102
RTVSPropertyOp48
 70
     1
102
RTVSPropertyOp49
 70
     1
102
RTVSPropertyOp50
 70
     1
102
RTVSPropertyOp51
 70
     0
102
RTVSPropertyOp52
 70
     0
102
RTVSPropertyOp53
 70
     1
102
RTVSPropertyOp54
 70
     1
102
RTVSPropertyOp55
 70
     1
102
RTVSPropertyOp56
 70
     1
102
RTVSPropertyOp57
 70
     1
102
RTVSPropertyOp58
 70
     1
102
RTVSPropertyOp59
 70
     1
102
RTVSPropertyOp60
 70
     1
102
RTVSPropertyOp61
 70
     1
102
RTVSPropertyOp62
 70
     1
  0
XRECORD
  5
B785
102
{ACAD_REACTORS
330
B784
102
}
330
B784
100
AcDbXrecord
280
     1
102
RTVSPost2010Prop28
280
     0
102
RTVSPost2010PropOp28
 70
     1
102
RTVSPost2010Prop29
280
     1
102
RTVSPost2010PropOp29
 70
     1
102
RTVSPost2010Prop30
280
     1
102
RTVSPost2010PropOp30
 70
     1
102
RTVSPost2010Prop31
280
     0
102
RTVSPost2010PropOp31
 70
     1
102
RTVSPost2010Prop32
280
     0
102
RTVSPost2010PropOp32
 70
     1
102
RTVSPost2010Prop33
280
     0
102
RTVSPost2010PropOp33
 70
     1
102
RTVSPost2010Prop34
280
     0
102
RTVSPost2010PropOp34
 70
     1
102
RTVSPost2010Prop35
280
     0
102
RTVSPost2010PropOp35
 70
     1
102
RTVSPost2010Prop36
280
     0
102
RTVSPost2010PropOp36
 70
     1
102
RTVSPost2010Prop37
 90
       50
102
RTVSPost2010PropOp37
 70
     1
102
RTVSPost2010Prop38
140
0.0
102
RTVSPost2010PropOp38
 70
     1
102
RTVSPost2010Prop39
140
1.0
102
RTVSPost2010PropOp39
 70
     1
102
RTVSPost2010Prop40
 90
        0
102
RTVSPost2010PropOp40
 70
     1
102
RTVSPost2010Prop41ColorIndex
 90
       18
102
RTVSPost2010Prop41ColorRGB
 90
        0
102
RTVSPost2010PropOp41
 70
     1
102
RTVSPost2010Prop42
 90
       50
102
RTVSPost2010PropOp42
 70
     1
102
RTVSPost2010Prop43
 90
        3
102
RTVSPost2010PropOp43
 70
     1
102
RTVSPost2010Prop44ColorIndex
 90
        5
102
RTVSPost2010Prop44ColorRGB
 90
      255
102
RTVSPost2010PropOp44
 70
     1
102
RTVSPost2010Prop45
280
     0
102
RTVSPost2010PropOp45
 70
     1
102
RTVSPost2010Prop46
 90
       50
102
RTVSPost2010PropOp46
 70
     1
102
RTVSPost2010Prop47
 90
       50
102
RTVSPost2010PropOp47
 70
     1
102
RTVSPost2010Prop48
 90
       50
102
RTVSPost2010PropOp48
 70
     1
102
RTVSPost2010Prop49
280
     0
102
RTVSPost2010PropOp49
 70
     1
102
RTVSPost2010Prop50
 90
       50
102
RTVSPost2010PropOp50
 70
     1
102
RTVSPost2010Prop51ColorIndex
 90
      256
102
RTVSPost2010Prop51ColorRGB
 90
-16777216
102
RTVSPost2010PropOp51
 70
     0
102
RTVSPost2010Prop52
140
1.0
102
RTVSPost2010PropOp52
 70
     0
102
RTVSPost2010Prop53
 90
        2
102
RTVSPost2010PropOp53
 70
     1
102
RTVSPost2010Prop54
  1
strokes_ogs.tif
102
RTVSPost2010PropOp54
 70
     1
102
RTVSPost2010Prop55
280
     0
102
RTVSPost2010PropOp55
 70
     1
102
RTVSPost2010Prop56
140
1.0
102
RTVSPost2010PropOp56
 70
     1
102
RTVSPost2010Prop57
140
1.0
102
RTVSPost2010PropOp57
 70
     1
102
RTVSPropertyOp0
 70
     1
102
RTVSPropertyOp1
 70
     1
102
RTVSPropertyOp2
 70
     1
102
RTVSPropertyOp3
 70
     1
102
RTVSPropertyOp4
 70
     1
102
RTVSPropertyOp5
 70
     1
102
RTVSPropertyOp6
 70
     1
102
RTVSPropertyOp7
 70
     1
102
RTVSPropertyOp8
 70
     1
102
RTVSPropertyOp9
 70
     1
102
RTVSPropertyOp10
 70
     1
102
RTVSPropertyOp11
 70
     1
102
RTVSPropertyOp12
 70
     1
102
RTVSPropertyOp13
 70
     1
102
RTVSPropertyOp14
 70
     1
102
RTVSPropertyOp15
 70
     1
102
RTVSPropertyOp16
 70
     1
102
RTVSPropertyOp17
 70
     1
102
RTVSPropertyOp18
 70
     1
102
RTVSPropertyOp19
 70
     1
102
RTVSPropertyOp20
 70
     1
102
RTVSPropertyOp21
 70
     1
102
RTVSPropertyOp22
 70
     1
102
RTVSPropertyOp23
 70
     1
102
RTVSPropertyOp24
 70
     1
102
RTVSPropertyOp25
 70
     1
102
RTVSPropertyOp26
 70
     1
102
RTVSPropertyOp27
 70
     1
102
RTVSPropertyOp28
 70
     1
102
RTVSPropertyOp29
 70
     1
102
RTVSPropertyOp30
 70
     1
102
RTVSPropertyOp31
 70
     1
102
RTVSPropertyOp32
 70
     1
102
RTVSPropertyOp33
 70
     1
102
RTVSPropertyOp34
 70
     1
102
RTVSPropertyOp35
 70
     1
102
RTVSPropertyOp36
 70
     1
102
RTVSPropertyOp37
 70
     1
102
RTVSPropertyOp38
 70
     1
102
RTVSPropertyOp39
 70
     1
102
RTVSPropertyOp40
 70
     1
102
RTVSPropertyOp41
 70
     1
102
RTVSPropertyOp42
 70
     1
102
RTVSPropertyOp43
 70
     1
102
RTVSPropertyOp44
 70
     1
102
RTVSPropertyOp45
 70
     1
102
RTVSPropertyOp46
 70
     1
102
RTVSPropertyOp47
 70
     1
102
RTVSPropertyOp48
 70
     1
102
RTVSPropertyOp49
 70
     1
102
RTVSPropertyOp50
 70
     1
102
RTVSPropertyOp51
 70
     0
102
RTVSPropertyOp52
 70
     0
102
RTVSPropertyOp53
 70
     1
102
RTVSPropertyOp54
 70
     1
102
RTVSPropertyOp55
 70
     1
102
RTVSPropertyOp56
 70
     1
102
RTVSPropertyOp57
 70
     1
102
RTVSPropertyOp58
 70
     1
102
RTVSPropertyOp59
 70
     1
102
RTVSPropertyOp60
 70
     1
102
RTVSPropertyOp61
 70
     1
102
RTVSPropertyOp62
 70
     1
  0
XRECORD
  5
B7A1
102
{ACAD_REACTORS
330
B7A0
102
}
330
B7A0
100
AcDbXrecord
280
     1
102
RTVSPost2010Prop28
280
     0
102
RTVSPost2010PropOp28
 70
     1
102
RTVSPost2010Prop29
280
     1
102
RTVSPost2010PropOp29
 70
     1
102
RTVSPost2010Prop30
280
     1
102
RTVSPost2010PropOp30
 70
     1
102
RTVSPost2010Prop31
280
     0
102
RTVSPost2010PropOp31
 70
     1
102
RTVSPost2010Prop32
280
     0
102
RTVSPost2010PropOp32
 70
     1
102
RTVSPost2010Prop33
280
     0
102
RTVSPost2010PropOp33
 70
     1
102
RTVSPost2010Prop34
280
     0
102
RTVSPost2010PropOp34
 70
     1
102
RTVSPost2010Prop35
280
     0
102
RTVSPost2010PropOp35
 70
     1
102
RTVSPost2010Prop36
280
     0
102
RTVSPost2010PropOp36
 70
     1
102
RTVSPost2010Prop37
 90
       50
102
RTVSPost2010PropOp37
 70
     0
102
RTVSPost2010Prop38
140
0.0
102
RTVSPost2010PropOp38
 70
     0
102
RTVSPost2010Prop39
140
1.0
102
RTVSPost2010PropOp39
 70
     0
102
RTVSPost2010Prop40
 90
        0
102
RTVSPost2010PropOp40
 70
     0
102
RTVSPost2010Prop41ColorIndex
 90
       18
102
RTVSPost2010Prop41ColorRGB
 90
        0
102
RTVSPost2010PropOp41
 70
     0
102
RTVSPost2010Prop42
 90
       50
102
RTVSPost2010PropOp42
 70
     0
102
RTVSPost2010Prop43
 90
        3
102
RTVSPost2010PropOp43
 70
     0
102
RTVSPost2010Prop44ColorIndex
 90
        5
102
RTVSPost2010Prop44ColorRGB
 90
      255
102
RTVSPost2010PropOp44
 70
     0
102
RTVSPost2010Prop45
280
     0
102
RTVSPost2010PropOp45
 70
     1
102
RTVSPost2010Prop46
 90
       50
102
RTVSPost2010PropOp46
 70
     0
102
RTVSPost2010Prop47
 90
       50
102
RTVSPost2010PropOp47
 70
     0
102
RTVSPost2010Prop48
 90
       50
102
RTVSPost2010PropOp48
 70
     0
102
RTVSPost2010Prop49
280
     0
102
RTVSPost2010PropOp49
 70
     1
102
RTVSPost2010Prop50
 90
       50
102
RTVSPost2010PropOp50
 70
     0
102
RTVSPost2010Prop51ColorIndex
 90
      256
102
RTVSPost2010Prop51ColorRGB
 90
-16777216
102
RTVSPost2010PropOp51
 70
     0
102
RTVSPost2010Prop52
140
1.0
102
RTVSPost2010PropOp52
 70
     0
102
RTVSPost2010Prop53
 90
        2
102
RTVSPost2010PropOp53
 70
     0
102
RTVSPost2010Prop54
  1
strokes_ogs.tif
102
RTVSPost2010PropOp54
 70
     0
102
RTVSPost2010Prop55
280
     0
102
RTVSPost2010PropOp55
 70
     1
102
RTVSPost2010Prop56
140
1.0
102
RTVSPost2010PropOp56
 70
     0
102
RTVSPost2010Prop57
140
1.0
102
RTVSPost2010PropOp57
 70
     0
102
RTVSPropertyOp0
 70
     0
102
RTVSPropertyOp1
 70
     0
102
RTVSPropertyOp2
 70
     0
102
RTVSPropertyOp3
 70
     0
102
RTVSPropertyOp4
 70
     0
102
RTVSPropertyOp5
 70
     0
102
RTVSPropertyOp6
 70
     0
102
RTVSPropertyOp7
 70
     0
102
RTVSPropertyOp8
 70
     0
102
RTVSPropertyOp9
 70
     0
102
RTVSPropertyOp10
 70
     0
102
RTVSPropertyOp11
 70
     0
102
RTVSPropertyOp12
 70
     0
102
RTVSPropertyOp13
 70
     0
102
RTVSPropertyOp14
 70
     2
102
RTVSPropertyOp15
 70
     0
102
RTVSPropertyOp16
 70
     0
102
RTVSPropertyOp17
 70
     0
102
RTVSPropertyOp18
 70
     0
102
RTVSPropertyOp19
 70
     0
102
RTVSPropertyOp20
 70
     0
102
RTVSPropertyOp21
 70
     0
102
RTVSPropertyOp22
 70
     0
102
RTVSPropertyOp23
 70
     0
102
RTVSPropertyOp24
 70
     0
102
RTVSPropertyOp25
 70
     0
102
RTVSPropertyOp26
 70
     0
102
RTVSPropertyOp27
 70
     0
102
RTVSPropertyOp28
 70
     1
102
RTVSPropertyOp29
 70
     1
102
RTVSPropertyOp30
 70
     1
102
RTVSPropertyOp31
 70
     1
102
RTVSPropertyOp32
 70
     1
102
RTVSPropertyOp33
 70
     1
102
RTVSPropertyOp34
 70
     1
102
RTVSPropertyOp35
 70
     1
102
RTVSPropertyOp36
 70
     1
102
RTVSPropertyOp37
 70
     0
102
RTVSPropertyOp38
 70
     0
102
RTVSPropertyOp39
 70
     0
102
RTVSPropertyOp40
 70
     0
102
RTVSPropertyOp41
 70
     0
102
RTVSPropertyOp42
 70
     0
102
RTVSPropertyOp43
 70
     0
102
RTVSPropertyOp44
 70
     0
102
RTVSPropertyOp45
 70
     1
102
RTVSPropertyOp46
 70
     0
102
RTVSPropertyOp47
 70
     0
102
RTVSPropertyOp48
 70
     0
102
RTVSPropertyOp49
 70
     1
102
RTVSPropertyOp50
 70
     0
102
RTVSPropertyOp51
 70
     0
102
RTVSPropertyOp52
 70
     0
102
RTVSPropertyOp53
 70
     0
102
RTVSPropertyOp54
 70
     0
102
RTVSPropertyOp55
 70
     1
102
RTVSPropertyOp56
 70
     0
102
RTVSPropertyOp57
 70
     0
102
RTVSPropertyOp58
 70
     0
102
RTVSPropertyOp59
 70
     0
102
RTVSPropertyOp60
 70
     0
102
RTVSPropertyOp61
 70
     0
102
RTVSPropertyOp62
 70
     0
  0
XRECORD
  5
B791
102
{ACAD_REACTORS
330
B790
102
}
330
B790
100
AcDbXrecord
280
     1
102
RTVSPost2010Prop28
280
     0
102
RTVSPost2010PropOp28
 70
     1
102
RTVSPost2010Prop29
280
     1
102
RTVSPost2010PropOp29
 70
     1
102
RTVSPost2010Prop30
280
     1
102
RTVSPost2010PropOp30
 70
     1
102
RTVSPost2010Prop31
280
     0
102
RTVSPost2010PropOp31
 70
     1
102
RTVSPost2010Prop32
280
     0
102
RTVSPost2010PropOp32
 70
     1
102
RTVSPost2010Prop33
280
     0
102
RTVSPost2010PropOp33
 70
     1
102
RTVSPost2010Prop34
280
     0
102
RTVSPost2010PropOp34
 70
     1
102
RTVSPost2010Prop35
280
     0
102
RTVSPost2010PropOp35
 70
     1
102
RTVSPost2010Prop36
280
     0
102
RTVSPost2010PropOp36
 70
     1
102
RTVSPost2010Prop37
 90
       50
102
RTVSPost2010PropOp37
 70
     1
102
RTVSPost2010Prop38
140
0.0
102
RTVSPost2010PropOp38
 70
     1
102
RTVSPost2010Prop39
140
1.0
102
RTVSPost2010PropOp39
 70
     1
102
RTVSPost2010Prop40
 90
        0
102
RTVSPost2010PropOp40
 70
     1
102
RTVSPost2010Prop41ColorIndex
 90
       18
102
RTVSPost2010Prop41ColorRGB
 90
        0
102
RTVSPost2010PropOp41
 70
     1
102
RTVSPost2010Prop42
 90
       50
102
RTVSPost2010PropOp42
 70
     1
102
RTVSPost2010Prop43
 90
        3
102
RTVSPost2010PropOp43
 70
     1
102
RTVSPost2010Prop44ColorIndex
 90
        5
102
RTVSPost2010Prop44ColorRGB
 90
      255
102
RTVSPost2010PropOp44
 70
     1
102
RTVSPost2010Prop45
280
     0
102
RTVSPost2010PropOp45
 70
     1
102
RTVSPost2010Prop46
 90
       50
102
RTVSPost2010PropOp46
 70
     1
102
RTVSPost2010Prop47
 90
       50
102
RTVSPost2010PropOp47
 70
     1
102
RTVSPost2010Prop48
 90
       50
102
RTVSPost2010PropOp48
 70
     1
102
RTVSPost2010Prop49
280
     0
102
RTVSPost2010PropOp49
 70
     1
102
RTVSPost2010Prop50
 90
       50
102
RTVSPost2010PropOp50
 70
     1
102
RTVSPost2010Prop51ColorIndex
 90
      256
102
RTVSPost2010Prop51ColorRGB
 90
-16777216
102
RTVSPost2010PropOp51
 70
     0
102
RTVSPost2010Prop52
140
1.0
102
RTVSPost2010PropOp52
 70
     0
102
RTVSPost2010Prop53
 90
        2
102
RTVSPost2010PropOp53
 70
     1
102
RTVSPost2010Prop54
  1
strokes_ogs.tif
102
RTVSPost2010PropOp54
 70
     1
102
RTVSPost2010Prop55
280
     0
102
RTVSPost2010PropOp55
 70
     1
102
RTVSPost2010Prop56
140
1.0
102
RTVSPost2010PropOp56
 70
     1
102
RTVSPost2010Prop57
140
1.0
102
RTVSPost2010PropOp57
 70
     1
102
RTVSPropertyOp0
 70
     1
102
RTVSPropertyOp1
 70
     1
102
RTVSPropertyOp2
 70
     1
102
RTVSPropertyOp3
 70
     1
102
RTVSPropertyOp4
 70
     1
102
RTVSPropertyOp5
 70
     1
102
RTVSPropertyOp6
 70
     1
102
RTVSPropertyOp7
 70
     1
102
RTVSPropertyOp8
 70
     1
102
RTVSPropertyOp9
 70
     1
102
RTVSPropertyOp10
 70
     1
102
RTVSPropertyOp11
 70
     1
102
RTVSPropertyOp12
 70
     1
102
RTVSPropertyOp13
 70
     1
102
RTVSPropertyOp14
 70
     1
102
RTVSPropertyOp15
 70
     1
102
RTVSPropertyOp16
 70
     1
102
RTVSPropertyOp17
 70
     1
102
RTVSPropertyOp18
 70
     1
102
RTVSPropertyOp19
 70
     1
102
RTVSPropertyOp20
 70
     1
102
RTVSPropertyOp21
 70
     1
102
RTVSPropertyOp22
 70
     1
102
RTVSPropertyOp23
 70
     1
102
RTVSPropertyOp24
 70
     1
102
RTVSPropertyOp25
 70
     1
102
RTVSPropertyOp26
 70
     1
102
RTVSPropertyOp27
 70
     1
102
RTVSPropertyOp28
 70
     1
102
RTVSPropertyOp29
 70
     1
102
RTVSPropertyOp30
 70
     1
102
RTVSPropertyOp31
 70
     1
102
RTVSPropertyOp32
 70
     1
102
RTVSPropertyOp33
 70
     1
102
RTVSPropertyOp34
 70
     1
102
RTVSPropertyOp35
 70
     1
102
RTVSPropertyOp36
 70
     1
102
RTVSPropertyOp37
 70
     1
102
RTVSPropertyOp38
 70
     1
102
RTVSPropertyOp39
 70
     1
102
RTVSPropertyOp40
 70
     1
102
RTVSPropertyOp41
 70
     1
102
RTVSPropertyOp42
 70
     1
102
RTVSPropertyOp43
 70
     1
102
RTVSPropertyOp44
 70
     1
102
RTVSPropertyOp45
 70
     1
102
RTVSPropertyOp46
 70
     1
102
RTVSPropertyOp47
 70
     1
102
RTVSPropertyOp48
 70
     1
102
RTVSPropertyOp49
 70
     1
102
RTVSPropertyOp50
 70
     1
102
RTVSPropertyOp51
 70
     0
102
RTVSPropertyOp52
 70
     0
102
RTVSPropertyOp53
 70
     1
102
RTVSPropertyOp54
 70
     1
102
RTVSPropertyOp55
 70
     1
102
RTVSPropertyOp56
 70
     1
102
RTVSPropertyOp57
 70
     1
102
RTVSPropertyOp58
 70
     1
102
RTVSPropertyOp59
 70
     1
102
RTVSPropertyOp60
 70
     1
102
RTVSPropertyOp61
 70
     1
102
RTVSPropertyOp62
 70
     1
  0
XRECORD
  5
B7A3
102
{ACAD_REACTORS
330
B7A2
102
}
330
B7A2
100
AcDbXrecord
280
     1
102
RTVSPost2010Prop28
280
     0
102
RTVSPost2010PropOp28
 70
     1
102
RTVSPost2010Prop29
280
     1
102
RTVSPost2010PropOp29
 70
     1
102
RTVSPost2010Prop30
280
     1
102
RTVSPost2010PropOp30
 70
     1
102
RTVSPost2010Prop31
280
     0
102
RTVSPost2010PropOp31
 70
     1
102
RTVSPost2010Prop32
280
     0
102
RTVSPost2010PropOp32
 70
     1
102
RTVSPost2010Prop33
280
     0
102
RTVSPost2010PropOp33
 70
     1
102
RTVSPost2010Prop34
280
     0
102
RTVSPost2010PropOp34
 70
     1
102
RTVSPost2010Prop35
280
     0
102
RTVSPost2010PropOp35
 70
     1
102
RTVSPost2010Prop36
280
     0
102
RTVSPost2010PropOp36
 70
     1
102
RTVSPost2010Prop37
 90
       50
102
RTVSPost2010PropOp37
 70
     0
102
RTVSPost2010Prop38
140
0.0
102
RTVSPost2010PropOp38
 70
     0
102
RTVSPost2010Prop39
140
1.0
102
RTVSPost2010PropOp39
 70
     0
102
RTVSPost2010Prop40
 90
        0
102
RTVSPost2010PropOp40
 70
     0
102
RTVSPost2010Prop41ColorIndex
 90
       18
102
RTVSPost2010Prop41ColorRGB
 90
        0
102
RTVSPost2010PropOp41
 70
     0
102
RTVSPost2010Prop42
 90
       50
102
RTVSPost2010PropOp42
 70
     0
102
RTVSPost2010Prop43
 90
        3
102
RTVSPost2010PropOp43
 70
     0
102
RTVSPost2010Prop44ColorIndex
 90
        5
102
RTVSPost2010Prop44ColorRGB
 90
      255
102
RTVSPost2010PropOp44
 70
     0
102
RTVSPost2010Prop45
280
     0
102
RTVSPost2010PropOp45
 70
     1
102
RTVSPost2010Prop46
 90
       50
102
RTVSPost2010PropOp46
 70
     0
102
RTVSPost2010Prop47
 90
       50
102
RTVSPost2010PropOp47
 70
     0
102
RTVSPost2010Prop48
 90
       50
102
RTVSPost2010PropOp48
 70
     0
102
RTVSPost2010Prop49
280
     0
102
RTVSPost2010PropOp49
 70
     1
102
RTVSPost2010Prop50
 90
       50
102
RTVSPost2010PropOp50
 70
     0
102
RTVSPost2010Prop51ColorIndex
 90
      256
102
RTVSPost2010Prop51ColorRGB
 90
-16777216
102
RTVSPost2010PropOp51
 70
     0
102
RTVSPost2010Prop52
140
1.0
102
RTVSPost2010PropOp52
 70
     0
102
RTVSPost2010Prop53
 90
        2
102
RTVSPost2010PropOp53
 70
     0
102
RTVSPost2010Prop54
  1
strokes_ogs.tif
102
RTVSPost2010PropOp54
 70
     0
102
RTVSPost2010Prop55
280
     0
102
RTVSPost2010PropOp55
 70
     1
102
RTVSPost2010Prop56
140
1.0
102
RTVSPost2010PropOp56
 70
     0
102
RTVSPost2010Prop57
140
1.0
102
RTVSPost2010PropOp57
 70
     0
102
RTVSPropertyOp0
 70
     0
102
RTVSPropertyOp1
 70
     0
102
RTVSPropertyOp2
 70
     0
102
RTVSPropertyOp3
 70
     0
102
RTVSPropertyOp4
 70
     0
102
RTVSPropertyOp5
 70
     0
102
RTVSPropertyOp6
 70
     0
102
RTVSPropertyOp7
 70
     0
102
RTVSPropertyOp8
 70
     0
102
RTVSPropertyOp9
 70
     0
102
RTVSPropertyOp10
 70
     0
102
RTVSPropertyOp11
 70
     0
102
RTVSPropertyOp12
 70
     0
102
RTVSPropertyOp13
 70
     0
102
RTVSPropertyOp14
 70
     2
102
RTVSPropertyOp15
 70
     0
102
RTVSPropertyOp16
 70
     0
102
RTVSPropertyOp17
 70
     0
102
RTVSPropertyOp18
 70
     0
102
RTVSPropertyOp19
 70
     0
102
RTVSPropertyOp20
 70
     0
102
RTVSPropertyOp21
 70
     0
102
RTVSPropertyOp22
 70
     0
102
RTVSPropertyOp23
 70
     0
102
RTVSPropertyOp24
 70
     0
102
RTVSPropertyOp25
 70
     0
102
RTVSPropertyOp26
 70
     0
102
RTVSPropertyOp27
 70
     0
102
RTVSPropertyOp28
 70
     1
102
RTVSPropertyOp29
 70
     1
102
RTVSPropertyOp30
 70
     1
102
RTVSPropertyOp31
 70
     1
102
RTVSPropertyOp32
 70
     1
102
RTVSPropertyOp33
 70
     1
102
RTVSPropertyOp34
 70
     1
102
RTVSPropertyOp35
 70
     1
102
RTVSPropertyOp36
 70
     1
102
RTVSPropertyOp37
 70
     0
102
RTVSPropertyOp38
 70
     0
102
RTVSPropertyOp39
 70
     0
102
RTVSPropertyOp40
 70
     0
102
RTVSPropertyOp41
 70
     0
102
RTVSPropertyOp42
 70
     0
102
RTVSPropertyOp43
 70
     0
102
RTVSPropertyOp44
 70
     0
102
RTVSPropertyOp45
 70
     1
102
RTVSPropertyOp46
 70
     0
102
RTVSPropertyOp47
 70
     0
102
RTVSPropertyOp48
 70
     0
102
RTVSPropertyOp49
 70
     1
102
RTVSPropertyOp50
 70
     0
102
RTVSPropertyOp51
 70
     0
102
RTVSPropertyOp52
 70
     0
102
RTVSPropertyOp53
 70
     0
102
RTVSPropertyOp54
 70
     0
102
RTVSPropertyOp55
 70
     1
102
RTVSPropertyOp56
 70
     0
102
RTVSPropertyOp57
 70
     0
102
RTVSPropertyOp58
 70
     0
102
RTVSPropertyOp59
 70
     0
102
RTVSPropertyOp60
 70
     0
102
RTVSPropertyOp61
 70
     0
102
RTVSPropertyOp62
 70
     0
  0
XRECORD
  5
B789
102
{ACAD_REACTORS
330
B788
102
}
330
B788
100
AcDbXrecord
280
     1
102
RTVSPost2010Prop28
280
     0
102
RTVSPost2010PropOp28
 70
     1
102
RTVSPost2010Prop29
280
     1
102
RTVSPost2010PropOp29
 70
     1
102
RTVSPost2010Prop30
280
     1
102
RTVSPost2010PropOp30
 70
     1
102
RTVSPost2010Prop31
280
     0
102
RTVSPost2010PropOp31
 70
     1
102
RTVSPost2010Prop32
280
     0
102
RTVSPost2010PropOp32
 70
     1
102
RTVSPost2010Prop33
280
     0
102
RTVSPost2010PropOp33
 70
     1
102
RTVSPost2010Prop34
280
     0
102
RTVSPost2010PropOp34
 70
     1
102
RTVSPost2010Prop35
280
     0
102
RTVSPost2010PropOp35
 70
     1
102
RTVSPost2010Prop36
280
     0
102
RTVSPost2010PropOp36
 70
     1
102
RTVSPost2010Prop37
 90
       50
102
RTVSPost2010PropOp37
 70
     1
102
RTVSPost2010Prop38
140
0.0
102
RTVSPost2010PropOp38
 70
     1
102
RTVSPost2010Prop39
140
1.0
102
RTVSPost2010PropOp39
 70
     1
102
RTVSPost2010Prop40
 90
        0
102
RTVSPost2010PropOp40
 70
     1
102
RTVSPost2010Prop41ColorIndex
 90
       18
102
RTVSPost2010Prop41ColorRGB
 90
        0
102
RTVSPost2010PropOp41
 70
     1
102
RTVSPost2010Prop42
 90
       50
102
RTVSPost2010PropOp42
 70
     1
102
RTVSPost2010Prop43
 90
        3
102
RTVSPost2010PropOp43
 70
     1
102
RTVSPost2010Prop44ColorIndex
 90
        5
102
RTVSPost2010Prop44ColorRGB
 90
      255
102
RTVSPost2010PropOp44
 70
     1
102
RTVSPost2010Prop45
280
     0
102
RTVSPost2010PropOp45
 70
     1
102
RTVSPost2010Prop46
 90
       50
102
RTVSPost2010PropOp46
 70
     1
102
RTVSPost2010Prop47
 90
       50
102
RTVSPost2010PropOp47
 70
     1
102
RTVSPost2010Prop48
 90
       50
102
RTVSPost2010PropOp48
 70
     1
102
RTVSPost2010Prop49
280
     0
102
RTVSPost2010PropOp49
 70
     1
102
RTVSPost2010Prop50
 90
       50
102
RTVSPost2010PropOp50
 70
     1
102
RTVSPost2010Prop51ColorIndex
 90
      256
102
RTVSPost2010Prop51ColorRGB
 90
-16777216
102
RTVSPost2010PropOp51
 70
     0
102
RTVSPost2010Prop52
140
1.0
102
RTVSPost2010PropOp52
 70
     0
102
RTVSPost2010Prop53
 90
        2
102
RTVSPost2010PropOp53
 70
     1
102
RTVSPost2010Prop54
  1
strokes_ogs.tif
102
RTVSPost2010PropOp54
 70
     1
102
RTVSPost2010Prop55
280
     0
102
RTVSPost2010PropOp55
 70
     1
102
RTVSPost2010Prop56
140
1.0
102
RTVSPost2010PropOp56
 70
     1
102
RTVSPost2010Prop57
140
1.0
102
RTVSPost2010PropOp57
 70
     1
102
RTVSPropertyOp0
 70
     1
102
RTVSPropertyOp1
 70
     1
102
RTVSPropertyOp2
 70
     1
102
RTVSPropertyOp3
 70
     1
102
RTVSPropertyOp4
 70
     1
102
RTVSPropertyOp5
 70
     1
102
RTVSPropertyOp6
 70
     1
102
RTVSPropertyOp7
 70
     1
102
RTVSPropertyOp8
 70
     1
102
RTVSPropertyOp9
 70
     1
102
RTVSPropertyOp10
 70
     1
102
RTVSPropertyOp11
 70
     1
102
RTVSPropertyOp12
 70
     1
102
RTVSPropertyOp13
 70
     1
102
RTVSPropertyOp14
 70
     1
102
RTVSPropertyOp15
 70
     1
102
RTVSPropertyOp16
 70
     1
102
RTVSPropertyOp17
 70
     1
102
RTVSPropertyOp18
 70
     1
102
RTVSPropertyOp19
 70
     1
102
RTVSPropertyOp20
 70
     1
102
RTVSPropertyOp21
 70
     1
102
RTVSPropertyOp22
 70
     1
102
RTVSPropertyOp23
 70
     1
102
RTVSPropertyOp24
 70
     1
102
RTVSPropertyOp25
 70
     1
102
RTVSPropertyOp26
 70
     1
102
RTVSPropertyOp27
 70
     1
102
RTVSPropertyOp28
 70
     1
102
RTVSPropertyOp29
 70
     1
102
RTVSPropertyOp30
 70
     1
102
RTVSPropertyOp31
 70
     1
102
RTVSPropertyOp32
 70
     1
102
RTVSPropertyOp33
 70
     1
102
RTVSPropertyOp34
 70
     1
102
RTVSPropertyOp35
 70
     1
102
RTVSPropertyOp36
 70
     1
102
RTVSPropertyOp37
 70
     1
102
RTVSPropertyOp38
 70
     1
102
RTVSPropertyOp39
 70
     1
102
RTVSPropertyOp40
 70
     1
102
RTVSPropertyOp41
 70
     1
102
RTVSPropertyOp42
 70
     1
102
RTVSPropertyOp43
 70
     1
102
RTVSPropertyOp44
 70
     1
102
RTVSPropertyOp45
 70
     1
102
RTVSPropertyOp46
 70
     1
102
RTVSPropertyOp47
 70
     1
102
RTVSPropertyOp48
 70
     1
102
RTVSPropertyOp49
 70
     1
102
RTVSPropertyOp50
 70
     1
102
RTVSPropertyOp51
 70
     0
102
RTVSPropertyOp52
 70
     0
102
RTVSPropertyOp53
 70
     1
102
RTVSPropertyOp54
 70
     1
102
RTVSPropertyOp55
 70
     1
102
RTVSPropertyOp56
 70
     1
102
RTVSPropertyOp57
 70
     1
102
RTVSPropertyOp58
 70
     1
102
RTVSPropertyOp59
 70
     1
102
RTVSPropertyOp60
 70
     1
102
RTVSPropertyOp61
 70
     1
102
RTVSPropertyOp62
 70
     1
  0
XRECORD
  5
B79F
102
{ACAD_REACTORS
330
B79E
102
}
330
B79E
100
AcDbXrecord
280
     1
102
RTVSPost2010Prop28
280
     0
102
RTVSPost2010PropOp28
 70
     1
102
RTVSPost2010Prop29
280
     1
102
RTVSPost2010PropOp29
 70
     1
102
RTVSPost2010Prop30
280
     1
102
RTVSPost2010PropOp30
 70
     1
102
RTVSPost2010Prop31
280
     0
102
RTVSPost2010PropOp31
 70
     1
102
RTVSPost2010Prop32
280
     0
102
RTVSPost2010PropOp32
 70
     1
102
RTVSPost2010Prop33
280
     0
102
RTVSPost2010PropOp33
 70
     1
102
RTVSPost2010Prop34
280
     0
102
RTVSPost2010PropOp34
 70
     1
102
RTVSPost2010Prop35
280
     0
102
RTVSPost2010PropOp35
 70
     1
102
RTVSPost2010Prop36
280
     0
102
RTVSPost2010PropOp36
 70
     1
102
RTVSPost2010Prop37
 90
       50
102
RTVSPost2010PropOp37
 70
     1
102
RTVSPost2010Prop38
140
0.0
102
RTVSPost2010PropOp38
 70
     1
102
RTVSPost2010Prop39
140
1.0
102
RTVSPost2010PropOp39
 70
     1
102
RTVSPost2010Prop40
 90
        0
102
RTVSPost2010PropOp40
 70
     1
102
RTVSPost2010Prop41ColorIndex
 90
       18
102
RTVSPost2010Prop41ColorRGB
 90
        0
102
RTVSPost2010PropOp41
 70
     1
102
RTVSPost2010Prop42
 90
       50
102
RTVSPost2010PropOp42
 70
     1
102
RTVSPost2010Prop43
 90
        3
102
RTVSPost2010PropOp43
 70
     1
102
RTVSPost2010Prop44ColorIndex
 90
        5
102
RTVSPost2010Prop44ColorRGB
 90
      255
102
RTVSPost2010PropOp44
 70
     1
102
RTVSPost2010Prop45
280
     0
102
RTVSPost2010PropOp45
 70
     1
102
RTVSPost2010Prop46
 90
       50
102
RTVSPost2010PropOp46
 70
     1
102
RTVSPost2010Prop47
 90
       50
102
RTVSPost2010PropOp47
 70
     1
102
RTVSPost2010Prop48
 90
       50
102
RTVSPost2010PropOp48
 70
     1
102
RTVSPost2010Prop49
280
     0
102
RTVSPost2010PropOp49
 70
     1
102
RTVSPost2010Prop50
 90
       50
102
RTVSPost2010PropOp50
 70
     1
102
RTVSPost2010Prop51ColorIndex
 90
      256
102
RTVSPost2010Prop51ColorRGB
 90
-16777216
102
RTVSPost2010PropOp51
 70
     0
102
RTVSPost2010Prop52
140
1.0
102
RTVSPost2010PropOp52
 70
     0
102
RTVSPost2010Prop53
 90
        2
102
RTVSPost2010PropOp53
 70
     1
102
RTVSPost2010Prop54
  1
strokes_ogs.tif
102
RTVSPost2010PropOp54
 70
     1
102
RTVSPost2010Prop55
280
     0
102
RTVSPost2010PropOp55
 70
     1
102
RTVSPost2010Prop56
140
1.0
102
RTVSPost2010PropOp56
 70
     1
102
RTVSPost2010Prop57
140
1.0
102
RTVSPost2010PropOp57
 70
     1
102
RTVSPropertyOp0
 70
     1
102
RTVSPropertyOp1
 70
     1
102
RTVSPropertyOp2
 70
     1
102
RTVSPropertyOp3
 70
     1
102
RTVSPropertyOp4
 70
     1
102
RTVSPropertyOp5
 70
     1
102
RTVSPropertyOp6
 70
     1
102
RTVSPropertyOp7
 70
     1
102
RTVSPropertyOp8
 70
     1
102
RTVSPropertyOp9
 70
     1
102
RTVSPropertyOp10
 70
     1
102
RTVSPropertyOp11
 70
     1
102
RTVSPropertyOp12
 70
     1
102
RTVSPropertyOp13
 70
     1
102
RTVSPropertyOp14
 70
     1
102
RTVSPropertyOp15
 70
     1
102
RTVSPropertyOp16
 70
     1
102
RTVSPropertyOp17
 70
     1
102
RTVSPropertyOp18
 70
     1
102
RTVSPropertyOp19
 70
     1
102
RTVSPropertyOp20
 70
     1
102
RTVSPropertyOp21
 70
     1
102
RTVSPropertyOp22
 70
     1
102
RTVSPropertyOp23
 70
     1
102
RTVSPropertyOp24
 70
     1
102
RTVSPropertyOp25
 70
     1
102
RTVSPropertyOp26
 70
     1
102
RTVSPropertyOp27
 70
     1
102
RTVSPropertyOp28
 70
     1
102
RTVSPropertyOp29
 70
     1
102
RTVSPropertyOp30
 70
     1
102
RTVSPropertyOp31
 70
     1
102
RTVSPropertyOp32
 70
     1
102
RTVSPropertyOp33
 70
     1
102
RTVSPropertyOp34
 70
     1
102
RTVSPropertyOp35
 70
     1
102
RTVSPropertyOp36
 70
     1
102
RTVSPropertyOp37
 70
     1
102
RTVSPropertyOp38
 70
     1
102
RTVSPropertyOp39
 70
     1
102
RTVSPropertyOp40
 70
     1
102
RTVSPropertyOp41
 70
     1
102
RTVSPropertyOp42
 70
     1
102
RTVSPropertyOp43
 70
     1
102
RTVSPropertyOp44
 70
     1
102
RTVSPropertyOp45
 70
     1
102
RTVSPropertyOp46
 70
     1
102
RTVSPropertyOp47
 70
     1
102
RTVSPropertyOp48
 70
     1
102
RTVSPropertyOp49
 70
     1
102
RTVSPropertyOp50
 70
     1
102
RTVSPropertyOp51
 70
     0
102
RTVSPropertyOp52
 70
     0
102
RTVSPropertyOp53
 70
     1
102
RTVSPropertyOp54
 70
     1
102
RTVSPropertyOp55
 70
     1
102
RTVSPropertyOp56
 70
     1
102
RTVSPropertyOp57
 70
     1
102
RTVSPropertyOp58
 70
     1
102
RTVSPropertyOp59
 70
     1
102
RTVSPropertyOp60
 70
     1
102
RTVSPropertyOp61
 70
     1
102
RTVSPropertyOp62
 70
     1
  0
XRECORD
  5
B79D
102
{ACAD_REACTORS
330
B79C
102
}
330
B79C
100
AcDbXrecord
280
     1
102
RTVSPost2010Prop28
280
     0
102
RTVSPost2010PropOp28
 70
     1
102
RTVSPost2010Prop29
280
     1
102
RTVSPost2010PropOp29
 70
     1
102
RTVSPost2010Prop30
280
     1
102
RTVSPost2010PropOp30
 70
     1
102
RTVSPost2010Prop31
280
     0
102
RTVSPost2010PropOp31
 70
     1
102
RTVSPost2010Prop32
280
     0
102
RTVSPost2010PropOp32
 70
     1
102
RTVSPost2010Prop33
280
     0
102
RTVSPost2010PropOp33
 70
     1
102
RTVSPost2010Prop34
280
     0
102
RTVSPost2010PropOp34
 70
     1
102
RTVSPost2010Prop35
280
     0
102
RTVSPost2010PropOp35
 70
     1
102
RTVSPost2010Prop36
280
     0
102
RTVSPost2010PropOp36
 70
     1
102
RTVSPost2010Prop37
 90
       50
102
RTVSPost2010PropOp37
 70
     1
102
RTVSPost2010Prop38
140
0.0
102
RTVSPost2010PropOp38
 70
     1
102
RTVSPost2010Prop39
140
1.0
102
RTVSPost2010PropOp39
 70
     1
102
RTVSPost2010Prop40
 90
        0
102
RTVSPost2010PropOp40
 70
     1
102
RTVSPost2010Prop41ColorIndex
 90
       18
102
RTVSPost2010Prop41ColorRGB
 90
        0
102
RTVSPost2010PropOp41
 70
     1
102
RTVSPost2010Prop42
 90
       50
102
RTVSPost2010PropOp42
 70
     1
102
RTVSPost2010Prop43
 90
        3
102
RTVSPost2010PropOp43
 70
     1
102
RTVSPost2010Prop44ColorIndex
 90
        5
102
RTVSPost2010Prop44ColorRGB
 90
      255
102
RTVSPost2010PropOp44
 70
     1
102
RTVSPost2010Prop45
280
     0
102
RTVSPost2010PropOp45
 70
     1
102
RTVSPost2010Prop46
 90
       50
102
RTVSPost2010PropOp46
 70
     1
102
RTVSPost2010Prop47
 90
       50
102
RTVSPost2010PropOp47
 70
     1
102
RTVSPost2010Prop48
 90
       50
102
RTVSPost2010PropOp48
 70
     1
102
RTVSPost2010Prop49
280
     0
102
RTVSPost2010PropOp49
 70
     1
102
RTVSPost2010Prop50
 90
       50
102
RTVSPost2010PropOp50
 70
     1
102
RTVSPost2010Prop51ColorIndex
 90
      256
102
RTVSPost2010Prop51ColorRGB
 90
-16777216
102
RTVSPost2010PropOp51
 70
     0
102
RTVSPost2010Prop52
140
1.0
102
RTVSPost2010PropOp52
 70
     0
102
RTVSPost2010Prop53
 90
        2
102
RTVSPost2010PropOp53
 70
     1
102
RTVSPost2010Prop54
  1
strokes_ogs.tif
102
RTVSPost2010PropOp54
 70
     1
102
RTVSPost2010Prop55
280
     0
102
RTVSPost2010PropOp55
 70
     1
102
RTVSPost2010Prop56
140
1.0
102
RTVSPost2010PropOp56
 70
     1
102
RTVSPost2010Prop57
140
1.0
102
RTVSPost2010PropOp57
 70
     1
102
RTVSPropertyOp0
 70
     1
102
RTVSPropertyOp1
 70
     1
102
RTVSPropertyOp2
 70
     1
102
RTVSPropertyOp3
 70
     1
102
RTVSPropertyOp4
 70
     1
102
RTVSPropertyOp5
 70
     1
102
RTVSPropertyOp6
 70
     1
102
RTVSPropertyOp7
 70
     1
102
RTVSPropertyOp8
 70
     1
102
RTVSPropertyOp9
 70
     1
102
RTVSPropertyOp10
 70
     1
102
RTVSPropertyOp11
 70
     1
102
RTVSPropertyOp12
 70
     1
102
RTVSPropertyOp13
 70
     1
102
RTVSPropertyOp14
 70
     1
102
RTVSPropertyOp15
 70
     1
102
RTVSPropertyOp16
 70
     1
102
RTVSPropertyOp17
 70
     1
102
RTVSPropertyOp18
 70
     1
102
RTVSPropertyOp19
 70
     1
102
RTVSPropertyOp20
 70
     1
102
RTVSPropertyOp21
 70
     1
102
RTVSPropertyOp22
 70
     1
102
RTVSPropertyOp23
 70
     1
102
RTVSPropertyOp24
 70
     1
102
RTVSPropertyOp25
 70
     1
102
RTVSPropertyOp26
 70
     1
102
RTVSPropertyOp27
 70
     1
102
RTVSPropertyOp28
 70
     1
102
RTVSPropertyOp29
 70
     1
102
RTVSPropertyOp30
 70
     1
102
RTVSPropertyOp31
 70
     1
102
RTVSPropertyOp32
 70
     1
102
RTVSPropertyOp33
 70
     1
102
RTVSPropertyOp34
 70
     1
102
RTVSPropertyOp35
 70
     1
102
RTVSPropertyOp36
 70
     1
102
RTVSPropertyOp37
 70
     1
102
RTVSPropertyOp38
 70
     1
102
RTVSPropertyOp39
 70
     1
102
RTVSPropertyOp40
 70
     1
102
RTVSPropertyOp41
 70
     1
102
RTVSPropertyOp42
 70
     1
102
RTVSPropertyOp43
 70
     1
102
RTVSPropertyOp44
 70
     1
102
RTVSPropertyOp45
 70
     1
102
RTVSPropertyOp46
 70
     1
102
RTVSPropertyOp47
 70
     1
102
RTVSPropertyOp48
 70
     1
102
RTVSPropertyOp49
 70
     1
102
RTVSPropertyOp50
 70
     1
102
RTVSPropertyOp51
 70
     0
102
RTVSPropertyOp52
 70
     0
102
RTVSPropertyOp53
 70
     1
102
RTVSPropertyOp54
 70
     1
102
RTVSPropertyOp55
 70
     1
102
RTVSPropertyOp56
 70
     1
102
RTVSPropertyOp57
 70
     1
102
RTVSPropertyOp58
 70
     1
102
RTVSPropertyOp59
 70
     1
102
RTVSPropertyOp60
 70
     1
102
RTVSPropertyOp61
 70
     1
102
RTVSPropertyOp62
 70
     1
  0
XRECORD
  5
B797
102
{ACAD_REACTORS
330
B796
102
}
330
B796
100
AcDbXrecord
280
     1
102
RTVSPost2010Prop28
280
     0
102
RTVSPost2010PropOp28
 70
     1
102
RTVSPost2010Prop29
280
     1
102
RTVSPost2010PropOp29
 70
     1
102
RTVSPost2010Prop30
280
     1
102
RTVSPost2010PropOp30
 70
     1
102
RTVSPost2010Prop31
280
     0
102
RTVSPost2010PropOp31
 70
     1
102
RTVSPost2010Prop32
280
     0
102
RTVSPost2010PropOp32
 70
     1
102
RTVSPost2010Prop33
280
     0
102
RTVSPost2010PropOp33
 70
     1
102
RTVSPost2010Prop34
280
     0
102
RTVSPost2010PropOp34
 70
     1
102
RTVSPost2010Prop35
280
     0
102
RTVSPost2010PropOp35
 70
     1
102
RTVSPost2010Prop36
280
     0
102
RTVSPost2010PropOp36
 70
     1
102
RTVSPost2010Prop37
 90
       50
102
RTVSPost2010PropOp37
 70
     1
102
RTVSPost2010Prop38
140
0.0
102
RTVSPost2010PropOp38
 70
     1
102
RTVSPost2010Prop39
140
1.0
102
RTVSPost2010PropOp39
 70
     1
102
RTVSPost2010Prop40
 90
        0
102
RTVSPost2010PropOp40
 70
     1
102
RTVSPost2010Prop41ColorIndex
 90
       18
102
RTVSPost2010Prop41ColorRGB
 90
        0
102
RTVSPost2010PropOp41
 70
     1
102
RTVSPost2010Prop42
 90
       50
102
RTVSPost2010PropOp42
 70
     1
102
RTVSPost2010Prop43
 90
        3
102
RTVSPost2010PropOp43
 70
     1
102
RTVSPost2010Prop44ColorIndex
 90
        5
102
RTVSPost2010Prop44ColorRGB
 90
      255
102
RTVSPost2010PropOp44
 70
     1
102
RTVSPost2010Prop45
280
     0
102
RTVSPost2010PropOp45
 70
     1
102
RTVSPost2010Prop46
 90
       50
102
RTVSPost2010PropOp46
 70
     1
102
RTVSPost2010Prop47
 90
       50
102
RTVSPost2010PropOp47
 70
     1
102
RTVSPost2010Prop48
 90
       50
102
RTVSPost2010PropOp48
 70
     1
102
RTVSPost2010Prop49
280
     0
102
RTVSPost2010PropOp49
 70
     1
102
RTVSPost2010Prop50
 90
       50
102
RTVSPost2010PropOp50
 70
     1
102
RTVSPost2010Prop51ColorIndex
 90
      256
102
RTVSPost2010Prop51ColorRGB
 90
-16777216
102
RTVSPost2010PropOp51
 70
     0
102
RTVSPost2010Prop52
140
1.0
102
RTVSPost2010PropOp52
 70
     0
102
RTVSPost2010Prop53
 90
        2
102
RTVSPost2010PropOp53
 70
     1
102
RTVSPost2010Prop54
  1
strokes_ogs.tif
102
RTVSPost2010PropOp54
 70
     1
102
RTVSPost2010Prop55
280
     0
102
RTVSPost2010PropOp55
 70
     1
102
RTVSPost2010Prop56
140
1.0
102
RTVSPost2010PropOp56
 70
     1
102
RTVSPost2010Prop57
140
1.0
102
RTVSPost2010PropOp57
 70
     1
102
RTVSPropertyOp0
 70
     1
102
RTVSPropertyOp1
 70
     1
102
RTVSPropertyOp2
 70
     1
102
RTVSPropertyOp3
 70
     1
102
RTVSPropertyOp4
 70
     1
102
RTVSPropertyOp5
 70
     1
102
RTVSPropertyOp6
 70
     1
102
RTVSPropertyOp7
 70
     1
102
RTVSPropertyOp8
 70
     1
102
RTVSPropertyOp9
 70
     1
102
RTVSPropertyOp10
 70
     1
102
RTVSPropertyOp11
 70
     1
102
RTVSPropertyOp12
 70
     1
102
RTVSPropertyOp13
 70
     1
102
RTVSPropertyOp14
 70
     1
102
RTVSPropertyOp15
 70
     1
102
RTVSPropertyOp16
 70
     1
102
RTVSPropertyOp17
 70
     1
102
RTVSPropertyOp18
 70
     1
102
RTVSPropertyOp19
 70
     1
102
RTVSPropertyOp20
 70
     1
102
RTVSPropertyOp21
 70
     1
102
RTVSPropertyOp22
 70
     1
102
RTVSPropertyOp23
 70
     1
102
RTVSPropertyOp24
 70
     1
102
RTVSPropertyOp25
 70
     1
102
RTVSPropertyOp26
 70
     1
102
RTVSPropertyOp27
 70
     1
102
RTVSPropertyOp28
 70
     1
102
RTVSPropertyOp29
 70
     1
102
RTVSPropertyOp30
 70
     1
102
RTVSPropertyOp31
 70
     1
102
RTVSPropertyOp32
 70
     1
102
RTVSPropertyOp33
 70
     1
102
RTVSPropertyOp34
 70
     1
102
RTVSPropertyOp35
 70
     1
102
RTVSPropertyOp36
 70
     1
102
RTVSPropertyOp37
 70
     1
102
RTVSPropertyOp38
 70
     1
102
RTVSPropertyOp39
 70
     1
102
RTVSPropertyOp40
 70
     1
102
RTVSPropertyOp41
 70
     1
102
RTVSPropertyOp42
 70
     1
102
RTVSPropertyOp43
 70
     1
102
RTVSPropertyOp44
 70
     1
102
RTVSPropertyOp45
 70
     1
102
RTVSPropertyOp46
 70
     1
102
RTVSPropertyOp47
 70
     1
102
RTVSPropertyOp48
 70
     1
102
RTVSPropertyOp49
 70
     1
102
RTVSPropertyOp50
 70
     1
102
RTVSPropertyOp51
 70
     0
102
RTVSPropertyOp52
 70
     0
102
RTVSPropertyOp53
 70
     1
102
RTVSPropertyOp54
 70
     1
102
RTVSPropertyOp55
 70
     1
102
RTVSPropertyOp56
 70
     1
102
RTVSPropertyOp57
 70
     1
102
RTVSPropertyOp58
 70
     1
102
RTVSPropertyOp59
 70
     1
102
RTVSPropertyOp60
 70
     1
102
RTVSPropertyOp61
 70
     1
102
RTVSPropertyOp62
 70
     1
  0
XRECORD
  5
B799
102
{ACAD_REACTORS
330
B798
102
}
330
B798
100
AcDbXrecord
280
     1
102
RTVSPost2010Prop28
280
     0
102
RTVSPost2010PropOp28
 70
     1
102
RTVSPost2010Prop29
280
     1
102
RTVSPost2010PropOp29
 70
     1
102
RTVSPost2010Prop30
280
     1
102
RTVSPost2010PropOp30
 70
     1
102
RTVSPost2010Prop31
280
     0
102
RTVSPost2010PropOp31
 70
     1
102
RTVSPost2010Prop32
280
     0
102
RTVSPost2010PropOp32
 70
     1
102
RTVSPost2010Prop33
280
     0
102
RTVSPost2010PropOp33
 70
     1
102
RTVSPost2010Prop34
280
     0
102
RTVSPost2010PropOp34
 70
     1
102
RTVSPost2010Prop35
280
     0
102
RTVSPost2010PropOp35
 70
     1
102
RTVSPost2010Prop36
280
     0
102
RTVSPost2010PropOp36
 70
     1
102
RTVSPost2010Prop37
 90
       50
102
RTVSPost2010PropOp37
 70
     1
102
RTVSPost2010Prop38
140
0.0
102
RTVSPost2010PropOp38
 70
     1
102
RTVSPost2010Prop39
140
1.0
102
RTVSPost2010PropOp39
 70
     1
102
RTVSPost2010Prop40
 90
        0
102
RTVSPost2010PropOp40
 70
     1
102
RTVSPost2010Prop41ColorIndex
 90
       18
102
RTVSPost2010Prop41ColorRGB
 90
        0
102
RTVSPost2010PropOp41
 70
     1
102
RTVSPost2010Prop42
 90
       50
102
RTVSPost2010PropOp42
 70
     1
102
RTVSPost2010Prop43
 90
        3
102
RTVSPost2010PropOp43
 70
     1
102
RTVSPost2010Prop44ColorIndex
 90
        5
102
RTVSPost2010Prop44ColorRGB
 90
      255
102
RTVSPost2010PropOp44
 70
     1
102
RTVSPost2010Prop45
280
     0
102
RTVSPost2010PropOp45
 70
     1
102
RTVSPost2010Prop46
 90
       50
102
RTVSPost2010PropOp46
 70
     1
102
RTVSPost2010Prop47
 90
       50
102
RTVSPost2010PropOp47
 70
     1
102
RTVSPost2010Prop48
 90
       50
102
RTVSPost2010PropOp48
 70
     1
102
RTVSPost2010Prop49
280
     0
102
RTVSPost2010PropOp49
 70
     1
102
RTVSPost2010Prop50
 90
       50
102
RTVSPost2010PropOp50
 70
     1
102
RTVSPost2010Prop51ColorIndex
 90
      256
102
RTVSPost2010Prop51ColorRGB
 90
-16777216
102
RTVSPost2010PropOp51
 70
     0
102
RTVSPost2010Prop52
140
1.0
102
RTVSPost2010PropOp52
 70
     0
102
RTVSPost2010Prop53
 90
        2
102
RTVSPost2010PropOp53
 70
     1
102
RTVSPost2010Prop54
  1
strokes_ogs.tif
102
RTVSPost2010PropOp54
 70
     1
102
RTVSPost2010Prop55
280
     0
102
RTVSPost2010PropOp55
 70
     1
102
RTVSPost2010Prop56
140
1.0
102
RTVSPost2010PropOp56
 70
     1
102
RTVSPost2010Prop57
140
1.0
102
RTVSPost2010PropOp57
 70
     1
102
RTVSPropertyOp0
 70
     1
102
RTVSPropertyOp1
 70
     1
102
RTVSPropertyOp2
 70
     1
102
RTVSPropertyOp3
 70
     1
102
RTVSPropertyOp4
 70
     1
102
RTVSPropertyOp5
 70
     1
102
RTVSPropertyOp6
 70
     1
102
RTVSPropertyOp7
 70
     1
102
RTVSPropertyOp8
 70
     1
102
RTVSPropertyOp9
 70
     1
102
RTVSPropertyOp10
 70
     1
102
RTVSPropertyOp11
 70
     1
102
RTVSPropertyOp12
 70
     1
102
RTVSPropertyOp13
 70
     1
102
RTVSPropertyOp14
 70
     1
102
RTVSPropertyOp15
 70
     1
102
RTVSPropertyOp16
 70
     1
102
RTVSPropertyOp17
 70
     1
102
RTVSPropertyOp18
 70
     1
102
RTVSPropertyOp19
 70
     1
102
RTVSPropertyOp20
 70
     1
102
RTVSPropertyOp21
 70
     1
102
RTVSPropertyOp22
 70
     1
102
RTVSPropertyOp23
 70
     1
102
RTVSPropertyOp24
 70
     1
102
RTVSPropertyOp25
 70
     1
102
RTVSPropertyOp26
 70
     1
102
RTVSPropertyOp27
 70
     1
102
RTVSPropertyOp28
 70
     1
102
RTVSPropertyOp29
 70
     1
102
RTVSPropertyOp30
 70
     1
102
RTVSPropertyOp31
 70
     1
102
RTVSPropertyOp32
 70
     1
102
RTVSPropertyOp33
 70
     1
102
RTVSPropertyOp34
 70
     1
102
RTVSPropertyOp35
 70
     1
102
RTVSPropertyOp36
 70
     1
102
RTVSPropertyOp37
 70
     1
102
RTVSPropertyOp38
 70
     1
102
RTVSPropertyOp39
 70
     1
102
RTVSPropertyOp40
 70
     1
102
RTVSPropertyOp41
 70
     1
102
RTVSPropertyOp42
 70
     1
102
RTVSPropertyOp43
 70
     1
102
RTVSPropertyOp44
 70
     1
102
RTVSPropertyOp45
 70
     1
102
RTVSPropertyOp46
 70
     1
102
RTVSPropertyOp47
 70
     1
102
RTVSPropertyOp48
 70
     1
102
RTVSPropertyOp49
 70
     1
102
RTVSPropertyOp50
 70
     1
102
RTVSPropertyOp51
 70
     0
102
RTVSPropertyOp52
 70
     0
102
RTVSPropertyOp53
 70
     1
102
RTVSPropertyOp54
 70
     1
102
RTVSPropertyOp55
 70
     1
102
RTVSPropertyOp56
 70
     1
102
RTVSPropertyOp57
 70
     1
102
RTVSPropertyOp58
 70
     1
102
RTVSPropertyOp59
 70
     1
102
RTVSPropertyOp60
 70
     1
102
RTVSPropertyOp61
 70
     1
102
RTVSPropertyOp62
 70
     1
  0
XRECORD
  5
B78F
102
{ACAD_REACTORS
330
B78E
102
}
330
B78E
100
AcDbXrecord
280
     1
102
RTVSPost2010Prop28
280
     0
102
RTVSPost2010PropOp28
 70
     1
102
RTVSPost2010Prop29
280
     1
102
RTVSPost2010PropOp29
 70
     1
102
RTVSPost2010Prop30
280
     1
102
RTVSPost2010PropOp30
 70
     1
102
RTVSPost2010Prop31
280
     0
102
RTVSPost2010PropOp31
 70
     1
102
RTVSPost2010Prop32
280
     0
102
RTVSPost2010PropOp32
 70
     1
102
RTVSPost2010Prop33
280
     0
102
RTVSPost2010PropOp33
 70
     1
102
RTVSPost2010Prop34
280
     0
102
RTVSPost2010PropOp34
 70
     1
102
RTVSPost2010Prop35
280
     0
102
RTVSPost2010PropOp35
 70
     1
102
RTVSPost2010Prop36
280
     0
102
RTVSPost2010PropOp36
 70
     1
102
RTVSPost2010Prop37
 90
       50
102
RTVSPost2010PropOp37
 70
     1
102
RTVSPost2010Prop38
140
0.0
102
RTVSPost2010PropOp38
 70
     1
102
RTVSPost2010Prop39
140
1.0
102
RTVSPost2010PropOp39
 70
     1
102
RTVSPost2010Prop40
 90
        0
102
RTVSPost2010PropOp40
 70
     1
102
RTVSPost2010Prop41ColorIndex
 90
       18
102
RTVSPost2010Prop41ColorRGB
 90
        0
102
RTVSPost2010PropOp41
 70
     1
102
RTVSPost2010Prop42
 90
       50
102
RTVSPost2010PropOp42
 70
     1
102
RTVSPost2010Prop43
 90
        3
102
RTVSPost2010PropOp43
 70
     1
102
RTVSPost2010Prop44ColorIndex
 90
        5
102
RTVSPost2010Prop44ColorRGB
 90
      255
102
RTVSPost2010PropOp44
 70
     1
102
RTVSPost2010Prop45
280
     0
102
RTVSPost2010PropOp45
 70
     1
102
RTVSPost2010Prop46
 90
       50
102
RTVSPost2010PropOp46
 70
     1
102
RTVSPost2010Prop47
 90
       50
102
RTVSPost2010PropOp47
 70
     1
102
RTVSPost2010Prop48
 90
       50
102
RTVSPost2010PropOp48
 70
     1
102
RTVSPost2010Prop49
280
     0
102
RTVSPost2010PropOp49
 70
     1
102
RTVSPost2010Prop50
 90
       50
102
RTVSPost2010PropOp50
 70
     1
102
RTVSPost2010Prop51ColorIndex
 90
      256
102
RTVSPost2010Prop51ColorRGB
 90
-16777216
102
RTVSPost2010PropOp51
 70
     0
102
RTVSPost2010Prop52
140
1.0
102
RTVSPost2010PropOp52
 70
     0
102
RTVSPost2010Prop53
 90
        2
102
RTVSPost2010PropOp53
 70
     1
102
RTVSPost2010Prop54
  1
strokes_ogs.tif
102
RTVSPost2010PropOp54
 70
     1
102
RTVSPost2010Prop55
280
     0
102
RTVSPost2010PropOp55
 70
     1
102
RTVSPost2010Prop56
140
1.0
102
RTVSPost2010PropOp56
 70
     1
102
RTVSPost2010Prop57
140
1.0
102
RTVSPost2010PropOp57
 70
     1
102
RTVSPropertyOp0
 70
     1
102
RTVSPropertyOp1
 70
     1
102
RTVSPropertyOp2
 70
     1
102
RTVSPropertyOp3
 70
     1
102
RTVSPropertyOp4
 70
     1
102
RTVSPropertyOp5
 70
     1
102
RTVSPropertyOp6
 70
     1
102
RTVSPropertyOp7
 70
     1
102
RTVSPropertyOp8
 70
     1
102
RTVSPropertyOp9
 70
     1
102
RTVSPropertyOp10
 70
     1
102
RTVSPropertyOp11
 70
     1
102
RTVSPropertyOp12
 70
     1
102
RTVSPropertyOp13
 70
     1
102
RTVSPropertyOp14
 70
     1
102
RTVSPropertyOp15
 70
     1
102
RTVSPropertyOp16
 70
     1
102
RTVSPropertyOp17
 70
     1
102
RTVSPropertyOp18
 70
     1
102
RTVSPropertyOp19
 70
     1
102
RTVSPropertyOp20
 70
     1
102
RTVSPropertyOp21
 70
     1
102
RTVSPropertyOp22
 70
     1
102
RTVSPropertyOp23
 70
     1
102
RTVSPropertyOp24
 70
     1
102
RTVSPropertyOp25
 70
     1
102
RTVSPropertyOp26
 70
     1
102
RTVSPropertyOp27
 70
     1
102
RTVSPropertyOp28
 70
     1
102
RTVSPropertyOp29
 70
     1
102
RTVSPropertyOp30
 70
     1
102
RTVSPropertyOp31
 70
     1
102
RTVSPropertyOp32
 70
     1
102
RTVSPropertyOp33
 70
     1
102
RTVSPropertyOp34
 70
     1
102
RTVSPropertyOp35
 70
     1
102
RTVSPropertyOp36
 70
     1
102
RTVSPropertyOp37
 70
     1
102
RTVSPropertyOp38
 70
     1
102
RTVSPropertyOp39
 70
     1
102
RTVSPropertyOp40
 70
     1
102
RTVSPropertyOp41
 70
     1
102
RTVSPropertyOp42
 70
     1
102
RTVSPropertyOp43
 70
     1
102
RTVSPropertyOp44
 70
     1
102
RTVSPropertyOp45
 70
     1
102
RTVSPropertyOp46
 70
     1
102
RTVSPropertyOp47
 70
     1
102
RTVSPropertyOp48
 70
     1
102
RTVSPropertyOp49
 70
     1
102
RTVSPropertyOp50
 70
     1
102
RTVSPropertyOp51
 70
     0
102
RTVSPropertyOp52
 70
     0
102
RTVSPropertyOp53
 70
     1
102
RTVSPropertyOp54
 70
     1
102
RTVSPropertyOp55
 70
     1
102
RTVSPropertyOp56
 70
     1
102
RTVSPropertyOp57
 70
     1
102
RTVSPropertyOp58
 70
     1
102
RTVSPropertyOp59
 70
     1
102
RTVSPropertyOp60
 70
     1
102
RTVSPropertyOp61
 70
     1
102
RTVSPropertyOp62
 70
     1
  0
XRECORD
  5
B783
102
{ACAD_REACTORS
330
B782
102
}
330
B782
100
AcDbXrecord
280
     1
102
RTVSPost2010Prop28
280
     0
102
RTVSPost2010PropOp28
 70
     1
102
RTVSPost2010Prop29
280
     1
102
RTVSPost2010PropOp29
 70
     1
102
RTVSPost2010Prop30
280
     1
102
RTVSPost2010PropOp30
 70
     1
102
RTVSPost2010Prop31
280
     0
102
RTVSPost2010PropOp31
 70
     1
102
RTVSPost2010Prop32
280
     0
102
RTVSPost2010PropOp32
 70
     1
102
RTVSPost2010Prop33
280
     0
102
RTVSPost2010PropOp33
 70
     1
102
RTVSPost2010Prop34
280
     0
102
RTVSPost2010PropOp34
 70
     1
102
RTVSPost2010Prop35
280
     0
102
RTVSPost2010PropOp35
 70
     1
102
RTVSPost2010Prop36
280
     0
102
RTVSPost2010PropOp36
 70
     1
102
RTVSPost2010Prop37
 90
       50
102
RTVSPost2010PropOp37
 70
     1
102
RTVSPost2010Prop38
140
0.0
102
RTVSPost2010PropOp38
 70
     1
102
RTVSPost2010Prop39
140
1.0
102
RTVSPost2010PropOp39
 70
     1
102
RTVSPost2010Prop40
 90
        0
102
RTVSPost2010PropOp40
 70
     1
102
RTVSPost2010Prop41ColorIndex
 90
       18
102
RTVSPost2010Prop41ColorRGB
 90
        0
102
RTVSPost2010PropOp41
 70
     1
102
RTVSPost2010Prop42
 90
       50
102
RTVSPost2010PropOp42
 70
     1
102
RTVSPost2010Prop43
 90
        3
102
RTVSPost2010PropOp43
 70
     1
102
RTVSPost2010Prop44ColorIndex
 90
        5
102
RTVSPost2010Prop44ColorRGB
 90
      255
102
RTVSPost2010PropOp44
 70
     1
102
RTVSPost2010Prop45
280
     0
102
RTVSPost2010PropOp45
 70
     1
102
RTVSPost2010Prop46
 90
       50
102
RTVSPost2010PropOp46
 70
     1
102
RTVSPost2010Prop47
 90
       50
102
RTVSPost2010PropOp47
 70
     1
102
RTVSPost2010Prop48
 90
       50
102
RTVSPost2010PropOp48
 70
     1
102
RTVSPost2010Prop49
280
     0
102
RTVSPost2010PropOp49
 70
     1
102
RTVSPost2010Prop50
 90
       50
102
RTVSPost2010PropOp50
 70
     1
102
RTVSPost2010Prop51ColorIndex
 90
      256
102
RTVSPost2010Prop51ColorRGB
 90
-16777216
102
RTVSPost2010PropOp51
 70
     0
102
RTVSPost2010Prop52
140
1.0
102
RTVSPost2010PropOp52
 70
     0
102
RTVSPost2010Prop53
 90
        2
102
RTVSPost2010PropOp53
 70
     1
102
RTVSPost2010Prop54
  1
strokes_ogs.tif
102
RTVSPost2010PropOp54
 70
     1
102
RTVSPost2010Prop55
280
     0
102
RTVSPost2010PropOp55
 70
     1
102
RTVSPost2010Prop56
140
1.0
102
RTVSPost2010PropOp56
 70
     1
102
RTVSPost2010Prop57
140
1.0
102
RTVSPost2010PropOp57
 70
     1
102
RTVSPropertyOp0
 70
     1
102
RTVSPropertyOp1
 70
     1
102
RTVSPropertyOp2
 70
     1
102
RTVSPropertyOp3
 70
     1
102
RTVSPropertyOp4
 70
     1
102
RTVSPropertyOp5
 70
     1
102
RTVSPropertyOp6
 70
     1
102
RTVSPropertyOp7
 70
     1
102
RTVSPropertyOp8
 70
     1
102
RTVSPropertyOp9
 70
     1
102
RTVSPropertyOp10
 70
     1
102
RTVSPropertyOp11
 70
     1
102
RTVSPropertyOp12
 70
     1
102
RTVSPropertyOp13
 70
     1
102
RTVSPropertyOp14
 70
     1
102
RTVSPropertyOp15
 70
     1
102
RTVSPropertyOp16
 70
     1
102
RTVSPropertyOp17
 70
     1
102
RTVSPropertyOp18
 70
     1
102
RTVSPropertyOp19
 70
     1
102
RTVSPropertyOp20
 70
     1
102
RTVSPropertyOp21
 70
     1
102
RTVSPropertyOp22
 70
     1
102
RTVSPropertyOp23
 70
     1
102
RTVSPropertyOp24
 70
     1
102
RTVSPropertyOp25
 70
     1
102
RTVSPropertyOp26
 70
     1
102
RTVSPropertyOp27
 70
     1
102
RTVSPropertyOp28
 70
     1
102
RTVSPropertyOp29
 70
     1
102
RTVSPropertyOp30
 70
     1
102
RTVSPropertyOp31
 70
     1
102
RTVSPropertyOp32
 70
     1
102
RTVSPropertyOp33
 70
     1
102
RTVSPropertyOp34
 70
     1
102
RTVSPropertyOp35
 70
     1
102
RTVSPropertyOp36
 70
     1
102
RTVSPropertyOp37
 70
     1
102
RTVSPropertyOp38
 70
     1
102
RTVSPropertyOp39
 70
     1
102
RTVSPropertyOp40
 70
     1
102
RTVSPropertyOp41
 70
     1
102
RTVSPropertyOp42
 70
     1
102
RTVSPropertyOp43
 70
     1
102
RTVSPropertyOp44
 70
     1
102
RTVSPropertyOp45
 70
     1
102
RTVSPropertyOp46
 70
     1
102
RTVSPropertyOp47
 70
     1
102
RTVSPropertyOp48
 70
     1
102
RTVSPropertyOp49
 70
     1
102
RTVSPropertyOp50
 70
     1
102
RTVSPropertyOp51
 70
     0
102
RTVSPropertyOp52
 70
     0
102
RTVSPropertyOp53
 70
     1
102
RTVSPropertyOp54
 70
     1
102
RTVSPropertyOp55
 70
     1
102
RTVSPropertyOp56
 70
     1
102
RTVSPropertyOp57
 70
     1
102
RTVSPropertyOp58
 70
     1
102
RTVSPropertyOp59
 70
     1
102
RTVSPropertyOp60
 70
     1
102
RTVSPropertyOp61
 70
     1
102
RTVSPropertyOp62
 70
     1
  0
XRECORD
  5
B79B
102
{ACAD_REACTORS
330
B79A
102
}
330
B79A
100
AcDbXrecord
280
     1
102
RTVSPost2010Prop28
280
     0
102
RTVSPost2010PropOp28
 70
     1
102
RTVSPost2010Prop29
280
     1
102
RTVSPost2010PropOp29
 70
     1
102
RTVSPost2010Prop30
280
     1
102
RTVSPost2010PropOp30
 70
     1
102
RTVSPost2010Prop31
280
     0
102
RTVSPost2010PropOp31
 70
     1
102
RTVSPost2010Prop32
280
     0
102
RTVSPost2010PropOp32
 70
     1
102
RTVSPost2010Prop33
280
     0
102
RTVSPost2010PropOp33
 70
     1
102
RTVSPost2010Prop34
280
     0
102
RTVSPost2010PropOp34
 70
     1
102
RTVSPost2010Prop35
280
     0
102
RTVSPost2010PropOp35
 70
     1
102
RTVSPost2010Prop36
280
     0
102
RTVSPost2010PropOp36
 70
     1
102
RTVSPost2010Prop37
 90
       50
102
RTVSPost2010PropOp37
 70
     1
102
RTVSPost2010Prop38
140
0.0
102
RTVSPost2010PropOp38
 70
     1
102
RTVSPost2010Prop39
140
1.0
102
RTVSPost2010PropOp39
 70
     1
102
RTVSPost2010Prop40
 90
        0
102
RTVSPost2010PropOp40
 70
     1
102
RTVSPost2010Prop41ColorIndex
 90
       18
102
RTVSPost2010Prop41ColorRGB
 90
        0
102
RTVSPost2010PropOp41
 70
     1
102
RTVSPost2010Prop42
 90
       50
102
RTVSPost2010PropOp42
 70
     1
102
RTVSPost2010Prop43
 90
        3
102
RTVSPost2010PropOp43
 70
     1
102
RTVSPost2010Prop44ColorIndex
 90
        5
102
RTVSPost2010Prop44ColorRGB
 90
      255
102
RTVSPost2010PropOp44
 70
     1
102
RTVSPost2010Prop45
280
     0
102
RTVSPost2010PropOp45
 70
     1
102
RTVSPost2010Prop46
 90
       50
102
RTVSPost2010PropOp46
 70
     1
102
RTVSPost2010Prop47
 90
       50
102
RTVSPost2010PropOp47
 70
     1
102
RTVSPost2010Prop48
 90
       50
102
RTVSPost2010PropOp48
 70
     1
102
RTVSPost2010Prop49
280
     0
102
RTVSPost2010PropOp49
 70
     1
102
RTVSPost2010Prop50
 90
       50
102
RTVSPost2010PropOp50
 70
     1
102
RTVSPost2010Prop51ColorIndex
 90
      256
102
RTVSPost2010Prop51ColorRGB
 90
-16777216
102
RTVSPost2010PropOp51
 70
     0
102
RTVSPost2010Prop52
140
1.0
102
RTVSPost2010PropOp52
 70
     0
102
RTVSPost2010Prop53
 90
        2
102
RTVSPost2010PropOp53
 70
     1
102
RTVSPost2010Prop54
  1
strokes_ogs.tif
102
RTVSPost2010PropOp54
 70
     1
102
RTVSPost2010Prop55
280
     0
102
RTVSPost2010PropOp55
 70
     1
102
RTVSPost2010Prop56
140
1.0
102
RTVSPost2010PropOp56
 70
     1
102
RTVSPost2010Prop57
140
1.0
102
RTVSPost2010PropOp57
 70
     1
102
RTVSPropertyOp0
 70
     1
102
RTVSPropertyOp1
 70
     1
102
RTVSPropertyOp2
 70
     1
102
RTVSPropertyOp3
 70
     1
102
RTVSPropertyOp4
 70
     1
102
RTVSPropertyOp5
 70
     1
102
RTVSPropertyOp6
 70
     1
102
RTVSPropertyOp7
 70
     1
102
RTVSPropertyOp8
 70
     1
102
RTVSPropertyOp9
 70
     1
102
RTVSPropertyOp10
 70
     1
102
RTVSPropertyOp11
 70
     1
102
RTVSPropertyOp12
 70
     1
102
RTVSPropertyOp13
 70
     1
102
RTVSPropertyOp14
 70
     1
102
RTVSPropertyOp15
 70
     1
102
RTVSPropertyOp16
 70
     1
102
RTVSPropertyOp17
 70
     1
102
RTVSPropertyOp18
 70
     1
102
RTVSPropertyOp19
 70
     1
102
RTVSPropertyOp20
 70
     1
102
RTVSPropertyOp21
 70
     1
102
RTVSPropertyOp22
 70
     1
102
RTVSPropertyOp23
 70
     1
102
RTVSPropertyOp24
 70
     1
102
RTVSPropertyOp25
 70
     1
102
RTVSPropertyOp26
 70
     1
102
RTVSPropertyOp27
 70
     1
102
RTVSPropertyOp28
 70
     1
102
RTVSPropertyOp29
 70
     1
102
RTVSPropertyOp30
 70
     1
102
RTVSPropertyOp31
 70
     1
102
RTVSPropertyOp32
 70
     1
102
RTVSPropertyOp33
 70
     1
102
RTVSPropertyOp34
 70
     1
102
RTVSPropertyOp35
 70
     1
102
RTVSPropertyOp36
 70
     1
102
RTVSPropertyOp37
 70
     1
102
RTVSPropertyOp38
 70
     1
102
RTVSPropertyOp39
 70
     1
102
RTVSPropertyOp40
 70
     1
102
RTVSPropertyOp41
 70
     1
102
RTVSPropertyOp42
 70
     1
102
RTVSPropertyOp43
 70
     1
102
RTVSPropertyOp44
 70
     1
102
RTVSPropertyOp45
 70
     1
102
RTVSPropertyOp46
 70
     1
102
RTVSPropertyOp47
 70
     1
102
RTVSPropertyOp48
 70
     1
102
RTVSPropertyOp49
 70
     1
102
RTVSPropertyOp50
 70
     1
102
RTVSPropertyOp51
 70
     0
102
RTVSPropertyOp52
 70
     0
102
RTVSPropertyOp53
 70
     1
102
RTVSPropertyOp54
 70
     1
102
RTVSPropertyOp55
 70
     1
102
RTVSPropertyOp56
 70
     1
102
RTVSPropertyOp57
 70
     1
102
RTVSPropertyOp58
 70
     1
102
RTVSPropertyOp59
 70
     1
102
RTVSPropertyOp60
 70
     1
102
RTVSPropertyOp61
 70
     1
102
RTVSPropertyOp62
 70
     1
  0
ENDSEC
  0
EOF
