  0
SECTION
  2
HEADER
  9
$ACADVER
  1
AC1015
  9
$ACADMAINTVER
 70
    20
  9
$DWGCODEPAGE
  3
ANSI_932
  9
$INSBASE
 10
0.0
 20
0.0
 30
0.0
  9
$EXTMIN
 10
10.0
 20
9.999999999999998
 30
0.0
  9
$EXTMAX
 10
439.6375039999998
 20
373.2554979999999
 30
0.0
  9
$LIMMIN
 10
0.0
 20
0.0
  9
$LIMMAX
 10
565.3084730000001
 20
389.720235
  9
$ORTHOMODE
 70
     1
  9
$REGENMODE
 70
     1
  9
$FILLMODE
 70
     1
  9
$QTEXTMODE
 70
     0
  9
$MIRRTEXT
 70
     1
  9
$LTSCALE
 40
20.0
  9
$ATTMODE
 70
     1
  9
$TEXTSIZE
 40
5.0
  9
$TRACEWID
 40
1.0
  9
$TEXTSTYLE
  7
STANDARD
  9
$CLAYER
  8
0
  9
$CELTYPE
  6
BYLAYER
  9
$CECOLOR
 62
   256
  9
$CELTSCALE
 40
1.0
  9
$DISPSILH
 70
     0
  9
$DIMSCALE
 40
1.0
  9
$DIMASZ
 40
3.0
  9
$DIMEXO
 40
1.0
  9
$DIMDLI
 40
10.0
  9
$DIMRND
 40
0.0
  9
$DIMDLE
 40
0.0
  9
$DIMEXE
 40
1.0
  9
$DIMTP
 40
0.0
  9
$DIMTM
 40
0.0
  9
$DIMTXT
 40
3.2
  9
$DIMCEN
 40
0.0
  9
$DIMTSZ
 40
0.0
  9
$DIMTOL
 70
     0
  9
$DIMLIM
 70
     0
  9
$DIMTIH
 70
     0
  9
$DIMTOH
 70
     0
  9
$DIMSE1
 70
     0
  9
$DIMSE2
 70
     0
  9
$DIMTAD
 70
     3
  9
$DIMZIN
 70
     8
  9
$DIMBLK
  1

  9
$DIMASO
 70
     1
  9
$DIMSHO
 70
     1
  9
$DIMPOST
  1

  9
$DIMAPOST
  1

  9
$DIMALT
 70
     0
  9
$DIMALTD
 70
     2
  9
$DIMALTF
 40
25.4
  9
$DIMLFAC
 40
1.0
  9
$DIMTOFL
 70
     1
  9
$DIMTVP
 40
0.0
  9
$DIMTIX
 70
     0
  9
$DIMSOXD
 70
     0
  9
$DIMSAH
 70
     1
  9
$DIMBLK1
  1
OPEN
  9
$DIMBLK2
  1
OPEN
  9
$DIMSTYLE
  2
STANDARD
  9
$DIMCLRD
 70
     0
  9
$DIMCLRE
 70
     0
  9
$DIMCLRT
 70
     0
  9
$DIMTFAC
 40
1.0
  9
$DIMGAP
 40
1.0
  9
$DIMJUST
 70
     0
  9
$DIMSD1
 70
     0
  9
$DIMSD2
 70
     0
  9
$DIMTOLJ
 70
     1
  9
$DIMTZIN
 70
     0
  9
$DIMALTZ
 70
     0
  9
$DIMALTTZ
 70
     0
  9
$DIMUPT
 70
     0
  9
$DIMDEC
 70
     4
  9
$DIMTDEC
 70
     4
  9
$DIMALTU
 70
     2
  9
$DIMALTTD
 70
     2
  9
$DIMTXSTY
  7
STANDARD
  9
$DIMAUNIT
 70
     0
  9
$DIMADEC
 70
     0
  9
$DIMALTRND
 40
0.0
  9
$DIMAZIN
 70
     0
  9
$DIMDSEP
 70
    46
  9
$DIMATFIT
 70
     3
  9
$DIMFRAC
 70
     0
  9
$DIMLDRBLK
  1
OPEN
  9
$DIMLUNIT
 70
     2
  9
$DIMLWD
 70
    -2
  9
$DIMLWE
 70
    -2
  9
$DIMTMOVE
 70
     0
  9
$LUNITS
 70
     2
  9
$LUPREC
 70
     4
  9
$SKETCHINC
 40
1.0
  9
$FILLETRAD
 40
10.0
  9
$AUNITS
 70
     0
  9
$AUPREC
 70
     2
  9
$MENU
  1
.
  9
$ELEVATION
 40
0.0
  9
$PELEVATION
 40
0.0
  9
$THICKNESS
 40
0.0
  9
$LIMCHECK
 70
     0
  9
$CHAMFERA
 40
10.0
  9
$CHAMFERB
 40
10.0
  9
$CHAMFERC
 40
0.0
  9
$CHAMFERD
 40
0.0
  9
$SKPOLY
 70
     0
  9
$TDCREATE
 40
2451302.667406945
  9
$TDUCREATE
 40
2451302.292406944
  9
$TDUPDATE
 40
2457192.688004699
  9
$TDUUPDATE
 40
2457192.313004699
  9
$TDINDWG
 40
0.0000110069
  9
$TDUSRTIMER
 40
0.0000106944
  9
$USRTIMER
 70
     1
  9
$ANGBASE
 50
0.0
  9
$ANGDIR
 70
     0
  9
$PDMODE
 70
     0
  9
$PDSIZE
 40
0.0
  9
$PLINEWID
 40
0.0
  9
$SPLFRAME
 70
     0
  9
$SPLINETYPE
 70
     6
  9
$SPLINESEGS
 70
     8
  9
$HANDSEED
  5
AC98
  9
$SURFTAB1
 70
     6
  9
$SURFTAB2
 70
     6
  9
$SURFTYPE
 70
     6
  9
$SURFU
 70
     6
  9
$SURFV
 70
     6
  9
$UCSBASE
  2

  9
$UCSNAME
  2

  9
$UCSORG
 10
0.0
 20
0.0
 30
0.0
  9
$UCSXDIR
 10
1.0
 20
0.0
 30
0.0
  9
$UCSYDIR
 10
0.0
 20
1.0
 30
0.0
  9
$UCSORTHOREF
  2

  9
$UCSORTHOVIEW
 70
     0
  9
$UCSORGTOP
 10
0.0
 20
0.0
 30
0.0
  9
$UCSORGBOTTOM
 10
0.0
 20
0.0
 30
0.0
  9
$UCSORGLEFT
 10
0.0
 20
0.0
 30
0.0
  9
$UCSORGRIGHT
 10
0.0
 20
0.0
 30
0.0
  9
$UCSORGFRONT
 10
0.0
 20
0.0
 30
0.0
  9
$UCSORGBACK
 10
0.0
 20
0.0
 30
0.0
  9
$PUCSBASE
  2

  9
$PUCSNAME
  2

  9
$PUCSORG
 10
0.0
 20
0.0
 30
0.0
  9
$PUCSXDIR
 10
1.0
 20
0.0
 30
0.0
  9
$PUCSYDIR
 10
0.0
 20
1.0
 30
0.0
  9
$PUCSORTHOREF
  2

  9
$PUCSORTHOVIEW
 70
     0
  9
$PUCSORGTOP
 10
0.0
 20
0.0
 30
0.0
  9
$PUCSORGBOTTOM
 10
0.0
 20
0.0
 30
0.0
  9
$PUCSORGLEFT
 10
0.0
 20
0.0
 30
0.0
  9
$PUCSORGRIGHT
 10
0.0
 20
0.0
 30
0.0
  9
$PUCSORGFRONT
 10
0.0
 20
0.0
 30
0.0
  9
$PUCSORGBACK
 10
0.0
 20
0.0
 30
0.0
  9
$USERI1
 70
     0
  9
$USERI2
 70
     0
  9
$USERI3
 70
     0
  9
$USERI4
 70
     0
  9
$USERI5
 70
     0
  9
$USERR1
 40
0.0
  9
$USERR2
 40
0.0
  9
$USERR3
 40
0.0
  9
$USERR4
 40
0.0
  9
$USERR5
 40
0.0
  9
$WORLDVIEW
 70
     1
  9
$SHADEDGE
 70
     3
  9
$SHADEDIF
 70
    70
  9
$TILEMODE
 70
     1
  9
$MAXACTVP
 70
    16
  9
$PINSBASE
 10
0.0
 20
0.0
 30
0.0
  9
$PLIMCHECK
 70
     0
  9
$PEXTMIN
 10
1.000000000000000E+20
 20
1.000000000000000E+20
 30
1.000000000000000E+20
  9
$PEXTMAX
 10
-1.000000000000000E+20
 20
-1.000000000000000E+20
 30
-1.000000000000000E+20
  9
$PLIMMIN
 10
0.0
 20
0.0
  9
$PLIMMAX
 10
420.0
 20
297.0
  9
$UNITMODE
 70
     0
  9
$VISRETAIN
 70
     0
  9
$PLINEGEN
 70
     0
  9
$PSLTSCALE
 70
     0
  9
$TREEDEPTH
 70
  3020
  9
$CMLSTYLE
  2
STANDARD
  9
$CMLJUST
 70
     0
  9
$CMLSCALE
 40
1.0
  9
$PROXYGRAPHICS
 70
     1
  9
$MEASUREMENT
 70
     0
  9
$CELWEIGHT
370
    -1
  9
$ENDCAPS
280
     0
  9
$JOINSTYLE
280
     0
  9
$LWDISPLAY
290
     0
  9
$INSUNITS
 70
     0
  9
$HYPERLINKBASE
  1

  9
$STYLESHEET
  1

  9
$XEDIT
290
     1
  9
$CEPSNTYPE
380
     0
  9
$PSTYLEMODE
290
     1
  9
$FINGERPRINTGUID
  2
{48F24D95-8DB2-4478-AD89-C6E7B4F59161}
  9
$VERSIONGUID
  2
{E4E3DF7D-F52D-4B2F-9ED3-1671D1AEF9DC}
  9
$EXTNAMES
290
     1
  9
$PSVPSCALE
 40
0.0
  9
$OLESTARTUP
290
     0
  0
ENDSEC
  0
SECTION
  2
CLASSES
  0
CLASS
  1
ACDBDICTIONARYWDFLT
  2
AcDbDictionaryWithDefault
  3
ObjectDBX Classes
 90
        0
280
     0
281
     0
  0
CLASS
  1
ACDBPLACEHOLDER
  2
AcDbPlaceHolder
  3
ObjectDBX Classes
 90
        0
280
     0
281
     0
  0
CLASS
  1
LAYOUT
  2
AcDbLayout
  3
ObjectDBX Classes
 90
        0
280
     0
281
     0
  0
CLASS
  1
DICTIONARYVAR
  2
AcDbDictionaryVar
  3
ObjectDBX Classes
 90
        0
280
     0
281
     0
  0
CLASS
  1
MATERIAL
  2
AcDbMaterial
  3
ObjectDBX Classes
 90
     1153
280
     0
281
     0
  0
CLASS
  1
VISUALSTYLE
  2
AcDbVisualStyle
  3
ObjectDBX Classes
 90
     4095
280
     0
281
     0
  0
CLASS
  1
TABLESTYLE
  2
AcDbTableStyle
  3
ObjectDBX Classes
 90
     4095
280
     0
281
     0
  0
CLASS
  1
SCALE
  2
AcDbScale
  3
ObjectDBX Classes
 90
     1153
280
     0
281
     0
  0
CLASS
  1
MLEADERSTYLE
  2
AcDbMLeaderStyle
  3
ACDB_MLEADERSTYLE_CLASS
 90
     4095
280
     0
281
     0
  0
CLASS
  1
ACDBSECTIONVIEWSTYLE
  2
AcDbSectionViewStyle
  3
ObjectDBX Classes
 90
     1025
280
     0
281
     0
  0
CLASS
  1
ACDBDETAILVIEWSTYLE
  2
AcDbDetailViewStyle
  3
ObjectDBX Classes
 90
     1025
280
     0
281
     0
  0
CLASS
  1
CELLSTYLEMAP
  2
AcDbCellStyleMap
  3
ObjectDBX Classes
 90
     1152
280
     0
281
     0
  0
ENDSEC
  0
SECTION
  2
TABLES
  0
TABLE
  2
VPORT
  5
A8BE
330
0
100
AcDbSymbolTable
 70
     1
  0
VPORT
  5
ABE1
330
A8BE
100
AcDbSymbolTableRecord
100
AcDbViewportTableRecord
  2
*ACTIVE
 70
     0
 10
0.0
 20
0.0
 11
1.0
 21
1.0
 12
334.8488035561075
 22
191.6191893253222
 13
0.0
 23
0.0
 14
10.0
 24
10.0
 15
10.0
 25
10.0
 16
0.0
 26
0.0
 36
1.0
 17
0.0
 27
0.0
 37
0.0
 40
367.2955486829822
 41
2.35006605019815
 42
50.0
 43
0.0
 44
0.0
 50
0.0
 51
0.0
 71
     0
 72
   100
 73
     1
 74
     0
 75
     0
 76
     0
 77
     0
 78
     0
281
     0
 65
     1
110
0.0
120
0.0
130
0.0
111
1.0
121
0.0
131
0.0
112
0.0
122
1.0
132
0.0
 79
     0
146
0.0
1001
ACAD_NAV_VCDISPLAY
1070
     3
  0
ENDTAB
  0
TABLE
  2
LTYPE
  5
A8BB
330
0
100
AcDbSymbolTable
 70
     4
  0
LTYPE
  5
A8C9
330
A8BB
100
AcDbSymbolTableRecord
100
AcDbLinetypeTableRecord
  2
BYBLOCK
 70
     0
  3

 72
    65
 73
     0
 40
0.0
  0
LTYPE
  5
A8CA
330
A8BB
100
AcDbSymbolTableRecord
100
AcDbLinetypeTableRecord
  2
BYLAYER
 70
     0
  3

 72
    65
 73
     0
 40
0.0
  0
LTYPE
  5
A8CB
330
A8BB
100
AcDbSymbolTableRecord
100
AcDbLinetypeTableRecord
  2
CONTINUOUS
 70
     0
  3
Solid line
 72
    65
 73
     0
 40
0.0
  0
LTYPE
  5
A8D9
330
A8BB
100
AcDbSymbolTableRecord
100
AcDbLinetypeTableRecord
  2
DASHED
 70
     0
  3
__ __ __ __ __ __ __ __ __ __ __ __ __ __ __ __
 72
    65
 73
     2
 40
0.75
 49
0.5
 74
     0
 49
-0.25
 74
     0
  0
LTYPE
  5
A8DA
330
A8BB
100
AcDbSymbolTableRecord
100
AcDbLinetypeTableRecord
  2
CENTER
 70
     0
  3
____ _ ____ _ ____ _ ____ _ ____ _ ____ _ ____ 
 72
    65
 73
     4
 40
2.0
 49
1.25
 74
     0
 49
-0.25
 74
     0
 49
0.25
 74
     0
 49
-0.25
 74
     0
  0
LTYPE
  5
A8DB
330
A8BB
100
AcDbSymbolTableRecord
100
AcDbLinetypeTableRecord
  2
PHANTOM
 70
     0
  3
______  __  __  ______  __  __  ______  __  __ 
 72
    65
 73
     6
 40
2.5
 49
1.25
 74
     0
 49
-0.25
 74
     0
 49
0.25
 74
     0
 49
-0.25
 74
     0
 49
0.25
 74
     0
 49
-0.25
 74
     0
  0
ENDTAB
  0
TABLE
  2
LAYER
  5
A8B8
330
0
100
AcDbSymbolTable
 70
     8
  0
LAYER
  5
A8C6
102
{ACAD_XDICTIONARY
360
AC3C
102
}
330
A8B8
100
AcDbSymbolTableRecord
100
AcDbLayerTableRecord
  2
0
 70
     0
 62
     7
  6
CONTINUOUS
370
    -3
390
ABEA
  0
LAYER
  5
A8DC
102
{ACAD_XDICTIONARY
360
AC3E
102
}
330
A8B8
100
AcDbSymbolTableRecord
100
AcDbLayerTableRecord
  2
4
 70
     0
 62
     1
  6
CENTER
370
    -3
390
ABEA
  0
LAYER
  5
A8DD
102
{ACAD_XDICTIONARY
360
AC40
102
}
330
A8B8
100
AcDbSymbolTableRecord
100
AcDbLayerTableRecord
  2
5
 70
     0
 62
     6
  6
PHANTOM
370
    -3
390
ABEA
  0
LAYER
  5
A8DE
102
{ACAD_XDICTIONARY
360
AC42
102
}
330
A8B8
100
AcDbSymbolTableRecord
100
AcDbLayerTableRecord
  2
1
 70
     0
 62
     7
  6
CONTINUOUS
370
    -3
390
ABEA
  0
LAYER
  5
A8DF
102
{ACAD_XDICTIONARY
360
AC44
102
}
330
A8B8
100
AcDbSymbolTableRecord
100
AcDbLayerTableRecord
  2
2
 70
     0
 62
     4
  6
CONTINUOUS
370
    -3
390
ABEA
  0
LAYER
  5
A8E0
102
{ACAD_XDICTIONARY
360
AC46
102
}
330
A8B8
100
AcDbSymbolTableRecord
100
AcDbLayerTableRecord
  2
3
 70
     0
 62
     2
  6
DASHED
370
    -3
390
ABEA
  0
LAYER
  5
A8E1
102
{ACAD_XDICTIONARY
360
AC48
102
}
330
A8B8
100
AcDbSymbolTableRecord
100
AcDbLayerTableRecord
  2
6
 70
     0
 62
     5
  6
CONTINUOUS
370
    -3
390
ABEA
  0
LAYER
  5
A8E2
102
{ACAD_XDICTIONARY
360
AC4A
102
}
330
A8B8
100
AcDbSymbolTableRecord
100
AcDbLayerTableRecord
  2
7
 70
     0
 62
     3
  6
CONTINUOUS
370
    -3
390
ABEA
  0
ENDTAB
  0
TABLE
  2
STYLE
  5
A8B9
330
0
100
AcDbSymbolTable
 70
     1
  0
STYLE
  5
A8C7
330
A8B9
100
AcDbSymbolTableRecord
100
AcDbTextStyleTableRecord
  2
STANDARD
 70
     0
 40
0.0
 41
1.0
 50
0.0
 71
     0
 42
5.0
  3
txt
  4

  0
ENDTAB
  0
TABLE
  2
VIEW
  5
A8BC
330
0
100
AcDbSymbolTable
 70
     0
  0
ENDTAB
  0
TABLE
  2
UCS
  5
A8BD
330
0
100
AcDbSymbolTable
 70
     0
  0
ENDTAB
  0
TABLE
  2
APPID
  5
A8BF
330
0
100
AcDbSymbolTable
 70
     3
  0
APPID
  5
A8C8
330
A8BF
100
AcDbSymbolTableRecord
100
AcDbRegAppTableRecord
  2
ACAD
 70
     0
  0
APPID
  5
AC56
330
A8BF
100
AcDbSymbolTableRecord
100
AcDbRegAppTableRecord
  2
ACAD_NAV_VCDISPLAY
 70
     0
  0
APPID
  5
AC8F
330
A8BF
100
AcDbSymbolTableRecord
100
AcDbRegAppTableRecord
  2
ACAD_MLEADERVER
 70
     0
  0
ENDTAB
  0
TABLE
  2
DIMSTYLE
  5
A8C0
330
0
100
AcDbSymbolTable
 70
     1
100
AcDbDimStyleTable
 71
     0
  0
DIMSTYLE
105
A8E4
330
A8C0
100
AcDbSymbolTableRecord
100
AcDbDimStyleTableRecord
  2
STANDARD
 70
     0
 41
3.0
 42
1.0
 43
10.0
 44
1.0
 73
     0
 74
     0
 77
     3
 78
     8
140
3.2
141
0.0
147
1.0
172
     1
173
     1
284
     8
285
     8
286
     8
340
A8C7
  0
ENDTAB
  0
TABLE
  2
BLOCK_RECORD
  5
A8B7
330
0
100
AcDbSymbolTable
 70
     1
  0
BLOCK_RECORD
  5
A8D4
102
{ACAD_XDICTIONARY
360
ABE4
102
}
330
A8B7
100
AcDbSymbolTableRecord
100
AcDbBlockTableRecord
  2
*MODEL_SPACE
340
AC38
  0
BLOCK_RECORD
  5
A8D0
102
{ACAD_XDICTIONARY
360
ABE2
102
}
330
A8B7
100
AcDbSymbolTableRecord
100
AcDbBlockTableRecord
  2
*PAPER_SPACE
340
AC39
  0
BLOCK_RECORD
  5
A8EC
330
A8B7
100
AcDbSymbolTableRecord
100
AcDbBlockTableRecord
  2
_OPEN
340
0
  0
ENDTAB
  0
ENDSEC
  0
SECTION
  2
BLOCKS
  0
BLOCK
  5
A8D5
330
A8D4
100
AcDbEntity
  8
0
100
AcDbBlockBegin
  2
*MODEL_SPACE
 70
     0
 10
0.0
 20
0.0
 30
0.0
  3
*MODEL_SPACE
  1

  0
ENDBLK
  5
A8D6
330
A8D4
100
AcDbEntity
  8
0
100
AcDbBlockEnd
  0
BLOCK
  5
A8D1
330
A8D0
100
AcDbEntity
 67
     1
  8
0
100
AcDbBlockBegin
  2
*PAPER_SPACE
 70
     0
 10
0.0
 20
0.0
 30
0.0
  3
*PAPER_SPACE
  1

  0
ENDBLK
  5
A8D2
330
A8D0
100
AcDbEntity
 67
     1
  8
0
100
AcDbBlockEnd
  0
BLOCK
  5
A8ED
330
A8EC
100
AcDbEntity
  8
0
100
AcDbBlockBegin
  2
_OPEN
 70
     0
 10
0.0
 20
0.0
 30
0.0
  3
_OPEN
  1

  0
LINE
  5
A8EE
330
A8EC
100
AcDbEntity
  8
0
  6
ByBlock
 62
     0
100
AcDbLine
 10
-1.0
 20
0.166667
 30
0.0
 11
0.0
 21
0.0
 31
0.0
  0
LINE
  5
A8EF
330
A8EC
100
AcDbEntity
  8
0
  6
ByBlock
 62
     0
100
AcDbLine
 10
0.0
 20
0.0
 30
0.0
 11
-1.0
 21
-0.166667
 31
0.0
  0
LINE
  5
A8F0
330
A8EC
100
AcDbEntity
  8
0
  6
ByBlock
 62
     0
100
AcDbLine
 10
0.0
 20
0.0
 30
0.0
 11
-1.0
 21
0.0
 31
0.0
  0
ENDBLK
  5
A8F1
330
A8EC
100
AcDbEntity
  8
0
100
AcDbBlockEnd
  0
ENDSEC
  0
SECTION
  2
ENTITIES
  0
TEXT
  5
A8F2
330
A8D4
100
AcDbEntity
  8
7
  6
Continuous
100
AcDbText
 10
10.0
 20
18.0
 30
0.0
 40
3.0
  1
TYPE No.306
100
AcDbText
  0
TEXT
  5
A8F3
330
A8D4
100
AcDbEntity
  8
7
  6
Continuous
100
AcDbText
 10
10.0
 20
26.0
 30
0.0
 40
3.0
  1
CODE No.9308
100
AcDbText
  0
TEXT
  5
A8F4
330
A8D4
100
AcDbEntity
  8
1
  6
Continuous
100
AcDbText
 10
10.0
 20
10.0
 30
0.0
 40
1.399999999999999
  1
LAYER
100
AcDbText
  0
TEXT
  5
A8F5
330
A8D4
100
AcDbEntity
  8
1
  6
Continuous
100
AcDbText
 10
17.97951099999998
 20
10.04873699999998
 30
0.0
 40
1.399999999999999
  1
1
100
AcDbText
  0
TEXT
  5
A8F6
330
A8D4
100
AcDbEntity
  8
7
  6
Continuous
100
AcDbText
 10
29.97951099999999
 20
10.04873699999998
 30
0.0
 40
1.399999999999999
  1
7
100
AcDbText
  0
TEXT
  5
A8F7
330
A8D4
100
AcDbEntity
  8
4
  6
CENTER
100
AcDbText
 10
23.97951099999999
 20
10.04873699999998
 30
0.0
 40
1.399999999999999
  1
4
100
AcDbText
  0
TEXT
  5
A8F8
330
A8D4
100
AcDbEntity
  8
3
  6
DASHED
100
AcDbText
 10
21.979511
 20
10.04873699999998
 30
0.0
 40
1.399999999999999
  1
3
100
AcDbText
  0
TEXT
  5
A8F9
330
A8D4
100
AcDbEntity
  8
2
  6
Continuous
100
AcDbText
 10
19.97951099999999
 20
10.04873699999998
 30
0.0
 40
1.399999999999999
  1
2
100
AcDbText
  0
TEXT
  5
A8FA
330
A8D4
100
AcDbEntity
  8
6
  6
Continuous
100
AcDbText
 10
27.979511
 20
10.04873699999998
 30
0.0
 40
1.399999999999999
  1
6
100
AcDbText
  0
TEXT
  5
A8FB
330
A8D4
100
AcDbEntity
  8
5
  6
PHANTOM
100
AcDbText
 10
25.97951099999999
 20
10.04873699999998
 30
0.0
 40
1.399999999999999
  1
5
100
AcDbText
  0
LINE
  5
A8FC
330
A8D4
100
AcDbEntity
  8
4
  6
CENTER
100
AcDbLine
 10
206.1692469999999
 20
179.2064899999998
 30
0.0
 11
121.169247
 21
179.2064899999998
 31
0.0
  0
LINE
  5
A8FD
330
A8D4
100
AcDbEntity
  8
4
  6
CENTER
100
AcDbLine
 10
163.6692469999998
 20
136.70649
 30
0.0
 11
163.6692469999998
 21
219.7064899999999
 31
0.0
  0
LINE
  5
A8FE
330
A8D4
100
AcDbEntity
  8
1
  6
Continuous
100
AcDbLine
 10
211.669247
 20
226.0064899999999
 30
0.0
 11
165.6692469999998
 21
226.0064899999999
 31
0.0
  0
LINE
  5
A8FF
330
A8D4
100
AcDbEntity
  8
1
  6
Continuous
100
AcDbLine
 10
159.8047719999998
 20
221.4064899999999
 30
0.0
 11
156.6692469999999
 21
221.4064899999999
 31
0.0
  0
LINE
  5
A900
330
A8D4
100
AcDbEntity
  8
1
  6
Continuous
100
AcDbLine
 10
170.6692469999999
 20
223.70649
 30
0.0
 11
156.6692469999999
 21
223.70649
 31
0.0
  0
LINE
  5
A901
330
A8D4
100
AcDbEntity
  8
1
  6
Continuous
100
AcDbLine
 10
156.6692469999999
 20
223.70649
 30
0.0
 11
156.6692469999999
 21
221.4064899999999
 31
0.0
  0
LINE
  5
A902
330
A8D4
100
AcDbEntity
  8
4
  6
CENTER
100
AcDbLine
 10
188.6692469999999
 20
281.706635
 30
0.0
 11
188.6692469999999
 21
206.898602
 31
0.0
  0
ARC
  5
A903
330
A8D4
100
AcDbEntity
  8
1
  6
Continuous
100
AcDbCircle
 10
167.3364369999999
 20
223.0064899999999
 30
0.0
 40
3.0
100
AcDbArc
 50
90.0
 51
166.5066009999998
  0
ARC
  5
A904
330
A8D4
100
AcDbEntity
  8
1
  6
Continuous
100
AcDbCircle
 10
209.9878229999999
 20
222.544827
 30
0.0
 40
3.462340999999999
100
AcDbArc
 50
7.662535
 51
91.134876
  0
LINE
  5
A905
330
A8D4
100
AcDbEntity
  8
1
  6
Continuous
100
AcDbLine
 10
213.419247
 20
218.40649
 30
0.0
 11
205.563346
 21
218.40649
 31
0.0
  0
LINE
  5
A906
330
A8D4
100
AcDbEntity
  8
1
  6
Continuous
100
AcDbLine
 10
203.613618
 20
218.214984
 30
0.0
 11
203.5692469999999
 21
218.1439899999999
 31
0.0
  0
LINE
  5
A907
330
A8D4
100
AcDbEntity
  8
1
  6
Continuous
100
AcDbLine
 10
213.419247
 20
223.0064899999999
 30
0.0
 11
213.419247
 21
218.40649
 31
0.0
  0
LINE
  5
A908
330
A8D4
100
AcDbEntity
  8
1
  6
Continuous
100
AcDbLine
 10
211.669247
 20
225.879073
 30
0.0
 11
211.2966639999999
 21
226.0064899999999
 31
0.0
  0
LINE
  5
A909
330
A8D4
100
AcDbEntity
  8
4
  6
CENTER
100
AcDbLine
 10
218.419172
 20
343.5054979999998
 30
0.0
 11
121.1692379999998
 21
343.5054979999998
 31
0.0
  0
LINE
  5
A90A
330
A8D4
100
AcDbEntity
  8
4
  6
CENTER
100
AcDbLine
 10
188.6691719999998
 20
313.7554979999998
 30
0.0
 11
188.6691719999998
 21
373.2554979999999
 31
0.0
  0
LINE
  5
A90B
330
A8D4
100
AcDbEntity
  8
4
  6
CENTER
100
AcDbLine
 10
280.4033759999999
 20
281.706635
 30
0.0
 11
280.4033759999999
 21
136.70649
 31
0.0
  0
LINE
  5
A90C
330
A8D4
100
AcDbEntity
  8
4
  6
CENTER
100
AcDbLine
 10
252.566696
 20
179.2064899999998
 30
0.0
 11
309.2118759999999
 21
179.2064899999998
 31
0.0
  0
ARC
  5
A90D
330
A8D4
100
AcDbEntity
  8
1
  6
Continuous
100
AcDbCircle
 10
209.2048479999998
 20
171.25231
 30
0.0
 40
99.466508
100
AcDbArc
 50
17.154698
 51
25.73159999999998
  0
LINE
  5
A90E
330
A8D4
100
AcDbEntity
  8
1
  6
Continuous
100
AcDbLine
 10
303.4033759999999
 20
226.0064899999999
 30
0.0
 11
257.4033759999999
 21
226.0064899999999
 31
0.0
  0
LINE
  5
A90F
330
A8D4
100
AcDbEntity
  8
1
  6
Continuous
100
AcDbLine
 10
263.8948759999999
 20
213.302883
 30
0.0
 11
263.8948759999999
 21
167.7064899999998
 31
0.0
  0
LINE
  5
A910
330
A8D4
100
AcDbEntity
  8
1
  6
Continuous
100
AcDbLine
 10
296.9118759999998
 20
167.7064899999998
 30
0.0
 11
299.2118759999998
 21
167.7064899999998
 31
0.0
  0
LINE
  5
A911
330
A8D4
100
AcDbEntity
  8
1
  6
Continuous
100
AcDbLine
 10
299.2118759999998
 20
167.7064899999998
 30
0.0
 11
299.2118759999998
 21
168.0979589999998
 31
0.0
  0
LINE
  5
A912
330
A8D4
100
AcDbEntity
  8
1
  6
Continuous
100
AcDbLine
 10
292.0968209999998
 20
218.40649
 30
0.0
 11
268.7778819999999
 21
218.40649
 31
0.0
  0
ARC
  5
A913
330
A8D4
100
AcDbEntity
  8
1
  6
Continuous
100
AcDbCircle
 10
268.743905
 20
210.691662
 30
0.0
 40
7.714902
100
AcDbArc
 50
89.74766999999998
 51
150.9629099999999
  0
ARC
  5
A914
330
A8D4
100
AcDbEntity
  8
1
  6
Continuous
100
AcDbCircle
 10
209.2048479999998
 20
171.25231
 30
0.0
 40
97.26650800000001
100
AcDbArc
 50
18.221623
 51
28.73472400000001
  0
ARC
  5
A915
330
A8D4
100
AcDbEntity
  8
1
  6
Continuous
100
AcDbCircle
 10
292.0628449999999
 20
210.691662
 30
0.0
 40
7.714902
100
AcDbArc
 50
29.03709
 51
90.25233
  0
LINE
  5
A916
330
A8D4
100
AcDbEntity
  8
1
  6
Continuous
100
AcDbLine
 10
263.8948759999999
 20
167.7064899999998
 30
0.0
 11
261.594876
 21
167.7064899999998
 31
0.0
  0
LINE
  5
A917
330
A8D4
100
AcDbEntity
  8
1
  6
Continuous
100
AcDbLine
 10
261.594876
 20
167.7064899999998
 30
0.0
 11
261.594876
 21
168.0979589999998
 31
0.0
  0
LINE
  5
A918
330
A8D4
100
AcDbEntity
  8
4
  6
CENTER
100
AcDbLine
 10
59.204661
 20
281.706635
 30
0.0
 11
59.204661
 21
136.706535
 31
0.0
  0
LINE
  5
A919
330
A8D4
100
AcDbEntity
  8
1
  6
Continuous
100
AcDbLine
 10
78.01316099999998
 20
219.4065349999999
 30
0.0
 11
78.01316099999998
 21
167.706535
 31
0.0
  0
LINE
  5
A91A
330
A8D4
100
AcDbEntity
  8
1
  6
Continuous
100
AcDbLine
 10
40.39616099999999
 20
219.4065349999999
 30
0.0
 11
40.39616099999999
 21
167.706535
 31
0.0
  0
LINE
  5
A91B
330
A8D4
100
AcDbEntity
  8
1
  6
Continuous
100
AcDbLine
 10
75.713161
 20
219.4065349999999
 30
0.0
 11
75.713161
 21
167.706535
 31
0.0
  0
LINE
  5
A91C
330
A8D4
100
AcDbEntity
  8
1
  6
Continuous
100
AcDbLine
 10
42.69616099999999
 20
219.4065349999999
 30
0.0
 11
42.69616099999999
 21
167.706535
 31
0.0
  0
LINE
  5
A91D
330
A8D4
100
AcDbEntity
  8
4
  6
CENTER
100
AcDbLine
 10
30.39616099999999
 20
179.206535
 30
0.0
 11
85.51291999999998
 21
179.206535
 31
0.0
  0
LINE
  5
A91E
330
A8D4
100
AcDbEntity
  8
1
  6
Continuous
100
AcDbLine
 10
40.39616099999999
 20
167.706535
 30
0.0
 11
42.69616099999999
 21
167.706535
 31
0.0
  0
LINE
  5
A91F
330
A8D4
100
AcDbEntity
  8
1
  6
Continuous
100
AcDbLine
 10
42.69616099999999
 20
175.206535
 30
0.0
 11
44.704661
 21
175.206535
 31
0.0
  0
ARC
  5
A920
330
A8D4
100
AcDbEntity
  8
1
  6
Continuous
100
AcDbCircle
 10
79.454661
 20
192.971086
 30
0.0
 40
45.0
100
AcDbArc
 50
180.0
 51
198.1290549999999
  0
LINE
  5
A921
330
A8D4
100
AcDbEntity
  8
1
  6
Continuous
100
AcDbLine
 10
42.69616099999999
 20
183.206535
 30
0.0
 11
44.704661
 21
183.206535
 31
0.0
  0
ARC
  5
A922
330
A8D4
100
AcDbEntity
  8
1
  6
Continuous
100
AcDbCircle
 10
38.954661
 20
192.971086
 30
0.0
 40
45.0
100
AcDbArc
 50
330.223206
 51
0.0
  0
LINE
  5
A923
330
A8D4
100
AcDbEntity
  8
1
  6
Continuous
100
AcDbLine
 10
75.713161
 20
167.706535
 30
0.0
 11
78.01316099999998
 21
167.706535
 31
0.0
  0
LINE
  5
A924
330
A8D4
100
AcDbEntity
  8
1
  6
Continuous
100
AcDbLine
 10
73.704661
 20
175.206535
 30
0.0
 11
75.713161
 21
175.206535
 31
0.0
  0
LINE
  5
A925
330
A8D4
100
AcDbEntity
  8
1
  6
Continuous
100
AcDbLine
 10
73.704661
 20
183.206535
 30
0.0
 11
75.713161
 21
183.206535
 31
0.0
  0
LINE
  5
A926
330
A8D4
100
AcDbEntity
  8
1
  6
Continuous
100
AcDbLine
 10
61.070588
 20
219.944035
 30
0.0
 11
62.243874
 21
221.4064899999999
 31
0.0
  0
LINE
  5
A927
330
A8D4
100
AcDbEntity
  8
1
  6
Continuous
100
AcDbLine
 10
42.69616099999999
 20
218.444035
 30
0.0
 11
75.713161
 21
218.444035
 31
0.0
  0
LINE
  5
A928
330
A8D4
100
AcDbEntity
  8
1
  6
Continuous
100
AcDbLine
 10
36.204661
 20
226.0064899999999
 30
0.0
 11
82.20466100000001
 21
226.0064899999999
 31
0.0
  0
LINE
  5
A929
330
A8D4
100
AcDbEntity
  8
1
  6
Continuous
100
AcDbLine
 10
42.924457
 20
219.944035
 30
0.0
 11
75.570701
 21
219.944035
 31
0.0
  0
LINE
  5
A92A
330
A8D4
100
AcDbEntity
  8
1
  6
Continuous
100
AcDbLine
 10
45.01544699999999
 20
221.4064899999999
 30
0.0
 11
73.81544699999998
 21
221.4064899999999
 31
0.0
  0
LINE
  5
A92B
330
A8D4
100
AcDbEntity
  8
1
  6
Continuous
100
AcDbLine
 10
45.01544699999999
 20
223.70649
 30
0.0
 11
73.81544699999998
 21
223.70649
 31
0.0
  0
ARC
  5
A92C
330
A8D4
100
AcDbEntity
  8
1
  6
Continuous
100
AcDbCircle
 10
45.374331
 20
218.68981
 30
0.0
 40
5.029499999999998
100
AcDbArc
 50
94.09185900000002
 51
171.807218
  0
LINE
  5
A92D
330
A8D4
100
AcDbEntity
  8
1
  6
Continuous
100
AcDbLine
 10
44.790304
 20
221.389498
 30
0.0
 11
45.52502599999999
 21
219.944035
 31
0.0
  0
ARC
  5
A92E
330
A8D4
100
AcDbEntity
  8
1
  6
Continuous
100
AcDbCircle
 10
48.298161
 20
223.6331569999999
 30
0.0
 40
7.487396
100
AcDbArc
 50
233.119947
 51
265.563802
  0
LINE
  5
A92F
330
A8D4
100
AcDbEntity
  8
1
  6
Continuous
100
AcDbLine
 10
43.668711
 20
220.3861359999999
 30
0.0
 11
44.110812
 21
219.944035
 31
0.0
  0
LINE
  5
A930
330
A8D4
100
AcDbEntity
  8
1
  6
Continuous
100
AcDbLine
 10
44.749558
 20
221.382737
 30
0.0
 11
42.991526
 21
219.944035
 31
0.0
  0
LINE
  5
A931
330
A8D4
100
AcDbEntity
  8
1
  6
Continuous
100
AcDbLine
 10
42.69616099999999
 20
218.444035
 30
0.0
 11
43.80466099999998
 21
217.644035
 31
0.0
  0
LINE
  5
A932
330
A8D4
100
AcDbEntity
  8
1
  6
Continuous
100
AcDbLine
 10
43.904661
 20
219.944035
 30
0.0
 11
42.69616099999999
 21
218.444035
 31
0.0
  0
ARC
  5
A933
330
A8D4
100
AcDbEntity
  8
1
  6
Continuous
100
AcDbCircle
 10
45.45498099999998
 20
218.551996
 30
0.0
 40
2.888134999999998
100
AcDbArc
 50
98.75362899999997
 51
162.789725
  0
LINE
  5
A934
330
A8D4
100
AcDbEntity
  8
1
  6
Continuous
100
AcDbLine
 10
54.510307
 20
219.944035
 30
0.0
 11
53.75859300000001
 21
221.4064899999999
 31
0.0
  0
LINE
  5
A935
330
A8D4
100
AcDbEntity
  8
1
  6
Continuous
100
AcDbLine
 10
50.267666
 20
219.944035
 30
0.0
 11
49.51595199999999
 21
221.4064899999999
 31
0.0
  0
LINE
  5
A936
330
A8D4
100
AcDbEntity
  8
1
  6
Continuous
100
AcDbLine
 10
47.439239
 20
219.944035
 30
0.0
 11
46.687525
 21
221.4064899999999
 31
0.0
  0
LINE
  5
A937
330
A8D4
100
AcDbEntity
  8
1
  6
Continuous
100
AcDbLine
 10
48.853453
 20
219.944035
 30
0.0
 11
48.101739
 21
221.4064899999999
 31
0.0
  0
LINE
  5
A938
330
A8D4
100
AcDbEntity
  8
1
  6
Continuous
100
AcDbLine
 10
45.014239
 20
219.944035
 30
0.0
 11
46.687525
 21
221.4064899999999
 31
0.0
  0
LINE
  5
A939
330
A8D4
100
AcDbEntity
  8
1
  6
Continuous
100
AcDbLine
 10
46.928453
 20
219.944035
 30
0.0
 11
48.101739
 21
221.4064899999999
 31
0.0
  0
LINE
  5
A93A
330
A8D4
100
AcDbEntity
  8
1
  6
Continuous
100
AcDbLine
 10
48.34266599999999
 20
219.944035
 30
0.0
 11
49.51595199999999
 21
221.4064899999999
 31
0.0
  0
LINE
  5
A93B
330
A8D4
100
AcDbEntity
  8
1
  6
Continuous
100
AcDbLine
 10
51.68188
 20
219.944035
 30
0.0
 11
50.930166
 21
221.4064899999999
 31
0.0
  0
LINE
  5
A93C
330
A8D4
100
AcDbEntity
  8
1
  6
Continuous
100
AcDbLine
 10
53.09609399999999
 20
219.944035
 30
0.0
 11
52.34438
 21
221.4064899999999
 31
0.0
  0
LINE
  5
A93D
330
A8D4
100
AcDbEntity
  8
1
  6
Continuous
100
AcDbLine
 10
49.75687999999999
 20
219.944035
 30
0.0
 11
50.930166
 21
221.4064899999999
 31
0.0
  0
LINE
  5
A93E
330
A8D4
100
AcDbEntity
  8
1
  6
Continuous
100
AcDbLine
 10
51.171094
 20
219.944035
 30
0.0
 11
52.34438
 21
221.4064899999999
 31
0.0
  0
LINE
  5
A93F
330
A8D4
100
AcDbEntity
  8
1
  6
Continuous
100
AcDbLine
 10
52.58530699999999
 20
219.944035
 30
0.0
 11
53.75859300000001
 21
221.4064899999999
 31
0.0
  0
LINE
  5
A940
330
A8D4
100
AcDbEntity
  8
1
  6
Continuous
100
AcDbLine
 10
56.82794799999999
 20
219.944035
 30
0.0
 11
58.001234
 21
221.4064899999999
 31
0.0
  0
LINE
  5
A941
330
A8D4
100
AcDbEntity
  8
1
  6
Continuous
100
AcDbLine
 10
55.924521
 20
219.944035
 30
0.0
 11
55.17280699999999
 21
221.4064899999999
 31
0.0
  0
LINE
  5
A942
330
A8D4
100
AcDbEntity
  8
1
  6
Continuous
100
AcDbLine
 10
57.338734
 20
219.944035
 30
0.0
 11
56.58701999999999
 21
221.4064899999999
 31
0.0
  0
LINE
  5
A943
330
A8D4
100
AcDbEntity
  8
1
  6
Continuous
100
AcDbLine
 10
53.999521
 20
219.944035
 30
0.0
 11
55.17280699999999
 21
221.4064899999999
 31
0.0
  0
LINE
  5
A944
330
A8D4
100
AcDbEntity
  8
1
  6
Continuous
100
AcDbLine
 10
55.413734
 20
219.944035
 30
0.0
 11
56.58701999999999
 21
221.4064899999999
 31
0.0
  0
LINE
  5
A945
330
A8D4
100
AcDbEntity
  8
1
  6
Continuous
100
AcDbLine
 10
61.581375
 20
219.944035
 30
0.0
 11
60.829661
 21
221.4064899999999
 31
0.0
  0
LINE
  5
A946
330
A8D4
100
AcDbEntity
  8
1
  6
Continuous
100
AcDbLine
 10
58.75294799999998
 20
219.944035
 30
0.0
 11
58.001234
 21
221.4064899999999
 31
0.0
  0
LINE
  5
A947
330
A8D4
100
AcDbEntity
  8
1
  6
Continuous
100
AcDbLine
 10
60.167161
 20
219.944035
 30
0.0
 11
59.415447
 21
221.4064899999999
 31
0.0
  0
LINE
  5
A948
330
A8D4
100
AcDbEntity
  8
1
  6
Continuous
100
AcDbLine
 10
59.65637499999999
 20
219.944035
 30
0.0
 11
60.829661
 21
221.4064899999999
 31
0.0
  0
LINE
  5
A949
330
A8D4
100
AcDbEntity
  8
1
  6
Continuous
100
AcDbLine
 10
58.24216100000001
 20
219.944035
 30
0.0
 11
59.415447
 21
221.4064899999999
 31
0.0
  0
ARC
  5
A94A
330
A8D4
100
AcDbEntity
  8
1
  6
Continuous
100
AcDbCircle
 10
73.410515
 20
219.112256
 30
0.0
 40
4.612044999999998
100
AcDbArc
 50
3.658345999999998
 51
84.96300599999997
  0
LINE
  5
A94B
330
A8D4
100
AcDbEntity
  8
1
  6
Continuous
100
AcDbLine
 10
69.55587
 20
219.944035
 30
0.0
 11
71.229156
 21
221.4064899999999
 31
0.0
  0
LINE
  5
A94C
330
A8D4
100
AcDbEntity
  8
1
  6
Continuous
100
AcDbLine
 10
65.31322900000001
 20
219.944035
 30
0.0
 11
66.48651499999998
 21
221.4064899999999
 31
0.0
  0
LINE
  5
A94D
330
A8D4
100
AcDbEntity
  8
1
  6
Continuous
100
AcDbLine
 10
65.824016
 20
219.944035
 30
0.0
 11
65.07230200000001
 21
221.4064899999999
 31
0.0
  0
LINE
  5
A94E
330
A8D4
100
AcDbEntity
  8
1
  6
Continuous
100
AcDbLine
 10
64.409802
 20
219.944035
 30
0.0
 11
63.65808799999999
 21
221.4064899999999
 31
0.0
  0
LINE
  5
A94F
330
A8D4
100
AcDbEntity
  8
1
  6
Continuous
100
AcDbLine
 10
62.99558799999999
 20
219.944035
 30
0.0
 11
62.243874
 21
221.4064899999999
 31
0.0
  0
LINE
  5
A950
330
A8D4
100
AcDbEntity
  8
1
  6
Continuous
100
AcDbLine
 10
63.899016
 20
219.944035
 30
0.0
 11
65.07230200000001
 21
221.4064899999999
 31
0.0
  0
LINE
  5
A951
330
A8D4
100
AcDbEntity
  8
1
  6
Continuous
100
AcDbLine
 10
62.484802
 20
219.944035
 30
0.0
 11
63.65808799999999
 21
221.4064899999999
 31
0.0
  0
LINE
  5
A952
330
A8D4
100
AcDbEntity
  8
1
  6
Continuous
100
AcDbLine
 10
70.56665600000002
 20
219.944035
 30
0.0
 11
69.314942
 21
221.4064899999999
 31
0.0
  0
LINE
  5
A953
330
A8D4
100
AcDbEntity
  8
1
  6
Continuous
100
AcDbLine
 10
68.652443
 20
219.944035
 30
0.0
 11
67.900729
 21
221.4064899999999
 31
0.0
  0
LINE
  5
A954
330
A8D4
100
AcDbEntity
  8
1
  6
Continuous
100
AcDbLine
 10
67.238229
 20
219.944035
 30
0.0
 11
66.48651499999998
 21
221.4064899999999
 31
0.0
  0
LINE
  5
A955
330
A8D4
100
AcDbEntity
  8
1
  6
Continuous
100
AcDbLine
 10
68.14165600000001
 20
219.944035
 30
0.0
 11
69.314942
 21
221.4064899999999
 31
0.0
  0
LINE
  5
A956
330
A8D4
100
AcDbEntity
  8
1
  6
Continuous
100
AcDbLine
 10
66.72744300000001
 20
219.944035
 30
0.0
 11
67.900729
 21
221.4064899999999
 31
0.0
  0
ARC
  5
A957
330
A8D4
100
AcDbEntity
  8
1
  6
Continuous
100
AcDbCircle
 10
70.601229
 20
223.99457
 30
0.0
 40
7.848514999999999
100
AcDbArc
 50
270.9161379999998
 51
305.988185
  0
LINE
  5
A958
330
A8D4
100
AcDbEntity
  8
1
  6
Continuous
100
AcDbLine
 10
75.41779699999998
 20
219.944035
 30
0.0
 11
74.14171500000001
 21
221.3177399999999
 31
0.0
  0
LINE
  5
A959
330
A8D4
100
AcDbEntity
  8
1
  6
Continuous
100
AcDbLine
 10
74.298511
 20
219.944035
 30
0.0
 11
75.34200799999998
 21
220.383147
 31
0.0
  0
LINE
  5
A95A
330
A8D4
100
AcDbEntity
  8
1
  6
Continuous
100
AcDbLine
 10
75.713161
 20
218.444035
 30
0.0
 11
75.21316099999999
 21
217.644035
 31
0.0
  0
LINE
  5
A95B
330
A8D4
100
AcDbEntity
  8
1
  6
Continuous
100
AcDbLine
 10
74.50466099999998
 20
219.944035
 30
0.0
 11
75.713161
 21
218.444035
 31
0.0
  0
ARC
  5
A95C
330
A8D4
100
AcDbEntity
  8
1
  6
Continuous
100
AcDbCircle
 10
73.35485
 20
219.0691109999999
 30
0.0
 40
2.382327999999998
100
AcDbArc
 50
8.142542999999998
 51
78.852283
  0
LINE
  5
A95D
330
A8D4
100
AcDbEntity
  8
1
  6
Continuous
100
AcDbLine
 10
73.395083
 20
219.944035
 30
0.0
 11
72.64336899999998
 21
221.4064899999999
 31
0.0
  0
LINE
  5
A95E
330
A8D4
100
AcDbEntity
  8
1
  6
Continuous
100
AcDbLine
 10
71.98087
 20
219.944035
 30
0.0
 11
71.229156
 21
221.4064899999999
 31
0.0
  0
LINE
  5
A95F
330
A8D4
100
AcDbEntity
  8
1
  6
Continuous
100
AcDbLine
 10
72.884297
 20
219.944035
 30
0.0
 11
74.015416
 21
221.3580279999999
 31
0.0
  0
LINE
  5
A960
330
A8D4
100
AcDbEntity
  8
1
  6
Continuous
100
AcDbLine
 10
71.470083
 20
219.944035
 30
0.0
 11
72.64336899999998
 21
221.4064899999999
 31
0.0
  0
LINE
  5
A961
330
A8D4
100
AcDbEntity
  8
1
  6
Continuous
100
AcDbLine
 10
255.6533759999998
 20
222.5854899999999
 30
0.0
 11
255.6533759999998
 21
191.3543439999999
 31
0.0
  0
LINE
  5
A962
330
A8D4
100
AcDbEntity
  8
1
  6
Continuous
100
AcDbLine
 10
305.1533759999998
 20
222.5854899999999
 30
0.0
 11
305.1533759999998
 21
194.8727019999998
 31
0.0
  0
ARC
  5
A963
330
A8D4
100
AcDbEntity
  8
1
  6
Continuous
100
AcDbCircle
 10
301.732376
 20
222.5854899999999
 30
0.0
 40
3.420999999999998
100
AcDbArc
 50
0.0
 51
90.0
  0
ARC
  5
A964
330
A8D4
100
AcDbEntity
  8
1
  6
Continuous
100
AcDbCircle
 10
259.0743759999999
 20
222.5854899999999
 30
0.0
 40
3.420999999999998
100
AcDbArc
 50
90.0
 51
180.0
  0
ARC
  5
A965
330
A8D4
100
AcDbEntity
  8
1
  6
Continuous
100
AcDbCircle
 10
163.6692469999998
 20
178.2064899999998
 30
0.0
 40
10.5
100
AcDbArc
 50
170.99538
 51
328.8638009999999
  0
ARC
  5
A966
330
A8D4
100
AcDbEntity
  8
1
  6
Continuous
100
AcDbCircle
 10
205.563346
 20
208.4064899999999
 30
0.0
 40
10.0
100
AcDbArc
 50
90.0
 51
148.863801
  0
CIRCLE
  5
A967
330
A8D4
100
AcDbEntity
  8
1
  6
Continuous
100
AcDbCircle
 10
163.6692469999998
 20
179.2064899999998
 30
0.0
 40
5.0
  0
LINE
  5
A968
330
A8D4
100
AcDbEntity
  8
1
  6
Continuous
100
AcDbLine
 10
197.003941
 20
213.577232
 30
0.0
 11
172.6566229999999
 21
172.7772099999999
 31
0.0
  0
LINE
  5
A969
330
A8D4
100
AcDbEntity
  8
1
  6
Continuous
100
AcDbLine
 10
159.9484809999999
 20
223.70649
 30
0.0
 11
153.2169749999999
 21
179.2064899999998
 31
0.0
  0
LINE
  5
A96A
330
A8D4
100
AcDbEntity
  8
1
  6
Continuous
100
AcDbLine
 10
83.954661
 20
222.5444899999998
 30
0.0
 11
83.954661
 21
192.971086
 31
0.0
  0
LINE
  5
A96B
330
A8D4
100
AcDbEntity
  8
1
  6
Continuous
100
AcDbLine
 10
34.454661
 20
222.5444899999998
 30
0.0
 11
34.454661
 21
192.971086
 31
0.0
  0
ARC
  5
A96C
330
A8D4
100
AcDbEntity
  8
1
  6
Continuous
100
AcDbCircle
 10
37.916661
 20
222.5444899999998
 30
0.0
 40
3.461999999999998
100
AcDbArc
 50
90.0
 51
180.0
  0
ARC
  5
A96D
330
A8D4
100
AcDbEntity
  8
1
  6
Continuous
100
AcDbCircle
 10
80.492661
 20
222.5444899999998
 30
0.0
 40
3.461999999999998
100
AcDbArc
 50
0.0
 51
90.0
  0
ARC
  5
A96E
330
A8D4
100
AcDbEntity
  8
1
  6
Continuous
100
AcDbCircle
 10
79.454661
 20
192.971086
 30
0.0
 40
45.0
100
AcDbArc
 50
205.699848
 51
209.776794
  0
LINE
  5
A96F
330
A8D4
100
AcDbEntity
  8
4
  6
CENTER
100
AcDbLine
 10
188.6691719999998
 20
104.3512089999999
 30
0.0
 11
188.6691719999998
 21
44.851209
 31
0.0
  0
LINE
  5
A970
330
A8D4
100
AcDbEntity
  8
4
  6
CENTER
100
AcDbLine
 10
218.419172
 20
74.60120899999998
 30
0.0
 11
121.1692379999998
 21
74.60120899999998
 31
0.0
  0
LINE
  5
A971
330
A8D4
100
AcDbEntity
  8
1
  6
Continuous
100
AcDbLine
 10
153.4691719999998
 20
93.409709
 30
0.0
 11
153.4691719999998
 21
91.10970899999999
 31
0.0
  0
LINE
  5
A972
330
A8D4
100
AcDbEntity
  8
1
  6
Continuous
100
AcDbLine
 10
153.4691719999998
 20
58.092709
 30
0.0
 11
153.4691719999998
 21
55.792709
 31
0.0
  0
LINE
  5
A973
330
A8D4
100
AcDbEntity
  8
4
  6
CENTER
100
AcDbLine
 10
163.6692469999998
 20
100.35301
 30
0.0
 11
163.6692469999998
 21
47.082408
 31
0.0
  0
LINE
  5
A974
330
A8D4
100
AcDbEntity
  8
1
  6
Continuous
100
AcDbLine
 10
153.4691719999998
 20
93.409709
 30
0.0
 11
169.2363949999998
 21
93.409709
 31
0.0
  0
LINE
  5
A975
330
A8D4
100
AcDbEntity
  8
1
  6
Continuous
100
AcDbLine
 10
153.4691719999998
 20
91.10970899999999
 30
0.0
 11
169.2363949999998
 21
91.10970899999999
 31
0.0
  0
LINE
  5
A976
330
A8D4
100
AcDbEntity
  8
1
  6
Continuous
100
AcDbLine
 10
153.4691719999998
 20
55.792709
 30
0.0
 11
169.2363949999998
 21
55.792709
 31
0.0
  0
LINE
  5
A977
330
A8D4
100
AcDbEntity
  8
1
  6
Continuous
100
AcDbLine
 10
153.4691719999998
 20
58.092709
 30
0.0
 11
169.2363949999998
 21
58.092709
 31
0.0
  0
ARC
  5
A978
330
A8D4
100
AcDbEntity
  8
1
  6
Continuous
100
AcDbCircle
 10
188.6691719999998
 20
74.60120899999998
 30
0.0
 40
24.75
100
AcDbArc
 50
235.998362
 51
124.0016379999999
  0
ARC
  5
A979
330
A8D4
100
AcDbEntity
  8
1
  6
Continuous
100
AcDbCircle
 10
188.6691719999998
 20
74.60120899999998
 30
0.0
 40
22.45
100
AcDbArc
 50
235.998362
 51
124.0016379999999
  0
ARC
  5
A97A
330
A8D4
100
AcDbEntity
  8
1
  6
Continuous
100
AcDbCircle
 10
188.6691719999998
 20
74.60120899999998
 30
0.0
 40
18.44999999999998
100
AcDbArc
 50
225.64192
 51
134.35808
  0
ARC
  5
A97B
330
A8D4
100
AcDbEntity
  8
1
  6
Continuous
100
AcDbCircle
 10
188.6691719999998
 20
74.60120899999998
 30
0.0
 40
20.44999999999999
100
AcDbArc
 50
225.1573849999998
 51
134.8426149999999
  0
ARC
  5
A97C
330
A8D4
100
AcDbEntity
  8
1
  6
Continuous
100
AcDbCircle
 10
212.2482479999999
 20
74.60120899999998
 30
0.0
 40
55.579
100
AcDbArc
 50
162.720836
 51
164.877128
  0
ARC
  5
A97D
330
A8D4
100
AcDbEntity
  8
1
  6
Continuous
100
AcDbCircle
 10
212.2482479999999
 20
74.60120899999998
 30
0.0
 40
55.579
100
AcDbArc
 50
195.1228719999998
 51
197.279164
  0
ARC
  5
A97E
330
A8D4
100
AcDbEntity
  8
1
  6
Continuous
100
AcDbCircle
 10
257.8533489999999
 20
192.971041
 30
0.0
 40
45.0
100
AcDbArc
 50
333.6771109999999
 51
6.077233000000001
  0
ARC
  5
A97F
330
A8D4
100
AcDbEntity
  8
1
  6
Continuous
100
AcDbCircle
 10
260.190847
 20
193.036659
 30
0.0
 40
45.0
100
AcDbArc
 50
333.035978
 51
3.794623999999998
  0
ARC
  5
A980
330
A8D4
100
AcDbEntity
  8
1
  6
Continuous
100
AcDbCircle
 10
272.969605
 20
192.243764
 30
0.0
 40
30.135401
100
AcDbArc
 50
10.499302
 51
18.221623
  0
ARC
  5
A981
330
A8D4
100
AcDbEntity
  8
1
  6
Continuous
100
AcDbCircle
 10
351.6019039999998
 20
171.25231
 30
0.0
 40
97.26650800000001
100
AcDbArc
 50
151.2652759999998
 51
161.778377
  0
ARC
  5
A982
330
A8D4
100
AcDbEntity
  8
1
  6
Continuous
100
AcDbCircle
 10
287.837146
 20
192.243764
 30
0.0
 40
30.135401
100
AcDbArc
 50
161.778377
 51
169.500698
  0
ARC
  5
A983
330
A8D4
100
AcDbEntity
  8
1
  6
Continuous
100
AcDbCircle
 10
302.9534019999999
 20
192.971041
 30
0.0
 40
45.0
100
AcDbArc
 50
173.922767
 51
206.322889
  0
ARC
  5
A984
330
A8D4
100
AcDbEntity
  8
1
  6
Continuous
100
AcDbCircle
 10
269.496875
 20
223.633111
 30
0.0
 40
7.487396
100
AcDbArc
 50
240.6184049999999
 51
265.563802
  0
ARC
  5
A985
330
A8D4
100
AcDbEntity
  8
1
  6
Continuous
100
AcDbCircle
 10
291.799943
 20
223.994524
 30
0.0
 40
7.848514999999999
100
AcDbArc
 50
270.9161379999998
 51
294.920656
  0
ARC
  5
A986
330
A8D4
100
AcDbEntity
  8
1
  6
Continuous
100
AcDbCircle
 10
163.6692469999998
 20
179.2064899999998
 30
0.0
 40
12.5
100
AcDbArc
 50
137.167053
 51
357.4122899999999
  0
ARC
  5
A987
330
A8D4
100
AcDbEntity
  8
1
  6
Continuous
100
AcDbCircle
 10
163.6692469999998
 20
179.2064899999998
 30
0.0
 40
28.0
100
AcDbArc
 50
103.0579949999999
 51
36.01371799999999
  0
ARC
  5
A988
330
A8D4
100
AcDbEntity
  8
1
  6
Continuous
100
AcDbCircle
 10
163.6692469999998
 20
179.2064899999998
 30
0.0
 40
19.5
100
AcDbArc
 50
113.402507
 51
24.789728
  0
ARC
  5
A989
330
A8D4
100
AcDbEntity
  8
1
  6
Continuous
100
AcDbCircle
 10
163.6692469999998
 20
179.2064899999998
 30
0.0
 40
37.5
100
AcDbArc
 50
97.39539
 51
42.09619599999999
  0
ARC
  5
A98A
330
A8D4
100
AcDbEntity
  8
1
  6
Continuous
100
AcDbCircle
 10
163.6692469999998
 20
62.58240799999999
 30
0.0
 40
10.5
100
AcDbArc
 50
236.7961769999999
 51
303.2038229999999
  0
LINE
  5
A98B
330
A8D4
100
AcDbEntity
  8
1
  6
Continuous
100
AcDbLine
 10
157.9192469999999
 20
53.79676599999999
 30
0.0
 11
169.4192469999999
 21
53.79676599999999
 31
0.0
  0
ARC
  5
A98C
330
A8D4
100
AcDbEntity
  8
1
  6
Continuous
100
AcDbCircle
 10
141.169247
 20
74.60120899999998
 30
0.0
 40
60.0
100
AcDbArc
 50
351.1501169999998
 51
8.849883
  0
LINE
  5
A98D
330
A8D4
100
AcDbEntity
  8
1
  6
Continuous
100
AcDbLine
 10
176.1692469999999
 20
62.10120899999999
 30
0.0
 11
182.1787469999999
 21
63.57077
 31
0.0
  0
LINE
  5
A98E
330
A8D4
100
AcDbEntity
  8
1
  6
Continuous
100
AcDbLine
 10
198.972794
 20
64.10120899999999
 30
0.0
 11
128.3657009999998
 21
64.10120899999999
 31
0.0
  0
LINE
  5
A98F
330
A8D4
100
AcDbEntity
  8
1
  6
Continuous
100
AcDbLine
 10
182.591897
 20
64.10120899999999
 30
0.0
 11
182.3672929999999
 21
63.71218299999998
 31
0.0
  0
ARC
  5
A990
330
A8D4
100
AcDbEntity
  8
1
  6
Continuous
100
AcDbCircle
 10
182.107485
 20
63.86218299999999
 30
0.0
 40
0.3
100
AcDbArc
 50
283.741415
 51
330.0
  0
ARC
  5
A991
330
A8D4
100
AcDbEntity
  8
1
  6
Continuous
100
AcDbCircle
 10
198.972794
 20
65.601209
 30
0.0
 40
1.5
100
AcDbArc
 50
270.0
 51
351.1501169999998
  0
LINE
  5
A992
330
A8D4
100
AcDbEntity
  8
1
  6
Continuous
100
AcDbLine
 10
176.1692469999999
 20
62.10120899999999
 30
0.0
 11
175.0145469999999
 21
60.101209
 31
0.0
  0
LINE
  5
A993
330
A8D4
100
AcDbEntity
  8
1
  6
Continuous
100
AcDbLine
 10
152.3239479999998
 20
60.101209
 30
0.0
 11
175.0145469999999
 21
60.101209
 31
0.0
  0
LINE
  5
A994
330
A8D4
100
AcDbEntity
  8
1
  6
Continuous
100
AcDbLine
 10
151.1692469999998
 20
62.10120899999999
 30
0.0
 11
176.1692469999999
 21
62.10120899999999
 31
0.0
  0
LINE
  5
A995
330
A8D4
100
AcDbEntity
  8
1
  6
Continuous
100
AcDbLine
 10
169.4192469999999
 20
53.79676599999999
 30
0.0
 11
169.4192469999999
 21
55.792709
 31
0.0
  0
LINE
  5
A996
330
A8D4
100
AcDbEntity
  8
1
  6
Continuous
100
AcDbLine
 10
159.6692469999998
 20
58.092709
 30
0.0
 11
159.6692469999998
 21
60.101209
 31
0.0
  0
LINE
  5
A997
330
A8D4
100
AcDbEntity
  8
1
  6
Continuous
100
AcDbLine
 10
167.6692469999998
 20
58.092709
 30
0.0
 11
167.6692469999998
 21
60.101209
 31
0.0
  0
LINE
  5
A998
330
A8D4
100
AcDbEntity
  8
1
  6
Continuous
100
AcDbLine
 10
176.1692469999999
 20
87.10120899999997
 30
0.0
 11
182.1787469999999
 21
85.631648
 31
0.0
  0
LINE
  5
A999
330
A8D4
100
AcDbEntity
  8
1
  6
Continuous
100
AcDbLine
 10
198.972794
 20
85.10120899999998
 30
0.0
 11
128.3657009999998
 21
85.10120899999998
 31
0.0
  0
LINE
  5
A99A
330
A8D4
100
AcDbEntity
  8
1
  6
Continuous
100
AcDbLine
 10
182.591897
 20
85.10120899999998
 30
0.0
 11
182.3672929999999
 21
85.490235
 31
0.0
  0
ARC
  5
A99B
330
A8D4
100
AcDbEntity
  8
1
  6
Continuous
100
AcDbCircle
 10
182.107485
 20
85.34023499999998
 30
0.0
 40
0.3
100
AcDbArc
 50
30.0
 51
76.25858499999998
  0
ARC
  5
A99C
330
A8D4
100
AcDbEntity
  8
1
  6
Continuous
100
AcDbCircle
 10
198.972794
 20
83.60120899999998
 30
0.0
 40
1.5
100
AcDbArc
 50
8.849883
 51
90.0
  0
LINE
  5
A99D
330
A8D4
100
AcDbEntity
  8
1
  6
Continuous
100
AcDbLine
 10
158.6692469999999
 20
93.409709
 30
0.0
 11
158.6692469999999
 21
94.35310300000001
 31
0.0
  0
LINE
  5
A99E
330
A8D4
100
AcDbEntity
  8
1
  6
Continuous
100
AcDbLine
 10
168.6692469999998
 20
93.409709
 30
0.0
 11
168.6692469999998
 21
94.35310300000001
 31
0.0
  0
LINE
  5
A99F
330
A8D4
100
AcDbEntity
  8
1
  6
Continuous
100
AcDbLine
 10
158.6692469999999
 20
94.35310300000001
 30
0.0
 11
168.6692469999998
 21
94.35310300000001
 31
0.0
  0
ARC
  5
A9A0
330
A8D4
100
AcDbEntity
  8
1
  6
Continuous
100
AcDbCircle
 10
163.6692469999998
 20
82.35300999999997
 30
0.0
 40
13.0
100
AcDbArc
 50
67.380135
 51
112.6198649999998
  0
LINE
  5
A9A1
330
A8D4
100
AcDbEntity
  8
1
  6
Continuous
100
AcDbLine
 10
159.6692469999998
 20
89.10120899999999
 30
0.0
 11
159.6692469999998
 21
91.10970899999999
 31
0.0
  0
LINE
  5
A9A2
330
A8D4
100
AcDbEntity
  8
1
  6
Continuous
100
AcDbLine
 10
167.6692469999998
 20
89.10120899999999
 30
0.0
 11
167.6692469999998
 21
91.10970899999999
 31
0.0
  0
LINE
  5
A9A3
330
A8D4
100
AcDbEntity
  8
1
  6
Continuous
100
AcDbLine
 10
176.1692469999999
 20
87.10120899999997
 30
0.0
 11
175.0145469999999
 21
89.10120899999999
 31
0.0
  0
LINE
  5
A9A4
330
A8D4
100
AcDbEntity
  8
1
  6
Continuous
100
AcDbLine
 10
152.3239479999998
 20
89.10120899999999
 30
0.0
 11
175.0145469999999
 21
89.10120899999999
 31
0.0
  0
LINE
  5
A9A5
330
A8D4
100
AcDbEntity
  8
1
  6
Continuous
100
AcDbLine
 10
151.1692469999998
 20
87.10120899999997
 30
0.0
 11
176.1692469999999
 21
87.10120899999997
 31
0.0
  0
ARC
  5
A9A6
330
A8D4
100
AcDbEntity
  8
1
  6
Continuous
100
AcDbCircle
 10
186.1692469999999
 20
74.60120899999998
 30
0.0
 40
60.0
100
AcDbArc
 50
171.150117
 51
188.8498829999998
  0
LINE
  5
A9A7
330
A8D4
100
AcDbEntity
  8
1
  6
Continuous
100
AcDbLine
 10
144.746598
 20
64.10120899999999
 30
0.0
 11
144.9712019999998
 21
63.71218299999998
 31
0.0
  0
ARC
  5
A9A8
330
A8D4
100
AcDbEntity
  8
1
  6
Continuous
100
AcDbCircle
 10
145.231009
 20
63.86218299999999
 30
0.0
 40
0.3
100
AcDbArc
 50
210.0
 51
256.258585
  0
LINE
  5
A9A9
330
A8D4
100
AcDbEntity
  8
1
  6
Continuous
100
AcDbLine
 10
151.1692469999998
 20
62.10120899999999
 30
0.0
 11
152.3239479999998
 21
60.101209
 31
0.0
  0
LINE
  5
A9AA
330
A8D4
100
AcDbEntity
  8
1
  6
Continuous
100
AcDbLine
 10
157.9192469999999
 20
53.79676599999999
 30
0.0
 11
157.9192469999999
 21
55.792709
 31
0.0
  0
LINE
  5
A9AB
330
A8D4
100
AcDbEntity
  8
1
  6
Continuous
100
AcDbLine
 10
151.1692469999998
 20
62.10120899999999
 30
0.0
 11
145.159747
 21
63.57077
 31
0.0
  0
ARC
  5
A9AC
330
A8D4
100
AcDbEntity
  8
1
  6
Continuous
100
AcDbCircle
 10
128.3657009999998
 20
65.601209
 30
0.0
 40
1.5
100
AcDbArc
 50
188.8498829999998
 51
270.0
  0
LINE
  5
A9AD
330
A8D4
100
AcDbEntity
  8
1
  6
Continuous
100
AcDbLine
 10
144.746598
 20
85.10120899999998
 30
0.0
 11
144.9712019999998
 21
85.490235
 31
0.0
  0
ARC
  5
A9AE
330
A8D4
100
AcDbEntity
  8
1
  6
Continuous
100
AcDbCircle
 10
145.231009
 20
85.34023499999998
 30
0.0
 40
0.3
100
AcDbArc
 50
103.741415
 51
150.0
  0
LINE
  5
A9AF
330
A8D4
100
AcDbEntity
  8
1
  6
Continuous
100
AcDbLine
 10
151.1692469999998
 20
87.10120899999997
 30
0.0
 11
152.3239479999998
 21
89.10120899999999
 31
0.0
  0
LINE
  5
A9B0
330
A8D4
100
AcDbEntity
  8
1
  6
Continuous
100
AcDbLine
 10
151.1692469999998
 20
87.10120899999997
 30
0.0
 11
145.159747
 21
85.631648
 31
0.0
  0
ARC
  5
A9B1
330
A8D4
100
AcDbEntity
  8
1
  6
Continuous
100
AcDbCircle
 10
128.3657009999998
 20
83.60120899999998
 30
0.0
 40
1.5
100
AcDbArc
 50
90.0
 51
171.150117
  0
ARC
  5
A9B2
330
A8D4
100
AcDbEntity
  8
1
  6
Continuous
100
AcDbCircle
 10
66.956462
 20
179.206535
 30
0.0
 40
13.0
100
AcDbArc
 50
337.3801349999999
 51
22.619865
  0
LINE
  5
A9B3
330
A8D4
100
AcDbEntity
  8
1
  6
Continuous
100
AcDbLine
 10
78.95655500000002
 20
184.206535
 30
0.0
 11
78.95655500000002
 21
174.206535
 31
0.0
  0
LINE
  5
A9B4
330
A8D4
100
AcDbEntity
  8
1
  6
Continuous
100
AcDbLine
 10
46.704661
 20
191.706535
 30
0.0
 11
46.704661
 21
166.706535
 31
0.0
  0
LINE
  5
A9B5
330
A8D4
100
AcDbEntity
  8
1
  6
Continuous
100
AcDbLine
 10
44.704661
 20
190.551834
 30
0.0
 11
44.704661
 21
167.8612349999999
 31
0.0
  0
LINE
  5
A9B6
330
A8D4
100
AcDbEntity
  8
1
  6
Continuous
100
AcDbLine
 10
73.704661
 20
190.551834
 30
0.0
 11
73.704661
 21
167.8612349999999
 31
0.0
  0
LINE
  5
A9B7
330
A8D4
100
AcDbEntity
  8
1
  6
Continuous
100
AcDbLine
 10
71.704661
 20
191.706535
 30
0.0
 11
71.704661
 21
166.706535
 31
0.0
  0
LINE
  5
A9B8
330
A8D4
100
AcDbEntity
  8
1
  6
Continuous
100
AcDbLine
 10
38.400218
 20
184.9565349999998
 30
0.0
 11
38.400218
 21
173.456535
 31
0.0
  0
ARC
  5
A9B9
330
A8D4
100
AcDbEntity
  8
1
  6
Continuous
100
AcDbCircle
 10
47.18586
 20
179.206535
 30
0.0
 40
10.5
100
AcDbArc
 50
146.796177
 51
213.203823
  0
LINE
  5
A9BA
330
A8D4
100
AcDbEntity
  8
1
  6
Continuous
100
AcDbLine
 10
69.704661
 20
143.9029879999999
 30
0.0
 11
69.704661
 21
214.510081
 31
0.0
  0
LINE
  5
A9BB
330
A8D4
100
AcDbEntity
  8
1
  6
Continuous
100
AcDbLine
 10
48.704661
 20
143.9029879999999
 30
0.0
 11
48.704661
 21
214.510081
 31
0.0
  0
ARC
  5
A9BC
330
A8D4
100
AcDbEntity
  8
1
  6
Continuous
100
AcDbCircle
 10
59.204661
 20
201.706535
 30
0.0
 40
60.0
100
AcDbArc
 50
261.1501169999999
 51
278.8498829999999
  0
ARC
  5
A9BD
330
A8D4
100
AcDbEntity
  8
1
  6
Continuous
100
AcDbCircle
 10
50.204661
 20
143.9029879999999
 30
0.0
 40
1.5
100
AcDbArc
 50
180.0
 51
261.1501169999999
  0
LINE
  5
A9BE
330
A8D4
100
AcDbEntity
  8
1
  6
Continuous
100
AcDbLine
 10
38.400218
 20
173.456535
 30
0.0
 11
40.39616099999999
 21
173.456535
 31
0.0
  0
LINE
  5
A9BF
330
A8D4
100
AcDbEntity
  8
1
  6
Continuous
100
AcDbLine
 10
46.704661
 20
166.706535
 30
0.0
 11
44.704661
 21
167.8612349999999
 31
0.0
  0
ARC
  5
A9C0
330
A8D4
100
AcDbEntity
  8
1
  6
Continuous
100
AcDbCircle
 10
48.465635
 20
160.7682969999999
 30
0.0
 40
0.3
100
AcDbArc
 50
193.741415
 51
239.9999999999999
  0
LINE
  5
A9C1
330
A8D4
100
AcDbEntity
  8
1
  6
Continuous
100
AcDbLine
 10
48.704661
 20
160.2838849999999
 30
0.0
 11
48.315635
 21
160.508489
 31
0.0
  0
LINE
  5
A9C2
330
A8D4
100
AcDbEntity
  8
1
  6
Continuous
100
AcDbLine
 10
46.704661
 20
166.706535
 30
0.0
 11
48.174222
 21
160.697035
 31
0.0
  0
ARC
  5
A9C3
330
A8D4
100
AcDbEntity
  8
1
  6
Continuous
100
AcDbCircle
 10
68.204661
 20
143.9029879999999
 30
0.0
 40
1.5
100
AcDbArc
 50
278.8498829999999
 51
0.0
  0
LINE
  5
A9C4
330
A8D4
100
AcDbEntity
  8
1
  6
Continuous
100
AcDbLine
 10
71.704661
 20
166.706535
 30
0.0
 11
73.704661
 21
167.8612349999999
 31
0.0
  0
ARC
  5
A9C5
330
A8D4
100
AcDbEntity
  8
1
  6
Continuous
100
AcDbCircle
 10
69.94368699999999
 20
160.7682969999999
 30
0.0
 40
0.3
100
AcDbArc
 50
300.0
 51
346.2585849999999
  0
LINE
  5
A9C6
330
A8D4
100
AcDbEntity
  8
1
  6
Continuous
100
AcDbLine
 10
69.704661
 20
160.2838849999999
 30
0.0
 11
70.093687
 21
160.508489
 31
0.0
  0
LINE
  5
A9C7
330
A8D4
100
AcDbEntity
  8
1
  6
Continuous
100
AcDbLine
 10
71.704661
 20
166.706535
 30
0.0
 11
70.2351
 21
160.697035
 31
0.0
  0
LINE
  5
A9C8
330
A8D4
100
AcDbEntity
  8
1
  6
Continuous
100
AcDbLine
 10
78.01316099999998
 20
174.206535
 30
0.0
 11
78.95655500000002
 21
174.206535
 31
0.0
  0
ARC
  5
A9C9
330
A8D4
100
AcDbEntity
  8
1
  6
Continuous
100
AcDbCircle
 10
59.204661
 20
156.706535
 30
0.0
 40
60.0
100
AcDbArc
 50
81.15011700000001
 51
98.84988300000001
  0
LINE
  5
A9CA
330
A8D4
100
AcDbEntity
  8
1
  6
Continuous
100
AcDbLine
 10
38.400218
 20
184.9565349999998
 30
0.0
 11
40.39616099999999
 21
184.9565349999998
 31
0.0
  0
LINE
  5
A9CB
330
A8D4
100
AcDbEntity
  8
1
  6
Continuous
100
AcDbLine
 10
46.704661
 20
191.706535
 30
0.0
 11
48.174222
 21
197.716035
 31
0.0
  0
LINE
  5
A9CC
330
A8D4
100
AcDbEntity
  8
1
  6
Continuous
100
AcDbLine
 10
46.704661
 20
191.706535
 30
0.0
 11
44.704661
 21
190.551834
 31
0.0
  0
ARC
  5
A9CD
330
A8D4
100
AcDbEntity
  8
1
  6
Continuous
100
AcDbCircle
 10
48.465635
 20
197.6447729999999
 30
0.0
 40
0.3
100
AcDbArc
 50
119.9999999999999
 51
166.258585
  0
LINE
  5
A9CE
330
A8D4
100
AcDbEntity
  8
1
  6
Continuous
100
AcDbLine
 10
48.704661
 20
198.129184
 30
0.0
 11
48.315635
 21
197.90458
 31
0.0
  0
ARC
  5
A9CF
330
A8D4
100
AcDbEntity
  8
1
  6
Continuous
100
AcDbCircle
 10
50.204661
 20
214.510081
 30
0.0
 40
1.5
100
AcDbArc
 50
98.84988300000001
 51
180.0
  0
LINE
  5
A9D0
330
A8D4
100
AcDbEntity
  8
1
  6
Continuous
100
AcDbLine
 10
71.704661
 20
191.706535
 30
0.0
 11
70.2351
 21
197.716035
 31
0.0
  0
LINE
  5
A9D1
330
A8D4
100
AcDbEntity
  8
1
  6
Continuous
100
AcDbLine
 10
71.704661
 20
191.706535
 30
0.0
 11
73.704661
 21
190.551834
 31
0.0
  0
ARC
  5
A9D2
330
A8D4
100
AcDbEntity
  8
1
  6
Continuous
100
AcDbCircle
 10
69.94368699999999
 20
197.6447729999999
 30
0.0
 40
0.3
100
AcDbArc
 50
13.741415
 51
60.0
  0
LINE
  5
A9D3
330
A8D4
100
AcDbEntity
  8
1
  6
Continuous
100
AcDbLine
 10
69.704661
 20
198.129184
 30
0.0
 11
70.093687
 21
197.90458
 31
0.0
  0
LINE
  5
A9D4
330
A8D4
100
AcDbEntity
  8
1
  6
Continuous
100
AcDbLine
 10
78.01316099999998
 20
184.206535
 30
0.0
 11
78.95655500000002
 21
184.206535
 31
0.0
  0
ARC
  5
A9D5
330
A8D4
100
AcDbEntity
  8
1
  6
Continuous
100
AcDbCircle
 10
68.204661
 20
214.510081
 30
0.0
 40
1.5
100
AcDbArc
 50
0.0
 51
81.15011700000001
  0
LINE
  5
A9D6
330
A8D4
100
AcDbEntity
  8
1
  6
Continuous
100
AcDbLine
 10
47.719019
 20
216.1681919999999
 30
0.0
 11
51.16181199999999
 21
216.1650299999998
 31
0.0
  0
LINE
  5
A9D7
330
A8D4
100
AcDbEntity
  8
1
  6
Continuous
100
AcDbLine
 10
67.35673299999999
 20
216.1501529999999
 30
0.0
 11
70.72671899999997
 21
216.147058
 31
0.0
  0
LINE
  5
A9D8
330
A8D4
100
AcDbEntity
  8
1
  6
Continuous
100
AcDbLine
 10
269.9033759999999
 20
143.9029429999999
 30
0.0
 11
269.9033759999999
 21
214.5100359999999
 31
0.0
  0
LINE
  5
A9D9
330
A8D4
100
AcDbEntity
  8
1
  6
Continuous
100
AcDbLine
 10
290.9033759999999
 20
143.9029429999999
 30
0.0
 11
290.9033759999999
 21
214.5100359999999
 31
0.0
  0
ARC
  5
A9DA
330
A8D4
100
AcDbEntity
  8
1
  6
Continuous
100
AcDbCircle
 10
280.4033759999999
 20
201.70649
 30
0.0
 40
60.0
100
AcDbArc
 50
261.1501169999999
 51
278.8498829999999
  0
ARC
  5
A9DB
330
A8D4
100
AcDbEntity
  8
1
  6
Continuous
100
AcDbCircle
 10
271.4033759999999
 20
143.9029429999999
 30
0.0
 40
1.5
100
AcDbArc
 50
180.0
 51
261.1501169999999
  0
ARC
  5
A9DC
330
A8D4
100
AcDbEntity
  8
1
  6
Continuous
100
AcDbCircle
 10
289.4033759999999
 20
143.9029429999999
 30
0.0
 40
1.5
100
AcDbArc
 50
278.8498829999999
 51
0.0
  0
LINE
  5
A9DD
330
A8D4
100
AcDbEntity
  8
1
  6
Continuous
100
AcDbLine
 10
265.9033759999999
 20
190.5517889999999
 30
0.0
 11
265.9033759999999
 21
167.8611899999999
 31
0.0
  0
LINE
  5
A9DE
330
A8D4
100
AcDbEntity
  8
1
  6
Continuous
100
AcDbLine
 10
267.9033759999999
 20
191.7064899999998
 30
0.0
 11
267.9033759999999
 21
166.7064899999998
 31
0.0
  0
LINE
  5
A9DF
330
A8D4
100
AcDbEntity
  8
1
  6
Continuous
100
AcDbLine
 10
265.9033759999999
 20
175.20649
 30
0.0
 11
263.8948759999999
 21
175.20649
 31
0.0
  0
LINE
  5
A9E0
330
A8D4
100
AcDbEntity
  8
1
  6
Continuous
100
AcDbLine
 10
267.9033759999999
 20
166.7064899999998
 30
0.0
 11
265.9033759999999
 21
167.8611899999999
 31
0.0
  0
ARC
  5
A9E1
330
A8D4
100
AcDbEntity
  8
1
  6
Continuous
100
AcDbCircle
 10
269.6643499999999
 20
160.768252
 30
0.0
 40
0.3
100
AcDbArc
 50
193.741415
 51
239.9999999999999
  0
LINE
  5
A9E2
330
A8D4
100
AcDbEntity
  8
1
  6
Continuous
100
AcDbLine
 10
269.9033759999999
 20
160.2838399999999
 30
0.0
 11
269.5143499999999
 21
160.5084439999999
 31
0.0
  0
LINE
  5
A9E3
330
A8D4
100
AcDbEntity
  8
1
  6
Continuous
100
AcDbLine
 10
267.9033759999999
 20
166.7064899999998
 30
0.0
 11
269.3729369999999
 21
160.6969899999998
 31
0.0
  0
LINE
  5
A9E4
330
A8D4
100
AcDbEntity
  8
1
  6
Continuous
100
AcDbLine
 10
265.9033759999999
 20
183.2064899999998
 30
0.0
 11
263.8948759999999
 21
183.2064899999998
 31
0.0
  0
LINE
  5
A9E5
330
A8D4
100
AcDbEntity
  8
1
  6
Continuous
100
AcDbLine
 10
267.9033759999999
 20
191.7064899999998
 30
0.0
 11
269.3729369999999
 21
197.7159899999998
 31
0.0
  0
LINE
  5
A9E6
330
A8D4
100
AcDbEntity
  8
1
  6
Continuous
100
AcDbLine
 10
267.9033759999999
 20
191.7064899999998
 30
0.0
 11
265.9033759999999
 21
190.5517889999999
 31
0.0
  0
ARC
  5
A9E7
330
A8D4
100
AcDbEntity
  8
1
  6
Continuous
100
AcDbCircle
 10
269.6643499999999
 20
197.644728
 30
0.0
 40
0.3
100
AcDbArc
 50
119.9999999999999
 51
166.258585
  0
LINE
  5
A9E8
330
A8D4
100
AcDbEntity
  8
1
  6
Continuous
100
AcDbLine
 10
269.9033759999999
 20
198.1291389999999
 30
0.0
 11
269.5143499999999
 21
197.9045349999999
 31
0.0
  0
LINE
  5
A9E9
330
A8D4
100
AcDbEntity
  8
1
  6
Continuous
100
AcDbLine
 10
292.9033759999999
 20
191.7064899999998
 30
0.0
 11
292.9033759999999
 21
166.7064899999998
 31
0.0
  0
LINE
  5
A9EA
330
A8D4
100
AcDbEntity
  8
1
  6
Continuous
100
AcDbLine
 10
294.9033759999998
 20
190.5517889999999
 30
0.0
 11
294.9033759999998
 21
167.8611899999999
 31
0.0
  0
LINE
  5
A9EB
330
A8D4
100
AcDbEntity
  8
1
  6
Continuous
100
AcDbLine
 10
301.2078189999999
 20
174.5269839999999
 30
0.0
 11
301.2078189999999
 21
173.45649
 31
0.0
  0
ARC
  5
A9EC
330
A8D4
100
AcDbEntity
  8
1
  6
Continuous
100
AcDbCircle
 10
292.4221769999999
 20
179.2064899999998
 30
0.0
 40
10.5
100
AcDbArc
 50
326.7961769999998
 51
358.4180579999999
  0
LINE
  5
A9ED
330
A8D4
100
AcDbEntity
  8
1
  6
Continuous
100
AcDbLine
 10
301.2078189999999
 20
173.45649
 30
0.0
 11
300.7077199999999
 21
173.45649
 31
0.0
  0
LINE
  5
A9EE
330
A8D4
100
AcDbEntity
  8
1
  6
Continuous
100
AcDbLine
 10
296.9118759999998
 20
175.20649
 30
0.0
 11
294.9033759999998
 21
175.20649
 31
0.0
  0
LINE
  5
A9EF
330
A8D4
100
AcDbEntity
  8
1
  6
Continuous
100
AcDbLine
 10
292.9033759999999
 20
166.7064899999998
 30
0.0
 11
294.9033759999998
 21
167.8611899999999
 31
0.0
  0
ARC
  5
A9F0
330
A8D4
100
AcDbEntity
  8
1
  6
Continuous
100
AcDbCircle
 10
291.142402
 20
160.768252
 30
0.0
 40
0.3
100
AcDbArc
 50
300.0
 51
346.2585849999999
  0
LINE
  5
A9F1
330
A8D4
100
AcDbEntity
  8
1
  6
Continuous
100
AcDbLine
 10
290.9033759999999
 20
160.2838399999999
 30
0.0
 11
291.2924019999999
 21
160.5084439999999
 31
0.0
  0
LINE
  5
A9F2
330
A8D4
100
AcDbEntity
  8
1
  6
Continuous
100
AcDbLine
 10
292.9033759999999
 20
166.7064899999998
 30
0.0
 11
291.4338149999998
 21
160.6969899999998
 31
0.0
  0
LINE
  5
A9F3
330
A8D4
100
AcDbEntity
  8
1
  6
Continuous
100
AcDbLine
 10
292.9033759999999
 20
191.7064899999998
 30
0.0
 11
291.4338149999998
 21
197.7159899999998
 31
0.0
  0
LINE
  5
A9F4
330
A8D4
100
AcDbEntity
  8
1
  6
Continuous
100
AcDbLine
 10
292.9033759999999
 20
191.7064899999998
 30
0.0
 11
294.9033759999998
 21
190.5517889999999
 31
0.0
  0
ARC
  5
A9F5
330
A8D4
100
AcDbEntity
  8
1
  6
Continuous
100
AcDbCircle
 10
291.142402
 20
197.644728
 30
0.0
 40
0.3
100
AcDbArc
 50
13.741415
 51
60.0
  0
LINE
  5
A9F6
330
A8D4
100
AcDbEntity
  8
1
  6
Continuous
100
AcDbLine
 10
296.9118759999998
 20
183.2064899999998
 30
0.0
 11
294.9033759999998
 21
183.2064899999998
 31
0.0
  0
LINE
  5
A9F7
330
A8D4
100
AcDbEntity
  8
1
  6
Continuous
100
AcDbLine
 10
290.9033759999999
 20
198.1291389999999
 30
0.0
 11
291.2924019999999
 21
197.9045349999999
 31
0.0
  0
ARC
  5
A9F8
330
A8D4
100
AcDbEntity
  8
1
  6
Continuous
100
AcDbCircle
 10
280.4033759999999
 20
156.70649
 30
0.0
 40
60.0
100
AcDbArc
 50
81.15011700000001
 51
82.16004899999999
  0
ARC
  5
A9F9
330
A8D4
100
AcDbEntity
  8
1
  6
Continuous
100
AcDbCircle
 10
271.4033759999999
 20
214.5100359999999
 30
0.0
 40
1.5
100
AcDbArc
 50
98.84988300000001
 51
180.0
  0
ARC
  5
A9FA
330
A8D4
100
AcDbEntity
  8
1
  6
Continuous
100
AcDbCircle
 10
289.4033759999999
 20
214.5100359999999
 30
0.0
 40
1.5
100
AcDbArc
 50
0.0
 51
81.15011700000001
  0
ARC
  5
A9FB
330
A8D4
100
AcDbEntity
  8
1
  6
Continuous
100
AcDbCircle
 10
285.1360389999999
 20
194.6911659999999
 30
0.0
 40
20.0
100
AcDbArc
 50
3.794623999999998
 51
17.154698
  0
ARC
  5
A9FC
330
A8D4
100
AcDbEntity
  8
1
  6
Continuous
100
AcDbCircle
 10
351.6019039999998
 20
171.25231
 30
0.0
 40
99.466508
100
AcDbArc
 50
154.2684
 51
162.845302
  0
ARC
  5
A9FD
330
A8D4
100
AcDbEntity
  8
1
  6
Continuous
100
AcDbCircle
 10
275.6707119999999
 20
194.6911659999999
 30
0.0
 40
20.0
100
AcDbArc
 50
162.845302
 51
176.205376
  0
ARC
  5
A9FE
330
A8D4
100
AcDbEntity
  8
1
  6
Continuous
100
AcDbCircle
 10
300.615904
 20
193.036659
 30
0.0
 40
45.0
100
AcDbArc
 50
176.205376
 51
206.964022
  0
ARC
  5
A9FF
330
A8D4
100
AcDbEntity
  8
1
  6
Continuous
100
AcDbCircle
 10
309.2118759999999
 20
168.0979589999998
 30
0.0
 40
10.0
100
AcDbArc
 50
153.0359779999998
 51
180.0
  0
ARC
  5
AA00
330
A8D4
100
AcDbEntity
  8
1
  6
Continuous
100
AcDbCircle
 10
309.2118759999999
 20
167.5625419999998
 30
0.0
 40
12.3
100
AcDbArc
 50
153.677111
 51
179.329451
  0
LINE
  5
AA01
330
A8D4
100
AcDbEntity
  8
1
  6
Continuous
100
AcDbLine
 10
296.9118759999998
 20
213.302883
 30
0.0
 11
296.9118759999998
 21
167.7064899999998
 31
0.0
  0
ARC
  5
AA02
330
A8D4
100
AcDbEntity
  8
1
  6
Continuous
100
AcDbCircle
 10
251.5948759999999
 20
167.5625419999998
 30
0.0
 40
12.3
100
AcDbArc
 50
0.670549
 51
26.322889
  0
ARC
  5
AA03
330
A8D4
100
AcDbEntity
  8
1
  6
Continuous
100
AcDbCircle
 10
251.5948759999999
 20
168.0979589999998
 30
0.0
 40
10.0
100
AcDbArc
 50
0.0
 51
26.96402199999999
  0
LINE
  5
AA04
330
A8D4
100
AcDbEntity
  8
1
  6
Continuous
100
AcDbLine
 10
269.1554759999998
 20
216.137841
 30
0.0
 11
291.925433
 21
216.147012
 31
0.0
  0
ARC
  5
AA05
330
A8D4
100
AcDbEntity
  8
1
  6
Continuous
100
AcDbCircle
 10
280.4033759999999
 20
156.70649
 30
0.0
 40
60.0
100
AcDbArc
 50
97.88610400000003
 51
98.84988300000001
  0
LINE
  5
AA06
330
A8D4
100
AcDbEntity
  8
1
  6
Continuous
100
AcDbLine
 10
268.917733
 20
216.168147
 30
0.0
 11
269.1554759999998
 21
216.137841
 31
0.0
  0
ARC
  5
AA07
330
A8D4
100
AcDbEntity
  8
1
  6
Continuous
100
AcDbCircle
 10
200.065815
 20
223.994524
 30
0.0
 40
7.848514999999999
100
AcDbArc
 50
270.9161379999998
 51
314.603254
  0
LINE
  5
AA08
330
A8D4
100
AcDbEntity
  8
1
  6
Continuous
100
AcDbLine
 10
199.233205
 20
216.1478919999999
 30
0.0
 11
200.191305
 21
216.147012
 31
0.0
  0
LINE
  5
AA09
330
A8D4
100
AcDbEntity
  8
1
  6
Continuous
100
AcDbLine
 10
286.4033759999998
 20
236.7066349999999
 30
0.0
 11
286.4033759999998
 21
275.706635
 31
0.0
  0
LINE
  5
AA0A
330
A8D4
100
AcDbEntity
  8
1
  6
Continuous
100
AcDbLine
 10
274.4033759999999
 20
236.7066349999999
 30
0.0
 11
274.4033759999999
 21
275.706635
 31
0.0
  0
LINE
  5
AA0B
330
A8D4
100
AcDbEntity
  8
1
  6
Continuous
100
AcDbLine
 10
299.561757
 20
226.0064899999999
 30
0.0
 11
297.373939
 21
227.721309
 31
0.0
  0
LINE
  5
AA0C
330
A8D4
100
AcDbEntity
  8
1
  6
Continuous
100
AcDbLine
 10
298.014547
 20
226.0064899999999
 30
0.0
 11
300.2023659999999
 21
227.721309
 31
0.0
  0
LINE
  5
AA0D
330
A8D4
100
AcDbEntity
  8
1
  6
Continuous
100
AcDbLine
 10
296.6003339999998
 20
226.0064899999999
 30
0.0
 11
298.7881520000001
 21
227.721309
 31
0.0
  0
ARC
  5
AA0E
330
A8D4
100
AcDbEntity
  8
1
  6
Continuous
100
AcDbCircle
 10
297.050229
 20
226.593017
 30
0.0
 40
6.113617999999997
100
AcDbArc
 50
25.277722
 51
90.0
  0
LINE
  5
AA0F
330
A8D4
100
AcDbEntity
  8
1
  6
Continuous
100
AcDbLine
 10
257.4033759999999
 20
227.721309
 30
0.0
 11
303.4033759999999
 21
227.721309
 31
0.0
  0
LINE
  5
AA10
330
A8D4
100
AcDbEntity
  8
1
  6
Continuous
100
AcDbLine
 10
258.228292
 20
229.20357
 30
0.0
 11
302.57846
 21
229.20357
 31
0.0
  0
LINE
  5
AA11
330
A8D4
100
AcDbEntity
  8
1
  6
Continuous
100
AcDbLine
 10
267.034845
 20
226.0064899999999
 30
0.0
 11
264.847027
 21
227.721309
 31
0.0
  0
LINE
  5
AA12
330
A8D4
100
AcDbEntity
  8
1
  6
Continuous
100
AcDbLine
 10
264.073422
 20
226.0064899999999
 30
0.0
 11
266.2612399999998
 21
227.721309
 31
0.0
  0
LINE
  5
AA13
330
A8D4
100
AcDbEntity
  8
1
  6
Continuous
100
AcDbLine
 10
265.487635
 20
226.0064899999999
 30
0.0
 11
267.675454
 21
227.721309
 31
0.0
  0
LINE
  5
AA14
330
A8D4
100
AcDbEntity
  8
1
  6
Continuous
100
AcDbLine
 10
293.4033759999999
 20
236.7066349999999
 30
0.0
 11
267.4033759999999
 21
236.7066349999999
 31
0.0
  0
LINE
  5
AA15
330
A8D4
100
AcDbEntity
  8
1
  6
Continuous
100
AcDbLine
 10
297.050229
 20
232.7066349999999
 30
0.0
 11
263.756523
 21
232.7066349999999
 31
0.0
  0
ARC
  5
AA16
330
A8D4
100
AcDbEntity
  8
1
  6
Continuous
100
AcDbCircle
 10
263.756523
 20
226.593017
 30
0.0
 40
6.113617999999997
100
AcDbArc
 50
90.0
 51
154.722278
  0
LINE
  5
AA17
330
A8D4
100
AcDbEntity
  8
1
  6
Continuous
100
AcDbLine
 10
257.4033759999999
 20
227.1526779999999
 30
0.0
 11
258.5495639999999
 21
226.0064899999999
 31
0.0
  0
LINE
  5
AA18
330
A8D4
100
AcDbEntity
  8
1
  6
Continuous
100
AcDbLine
 10
257.4033759999999
 20
227.8217259999999
 30
0.0
 11
257.7759589999998
 21
227.721309
 31
0.0
  0
LINE
  5
AA19
330
A8D4
100
AcDbEntity
  8
1
  6
Continuous
100
AcDbLine
 10
257.4033759999999
 20
226.407512
 30
0.0
 11
259.190173
 21
227.721309
 31
0.0
  0
LINE
  5
AA1A
330
A8D4
100
AcDbEntity
  8
1
  6
Continuous
100
AcDbLine
 10
257.413292
 20
229.20357
 30
0.0
 11
258.228292
 21
229.20357
 31
0.0
  0
LINE
  5
AA1B
330
A8D4
100
AcDbEntity
  8
1
  6
Continuous
100
AcDbLine
 10
257.4033759999999
 20
227.721309
 30
0.0
 11
257.4033759999999
 21
226.0064899999999
 31
0.0
  0
ARC
  5
AA1C
330
A8D4
100
AcDbEntity
  8
1
  6
Continuous
100
AcDbCircle
 10
261.0147739999999
 20
230.7537979999999
 30
0.0
 40
4.697225
100
AcDbArc
 50
206.286695
 51
220.210037
  0
ARC
  5
AA1D
330
A8D4
100
AcDbEntity
  8
1
  6
Continuous
100
AcDbCircle
 10
257.6772619999999
 20
228.283717
 30
0.0
 40
0.9569799999999998
100
AcDbArc
 50
106.011913
 51
155.9597349999999
  0
LINE
  5
AA1E
330
A8D4
100
AcDbEntity
  8
1
  6
Continuous
100
AcDbLine
 10
259.963778
 20
226.0064899999999
 30
0.0
 11
257.7759589999998
 21
227.721309
 31
0.0
  0
LINE
  5
AA1F
330
A8D4
100
AcDbEntity
  8
1
  6
Continuous
100
AcDbLine
 10
261.377991
 20
226.0064899999999
 30
0.0
 11
259.190173
 21
227.721309
 31
0.0
  0
LINE
  5
AA20
330
A8D4
100
AcDbEntity
  8
1
  6
Continuous
100
AcDbLine
 10
262.7922049999999
 20
226.0064899999999
 30
0.0
 11
260.6043859999999
 21
227.721309
 31
0.0
  0
LINE
  5
AA21
330
A8D4
100
AcDbEntity
  8
1
  6
Continuous
100
AcDbLine
 10
264.2064179999999
 20
226.0064899999999
 30
0.0
 11
262.0185999999999
 21
227.721309
 31
0.0
  0
LINE
  5
AA22
330
A8D4
100
AcDbEntity
  8
1
  6
Continuous
100
AcDbLine
 10
265.6206319999999
 20
226.0064899999999
 30
0.0
 11
263.432813
 21
227.721309
 31
0.0
  0
LINE
  5
AA23
330
A8D4
100
AcDbEntity
  8
1
  6
Continuous
100
AcDbLine
 10
258.4165679999999
 20
226.0064899999999
 30
0.0
 11
260.6043859999999
 21
227.721309
 31
0.0
  0
LINE
  5
AA24
330
A8D4
100
AcDbEntity
  8
1
  6
Continuous
100
AcDbLine
 10
259.830781
 20
226.0064899999999
 30
0.0
 11
262.0185999999999
 21
227.721309
 31
0.0
  0
LINE
  5
AA25
330
A8D4
100
AcDbEntity
  8
1
  6
Continuous
100
AcDbLine
 10
261.244995
 20
226.0064899999999
 30
0.0
 11
263.432813
 21
227.721309
 31
0.0
  0
LINE
  5
AA26
330
A8D4
100
AcDbEntity
  8
1
  6
Continuous
100
AcDbLine
 10
262.6592079999999
 20
226.0064899999999
 30
0.0
 11
264.847027
 21
227.721309
 31
0.0
  0
LINE
  5
AA27
330
A8D4
100
AcDbEntity
  8
1
  6
Continuous
100
AcDbLine
 10
284.0054079999998
 20
226.0064899999999
 30
0.0
 11
281.8175899999999
 21
227.721309
 31
0.0
  0
LINE
  5
AA28
330
A8D4
100
AcDbEntity
  8
1
  6
Continuous
100
AcDbLine
 10
282.591195
 20
226.0064899999999
 30
0.0
 11
280.4033759999999
 21
227.721309
 31
0.0
  0
LINE
  5
AA29
330
A8D4
100
AcDbEntity
  8
1
  6
Continuous
100
AcDbLine
 10
281.043985
 20
226.0064899999999
 30
0.0
 11
283.2318029999999
 21
227.721309
 31
0.0
  0
LINE
  5
AA2A
330
A8D4
100
AcDbEntity
  8
1
  6
Continuous
100
AcDbLine
 10
275.520127
 20
226.0064899999999
 30
0.0
 11
273.332308
 21
227.721309
 31
0.0
  0
LINE
  5
AA2B
330
A8D4
100
AcDbEntity
  8
1
  6
Continuous
100
AcDbLine
 10
272.5587029999999
 20
226.0064899999999
 30
0.0
 11
274.746522
 21
227.721309
 31
0.0
  0
LINE
  5
AA2C
330
A8D4
100
AcDbEntity
  8
1
  6
Continuous
100
AcDbLine
 10
273.9729169999999
 20
226.0064899999999
 30
0.0
 11
276.1607349999998
 21
227.721309
 31
0.0
  0
LINE
  5
AA2D
330
A8D4
100
AcDbEntity
  8
1
  6
Continuous
100
AcDbLine
 10
268.4490589999999
 20
226.0064899999999
 30
0.0
 11
266.2612399999998
 21
227.721309
 31
0.0
  0
LINE
  5
AA2E
330
A8D4
100
AcDbEntity
  8
1
  6
Continuous
100
AcDbLine
 10
269.8632719999998
 20
226.0064899999999
 30
0.0
 11
267.675454
 21
227.721309
 31
0.0
  0
LINE
  5
AA2F
330
A8D4
100
AcDbEntity
  8
1
  6
Continuous
100
AcDbLine
 10
271.277486
 20
226.0064899999999
 30
0.0
 11
269.089667
 21
227.721309
 31
0.0
  0
LINE
  5
AA30
330
A8D4
100
AcDbEntity
  8
1
  6
Continuous
100
AcDbLine
 10
272.6917
 20
226.0064899999999
 30
0.0
 11
270.503881
 21
227.721309
 31
0.0
  0
LINE
  5
AA31
330
A8D4
100
AcDbEntity
  8
1
  6
Continuous
100
AcDbLine
 10
274.105913
 20
226.0064899999999
 30
0.0
 11
271.918095
 21
227.721309
 31
0.0
  0
LINE
  5
AA32
330
A8D4
100
AcDbEntity
  8
1
  6
Continuous
100
AcDbLine
 10
266.901849
 20
226.0064899999999
 30
0.0
 11
269.089667
 21
227.721309
 31
0.0
  0
LINE
  5
AA33
330
A8D4
100
AcDbEntity
  8
1
  6
Continuous
100
AcDbLine
 10
268.3160629999998
 20
226.0064899999999
 30
0.0
 11
270.503881
 21
227.721309
 31
0.0
  0
LINE
  5
AA34
330
A8D4
100
AcDbEntity
  8
1
  6
Continuous
100
AcDbLine
 10
269.7302759999999
 20
226.0064899999999
 30
0.0
 11
271.918095
 21
227.721309
 31
0.0
  0
LINE
  5
AA35
330
A8D4
100
AcDbEntity
  8
1
  6
Continuous
100
AcDbLine
 10
271.14449
 20
226.0064899999999
 30
0.0
 11
273.332308
 21
227.721309
 31
0.0
  0
LINE
  5
AA36
330
A8D4
100
AcDbEntity
  8
1
  6
Continuous
100
AcDbLine
 10
276.9343399999999
 20
226.0064899999999
 30
0.0
 11
274.746522
 21
227.721309
 31
0.0
  0
LINE
  5
AA37
330
A8D4
100
AcDbEntity
  8
1
  6
Continuous
100
AcDbLine
 10
278.348554
 20
226.0064899999999
 30
0.0
 11
276.1607349999998
 21
227.721309
 31
0.0
  0
LINE
  5
AA38
330
A8D4
100
AcDbEntity
  8
1
  6
Continuous
100
AcDbLine
 10
279.762767
 20
226.0064899999999
 30
0.0
 11
277.5749489999999
 21
227.721309
 31
0.0
  0
LINE
  5
AA39
330
A8D4
100
AcDbEntity
  8
1
  6
Continuous
100
AcDbLine
 10
281.176981
 20
226.0064899999999
 30
0.0
 11
278.989162
 21
227.721309
 31
0.0
  0
LINE
  5
AA3A
330
A8D4
100
AcDbEntity
  8
1
  6
Continuous
100
AcDbLine
 10
275.3871299999999
 20
226.0064899999999
 30
0.0
 11
277.5749489999999
 21
227.721309
 31
0.0
  0
LINE
  5
AA3B
330
A8D4
100
AcDbEntity
  8
1
  6
Continuous
100
AcDbLine
 10
276.8013439999999
 20
226.0064899999999
 30
0.0
 11
278.989162
 21
227.721309
 31
0.0
  0
LINE
  5
AA3C
330
A8D4
100
AcDbEntity
  8
1
  6
Continuous
100
AcDbLine
 10
279.629771
 20
226.0064899999999
 30
0.0
 11
281.8175899999999
 21
227.721309
 31
0.0
  0
LINE
  5
AA3D
330
A8D4
100
AcDbEntity
  8
1
  6
Continuous
100
AcDbLine
 10
278.215557
 20
226.0064899999999
 30
0.0
 11
280.4033759999999
 21
227.721309
 31
0.0
  0
LINE
  5
AA3E
330
A8D4
100
AcDbEntity
  8
1
  6
Continuous
100
AcDbLine
 10
292.4906889999999
 20
226.0064899999999
 30
0.0
 11
290.302871
 21
227.721309
 31
0.0
  0
LINE
  5
AA3F
330
A8D4
100
AcDbEntity
  8
1
  6
Continuous
100
AcDbLine
 10
291.0764759999998
 20
226.0064899999999
 30
0.0
 11
288.888657
 21
227.721309
 31
0.0
  0
LINE
  5
AA40
330
A8D4
100
AcDbEntity
  8
1
  6
Continuous
100
AcDbLine
 10
289.5292659999999
 20
226.0064899999999
 30
0.0
 11
291.717084
 21
227.721309
 31
0.0
  0
LINE
  5
AA41
330
A8D4
100
AcDbEntity
  8
1
  6
Continuous
100
AcDbLine
 10
289.662262
 20
226.0064899999999
 30
0.0
 11
287.474444
 21
227.721309
 31
0.0
  0
LINE
  5
AA42
330
A8D4
100
AcDbEntity
  8
1
  6
Continuous
100
AcDbLine
 10
288.2480489999998
 20
226.0064899999999
 30
0.0
 11
286.06023
 21
227.721309
 31
0.0
  0
LINE
  5
AA43
330
A8D4
100
AcDbEntity
  8
1
  6
Continuous
100
AcDbLine
 10
286.833835
 20
226.0064899999999
 30
0.0
 11
284.6460169999998
 21
227.721309
 31
0.0
  0
LINE
  5
AA44
330
A8D4
100
AcDbEntity
  8
1
  6
Continuous
100
AcDbLine
 10
285.419622
 20
226.0064899999999
 30
0.0
 11
283.2318029999999
 21
227.721309
 31
0.0
  0
LINE
  5
AA45
330
A8D4
100
AcDbEntity
  8
1
  6
Continuous
100
AcDbLine
 10
288.1150519999998
 20
226.0064899999999
 30
0.0
 11
290.302871
 21
227.721309
 31
0.0
  0
LINE
  5
AA46
330
A8D4
100
AcDbEntity
  8
1
  6
Continuous
100
AcDbLine
 10
286.7008389999999
 20
226.0064899999999
 30
0.0
 11
288.888657
 21
227.721309
 31
0.0
  0
LINE
  5
AA47
330
A8D4
100
AcDbEntity
  8
1
  6
Continuous
100
AcDbLine
 10
285.286625
 20
226.0064899999999
 30
0.0
 11
287.474444
 21
227.721309
 31
0.0
  0
LINE
  5
AA48
330
A8D4
100
AcDbEntity
  8
1
  6
Continuous
100
AcDbLine
 10
283.872412
 20
226.0064899999999
 30
0.0
 11
286.06023
 21
227.721309
 31
0.0
  0
LINE
  5
AA49
330
A8D4
100
AcDbEntity
  8
1
  6
Continuous
100
AcDbLine
 10
282.4581979999999
 20
226.0064899999999
 30
0.0
 11
284.6460169999998
 21
227.721309
 31
0.0
  0
LINE
  5
AA4A
330
A8D4
100
AcDbEntity
  8
1
  6
Continuous
100
AcDbLine
 10
298.147544
 20
226.0064899999999
 30
0.0
 11
295.9597249999998
 21
227.721309
 31
0.0
  0
LINE
  5
AA4B
330
A8D4
100
AcDbEntity
  8
1
  6
Continuous
100
AcDbLine
 10
296.7333299999999
 20
226.0064899999999
 30
0.0
 11
294.5455119999999
 21
227.721309
 31
0.0
  0
LINE
  5
AA4C
330
A8D4
100
AcDbEntity
  8
1
  6
Continuous
100
AcDbLine
 10
295.319117
 20
226.0064899999999
 30
0.0
 11
293.131298
 21
227.721309
 31
0.0
  0
LINE
  5
AA4D
330
A8D4
100
AcDbEntity
  8
1
  6
Continuous
100
AcDbLine
 10
293.9049029999998
 20
226.0064899999999
 30
0.0
 11
291.717084
 21
227.721309
 31
0.0
  0
LINE
  5
AA4E
330
A8D4
100
AcDbEntity
  8
1
  6
Continuous
100
AcDbLine
 10
295.18612
 20
226.0064899999999
 30
0.0
 11
297.373939
 21
227.721309
 31
0.0
  0
LINE
  5
AA4F
330
A8D4
100
AcDbEntity
  8
1
  6
Continuous
100
AcDbLine
 10
293.7719069999999
 20
226.0064899999999
 30
0.0
 11
295.9597249999998
 21
227.721309
 31
0.0
  0
LINE
  5
AA50
330
A8D4
100
AcDbEntity
  8
1
  6
Continuous
100
AcDbLine
 10
292.3576929999999
 20
226.0064899999999
 30
0.0
 11
294.5455119999999
 21
227.721309
 31
0.0
  0
LINE
  5
AA51
330
A8D4
100
AcDbEntity
  8
1
  6
Continuous
100
AcDbLine
 10
290.9434799999999
 20
226.0064899999999
 30
0.0
 11
293.131298
 21
227.721309
 31
0.0
  0
LINE
  5
AA52
330
A8D4
100
AcDbEntity
  8
1
  6
Continuous
100
AcDbLine
 10
303.4033759999999
 20
226.407512
 30
0.0
 11
301.616579
 21
227.721309
 31
0.0
  0
LINE
  5
AA53
330
A8D4
100
AcDbEntity
  8
1
  6
Continuous
100
AcDbLine
 10
302.3901839999999
 20
226.0064899999999
 30
0.0
 11
300.2023659999999
 21
227.721309
 31
0.0
  0
LINE
  5
AA54
330
A8D4
100
AcDbEntity
  8
1
  6
Continuous
100
AcDbLine
 10
300.975971
 20
226.0064899999999
 30
0.0
 11
298.7881520000001
 21
227.721309
 31
0.0
  0
LINE
  5
AA55
330
A8D4
100
AcDbEntity
  8
1
  6
Continuous
100
AcDbLine
 10
302.257188
 20
226.0064899999999
 30
0.0
 11
303.4033759999999
 21
227.1526779999999
 31
0.0
  0
LINE
  5
AA56
330
A8D4
100
AcDbEntity
  8
1
  6
Continuous
100
AcDbLine
 10
300.842974
 20
226.0064899999999
 30
0.0
 11
303.030793
 21
227.721309
 31
0.0
  0
LINE
  5
AA57
330
A8D4
100
AcDbEntity
  8
1
  6
Continuous
100
AcDbLine
 10
299.428761
 20
226.0064899999999
 30
0.0
 11
301.616579
 21
227.721309
 31
0.0
  0
LINE
  5
AA58
330
A8D4
100
AcDbEntity
  8
1
  6
Continuous
100
AcDbLine
 10
303.4033759999999
 20
227.721309
 30
0.0
 11
303.4033759999999
 21
226.0064899999999
 31
0.0
  0
LINE
  5
AA59
330
A8D4
100
AcDbEntity
  8
1
  6
Continuous
100
AcDbLine
 10
303.39346
 20
229.20357
 30
0.0
 11
302.57846
 21
229.20357
 31
0.0
  0
LINE
  5
AA5A
330
A8D4
100
AcDbEntity
  8
1
  6
Continuous
100
AcDbLine
 10
303.4033759999999
 20
227.8217259999999
 30
0.0
 11
303.030793
 21
227.721309
 31
0.0
  0
ARC
  5
AA5B
330
A8D4
100
AcDbEntity
  8
1
  6
Continuous
100
AcDbCircle
 10
299.7919779999999
 20
230.7537979999999
 30
0.0
 40
4.697225
100
AcDbArc
 50
319.789963
 51
333.713305
  0
ARC
  5
AA5C
330
A8D4
100
AcDbEntity
  8
1
  6
Continuous
100
AcDbCircle
 10
303.1294889999998
 20
228.283717
 30
0.0
 40
0.9569799999999998
100
AcDbArc
 50
24.04026499999999
 51
73.98808699999998
  0
CIRCLE
  5
AA5D
330
A8D4
100
AcDbEntity
  8
1
  6
Continuous
100
AcDbCircle
 10
188.169172
 20
343.5054979999998
 30
0.0
 40
22.99008399999999
  0
CIRCLE
  5
AA5E
330
A8D4
100
AcDbEntity
  8
1
  6
Continuous
100
AcDbCircle
 10
188.169172
 20
343.5054979999998
 30
0.0
 40
23.60008399999999
  0
CIRCLE
  5
AA5F
330
A8D4
100
AcDbEntity
  8
1
  6
Continuous
100
AcDbCircle
 10
188.169172
 20
343.5054979999998
 30
0.0
 40
22.17508399999999
  0
LINE
  5
AA60
330
A8D4
100
AcDbEntity
  8
1
  6
Continuous
100
AcDbLine
 10
274.4033759999999
 20
275.706635
 30
0.0
 11
275.4033759999999
 21
276.7066349999999
 31
0.0
  0
LINE
  5
AA61
330
A8D4
100
AcDbEntity
  8
1
  6
Continuous
100
AcDbLine
 10
274.4033759999999
 20
275.706635
 30
0.0
 11
286.4033759999998
 21
275.706635
 31
0.0
  0
LINE
  5
AA62
330
A8D4
100
AcDbEntity
  8
1
  6
Continuous
100
AcDbLine
 10
285.4033759999999
 20
276.7066349999999
 30
0.0
 11
275.4033759999999
 21
276.7066349999999
 31
0.0
  0
LINE
  5
AA63
330
A8D4
100
AcDbEntity
  8
1
  6
Continuous
100
AcDbLine
 10
286.4033759999998
 20
275.706635
 30
0.0
 11
285.4033759999999
 21
276.7066349999999
 31
0.0
  0
LINE
  5
AA64
330
A8D4
100
AcDbEntity
  8
1
  6
Continuous
100
AcDbLine
 10
196.1747259999999
 20
330.5054979999998
 30
0.0
 11
203.680279
 21
343.5054979999998
 31
0.0
  0
LINE
  5
AA65
330
A8D4
100
AcDbEntity
  8
1
  6
Continuous
100
AcDbLine
 10
196.1747259999999
 20
356.5054979999999
 30
0.0
 11
203.680279
 21
343.5054979999998
 31
0.0
  0
CIRCLE
  5
AA66
330
A8D4
100
AcDbEntity
  8
1
  6
Continuous
100
AcDbCircle
 10
188.6691719999998
 20
343.5054979999998
 30
0.0
 40
6.0
  0
LINE
  5
AA67
330
A8D4
100
AcDbEntity
  8
1
  6
Continuous
100
AcDbLine
 10
173.658065
 20
343.5054979999998
 30
0.0
 11
181.1636189999999
 21
356.5054979999999
 31
0.0
  0
LINE
  5
AA68
330
A8D4
100
AcDbEntity
  8
1
  6
Continuous
100
AcDbLine
 10
181.1636189999999
 20
330.5054979999998
 30
0.0
 11
196.1747259999999
 21
330.5054979999998
 31
0.0
  0
LINE
  5
AA69
330
A8D4
100
AcDbEntity
  8
1
  6
Continuous
100
AcDbLine
 10
173.658065
 20
343.5054979999998
 30
0.0
 11
181.1636189999999
 21
330.5054979999998
 31
0.0
  0
LINE
  5
AA6A
330
A8D4
100
AcDbEntity
  8
1
  6
Continuous
100
AcDbLine
 10
181.1636189999999
 20
356.5054979999999
 30
0.0
 11
196.1747259999999
 21
356.5054979999999
 31
0.0
  0
ARC
  5
AA6B
330
A8D4
100
AcDbEntity
  8
1
  6
Continuous
100
AcDbCircle
 10
180.8446439999999
 20
343.5054979999998
 30
0.0
 40
24.350289
100
AcDbArc
 50
141.9747179999999
 51
218.0252819999998
  0
LINE
  5
AA6C
330
A8D4
100
AcDbEntity
  8
1
  6
Continuous
100
AcDbLine
 10
160.69432
 20
324.696998
 30
0.0
 11
161.6629709999999
 21
328.5054979999998
 31
0.0
  0
LINE
  5
AA6D
330
A8D4
100
AcDbEntity
  8
1
  6
Continuous
100
AcDbLine
 10
160.694321
 20
362.313998
 30
0.0
 11
161.6629709999999
 21
358.5054979999999
 31
0.0
  0
LINE
  5
AA6E
330
A8D4
100
AcDbEntity
  8
1
  6
Continuous
100
AcDbLine
 10
267.4033759999999
 20
236.7066349999999
 30
0.0
 11
267.4033759999999
 21
232.7066349999999
 31
0.0
  0
LINE
  5
AA6F
330
A8D4
100
AcDbEntity
  8
1
  6
Continuous
100
AcDbLine
 10
280.4033759999999
 20
236.7066349999999
 30
0.0
 11
280.4033759999999
 21
232.7066349999999
 31
0.0
  0
LINE
  5
AA70
330
A8D4
100
AcDbEntity
  8
1
  6
Continuous
100
AcDbLine
 10
293.4033759999999
 20
236.7066349999999
 30
0.0
 11
293.4033759999999
 21
232.7066349999999
 31
0.0
  0
CIRCLE
  5
AA71
330
A8D4
100
AcDbEntity
  8
2
  6
Continuous
100
AcDbCircle
 10
188.6691719999998
 20
343.5054979999998
 30
0.0
 40
5.3235
  0
ARC
  5
AA72
330
A8D4
100
AcDbEntity
  8
1
  6
Continuous
100
AcDbCircle
 10
188.6691719999998
 20
343.5054979999998
 30
0.0
 40
24.75
100
AcDbArc
 50
235.998362
 51
124.0016379999999
  0
LINE
  5
AA73
330
A8D4
100
AcDbEntity
  8
2
  6
Continuous
100
AcDbLine
 10
275.0798759999999
 20
237.878433
 30
0.0
 11
275.0798759999999
 21
276.3831349999999
 31
0.0
  0
LINE
  5
AA74
330
A8D4
100
AcDbEntity
  8
2
  6
Continuous
100
AcDbLine
 10
285.726876
 20
237.878433
 30
0.0
 11
285.726876
 21
276.3831349999999
 31
0.0
  0
LINE
  5
AA75
330
A8D4
100
AcDbEntity
  8
1
  6
Continuous
100
AcDbLine
 10
37.02957700000001
 20
229.20357
 30
0.0
 11
81.379745
 21
229.20357
 31
0.0
  0
LINE
  5
AA76
330
A8D4
100
AcDbEntity
  8
1
  6
Continuous
100
AcDbLine
 10
36.204661
 20
227.721309
 30
0.0
 11
82.20466100000001
 21
227.721309
 31
0.0
  0
LINE
  5
AA77
330
A8D4
100
AcDbEntity
  8
1
  6
Continuous
100
AcDbLine
 10
75.85151399999998
 20
232.7066349999999
 30
0.0
 11
42.557808
 21
232.7066349999999
 31
0.0
  0
LINE
  5
AA78
330
A8D4
100
AcDbEntity
  8
1
  6
Continuous
100
AcDbLine
 10
49.945775
 20
226.0064899999999
 30
0.0
 11
52.133593
 21
227.721309
 31
0.0
  0
LINE
  5
AA79
330
A8D4
100
AcDbEntity
  8
1
  6
Continuous
100
AcDbLine
 10
52.907198
 20
226.0064899999999
 30
0.0
 11
50.71938
 21
227.721309
 31
0.0
  0
LINE
  5
AA7A
330
A8D4
100
AcDbEntity
  8
1
  6
Continuous
100
AcDbLine
 10
51.359988
 20
226.0064899999999
 30
0.0
 11
53.54780699999999
 21
227.721309
 31
0.0
  0
LINE
  5
AA7B
330
A8D4
100
AcDbEntity
  8
1
  6
Continuous
100
AcDbLine
 10
72.204661
 20
236.7066349999999
 30
0.0
 11
46.204661
 21
236.7066349999999
 31
0.0
  0
LINE
  5
AA7C
330
A8D4
100
AcDbEntity
  8
1
  6
Continuous
100
AcDbLine
 10
47.250344
 20
226.0064899999999
 30
0.0
 11
45.062525
 21
227.721309
 31
0.0
  0
LINE
  5
AA7D
330
A8D4
100
AcDbEntity
  8
1
  6
Continuous
100
AcDbLine
 10
44.28892
 20
226.0064899999999
 30
0.0
 11
46.476739
 21
227.721309
 31
0.0
  0
LINE
  5
AA7E
330
A8D4
100
AcDbEntity
  8
1
  6
Continuous
100
AcDbLine
 10
45.83612999999998
 20
226.0064899999999
 30
0.0
 11
43.648312
 21
227.721309
 31
0.0
  0
LINE
  5
AA7F
330
A8D4
100
AcDbEntity
  8
1
  6
Continuous
100
AcDbLine
 10
41.460493
 20
226.0064899999999
 30
0.0
 11
43.648312
 21
227.721309
 31
0.0
  0
LINE
  5
AA80
330
A8D4
100
AcDbEntity
  8
1
  6
Continuous
100
AcDbLine
 10
40.04627999999999
 20
226.0064899999999
 30
0.0
 11
42.23409799999997
 21
227.721309
 31
0.0
  0
LINE
  5
AA81
330
A8D4
100
AcDbEntity
  8
1
  6
Continuous
100
AcDbLine
 10
38.63206599999998
 20
226.0064899999999
 30
0.0
 11
40.819885
 21
227.721309
 31
0.0
  0
LINE
  5
AA82
330
A8D4
100
AcDbEntity
  8
1
  6
Continuous
100
AcDbLine
 10
37.217853
 20
226.0064899999999
 30
0.0
 11
39.40567099999999
 21
227.721309
 31
0.0
  0
LINE
  5
AA83
330
A8D4
100
AcDbEntity
  8
1
  6
Continuous
100
AcDbLine
 10
44.421917
 20
226.0064899999999
 30
0.0
 11
42.23409799999997
 21
227.721309
 31
0.0
  0
LINE
  5
AA84
330
A8D4
100
AcDbEntity
  8
1
  6
Continuous
100
AcDbLine
 10
43.00770299999999
 20
226.0064899999999
 30
0.0
 11
40.819885
 21
227.721309
 31
0.0
  0
LINE
  5
AA85
330
A8D4
100
AcDbEntity
  8
1
  6
Continuous
100
AcDbLine
 10
41.59349
 20
226.0064899999999
 30
0.0
 11
39.40567099999999
 21
227.721309
 31
0.0
  0
LINE
  5
AA86
330
A8D4
100
AcDbEntity
  8
1
  6
Continuous
100
AcDbLine
 10
40.179276
 20
226.0064899999999
 30
0.0
 11
37.991458
 21
227.721309
 31
0.0
  0
LINE
  5
AA87
330
A8D4
100
AcDbEntity
  8
1
  6
Continuous
100
AcDbLine
 10
38.76506299999999
 20
226.0064899999999
 30
0.0
 11
36.577244
 21
227.721309
 31
0.0
  0
LINE
  5
AA88
330
A8D4
100
AcDbEntity
  8
1
  6
Continuous
100
AcDbLine
 10
36.204661
 20
226.407512
 30
0.0
 11
37.991458
 21
227.721309
 31
0.0
  0
LINE
  5
AA89
330
A8D4
100
AcDbEntity
  8
1
  6
Continuous
100
AcDbLine
 10
36.204661
 20
227.1526779999999
 30
0.0
 11
37.35084899999999
 21
226.0064899999999
 31
0.0
  0
LINE
  5
AA8A
330
A8D4
100
AcDbEntity
  8
1
  6
Continuous
100
AcDbLine
 10
42.874707
 20
226.0064899999999
 30
0.0
 11
45.062525
 21
227.721309
 31
0.0
  0
LINE
  5
AA8B
330
A8D4
100
AcDbEntity
  8
1
  6
Continuous
100
AcDbLine
 10
51.492985
 20
226.0064899999999
 30
0.0
 11
49.305166
 21
227.721309
 31
0.0
  0
LINE
  5
AA8C
330
A8D4
100
AcDbEntity
  8
1
  6
Continuous
100
AcDbLine
 10
48.53156099999999
 20
226.0064899999999
 30
0.0
 11
50.71938
 21
227.721309
 31
0.0
  0
LINE
  5
AA8D
330
A8D4
100
AcDbEntity
  8
1
  6
Continuous
100
AcDbLine
 10
47.117348
 20
226.0064899999999
 30
0.0
 11
49.305166
 21
227.721309
 31
0.0
  0
LINE
  5
AA8E
330
A8D4
100
AcDbEntity
  8
1
  6
Continuous
100
AcDbLine
 10
45.70313399999998
 20
226.0064899999999
 30
0.0
 11
47.890952
 21
227.721309
 31
0.0
  0
LINE
  5
AA8F
330
A8D4
100
AcDbEntity
  8
1
  6
Continuous
100
AcDbLine
 10
50.078771
 20
226.0064899999999
 30
0.0
 11
47.890952
 21
227.721309
 31
0.0
  0
LINE
  5
AA90
330
A8D4
100
AcDbEntity
  8
1
  6
Continuous
100
AcDbLine
 10
48.664557
 20
226.0064899999999
 30
0.0
 11
46.476739
 21
227.721309
 31
0.0
  0
LINE
  5
AA91
330
A8D4
100
AcDbEntity
  8
1
  6
Continuous
100
AcDbLine
 10
36.204661
 20
227.721309
 30
0.0
 11
36.204661
 21
226.0064899999999
 31
0.0
  0
ARC
  5
AA92
330
A8D4
100
AcDbEntity
  8
1
  6
Continuous
100
AcDbCircle
 10
36.47854699999999
 20
228.283717
 30
0.0
 40
0.9569799999999998
100
AcDbArc
 50
106.011913
 51
155.9597349999999
  0
ARC
  5
AA93
330
A8D4
100
AcDbEntity
  8
1
  6
Continuous
100
AcDbCircle
 10
39.816059
 20
230.7537979999999
 30
0.0
 40
4.697225
100
AcDbArc
 50
206.286695
 51
220.210037
  0
LINE
  5
AA94
330
A8D4
100
AcDbEntity
  8
1
  6
Continuous
100
AcDbLine
 10
36.214577
 20
229.20357
 30
0.0
 11
37.02957700000001
 21
229.20357
 31
0.0
  0
LINE
  5
AA95
330
A8D4
100
AcDbEntity
  8
1
  6
Continuous
100
AcDbLine
 10
36.204661
 20
227.3487259999999
 30
0.0
 11
36.577244
 21
227.721309
 31
0.0
  0
ARC
  5
AA96
330
A8D4
100
AcDbEntity
  8
1
  6
Continuous
100
AcDbCircle
 10
42.557808
 20
226.593017
 30
0.0
 40
6.113617999999997
100
AcDbArc
 50
90.0
 51
154.722278
  0
LINE
  5
AA97
330
A8D4
100
AcDbEntity
  8
1
  6
Continuous
100
AcDbLine
 10
65.204661
 20
236.7066349999999
 30
0.0
 11
65.204661
 21
275.706635
 31
0.0
  0
LINE
  5
AA98
330
A8D4
100
AcDbEntity
  8
1
  6
Continuous
100
AcDbLine
 10
53.204661
 20
236.7066349999999
 30
0.0
 11
53.204661
 21
275.706635
 31
0.0
  0
LINE
  5
AA99
330
A8D4
100
AcDbEntity
  8
2
  6
Continuous
100
AcDbLine
 10
53.881161
 20
237.878433
 30
0.0
 11
53.881161
 21
276.3831349999999
 31
0.0
  0
LINE
  5
AA9A
330
A8D4
100
AcDbEntity
  8
2
  6
Continuous
100
AcDbLine
 10
64.52816099999998
 20
237.878433
 30
0.0
 11
64.52816099999998
 21
276.3831349999999
 31
0.0
  0
LINE
  5
AA9B
330
A8D4
100
AcDbEntity
  8
1
  6
Continuous
100
AcDbLine
 10
75.40161899999998
 20
226.0064899999999
 30
0.0
 11
77.589437
 21
227.721309
 31
0.0
  0
LINE
  5
AA9C
330
A8D4
100
AcDbEntity
  8
1
  6
Continuous
100
AcDbLine
 10
76.815832
 20
226.0064899999999
 30
0.0
 11
79.00365100000001
 21
227.721309
 31
0.0
  0
LINE
  5
AA9D
330
A8D4
100
AcDbEntity
  8
1
  6
Continuous
100
AcDbLine
 10
78.36304199999998
 20
226.0064899999999
 30
0.0
 11
76.175224
 21
227.721309
 31
0.0
  0
LINE
  5
AA9E
330
A8D4
100
AcDbEntity
  8
1
  6
Continuous
100
AcDbLine
 10
61.25948300000001
 20
226.0064899999999
 30
0.0
 11
63.447302
 21
227.721309
 31
0.0
  0
LINE
  5
AA9F
330
A8D4
100
AcDbEntity
  8
1
  6
Continuous
100
AcDbLine
 10
59.84526999999999
 20
226.0064899999999
 30
0.0
 11
62.033088
 21
227.721309
 31
0.0
  0
LINE
  5
AAA0
330
A8D4
100
AcDbEntity
  8
1
  6
Continuous
100
AcDbLine
 10
61.39248000000001
 20
226.0064899999999
 30
0.0
 11
59.204661
 21
227.721309
 31
0.0
  0
LINE
  5
AAA1
330
A8D4
100
AcDbEntity
  8
1
  6
Continuous
100
AcDbLine
 10
62.806693
 20
226.0064899999999
 30
0.0
 11
60.618875
 21
227.721309
 31
0.0
  0
LINE
  5
AAA2
330
A8D4
100
AcDbEntity
  8
1
  6
Continuous
100
AcDbLine
 10
57.01684199999998
 20
226.0064899999999
 30
0.0
 11
59.204661
 21
227.721309
 31
0.0
  0
LINE
  5
AAA3
330
A8D4
100
AcDbEntity
  8
1
  6
Continuous
100
AcDbLine
 10
58.43105600000001
 20
226.0064899999999
 30
0.0
 11
60.618875
 21
227.721309
 31
0.0
  0
LINE
  5
AAA4
330
A8D4
100
AcDbEntity
  8
1
  6
Continuous
100
AcDbLine
 10
55.602629
 20
226.0064899999999
 30
0.0
 11
57.790447
 21
227.721309
 31
0.0
  0
LINE
  5
AAA5
330
A8D4
100
AcDbEntity
  8
1
  6
Continuous
100
AcDbLine
 10
54.188415
 20
226.0064899999999
 30
0.0
 11
56.37623399999998
 21
227.721309
 31
0.0
  0
LINE
  5
AAA6
330
A8D4
100
AcDbEntity
  8
1
  6
Continuous
100
AcDbLine
 10
59.97826599999999
 20
226.0064899999999
 30
0.0
 11
57.790447
 21
227.721309
 31
0.0
  0
LINE
  5
AAA7
330
A8D4
100
AcDbEntity
  8
1
  6
Continuous
100
AcDbLine
 10
58.56405200000001
 20
226.0064899999999
 30
0.0
 11
56.37623399999998
 21
227.721309
 31
0.0
  0
LINE
  5
AAA8
330
A8D4
100
AcDbEntity
  8
1
  6
Continuous
100
AcDbLine
 10
57.149839
 20
226.0064899999999
 30
0.0
 11
54.96202
 21
227.721309
 31
0.0
  0
LINE
  5
AAA9
330
A8D4
100
AcDbEntity
  8
1
  6
Continuous
100
AcDbLine
 10
55.735625
 20
226.0064899999999
 30
0.0
 11
53.54780699999999
 21
227.721309
 31
0.0
  0
LINE
  5
AAAA
330
A8D4
100
AcDbEntity
  8
1
  6
Continuous
100
AcDbLine
 10
52.774202
 20
226.0064899999999
 30
0.0
 11
54.96202
 21
227.721309
 31
0.0
  0
LINE
  5
AAAB
330
A8D4
100
AcDbEntity
  8
1
  6
Continuous
100
AcDbLine
 10
54.321412
 20
226.0064899999999
 30
0.0
 11
52.133593
 21
227.721309
 31
0.0
  0
LINE
  5
AAAC
330
A8D4
100
AcDbEntity
  8
1
  6
Continuous
100
AcDbLine
 10
65.50212399999999
 20
226.0064899999999
 30
0.0
 11
67.689942
 21
227.721309
 31
0.0
  0
LINE
  5
AAAD
330
A8D4
100
AcDbEntity
  8
1
  6
Continuous
100
AcDbLine
 10
66.916337
 20
226.0064899999999
 30
0.0
 11
69.104156
 21
227.721309
 31
0.0
  0
LINE
  5
AAAE
330
A8D4
100
AcDbEntity
  8
1
  6
Continuous
100
AcDbLine
 10
68.46354699999999
 20
226.0064899999999
 30
0.0
 11
66.275729
 21
227.721309
 31
0.0
  0
LINE
  5
AAAF
330
A8D4
100
AcDbEntity
  8
1
  6
Continuous
100
AcDbLine
 10
62.67369699999999
 20
226.0064899999999
 30
0.0
 11
64.861515
 21
227.721309
 31
0.0
  0
LINE
  5
AAB0
330
A8D4
100
AcDbEntity
  8
1
  6
Continuous
100
AcDbLine
 10
64.08790999999999
 20
226.0064899999999
 30
0.0
 11
66.275729
 21
227.721309
 31
0.0
  0
LINE
  5
AAB1
330
A8D4
100
AcDbEntity
  8
1
  6
Continuous
100
AcDbLine
 10
64.220907
 20
226.0064899999999
 30
0.0
 11
62.033088
 21
227.721309
 31
0.0
  0
LINE
  5
AAB2
330
A8D4
100
AcDbEntity
  8
1
  6
Continuous
100
AcDbLine
 10
65.63512
 20
226.0064899999999
 30
0.0
 11
63.447302
 21
227.721309
 31
0.0
  0
LINE
  5
AAB3
330
A8D4
100
AcDbEntity
  8
1
  6
Continuous
100
AcDbLine
 10
67.049334
 20
226.0064899999999
 30
0.0
 11
64.861515
 21
227.721309
 31
0.0
  0
LINE
  5
AAB4
330
A8D4
100
AcDbEntity
  8
1
  6
Continuous
100
AcDbLine
 10
69.744765
 20
226.0064899999999
 30
0.0
 11
71.932583
 21
227.721309
 31
0.0
  0
LINE
  5
AAB5
330
A8D4
100
AcDbEntity
  8
1
  6
Continuous
100
AcDbLine
 10
71.15897800000002
 20
226.0064899999999
 30
0.0
 11
73.34679699999998
 21
227.721309
 31
0.0
  0
LINE
  5
AAB6
330
A8D4
100
AcDbEntity
  8
1
  6
Continuous
100
AcDbLine
 10
72.57319200000002
 20
226.0064899999999
 30
0.0
 11
74.76100999999998
 21
227.721309
 31
0.0
  0
LINE
  5
AAB7
330
A8D4
100
AcDbEntity
  8
1
  6
Continuous
100
AcDbLine
 10
73.98740500000002
 20
226.0064899999999
 30
0.0
 11
76.175224
 21
227.721309
 31
0.0
  0
LINE
  5
AAB8
330
A8D4
100
AcDbEntity
  8
1
  6
Continuous
100
AcDbLine
 10
72.70618799999998
 20
226.0064899999999
 30
0.0
 11
70.51836899999996
 21
227.721309
 31
0.0
  0
LINE
  5
AAB9
330
A8D4
100
AcDbEntity
  8
1
  6
Continuous
100
AcDbLine
 10
74.12040199999998
 20
226.0064899999999
 30
0.0
 11
71.932583
 21
227.721309
 31
0.0
  0
LINE
  5
AABA
330
A8D4
100
AcDbEntity
  8
1
  6
Continuous
100
AcDbLine
 10
75.534615
 20
226.0064899999999
 30
0.0
 11
73.34679699999998
 21
227.721309
 31
0.0
  0
LINE
  5
AABB
330
A8D4
100
AcDbEntity
  8
1
  6
Continuous
100
AcDbLine
 10
76.948829
 20
226.0064899999999
 30
0.0
 11
74.76100999999998
 21
227.721309
 31
0.0
  0
LINE
  5
AABC
330
A8D4
100
AcDbEntity
  8
1
  6
Continuous
100
AcDbLine
 10
68.330551
 20
226.0064899999999
 30
0.0
 11
70.51836899999996
 21
227.721309
 31
0.0
  0
LINE
  5
AABD
330
A8D4
100
AcDbEntity
  8
1
  6
Continuous
100
AcDbLine
 10
69.87776099999999
 20
226.0064899999999
 30
0.0
 11
67.689942
 21
227.721309
 31
0.0
  0
LINE
  5
AABE
330
A8D4
100
AcDbEntity
  8
1
  6
Continuous
100
AcDbLine
 10
71.29197399999998
 20
226.0064899999999
 30
0.0
 11
69.104156
 21
227.721309
 31
0.0
  0
LINE
  5
AABF
330
A8D4
100
AcDbEntity
  8
1
  6
Continuous
100
AcDbLine
 10
78.230046
 20
226.0064899999999
 30
0.0
 11
80.41786399999997
 21
227.721309
 31
0.0
  0
LINE
  5
AAC0
330
A8D4
100
AcDbEntity
  8
1
  6
Continuous
100
AcDbLine
 10
79.64425899999998
 20
226.0064899999999
 30
0.0
 11
81.83207800000003
 21
227.721309
 31
0.0
  0
LINE
  5
AAC1
330
A8D4
100
AcDbEntity
  8
1
  6
Continuous
100
AcDbLine
 10
81.05847299999998
 20
226.0064899999999
 30
0.0
 11
82.20466100000001
 21
227.1526779999999
 31
0.0
  0
LINE
  5
AAC2
330
A8D4
100
AcDbEntity
  8
1
  6
Continuous
100
AcDbLine
 10
79.77725599999998
 20
226.0064899999999
 30
0.0
 11
77.589437
 21
227.721309
 31
0.0
  0
LINE
  5
AAC3
330
A8D4
100
AcDbEntity
  8
1
  6
Continuous
100
AcDbLine
 10
81.191469
 20
226.0064899999999
 30
0.0
 11
79.00365100000001
 21
227.721309
 31
0.0
  0
LINE
  5
AAC4
330
A8D4
100
AcDbEntity
  8
1
  6
Continuous
100
AcDbLine
 10
82.20466100000001
 20
226.407512
 30
0.0
 11
80.41786399999997
 21
227.721309
 31
0.0
  0
LINE
  5
AAC5
330
A8D4
100
AcDbEntity
  8
1
  6
Continuous
100
AcDbLine
 10
82.20466100000001
 20
227.721309
 30
0.0
 11
82.20466100000001
 21
226.0064899999999
 31
0.0
  0
ARC
  5
AAC6
330
A8D4
100
AcDbEntity
  8
1
  6
Continuous
100
AcDbCircle
 10
75.85151399999998
 20
226.593017
 30
0.0
 40
6.113617999999997
100
AcDbArc
 50
25.277722
 51
90.0
  0
ARC
  5
AAC7
330
A8D4
100
AcDbEntity
  8
1
  6
Continuous
100
AcDbCircle
 10
81.93077399999998
 20
228.283717
 30
0.0
 40
0.9569799999999998
100
AcDbArc
 50
24.04026499999999
 51
73.98808699999998
  0
ARC
  5
AAC8
330
A8D4
100
AcDbEntity
  8
1
  6
Continuous
100
AcDbCircle
 10
78.59326299999998
 20
230.7537979999999
 30
0.0
 40
4.697225
100
AcDbArc
 50
319.789963
 51
333.713305
  0
LINE
  5
AAC9
330
A8D4
100
AcDbEntity
  8
1
  6
Continuous
100
AcDbLine
 10
82.20466100000001
 20
227.3487259999999
 30
0.0
 11
81.83207800000003
 21
227.721309
 31
0.0
  0
LINE
  5
AACA
330
A8D4
100
AcDbEntity
  8
1
  6
Continuous
100
AcDbLine
 10
82.194745
 20
229.20357
 30
0.0
 11
81.379745
 21
229.20357
 31
0.0
  0
LINE
  5
AACB
330
A8D4
100
AcDbEntity
  8
1
  6
Continuous
100
AcDbLine
 10
65.204661
 20
275.706635
 30
0.0
 11
64.204661
 21
276.7066349999999
 31
0.0
  0
LINE
  5
AACC
330
A8D4
100
AcDbEntity
  8
1
  6
Continuous
100
AcDbLine
 10
53.204661
 20
275.706635
 30
0.0
 11
54.204661
 21
276.7066349999999
 31
0.0
  0
LINE
  5
AACD
330
A8D4
100
AcDbEntity
  8
1
  6
Continuous
100
AcDbLine
 10
53.204661
 20
275.706635
 30
0.0
 11
65.204661
 21
275.706635
 31
0.0
  0
LINE
  5
AACE
330
A8D4
100
AcDbEntity
  8
1
  6
Continuous
100
AcDbLine
 10
64.204661
 20
276.7066349999999
 30
0.0
 11
54.204661
 21
276.7066349999999
 31
0.0
  0
LINE
  5
AACF
330
A8D4
100
AcDbEntity
  8
1
  6
Continuous
100
AcDbLine
 10
46.204661
 20
236.7066349999999
 30
0.0
 11
46.204661
 21
232.7066349999999
 31
0.0
  0
LINE
  5
AAD0
330
A8D4
100
AcDbEntity
  8
1
  6
Continuous
100
AcDbLine
 10
59.204661
 20
236.7066349999999
 30
0.0
 11
59.204661
 21
232.7066349999999
 31
0.0
  0
LINE
  5
AAD1
330
A8D4
100
AcDbEntity
  8
1
  6
Continuous
100
AcDbLine
 10
72.204661
 20
236.7066349999999
 30
0.0
 11
72.204661
 21
232.7066349999999
 31
0.0
  0
LINE
  5
AAD2
330
A8D4
100
AcDbEntity
  8
1
  6
Continuous
100
AcDbLine
 10
166.4941629999999
 20
229.20357
 30
0.0
 11
210.844331
 21
229.20357
 31
0.0
  0
LINE
  5
AAD3
330
A8D4
100
AcDbEntity
  8
1
  6
Continuous
100
AcDbLine
 10
165.6692469999998
 20
227.721309
 30
0.0
 11
211.669247
 21
227.721309
 31
0.0
  0
LINE
  5
AAD4
330
A8D4
100
AcDbEntity
  8
1
  6
Continuous
100
AcDbLine
 10
205.3161
 20
232.7066349999999
 30
0.0
 11
172.0223939999999
 21
232.7066349999999
 31
0.0
  0
LINE
  5
AAD5
330
A8D4
100
AcDbEntity
  8
1
  6
Continuous
100
AcDbLine
 10
179.410361
 20
226.0064899999999
 30
0.0
 11
181.598179
 21
227.721309
 31
0.0
  0
LINE
  5
AAD6
330
A8D4
100
AcDbEntity
  8
1
  6
Continuous
100
AcDbLine
 10
182.371784
 20
226.0064899999999
 30
0.0
 11
180.1839659999999
 21
227.721309
 31
0.0
  0
LINE
  5
AAD7
330
A8D4
100
AcDbEntity
  8
1
  6
Continuous
100
AcDbLine
 10
180.824574
 20
226.0064899999999
 30
0.0
 11
183.012393
 21
227.721309
 31
0.0
  0
LINE
  5
AAD8
330
A8D4
100
AcDbEntity
  8
1
  6
Continuous
100
AcDbLine
 10
203.680354
 20
236.7066349999999
 30
0.0
 11
173.65814
 21
236.7066349999999
 31
0.0
  0
LINE
  5
AAD9
330
A8D4
100
AcDbEntity
  8
1
  6
Continuous
100
AcDbLine
 10
176.7149299999999
 20
226.0064899999999
 30
0.0
 11
174.527111
 21
227.721309
 31
0.0
  0
LINE
  5
AADA
330
A8D4
100
AcDbEntity
  8
1
  6
Continuous
100
AcDbLine
 10
173.7535059999999
 20
226.0064899999999
 30
0.0
 11
175.941325
 21
227.721309
 31
0.0
  0
LINE
  5
AADB
330
A8D4
100
AcDbEntity
  8
1
  6
Continuous
100
AcDbLine
 10
175.3007159999999
 20
226.0064899999999
 30
0.0
 11
173.112898
 21
227.721309
 31
0.0
  0
LINE
  5
AADC
330
A8D4
100
AcDbEntity
  8
1
  6
Continuous
100
AcDbLine
 10
170.925079
 20
226.0064899999999
 30
0.0
 11
173.112898
 21
227.721309
 31
0.0
  0
LINE
  5
AADD
330
A8D4
100
AcDbEntity
  8
1
  6
Continuous
100
AcDbLine
 10
169.510866
 20
226.0064899999999
 30
0.0
 11
171.6986839999999
 21
227.721309
 31
0.0
  0
LINE
  5
AADE
330
A8D4
100
AcDbEntity
  8
1
  6
Continuous
100
AcDbLine
 10
168.096652
 20
226.0064899999999
 30
0.0
 11
170.2844709999999
 21
227.721309
 31
0.0
  0
LINE
  5
AADF
330
A8D4
100
AcDbEntity
  8
1
  6
Continuous
100
AcDbLine
 10
166.6824389999999
 20
226.0064899999999
 30
0.0
 11
168.870257
 21
227.721309
 31
0.0
  0
LINE
  5
AAE0
330
A8D4
100
AcDbEntity
  8
1
  6
Continuous
100
AcDbLine
 10
173.886503
 20
226.0064899999999
 30
0.0
 11
171.6986839999999
 21
227.721309
 31
0.0
  0
LINE
  5
AAE1
330
A8D4
100
AcDbEntity
  8
1
  6
Continuous
100
AcDbLine
 10
172.4722889999999
 20
226.0064899999999
 30
0.0
 11
170.2844709999999
 21
227.721309
 31
0.0
  0
LINE
  5
AAE2
330
A8D4
100
AcDbEntity
  8
1
  6
Continuous
100
AcDbLine
 10
171.058076
 20
226.0064899999999
 30
0.0
 11
168.870257
 21
227.721309
 31
0.0
  0
LINE
  5
AAE3
330
A8D4
100
AcDbEntity
  8
1
  6
Continuous
100
AcDbLine
 10
169.643862
 20
226.0064899999999
 30
0.0
 11
167.456044
 21
227.721309
 31
0.0
  0
LINE
  5
AAE4
330
A8D4
100
AcDbEntity
  8
1
  6
Continuous
100
AcDbLine
 10
168.2296489999998
 20
226.0064899999999
 30
0.0
 11
166.04183
 21
227.721309
 31
0.0
  0
LINE
  5
AAE5
330
A8D4
100
AcDbEntity
  8
1
  6
Continuous
100
AcDbLine
 10
165.6692469999998
 20
226.407512
 30
0.0
 11
167.456044
 21
227.721309
 31
0.0
  0
LINE
  5
AAE6
330
A8D4
100
AcDbEntity
  8
1
  6
Continuous
100
AcDbLine
 10
165.6692469999998
 20
227.1526779999999
 30
0.0
 11
166.815435
 21
226.0064899999999
 31
0.0
  0
LINE
  5
AAE7
330
A8D4
100
AcDbEntity
  8
1
  6
Continuous
100
AcDbLine
 10
172.3392929999999
 20
226.0064899999999
 30
0.0
 11
174.527111
 21
227.721309
 31
0.0
  0
LINE
  5
AAE8
330
A8D4
100
AcDbEntity
  8
1
  6
Continuous
100
AcDbLine
 10
180.957571
 20
226.0064899999999
 30
0.0
 11
178.769752
 21
227.721309
 31
0.0
  0
LINE
  5
AAE9
330
A8D4
100
AcDbEntity
  8
1
  6
Continuous
100
AcDbLine
 10
177.996147
 20
226.0064899999999
 30
0.0
 11
180.1839659999999
 21
227.721309
 31
0.0
  0
LINE
  5
AAEA
330
A8D4
100
AcDbEntity
  8
1
  6
Continuous
100
AcDbLine
 10
176.581934
 20
226.0064899999999
 30
0.0
 11
178.769752
 21
227.721309
 31
0.0
  0
LINE
  5
AAEB
330
A8D4
100
AcDbEntity
  8
1
  6
Continuous
100
AcDbLine
 10
175.16772
 20
226.0064899999999
 30
0.0
 11
177.3555379999999
 21
227.721309
 31
0.0
  0
LINE
  5
AAEC
330
A8D4
100
AcDbEntity
  8
1
  6
Continuous
100
AcDbLine
 10
179.5433569999999
 20
226.0064899999999
 30
0.0
 11
177.3555379999999
 21
227.721309
 31
0.0
  0
LINE
  5
AAED
330
A8D4
100
AcDbEntity
  8
1
  6
Continuous
100
AcDbLine
 10
178.129143
 20
226.0064899999999
 30
0.0
 11
175.941325
 21
227.721309
 31
0.0
  0
LINE
  5
AAEE
330
A8D4
100
AcDbEntity
  8
1
  6
Continuous
100
AcDbLine
 10
165.6692469999998
 20
227.721309
 30
0.0
 11
165.6692469999998
 21
226.0064899999999
 31
0.0
  0
ARC
  5
AAEF
330
A8D4
100
AcDbEntity
  8
1
  6
Continuous
100
AcDbCircle
 10
165.9431329999999
 20
228.283717
 30
0.0
 40
0.9569799999999998
100
AcDbArc
 50
106.011913
 51
155.9597349999999
  0
ARC
  5
AAF0
330
A8D4
100
AcDbEntity
  8
1
  6
Continuous
100
AcDbCircle
 10
169.2806449999999
 20
230.7537979999999
 30
0.0
 40
4.697225
100
AcDbArc
 50
206.286695
 51
220.210037
  0
LINE
  5
AAF1
330
A8D4
100
AcDbEntity
  8
1
  6
Continuous
100
AcDbLine
 10
165.6791629999998
 20
229.20357
 30
0.0
 11
166.4941629999999
 21
229.20357
 31
0.0
  0
LINE
  5
AAF2
330
A8D4
100
AcDbEntity
  8
1
  6
Continuous
100
AcDbLine
 10
165.6692469999998
 20
227.3487259999999
 30
0.0
 11
166.04183
 21
227.721309
 31
0.0
  0
ARC
  5
AAF3
330
A8D4
100
AcDbEntity
  8
1
  6
Continuous
100
AcDbCircle
 10
172.0223939999999
 20
226.593017
 30
0.0
 40
6.113617999999997
100
AcDbArc
 50
90.0
 51
154.722278
  0
LINE
  5
AAF4
330
A8D4
100
AcDbEntity
  8
1
  6
Continuous
100
AcDbLine
 10
181.1636929999998
 20
236.7066349999999
 30
0.0
 11
181.1636929999998
 21
232.7066349999999
 31
0.0
  0
LINE
  5
AAF5
330
A8D4
100
AcDbEntity
  8
1
  6
Continuous
100
AcDbLine
 10
173.65814
 20
236.7066349999999
 30
0.0
 11
173.65814
 21
232.7066349999999
 31
0.0
  0
LINE
  5
AAF6
330
A8D4
100
AcDbEntity
  8
1
  6
Continuous
100
AcDbLine
 10
194.6692469999999
 20
236.7066349999999
 30
0.0
 11
194.6692469999999
 21
275.706635
 31
0.0
  0
LINE
  5
AAF7
330
A8D4
100
AcDbEntity
  8
1
  6
Continuous
100
AcDbLine
 10
182.6692469999999
 20
236.7066349999999
 30
0.0
 11
182.6692469999999
 21
275.706635
 31
0.0
  0
LINE
  5
AAF8
330
A8D4
100
AcDbEntity
  8
2
  6
Continuous
100
AcDbLine
 10
183.3457469999999
 20
237.878433
 30
0.0
 11
183.3457469999999
 21
276.3831349999999
 31
0.0
  0
LINE
  5
AAF9
330
A8D4
100
AcDbEntity
  8
2
  6
Continuous
100
AcDbLine
 10
193.992747
 20
237.878433
 30
0.0
 11
193.992747
 21
276.3831349999999
 31
0.0
  0
LINE
  5
AAFA
330
A8D4
100
AcDbEntity
  8
1
  6
Continuous
100
AcDbLine
 10
204.8662049999999
 20
226.0064899999999
 30
0.0
 11
207.054023
 21
227.721309
 31
0.0
  0
LINE
  5
AAFB
330
A8D4
100
AcDbEntity
  8
1
  6
Continuous
100
AcDbLine
 10
206.280418
 20
226.0064899999999
 30
0.0
 11
208.4682369999999
 21
227.721309
 31
0.0
  0
LINE
  5
AAFC
330
A8D4
100
AcDbEntity
  8
1
  6
Continuous
100
AcDbLine
 10
207.8276279999998
 20
226.0064899999999
 30
0.0
 11
205.63981
 21
227.721309
 31
0.0
  0
LINE
  5
AAFD
330
A8D4
100
AcDbEntity
  8
1
  6
Continuous
100
AcDbLine
 10
190.7240689999999
 20
226.0064899999999
 30
0.0
 11
192.9118879999998
 21
227.721309
 31
0.0
  0
LINE
  5
AAFE
330
A8D4
100
AcDbEntity
  8
1
  6
Continuous
100
AcDbLine
 10
189.309856
 20
226.0064899999999
 30
0.0
 11
191.4976739999999
 21
227.721309
 31
0.0
  0
LINE
  5
AAFF
330
A8D4
100
AcDbEntity
  8
1
  6
Continuous
100
AcDbLine
 10
190.857066
 20
226.0064899999999
 30
0.0
 11
188.6692469999999
 21
227.721309
 31
0.0
  0
LINE
  5
AB00
330
A8D4
100
AcDbEntity
  8
1
  6
Continuous
100
AcDbLine
 10
192.271279
 20
226.0064899999999
 30
0.0
 11
190.083461
 21
227.721309
 31
0.0
  0
LINE
  5
AB01
330
A8D4
100
AcDbEntity
  8
1
  6
Continuous
100
AcDbLine
 10
186.481428
 20
226.0064899999999
 30
0.0
 11
188.6692469999999
 21
227.721309
 31
0.0
  0
LINE
  5
AB02
330
A8D4
100
AcDbEntity
  8
1
  6
Continuous
100
AcDbLine
 10
187.8956419999999
 20
226.0064899999999
 30
0.0
 11
190.083461
 21
227.721309
 31
0.0
  0
LINE
  5
AB03
330
A8D4
100
AcDbEntity
  8
1
  6
Continuous
100
AcDbLine
 10
185.067215
 20
226.0064899999999
 30
0.0
 11
187.2550329999999
 21
227.721309
 31
0.0
  0
LINE
  5
AB04
330
A8D4
100
AcDbEntity
  8
1
  6
Continuous
100
AcDbLine
 10
183.6530009999999
 20
226.0064899999999
 30
0.0
 11
185.84082
 21
227.721309
 31
0.0
  0
LINE
  5
AB05
330
A8D4
100
AcDbEntity
  8
1
  6
Continuous
100
AcDbLine
 10
189.4428519999999
 20
226.0064899999999
 30
0.0
 11
187.2550329999999
 21
227.721309
 31
0.0
  0
LINE
  5
AB06
330
A8D4
100
AcDbEntity
  8
1
  6
Continuous
100
AcDbLine
 10
188.028638
 20
226.0064899999999
 30
0.0
 11
185.84082
 21
227.721309
 31
0.0
  0
LINE
  5
AB07
330
A8D4
100
AcDbEntity
  8
1
  6
Continuous
100
AcDbLine
 10
186.6144249999999
 20
226.0064899999999
 30
0.0
 11
184.4266059999999
 21
227.721309
 31
0.0
  0
LINE
  5
AB08
330
A8D4
100
AcDbEntity
  8
1
  6
Continuous
100
AcDbLine
 10
185.200211
 20
226.0064899999999
 30
0.0
 11
183.012393
 21
227.721309
 31
0.0
  0
LINE
  5
AB09
330
A8D4
100
AcDbEntity
  8
1
  6
Continuous
100
AcDbLine
 10
182.2387879999998
 20
226.0064899999999
 30
0.0
 11
184.4266059999999
 21
227.721309
 31
0.0
  0
LINE
  5
AB0A
330
A8D4
100
AcDbEntity
  8
1
  6
Continuous
100
AcDbLine
 10
183.785998
 20
226.0064899999999
 30
0.0
 11
181.598179
 21
227.721309
 31
0.0
  0
LINE
  5
AB0B
330
A8D4
100
AcDbEntity
  8
1
  6
Continuous
100
AcDbLine
 10
194.96671
 20
226.0064899999999
 30
0.0
 11
197.1545279999999
 21
227.721309
 31
0.0
  0
LINE
  5
AB0C
330
A8D4
100
AcDbEntity
  8
1
  6
Continuous
100
AcDbLine
 10
196.380923
 20
226.0064899999999
 30
0.0
 11
198.5687419999999
 21
227.721309
 31
0.0
  0
LINE
  5
AB0D
330
A8D4
100
AcDbEntity
  8
1
  6
Continuous
100
AcDbLine
 10
197.928133
 20
226.0064899999999
 30
0.0
 11
195.7403149999999
 21
227.721309
 31
0.0
  0
LINE
  5
AB0E
330
A8D4
100
AcDbEntity
  8
1
  6
Continuous
100
AcDbLine
 10
192.1382829999998
 20
226.0064899999999
 30
0.0
 11
194.326101
 21
227.721309
 31
0.0
  0
LINE
  5
AB0F
330
A8D4
100
AcDbEntity
  8
1
  6
Continuous
100
AcDbLine
 10
193.552496
 20
226.0064899999999
 30
0.0
 11
195.7403149999999
 21
227.721309
 31
0.0
  0
LINE
  5
AB10
330
A8D4
100
AcDbEntity
  8
1
  6
Continuous
100
AcDbLine
 10
193.6854929999999
 20
226.0064899999999
 30
0.0
 11
191.4976739999999
 21
227.721309
 31
0.0
  0
LINE
  5
AB11
330
A8D4
100
AcDbEntity
  8
1
  6
Continuous
100
AcDbLine
 10
195.0997059999999
 20
226.0064899999999
 30
0.0
 11
192.9118879999998
 21
227.721309
 31
0.0
  0
LINE
  5
AB12
330
A8D4
100
AcDbEntity
  8
1
  6
Continuous
100
AcDbLine
 10
196.5139199999999
 20
226.0064899999999
 30
0.0
 11
194.326101
 21
227.721309
 31
0.0
  0
LINE
  5
AB13
330
A8D4
100
AcDbEntity
  8
1
  6
Continuous
100
AcDbLine
 10
199.209351
 20
226.0064899999999
 30
0.0
 11
201.3971689999999
 21
227.721309
 31
0.0
  0
LINE
  5
AB14
330
A8D4
100
AcDbEntity
  8
1
  6
Continuous
100
AcDbLine
 10
200.6235639999999
 20
226.0064899999999
 30
0.0
 11
202.811383
 21
227.721309
 31
0.0
  0
LINE
  5
AB15
330
A8D4
100
AcDbEntity
  8
1
  6
Continuous
100
AcDbLine
 10
202.037778
 20
226.0064899999999
 30
0.0
 11
204.2255959999998
 21
227.721309
 31
0.0
  0
LINE
  5
AB16
330
A8D4
100
AcDbEntity
  8
1
  6
Continuous
100
AcDbLine
 10
203.4519909999999
 20
226.0064899999999
 30
0.0
 11
205.63981
 21
227.721309
 31
0.0
  0
LINE
  5
AB17
330
A8D4
100
AcDbEntity
  8
1
  6
Continuous
100
AcDbLine
 10
202.170774
 20
226.0064899999999
 30
0.0
 11
199.982955
 21
227.721309
 31
0.0
  0
LINE
  5
AB18
330
A8D4
100
AcDbEntity
  8
1
  6
Continuous
100
AcDbLine
 10
203.5849879999999
 20
226.0064899999999
 30
0.0
 11
201.3971689999999
 21
227.721309
 31
0.0
  0
LINE
  5
AB19
330
A8D4
100
AcDbEntity
  8
1
  6
Continuous
100
AcDbLine
 10
204.9992009999999
 20
226.0064899999999
 30
0.0
 11
202.811383
 21
227.721309
 31
0.0
  0
LINE
  5
AB1A
330
A8D4
100
AcDbEntity
  8
1
  6
Continuous
100
AcDbLine
 10
206.413415
 20
226.0064899999999
 30
0.0
 11
204.2255959999998
 21
227.721309
 31
0.0
  0
LINE
  5
AB1B
330
A8D4
100
AcDbEntity
  8
1
  6
Continuous
100
AcDbLine
 10
197.795137
 20
226.0064899999999
 30
0.0
 11
199.982955
 21
227.721309
 31
0.0
  0
LINE
  5
AB1C
330
A8D4
100
AcDbEntity
  8
1
  6
Continuous
100
AcDbLine
 10
199.3423469999999
 20
226.0064899999999
 30
0.0
 11
197.1545279999999
 21
227.721309
 31
0.0
  0
LINE
  5
AB1D
330
A8D4
100
AcDbEntity
  8
1
  6
Continuous
100
AcDbLine
 10
200.7565599999999
 20
226.0064899999999
 30
0.0
 11
198.5687419999999
 21
227.721309
 31
0.0
  0
LINE
  5
AB1E
330
A8D4
100
AcDbEntity
  8
1
  6
Continuous
100
AcDbLine
 10
207.694632
 20
226.0064899999999
 30
0.0
 11
209.88245
 21
227.721309
 31
0.0
  0
LINE
  5
AB1F
330
A8D4
100
AcDbEntity
  8
1
  6
Continuous
100
AcDbLine
 10
209.1088449999999
 20
226.0064899999999
 30
0.0
 11
211.2966639999999
 21
227.721309
 31
0.0
  0
LINE
  5
AB20
330
A8D4
100
AcDbEntity
  8
1
  6
Continuous
100
AcDbLine
 10
210.523059
 20
226.0064899999999
 30
0.0
 11
211.669247
 21
227.1526779999999
 31
0.0
  0
LINE
  5
AB21
330
A8D4
100
AcDbEntity
  8
1
  6
Continuous
100
AcDbLine
 10
209.241842
 20
226.0064899999999
 30
0.0
 11
207.054023
 21
227.721309
 31
0.0
  0
LINE
  5
AB22
330
A8D4
100
AcDbEntity
  8
1
  6
Continuous
100
AcDbLine
 10
210.6560549999999
 20
226.0064899999999
 30
0.0
 11
208.4682369999999
 21
227.721309
 31
0.0
  0
LINE
  5
AB23
330
A8D4
100
AcDbEntity
  8
1
  6
Continuous
100
AcDbLine
 10
211.669247
 20
226.407512
 30
0.0
 11
209.88245
 21
227.721309
 31
0.0
  0
LINE
  5
AB24
330
A8D4
100
AcDbEntity
  8
1
  6
Continuous
100
AcDbLine
 10
211.669247
 20
227.721309
 30
0.0
 11
211.669247
 21
226.0064899999999
 31
0.0
  0
LINE
  5
AB25
330
A8D4
100
AcDbEntity
  8
1
  6
Continuous
100
AcDbLine
 10
196.1748
 20
236.7066349999999
 30
0.0
 11
196.1748
 21
232.7066349999999
 31
0.0
  0
ARC
  5
AB26
330
A8D4
100
AcDbEntity
  8
1
  6
Continuous
100
AcDbCircle
 10
205.3161
 20
226.593017
 30
0.0
 40
6.113617999999997
100
AcDbArc
 50
25.277722
 51
90.0
  0
ARC
  5
AB27
330
A8D4
100
AcDbEntity
  8
1
  6
Continuous
100
AcDbCircle
 10
211.39536
 20
228.283717
 30
0.0
 40
0.9569799999999998
100
AcDbArc
 50
24.04026499999999
 51
73.98808699999998
  0
ARC
  5
AB28
330
A8D4
100
AcDbEntity
  8
1
  6
Continuous
100
AcDbCircle
 10
208.057849
 20
230.7537979999999
 30
0.0
 40
4.697225
100
AcDbArc
 50
319.789963
 51
333.713305
  0
LINE
  5
AB29
330
A8D4
100
AcDbEntity
  8
1
  6
Continuous
100
AcDbLine
 10
211.669247
 20
227.3487259999999
 30
0.0
 11
211.2966639999999
 21
227.721309
 31
0.0
  0
LINE
  5
AB2A
330
A8D4
100
AcDbEntity
  8
1
  6
Continuous
100
AcDbLine
 10
211.659331
 20
229.20357
 30
0.0
 11
210.844331
 21
229.20357
 31
0.0
  0
LINE
  5
AB2B
330
A8D4
100
AcDbEntity
  8
1
  6
Continuous
100
AcDbLine
 10
203.680354
 20
236.7066349999999
 30
0.0
 11
203.680354
 21
232.7066349999999
 31
0.0
  0
LINE
  5
AB2C
330
A8D4
100
AcDbEntity
  8
1
  6
Continuous
100
AcDbLine
 10
194.6692469999999
 20
275.706635
 30
0.0
 11
193.6692469999999
 21
276.7066349999999
 31
0.0
  0
LINE
  5
AB2D
330
A8D4
100
AcDbEntity
  8
1
  6
Continuous
100
AcDbLine
 10
182.6692469999999
 20
275.706635
 30
0.0
 11
183.6692469999999
 21
276.7066349999999
 31
0.0
  0
LINE
  5
AB2E
330
A8D4
100
AcDbEntity
  8
1
  6
Continuous
100
AcDbLine
 10
182.6692469999999
 20
275.706635
 30
0.0
 11
194.6692469999999
 21
275.706635
 31
0.0
  0
LINE
  5
AB2F
330
A8D4
100
AcDbEntity
  8
1
  6
Continuous
100
AcDbLine
 10
193.6692469999999
 20
276.7066349999999
 30
0.0
 11
183.6692469999999
 21
276.7066349999999
 31
0.0
  0
ARC
  5
AB30
330
A8D4
100
AcDbEntity
  8
1
  6
Continuous
100
AcDbCircle
 10
169.2363949999998
 20
103.4097089999999
 30
0.0
 40
10.0
100
AcDbArc
 50
270.0
 51
304.001638
  0
ARC
  5
AB31
330
A8D4
100
AcDbEntity
  8
1
  6
Continuous
100
AcDbCircle
 10
169.2363949999998
 20
103.4097089999999
 30
0.0
 40
12.3
100
AcDbArc
 50
270.0
 51
304.001638
  0
ARC
  5
AB32
330
A8D4
100
AcDbEntity
  8
1
  6
Continuous
100
AcDbCircle
 10
169.2363949999998
 20
45.792709
 30
0.0
 40
12.3
100
AcDbArc
 50
55.998362
 51
90.0
  0
ARC
  5
AB33
330
A8D4
100
AcDbEntity
  8
1
  6
Continuous
100
AcDbCircle
 10
169.2363949999998
 20
45.792709
 30
0.0
 40
10.0
100
AcDbArc
 50
55.998362
 51
90.0
  0
LINE
  5
AB34
330
A8D4
100
AcDbEntity
  8
1
  6
Continuous
100
AcDbLine
 10
158.874515
 20
354.0054979999999
 30
0.0
 11
128.3657009999998
 21
354.0054979999999
 31
0.0
  0
LINE
  5
AB35
330
A8D4
100
AcDbEntity
  8
1
  6
Continuous
100
AcDbLine
 10
158.874515
 20
333.0054979999998
 30
0.0
 11
128.3657009999998
 21
333.0054979999998
 31
0.0
  0
LINE
  5
AB36
330
A8D4
100
AcDbEntity
  8
1
  6
Continuous
100
AcDbLine
 10
159.6692469999998
 20
326.996998
 30
0.0
 11
159.6692469999998
 21
329.0054979999998
 31
0.0
  0
LINE
  5
AB37
330
A8D4
100
AcDbEntity
  8
1
  6
Continuous
100
AcDbLine
 10
153.4691719999998
 20
324.696998
 30
0.0
 11
169.2363949999998
 21
324.696998
 31
0.0
  0
LINE
  5
AB38
330
A8D4
100
AcDbEntity
  8
1
  6
Continuous
100
AcDbLine
 10
153.4691719999998
 20
326.996998
 30
0.0
 11
161.279301
 21
326.996998
 31
0.0
  0
LINE
  5
AB39
330
A8D4
100
AcDbEntity
  8
1
  6
Continuous
100
AcDbLine
 10
153.4691719999998
 20
326.996998
 30
0.0
 11
153.4691719999998
 21
324.696998
 31
0.0
  0
LINE
  5
AB3A
330
A8D4
100
AcDbEntity
  8
1
  6
Continuous
100
AcDbLine
 10
169.4192469999999
 20
364.309941
 30
0.0
 11
169.4192469999999
 21
362.313998
 31
0.0
  0
LINE
  5
AB3B
330
A8D4
100
AcDbEntity
  8
1
  6
Continuous
100
AcDbLine
 10
157.9192469999999
 20
364.309941
 30
0.0
 11
157.9192469999999
 21
362.313998
 31
0.0
  0
LINE
  5
AB3C
330
A8D4
100
AcDbEntity
  8
1
  6
Continuous
100
AcDbLine
 10
157.9192469999999
 20
364.309941
 30
0.0
 11
169.4192469999999
 21
364.309941
 31
0.0
  0
ARC
  5
AB3D
330
A8D4
100
AcDbEntity
  8
1
  6
Continuous
100
AcDbCircle
 10
163.6692469999998
 20
355.5242989999999
 30
0.0
 40
10.5
100
AcDbArc
 50
56.79617700000001
 51
123.203823
  0
LINE
  5
AB3E
330
A8D4
100
AcDbEntity
  8
1
  6
Continuous
100
AcDbLine
 10
153.4691719999998
 20
360.013998
 30
0.0
 11
161.279301
 21
360.013998
 31
0.0
  0
LINE
  5
AB3F
330
A8D4
100
AcDbEntity
  8
1
  6
Continuous
100
AcDbLine
 10
153.4691719999998
 20
362.313998
 30
0.0
 11
169.2363949999998
 21
362.313998
 31
0.0
  0
LINE
  5
AB40
330
A8D4
100
AcDbEntity
  8
1
  6
Continuous
100
AcDbLine
 10
152.3239479999998
 20
358.0054979999999
 30
0.0
 11
161.2822679999998
 21
358.0054979999999
 31
0.0
  0
LINE
  5
AB41
330
A8D4
100
AcDbEntity
  8
1
  6
Continuous
100
AcDbLine
 10
151.1692469999998
 20
356.0054979999999
 30
0.0
 11
159.947597
 21
356.0054979999999
 31
0.0
  0
LINE
  5
AB42
330
A8D4
100
AcDbEntity
  8
1
  6
Continuous
100
AcDbLine
 10
151.1692469999998
 20
331.0054979999998
 30
0.0
 11
159.947597
 21
331.0054979999998
 31
0.0
  0
LINE
  5
AB43
330
A8D4
100
AcDbEntity
  8
1
  6
Continuous
100
AcDbLine
 10
152.3239479999998
 20
329.0054979999998
 30
0.0
 11
161.2822679999998
 21
329.0054979999998
 31
0.0
  0
ARC
  5
AB44
330
A8D4
100
AcDbEntity
  8
1
  6
Continuous
100
AcDbCircle
 10
186.1692469999999
 20
343.5054979999998
 30
0.0
 40
60.0
100
AcDbArc
 50
171.150117
 51
188.8498829999998
  0
ARC
  5
AB45
330
A8D4
100
AcDbEntity
  8
1
  6
Continuous
100
AcDbCircle
 10
128.3657009999998
 20
334.505498
 30
0.0
 40
1.5
100
AcDbArc
 50
188.8498829999998
 51
270.0
  0
LINE
  5
AB46
330
A8D4
100
AcDbEntity
  8
1
  6
Continuous
100
AcDbLine
 10
151.1692469999998
 20
331.0054979999998
 30
0.0
 11
145.159747
 21
332.4750589999998
 31
0.0
  0
LINE
  5
AB47
330
A8D4
100
AcDbEntity
  8
1
  6
Continuous
100
AcDbLine
 10
151.1692469999998
 20
331.0054979999998
 30
0.0
 11
152.3239479999998
 21
329.0054979999998
 31
0.0
  0
ARC
  5
AB48
330
A8D4
100
AcDbEntity
  8
1
  6
Continuous
100
AcDbCircle
 10
145.231009
 20
332.766472
 30
0.0
 40
0.3
100
AcDbArc
 50
210.0
 51
256.258585
  0
LINE
  5
AB49
330
A8D4
100
AcDbEntity
  8
1
  6
Continuous
100
AcDbLine
 10
144.746598
 20
333.0054979999998
 30
0.0
 11
144.9712019999998
 21
332.6164719999999
 31
0.0
  0
ARC
  5
AB4A
330
A8D4
100
AcDbEntity
  8
1
  6
Continuous
100
AcDbCircle
 10
128.3657009999998
 20
352.505498
 30
0.0
 40
1.5
100
AcDbArc
 50
90.0
 51
171.150117
  0
LINE
  5
AB4B
330
A8D4
100
AcDbEntity
  8
1
  6
Continuous
100
AcDbLine
 10
153.4691719999998
 20
362.313998
 30
0.0
 11
153.4691719999998
 21
360.013998
 31
0.0
  0
LINE
  5
AB4C
330
A8D4
100
AcDbEntity
  8
1
  6
Continuous
100
AcDbLine
 10
151.1692469999998
 20
356.0054979999999
 30
0.0
 11
145.159747
 21
354.5359369999998
 31
0.0
  0
ARC
  5
AB4D
330
A8D4
100
AcDbEntity
  8
1
  6
Continuous
100
AcDbCircle
 10
145.231009
 20
354.244524
 30
0.0
 40
0.3
100
AcDbArc
 50
103.741415
 51
150.0
  0
LINE
  5
AB4E
330
A8D4
100
AcDbEntity
  8
1
  6
Continuous
100
AcDbLine
 10
144.746598
 20
354.0054979999999
 30
0.0
 11
144.9712019999998
 21
354.3945239999998
 31
0.0
  0
LINE
  5
AB4F
330
A8D4
100
AcDbEntity
  8
1
  6
Continuous
100
AcDbLine
 10
151.1692469999998
 20
356.0054979999999
 30
0.0
 11
152.3239479999998
 21
358.0054979999999
 31
0.0
  0
LINE
  5
AB50
330
A8D4
100
AcDbEntity
  8
1
  6
Continuous
100
AcDbLine
 10
159.6692469999998
 20
358.0054979999999
 30
0.0
 11
159.6692469999998
 21
360.013998
 31
0.0
  0
LINE
  5
AB51
330
A8D4
100
AcDbEntity
  8
1
  6
Continuous
100
AcDbLine
 10
168.6692469999998
 20
324.696998
 30
0.0
 11
168.6692469999998
 21
323.753604
 31
0.0
  0
LINE
  5
AB52
330
A8D4
100
AcDbEntity
  8
1
  6
Continuous
100
AcDbLine
 10
158.6692469999999
 20
324.696998
 30
0.0
 11
158.6692469999999
 21
323.753604
 31
0.0
  0
ARC
  5
AB53
330
A8D4
100
AcDbEntity
  8
1
  6
Continuous
100
AcDbCircle
 10
163.6692469999998
 20
335.7536969999999
 30
0.0
 40
13.0
100
AcDbArc
 50
247.380135
 51
292.6198649999999
  0
LINE
  5
AB54
330
A8D4
100
AcDbEntity
  8
1
  6
Continuous
100
AcDbLine
 10
158.6692469999999
 20
323.753604
 30
0.0
 11
168.6692469999998
 21
323.753604
 31
0.0
  0
LINE
  5
AB55
330
A8D4
100
AcDbEntity
  8
4
  6
CENTER
100
AcDbLine
 10
163.6691719999998
 20
317.7536969999999
 30
0.0
 11
163.6691719999998
 21
371.0242989999999
 31
0.0
  0
ARC
  5
AB56
330
A8D4
100
AcDbEntity
  8
1
  6
Continuous
100
AcDbCircle
 10
169.2363949999998
 20
314.696998
 30
0.0
 40
10.0
100
AcDbArc
 50
55.998362
 51
90.0
  0
ARC
  5
AB57
330
A8D4
100
AcDbEntity
  8
1
  6
Continuous
100
AcDbCircle
 10
169.2363949999998
 20
372.313998
 30
0.0
 40
10.0
100
AcDbArc
 50
270.0
 51
304.001638
  0
LINE
  5
AB58
330
A8D4
100
AcDbEntity
  8
1
  6
Continuous
100
AcDbLine
 10
53.20462299999999
 20
237.878433
 30
0.0
 11
65.204623
 21
237.878433
 31
0.0
  0
LINE
  5
AB59
330
A8D4
100
AcDbEntity
  8
2
  6
Continuous
100
AcDbLine
 10
53.20462299999999
 20
236.7066349999999
 30
0.0
 11
53.881161
 21
237.878433
 31
0.0
  0
LINE
  5
AB5A
330
A8D4
100
AcDbEntity
  8
2
  6
Continuous
100
AcDbLine
 10
65.204623
 20
236.7066349999999
 30
0.0
 11
64.528085
 21
237.878433
 31
0.0
  0
LINE
  5
AB5B
330
A8D4
100
AcDbEntity
  8
1
  6
Continuous
100
AcDbLine
 10
182.6692089999999
 20
237.878433
 30
0.0
 11
194.6692089999999
 21
237.878433
 31
0.0
  0
LINE
  5
AB5C
330
A8D4
100
AcDbEntity
  8
2
  6
Continuous
100
AcDbLine
 10
182.6692089999999
 20
236.7066349999999
 30
0.0
 11
183.3457469999999
 21
237.878433
 31
0.0
  0
LINE
  5
AB5D
330
A8D4
100
AcDbEntity
  8
2
  6
Continuous
100
AcDbLine
 10
194.6692089999999
 20
236.7066349999999
 30
0.0
 11
193.992671
 21
237.878433
 31
0.0
  0
LINE
  5
AB5E
330
A8D4
100
AcDbEntity
  8
1
  6
Continuous
100
AcDbLine
 10
274.4033379999998
 20
237.878433
 30
0.0
 11
286.4033379999998
 21
237.878433
 31
0.0
  0
LINE
  5
AB5F
330
A8D4
100
AcDbEntity
  8
2
  6
Continuous
100
AcDbLine
 10
274.4033379999998
 20
236.7066349999999
 30
0.0
 11
275.0798759999999
 21
237.878433
 31
0.0
  0
LINE
  5
AB60
330
A8D4
100
AcDbEntity
  8
2
  6
Continuous
100
AcDbLine
 10
286.4033379999998
 20
236.7066349999999
 30
0.0
 11
285.7268
 21
237.878433
 31
0.0
  0
LINE
  5
AB61
330
A8D4
100
AcDbEntity
  8
4
  6
CENTER
100
AcDbLine
 10
397.1375039999998
 20
136.70649
 30
0.0
 11
397.1375039999998
 21
219.7064899999999
 31
0.0
  0
ARC
  5
AB62
330
A8D4
100
AcDbEntity
  8
1
  6
Continuous
100
AcDbCircle
 10
397.1375039999998
 20
178.2064899999998
 30
0.0
 40
10.5
100
AcDbArc
 50
211.136199
 51
9.004619999999997
  0
LINE
  5
AB63
330
A8D4
100
AcDbEntity
  8
1
  6
Continuous
100
AcDbLine
 10
363.80281
 20
213.577232
 30
0.0
 11
388.150128
 21
172.7772099999999
 31
0.0
  0
ARC
  5
AB64
330
A8D4
100
AcDbEntity
  8
1
  6
Continuous
100
AcDbCircle
 10
397.1375039999998
 20
179.2064899999998
 30
0.0
 40
12.5
100
AcDbArc
 50
182.5877099999999
 51
42.83294699999999
  0
ARC
  5
AB65
330
A8D4
100
AcDbEntity
  8
1
  6
Continuous
100
AcDbCircle
 10
397.1375039999998
 20
179.2064899999998
 30
0.0
 40
28.0
100
AcDbArc
 50
143.9862819999999
 51
76.94200499999998
  0
ARC
  5
AB66
330
A8D4
100
AcDbEntity
  8
1
  6
Continuous
100
AcDbCircle
 10
397.1375039999998
 20
179.2064899999998
 30
0.0
 40
19.5
100
AcDbArc
 50
155.210272
 51
66.597493
  0
ARC
  5
AB67
330
A8D4
100
AcDbEntity
  8
1
  6
Continuous
100
AcDbCircle
 10
397.1375039999998
 20
179.2064899999998
 30
0.0
 40
37.5
100
AcDbArc
 50
137.903804
 51
82.60460999999997
  0
LINE
  5
AB68
330
A8D4
100
AcDbEntity
  8
4
  6
CENTER
100
AcDbLine
 10
354.637504
 20
179.2064899999998
 30
0.0
 11
439.6375039999998
 21
179.2064899999998
 31
0.0
  0
LINE
  5
AB69
330
A8D4
100
AcDbEntity
  8
4
  6
CENTER
100
AcDbLine
 10
372.1375039999998
 20
281.706635
 30
0.0
 11
372.1375039999998
 21
206.898602
 31
0.0
  0
LINE
  5
AB6A
330
A8D4
100
AcDbEntity
  8
2
  6
Continuous
100
AcDbLine
 10
377.461004
 20
237.878433
 30
0.0
 11
377.461004
 21
276.3831349999999
 31
0.0
  0
LINE
  5
AB6B
330
A8D4
100
AcDbEntity
  8
2
  6
Continuous
100
AcDbLine
 10
366.814004
 20
237.878433
 30
0.0
 11
366.814004
 21
276.3831349999999
 31
0.0
  0
LINE
  5
AB6C
330
A8D4
100
AcDbEntity
  8
1
  6
Continuous
100
AcDbLine
 10
378.1375039999999
 20
236.7066349999999
 30
0.0
 11
378.1375039999999
 21
275.706635
 31
0.0
  0
LINE
  5
AB6D
330
A8D4
100
AcDbEntity
  8
1
  6
Continuous
100
AcDbLine
 10
366.1375039999999
 20
236.7066349999999
 30
0.0
 11
366.1375039999999
 21
275.706635
 31
0.0
  0
LINE
  5
AB6E
330
A8D4
100
AcDbEntity
  8
1
  6
Continuous
100
AcDbLine
 10
349.1375039999998
 20
226.0064899999999
 30
0.0
 11
395.1375039999999
 21
226.0064899999999
 31
0.0
  0
LINE
  5
AB6F
330
A8D4
100
AcDbEntity
  8
1
  6
Continuous
100
AcDbLine
 10
370.0826819999999
 20
226.0064899999999
 30
0.0
 11
367.8948629999999
 21
227.721309
 31
0.0
  0
LINE
  5
AB70
330
A8D4
100
AcDbEntity
  8
1
  6
Continuous
100
AcDbLine
 10
371.4968949999998
 20
226.0064899999999
 30
0.0
 11
369.3090769999998
 21
227.721309
 31
0.0
  0
LINE
  5
AB71
330
A8D4
100
AcDbEntity
  8
1
  6
Continuous
100
AcDbLine
 10
368.535472
 20
226.0064899999999
 30
0.0
 11
370.7232899999998
 21
227.721309
 31
0.0
  0
LINE
  5
AB72
330
A8D4
100
AcDbEntity
  8
1
  6
Continuous
100
AcDbLine
 10
378.1375419999998
 20
237.878433
 30
0.0
 11
366.137542
 21
237.878433
 31
0.0
  0
LINE
  5
AB73
330
A8D4
100
AcDbEntity
  8
1
  6
Continuous
100
AcDbLine
 10
357.1263969999998
 20
236.7066349999999
 30
0.0
 11
387.1486109999998
 21
236.7066349999999
 31
0.0
  0
LINE
  5
AB74
330
A8D4
100
AcDbEntity
  8
1
  6
Continuous
100
AcDbLine
 10
355.4906509999999
 20
232.7066349999999
 30
0.0
 11
388.784357
 21
232.7066349999999
 31
0.0
  0
LINE
  5
AB75
330
A8D4
100
AcDbEntity
  8
1
  6
Continuous
100
AcDbLine
 10
395.1375039999999
 20
227.721309
 30
0.0
 11
349.1375039999998
 21
227.721309
 31
0.0
  0
LINE
  5
AB76
330
A8D4
100
AcDbEntity
  8
1
  6
Continuous
100
AcDbLine
 10
394.312588
 20
229.20357
 30
0.0
 11
349.9624199999999
 21
229.20357
 31
0.0
  0
LINE
  5
AB77
330
A8D4
100
AcDbEntity
  8
1
  6
Continuous
100
AcDbLine
 10
400.8582699999998
 20
223.70649
 30
0.0
 11
407.589776
 21
179.2064899999998
 31
0.0
  0
LINE
  5
AB78
330
A8D4
100
AcDbEntity
  8
1
  6
Continuous
100
AcDbLine
 10
401.001979
 20
221.4064899999999
 30
0.0
 11
404.137504
 21
221.4064899999999
 31
0.0
  0
LINE
  5
AB79
330
A8D4
100
AcDbEntity
  8
1
  6
Continuous
100
AcDbLine
 10
390.1375039999999
 20
223.70649
 30
0.0
 11
404.137504
 21
223.70649
 31
0.0
  0
LINE
  5
AB7A
330
A8D4
100
AcDbEntity
  8
1
  6
Continuous
100
AcDbLine
 10
404.137504
 20
223.70649
 30
0.0
 11
404.137504
 21
221.4064899999999
 31
0.0
  0
LINE
  5
AB7B
330
A8D4
100
AcDbEntity
  8
1
  6
Continuous
100
AcDbLine
 10
384.0918209999999
 20
226.0064899999999
 30
0.0
 11
386.2796399999999
 21
227.721309
 31
0.0
  0
LINE
  5
AB7C
330
A8D4
100
AcDbEntity
  8
1
  6
Continuous
100
AcDbLine
 10
387.053245
 20
226.0064899999999
 30
0.0
 11
384.8654259999999
 21
227.721309
 31
0.0
  0
LINE
  5
AB7D
330
A8D4
100
AcDbEntity
  8
1
  6
Continuous
100
AcDbLine
 10
385.639031
 20
226.0064899999999
 30
0.0
 11
383.451213
 21
227.721309
 31
0.0
  0
ARC
  5
AB7E
330
A8D4
100
AcDbEntity
  8
1
  6
Continuous
100
AcDbCircle
 10
393.4703139999998
 20
223.0064899999999
 30
0.0
 40
3.0
100
AcDbArc
 50
13.49339899999998
 51
90.0
  0
LINE
  5
AB7F
330
A8D4
100
AcDbEntity
  8
1
  6
Continuous
100
AcDbLine
 10
385.506035
 20
226.0064899999999
 30
0.0
 11
387.6938529999998
 21
227.721309
 31
0.0
  0
LINE
  5
AB80
330
A8D4
100
AcDbEntity
  8
1
  6
Continuous
100
AcDbLine
 10
389.8816719999999
 20
226.0064899999999
 30
0.0
 11
387.6938529999998
 21
227.721309
 31
0.0
  0
LINE
  5
AB81
330
A8D4
100
AcDbEntity
  8
1
  6
Continuous
100
AcDbLine
 10
391.2958849999998
 20
226.0064899999999
 30
0.0
 11
389.108067
 21
227.721309
 31
0.0
  0
LINE
  5
AB82
330
A8D4
100
AcDbEntity
  8
1
  6
Continuous
100
AcDbLine
 10
392.7100989999999
 20
226.0064899999999
 30
0.0
 11
390.5222799999998
 21
227.721309
 31
0.0
  0
LINE
  5
AB83
330
A8D4
100
AcDbEntity
  8
1
  6
Continuous
100
AcDbLine
 10
394.1243119999999
 20
226.0064899999999
 30
0.0
 11
391.9364939999999
 21
227.721309
 31
0.0
  0
LINE
  5
AB84
330
A8D4
100
AcDbEntity
  8
1
  6
Continuous
100
AcDbLine
 10
386.920248
 20
226.0064899999999
 30
0.0
 11
389.108067
 21
227.721309
 31
0.0
  0
LINE
  5
AB85
330
A8D4
100
AcDbEntity
  8
1
  6
Continuous
100
AcDbLine
 10
388.3344619999999
 20
226.0064899999999
 30
0.0
 11
390.5222799999998
 21
227.721309
 31
0.0
  0
LINE
  5
AB86
330
A8D4
100
AcDbEntity
  8
1
  6
Continuous
100
AcDbLine
 10
389.748675
 20
226.0064899999999
 30
0.0
 11
391.9364939999999
 21
227.721309
 31
0.0
  0
LINE
  5
AB87
330
A8D4
100
AcDbEntity
  8
1
  6
Continuous
100
AcDbLine
 10
391.162889
 20
226.0064899999999
 30
0.0
 11
393.350707
 21
227.721309
 31
0.0
  0
LINE
  5
AB88
330
A8D4
100
AcDbEntity
  8
1
  6
Continuous
100
AcDbLine
 10
392.577102
 20
226.0064899999999
 30
0.0
 11
394.764921
 21
227.721309
 31
0.0
  0
LINE
  5
AB89
330
A8D4
100
AcDbEntity
  8
1
  6
Continuous
100
AcDbLine
 10
395.1375039999999
 20
226.407512
 30
0.0
 11
393.350707
 21
227.721309
 31
0.0
  0
LINE
  5
AB8A
330
A8D4
100
AcDbEntity
  8
1
  6
Continuous
100
AcDbLine
 10
395.1375039999999
 20
227.1526779999999
 30
0.0
 11
393.9913160000001
 21
226.0064899999999
 31
0.0
  0
LINE
  5
AB8B
330
A8D4
100
AcDbEntity
  8
1
  6
Continuous
100
AcDbLine
 10
388.467458
 20
226.0064899999999
 30
0.0
 11
386.2796399999999
 21
227.721309
 31
0.0
  0
LINE
  5
AB8C
330
A8D4
100
AcDbEntity
  8
1
  6
Continuous
100
AcDbLine
 10
395.1375039999999
 20
227.721309
 30
0.0
 11
395.1375039999999
 21
226.0064899999999
 31
0.0
  0
LINE
  5
AB8D
330
A8D4
100
AcDbEntity
  8
1
  6
Continuous
100
AcDbLine
 10
387.1486109999998
 20
236.7066349999999
 30
0.0
 11
387.1486109999998
 21
232.7066349999999
 31
0.0
  0
ARC
  5
AB8E
330
A8D4
100
AcDbEntity
  8
1
  6
Continuous
100
AcDbCircle
 10
388.784357
 20
226.593017
 30
0.0
 40
6.113617999999997
100
AcDbArc
 50
25.277722
 51
90.0
  0
LINE
  5
AB8F
330
A8D4
100
AcDbEntity
  8
1
  6
Continuous
100
AcDbLine
 10
395.1375039999999
 20
227.3487259999999
 30
0.0
 11
394.764921
 21
227.721309
 31
0.0
  0
LINE
  5
AB90
330
A8D4
100
AcDbEntity
  8
1
  6
Continuous
100
AcDbLine
 10
395.127588
 20
229.20357
 30
0.0
 11
394.312588
 21
229.20357
 31
0.0
  0
ARC
  5
AB91
330
A8D4
100
AcDbEntity
  8
1
  6
Continuous
100
AcDbCircle
 10
391.526106
 20
230.7537979999999
 30
0.0
 40
4.697225
100
AcDbArc
 50
319.789963
 51
333.713305
  0
ARC
  5
AB92
330
A8D4
100
AcDbEntity
  8
1
  6
Continuous
100
AcDbCircle
 10
394.8636179999999
 20
228.283717
 30
0.0
 40
0.9569799999999998
100
AcDbArc
 50
24.04026499999999
 51
73.98808699999998
  0
LINE
  5
AB93
330
A8D4
100
AcDbEntity
  8
1
  6
Continuous
100
AcDbLine
 10
381.39639
 20
226.0064899999999
 30
0.0
 11
379.208572
 21
227.721309
 31
0.0
  0
LINE
  5
AB94
330
A8D4
100
AcDbEntity
  8
1
  6
Continuous
100
AcDbLine
 10
378.4349669999999
 20
226.0064899999999
 30
0.0
 11
380.622785
 21
227.721309
 31
0.0
  0
LINE
  5
AB95
330
A8D4
100
AcDbEntity
  8
1
  6
Continuous
100
AcDbLine
 10
379.9821769999998
 20
226.0064899999999
 30
0.0
 11
377.794358
 21
227.721309
 31
0.0
  0
LINE
  5
AB96
330
A8D4
100
AcDbEntity
  8
1
  6
Continuous
100
AcDbLine
 10
379.8491799999998
 20
226.0064899999999
 30
0.0
 11
382.0369989999999
 21
227.721309
 31
0.0
  0
LINE
  5
AB97
330
A8D4
100
AcDbEntity
  8
1
  6
Continuous
100
AcDbLine
 10
382.810604
 20
226.0064899999999
 30
0.0
 11
380.622785
 21
227.721309
 31
0.0
  0
LINE
  5
AB98
330
A8D4
100
AcDbEntity
  8
1
  6
Continuous
100
AcDbLine
 10
384.2248169999999
 20
226.0064899999999
 30
0.0
 11
382.0369989999999
 21
227.721309
 31
0.0
  0
LINE
  5
AB99
330
A8D4
100
AcDbEntity
  8
1
  6
Continuous
100
AcDbLine
 10
381.2633939999998
 20
226.0064899999999
 30
0.0
 11
383.451213
 21
227.721309
 31
0.0
  0
LINE
  5
AB9A
330
A8D4
100
AcDbEntity
  8
1
  6
Continuous
100
AcDbLine
 10
382.677608
 20
226.0064899999999
 30
0.0
 11
384.8654259999999
 21
227.721309
 31
0.0
  0
LINE
  5
AB9B
330
A8D4
100
AcDbEntity
  8
1
  6
Continuous
100
AcDbLine
 10
369.949685
 20
226.0064899999999
 30
0.0
 11
372.1375039999998
 21
227.721309
 31
0.0
  0
LINE
  5
AB9C
330
A8D4
100
AcDbEntity
  8
1
  6
Continuous
100
AcDbLine
 10
374.325323
 20
226.0064899999999
 30
0.0
 11
372.1375039999998
 21
227.721309
 31
0.0
  0
LINE
  5
AB9D
330
A8D4
100
AcDbEntity
  8
1
  6
Continuous
100
AcDbLine
 10
372.9111089999999
 20
226.0064899999999
 30
0.0
 11
370.7232899999998
 21
227.721309
 31
0.0
  0
LINE
  5
AB9E
330
A8D4
100
AcDbEntity
  8
1
  6
Continuous
100
AcDbLine
 10
375.7395359999999
 20
226.0064899999999
 30
0.0
 11
373.5517179999998
 21
227.721309
 31
0.0
  0
LINE
  5
AB9F
330
A8D4
100
AcDbEntity
  8
1
  6
Continuous
100
AcDbLine
 10
377.1537499999998
 20
226.0064899999999
 30
0.0
 11
374.965931
 21
227.721309
 31
0.0
  0
LINE
  5
ABA0
330
A8D4
100
AcDbEntity
  8
1
  6
Continuous
100
AcDbLine
 10
371.363899
 20
226.0064899999999
 30
0.0
 11
373.5517179999998
 21
227.721309
 31
0.0
  0
LINE
  5
ABA1
330
A8D4
100
AcDbEntity
  8
1
  6
Continuous
100
AcDbLine
 10
372.7781129999998
 20
226.0064899999999
 30
0.0
 11
374.965931
 21
227.721309
 31
0.0
  0
LINE
  5
ABA2
330
A8D4
100
AcDbEntity
  8
1
  6
Continuous
100
AcDbLine
 10
374.192326
 20
226.0064899999999
 30
0.0
 11
376.380145
 21
227.721309
 31
0.0
  0
LINE
  5
ABA3
330
A8D4
100
AcDbEntity
  8
1
  6
Continuous
100
AcDbLine
 10
375.60654
 20
226.0064899999999
 30
0.0
 11
377.794358
 21
227.721309
 31
0.0
  0
LINE
  5
ABA4
330
A8D4
100
AcDbEntity
  8
1
  6
Continuous
100
AcDbLine
 10
378.5679629999998
 20
226.0064899999999
 30
0.0
 11
376.380145
 21
227.721309
 31
0.0
  0
LINE
  5
ABA5
330
A8D4
100
AcDbEntity
  8
1
  6
Continuous
100
AcDbLine
 10
377.0207529999999
 20
226.0064899999999
 30
0.0
 11
379.208572
 21
227.721309
 31
0.0
  0
LINE
  5
ABA6
330
A8D4
100
AcDbEntity
  8
2
  6
Continuous
100
AcDbLine
 10
378.1375419999998
 20
236.7066349999999
 30
0.0
 11
377.461004
 21
237.878433
 31
0.0
  0
LINE
  5
ABA7
330
A8D4
100
AcDbEntity
  8
1
  6
Continuous
100
AcDbLine
 10
379.6430579999998
 20
236.7066349999999
 30
0.0
 11
379.6430579999998
 21
232.7066349999999
 31
0.0
  0
LINE
  5
ABA8
330
A8D4
100
AcDbEntity
  8
1
  6
Continuous
100
AcDbLine
 10
347.3875039999999
 20
223.0064899999999
 30
0.0
 11
347.3875039999999
 21
218.40649
 31
0.0
  0
LINE
  5
ABA9
330
A8D4
100
AcDbEntity
  8
1
  6
Continuous
100
AcDbLine
 10
347.3875039999999
 20
218.40649
 30
0.0
 11
355.243405
 21
218.40649
 31
0.0
  0
LINE
  5
ABAA
330
A8D4
100
AcDbEntity
  8
1
  6
Continuous
100
AcDbLine
 10
357.1931329999999
 20
218.214984
 30
0.0
 11
357.237504
 21
218.1439899999999
 31
0.0
  0
ARC
  5
ABAB
330
A8D4
100
AcDbEntity
  8
1
  6
Continuous
100
AcDbCircle
 10
355.243405
 20
208.4064899999999
 30
0.0
 40
10.0
100
AcDbArc
 50
31.136199
 51
90.0
  0
ARC
  5
ABAC
330
A8D4
100
AcDbEntity
  8
1
  6
Continuous
100
AcDbCircle
 10
360.7409359999999
 20
223.994524
 30
0.0
 40
7.848514999999999
100
AcDbArc
 50
225.396746
 51
269.083862
  0
LINE
  5
ABAD
330
A8D4
100
AcDbEntity
  8
1
  6
Continuous
100
AcDbLine
 10
361.573546
 20
216.1478919999999
 30
0.0
 11
360.615446
 21
216.147012
 31
0.0
  0
LINE
  5
ABAE
330
A8D4
100
AcDbEntity
  8
1
  6
Continuous
100
AcDbLine
 10
354.526333
 20
226.0064899999999
 30
0.0
 11
352.3385139999998
 21
227.721309
 31
0.0
  0
LINE
  5
ABAF
330
A8D4
100
AcDbEntity
  8
1
  6
Continuous
100
AcDbLine
 10
352.979123
 20
226.0064899999999
 30
0.0
 11
355.166941
 21
227.721309
 31
0.0
  0
LINE
  5
ABB0
330
A8D4
100
AcDbEntity
  8
1
  6
Continuous
100
AcDbLine
 10
351.564909
 20
226.0064899999999
 30
0.0
 11
353.7527279999998
 21
227.721309
 31
0.0
  0
ARC
  5
ABB1
330
A8D4
100
AcDbEntity
  8
1
  6
Continuous
100
AcDbCircle
 10
355.4906509999999
 20
226.593017
 30
0.0
 40
6.113617999999997
100
AcDbArc
 50
90.0
 51
154.722278
  0
LINE
  5
ABB2
330
A8D4
100
AcDbEntity
  8
1
  6
Continuous
100
AcDbLine
 10
355.9405459999999
 20
226.0064899999999
 30
0.0
 11
353.7527279999998
 21
227.721309
 31
0.0
  0
LINE
  5
ABB3
330
A8D4
100
AcDbEntity
  8
1
  6
Continuous
100
AcDbLine
 10
365.840041
 20
226.0064899999999
 30
0.0
 11
363.652223
 21
227.721309
 31
0.0
  0
LINE
  5
ABB4
330
A8D4
100
AcDbEntity
  8
1
  6
Continuous
100
AcDbLine
 10
364.4258279999998
 20
226.0064899999999
 30
0.0
 11
362.238009
 21
227.721309
 31
0.0
  0
LINE
  5
ABB5
330
A8D4
100
AcDbEntity
  8
1
  6
Continuous
100
AcDbLine
 10
362.878618
 20
226.0064899999999
 30
0.0
 11
365.066436
 21
227.721309
 31
0.0
  0
LINE
  5
ABB6
330
A8D4
100
AcDbEntity
  8
1
  6
Continuous
100
AcDbLine
 10
368.668468
 20
226.0064899999999
 30
0.0
 11
366.48065
 21
227.721309
 31
0.0
  0
LINE
  5
ABB7
330
A8D4
100
AcDbEntity
  8
1
  6
Continuous
100
AcDbLine
 10
367.254255
 20
226.0064899999999
 30
0.0
 11
365.066436
 21
227.721309
 31
0.0
  0
LINE
  5
ABB8
330
A8D4
100
AcDbEntity
  8
1
  6
Continuous
100
AcDbLine
 10
367.121258
 20
226.0064899999999
 30
0.0
 11
369.3090769999998
 21
227.721309
 31
0.0
  0
LINE
  5
ABB9
330
A8D4
100
AcDbEntity
  8
1
  6
Continuous
100
AcDbLine
 10
365.7070449999998
 20
226.0064899999999
 30
0.0
 11
367.8948629999999
 21
227.721309
 31
0.0
  0
LINE
  5
ABBA
330
A8D4
100
AcDbEntity
  8
1
  6
Continuous
100
AcDbLine
 10
364.2928309999998
 20
226.0064899999999
 30
0.0
 11
366.48065
 21
227.721309
 31
0.0
  0
LINE
  5
ABBB
330
A8D4
100
AcDbEntity
  8
1
  6
Continuous
100
AcDbLine
 10
361.5974
 20
226.0064899999999
 30
0.0
 11
359.409582
 21
227.721309
 31
0.0
  0
LINE
  5
ABBC
330
A8D4
100
AcDbEntity
  8
1
  6
Continuous
100
AcDbLine
 10
360.1831869999998
 20
226.0064899999999
 30
0.0
 11
357.995368
 21
227.721309
 31
0.0
  0
LINE
  5
ABBD
330
A8D4
100
AcDbEntity
  8
1
  6
Continuous
100
AcDbLine
 10
358.768973
 20
226.0064899999999
 30
0.0
 11
356.5811549999998
 21
227.721309
 31
0.0
  0
LINE
  5
ABBE
330
A8D4
100
AcDbEntity
  8
1
  6
Continuous
100
AcDbLine
 10
357.3547599999998
 20
226.0064899999999
 30
0.0
 11
355.166941
 21
227.721309
 31
0.0
  0
LINE
  5
ABBF
330
A8D4
100
AcDbEntity
  8
1
  6
Continuous
100
AcDbLine
 10
358.635977
 20
226.0064899999999
 30
0.0
 11
360.823796
 21
227.721309
 31
0.0
  0
LINE
  5
ABC0
330
A8D4
100
AcDbEntity
  8
1
  6
Continuous
100
AcDbLine
 10
357.221763
 20
226.0064899999999
 30
0.0
 11
359.409582
 21
227.721309
 31
0.0
  0
LINE
  5
ABC1
330
A8D4
100
AcDbEntity
  8
1
  6
Continuous
100
AcDbLine
 10
355.80755
 20
226.0064899999999
 30
0.0
 11
357.995368
 21
227.721309
 31
0.0
  0
LINE
  5
ABC2
330
A8D4
100
AcDbEntity
  8
1
  6
Continuous
100
AcDbLine
 10
354.393336
 20
226.0064899999999
 30
0.0
 11
356.5811549999998
 21
227.721309
 31
0.0
  0
LINE
  5
ABC3
330
A8D4
100
AcDbEntity
  8
1
  6
Continuous
100
AcDbLine
 10
363.011614
 20
226.0064899999999
 30
0.0
 11
360.823796
 21
227.721309
 31
0.0
  0
LINE
  5
ABC4
330
A8D4
100
AcDbEntity
  8
1
  6
Continuous
100
AcDbLine
 10
361.4644039999998
 20
226.0064899999999
 30
0.0
 11
363.652223
 21
227.721309
 31
0.0
  0
LINE
  5
ABC5
330
A8D4
100
AcDbEntity
  8
1
  6
Continuous
100
AcDbLine
 10
360.0501909999999
 20
226.0064899999999
 30
0.0
 11
362.238009
 21
227.721309
 31
0.0
  0
LINE
  5
ABC6
330
A8D4
100
AcDbEntity
  8
2
  6
Continuous
100
AcDbLine
 10
366.137542
 20
236.7066349999999
 30
0.0
 11
366.8140799999998
 21
237.878433
 31
0.0
  0
LINE
  5
ABC7
330
A8D4
100
AcDbEntity
  8
1
  6
Continuous
100
AcDbLine
 10
357.1263969999998
 20
236.7066349999999
 30
0.0
 11
357.1263969999998
 21
232.7066349999999
 31
0.0
  0
LINE
  5
ABC8
330
A8D4
100
AcDbEntity
  8
1
  6
Continuous
100
AcDbLine
 10
364.6319509999998
 20
236.7066349999999
 30
0.0
 11
364.6319509999998
 21
232.7066349999999
 31
0.0
  0
ARC
  5
ABC9
330
A8D4
100
AcDbEntity
  8
1
  6
Continuous
100
AcDbCircle
 10
350.8189279999998
 20
222.544827
 30
0.0
 40
3.462340999999999
100
AcDbArc
 50
88.86512399999999
 51
172.3374649999999
  0
LINE
  5
ABCA
330
A8D4
100
AcDbEntity
  8
1
  6
Continuous
100
AcDbLine
 10
349.1375039999998
 20
225.879073
 30
0.0
 11
349.5100869999998
 21
226.0064899999999
 31
0.0
  0
LINE
  5
ABCB
330
A8D4
100
AcDbEntity
  8
1
  6
Continuous
100
AcDbLine
 10
353.112119
 20
226.0064899999999
 30
0.0
 11
350.9243009999999
 21
227.721309
 31
0.0
  0
LINE
  5
ABCC
330
A8D4
100
AcDbEntity
  8
1
  6
Continuous
100
AcDbLine
 10
351.697906
 20
226.0064899999999
 30
0.0
 11
349.5100869999998
 21
227.721309
 31
0.0
  0
LINE
  5
ABCD
330
A8D4
100
AcDbEntity
  8
1
  6
Continuous
100
AcDbLine
 10
350.283692
 20
226.0064899999999
 30
0.0
 11
349.1375039999998
 21
227.1526779999999
 31
0.0
  0
LINE
  5
ABCE
330
A8D4
100
AcDbEntity
  8
1
  6
Continuous
100
AcDbLine
 10
350.1506959999999
 20
226.0064899999999
 30
0.0
 11
352.3385139999998
 21
227.721309
 31
0.0
  0
LINE
  5
ABCF
330
A8D4
100
AcDbEntity
  8
1
  6
Continuous
100
AcDbLine
 10
349.1375039999998
 20
226.407512
 30
0.0
 11
350.9243009999999
 21
227.721309
 31
0.0
  0
LINE
  5
ABD0
330
A8D4
100
AcDbEntity
  8
1
  6
Continuous
100
AcDbLine
 10
349.1375039999998
 20
227.721309
 30
0.0
 11
349.1375039999998
 21
226.0064899999999
 31
0.0
  0
LINE
  5
ABD1
330
A8D4
100
AcDbEntity
  8
1
  6
Continuous
100
AcDbLine
 10
349.14742
 20
229.20357
 30
0.0
 11
349.9624199999999
 21
229.20357
 31
0.0
  0
LINE
  5
ABD2
330
A8D4
100
AcDbEntity
  8
1
  6
Continuous
100
AcDbLine
 10
349.1375039999998
 20
227.3487259999999
 30
0.0
 11
349.5100869999998
 21
227.721309
 31
0.0
  0
ARC
  5
ABD3
330
A8D4
100
AcDbEntity
  8
1
  6
Continuous
100
AcDbCircle
 10
352.7489019999999
 20
230.7537979999999
 30
0.0
 40
4.697225
100
AcDbArc
 50
206.286695
 51
220.210037
  0
ARC
  5
ABD4
330
A8D4
100
AcDbEntity
  8
1
  6
Continuous
100
AcDbCircle
 10
349.4113909999999
 20
228.283717
 30
0.0
 40
0.9569799999999998
100
AcDbArc
 50
106.011913
 51
155.9597349999999
  0
LINE
  5
ABD5
330
A8D4
100
AcDbEntity
  8
1
  6
Continuous
100
AcDbLine
 10
367.137504
 20
276.7066349999999
 30
0.0
 11
377.1375039999999
 21
276.7066349999999
 31
0.0
  0
LINE
  5
ABD6
330
A8D4
100
AcDbEntity
  8
1
  6
Continuous
100
AcDbLine
 10
378.1375039999999
 20
275.706635
 30
0.0
 11
366.1375039999999
 21
275.706635
 31
0.0
  0
LINE
  5
ABD7
330
A8D4
100
AcDbEntity
  8
1
  6
Continuous
100
AcDbLine
 10
378.1375039999999
 20
275.706635
 30
0.0
 11
377.1375039999999
 21
276.7066349999999
 31
0.0
  0
LINE
  5
ABD8
330
A8D4
100
AcDbEntity
  8
1
  6
Continuous
100
AcDbLine
 10
366.1375039999999
 20
275.706635
 30
0.0
 11
367.137504
 21
276.7066349999999
 31
0.0
  0
CIRCLE
  5
ABD9
330
A8D4
100
AcDbEntity
  8
1
  6
Continuous
100
AcDbCircle
 10
397.1375039999998
 20
179.2064899999998
 30
0.0
 40
5.75
  0
ENDSEC
  0
SECTION
  2
OBJECTS
  0
DICTIONARY
  5
A8C2
330
0
100
AcDbDictionary
281
     1
  3
ACAD_CIP_PREVIOUS_PRODUCT_INFO
350
AC3B
  3
ACAD_COLOR
350
AC1D
  3
ACAD_DETAILVIEWSTYLE
350
AC36
  3
ACAD_GROUP
350
A8C3
  3
ACAD_LAYOUT
350
A8CF
  3
ACAD_MATERIAL
350
ABEB
  3
ACAD_MLEADERSTYLE
350
AC32
  3
ACAD_MLINESTYLE
350
A8CC
  3
ACAD_PLOTSETTINGS
350
A8CE
  3
ACAD_PLOTSTYLENAME
350
ABE9
  3
ACAD_SCALELIST
350
AC20
  3
ACAD_SECTIONVIEWSTYLE
350
AC34
  3
ACAD_TABLESTYLE
350
AC1E
  3
ACAD_VISUALSTYLE
350
AC04
  3
ACDB_RECOMPOSE_DATA
350
AC59
  3
AcDbVariableDictionary
350
AC4C
  3
DWGPROPS
350
AC5A
  0
DICTIONARY
  5
AC3C
330
A8C6
100
AcDbDictionary
280
     1
281
     1
  3
ADSK_XREC_LAYER_RECONCILED
360
AC3D
  0
DICTIONARY
  5
AC3E
330
A8DC
100
AcDbDictionary
280
     1
281
     1
  3
ADSK_XREC_LAYER_RECONCILED
360
AC3F
  0
DICTIONARY
  5
AC40
330
A8DD
100
AcDbDictionary
280
     1
281
     1
  3
ADSK_XREC_LAYER_RECONCILED
360
AC41
  0
DICTIONARY
  5
AC42
330
A8DE
100
AcDbDictionary
280
     1
281
     1
  3
ADSK_XREC_LAYER_RECONCILED
360
AC43
  0
DICTIONARY
  5
AC44
330
A8DF
100
AcDbDictionary
280
     1
281
     1
  3
ADSK_XREC_LAYER_RECONCILED
360
AC45
  0
DICTIONARY
  5
AC46
330
A8E0
100
AcDbDictionary
280
     1
281
     1
  3
ADSK_XREC_LAYER_RECONCILED
360
AC47
  0
DICTIONARY
  5
AC48
330
A8E1
100
AcDbDictionary
280
     1
281
     1
  3
ADSK_XREC_LAYER_RECONCILED
360
AC49
  0
DICTIONARY
  5
AC4A
330
A8E2
100
AcDbDictionary
280
     1
281
     1
  3
ADSK_XREC_LAYER_RECONCILED
360
AC4B
  0
DICTIONARY
  5
ABE4
330
A8D4
100
AcDbDictionary
281
     1
  3
ACAD_LAYOUTSELFREF
350
ABE5
  0
DICTIONARY
  5
ABE2
330
A8D0
100
AcDbDictionary
281
     1
  3
ACAD_LAYOUTSELFREF
350
ABE3
  0
XRECORD
  5
AC3B
102
{ACAD_REACTORS
330
A8C2
102
}
330
A8C2
100
AcDbXrecord
280
     1
300
ACDLT
300
2014
300
ACDLT_F_S
  0
DICTIONARY
  5
AC1D
102
{ACAD_REACTORS
330
A8C2
102
}
330
A8C2
100
AcDbDictionary
281
     1
  0
DICTIONARY
  5
AC36
102
{ACAD_REACTORS
330
A8C2
102
}
330
A8C2
100
AcDbDictionary
281
     1
  3
Imperial24
350
AC37
  0
DICTIONARY
  5
A8C3
102
{ACAD_REACTORS
330
A8C2
102
}
330
A8C2
100
AcDbDictionary
281
     1
  0
DICTIONARY
  5
A8CF
102
{ACAD_REACTORS
330
A8C2
102
}
330
A8C2
100
AcDbDictionary
281
     1
  3
Model
350
AC38
  3
レイアウト1
350
AC39
  0
DICTIONARY
  5
ABEB
102
{ACAD_REACTORS
330
A8C2
102
}
330
A8C2
100
AcDbDictionary
281
     1
  3
ByBlock
350
ABF4
  3
ByLayer
350
ABEC
  3
Global
350
ABFC
  0
DICTIONARY
  5
AC32
102
{ACAD_REACTORS
330
A8C2
102
}
330
A8C2
100
AcDbDictionary
281
     1
  3
Standard
350
AC33
  0
DICTIONARY
  5
A8CC
102
{ACAD_REACTORS
330
A8C2
102
}
330
A8C2
100
AcDbDictionary
281
     1
  3
STANDARD
350
A8CD
  0
DICTIONARY
  5
A8CE
102
{ACAD_REACTORS
330
A8C2
102
}
330
A8C2
100
AcDbDictionary
281
     1
  0
ACDBDICTIONARYWDFLT
  5
ABE9
102
{ACAD_REACTORS
330
A8C2
102
}
330
A8C2
100
AcDbDictionary
281
     1
  3
Normal
350
ABEA
100
AcDbDictionaryWithDefault
340
ABEA
  0
DICTIONARY
  5
AC20
102
{ACAD_REACTORS
330
A8C2
102
}
330
A8C2
100
AcDbDictionary
281
     1
  3
A0
350
AC21
  3
A1
350
AC22
  3
A2
350
AC23
  3
A3
350
AC24
  3
A4
350
AC25
  3
A5
350
AC26
  3
A6
350
AC27
  3
A7
350
AC28
  3
A8
350
AC29
  3
A9
350
AC2A
  3
B0
350
AC2B
  3
B1
350
AC2C
  3
B2
350
AC2D
  3
B3
350
AC2E
  3
B4
350
AC2F
  3
B5
350
AC30
  3
B6
350
AC31
  0
DICTIONARY
  5
AC34
102
{ACAD_REACTORS
330
A8C2
102
}
330
A8C2
100
AcDbDictionary
281
     1
  3
Imperial24
350
AC35
  0
DICTIONARY
  5
AC1E
102
{ACAD_REACTORS
330
A8C2
102
}
330
A8C2
100
AcDbDictionary
281
     1
  3
Standard
350
AC1F
  0
DICTIONARY
  5
AC04
102
{ACAD_REACTORS
330
A8C2
102
}
330
A8C2
100
AcDbDictionary
281
     1
  3
2dWireframe
350
AC0A
  3
Basic
350
AC09
  3
Brighten
350
AC10
  3
ColorChange
350
AC14
  3
Conceptual
350
AC0D
  3
Dim
350
AC0F
  3
EdgeColorOff
350
AC1C
  3
Facepattern
350
AC13
  3
Flat
350
AC05
  3
FlatWithEdges
350
AC06
  3
Gouraud
350
AC07
  3
GouraudWithEdges
350
AC08
  3
Hidden
350
AC0C
  3
JitterOff
350
AC1A
  3
Linepattern
350
AC12
  3
OverhangOff
350
AC1B
  3
Realistic
350
AC0E
  3
Shaded
350
AC19
  3
Shaded with edges
350
AC18
  3
Shades of Gray
350
AC15
  3
Sketchy
350
AC16
  3
Thicken
350
AC11
  3
Wireframe
350
AC0B
  3
X-Ray
350
AC17
  0
XRECORD
  5
AC59
102
{ACAD_REACTORS
330
A8C2
102
}
330
A8C2
100
AcDbXrecord
280
     1
 90
        1
330
AC1F
  0
DICTIONARY
  5
AC4C
102
{ACAD_REACTORS
330
A8C2
102
}
330
A8C2
100
AcDbDictionary
281
     1
  3
CANNOSCALE
350
AC51
  3
CMLEADERSTYLE
350
AC4E
  3
CTABLESTYLE
350
AC4D
  3
CVIEWDETAILSTYLE
350
AC4F
  3
CVIEWSECTIONSTYLE
350
AC50
  3
DIMASSOC
350
AC54
  3
INDEXCTL
350
AC53
  3
SORTENTS
350
AC52
  3
XCLIPFRAME
350
AC55
  0
XRECORD
  5
AC5A
102
{ACAD_REACTORS
330
A8C2
102
}
330
A8C2
100
AcDbXrecord
280
     1
  1
DWGPROPS COOKIE
  2

  3

  4

  6

  7

  8
Yoshitsune
  9

300
=
301
=
302
=
303
=
304
=
305
=
306
=
307
=
308
=
309
=
 40
0.0000103472222222
 41
2451302.667406945
 42
2457192.688004699
  1

 90
        0
  0
XRECORD
  5
AC3D
102
{ACAD_REACTORS
330
AC3C
102
}
330
AC3C
100
AcDbXrecord
280
     1
290
     1
  0
XRECORD
  5
AC3F
102
{ACAD_REACTORS
330
AC3E
102
}
330
AC3E
100
AcDbXrecord
280
     1
290
     1
  0
XRECORD
  5
AC41
102
{ACAD_REACTORS
330
AC40
102
}
330
AC40
100
AcDbXrecord
280
     1
290
     1
  0
XRECORD
  5
AC43
102
{ACAD_REACTORS
330
AC42
102
}
330
AC42
100
AcDbXrecord
280
     1
290
     1
  0
XRECORD
  5
AC45
102
{ACAD_REACTORS
330
AC44
102
}
330
AC44
100
AcDbXrecord
280
     1
290
     1
  0
XRECORD
  5
AC47
102
{ACAD_REACTORS
330
AC46
102
}
330
AC46
100
AcDbXrecord
280
     1
290
     1
  0
XRECORD
  5
AC49
102
{ACAD_REACTORS
330
AC48
102
}
330
AC48
100
AcDbXrecord
280
     1
290
     1
  0
XRECORD
  5
AC4B
102
{ACAD_REACTORS
330
AC4A
102
}
330
AC4A
100
AcDbXrecord
280
     1
290
     1
  0
XRECORD
  5
ABE5
102
{ACAD_REACTORS
330
ABE4
102
}
330
ABE4
100
AcDbXrecord
280
     1
340
A8D4
  0
XRECORD
  5
ABE3
102
{ACAD_REACTORS
330
ABE2
102
}
330
ABE2
100
AcDbXrecord
280
     1
340
A8D0
  0
ACDBDETAILVIEWSTYLE
  5
AC37
102
{ACAD_XDICTIONARY
360
AC92
102
}
102
{ACAD_REACTORS
330
AC36
102
}
330
AC36
100
AcDbModelDocViewStyle
 70
     0
  3
Imperial24
290
     0
100
AcDbDetailViewStyle
 70
     0
 71
     0
 90
        3
 71
     1
340
A8C7
 40
0.24
340
0
 40
0.24
300

 40
0.36
280
     3
 71
     2
340
A8CB
 90
       25
 71
     3
340
A8C7
 40
0.24
 90
        1
 40
0.75
 90
        1
300
%<\AcVar ViewType \f "%tc1">% %<\AcVar ViewDetailId>%\PSCALE %<\AcVar ViewScale \f "%sn">%
 71
     4
340
A8CB
 90
       25
340
A8CB
 90
       25
280
     0
  0
LAYOUT
  5
AC38
102
{ACAD_XDICTIONARY
360
AC94
102
}
102
{ACAD_REACTORS
330
A8CF
102
}
330
A8CF
100
AcDbPlotSettings
  1

  2
Canon LBP9100C
  4

  6

 40
0.0
 41
0.0
 42
0.0
 43
0.0
 44
0.0
 45
0.0
 46
0.0
 47
0.0
 48
0.0
 49
0.0
140
0.0
141
0.0
142
1.0
143
1.0
 70
  1712
 72
     0
 73
     0
 74
     0
  7

 75
     0
147
1.0
148
0.0
149
0.0
100
AcDbLayout
  1
Model
 70
     1
 71
     0
 10
0.0
 20
0.0
 11
12.0
 21
9.0
 12
0.0
 22
0.0
 32
0.0
 14
0.0
 24
0.0
 34
0.0
 15
0.0
 25
0.0
 35
0.0
146
0.0
 13
0.0
 23
0.0
 33
0.0
 16
1.0
 26
0.0
 36
0.0
 17
0.0
 27
1.0
 37
0.0
 76
     0
330
A8D4
331
ABE1
  0
LAYOUT
  5
AC39
102
{ACAD_XDICTIONARY
360
AC96
102
}
102
{ACAD_REACTORS
330
A8CF
102
}
330
A8CF
100
AcDbPlotSettings
  1

  2
Canon LBP9100C
  4

  6

 40
0.0
 41
0.0
 42
0.0
 43
0.0
 44
0.0
 45
0.0
 46
0.0
 47
0.0
 48
0.0
 49
0.0
140
0.0
141
0.0
142
1.0
143
1.0
 70
   688
 72
     0
 73
     0
 74
     5
  7

 75
    16
147
1.0
148
0.0
149
0.0
100
AcDbLayout
  1
レイアウト1
 70
     0
 71
     1
 10
0.0
 20
0.0
 11
420.0
 21
297.0
 12
0.0
 22
0.0
 32
0.0
 14
1.000000000000000E+20
 24
1.000000000000000E+20
 34
1.000000000000000E+20
 15
-1.000000000000000E+20
 25
-1.000000000000000E+20
 35
-1.000000000000000E+20
146
0.0
 13
0.0
 23
0.0
 33
0.0
 16
1.0
 26
0.0
 36
0.0
 17
0.0
 27
1.0
 37
0.0
 76
     0
330
A8D0
  0
MATERIAL
  5
ABF4
102
{ACAD_XDICTIONARY
360
ABF5
102
}
102
{ACAD_REACTORS
330
ABEB
102
}
330
ABEB
100
AcDbMaterial
  1
ByBlock
 72
     0
 43
0.0208333333333333
 43
0.0
 43
0.0
 43
0.0
 43
0.0
 43
0.0208333333333333
 43
0.0
 43
0.0
 43
0.0
 43
0.0
 43
1.0
 43
0.0
 43
0.0
 43
0.0
 43
0.0
 43
1.0
 77
     0
 47
0.0208333333333333
 47
0.0
 47
0.0
 47
0.0
 47
0.0
 47
0.0208333333333333
 47
0.0
 47
0.0
 47
0.0
 47
0.0
 47
1.0
 47
0.0
 47
0.0
 47
0.0
 47
0.0
 47
1.0
171
     0
 49
0.0208333333333333
 49
0.0
 49
0.0
 49
0.0
 49
0.0
 49
0.0208333333333333
 49
0.0
 49
0.0
 49
0.0
 49
0.0
 49
1.0
 49
0.0
 49
0.0
 49
0.0
 49
0.0
 49
1.0
175
     0
142
0.0208333333333333
142
0.0
142
0.0
142
0.0
142
0.0
142
0.0208333333333333
142
0.0
142
0.0
142
0.0
142
0.0
142
1.0
142
0.0
142
0.0
142
0.0
142
0.0
142
1.0
179
     0
144
0.0208333333333333
144
0.0
144
0.0
144
0.0
144
0.0
144
0.0208333333333333
144
0.0
144
0.0
144
0.0
144
0.0
144
1.0
144
0.0
144
0.0
144
0.0
144
0.0
144
1.0
147
0.0208333333333333
147
0.0
147
0.0
147
0.0
147
0.0
147
0.0208333333333333
147
0.0
147
0.0
147
0.0
147
0.0
147
1.0
147
0.0
147
0.0
147
0.0
147
0.0
147
1.0
  0
MATERIAL
  5
ABEC
102
{ACAD_XDICTIONARY
360
ABED
102
}
102
{ACAD_REACTORS
330
ABEB
102
}
330
ABEB
100
AcDbMaterial
  1
ByLayer
 72
     0
 43
0.0208333333333333
 43
0.0
 43
0.0
 43
0.0
 43
0.0
 43
0.0208333333333333
 43
0.0
 43
0.0
 43
0.0
 43
0.0
 43
1.0
 43
0.0
 43
0.0
 43
0.0
 43
0.0
 43
1.0
 77
     0
 47
0.0208333333333333
 47
0.0
 47
0.0
 47
0.0
 47
0.0
 47
0.0208333333333333
 47
0.0
 47
0.0
 47
0.0
 47
0.0
 47
1.0
 47
0.0
 47
0.0
 47
0.0
 47
0.0
 47
1.0
171
     0
 49
0.0208333333333333
 49
0.0
 49
0.0
 49
0.0
 49
0.0
 49
0.0208333333333333
 49
0.0
 49
0.0
 49
0.0
 49
0.0
 49
1.0
 49
0.0
 49
0.0
 49
0.0
 49
0.0
 49
1.0
175
     0
142
0.0208333333333333
142
0.0
142
0.0
142
0.0
142
0.0
142
0.0208333333333333
142
0.0
142
0.0
142
0.0
142
0.0
142
1.0
142
0.0
142
0.0
142
0.0
142
0.0
142
1.0
179
     0
144
0.0208333333333333
144
0.0
144
0.0
144
0.0
144
0.0
144
0.0208333333333333
144
0.0
144
0.0
144
0.0
144
0.0
144
1.0
144
0.0
144
0.0
144
0.0
144
0.0
144
1.0
147
0.0208333333333333
147
0.0
147
0.0
147
0.0
147
0.0
147
0.0208333333333333
147
0.0
147
0.0
147
0.0
147
0.0
147
1.0
147
0.0
147
0.0
147
0.0
147
0.0
147
1.0
  0
MATERIAL
  5
ABFC
102
{ACAD_XDICTIONARY
360
ABFD
102
}
102
{ACAD_REACTORS
330
ABEB
102
}
330
ABEB
100
AcDbMaterial
  1
Global
 72
     0
 43
0.0208333333333333
 43
0.0
 43
0.0
 43
0.0
 43
0.0
 43
0.0208333333333333
 43
0.0
 43
0.0
 43
0.0
 43
0.0
 43
1.0
 43
0.0
 43
0.0
 43
0.0
 43
0.0
 43
1.0
 77
     0
 47
0.0208333333333333
 47
0.0
 47
0.0
 47
0.0
 47
0.0
 47
0.0208333333333333
 47
0.0
 47
0.0
 47
0.0
 47
0.0
 47
1.0
 47
0.0
 47
0.0
 47
0.0
 47
0.0
 47
1.0
171
     0
 49
0.0208333333333333
 49
0.0
 49
0.0
 49
0.0
 49
0.0
 49
0.0208333333333333
 49
0.0
 49
0.0
 49
0.0
 49
0.0
 49
1.0
 49
0.0
 49
0.0
 49
0.0
 49
0.0
 49
1.0
175
     0
142
0.0208333333333333
142
0.0
142
0.0
142
0.0
142
0.0
142
0.0208333333333333
142
0.0
142
0.0
142
0.0
142
0.0
142
1.0
142
0.0
142
0.0
142
0.0
142
0.0
142
1.0
179
     0
144
0.0208333333333333
144
0.0
144
0.0
144
0.0
144
0.0
144
0.0208333333333333
144
0.0
144
0.0
144
0.0
144
0.0
144
1.0
144
0.0
144
0.0
144
0.0
144
0.0
144
1.0
147
0.0208333333333333
147
0.0
147
0.0
147
0.0
147
0.0
147
0.0208333333333333
147
0.0
147
0.0
147
0.0
147
0.0
147
1.0
147
0.0
147
0.0
147
0.0
147
0.0
147
1.0
  0
MLEADERSTYLE
  5
AC33
102
{ACAD_REACTORS
330
AC32
102
}
330
AC32
100
AcDbMLeaderStyle
170
     2
171
     1
172
     0
 90
        2
 40
0.0
 41
0.0
173
     1
 91
-1056964608
340
A8C9
 92
       -2
290
     1
 42
0.09
291
     1
 43
0.36
  3
Standard
 44
0.18
300

342
A8C7
174
     1
178
     6
175
     1
176
     0
 93
-1056964608
 45
0.18
292
     0
297
     0
 46
0.18
 94
-1056964608
 47
1.0
 49
1.0
140
1.0
293
     1
141
0.0
294
     1
177
     0
142
1.0
295
     0
296
     0
143
0.125
1001
ACAD_MLEADERVER
1070
     2
  0
MLINESTYLE
  5
A8CD
102
{ACAD_REACTORS
330
A8CC
102
}
330
A8CC
100
AcDbMlineStyle
  2
STANDARD
 70
     0
  3

 62
   256
 51
90.0
 52
90.0
 71
     2
 49
0.5
 62
   256
  6
BYLAYER
 49
-0.5
 62
   256
  6
BYLAYER
  0
ACDBPLACEHOLDER
  5
ABEA
102
{ACAD_REACTORS
330
ABE9
102
}
330
ABE9
  0
SCALE
  5
AC21
102
{ACAD_REACTORS
330
AC20
102
}
330
AC20
100
AcDbScale
 70
     0
300
1:1
140
1.0
141
1.0
290
     1
  0
SCALE
  5
AC22
102
{ACAD_REACTORS
330
AC20
102
}
330
AC20
100
AcDbScale
 70
     0
300
1/128" = 1'-0"
140
0.0078125
141
12.0
290
     0
  0
SCALE
  5
AC23
102
{ACAD_REACTORS
330
AC20
102
}
330
AC20
100
AcDbScale
 70
     0
300
1/64" = 1'-0"
140
0.015625
141
12.0
290
     0
  0
SCALE
  5
AC24
102
{ACAD_REACTORS
330
AC20
102
}
330
AC20
100
AcDbScale
 70
     0
300
1/32" = 1'-0"
140
0.03125
141
12.0
290
     0
  0
SCALE
  5
AC25
102
{ACAD_REACTORS
330
AC20
102
}
330
AC20
100
AcDbScale
 70
     0
300
1/16" = 1'-0"
140
0.0625
141
12.0
290
     0
  0
SCALE
  5
AC26
102
{ACAD_REACTORS
330
AC20
102
}
330
AC20
100
AcDbScale
 70
     0
300
3/32" = 1'-0"
140
0.09375
141
12.0
290
     0
  0
SCALE
  5
AC27
102
{ACAD_REACTORS
330
AC20
102
}
330
AC20
100
AcDbScale
 70
     0
300
1/8" = 1'-0"
140
0.125
141
12.0
290
     0
  0
SCALE
  5
AC28
102
{ACAD_REACTORS
330
AC20
102
}
330
AC20
100
AcDbScale
 70
     0
300
3/16" = 1'-0"
140
0.1875
141
12.0
290
     0
  0
SCALE
  5
AC29
102
{ACAD_REACTORS
330
AC20
102
}
330
AC20
100
AcDbScale
 70
     0
300
1/4" = 1'-0"
140
0.25
141
12.0
290
     0
  0
SCALE
  5
AC2A
102
{ACAD_REACTORS
330
AC20
102
}
330
AC20
100
AcDbScale
 70
     0
300
3/8" = 1'-0"
140
0.375
141
12.0
290
     0
  0
SCALE
  5
AC2B
102
{ACAD_REACTORS
330
AC20
102
}
330
AC20
100
AcDbScale
 70
     0
300
1/2" = 1'-0"
140
0.5
141
12.0
290
     0
  0
SCALE
  5
AC2C
102
{ACAD_REACTORS
330
AC20
102
}
330
AC20
100
AcDbScale
 70
     0
300
3/4" = 1'-0"
140
0.75
141
12.0
290
     0
  0
SCALE
  5
AC2D
102
{ACAD_REACTORS
330
AC20
102
}
330
AC20
100
AcDbScale
 70
     0
300
1" = 1'-0"
140
1.0
141
12.0
290
     0
  0
SCALE
  5
AC2E
102
{ACAD_REACTORS
330
AC20
102
}
330
AC20
100
AcDbScale
 70
     0
300
1-1/2" = 1'-0"
140
1.5
141
12.0
290
     0
  0
SCALE
  5
AC2F
102
{ACAD_REACTORS
330
AC20
102
}
330
AC20
100
AcDbScale
 70
     0
300
3" = 1'-0"
140
3.0
141
12.0
290
     0
  0
SCALE
  5
AC30
102
{ACAD_REACTORS
330
AC20
102
}
330
AC20
100
AcDbScale
 70
     0
300
6" = 1'-0"
140
6.0
141
12.0
290
     0
  0
SCALE
  5
AC31
102
{ACAD_REACTORS
330
AC20
102
}
330
AC20
100
AcDbScale
 70
     0
300
1'-0" = 1'-0"
140
12.0
141
12.0
290
     0
  0
ACDBSECTIONVIEWSTYLE
  5
AC35
102
{ACAD_XDICTIONARY
360
AC90
102
}
102
{ACAD_REACTORS
330
AC34
102
}
330
AC34
100
AcDbModelDocViewStyle
 70
     0
  3
Imperial24
290
     0
100
AcDbSectionViewStyle
 70
     0
 71
     0
 90
       78
 71
     1
340
A8C7
 40
0.24
340
0
340
0
 40
0.24
300
I, O, Q, S, X, Z
 40
0.48
 90
        3
 40
0.18
 90
        1
 71
     2
340
A8CB
 90
       25
340
A8CB
 90
       50
 40
0.24
 40
0.0
 40
0.24
 71
     3
340
A8C7
 40
0.24
 90
        1
 40
0.75
 90
        1
300
%<\AcVar ViewType \f "%tc1">% %<\AcVar ViewSectionStartId>%-%<\AcVar ViewSectionEndId>%\PSCALE %<\AcVar ViewScale \f "%sn">%
 71
     4
300
ANSI31
 40
1.0
 90
        0
290
     0
290
     0
 90
        6
 40
0.0
 40
1.570796326794896
 40
0.2617993877991494
 40
1.308996938995747
 40
-0.2617993877991494
 40
1.832595714594046
  0
TABLESTYLE
  5
AC1F
102
{ACAD_XDICTIONARY
360
AC57
102
}
102
{ACAD_REACTORS
330
AC1E
102
}
330
AC1E
100
AcDbTableStyle
  3
Standard
 70
     0
 71
     0
 40
0.06
 41
0.06
280
     0
281
     0
  7
STANDARD
140
0.18
170
     2
 62
     0
 63
     7
283
     0
274
    -2
284
     1
 64
     0
275
    -2
285
     1
 65
     0
276
    -2
286
     1
 66
     0
277
    -2
287
     1
 67
     0
278
    -2
288
     1
 68
     0
279
    -2
289
     1
 69
     0
  7
STANDARD
140
0.25
170
     5
 62
     0
 63
     7
283
     0
274
    -2
284
     1
 64
     0
275
    -2
285
     1
 65
     0
276
    -2
286
     1
 66
     0
277
    -2
287
     1
 67
     0
278
    -2
288
     1
 68
     0
279
    -2
289
     1
 69
     0
  7
STANDARD
140
0.18
170
     5
 62
     0
 63
     7
283
     0
274
    -2
284
     1
 64
     0
275
    -2
285
     1
 65
     0
276
    -2
286
     1
 66
     0
277
    -2
287
     1
 67
     0
278
    -2
288
     1
 68
     0
279
    -2
289
     1
 69
     0
  0
VISUALSTYLE
  5
AC0A
102
{ACAD_XDICTIONARY
360
AC68
102
}
102
{ACAD_REACTORS
330
AC04
102
}
330
AC04
100
AcDbVisualStyle
  2
2dWireframe
 70
     4
 71
     0
 72
     2
 73
     0
 90
        0
 40
-0.6
 41
-30.0
 62
     5
 63
     7
 74
     1
 91
        4
 64
     7
 65
   257
 75
     1
175
     1
 42
1.0
 92
        0
 66
   257
 43
1.0
 76
     1
 77
     6
 78
     2
 67
     7
 79
     5
170
     0
171
     0
290
     0
174
     0
 93
        1
 44
0.0
173
     0
291
     0
 45
0.0
1001
ACAD
1000
AcDbSavedByObjectVersion
1070
     0
  0
VISUALSTYLE
  5
AC09
102
{ACAD_XDICTIONARY
360
AC66
102
}
102
{ACAD_REACTORS
330
AC04
102
}
330
AC04
100
AcDbVisualStyle
  2
Basic
 70
     7
 71
     1
 72
     0
 73
     1
 90
        0
 40
-0.6
 41
-30.0
 62
     5
 63
     7
 74
     0
 91
        4
 64
     7
 65
   257
 75
     1
175
     1
 42
1.0
 92
        8
 66
     7
 43
1.0
 76
     1
 77
     6
 78
     2
 67
     7
 79
     5
170
     0
171
     0
290
     0
174
     0
 93
        1
 44
0.0
173
     0
291
     1
 45
0.0
1001
ACAD
1000
AcDbSavedByObjectVersion
1070
     0
  0
VISUALSTYLE
  5
AC10
102
{ACAD_XDICTIONARY
360
AC74
102
}
102
{ACAD_REACTORS
330
AC04
102
}
330
AC04
100
AcDbVisualStyle
  2
Brighten
 70
    12
 71
     2
 72
     2
 73
     0
 90
        0
 40
-0.6
 41
-30.0
 62
     5
 63
     7
 74
     1
 91
        4
 64
     7
 65
   257
 75
     1
175
     1
 42
1.0
 92
        8
 66
     7
 43
1.0
 76
     1
 77
     6
 78
     2
 67
     7
 79
     5
170
     0
171
     0
290
     0
174
     0
 93
        1
 44
50.0
173
     0
291
     1
 45
0.0
1001
ACAD
1000
AcDbSavedByObjectVersion
1070
     0
  0
VISUALSTYLE
  5
AC14
102
{ACAD_XDICTIONARY
360
AC7C
102
}
102
{ACAD_REACTORS
330
AC04
102
}
330
AC04
100
AcDbVisualStyle
  2
ColorChange
 70
    16
 71
     2
 72
     2
 73
     3
 90
        0
 40
-0.6
 41
-30.0
 62
     5
 63
     8
 74
     1
 91
        4
 64
     7
 65
   257
 75
     1
175
     1
 42
1.0
 92
        8
 66
     8
 43
1.0
 76
     1
 77
     6
 78
     2
 67
     7
 79
     5
170
     0
171
     0
290
     0
174
     0
 93
        1
 44
0.0
173
     0
291
     1
 45
0.0
1001
ACAD
1000
AcDbSavedByObjectVersion
1070
     0
  0
VISUALSTYLE
  5
AC0D
102
{ACAD_XDICTIONARY
360
AC6E
102
}
102
{ACAD_REACTORS
330
AC04
102
}
330
AC04
100
AcDbVisualStyle
  2
Conceptual
 70
     9
 71
     3
 72
     2
 73
     0
 90
        0
 40
-0.6
 41
-30.0
 62
     5
 63
     7
 74
     2
 91
        2
 64
     7
 65
   257
 75
     1
175
     1
 42
179.0
 92
        8
 66
     7
 43
1.0
 76
     1
 77
     6
 78
     2
 67
     7
 79
     3
170
     0
171
     0
290
     0
174
     0
 93
        1
 44
0.0
173
     0
291
     0
 45
0.0
1001
ACAD
1000
AcDbSavedByObjectVersion
1070
     0
  0
VISUALSTYLE
  5
AC0F
102
{ACAD_XDICTIONARY
360
AC72
102
}
102
{ACAD_REACTORS
330
AC04
102
}
330
AC04
100
AcDbVisualStyle
  2
Dim
 70
    11
 71
     2
 72
     2
 73
     0
 90
        0
 40
-0.6
 41
-30.0
 62
     5
 63
     7
 74
     1
 91
        4
 64
     7
 65
   257
 75
     1
175
     1
 42
1.0
 92
        8
 66
     7
 43
1.0
 76
     1
 77
     6
 78
     2
 67
     7
 79
     5
170
     0
171
     0
290
     0
174
     0
 93
        1
 44
-50.0
173
     0
291
     1
 45
0.0
1001
ACAD
1000
AcDbSavedByObjectVersion
1070
     0
  0
VISUALSTYLE
  5
AC1C
102
{ACAD_XDICTIONARY
360
AC8C
102
}
102
{ACAD_REACTORS
330
AC04
102
}
330
AC04
100
AcDbVisualStyle
  2
EdgeColorOff
 70
    22
 71
     2
 72
     2
 73
     0
 90
        0
 40
-0.6
 41
-30.0
 62
     5
 63
     7
 74
     1
 91
        4
 64
     7
 65
   257
 75
     1
175
     1
 42
1.0
 92
        8
 66
     7
 43
1.0
 76
     1
 77
     6
 78
     2
 67
     7
 79
     5
170
     0
171
     0
290
     0
174
     0
 93
        1
 44
0.0
173
     0
291
     1
 45
0.0
1001
ACAD
1000
AcDbSavedByObjectVersion
1070
     0
  0
VISUALSTYLE
  5
AC13
102
{ACAD_XDICTIONARY
360
AC7A
102
}
102
{ACAD_REACTORS
330
AC04
102
}
330
AC04
100
AcDbVisualStyle
  2
Facepattern
 70
    15
 71
     2
 72
     2
 73
     0
 90
        0
 40
-0.6
 41
-30.0
 62
     5
 63
     7
 74
     1
 91
        4
 64
     7
 65
   257
 75
     1
175
     1
 42
1.0
 92
        8
 66
     7
 43
1.0
 76
     1
 77
     6
 78
     2
 67
     7
 79
     5
170
     0
171
     0
290
     0
174
     0
 93
        1
 44
0.0
173
     0
291
     1
 45
0.0
1001
ACAD
1000
AcDbSavedByObjectVersion
1070
     0
  0
VISUALSTYLE
  5
AC05
102
{ACAD_XDICTIONARY
360
AC5E
102
}
102
{ACAD_REACTORS
330
AC04
102
}
330
AC04
100
AcDbVisualStyle
  2
Flat
 70
     0
 71
     2
 72
     1
 73
     1
 90
        2
 40
-0.6
 41
30.0
 62
     5
 63
     7
 74
     0
 91
        0
 64
     7
 65
   257
 75
     1
175
     1
 42
1.0
 92
        8
 66
     7
 43
1.0
 76
     1
 77
     6
 78
     2
 67
     7
 79
     5
170
     0
171
     0
290
     0
174
     0
 93
       13
 44
0.0
173
     0
291
     1
 45
0.0
1001
ACAD
1000
AcDbSavedByObjectVersion
1070
     0
  0
VISUALSTYLE
  5
AC06
102
{ACAD_XDICTIONARY
360
AC60
102
}
102
{ACAD_REACTORS
330
AC04
102
}
330
AC04
100
AcDbVisualStyle
  2
FlatWithEdges
 70
     1
 71
     2
 72
     1
 73
     1
 90
        2
 40
-0.6
 41
30.0
 62
     5
 63
     7
 74
     1
 91
        0
 64
     7
 65
   257
 75
     1
175
     1
 42
1.0
 92
        0
 66
   257
 43
1.0
 76
     1
 77
     6
 78
     2
 67
     7
 79
     5
170
     0
171
     0
290
     0
174
     0
 93
       13
 44
0.0
173
     0
291
     1
 45
0.0
1001
ACAD
1000
AcDbSavedByObjectVersion
1070
     0
  0
VISUALSTYLE
  5
AC07
102
{ACAD_XDICTIONARY
360
AC62
102
}
102
{ACAD_REACTORS
330
AC04
102
}
330
AC04
100
AcDbVisualStyle
  2
Gouraud
 70
     2
 71
     2
 72
     2
 73
     1
 90
        2
 40
-0.6
 41
30.0
 62
     5
 63
     7
 74
     0
 91
        0
 64
     7
 65
   257
 75
     1
175
     1
 42
1.0
 92
        0
 66
     7
 43
1.0
 76
     1
 77
     6
 78
     2
 67
     7
 79
     5
170
     0
171
     0
290
     0
174
     0
 93
       13
 44
0.0
173
     0
291
     1
 45
0.0
1001
ACAD
1000
AcDbSavedByObjectVersion
1070
     0
  0
VISUALSTYLE
  5
AC08
102
{ACAD_XDICTIONARY
360
AC64
102
}
102
{ACAD_REACTORS
330
AC04
102
}
330
AC04
100
AcDbVisualStyle
  2
GouraudWithEdges
 70
     3
 71
     2
 72
     2
 73
     1
 90
        2
 40
-0.6
 41
30.0
 62
     5
 63
     7
 74
     1
 91
        0
 64
     7
 65
   257
 75
     1
175
     1
 42
1.0
 92
        0
 66
   257
 43
1.0
 76
     1
 77
     6
 78
     2
 67
     7
 79
     5
170
     0
171
     0
290
     0
174
     0
 93
       13
 44
0.0
173
     0
291
     1
 45
0.0
1001
ACAD
1000
AcDbSavedByObjectVersion
1070
     0
  0
VISUALSTYLE
  5
AC0C
102
{ACAD_XDICTIONARY
360
AC6C
102
}
102
{ACAD_REACTORS
330
AC04
102
}
330
AC04
100
AcDbVisualStyle
  2
Hidden
 70
     6
 71
     1
 72
     2
 73
     2
 90
        0
 40
-0.6
 41
-30.0
 62
     5
 63
     7
 74
     2
 91
        2
 64
     7
 65
   257
 75
     2
175
     1
 42
40.0
 92
        0
 66
   257
 43
1.0
 76
     1
 77
     6
 78
     2
 67
     7
 79
     3
170
     0
171
     0
290
     0
174
     0
 93
        1
 44
0.0
173
     0
291
     0
 45
0.0
1001
ACAD
1000
AcDbSavedByObjectVersion
1070
     0
  0
VISUALSTYLE
  5
AC1A
102
{ACAD_XDICTIONARY
360
AC88
102
}
102
{ACAD_REACTORS
330
AC04
102
}
330
AC04
100
AcDbVisualStyle
  2
JitterOff
 70
    20
 71
     2
 72
     2
 73
     0
 90
        0
 40
-0.6
 41
-30.0
 62
     5
 63
     7
 74
     1
 91
        4
 64
     7
 65
   257
 75
     1
175
     1
 42
1.0
 92
       10
 66
     7
 43
1.0
 76
     1
 77
     6
 78
     2
 67
     7
 79
     5
170
     0
171
     0
290
     0
174
     0
 93
        1
 44
0.0
173
     0
291
     1
 45
0.0
1001
ACAD
1000
AcDbSavedByObjectVersion
1070
     0
  0
VISUALSTYLE
  5
AC12
102
{ACAD_XDICTIONARY
360
AC78
102
}
102
{ACAD_REACTORS
330
AC04
102
}
330
AC04
100
AcDbVisualStyle
  2
Linepattern
 70
    14
 71
     2
 72
     2
 73
     0
 90
        0
 40
-0.6
 41
-30.0
 62
     5
 63
     7
 74
     1
 91
        4
 64
     7
 65
   257
 75
     7
175
     7
 42
1.0
 92
        8
 66
     7
 43
1.0
 76
     1
 77
     6
 78
     2
 67
     7
 79
     5
170
     0
171
     0
290
     0
174
     0
 93
        1
 44
0.0
173
     0
291
     1
 45
0.0
1001
ACAD
1000
AcDbSavedByObjectVersion
1070
     0
  0
VISUALSTYLE
  5
AC1B
102
{ACAD_XDICTIONARY
360
AC8A
102
}
102
{ACAD_REACTORS
330
AC04
102
}
330
AC04
100
AcDbVisualStyle
  2
OverhangOff
 70
    21
 71
     2
 72
     2
 73
     0
 90
        0
 40
-0.6
 41
-30.0
 62
     5
 63
     7
 74
     1
 91
        4
 64
     7
 65
   257
 75
     1
175
     1
 42
1.0
 92
        9
 66
     7
 43
1.0
 76
     1
 77
     6
 78
     2
 67
     7
 79
     5
170
     0
171
     0
290
     0
174
     0
 93
        1
 44
0.0
173
     0
291
     1
 45
0.0
1001
ACAD
1000
AcDbSavedByObjectVersion
1070
     0
  0
VISUALSTYLE
  5
AC0E
102
{ACAD_XDICTIONARY
360
AC70
102
}
102
{ACAD_REACTORS
330
AC04
102
}
330
AC04
100
AcDbVisualStyle
  2
Realistic
 70
     8
 71
     2
 72
     3
 73
     0
 90
        2
 40
-0.6
 41
30.0
 62
     5
 63
     7
 74
     0
 91
        0
 64
     7
 65
   257
 75
     1
175
     1
 42
1.0
 92
        8
 66
   257
 43
1.0
 76
     1
 77
     6
 78
     2
 67
     7
 79
     3
170
     0
171
     0
290
     0
174
     0
 93
       13
 44
0.0
173
     0
291
     0
 45
0.0
1001
ACAD
1000
AcDbSavedByObjectVersion
1070
     0
  0
VISUALSTYLE
  5
AC19
102
{ACAD_XDICTIONARY
360
AC86
102
}
102
{ACAD_REACTORS
330
AC04
102
}
330
AC04
100
AcDbVisualStyle
  2
Shaded
 70
    27
 71
     2
 72
     2
 73
     1
 90
        2
 40
-0.6
 41
30.0
 62
     5
 63
     7
 74
     0
 91
        4
 64
     7
 65
   257
 75
     1
175
     1
 42
1.0
 92
        8
 66
   257
 43
1.0
 76
     1
 77
     6
 78
     2
 67
     8
 79
     3
170
     0
171
     0
290
     0
174
     0
 93
        5
 44
0.0
173
     0
291
     0
 45
0.0
1001
ACAD
1000
AcDbSavedByObjectVersion
1070
     0
  0
VISUALSTYLE
  5
AC18
102
{ACAD_XDICTIONARY
360
AC84
102
}
102
{ACAD_REACTORS
330
AC04
102
}
330
AC04
100
AcDbVisualStyle
  2
Shaded with edges
 70
    26
 71
     2
 72
     2
 73
     1
 90
        2
 40
-0.6
 41
30.0
 62
     5
 63
     7
 74
     1
 91
       10
 64
     7
 65
   257
 75
     2
175
     1
 42
1.0
 92
        8
 66
   257
 43
1.0
 76
     1
 77
     6
 78
     2
 67
     7
 79
     3
170
     0
171
     0
290
     0
174
     0
 93
        5
 44
0.0
173
     0
291
     0
 45
0.0
1001
ACAD
1000
AcDbSavedByObjectVersion
1070
     0
  0
VISUALSTYLE
  5
AC15
102
{ACAD_XDICTIONARY
360
AC7E
102
}
102
{ACAD_REACTORS
330
AC04
102
}
330
AC04
100
AcDbVisualStyle
  2
Shades of Gray
 70
    23
 71
     2
 72
     2
 73
     3
 90
        0
 40
-0.6
 41
-30.0
 62
     5
 63
     7
 74
     2
 91
        2
 64
     7
 65
     7
 75
     1
175
     1
 42
40.0
 92
        8
 66
     7
 43
1.0
 76
     1
 77
     6
 78
     2
 67
     7
 79
     3
170
     0
171
     0
290
     0
174
     0
 93
        1
 44
0.0
173
     0
291
     0
 45
0.0
1001
ACAD
1000
AcDbSavedByObjectVersion
1070
     0
  0
VISUALSTYLE
  5
AC16
102
{ACAD_XDICTIONARY
360
AC80
102
}
102
{ACAD_REACTORS
330
AC04
102
}
330
AC04
100
AcDbVisualStyle
  2
Sketchy
 70
    24
 71
     1
 72
     2
 73
     2
 90
        0
 40
-0.6
 41
-30.0
 62
     5
 63
     7
 74
     2
 91
        2
 64
     7
 65
     7
 75
     1
175
     1
 42
40.0
 92
       11
 66
     7
 43
1.0
 76
     1
 77
     6
 78
     2
 67
     7
 79
     6
170
     0
171
     0
290
     0
174
     0
 93
        1
 44
0.0
173
     0
291
     0
 45
0.0
1001
ACAD
1000
AcDbSavedByObjectVersion
1070
     0
  0
VISUALSTYLE
  5
AC11
102
{ACAD_XDICTIONARY
360
AC76
102
}
102
{ACAD_REACTORS
330
AC04
102
}
330
AC04
100
AcDbVisualStyle
  2
Thicken
 70
    13
 71
     2
 72
     2
 73
     0
 90
        0
 40
-0.6
 41
-30.0
 62
     5
 63
     7
 74
     1
 91
        4
 64
     7
 65
   257
 75
     1
175
     1
 42
1.0
 92
       12
 66
     7
 43
1.0
 76
     1
 77
     6
 78
     2
 67
     7
 79
     5
170
     0
171
     0
290
     0
174
     0
 93
        1
 44
0.0
173
     0
291
     1
 45
0.0
1001
ACAD
1000
AcDbSavedByObjectVersion
1070
     0
  0
VISUALSTYLE
  5
AC0B
102
{ACAD_XDICTIONARY
360
AC6A
102
}
102
{ACAD_REACTORS
330
AC04
102
}
330
AC04
100
AcDbVisualStyle
  2
Wireframe
 70
     5
 71
     0
 72
     2
 73
     0
 90
        0
 40
-0.6
 41
-30.0
 62
     5
 63
     7
 74
     1
 91
        4
 64
     7
 65
   257
 75
     1
175
     1
 42
1.0
 92
        0
 66
   257
 43
1.0
 76
     1
 77
     6
 78
     2
 67
     7
 79
     3
170
     0
171
     0
290
     0
174
     0
 93
        1
 44
0.0
173
     0
291
     0
 45
0.0
1001
ACAD
1000
AcDbSavedByObjectVersion
1070
     0
  0
VISUALSTYLE
  5
AC17
102
{ACAD_XDICTIONARY
360
AC82
102
}
102
{ACAD_REACTORS
330
AC04
102
}
330
AC04
100
AcDbVisualStyle
  2
X-Ray
 70
    25
 71
     2
 72
     2
 73
     1
 90
        1
 40
0.5
 41
-30.0
 62
     5
 63
     7
 74
     1
 91
        0
 64
     7
 65
   257
 75
     1
175
     1
 42
1.0
 92
        8
 66
     7
 43
1.0
 76
     1
 77
     6
 78
     2
 67
     7
 79
     3
170
     0
171
     0
290
     0
174
     0
 93
       13
 44
0.0
173
     0
291
     0
 45
0.0
1001
ACAD
1000
AcDbSavedByObjectVersion
1070
     0
  0
DICTIONARYVAR
  5
AC51
102
{ACAD_REACTORS
330
AC4C
102
}
330
AC4C
100
DictionaryVariables
280
     0
  1
1:1
  0
DICTIONARYVAR
  5
AC4E
102
{ACAD_REACTORS
330
AC4C
102
}
330
AC4C
100
DictionaryVariables
280
     0
  1
STANDARD
  0
DICTIONARYVAR
  5
AC4D
102
{ACAD_REACTORS
330
AC4C
102
}
330
AC4C
100
DictionaryVariables
280
     0
  1
STANDARD
  0
DICTIONARYVAR
  5
AC4F
102
{ACAD_REACTORS
330
AC4C
102
}
330
AC4C
100
DictionaryVariables
280
     0
  1
Imperial24
  0
DICTIONARYVAR
  5
AC50
102
{ACAD_REACTORS
330
AC4C
102
}
330
AC4C
100
DictionaryVariables
280
     0
  1
Imperial24
  0
DICTIONARYVAR
  5
AC54
102
{ACAD_REACTORS
330
AC4C
102
}
330
AC4C
100
DictionaryVariables
280
     0
  1
1
  0
DICTIONARYVAR
  5
AC53
102
{ACAD_REACTORS
330
AC4C
102
}
330
AC4C
100
DictionaryVariables
280
     0
  1
0
  0
DICTIONARYVAR
  5
AC52
102
{ACAD_REACTORS
330
AC4C
102
}
330
AC4C
100
DictionaryVariables
280
     0
  1
127
  0
DICTIONARYVAR
  5
AC55
102
{ACAD_REACTORS
330
AC4C
102
}
330
AC4C
100
DictionaryVariables
280
     0
  1
2
  0
DICTIONARY
  5
AC92
330
AC37
100
AcDbDictionary
280
     1
281
     1
  3
ACAD_XREC_ROUNDTRIP
360
AC93
  0
DICTIONARY
  5
AC94
330
AC38
100
AcDbDictionary
280
     1
281
     1
  3
ACAD_XREC_ROUNDTRIP
360
AC95
  0
DICTIONARY
  5
AC96
330
AC39
100
AcDbDictionary
280
     1
281
     1
  3
ACAD_XREC_ROUNDTRIP
360
AC97
  0
DICTIONARY
  5
ABF5
330
ABF4
100
AcDbDictionary
280
     1
281
     1
  3
ACAD_XREC_ROUNDTRIP
360
AC5C
  3
BUMPTILE
360
ABF7
  3
DIFFUSETILE
360
ABF6
  3
OPACITYTILE
360
ABFA
  3
REFLECTIONTILE
360
ABF9
  3
REFRACTIONTILE
360
ABFB
  3
SPECULARTILE
360
ABF8
  0
DICTIONARY
  5
ABED
330
ABEC
100
AcDbDictionary
280
     1
281
     1
  3
ACAD_XREC_ROUNDTRIP
360
AC5B
  3
BUMPTILE
360
ABEF
  3
DIFFUSETILE
360
ABEE
  3
OPACITYTILE
360
ABF2
  3
REFLECTIONTILE
360
ABF1
  3
REFRACTIONTILE
360
ABF3
  3
SPECULARTILE
360
ABF0
  0
DICTIONARY
  5
ABFD
330
ABFC
100
AcDbDictionary
280
     1
281
     1
  3
ACAD_XREC_ROUNDTRIP
360
AC5D
  3
BUMPTILE
360
ABFF
  3
DIFFUSETILE
360
ABFE
  3
OPACITYTILE
360
AC02
  3
REFLECTIONTILE
360
AC01
  3
REFRACTIONTILE
360
AC03
  3
SPECULARTILE
360
AC00
  0
DICTIONARY
  5
AC90
330
AC35
100
AcDbDictionary
280
     1
281
     1
  3
ACAD_XREC_ROUNDTRIP
360
AC91
  0
DICTIONARY
  5
AC57
330
AC1F
100
AcDbDictionary
280
     1
281
     1
  3
ACAD_ROUNDTRIP_2008_TABLESTYLE_CELLSTYLEMAP
360
AC58
  3
ACAD_XREC_ROUNDTRIP
360
AC8E
  0
DICTIONARY
  5
AC68
330
AC0A
100
AcDbDictionary
280
     1
281
     1
  3
ACAD_XREC_ROUNDTRIP
360
AC69
  0
DICTIONARY
  5
AC66
330
AC09
100
AcDbDictionary
280
     1
281
     1
  3
ACAD_XREC_ROUNDTRIP
360
AC67
  0
DICTIONARY
  5
AC74
330
AC10
100
AcDbDictionary
280
     1
281
     1
  3
ACAD_XREC_ROUNDTRIP
360
AC75
  0
DICTIONARY
  5
AC7C
330
AC14
100
AcDbDictionary
280
     1
281
     1
  3
ACAD_XREC_ROUNDTRIP
360
AC7D
  0
DICTIONARY
  5
AC6E
330
AC0D
100
AcDbDictionary
280
     1
281
     1
  3
ACAD_XREC_ROUNDTRIP
360
AC6F
  0
DICTIONARY
  5
AC72
330
AC0F
100
AcDbDictionary
280
     1
281
     1
  3
ACAD_XREC_ROUNDTRIP
360
AC73
  0
DICTIONARY
  5
AC8C
330
AC1C
100
AcDbDictionary
280
     1
281
     1
  3
ACAD_XREC_ROUNDTRIP
360
AC8D
  0
DICTIONARY
  5
AC7A
330
AC13
100
AcDbDictionary
280
     1
281
     1
  3
ACAD_XREC_ROUNDTRIP
360
AC7B
  0
DICTIONARY
  5
AC5E
330
AC05
100
AcDbDictionary
280
     1
281
     1
  3
ACAD_XREC_ROUNDTRIP
360
AC5F
  0
DICTIONARY
  5
AC60
330
AC06
100
AcDbDictionary
280
     1
281
     1
  3
ACAD_XREC_ROUNDTRIP
360
AC61
  0
DICTIONARY
  5
AC62
330
AC07
100
AcDbDictionary
280
     1
281
     1
  3
ACAD_XREC_ROUNDTRIP
360
AC63
  0
DICTIONARY
  5
AC64
330
AC08
100
AcDbDictionary
280
     1
281
     1
  3
ACAD_XREC_ROUNDTRIP
360
AC65
  0
DICTIONARY
  5
AC6C
330
AC0C
100
AcDbDictionary
280
     1
281
     1
  3
ACAD_XREC_ROUNDTRIP
360
AC6D
  0
DICTIONARY
  5
AC88
330
AC1A
100
AcDbDictionary
280
     1
281
     1
  3
ACAD_XREC_ROUNDTRIP
360
AC89
  0
DICTIONARY
  5
AC78
330
AC12
100
AcDbDictionary
280
     1
281
     1
  3
ACAD_XREC_ROUNDTRIP
360
AC79
  0
DICTIONARY
  5
AC8A
330
AC1B
100
AcDbDictionary
280
     1
281
     1
  3
ACAD_XREC_ROUNDTRIP
360
AC8B
  0
DICTIONARY
  5
AC70
330
AC0E
100
AcDbDictionary
280
     1
281
     1
  3
ACAD_XREC_ROUNDTRIP
360
AC71
  0
DICTIONARY
  5
AC86
330
AC19
100
AcDbDictionary
280
     1
281
     1
  3
ACAD_XREC_ROUNDTRIP
360
AC87
  0
DICTIONARY
  5
AC84
330
AC18
100
AcDbDictionary
280
     1
281
     1
  3
ACAD_XREC_ROUNDTRIP
360
AC85
  0
DICTIONARY
  5
AC7E
330
AC15
100
AcDbDictionary
280
     1
281
     1
  3
ACAD_XREC_ROUNDTRIP
360
AC7F
  0
DICTIONARY
  5
AC80
330
AC16
100
AcDbDictionary
280
     1
281
     1
  3
ACAD_XREC_ROUNDTRIP
360
AC81
  0
DICTIONARY
  5
AC76
330
AC11
100
AcDbDictionary
280
     1
281
     1
  3
ACAD_XREC_ROUNDTRIP
360
AC77
  0
DICTIONARY
  5
AC6A
330
AC0B
100
AcDbDictionary
280
     1
281
     1
  3
ACAD_XREC_ROUNDTRIP
360
AC6B
  0
DICTIONARY
  5
AC82
330
AC17
100
AcDbDictionary
280
     1
281
     1
  3
ACAD_XREC_ROUNDTRIP
360
AC83
  0
XRECORD
  5
AC93
102
{ACAD_REACTORS
330
AC92
102
}
330
AC92
100
AcDbXrecord
280
     1
102
DISPLAYNAME
  1
Imperial24
102
FLAGS
 90
        0
  0
XRECORD
  5
AC95
102
{ACAD_REACTORS
330
AC94
102
}
330
AC94
100
AcDbXrecord
280
     1
102
SHADEPLOT
 70
     0
102
SHADEPLOTRESLEVEL
 70
     2
102
SHADEPLOTCUSTOMDPI
 70
   300
  0
XRECORD
  5
AC97
102
{ACAD_REACTORS
330
AC96
102
}
330
AC96
100
AcDbXrecord
280
     1
102
SHADEPLOT
 70
     0
102
SHADEPLOTRESLEVEL
 70
     2
102
SHADEPLOTCUSTOMDPI
 70
   300
  0
XRECORD
  5
AC5C
102
{ACAD_REACTORS
330
ABF5
102
}
330
ABF5
100
AcDbXrecord
280
     1
102
MATERIAL
148
0.0
149
0.0
149
0.0
 93
        0
 94
      127
282
     0
 72
     0
 77
     0
171
     0
175
     0
179
     0
273
     0
  0
XRECORD
  5
ABF7
102
{ACAD_REACTORS
330
ABF5
102
}
330
ABF5
100
AcDbXrecord
280
     1
270
     1
271
     1
  0
XRECORD
  5
ABF6
102
{ACAD_REACTORS
330
ABF5
102
}
330
ABF5
100
AcDbXrecord
280
     1
270
     1
271
     1
  0
XRECORD
  5
ABFA
102
{ACAD_REACTORS
330
ABF5
102
}
330
ABF5
100
AcDbXrecord
280
     1
270
     1
271
     1
  0
XRECORD
  5
ABF9
102
{ACAD_REACTORS
330
ABF5
102
}
330
ABF5
100
AcDbXrecord
280
     1
270
     1
271
     1
  0
XRECORD
  5
ABFB
102
{ACAD_REACTORS
330
ABF5
102
}
330
ABF5
100
AcDbXrecord
280
     1
270
     1
271
     1
  0
XRECORD
  5
ABF8
102
{ACAD_REACTORS
330
ABF5
102
}
330
ABF5
100
AcDbXrecord
280
     1
270
     1
271
     1
  0
XRECORD
  5
AC5B
102
{ACAD_REACTORS
330
ABED
102
}
330
ABED
100
AcDbXrecord
280
     1
102
MATERIAL
148
0.0
149
0.0
149
0.0
 93
        0
 94
      127
282
     0
 72
     0
 77
     0
171
     0
175
     0
179
     0
273
     0
  0
XRECORD
  5
ABEF
102
{ACAD_REACTORS
330
ABED
102
}
330
ABED
100
AcDbXrecord
280
     1
270
     1
271
     1
  0
XRECORD
  5
ABEE
102
{ACAD_REACTORS
330
ABED
102
}
330
ABED
100
AcDbXrecord
280
     1
270
     1
271
     1
  0
XRECORD
  5
ABF2
102
{ACAD_REACTORS
330
ABED
102
}
330
ABED
100
AcDbXrecord
280
     1
270
     1
271
     1
  0
XRECORD
  5
ABF1
102
{ACAD_REACTORS
330
ABED
102
}
330
ABED
100
AcDbXrecord
280
     1
270
     1
271
     1
  0
XRECORD
  5
ABF3
102
{ACAD_REACTORS
330
ABED
102
}
330
ABED
100
AcDbXrecord
280
     1
270
     1
271
     1
  0
XRECORD
  5
ABF0
102
{ACAD_REACTORS
330
ABED
102
}
330
ABED
100
AcDbXrecord
280
     1
270
     1
271
     1
  0
XRECORD
  5
AC5D
102
{ACAD_REACTORS
330
ABFD
102
}
330
ABFD
100
AcDbXrecord
280
     1
102
MATERIAL
148
0.0
149
0.0
149
0.0
 93
        0
 94
      127
282
     0
 72
     0
 77
     0
171
     0
175
     0
179
     0
273
     0
  0
XRECORD
  5
ABFF
102
{ACAD_REACTORS
330
ABFD
102
}
330
ABFD
100
AcDbXrecord
280
     1
270
     1
271
     1
  0
XRECORD
  5
ABFE
102
{ACAD_REACTORS
330
ABFD
102
}
330
ABFD
100
AcDbXrecord
280
     1
270
     1
271
     1
  0
XRECORD
  5
AC02
102
{ACAD_REACTORS
330
ABFD
102
}
330
ABFD
100
AcDbXrecord
280
     1
270
     1
271
     1
  0
XRECORD
  5
AC01
102
{ACAD_REACTORS
330
ABFD
102
}
330
ABFD
100
AcDbXrecord
280
     1
270
     1
271
     1
  0
XRECORD
  5
AC03
102
{ACAD_REACTORS
330
ABFD
102
}
330
ABFD
100
AcDbXrecord
280
     1
270
     1
271
     1
  0
XRECORD
  5
AC00
102
{ACAD_REACTORS
330
ABFD
102
}
330
ABFD
100
AcDbXrecord
280
     1
270
     1
271
     1
  0
XRECORD
  5
AC91
102
{ACAD_REACTORS
330
AC90
102
}
330
AC90
100
AcDbXrecord
280
     1
102
DISPLAYNAME
  1
Imperial24
102
FLAGS
 90
        0
  0
CELLSTYLEMAP
  5
AC58
102
{ACAD_REACTORS
330
AC57
102
}
330
AC57
100
AcDbCellStyleMap
 90
        3
300
CELLSTYLE
  1
TABLEFORMAT_BEGIN
 90
        5
170
     1
 91
        0
 92
    32768
 62
   257
 93
        1
300
CONTENTFORMAT
  1
CONTENTFORMAT_BEGIN
 90
        0
 91
        0
 92
      512
 93
        0
300

 40
0.0
140
1.0
 94
        5
 62
     0
340
A8C7
144
0.25
309
CONTENTFORMAT_END
171
     0
 94
        0
309
TABLEFORMAT_END
  1
CELLSTYLE_BEGIN
 90
        1
 91
        1
300
_TITLE
309
CELLSTYLE_END
300
CELLSTYLE
  1
TABLEFORMAT_BEGIN
 90
        5
170
     1
 91
        0
 92
        0
 62
   257
 93
        1
300
CONTENTFORMAT
  1
CONTENTFORMAT_BEGIN
 90
        0
 91
        0
 92
      512
 93
        0
300

 40
0.0
140
1.0
 94
        5
 62
     0
340
A8C7
144
0.18
309
CONTENTFORMAT_END
171
     0
 94
        0
309
TABLEFORMAT_END
  1
CELLSTYLE_BEGIN
 90
        2
 91
        1
300
_HEADER
309
CELLSTYLE_END
300
CELLSTYLE
  1
TABLEFORMAT_BEGIN
 90
        5
170
     1
 91
        0
 92
        0
 62
   257
 93
        1
300
CONTENTFORMAT
  1
CONTENTFORMAT_BEGIN
 90
        0
 91
        0
 92
      512
 93
        0
300

 40
0.0
140
1.0
 94
        2
 62
     0
340
A8C7
144
0.18
309
CONTENTFORMAT_END
171
     0
 94
        0
309
TABLEFORMAT_END
  1
CELLSTYLE_BEGIN
 90
        3
 91
        2
300
_DATA
309
CELLSTYLE_END
  0
XRECORD
  5
AC8E
102
{ACAD_REACTORS
330
AC57
102
}
330
AC57
100
AcDbXrecord
280
     1
102
ACAD_ROUNDTRIP_PRE2007_TABLESTYLE
 90
      512
 91
        0
  1

 92
      512
 93
        0
  2

 94
      512
 95
        0
  3

  0
XRECORD
  5
AC69
102
{ACAD_REACTORS
330
AC68
102
}
330
AC68
100
AcDbXrecord
280
     1
102
RTVSPost2010Prop28
280
     1
102
RTVSPost2010PropOp28
 70
     1
102
RTVSPost2010Prop29
280
     1
102
RTVSPost2010PropOp29
 70
     1
102
RTVSPost2010Prop30
280
     0
102
RTVSPost2010PropOp30
 70
     1
102
RTVSPost2010Prop31
280
     0
102
RTVSPost2010PropOp31
 70
     1
102
RTVSPost2010Prop32
280
     0
102
RTVSPost2010PropOp32
 70
     1
102
RTVSPost2010Prop33
280
     0
102
RTVSPost2010PropOp33
 70
     1
102
RTVSPost2010Prop34
280
     0
102
RTVSPost2010PropOp34
 70
     1
102
RTVSPost2010Prop35
280
     0
102
RTVSPost2010PropOp35
 70
     1
102
RTVSPost2010Prop36
280
     0
102
RTVSPost2010PropOp36
 70
     1
102
RTVSPost2010Prop37
 90
       50
102
RTVSPost2010PropOp37
 70
     1
102
RTVSPost2010Prop38
140
0.0
102
RTVSPost2010PropOp38
 70
     1
102
RTVSPost2010Prop39
140
1.0
102
RTVSPost2010PropOp39
 70
     1
102
RTVSPost2010Prop40
 90
        0
102
RTVSPost2010PropOp40
 70
     1
102
RTVSPost2010Prop41ColorIndex
 90
       18
102
RTVSPost2010Prop41ColorRGB
 90
        0
102
RTVSPost2010PropOp41
 70
     1
102
RTVSPost2010Prop42
 90
       50
102
RTVSPost2010PropOp42
 70
     1
102
RTVSPost2010Prop43
 90
        3
102
RTVSPost2010PropOp43
 70
     1
102
RTVSPost2010Prop44ColorIndex
 90
        5
102
RTVSPost2010Prop44ColorRGB
 90
      255
102
RTVSPost2010PropOp44
 70
     1
102
RTVSPost2010Prop45
280
     0
102
RTVSPost2010PropOp45
 70
     1
102
RTVSPost2010Prop46
 90
       50
102
RTVSPost2010PropOp46
 70
     1
102
RTVSPost2010Prop47
 90
       50
102
RTVSPost2010PropOp47
 70
     1
102
RTVSPost2010Prop48
 90
       50
102
RTVSPost2010PropOp48
 70
     1
102
RTVSPost2010Prop49
280
     0
102
RTVSPost2010PropOp49
 70
     1
102
RTVSPost2010Prop50
 90
       50
102
RTVSPost2010PropOp50
 70
     1
102
RTVSPost2010Prop51ColorIndex
 90
      256
102
RTVSPost2010Prop51ColorRGB
 90
-16777216
102
RTVSPost2010PropOp51
 70
     0
102
RTVSPost2010Prop52
140
1.0
102
RTVSPost2010PropOp52
 70
     0
102
RTVSPost2010Prop53
 90
        2
102
RTVSPost2010PropOp53
 70
     1
102
RTVSPost2010Prop54
  1
strokes_ogs.tif
102
RTVSPost2010PropOp54
 70
     1
102
RTVSPost2010Prop55
280
     0
102
RTVSPost2010PropOp55
 70
     1
102
RTVSPost2010Prop56
140
1.0
102
RTVSPost2010PropOp56
 70
     1
102
RTVSPost2010Prop57
140
1.0
102
RTVSPost2010PropOp57
 70
     1
102
RTVSPropertyOp0
 70
     1
102
RTVSPropertyOp1
 70
     1
102
RTVSPropertyOp2
 70
     1
102
RTVSPropertyOp3
 70
     1
102
RTVSPropertyOp4
 70
     1
102
RTVSPropertyOp5
 70
     1
102
RTVSPropertyOp6
 70
     1
102
RTVSPropertyOp7
 70
     1
102
RTVSPropertyOp8
 70
     1
102
RTVSPropertyOp9
 70
     1
102
RTVSPropertyOp10
 70
     1
102
RTVSPropertyOp11
 70
     1
102
RTVSPropertyOp12
 70
     1
102
RTVSPropertyOp13
 70
     1
102
RTVSPropertyOp14
 70
     1
102
RTVSPropertyOp15
 70
     1
102
RTVSPropertyOp16
 70
     1
102
RTVSPropertyOp17
 70
     1
102
RTVSPropertyOp18
 70
     1
102
RTVSPropertyOp19
 70
     1
102
RTVSPropertyOp20
 70
     1
102
RTVSPropertyOp21
 70
     1
102
RTVSPropertyOp22
 70
     1
102
RTVSPropertyOp23
 70
     1
102
RTVSPropertyOp24
 70
     1
102
RTVSPropertyOp25
 70
     1
102
RTVSPropertyOp26
 70
     1
102
RTVSPropertyOp27
 70
     1
102
RTVSPropertyOp28
 70
     1
102
RTVSPropertyOp29
 70
     1
102
RTVSPropertyOp30
 70
     1
102
RTVSPropertyOp31
 70
     1
102
RTVSPropertyOp32
 70
     1
102
RTVSPropertyOp33
 70
     1
102
RTVSPropertyOp34
 70
     1
102
RTVSPropertyOp35
 70
     1
102
RTVSPropertyOp36
 70
     1
102
RTVSPropertyOp37
 70
     1
102
RTVSPropertyOp38
 70
     1
102
RTVSPropertyOp39
 70
     1
102
RTVSPropertyOp40
 70
     1
102
RTVSPropertyOp41
 70
     1
102
RTVSPropertyOp42
 70
     1
102
RTVSPropertyOp43
 70
     1
102
RTVSPropertyOp44
 70
     1
102
RTVSPropertyOp45
 70
     1
102
RTVSPropertyOp46
 70
     1
102
RTVSPropertyOp47
 70
     1
102
RTVSPropertyOp48
 70
     1
102
RTVSPropertyOp49
 70
     1
102
RTVSPropertyOp50
 70
     1
102
RTVSPropertyOp51
 70
     0
102
RTVSPropertyOp52
 70
     0
102
RTVSPropertyOp53
 70
     1
102
RTVSPropertyOp54
 70
     1
102
RTVSPropertyOp55
 70
     1
102
RTVSPropertyOp56
 70
     1
102
RTVSPropertyOp57
 70
     1
102
RTVSPropertyOp58
 70
     1
102
RTVSPropertyOp59
 70
     1
102
RTVSPropertyOp60
 70
     1
102
RTVSPropertyOp61
 70
     1
102
RTVSPropertyOp62
 70
     1
  0
XRECORD
  5
AC67
102
{ACAD_REACTORS
330
AC66
102
}
330
AC66
100
AcDbXrecord
280
     1
102
RTVSPost2010Prop28
280
     0
102
RTVSPost2010PropOp28
 70
     1
102
RTVSPost2010Prop29
280
     1
102
RTVSPost2010PropOp29
 70
     1
102
RTVSPost2010Prop30
280
     1
102
RTVSPost2010PropOp30
 70
     1
102
RTVSPost2010Prop31
280
     0
102
RTVSPost2010PropOp31
 70
     1
102
RTVSPost2010Prop32
280
     0
102
RTVSPost2010PropOp32
 70
     1
102
RTVSPost2010Prop33
280
     0
102
RTVSPost2010PropOp33
 70
     1
102
RTVSPost2010Prop34
280
     0
102
RTVSPost2010PropOp34
 70
     1
102
RTVSPost2010Prop35
280
     0
102
RTVSPost2010PropOp35
 70
     1
102
RTVSPost2010Prop36
280
     0
102
RTVSPost2010PropOp36
 70
     1
102
RTVSPost2010Prop37
 90
       50
102
RTVSPost2010PropOp37
 70
     1
102
RTVSPost2010Prop38
140
0.0
102
RTVSPost2010PropOp38
 70
     1
102
RTVSPost2010Prop39
140
1.0
102
RTVSPost2010PropOp39
 70
     1
102
RTVSPost2010Prop40
 90
        0
102
RTVSPost2010PropOp40
 70
     1
102
RTVSPost2010Prop41ColorIndex
 90
       18
102
RTVSPost2010Prop41ColorRGB
 90
        0
102
RTVSPost2010PropOp41
 70
     1
102
RTVSPost2010Prop42
 90
       50
102
RTVSPost2010PropOp42
 70
     1
102
RTVSPost2010Prop43
 90
        3
102
RTVSPost2010PropOp43
 70
     1
102
RTVSPost2010Prop44ColorIndex
 90
        5
102
RTVSPost2010Prop44ColorRGB
 90
      255
102
RTVSPost2010PropOp44
 70
     1
102
RTVSPost2010Prop45
280
     0
102
RTVSPost2010PropOp45
 70
     1
102
RTVSPost2010Prop46
 90
       50
102
RTVSPost2010PropOp46
 70
     1
102
RTVSPost2010Prop47
 90
       50
102
RTVSPost2010PropOp47
 70
     1
102
RTVSPost2010Prop48
 90
       50
102
RTVSPost2010PropOp48
 70
     1
102
RTVSPost2010Prop49
280
     0
102
RTVSPost2010PropOp49
 70
     1
102
RTVSPost2010Prop50
 90
       50
102
RTVSPost2010PropOp50
 70
     1
102
RTVSPost2010Prop51ColorIndex
 90
      256
102
RTVSPost2010Prop51ColorRGB
 90
-16777216
102
RTVSPost2010PropOp51
 70
     0
102
RTVSPost2010Prop52
140
1.0
102
RTVSPost2010PropOp52
 70
     0
102
RTVSPost2010Prop53
 90
        2
102
RTVSPost2010PropOp53
 70
     1
102
RTVSPost2010Prop54
  1
strokes_ogs.tif
102
RTVSPost2010PropOp54
 70
     1
102
RTVSPost2010Prop55
280
     0
102
RTVSPost2010PropOp55
 70
     1
102
RTVSPost2010Prop56
140
1.0
102
RTVSPost2010PropOp56
 70
     1
102
RTVSPost2010Prop57
140
1.0
102
RTVSPost2010PropOp57
 70
     1
102
RTVSPropertyOp0
 70
     1
102
RTVSPropertyOp1
 70
     1
102
RTVSPropertyOp2
 70
     1
102
RTVSPropertyOp3
 70
     1
102
RTVSPropertyOp4
 70
     1
102
RTVSPropertyOp5
 70
     1
102
RTVSPropertyOp6
 70
     1
102
RTVSPropertyOp7
 70
     1
102
RTVSPropertyOp8
 70
     1
102
RTVSPropertyOp9
 70
     1
102
RTVSPropertyOp10
 70
     1
102
RTVSPropertyOp11
 70
     1
102
RTVSPropertyOp12
 70
     1
102
RTVSPropertyOp13
 70
     1
102
RTVSPropertyOp14
 70
     1
102
RTVSPropertyOp15
 70
     1
102
RTVSPropertyOp16
 70
     1
102
RTVSPropertyOp17
 70
     1
102
RTVSPropertyOp18
 70
     1
102
RTVSPropertyOp19
 70
     1
102
RTVSPropertyOp20
 70
     1
102
RTVSPropertyOp21
 70
     1
102
RTVSPropertyOp22
 70
     1
102
RTVSPropertyOp23
 70
     1
102
RTVSPropertyOp24
 70
     1
102
RTVSPropertyOp25
 70
     1
102
RTVSPropertyOp26
 70
     1
102
RTVSPropertyOp27
 70
     1
102
RTVSPropertyOp28
 70
     1
102
RTVSPropertyOp29
 70
     1
102
RTVSPropertyOp30
 70
     1
102
RTVSPropertyOp31
 70
     1
102
RTVSPropertyOp32
 70
     1
102
RTVSPropertyOp33
 70
     1
102
RTVSPropertyOp34
 70
     1
102
RTVSPropertyOp35
 70
     1
102
RTVSPropertyOp36
 70
     1
102
RTVSPropertyOp37
 70
     1
102
RTVSPropertyOp38
 70
     1
102
RTVSPropertyOp39
 70
     1
102
RTVSPropertyOp40
 70
     1
102
RTVSPropertyOp41
 70
     1
102
RTVSPropertyOp42
 70
     1
102
RTVSPropertyOp43
 70
     1
102
RTVSPropertyOp44
 70
     1
102
RTVSPropertyOp45
 70
     1
102
RTVSPropertyOp46
 70
     1
102
RTVSPropertyOp47
 70
     1
102
RTVSPropertyOp48
 70
     1
102
RTVSPropertyOp49
 70
     1
102
RTVSPropertyOp50
 70
     1
102
RTVSPropertyOp51
 70
     0
102
RTVSPropertyOp52
 70
     0
102
RTVSPropertyOp53
 70
     1
102
RTVSPropertyOp54
 70
     1
102
RTVSPropertyOp55
 70
     1
102
RTVSPropertyOp56
 70
     1
102
RTVSPropertyOp57
 70
     1
102
RTVSPropertyOp58
 70
     1
102
RTVSPropertyOp59
 70
     1
102
RTVSPropertyOp60
 70
     1
102
RTVSPropertyOp61
 70
     1
102
RTVSPropertyOp62
 70
     1
  0
XRECORD
  5
AC75
102
{ACAD_REACTORS
330
AC74
102
}
330
AC74
100
AcDbXrecord
280
     1
102
RTVSPost2010Prop28
280
     0
102
RTVSPost2010PropOp28
 70
     1
102
RTVSPost2010Prop29
280
     1
102
RTVSPost2010PropOp29
 70
     1
102
RTVSPost2010Prop30
280
     1
102
RTVSPost2010PropOp30
 70
     1
102
RTVSPost2010Prop31
280
     0
102
RTVSPost2010PropOp31
 70
     1
102
RTVSPost2010Prop32
280
     0
102
RTVSPost2010PropOp32
 70
     1
102
RTVSPost2010Prop33
280
     0
102
RTVSPost2010PropOp33
 70
     1
102
RTVSPost2010Prop34
280
     0
102
RTVSPost2010PropOp34
 70
     1
102
RTVSPost2010Prop35
280
     0
102
RTVSPost2010PropOp35
 70
     1
102
RTVSPost2010Prop36
280
     0
102
RTVSPost2010PropOp36
 70
     1
102
RTVSPost2010Prop37
 90
       50
102
RTVSPost2010PropOp37
 70
     1
102
RTVSPost2010Prop38
140
0.0
102
RTVSPost2010PropOp38
 70
     1
102
RTVSPost2010Prop39
140
1.0
102
RTVSPost2010PropOp39
 70
     1
102
RTVSPost2010Prop40
 90
        0
102
RTVSPost2010PropOp40
 70
     1
102
RTVSPost2010Prop41ColorIndex
 90
       18
102
RTVSPost2010Prop41ColorRGB
 90
        0
102
RTVSPost2010PropOp41
 70
     1
102
RTVSPost2010Prop42
 90
       50
102
RTVSPost2010PropOp42
 70
     1
102
RTVSPost2010Prop43
 90
        3
102
RTVSPost2010PropOp43
 70
     1
102
RTVSPost2010Prop44ColorIndex
 90
        5
102
RTVSPost2010Prop44ColorRGB
 90
      255
102
RTVSPost2010PropOp44
 70
     1
102
RTVSPost2010Prop45
280
     0
102
RTVSPost2010PropOp45
 70
     1
102
RTVSPost2010Prop46
 90
       50
102
RTVSPost2010PropOp46
 70
     1
102
RTVSPost2010Prop47
 90
       50
102
RTVSPost2010PropOp47
 70
     1
102
RTVSPost2010Prop48
 90
       50
102
RTVSPost2010PropOp48
 70
     1
102
RTVSPost2010Prop49
280
     0
102
RTVSPost2010PropOp49
 70
     1
102
RTVSPost2010Prop50
 90
       50
102
RTVSPost2010PropOp50
 70
     1
102
RTVSPost2010Prop51ColorIndex
 90
      256
102
RTVSPost2010Prop51ColorRGB
 90
-16777216
102
RTVSPost2010PropOp51
 70
     0
102
RTVSPost2010Prop52
140
1.0
102
RTVSPost2010PropOp52
 70
     0
102
RTVSPost2010Prop53
 90
        2
102
RTVSPost2010PropOp53
 70
     1
102
RTVSPost2010Prop54
  1
strokes_ogs.tif
102
RTVSPost2010PropOp54
 70
     1
102
RTVSPost2010Prop55
280
     0
102
RTVSPost2010PropOp55
 70
     1
102
RTVSPost2010Prop56
140
1.0
102
RTVSPost2010PropOp56
 70
     1
102
RTVSPost2010Prop57
140
1.0
102
RTVSPost2010PropOp57
 70
     1
102
RTVSPropertyOp0
 70
     1
102
RTVSPropertyOp1
 70
     1
102
RTVSPropertyOp2
 70
     1
102
RTVSPropertyOp3
 70
     1
102
RTVSPropertyOp4
 70
     1
102
RTVSPropertyOp5
 70
     1
102
RTVSPropertyOp6
 70
     1
102
RTVSPropertyOp7
 70
     1
102
RTVSPropertyOp8
 70
     1
102
RTVSPropertyOp9
 70
     1
102
RTVSPropertyOp10
 70
     1
102
RTVSPropertyOp11
 70
     1
102
RTVSPropertyOp12
 70
     1
102
RTVSPropertyOp13
 70
     1
102
RTVSPropertyOp14
 70
     1
102
RTVSPropertyOp15
 70
     1
102
RTVSPropertyOp16
 70
     1
102
RTVSPropertyOp17
 70
     1
102
RTVSPropertyOp18
 70
     1
102
RTVSPropertyOp19
 70
     1
102
RTVSPropertyOp20
 70
     1
102
RTVSPropertyOp21
 70
     1
102
RTVSPropertyOp22
 70
     1
102
RTVSPropertyOp23
 70
     1
102
RTVSPropertyOp24
 70
     1
102
RTVSPropertyOp25
 70
     1
102
RTVSPropertyOp26
 70
     1
102
RTVSPropertyOp27
 70
     1
102
RTVSPropertyOp28
 70
     1
102
RTVSPropertyOp29
 70
     1
102
RTVSPropertyOp30
 70
     1
102
RTVSPropertyOp31
 70
     1
102
RTVSPropertyOp32
 70
     1
102
RTVSPropertyOp33
 70
     1
102
RTVSPropertyOp34
 70
     1
102
RTVSPropertyOp35
 70
     1
102
RTVSPropertyOp36
 70
     1
102
RTVSPropertyOp37
 70
     1
102
RTVSPropertyOp38
 70
     1
102
RTVSPropertyOp39
 70
     1
102
RTVSPropertyOp40
 70
     1
102
RTVSPropertyOp41
 70
     1
102
RTVSPropertyOp42
 70
     1
102
RTVSPropertyOp43
 70
     1
102
RTVSPropertyOp44
 70
     1
102
RTVSPropertyOp45
 70
     1
102
RTVSPropertyOp46
 70
     1
102
RTVSPropertyOp47
 70
     1
102
RTVSPropertyOp48
 70
     1
102
RTVSPropertyOp49
 70
     1
102
RTVSPropertyOp50
 70
     1
102
RTVSPropertyOp51
 70
     0
102
RTVSPropertyOp52
 70
     0
102
RTVSPropertyOp53
 70
     1
102
RTVSPropertyOp54
 70
     1
102
RTVSPropertyOp55
 70
     1
102
RTVSPropertyOp56
 70
     1
102
RTVSPropertyOp57
 70
     1
102
RTVSPropertyOp58
 70
     1
102
RTVSPropertyOp59
 70
     1
102
RTVSPropertyOp60
 70
     1
102
RTVSPropertyOp61
 70
     1
102
RTVSPropertyOp62
 70
     1
  0
XRECORD
  5
AC7D
102
{ACAD_REACTORS
330
AC7C
102
}
330
AC7C
100
AcDbXrecord
280
     1
102
RTVSPost2010Prop28
280
     0
102
RTVSPost2010PropOp28
 70
     1
102
RTVSPost2010Prop29
280
     1
102
RTVSPost2010PropOp29
 70
     1
102
RTVSPost2010Prop30
280
     1
102
RTVSPost2010PropOp30
 70
     1
102
RTVSPost2010Prop31
280
     0
102
RTVSPost2010PropOp31
 70
     1
102
RTVSPost2010Prop32
280
     0
102
RTVSPost2010PropOp32
 70
     1
102
RTVSPost2010Prop33
280
     0
102
RTVSPost2010PropOp33
 70
     1
102
RTVSPost2010Prop34
280
     0
102
RTVSPost2010PropOp34
 70
     1
102
RTVSPost2010Prop35
280
     0
102
RTVSPost2010PropOp35
 70
     1
102
RTVSPost2010Prop36
280
     0
102
RTVSPost2010PropOp36
 70
     1
102
RTVSPost2010Prop37
 90
       50
102
RTVSPost2010PropOp37
 70
     1
102
RTVSPost2010Prop38
140
0.0
102
RTVSPost2010PropOp38
 70
     1
102
RTVSPost2010Prop39
140
1.0
102
RTVSPost2010PropOp39
 70
     1
102
RTVSPost2010Prop40
 90
        0
102
RTVSPost2010PropOp40
 70
     1
102
RTVSPost2010Prop41ColorIndex
 90
       18
102
RTVSPost2010Prop41ColorRGB
 90
        0
102
RTVSPost2010PropOp41
 70
     1
102
RTVSPost2010Prop42
 90
       50
102
RTVSPost2010PropOp42
 70
     1
102
RTVSPost2010Prop43
 90
        3
102
RTVSPost2010PropOp43
 70
     1
102
RTVSPost2010Prop44ColorIndex
 90
        5
102
RTVSPost2010Prop44ColorRGB
 90
      255
102
RTVSPost2010PropOp44
 70
     1
102
RTVSPost2010Prop45
280
     0
102
RTVSPost2010PropOp45
 70
     1
102
RTVSPost2010Prop46
 90
       50
102
RTVSPost2010PropOp46
 70
     1
102
RTVSPost2010Prop47
 90
       50
102
RTVSPost2010PropOp47
 70
     1
102
RTVSPost2010Prop48
 90
       50
102
RTVSPost2010PropOp48
 70
     1
102
RTVSPost2010Prop49
280
     0
102
RTVSPost2010PropOp49
 70
     1
102
RTVSPost2010Prop50
 90
       50
102
RTVSPost2010PropOp50
 70
     1
102
RTVSPost2010Prop51ColorIndex
 90
      256
102
RTVSPost2010Prop51ColorRGB
 90
-16777216
102
RTVSPost2010PropOp51
 70
     0
102
RTVSPost2010Prop52
140
1.0
102
RTVSPost2010PropOp52
 70
     0
102
RTVSPost2010Prop53
 90
        2
102
RTVSPost2010PropOp53
 70
     1
102
RTVSPost2010Prop54
  1
strokes_ogs.tif
102
RTVSPost2010PropOp54
 70
     1
102
RTVSPost2010Prop55
280
     0
102
RTVSPost2010PropOp55
 70
     1
102
RTVSPost2010Prop56
140
1.0
102
RTVSPost2010PropOp56
 70
     1
102
RTVSPost2010Prop57
140
1.0
102
RTVSPost2010PropOp57
 70
     1
102
RTVSPropertyOp0
 70
     1
102
RTVSPropertyOp1
 70
     1
102
RTVSPropertyOp2
 70
     1
102
RTVSPropertyOp3
 70
     1
102
RTVSPropertyOp4
 70
     1
102
RTVSPropertyOp5
 70
     1
102
RTVSPropertyOp6
 70
     1
102
RTVSPropertyOp7
 70
     1
102
RTVSPropertyOp8
 70
     1
102
RTVSPropertyOp9
 70
     1
102
RTVSPropertyOp10
 70
     1
102
RTVSPropertyOp11
 70
     1
102
RTVSPropertyOp12
 70
     1
102
RTVSPropertyOp13
 70
     1
102
RTVSPropertyOp14
 70
     1
102
RTVSPropertyOp15
 70
     1
102
RTVSPropertyOp16
 70
     1
102
RTVSPropertyOp17
 70
     1
102
RTVSPropertyOp18
 70
     1
102
RTVSPropertyOp19
 70
     1
102
RTVSPropertyOp20
 70
     1
102
RTVSPropertyOp21
 70
     1
102
RTVSPropertyOp22
 70
     1
102
RTVSPropertyOp23
 70
     1
102
RTVSPropertyOp24
 70
     1
102
RTVSPropertyOp25
 70
     1
102
RTVSPropertyOp26
 70
     1
102
RTVSPropertyOp27
 70
     1
102
RTVSPropertyOp28
 70
     1
102
RTVSPropertyOp29
 70
     1
102
RTVSPropertyOp30
 70
     1
102
RTVSPropertyOp31
 70
     1
102
RTVSPropertyOp32
 70
     1
102
RTVSPropertyOp33
 70
     1
102
RTVSPropertyOp34
 70
     1
102
RTVSPropertyOp35
 70
     1
102
RTVSPropertyOp36
 70
     1
102
RTVSPropertyOp37
 70
     1
102
RTVSPropertyOp38
 70
     1
102
RTVSPropertyOp39
 70
     1
102
RTVSPropertyOp40
 70
     1
102
RTVSPropertyOp41
 70
     1
102
RTVSPropertyOp42
 70
     1
102
RTVSPropertyOp43
 70
     1
102
RTVSPropertyOp44
 70
     1
102
RTVSPropertyOp45
 70
     1
102
RTVSPropertyOp46
 70
     1
102
RTVSPropertyOp47
 70
     1
102
RTVSPropertyOp48
 70
     1
102
RTVSPropertyOp49
 70
     1
102
RTVSPropertyOp50
 70
     1
102
RTVSPropertyOp51
 70
     0
102
RTVSPropertyOp52
 70
     0
102
RTVSPropertyOp53
 70
     1
102
RTVSPropertyOp54
 70
     1
102
RTVSPropertyOp55
 70
     1
102
RTVSPropertyOp56
 70
     1
102
RTVSPropertyOp57
 70
     1
102
RTVSPropertyOp58
 70
     1
102
RTVSPropertyOp59
 70
     1
102
RTVSPropertyOp60
 70
     1
102
RTVSPropertyOp61
 70
     1
102
RTVSPropertyOp62
 70
     1
  0
XRECORD
  5
AC6F
102
{ACAD_REACTORS
330
AC6E
102
}
330
AC6E
100
AcDbXrecord
280
     1
102
RTVSPost2010Prop28
280
     0
102
RTVSPost2010PropOp28
 70
     1
102
RTVSPost2010Prop29
280
     1
102
RTVSPost2010PropOp29
 70
     1
102
RTVSPost2010Prop30
280
     1
102
RTVSPost2010PropOp30
 70
     1
102
RTVSPost2010Prop31
280
     0
102
RTVSPost2010PropOp31
 70
     1
102
RTVSPost2010Prop32
280
     0
102
RTVSPost2010PropOp32
 70
     1
102
RTVSPost2010Prop33
280
     0
102
RTVSPost2010PropOp33
 70
     1
102
RTVSPost2010Prop34
280
     0
102
RTVSPost2010PropOp34
 70
     1
102
RTVSPost2010Prop35
280
     0
102
RTVSPost2010PropOp35
 70
     1
102
RTVSPost2010Prop36
280
     0
102
RTVSPost2010PropOp36
 70
     1
102
RTVSPost2010Prop37
 90
       50
102
RTVSPost2010PropOp37
 70
     1
102
RTVSPost2010Prop38
140
0.0
102
RTVSPost2010PropOp38
 70
     1
102
RTVSPost2010Prop39
140
1.0
102
RTVSPost2010PropOp39
 70
     1
102
RTVSPost2010Prop40
 90
        0
102
RTVSPost2010PropOp40
 70
     1
102
RTVSPost2010Prop41ColorIndex
 90
       18
102
RTVSPost2010Prop41ColorRGB
 90
        0
102
RTVSPost2010PropOp41
 70
     1
102
RTVSPost2010Prop42
 90
       50
102
RTVSPost2010PropOp42
 70
     1
102
RTVSPost2010Prop43
 90
        3
102
RTVSPost2010PropOp43
 70
     1
102
RTVSPost2010Prop44ColorIndex
 90
        5
102
RTVSPost2010Prop44ColorRGB
 90
      255
102
RTVSPost2010PropOp44
 70
     1
102
RTVSPost2010Prop45
280
     0
102
RTVSPost2010PropOp45
 70
     1
102
RTVSPost2010Prop46
 90
       50
102
RTVSPost2010PropOp46
 70
     1
102
RTVSPost2010Prop47
 90
       50
102
RTVSPost2010PropOp47
 70
     1
102
RTVSPost2010Prop48
 90
       50
102
RTVSPost2010PropOp48
 70
     1
102
RTVSPost2010Prop49
280
     0
102
RTVSPost2010PropOp49
 70
     1
102
RTVSPost2010Prop50
 90
       50
102
RTVSPost2010PropOp50
 70
     1
102
RTVSPost2010Prop51ColorIndex
 90
      256
102
RTVSPost2010Prop51ColorRGB
 90
-16777216
102
RTVSPost2010PropOp51
 70
     0
102
RTVSPost2010Prop52
140
1.0
102
RTVSPost2010PropOp52
 70
     0
102
RTVSPost2010Prop53
 90
        2
102
RTVSPost2010PropOp53
 70
     1
102
RTVSPost2010Prop54
  1
strokes_ogs.tif
102
RTVSPost2010PropOp54
 70
     1
102
RTVSPost2010Prop55
280
     0
102
RTVSPost2010PropOp55
 70
     1
102
RTVSPost2010Prop56
140
1.0
102
RTVSPost2010PropOp56
 70
     1
102
RTVSPost2010Prop57
140
1.0
102
RTVSPost2010PropOp57
 70
     1
102
RTVSPropertyOp0
 70
     1
102
RTVSPropertyOp1
 70
     1
102
RTVSPropertyOp2
 70
     1
102
RTVSPropertyOp3
 70
     1
102
RTVSPropertyOp4
 70
     1
102
RTVSPropertyOp5
 70
     1
102
RTVSPropertyOp6
 70
     1
102
RTVSPropertyOp7
 70
     1
102
RTVSPropertyOp8
 70
     1
102
RTVSPropertyOp9
 70
     1
102
RTVSPropertyOp10
 70
     1
102
RTVSPropertyOp11
 70
     1
102
RTVSPropertyOp12
 70
     1
102
RTVSPropertyOp13
 70
     1
102
RTVSPropertyOp14
 70
     1
102
RTVSPropertyOp15
 70
     1
102
RTVSPropertyOp16
 70
     1
102
RTVSPropertyOp17
 70
     1
102
RTVSPropertyOp18
 70
     1
102
RTVSPropertyOp19
 70
     1
102
RTVSPropertyOp20
 70
     1
102
RTVSPropertyOp21
 70
     1
102
RTVSPropertyOp22
 70
     1
102
RTVSPropertyOp23
 70
     1
102
RTVSPropertyOp24
 70
     1
102
RTVSPropertyOp25
 70
     1
102
RTVSPropertyOp26
 70
     1
102
RTVSPropertyOp27
 70
     1
102
RTVSPropertyOp28
 70
     1
102
RTVSPropertyOp29
 70
     1
102
RTVSPropertyOp30
 70
     1
102
RTVSPropertyOp31
 70
     1
102
RTVSPropertyOp32
 70
     1
102
RTVSPropertyOp33
 70
     1
102
RTVSPropertyOp34
 70
     1
102
RTVSPropertyOp35
 70
     1
102
RTVSPropertyOp36
 70
     1
102
RTVSPropertyOp37
 70
     1
102
RTVSPropertyOp38
 70
     1
102
RTVSPropertyOp39
 70
     1
102
RTVSPropertyOp40
 70
     1
102
RTVSPropertyOp41
 70
     1
102
RTVSPropertyOp42
 70
     1
102
RTVSPropertyOp43
 70
     1
102
RTVSPropertyOp44
 70
     1
102
RTVSPropertyOp45
 70
     1
102
RTVSPropertyOp46
 70
     1
102
RTVSPropertyOp47
 70
     1
102
RTVSPropertyOp48
 70
     1
102
RTVSPropertyOp49
 70
     1
102
RTVSPropertyOp50
 70
     1
102
RTVSPropertyOp51
 70
     0
102
RTVSPropertyOp52
 70
     0
102
RTVSPropertyOp53
 70
     1
102
RTVSPropertyOp54
 70
     1
102
RTVSPropertyOp55
 70
     1
102
RTVSPropertyOp56
 70
     1
102
RTVSPropertyOp57
 70
     1
102
RTVSPropertyOp58
 70
     1
102
RTVSPropertyOp59
 70
     1
102
RTVSPropertyOp60
 70
     1
102
RTVSPropertyOp61
 70
     1
102
RTVSPropertyOp62
 70
     1
  0
XRECORD
  5
AC73
102
{ACAD_REACTORS
330
AC72
102
}
330
AC72
100
AcDbXrecord
280
     1
102
RTVSPost2010Prop28
280
     0
102
RTVSPost2010PropOp28
 70
     1
102
RTVSPost2010Prop29
280
     1
102
RTVSPost2010PropOp29
 70
     1
102
RTVSPost2010Prop30
280
     1
102
RTVSPost2010PropOp30
 70
     1
102
RTVSPost2010Prop31
280
     0
102
RTVSPost2010PropOp31
 70
     1
102
RTVSPost2010Prop32
280
     0
102
RTVSPost2010PropOp32
 70
     1
102
RTVSPost2010Prop33
280
     0
102
RTVSPost2010PropOp33
 70
     1
102
RTVSPost2010Prop34
280
     0
102
RTVSPost2010PropOp34
 70
     1
102
RTVSPost2010Prop35
280
     0
102
RTVSPost2010PropOp35
 70
     1
102
RTVSPost2010Prop36
280
     0
102
RTVSPost2010PropOp36
 70
     1
102
RTVSPost2010Prop37
 90
       50
102
RTVSPost2010PropOp37
 70
     1
102
RTVSPost2010Prop38
140
0.0
102
RTVSPost2010PropOp38
 70
     1
102
RTVSPost2010Prop39
140
1.0
102
RTVSPost2010PropOp39
 70
     1
102
RTVSPost2010Prop40
 90
        0
102
RTVSPost2010PropOp40
 70
     1
102
RTVSPost2010Prop41ColorIndex
 90
       18
102
RTVSPost2010Prop41ColorRGB
 90
        0
102
RTVSPost2010PropOp41
 70
     1
102
RTVSPost2010Prop42
 90
       50
102
RTVSPost2010PropOp42
 70
     1
102
RTVSPost2010Prop43
 90
        3
102
RTVSPost2010PropOp43
 70
     1
102
RTVSPost2010Prop44ColorIndex
 90
        5
102
RTVSPost2010Prop44ColorRGB
 90
      255
102
RTVSPost2010PropOp44
 70
     1
102
RTVSPost2010Prop45
280
     0
102
RTVSPost2010PropOp45
 70
     1
102
RTVSPost2010Prop46
 90
       50
102
RTVSPost2010PropOp46
 70
     1
102
RTVSPost2010Prop47
 90
       50
102
RTVSPost2010PropOp47
 70
     1
102
RTVSPost2010Prop48
 90
       50
102
RTVSPost2010PropOp48
 70
     1
102
RTVSPost2010Prop49
280
     0
102
RTVSPost2010PropOp49
 70
     1
102
RTVSPost2010Prop50
 90
       50
102
RTVSPost2010PropOp50
 70
     1
102
RTVSPost2010Prop51ColorIndex
 90
      256
102
RTVSPost2010Prop51ColorRGB
 90
-16777216
102
RTVSPost2010PropOp51
 70
     0
102
RTVSPost2010Prop52
140
1.0
102
RTVSPost2010PropOp52
 70
     0
102
RTVSPost2010Prop53
 90
        2
102
RTVSPost2010PropOp53
 70
     1
102
RTVSPost2010Prop54
  1
strokes_ogs.tif
102
RTVSPost2010PropOp54
 70
     1
102
RTVSPost2010Prop55
280
     0
102
RTVSPost2010PropOp55
 70
     1
102
RTVSPost2010Prop56
140
1.0
102
RTVSPost2010PropOp56
 70
     1
102
RTVSPost2010Prop57
140
1.0
102
RTVSPost2010PropOp57
 70
     1
102
RTVSPropertyOp0
 70
     1
102
RTVSPropertyOp1
 70
     1
102
RTVSPropertyOp2
 70
     1
102
RTVSPropertyOp3
 70
     1
102
RTVSPropertyOp4
 70
     1
102
RTVSPropertyOp5
 70
     1
102
RTVSPropertyOp6
 70
     1
102
RTVSPropertyOp7
 70
     1
102
RTVSPropertyOp8
 70
     1
102
RTVSPropertyOp9
 70
     1
102
RTVSPropertyOp10
 70
     1
102
RTVSPropertyOp11
 70
     1
102
RTVSPropertyOp12
 70
     1
102
RTVSPropertyOp13
 70
     1
102
RTVSPropertyOp14
 70
     1
102
RTVSPropertyOp15
 70
     1
102
RTVSPropertyOp16
 70
     1
102
RTVSPropertyOp17
 70
     1
102
RTVSPropertyOp18
 70
     1
102
RTVSPropertyOp19
 70
     1
102
RTVSPropertyOp20
 70
     1
102
RTVSPropertyOp21
 70
     1
102
RTVSPropertyOp22
 70
     1
102
RTVSPropertyOp23
 70
     1
102
RTVSPropertyOp24
 70
     1
102
RTVSPropertyOp25
 70
     1
102
RTVSPropertyOp26
 70
     1
102
RTVSPropertyOp27
 70
     1
102
RTVSPropertyOp28
 70
     1
102
RTVSPropertyOp29
 70
     1
102
RTVSPropertyOp30
 70
     1
102
RTVSPropertyOp31
 70
     1
102
RTVSPropertyOp32
 70
     1
102
RTVSPropertyOp33
 70
     1
102
RTVSPropertyOp34
 70
     1
102
RTVSPropertyOp35
 70
     1
102
RTVSPropertyOp36
 70
     1
102
RTVSPropertyOp37
 70
     1
102
RTVSPropertyOp38
 70
     1
102
RTVSPropertyOp39
 70
     1
102
RTVSPropertyOp40
 70
     1
102
RTVSPropertyOp41
 70
     1
102
RTVSPropertyOp42
 70
     1
102
RTVSPropertyOp43
 70
     1
102
RTVSPropertyOp44
 70
     1
102
RTVSPropertyOp45
 70
     1
102
RTVSPropertyOp46
 70
     1
102
RTVSPropertyOp47
 70
     1
102
RTVSPropertyOp48
 70
     1
102
RTVSPropertyOp49
 70
     1
102
RTVSPropertyOp50
 70
     1
102
RTVSPropertyOp51
 70
     0
102
RTVSPropertyOp52
 70
     0
102
RTVSPropertyOp53
 70
     1
102
RTVSPropertyOp54
 70
     1
102
RTVSPropertyOp55
 70
     1
102
RTVSPropertyOp56
 70
     1
102
RTVSPropertyOp57
 70
     1
102
RTVSPropertyOp58
 70
     1
102
RTVSPropertyOp59
 70
     1
102
RTVSPropertyOp60
 70
     1
102
RTVSPropertyOp61
 70
     1
102
RTVSPropertyOp62
 70
     1
  0
XRECORD
  5
AC8D
102
{ACAD_REACTORS
330
AC8C
102
}
330
AC8C
100
AcDbXrecord
280
     1
102
RTVSPost2010Prop28
280
     0
102
RTVSPost2010PropOp28
 70
     1
102
RTVSPost2010Prop29
280
     1
102
RTVSPost2010PropOp29
 70
     1
102
RTVSPost2010Prop30
280
     1
102
RTVSPost2010PropOp30
 70
     1
102
RTVSPost2010Prop31
280
     0
102
RTVSPost2010PropOp31
 70
     1
102
RTVSPost2010Prop32
280
     0
102
RTVSPost2010PropOp32
 70
     1
102
RTVSPost2010Prop33
280
     0
102
RTVSPost2010PropOp33
 70
     1
102
RTVSPost2010Prop34
280
     0
102
RTVSPost2010PropOp34
 70
     1
102
RTVSPost2010Prop35
280
     0
102
RTVSPost2010PropOp35
 70
     1
102
RTVSPost2010Prop36
280
     0
102
RTVSPost2010PropOp36
 70
     1
102
RTVSPost2010Prop37
 90
       50
102
RTVSPost2010PropOp37
 70
     0
102
RTVSPost2010Prop38
140
0.0
102
RTVSPost2010PropOp38
 70
     0
102
RTVSPost2010Prop39
140
1.0
102
RTVSPost2010PropOp39
 70
     0
102
RTVSPost2010Prop40
 90
        0
102
RTVSPost2010PropOp40
 70
     0
102
RTVSPost2010Prop41ColorIndex
 90
       18
102
RTVSPost2010Prop41ColorRGB
 90
        0
102
RTVSPost2010PropOp41
 70
     0
102
RTVSPost2010Prop42
 90
       50
102
RTVSPost2010PropOp42
 70
     0
102
RTVSPost2010Prop43
 90
        3
102
RTVSPost2010PropOp43
 70
     0
102
RTVSPost2010Prop44ColorIndex
 90
        5
102
RTVSPost2010Prop44ColorRGB
 90
      255
102
RTVSPost2010PropOp44
 70
     0
102
RTVSPost2010Prop45
280
     0
102
RTVSPost2010PropOp45
 70
     1
102
RTVSPost2010Prop46
 90
       50
102
RTVSPost2010PropOp46
 70
     0
102
RTVSPost2010Prop47
 90
       50
102
RTVSPost2010PropOp47
 70
     0
102
RTVSPost2010Prop48
 90
       50
102
RTVSPost2010PropOp48
 70
     0
102
RTVSPost2010Prop49
280
     0
102
RTVSPost2010PropOp49
 70
     1
102
RTVSPost2010Prop50
 90
       50
102
RTVSPost2010PropOp50
 70
     0
102
RTVSPost2010Prop51ColorIndex
 90
      256
102
RTVSPost2010Prop51ColorRGB
 90
-16777216
102
RTVSPost2010PropOp51
 70
     0
102
RTVSPost2010Prop52
140
1.0
102
RTVSPost2010PropOp52
 70
     0
102
RTVSPost2010Prop53
 90
        2
102
RTVSPost2010PropOp53
 70
     0
102
RTVSPost2010Prop54
  1
strokes_ogs.tif
102
RTVSPost2010PropOp54
 70
     0
102
RTVSPost2010Prop55
280
     0
102
RTVSPost2010PropOp55
 70
     1
102
RTVSPost2010Prop56
140
1.0
102
RTVSPost2010PropOp56
 70
     0
102
RTVSPost2010Prop57
140
1.0
102
RTVSPost2010PropOp57
 70
     0
102
RTVSPropertyOp0
 70
     0
102
RTVSPropertyOp1
 70
     0
102
RTVSPropertyOp2
 70
     0
102
RTVSPropertyOp3
 70
     0
102
RTVSPropertyOp4
 70
     0
102
RTVSPropertyOp5
 70
     0
102
RTVSPropertyOp6
 70
     0
102
RTVSPropertyOp7
 70
     0
102
RTVSPropertyOp8
 70
     0
102
RTVSPropertyOp9
 70
     0
102
RTVSPropertyOp10
 70
     0
102
RTVSPropertyOp11
 70
     0
102
RTVSPropertyOp12
 70
     0
102
RTVSPropertyOp13
 70
     0
102
RTVSPropertyOp14
 70
     2
102
RTVSPropertyOp15
 70
     0
102
RTVSPropertyOp16
 70
     0
102
RTVSPropertyOp17
 70
     0
102
RTVSPropertyOp18
 70
     0
102
RTVSPropertyOp19
 70
     0
102
RTVSPropertyOp20
 70
     0
102
RTVSPropertyOp21
 70
     0
102
RTVSPropertyOp22
 70
     0
102
RTVSPropertyOp23
 70
     0
102
RTVSPropertyOp24
 70
     0
102
RTVSPropertyOp25
 70
     0
102
RTVSPropertyOp26
 70
     0
102
RTVSPropertyOp27
 70
     0
102
RTVSPropertyOp28
 70
     1
102
RTVSPropertyOp29
 70
     1
102
RTVSPropertyOp30
 70
     1
102
RTVSPropertyOp31
 70
     1
102
RTVSPropertyOp32
 70
     1
102
RTVSPropertyOp33
 70
     1
102
RTVSPropertyOp34
 70
     1
102
RTVSPropertyOp35
 70
     1
102
RTVSPropertyOp36
 70
     1
102
RTVSPropertyOp37
 70
     0
102
RTVSPropertyOp38
 70
     0
102
RTVSPropertyOp39
 70
     0
102
RTVSPropertyOp40
 70
     0
102
RTVSPropertyOp41
 70
     0
102
RTVSPropertyOp42
 70
     0
102
RTVSPropertyOp43
 70
     0
102
RTVSPropertyOp44
 70
     0
102
RTVSPropertyOp45
 70
     1
102
RTVSPropertyOp46
 70
     0
102
RTVSPropertyOp47
 70
     0
102
RTVSPropertyOp48
 70
     0
102
RTVSPropertyOp49
 70
     1
102
RTVSPropertyOp50
 70
     0
102
RTVSPropertyOp51
 70
     0
102
RTVSPropertyOp52
 70
     0
102
RTVSPropertyOp53
 70
     0
102
RTVSPropertyOp54
 70
     0
102
RTVSPropertyOp55
 70
     1
102
RTVSPropertyOp56
 70
     0
102
RTVSPropertyOp57
 70
     0
102
RTVSPropertyOp58
 70
     0
102
RTVSPropertyOp59
 70
     0
102
RTVSPropertyOp60
 70
     0
102
RTVSPropertyOp61
 70
     0
102
RTVSPropertyOp62
 70
     0
  0
XRECORD
  5
AC7B
102
{ACAD_REACTORS
330
AC7A
102
}
330
AC7A
100
AcDbXrecord
280
     1
102
RTVSPost2010Prop28
280
     0
102
RTVSPost2010PropOp28
 70
     1
102
RTVSPost2010Prop29
280
     1
102
RTVSPost2010PropOp29
 70
     1
102
RTVSPost2010Prop30
280
     1
102
RTVSPost2010PropOp30
 70
     1
102
RTVSPost2010Prop31
280
     0
102
RTVSPost2010PropOp31
 70
     1
102
RTVSPost2010Prop32
280
     0
102
RTVSPost2010PropOp32
 70
     1
102
RTVSPost2010Prop33
280
     0
102
RTVSPost2010PropOp33
 70
     1
102
RTVSPost2010Prop34
280
     0
102
RTVSPost2010PropOp34
 70
     1
102
RTVSPost2010Prop35
280
     0
102
RTVSPost2010PropOp35
 70
     1
102
RTVSPost2010Prop36
280
     0
102
RTVSPost2010PropOp36
 70
     1
102
RTVSPost2010Prop37
 90
       50
102
RTVSPost2010PropOp37
 70
     1
102
RTVSPost2010Prop38
140
0.0
102
RTVSPost2010PropOp38
 70
     1
102
RTVSPost2010Prop39
140
1.0
102
RTVSPost2010PropOp39
 70
     1
102
RTVSPost2010Prop40
 90
        0
102
RTVSPost2010PropOp40
 70
     1
102
RTVSPost2010Prop41ColorIndex
 90
       18
102
RTVSPost2010Prop41ColorRGB
 90
        0
102
RTVSPost2010PropOp41
 70
     1
102
RTVSPost2010Prop42
 90
       50
102
RTVSPost2010PropOp42
 70
     1
102
RTVSPost2010Prop43
 90
        3
102
RTVSPost2010PropOp43
 70
     1
102
RTVSPost2010Prop44ColorIndex
 90
        5
102
RTVSPost2010Prop44ColorRGB
 90
      255
102
RTVSPost2010PropOp44
 70
     1
102
RTVSPost2010Prop45
280
     0
102
RTVSPost2010PropOp45
 70
     1
102
RTVSPost2010Prop46
 90
       50
102
RTVSPost2010PropOp46
 70
     1
102
RTVSPost2010Prop47
 90
       50
102
RTVSPost2010PropOp47
 70
     1
102
RTVSPost2010Prop48
 90
       50
102
RTVSPost2010PropOp48
 70
     1
102
RTVSPost2010Prop49
280
     0
102
RTVSPost2010PropOp49
 70
     1
102
RTVSPost2010Prop50
 90
       50
102
RTVSPost2010PropOp50
 70
     1
102
RTVSPost2010Prop51ColorIndex
 90
      256
102
RTVSPost2010Prop51ColorRGB
 90
-16777216
102
RTVSPost2010PropOp51
 70
     0
102
RTVSPost2010Prop52
140
1.0
102
RTVSPost2010PropOp52
 70
     0
102
RTVSPost2010Prop53
 90
        2
102
RTVSPost2010PropOp53
 70
     1
102
RTVSPost2010Prop54
  1
strokes_ogs.tif
102
RTVSPost2010PropOp54
 70
     1
102
RTVSPost2010Prop55
280
     0
102
RTVSPost2010PropOp55
 70
     1
102
RTVSPost2010Prop56
140
1.0
102
RTVSPost2010PropOp56
 70
     1
102
RTVSPost2010Prop57
140
1.0
102
RTVSPost2010PropOp57
 70
     1
102
RTVSPropertyOp0
 70
     1
102
RTVSPropertyOp1
 70
     1
102
RTVSPropertyOp2
 70
     1
102
RTVSPropertyOp3
 70
     1
102
RTVSPropertyOp4
 70
     1
102
RTVSPropertyOp5
 70
     1
102
RTVSPropertyOp6
 70
     1
102
RTVSPropertyOp7
 70
     1
102
RTVSPropertyOp8
 70
     1
102
RTVSPropertyOp9
 70
     1
102
RTVSPropertyOp10
 70
     1
102
RTVSPropertyOp11
 70
     1
102
RTVSPropertyOp12
 70
     1
102
RTVSPropertyOp13
 70
     1
102
RTVSPropertyOp14
 70
     1
102
RTVSPropertyOp15
 70
     1
102
RTVSPropertyOp16
 70
     1
102
RTVSPropertyOp17
 70
     1
102
RTVSPropertyOp18
 70
     1
102
RTVSPropertyOp19
 70
     1
102
RTVSPropertyOp20
 70
     1
102
RTVSPropertyOp21
 70
     1
102
RTVSPropertyOp22
 70
     1
102
RTVSPropertyOp23
 70
     1
102
RTVSPropertyOp24
 70
     1
102
RTVSPropertyOp25
 70
     1
102
RTVSPropertyOp26
 70
     1
102
RTVSPropertyOp27
 70
     1
102
RTVSPropertyOp28
 70
     1
102
RTVSPropertyOp29
 70
     1
102
RTVSPropertyOp30
 70
     1
102
RTVSPropertyOp31
 70
     1
102
RTVSPropertyOp32
 70
     1
102
RTVSPropertyOp33
 70
     1
102
RTVSPropertyOp34
 70
     1
102
RTVSPropertyOp35
 70
     1
102
RTVSPropertyOp36
 70
     1
102
RTVSPropertyOp37
 70
     1
102
RTVSPropertyOp38
 70
     1
102
RTVSPropertyOp39
 70
     1
102
RTVSPropertyOp40
 70
     1
102
RTVSPropertyOp41
 70
     1
102
RTVSPropertyOp42
 70
     1
102
RTVSPropertyOp43
 70
     1
102
RTVSPropertyOp44
 70
     1
102
RTVSPropertyOp45
 70
     1
102
RTVSPropertyOp46
 70
     1
102
RTVSPropertyOp47
 70
     1
102
RTVSPropertyOp48
 70
     1
102
RTVSPropertyOp49
 70
     1
102
RTVSPropertyOp50
 70
     1
102
RTVSPropertyOp51
 70
     0
102
RTVSPropertyOp52
 70
     0
102
RTVSPropertyOp53
 70
     1
102
RTVSPropertyOp54
 70
     1
102
RTVSPropertyOp55
 70
     1
102
RTVSPropertyOp56
 70
     1
102
RTVSPropertyOp57
 70
     1
102
RTVSPropertyOp58
 70
     1
102
RTVSPropertyOp59
 70
     1
102
RTVSPropertyOp60
 70
     1
102
RTVSPropertyOp61
 70
     1
102
RTVSPropertyOp62
 70
     1
  0
XRECORD
  5
AC5F
102
{ACAD_REACTORS
330
AC5E
102
}
330
AC5E
100
AcDbXrecord
280
     1
102
RTVSPost2010Prop28
280
     0
102
RTVSPost2010PropOp28
 70
     1
102
RTVSPost2010Prop29
280
     1
102
RTVSPost2010PropOp29
 70
     1
102
RTVSPost2010Prop30
280
     1
102
RTVSPost2010PropOp30
 70
     1
102
RTVSPost2010Prop31
280
     0
102
RTVSPost2010PropOp31
 70
     1
102
RTVSPost2010Prop32
280
     0
102
RTVSPost2010PropOp32
 70
     1
102
RTVSPost2010Prop33
280
     0
102
RTVSPost2010PropOp33
 70
     1
102
RTVSPost2010Prop34
280
     0
102
RTVSPost2010PropOp34
 70
     1
102
RTVSPost2010Prop35
280
     0
102
RTVSPost2010PropOp35
 70
     1
102
RTVSPost2010Prop36
280
     0
102
RTVSPost2010PropOp36
 70
     1
102
RTVSPost2010Prop37
 90
       50
102
RTVSPost2010PropOp37
 70
     1
102
RTVSPost2010Prop38
140
0.0
102
RTVSPost2010PropOp38
 70
     1
102
RTVSPost2010Prop39
140
1.0
102
RTVSPost2010PropOp39
 70
     1
102
RTVSPost2010Prop40
 90
        0
102
RTVSPost2010PropOp40
 70
     1
102
RTVSPost2010Prop41ColorIndex
 90
       18
102
RTVSPost2010Prop41ColorRGB
 90
        0
102
RTVSPost2010PropOp41
 70
     1
102
RTVSPost2010Prop42
 90
       50
102
RTVSPost2010PropOp42
 70
     1
102
RTVSPost2010Prop43
 90
        3
102
RTVSPost2010PropOp43
 70
     1
102
RTVSPost2010Prop44ColorIndex
 90
        5
102
RTVSPost2010Prop44ColorRGB
 90
      255
102
RTVSPost2010PropOp44
 70
     1
102
RTVSPost2010Prop45
280
     0
102
RTVSPost2010PropOp45
 70
     1
102
RTVSPost2010Prop46
 90
       50
102
RTVSPost2010PropOp46
 70
     1
102
RTVSPost2010Prop47
 90
       50
102
RTVSPost2010PropOp47
 70
     1
102
RTVSPost2010Prop48
 90
       50
102
RTVSPost2010PropOp48
 70
     1
102
RTVSPost2010Prop49
280
     0
102
RTVSPost2010PropOp49
 70
     1
102
RTVSPost2010Prop50
 90
       50
102
RTVSPost2010PropOp50
 70
     1
102
RTVSPost2010Prop51ColorIndex
 90
      256
102
RTVSPost2010Prop51ColorRGB
 90
-16777216
102
RTVSPost2010PropOp51
 70
     0
102
RTVSPost2010Prop52
140
1.0
102
RTVSPost2010PropOp52
 70
     0
102
RTVSPost2010Prop53
 90
        2
102
RTVSPost2010PropOp53
 70
     1
102
RTVSPost2010Prop54
  1
strokes_ogs.tif
102
RTVSPost2010PropOp54
 70
     1
102
RTVSPost2010Prop55
280
     0
102
RTVSPost2010PropOp55
 70
     1
102
RTVSPost2010Prop56
140
1.0
102
RTVSPost2010PropOp56
 70
     1
102
RTVSPost2010Prop57
140
1.0
102
RTVSPost2010PropOp57
 70
     1
102
RTVSPropertyOp0
 70
     1
102
RTVSPropertyOp1
 70
     1
102
RTVSPropertyOp2
 70
     1
102
RTVSPropertyOp3
 70
     1
102
RTVSPropertyOp4
 70
     1
102
RTVSPropertyOp5
 70
     1
102
RTVSPropertyOp6
 70
     1
102
RTVSPropertyOp7
 70
     1
102
RTVSPropertyOp8
 70
     1
102
RTVSPropertyOp9
 70
     1
102
RTVSPropertyOp10
 70
     1
102
RTVSPropertyOp11
 70
     1
102
RTVSPropertyOp12
 70
     1
102
RTVSPropertyOp13
 70
     1
102
RTVSPropertyOp14
 70
     1
102
RTVSPropertyOp15
 70
     1
102
RTVSPropertyOp16
 70
     1
102
RTVSPropertyOp17
 70
     1
102
RTVSPropertyOp18
 70
     1
102
RTVSPropertyOp19
 70
     1
102
RTVSPropertyOp20
 70
     1
102
RTVSPropertyOp21
 70
     1
102
RTVSPropertyOp22
 70
     1
102
RTVSPropertyOp23
 70
     1
102
RTVSPropertyOp24
 70
     1
102
RTVSPropertyOp25
 70
     1
102
RTVSPropertyOp26
 70
     1
102
RTVSPropertyOp27
 70
     1
102
RTVSPropertyOp28
 70
     1
102
RTVSPropertyOp29
 70
     1
102
RTVSPropertyOp30
 70
     1
102
RTVSPropertyOp31
 70
     1
102
RTVSPropertyOp32
 70
     1
102
RTVSPropertyOp33
 70
     1
102
RTVSPropertyOp34
 70
     1
102
RTVSPropertyOp35
 70
     1
102
RTVSPropertyOp36
 70
     1
102
RTVSPropertyOp37
 70
     1
102
RTVSPropertyOp38
 70
     1
102
RTVSPropertyOp39
 70
     1
102
RTVSPropertyOp40
 70
     1
102
RTVSPropertyOp41
 70
     1
102
RTVSPropertyOp42
 70
     1
102
RTVSPropertyOp43
 70
     1
102
RTVSPropertyOp44
 70
     1
102
RTVSPropertyOp45
 70
     1
102
RTVSPropertyOp46
 70
     1
102
RTVSPropertyOp47
 70
     1
102
RTVSPropertyOp48
 70
     1
102
RTVSPropertyOp49
 70
     1
102
RTVSPropertyOp50
 70
     1
102
RTVSPropertyOp51
 70
     0
102
RTVSPropertyOp52
 70
     0
102
RTVSPropertyOp53
 70
     1
102
RTVSPropertyOp54
 70
     1
102
RTVSPropertyOp55
 70
     1
102
RTVSPropertyOp56
 70
     1
102
RTVSPropertyOp57
 70
     1
102
RTVSPropertyOp58
 70
     1
102
RTVSPropertyOp59
 70
     1
102
RTVSPropertyOp60
 70
     1
102
RTVSPropertyOp61
 70
     1
102
RTVSPropertyOp62
 70
     1
  0
XRECORD
  5
AC61
102
{ACAD_REACTORS
330
AC60
102
}
330
AC60
100
AcDbXrecord
280
     1
102
RTVSPost2010Prop28
280
     0
102
RTVSPost2010PropOp28
 70
     1
102
RTVSPost2010Prop29
280
     1
102
RTVSPost2010PropOp29
 70
     1
102
RTVSPost2010Prop30
280
     1
102
RTVSPost2010PropOp30
 70
     1
102
RTVSPost2010Prop31
280
     0
102
RTVSPost2010PropOp31
 70
     1
102
RTVSPost2010Prop32
280
     0
102
RTVSPost2010PropOp32
 70
     1
102
RTVSPost2010Prop33
280
     0
102
RTVSPost2010PropOp33
 70
     1
102
RTVSPost2010Prop34
280
     0
102
RTVSPost2010PropOp34
 70
     1
102
RTVSPost2010Prop35
280
     0
102
RTVSPost2010PropOp35
 70
     1
102
RTVSPost2010Prop36
280
     0
102
RTVSPost2010PropOp36
 70
     1
102
RTVSPost2010Prop37
 90
       50
102
RTVSPost2010PropOp37
 70
     1
102
RTVSPost2010Prop38
140
0.0
102
RTVSPost2010PropOp38
 70
     1
102
RTVSPost2010Prop39
140
1.0
102
RTVSPost2010PropOp39
 70
     1
102
RTVSPost2010Prop40
 90
        0
102
RTVSPost2010PropOp40
 70
     1
102
RTVSPost2010Prop41ColorIndex
 90
       18
102
RTVSPost2010Prop41ColorRGB
 90
        0
102
RTVSPost2010PropOp41
 70
     1
102
RTVSPost2010Prop42
 90
       50
102
RTVSPost2010PropOp42
 70
     1
102
RTVSPost2010Prop43
 90
        3
102
RTVSPost2010PropOp43
 70
     1
102
RTVSPost2010Prop44ColorIndex
 90
        5
102
RTVSPost2010Prop44ColorRGB
 90
      255
102
RTVSPost2010PropOp44
 70
     1
102
RTVSPost2010Prop45
280
     0
102
RTVSPost2010PropOp45
 70
     1
102
RTVSPost2010Prop46
 90
       50
102
RTVSPost2010PropOp46
 70
     1
102
RTVSPost2010Prop47
 90
       50
102
RTVSPost2010PropOp47
 70
     1
102
RTVSPost2010Prop48
 90
       50
102
RTVSPost2010PropOp48
 70
     1
102
RTVSPost2010Prop49
280
     0
102
RTVSPost2010PropOp49
 70
     1
102
RTVSPost2010Prop50
 90
       50
102
RTVSPost2010PropOp50
 70
     1
102
RTVSPost2010Prop51ColorIndex
 90
      256
102
RTVSPost2010Prop51ColorRGB
 90
-16777216
102
RTVSPost2010PropOp51
 70
     0
102
RTVSPost2010Prop52
140
1.0
102
RTVSPost2010PropOp52
 70
     0
102
RTVSPost2010Prop53
 90
        2
102
RTVSPost2010PropOp53
 70
     1
102
RTVSPost2010Prop54
  1
strokes_ogs.tif
102
RTVSPost2010PropOp54
 70
     1
102
RTVSPost2010Prop55
280
     0
102
RTVSPost2010PropOp55
 70
     1
102
RTVSPost2010Prop56
140
1.0
102
RTVSPost2010PropOp56
 70
     1
102
RTVSPost2010Prop57
140
1.0
102
RTVSPost2010PropOp57
 70
     1
102
RTVSPropertyOp0
 70
     1
102
RTVSPropertyOp1
 70
     1
102
RTVSPropertyOp2
 70
     1
102
RTVSPropertyOp3
 70
     1
102
RTVSPropertyOp4
 70
     1
102
RTVSPropertyOp5
 70
     1
102
RTVSPropertyOp6
 70
     1
102
RTVSPropertyOp7
 70
     1
102
RTVSPropertyOp8
 70
     1
102
RTVSPropertyOp9
 70
     1
102
RTVSPropertyOp10
 70
     1
102
RTVSPropertyOp11
 70
     1
102
RTVSPropertyOp12
 70
     1
102
RTVSPropertyOp13
 70
     1
102
RTVSPropertyOp14
 70
     1
102
RTVSPropertyOp15
 70
     1
102
RTVSPropertyOp16
 70
     1
102
RTVSPropertyOp17
 70
     1
102
RTVSPropertyOp18
 70
     1
102
RTVSPropertyOp19
 70
     1
102
RTVSPropertyOp20
 70
     1
102
RTVSPropertyOp21
 70
     1
102
RTVSPropertyOp22
 70
     1
102
RTVSPropertyOp23
 70
     1
102
RTVSPropertyOp24
 70
     1
102
RTVSPropertyOp25
 70
     1
102
RTVSPropertyOp26
 70
     1
102
RTVSPropertyOp27
 70
     1
102
RTVSPropertyOp28
 70
     1
102
RTVSPropertyOp29
 70
     1
102
RTVSPropertyOp30
 70
     1
102
RTVSPropertyOp31
 70
     1
102
RTVSPropertyOp32
 70
     1
102
RTVSPropertyOp33
 70
     1
102
RTVSPropertyOp34
 70
     1
102
RTVSPropertyOp35
 70
     1
102
RTVSPropertyOp36
 70
     1
102
RTVSPropertyOp37
 70
     1
102
RTVSPropertyOp38
 70
     1
102
RTVSPropertyOp39
 70
     1
102
RTVSPropertyOp40
 70
     1
102
RTVSPropertyOp41
 70
     1
102
RTVSPropertyOp42
 70
     1
102
RTVSPropertyOp43
 70
     1
102
RTVSPropertyOp44
 70
     1
102
RTVSPropertyOp45
 70
     1
102
RTVSPropertyOp46
 70
     1
102
RTVSPropertyOp47
 70
     1
102
RTVSPropertyOp48
 70
     1
102
RTVSPropertyOp49
 70
     1
102
RTVSPropertyOp50
 70
     1
102
RTVSPropertyOp51
 70
     0
102
RTVSPropertyOp52
 70
     0
102
RTVSPropertyOp53
 70
     1
102
RTVSPropertyOp54
 70
     1
102
RTVSPropertyOp55
 70
     1
102
RTVSPropertyOp56
 70
     1
102
RTVSPropertyOp57
 70
     1
102
RTVSPropertyOp58
 70
     1
102
RTVSPropertyOp59
 70
     1
102
RTVSPropertyOp60
 70
     1
102
RTVSPropertyOp61
 70
     1
102
RTVSPropertyOp62
 70
     1
  0
XRECORD
  5
AC63
102
{ACAD_REACTORS
330
AC62
102
}
330
AC62
100
AcDbXrecord
280
     1
102
RTVSPost2010Prop28
280
     0
102
RTVSPost2010PropOp28
 70
     1
102
RTVSPost2010Prop29
280
     1
102
RTVSPost2010PropOp29
 70
     1
102
RTVSPost2010Prop30
280
     1
102
RTVSPost2010PropOp30
 70
     1
102
RTVSPost2010Prop31
280
     0
102
RTVSPost2010PropOp31
 70
     1
102
RTVSPost2010Prop32
280
     0
102
RTVSPost2010PropOp32
 70
     1
102
RTVSPost2010Prop33
280
     0
102
RTVSPost2010PropOp33
 70
     1
102
RTVSPost2010Prop34
280
     0
102
RTVSPost2010PropOp34
 70
     1
102
RTVSPost2010Prop35
280
     0
102
RTVSPost2010PropOp35
 70
     1
102
RTVSPost2010Prop36
280
     0
102
RTVSPost2010PropOp36
 70
     1
102
RTVSPost2010Prop37
 90
       50
102
RTVSPost2010PropOp37
 70
     1
102
RTVSPost2010Prop38
140
0.0
102
RTVSPost2010PropOp38
 70
     1
102
RTVSPost2010Prop39
140
1.0
102
RTVSPost2010PropOp39
 70
     1
102
RTVSPost2010Prop40
 90
        0
102
RTVSPost2010PropOp40
 70
     1
102
RTVSPost2010Prop41ColorIndex
 90
       18
102
RTVSPost2010Prop41ColorRGB
 90
        0
102
RTVSPost2010PropOp41
 70
     1
102
RTVSPost2010Prop42
 90
       50
102
RTVSPost2010PropOp42
 70
     1
102
RTVSPost2010Prop43
 90
        3
102
RTVSPost2010PropOp43
 70
     1
102
RTVSPost2010Prop44ColorIndex
 90
        5
102
RTVSPost2010Prop44ColorRGB
 90
      255
102
RTVSPost2010PropOp44
 70
     1
102
RTVSPost2010Prop45
280
     0
102
RTVSPost2010PropOp45
 70
     1
102
RTVSPost2010Prop46
 90
       50
102
RTVSPost2010PropOp46
 70
     1
102
RTVSPost2010Prop47
 90
       50
102
RTVSPost2010PropOp47
 70
     1
102
RTVSPost2010Prop48
 90
       50
102
RTVSPost2010PropOp48
 70
     1
102
RTVSPost2010Prop49
280
     0
102
RTVSPost2010PropOp49
 70
     1
102
RTVSPost2010Prop50
 90
       50
102
RTVSPost2010PropOp50
 70
     1
102
RTVSPost2010Prop51ColorIndex
 90
      256
102
RTVSPost2010Prop51ColorRGB
 90
-16777216
102
RTVSPost2010PropOp51
 70
     0
102
RTVSPost2010Prop52
140
1.0
102
RTVSPost2010PropOp52
 70
     0
102
RTVSPost2010Prop53
 90
        2
102
RTVSPost2010PropOp53
 70
     1
102
RTVSPost2010Prop54
  1
strokes_ogs.tif
102
RTVSPost2010PropOp54
 70
     1
102
RTVSPost2010Prop55
280
     0
102
RTVSPost2010PropOp55
 70
     1
102
RTVSPost2010Prop56
140
1.0
102
RTVSPost2010PropOp56
 70
     1
102
RTVSPost2010Prop57
140
1.0
102
RTVSPost2010PropOp57
 70
     1
102
RTVSPropertyOp0
 70
     1
102
RTVSPropertyOp1
 70
     1
102
RTVSPropertyOp2
 70
     1
102
RTVSPropertyOp3
 70
     1
102
RTVSPropertyOp4
 70
     1
102
RTVSPropertyOp5
 70
     1
102
RTVSPropertyOp6
 70
     1
102
RTVSPropertyOp7
 70
     1
102
RTVSPropertyOp8
 70
     1
102
RTVSPropertyOp9
 70
     1
102
RTVSPropertyOp10
 70
     1
102
RTVSPropertyOp11
 70
     1
102
RTVSPropertyOp12
 70
     1
102
RTVSPropertyOp13
 70
     1
102
RTVSPropertyOp14
 70
     1
102
RTVSPropertyOp15
 70
     1
102
RTVSPropertyOp16
 70
     1
102
RTVSPropertyOp17
 70
     1
102
RTVSPropertyOp18
 70
     1
102
RTVSPropertyOp19
 70
     1
102
RTVSPropertyOp20
 70
     1
102
RTVSPropertyOp21
 70
     1
102
RTVSPropertyOp22
 70
     1
102
RTVSPropertyOp23
 70
     1
102
RTVSPropertyOp24
 70
     1
102
RTVSPropertyOp25
 70
     1
102
RTVSPropertyOp26
 70
     1
102
RTVSPropertyOp27
 70
     1
102
RTVSPropertyOp28
 70
     1
102
RTVSPropertyOp29
 70
     1
102
RTVSPropertyOp30
 70
     1
102
RTVSPropertyOp31
 70
     1
102
RTVSPropertyOp32
 70
     1
102
RTVSPropertyOp33
 70
     1
102
RTVSPropertyOp34
 70
     1
102
RTVSPropertyOp35
 70
     1
102
RTVSPropertyOp36
 70
     1
102
RTVSPropertyOp37
 70
     1
102
RTVSPropertyOp38
 70
     1
102
RTVSPropertyOp39
 70
     1
102
RTVSPropertyOp40
 70
     1
102
RTVSPropertyOp41
 70
     1
102
RTVSPropertyOp42
 70
     1
102
RTVSPropertyOp43
 70
     1
102
RTVSPropertyOp44
 70
     1
102
RTVSPropertyOp45
 70
     1
102
RTVSPropertyOp46
 70
     1
102
RTVSPropertyOp47
 70
     1
102
RTVSPropertyOp48
 70
     1
102
RTVSPropertyOp49
 70
     1
102
RTVSPropertyOp50
 70
     1
102
RTVSPropertyOp51
 70
     0
102
RTVSPropertyOp52
 70
     0
102
RTVSPropertyOp53
 70
     1
102
RTVSPropertyOp54
 70
     1
102
RTVSPropertyOp55
 70
     1
102
RTVSPropertyOp56
 70
     1
102
RTVSPropertyOp57
 70
     1
102
RTVSPropertyOp58
 70
     1
102
RTVSPropertyOp59
 70
     1
102
RTVSPropertyOp60
 70
     1
102
RTVSPropertyOp61
 70
     1
102
RTVSPropertyOp62
 70
     1
  0
XRECORD
  5
AC65
102
{ACAD_REACTORS
330
AC64
102
}
330
AC64
100
AcDbXrecord
280
     1
102
RTVSPost2010Prop28
280
     0
102
RTVSPost2010PropOp28
 70
     1
102
RTVSPost2010Prop29
280
     1
102
RTVSPost2010PropOp29
 70
     1
102
RTVSPost2010Prop30
280
     1
102
RTVSPost2010PropOp30
 70
     1
102
RTVSPost2010Prop31
280
     0
102
RTVSPost2010PropOp31
 70
     1
102
RTVSPost2010Prop32
280
     0
102
RTVSPost2010PropOp32
 70
     1
102
RTVSPost2010Prop33
280
     0
102
RTVSPost2010PropOp33
 70
     1
102
RTVSPost2010Prop34
280
     0
102
RTVSPost2010PropOp34
 70
     1
102
RTVSPost2010Prop35
280
     0
102
RTVSPost2010PropOp35
 70
     1
102
RTVSPost2010Prop36
280
     0
102
RTVSPost2010PropOp36
 70
     1
102
RTVSPost2010Prop37
 90
       50
102
RTVSPost2010PropOp37
 70
     1
102
RTVSPost2010Prop38
140
0.0
102
RTVSPost2010PropOp38
 70
     1
102
RTVSPost2010Prop39
140
1.0
102
RTVSPost2010PropOp39
 70
     1
102
RTVSPost2010Prop40
 90
        0
102
RTVSPost2010PropOp40
 70
     1
102
RTVSPost2010Prop41ColorIndex
 90
       18
102
RTVSPost2010Prop41ColorRGB
 90
        0
102
RTVSPost2010PropOp41
 70
     1
102
RTVSPost2010Prop42
 90
       50
102
RTVSPost2010PropOp42
 70
     1
102
RTVSPost2010Prop43
 90
        3
102
RTVSPost2010PropOp43
 70
     1
102
RTVSPost2010Prop44ColorIndex
 90
        5
102
RTVSPost2010Prop44ColorRGB
 90
      255
102
RTVSPost2010PropOp44
 70
     1
102
RTVSPost2010Prop45
280
     0
102
RTVSPost2010PropOp45
 70
     1
102
RTVSPost2010Prop46
 90
       50
102
RTVSPost2010PropOp46
 70
     1
102
RTVSPost2010Prop47
 90
       50
102
RTVSPost2010PropOp47
 70
     1
102
RTVSPost2010Prop48
 90
       50
102
RTVSPost2010PropOp48
 70
     1
102
RTVSPost2010Prop49
280
     0
102
RTVSPost2010PropOp49
 70
     1
102
RTVSPost2010Prop50
 90
       50
102
RTVSPost2010PropOp50
 70
     1
102
RTVSPost2010Prop51ColorIndex
 90
      256
102
RTVSPost2010Prop51ColorRGB
 90
-16777216
102
RTVSPost2010PropOp51
 70
     0
102
RTVSPost2010Prop52
140
1.0
102
RTVSPost2010PropOp52
 70
     0
102
RTVSPost2010Prop53
 90
        2
102
RTVSPost2010PropOp53
 70
     1
102
RTVSPost2010Prop54
  1
strokes_ogs.tif
102
RTVSPost2010PropOp54
 70
     1
102
RTVSPost2010Prop55
280
     0
102
RTVSPost2010PropOp55
 70
     1
102
RTVSPost2010Prop56
140
1.0
102
RTVSPost2010PropOp56
 70
     1
102
RTVSPost2010Prop57
140
1.0
102
RTVSPost2010PropOp57
 70
     1
102
RTVSPropertyOp0
 70
     1
102
RTVSPropertyOp1
 70
     1
102
RTVSPropertyOp2
 70
     1
102
RTVSPropertyOp3
 70
     1
102
RTVSPropertyOp4
 70
     1
102
RTVSPropertyOp5
 70
     1
102
RTVSPropertyOp6
 70
     1
102
RTVSPropertyOp7
 70
     1
102
RTVSPropertyOp8
 70
     1
102
RTVSPropertyOp9
 70
     1
102
RTVSPropertyOp10
 70
     1
102
RTVSPropertyOp11
 70
     1
102
RTVSPropertyOp12
 70
     1
102
RTVSPropertyOp13
 70
     1
102
RTVSPropertyOp14
 70
     1
102
RTVSPropertyOp15
 70
     1
102
RTVSPropertyOp16
 70
     1
102
RTVSPropertyOp17
 70
     1
102
RTVSPropertyOp18
 70
     1
102
RTVSPropertyOp19
 70
     1
102
RTVSPropertyOp20
 70
     1
102
RTVSPropertyOp21
 70
     1
102
RTVSPropertyOp22
 70
     1
102
RTVSPropertyOp23
 70
     1
102
RTVSPropertyOp24
 70
     1
102
RTVSPropertyOp25
 70
     1
102
RTVSPropertyOp26
 70
     1
102
RTVSPropertyOp27
 70
     1
102
RTVSPropertyOp28
 70
     1
102
RTVSPropertyOp29
 70
     1
102
RTVSPropertyOp30
 70
     1
102
RTVSPropertyOp31
 70
     1
102
RTVSPropertyOp32
 70
     1
102
RTVSPropertyOp33
 70
     1
102
RTVSPropertyOp34
 70
     1
102
RTVSPropertyOp35
 70
     1
102
RTVSPropertyOp36
 70
     1
102
RTVSPropertyOp37
 70
     1
102
RTVSPropertyOp38
 70
     1
102
RTVSPropertyOp39
 70
     1
102
RTVSPropertyOp40
 70
     1
102
RTVSPropertyOp41
 70
     1
102
RTVSPropertyOp42
 70
     1
102
RTVSPropertyOp43
 70
     1
102
RTVSPropertyOp44
 70
     1
102
RTVSPropertyOp45
 70
     1
102
RTVSPropertyOp46
 70
     1
102
RTVSPropertyOp47
 70
     1
102
RTVSPropertyOp48
 70
     1
102
RTVSPropertyOp49
 70
     1
102
RTVSPropertyOp50
 70
     1
102
RTVSPropertyOp51
 70
     0
102
RTVSPropertyOp52
 70
     0
102
RTVSPropertyOp53
 70
     1
102
RTVSPropertyOp54
 70
     1
102
RTVSPropertyOp55
 70
     1
102
RTVSPropertyOp56
 70
     1
102
RTVSPropertyOp57
 70
     1
102
RTVSPropertyOp58
 70
     1
102
RTVSPropertyOp59
 70
     1
102
RTVSPropertyOp60
 70
     1
102
RTVSPropertyOp61
 70
     1
102
RTVSPropertyOp62
 70
     1
  0
XRECORD
  5
AC6D
102
{ACAD_REACTORS
330
AC6C
102
}
330
AC6C
100
AcDbXrecord
280
     1
102
RTVSPost2010Prop28
280
     0
102
RTVSPost2010PropOp28
 70
     1
102
RTVSPost2010Prop29
280
     1
102
RTVSPost2010PropOp29
 70
     1
102
RTVSPost2010Prop30
280
     1
102
RTVSPost2010PropOp30
 70
     1
102
RTVSPost2010Prop31
280
     0
102
RTVSPost2010PropOp31
 70
     1
102
RTVSPost2010Prop32
280
     0
102
RTVSPost2010PropOp32
 70
     1
102
RTVSPost2010Prop33
280
     0
102
RTVSPost2010PropOp33
 70
     1
102
RTVSPost2010Prop34
280
     0
102
RTVSPost2010PropOp34
 70
     1
102
RTVSPost2010Prop35
280
     0
102
RTVSPost2010PropOp35
 70
     1
102
RTVSPost2010Prop36
280
     0
102
RTVSPost2010PropOp36
 70
     1
102
RTVSPost2010Prop37
 90
       50
102
RTVSPost2010PropOp37
 70
     1
102
RTVSPost2010Prop38
140
0.0
102
RTVSPost2010PropOp38
 70
     1
102
RTVSPost2010Prop39
140
1.0
102
RTVSPost2010PropOp39
 70
     1
102
RTVSPost2010Prop40
 90
        0
102
RTVSPost2010PropOp40
 70
     1
102
RTVSPost2010Prop41ColorIndex
 90
       18
102
RTVSPost2010Prop41ColorRGB
 90
        0
102
RTVSPost2010PropOp41
 70
     1
102
RTVSPost2010Prop42
 90
       50
102
RTVSPost2010PropOp42
 70
     1
102
RTVSPost2010Prop43
 90
        3
102
RTVSPost2010PropOp43
 70
     1
102
RTVSPost2010Prop44ColorIndex
 90
        5
102
RTVSPost2010Prop44ColorRGB
 90
      255
102
RTVSPost2010PropOp44
 70
     1
102
RTVSPost2010Prop45
280
     0
102
RTVSPost2010PropOp45
 70
     1
102
RTVSPost2010Prop46
 90
       50
102
RTVSPost2010PropOp46
 70
     1
102
RTVSPost2010Prop47
 90
       50
102
RTVSPost2010PropOp47
 70
     1
102
RTVSPost2010Prop48
 90
       50
102
RTVSPost2010PropOp48
 70
     1
102
RTVSPost2010Prop49
280
     0
102
RTVSPost2010PropOp49
 70
     1
102
RTVSPost2010Prop50
 90
       50
102
RTVSPost2010PropOp50
 70
     1
102
RTVSPost2010Prop51ColorIndex
 90
      256
102
RTVSPost2010Prop51ColorRGB
 90
-16777216
102
RTVSPost2010PropOp51
 70
     0
102
RTVSPost2010Prop52
140
1.0
102
RTVSPost2010PropOp52
 70
     0
102
RTVSPost2010Prop53
 90
        2
102
RTVSPost2010PropOp53
 70
     1
102
RTVSPost2010Prop54
  1
strokes_ogs.tif
102
RTVSPost2010PropOp54
 70
     1
102
RTVSPost2010Prop55
280
     0
102
RTVSPost2010PropOp55
 70
     1
102
RTVSPost2010Prop56
140
1.0
102
RTVSPost2010PropOp56
 70
     1
102
RTVSPost2010Prop57
140
1.0
102
RTVSPost2010PropOp57
 70
     1
102
RTVSPropertyOp0
 70
     1
102
RTVSPropertyOp1
 70
     1
102
RTVSPropertyOp2
 70
     1
102
RTVSPropertyOp3
 70
     1
102
RTVSPropertyOp4
 70
     1
102
RTVSPropertyOp5
 70
     1
102
RTVSPropertyOp6
 70
     1
102
RTVSPropertyOp7
 70
     1
102
RTVSPropertyOp8
 70
     1
102
RTVSPropertyOp9
 70
     1
102
RTVSPropertyOp10
 70
     1
102
RTVSPropertyOp11
 70
     1
102
RTVSPropertyOp12
 70
     1
102
RTVSPropertyOp13
 70
     1
102
RTVSPropertyOp14
 70
     1
102
RTVSPropertyOp15
 70
     1
102
RTVSPropertyOp16
 70
     1
102
RTVSPropertyOp17
 70
     1
102
RTVSPropertyOp18
 70
     1
102
RTVSPropertyOp19
 70
     1
102
RTVSPropertyOp20
 70
     1
102
RTVSPropertyOp21
 70
     1
102
RTVSPropertyOp22
 70
     1
102
RTVSPropertyOp23
 70
     1
102
RTVSPropertyOp24
 70
     1
102
RTVSPropertyOp25
 70
     1
102
RTVSPropertyOp26
 70
     1
102
RTVSPropertyOp27
 70
     1
102
RTVSPropertyOp28
 70
     1
102
RTVSPropertyOp29
 70
     1
102
RTVSPropertyOp30
 70
     1
102
RTVSPropertyOp31
 70
     1
102
RTVSPropertyOp32
 70
     1
102
RTVSPropertyOp33
 70
     1
102
RTVSPropertyOp34
 70
     1
102
RTVSPropertyOp35
 70
     1
102
RTVSPropertyOp36
 70
     1
102
RTVSPropertyOp37
 70
     1
102
RTVSPropertyOp38
 70
     1
102
RTVSPropertyOp39
 70
     1
102
RTVSPropertyOp40
 70
     1
102
RTVSPropertyOp41
 70
     1
102
RTVSPropertyOp42
 70
     1
102
RTVSPropertyOp43
 70
     1
102
RTVSPropertyOp44
 70
     1
102
RTVSPropertyOp45
 70
     1
102
RTVSPropertyOp46
 70
     1
102
RTVSPropertyOp47
 70
     1
102
RTVSPropertyOp48
 70
     1
102
RTVSPropertyOp49
 70
     1
102
RTVSPropertyOp50
 70
     1
102
RTVSPropertyOp51
 70
     0
102
RTVSPropertyOp52
 70
     0
102
RTVSPropertyOp53
 70
     1
102
RTVSPropertyOp54
 70
     1
102
RTVSPropertyOp55
 70
     1
102
RTVSPropertyOp56
 70
     1
102
RTVSPropertyOp57
 70
     1
102
RTVSPropertyOp58
 70
     1
102
RTVSPropertyOp59
 70
     1
102
RTVSPropertyOp60
 70
     1
102
RTVSPropertyOp61
 70
     1
102
RTVSPropertyOp62
 70
     1
  0
XRECORD
  5
AC89
102
{ACAD_REACTORS
330
AC88
102
}
330
AC88
100
AcDbXrecord
280
     1
102
RTVSPost2010Prop28
280
     0
102
RTVSPost2010PropOp28
 70
     1
102
RTVSPost2010Prop29
280
     1
102
RTVSPost2010PropOp29
 70
     1
102
RTVSPost2010Prop30
280
     1
102
RTVSPost2010PropOp30
 70
     1
102
RTVSPost2010Prop31
280
     0
102
RTVSPost2010PropOp31
 70
     1
102
RTVSPost2010Prop32
280
     0
102
RTVSPost2010PropOp32
 70
     1
102
RTVSPost2010Prop33
280
     0
102
RTVSPost2010PropOp33
 70
     1
102
RTVSPost2010Prop34
280
     0
102
RTVSPost2010PropOp34
 70
     1
102
RTVSPost2010Prop35
280
     0
102
RTVSPost2010PropOp35
 70
     1
102
RTVSPost2010Prop36
280
     0
102
RTVSPost2010PropOp36
 70
     1
102
RTVSPost2010Prop37
 90
       50
102
RTVSPost2010PropOp37
 70
     0
102
RTVSPost2010Prop38
140
0.0
102
RTVSPost2010PropOp38
 70
     0
102
RTVSPost2010Prop39
140
1.0
102
RTVSPost2010PropOp39
 70
     0
102
RTVSPost2010Prop40
 90
        0
102
RTVSPost2010PropOp40
 70
     0
102
RTVSPost2010Prop41ColorIndex
 90
       18
102
RTVSPost2010Prop41ColorRGB
 90
        0
102
RTVSPost2010PropOp41
 70
     0
102
RTVSPost2010Prop42
 90
       50
102
RTVSPost2010PropOp42
 70
     0
102
RTVSPost2010Prop43
 90
        3
102
RTVSPost2010PropOp43
 70
     0
102
RTVSPost2010Prop44ColorIndex
 90
        5
102
RTVSPost2010Prop44ColorRGB
 90
      255
102
RTVSPost2010PropOp44
 70
     0
102
RTVSPost2010Prop45
280
     0
102
RTVSPost2010PropOp45
 70
     1
102
RTVSPost2010Prop46
 90
       50
102
RTVSPost2010PropOp46
 70
     0
102
RTVSPost2010Prop47
 90
       50
102
RTVSPost2010PropOp47
 70
     0
102
RTVSPost2010Prop48
 90
       50
102
RTVSPost2010PropOp48
 70
     0
102
RTVSPost2010Prop49
280
     0
102
RTVSPost2010PropOp49
 70
     1
102
RTVSPost2010Prop50
 90
       50
102
RTVSPost2010PropOp50
 70
     0
102
RTVSPost2010Prop51ColorIndex
 90
      256
102
RTVSPost2010Prop51ColorRGB
 90
-16777216
102
RTVSPost2010PropOp51
 70
     0
102
RTVSPost2010Prop52
140
1.0
102
RTVSPost2010PropOp52
 70
     0
102
RTVSPost2010Prop53
 90
        2
102
RTVSPost2010PropOp53
 70
     0
102
RTVSPost2010Prop54
  1
strokes_ogs.tif
102
RTVSPost2010PropOp54
 70
     0
102
RTVSPost2010Prop55
280
     0
102
RTVSPost2010PropOp55
 70
     1
102
RTVSPost2010Prop56
140
1.0
102
RTVSPost2010PropOp56
 70
     0
102
RTVSPost2010Prop57
140
1.0
102
RTVSPost2010PropOp57
 70
     0
102
RTVSPropertyOp0
 70
     0
102
RTVSPropertyOp1
 70
     0
102
RTVSPropertyOp2
 70
     0
102
RTVSPropertyOp3
 70
     0
102
RTVSPropertyOp4
 70
     0
102
RTVSPropertyOp5
 70
     0
102
RTVSPropertyOp6
 70
     0
102
RTVSPropertyOp7
 70
     0
102
RTVSPropertyOp8
 70
     0
102
RTVSPropertyOp9
 70
     0
102
RTVSPropertyOp10
 70
     0
102
RTVSPropertyOp11
 70
     0
102
RTVSPropertyOp12
 70
     0
102
RTVSPropertyOp13
 70
     0
102
RTVSPropertyOp14
 70
     2
102
RTVSPropertyOp15
 70
     0
102
RTVSPropertyOp16
 70
     0
102
RTVSPropertyOp17
 70
     0
102
RTVSPropertyOp18
 70
     0
102
RTVSPropertyOp19
 70
     0
102
RTVSPropertyOp20
 70
     0
102
RTVSPropertyOp21
 70
     0
102
RTVSPropertyOp22
 70
     0
102
RTVSPropertyOp23
 70
     0
102
RTVSPropertyOp24
 70
     0
102
RTVSPropertyOp25
 70
     0
102
RTVSPropertyOp26
 70
     0
102
RTVSPropertyOp27
 70
     0
102
RTVSPropertyOp28
 70
     1
102
RTVSPropertyOp29
 70
     1
102
RTVSPropertyOp30
 70
     1
102
RTVSPropertyOp31
 70
     1
102
RTVSPropertyOp32
 70
     1
102
RTVSPropertyOp33
 70
     1
102
RTVSPropertyOp34
 70
     1
102
RTVSPropertyOp35
 70
     1
102
RTVSPropertyOp36
 70
     1
102
RTVSPropertyOp37
 70
     0
102
RTVSPropertyOp38
 70
     0
102
RTVSPropertyOp39
 70
     0
102
RTVSPropertyOp40
 70
     0
102
RTVSPropertyOp41
 70
     0
102
RTVSPropertyOp42
 70
     0
102
RTVSPropertyOp43
 70
     0
102
RTVSPropertyOp44
 70
     0
102
RTVSPropertyOp45
 70
     1
102
RTVSPropertyOp46
 70
     0
102
RTVSPropertyOp47
 70
     0
102
RTVSPropertyOp48
 70
     0
102
RTVSPropertyOp49
 70
     1
102
RTVSPropertyOp50
 70
     0
102
RTVSPropertyOp51
 70
     0
102
RTVSPropertyOp52
 70
     0
102
RTVSPropertyOp53
 70
     0
102
RTVSPropertyOp54
 70
     0
102
RTVSPropertyOp55
 70
     1
102
RTVSPropertyOp56
 70
     0
102
RTVSPropertyOp57
 70
     0
102
RTVSPropertyOp58
 70
     0
102
RTVSPropertyOp59
 70
     0
102
RTVSPropertyOp60
 70
     0
102
RTVSPropertyOp61
 70
     0
102
RTVSPropertyOp62
 70
     0
  0
XRECORD
  5
AC79
102
{ACAD_REACTORS
330
AC78
102
}
330
AC78
100
AcDbXrecord
280
     1
102
RTVSPost2010Prop28
280
     0
102
RTVSPost2010PropOp28
 70
     1
102
RTVSPost2010Prop29
280
     1
102
RTVSPost2010PropOp29
 70
     1
102
RTVSPost2010Prop30
280
     1
102
RTVSPost2010PropOp30
 70
     1
102
RTVSPost2010Prop31
280
     0
102
RTVSPost2010PropOp31
 70
     1
102
RTVSPost2010Prop32
280
     0
102
RTVSPost2010PropOp32
 70
     1
102
RTVSPost2010Prop33
280
     0
102
RTVSPost2010PropOp33
 70
     1
102
RTVSPost2010Prop34
280
     0
102
RTVSPost2010PropOp34
 70
     1
102
RTVSPost2010Prop35
280
     0
102
RTVSPost2010PropOp35
 70
     1
102
RTVSPost2010Prop36
280
     0
102
RTVSPost2010PropOp36
 70
     1
102
RTVSPost2010Prop37
 90
       50
102
RTVSPost2010PropOp37
 70
     1
102
RTVSPost2010Prop38
140
0.0
102
RTVSPost2010PropOp38
 70
     1
102
RTVSPost2010Prop39
140
1.0
102
RTVSPost2010PropOp39
 70
     1
102
RTVSPost2010Prop40
 90
        0
102
RTVSPost2010PropOp40
 70
     1
102
RTVSPost2010Prop41ColorIndex
 90
       18
102
RTVSPost2010Prop41ColorRGB
 90
        0
102
RTVSPost2010PropOp41
 70
     1
102
RTVSPost2010Prop42
 90
       50
102
RTVSPost2010PropOp42
 70
     1
102
RTVSPost2010Prop43
 90
        3
102
RTVSPost2010PropOp43
 70
     1
102
RTVSPost2010Prop44ColorIndex
 90
        5
102
RTVSPost2010Prop44ColorRGB
 90
      255
102
RTVSPost2010PropOp44
 70
     1
102
RTVSPost2010Prop45
280
     0
102
RTVSPost2010PropOp45
 70
     1
102
RTVSPost2010Prop46
 90
       50
102
RTVSPost2010PropOp46
 70
     1
102
RTVSPost2010Prop47
 90
       50
102
RTVSPost2010PropOp47
 70
     1
102
RTVSPost2010Prop48
 90
       50
102
RTVSPost2010PropOp48
 70
     1
102
RTVSPost2010Prop49
280
     0
102
RTVSPost2010PropOp49
 70
     1
102
RTVSPost2010Prop50
 90
       50
102
RTVSPost2010PropOp50
 70
     1
102
RTVSPost2010Prop51ColorIndex
 90
      256
102
RTVSPost2010Prop51ColorRGB
 90
-16777216
102
RTVSPost2010PropOp51
 70
     0
102
RTVSPost2010Prop52
140
1.0
102
RTVSPost2010PropOp52
 70
     0
102
RTVSPost2010Prop53
 90
        2
102
RTVSPost2010PropOp53
 70
     1
102
RTVSPost2010Prop54
  1
strokes_ogs.tif
102
RTVSPost2010PropOp54
 70
     1
102
RTVSPost2010Prop55
280
     0
102
RTVSPost2010PropOp55
 70
     1
102
RTVSPost2010Prop56
140
1.0
102
RTVSPost2010PropOp56
 70
     1
102
RTVSPost2010Prop57
140
1.0
102
RTVSPost2010PropOp57
 70
     1
102
RTVSPropertyOp0
 70
     1
102
RTVSPropertyOp1
 70
     1
102
RTVSPropertyOp2
 70
     1
102
RTVSPropertyOp3
 70
     1
102
RTVSPropertyOp4
 70
     1
102
RTVSPropertyOp5
 70
     1
102
RTVSPropertyOp6
 70
     1
102
RTVSPropertyOp7
 70
     1
102
RTVSPropertyOp8
 70
     1
102
RTVSPropertyOp9
 70
     1
102
RTVSPropertyOp10
 70
     1
102
RTVSPropertyOp11
 70
     1
102
RTVSPropertyOp12
 70
     1
102
RTVSPropertyOp13
 70
     1
102
RTVSPropertyOp14
 70
     1
102
RTVSPropertyOp15
 70
     1
102
RTVSPropertyOp16
 70
     1
102
RTVSPropertyOp17
 70
     1
102
RTVSPropertyOp18
 70
     1
102
RTVSPropertyOp19
 70
     1
102
RTVSPropertyOp20
 70
     1
102
RTVSPropertyOp21
 70
     1
102
RTVSPropertyOp22
 70
     1
102
RTVSPropertyOp23
 70
     1
102
RTVSPropertyOp24
 70
     1
102
RTVSPropertyOp25
 70
     1
102
RTVSPropertyOp26
 70
     1
102
RTVSPropertyOp27
 70
     1
102
RTVSPropertyOp28
 70
     1
102
RTVSPropertyOp29
 70
     1
102
RTVSPropertyOp30
 70
     1
102
RTVSPropertyOp31
 70
     1
102
RTVSPropertyOp32
 70
     1
102
RTVSPropertyOp33
 70
     1
102
RTVSPropertyOp34
 70
     1
102
RTVSPropertyOp35
 70
     1
102
RTVSPropertyOp36
 70
     1
102
RTVSPropertyOp37
 70
     1
102
RTVSPropertyOp38
 70
     1
102
RTVSPropertyOp39
 70
     1
102
RTVSPropertyOp40
 70
     1
102
RTVSPropertyOp41
 70
     1
102
RTVSPropertyOp42
 70
     1
102
RTVSPropertyOp43
 70
     1
102
RTVSPropertyOp44
 70
     1
102
RTVSPropertyOp45
 70
     1
102
RTVSPropertyOp46
 70
     1
102
RTVSPropertyOp47
 70
     1
102
RTVSPropertyOp48
 70
     1
102
RTVSPropertyOp49
 70
     1
102
RTVSPropertyOp50
 70
     1
102
RTVSPropertyOp51
 70
     0
102
RTVSPropertyOp52
 70
     0
102
RTVSPropertyOp53
 70
     1
102
RTVSPropertyOp54
 70
     1
102
RTVSPropertyOp55
 70
     1
102
RTVSPropertyOp56
 70
     1
102
RTVSPropertyOp57
 70
     1
102
RTVSPropertyOp58
 70
     1
102
RTVSPropertyOp59
 70
     1
102
RTVSPropertyOp60
 70
     1
102
RTVSPropertyOp61
 70
     1
102
RTVSPropertyOp62
 70
     1
  0
XRECORD
  5
AC8B
102
{ACAD_REACTORS
330
AC8A
102
}
330
AC8A
100
AcDbXrecord
280
     1
102
RTVSPost2010Prop28
280
     0
102
RTVSPost2010PropOp28
 70
     1
102
RTVSPost2010Prop29
280
     1
102
RTVSPost2010PropOp29
 70
     1
102
RTVSPost2010Prop30
280
     1
102
RTVSPost2010PropOp30
 70
     1
102
RTVSPost2010Prop31
280
     0
102
RTVSPost2010PropOp31
 70
     1
102
RTVSPost2010Prop32
280
     0
102
RTVSPost2010PropOp32
 70
     1
102
RTVSPost2010Prop33
280
     0
102
RTVSPost2010PropOp33
 70
     1
102
RTVSPost2010Prop34
280
     0
102
RTVSPost2010PropOp34
 70
     1
102
RTVSPost2010Prop35
280
     0
102
RTVSPost2010PropOp35
 70
     1
102
RTVSPost2010Prop36
280
     0
102
RTVSPost2010PropOp36
 70
     1
102
RTVSPost2010Prop37
 90
       50
102
RTVSPost2010PropOp37
 70
     0
102
RTVSPost2010Prop38
140
0.0
102
RTVSPost2010PropOp38
 70
     0
102
RTVSPost2010Prop39
140
1.0
102
RTVSPost2010PropOp39
 70
     0
102
RTVSPost2010Prop40
 90
        0
102
RTVSPost2010PropOp40
 70
     0
102
RTVSPost2010Prop41ColorIndex
 90
       18
102
RTVSPost2010Prop41ColorRGB
 90
        0
102
RTVSPost2010PropOp41
 70
     0
102
RTVSPost2010Prop42
 90
       50
102
RTVSPost2010PropOp42
 70
     0
102
RTVSPost2010Prop43
 90
        3
102
RTVSPost2010PropOp43
 70
     0
102
RTVSPost2010Prop44ColorIndex
 90
        5
102
RTVSPost2010Prop44ColorRGB
 90
      255
102
RTVSPost2010PropOp44
 70
     0
102
RTVSPost2010Prop45
280
     0
102
RTVSPost2010PropOp45
 70
     1
102
RTVSPost2010Prop46
 90
       50
102
RTVSPost2010PropOp46
 70
     0
102
RTVSPost2010Prop47
 90
       50
102
RTVSPost2010PropOp47
 70
     0
102
RTVSPost2010Prop48
 90
       50
102
RTVSPost2010PropOp48
 70
     0
102
RTVSPost2010Prop49
280
     0
102
RTVSPost2010PropOp49
 70
     1
102
RTVSPost2010Prop50
 90
       50
102
RTVSPost2010PropOp50
 70
     0
102
RTVSPost2010Prop51ColorIndex
 90
      256
102
RTVSPost2010Prop51ColorRGB
 90
-16777216
102
RTVSPost2010PropOp51
 70
     0
102
RTVSPost2010Prop52
140
1.0
102
RTVSPost2010PropOp52
 70
     0
102
RTVSPost2010Prop53
 90
        2
102
RTVSPost2010PropOp53
 70
     0
102
RTVSPost2010Prop54
  1
strokes_ogs.tif
102
RTVSPost2010PropOp54
 70
     0
102
RTVSPost2010Prop55
280
     0
102
RTVSPost2010PropOp55
 70
     1
102
RTVSPost2010Prop56
140
1.0
102
RTVSPost2010PropOp56
 70
     0
102
RTVSPost2010Prop57
140
1.0
102
RTVSPost2010PropOp57
 70
     0
102
RTVSPropertyOp0
 70
     0
102
RTVSPropertyOp1
 70
     0
102
RTVSPropertyOp2
 70
     0
102
RTVSPropertyOp3
 70
     0
102
RTVSPropertyOp4
 70
     0
102
RTVSPropertyOp5
 70
     0
102
RTVSPropertyOp6
 70
     0
102
RTVSPropertyOp7
 70
     0
102
RTVSPropertyOp8
 70
     0
102
RTVSPropertyOp9
 70
     0
102
RTVSPropertyOp10
 70
     0
102
RTVSPropertyOp11
 70
     0
102
RTVSPropertyOp12
 70
     0
102
RTVSPropertyOp13
 70
     0
102
RTVSPropertyOp14
 70
     2
102
RTVSPropertyOp15
 70
     0
102
RTVSPropertyOp16
 70
     0
102
RTVSPropertyOp17
 70
     0
102
RTVSPropertyOp18
 70
     0
102
RTVSPropertyOp19
 70
     0
102
RTVSPropertyOp20
 70
     0
102
RTVSPropertyOp21
 70
     0
102
RTVSPropertyOp22
 70
     0
102
RTVSPropertyOp23
 70
     0
102
RTVSPropertyOp24
 70
     0
102
RTVSPropertyOp25
 70
     0
102
RTVSPropertyOp26
 70
     0
102
RTVSPropertyOp27
 70
     0
102
RTVSPropertyOp28
 70
     1
102
RTVSPropertyOp29
 70
     1
102
RTVSPropertyOp30
 70
     1
102
RTVSPropertyOp31
 70
     1
102
RTVSPropertyOp32
 70
     1
102
RTVSPropertyOp33
 70
     1
102
RTVSPropertyOp34
 70
     1
102
RTVSPropertyOp35
 70
     1
102
RTVSPropertyOp36
 70
     1
102
RTVSPropertyOp37
 70
     0
102
RTVSPropertyOp38
 70
     0
102
RTVSPropertyOp39
 70
     0
102
RTVSPropertyOp40
 70
     0
102
RTVSPropertyOp41
 70
     0
102
RTVSPropertyOp42
 70
     0
102
RTVSPropertyOp43
 70
     0
102
RTVSPropertyOp44
 70
     0
102
RTVSPropertyOp45
 70
     1
102
RTVSPropertyOp46
 70
     0
102
RTVSPropertyOp47
 70
     0
102
RTVSPropertyOp48
 70
     0
102
RTVSPropertyOp49
 70
     1
102
RTVSPropertyOp50
 70
     0
102
RTVSPropertyOp51
 70
     0
102
RTVSPropertyOp52
 70
     0
102
RTVSPropertyOp53
 70
     0
102
RTVSPropertyOp54
 70
     0
102
RTVSPropertyOp55
 70
     1
102
RTVSPropertyOp56
 70
     0
102
RTVSPropertyOp57
 70
     0
102
RTVSPropertyOp58
 70
     0
102
RTVSPropertyOp59
 70
     0
102
RTVSPropertyOp60
 70
     0
102
RTVSPropertyOp61
 70
     0
102
RTVSPropertyOp62
 70
     0
  0
XRECORD
  5
AC71
102
{ACAD_REACTORS
330
AC70
102
}
330
AC70
100
AcDbXrecord
280
     1
102
RTVSPost2010Prop28
280
     0
102
RTVSPost2010PropOp28
 70
     1
102
RTVSPost2010Prop29
280
     1
102
RTVSPost2010PropOp29
 70
     1
102
RTVSPost2010Prop30
280
     1
102
RTVSPost2010PropOp30
 70
     1
102
RTVSPost2010Prop31
280
     0
102
RTVSPost2010PropOp31
 70
     1
102
RTVSPost2010Prop32
280
     0
102
RTVSPost2010PropOp32
 70
     1
102
RTVSPost2010Prop33
280
     0
102
RTVSPost2010PropOp33
 70
     1
102
RTVSPost2010Prop34
280
     0
102
RTVSPost2010PropOp34
 70
     1
102
RTVSPost2010Prop35
280
     0
102
RTVSPost2010PropOp35
 70
     1
102
RTVSPost2010Prop36
280
     0
102
RTVSPost2010PropOp36
 70
     1
102
RTVSPost2010Prop37
 90
       50
102
RTVSPost2010PropOp37
 70
     1
102
RTVSPost2010Prop38
140
0.0
102
RTVSPost2010PropOp38
 70
     1
102
RTVSPost2010Prop39
140
1.0
102
RTVSPost2010PropOp39
 70
     1
102
RTVSPost2010Prop40
 90
        0
102
RTVSPost2010PropOp40
 70
     1
102
RTVSPost2010Prop41ColorIndex
 90
       18
102
RTVSPost2010Prop41ColorRGB
 90
        0
102
RTVSPost2010PropOp41
 70
     1
102
RTVSPost2010Prop42
 90
       50
102
RTVSPost2010PropOp42
 70
     1
102
RTVSPost2010Prop43
 90
        3
102
RTVSPost2010PropOp43
 70
     1
102
RTVSPost2010Prop44ColorIndex
 90
        5
102
RTVSPost2010Prop44ColorRGB
 90
      255
102
RTVSPost2010PropOp44
 70
     1
102
RTVSPost2010Prop45
280
     0
102
RTVSPost2010PropOp45
 70
     1
102
RTVSPost2010Prop46
 90
       50
102
RTVSPost2010PropOp46
 70
     1
102
RTVSPost2010Prop47
 90
       50
102
RTVSPost2010PropOp47
 70
     1
102
RTVSPost2010Prop48
 90
       50
102
RTVSPost2010PropOp48
 70
     1
102
RTVSPost2010Prop49
280
     0
102
RTVSPost2010PropOp49
 70
     1
102
RTVSPost2010Prop50
 90
       50
102
RTVSPost2010PropOp50
 70
     1
102
RTVSPost2010Prop51ColorIndex
 90
      256
102
RTVSPost2010Prop51ColorRGB
 90
-16777216
102
RTVSPost2010PropOp51
 70
     0
102
RTVSPost2010Prop52
140
1.0
102
RTVSPost2010PropOp52
 70
     0
102
RTVSPost2010Prop53
 90
        2
102
RTVSPost2010PropOp53
 70
     1
102
RTVSPost2010Prop54
  1
strokes_ogs.tif
102
RTVSPost2010PropOp54
 70
     1
102
RTVSPost2010Prop55
280
     0
102
RTVSPost2010PropOp55
 70
     1
102
RTVSPost2010Prop56
140
1.0
102
RTVSPost2010PropOp56
 70
     1
102
RTVSPost2010Prop57
140
1.0
102
RTVSPost2010PropOp57
 70
     1
102
RTVSPropertyOp0
 70
     1
102
RTVSPropertyOp1
 70
     1
102
RTVSPropertyOp2
 70
     1
102
RTVSPropertyOp3
 70
     1
102
RTVSPropertyOp4
 70
     1
102
RTVSPropertyOp5
 70
     1
102
RTVSPropertyOp6
 70
     1
102
RTVSPropertyOp7
 70
     1
102
RTVSPropertyOp8
 70
     1
102
RTVSPropertyOp9
 70
     1
102
RTVSPropertyOp10
 70
     1
102
RTVSPropertyOp11
 70
     1
102
RTVSPropertyOp12
 70
     1
102
RTVSPropertyOp13
 70
     1
102
RTVSPropertyOp14
 70
     1
102
RTVSPropertyOp15
 70
     1
102
RTVSPropertyOp16
 70
     1
102
RTVSPropertyOp17
 70
     1
102
RTVSPropertyOp18
 70
     1
102
RTVSPropertyOp19
 70
     1
102
RTVSPropertyOp20
 70
     1
102
RTVSPropertyOp21
 70
     1
102
RTVSPropertyOp22
 70
     1
102
RTVSPropertyOp23
 70
     1
102
RTVSPropertyOp24
 70
     1
102
RTVSPropertyOp25
 70
     1
102
RTVSPropertyOp26
 70
     1
102
RTVSPropertyOp27
 70
     1
102
RTVSPropertyOp28
 70
     1
102
RTVSPropertyOp29
 70
     1
102
RTVSPropertyOp30
 70
     1
102
RTVSPropertyOp31
 70
     1
102
RTVSPropertyOp32
 70
     1
102
RTVSPropertyOp33
 70
     1
102
RTVSPropertyOp34
 70
     1
102
RTVSPropertyOp35
 70
     1
102
RTVSPropertyOp36
 70
     1
102
RTVSPropertyOp37
 70
     1
102
RTVSPropertyOp38
 70
     1
102
RTVSPropertyOp39
 70
     1
102
RTVSPropertyOp40
 70
     1
102
RTVSPropertyOp41
 70
     1
102
RTVSPropertyOp42
 70
     1
102
RTVSPropertyOp43
 70
     1
102
RTVSPropertyOp44
 70
     1
102
RTVSPropertyOp45
 70
     1
102
RTVSPropertyOp46
 70
     1
102
RTVSPropertyOp47
 70
     1
102
RTVSPropertyOp48
 70
     1
102
RTVSPropertyOp49
 70
     1
102
RTVSPropertyOp50
 70
     1
102
RTVSPropertyOp51
 70
     0
102
RTVSPropertyOp52
 70
     0
102
RTVSPropertyOp53
 70
     1
102
RTVSPropertyOp54
 70
     1
102
RTVSPropertyOp55
 70
     1
102
RTVSPropertyOp56
 70
     1
102
RTVSPropertyOp57
 70
     1
102
RTVSPropertyOp58
 70
     1
102
RTVSPropertyOp59
 70
     1
102
RTVSPropertyOp60
 70
     1
102
RTVSPropertyOp61
 70
     1
102
RTVSPropertyOp62
 70
     1
  0
XRECORD
  5
AC87
102
{ACAD_REACTORS
330
AC86
102
}
330
AC86
100
AcDbXrecord
280
     1
102
RTVSPost2010Prop28
280
     0
102
RTVSPost2010PropOp28
 70
     1
102
RTVSPost2010Prop29
280
     1
102
RTVSPost2010PropOp29
 70
     1
102
RTVSPost2010Prop30
280
     1
102
RTVSPost2010PropOp30
 70
     1
102
RTVSPost2010Prop31
280
     0
102
RTVSPost2010PropOp31
 70
     1
102
RTVSPost2010Prop32
280
     0
102
RTVSPost2010PropOp32
 70
     1
102
RTVSPost2010Prop33
280
     0
102
RTVSPost2010PropOp33
 70
     1
102
RTVSPost2010Prop34
280
     0
102
RTVSPost2010PropOp34
 70
     1
102
RTVSPost2010Prop35
280
     0
102
RTVSPost2010PropOp35
 70
     1
102
RTVSPost2010Prop36
280
     0
102
RTVSPost2010PropOp36
 70
     1
102
RTVSPost2010Prop37
 90
       50
102
RTVSPost2010PropOp37
 70
     1
102
RTVSPost2010Prop38
140
0.0
102
RTVSPost2010PropOp38
 70
     1
102
RTVSPost2010Prop39
140
1.0
102
RTVSPost2010PropOp39
 70
     1
102
RTVSPost2010Prop40
 90
        0
102
RTVSPost2010PropOp40
 70
     1
102
RTVSPost2010Prop41ColorIndex
 90
       18
102
RTVSPost2010Prop41ColorRGB
 90
        0
102
RTVSPost2010PropOp41
 70
     1
102
RTVSPost2010Prop42
 90
       50
102
RTVSPost2010PropOp42
 70
     1
102
RTVSPost2010Prop43
 90
        3
102
RTVSPost2010PropOp43
 70
     1
102
RTVSPost2010Prop44ColorIndex
 90
        5
102
RTVSPost2010Prop44ColorRGB
 90
      255
102
RTVSPost2010PropOp44
 70
     1
102
RTVSPost2010Prop45
280
     0
102
RTVSPost2010PropOp45
 70
     1
102
RTVSPost2010Prop46
 90
       50
102
RTVSPost2010PropOp46
 70
     1
102
RTVSPost2010Prop47
 90
       50
102
RTVSPost2010PropOp47
 70
     1
102
RTVSPost2010Prop48
 90
       50
102
RTVSPost2010PropOp48
 70
     1
102
RTVSPost2010Prop49
280
     0
102
RTVSPost2010PropOp49
 70
     1
102
RTVSPost2010Prop50
 90
       50
102
RTVSPost2010PropOp50
 70
     1
102
RTVSPost2010Prop51ColorIndex
 90
      256
102
RTVSPost2010Prop51ColorRGB
 90
-16777216
102
RTVSPost2010PropOp51
 70
     0
102
RTVSPost2010Prop52
140
1.0
102
RTVSPost2010PropOp52
 70
     0
102
RTVSPost2010Prop53
 90
        2
102
RTVSPost2010PropOp53
 70
     1
102
RTVSPost2010Prop54
  1
strokes_ogs.tif
102
RTVSPost2010PropOp54
 70
     1
102
RTVSPost2010Prop55
280
     0
102
RTVSPost2010PropOp55
 70
     1
102
RTVSPost2010Prop56
140
1.0
102
RTVSPost2010PropOp56
 70
     1
102
RTVSPost2010Prop57
140
1.0
102
RTVSPost2010PropOp57
 70
     1
102
RTVSPropertyOp0
 70
     1
102
RTVSPropertyOp1
 70
     1
102
RTVSPropertyOp2
 70
     1
102
RTVSPropertyOp3
 70
     1
102
RTVSPropertyOp4
 70
     1
102
RTVSPropertyOp5
 70
     1
102
RTVSPropertyOp6
 70
     1
102
RTVSPropertyOp7
 70
     1
102
RTVSPropertyOp8
 70
     1
102
RTVSPropertyOp9
 70
     1
102
RTVSPropertyOp10
 70
     1
102
RTVSPropertyOp11
 70
     1
102
RTVSPropertyOp12
 70
     1
102
RTVSPropertyOp13
 70
     1
102
RTVSPropertyOp14
 70
     1
102
RTVSPropertyOp15
 70
     1
102
RTVSPropertyOp16
 70
     1
102
RTVSPropertyOp17
 70
     1
102
RTVSPropertyOp18
 70
     1
102
RTVSPropertyOp19
 70
     1
102
RTVSPropertyOp20
 70
     1
102
RTVSPropertyOp21
 70
     1
102
RTVSPropertyOp22
 70
     1
102
RTVSPropertyOp23
 70
     1
102
RTVSPropertyOp24
 70
     1
102
RTVSPropertyOp25
 70
     1
102
RTVSPropertyOp26
 70
     1
102
RTVSPropertyOp27
 70
     1
102
RTVSPropertyOp28
 70
     1
102
RTVSPropertyOp29
 70
     1
102
RTVSPropertyOp30
 70
     1
102
RTVSPropertyOp31
 70
     1
102
RTVSPropertyOp32
 70
     1
102
RTVSPropertyOp33
 70
     1
102
RTVSPropertyOp34
 70
     1
102
RTVSPropertyOp35
 70
     1
102
RTVSPropertyOp36
 70
     1
102
RTVSPropertyOp37
 70
     1
102
RTVSPropertyOp38
 70
     1
102
RTVSPropertyOp39
 70
     1
102
RTVSPropertyOp40
 70
     1
102
RTVSPropertyOp41
 70
     1
102
RTVSPropertyOp42
 70
     1
102
RTVSPropertyOp43
 70
     1
102
RTVSPropertyOp44
 70
     1
102
RTVSPropertyOp45
 70
     1
102
RTVSPropertyOp46
 70
     1
102
RTVSPropertyOp47
 70
     1
102
RTVSPropertyOp48
 70
     1
102
RTVSPropertyOp49
 70
     1
102
RTVSPropertyOp50
 70
     1
102
RTVSPropertyOp51
 70
     0
102
RTVSPropertyOp52
 70
     0
102
RTVSPropertyOp53
 70
     1
102
RTVSPropertyOp54
 70
     1
102
RTVSPropertyOp55
 70
     1
102
RTVSPropertyOp56
 70
     1
102
RTVSPropertyOp57
 70
     1
102
RTVSPropertyOp58
 70
     1
102
RTVSPropertyOp59
 70
     1
102
RTVSPropertyOp60
 70
     1
102
RTVSPropertyOp61
 70
     1
102
RTVSPropertyOp62
 70
     1
  0
XRECORD
  5
AC85
102
{ACAD_REACTORS
330
AC84
102
}
330
AC84
100
AcDbXrecord
280
     1
102
RTVSPost2010Prop28
280
     0
102
RTVSPost2010PropOp28
 70
     1
102
RTVSPost2010Prop29
280
     1
102
RTVSPost2010PropOp29
 70
     1
102
RTVSPost2010Prop30
280
     1
102
RTVSPost2010PropOp30
 70
     1
102
RTVSPost2010Prop31
280
     0
102
RTVSPost2010PropOp31
 70
     1
102
RTVSPost2010Prop32
280
     0
102
RTVSPost2010PropOp32
 70
     1
102
RTVSPost2010Prop33
280
     0
102
RTVSPost2010PropOp33
 70
     1
102
RTVSPost2010Prop34
280
     0
102
RTVSPost2010PropOp34
 70
     1
102
RTVSPost2010Prop35
280
     0
102
RTVSPost2010PropOp35
 70
     1
102
RTVSPost2010Prop36
280
     0
102
RTVSPost2010PropOp36
 70
     1
102
RTVSPost2010Prop37
 90
       50
102
RTVSPost2010PropOp37
 70
     1
102
RTVSPost2010Prop38
140
0.0
102
RTVSPost2010PropOp38
 70
     1
102
RTVSPost2010Prop39
140
1.0
102
RTVSPost2010PropOp39
 70
     1
102
RTVSPost2010Prop40
 90
        0
102
RTVSPost2010PropOp40
 70
     1
102
RTVSPost2010Prop41ColorIndex
 90
       18
102
RTVSPost2010Prop41ColorRGB
 90
        0
102
RTVSPost2010PropOp41
 70
     1
102
RTVSPost2010Prop42
 90
       50
102
RTVSPost2010PropOp42
 70
     1
102
RTVSPost2010Prop43
 90
        3
102
RTVSPost2010PropOp43
 70
     1
102
RTVSPost2010Prop44ColorIndex
 90
        5
102
RTVSPost2010Prop44ColorRGB
 90
      255
102
RTVSPost2010PropOp44
 70
     1
102
RTVSPost2010Prop45
280
     0
102
RTVSPost2010PropOp45
 70
     1
102
RTVSPost2010Prop46
 90
       50
102
RTVSPost2010PropOp46
 70
     1
102
RTVSPost2010Prop47
 90
       50
102
RTVSPost2010PropOp47
 70
     1
102
RTVSPost2010Prop48
 90
       50
102
RTVSPost2010PropOp48
 70
     1
102
RTVSPost2010Prop49
280
     0
102
RTVSPost2010PropOp49
 70
     1
102
RTVSPost2010Prop50
 90
       50
102
RTVSPost2010PropOp50
 70
     1
102
RTVSPost2010Prop51ColorIndex
 90
      256
102
RTVSPost2010Prop51ColorRGB
 90
-16777216
102
RTVSPost2010PropOp51
 70
     0
102
RTVSPost2010Prop52
140
1.0
102
RTVSPost2010PropOp52
 70
     0
102
RTVSPost2010Prop53
 90
        2
102
RTVSPost2010PropOp53
 70
     1
102
RTVSPost2010Prop54
  1
strokes_ogs.tif
102
RTVSPost2010PropOp54
 70
     1
102
RTVSPost2010Prop55
280
     0
102
RTVSPost2010PropOp55
 70
     1
102
RTVSPost2010Prop56
140
1.0
102
RTVSPost2010PropOp56
 70
     1
102
RTVSPost2010Prop57
140
1.0
102
RTVSPost2010PropOp57
 70
     1
102
RTVSPropertyOp0
 70
     1
102
RTVSPropertyOp1
 70
     1
102
RTVSPropertyOp2
 70
     1
102
RTVSPropertyOp3
 70
     1
102
RTVSPropertyOp4
 70
     1
102
RTVSPropertyOp5
 70
     1
102
RTVSPropertyOp6
 70
     1
102
RTVSPropertyOp7
 70
     1
102
RTVSPropertyOp8
 70
     1
102
RTVSPropertyOp9
 70
     1
102
RTVSPropertyOp10
 70
     1
102
RTVSPropertyOp11
 70
     1
102
RTVSPropertyOp12
 70
     1
102
RTVSPropertyOp13
 70
     1
102
RTVSPropertyOp14
 70
     1
102
RTVSPropertyOp15
 70
     1
102
RTVSPropertyOp16
 70
     1
102
RTVSPropertyOp17
 70
     1
102
RTVSPropertyOp18
 70
     1
102
RTVSPropertyOp19
 70
     1
102
RTVSPropertyOp20
 70
     1
102
RTVSPropertyOp21
 70
     1
102
RTVSPropertyOp22
 70
     1
102
RTVSPropertyOp23
 70
     1
102
RTVSPropertyOp24
 70
     1
102
RTVSPropertyOp25
 70
     1
102
RTVSPropertyOp26
 70
     1
102
RTVSPropertyOp27
 70
     1
102
RTVSPropertyOp28
 70
     1
102
RTVSPropertyOp29
 70
     1
102
RTVSPropertyOp30
 70
     1
102
RTVSPropertyOp31
 70
     1
102
RTVSPropertyOp32
 70
     1
102
RTVSPropertyOp33
 70
     1
102
RTVSPropertyOp34
 70
     1
102
RTVSPropertyOp35
 70
     1
102
RTVSPropertyOp36
 70
     1
102
RTVSPropertyOp37
 70
     1
102
RTVSPropertyOp38
 70
     1
102
RTVSPropertyOp39
 70
     1
102
RTVSPropertyOp40
 70
     1
102
RTVSPropertyOp41
 70
     1
102
RTVSPropertyOp42
 70
     1
102
RTVSPropertyOp43
 70
     1
102
RTVSPropertyOp44
 70
     1
102
RTVSPropertyOp45
 70
     1
102
RTVSPropertyOp46
 70
     1
102
RTVSPropertyOp47
 70
     1
102
RTVSPropertyOp48
 70
     1
102
RTVSPropertyOp49
 70
     1
102
RTVSPropertyOp50
 70
     1
102
RTVSPropertyOp51
 70
     0
102
RTVSPropertyOp52
 70
     0
102
RTVSPropertyOp53
 70
     1
102
RTVSPropertyOp54
 70
     1
102
RTVSPropertyOp55
 70
     1
102
RTVSPropertyOp56
 70
     1
102
RTVSPropertyOp57
 70
     1
102
RTVSPropertyOp58
 70
     1
102
RTVSPropertyOp59
 70
     1
102
RTVSPropertyOp60
 70
     1
102
RTVSPropertyOp61
 70
     1
102
RTVSPropertyOp62
 70
     1
  0
XRECORD
  5
AC7F
102
{ACAD_REACTORS
330
AC7E
102
}
330
AC7E
100
AcDbXrecord
280
     1
102
RTVSPost2010Prop28
280
     0
102
RTVSPost2010PropOp28
 70
     1
102
RTVSPost2010Prop29
280
     1
102
RTVSPost2010PropOp29
 70
     1
102
RTVSPost2010Prop30
280
     1
102
RTVSPost2010PropOp30
 70
     1
102
RTVSPost2010Prop31
280
     0
102
RTVSPost2010PropOp31
 70
     1
102
RTVSPost2010Prop32
280
     0
102
RTVSPost2010PropOp32
 70
     1
102
RTVSPost2010Prop33
280
     0
102
RTVSPost2010PropOp33
 70
     1
102
RTVSPost2010Prop34
280
     0
102
RTVSPost2010PropOp34
 70
     1
102
RTVSPost2010Prop35
280
     0
102
RTVSPost2010PropOp35
 70
     1
102
RTVSPost2010Prop36
280
     0
102
RTVSPost2010PropOp36
 70
     1
102
RTVSPost2010Prop37
 90
       50
102
RTVSPost2010PropOp37
 70
     1
102
RTVSPost2010Prop38
140
0.0
102
RTVSPost2010PropOp38
 70
     1
102
RTVSPost2010Prop39
140
1.0
102
RTVSPost2010PropOp39
 70
     1
102
RTVSPost2010Prop40
 90
        0
102
RTVSPost2010PropOp40
 70
     1
102
RTVSPost2010Prop41ColorIndex
 90
       18
102
RTVSPost2010Prop41ColorRGB
 90
        0
102
RTVSPost2010PropOp41
 70
     1
102
RTVSPost2010Prop42
 90
       50
102
RTVSPost2010PropOp42
 70
     1
102
RTVSPost2010Prop43
 90
        3
102
RTVSPost2010PropOp43
 70
     1
102
RTVSPost2010Prop44ColorIndex
 90
        5
102
RTVSPost2010Prop44ColorRGB
 90
      255
102
RTVSPost2010PropOp44
 70
     1
102
RTVSPost2010Prop45
280
     0
102
RTVSPost2010PropOp45
 70
     1
102
RTVSPost2010Prop46
 90
       50
102
RTVSPost2010PropOp46
 70
     1
102
RTVSPost2010Prop47
 90
       50
102
RTVSPost2010PropOp47
 70
     1
102
RTVSPost2010Prop48
 90
       50
102
RTVSPost2010PropOp48
 70
     1
102
RTVSPost2010Prop49
280
     0
102
RTVSPost2010PropOp49
 70
     1
102
RTVSPost2010Prop50
 90
       50
102
RTVSPost2010PropOp50
 70
     1
102
RTVSPost2010Prop51ColorIndex
 90
      256
102
RTVSPost2010Prop51ColorRGB
 90
-16777216
102
RTVSPost2010PropOp51
 70
     0
102
RTVSPost2010Prop52
140
1.0
102
RTVSPost2010PropOp52
 70
     0
102
RTVSPost2010Prop53
 90
        2
102
RTVSPost2010PropOp53
 70
     1
102
RTVSPost2010Prop54
  1
strokes_ogs.tif
102
RTVSPost2010PropOp54
 70
     1
102
RTVSPost2010Prop55
280
     0
102
RTVSPost2010PropOp55
 70
     1
102
RTVSPost2010Prop56
140
1.0
102
RTVSPost2010PropOp56
 70
     1
102
RTVSPost2010Prop57
140
1.0
102
RTVSPost2010PropOp57
 70
     1
102
RTVSPropertyOp0
 70
     1
102
RTVSPropertyOp1
 70
     1
102
RTVSPropertyOp2
 70
     1
102
RTVSPropertyOp3
 70
     1
102
RTVSPropertyOp4
 70
     1
102
RTVSPropertyOp5
 70
     1
102
RTVSPropertyOp6
 70
     1
102
RTVSPropertyOp7
 70
     1
102
RTVSPropertyOp8
 70
     1
102
RTVSPropertyOp9
 70
     1
102
RTVSPropertyOp10
 70
     1
102
RTVSPropertyOp11
 70
     1
102
RTVSPropertyOp12
 70
     1
102
RTVSPropertyOp13
 70
     1
102
RTVSPropertyOp14
 70
     1
102
RTVSPropertyOp15
 70
     1
102
RTVSPropertyOp16
 70
     1
102
RTVSPropertyOp17
 70
     1
102
RTVSPropertyOp18
 70
     1
102
RTVSPropertyOp19
 70
     1
102
RTVSPropertyOp20
 70
     1
102
RTVSPropertyOp21
 70
     1
102
RTVSPropertyOp22
 70
     1
102
RTVSPropertyOp23
 70
     1
102
RTVSPropertyOp24
 70
     1
102
RTVSPropertyOp25
 70
     1
102
RTVSPropertyOp26
 70
     1
102
RTVSPropertyOp27
 70
     1
102
RTVSPropertyOp28
 70
     1
102
RTVSPropertyOp29
 70
     1
102
RTVSPropertyOp30
 70
     1
102
RTVSPropertyOp31
 70
     1
102
RTVSPropertyOp32
 70
     1
102
RTVSPropertyOp33
 70
     1
102
RTVSPropertyOp34
 70
     1
102
RTVSPropertyOp35
 70
     1
102
RTVSPropertyOp36
 70
     1
102
RTVSPropertyOp37
 70
     1
102
RTVSPropertyOp38
 70
     1
102
RTVSPropertyOp39
 70
     1
102
RTVSPropertyOp40
 70
     1
102
RTVSPropertyOp41
 70
     1
102
RTVSPropertyOp42
 70
     1
102
RTVSPropertyOp43
 70
     1
102
RTVSPropertyOp44
 70
     1
102
RTVSPropertyOp45
 70
     1
102
RTVSPropertyOp46
 70
     1
102
RTVSPropertyOp47
 70
     1
102
RTVSPropertyOp48
 70
     1
102
RTVSPropertyOp49
 70
     1
102
RTVSPropertyOp50
 70
     1
102
RTVSPropertyOp51
 70
     0
102
RTVSPropertyOp52
 70
     0
102
RTVSPropertyOp53
 70
     1
102
RTVSPropertyOp54
 70
     1
102
RTVSPropertyOp55
 70
     1
102
RTVSPropertyOp56
 70
     1
102
RTVSPropertyOp57
 70
     1
102
RTVSPropertyOp58
 70
     1
102
RTVSPropertyOp59
 70
     1
102
RTVSPropertyOp60
 70
     1
102
RTVSPropertyOp61
 70
     1
102
RTVSPropertyOp62
 70
     1
  0
XRECORD
  5
AC81
102
{ACAD_REACTORS
330
AC80
102
}
330
AC80
100
AcDbXrecord
280
     1
102
RTVSPost2010Prop28
280
     0
102
RTVSPost2010PropOp28
 70
     1
102
RTVSPost2010Prop29
280
     1
102
RTVSPost2010PropOp29
 70
     1
102
RTVSPost2010Prop30
280
     1
102
RTVSPost2010PropOp30
 70
     1
102
RTVSPost2010Prop31
280
     0
102
RTVSPost2010PropOp31
 70
     1
102
RTVSPost2010Prop32
280
     0
102
RTVSPost2010PropOp32
 70
     1
102
RTVSPost2010Prop33
280
     0
102
RTVSPost2010PropOp33
 70
     1
102
RTVSPost2010Prop34
280
     0
102
RTVSPost2010PropOp34
 70
     1
102
RTVSPost2010Prop35
280
     0
102
RTVSPost2010PropOp35
 70
     1
102
RTVSPost2010Prop36
280
     0
102
RTVSPost2010PropOp36
 70
     1
102
RTVSPost2010Prop37
 90
       50
102
RTVSPost2010PropOp37
 70
     1
102
RTVSPost2010Prop38
140
0.0
102
RTVSPost2010PropOp38
 70
     1
102
RTVSPost2010Prop39
140
1.0
102
RTVSPost2010PropOp39
 70
     1
102
RTVSPost2010Prop40
 90
        0
102
RTVSPost2010PropOp40
 70
     1
102
RTVSPost2010Prop41ColorIndex
 90
       18
102
RTVSPost2010Prop41ColorRGB
 90
        0
102
RTVSPost2010PropOp41
 70
     1
102
RTVSPost2010Prop42
 90
       50
102
RTVSPost2010PropOp42
 70
     1
102
RTVSPost2010Prop43
 90
        3
102
RTVSPost2010PropOp43
 70
     1
102
RTVSPost2010Prop44ColorIndex
 90
        5
102
RTVSPost2010Prop44ColorRGB
 90
      255
102
RTVSPost2010PropOp44
 70
     1
102
RTVSPost2010Prop45
280
     0
102
RTVSPost2010PropOp45
 70
     1
102
RTVSPost2010Prop46
 90
       50
102
RTVSPost2010PropOp46
 70
     1
102
RTVSPost2010Prop47
 90
       50
102
RTVSPost2010PropOp47
 70
     1
102
RTVSPost2010Prop48
 90
       50
102
RTVSPost2010PropOp48
 70
     1
102
RTVSPost2010Prop49
280
     0
102
RTVSPost2010PropOp49
 70
     1
102
RTVSPost2010Prop50
 90
       50
102
RTVSPost2010PropOp50
 70
     1
102
RTVSPost2010Prop51ColorIndex
 90
      256
102
RTVSPost2010Prop51ColorRGB
 90
-16777216
102
RTVSPost2010PropOp51
 70
     0
102
RTVSPost2010Prop52
140
1.0
102
RTVSPost2010PropOp52
 70
     0
102
RTVSPost2010Prop53
 90
        2
102
RTVSPost2010PropOp53
 70
     1
102
RTVSPost2010Prop54
  1
strokes_ogs.tif
102
RTVSPost2010PropOp54
 70
     1
102
RTVSPost2010Prop55
280
     0
102
RTVSPost2010PropOp55
 70
     1
102
RTVSPost2010Prop56
140
1.0
102
RTVSPost2010PropOp56
 70
     1
102
RTVSPost2010Prop57
140
1.0
102
RTVSPost2010PropOp57
 70
     1
102
RTVSPropertyOp0
 70
     1
102
RTVSPropertyOp1
 70
     1
102
RTVSPropertyOp2
 70
     1
102
RTVSPropertyOp3
 70
     1
102
RTVSPropertyOp4
 70
     1
102
RTVSPropertyOp5
 70
     1
102
RTVSPropertyOp6
 70
     1
102
RTVSPropertyOp7
 70
     1
102
RTVSPropertyOp8
 70
     1
102
RTVSPropertyOp9
 70
     1
102
RTVSPropertyOp10
 70
     1
102
RTVSPropertyOp11
 70
     1
102
RTVSPropertyOp12
 70
     1
102
RTVSPropertyOp13
 70
     1
102
RTVSPropertyOp14
 70
     1
102
RTVSPropertyOp15
 70
     1
102
RTVSPropertyOp16
 70
     1
102
RTVSPropertyOp17
 70
     1
102
RTVSPropertyOp18
 70
     1
102
RTVSPropertyOp19
 70
     1
102
RTVSPropertyOp20
 70
     1
102
RTVSPropertyOp21
 70
     1
102
RTVSPropertyOp22
 70
     1
102
RTVSPropertyOp23
 70
     1
102
RTVSPropertyOp24
 70
     1
102
RTVSPropertyOp25
 70
     1
102
RTVSPropertyOp26
 70
     1
102
RTVSPropertyOp27
 70
     1
102
RTVSPropertyOp28
 70
     1
102
RTVSPropertyOp29
 70
     1
102
RTVSPropertyOp30
 70
     1
102
RTVSPropertyOp31
 70
     1
102
RTVSPropertyOp32
 70
     1
102
RTVSPropertyOp33
 70
     1
102
RTVSPropertyOp34
 70
     1
102
RTVSPropertyOp35
 70
     1
102
RTVSPropertyOp36
 70
     1
102
RTVSPropertyOp37
 70
     1
102
RTVSPropertyOp38
 70
     1
102
RTVSPropertyOp39
 70
     1
102
RTVSPropertyOp40
 70
     1
102
RTVSPropertyOp41
 70
     1
102
RTVSPropertyOp42
 70
     1
102
RTVSPropertyOp43
 70
     1
102
RTVSPropertyOp44
 70
     1
102
RTVSPropertyOp45
 70
     1
102
RTVSPropertyOp46
 70
     1
102
RTVSPropertyOp47
 70
     1
102
RTVSPropertyOp48
 70
     1
102
RTVSPropertyOp49
 70
     1
102
RTVSPropertyOp50
 70
     1
102
RTVSPropertyOp51
 70
     0
102
RTVSPropertyOp52
 70
     0
102
RTVSPropertyOp53
 70
     1
102
RTVSPropertyOp54
 70
     1
102
RTVSPropertyOp55
 70
     1
102
RTVSPropertyOp56
 70
     1
102
RTVSPropertyOp57
 70
     1
102
RTVSPropertyOp58
 70
     1
102
RTVSPropertyOp59
 70
     1
102
RTVSPropertyOp60
 70
     1
102
RTVSPropertyOp61
 70
     1
102
RTVSPropertyOp62
 70
     1
  0
XRECORD
  5
AC77
102
{ACAD_REACTORS
330
AC76
102
}
330
AC76
100
AcDbXrecord
280
     1
102
RTVSPost2010Prop28
280
     0
102
RTVSPost2010PropOp28
 70
     1
102
RTVSPost2010Prop29
280
     1
102
RTVSPost2010PropOp29
 70
     1
102
RTVSPost2010Prop30
280
     1
102
RTVSPost2010PropOp30
 70
     1
102
RTVSPost2010Prop31
280
     0
102
RTVSPost2010PropOp31
 70
     1
102
RTVSPost2010Prop32
280
     0
102
RTVSPost2010PropOp32
 70
     1
102
RTVSPost2010Prop33
280
     0
102
RTVSPost2010PropOp33
 70
     1
102
RTVSPost2010Prop34
280
     0
102
RTVSPost2010PropOp34
 70
     1
102
RTVSPost2010Prop35
280
     0
102
RTVSPost2010PropOp35
 70
     1
102
RTVSPost2010Prop36
280
     0
102
RTVSPost2010PropOp36
 70
     1
102
RTVSPost2010Prop37
 90
       50
102
RTVSPost2010PropOp37
 70
     1
102
RTVSPost2010Prop38
140
0.0
102
RTVSPost2010PropOp38
 70
     1
102
RTVSPost2010Prop39
140
1.0
102
RTVSPost2010PropOp39
 70
     1
102
RTVSPost2010Prop40
 90
        0
102
RTVSPost2010PropOp40
 70
     1
102
RTVSPost2010Prop41ColorIndex
 90
       18
102
RTVSPost2010Prop41ColorRGB
 90
        0
102
RTVSPost2010PropOp41
 70
     1
102
RTVSPost2010Prop42
 90
       50
102
RTVSPost2010PropOp42
 70
     1
102
RTVSPost2010Prop43
 90
        3
102
RTVSPost2010PropOp43
 70
     1
102
RTVSPost2010Prop44ColorIndex
 90
        5
102
RTVSPost2010Prop44ColorRGB
 90
      255
102
RTVSPost2010PropOp44
 70
     1
102
RTVSPost2010Prop45
280
     0
102
RTVSPost2010PropOp45
 70
     1
102
RTVSPost2010Prop46
 90
       50
102
RTVSPost2010PropOp46
 70
     1
102
RTVSPost2010Prop47
 90
       50
102
RTVSPost2010PropOp47
 70
     1
102
RTVSPost2010Prop48
 90
       50
102
RTVSPost2010PropOp48
 70
     1
102
RTVSPost2010Prop49
280
     0
102
RTVSPost2010PropOp49
 70
     1
102
RTVSPost2010Prop50
 90
       50
102
RTVSPost2010PropOp50
 70
     1
102
RTVSPost2010Prop51ColorIndex
 90
      256
102
RTVSPost2010Prop51ColorRGB
 90
-16777216
102
RTVSPost2010PropOp51
 70
     0
102
RTVSPost2010Prop52
140
1.0
102
RTVSPost2010PropOp52
 70
     0
102
RTVSPost2010Prop53
 90
        2
102
RTVSPost2010PropOp53
 70
     1
102
RTVSPost2010Prop54
  1
strokes_ogs.tif
102
RTVSPost2010PropOp54
 70
     1
102
RTVSPost2010Prop55
280
     0
102
RTVSPost2010PropOp55
 70
     1
102
RTVSPost2010Prop56
140
1.0
102
RTVSPost2010PropOp56
 70
     1
102
RTVSPost2010Prop57
140
1.0
102
RTVSPost2010PropOp57
 70
     1
102
RTVSPropertyOp0
 70
     1
102
RTVSPropertyOp1
 70
     1
102
RTVSPropertyOp2
 70
     1
102
RTVSPropertyOp3
 70
     1
102
RTVSPropertyOp4
 70
     1
102
RTVSPropertyOp5
 70
     1
102
RTVSPropertyOp6
 70
     1
102
RTVSPropertyOp7
 70
     1
102
RTVSPropertyOp8
 70
     1
102
RTVSPropertyOp9
 70
     1
102
RTVSPropertyOp10
 70
     1
102
RTVSPropertyOp11
 70
     1
102
RTVSPropertyOp12
 70
     1
102
RTVSPropertyOp13
 70
     1
102
RTVSPropertyOp14
 70
     1
102
RTVSPropertyOp15
 70
     1
102
RTVSPropertyOp16
 70
     1
102
RTVSPropertyOp17
 70
     1
102
RTVSPropertyOp18
 70
     1
102
RTVSPropertyOp19
 70
     1
102
RTVSPropertyOp20
 70
     1
102
RTVSPropertyOp21
 70
     1
102
RTVSPropertyOp22
 70
     1
102
RTVSPropertyOp23
 70
     1
102
RTVSPropertyOp24
 70
     1
102
RTVSPropertyOp25
 70
     1
102
RTVSPropertyOp26
 70
     1
102
RTVSPropertyOp27
 70
     1
102
RTVSPropertyOp28
 70
     1
102
RTVSPropertyOp29
 70
     1
102
RTVSPropertyOp30
 70
     1
102
RTVSPropertyOp31
 70
     1
102
RTVSPropertyOp32
 70
     1
102
RTVSPropertyOp33
 70
     1
102
RTVSPropertyOp34
 70
     1
102
RTVSPropertyOp35
 70
     1
102
RTVSPropertyOp36
 70
     1
102
RTVSPropertyOp37
 70
     1
102
RTVSPropertyOp38
 70
     1
102
RTVSPropertyOp39
 70
     1
102
RTVSPropertyOp40
 70
     1
102
RTVSPropertyOp41
 70
     1
102
RTVSPropertyOp42
 70
     1
102
RTVSPropertyOp43
 70
     1
102
RTVSPropertyOp44
 70
     1
102
RTVSPropertyOp45
 70
     1
102
RTVSPropertyOp46
 70
     1
102
RTVSPropertyOp47
 70
     1
102
RTVSPropertyOp48
 70
     1
102
RTVSPropertyOp49
 70
     1
102
RTVSPropertyOp50
 70
     1
102
RTVSPropertyOp51
 70
     0
102
RTVSPropertyOp52
 70
     0
102
RTVSPropertyOp53
 70
     1
102
RTVSPropertyOp54
 70
     1
102
RTVSPropertyOp55
 70
     1
102
RTVSPropertyOp56
 70
     1
102
RTVSPropertyOp57
 70
     1
102
RTVSPropertyOp58
 70
     1
102
RTVSPropertyOp59
 70
     1
102
RTVSPropertyOp60
 70
     1
102
RTVSPropertyOp61
 70
     1
102
RTVSPropertyOp62
 70
     1
  0
XRECORD
  5
AC6B
102
{ACAD_REACTORS
330
AC6A
102
}
330
AC6A
100
AcDbXrecord
280
     1
102
RTVSPost2010Prop28
280
     0
102
RTVSPost2010PropOp28
 70
     1
102
RTVSPost2010Prop29
280
     1
102
RTVSPost2010PropOp29
 70
     1
102
RTVSPost2010Prop30
280
     1
102
RTVSPost2010PropOp30
 70
     1
102
RTVSPost2010Prop31
280
     0
102
RTVSPost2010PropOp31
 70
     1
102
RTVSPost2010Prop32
280
     0
102
RTVSPost2010PropOp32
 70
     1
102
RTVSPost2010Prop33
280
     0
102
RTVSPost2010PropOp33
 70
     1
102
RTVSPost2010Prop34
280
     0
102
RTVSPost2010PropOp34
 70
     1
102
RTVSPost2010Prop35
280
     0
102
RTVSPost2010PropOp35
 70
     1
102
RTVSPost2010Prop36
280
     0
102
RTVSPost2010PropOp36
 70
     1
102
RTVSPost2010Prop37
 90
       50
102
RTVSPost2010PropOp37
 70
     1
102
RTVSPost2010Prop38
140
0.0
102
RTVSPost2010PropOp38
 70
     1
102
RTVSPost2010Prop39
140
1.0
102
RTVSPost2010PropOp39
 70
     1
102
RTVSPost2010Prop40
 90
        0
102
RTVSPost2010PropOp40
 70
     1
102
RTVSPost2010Prop41ColorIndex
 90
       18
102
RTVSPost2010Prop41ColorRGB
 90
        0
102
RTVSPost2010PropOp41
 70
     1
102
RTVSPost2010Prop42
 90
       50
102
RTVSPost2010PropOp42
 70
     1
102
RTVSPost2010Prop43
 90
        3
102
RTVSPost2010PropOp43
 70
     1
102
RTVSPost2010Prop44ColorIndex
 90
        5
102
RTVSPost2010Prop44ColorRGB
 90
      255
102
RTVSPost2010PropOp44
 70
     1
102
RTVSPost2010Prop45
280
     0
102
RTVSPost2010PropOp45
 70
     1
102
RTVSPost2010Prop46
 90
       50
102
RTVSPost2010PropOp46
 70
     1
102
RTVSPost2010Prop47
 90
       50
102
RTVSPost2010PropOp47
 70
     1
102
RTVSPost2010Prop48
 90
       50
102
RTVSPost2010PropOp48
 70
     1
102
RTVSPost2010Prop49
280
     0
102
RTVSPost2010PropOp49
 70
     1
102
RTVSPost2010Prop50
 90
       50
102
RTVSPost2010PropOp50
 70
     1
102
RTVSPost2010Prop51ColorIndex
 90
      256
102
RTVSPost2010Prop51ColorRGB
 90
-16777216
102
RTVSPost2010PropOp51
 70
     0
102
RTVSPost2010Prop52
140
1.0
102
RTVSPost2010PropOp52
 70
     0
102
RTVSPost2010Prop53
 90
        2
102
RTVSPost2010PropOp53
 70
     1
102
RTVSPost2010Prop54
  1
strokes_ogs.tif
102
RTVSPost2010PropOp54
 70
     1
102
RTVSPost2010Prop55
280
     0
102
RTVSPost2010PropOp55
 70
     1
102
RTVSPost2010Prop56
140
1.0
102
RTVSPost2010PropOp56
 70
     1
102
RTVSPost2010Prop57
140
1.0
102
RTVSPost2010PropOp57
 70
     1
102
RTVSPropertyOp0
 70
     1
102
RTVSPropertyOp1
 70
     1
102
RTVSPropertyOp2
 70
     1
102
RTVSPropertyOp3
 70
     1
102
RTVSPropertyOp4
 70
     1
102
RTVSPropertyOp5
 70
     1
102
RTVSPropertyOp6
 70
     1
102
RTVSPropertyOp7
 70
     1
102
RTVSPropertyOp8
 70
     1
102
RTVSPropertyOp9
 70
     1
102
RTVSPropertyOp10
 70
     1
102
RTVSPropertyOp11
 70
     1
102
RTVSPropertyOp12
 70
     1
102
RTVSPropertyOp13
 70
     1
102
RTVSPropertyOp14
 70
     1
102
RTVSPropertyOp15
 70
     1
102
RTVSPropertyOp16
 70
     1
102
RTVSPropertyOp17
 70
     1
102
RTVSPropertyOp18
 70
     1
102
RTVSPropertyOp19
 70
     1
102
RTVSPropertyOp20
 70
     1
102
RTVSPropertyOp21
 70
     1
102
RTVSPropertyOp22
 70
     1
102
RTVSPropertyOp23
 70
     1
102
RTVSPropertyOp24
 70
     1
102
RTVSPropertyOp25
 70
     1
102
RTVSPropertyOp26
 70
     1
102
RTVSPropertyOp27
 70
     1
102
RTVSPropertyOp28
 70
     1
102
RTVSPropertyOp29
 70
     1
102
RTVSPropertyOp30
 70
     1
102
RTVSPropertyOp31
 70
     1
102
RTVSPropertyOp32
 70
     1
102
RTVSPropertyOp33
 70
     1
102
RTVSPropertyOp34
 70
     1
102
RTVSPropertyOp35
 70
     1
102
RTVSPropertyOp36
 70
     1
102
RTVSPropertyOp37
 70
     1
102
RTVSPropertyOp38
 70
     1
102
RTVSPropertyOp39
 70
     1
102
RTVSPropertyOp40
 70
     1
102
RTVSPropertyOp41
 70
     1
102
RTVSPropertyOp42
 70
     1
102
RTVSPropertyOp43
 70
     1
102
RTVSPropertyOp44
 70
     1
102
RTVSPropertyOp45
 70
     1
102
RTVSPropertyOp46
 70
     1
102
RTVSPropertyOp47
 70
     1
102
RTVSPropertyOp48
 70
     1
102
RTVSPropertyOp49
 70
     1
102
RTVSPropertyOp50
 70
     1
102
RTVSPropertyOp51
 70
     0
102
RTVSPropertyOp52
 70
     0
102
RTVSPropertyOp53
 70
     1
102
RTVSPropertyOp54
 70
     1
102
RTVSPropertyOp55
 70
     1
102
RTVSPropertyOp56
 70
     1
102
RTVSPropertyOp57
 70
     1
102
RTVSPropertyOp58
 70
     1
102
RTVSPropertyOp59
 70
     1
102
RTVSPropertyOp60
 70
     1
102
RTVSPropertyOp61
 70
     1
102
RTVSPropertyOp62
 70
     1
  0
XRECORD
  5
AC83
102
{ACAD_REACTORS
330
AC82
102
}
330
AC82
100
AcDbXrecord
280
     1
102
RTVSPost2010Prop28
280
     0
102
RTVSPost2010PropOp28
 70
     1
102
RTVSPost2010Prop29
280
     1
102
RTVSPost2010PropOp29
 70
     1
102
RTVSPost2010Prop30
280
     1
102
RTVSPost2010PropOp30
 70
     1
102
RTVSPost2010Prop31
280
     0
102
RTVSPost2010PropOp31
 70
     1
102
RTVSPost2010Prop32
280
     0
102
RTVSPost2010PropOp32
 70
     1
102
RTVSPost2010Prop33
280
     0
102
RTVSPost2010PropOp33
 70
     1
102
RTVSPost2010Prop34
280
     0
102
RTVSPost2010PropOp34
 70
     1
102
RTVSPost2010Prop35
280
     0
102
RTVSPost2010PropOp35
 70
     1
102
RTVSPost2010Prop36
280
     0
102
RTVSPost2010PropOp36
 70
     1
102
RTVSPost2010Prop37
 90
       50
102
RTVSPost2010PropOp37
 70
     1
102
RTVSPost2010Prop38
140
0.0
102
RTVSPost2010PropOp38
 70
     1
102
RTVSPost2010Prop39
140
1.0
102
RTVSPost2010PropOp39
 70
     1
102
RTVSPost2010Prop40
 90
        0
102
RTVSPost2010PropOp40
 70
     1
102
RTVSPost2010Prop41ColorIndex
 90
       18
102
RTVSPost2010Prop41ColorRGB
 90
        0
102
RTVSPost2010PropOp41
 70
     1
102
RTVSPost2010Prop42
 90
       50
102
RTVSPost2010PropOp42
 70
     1
102
RTVSPost2010Prop43
 90
        3
102
RTVSPost2010PropOp43
 70
     1
102
RTVSPost2010Prop44ColorIndex
 90
        5
102
RTVSPost2010Prop44ColorRGB
 90
      255
102
RTVSPost2010PropOp44
 70
     1
102
RTVSPost2010Prop45
280
     0
102
RTVSPost2010PropOp45
 70
     1
102
RTVSPost2010Prop46
 90
       50
102
RTVSPost2010PropOp46
 70
     1
102
RTVSPost2010Prop47
 90
       50
102
RTVSPost2010PropOp47
 70
     1
102
RTVSPost2010Prop48
 90
       50
102
RTVSPost2010PropOp48
 70
     1
102
RTVSPost2010Prop49
280
     0
102
RTVSPost2010PropOp49
 70
     1
102
RTVSPost2010Prop50
 90
       50
102
RTVSPost2010PropOp50
 70
     1
102
RTVSPost2010Prop51ColorIndex
 90
      256
102
RTVSPost2010Prop51ColorRGB
 90
-16777216
102
RTVSPost2010PropOp51
 70
     0
102
RTVSPost2010Prop52
140
1.0
102
RTVSPost2010PropOp52
 70
     0
102
RTVSPost2010Prop53
 90
        2
102
RTVSPost2010PropOp53
 70
     1
102
RTVSPost2010Prop54
  1
strokes_ogs.tif
102
RTVSPost2010PropOp54
 70
     1
102
RTVSPost2010Prop55
280
     0
102
RTVSPost2010PropOp55
 70
     1
102
RTVSPost2010Prop56
140
1.0
102
RTVSPost2010PropOp56
 70
     1
102
RTVSPost2010Prop57
140
1.0
102
RTVSPost2010PropOp57
 70
     1
102
RTVSPropertyOp0
 70
     1
102
RTVSPropertyOp1
 70
     1
102
RTVSPropertyOp2
 70
     1
102
RTVSPropertyOp3
 70
     1
102
RTVSPropertyOp4
 70
     1
102
RTVSPropertyOp5
 70
     1
102
RTVSPropertyOp6
 70
     1
102
RTVSPropertyOp7
 70
     1
102
RTVSPropertyOp8
 70
     1
102
RTVSPropertyOp9
 70
     1
102
RTVSPropertyOp10
 70
     1
102
RTVSPropertyOp11
 70
     1
102
RTVSPropertyOp12
 70
     1
102
RTVSPropertyOp13
 70
     1
102
RTVSPropertyOp14
 70
     1
102
RTVSPropertyOp15
 70
     1
102
RTVSPropertyOp16
 70
     1
102
RTVSPropertyOp17
 70
     1
102
RTVSPropertyOp18
 70
     1
102
RTVSPropertyOp19
 70
     1
102
RTVSPropertyOp20
 70
     1
102
RTVSPropertyOp21
 70
     1
102
RTVSPropertyOp22
 70
     1
102
RTVSPropertyOp23
 70
     1
102
RTVSPropertyOp24
 70
     1
102
RTVSPropertyOp25
 70
     1
102
RTVSPropertyOp26
 70
     1
102
RTVSPropertyOp27
 70
     1
102
RTVSPropertyOp28
 70
     1
102
RTVSPropertyOp29
 70
     1
102
RTVSPropertyOp30
 70
     1
102
RTVSPropertyOp31
 70
     1
102
RTVSPropertyOp32
 70
     1
102
RTVSPropertyOp33
 70
     1
102
RTVSPropertyOp34
 70
     1
102
RTVSPropertyOp35
 70
     1
102
RTVSPropertyOp36
 70
     1
102
RTVSPropertyOp37
 70
     1
102
RTVSPropertyOp38
 70
     1
102
RTVSPropertyOp39
 70
     1
102
RTVSPropertyOp40
 70
     1
102
RTVSPropertyOp41
 70
     1
102
RTVSPropertyOp42
 70
     1
102
RTVSPropertyOp43
 70
     1
102
RTVSPropertyOp44
 70
     1
102
RTVSPropertyOp45
 70
     1
102
RTVSPropertyOp46
 70
     1
102
RTVSPropertyOp47
 70
     1
102
RTVSPropertyOp48
 70
     1
102
RTVSPropertyOp49
 70
     1
102
RTVSPropertyOp50
 70
     1
102
RTVSPropertyOp51
 70
     0
102
RTVSPropertyOp52
 70
     0
102
RTVSPropertyOp53
 70
     1
102
RTVSPropertyOp54
 70
     1
102
RTVSPropertyOp55
 70
     1
102
RTVSPropertyOp56
 70
     1
102
RTVSPropertyOp57
 70
     1
102
RTVSPropertyOp58
 70
     1
102
RTVSPropertyOp59
 70
     1
102
RTVSPropertyOp60
 70
     1
102
RTVSPropertyOp61
 70
     1
102
RTVSPropertyOp62
 70
     1
  0
ENDSEC
  0
EOF
