  0
SECTION
  2
HEADER
  9
$ACADVER
  1
AC1015
  9
$ACADMAINTVER
 70
    20
  9
$DWGCODEPAGE
  3
ANSI_932
  9
$INSBASE
 10
0.0
 20
0.0
 30
0.0
  9
$EXTMIN
 10
9.999951537608319
 20
9.999999806846743
 30
0.0
  9
$EXTMAX
 10
617.8164905376081
 20
417.0974788068467
 30
0.0
  9
$LIMMIN
 10
0.0000015376083204
 20
-0.0000001931532552
  9
$LIMMAX
 10
625.0000015376079
 20
430.8712119280586
  9
$ORTHOMODE
 70
     1
  9
$REGENMODE
 70
     1
  9
$FILLMODE
 70
     1
  9
$QTEXTMODE
 70
     0
  9
$MIRRTEXT
 70
     1
  9
$LTSCALE
 40
1.0
  9
$ATTMODE
 70
     1
  9
$TEXTSIZE
 40
2.5
  9
$TRACEWID
 40
1.0
  9
$TEXTSTYLE
  7
STANDARD
  9
$CLAYER
  8
0
  9
$CELTYPE
  6
BYLAYER
  9
$CECOLOR
 62
   256
  9
$CELTSCALE
 40
1.0
  9
$DISPSILH
 70
     0
  9
$DIMSCALE
 40
1.0
  9
$DIMASZ
 40
3.0
  9
$DIMEXO
 40
1.0
  9
$DIMDLI
 40
10.0
  9
$DIMRND
 40
0.0
  9
$DIMDLE
 40
0.0
  9
$DIMEXE
 40
1.0
  9
$DIMTP
 40
0.0
  9
$DIMTM
 40
0.0
  9
$DIMTXT
 40
3.2
  9
$DIMCEN
 40
0.0
  9
$DIMTSZ
 40
0.0
  9
$DIMTOL
 70
     0
  9
$DIMLIM
 70
     0
  9
$DIMTIH
 70
     0
  9
$DIMTOH
 70
     0
  9
$DIMSE1
 70
     0
  9
$DIMSE2
 70
     0
  9
$DIMTAD
 70
     3
  9
$DIMZIN
 70
     8
  9
$DIMBLK
  1

  9
$DIMASO
 70
     1
  9
$DIMSHO
 70
     1
  9
$DIMPOST
  1

  9
$DIMAPOST
  1

  9
$DIMALT
 70
     0
  9
$DIMALTD
 70
     2
  9
$DIMALTF
 40
25.4
  9
$DIMLFAC
 40
1.0
  9
$DIMTOFL
 70
     1
  9
$DIMTVP
 40
0.0
  9
$DIMTIX
 70
     0
  9
$DIMSOXD
 70
     0
  9
$DIMSAH
 70
     1
  9
$DIMBLK1
  1
OPEN
  9
$DIMBLK2
  1
OPEN
  9
$DIMSTYLE
  2
STANDARD
  9
$DIMCLRD
 70
     0
  9
$DIMCLRE
 70
     0
  9
$DIMCLRT
 70
     0
  9
$DIMTFAC
 40
1.0
  9
$DIMGAP
 40
1.0
  9
$DIMJUST
 70
     0
  9
$DIMSD1
 70
     0
  9
$DIMSD2
 70
     0
  9
$DIMTOLJ
 70
     1
  9
$DIMTZIN
 70
     0
  9
$DIMALTZ
 70
     0
  9
$DIMALTTZ
 70
     0
  9
$DIMUPT
 70
     0
  9
$DIMDEC
 70
     4
  9
$DIMTDEC
 70
     4
  9
$DIMALTU
 70
     2
  9
$DIMALTTD
 70
     2
  9
$DIMTXSTY
  7
STANDARD
  9
$DIMAUNIT
 70
     0
  9
$DIMADEC
 70
     0
  9
$DIMALTRND
 40
0.0
  9
$DIMAZIN
 70
     0
  9
$DIMDSEP
 70
    46
  9
$DIMATFIT
 70
     3
  9
$DIMFRAC
 70
     0
  9
$DIMLDRBLK
  1
OPEN
  9
$DIMLUNIT
 70
     2
  9
$DIMLWD
 70
    -2
  9
$DIMLWE
 70
    -2
  9
$DIMTMOVE
 70
     0
  9
$LUNITS
 70
     2
  9
$LUPREC
 70
     4
  9
$SKETCHINC
 40
1.0
  9
$FILLETRAD
 40
0.0
  9
$AUNITS
 70
     0
  9
$AUPREC
 70
     0
  9
$MENU
  1
.
  9
$ELEVATION
 40
0.0
  9
$PELEVATION
 40
0.0
  9
$THICKNESS
 40
0.0
  9
$LIMCHECK
 70
     0
  9
$CHAMFERA
 40
10.0
  9
$CHAMFERB
 40
10.0
  9
$CHAMFERC
 40
20.0
  9
$CHAMFERD
 40
0.0
  9
$SKPOLY
 70
     0
  9
$TDCREATE
 40
2454876.373515000
  9
$TDUCREATE
 40
2454875.998515000
  9
$TDUPDATE
 40
2457192.688130104
  9
$TDUUPDATE
 40
2457192.313130104
  9
$TDINDWG
 40
0.0030656481
  9
$TDUSRTIMER
 40
0.0030656366
  9
$USRTIMER
 70
     1
  9
$ANGBASE
 50
0.0
  9
$ANGDIR
 70
     0
  9
$PDMODE
 70
     0
  9
$PDSIZE
 40
0.0
  9
$PLINEWID
 40
0.0
  9
$SPLFRAME
 70
     0
  9
$SPLINETYPE
 70
     6
  9
$SPLINESEGS
 70
     8
  9
$HANDSEED
  5
9E3
  9
$SURFTAB1
 70
     6
  9
$SURFTAB2
 70
     6
  9
$SURFTYPE
 70
     6
  9
$SURFU
 70
     6
  9
$SURFV
 70
     6
  9
$UCSBASE
  2

  9
$UCSNAME
  2

  9
$UCSORG
 10
0.0
 20
0.0
 30
0.0
  9
$UCSXDIR
 10
1.0
 20
0.0
 30
0.0
  9
$UCSYDIR
 10
0.0
 20
1.0
 30
0.0
  9
$UCSORTHOREF
  2

  9
$UCSORTHOVIEW
 70
     0
  9
$UCSORGTOP
 10
0.0
 20
0.0
 30
0.0
  9
$UCSORGBOTTOM
 10
0.0
 20
0.0
 30
0.0
  9
$UCSORGLEFT
 10
0.0
 20
0.0
 30
0.0
  9
$UCSORGRIGHT
 10
0.0
 20
0.0
 30
0.0
  9
$UCSORGFRONT
 10
0.0
 20
0.0
 30
0.0
  9
$UCSORGBACK
 10
0.0
 20
0.0
 30
0.0
  9
$PUCSBASE
  2

  9
$PUCSNAME
  2

  9
$PUCSORG
 10
0.0
 20
0.0
 30
0.0
  9
$PUCSXDIR
 10
1.0
 20
0.0
 30
0.0
  9
$PUCSYDIR
 10
0.0
 20
1.0
 30
0.0
  9
$PUCSORTHOREF
  2

  9
$PUCSORTHOVIEW
 70
     0
  9
$PUCSORGTOP
 10
0.0
 20
0.0
 30
0.0
  9
$PUCSORGBOTTOM
 10
0.0
 20
0.0
 30
0.0
  9
$PUCSORGLEFT
 10
0.0
 20
0.0
 30
0.0
  9
$PUCSORGRIGHT
 10
0.0
 20
0.0
 30
0.0
  9
$PUCSORGFRONT
 10
0.0
 20
0.0
 30
0.0
  9
$PUCSORGBACK
 10
0.0
 20
0.0
 30
0.0
  9
$USERI1
 70
     0
  9
$USERI2
 70
     0
  9
$USERI3
 70
     0
  9
$USERI4
 70
     0
  9
$USERI5
 70
     0
  9
$USERR1
 40
0.0
  9
$USERR2
 40
0.0
  9
$USERR3
 40
0.0
  9
$USERR4
 40
0.0
  9
$USERR5
 40
0.0
  9
$WORLDVIEW
 70
     1
  9
$SHADEDGE
 70
     3
  9
$SHADEDIF
 70
    70
  9
$TILEMODE
 70
     1
  9
$MAXACTVP
 70
    48
  9
$PINSBASE
 10
0.0
 20
0.0
 30
0.0
  9
$PLIMCHECK
 70
     0
  9
$PEXTMIN
 10
1.000000000000000E+20
 20
1.000000000000000E+20
 30
1.000000000000000E+20
  9
$PEXTMAX
 10
-1.000000000000000E+20
 20
-1.000000000000000E+20
 30
-1.000000000000000E+20
  9
$PLIMMIN
 10
0.0
 20
0.0
  9
$PLIMMAX
 10
420.0
 20
297.0
  9
$UNITMODE
 70
     0
  9
$VISRETAIN
 70
     1
  9
$PLINEGEN
 70
     0
  9
$PSLTSCALE
 70
     1
  9
$TREEDEPTH
 70
  3020
  9
$CMLSTYLE
  2
STANDARD
  9
$CMLJUST
 70
     0
  9
$CMLSCALE
 40
20.0
  9
$PROXYGRAPHICS
 70
     1
  9
$MEASUREMENT
 70
     0
  9
$CELWEIGHT
370
    -1
  9
$ENDCAPS
280
     0
  9
$JOINSTYLE
280
     0
  9
$LWDISPLAY
290
     0
  9
$INSUNITS
 70
     0
  9
$HYPERLINKBASE
  1

  9
$STYLESHEET
  1

  9
$XEDIT
290
     1
  9
$CEPSNTYPE
380
     0
  9
$PSTYLEMODE
290
     1
  9
$FINGERPRINTGUID
  2
{2E07F19E-4532-4BA4-9D78-5439AAA0A8E5}
  9
$VERSIONGUID
  2
{31B776B9-7D66-4A6F-869F-3D111D87A935}
  9
$EXTNAMES
290
     1
  9
$PSVPSCALE
 40
0.0
  9
$OLESTARTUP
290
     0
  0
ENDSEC
  0
SECTION
  2
CLASSES
  0
CLASS
  1
ACDBDICTIONARYWDFLT
  2
AcDbDictionaryWithDefault
  3
ObjectDBX Classes
 90
        0
280
     0
281
     0
  0
CLASS
  1
ACDBPLACEHOLDER
  2
AcDbPlaceHolder
  3
ObjectDBX Classes
 90
        0
280
     0
281
     0
  0
CLASS
  1
LAYOUT
  2
AcDbLayout
  3
ObjectDBX Classes
 90
        0
280
     0
281
     0
  0
CLASS
  1
MATERIAL
  2
AcDbMaterial
  3
ObjectDBX Classes
 90
     1153
280
     0
281
     0
  0
CLASS
  1
VISUALSTYLE
  2
AcDbVisualStyle
  3
ObjectDBX Classes
 90
     4095
280
     0
281
     0
  0
CLASS
  1
TABLESTYLE
  2
AcDbTableStyle
  3
ObjectDBX Classes
 90
     4095
280
     0
281
     0
  0
CLASS
  1
SCALE
  2
AcDbScale
  3
ObjectDBX Classes
 90
     1153
280
     0
281
     0
  0
CLASS
  1
MLEADERSTYLE
  2
AcDbMLeaderStyle
  3
ACDB_MLEADERSTYLE_CLASS
 90
     4095
280
     0
281
     0
  0
CLASS
  1
ACDBSECTIONVIEWSTYLE
  2
AcDbSectionViewStyle
  3
ObjectDBX Classes
 90
     1025
280
     0
281
     0
  0
CLASS
  1
ACDBDETAILVIEWSTYLE
  2
AcDbDetailViewStyle
  3
ObjectDBX Classes
 90
     1025
280
     0
281
     0
  0
CLASS
  1
DICTIONARYVAR
  2
AcDbDictionaryVar
  3
ObjectDBX Classes
 90
        0
280
     0
281
     0
  0
CLASS
  1
CELLSTYLEMAP
  2
AcDbCellStyleMap
  3
ObjectDBX Classes
 90
     1152
280
     0
281
     0
  0
ENDSEC
  0
SECTION
  2
TABLES
  0
TABLE
  2
VPORT
  5
8
330
0
100
AcDbSymbolTable
 70
     1
  0
VPORT
  5
92D
330
8
100
AcDbSymbolTableRecord
100
AcDbViewportTableRecord
  2
*ACTIVE
 70
     0
 10
0.0
 20
0.0
 11
1.0
 21
1.0
 12
482.5399618246966
 22
213.5454171485299
 13
0.0
 23
0.0
 14
10.0
 24
10.0
 15
10.0
 25
10.0
 16
0.0
 26
0.0
 36
1.0
 17
0.0
 27
0.0
 37
0.0
 40
410.2264781026867
 41
2.35006605019815
 42
50.0
 43
0.0
 44
0.0
 50
0.0
 51
0.0
 71
     0
 72
   100
 73
     1
 74
     0
 75
     0
 76
     0
 77
     0
 78
     0
281
     0
 65
     1
110
0.0
120
0.0
130
0.0
111
1.0
121
0.0
131
0.0
112
0.0
122
1.0
132
0.0
 79
     0
146
0.0
1001
ACAD_NAV_VCDISPLAY
1070
     3
  0
ENDTAB
  0
TABLE
  2
LTYPE
  5
5
330
0
100
AcDbSymbolTable
 70
     4
  0
LTYPE
  5
12
330
5
100
AcDbSymbolTableRecord
100
AcDbLinetypeTableRecord
  2
BYBLOCK
 70
     0
  3

 72
    65
 73
     0
 40
0.0
  0
LTYPE
  5
13
330
5
100
AcDbSymbolTableRecord
100
AcDbLinetypeTableRecord
  2
BYLAYER
 70
     0
  3

 72
    65
 73
     0
 40
0.0
  0
LTYPE
  5
14
330
5
100
AcDbSymbolTableRecord
100
AcDbLinetypeTableRecord
  2
CONTINUOUS
 70
     0
  3
Solid line
 72
    65
 73
     0
 40
0.0
  0
LTYPE
  5
4B
330
5
100
AcDbSymbolTableRecord
100
AcDbLinetypeTableRecord
  2
DASHED
 70
     0
  3
Dashed __ __ __ __ __ __ __ __ __ __ __ __ __ _
 72
    65
 73
     2
 40
19.04999999999999
 49
12.7
 74
     0
 49
-6.349999999999998
 74
     0
  0
LTYPE
  5
4C
330
5
100
AcDbSymbolTableRecord
100
AcDbLinetypeTableRecord
  2
CENTER
 70
     0
  3
Center ____ _ ____ _ ____ _ ____ _ ____ _ ____
 72
    65
 73
     4
 40
50.8
 49
31.75
 74
     0
 49
-6.349999999999998
 74
     0
 49
6.349999999999998
 74
     0
 49
-6.349999999999998
 74
     0
  0
LTYPE
  5
4D
330
5
100
AcDbSymbolTableRecord
100
AcDbLinetypeTableRecord
  2
PHANTOM
 70
     0
  3
Phantom ______  __  __  ______  __  __  ______
 72
    65
 73
     6
 40
63.5
 49
31.75
 74
     0
 49
-6.349999999999998
 74
     0
 49
6.349999999999998
 74
     0
 49
-6.349999999999998
 74
     0
 49
6.349999999999998
 74
     0
 49
-6.349999999999998
 74
     0
  0
ENDTAB
  0
TABLE
  2
LAYER
  5
2
330
0
100
AcDbSymbolTable
 70
     8
  0
LAYER
  5
E
102
{ACAD_XDICTIONARY
360
987
102
}
330
2
100
AcDbSymbolTableRecord
100
AcDbLayerTableRecord
  2
0
 70
     0
 62
     7
  6
CONTINUOUS
370
    -3
390
936
  0
LAYER
  5
4E
102
{ACAD_XDICTIONARY
360
989
102
}
330
2
100
AcDbSymbolTableRecord
100
AcDbLayerTableRecord
  2
4
 70
     0
 62
     1
  6
CENTER
370
    -3
390
936
  0
LAYER
  5
4F
102
{ACAD_XDICTIONARY
360
98B
102
}
330
2
100
AcDbSymbolTableRecord
100
AcDbLayerTableRecord
  2
5
 70
     0
 62
     6
  6
PHANTOM
370
    -3
390
936
  0
LAYER
  5
50
102
{ACAD_XDICTIONARY
360
98D
102
}
330
2
100
AcDbSymbolTableRecord
100
AcDbLayerTableRecord
  2
1
 70
     0
 62
     7
  6
CONTINUOUS
370
    -3
390
936
  0
LAYER
  5
51
102
{ACAD_XDICTIONARY
360
98F
102
}
330
2
100
AcDbSymbolTableRecord
100
AcDbLayerTableRecord
  2
2
 70
     0
 62
     4
  6
CONTINUOUS
370
    -3
390
936
  0
LAYER
  5
52
102
{ACAD_XDICTIONARY
360
991
102
}
330
2
100
AcDbSymbolTableRecord
100
AcDbLayerTableRecord
  2
3
 70
     0
 62
     2
  6
DASHED
370
    -3
390
936
  0
LAYER
  5
53
102
{ACAD_XDICTIONARY
360
993
102
}
330
2
100
AcDbSymbolTableRecord
100
AcDbLayerTableRecord
  2
6
 70
     0
 62
     5
  6
CONTINUOUS
370
    -3
390
936
  0
LAYER
  5
54
102
{ACAD_XDICTIONARY
360
995
102
}
330
2
100
AcDbSymbolTableRecord
100
AcDbLayerTableRecord
  2
7
 70
     0
 62
     3
  6
CONTINUOUS
370
    -3
390
936
  0
ENDTAB
  0
TABLE
  2
STYLE
  5
3
330
0
100
AcDbSymbolTable
 70
     1
  0
STYLE
  5
F
330
3
100
AcDbSymbolTableRecord
100
AcDbTextStyleTableRecord
  2
STANDARD
 70
     0
 40
0.0
 41
1.0
 50
0.0
 71
     0
 42
2.5
  3
simplex.shx
  4

  0
ENDTAB
  0
TABLE
  2
VIEW
  5
6
330
0
100
AcDbSymbolTable
 70
     0
  0
ENDTAB
  0
TABLE
  2
UCS
  5
7
330
0
100
AcDbSymbolTable
 70
     0
  0
ENDTAB
  0
TABLE
  2
APPID
  5
9
330
0
100
AcDbSymbolTable
 70
     5
  0
APPID
  5
10
330
9
100
AcDbSymbolTableRecord
100
AcDbRegAppTableRecord
  2
ACAD
 70
     0
  0
APPID
  5
3E
330
9
100
AcDbSymbolTableRecord
100
AcDbRegAppTableRecord
  2
CONTENTTABDATA
 70
     0
  0
APPID
  5
3F
330
9
100
AcDbSymbolTableRecord
100
AcDbRegAppTableRecord
  2
CONTENTCURRENTTAB
 70
     0
  0
APPID
  5
9A1
330
9
100
AcDbSymbolTableRecord
100
AcDbRegAppTableRecord
  2
ACAD_NAV_VCDISPLAY
 70
     0
  0
APPID
  5
9DA
330
9
100
AcDbSymbolTableRecord
100
AcDbRegAppTableRecord
  2
ACAD_MLEADERVER
 70
     0
  0
ENDTAB
  0
TABLE
  2
DIMSTYLE
  5
A
330
0
100
AcDbSymbolTable
 70
     1
100
AcDbDimStyleTable
 71
     0
  0
DIMSTYLE
105
1D
330
A
100
AcDbSymbolTableRecord
100
AcDbDimStyleTableRecord
  2
STANDARD
 70
     0
 41
3.0
 42
1.0
 43
10.0
 44
1.0
 73
     0
 74
     0
 77
     3
 78
     8
140
3.2
141
0.0
147
1.0
172
     1
173
     1
340
F
341
2E
343
2E
344
2E
  0
ENDTAB
  0
TABLE
  2
BLOCK_RECORD
  5
1
330
0
100
AcDbSymbolTable
 70
     1
  0
BLOCK_RECORD
  5
18
102
{ACAD_XDICTIONARY
360
930
102
}
330
1
100
AcDbSymbolTableRecord
100
AcDbBlockTableRecord
  2
*MODEL_SPACE
340
984
  0
BLOCK_RECORD
  5
15
102
{ACAD_XDICTIONARY
360
92E
102
}
330
1
100
AcDbSymbolTableRecord
100
AcDbBlockTableRecord
  2
*PAPER_SPACE
340
985
  0
BLOCK_RECORD
  5
2E
330
1
100
AcDbSymbolTableRecord
100
AcDbBlockTableRecord
  2
_OPEN
340
0
  0
ENDTAB
  0
ENDSEC
  0
SECTION
  2
BLOCKS
  0
BLOCK
  5
19
330
18
100
AcDbEntity
  8
0
100
AcDbBlockBegin
  2
*MODEL_SPACE
 70
     0
 10
0.0
 20
0.0
 30
0.0
  3
*MODEL_SPACE
  1

  0
ENDBLK
  5
1A
330
18
100
AcDbEntity
  8
0
100
AcDbBlockEnd
  0
BLOCK
  5
16
330
15
100
AcDbEntity
 67
     1
  8
0
100
AcDbBlockBegin
  2
*PAPER_SPACE
 70
     0
 10
0.0
 20
0.0
 30
0.0
  3
*PAPER_SPACE
  1

  0
ENDBLK
  5
17
330
15
100
AcDbEntity
 67
     1
  8
0
100
AcDbBlockEnd
  0
BLOCK
  5
2F
330
2E
100
AcDbEntity
  8
0
100
AcDbBlockBegin
  2
_OPEN
 70
     0
 10
0.0
 20
0.0
 30
0.0
  3
_OPEN
  1

  0
LINE
  5
30
330
2E
100
AcDbEntity
  8
0
  6
ByBlock
 62
     0
100
AcDbLine
 10
-1.0
 20
0.1666666666666666
 30
0.0
 11
0.0
 21
0.0
 31
0.0
  0
LINE
  5
31
330
2E
100
AcDbEntity
  8
0
  6
ByBlock
 62
     0
100
AcDbLine
 10
0.0
 20
0.0
 30
0.0
 11
-1.0
 21
-0.1666666666666666
 31
0.0
  0
LINE
  5
32
330
2E
100
AcDbEntity
  8
0
  6
ByBlock
 62
     0
100
AcDbLine
 10
0.0
 20
0.0
 30
0.0
 11
-1.0
 21
0.0
 31
0.0
  0
ENDBLK
  5
33
330
2E
100
AcDbEntity
  8
0
100
AcDbBlockEnd
  0
ENDSEC
  0
SECTION
  2
ENTITIES
  0
ARC
  5
4DE
330
18
100
AcDbEntity
  8
1
  6
Continuous
100
AcDbCircle
 10
223.9897015376083
 20
199.9000018068467
 30
0.0
 40
50.0
100
AcDbArc
 50
9.243192999999999
 51
38.182545
  0
LINE
  5
4DF
330
18
100
AcDbEntity
  8
1
  6
Continuous
100
AcDbLine
 10
194.2730285376083
 20
220.8155128068466
 30
0.0
 11
193.4538525376082
 21
218.6663368068467
 31
0.0
  0
LINE
  5
4E0
330
18
100
AcDbEntity
  8
1
  6
Continuous
100
AcDbLine
 10
174.6501415376082
 20
228.2949538068467
 30
0.0
 11
169.775782537608
 21
215.5066938068466
 31
0.0
  0
LINE
  5
4E1
330
18
100
AcDbEntity
  8
1
  6
Continuous
100
AcDbLine
 10
173.8309585376083
 20
226.1457758068466
 30
0.0
 11
193.4538525376082
 21
218.6663368068467
 31
0.0
  0
ARC
  5
4E2
330
18
100
AcDbEntity
  8
1
  6
Continuous
100
AcDbCircle
 10
98.89999453760836
 20
245.3509918068467
 30
0.0
 40
26.684652
100
AcDbArc
 50
270.0000039999998
 51
289.6040619999999
  0
LINE
  5
4E3
330
18
100
AcDbEntity
  8
1
  6
Continuous
100
AcDbLine
 10
81.32925553760834
 20
225.5779218068467
 30
0.0
 11
81.32925553760834
 21
192.6688818068467
 31
0.0
  0
LINE
  5
4E4
330
18
100
AcDbEntity
  8
1
  6
Continuous
100
AcDbLine
 10
88.69999753760831
 20
215.5066918068466
 30
0.0
 11
88.69999753760831
 21
225.1457718068466
 31
0.0
  0
ARC
  5
4E5
330
18
100
AcDbEntity
  8
1
  6
Continuous
100
AcDbCircle
 10
-31.20166646239167
 20
202.4532128068465
 30
0.0
 40
115.384712
100
AcDbArc
 50
0.218722
 51
11.56116999999999
  0
ARC
  5
4E6
330
18
100
AcDbEntity
  8
1
  6
Continuous
100
AcDbCircle
 10
-31.20185246239167
 20
202.4407508068467
 30
0.0
 40
114.8850659999999
100
AcDbArc
 50
0.2194510000000001
 51
11.61849399999997
  0
LINE
  5
4E7
330
18
100
AcDbEntity
  8
1
  6
Continuous
100
AcDbLine
 10
86.40000953760834
 20
199.3053618068465
 30
0.0
 11
86.40000953760834
 21
225.2949618068465
 31
0.0
  0
ARC
  5
4E8
330
18
100
AcDbEntity
  8
1
  6
Continuous
100
AcDbCircle
 10
202.8319385376083
 20
193.2288888068466
 30
0.0
 40
32.349033
100
AcDbArc
 50
38.231743
 51
114.49728
  0
ARC
  5
4E9
330
18
100
AcDbEntity
  8
1
  6
Continuous
100
AcDbCircle
 10
47.86282053760832
 20
220.6363908068465
 30
0.0
 40
17.162819
100
AcDbArc
 50
180.0
 51
219.519641
  0
LINE
  5
4EA
330
18
100
AcDbEntity
  8
1
  6
Continuous
100
AcDbLine
 10
42.20000153760831
 20
219.9000018068467
 30
0.0
 11
42.20000153760831
 21
179.9000018068467
 31
0.0
  0
LINE
  5
4EB
330
18
100
AcDbEntity
  8
1
  6
Continuous
100
AcDbLine
 10
43.20000153760831
 20
246.4742148068466
 30
0.0
 11
43.20000153760831
 21
153.3257888068466
 31
0.0
  0
LINE
  5
4EC
330
18
100
AcDbEntity
  8
1
  6
Continuous
100
AcDbLine
 10
81.20000153760832
 20
246.4742148068466
 30
0.0
 11
81.20000153760832
 21
153.3257878068465
 31
0.0
  0
LINE
  5
4ED
330
18
100
AcDbEntity
  8
1
  6
Continuous
100
AcDbLine
 10
83.00000153760832
 20
258.3000018068467
 30
0.0
 11
83.00000153760832
 21
218.9338278068465
 31
0.0
  0
LINE
  5
4EE
330
18
100
AcDbEntity
  8
1
  6
Continuous
100
AcDbLine
 10
85.90000153760833
 20
259.7000018068466
 30
0.0
 11
85.90000153760833
 21
219.0207918068467
 31
0.0
  0
LINE
  5
4EF
330
18
100
AcDbEntity
  8
1
  6
Continuous
100
AcDbLine
 10
41.40000153760831
 20
258.3000018068467
 30
0.0
 11
41.40000153760831
 21
184.9000018068467
 31
0.0
  0
LINE
  5
4F0
330
18
100
AcDbEntity
  8
1
  6
Continuous
100
AcDbLine
 10
38.50000153760832
 20
259.7000018068466
 30
0.0
 11
38.50000153760832
 21
184.9000018068467
 31
0.0
  0
LINE
  5
4F1
330
18
100
AcDbEntity
  8
4
  6
CENTER
100
AcDbLine
 10
62.20000153760832
 20
144.9000018068465
 30
0.0
 11
62.20000153760832
 21
307.8999958068465
 31
0.0
  0
LINE
  5
4F2
330
18
100
AcDbEntity
  8
1
  6
Continuous
100
AcDbLine
 10
239.4883065376082
 20
205.9684368068466
 30
0.0
 11
239.4883065376082
 21
259.7835618068467
 31
0.0
  0
LINE
  5
4F3
330
18
100
AcDbEntity
  8
1
  6
Continuous
100
AcDbLine
 10
244.1798735376082
 20
202.8539438068466
 30
0.0
 11
273.8524525376082
 21
246.2548598068467
 31
0.0
  0
LINE
  5
4F4
330
18
100
AcDbEntity
  8
4
  6
CENTER
100
AcDbLine
 10
223.9897015376083
 20
144.9000018068465
 30
0.0
 11
223.9897015376083
 21
250.9805148068467
 31
0.0
  0
LINE
  5
4F5
330
18
100
AcDbEntity
  8
4
  6
CENTER
100
AcDbLine
 10
260.9897015376083
 20
307.8999958068465
 30
0.0
 11
260.9897015376083
 21
218.5818758068466
 31
0.0
  0
TEXT
  5
4F6
330
18
100
AcDbEntity
  8
7
  6
Continuous
100
AcDbText
 10
10.0
 20
17.99999980684674
 30
0.0
 40
3.0
  1
TYPE No.307HS
 41
1.002350999999997
100
AcDbText
  0
TEXT
  5
4F7
330
18
100
AcDbEntity
  8
7
  6
Continuous
100
AcDbText
 10
10.0
 20
25.99999980684674
 30
0.0
 40
3.0
  1
CODE No.9337
 41
1.003962999999999
100
AcDbText
  0
TEXT
  5
4F8
330
18
100
AcDbEntity
  8
1
  6
Continuous
100
AcDbText
 10
9.999951537608319
 20
9.999999806846743
 30
0.0
 40
1.399999999999999
  1
LAYER
 41
1.009912999999996
100
AcDbText
  0
TEXT
  5
4F9
330
18
100
AcDbEntity
  8
1
  6
Continuous
100
AcDbText
 10
17.97945153760831
 20
10.04869980684674
 30
0.0
 40
1.399999999999999
  1
1
 41
1.069393
100
AcDbText
  0
TEXT
  5
4FA
330
18
100
AcDbEntity
  8
5
  6
PHANTOM
100
AcDbText
 10
25.97945153760832
 20
10.04869980684674
 30
0.0
 40
1.399999999999999
  1
5
 41
1.069393
100
AcDbText
  0
TEXT
  5
4FB
330
18
100
AcDbEntity
  8
4
  6
CENTER
100
AcDbText
 10
23.97945153760831
 20
10.04869980684674
 30
0.0
 40
1.399999999999999
  1
4
 41
1.069393
100
AcDbText
  0
TEXT
  5
4FC
330
18
100
AcDbEntity
  8
3
  6
DASHED
100
AcDbText
 10
21.97945153760831
 20
10.04869980684674
 30
0.0
 40
1.399999999999999
  1
3
 41
1.069393
100
AcDbText
  0
TEXT
  5
4FD
330
18
100
AcDbEntity
  8
2
  6
Continuous
100
AcDbText
 10
19.9794515376083
 20
10.04869980684674
 30
0.0
 40
1.399999999999999
  1
2
 41
1.069393
100
AcDbText
  0
TEXT
  5
4FE
330
18
100
AcDbEntity
  8
7
  6
Continuous
100
AcDbText
 10
29.97945153760831
 20
10.04869980684674
 30
0.0
 40
1.399999999999999
  1
7
 41
1.069393
100
AcDbText
  0
TEXT
  5
4FF
330
18
100
AcDbEntity
  8
6
  6
Continuous
100
AcDbText
 10
27.97945153760831
 20
10.04869980684674
 30
0.0
 40
1.399999999999999
  1
6
 41
1.069393
100
AcDbText
  0
ARC
  5
500
330
18
100
AcDbEntity
  8
1
  6
Continuous
100
AcDbCircle
 10
78.70000153760833
 20
153.3257878068465
 30
0.0
 40
2.5
100
AcDbArc
 50
276.422802
 51
0.0
  0
ARC
  5
501
330
18
100
AcDbEntity
  8
1
  6
Continuous
100
AcDbCircle
 10
62.20000153760832
 20
299.9000018068467
 30
0.0
 40
150.0
100
AcDbArc
 50
263.577198
 51
276.422802
  0
ARC
  5
502
330
18
100
AcDbEntity
  8
1
  6
Continuous
100
AcDbCircle
 10
45.70000153760831
 20
153.3257888068466
 30
0.0
 40
2.5
100
AcDbArc
 50
180.0
 51
263.577198
  0
LINE
  5
503
330
18
100
AcDbEntity
  8
4
  6
CENTER
100
AcDbLine
 10
102.5000015376082
 20
199.9000018068467
 30
0.0
 11
25.50000153760832
 21
199.9000018068467
 31
0.0
  0
LINE
  5
504
330
18
100
AcDbEntity
  8
1
  6
Continuous
100
AcDbLine
 10
42.20000153760831
 20
179.9000018068467
 30
0.0
 11
43.20000153760831
 21
175.9000018068467
 31
0.0
  0
LINE
  5
505
330
18
100
AcDbEntity
  8
1
  6
Continuous
100
AcDbLine
 10
38.50000153760832
 20
184.9000018068467
 30
0.0
 11
41.40000153760831
 21
184.9000018068467
 31
0.0
  0
LINE
  5
506
330
18
100
AcDbEntity
  8
1
  6
Continuous
100
AcDbLine
 10
31.50000153760831
 20
208.4000018068466
 30
0.0
 11
31.50000153760831
 21
191.4000018068465
 31
0.0
  0
ARC
  5
507
330
18
100
AcDbEntity
  8
1
  6
Continuous
100
AcDbCircle
 10
47.74081253760832
 20
199.9000018068467
 30
0.0
 40
16.24081099999999
100
AcDbArc
 50
162.412046
 51
197.5879539999999
  0
LINE
  5
508
330
18
100
AcDbEntity
  8
1
  6
Continuous
100
AcDbLine
 10
32.25919053760831
 20
194.9925238068465
 30
0.0
 11
38.50000153760832
 21
194.9925238068465
 31
0.0
  0
LINE
  5
509
330
18
100
AcDbEntity
  8
1
  6
Continuous
100
AcDbLine
 10
32.25919053760831
 20
190.0850468068465
 30
0.0
 11
38.50000153760832
 21
190.0850468068465
 31
0.0
  0
ARC
  5
50A
330
18
100
AcDbEntity
  8
1
  6
Continuous
100
AcDbCircle
 10
35.84490053760831
 20
192.5387858068466
 30
0.0
 40
4.344898999999998
100
AcDbArc
 50
145.615753
 51
205.615753
  0
LINE
  5
50B
330
18
100
AcDbEntity
  8
1
  6
Continuous
100
AcDbLine
 10
32.25919053760831
 20
190.0850468068465
 30
0.0
 11
31.50000153760831
 21
191.4000018068465
 31
0.0
  0
LINE
  5
50C
330
18
100
AcDbEntity
  8
1
  6
Continuous
100
AcDbLine
 10
41.40000153760831
 20
191.9000018068467
 30
0.0
 11
42.20000153760831
 21
191.9000018068467
 31
0.0
  0
LINE
  5
50D
330
18
100
AcDbEntity
  8
1
  6
Continuous
100
AcDbLine
 10
32.25919053760831
 20
204.8074788068467
 30
0.0
 11
38.50000153760832
 21
204.8074788068467
 31
0.0
  0
LINE
  5
50E
330
18
100
AcDbEntity
  8
1
  6
Continuous
100
AcDbLine
 10
32.25919053760831
 20
209.7149558068467
 30
0.0
 11
38.50000153760832
 21
209.7149558068467
 31
0.0
  0
ARC
  5
50F
330
18
100
AcDbEntity
  8
1
  6
Continuous
100
AcDbCircle
 10
35.84490053760831
 20
207.2612178068466
 30
0.0
 40
4.344898999999998
100
AcDbArc
 50
154.3842469999999
 51
214.384247
  0
LINE
  5
510
330
18
100
AcDbEntity
  8
1
  6
Continuous
100
AcDbLine
 10
32.25919053760831
 20
209.7149558068467
 30
0.0
 11
31.50000153760831
 21
208.4000018068466
 31
0.0
  0
LINE
  5
511
330
18
100
AcDbEntity
  8
1
  6
Continuous
100
AcDbLine
 10
41.40000153760831
 20
207.9000018068467
 30
0.0
 11
42.20000153760831
 21
207.9000018068467
 31
0.0
  0
LINE
  5
512
330
18
100
AcDbEntity
  8
1
  6
Continuous
100
AcDbLine
 10
85.90000153760833
 20
185.7086828068467
 30
0.0
 11
85.90000153760833
 21
184.9000018068467
 31
0.0
  0
LINE
  5
513
330
18
100
AcDbEntity
  8
1
  6
Continuous
100
AcDbLine
 10
96.39999453760836
 20
176.8749918068466
 30
0.0
 11
96.39999453760836
 21
192.3803808068467
 31
0.0
  0
ARC
  5
514
330
18
100
AcDbEntity
  8
1
  6
Continuous
100
AcDbCircle
 10
166.0927885376082
 20
188.5222478068466
 30
0.0
 40
83.53454399999998
100
AcDbArc
 50
177.1546889999999
 51
183.714469
  0
ARC
  5
515
330
18
100
AcDbEntity
  8
1
  6
Continuous
100
AcDbCircle
 10
86.1043865376083
 20
183.7234318068467
 30
0.0
 40
2.0
100
AcDbArc
 50
109.6733399999999
 51
176.4190099999999
  0
LINE
  5
516
330
18
100
AcDbEntity
  8
1
  6
Continuous
100
AcDbLine
 10
88.69999753760831
 20
183.4281418068466
 30
0.0
 11
88.69999753760831
 21
187.9064118068466
 31
0.0
  0
ARC
  5
517
330
18
100
AcDbEntity
  8
1
  6
Continuous
100
AcDbCircle
 10
-60.42591546239169
 20
192.9377518068466
 30
0.0
 40
144.8169599999999
100
AcDbArc
 50
356.136267
 51
1.479367
  0
ARC
  5
518
330
18
100
AcDbEntity
  8
1
  6
Continuous
100
AcDbCircle
 10
-60.42591546239169
 20
192.9377518068466
 30
0.0
 40
144.31696
100
AcDbArc
 50
355.937283
 51
1.479367
  0
LINE
  5
519
330
18
100
AcDbEntity
  8
1
  6
Continuous
100
AcDbLine
 10
86.40000953760834
 20
170.9897818068466
 30
0.0
 11
86.40000953760834
 21
186.0323918068466
 31
0.0
  0
LINE
  5
51A
330
18
100
AcDbEntity
  8
1
  6
Continuous
100
AcDbLine
 10
82.20000153760834
 20
201.2229348068467
 30
0.0
 11
82.20000153760834
 21
179.9000018068467
 31
0.0
  0
ARC
  5
51B
330
18
100
AcDbEntity
  8
1
  6
Continuous
100
AcDbCircle
 10
91.50111453760834
 20
176.8206818068467
 30
0.0
 40
4.898868
100
AcDbArc
 50
0.000003
 51
73.49344999999998
  0
ARC
  5
51C
330
18
100
AcDbEntity
  8
1
  6
Continuous
100
AcDbCircle
 10
89.60812453760828
 20
176.8206818068467
 30
0.0
 40
4.491857999999997
100
AcDbArc
 50
7.070791999999999
 51
73.49349999999998
  0
LINE
  5
51D
330
18
100
AcDbEntity
  8
1
  6
Continuous
100
AcDbLine
 10
89.56812553760832
 20
175.5281918068466
 30
0.0
 11
95.96593153760831
 21
176.3793518068467
 31
0.0
  0
LINE
  5
51E
330
18
100
AcDbEntity
  8
1
  6
Continuous
100
AcDbLine
 10
82.20000153760834
 20
179.9000018068467
 30
0.0
 11
81.20000153760832
 21
175.9000018068467
 31
0.0
  0
LINE
  5
51F
330
18
100
AcDbEntity
  8
1
  6
Continuous
100
AcDbLine
 10
88.13623453760831
 20
176.0848018068467
 30
0.0
 11
93.63557153760831
 21
176.8164418068465
 31
0.0
  0
LINE
  5
520
330
18
100
AcDbEntity
  8
1
  6
Continuous
100
AcDbLine
 10
86.40000953760834
 20
170.9897818068466
 30
0.0
 11
86.40000953760834
 21
183.8842818068467
 31
0.0
  0
LINE
  5
521
330
18
100
AcDbEntity
  8
1
  6
Continuous
100
AcDbLine
 10
86.40000953760834
 20
170.9897818068466
 30
0.0
 11
88.69999753760831
 21
170.9897818068466
 31
0.0
  0
ARC
  5
522
330
18
100
AcDbEntity
  8
1
  6
Continuous
100
AcDbCircle
 10
88.40000953760833
 20
174.1022718068467
 30
0.0
 40
2.0
100
AcDbArc
 50
97.57819999999997
 51
180.0
  0
ARC
  5
523
330
18
100
AcDbEntity
  8
1
  6
Continuous
100
AcDbCircle
 10
89.69999753760831
 20
174.5369218068467
 30
0.0
 40
1.0
100
AcDbArc
 50
97.57819999999997
 51
180.0
  0
LINE
  5
524
330
18
100
AcDbEntity
  8
1
  6
Continuous
100
AcDbLine
 10
88.69999753760831
 20
170.9897818068466
 30
0.0
 11
88.69999753760831
 21
174.5369218068467
 31
0.0
  0
ARC
  5
525
330
18
100
AcDbEntity
  8
1
  6
Continuous
100
AcDbCircle
 10
68.7155465376083
 20
106.3178518068467
 30
0.0
 40
78.025177
100
AcDbArc
 50
73.49349999999998
 51
75.76033999999999
  0
ARC
  5
526
330
18
100
AcDbEntity
  8
1
  6
Continuous
100
AcDbCircle
 10
88.40000953760833
 20
183.8842818068467
 30
0.0
 40
2.0
100
AcDbArc
 50
180.0
 51
255.76034
  0
ARC
  5
527
330
18
100
AcDbEntity
  8
1
  6
Continuous
100
AcDbCircle
 10
83.56302053760831
 20
183.1688818068467
 30
0.0
 40
0.5
100
AcDbArc
 50
270.0
 51
356.136267
  0
ARC
  5
528
330
18
100
AcDbEntity
  8
1
  6
Continuous
100
AcDbCircle
 10
83.23031753760833
 20
183.1688818068467
 30
0.0
 40
0.5
100
AcDbArc
 50
186.7017699999999
 51
270.0
  0
LINE
  5
529
330
18
100
AcDbEntity
  8
1
  6
Continuous
100
AcDbLine
 10
83.56302053760831
 20
182.6688818068467
 30
0.0
 11
83.23031753760833
 21
182.6688818068467
 31
0.0
  0
LINE
  5
52A
330
18
100
AcDbEntity
  8
1
  6
Continuous
100
AcDbLine
 10
85.90000153760833
 20
184.9000018068467
 30
0.0
 11
84.48707953760829
 21
184.9000018068467
 31
0.0
  0
ARC
  5
52B
330
18
100
AcDbEntity
  8
1
  6
Continuous
100
AcDbCircle
 10
93.56962653760831
 20
177.3120618068467
 30
0.0
 40
0.5
100
AcDbArc
 50
277.5781949999998
 51
7.070791999999999
  0
ARC
  5
52C
330
18
100
AcDbEntity
  8
1
  6
Continuous
100
AcDbCircle
 10
89.69999753760831
 20
183.4281418068466
 30
0.0
 40
1.0
100
AcDbArc
 50
180.0
 51
255.89276
  0
ARC
  5
52D
330
18
100
AcDbEntity
  8
1
  6
Continuous
100
AcDbCircle
 10
68.7155465376083
 20
99.93013180684677
 30
0.0
 40
85.09450499999998
100
AcDbArc
 50
73.49344999999998
 51
75.89275
  0
ARC
  5
52E
330
18
100
AcDbEntity
  8
1
  6
Continuous
100
AcDbCircle
 10
95.89999453760832
 20
176.8749918068466
 30
0.0
 40
0.5
100
AcDbArc
 50
277.5781949999998
 51
0.000003
  0
LINE
  5
52F
330
18
100
AcDbEntity
  8
1
  6
Continuous
100
AcDbLine
 10
96.07478253760831
 20
191.8170978068467
 30
0.0
 11
91.32521253760833
 21
191.8170978068467
 31
0.0
  0
LINE
  5
530
330
18
100
AcDbEntity
  8
1
  6
Continuous
100
AcDbLine
 10
96.07478253760831
 20
195.8585498068467
 30
0.0
 11
91.32521253760833
 21
195.8585498068467
 31
0.0
  0
LINE
  5
531
330
18
100
AcDbEntity
  8
1
  6
Continuous
100
AcDbLine
 10
96.07478253760831
 20
203.9414528068467
 30
0.0
 11
91.32521253760833
 21
203.9414528068467
 31
0.0
  0
LINE
  5
532
330
18
100
AcDbEntity
  8
1
  6
Continuous
100
AcDbLine
 10
96.07478253760831
 20
207.9829048068466
 30
0.0
 11
91.39962053760831
 21
207.9829048068466
 31
0.0
  0
LINE
  5
533
330
18
100
AcDbEntity
  8
1
  6
Continuous
100
AcDbLine
 10
88.69999753760831
 20
218.6663318068467
 30
0.0
 11
98.90000953760832
 21
218.6663318068467
 31
0.0
  0
ARC
  5
534
330
18
100
AcDbEntity
  8
1
  6
Continuous
100
AcDbCircle
 10
104.0747825376083
 20
199.9000018068467
 30
0.0
 40
13.374785
100
AcDbArc
 50
162.412046
 51
197.5879539999999
  0
LINE
  5
535
330
18
100
AcDbEntity
  8
1
  6
Continuous
100
AcDbLine
 10
90.6999975376083
 20
192.9000018068467
 30
0.0
 11
90.6999975376083
 21
203.3408288068467
 31
0.0
  0
LINE
  5
536
330
18
100
AcDbEntity
  8
1
  6
Continuous
100
AcDbLine
 10
90.6999975376083
 20
203.3408288068467
 30
0.0
 11
90.6999975376083
 21
190.9000018068467
 31
0.0
  0
LINE
  5
537
330
18
100
AcDbEntity
  8
1
  6
Continuous
100
AcDbLine
 10
83.68236653760833
 20
202.8807618068467
 30
0.0
 11
83.84292953760832
 21
196.6635718068467
 31
0.0
  0
LINE
  5
538
330
18
100
AcDbEntity
  8
1
  6
Continuous
100
AcDbLine
 10
84.18220053760832
 20
202.8936718068466
 30
0.0
 11
84.34276253760831
 21
196.6764718068467
 31
0.0
  0
LINE
  5
539
330
18
100
AcDbEntity
  8
1
  6
Continuous
100
AcDbLine
 10
87.92370653760832
 20
198.2432818068467
 30
0.0
 11
90.05053153760833
 21
205.6074918068466
 31
0.0
  0
ARC
  5
53A
330
18
100
AcDbEntity
  8
1
  6
Continuous
100
AcDbCircle
 10
-1.168229462391678
 20
192.4442518068467
 30
0.0
 40
83.82915500000001
100
AcDbArc
 50
0.153525
 51
10.22625
  0
LINE
  5
53B
330
18
100
AcDbEntity
  8
1
  6
Continuous
100
AcDbLine
 10
81.82925553760833
 20
204.2233018068466
 30
0.0
 11
81.82925553760833
 21
192.6688818068467
 31
0.0
  0
LINE
  5
53C
330
18
100
AcDbEntity
  8
1
  6
Continuous
100
AcDbLine
 10
89.37437653760831
 20
196.4651718068465
 30
0.0
 11
91.19073553760832
 21
205.8861618068467
 31
0.0
  0
LINE
  5
53D
330
18
100
AcDbEntity
  8
1
  6
Continuous
100
AcDbLine
 10
81.32925553760834
 20
192.6688818068467
 30
0.0
 11
81.82925553760833
 21
192.6688818068467
 31
0.0
  0
ARC
  5
53E
330
18
100
AcDbEntity
  8
1
  6
Continuous
100
AcDbCircle
 10
94.27814953760831
 20
193.8378238068467
 30
0.0
 40
3.578151999999998
100
AcDbArc
 50
145.615753
 51
205.615753
  0
ARC
  5
53F
330
18
100
AcDbEntity
  8
1
  6
Continuous
100
AcDbCircle
 10
82.90614453760831
 20
192.6688818068467
 30
0.0
 40
7.5
100
AcDbArc
 50
289.673347
 51
70.14708
  0
LINE
  5
540
330
18
100
AcDbEntity
  8
1
  6
Continuous
100
AcDbLine
 10
82.62656253760829
 20
191.9000018068467
 30
0.0
 11
82.20000153760834
 21
191.9000018068467
 31
0.0
  0
LINE
  5
541
330
18
100
AcDbEntity
  8
1
  6
Continuous
100
AcDbLine
 10
91.32521253760833
 20
191.8170978068467
 30
0.0
 11
90.6999975376083
 21
192.9000018068467
 31
0.0
  0
LINE
  5
542
330
18
100
AcDbEntity
  8
1
  6
Continuous
100
AcDbLine
 10
90.6999975376083
 20
190.9000018068467
 30
0.0
 11
90.19456453760831
 21
190.9000018068467
 31
0.0
  0
ARC
  5
543
330
18
100
AcDbEntity
  8
1
  6
Continuous
100
AcDbCircle
 10
86.13240153760832
 20
201.6042718068467
 30
0.0
 40
2.0
100
AcDbArc
 50
196.5549699999998
 51
250.1470799999998
  0
LINE
  5
544
330
18
100
AcDbEntity
  8
1
  6
Continuous
100
AcDbLine
 10
85.90000153760833
 20
216.1507018068467
 30
0.0
 11
85.90000153760833
 21
207.0848098068467
 31
0.0
  0
ARC
  5
545
330
18
100
AcDbEntity
  8
1
  6
Continuous
100
AcDbCircle
 10
79.82759253760831
 20
208.0769718068466
 30
0.0
 40
11.57241
100
AcDbArc
 50
349.0873199999999
 51
39.94267999999999
  0
ARC
  5
546
330
18
100
AcDbEntity
  8
1
  6
Continuous
100
AcDbCircle
 10
81.49987953760835
 20
208.0769718068466
 30
0.0
 40
8.900121
100
AcDbArc
 50
343.8909740000001
 51
56.59396
  0
LINE
  5
547
330
18
100
AcDbEntity
  8
1
  6
Continuous
100
AcDbLine
 10
84.06189153760834
 20
209.6583018068467
 30
0.0
 11
84.10829153760829
 21
208.9451528068467
 31
0.0
  0
LINE
  5
548
330
18
100
AcDbEntity
  8
1
  6
Continuous
100
AcDbLine
 10
84.06189153760834
 20
209.6583018068467
 30
0.0
 11
83.95786753760829
 21
209.6583018068467
 31
0.0
  0
ARC
  5
549
330
18
100
AcDbEntity
  8
1
  6
Continuous
100
AcDbCircle
 10
82.90614453760831
 20
200.1246118068467
 30
0.0
 40
7.5
100
AcDbArc
 50
62.23484000000001
 51
70.32666
  0
ARC
  5
54A
330
18
100
AcDbEntity
  8
1
  6
Continuous
100
AcDbCircle
 10
86.1043865376083
 20
209.0700718068467
 30
0.0
 40
2.0
100
AcDbArc
 50
183.58098
 51
250.32666
  0
ARC
  5
54B
330
18
100
AcDbEntity
  8
1
  6
Continuous
100
AcDbCircle
 10
94.27814953760831
 20
205.9621788068467
 30
0.0
 40
3.578151999999998
100
AcDbArc
 50
201.6049039999999
 51
214.384247
  0
LINE
  5
54C
330
18
100
AcDbEntity
  8
1
  6
Continuous
100
AcDbLine
 10
83.69999853760829
 20
216.1507018068467
 30
0.0
 11
83.69999853760829
 21
219.0207918068467
 31
0.0
  0
LINE
  5
54D
330
18
100
AcDbEntity
  8
1
  6
Continuous
100
AcDbLine
 10
83.69999853760829
 20
216.1507018068467
 30
0.0
 11
86.40000953760834
 21
216.1507018068467
 31
0.0
  0
LINE
  5
54E
330
18
100
AcDbEntity
  8
1
  6
Continuous
100
AcDbLine
 10
83.69999853760829
 20
219.0207918068467
 30
0.0
 11
86.40000953760834
 21
219.0207918068467
 31
0.0
  0
LINE
  5
54F
330
18
100
AcDbEntity
  8
1
  6
Continuous
100
AcDbLine
 10
83.69999853760829
 20
217.0154318068466
 30
0.0
 11
86.40000953760834
 21
217.0154318068466
 31
0.0
  0
ARC
  5
550
330
18
100
AcDbEntity
  8
1
  6
Continuous
100
AcDbCircle
 10
76.53718353760833
 20
220.6363908068465
 30
0.0
 40
17.162819
100
AcDbArc
 50
327.0602819999998
 51
353.408692
  0
LINE
  5
551
330
18
100
AcDbEntity
  8
1
  6
Continuous
100
AcDbLine
 10
97.50000153760831
 20
196.4000018068467
 30
0.0
 11
97.50000153760831
 21
203.4000018068467
 31
0.0
  0
ARC
  5
552
330
18
100
AcDbEntity
  8
1
  6
Continuous
100
AcDbCircle
 10
83.32521253760829
 20
199.9000018068467
 30
0.0
 40
13.374785
100
AcDbArc
 50
342.4120459999998
 51
17.587954
  0
LINE
  5
553
330
18
100
AcDbEntity
  8
1
  6
Continuous
100
AcDbLine
 10
96.69999753760832
 20
192.9000018068467
 30
0.0
 11
96.69999753760832
 21
206.9000018068465
 31
0.0
  0
ARC
  5
554
330
18
100
AcDbEntity
  8
1
  6
Continuous
100
AcDbCircle
 10
98.90000953760832
 20
169.5555518068467
 30
0.0
 40
26.684652
100
AcDbArc
 50
70.39594
 51
89.99998999999998
  0
ARC
  5
555
330
18
100
AcDbEntity
  8
1
  6
Continuous
100
AcDbCircle
 10
98.89999453760836
 20
213.2962418068467
 30
0.0
 40
26.684652
100
AcDbArc
 50
270.0000039999998
 51
289.6040619999999
  0
ARC
  5
556
330
18
100
AcDbEntity
  8
1
  6
Continuous
100
AcDbCircle
 10
98.90000953760832
 20
167.4063818068467
 30
0.0
 40
26.684652
100
AcDbArc
 50
70.39594
 51
89.99998999999998
  0
ARC
  5
557
330
18
100
AcDbEntity
  8
1
  6
Continuous
100
AcDbCircle
 10
93.12184553760832
 20
193.8378238068467
 30
0.0
 40
3.578151999999998
100
AcDbArc
 50
334.384247
 51
34.38424699999997
  0
LINE
  5
558
330
18
100
AcDbEntity
  8
1
  6
Continuous
100
AcDbLine
 10
96.07478253760831
 20
191.8170978068467
 30
0.0
 11
96.69999753760832
 21
192.9000018068467
 31
0.0
  0
LINE
  5
559
330
18
100
AcDbEntity
  8
1
  6
Continuous
100
AcDbLine
 10
96.39999453760836
 20
186.6115818068467
 30
0.0
 11
98.90000953760832
 21
186.6115818068467
 31
0.0
  0
LINE
  5
55A
330
18
100
AcDbEntity
  8
1
  6
Continuous
100
AcDbLine
 10
96.69999753760832
 20
195.5999978068465
 30
0.0
 11
97.50000153760831
 21
196.4000018068467
 31
0.0
  0
LINE
  5
55B
330
18
100
AcDbEntity
  8
1
  6
Continuous
100
AcDbLine
 10
96.69999753760832
 20
194.0910218068467
 30
0.0
 11
98.89999453760836
 21
194.0910218068467
 31
0.0
  0
LINE
  5
55C
330
18
100
AcDbEntity
  8
1
  6
Continuous
100
AcDbLine
 10
97.34021153760835
 20
196.2402118068467
 30
0.0
 11
98.89999453760836
 21
196.2402118068467
 31
0.0
  0
ARC
  5
55D
330
18
100
AcDbEntity
  8
1
  6
Continuous
100
AcDbCircle
 10
107.0721615376083
 20
192.5004918068466
 30
0.0
 40
2.327846
100
AcDbArc
 50
0.000003
 51
70.39594
  0
ARC
  5
55E
330
18
100
AcDbEntity
  8
1
  6
Continuous
100
AcDbCircle
 10
107.0721615376083
 20
190.3513118068467
 30
0.0
 40
2.327846
100
AcDbArc
 50
289.6040619999999
 51
70.39594
  0
LINE
  5
55F
330
18
100
AcDbEntity
  8
1
  6
Continuous
100
AcDbLine
 10
109.4000115376082
 20
192.5004918068466
 30
0.0
 11
109.4000115376082
 21
190.3513118068467
 31
0.0
  0
LINE
  5
560
330
18
100
AcDbEntity
  8
1
  6
Continuous
100
AcDbLine
 10
97.50000153760831
 20
203.4000018068467
 30
0.0
 11
96.69999753760832
 21
204.2000058068466
 31
0.0
  0
LINE
  5
561
330
18
100
AcDbEntity
  8
1
  6
Continuous
100
AcDbLine
 10
96.07478253760831
 20
207.9829048068466
 30
0.0
 11
96.69999753760832
 21
206.9000018068465
 31
0.0
  0
ARC
  5
562
330
18
100
AcDbEntity
  8
1
  6
Continuous
100
AcDbCircle
 10
93.12184553760832
 20
205.9621788068467
 30
0.0
 40
3.578151999999998
100
AcDbArc
 50
325.6157529999998
 51
25.615753
  0
ARC
  5
563
330
18
100
AcDbEntity
  8
1
  6
Continuous
100
AcDbCircle
 10
260.9897015376083
 20
72.69999980684675
 30
0.0
 40
26.5
100
AcDbArc
 50
229.0006459999999
 51
54.69596899999999
  0
ARC
  5
564
330
18
100
AcDbEntity
  8
1
  6
Continuous
100
AcDbCircle
 10
260.9897015376083
 20
72.69999980684675
 30
0.0
 40
20.37840699999998
100
AcDbArc
 50
306.4287819999999
 51
53.57121799999998
  0
ARC
  5
565
330
18
100
AcDbEntity
  8
1
  6
Continuous
100
AcDbCircle
 10
260.9897015376083
 20
72.69999980684675
 30
0.0
 40
28.0
100
AcDbArc
 50
225.584691
 51
59.80128399999998
  0
ARC
  5
566
330
18
100
AcDbEntity
  8
1
  6
Continuous
100
AcDbCircle
 10
260.9897015376083
 20
72.69999980684675
 30
0.0
 40
29.1
100
AcDbArc
 50
231.405371
 51
56.624389
  0
ARC
  5
567
330
18
100
AcDbEntity
  8
1
  6
Continuous
100
AcDbCircle
 10
123.9897015376083
 20
72.69999980684675
 30
0.0
 40
150.0
100
AcDbArc
 50
353.577198
 51
6.422801999999999
  0
LINE
  5
568
330
18
100
AcDbEntity
  8
4
  6
CENTER
100
AcDbLine
 10
223.9897015376083
 20
112.9999998068467
 30
0.0
 11
223.9897015376083
 21
35.99999980684675
 31
0.0
  0
ARC
  5
569
330
18
100
AcDbEntity
  8
1
  6
Continuous
100
AcDbCircle
 10
323.9897015376083
 20
72.69999980684675
 30
0.0
 40
150.0
100
AcDbArc
 50
173.577198
 51
186.4228019999999
  0
ARC
  5
56A
330
18
100
AcDbEntity
  8
1
  6
Continuous
100
AcDbCircle
 10
260.9897015376083
 20
72.69999980684675
 30
0.0
 40
32.0
100
AcDbArc
 50
231.405371
 51
57.10028900000001
  0
LINE
  5
56B
330
18
100
AcDbEntity
  8
4
  6
CENTER
100
AcDbLine
 10
260.9897015376083
 20
35.70251780684673
 30
0.0
 11
260.9897015376083
 21
109.6999998068466
 31
0.0
  0
ARC
  5
56C
330
18
100
AcDbEntity
  8
1
  6
Continuous
100
AcDbCircle
 10
219.7397015376083
 20
54.27550680684674
 30
0.0
 40
12.275507
100
AcDbArc
 50
249.7438419999999
 51
290.256158
  0
LINE
  5
56D
330
18
100
AcDbEntity
  8
1
  6
Continuous
100
AcDbLine
 10
215.4897015376083
 20
41.99999980684674
 30
0.0
 11
232.4897015376082
 21
41.99999980684674
 31
0.0
  0
LINE
  5
56E
330
18
100
AcDbEntity
  8
1
  6
Continuous
100
AcDbLine
 10
237.2850605376083
 20
48.99999980684675
 30
0.0
 11
208.9897015376083
 21
48.99999980684675
 31
0.0
  0
LINE
  5
56F
330
18
100
AcDbEntity
  8
1
  6
Continuous
100
AcDbLine
 10
237.2850605376083
 20
51.89999980684675
 30
0.0
 11
208.9897015376083
 21
51.89999980684675
 31
0.0
  0
LINE
  5
570
330
18
100
AcDbEntity
  8
1
  6
Continuous
100
AcDbLine
 10
177.4154885376083
 20
53.69999980684674
 30
0.0
 11
270.5639145376083
 21
53.69999980684674
 31
0.0
  0
LINE
  5
571
330
18
100
AcDbEntity
  8
1
  6
Continuous
100
AcDbLine
 10
203.9897015376081
 20
52.69999980684676
 30
0.0
 11
243.9897015376083
 21
52.69999980684676
 31
0.0
  0
LINE
  5
572
330
18
100
AcDbEntity
  8
4
  6
CENTER
100
AcDbLine
 10
297.9897015376083
 20
72.69999980684675
 30
0.0
 11
169.9907105376083
 21
72.69999980684675
 31
0.0
  0
LINE
  5
573
330
18
100
AcDbEntity
  8
1
  6
Continuous
100
AcDbLine
 10
215.4897015376083
 20
41.99999980684674
 30
0.0
 11
215.4897015376083
 21
48.99999980684675
 31
0.0
  0
ARC
  5
574
330
18
100
AcDbEntity
  8
1
  6
Continuous
100
AcDbCircle
 10
177.4154885376083
 20
56.19999980684674
 30
0.0
 40
2.5
100
AcDbArc
 50
186.4228019999999
 51
270.0
  0
LINE
  5
575
330
18
100
AcDbEntity
  8
1
  6
Continuous
100
AcDbLine
 10
203.9897015376081
 20
52.69999980684676
 30
0.0
 11
199.9897015376082
 21
53.69999980684674
 31
0.0
  0
LINE
  5
576
330
18
100
AcDbEntity
  8
1
  6
Continuous
100
AcDbLine
 10
208.9897015376083
 20
48.99999980684675
 30
0.0
 11
208.9897015376083
 21
51.89999980684675
 31
0.0
  0
LINE
  5
577
330
18
100
AcDbEntity
  8
1
  6
Continuous
100
AcDbLine
 10
215.9897015376082
 20
51.89999980684675
 30
0.0
 11
215.9897015376082
 21
52.69999980684676
 31
0.0
  0
ARC
  5
578
330
18
100
AcDbEntity
  8
1
  6
Continuous
100
AcDbCircle
 10
260.9897015376083
 20
72.69999980684675
 30
0.0
 40
20.37840699999998
100
AcDbArc
 50
248.8056459999998
 51
291.1943539999998
  0
LINE
  5
579
330
18
100
AcDbEntity
  8
1
  6
Continuous
100
AcDbLine
 10
223.9897015376083
 20
48.99999980684675
 30
0.0
 11
223.9897015376083
 21
42.75918880684673
 31
0.0
  0
LINE
  5
57A
330
18
100
AcDbEntity
  8
1
  6
Continuous
100
AcDbLine
 10
232.4897015376082
 20
41.99999980684674
 30
0.0
 11
232.4897015376082
 21
48.99999980684675
 31
0.0
  0
ARC
  5
57B
330
18
100
AcDbEntity
  8
1
  6
Continuous
100
AcDbCircle
 10
237.2850605376083
 20
42.99999980684674
 30
0.0
 40
6.0
100
AcDbArc
 50
51.40537100000001
 51
90.0
  0
ARC
  5
57C
330
18
100
AcDbEntity
  8
1
  6
Continuous
100
AcDbCircle
 10
228.2397015376083
 20
54.27550680684674
 30
0.0
 40
12.275507
100
AcDbArc
 50
249.7438419999999
 51
290.256158
  0
LINE
  5
57D
330
18
100
AcDbEntity
  8
1
  6
Continuous
100
AcDbLine
 10
231.9897015376083
 20
51.89999980684675
 30
0.0
 11
231.9897015376083
 21
52.69999980684676
 31
0.0
  0
ARC
  5
57E
330
18
100
AcDbEntity
  8
1
  6
Continuous
100
AcDbCircle
 10
237.2850605376083
 20
42.99999980684674
 30
0.0
 40
8.9
100
AcDbArc
 50
51.40537100000001
 51
90.0
  0
LINE
  5
57F
330
18
100
AcDbEntity
  8
1
  6
Continuous
100
AcDbLine
 10
243.9897015376083
 20
52.69999980684676
 30
0.0
 11
247.9897015376083
 21
53.69999980684674
 31
0.0
  0
ARC
  5
580
330
18
100
AcDbEntity
  8
1
  6
Continuous
100
AcDbCircle
 10
270.5639145376083
 20
56.19999980684674
 30
0.0
 40
2.5
100
AcDbArc
 50
270.0
 51
353.577198
  0
ARC
  5
581
330
18
100
AcDbEntity
  8
1
  6
Continuous
100
AcDbCircle
 10
223.9897015376083
 20
199.9000018068467
 30
0.0
 40
36.5
100
AcDbArc
 50
198.735709
 51
305.902375
  0
ARC
  5
582
330
18
100
AcDbEntity
  8
1
  6
Continuous
100
AcDbCircle
 10
223.9897015376083
 20
199.9000018068467
 30
0.0
 40
50.0
100
AcDbArc
 50
199.299431
 51
324.676082
  0
LINE
  5
583
330
18
100
AcDbEntity
  8
1
  6
Continuous
100
AcDbLine
 10
226.7543215376082
 20
101.1999998068467
 30
0.0
 11
214.9897015376083
 21
101.1999998068467
 31
0.0
  0
ARC
  5
584
330
18
100
AcDbEntity
  8
1
  6
Continuous
100
AcDbCircle
 10
220.4897015376081
 20
111.3092408068466
 30
0.0
 40
10.109241
100
AcDbArc
 50
249.7438419999999
 51
290.256158
  0
LINE
  5
585
330
18
100
AcDbEntity
  8
1
  6
Continuous
100
AcDbLine
 10
230.9897015376081
 20
107.1999998068467
 30
0.0
 11
216.9897015376083
 21
107.1999998068467
 31
0.0
  0
ARC
  5
586
330
18
100
AcDbEntity
  8
1
  6
Continuous
100
AcDbCircle
 10
220.4897015376081
 20
97.09075880684677
 30
0.0
 40
10.109241
100
AcDbArc
 50
69.743842
 51
110.2561579999999
  0
LINE
  5
587
330
18
100
AcDbEntity
  8
1
  6
Continuous
100
AcDbLine
 10
216.9897015376083
 20
195.8585498068467
 30
0.0
 11
223.9897015376083
 21
191.8170978068467
 31
0.0
  0
CIRCLE
  5
588
330
18
100
AcDbEntity
  8
1
  6
Continuous
100
AcDbCircle
 10
223.9897015376083
 20
199.9000018068467
 30
0.0
 40
7.0
  0
LINE
  5
589
330
18
100
AcDbEntity
  8
1
  6
Continuous
100
AcDbLine
 10
223.9897015376083
 20
207.9829048068466
 30
0.0
 11
216.9897015376083
 21
203.9414528068467
 31
0.0
  0
CIRCLE
  5
58A
330
18
100
AcDbEntity
  8
1
  6
Continuous
100
AcDbCircle
 10
223.9897015376083
 20
199.9000018068467
 30
0.0
 40
9.0
  0
ARC
  5
58B
330
18
100
AcDbEntity
  8
5
  6
PHANTOM
100
AcDbCircle
 10
222.2405205376082
 20
193.6246178068465
 30
0.0
 40
20.0
100
AcDbArc
 50
86.42184300000002
 51
113.0037509999997
  0
LINE
  5
58C
330
18
100
AcDbEntity
  8
1
  6
Continuous
100
AcDbLine
 10
213.9531565376083
 20
216.1507068068466
 30
0.0
 11
221.7732615376083
 21
215.1910398068466
 31
0.0
  0
ARC
  5
58D
330
18
100
AcDbEntity
  8
1
  6
Continuous
100
AcDbCircle
 10
223.9897015376083
 20
199.9000018068467
 30
0.0
 40
17.0
100
AcDbArc
 50
222.9550099999999
 51
251.6871099999999
  0
ARC
  5
58E
330
18
100
AcDbEntity
  8
1
  6
Continuous
100
AcDbCircle
 10
244.8884505376083
 20
202.6794588068467
 30
0.0
 40
32.349033
100
AcDbArc
 50
215.7905599999999
 51
292.4235799999999
  0
ARC
  5
58F
330
18
100
AcDbEntity
  8
1
  6
Continuous
100
AcDbCircle
 10
231.3797005376082
 20
497.1579198068464
 30
0.0
 40
404.82867
100
AcDbArc
 50
261.3601399999998
 51
276.4491599999999
  0
ARC
  5
590
330
18
100
AcDbEntity
  8
1
  6
Continuous
100
AcDbCircle
 10
231.3797005376082
 20
497.1579198068464
 30
0.0
 40
405.32867
100
AcDbArc
 50
261.3601399999998
 51
276.4491599999999
  0
LINE
  5
591
330
18
100
AcDbEntity
  8
1
  6
Continuous
100
AcDbLine
 10
185.9223965376083
 20
96.90000980684674
 30
0.0
 11
238.1558245376082
 21
96.90000980684674
 31
0.0
  0
LINE
  5
592
330
18
100
AcDbEntity
  8
1
  6
Continuous
100
AcDbLine
 10
202.8319425376082
 20
99.19999980684679
 30
0.0
 11
222.5077985376083
 21
99.19999980684679
 31
0.0
  0
LINE
  5
593
330
18
100
AcDbEntity
  8
1
  6
Continuous
100
AcDbLine
 10
201.0877565376083
 20
192.9673928068466
 30
0.0
 11
225.0447835376082
 21
182.3134398068466
 31
0.0
  0
LINE
  5
594
330
18
100
AcDbEntity
  8
5
  6
PHANTOM
100
AcDbLine
 10
207.6223395376083
 20
182.4452138068465
 30
0.0
 11
233.6967095376082
 21
185.1971328068465
 31
0.0
  0
ARC
  5
595
330
18
100
AcDbEntity
  8
1
  6
Continuous
100
AcDbCircle
 10
223.9897015376083
 20
199.9000018068467
 30
0.0
 40
24.0
100
AcDbArc
 50
196.6716639999999
 51
276.104757
  0
LINE
  5
596
330
18
100
AcDbEntity
  8
1
  6
Continuous
100
AcDbLine
 10
270.5639145376083
 20
91.69999980684677
 30
0.0
 11
177.4154885376083
 21
91.69999980684677
 31
0.0
  0
LINE
  5
597
330
18
100
AcDbEntity
  8
4
  6
CENTER
100
AcDbLine
 10
278.9897015376083
 20
199.9000018068467
 30
0.0
 11
168.9897015376083
 21
199.9000018068467
 31
0.0
  0
ARC
  5
598
330
18
100
AcDbEntity
  8
1
  6
Continuous
100
AcDbCircle
 10
223.9897015376083
 20
199.9000018068467
 30
0.0
 40
20.0
100
AcDbArc
 50
207.4710689999998
 51
263.718367
  0
ARC
  5
599
330
18
100
AcDbEntity
  8
1
  6
Continuous
100
AcDbCircle
 10
182.4254445376083
 20
109.3999998068467
 30
0.0
 40
11.028413
100
AcDbArc
 50
0.0
 51
43.058438
  0
ARC
  5
59A
330
18
100
AcDbEntity
  8
1
  6
Continuous
100
AcDbCircle
 10
183.2446125376083
 20
109.3999998068467
 30
0.0
 40
11.028413
100
AcDbArc
 50
0.0
 51
43.058438
  0
ARC
  5
59B
330
18
100
AcDbEntity
  8
1
  6
Continuous
100
AcDbCircle
 10
184.8593785376082
 20
109.3999998068467
 30
0.0
 40
11.028413
100
AcDbArc
 50
136.94156
 51
180.00001
  0
LINE
  5
59C
330
18
100
AcDbEntity
  8
1
  6
Continuous
100
AcDbLine
 10
202.8319395376081
 20
96.90000980684674
 30
0.0
 11
185.2592435376083
 21
99.42831180684677
 31
0.0
  0
LINE
  5
59D
330
18
100
AcDbEntity
  8
1
  6
Continuous
100
AcDbLine
 10
202.8319425376082
 20
99.19999980684679
 30
0.0
 11
184.1512785376082
 21
100.9771398068466
 31
0.0
  0
ARC
  5
59E
330
18
100
AcDbEntity
  8
1
  6
Continuous
100
AcDbCircle
 10
174.2131345376083
 20
96.90000980684674
 30
0.0
 40
5.0
100
AcDbArc
 50
84.565672
 51
152.613177
  0
ARC
  5
59F
330
18
100
AcDbEntity
  8
1
  6
Continuous
100
AcDbCircle
 10
174.6725155376081
 20
95.90000980684674
 30
0.0
 40
5.0
100
AcDbArc
 50
87.57737799999999
 51
168.4630399999998
  0
ARC
  5
5A0
330
18
100
AcDbEntity
  8
1
  6
Continuous
100
AcDbCircle
 10
179.5564625376083
 20
96.51949680684673
 30
0.0
 40
6.40179
100
AcDbArc
 50
1.545432999999996
 51
168.165933
  0
ARC
  5
5A1
330
18
100
AcDbEntity
  8
1
  6
Continuous
100
AcDbCircle
 10
177.4154885376083
 20
89.1999998068467
 30
0.0
 40
2.5
100
AcDbArc
 50
90.0
 51
173.577198
  0
ARC
  5
5A2
330
18
100
AcDbEntity
  8
1
  6
Continuous
100
AcDbCircle
 10
171.6957695376082
 20
98.42541380684679
 30
0.0
 40
1.701662999999999
100
AcDbArc
 50
275.1025799999998
 51
339.60302
  0
LINE
  5
5A3
330
18
100
AcDbEntity
  8
1
  6
Continuous
100
AcDbLine
 10
169.7735285376083
 20
96.90000980684674
 30
0.0
 11
169.7735285376083
 21
99.19998780684679
 31
0.0
  0
LINE
  5
5A4
330
18
100
AcDbEntity
  8
1
  6
Continuous
100
AcDbLine
 10
170.4899205376082
 20
96.42887980684676
 30
0.0
 11
170.5650325376083
 21
96.92319980684674
 31
0.0
  0
LINE
  5
5A5
330
18
100
AcDbEntity
  8
1
  6
Continuous
100
AcDbLine
 10
169.7735285376083
 20
96.90000980684674
 30
0.0
 11
172.4499575376082
 21
96.90000980684674
 31
0.0
  0
ARC
  5
5A6
330
18
100
AcDbEntity
  8
1
  6
Continuous
100
AcDbCircle
 10
187.9558745376083
 20
96.67658980684677
 30
0.0
 40
2.0
100
AcDbArc
 50
179.5542
 51
263.81166
  0
LINE
  5
5A7
330
18
100
AcDbEntity
  8
1
  6
Continuous
100
AcDbLine
 10
173.8309625376081
 20
101.8853798068467
 30
0.0
 11
173.8309625376081
 21
109.3999998068467
 31
0.0
  0
LINE
  5
5A8
330
18
100
AcDbEntity
  8
1
  6
Continuous
100
AcDbLine
 10
175.8845825376082
 20
101.7635618068465
 30
0.0
 11
174.6866525376083
 21
101.8775298068466
 31
0.0
  0
LINE
  5
5A9
330
18
100
AcDbEntity
  8
1
  6
Continuous
100
AcDbLine
 10
193.4538605376083
 20
100.0921698068466
 30
0.0
 11
193.4538605376083
 21
109.3999998068467
 31
0.0
  0
LINE
  5
5AA
330
18
100
AcDbEntity
  8
1
  6
Continuous
100
AcDbLine
 10
214.9897015376083
 20
99.19999980684679
 30
0.0
 11
214.9897015376083
 21
101.1999998068467
 31
0.0
  0
LINE
  5
5AB
330
18
100
AcDbEntity
  8
1
  6
Continuous
100
AcDbLine
 10
203.9897015376081
 20
92.69999980684678
 30
0.0
 11
199.9897015376082
 21
91.69999980684677
 31
0.0
  0
LINE
  5
5AC
330
18
100
AcDbEntity
  8
1
  6
Continuous
100
AcDbLine
 10
203.9897015376081
 20
92.69999980684678
 30
0.0
 11
204.8255735376082
 21
92.69999980684678
 31
0.0
  0
ARC
  5
5AD
330
18
100
AcDbEntity
  8
1
  6
Continuous
100
AcDbCircle
 10
209.2020055376082
 20
96.29738680684674
 30
0.0
 40
0.704272
100
AcDbArc
 50
58.83354399999998
 51
148.2687959999998
  0
LINE
  5
5AE
330
18
100
AcDbEntity
  8
1
  6
Continuous
100
AcDbLine
 10
207.8080515376082
 20
93.80748980684677
 30
0.0
 11
208.6030035376082
 21
96.66777980684678
 31
0.0
  0
ARC
  5
5AF
330
18
100
AcDbEntity
  8
1
  6
Continuous
100
AcDbCircle
 10
206.8445695376082
 20
94.07527980684674
 30
0.0
 40
1.0
100
AcDbArc
 50
266.5167799999999
 51
344.4678799999999
  0
LINE
  5
5B0
330
18
100
AcDbEntity
  8
1
  6
Continuous
100
AcDbLine
 10
194.2730285376083
 20
100.0142398068467
 30
0.0
 11
194.2730285376083
 21
109.3999998068467
 31
0.0
  0
LINE
  5
5B1
330
18
100
AcDbEntity
  8
1
  6
Continuous
100
AcDbLine
 10
216.9897015376083
 20
101.1999998068467
 30
0.0
 11
216.9897015376083
 21
107.1999998068467
 31
0.0
  0
ARC
  5
5B2
330
18
100
AcDbEntity
  8
1
  6
Continuous
100
AcDbCircle
 10
183.6424095376083
 20
110.5371598068467
 30
0.0
 40
9.362842
100
AcDbArc
 50
43.058438
 51
136.94156
  0
ARC
  5
5B3
330
18
100
AcDbEntity
  8
1
  6
Continuous
100
AcDbCircle
 10
184.4615775376083
 20
110.5371598068467
 30
0.0
 40
9.362842
100
AcDbArc
 50
43.058438
 51
92.50726899999998
  0
ARC
  5
5B4
330
18
100
AcDbEntity
  8
1
  6
Continuous
100
AcDbCircle
 10
175.4370915376082
 20
213.4099958068466
 30
0.0
 40
6.037079999999997
100
AcDbArc
 50
159.67799
 51
242.0525899999999
  0
LINE
  5
5B5
330
18
100
AcDbEntity
  8
5
  6
PHANTOM
100
AcDbLine
 10
167.0629125376083
 20
199.8209718068467
 30
0.0
 11
169.2357245376083
 21
186.3088338068467
 31
0.0
  0
ARC
  5
5B6
330
18
100
AcDbEntity
  8
5
  6
PHANTOM
100
AcDbCircle
 10
175.1869105376083
 20
187.3236948068466
 30
0.0
 40
6.037079999999997
100
AcDbArc
 50
189.6779899999999
 51
272.05259
  0
LINE
  5
5B7
330
18
100
AcDbEntity
  8
5
  6
PHANTOM
100
AcDbLine
 10
167.0629125376083
 20
199.8209718068467
 30
0.0
 11
187.7965515376082
 21
203.1550288068467
 31
0.0
  0
LINE
  5
5B8
330
18
100
AcDbEntity
  8
5
  6
PHANTOM
100
AcDbLine
 10
167.4280685376082
 20
197.5501368068467
 30
0.0
 11
188.1617125376083
 21
200.8841998068467
 31
0.0
  0
ARC
  5
5B9
330
18
100
AcDbEntity
  8
5
  6
PHANTOM
100
AcDbCircle
 10
174.4687105376083
 20
189.5218158068465
 30
0.0
 40
6.14064
100
AcDbArc
 50
211.54934
 51
268.38712
  0
LINE
  5
5BA
330
18
100
AcDbEntity
  8
5
  6
PHANTOM
100
AcDbLine
 10
169.2357235376083
 20
186.3088358068467
 30
0.0
 11
207.6223435376083
 21
182.4452208068467
 31
0.0
  0
ARC
  5
5BB
330
18
100
AcDbEntity
  8
1
  6
Continuous
100
AcDbCircle
 10
180.4899135376081
 20
192.6688768068467
 30
0.0
 40
10.0
100
AcDbArc
 50
181.43584
 51
1.435839999999998
  0
LINE
  5
5BC
330
18
100
AcDbEntity
  8
5
  6
PHANTOM
100
AcDbLine
 10
207.6223395376083
 20
182.4452148068466
 30
0.0
 11
175.4031385376082
 21
181.2904848068466
 31
0.0
  0
LINE
  5
5BD
330
18
100
AcDbEntity
  8
5
  6
PHANTOM
100
AcDbLine
 10
207.6223355376081
 20
182.4452128068467
 30
0.0
 11
174.2958725376083
 21
183.3836038068466
 31
0.0
  0
LINE
  5
5BE
330
18
100
AcDbEntity
  8
1
  6
Continuous
100
AcDbLine
 10
193.4538525376082
 20
218.6663408068466
 30
0.0
 11
205.1401135376082
 21
217.2322268068466
 31
0.0
  0
LINE
  5
5BF
330
18
100
AcDbEntity
  8
5
  6
PHANTOM
100
AcDbLine
 10
188.1617105376081
 20
200.8842038068467
 30
0.0
 11
198.9993665376082
 21
205.4853548068466
 31
0.0
  0
LINE
  5
5C0
330
18
100
AcDbEntity
  8
1
  6
Continuous
100
AcDbLine
 10
201.0877565376083
 20
192.9673938068466
 30
0.0
 11
172.6077455376083
 21
208.0769688068466
 31
0.0
  0
LINE
  5
5C1
330
18
100
AcDbEntity
  8
1
  6
Continuous
100
AcDbLine
 10
201.0877525376082
 20
192.9673938068466
 30
0.0
 11
172.6953845376083
 21
210.4432958068467
 31
0.0
  0
LINE
  5
5C2
330
18
100
AcDbEntity
  8
1
  6
Continuous
100
AcDbLine
 10
169.775782537608
 20
215.5066958068467
 30
0.0
 11
201.0877635376083
 21
192.9673968068465
 31
0.0
  0
LINE
  5
5C3
330
18
100
AcDbEntity
  8
5
  6
PHANTOM
100
AcDbLine
 10
187.7965515376082
 20
203.1550288068467
 30
0.0
 11
188.1617125376083
 21
200.8841998068467
 31
0.0
  0
ARC
  5
5C4
330
18
100
AcDbEntity
  8
1
  6
Continuous
100
AcDbCircle
 10
202.8319385376083
 20
193.2288888068466
 30
0.0
 40
32.349033
100
AcDbArc
 50
153.90986
 51
181.43583
  0
CIRCLE
  5
5C5
330
18
100
AcDbEntity
  8
1
  6
Continuous
100
AcDbCircle
 10
180.4899135376081
 20
192.6688768068467
 30
0.0
 40
7.5
  0
ARC
  5
5C6
330
18
100
AcDbEntity
  8
1
  6
Continuous
100
AcDbCircle
 10
202.8319385376083
 20
193.2288888068466
 30
0.0
 40
12.349034
100
AcDbArc
 50
156.9228299999998
 51
181.43583
  0
ARC
  5
5C7
330
18
100
AcDbEntity
  8
1
  6
Continuous
100
AcDbCircle
 10
175.9141725376083
 20
215.6727248068467
 30
0.0
 40
6.14064
100
AcDbArc
 50
181.54934
 51
238.38712
  0
LINE
  5
5C8
330
18
100
AcDbEntity
  8
1
  6
Continuous
100
AcDbLine
 10
216.9897015376083
 20
195.8585498068467
 30
0.0
 11
216.9897015376083
 21
203.9414528068467
 31
0.0
  0
LINE
  5
5C9
330
18
100
AcDbEntity
  8
5
  6
PHANTOM
100
AcDbLine
 10
199.6097725376082
 20
207.9030298068465
 30
0.0
 11
206.1445985376083
 21
210.6774038068466
 31
0.0
  0
LINE
  5
5CA
330
18
100
AcDbEntity
  8
1
  6
Continuous
100
AcDbLine
 10
206.8775745376083
 20
219.0207928068467
 30
0.0
 11
205.1401095376083
 21
217.2322228068467
 31
0.0
  0
LINE
  5
5CB
330
18
100
AcDbEntity
  8
5
  6
PHANTOM
100
AcDbLine
 10
199.6097685376083
 20
207.9030288068466
 30
0.0
 11
198.9993655376082
 21
205.4853498068467
 31
0.0
  0
LINE
  5
5CC
330
18
100
AcDbEntity
  8
5
  6
PHANTOM
100
AcDbLine
 10
207.1724455376082
 20
208.9552528068467
 30
0.0
 11
214.4246885376082
 21
212.0342088068465
 31
0.0
  0
LINE
  5
5CD
330
18
100
AcDbEntity
  8
5
  6
PHANTOM
100
AcDbLine
 10
206.1445975376082
 20
210.6774028068466
 30
0.0
 11
207.1724425376082
 21
208.9552458068467
 31
0.0
  0
LINE
  5
5CE
330
18
100
AcDbEntity
  8
1
  6
Continuous
100
AcDbLine
 10
206.8775775376083
 20
219.0207918068467
 30
0.0
 11
213.9240905376082
 21
218.1560568068465
 31
0.0
  0
LINE
  5
5CF
330
18
100
AcDbEntity
  8
1
  6
Continuous
100
AcDbLine
 10
213.9240885376083
 20
218.1560568068465
 30
0.0
 11
213.9531505376083
 21
216.1507028068467
 31
0.0
  0
ARC
  5
5D0
330
18
100
AcDbEntity
  8
1
  6
Continuous
100
AcDbCircle
 10
268.5597015376083
 20
110.5371598068467
 30
0.0
 40
9.362842
100
AcDbArc
 50
43.058438
 51
92.50726899999998
  0
ARC
  5
5D1
330
18
100
AcDbEntity
  8
1
  6
Continuous
100
AcDbCircle
 10
267.7405215376083
 20
110.5371598068467
 30
0.0
 40
9.362842
100
AcDbArc
 50
43.058438
 51
136.94156
  0
LINE
  5
5D2
330
18
100
AcDbEntity
  8
1
  6
Continuous
100
AcDbLine
 10
249.6260545376082
 20
96.90000980684674
 30
0.0
 11
276.3711485376083
 21
96.90000980684674
 31
0.0
  0
LINE
  5
5D3
330
18
100
AcDbEntity
  8
1
  6
Continuous
100
AcDbLine
 10
249.6260545376082
 20
99.19999980684679
 30
0.0
 11
276.5519685376081
 21
99.19999980684679
 31
0.0
  0
ARC
  5
5D4
330
18
100
AcDbEntity
  8
1
  6
Continuous
100
AcDbCircle
 10
260.9897015376083
 20
72.69999980684675
 30
0.0
 40
20.37840699999998
100
AcDbArc
 50
68.80564599999999
 51
85.81200200000003
  0
ARC
  5
5D5
330
18
100
AcDbEntity
  8
1
  6
Continuous
100
AcDbCircle
 10
268.9574865376083
 20
109.3999998068467
 30
0.0
 40
11.028413
100
AcDbArc
 50
136.94156
 51
180.00001
  0
ARC
  5
5D6
330
18
100
AcDbEntity
  8
1
  6
Continuous
100
AcDbCircle
 10
260.9897015376083
 20
72.69999980684675
 30
0.0
 40
28.0
100
AcDbArc
 50
118.3122919999999
 51
132.58105
  0
ARC
  5
5D7
330
18
100
AcDbEntity
  8
1
  6
Continuous
100
AcDbCircle
 10
260.9897015376083
 20
72.69999980684675
 30
0.0
 40
29.1
100
AcDbArc
 50
119.41108
 51
128.594629
  0
ARC
  5
5D8
330
18
100
AcDbEntity
  8
1
  6
Continuous
100
AcDbCircle
 10
260.9897015376083
 20
72.69999980684675
 30
0.0
 40
32.0
100
AcDbArc
 50
119.54651
 51
127.7320989999998
  0
LINE
  5
5D9
330
18
100
AcDbEntity
  8
1
  6
Continuous
100
AcDbLine
 10
242.4239945376083
 20
92.69999980684678
 30
0.0
 11
243.9897015376083
 21
92.69999980684678
 31
0.0
  0
ARC
  5
5DA
330
18
100
AcDbEntity
  8
1
  6
Continuous
100
AcDbCircle
 10
242.7453625376081
 20
103.5857098068466
 30
0.0
 40
1.0
100
AcDbArc
 50
24.177813
 51
91.96224100000002
  0
ARC
  5
5DB
330
18
100
AcDbEntity
  8
1
  6
Continuous
100
AcDbCircle
 10
251.3132575376081
 20
79.21555980684671
 30
0.0
 40
25.384462
100
AcDbArc
 50
107.0154399999999
 51
130.1451
  0
ARC
  5
5DC
330
18
100
AcDbEntity
  8
1
  6
Continuous
100
AcDbCircle
 10
243.5803085376082
 20
79.21555980684671
 30
0.0
 40
27.684462
100
AcDbArc
 50
90.00000300000001
 51
130.1451
  0
ARC
  5
5DD
330
18
100
AcDbEntity
  8
1
  6
Continuous
100
AcDbCircle
 10
222.5077985376083
 20
104.1999998068467
 30
0.0
 40
5.0
100
AcDbArc
 50
270.0
 51
310.1451099999998
  0
ARC
  5
5DE
330
18
100
AcDbEntity
  8
1
  6
Continuous
100
AcDbCircle
 10
243.5803085376082
 20
79.21555980684671
 30
0.0
 40
25.384462
100
AcDbArc
 50
91.96224100000002
 51
130.1451
  0
ARC
  5
5DF
330
18
100
AcDbEntity
  8
1
  6
Continuous
100
AcDbCircle
 10
230.2407395376083
 20
104.1999998068467
 30
0.0
 40
7.299999999999998
100
AcDbArc
 50
270.0
 51
310.1451099999998
  0
ARC
  5
5E0
330
18
100
AcDbEntity
  8
1
  6
Continuous
100
AcDbCircle
 10
222.5077985376083
 20
104.1999998068467
 30
0.0
 40
7.299999999999998
100
AcDbArc
 50
270.0
 51
310.1451099999998
  0
ARC
  5
5E1
330
18
100
AcDbEntity
  8
1
  6
Continuous
100
AcDbCircle
 10
241.4611145376082
 20
97.00966980684677
 30
0.0
 40
1.0
100
AcDbArc
 50
353.6598099999998
 51
114.4752899999999
  0
ARC
  5
5E2
330
18
100
AcDbEntity
  8
1
  6
Continuous
100
AcDbCircle
 10
238.1558245376082
 20
99.89999980684677
 30
0.0
 40
3.0
100
AcDbArc
 50
270.0
 51
294.4752899999998
  0
LINE
  5
5E3
330
18
100
AcDbEntity
  8
1
  6
Continuous
100
AcDbLine
 10
242.0337185376082
 20
93.60768980684676
 30
0.0
 11
242.4550005376083
 21
96.89922980684677
 31
0.0
  0
LINE
  5
5E4
330
18
100
AcDbEntity
  8
1
  6
Continuous
100
AcDbLine
 10
241.0468125376083
 20
97.91980980684677
 30
0.0
 11
239.3987245376083
 21
97.16959980684677
 31
0.0
  0
ARC
  5
5E5
330
18
100
AcDbEntity
  8
1
  6
Continuous
100
AcDbCircle
 10
243.0276045376082
 20
93.49727980684674
 30
0.0
 40
1.0
100
AcDbArc
 50
173.6598099999999
 51
271.6528499999999
  0
ARC
  5
5E6
330
18
100
AcDbEntity
  8
1
  6
Continuous
100
AcDbCircle
 10
237.2850605376083
 20
102.3999998068467
 30
0.0
 40
8.9
100
AcDbArc
 50
303.6000869999998
 51
308.5946289999998
  0
ARC
  5
5E7
330
18
100
AcDbEntity
  8
1
  6
Continuous
100
AcDbCircle
 10
227.4897015376083
 20
97.09075880684677
 30
0.0
 40
10.109241
100
AcDbArc
 50
69.743842
 51
110.2561579999999
  0
LINE
  5
5E8
330
18
100
AcDbEntity
  8
1
  6
Continuous
100
AcDbLine
 10
219.6897015376082
 20
107.1999998068467
 30
0.0
 11
220.4897015376081
 21
107.9999998068467
 31
0.0
  0
LINE
  5
5E9
330
18
100
AcDbEntity
  8
1
  6
Continuous
100
AcDbLine
 10
228.2897015376083
 20
107.1999998068467
 30
0.0
 11
227.4897015376083
 21
107.9999998068467
 31
0.0
  0
ARC
  5
5EA
330
18
100
AcDbEntity
  8
1
  6
Continuous
100
AcDbCircle
 10
227.4897015376083
 20
111.3092408068466
 30
0.0
 40
10.109241
100
AcDbArc
 50
249.7438419999999
 51
266.0105629999998
  0
LINE
  5
5EB
330
18
100
AcDbEntity
  8
1
  6
Continuous
100
AcDbLine
 10
223.9897015376083
 20
101.8252148068466
 30
0.0
 11
223.9897015376083
 21
106.5747848068467
 31
0.0
  0
LINE
  5
5EC
330
18
100
AcDbEntity
  8
1
  6
Continuous
100
AcDbLine
 10
220.4897015376081
 20
107.9999998068467
 30
0.0
 11
227.4897015376083
 21
107.9999998068467
 31
0.0
  0
LINE
  5
5ED
330
18
100
AcDbEntity
  8
1
  6
Continuous
100
AcDbLine
 10
230.9897015376081
 20
103.8713108068466
 30
0.0
 11
230.9897015376081
 21
107.1999998068467
 31
0.0
  0
ARC
  5
5EE
330
18
100
AcDbEntity
  8
1
  6
Continuous
100
AcDbCircle
 10
257.3590035376082
 20
101.1999998068467
 30
0.0
 40
2.0
100
AcDbArc
 50
204.17781
 51
270.0
  0
ARC
  5
5EF
330
18
100
AcDbEntity
  8
1
  6
Continuous
100
AcDbCircle
 10
256.9290795376083
 20
100.1999998068467
 30
0.0
 40
1.0
100
AcDbArc
 50
270.0
 51
0.0
  0
ARC
  5
5F0
330
18
100
AcDbEntity
  8
1
  6
Continuous
100
AcDbCircle
 10
249.6260545376082
 20
101.1999998068467
 30
0.0
 40
2.0
100
AcDbArc
 50
204.17781
 51
270.0
  0
ARC
  5
5F1
330
18
100
AcDbEntity
  8
1
  6
Continuous
100
AcDbCircle
 10
249.6260545376082
 20
101.1999998068467
 30
0.0
 40
4.299999999999998
100
AcDbArc
 50
204.17781
 51
270.0
  0
ARC
  5
5F2
330
18
100
AcDbEntity
  8
1
  6
Continuous
100
AcDbCircle
 10
260.9897015376083
 20
72.69999980684675
 30
0.0
 40
20.37840699999998
100
AcDbArc
 50
102.1689259999999
 51
111.194354
  0
ARC
  5
5F3
330
18
100
AcDbEntity
  8
1
  6
Continuous
100
AcDbCircle
 10
260.9897015376083
 20
72.69999980684675
 30
0.0
 40
26.5
100
AcDbArc
 50
114.0475029999999
 51
130.999354
  0
LINE
  5
5F4
330
18
100
AcDbEntity
  8
1
  6
Continuous
100
AcDbLine
 10
246.3643795376082
 20
92.10633080684678
 30
0.0
 11
247.9897015376083
 21
91.69999980684677
 31
0.0
  0
LINE
  5
5F5
330
18
100
AcDbEntity
  8
1
  6
Continuous
100
AcDbLine
 10
243.9897015376083
 20
92.69999980684678
 30
0.0
 11
244.6079705376082
 21
92.54543280684677
 31
0.0
  0
ARC
  5
5F6
330
18
100
AcDbEntity
  8
1
  6
Continuous
100
AcDbCircle
 10
267.9422735376083
 20
93.90614980684672
 30
0.0
 40
7.5
100
AcDbArc
 50
156.4729899999998
 51
171.89373
  0
ARC
  5
5F7
330
18
100
AcDbEntity
  8
1
  6
Continuous
100
AcDbCircle
 10
258.5371955376082
 20
95.24573980684673
 30
0.0
 40
2.0
100
AcDbArc
 50
273.8656399999999
 51
351.89373
  0
ARC
  5
5F8
330
18
100
AcDbEntity
  8
1
  6
Continuous
100
AcDbCircle
 10
260.9897015376083
 20
72.69999980684675
 30
0.0
 40
32.0
100
AcDbArc
 50
95.48841299999997
 51
102.7129599999998
  0
ARC
  5
5F9
330
18
100
AcDbEntity
  8
1
  6
Continuous
100
AcDbCircle
 10
260.9897015376083
 20
72.69999980684675
 30
0.0
 40
28.0
100
AcDbArc
 50
96.27542300000001
 51
101.0218439999997
  0
ARC
  5
5FA
330
18
100
AcDbEntity
  8
1
  6
Continuous
100
AcDbCircle
 10
260.9897015376083
 20
72.69999980684675
 30
0.0
 40
29.1
100
AcDbArc
 50
96.03730800000001
 51
101.5524529999999
  0
LINE
  5
5FB
330
18
100
AcDbEntity
  8
1
  6
Continuous
100
AcDbLine
 10
243.5803085376082
 20
106.8999998068467
 30
0.0
 11
251.3132575376081
 21
106.8999998068467
 31
0.0
  0
ARC
  5
5FC
330
18
100
AcDbEntity
  8
1
  6
Continuous
100
AcDbCircle
 10
243.5803085376082
 20
104.8999998068467
 30
0.0
 40
2.0
100
AcDbArc
 50
24.177813
 51
90.00000300000001
  0
LINE
  5
5FD
330
18
100
AcDbEntity
  8
1
  6
Continuous
100
AcDbLine
 10
245.7032665376082
 20
99.43885980684674
 30
0.0
 11
243.6576485376083
 21
103.9952898068467
 31
0.0
  0
LINE
  5
5FE
330
18
100
AcDbEntity
  8
1
  6
Continuous
100
AcDbLine
 10
247.8014965376082
 20
100.3808598068466
 30
0.0
 11
245.4048665376083
 21
105.7191398068467
 31
0.0
  0
ARC
  5
5FF
330
18
100
AcDbEntity
  8
1
  6
Continuous
100
AcDbCircle
 10
251.3132575376081
 20
104.8999998068467
 30
0.0
 40
2.0
100
AcDbArc
 50
24.177813
 51
90.00000300000001
  0
LINE
  5
600
330
18
100
AcDbEntity
  8
1
  6
Continuous
100
AcDbLine
 10
255.5344535376082
 20
100.3808598068466
 30
0.0
 11
253.1378185376082
 21
105.7191398068467
 31
0.0
  0
LINE
  5
601
330
18
100
AcDbEntity
  8
1
  6
Continuous
100
AcDbLine
 10
257.9290795376083
 20
100.1999998068467
 30
0.0
 11
257.9290795376083
 21
109.3999998068467
 31
0.0
  0
ARC
  5
602
330
18
100
AcDbEntity
  8
1
  6
Continuous
100
AcDbCircle
 10
266.5235605376082
 20
109.3999998068467
 30
0.0
 40
11.028413
100
AcDbArc
 50
0.0
 51
43.058438
  0
ARC
  5
603
330
18
100
AcDbEntity
  8
1
  6
Continuous
100
AcDbCircle
 10
267.3427365376083
 20
109.3999998068467
 30
0.0
 40
11.028413
100
AcDbArc
 50
0.0
 51
43.058438
  0
ARC
  5
604
330
18
100
AcDbEntity
  8
1
  6
Continuous
100
AcDbCircle
 10
276.5519685376081
 20
100.1999998068467
 30
0.0
 40
1.0
100
AcDbArc
 50
270.0
 51
0.0
  0
LINE
  5
605
330
18
100
AcDbEntity
  8
1
  6
Continuous
100
AcDbLine
 10
278.3711485376083
 20
98.89999980684677
 30
0.0
 11
278.3711485376083
 21
109.3999998068467
 31
0.0
  0
ARC
  5
606
330
18
100
AcDbEntity
  8
1
  6
Continuous
100
AcDbCircle
 10
270.5639145376083
 20
89.1999998068467
 30
0.0
 40
2.5
100
AcDbArc
 50
6.422801999999999
 51
90.0
  0
ARC
  5
607
330
18
100
AcDbEntity
  8
1
  6
Continuous
100
AcDbCircle
 10
276.9621935376083
 20
96.88793980684678
 30
0.0
 40
2.0
100
AcDbArc
 50
198.29276
 51
266.80331
  0
ARC
  5
608
330
18
100
AcDbEntity
  8
1
  6
Continuous
100
AcDbCircle
 10
276.3711485376083
 20
98.89999980684677
 30
0.0
 40
2.0
100
AcDbArc
 50
270.0
 51
0.0
  0
LINE
  5
609
330
18
100
AcDbEntity
  8
1
  6
Continuous
100
AcDbLine
 10
276.9068275376082
 20
94.39421980684668
 30
0.0
 11
276.8506655376083
 21
94.89104980684677
 31
0.0
  0
ARC
  5
60A
330
18
100
AcDbEntity
  8
1
  6
Continuous
100
AcDbCircle
 10
267.9422735376083
 20
93.90614980684672
 30
0.0
 40
7.5
100
AcDbArc
 50
18.292753
 51
23.52701
  0
LINE
  5
60B
330
18
100
AcDbEntity
  8
1
  6
Continuous
100
AcDbLine
 10
277.5519685376081
 20
100.1999998068467
 30
0.0
 11
277.5519685376081
 21
109.3999998068467
 31
0.0
  0
LINE
  5
60C
330
18
100
AcDbEntity
  8
5
  6
PHANTOM
100
AcDbLine
 10
256.2865475376081
 20
211.8389688068466
 30
0.0
 11
277.0201955376083
 21
215.1730298068467
 31
0.0
  0
LINE
  5
60D
330
18
100
AcDbEntity
  8
5
  6
PHANTOM
100
AcDbLine
 10
255.9213885376083
 20
214.1097998068466
 30
0.0
 11
276.6550375376083
 21
217.4438618068467
 31
0.0
  0
LINE
  5
60E
330
18
100
AcDbEntity
  8
5
  6
PHANTOM
100
AcDbLine
 10
233.6967065376081
 20
185.1971388068465
 30
0.0
 11
271.0407055376083
 21
194.1581588068467
 31
0.0
  0
ARC
  5
60F
330
18
100
AcDbEntity
  8
1
  6
Continuous
100
AcDbCircle
 10
264.7073875376081
 20
180.9897908068467
 30
0.0
 40
10.0
100
AcDbArc
 50
253.4935
 51
339.1352099999998
  0
LINE
  5
610
330
18
100
AcDbEntity
  8
1
  6
Continuous
100
AcDbLine
 10
257.9290745376083
 20
194.0910278068465
 30
0.0
 11
277.5519705376081
 21
186.6115848068466
 31
0.0
  0
LINE
  5
611
330
18
100
AcDbEntity
  8
1
  6
Continuous
100
AcDbLine
 10
258.7482525376083
 20
196.2402048068467
 30
0.0
 11
278.3711505376083
 21
188.7607618068465
 31
0.0
  0
ARC
  5
612
330
18
100
AcDbEntity
  8
1
  6
Continuous
100
AcDbCircle
 10
267.0909745376083
 20
200.1246188068465
 30
0.0
 40
7.5
100
AcDbArc
 50
277.4757399999999
 51
220.7946799999997
  0
ARC
  5
613
330
18
100
AcDbEntity
  8
1
  6
Continuous
100
AcDbCircle
 10
267.0909745376083
 20
200.1246188068465
 30
0.0
 40
10.0
100
AcDbArc
 50
353.4358399999999
 51
173.4358399999999
  0
LINE
  5
614
330
18
100
AcDbEntity
  8
1
  6
Continuous
100
AcDbLine
 10
251.4661205376082
 20
198.0169778068465
 30
0.0
 11
243.5803075376083
 21
176.8206858068467
 31
0.0
  0
LINE
  5
615
330
18
100
AcDbEntity
  8
1
  6
Continuous
100
AcDbLine
 10
256.0645915376083
 20
194.9642868068467
 30
0.0
 11
248.3316465376083
 21
175.4126868068467
 31
0.0
  0
ARC
  5
616
330
18
100
AcDbEntity
  8
1
  6
Continuous
100
AcDbCircle
 10
211.3611085376081
 20
201.4981078068467
 30
0.0
 40
33.804119
100
AcDbArc
 50
318.08154
 51
0.8626640000000001
  0
ARC
  5
617
330
18
100
AcDbEntity
  8
1
  6
Continuous
100
AcDbCircle
 10
210.1230405376083
 20
204.3071978068467
 30
0.0
 40
26.07855
100
AcDbArc
 50
303.25002
 51
8.942065999999996
  0
LINE
  5
618
330
18
100
AcDbEntity
  8
1
  6
Continuous
100
AcDbLine
 10
225.0447835376082
 20
182.3134458068467
 30
0.0
 11
261.8661455376083
 21
171.4019178068467
 31
0.0
  0
LINE
  5
619
330
18
100
AcDbEntity
  8
5
  6
PHANTOM
100
AcDbLine
 10
223.4887225376083
 20
213.5856298068466
 30
0.0
 11
255.0876715376083
 21
211.6096868068467
 31
0.0
  0
LINE
  5
61A
330
18
100
AcDbEntity
  8
1
  6
Continuous
100
AcDbLine
 10
230.3986555376082
 20
212.0025928068467
 30
0.0
 11
256.7761765376083
 21
194.4919008068467
 31
0.0
  0
ARC
  5
61B
330
18
100
AcDbEntity
  8
5
  6
PHANTOM
100
AcDbCircle
 10
212.2539655376083
 20
194.9697058068467
 30
0.0
 40
33.804119
100
AcDbArc
 50
348.08154
 51
30.862664
  0
CIRCLE
  5
61C
330
18
100
AcDbEntity
  8
2
  6
Continuous
100
AcDbCircle
 10
223.9897015376083
 20
199.9000018068467
 30
0.0
 40
4.3235
  0
CIRCLE
  5
61E
330
18
100
AcDbEntity
  8
1
  6
Continuous
100
AcDbCircle
 10
223.9897015376083
 20
199.9000018068467
 30
0.0
 40
5.0
  0
LINE
  5
61F
330
18
100
AcDbEntity
  8
1
  6
Continuous
100
AcDbLine
 10
230.9897015376081
 20
195.8585498068467
 30
0.0
 11
230.9897015376081
 21
203.9414528068467
 31
0.0
  0
ARC
  5
620
330
18
100
AcDbEntity
  8
5
  6
PHANTOM
100
AcDbCircle
 10
209.7772225376083
 20
196.7834148068467
 30
0.0
 40
26.07855
100
AcDbArc
 50
333.25002
 51
38.942066
  0
LINE
  5
621
330
18
100
AcDbEntity
  8
1
  6
Continuous
100
AcDbLine
 10
230.9897015376081
 20
195.8585498068467
 30
0.0
 11
223.9897015376083
 21
191.8170978068467
 31
0.0
  0
LINE
  5
622
330
18
100
AcDbEntity
  8
1
  6
Continuous
100
AcDbLine
 10
223.9897015376083
 20
207.9829048068466
 30
0.0
 11
230.9897015376081
 21
203.9414528068467
 31
0.0
  0
ARC
  5
623
330
18
100
AcDbEntity
  8
1
  6
Continuous
100
AcDbCircle
 10
219.3371745376082
 20
195.3399508068467
 30
0.0
 40
20.0
100
AcDbArc
 50
56.421843
 51
83.003751
  0
ARC
  5
624
330
18
100
AcDbEntity
  8
1
  6
Continuous
100
AcDbCircle
 10
223.9897015376083
 20
199.9000018068467
 30
0.0
 40
24.0
100
AcDbArc
 50
1.020200999999999
 51
16.957959
  0
LINE
  5
625
330
18
100
AcDbEntity
  8
5
  6
PHANTOM
100
AcDbLine
 10
248.7264905376083
 20
212.0074648068465
 30
0.0
 11
252.4953215376083
 21
189.7080308068465
 31
0.0
  0
LINE
  5
626
330
18
100
AcDbEntity
  8
5
  6
PHANTOM
100
AcDbLine
 10
254.2352285376083
 20
211.6629918068467
 30
0.0
 11
257.3141015376083
 21
190.8643378068465
 31
0.0
  0
ARC
  5
627
330
18
100
AcDbEntity
  8
1
  6
Continuous
100
AcDbCircle
 10
244.8884505376083
 20
202.6794588068467
 30
0.0
 40
12.349034
100
AcDbArc
 50
325.27797
 51
353.4358399999999
  0
LINE
  5
628
330
18
100
AcDbEntity
  8
1
  6
Continuous
100
AcDbLine
 10
258.7482525376083
 20
196.2402048068467
 30
0.0
 11
257.9290745376083
 21
194.0910278068465
 31
0.0
  0
ARC
  5
629
330
18
100
AcDbEntity
  8
1
  6
Continuous
100
AcDbCircle
 10
257.3292475376083
 20
195.3250348068467
 30
0.0
 40
1.0
100
AcDbArc
 50
236.4218399999999
 51
339.1352099999998
  0
ARC
  5
62A
330
18
100
AcDbEntity
  8
1
  6
Continuous
100
AcDbCircle
 10
223.9897015376083
 20
199.9000018068467
 30
0.0
 40
36.5
100
AcDbArc
 50
11.164804
 51
31.375062
  0
ARC
  5
62B
330
18
100
AcDbEntity
  8
5
  6
PHANTOM
100
AcDbCircle
 10
255.1500785376083
 20
212.6077368068466
 30
0.0
 40
1.0
100
AcDbArc
 50
266.4218399999999
 51
9.13521
  0
LINE
  5
62C
330
18
100
AcDbEntity
  8
5
  6
PHANTOM
100
AcDbLine
 10
255.9213885376083
 20
214.1097998068466
 30
0.0
 11
256.2865475376081
 21
211.8389688068466
 31
0.0
  0
LINE
  5
62D
330
18
100
AcDbEntity
  8
1
  6
Continuous
100
AcDbLine
 10
278.3711505376083
 20
188.7607618068465
 30
0.0
 11
274.0516235376083
 21
177.4281528068467
 31
0.0
  0
ARC
  5
62E
330
18
100
AcDbEntity
  8
5
  6
PHANTOM
100
AcDbCircle
 10
268.7073575376083
 20
203.8821218068466
 30
0.0
 40
10.0
100
AcDbArc
 50
283.4934999999998
 51
9.13521
  0
ARC
  5
62F
330
18
100
AcDbEntity
  8
1
  6
Continuous
100
AcDbCircle
 10
244.8884505376083
 20
202.6794588068467
 30
0.0
 40
32.349033
100
AcDbArc
 50
337.22086
 51
353.4358399999999
  0
LINE
  5
630
330
18
100
AcDbEntity
  8
5
  6
PHANTOM
100
AcDbLine
 10
276.6550375376083
 20
217.4438618068467
 30
0.0
 11
278.5805215376082
 21
205.4697708068467
 31
0.0
  0
LINE
  5
631
330
18
100
AcDbEntity
  8
1
  6
Continuous
100
AcDbLine
 10
72.20000153760833
 20
300.3999958068465
 30
0.0
 11
72.20000153760833
 21
277.9000018068466
 31
0.0
  0
LINE
  5
632
330
18
100
AcDbEntity
  8
2
  6
Continuous
100
AcDbLine
 10
70.84700153760831
 20
280.2434658068467
 30
0.0
 11
70.84700153760831
 21
301.7529958068467
 31
0.0
  0
LINE
  5
633
330
18
100
AcDbEntity
  8
2
  6
Continuous
100
AcDbLine
 10
53.55300153760831
 20
301.7529958068467
 30
0.0
 11
53.55300153760831
 21
280.2434658068467
 31
0.0
  0
LINE
  5
634
330
18
100
AcDbEntity
  8
1
  6
Continuous
100
AcDbLine
 10
52.20000153760832
 20
300.3999958068465
 30
0.0
 11
52.20000153760832
 21
277.9000018068466
 31
0.0
  0
LINE
  5
635
330
18
100
AcDbEntity
  8
1
  6
Continuous
100
AcDbLine
 10
52.20000153760832
 20
280.2434658068467
 30
0.0
 11
72.20000153760833
 21
280.2434658068467
 31
0.0
  0
LINE
  5
636
330
18
100
AcDbEntity
  8
1
  6
Continuous
100
AcDbLine
 10
68.45786653760831
 20
259.3450438068466
 30
0.0
 11
70.45786653760831
 21
257.3450438068466
 31
0.0
  0
LINE
  5
637
330
18
100
AcDbEntity
  8
1
  6
Continuous
100
AcDbLine
 10
71.28629353760833
 20
259.3450438068466
 30
0.0
 11
69.28629353760832
 21
257.3450438068466
 31
0.0
  0
LINE
  5
638
330
18
100
AcDbEntity
  8
1
  6
Continuous
100
AcDbLine
 10
69.87207953760833
 20
259.3450438068466
 30
0.0
 11
67.87207953760833
 21
257.3450438068466
 31
0.0
  0
LINE
  5
639
330
18
100
AcDbEntity
  8
1
  6
Continuous
100
AcDbLine
 10
43.90000153760831
 20
260.8000018068466
 30
0.0
 11
80.50000153760832
 21
260.8000018068466
 31
0.0
  0
LINE
  5
63A
330
18
100
AcDbEntity
  8
1
  6
Continuous
100
AcDbLine
 10
47.9357385376083
 20
252.9210808068466
 30
0.0
 11
76.46431453760833
 21
252.9210808068466
 31
0.0
  0
LINE
  5
63B
330
18
100
AcDbEntity
  8
1
  6
Continuous
100
AcDbLine
 10
72.20000153760833
 20
251.4000018068467
 30
0.0
 11
52.20000153760832
 21
251.4000018068467
 31
0.0
  0
ARC
  5
63C
330
18
100
AcDbEntity
  8
1
  6
Continuous
100
AcDbCircle
 10
62.20000153760832
 20
99.90000180684674
 30
0.0
 40
150.0
100
AcDbArc
 50
83.57719799999998
 51
96.42280200000001
  0
LINE
  5
63D
330
18
100
AcDbEntity
  8
1
  6
Continuous
100
AcDbLine
 10
70.98822653760833
 20
263.7000018068466
 30
0.0
 11
68.98822653760833
 21
265.7000018068465
 31
0.0
  0
LINE
  5
63E
330
18
100
AcDbEntity
  8
1
  6
Continuous
100
AcDbLine
 10
69.25096853760833
 20
263.7000018068466
 30
0.0
 11
71.25096853760833
 21
265.7000018068465
 31
0.0
  0
LINE
  5
63F
330
18
100
AcDbEntity
  8
1
  6
Continuous
100
AcDbLine
 10
91.90000153760832
 20
265.7000018068465
 30
0.0
 11
32.50000153760832
 21
265.7000018068465
 31
0.0
  0
LINE
  5
640
330
18
100
AcDbEntity
  8
1
  6
Continuous
100
AcDbLine
 10
91.90000153760832
 20
263.7000018068466
 30
0.0
 11
32.50000153760832
 21
263.7000018068466
 31
0.0
  0
LINE
  5
641
330
18
100
AcDbEntity
  8
1
  6
Continuous
100
AcDbLine
 10
91.90000153760832
 20
267.2000018068467
 30
0.0
 11
32.50000153760832
 21
267.2000018068467
 31
0.0
  0
LINE
  5
642
330
18
100
AcDbEntity
  8
1
  6
Continuous
100
AcDbLine
 10
82.20000153760834
 20
277.9000018068466
 30
0.0
 11
42.20000153760831
 21
277.9000018068466
 31
0.0
  0
LINE
  5
643
330
18
100
AcDbEntity
  8
1
  6
Continuous
100
AcDbLine
 10
85.20000153760834
 20
273.4000018068466
 30
0.0
 11
39.20000153760831
 21
273.4000018068466
 31
0.0
  0
LINE
  5
644
330
18
100
AcDbEntity
  8
1
  6
Continuous
100
AcDbLine
 10
82.77109953760831
 20
259.3450438068466
 30
0.0
 11
41.62890353760832
 21
259.3450438068466
 31
0.0
  0
LINE
  5
645
330
18
100
AcDbEntity
  8
1
  6
Continuous
100
AcDbLine
 10
42.20000153760831
 20
257.3450438068466
 30
0.0
 11
82.20000153760834
 21
257.3450438068466
 31
0.0
  0
LINE
  5
646
330
18
100
AcDbEntity
  8
1
  6
Continuous
100
AcDbLine
 10
82.33415253760833
 20
256.7825718068467
 30
0.0
 11
42.06590153760831
 21
256.7825718068467
 31
0.0
  0
ARC
  5
647
330
18
100
AcDbEntity
  8
1
  6
Continuous
100
AcDbCircle
 10
49.78957253760832
 20
263.7639628068465
 30
0.0
 40
11.15635099999999
100
AcDbArc
 50
241.1011489999999
 51
250.8050149999999
  0
LINE
  5
648
330
18
100
AcDbEntity
  8
1
  6
Continuous
100
AcDbLine
 10
30.70000153760831
 20
259.7000018068466
 30
0.0
 11
30.70000153760831
 21
220.6363908068465
 31
0.0
  0
ARC
  5
649
330
18
100
AcDbEntity
  8
1
  6
Continuous
100
AcDbCircle
 10
47.1741575376083
 20
243.7000018068467
 30
0.0
 40
8.0
100
AcDbArc
 50
90.0
 51
136.2007629999999
  0
ARC
  5
64A
330
18
100
AcDbEntity
  8
1
  6
Continuous
100
AcDbCircle
 10
45.70000153760831
 20
246.4742148068466
 30
0.0
 40
2.5
100
AcDbArc
 50
96.42280200000001
 51
180.0
  0
LINE
  5
64B
330
18
100
AcDbEntity
  8
1
  6
Continuous
100
AcDbLine
 10
42.20000153760831
 20
219.9000018068467
 30
0.0
 11
43.20000153760831
 21
223.9000018068467
 31
0.0
  0
LINE
  5
64C
330
18
100
AcDbEntity
  8
1
  6
Continuous
100
AcDbLine
 10
55.20000153760832
 20
251.4000018068467
 30
0.0
 11
57.20000153760832
 21
252.9000018068467
 31
0.0
  0
LINE
  5
64D
330
18
100
AcDbEntity
  8
1
  6
Continuous
100
AcDbLine
 10
52.27500153760832
 20
251.7000018068467
 30
0.0
 11
47.1741575376083
 21
251.7000018068467
 31
0.0
  0
ARC
  5
64E
330
18
100
AcDbEntity
  8
1
  6
Continuous
100
AcDbCircle
 10
47.9357385376083
 20
258.4389768068467
 30
0.0
 40
5.517896
100
AcDbArc
 50
250.8050149999999
 51
270.0
  0
LINE
  5
64F
330
18
100
AcDbEntity
  8
1
  6
Continuous
100
AcDbLine
 10
52.58027153760831
 20
252.9210808068466
 30
0.0
 11
52.20000153760832
 21
251.4000018068467
 31
0.0
  0
LINE
  5
650
330
18
100
AcDbEntity
  8
1
  6
Continuous
100
AcDbLine
 10
59.20000153760831
 20
251.4000018068467
 30
0.0
 11
57.20000153760832
 21
252.9000018068467
 31
0.0
  0
LINE
  5
651
330
18
100
AcDbEntity
  8
1
  6
Continuous
100
AcDbLine
 10
65.20000153760832
 20
251.4000018068467
 30
0.0
 11
67.20000153760833
 21
252.9000018068467
 31
0.0
  0
LINE
  5
652
330
18
100
AcDbEntity
  8
1
  6
Continuous
100
AcDbLine
 10
69.20000153760833
 20
251.4000018068467
 30
0.0
 11
67.20000153760833
 21
252.9000018068467
 31
0.0
  0
LINE
  5
653
330
18
100
AcDbEntity
  8
1
  6
Continuous
100
AcDbLine
 10
44.41623553760831
 20
259.3450438068466
 30
0.0
 11
46.41623553760831
 21
257.3450438068466
 31
0.0
  0
LINE
  5
654
330
18
100
AcDbEntity
  8
1
  6
Continuous
100
AcDbLine
 10
45.8304495376083
 20
259.3450438068466
 30
0.0
 11
43.83044953760831
 21
257.3450438068466
 31
0.0
  0
LINE
  5
655
330
18
100
AcDbEntity
  8
1
  6
Continuous
100
AcDbLine
 10
46.09806853760832
 20
263.7000018068466
 30
0.0
 11
44.0980685376083
 21
265.7000018068465
 31
0.0
  0
LINE
  5
656
330
18
100
AcDbEntity
  8
1
  6
Continuous
100
AcDbLine
 10
44.36080953760831
 20
263.7000018068466
 30
0.0
 11
46.3608095376083
 21
265.7000018068465
 31
0.0
  0
LINE
  5
657
330
18
100
AcDbEntity
  8
1
  6
Continuous
100
AcDbLine
 10
43.00202253760831
 20
259.3450438068466
 30
0.0
 11
45.00202253760831
 21
257.3450438068466
 31
0.0
  0
ARC
  5
658
330
18
100
AcDbEntity
  8
1
  6
Continuous
100
AcDbCircle
 10
39.66761053760832
 20
267.2000018068467
 30
0.0
 40
6.217608999999997
100
AcDbArc
 50
94.31312500000002
 51
180.0
  0
ARC
  5
659
330
18
100
AcDbEntity
  8
1
  6
Continuous
100
AcDbCircle
 10
34.70000153760832
 20
259.7000018068466
 30
0.0
 40
4.0
100
AcDbArc
 50
90.0
 51
180.0
  0
ARC
  5
65A
330
18
100
AcDbEntity
  8
1
  6
Continuous
100
AcDbCircle
 10
42.50000153760832
 20
259.7000018068466
 30
0.0
 40
4.0
100
AcDbArc
 50
90.0
 51
180.0
  0
LINE
  5
65B
330
18
100
AcDbEntity
  8
1
  6
Continuous
100
AcDbLine
 10
43.00202253760831
 20
259.3450438068466
 30
0.0
 11
42.20000153760831
 21
258.5430238068466
 31
0.0
  0
ARC
  5
65C
330
18
100
AcDbEntity
  8
1
  6
Continuous
100
AcDbCircle
 10
48.36849353760831
 20
259.0295208068465
 30
0.0
 40
6.802859999999999
100
AcDbArc
 50
204.1939269999999
 51
219.204853
  0
ARC
  5
65D
330
18
100
AcDbEntity
  8
1
  6
Continuous
100
AcDbCircle
 10
14.27923653760831
 20
220.0525718068467
 30
0.0
 40
45.685387
100
AcDbArc
 50
52.38540600000001
 51
52.81045500000002
  0
ARC
  5
65E
330
18
100
AcDbEntity
  8
1
  6
Continuous
100
AcDbCircle
 10
42.00441653760832
 20
256.5929928068466
 30
0.0
 40
0.182772
100
AcDbArc
 50
102.6352739999999
 51
232.810455
  0
ARC
  5
65F
330
18
100
AcDbEntity
  8
1
  6
Continuous
100
AcDbCircle
 10
42.06590153760831
 20
256.3187198068466
 30
0.0
 40
0.463853
100
AcDbArc
 50
90.0
 51
102.6352739999999
  0
ARC
  5
660
330
18
100
AcDbEntity
  8
1
  6
Continuous
100
AcDbCircle
 10
42.69691353760831
 20
257.1275538068466
 30
0.0
 40
0.174463
100
AcDbArc
 50
92.52295100000001
 51
184.5679539999999
  0
ARC
  5
661
330
18
100
AcDbEntity
  8
1
  6
Continuous
100
AcDbCircle
 10
42.1250075376083
 20
257.0818618068467
 30
0.0
 40
0.399265
100
AcDbArc
 50
311.4441729999998
 51
4.567953999999998
  0
LINE
  5
662
330
18
100
AcDbEntity
  8
1
  6
Continuous
100
AcDbLine
 10
42.20000153760831
 20
257.3450438068466
 30
0.0
 11
42.20000153760831
 21
259.3450438068466
 31
0.0
  0
LINE
  5
663
330
18
100
AcDbEntity
  8
1
  6
Continuous
100
AcDbLine
 10
42.20000153760831
 20
258.7328508068466
 30
0.0
 11
43.58780853760831
 21
257.3450438068466
 31
0.0
  0
LINE
  5
664
330
18
100
AcDbEntity
  8
1
  6
Continuous
100
AcDbLine
 10
44.41623553760831
 20
259.3450438068466
 30
0.0
 11
42.41623553760831
 21
257.3450438068466
 31
0.0
  0
ARC
  5
665
330
18
100
AcDbEntity
  8
1
  6
Continuous
100
AcDbCircle
 10
43.90000153760831
 20
258.3000018068467
 30
0.0
 40
2.5
100
AcDbArc
 50
90.0
 51
180.0
  0
LINE
  5
666
330
18
100
AcDbEntity
  8
1
  6
Continuous
100
AcDbLine
 10
43.66958553760832
 20
257.3450438068466
 30
0.0
 11
42.68923353760832
 21
257.3018478068466
 31
0.0
  0
ARC
  5
667
330
18
100
AcDbEntity
  8
1
  6
Continuous
100
AcDbCircle
 10
87.12781953760833
 20
331.4052878068466
 30
0.0
 40
88.41884899999998
100
AcDbArc
 50
240.133565
 51
241.1011489999999
  0
LINE
  5
668
330
18
100
AcDbEntity
  8
1
  6
Continuous
100
AcDbLine
 10
39.3098435376083
 20
263.7000018068466
 30
0.0
 11
37.30984353760832
 21
265.7000018068465
 31
0.0
  0
LINE
  5
669
330
18
100
AcDbEntity
  8
1
  6
Continuous
100
AcDbLine
 10
37.57258453760832
 20
263.7000018068466
 30
0.0
 11
39.57258453760832
 21
265.7000018068465
 31
0.0
  0
LINE
  5
66A
330
18
100
AcDbEntity
  8
1
  6
Continuous
100
AcDbLine
 10
32.50000153760832
 20
265.4156438068465
 30
0.0
 11
32.78435953760832
 21
265.7000018068465
 31
0.0
  0
LINE
  5
66B
330
18
100
AcDbEntity
  8
1
  6
Continuous
100
AcDbLine
 10
32.52161853760831
 20
263.7000018068466
 30
0.0
 11
32.50000153760832
 21
263.7216178068466
 31
0.0
  0
LINE
  5
66C
330
18
100
AcDbEntity
  8
1
  6
Continuous
100
AcDbLine
 10
37.04710153760832
 20
263.7000018068466
 30
0.0
 11
35.04710153760832
 21
265.7000018068465
 31
0.0
  0
LINE
  5
66D
330
18
100
AcDbEntity
  8
1
  6
Continuous
100
AcDbLine
 10
34.78435953760831
 20
263.7000018068466
 30
0.0
 11
32.78435953760832
 21
265.7000018068465
 31
0.0
  0
LINE
  5
66E
330
18
100
AcDbEntity
  8
1
  6
Continuous
100
AcDbLine
 10
35.30984353760829
 20
263.7000018068466
 30
0.0
 11
37.30984353760832
 21
265.7000018068465
 31
0.0
  0
LINE
  5
66F
330
18
100
AcDbEntity
  8
1
  6
Continuous
100
AcDbLine
 10
33.04710153760832
 20
263.7000018068466
 30
0.0
 11
35.04710153760832
 21
265.7000018068465
 31
0.0
  0
LINE
  5
670
330
18
100
AcDbEntity
  8
1
  6
Continuous
100
AcDbLine
 10
32.50000153760832
 20
267.2000018068467
 30
0.0
 11
32.50000153760832
 21
263.7000018068466
 31
0.0
  0
LINE
  5
671
330
18
100
AcDbEntity
  8
1
  6
Continuous
100
AcDbLine
 10
41.57258453760832
 20
263.7000018068466
 30
0.0
 11
39.57258453760832
 21
265.7000018068465
 31
0.0
  0
LINE
  5
672
330
18
100
AcDbEntity
  8
1
  6
Continuous
100
AcDbLine
 10
39.83532653760831
 20
263.7000018068466
 30
0.0
 11
41.8353265376083
 21
265.7000018068465
 31
0.0
  0
LINE
  5
673
330
18
100
AcDbEntity
  8
1
  6
Continuous
100
AcDbLine
 10
43.83532653760831
 20
263.7000018068466
 30
0.0
 11
41.8353265376083
 21
265.7000018068465
 31
0.0
  0
LINE
  5
674
330
18
100
AcDbEntity
  8
1
  6
Continuous
100
AcDbLine
 10
42.09806853760832
 20
263.7000018068466
 30
0.0
 11
44.0980685376083
 21
265.7000018068465
 31
0.0
  0
LINE
  5
675
330
18
100
AcDbEntity
  8
1
  6
Continuous
100
AcDbLine
 10
42.20000153760831
 20
277.9000018068466
 30
0.0
 11
42.20000153760831
 21
273.4000018068466
 31
0.0
  0
LINE
  5
676
330
18
100
AcDbEntity
  8
1
  6
Continuous
100
AcDbLine
 10
55.72994453760832
 20
259.3450438068466
 30
0.0
 11
57.72994453760833
 21
257.3450438068466
 31
0.0
  0
LINE
  5
677
330
18
100
AcDbEntity
  8
1
  6
Continuous
100
AcDbLine
 10
58.5583715376083
 20
259.3450438068466
 30
0.0
 11
56.55837153760831
 21
257.3450438068466
 31
0.0
  0
LINE
  5
678
330
18
100
AcDbEntity
  8
1
  6
Continuous
100
AcDbLine
 10
57.14415753760832
 20
259.3450438068466
 30
0.0
 11
55.14415753760832
 21
257.3450438068466
 31
0.0
  0
LINE
  5
679
330
18
100
AcDbEntity
  8
1
  6
Continuous
100
AcDbLine
 10
57.41177653760832
 20
263.7000018068466
 30
0.0
 11
55.41177653760831
 21
265.7000018068465
 31
0.0
  0
LINE
  5
67A
330
18
100
AcDbEntity
  8
1
  6
Continuous
100
AcDbLine
 10
55.67451853760832
 20
263.7000018068466
 30
0.0
 11
57.67451853760832
 21
265.7000018068465
 31
0.0
  0
LINE
  5
67B
330
18
100
AcDbEntity
  8
1
  6
Continuous
100
AcDbLine
 10
50.07308953760832
 20
259.3450438068466
 30
0.0
 11
52.07308953760831
 21
257.3450438068466
 31
0.0
  0
LINE
  5
67C
330
18
100
AcDbEntity
  8
1
  6
Continuous
100
AcDbLine
 10
51.48730353760832
 20
259.3450438068466
 30
0.0
 11
49.4873035376083
 21
257.3450438068466
 31
0.0
  0
LINE
  5
67D
330
18
100
AcDbEntity
  8
1
  6
Continuous
100
AcDbLine
 10
48.65887653760832
 20
259.3450438068466
 30
0.0
 11
50.65887653760832
 21
257.3450438068466
 31
0.0
  0
LINE
  5
67E
330
18
100
AcDbEntity
  8
1
  6
Continuous
100
AcDbLine
 10
47.2446625376083
 20
259.3450438068466
 30
0.0
 11
49.24466253760832
 21
257.3450438068466
 31
0.0
  0
LINE
  5
67F
330
18
100
AcDbEntity
  8
1
  6
Continuous
100
AcDbLine
 10
45.8304495376083
 20
259.3450438068466
 30
0.0
 11
47.8304495376083
 21
257.3450438068466
 31
0.0
  0
LINE
  5
680
330
18
100
AcDbEntity
  8
1
  6
Continuous
100
AcDbLine
 10
50.07308953760832
 20
259.3450438068466
 30
0.0
 11
48.07308953760832
 21
257.3450438068466
 31
0.0
  0
LINE
  5
681
330
18
100
AcDbEntity
  8
1
  6
Continuous
100
AcDbLine
 10
48.65887653760832
 20
259.3450438068466
 30
0.0
 11
46.65887653760832
 21
257.3450438068466
 31
0.0
  0
LINE
  5
682
330
18
100
AcDbEntity
  8
1
  6
Continuous
100
AcDbLine
 10
47.2446625376083
 20
259.3450438068466
 30
0.0
 11
45.24466253760832
 21
257.3450438068466
 31
0.0
  0
LINE
  5
683
330
18
100
AcDbEntity
  8
1
  6
Continuous
100
AcDbLine
 10
54.31573053760831
 20
259.3450438068466
 30
0.0
 11
56.31573053760831
 21
257.3450438068466
 31
0.0
  0
LINE
  5
684
330
18
100
AcDbEntity
  8
1
  6
Continuous
100
AcDbLine
 10
52.90151653760831
 20
259.3450438068466
 30
0.0
 11
54.90151653760833
 21
257.3450438068466
 31
0.0
  0
LINE
  5
685
330
18
100
AcDbEntity
  8
1
  6
Continuous
100
AcDbLine
 10
51.48730353760832
 20
259.3450438068466
 30
0.0
 11
53.48730353760831
 21
257.3450438068466
 31
0.0
  0
LINE
  5
686
330
18
100
AcDbEntity
  8
1
  6
Continuous
100
AcDbLine
 10
55.72994453760832
 20
259.3450438068466
 30
0.0
 11
53.72994453760832
 21
257.3450438068466
 31
0.0
  0
LINE
  5
687
330
18
100
AcDbEntity
  8
1
  6
Continuous
100
AcDbLine
 10
54.31573053760831
 20
259.3450438068466
 30
0.0
 11
52.31573053760831
 21
257.3450438068466
 31
0.0
  0
LINE
  5
688
330
18
100
AcDbEntity
  8
1
  6
Continuous
100
AcDbLine
 10
52.90151653760831
 20
259.3450438068466
 30
0.0
 11
50.90151653760833
 21
257.3450438068466
 31
0.0
  0
LINE
  5
689
330
18
100
AcDbEntity
  8
1
  6
Continuous
100
AcDbLine
 10
52.88629353760831
 20
263.7000018068466
 30
0.0
 11
50.88629353760831
 21
265.7000018068465
 31
0.0
  0
LINE
  5
68A
330
18
100
AcDbEntity
  8
1
  6
Continuous
100
AcDbLine
 10
50.62355153760832
 20
263.7000018068466
 30
0.0
 11
48.62355153760832
 21
265.7000018068465
 31
0.0
  0
LINE
  5
68B
330
18
100
AcDbEntity
  8
1
  6
Continuous
100
AcDbLine
 10
48.36080953760832
 20
263.7000018068466
 30
0.0
 11
46.3608095376083
 21
265.7000018068465
 31
0.0
  0
LINE
  5
68C
330
18
100
AcDbEntity
  8
1
  6
Continuous
100
AcDbLine
 10
48.88629353760832
 20
263.7000018068466
 30
0.0
 11
50.88629353760831
 21
265.7000018068465
 31
0.0
  0
LINE
  5
68D
330
18
100
AcDbEntity
  8
1
  6
Continuous
100
AcDbLine
 10
46.62355153760832
 20
263.7000018068466
 30
0.0
 11
48.62355153760832
 21
265.7000018068465
 31
0.0
  0
LINE
  5
68E
330
18
100
AcDbEntity
  8
1
  6
Continuous
100
AcDbLine
 10
55.14903553760831
 20
263.7000018068466
 30
0.0
 11
53.14903553760832
 21
265.7000018068465
 31
0.0
  0
LINE
  5
68F
330
18
100
AcDbEntity
  8
1
  6
Continuous
100
AcDbLine
 10
53.41177653760832
 20
263.7000018068466
 30
0.0
 11
55.41177653760831
 21
265.7000018068465
 31
0.0
  0
LINE
  5
690
330
18
100
AcDbEntity
  8
1
  6
Continuous
100
AcDbLine
 10
51.14903553760832
 20
263.7000018068466
 30
0.0
 11
53.14903553760832
 21
265.7000018068465
 31
0.0
  0
LINE
  5
691
330
18
100
AcDbEntity
  8
1
  6
Continuous
100
AcDbLine
 10
62.80101153760831
 20
259.3450438068466
 30
0.0
 11
64.80101153760831
 21
257.3450438068466
 31
0.0
  0
LINE
  5
692
330
18
100
AcDbEntity
  8
1
  6
Continuous
100
AcDbLine
 10
61.3867985376083
 20
259.3450438068466
 30
0.0
 11
63.3867985376083
 21
257.3450438068466
 31
0.0
  0
LINE
  5
693
330
18
100
AcDbEntity
  8
1
  6
Continuous
100
AcDbLine
 10
64.21522553760832
 20
259.3450438068466
 30
0.0
 11
62.21522553760832
 21
257.3450438068466
 31
0.0
  0
LINE
  5
694
330
18
100
AcDbEntity
  8
1
  6
Continuous
100
AcDbLine
 10
57.14415753760832
 20
259.3450438068466
 30
0.0
 11
59.14415753760831
 21
257.3450438068466
 31
0.0
  0
LINE
  5
695
330
18
100
AcDbEntity
  8
1
  6
Continuous
100
AcDbLine
 10
59.97258453760831
 20
259.3450438068466
 30
0.0
 11
61.97258453760831
 21
257.3450438068466
 31
0.0
  0
LINE
  5
696
330
18
100
AcDbEntity
  8
1
  6
Continuous
100
AcDbLine
 10
62.80101153760831
 20
259.3450438068466
 30
0.0
 11
60.80101153760831
 21
257.3450438068466
 31
0.0
  0
LINE
  5
697
330
18
100
AcDbEntity
  8
1
  6
Continuous
100
AcDbLine
 10
58.5583715376083
 20
259.3450438068466
 30
0.0
 11
60.55837153760831
 21
257.3450438068466
 31
0.0
  0
LINE
  5
698
330
18
100
AcDbEntity
  8
1
  6
Continuous
100
AcDbLine
 10
61.3867985376083
 20
259.3450438068466
 30
0.0
 11
59.3867985376083
 21
257.3450438068466
 31
0.0
  0
LINE
  5
699
330
18
100
AcDbEntity
  8
1
  6
Continuous
100
AcDbLine
 10
59.97258453760831
 20
259.3450438068466
 30
0.0
 11
57.9725845376083
 21
257.3450438068466
 31
0.0
  0
LINE
  5
69A
330
18
100
AcDbEntity
  8
1
  6
Continuous
100
AcDbLine
 10
65.62943953760833
 20
259.3450438068466
 30
0.0
 11
67.62943953760833
 21
257.3450438068466
 31
0.0
  0
LINE
  5
69B
330
18
100
AcDbEntity
  8
1
  6
Continuous
100
AcDbLine
 10
64.21522553760832
 20
259.3450438068466
 30
0.0
 11
66.21522553760832
 21
257.3450438068466
 31
0.0
  0
LINE
  5
69C
330
18
100
AcDbEntity
  8
1
  6
Continuous
100
AcDbLine
 10
67.04365253760832
 20
259.3450438068466
 30
0.0
 11
65.04365253760832
 21
257.3450438068466
 31
0.0
  0
LINE
  5
69D
330
18
100
AcDbEntity
  8
1
  6
Continuous
100
AcDbLine
 10
65.62943953760833
 20
259.3450438068466
 30
0.0
 11
63.62943953760832
 21
257.3450438068466
 31
0.0
  0
LINE
  5
69E
330
18
100
AcDbEntity
  8
1
  6
Continuous
100
AcDbLine
 10
67.04365253760832
 20
259.3450438068466
 30
0.0
 11
69.04365253760833
 21
257.3450438068466
 31
0.0
  0
LINE
  5
69F
330
18
100
AcDbEntity
  8
1
  6
Continuous
100
AcDbLine
 10
68.45786653760831
 20
259.3450438068466
 30
0.0
 11
66.45786653760831
 21
257.3450438068466
 31
0.0
  0
LINE
  5
6A0
330
18
100
AcDbEntity
  8
1
  6
Continuous
100
AcDbLine
 10
64.20000153760833
 20
263.7000018068466
 30
0.0
 11
62.20000153760832
 21
265.7000018068465
 31
0.0
  0
LINE
  5
6A1
330
18
100
AcDbEntity
  8
1
  6
Continuous
100
AcDbLine
 10
62.46274353760832
 20
263.7000018068466
 30
0.0
 11
64.46274353760833
 21
265.7000018068465
 31
0.0
  0
LINE
  5
6A2
330
18
100
AcDbEntity
  8
1
  6
Continuous
100
AcDbLine
 10
61.93726053760832
 20
263.7000018068466
 30
0.0
 11
59.93726053760831
 21
265.7000018068465
 31
0.0
  0
LINE
  5
6A3
330
18
100
AcDbEntity
  8
1
  6
Continuous
100
AcDbLine
 10
59.67451853760832
 20
263.7000018068466
 30
0.0
 11
57.67451853760832
 21
265.7000018068465
 31
0.0
  0
LINE
  5
6A4
330
18
100
AcDbEntity
  8
1
  6
Continuous
100
AcDbLine
 10
60.20000153760832
 20
263.7000018068466
 30
0.0
 11
62.20000153760832
 21
265.7000018068465
 31
0.0
  0
LINE
  5
6A5
330
18
100
AcDbEntity
  8
1
  6
Continuous
100
AcDbLine
 10
57.93726053760831
 20
263.7000018068466
 30
0.0
 11
59.93726053760831
 21
265.7000018068465
 31
0.0
  0
LINE
  5
6A6
330
18
100
AcDbEntity
  8
1
  6
Continuous
100
AcDbLine
 10
66.46274353760833
 20
263.7000018068466
 30
0.0
 11
64.46274353760833
 21
265.7000018068465
 31
0.0
  0
LINE
  5
6A7
330
18
100
AcDbEntity
  8
1
  6
Continuous
100
AcDbLine
 10
68.72548553760832
 20
263.7000018068466
 30
0.0
 11
66.72548553760832
 21
265.7000018068465
 31
0.0
  0
LINE
  5
6A8
330
18
100
AcDbEntity
  8
1
  6
Continuous
100
AcDbLine
 10
64.72548553760832
 20
263.7000018068466
 30
0.0
 11
66.72548553760832
 21
265.7000018068465
 31
0.0
  0
LINE
  5
6A9
330
18
100
AcDbEntity
  8
1
  6
Continuous
100
AcDbLine
 10
66.98822653760831
 20
263.7000018068466
 30
0.0
 11
68.98822653760833
 21
265.7000018068465
 31
0.0
  0
LINE
  5
6AA
330
18
100
AcDbEntity
  8
2
  6
Continuous
100
AcDbLine
 10
53.55300153760831
 20
280.2434658068467
 30
0.0
 11
52.20000153760832
 21
277.9000018068466
 31
0.0
  0
LINE
  5
6AB
330
18
100
AcDbEntity
  8
1
  6
Continuous
100
AcDbLine
 10
62.20000153760832
 20
277.9000018068466
 30
0.0
 11
62.20000153760832
 21
273.4000018068466
 31
0.0
  0
ARC
  5
6AC
330
18
100
AcDbEntity
  8
1
  6
Continuous
100
AcDbCircle
 10
74.61048153760835
 20
263.7639628068465
 30
0.0
 40
11.15635099999999
100
AcDbArc
 50
289.1949849999998
 51
298.898851
  0
LINE
  5
6AD
330
18
100
AcDbEntity
  8
1
  6
Continuous
100
AcDbLine
 10
93.70000153760832
 20
259.7000018068466
 30
0.0
 11
93.70000153760832
 21
228.2949618068467
 31
0.0
  0
LINE
  5
6AE
330
18
100
AcDbEntity
  8
1
  6
Continuous
100
AcDbLine
 10
89.69999753760831
 20
226.1457718068467
 30
0.0
 11
98.90000953760832
 21
226.1457718068467
 31
0.0
  0
LINE
  5
6AF
330
18
100
AcDbEntity
  8
1
  6
Continuous
100
AcDbLine
 10
89.40000953760831
 20
228.2949618068467
 30
0.0
 11
98.89999453760836
 21
228.2949618068467
 31
0.0
  0
LINE
  5
6B0
330
18
100
AcDbEntity
  8
1
  6
Continuous
100
AcDbLine
 10
81.32925553760834
 20
225.5779218068467
 30
0.0
 11
81.8420425376083
 21
225.5779218068467
 31
0.0
  0
LINE
  5
6B1
330
18
100
AcDbEntity
  8
1
  6
Continuous
100
AcDbLine
 10
81.32925553760834
 20
223.3829858068467
 30
0.0
 11
81.20000153760832
 21
223.9000018068467
 31
0.0
  0
ARC
  5
6B2
330
18
100
AcDbEntity
  8
1
  6
Continuous
100
AcDbCircle
 10
89.40000953760831
 20
225.2949618068465
 30
0.0
 40
3.0
100
AcDbArc
 50
90.00001000000002
 51
180.0
  0
ARC
  5
6B3
330
18
100
AcDbEntity
  8
1
  6
Continuous
100
AcDbCircle
 10
89.69999753760831
 20
225.1457718068466
 30
0.0
 40
1.0
100
AcDbArc
 50
90.00001000000002
 51
180.0
  0
ARC
  5
6B4
330
18
100
AcDbEntity
  8
1
  6
Continuous
100
AcDbCircle
 10
77.22584553760831
 20
243.7000018068467
 30
0.0
 40
8.0
100
AcDbArc
 50
43.79923699999999
 51
90.0
  0
LINE
  5
6B5
330
18
100
AcDbEntity
  8
1
  6
Continuous
100
AcDbLine
 10
77.22584553760831
 20
251.7000018068467
 30
0.0
 11
72.12500153760831
 21
251.7000018068467
 31
0.0
  0
LINE
  5
6B6
330
18
100
AcDbEntity
  8
1
  6
Continuous
100
AcDbLine
 10
71.81973253760833
 20
252.9210808068466
 30
0.0
 11
72.20000153760833
 21
251.4000018068467
 31
0.0
  0
ARC
  5
6B7
330
18
100
AcDbEntity
  8
1
  6
Continuous
100
AcDbCircle
 10
78.70000153760833
 20
246.4742148068466
 30
0.0
 40
2.5
100
AcDbArc
 50
0.0
 51
83.57719799999998
  0
ARC
  5
6B8
330
18
100
AcDbEntity
  8
1
  6
Continuous
100
AcDbCircle
 10
76.46431453760833
 20
258.4389768068467
 30
0.0
 40
5.517896
100
AcDbArc
 50
270.0
 51
289.1949849999998
  0
ARC
  5
6B9
330
18
100
AcDbEntity
  8
1
  6
Continuous
100
AcDbCircle
 10
98.90000953760832
 20
199.4611318068465
 30
0.0
 40
26.684652
100
AcDbArc
 50
70.39594
 51
89.99998999999998
  0
ARC
  5
6BA
330
18
100
AcDbEntity
  8
1
  6
Continuous
100
AcDbCircle
 10
98.90000953760832
 20
201.6103018068467
 30
0.0
 40
26.684652
100
AcDbArc
 50
70.39594
 51
89.99998999999998
  0
ARC
  5
6BB
330
18
100
AcDbEntity
  8
1
  6
Continuous
100
AcDbCircle
 10
107.0721615376083
 20
222.4060618068466
 30
0.0
 40
2.327846
100
AcDbArc
 50
289.6040619999999
 51
70.39594
  0
LINE
  5
6BC
330
18
100
AcDbEntity
  8
1
  6
Continuous
100
AcDbLine
 10
109.4000115376082
 20
224.5552418068467
 30
0.0
 11
109.4000115376082
 21
222.4060618068466
 31
0.0
  0
ARC
  5
6BD
330
18
100
AcDbEntity
  8
1
  6
Continuous
100
AcDbCircle
 10
107.0721615376083
 20
224.5552418068467
 30
0.0
 40
2.327846
100
AcDbArc
 50
0.000003
 51
70.39594
  0
ARC
  5
6BE
330
18
100
AcDbEntity
  8
1
  6
Continuous
100
AcDbCircle
 10
89.70000153760834
 20
259.7000018068466
 30
0.0
 40
4.0
100
AcDbArc
 50
0.0
 51
90.0
  0
ARC
  5
6BF
330
18
100
AcDbEntity
  8
1
  6
Continuous
100
AcDbCircle
 10
84.73239353760833
 20
267.2000018068467
 30
0.0
 40
6.217608999999997
100
AcDbArc
 50
0.0
 51
85.68687500000001
  0
LINE
  5
6C0
330
18
100
AcDbEntity
  8
1
  6
Continuous
100
AcDbLine
 10
81.18578853760833
 20
259.3450438068466
 30
0.0
 11
82.20000153760834
 21
258.3308308068467
 31
0.0
  0
ARC
  5
6C1
330
18
100
AcDbEntity
  8
1
  6
Continuous
100
AcDbCircle
 10
80.50000153760832
 20
258.3000018068467
 30
0.0
 40
2.5
100
AcDbArc
 50
0.0
 51
90.0
  0
ARC
  5
6C2
330
18
100
AcDbEntity
  8
1
  6
Continuous
100
AcDbCircle
 10
76.03156053760833
 20
259.0295208068465
 30
0.0
 40
6.802859999999999
100
AcDbArc
 50
320.7951470000001
 51
335.806073
  0
ARC
  5
6C3
330
18
100
AcDbEntity
  8
1
  6
Continuous
100
AcDbCircle
 10
82.27504553760828
 20
257.0818618068467
 30
0.0
 40
0.399265
100
AcDbArc
 50
175.4320459999999
 51
228.555827
  0
LINE
  5
6C4
330
18
100
AcDbEntity
  8
1
  6
Continuous
100
AcDbLine
 10
80.6000015376083
 20
257.3450438068466
 30
0.0
 11
82.20000153760834
 21
258.9450438068465
 31
0.0
  0
LINE
  5
6C5
330
18
100
AcDbEntity
  8
1
  6
Continuous
100
AcDbLine
 10
82.30193553760832
 20
263.7000018068466
 30
0.0
 11
80.30193553760829
 21
265.7000018068465
 31
0.0
  0
LINE
  5
6C6
330
18
100
AcDbEntity
  8
1
  6
Continuous
100
AcDbLine
 10
80.56467753760834
 20
263.7000018068466
 30
0.0
 11
82.56467753760833
 21
265.7000018068465
 31
0.0
  0
ARC
  5
6C7
330
18
100
AcDbEntity
  8
1
  6
Continuous
100
AcDbCircle
 10
81.90000153760834
 20
259.7000018068466
 30
0.0
 40
4.0
100
AcDbArc
 50
0.0
 51
90.0
  0
LINE
  5
6C8
330
18
100
AcDbEntity
  8
1
  6
Continuous
100
AcDbLine
 10
75.52893353760831
 20
259.3450438068466
 30
0.0
 11
77.52893353760831
 21
257.3450438068466
 31
0.0
  0
LINE
  5
6C9
330
18
100
AcDbEntity
  8
1
  6
Continuous
100
AcDbLine
 10
74.11472053760831
 20
259.3450438068466
 30
0.0
 11
76.11472053760829
 21
257.3450438068466
 31
0.0
  0
LINE
  5
6CA
330
18
100
AcDbEntity
  8
1
  6
Continuous
100
AcDbLine
 10
76.94314753760831
 20
259.3450438068466
 30
0.0
 11
74.94314753760831
 21
257.3450438068466
 31
0.0
  0
LINE
  5
6CB
330
18
100
AcDbEntity
  8
1
  6
Continuous
100
AcDbLine
 10
72.70050653760833
 20
259.3450438068466
 30
0.0
 11
74.70050653760835
 21
257.3450438068466
 31
0.0
  0
LINE
  5
6CC
330
18
100
AcDbEntity
  8
1
  6
Continuous
100
AcDbLine
 10
71.28629353760833
 20
259.3450438068466
 30
0.0
 11
73.28629353760833
 21
257.3450438068466
 31
0.0
  0
LINE
  5
6CD
330
18
100
AcDbEntity
  8
1
  6
Continuous
100
AcDbLine
 10
69.87207953760833
 20
259.3450438068466
 30
0.0
 11
71.87207953760831
 21
257.3450438068466
 31
0.0
  0
LINE
  5
6CE
330
18
100
AcDbEntity
  8
1
  6
Continuous
100
AcDbLine
 10
75.52893353760831
 20
259.3450438068466
 30
0.0
 11
73.52893353760831
 21
257.3450438068466
 31
0.0
  0
LINE
  5
6CF
330
18
100
AcDbEntity
  8
1
  6
Continuous
100
AcDbLine
 10
74.11472053760831
 20
259.3450438068466
 30
0.0
 11
72.11472053760831
 21
257.3450438068466
 31
0.0
  0
LINE
  5
6D0
330
18
100
AcDbEntity
  8
1
  6
Continuous
100
AcDbLine
 10
72.70050653760833
 20
259.3450438068466
 30
0.0
 11
70.70050653760834
 21
257.3450438068466
 31
0.0
  0
LINE
  5
6D1
330
18
100
AcDbEntity
  8
1
  6
Continuous
100
AcDbLine
 10
80.73046853760834
 20
257.3450438068466
 30
0.0
 11
81.71082053760832
 21
257.3018478068466
 31
0.0
  0
ARC
  5
6D2
330
18
100
AcDbEntity
  8
1
  6
Continuous
100
AcDbCircle
 10
81.70314053760833
 20
257.1275538068466
 30
0.0
 40
0.174463
100
AcDbArc
 50
355.432046
 51
87.47704899999998
  0
ARC
  5
6D3
330
18
100
AcDbEntity
  8
1
  6
Continuous
100
AcDbCircle
 10
37.27223353760832
 20
331.4052878068466
 30
0.0
 40
88.41884899999998
100
AcDbArc
 50
298.898851
 51
299.866435
  0
LINE
  5
6D4
330
18
100
AcDbEntity
  8
1
  6
Continuous
100
AcDbLine
 10
79.77157453760833
 20
259.3450438068466
 30
0.0
 11
81.77157453760834
 21
257.3450438068466
 31
0.0
  0
LINE
  5
6D5
330
18
100
AcDbEntity
  8
1
  6
Continuous
100
AcDbLine
 10
78.35736153760833
 20
259.3450438068466
 30
0.0
 11
80.35736153760831
 21
257.3450438068466
 31
0.0
  0
LINE
  5
6D6
330
18
100
AcDbEntity
  8
1
  6
Continuous
100
AcDbLine
 10
76.94314753760831
 20
259.3450438068466
 30
0.0
 11
78.94314753760831
 21
257.3450438068466
 31
0.0
  0
LINE
  5
6D7
330
18
100
AcDbEntity
  8
1
  6
Continuous
100
AcDbLine
 10
81.18578853760833
 20
259.3450438068466
 30
0.0
 11
79.18578853760834
 21
257.3450438068466
 31
0.0
  0
LINE
  5
6D8
330
18
100
AcDbEntity
  8
1
  6
Continuous
100
AcDbLine
 10
79.77157453760833
 20
259.3450438068466
 30
0.0
 11
77.77157453760833
 21
257.3450438068466
 31
0.0
  0
LINE
  5
6D9
330
18
100
AcDbEntity
  8
1
  6
Continuous
100
AcDbLine
 10
78.35736153760833
 20
259.3450438068466
 30
0.0
 11
76.35736153760833
 21
257.3450438068466
 31
0.0
  0
LINE
  5
6DA
330
18
100
AcDbEntity
  8
1
  6
Continuous
100
AcDbLine
 10
73.77645253760831
 20
263.7000018068466
 30
0.0
 11
75.77645253760831
 21
265.7000018068465
 31
0.0
  0
LINE
  5
6DB
330
18
100
AcDbEntity
  8
1
  6
Continuous
100
AcDbLine
 10
73.25096853760832
 20
263.7000018068466
 30
0.0
 11
71.25096853760833
 21
265.7000018068465
 31
0.0
  0
LINE
  5
6DC
330
18
100
AcDbEntity
  8
1
  6
Continuous
100
AcDbLine
 10
75.5137105376083
 20
263.7000018068466
 30
0.0
 11
73.5137105376083
 21
265.7000018068465
 31
0.0
  0
LINE
  5
6DD
330
18
100
AcDbEntity
  8
1
  6
Continuous
100
AcDbLine
 10
71.5137105376083
 20
263.7000018068466
 30
0.0
 11
73.5137105376083
 21
265.7000018068465
 31
0.0
  0
LINE
  5
6DE
330
18
100
AcDbEntity
  8
1
  6
Continuous
100
AcDbLine
 10
80.03919353760833
 20
263.7000018068466
 30
0.0
 11
78.03919353760831
 21
265.7000018068465
 31
0.0
  0
LINE
  5
6DF
330
18
100
AcDbEntity
  8
1
  6
Continuous
100
AcDbLine
 10
76.03919353760831
 20
263.7000018068466
 30
0.0
 11
78.03919353760831
 21
265.7000018068465
 31
0.0
  0
LINE
  5
6E0
330
18
100
AcDbEntity
  8
1
  6
Continuous
100
AcDbLine
 10
78.30193553760833
 20
263.7000018068466
 30
0.0
 11
80.30193553760829
 21
265.7000018068465
 31
0.0
  0
LINE
  5
6E1
330
18
100
AcDbEntity
  8
1
  6
Continuous
100
AcDbLine
 10
77.77645253760829
 20
263.7000018068466
 30
0.0
 11
75.77645253760831
 21
265.7000018068465
 31
0.0
  0
LINE
  5
6E2
330
18
100
AcDbEntity
  8
1
  6
Continuous
100
AcDbLine
 10
82.01421553760829
 20
257.3450438068466
 30
0.0
 11
82.20000153760834
 21
257.5308308068467
 31
0.0
  0
ARC
  5
6E3
330
18
100
AcDbEntity
  8
1
  6
Continuous
100
AcDbCircle
 10
110.1208175376082
 20
220.0525718068467
 30
0.0
 40
45.685387
100
AcDbArc
 50
127.189545
 51
127.6145939999999
  0
ARC
  5
6E4
330
18
100
AcDbEntity
  8
1
  6
Continuous
100
AcDbCircle
 10
82.3956365376083
 20
256.5929928068466
 30
0.0
 40
0.182772
100
AcDbArc
 50
307.1895449999999
 51
77.364726
  0
ARC
  5
6E5
330
18
100
AcDbEntity
  8
1
  6
Continuous
100
AcDbCircle
 10
82.33415253760833
 20
256.3187198068466
 30
0.0
 40
0.463853
100
AcDbArc
 50
77.364726
 51
90.0
  0
LINE
  5
6E6
330
18
100
AcDbEntity
  8
1
  6
Continuous
100
AcDbLine
 10
82.20000153760834
 20
257.3450438068466
 30
0.0
 11
82.20000153760834
 21
259.3450438068466
 31
0.0
  0
LINE
  5
6E7
330
18
100
AcDbEntity
  8
1
  6
Continuous
100
AcDbLine
 10
89.09016053760831
 20
263.7000018068466
 30
0.0
 11
87.09016053760832
 21
265.7000018068465
 31
0.0
  0
LINE
  5
6E8
330
18
100
AcDbEntity
  8
1
  6
Continuous
100
AcDbLine
 10
87.35290253760835
 20
263.7000018068466
 30
0.0
 11
89.35290253760834
 21
265.7000018068465
 31
0.0
  0
LINE
  5
6E9
330
18
100
AcDbEntity
  8
1
  6
Continuous
100
AcDbLine
 10
84.56467753760835
 20
263.7000018068466
 30
0.0
 11
82.56467753760833
 21
265.7000018068465
 31
0.0
  0
LINE
  5
6EA
330
18
100
AcDbEntity
  8
1
  6
Continuous
100
AcDbLine
 10
86.82741853760836
 20
263.7000018068466
 30
0.0
 11
84.82741853760835
 21
265.7000018068465
 31
0.0
  0
LINE
  5
6EB
330
18
100
AcDbEntity
  8
1
  6
Continuous
100
AcDbLine
 10
82.8274185376083
 20
263.7000018068466
 30
0.0
 11
84.82741853760835
 21
265.7000018068465
 31
0.0
  0
LINE
  5
6EC
330
18
100
AcDbEntity
  8
1
  6
Continuous
100
AcDbLine
 10
85.09016053760831
 20
263.7000018068466
 30
0.0
 11
87.09016053760832
 21
265.7000018068465
 31
0.0
  0
LINE
  5
6ED
330
18
100
AcDbEntity
  8
1
  6
Continuous
100
AcDbLine
 10
91.90000153760832
 20
265.4156438068465
 30
0.0
 11
91.61564353760832
 21
265.7000018068465
 31
0.0
  0
LINE
  5
6EE
330
18
100
AcDbEntity
  8
1
  6
Continuous
100
AcDbLine
 10
91.90000153760832
 20
263.7216178068466
 30
0.0
 11
91.87838553760832
 21
263.7000018068466
 31
0.0
  0
LINE
  5
6EF
330
18
100
AcDbEntity
  8
1
  6
Continuous
100
AcDbLine
 10
91.35290253760834
 20
263.7000018068466
 30
0.0
 11
89.35290253760834
 21
265.7000018068465
 31
0.0
  0
LINE
  5
6F0
330
18
100
AcDbEntity
  8
1
  6
Continuous
100
AcDbLine
 10
89.61564353760833
 20
263.7000018068466
 30
0.0
 11
91.61564353760832
 21
265.7000018068465
 31
0.0
  0
LINE
  5
6F1
330
18
100
AcDbEntity
  8
1
  6
Continuous
100
AcDbLine
 10
91.90000153760832
 20
267.2000018068467
 30
0.0
 11
91.90000153760832
 21
263.7000018068466
 31
0.0
  0
LINE
  5
6F2
330
18
100
AcDbEntity
  8
2
  6
Continuous
100
AcDbLine
 10
70.84700153760831
 20
280.2434658068467
 30
0.0
 11
72.20000153760833
 21
277.9000018068466
 31
0.0
  0
LINE
  5
6F3
330
18
100
AcDbEntity
  8
1
  6
Continuous
100
AcDbLine
 10
82.20000153760834
 20
277.9000018068466
 30
0.0
 11
82.20000153760834
 21
273.4000018068466
 31
0.0
  0
LINE
  5
6F4
330
18
100
AcDbEntity
  8
1
  6
Continuous
100
AcDbLine
 10
69.70000153760833
 20
302.8999958068467
 30
0.0
 11
54.70000153760832
 21
302.8999958068467
 31
0.0
  0
LINE
  5
6F5
330
18
100
AcDbEntity
  8
1
  6
Continuous
100
AcDbLine
 10
72.20000153760833
 20
300.3999958068465
 30
0.0
 11
52.20000153760832
 21
300.3999958068465
 31
0.0
  0
LINE
  5
6F6
330
18
100
AcDbEntity
  8
1
  6
Continuous
100
AcDbLine
 10
54.70000153760832
 20
302.8999958068467
 30
0.0
 11
52.20000153760832
 21
300.3999958068465
 31
0.0
  0
LINE
  5
6F7
330
18
100
AcDbEntity
  8
1
  6
Continuous
100
AcDbLine
 10
69.70000153760833
 20
302.8999958068467
 30
0.0
 11
72.20000153760833
 21
300.3999958068465
 31
0.0
  0
LINE
  5
6F8
330
18
100
AcDbEntity
  8
1
  6
Continuous
100
AcDbLine
 10
185.9559315376082
 20
356.6078758068466
 30
0.0
 11
185.9398055376083
 21
355.8999968068466
 31
0.0
  0
ARC
  5
6F9
330
18
100
AcDbEntity
  8
1
  6
Continuous
100
AcDbCircle
 10
217.5145715376082
 20
357.3999968068467
 30
0.0
 40
1.0
100
AcDbArc
 50
207.0129759999999
 51
270.0
  0
ARC
  5
6FA
330
18
100
AcDbEntity
  8
1
  6
Continuous
100
AcDbCircle
 10
217.5145715376082
 20
357.3999968068467
 30
0.0
 40
1.5
100
AcDbArc
 50
207.0129759999999
 51
270.0
  0
ARC
  5
6FB
330
18
100
AcDbEntity
  8
1
  6
Continuous
100
AcDbCircle
 10
230.2407385376083
 20
348.5999968068465
 30
0.0
 40
7.299999999999998
100
AcDbArc
 50
49.854893
 51
90.00000300000001
  0
LINE
  5
6FC
330
18
100
AcDbEntity
  8
1
  6
Continuous
100
AcDbLine
 10
213.9240885376083
 20
357.5999968068466
 30
0.0
 11
213.9240885376083
 21
355.5999968068466
 31
0.0
  0
LINE
  5
6FD
330
18
100
AcDbEntity
  8
1
  6
Continuous
100
AcDbLine
 10
206.8775795376083
 20
357.5999968068466
 30
0.0
 11
206.8775795376083
 21
355.5999968068466
 31
0.0
  0
LINE
  5
6FE
330
18
100
AcDbEntity
  8
1
  6
Continuous
100
AcDbLine
 10
205.1401155376082
 20
357.5999968068466
 30
0.0
 11
205.1401155376082
 21
355.8999968068466
 31
0.0
  0
ARC
  5
6FF
330
18
100
AcDbEntity
  8
1
  6
Continuous
100
AcDbCircle
 10
192.2730255376082
 20
353.8999968068466
 30
0.0
 40
2.0
100
AcDbArc
 50
0.0
 51
90.00000300000001
  0
ARC
  5
700
330
18
100
AcDbEntity
  8
1
  6
Continuous
100
AcDbCircle
 10
172.6501305376082
 20
353.8999968068466
 30
0.0
 40
2.0
100
AcDbArc
 50
0.0
 51
90.00000300000001
  0
ARC
  5
701
330
18
100
AcDbEntity
  8
1
  6
Continuous
100
AcDbCircle
 10
171.3528135376083
 20
354.4732468068467
 30
0.0
 40
2.0
100
AcDbArc
 50
45.51047899999998
 51
98.569759
  0
ARC
  5
702
330
18
100
AcDbEntity
  8
1
  6
Continuous
100
AcDbCircle
 10
237.2850605376083
 20
350.3999968068466
 30
0.0
 40
6.0
100
AcDbArc
 50
51.40537100000001
 51
90.0
  0
LINE
  5
703
330
18
100
AcDbEntity
  8
4
  6
CENTER
100
AcDbLine
 10
260.9897015376083
 20
417.0974788068467
 30
0.0
 11
260.9897015376083
 21
343.0999968068466
 31
0.0
  0
LINE
  5
704
330
18
100
AcDbEntity
  8
4
  6
CENTER
100
AcDbLine
 10
223.9897015376083
 20
339.7999968068467
 30
0.0
 11
223.9897015376083
 21
416.7999968068468
 31
0.0
  0
CIRCLE
  5
705
330
18
100
AcDbEntity
  8
1
  6
Continuous
100
AcDbCircle
 10
260.9897015376083
 20
380.0999968068466
 30
0.0
 40
29.7
  0
CIRCLE
  5
706
330
18
100
AcDbEntity
  8
1
  6
Continuous
100
AcDbCircle
 10
260.9897015376083
 20
380.0999968068466
 30
0.0
 40
29.0
  0
ARC
  5
707
330
18
100
AcDbEntity
  8
1
  6
Continuous
100
AcDbCircle
 10
260.9897015376083
 20
380.0999968068466
 30
0.0
 40
32.0
100
AcDbArc
 50
231.405371
 51
128.594629
  0
ARC
  5
708
330
18
100
AcDbEntity
  8
1
  6
Continuous
100
AcDbCircle
 10
220.4897015376081
 20
355.7092378068466
 30
0.0
 40
10.109241
100
AcDbArc
 50
249.7438419999999
 51
290.256158
  0
ARC
  5
709
330
18
100
AcDbEntity
  8
1
  6
Continuous
100
AcDbCircle
 10
220.4897015376081
 20
341.4907558068466
 30
0.0
 40
10.109241
100
AcDbArc
 50
69.743842
 51
110.2561579999999
  0
LINE
  5
70A
330
18
100
AcDbEntity
  8
1
  6
Continuous
100
AcDbLine
 10
230.9897015376081
 20
345.5999968068466
 30
0.0
 11
216.9897015376083
 21
345.5999968068466
 31
0.0
  0
LINE
  5
70B
330
18
100
AcDbEntity
  8
1
  6
Continuous
100
AcDbLine
 10
232.9897015376081
 20
351.5999968068466
 30
0.0
 11
214.9897015376083
 21
351.5999968068466
 31
0.0
  0
LINE
  5
70C
330
18
100
AcDbEntity
  8
1
  6
Continuous
100
AcDbLine
 10
213.9240885376083
 20
355.8999968068466
 30
0.0
 11
238.1558225376083
 21
355.8999968068466
 31
0.0
  0
LINE
  5
70D
330
18
100
AcDbEntity
  8
1
  6
Continuous
100
AcDbLine
 10
194.2730255376082
 20
353.5999968068466
 30
0.0
 11
230.2407385376083
 21
353.5999968068466
 31
0.0
  0
LINE
  5
70E
330
18
100
AcDbEntity
  8
1
  6
Continuous
100
AcDbLine
 10
214.5657115376083
 20
223.3748428068467
 30
0.0
 11
224.9897015376083
 21
263.7000018068466
 31
0.0
  0
ARC
  5
70F
330
18
100
AcDbEntity
  8
1
  6
Continuous
100
AcDbCircle
 10
223.9897015376083
 20
199.9000018068467
 30
0.0
 40
50.0
100
AcDbArc
 50
92.963005
 51
148.8121099999998
  0
LINE
  5
710
330
18
100
AcDbEntity
  8
1
  6
Continuous
100
AcDbLine
 10
174.6501415376082
 20
228.2949538068467
 30
0.0
 11
194.2730285376083
 21
220.8155128068466
 31
0.0
  0
ARC
  5
711
330
18
100
AcDbEntity
  8
1
  6
Continuous
100
AcDbCircle
 10
223.9897015376083
 20
199.9000018068467
 30
0.0
 40
36.5
100
AcDbArc
 50
99.77005500000002
 51
136.2097469999999
  0
LINE
  5
712
330
18
100
AcDbEntity
  8
1
  6
Continuous
100
AcDbLine
 10
169.7735295376083
 20
355.8999968068466
 30
0.0
 11
205.1401155376082
 21
355.8999968068466
 31
0.0
  0
ARC
  5
713
330
18
100
AcDbEntity
  8
1
  6
Continuous
100
AcDbCircle
 10
183.2446125376083
 20
343.3999968068466
 30
0.0
 40
11.028413
100
AcDbArc
 50
316.9415599999998
 51
0.0
  0
ARC
  5
714
330
18
100
AcDbEntity
  8
1
  6
Continuous
100
AcDbCircle
 10
184.8593755376083
 20
343.3999968068466
 30
0.0
 40
11.028413
100
AcDbArc
 50
180.00001
 51
223.0584299999999
  0
ARC
  5
715
330
18
100
AcDbEntity
  8
1
  6
Continuous
100
AcDbCircle
 10
185.6785435376082
 20
343.3999968068466
 30
0.0
 40
11.028413
100
AcDbArc
 50
180.00001
 51
223.0584299999999
  0
ARC
  5
716
330
18
100
AcDbEntity
  8
1
  6
Continuous
100
AcDbCircle
 10
184.4615785376083
 20
342.2628368068465
 30
0.0
 40
9.362842
100
AcDbArc
 50
223.05844
 51
316.9415599999998
  0
ARC
  5
717
330
18
100
AcDbEntity
  8
1
  6
Continuous
100
AcDbCircle
 10
183.6424105376082
 20
342.2628368068465
 30
0.0
 40
9.362842
100
AcDbArc
 50
223.05844
 51
272.50727
  0
LINE
  5
718
330
18
100
AcDbEntity
  8
1
  6
Continuous
100
AcDbLine
 10
173.8309625376081
 20
352.5999968068465
 30
0.0
 11
173.8309625376081
 21
343.3999968068466
 31
0.0
  0
LINE
  5
719
330
18
100
AcDbEntity
  8
1
  6
Continuous
100
AcDbLine
 10
174.6501305376082
 20
353.8999968068466
 30
0.0
 11
174.6501305376082
 21
343.3999968068466
 31
0.0
  0
LINE
  5
71A
330
18
100
AcDbEntity
  8
1
  6
Continuous
100
AcDbLine
 10
169.7735295376083
 20
355.8999968068466
 30
0.0
 11
169.7735295376083
 21
353.5999968068466
 31
0.0
  0
LINE
  5
71B
330
18
100
AcDbEntity
  8
1
  6
Continuous
100
AcDbLine
 10
169.7735295376083
 20
353.5999968068466
 30
0.0
 11
172.8309625376082
 21
353.5999968068466
 31
0.0
  0
ARC
  5
71C
330
18
100
AcDbEntity
  8
1
  6
Continuous
100
AcDbCircle
 10
174.2131355376083
 20
355.8999968068466
 30
0.0
 40
5.0
100
AcDbArc
 50
207.38711
 51
265.6164099999999
  0
ARC
  5
71D
330
18
100
AcDbEntity
  8
1
  6
Continuous
100
AcDbCircle
 10
172.8309625376082
 20
352.5999968068465
 30
0.0
 40
1.0
100
AcDbArc
 50
0.0
 51
90.00000300000001
  0
ARC
  5
71E
330
18
100
AcDbEntity
  8
1
  6
Continuous
100
AcDbCircle
 10
204.8775795376083
 20
355.5999968068466
 30
0.0
 40
2.0
100
AcDbArc
 50
270.0
 51
0.0
  0
LINE
  5
71F
330
18
100
AcDbEntity
  8
1
  6
Continuous
100
AcDbLine
 10
194.2730255376082
 20
353.8999968068466
 30
0.0
 11
194.2730255376082
 21
343.3999968068466
 31
0.0
  0
LINE
  5
720
330
18
100
AcDbEntity
  8
1
  6
Continuous
100
AcDbLine
 10
202.8319385376083
 20
353.5999968068466
 30
0.0
 11
194.2730295376083
 21
352.7857768068467
 31
0.0
  0
LINE
  5
721
330
18
100
AcDbEntity
  8
1
  6
Continuous
100
AcDbLine
 10
216.9897015376083
 20
351.5999968068466
 30
0.0
 11
216.9897015376083
 21
345.5999968068466
 31
0.0
  0
ARC
  5
722
330
18
100
AcDbEntity
  8
1
  6
Continuous
100
AcDbCircle
 10
211.9240885376083
 20
355.5999968068466
 30
0.0
 40
2.0
100
AcDbArc
 50
270.0
 51
0.0
  0
LINE
  5
723
330
18
100
AcDbEntity
  8
1
  6
Continuous
100
AcDbLine
 10
214.9897015376083
 20
353.5999968068466
 30
0.0
 11
214.9897015376083
 21
351.5999968068466
 31
0.0
  0
LINE
  5
724
330
18
100
AcDbEntity
  8
2
  6
Continuous
100
AcDbLine
 10
252.3427015376083
 20
301.7529958068467
 30
0.0
 11
252.3427015376083
 21
280.2434658068467
 31
0.0
  0
LINE
  5
725
330
18
100
AcDbEntity
  8
2
  6
Continuous
100
AcDbLine
 10
269.6367015376083
 20
280.2434658068467
 30
0.0
 11
269.6367015376083
 21
301.7529958068467
 31
0.0
  0
LINE
  5
726
330
18
100
AcDbEntity
  8
1
  6
Continuous
100
AcDbLine
 10
270.9897015376083
 20
300.3999958068465
 30
0.0
 11
270.9897015376083
 21
277.9000018068466
 31
0.0
  0
LINE
  5
727
330
18
100
AcDbEntity
  8
1
  6
Continuous
100
AcDbLine
 10
250.9897015376083
 20
300.3999958068465
 30
0.0
 11
250.9897015376083
 21
277.9000018068466
 31
0.0
  0
LINE
  5
728
330
18
100
AcDbEntity
  8
1
  6
Continuous
100
AcDbLine
 10
250.9897015376083
 20
280.2434658068467
 30
0.0
 11
270.9897015376083
 21
280.2434658068467
 31
0.0
  0
LINE
  5
729
330
18
100
AcDbEntity
  8
1
  6
Continuous
100
AcDbLine
 10
269.7779265376082
 20
263.7000018068466
 30
0.0
 11
267.7779265376082
 21
265.7000018068465
 31
0.0
  0
LINE
  5
72A
330
18
100
AcDbEntity
  8
1
  6
Continuous
100
AcDbLine
 10
268.0406685376082
 20
263.7000018068466
 30
0.0
 11
270.0406685376083
 21
265.7000018068465
 31
0.0
  0
LINE
  5
72B
330
18
100
AcDbEntity
  8
1
  6
Continuous
100
AcDbLine
 10
290.6897015376083
 20
265.7000018068465
 30
0.0
 11
231.2897015376082
 21
265.7000018068465
 31
0.0
  0
LINE
  5
72C
330
18
100
AcDbEntity
  8
1
  6
Continuous
100
AcDbLine
 10
290.6897015376083
 20
263.7000018068466
 30
0.0
 11
222.2897015376083
 21
263.7000018068466
 31
0.0
  0
LINE
  5
72D
330
18
100
AcDbEntity
  8
1
  6
Continuous
100
AcDbLine
 10
290.6897015376083
 20
267.2000018068467
 30
0.0
 11
231.2897015376082
 21
267.2000018068467
 31
0.0
  0
LINE
  5
72E
330
18
100
AcDbEntity
  8
1
  6
Continuous
100
AcDbLine
 10
284.0837115376082
 20
277.9000018068466
 30
0.0
 11
237.8956905376082
 21
277.9000018068466
 31
0.0
  0
LINE
  5
72F
330
18
100
AcDbEntity
  8
1
  6
Continuous
100
AcDbLine
 10
284.0837115376082
 20
273.4000018068466
 30
0.0
 11
237.8956905376082
 21
273.4000018068466
 31
0.0
  0
LINE
  5
730
330
18
100
AcDbEntity
  8
1
  6
Continuous
100
AcDbLine
 10
244.8877685376082
 20
263.7000018068466
 30
0.0
 11
242.8877685376081
 21
265.7000018068465
 31
0.0
  0
LINE
  5
731
330
18
100
AcDbEntity
  8
1
  6
Continuous
100
AcDbLine
 10
243.1505095376082
 20
263.7000018068466
 30
0.0
 11
245.1505095376083
 21
265.7000018068465
 31
0.0
  0
ARC
  5
732
330
18
100
AcDbEntity
  8
1
  6
Continuous
100
AcDbCircle
 10
238.3759575376083
 20
267.2820188068466
 30
0.0
 40
6.136803999999997
100
AcDbArc
 50
94.48856399999996
 51
180.7657739999999
  0
LINE
  5
733
330
18
100
AcDbEntity
  8
1
  6
Continuous
100
AcDbLine
 10
222.2897015376083
 20
263.7000018068466
 30
0.0
 11
222.2897015376083
 21
260.8000018068466
 31
0.0
  0
LINE
  5
734
330
18
100
AcDbEntity
  8
1
  6
Continuous
100
AcDbLine
 10
222.2897015376083
 20
260.8000018068466
 30
0.0
 11
224.2074025376082
 21
260.8000018068466
 31
0.0
  0
LINE
  5
735
330
18
100
AcDbEntity
  8
1
  6
Continuous
100
AcDbLine
 10
238.0995435376083
 20
263.7000018068466
 30
0.0
 11
236.0995435376083
 21
265.7000018068465
 31
0.0
  0
LINE
  5
736
330
18
100
AcDbEntity
  8
1
  6
Continuous
100
AcDbLine
 10
236.3622845376083
 20
263.7000018068466
 30
0.0
 11
238.3622845376082
 21
265.7000018068465
 31
0.0
  0
LINE
  5
737
330
18
100
AcDbEntity
  8
1
  6
Continuous
100
AcDbLine
 10
231.2897015376082
 20
265.4156438068465
 30
0.0
 11
231.5740595376082
 21
265.7000018068465
 31
0.0
  0
LINE
  5
738
330
18
100
AcDbEntity
  8
1
  6
Continuous
100
AcDbLine
 10
231.3113185376083
 20
263.7000018068466
 30
0.0
 11
231.2897015376082
 21
263.7216178068466
 31
0.0
  0
LINE
  5
739
330
18
100
AcDbEntity
  8
1
  6
Continuous
100
AcDbLine
 10
235.8368015376083
 20
263.7000018068466
 30
0.0
 11
233.8368015376083
 21
265.7000018068465
 31
0.0
  0
LINE
  5
73A
330
18
100
AcDbEntity
  8
1
  6
Continuous
100
AcDbLine
 10
233.5740595376082
 20
263.7000018068466
 30
0.0
 11
231.5740595376082
 21
265.7000018068465
 31
0.0
  0
LINE
  5
73B
330
18
100
AcDbEntity
  8
1
  6
Continuous
100
AcDbLine
 10
234.0995435376083
 20
263.7000018068466
 30
0.0
 11
236.0995435376083
 21
265.7000018068465
 31
0.0
  0
LINE
  5
73C
330
18
100
AcDbEntity
  8
1
  6
Continuous
100
AcDbLine
 10
231.8368015376082
 20
263.7000018068466
 30
0.0
 11
233.8368015376083
 21
265.7000018068465
 31
0.0
  0
LINE
  5
73D
330
18
100
AcDbEntity
  8
1
  6
Continuous
100
AcDbLine
 10
231.2897015376082
 20
267.2000018068467
 30
0.0
 11
231.2897015376082
 21
263.7000018068466
 31
0.0
  0
LINE
  5
73E
330
18
100
AcDbEntity
  8
1
  6
Continuous
100
AcDbLine
 10
242.6250265376082
 20
263.7000018068466
 30
0.0
 11
240.6250265376082
 21
265.7000018068465
 31
0.0
  0
LINE
  5
73F
330
18
100
AcDbEntity
  8
1
  6
Continuous
100
AcDbLine
 10
240.3622845376082
 20
263.7000018068466
 30
0.0
 11
238.3622845376082
 21
265.7000018068465
 31
0.0
  0
LINE
  5
740
330
18
100
AcDbEntity
  8
1
  6
Continuous
100
AcDbLine
 10
240.8877685376081
 20
263.7000018068466
 30
0.0
 11
242.8877685376081
 21
265.7000018068465
 31
0.0
  0
LINE
  5
741
330
18
100
AcDbEntity
  8
1
  6
Continuous
100
AcDbLine
 10
238.6250265376082
 20
263.7000018068466
 30
0.0
 11
240.6250265376082
 21
265.7000018068465
 31
0.0
  0
LINE
  5
742
330
18
100
AcDbEntity
  8
1
  6
Continuous
100
AcDbLine
 10
237.8956905376082
 20
277.9000018068466
 30
0.0
 11
237.8956905376082
 21
273.4000018068466
 31
0.0
  0
LINE
  5
743
330
18
100
AcDbEntity
  8
1
  6
Continuous
100
AcDbLine
 10
256.2014765376083
 20
263.7000018068466
 30
0.0
 11
254.2014765376082
 21
265.7000018068465
 31
0.0
  0
LINE
  5
744
330
18
100
AcDbEntity
  8
1
  6
Continuous
100
AcDbLine
 10
254.4642185376082
 20
263.7000018068466
 30
0.0
 11
256.4642185376083
 21
265.7000018068465
 31
0.0
  0
LINE
  5
745
330
18
100
AcDbEntity
  8
1
  6
Continuous
100
AcDbLine
 10
247.6759935376081
 20
263.7000018068466
 30
0.0
 11
249.6759935376081
 21
265.7000018068465
 31
0.0
  0
LINE
  5
746
330
18
100
AcDbEntity
  8
1
  6
Continuous
100
AcDbLine
 10
249.4132515376083
 20
263.7000018068466
 30
0.0
 11
247.4132515376083
 21
265.7000018068465
 31
0.0
  0
LINE
  5
747
330
18
100
AcDbEntity
  8
1
  6
Continuous
100
AcDbLine
 10
247.1505095376083
 20
263.7000018068466
 30
0.0
 11
245.1505095376083
 21
265.7000018068465
 31
0.0
  0
LINE
  5
748
330
18
100
AcDbEntity
  8
1
  6
Continuous
100
AcDbLine
 10
245.4132515376083
 20
263.7000018068466
 30
0.0
 11
247.4132515376083
 21
265.7000018068465
 31
0.0
  0
LINE
  5
749
330
18
100
AcDbEntity
  8
1
  6
Continuous
100
AcDbLine
 10
253.9387355376082
 20
263.7000018068466
 30
0.0
 11
251.9387355376082
 21
265.7000018068465
 31
0.0
  0
LINE
  5
74A
330
18
100
AcDbEntity
  8
1
  6
Continuous
100
AcDbLine
 10
252.2014765376082
 20
263.7000018068466
 30
0.0
 11
254.2014765376082
 21
265.7000018068465
 31
0.0
  0
LINE
  5
74B
330
18
100
AcDbEntity
  8
1
  6
Continuous
100
AcDbLine
 10
251.6759935376081
 20
263.7000018068466
 30
0.0
 11
249.6759935376081
 21
265.7000018068465
 31
0.0
  0
LINE
  5
74C
330
18
100
AcDbEntity
  8
1
  6
Continuous
100
AcDbLine
 10
249.9387355376082
 20
263.7000018068466
 30
0.0
 11
251.9387355376082
 21
265.7000018068465
 31
0.0
  0
LINE
  5
74D
330
18
100
AcDbEntity
  8
1
  6
Continuous
100
AcDbLine
 10
262.9897015376083
 20
263.7000018068466
 30
0.0
 11
260.9897015376083
 21
265.7000018068465
 31
0.0
  0
LINE
  5
74E
330
18
100
AcDbEntity
  8
1
  6
Continuous
100
AcDbLine
 10
261.2524435376082
 20
263.7000018068466
 30
0.0
 11
263.2524435376082
 21
265.7000018068465
 31
0.0
  0
LINE
  5
74F
330
18
100
AcDbEntity
  8
1
  6
Continuous
100
AcDbLine
 10
260.7269605376082
 20
263.7000018068466
 30
0.0
 11
258.7269605376082
 21
265.7000018068465
 31
0.0
  0
LINE
  5
750
330
18
100
AcDbEntity
  8
1
  6
Continuous
100
AcDbLine
 10
258.4642185376083
 20
263.7000018068466
 30
0.0
 11
256.4642185376083
 21
265.7000018068465
 31
0.0
  0
LINE
  5
751
330
18
100
AcDbEntity
  8
1
  6
Continuous
100
AcDbLine
 10
258.9897015376083
 20
263.7000018068466
 30
0.0
 11
260.9897015376083
 21
265.7000018068465
 31
0.0
  0
LINE
  5
752
330
18
100
AcDbEntity
  8
1
  6
Continuous
100
AcDbLine
 10
256.7269605376082
 20
263.7000018068466
 30
0.0
 11
258.7269605376082
 21
265.7000018068465
 31
0.0
  0
LINE
  5
753
330
18
100
AcDbEntity
  8
1
  6
Continuous
100
AcDbLine
 10
265.2524435376082
 20
263.7000018068466
 30
0.0
 11
263.2524435376082
 21
265.7000018068465
 31
0.0
  0
LINE
  5
754
330
18
100
AcDbEntity
  8
1
  6
Continuous
100
AcDbLine
 10
267.5151855376082
 20
263.7000018068466
 30
0.0
 11
265.5151855376082
 21
265.7000018068465
 31
0.0
  0
LINE
  5
755
330
18
100
AcDbEntity
  8
1
  6
Continuous
100
AcDbLine
 10
263.5151855376082
 20
263.7000018068466
 30
0.0
 11
265.5151855376082
 21
265.7000018068465
 31
0.0
  0
LINE
  5
756
330
18
100
AcDbEntity
  8
1
  6
Continuous
100
AcDbLine
 10
265.7779265376082
 20
263.7000018068466
 30
0.0
 11
267.7779265376082
 21
265.7000018068465
 31
0.0
  0
LINE
  5
757
330
18
100
AcDbEntity
  8
2
  6
Continuous
100
AcDbLine
 10
252.3427015376083
 20
280.2434658068467
 30
0.0
 11
250.9897015376083
 21
277.9000018068466
 31
0.0
  0
LINE
  5
758
330
18
100
AcDbEntity
  8
1
  6
Continuous
100
AcDbLine
 10
249.4426955376082
 20
273.4000018068466
 30
0.0
 11
249.4426955376082
 21
277.9000018068466
 31
0.0
  0
LINE
  5
759
330
18
100
AcDbEntity
  8
1
  6
Continuous
100
AcDbLine
 10
292.9897015376083
 20
259.7000018068466
 30
0.0
 11
292.9897015376083
 21
251.7000018068467
 31
0.0
  0
ARC
  5
75A
330
18
100
AcDbEntity
  8
1
  6
Continuous
100
AcDbCircle
 10
284.1713165376081
 20
239.2000018068467
 30
0.0
 40
12.5
100
AcDbArc
 50
90.0
 51
145.640148
  0
LINE
  5
75B
330
18
100
AcDbEntity
  8
1
  6
Continuous
100
AcDbLine
 10
292.9897015376083
 20
251.7000018068467
 30
0.0
 11
284.1713165376081
 21
251.7000018068467
 31
0.0
  0
ARC
  5
75C
330
18
100
AcDbEntity
  8
1
  6
Continuous
100
AcDbCircle
 10
288.9897015376083
 20
259.7000018068466
 30
0.0
 40
4.0
100
AcDbArc
 50
0.0
 51
90.0
  0
ARC
  5
75D
330
18
100
AcDbEntity
  8
1
  6
Continuous
100
AcDbCircle
 10
283.6034455376082
 20
267.2820178068465
 30
0.0
 40
6.136804999999997
100
AcDbArc
 50
359.2342339999998
 51
85.511438
  0
LINE
  5
75E
330
18
100
AcDbEntity
  8
1
  6
Continuous
100
AcDbLine
 10
281.0916355376081
 20
263.7000018068466
 30
0.0
 11
279.0916355376081
 21
265.7000018068465
 31
0.0
  0
LINE
  5
75F
330
18
100
AcDbEntity
  8
1
  6
Continuous
100
AcDbLine
 10
279.3543775376083
 20
263.7000018068466
 30
0.0
 11
281.3543775376082
 21
265.7000018068465
 31
0.0
  0
LINE
  5
760
330
18
100
AcDbEntity
  8
1
  6
Continuous
100
AcDbLine
 10
272.5661525376083
 20
263.7000018068466
 30
0.0
 11
274.5661525376083
 21
265.7000018068465
 31
0.0
  0
LINE
  5
761
330
18
100
AcDbEntity
  8
1
  6
Continuous
100
AcDbLine
 10
272.0406685376083
 20
263.7000018068466
 30
0.0
 11
270.0406685376083
 21
265.7000018068465
 31
0.0
  0
LINE
  5
762
330
18
100
AcDbEntity
  8
1
  6
Continuous
100
AcDbLine
 10
274.3034105376083
 20
263.7000018068466
 30
0.0
 11
272.3034105376083
 21
265.7000018068465
 31
0.0
  0
LINE
  5
763
330
18
100
AcDbEntity
  8
1
  6
Continuous
100
AcDbLine
 10
270.3034105376083
 20
263.7000018068466
 30
0.0
 11
272.3034105376083
 21
265.7000018068465
 31
0.0
  0
LINE
  5
764
330
18
100
AcDbEntity
  8
1
  6
Continuous
100
AcDbLine
 10
276.5661525376083
 20
263.7000018068466
 30
0.0
 11
274.5661525376083
 21
265.7000018068465
 31
0.0
  0
LINE
  5
765
330
18
100
AcDbEntity
  8
1
  6
Continuous
100
AcDbLine
 10
278.8288935376081
 20
263.7000018068466
 30
0.0
 11
276.8288935376081
 21
265.7000018068465
 31
0.0
  0
LINE
  5
766
330
18
100
AcDbEntity
  8
1
  6
Continuous
100
AcDbLine
 10
274.8288935376081
 20
263.7000018068466
 30
0.0
 11
276.8288935376081
 21
265.7000018068465
 31
0.0
  0
LINE
  5
767
330
18
100
AcDbEntity
  8
1
  6
Continuous
100
AcDbLine
 10
277.0916355376081
 20
263.7000018068466
 30
0.0
 11
279.0916355376081
 21
265.7000018068465
 31
0.0
  0
LINE
  5
768
330
18
100
AcDbEntity
  8
1
  6
Continuous
100
AcDbLine
 10
287.8798605376083
 20
263.7000018068466
 30
0.0
 11
285.8798605376083
 21
265.7000018068465
 31
0.0
  0
LINE
  5
769
330
18
100
AcDbEntity
  8
1
  6
Continuous
100
AcDbLine
 10
286.1426025376081
 20
263.7000018068466
 30
0.0
 11
288.1426025376081
 21
265.7000018068465
 31
0.0
  0
LINE
  5
76A
330
18
100
AcDbEntity
  8
1
  6
Continuous
100
AcDbLine
 10
283.3543775376082
 20
263.7000018068466
 30
0.0
 11
281.3543775376082
 21
265.7000018068465
 31
0.0
  0
LINE
  5
76B
330
18
100
AcDbEntity
  8
1
  6
Continuous
100
AcDbLine
 10
285.6171185376083
 20
263.7000018068466
 30
0.0
 11
283.6171185376083
 21
265.7000018068465
 31
0.0
  0
LINE
  5
76C
330
18
100
AcDbEntity
  8
1
  6
Continuous
100
AcDbLine
 10
283.8798605376083
 20
263.7000018068466
 30
0.0
 11
285.8798605376083
 21
265.7000018068465
 31
0.0
  0
LINE
  5
76D
330
18
100
AcDbEntity
  8
1
  6
Continuous
100
AcDbLine
 10
281.6171185376083
 20
263.7000018068466
 30
0.0
 11
283.6171185376083
 21
265.7000018068465
 31
0.0
  0
LINE
  5
76E
330
18
100
AcDbEntity
  8
1
  6
Continuous
100
AcDbLine
 10
290.6897015376083
 20
265.4156438068465
 30
0.0
 11
290.4053435376083
 21
265.7000018068465
 31
0.0
  0
LINE
  5
76F
330
18
100
AcDbEntity
  8
1
  6
Continuous
100
AcDbLine
 10
290.6897015376083
 20
263.7216178068466
 30
0.0
 11
290.6680855376082
 21
263.7000018068466
 31
0.0
  0
LINE
  5
770
330
18
100
AcDbEntity
  8
1
  6
Continuous
100
AcDbLine
 10
290.1426025376082
 20
263.7000018068466
 30
0.0
 11
288.1426025376081
 21
265.7000018068465
 31
0.0
  0
LINE
  5
771
330
18
100
AcDbEntity
  8
1
  6
Continuous
100
AcDbLine
 10
288.4053435376083
 20
263.7000018068466
 30
0.0
 11
290.4053435376083
 21
265.7000018068465
 31
0.0
  0
LINE
  5
772
330
18
100
AcDbEntity
  8
1
  6
Continuous
100
AcDbLine
 10
290.6897015376083
 20
267.2000018068467
 30
0.0
 11
290.6897015376083
 21
263.7000018068466
 31
0.0
  0
LINE
  5
773
330
18
100
AcDbEntity
  8
2
  6
Continuous
100
AcDbLine
 10
269.6367015376083
 20
280.2434658068467
 30
0.0
 11
270.9897015376083
 21
277.9000018068466
 31
0.0
  0
LINE
  5
774
330
18
100
AcDbEntity
  8
1
  6
Continuous
100
AcDbLine
 10
272.5367065376083
 20
277.9000018068466
 30
0.0
 11
272.5367065376083
 21
273.4000018068466
 31
0.0
  0
LINE
  5
775
330
18
100
AcDbEntity
  8
1
  6
Continuous
100
AcDbLine
 10
284.0837115376082
 20
277.9000018068466
 30
0.0
 11
284.0837115376082
 21
273.4000018068466
 31
0.0
  0
ARC
  5
776
330
18
100
AcDbEntity
  8
1
  6
Continuous
100
AcDbCircle
 10
268.5597005376083
 20
342.2628368068465
 30
0.0
 40
9.362842
100
AcDbArc
 50
223.05844
 51
316.9415599999998
  0
LINE
  5
777
330
18
100
AcDbEntity
  8
1
  6
Continuous
100
AcDbLine
 10
270.9897015376083
 20
300.3999958068465
 30
0.0
 11
250.9897015376083
 21
300.3999958068465
 31
0.0
  0
LINE
  5
778
330
18
100
AcDbEntity
  8
1
  6
Continuous
100
AcDbLine
 10
268.4897015376083
 20
302.8999958068467
 30
0.0
 11
253.4897015376082
 21
302.8999958068467
 31
0.0
  0
LINE
  5
779
330
18
100
AcDbEntity
  8
1
  6
Continuous
100
AcDbLine
 10
253.4897015376082
 20
302.8999958068467
 30
0.0
 11
250.9897015376083
 21
300.3999958068465
 31
0.0
  0
ARC
  5
77A
330
18
100
AcDbEntity
  8
1
  6
Continuous
100
AcDbCircle
 10
251.3132575376081
 20
373.5844668068467
 30
0.0
 40
25.384462
100
AcDbArc
 50
229.8548999999999
 51
268.4146399999999
  0
ARC
  5
77B
330
18
100
AcDbEntity
  8
1
  6
Continuous
100
AcDbCircle
 10
243.5803095376082
 20
373.5844668068467
 30
0.0
 40
27.684462
100
AcDbArc
 50
242.948597
 51
270.0
  0
ARC
  5
77C
330
18
100
AcDbEntity
  8
1
  6
Continuous
100
AcDbCircle
 10
251.3132575376081
 20
373.5844668068467
 30
0.0
 40
27.684462
100
AcDbArc
 50
229.8548999999999
 51
268.0581199999999
  0
ARC
  5
77D
330
18
100
AcDbEntity
  8
1
  6
Continuous
100
AcDbCircle
 10
227.4897015376083
 20
355.7092378068466
 30
0.0
 40
10.109241
100
AcDbArc
 50
249.7438419999999
 51
290.256158
  0
ARC
  5
77E
330
18
100
AcDbEntity
  8
1
  6
Continuous
100
AcDbCircle
 10
227.4897015376083
 20
341.4907558068466
 30
0.0
 40
10.109241
100
AcDbArc
 50
69.743842
 51
110.2561579999999
  0
ARC
  5
77F
330
18
100
AcDbEntity
  8
1
  6
Continuous
100
AcDbCircle
 10
230.2407385376083
 20
348.5999968068465
 30
0.0
 40
5.0
100
AcDbArc
 50
49.854893
 51
90.00000300000001
  0
LINE
  5
780
330
18
100
AcDbEntity
  8
1
  6
Continuous
100
AcDbLine
 10
223.9897015376083
 20
350.9747818068467
 30
0.0
 11
223.9897015376083
 21
346.2252118068467
 31
0.0
  0
LINE
  5
781
330
18
100
AcDbEntity
  8
1
  6
Continuous
100
AcDbLine
 10
220.4897015376081
 20
344.7999968068467
 30
0.0
 11
227.4897015376083
 21
344.7999968068467
 31
0.0
  0
LINE
  5
782
330
18
100
AcDbEntity
  8
1
  6
Continuous
100
AcDbLine
 10
219.6897015376082
 20
345.5999968068466
 30
0.0
 11
220.4897015376081
 21
344.7999968068467
 31
0.0
  0
LINE
  5
783
330
18
100
AcDbEntity
  8
1
  6
Continuous
100
AcDbLine
 10
228.2897015376083
 20
345.5999968068466
 30
0.0
 11
227.4897015376083
 21
344.7999968068467
 31
0.0
  0
LINE
  5
784
330
18
100
AcDbEntity
  8
1
  6
Continuous
100
AcDbLine
 10
230.9897015376081
 20
351.5999968068466
 30
0.0
 11
230.9897015376081
 21
345.5999968068466
 31
0.0
  0
LINE
  5
785
330
18
100
AcDbEntity
  8
1
  6
Continuous
100
AcDbLine
 10
232.9897015376081
 20
351.5999968068466
 30
0.0
 11
232.9897015376081
 21
352.7765038068466
 31
0.0
  0
LINE
  5
786
330
18
100
AcDbEntity
  8
1
  6
Continuous
100
AcDbLine
 10
241.5896985376083
 20
354.6330768068467
 30
0.0
 11
241.5958325376083
 21
354.6465518068466
 31
0.0
  0
ARC
  5
787
330
18
100
AcDbEntity
  8
1
  6
Continuous
100
AcDbCircle
 10
238.1558225376083
 20
352.8999968068467
 30
0.0
 40
3.0
100
AcDbArc
 50
65.524709
 51
90.00000300000001
  0
LINE
  5
788
330
18
100
AcDbEntity
  8
1
  6
Continuous
100
AcDbLine
 10
241.5896985376083
 20
354.6330768068467
 30
0.0
 11
239.3987305376083
 21
355.6304268068467
 31
0.0
  0
ARC
  5
789
330
18
100
AcDbEntity
  8
1
  6
Continuous
100
AcDbCircle
 10
268.9574845376083
 20
343.3999968068466
 30
0.0
 40
11.028413
100
AcDbArc
 50
180.00001
 51
223.0584299999999
  0
ARC
  5
78A
330
18
100
AcDbEntity
  8
1
  6
Continuous
100
AcDbCircle
 10
269.7766605376083
 20
343.3999968068466
 30
0.0
 40
11.028413
100
AcDbArc
 50
180.00001
 51
223.0584299999999
  0
ARC
  5
78B
330
18
100
AcDbEntity
  8
1
  6
Continuous
100
AcDbCircle
 10
267.7405195376083
 20
342.2628368068465
 30
0.0
 40
9.362842
100
AcDbArc
 50
223.05844
 51
272.50727
  0
ARC
  5
78C
330
18
100
AcDbEntity
  8
1
  6
Continuous
100
AcDbCircle
 10
250.0188465376083
 20
349.8999968068466
 30
0.0
 40
4.0
100
AcDbArc
 50
270.0
 51
335.8221899999998
  0
LINE
  5
78D
330
18
100
AcDbEntity
  8
1
  6
Continuous
100
AcDbLine
 10
243.5803095376082
 20
345.8999968068466
 30
0.0
 11
250.0188465376083
 21
345.8999968068466
 31
0.0
  0
LINE
  5
78E
330
18
100
AcDbEntity
  8
1
  6
Continuous
100
AcDbLine
 10
245.2095355376083
 20
352.2614198068467
 30
0.0
 11
243.8850185376083
 21
349.3111768068467
 31
0.0
  0
ARC
  5
78F
330
18
100
AcDbEntity
  8
1
  6
Continuous
100
AcDbCircle
 10
250.4718875376083
 20
349.1999968068467
 30
0.0
 40
1.0
100
AcDbArc
 50
270.0
 51
335.8221899999998
  0
LINE
  5
790
330
18
100
AcDbEntity
  8
1
  6
Continuous
100
AcDbLine
 10
251.6937415376082
 20
349.4799848068467
 30
0.0
 11
251.3841635376082
 21
348.7904268068467
 31
0.0
  0
LINE
  5
791
330
18
100
AcDbEntity
  8
1
  6
Continuous
100
AcDbLine
 10
253.9475555376083
 20
348.8844848068466
 30
0.0
 11
253.6679625376082
 21
348.2617168068466
 31
0.0
  0
LINE
  5
792
330
18
100
AcDbEntity
  8
1
  6
Continuous
100
AcDbLine
 10
258.7482555376082
 20
348.1785948068466
 30
0.0
 11
258.7482555376082
 21
343.3999968068466
 31
0.0
  0
LINE
  5
793
330
18
100
AcDbEntity
  8
1
  6
Continuous
100
AcDbLine
 10
257.9290795376083
 20
348.2466988068466
 30
0.0
 11
257.9290795376083
 21
343.3999968068466
 31
0.0
  0
LINE
  5
794
330
18
100
AcDbEntity
  8
1
  6
Continuous
100
AcDbLine
 10
268.4897015376083
 20
302.8999958068467
 30
0.0
 11
270.9897015376083
 21
300.3999958068465
 31
0.0
  0
ARC
  5
795
330
18
100
AcDbEntity
  8
1
  6
Continuous
100
AcDbCircle
 10
267.3427355376083
 20
343.3999968068466
 30
0.0
 40
11.028413
100
AcDbArc
 50
316.9415599999998
 51
0.0
  0
LINE
  5
796
330
18
100
AcDbEntity
  8
1
  6
Continuous
100
AcDbLine
 10
278.3711465376083
 20
353.2320728068467
 30
0.0
 11
278.3711465376083
 21
343.3999968068466
 31
0.0
  0
LINE
  5
797
330
18
100
AcDbEntity
  8
1
  6
Continuous
100
AcDbLine
 10
215.4897015376083
 20
410.7999968068464
 30
0.0
 11
232.4897015376082
 21
410.7999968068464
 31
0.0
  0
ARC
  5
798
330
18
100
AcDbEntity
  8
1
  6
Continuous
100
AcDbCircle
 10
219.7397015376083
 20
398.5244908068467
 30
0.0
 40
12.275507
100
AcDbArc
 50
69.743842
 51
110.2561579999999
  0
LINE
  5
799
330
18
100
AcDbEntity
  8
1
  6
Continuous
100
AcDbLine
 10
237.2850605376083
 20
403.7999968068467
 30
0.0
 11
208.9897015376083
 21
403.7999968068467
 31
0.0
  0
LINE
  5
79A
330
18
100
AcDbEntity
  8
1
  6
Continuous
100
AcDbLine
 10
225.0756225376083
 20
359.2999968068467
 30
0.0
 11
208.9897015376083
 21
359.2999968068467
 31
0.0
  0
LINE
  5
79B
330
18
100
AcDbEntity
  8
1
  6
Continuous
100
AcDbLine
 10
237.2850605376083
 20
356.3999968068466
 30
0.0
 11
217.5145715376082
 21
356.3999968068466
 31
0.0
  0
LINE
  5
79C
330
18
100
AcDbEntity
  8
1
  6
Continuous
100
AcDbLine
 10
225.0756225376083
 20
400.8999968068466
 30
0.0
 11
208.9897015376083
 21
400.8999968068466
 31
0.0
  0
LINE
  5
79D
330
18
100
AcDbEntity
  8
1
  6
Continuous
100
AcDbLine
 10
224.6073185376081
 20
361.0999968068465
 30
0.0
 11
177.4154885376083
 21
361.0999968068465
 31
0.0
  0
LINE
  5
79E
330
18
100
AcDbEntity
  8
1
  6
Continuous
100
AcDbLine
 10
177.4154885376083
 20
399.0999968068466
 30
0.0
 11
224.6073185376081
 21
399.0999968068466
 31
0.0
  0
LINE
  5
79F
330
18
100
AcDbEntity
  8
1
  6
Continuous
100
AcDbLine
 10
203.9897015376081
 20
400.0999968068466
 30
0.0
 11
224.8619025376083
 21
400.0999968068466
 31
0.0
  0
LINE
  5
7A0
330
18
100
AcDbEntity
  8
1
  6
Continuous
100
AcDbLine
 10
203.9897015376081
 20
360.0999968068466
 30
0.0
 11
224.8619025376083
 21
360.0999968068466
 31
0.0
  0
LINE
  5
7A1
330
18
100
AcDbEntity
  8
4
  6
CENTER
100
AcDbLine
 10
297.9897015376083
 20
380.0999968068466
 30
0.0
 11
169.9907105376083
 21
380.0999968068466
 31
0.0
  0
ARC
  5
7A2
330
18
100
AcDbEntity
  8
1
  6
Continuous
100
AcDbCircle
 10
323.9897015376083
 20
380.0999968068466
 30
0.0
 40
150.0
100
AcDbArc
 50
173.577198
 51
186.4228019999999
  0
ARC
  5
7A3
330
18
100
AcDbEntity
  8
1
  6
Continuous
100
AcDbCircle
 10
214.9505325376083
 20
-39.38583719315325
 30
0.0
 40
398.7434379999998
100
AcDbArc
 50
91.20283899999998
 51
96.40189599999999
  0
ARC
  5
7A4
330
18
100
AcDbEntity
  8
1
  6
Continuous
100
AcDbCircle
 10
214.9507215376082
 20
-39.38624119315324
 30
0.0
 40
398.2442429999999
100
AcDbArc
 50
91.20000299999999
 51
96.399108
  0
ARC
  5
7A5
330
18
100
AcDbEntity
  8
1
  6
Continuous
100
AcDbCircle
 10
177.4154885376083
 20
363.5999968068466
 30
0.0
 40
2.5
100
AcDbArc
 50
186.4228019999999
 51
270.0
  0
LINE
  5
7A6
330
18
100
AcDbEntity
  8
1
  6
Continuous
100
AcDbLine
 10
170.4899295376083
 20
356.8711268068467
 30
0.0
 11
170.5650405376082
 21
356.3768068068467
 31
0.0
  0
ARC
  5
7A7
330
18
100
AcDbEntity
  8
1
  6
Continuous
100
AcDbCircle
 10
187.9558715376083
 20
356.6234368068467
 30
0.0
 40
2.0
100
AcDbArc
 50
142.8779079999999
 51
180.4457999999999
  0
ARC
  5
7A8
330
18
100
AcDbEntity
  8
1
  6
Continuous
100
AcDbCircle
 10
206.1401155376083
 20
357.5999968068466
 30
0.0
 40
1.0
100
AcDbArc
 50
90.00000300000001
 51
180.00001
  0
LINE
  5
7A9
330
18
100
AcDbEntity
  8
1
  6
Continuous
100
AcDbLine
 10
203.9897015376081
 20
360.0999968068466
 30
0.0
 11
199.9897015376082
 21
361.0999968068465
 31
0.0
  0
LINE
  5
7AA
330
18
100
AcDbEntity
  8
1
  6
Continuous
100
AcDbLine
 10
206.1401155376083
 20
358.5999968068465
 30
0.0
 11
212.9240885376082
 21
358.5999968068465
 31
0.0
  0
LINE
  5
7AB
330
18
100
AcDbEntity
  8
1
  6
Continuous
100
AcDbLine
 10
206.5801245376082
 20
359.2697358068466
 30
0.0
 11
214.5843685376083
 21
359.1772448068468
 31
0.0
  0
LINE
  5
7AC
330
18
100
AcDbEntity
  8
1
  6
Continuous
100
AcDbLine
 10
206.6105025376083
 20
358.7706588068466
 30
0.0
 11
214.3262875376082
 21
358.6097448068467
 31
0.0
  0
ARC
  5
7AD
330
18
100
AcDbEntity
  8
1
  6
Continuous
100
AcDbCircle
 10
207.8775795376082
 20
357.5999968068466
 30
0.0
 40
1.0
100
AcDbArc
 50
90.00000300000001
 51
180.00001
  0
LINE
  5
7AE
330
18
100
AcDbEntity
  8
1
  6
Continuous
100
AcDbLine
 10
208.9897015376083
 20
359.2418918068467
 30
0.0
 11
208.9897015376083
 21
359.2999968068467
 31
0.0
  0
ARC
  5
7AF
330
18
100
AcDbEntity
  8
1
  6
Continuous
100
AcDbCircle
 10
212.9240885376082
 20
357.5999968068466
 30
0.0
 40
1.0
100
AcDbArc
 50
0.0
 51
90.00000300000001
  0
LINE
  5
7B0
330
18
100
AcDbEntity
  8
1
  6
Continuous
100
AcDbLine
 10
215.9033925376083
 20
358.3586328068467
 30
0.0
 11
216.6236675376083
 21
356.9458048068467
 31
0.0
  0
ARC
  5
7B1
330
18
100
AcDbEntity
  8
1
  6
Continuous
100
AcDbCircle
 10
214.5670375376082
 20
357.6773448068467
 30
0.0
 40
1.5
100
AcDbArc
 50
27.012976
 51
89.337964
  0
LINE
  5
7B2
330
18
100
AcDbEntity
  8
1
  6
Continuous
100
AcDbLine
 10
215.6313675376083
 20
357.7913588068467
 30
0.0
 11
216.1782165376083
 21
356.7187088068467
 31
0.0
  0
ARC
  5
7B3
330
18
100
AcDbEntity
  8
1
  6
Continuous
100
AcDbCircle
 10
214.2950115376082
 20
357.1100708068467
 30
0.0
 40
1.5
100
AcDbArc
 50
27.012976
 51
88.80525699999996
  0
LINE
  5
7B4
330
18
100
AcDbEntity
  8
1
  6
Continuous
100
AcDbLine
 10
215.9897015376082
 20
359.2999968068467
 30
0.0
 11
215.9897015376082
 21
360.0999968068466
 31
0.0
  0
ARC
  5
7B5
330
18
100
AcDbEntity
  8
1
  6
Continuous
100
AcDbCircle
 10
177.4154885376083
 20
396.5999968068467
 30
0.0
 40
2.5
100
AcDbArc
 50
90.0
 51
173.577198
  0
LINE
  5
7B6
330
18
100
AcDbEntity
  8
1
  6
Continuous
100
AcDbLine
 10
215.4897015376083
 20
410.7999968068464
 30
0.0
 11
215.4897015376083
 21
403.7999968068467
 31
0.0
  0
LINE
  5
7B7
330
18
100
AcDbEntity
  8
1
  6
Continuous
100
AcDbLine
 10
203.9897015376081
 20
400.0999968068466
 30
0.0
 11
199.9897015376082
 21
399.0999968068466
 31
0.0
  0
LINE
  5
7B8
330
18
100
AcDbEntity
  8
1
  6
Continuous
100
AcDbLine
 10
208.9897015376083
 20
403.7999968068467
 30
0.0
 11
208.9897015376083
 21
400.8999968068466
 31
0.0
  0
LINE
  5
7B9
330
18
100
AcDbEntity
  8
1
  6
Continuous
100
AcDbLine
 10
215.9897015376082
 20
400.8999968068466
 30
0.0
 11
215.9897015376082
 21
400.0999968068466
 31
0.0
  0
LINE
  5
7BA
330
18
100
AcDbEntity
  8
1
  6
Continuous
100
AcDbLine
 10
249.4426955376082
 20
400.0999968068466
 30
0.0
 11
272.5367065376083
 21
400.0999968068466
 31
0.0
  0
LINE
  5
7BB
330
18
100
AcDbEntity
  8
1
  6
Continuous
100
AcDbLine
 10
249.4426955376082
 20
360.0999968068466
 30
0.0
 11
272.5367065376083
 21
360.0999968068466
 31
0.0
  0
CIRCLE
  5
7BC
330
18
100
AcDbEntity
  8
1
  6
Continuous
100
AcDbCircle
 10
260.9897015376083
 20
380.0999968068466
 30
0.0
 40
10.0
  0
CIRCLE
  5
7BD
330
18
100
AcDbEntity
  8
2
  6
Continuous
100
AcDbCircle
 10
260.9897015376083
 20
380.0999968068466
 30
0.0
 40
8.647
  0
CIRCLE
  5
7BF
330
18
100
AcDbEntity
  8
1
  6
Continuous
100
AcDbCircle
 10
260.9897015376083
 20
380.0999968068466
 30
0.0
 40
11.69999999999999
  0
CIRCLE
  5
7C0
330
18
100
AcDbEntity
  8
1
  6
Continuous
100
AcDbCircle
 10
260.9897015376083
 20
380.0999968068466
 30
0.0
 40
14.0
  0
ARC
  5
7C1
330
18
100
AcDbEntity
  8
1
  6
Continuous
100
AcDbCircle
 10
301.3302425376083
 20
380.0999968068466
 30
0.0
 40
79.040541
100
AcDbArc
 50
162.551639
 51
197.448361
  0
LINE
  5
7C2
330
18
100
AcDbEntity
  8
1
  6
Continuous
100
AcDbLine
 10
237.8956905376082
 20
380.0999968068466
 30
0.0
 11
249.4426955376082
 21
400.0999968068466
 31
0.0
  0
LINE
  5
7C3
330
18
100
AcDbEntity
  8
1
  6
Continuous
100
AcDbLine
 10
249.4426955376082
 20
360.0999968068466
 30
0.0
 11
237.8956905376082
 21
380.0999968068466
 31
0.0
  0
LINE
  5
7C4
330
18
100
AcDbEntity
  8
1
  6
Continuous
100
AcDbLine
 10
232.4897015376082
 20
410.7999968068464
 30
0.0
 11
232.4897015376082
 21
403.7999968068467
 31
0.0
  0
LINE
  5
7C5
330
18
100
AcDbEntity
  8
1
  6
Continuous
100
AcDbLine
 10
223.9897015376083
 20
403.7999968068467
 30
0.0
 11
223.9897015376083
 21
410.0408078068467
 31
0.0
  0
ARC
  5
7C6
330
18
100
AcDbEntity
  8
1
  6
Continuous
100
AcDbCircle
 10
237.2850605376083
 20
409.7999968068466
 30
0.0
 40
6.0
100
AcDbArc
 50
270.0
 51
308.5946289999998
  0
ARC
  5
7C7
330
18
100
AcDbEntity
  8
1
  6
Continuous
100
AcDbCircle
 10
228.2397015376083
 20
398.5244908068467
 30
0.0
 40
12.275507
100
AcDbArc
 50
69.743842
 51
110.2561579999999
  0
LINE
  5
7C8
330
18
100
AcDbEntity
  8
1
  6
Continuous
100
AcDbLine
 10
284.0837115376082
 20
380.0999968068466
 30
0.0
 11
272.5367065376083
 21
400.0999968068466
 31
0.0
  0
LINE
  5
7C9
330
18
100
AcDbEntity
  8
1
  6
Continuous
100
AcDbLine
 10
272.5367065376083
 20
360.0999968068466
 30
0.0
 11
284.0837115376082
 21
380.0999968068466
 31
0.0
  0
LINE
  5
7CA
330
18
100
AcDbEntity
  8
1
  6
Continuous
100
AcDbLine
 10
610.2292625376085
 20
228.2949538068467
 30
0.0
 11
615.1036215376081
 21
215.5066938068466
 31
0.0
  0
ARC
  5
7CB
330
18
100
AcDbEntity
  8
1
  6
Continuous
100
AcDbCircle
 10
363.4897005376082
 20
245.3509918068467
 30
0.0
 40
26.684652
100
AcDbArc
 50
250.39594
 51
269.9999899999999
  0
LINE
  5
7CC
330
18
100
AcDbEntity
  8
1
  6
Continuous
100
AcDbLine
 10
545.391097537608
 20
203.4684378068466
 30
0.0
 11
545.391097537608
 21
259.7835618068467
 31
0.0
  0
ARC
  5
7CD
330
18
100
AcDbEntity
  8
1
  6
Continuous
100
AcDbCircle
 10
560.889702537608
 20
199.9000018068467
 30
0.0
 40
24.0
100
AcDbArc
 50
163.0420409999999
 51
65.81395500000001
  0
ARC
  5
7CE
330
18
100
AcDbEntity
  8
1
  6
Continuous
100
AcDbCircle
 10
560.889702537608
 20
199.9000018068467
 30
0.0
 40
20.0
100
AcDbArc
 50
172.95023
 51
55.90682099999999
  0
LINE
  5
7CF
330
18
100
AcDbEntity
  8
1
  6
Continuous
100
AcDbLine
 10
548.5070645376083
 20
191.4341708068467
 30
0.0
 11
511.0269515376083
 21
246.2548598068467
 31
0.0
  0
LINE
  5
7D0
330
18
100
AcDbEntity
  8
1
  6
Continuous
100
AcDbLine
 10
575.3720185376082
 20
203.8067278068466
 30
0.0
 11
559.889702537608
 21
263.7000018068466
 31
0.0
  0
LINE
  5
7D1
330
18
100
AcDbEntity
  8
4
  6
CENTER
100
AcDbLine
 10
523.8897025376082
 20
307.8999958068465
 30
0.0
 11
523.8897025376082
 21
218.5818758068466
 31
0.0
  0
ARC
  5
7D2
330
18
100
AcDbEntity
  8
1
  6
Continuous
100
AcDbCircle
 10
560.889702537608
 20
199.9000018068467
 30
0.0
 40
50.0
100
AcDbArc
 50
141.8174549999999
 51
87.03699499999997
  0
ARC
  5
7D3
330
18
100
AcDbEntity
  8
1
  6
Continuous
100
AcDbCircle
 10
560.889702537608
 20
199.9000018068467
 30
0.0
 40
36.5
100
AcDbArc
 50
148.624938
 51
80.22994500000001
  0
LINE
  5
7D4
330
18
100
AcDbEntity
  8
4
  6
CENTER
100
AcDbLine
 10
560.889702537608
 20
144.9000018068465
 30
0.0
 11
560.889702537608
 21
250.9805148068467
 31
0.0
  0
ARC
  5
7D5
330
18
100
AcDbEntity
  8
1
  6
Continuous
100
AcDbCircle
 10
414.5268835376083
 20
220.6363908068465
 30
0.0
 40
17.162819
100
AcDbArc
 50
332.112086
 51
0.0
  0
ARC
  5
7D6
330
18
100
AcDbEntity
  8
1
  6
Continuous
100
AcDbCircle
 10
414.5268845376083
 20
220.6363908068465
 30
0.0
 40
14.262819
100
AcDbArc
 50
332.09622
 51
2.255529
  0
ARC
  5
7D7
330
18
100
AcDbEntity
  8
1
  6
Continuous
100
AcDbCircle
 10
385.8525205376082
 20
220.6363908068465
 30
0.0
 40
17.162819
100
AcDbArc
 50
177.744471
 51
207.90378
  0
ARC
  5
7D8
330
18
100
AcDbEntity
  8
1
  6
Continuous
100
AcDbCircle
 10
385.8525205376082
 20
220.6363908068465
 30
0.0
 40
14.262819
100
AcDbArc
 50
177.744471
 51
207.90378
  0
LINE
  5
7D9
330
18
100
AcDbEntity
  8
1
  6
Continuous
100
AcDbLine
 10
380.1897025376081
 20
219.9000018068467
 30
0.0
 11
380.1897025376081
 21
199.9000018068467
 31
0.0
  0
LINE
  5
7DA
330
18
100
AcDbEntity
  8
1
  6
Continuous
100
AcDbLine
 10
420.1897025376082
 20
219.9000018068467
 30
0.0
 11
420.1897025376082
 21
179.9000018068467
 31
0.0
  0
LINE
  5
7DB
330
18
100
AcDbEntity
  8
1
  6
Continuous
100
AcDbLine
 10
420.9897025376082
 20
249.2370698068466
 30
0.0
 11
420.9897025376082
 21
184.9000018068467
 31
0.0
  0
LINE
  5
7DC
330
18
100
AcDbEntity
  8
1
  6
Continuous
100
AcDbLine
 10
419.1897025376081
 20
246.4742148068466
 30
0.0
 11
419.1897025376081
 21
153.3257888068466
 31
0.0
  0
LINE
  5
7DD
330
18
100
AcDbEntity
  8
1
  6
Continuous
100
AcDbLine
 10
379.3897025376083
 20
249.2370698068466
 30
0.0
 11
379.3897025376083
 21
207.4320728068467
 31
0.0
  0
LINE
  5
7DE
330
18
100
AcDbEntity
  8
1
  6
Continuous
100
AcDbLine
 10
381.1897025376081
 20
246.4742148068466
 30
0.0
 11
381.1897025376081
 21
153.3257878068465
 31
0.0
  0
LINE
  5
7DF
330
18
100
AcDbEntity
  8
4
  6
CENTER
100
AcDbLine
 10
400.1897025376082
 20
144.9000018068465
 30
0.0
 11
400.1897025376082
 21
307.8999958068465
 31
0.0
  0
ARC
  5
7E0
330
18
100
AcDbEntity
  8
1
  6
Continuous
100
AcDbCircle
 10
520.1720165376082
 20
180.9897908068467
 30
0.0
 40
10.0
100
AcDbArc
 50
200.86479
 51
269.5580799999999
  0
LINE
  5
7E1
330
18
100
AcDbEntity
  8
4
  6
CENTER
100
AcDbLine
 10
505.8897025376081
 20
199.9000018068467
 30
0.0
 11
615.8897025376083
 21
199.9000018068467
 31
0.0
  0
ARC
  5
7E2
330
18
100
AcDbEntity
  8
1
  6
Continuous
100
AcDbCircle
 10
416.6897025376082
 20
153.3257888068466
 30
0.0
 40
2.5
100
AcDbArc
 50
276.422802
 51
0.0
  0
LINE
  5
7E3
330
18
100
AcDbEntity
  8
4
  6
CENTER
100
AcDbLine
 10
359.8897025376081
 20
199.9000018068467
 30
0.0
 11
436.8897025376083
 21
199.9000018068467
 31
0.0
  0
ARC
  5
7E4
330
18
100
AcDbEntity
  8
1
  6
Continuous
100
AcDbCircle
 10
383.6897025376082
 20
153.3257878068465
 30
0.0
 40
2.5
100
AcDbArc
 50
180.0
 51
263.577198
  0
ARC
  5
7E5
330
18
100
AcDbEntity
  8
1
  6
Continuous
100
AcDbCircle
 10
400.1897025376082
 20
299.9000018068467
 30
0.0
 40
150.0
100
AcDbArc
 50
263.577198
 51
276.422802
  0
LINE
  5
7E6
330
18
100
AcDbEntity
  8
1
  6
Continuous
100
AcDbLine
 10
366.3149205376082
 20
207.9829048068466
 30
0.0
 11
370.0454095376084
 21
207.9829048068466
 31
0.0
  0
LINE
  5
7E7
330
18
100
AcDbEntity
  8
1
  6
Continuous
100
AcDbLine
 10
368.8031445376082
 20
218.6663318068467
 30
0.0
 11
363.4897005376082
 21
218.6663318068467
 31
0.0
  0
LINE
  5
7E8
330
18
100
AcDbEntity
  8
1
  6
Continuous
100
AcDbLine
 10
372.6897015376084
 20
186.6115818068467
 30
0.0
 11
363.4897005376082
 21
186.6115818068467
 31
0.0
  0
LINE
  5
7E9
330
18
100
AcDbEntity
  8
1
  6
Continuous
100
AcDbLine
 10
373.0678565376083
 20
196.2402118068467
 30
0.0
 11
363.4897005376082
 21
196.2402118068467
 31
0.0
  0
LINE
  5
7EA
330
18
100
AcDbEntity
  8
1
  6
Continuous
100
AcDbLine
 10
369.4086115376084
 20
196.2401918068465
 30
0.0
 11
366.7040835376082
 21
197.0462418068467
 31
0.0
  0
LINE
  5
7EB
330
18
100
AcDbEntity
  8
1
  6
Continuous
100
AcDbLine
 10
372.9897005376082
 20
188.7607618068465
 30
0.0
 11
363.4897005376082
 21
188.7607618068465
 31
0.0
  0
LINE
  5
7EC
330
18
100
AcDbEntity
  8
1
  6
Continuous
100
AcDbLine
 10
372.8215775376081
 20
175.5281918068466
 30
0.0
 11
366.8578235376084
 21
176.3216218068466
 31
0.0
  0
ARC
  5
7ED
330
18
100
AcDbEntity
  8
1
  6
Continuous
100
AcDbCircle
 10
380.0139475376083
 20
198.1184418068466
 30
0.0
 40
14.02424299999998
100
AcDbArc
 50
124.3342399999997
 51
172.701809
  0
ARC
  5
7EE
330
18
100
AcDbEntity
  8
1
  6
Continuous
100
AcDbCircle
 10
381.1488235376083
 20
198.1184418068466
 30
0.0
 40
12.859122
100
AcDbArc
 50
130.179285
 51
175.8175629999998
  0
LINE
  5
7EF
330
18
100
AcDbEntity
  8
1
  6
Continuous
100
AcDbLine
 10
365.9897045376081
 20
177.3128718068467
 30
0.0
 11
365.9897045376081
 21
186.6115818068467
 31
0.0
  0
ARC
  5
7F0
330
18
100
AcDbEntity
  8
1
  6
Continuous
100
AcDbCircle
 10
366.9897045376082
 20
177.3128718068467
 30
0.0
 40
1.0
100
AcDbArc
 50
180.0000029999999
 51
262.4218
  0
ARC
  5
7F1
330
18
100
AcDbEntity
  8
1
  6
Continuous
100
AcDbCircle
 10
379.0644915376081
 20
199.9000018068467
 30
0.0
 40
13.374785
100
AcDbArc
 50
162.412046
 51
192.1581789999999
  0
LINE
  5
7F2
330
18
100
AcDbEntity
  8
1
  6
Continuous
100
AcDbLine
 10
365.6897065376081
 20
196.2402118068467
 30
0.0
 11
365.6897065376081
 21
206.9000018068465
 31
0.0
  0
LINE
  5
7F3
330
18
100
AcDbEntity
  8
1
  6
Continuous
100
AcDbLine
 10
364.8897025376083
 20
196.2402118068467
 30
0.0
 11
364.8897025376083
 21
203.4000018068467
 31
0.0
  0
ARC
  5
7F4
330
18
100
AcDbEntity
  8
1
  6
Continuous
100
AcDbCircle
 10
363.4897005376082
 20
213.2962418068467
 30
0.0
 40
26.684652
100
AcDbArc
 50
250.39594
 51
269.9999899999999
  0
ARC
  5
7F5
330
18
100
AcDbEntity
  8
1
  6
Continuous
100
AcDbCircle
 10
363.4897005376082
 20
169.5555518068467
 30
0.0
 40
26.684652
100
AcDbArc
 50
90.00000300000001
 51
109.6040579999999
  0
ARC
  5
7F6
330
18
100
AcDbEntity
  8
1
  6
Continuous
100
AcDbCircle
 10
363.4897005376082
 20
215.4454118068467
 30
0.0
 40
26.684652
100
AcDbArc
 50
250.39594
 51
269.9999899999999
  0
ARC
  5
7F7
330
18
100
AcDbEntity
  8
1
  6
Continuous
100
AcDbCircle
 10
355.3175475376081
 20
192.5004818068467
 30
0.0
 40
2.327846
100
AcDbArc
 50
109.6040579999999
 51
250.39594
  0
ARC
  5
7F8
330
18
100
AcDbEntity
  8
1
  6
Continuous
100
AcDbCircle
 10
355.3175475376081
 20
190.3512918068467
 30
0.0
 40
2.327846
100
AcDbArc
 50
180.0000029999999
 51
250.3959299999999
  0
LINE
  5
7F9
330
18
100
AcDbEntity
  8
1
  6
Continuous
100
AcDbLine
 10
352.9897005376081
 20
190.3512918068467
 30
0.0
 11
352.9897005376081
 21
192.5004818068467
 31
0.0
  0
LINE
  5
7FA
330
18
100
AcDbEntity
  8
1
  6
Continuous
100
AcDbLine
 10
365.9897045376081
 20
196.2402118068467
 30
0.0
 11
365.9897045376081
 21
198.1184418068466
 31
0.0
  0
LINE
  5
7FB
330
18
100
AcDbEntity
  8
1
  6
Continuous
100
AcDbLine
 10
366.1033215376081
 20
199.9000018068467
 30
0.0
 11
365.9897045376081
 21
198.0046018068465
 31
0.0
  0
ARC
  5
7FC
330
18
100
AcDbEntity
  8
1
  6
Continuous
100
AcDbCircle
 10
366.9897045376082
 20
198.0046018068465
 30
0.0
 40
1.0
100
AcDbArc
 50
180.0000029999999
 51
253.4040099999999
  0
ARC
  5
7FD
330
18
100
AcDbEntity
  8
1
  6
Continuous
100
AcDbCircle
 10
369.2678575376084
 20
205.9621788068467
 30
0.0
 40
3.578151999999998
100
AcDbArc
 50
154.3842469999999
 51
214.384247
  0
LINE
  5
7FE
330
18
100
AcDbEntity
  8
1
  6
Continuous
100
AcDbLine
 10
366.3149205376082
 20
207.9829048068466
 30
0.0
 11
365.6897065376081
 21
206.9000018068465
 31
0.0
  0
LINE
  5
7FF
330
18
100
AcDbEntity
  8
1
  6
Continuous
100
AcDbLine
 10
366.3149205376082
 20
203.9414528068467
 30
0.0
 11
367.2557375376083
 21
203.9414528068467
 31
0.0
  0
LINE
  5
800
330
18
100
AcDbEntity
  8
1
  6
Continuous
100
AcDbLine
 10
365.6897065376081
 20
204.2000058068466
 30
0.0
 11
364.8897025376083
 21
203.4000018068467
 31
0.0
  0
ARC
  5
801
330
18
100
AcDbEntity
  8
1
  6
Continuous
100
AcDbCircle
 10
522.8156125376082
 20
192.8935018068467
 30
0.0
 40
144.8169599999999
100
AcDbArc
 50
180.2863509999999
 51
183.863731
  0
LINE
  5
802
330
18
100
AcDbEntity
  8
1
  6
Continuous
100
AcDbLine
 10
375.9897005376082
 20
170.9897918068466
 30
0.0
 11
375.9897005376082
 21
193.2402118068467
 31
0.0
  0
LINE
  5
803
330
18
100
AcDbEntity
  8
1
  6
Continuous
100
AcDbLine
 10
375.9897005376082
 20
170.9897918068466
 30
0.0
 11
375.9897005376082
 21
193.4881318068467
 31
0.0
  0
LINE
  5
804
330
18
100
AcDbEntity
  8
1
  6
Continuous
100
AcDbLine
 10
381.0604485376083
 20
170.3304218068466
 30
0.0
 11
381.0604485376083
 21
199.9000018068467
 31
0.0
  0
LINE
  5
805
330
18
100
AcDbEntity
  8
1
  6
Continuous
100
AcDbLine
 10
373.6897015376083
 20
170.9897918068466
 30
0.0
 11
373.6897015376083
 21
185.6115818068467
 31
0.0
  0
LINE
  5
806
330
18
100
AcDbEntity
  8
1
  6
Continuous
100
AcDbLine
 10
373.6897015376083
 20
170.9897918068466
 30
0.0
 11
373.6897015376083
 21
185.6115818068467
 31
0.0
  0
ARC
  5
807
330
18
100
AcDbEntity
  8
1
  6
Continuous
100
AcDbCircle
 10
376.2853245376084
 20
183.7234318068467
 30
0.0
 40
2.0
100
AcDbArc
 50
3.58098
 51
70.32665
  0
ARC
  5
808
330
18
100
AcDbEntity
  8
1
  6
Continuous
100
AcDbCircle
 10
522.4547355376081
 20
198.1020958068467
 30
0.0
 40
144.09585
100
AcDbArc
 50
175.214006
 51
191.112176
  0
ARC
  5
809
330
18
100
AcDbEntity
  8
1
  6
Continuous
100
AcDbCircle
 10
522.4502875376083
 20
198.0786428068467
 30
0.0
 40
144.5869279999998
100
AcDbArc
 50
175.4063719999997
 51
191.1058549999999
  0
LINE
  5
80A
330
18
100
AcDbEntity
  8
1
  6
Continuous
100
AcDbLine
 10
376.4897025376082
 20
184.9000018068467
 30
0.0
 11
376.4897025376082
 21
185.7923428068466
 31
0.0
  0
LINE
  5
80B
330
18
100
AcDbEntity
  8
1
  6
Continuous
100
AcDbLine
 10
375.9897005376082
 20
170.9897918068466
 30
0.0
 11
373.6897015376083
 21
170.9897918068466
 31
0.0
  0
ARC
  5
80C
330
18
100
AcDbEntity
  8
1
  6
Continuous
100
AcDbCircle
 10
372.6897015376084
 20
174.5369218068467
 30
0.0
 40
1.0
100
AcDbArc
 50
0.0
 51
82.42180999999998
  0
LINE
  5
80D
330
18
100
AcDbEntity
  8
1
  6
Continuous
100
AcDbLine
 10
378.3278145376081
 20
183.1351818068466
 30
0.0
 11
378.6354995376083
 21
183.1559668068467
 31
0.0
  0
LINE
  5
80E
330
18
100
AcDbEntity
  8
1
  6
Continuous
100
AcDbLine
 10
376.4897025376082
 20
184.9000018068467
 30
0.0
 11
377.9026315376082
 21
184.9000018068467
 31
0.0
  0
LINE
  5
80F
330
18
100
AcDbEntity
  8
1
  6
Continuous
100
AcDbLine
 10
380.5710555376084
 20
170.2279818068467
 30
0.0
 11
381.0604485376083
 21
170.3304218068466
 31
0.0
  0
LINE
  5
810
330
18
100
AcDbEntity
  8
1
  6
Continuous
100
AcDbLine
 10
381.0604485376083
 20
176.4170178068466
 30
0.0
 11
381.1897025376081
 21
175.9000018068467
 31
0.0
  0
ARC
  5
811
330
18
100
AcDbEntity
  8
1
  6
Continuous
100
AcDbCircle
 10
379.4835665376083
 20
200.1246118068467
 30
0.0
 40
7.5
100
AcDbArc
 50
109.6733439999999
 51
250.1470799999998
  0
ARC
  5
812
330
18
100
AcDbEntity
  8
1
  6
Continuous
100
AcDbCircle
 10
295.8996125376083
 20
199.9000018068467
 30
0.0
 40
83.82915500000001
100
AcDbArc
 50
0.0
 51
6.70176
  0
ARC
  5
813
330
18
100
AcDbEntity
  8
1
  6
Continuous
100
AcDbCircle
 10
372.9897005376082
 20
185.7607618068465
 30
0.0
 40
3.0
100
AcDbArc
 50
0.0
 51
90.00000300000001
  0
ARC
  5
814
330
18
100
AcDbEntity
  8
1
  6
Continuous
100
AcDbCircle
 10
372.6897015376084
 20
185.6115818068467
 30
0.0
 40
1.0
100
AcDbArc
 50
0.0
 51
90.00000300000001
  0
ARC
  5
815
330
18
100
AcDbEntity
  8
1
  6
Continuous
100
AcDbCircle
 10
379.4835665376083
 20
192.6688818068467
 30
0.0
 40
7.5
100
AcDbArc
 50
242.23484
 51
250.32666
  0
ARC
  5
816
330
18
100
AcDbEntity
  8
1
  6
Continuous
100
AcDbCircle
 10
376.2573015376081
 20
191.1892218068467
 30
0.0
 40
2.0
100
AcDbArc
 50
29.35725200000001
 51
70.14708
  0
LINE
  5
817
330
18
100
AcDbEntity
  8
1
  6
Continuous
100
AcDbLine
 10
372.4178115376082
 20
197.0170218068465
 30
0.0
 11
369.0356685376082
 21
198.0250318068467
 31
0.0
  0
ARC
  5
818
330
18
100
AcDbEntity
  8
1
  6
Continuous
100
AcDbCircle
 10
369.3212855376083
 20
198.9833718068467
 30
0.0
 40
1.0
100
AcDbArc
 50
175.8175629999998
 51
253.4040099999999
  0
ARC
  5
819
330
18
100
AcDbEntity
  8
1
  6
Continuous
100
AcDbCircle
 10
370.9897005376082
 20
192.2253218068467
 30
0.0
 40
5.0
100
AcDbArc
 50
69.98387
 51
73.40400999999999
  0
LINE
  5
81A
330
18
100
AcDbEntity
  8
1
  6
Continuous
100
AcDbLine
 10
379.3897025376083
 20
207.9000018068467
 30
0.0
 11
380.1897025376081
 21
207.9000018068467
 31
0.0
  0
ARC
  5
81B
330
18
100
AcDbEntity
  8
1
  6
Continuous
100
AcDbCircle
 10
326.4897025376081
 20
189.2214258068467
 30
0.0
 40
50.0
100
AcDbArc
 50
18.54564299999999
 51
27.887914
  0
ARC
  5
81C
330
18
100
AcDbEntity
  8
1
  6
Continuous
100
AcDbCircle
 10
378.9500895376081
 20
209.5320818068466
 30
0.0
 40
7.960379999999998
100
AcDbArc
 50
165.5373119999999
 51
184.7258509999998
  0
ARC
  5
81D
330
18
100
AcDbEntity
  8
1
  6
Continuous
100
AcDbCircle
 10
326.4897025376081
 20
189.2214258068467
 30
0.0
 40
52.9
100
AcDbArc
 50
19.560566
 51
27.887914
  0
LINE
  5
81E
330
18
100
AcDbEntity
  8
1
  6
Continuous
100
AcDbLine
 10
378.8266795376082
 20
210.1246118068467
 30
0.0
 11
379.1593865376082
 21
210.1246118068467
 31
0.0
  0
ARC
  5
81F
330
18
100
AcDbEntity
  8
1
  6
Continuous
100
AcDbCircle
 10
379.0279475376082
 20
209.9047898068466
 30
0.0
 40
0.2561199999999999
100
AcDbArc
 50
299.9902349999998
 51
59.123342
  0
ARC
  5
820
330
18
100
AcDbEntity
  8
1
  6
Continuous
100
AcDbCircle
 10
378.8266795376082
 20
209.6246118068466
 30
0.0
 40
0.5
100
AcDbArc
 50
90.00000300000001
 51
176.13626
  0
ARC
  5
821
330
18
100
AcDbEntity
  8
1
  6
Continuous
100
AcDbCircle
 10
376.2853245376084
 20
209.0700718068467
 30
0.0
 40
2.0
100
AcDbArc
 50
289.67334
 51
356.41902
  0
LINE
  5
822
330
18
100
AcDbEntity
  8
1
  6
Continuous
100
AcDbLine
 10
423.8897025376083
 20
184.9000018068467
 30
0.0
 11
423.8897025376083
 21
189.2214258068467
 31
0.0
  0
LINE
  5
823
330
18
100
AcDbEntity
  8
1
  6
Continuous
100
AcDbLine
 10
420.1897025376082
 20
179.9000018068467
 30
0.0
 11
419.1897025376081
 21
175.9000018068467
 31
0.0
  0
LINE
  5
824
330
18
100
AcDbEntity
  8
1
  6
Continuous
100
AcDbLine
 10
423.8897025376083
 20
184.9000018068467
 30
0.0
 11
420.9897025376082
 21
184.9000018068467
 31
0.0
  0
LINE
  5
825
330
18
100
AcDbEntity
  8
1
  6
Continuous
100
AcDbLine
 10
430.8897025376081
 20
208.4000018068466
 30
0.0
 11
430.8897025376081
 21
191.4000018068465
 31
0.0
  0
ARC
  5
826
330
18
100
AcDbEntity
  8
1
  6
Continuous
100
AcDbCircle
 10
414.6488915376081
 20
199.9000018068467
 30
0.0
 40
16.24081099999999
100
AcDbArc
 50
342.4120459999998
 51
17.587954
  0
ARC
  5
827
330
18
100
AcDbEntity
  8
1
  6
Continuous
100
AcDbCircle
 10
473.8897025376083
 20
189.2214258068467
 30
0.0
 40
50.0
100
AcDbArc
 50
152.112086
 51
180.0
  0
ARC
  5
828
330
18
100
AcDbEntity
  8
1
  6
Continuous
100
AcDbCircle
 10
473.8897025376083
 20
189.2214258068467
 30
0.0
 40
52.9
100
AcDbArc
 50
152.112086
 51
180.0
  0
LINE
  5
829
330
18
100
AcDbEntity
  8
1
  6
Continuous
100
AcDbLine
 10
430.1305125376083
 20
190.0850468068465
 30
0.0
 11
423.8897025376083
 21
190.0850468068465
 31
0.0
  0
LINE
  5
82A
330
18
100
AcDbEntity
  8
1
  6
Continuous
100
AcDbLine
 10
430.1305125376083
 20
194.9925238068465
 30
0.0
 11
424.2238745376083
 21
194.9925238068465
 31
0.0
  0
LINE
  5
82B
330
18
100
AcDbEntity
  8
1
  6
Continuous
100
AcDbLine
 10
420.9897025376082
 20
191.9000018068467
 30
0.0
 11
420.1897025376082
 21
191.9000018068467
 31
0.0
  0
ARC
  5
82C
330
18
100
AcDbEntity
  8
1
  6
Continuous
100
AcDbCircle
 10
426.544803537608
 20
192.5387858068466
 30
0.0
 40
4.344898999999998
100
AcDbArc
 50
334.384247
 51
34.38424699999997
  0
LINE
  5
82D
330
18
100
AcDbEntity
  8
1
  6
Continuous
100
AcDbLine
 10
430.1305125376083
 20
190.0850468068465
 30
0.0
 11
430.8897025376081
 21
191.4000018068465
 31
0.0
  0
LINE
  5
82E
330
18
100
AcDbEntity
  8
1
  6
Continuous
100
AcDbLine
 10
430.1305125376083
 20
204.8074788068467
 30
0.0
 11
426.3810195376083
 21
204.8074788068467
 31
0.0
  0
LINE
  5
82F
330
18
100
AcDbEntity
  8
1
  6
Continuous
100
AcDbLine
 10
430.1305125376083
 20
209.7149558068467
 30
0.0
 11
428.2825185376082
 21
209.7149558068467
 31
0.0
  0
LINE
  5
830
330
18
100
AcDbEntity
  8
1
  6
Continuous
100
AcDbLine
 10
420.9897025376082
 20
207.9000018068467
 30
0.0
 11
420.1897025376082
 21
207.9000018068467
 31
0.0
  0
ARC
  5
831
330
18
100
AcDbEntity
  8
1
  6
Continuous
100
AcDbCircle
 10
426.544803537608
 20
207.2612178068466
 30
0.0
 40
4.344898999999998
100
AcDbArc
 50
325.6157529999998
 51
25.615753
  0
LINE
  5
832
330
18
100
AcDbEntity
  8
1
  6
Continuous
100
AcDbLine
 10
430.1305125376083
 20
209.7149558068467
 30
0.0
 11
430.8897025376081
 21
208.4000018068466
 31
0.0
  0
LINE
  5
833
330
18
100
AcDbEntity
  8
1
  6
Continuous
100
AcDbLine
 10
506.5082535376082
 20
188.7607618068465
 30
0.0
 11
510.8277805376083
 21
177.4281528068467
 31
0.0
  0
ARC
  5
834
330
18
100
AcDbEntity
  8
1
  6
Continuous
100
AcDbCircle
 10
539.9909525376082
 20
202.6794588068467
 30
0.0
 40
32.349033
100
AcDbArc
 50
186.5641599999999
 51
214.712498
  0
ARC
  5
835
330
18
100
AcDbEntity
  8
5
  6
PHANTOM
100
AcDbCircle
 10
516.1720465376084
 20
203.8821218068466
 30
0.0
 40
10.0
100
AcDbArc
 50
170.86479
 51
239.55808
  0
ARC
  5
836
330
18
100
AcDbEntity
  8
1
  6
Continuous
100
AcDbCircle
 10
517.788429537608
 20
200.1246188068465
 30
0.0
 40
10.0
100
AcDbArc
 50
128.6785169999999
 51
186.5641599999999
  0
ARC
  5
837
330
18
100
AcDbEntity
  8
1
  6
Continuous
100
AcDbCircle
 10
517.788429537608
 20
200.1246188068465
 30
0.0
 40
7.5
100
AcDbArc
 50
154.7069839999998
 51
204.6958409999998
  0
LINE
  5
838
330
18
100
AcDbEntity
  8
1
  6
Continuous
100
AcDbLine
 10
510.1650075376081
 20
190.1545658068467
 30
0.0
 11
506.5082535376082
 21
188.7607618068465
 31
0.0
  0
LINE
  5
839
330
18
100
AcDbEntity
  8
5
  6
PHANTOM
100
AcDbLine
 10
508.2243655376082
 20
217.4438618068467
 30
0.0
 11
506.2988815376083
 21
205.4697708068467
 31
0.0
  0
LINE
  5
83A
330
18
100
AcDbEntity
  8
5
  6
PHANTOM
100
AcDbLine
 10
513.7454935376083
 20
216.5560398068466
 30
0.0
 11
508.2243655376082
 21
217.4438618068467
 31
0.0
  0
LINE
  5
83B
330
18
100
AcDbEntity
  8
5
  6
PHANTOM
100
AcDbLine
 10
617.8164905376081
 20
199.8209718068467
 30
0.0
 11
610.8789565376082
 21
200.9365568068466
 31
0.0
  0
ARC
  5
83C
330
18
100
AcDbEntity
  8
5
  6
PHANTOM
100
AcDbCircle
 10
609.6924925376082
 20
187.3236948068466
 30
0.0
 40
6.037079999999997
100
AcDbArc
 50
267.9474099999997
 51
350.32201
  0
LINE
  5
83D
330
18
100
AcDbEntity
  8
5
  6
PHANTOM
100
AcDbLine
 10
617.8164905376081
 20
199.8209718068467
 30
0.0
 11
615.6436795376081
 21
186.3088338068467
 31
0.0
  0
ARC
  5
83E
330
18
100
AcDbEntity
  8
1
  6
Continuous
100
AcDbCircle
 10
609.4423125376082
 20
213.4099958068466
 30
0.0
 40
6.037079999999997
100
AcDbArc
 50
297.94741
 51
20.32201
  0
ARC
  5
83F
330
18
100
AcDbEntity
  8
1
  6
Continuous
100
AcDbCircle
 10
560.889702537608
 20
199.9000018068467
 30
0.0
 40
15.0
100
AcDbArc
 50
214.3598519999999
 51
15.09667099999999
  0
LINE
  5
840
330
18
100
AcDbEntity
  8
1
  6
Continuous
100
AcDbLine
 10
569.389702537608
 20
204.8074798068467
 30
0.0
 11
560.889702537608
 21
209.7149568068467
 31
0.0
  0
LINE
  5
841
330
18
100
AcDbEntity
  8
1
  6
Continuous
100
AcDbLine
 10
560.889702537608
 20
190.0850478068467
 30
0.0
 11
569.389702537608
 21
194.9925248068465
 31
0.0
  0
CIRCLE
  5
842
330
18
100
AcDbEntity
  8
1
  6
Continuous
100
AcDbCircle
 10
560.889702537608
 20
199.9000018068467
 30
0.0
 40
8.5
  0
LINE
  5
844
330
18
100
AcDbEntity
  8
1
  6
Continuous
100
AcDbLine
 10
552.389702537608
 20
204.8074798068467
 30
0.0
 11
552.389702537608
 21
194.9925248068465
 31
0.0
  0
LINE
  5
845
330
18
100
AcDbEntity
  8
1
  6
Continuous
100
AcDbLine
 10
552.389702537608
 20
194.9925248068465
 30
0.0
 11
560.889702537608
 21
190.0850478068467
 31
0.0
  0
LINE
  5
847
330
18
100
AcDbEntity
  8
1
  6
Continuous
100
AcDbLine
 10
560.889702537608
 20
209.7149568068467
 30
0.0
 11
552.389702537608
 21
204.8074798068467
 31
0.0
  0
ARC
  5
848
330
18
100
AcDbEntity
  8
1
  6
Continuous
100
AcDbCircle
 10
604.3894905376081
 20
192.6688768068467
 30
0.0
 40
10.0
100
AcDbArc
 50
291.6565699999998
 51
358.56416
  0
LINE
  5
849
330
18
100
AcDbEntity
  8
5
  6
PHANTOM
100
AcDbLine
 10
607.328319537608
 20
181.3674668068467
 30
0.0
 11
609.4762645376082
 21
181.2904848068466
 31
0.0
  0
LINE
  5
84A
330
18
100
AcDbEntity
  8
1
  6
Continuous
100
AcDbLine
 10
569.389702537608
 20
194.9925248068465
 30
0.0
 11
569.389702537608
 21
204.8074798068467
 31
0.0
  0
ARC
  5
84B
330
18
100
AcDbEntity
  8
1
  6
Continuous
100
AcDbCircle
 10
582.0474655376081
 20
193.2288888068466
 30
0.0
 40
32.349033
100
AcDbArc
 50
358.56417
 51
30.44691299999999
  0
ARC
  5
84C
330
18
100
AcDbEntity
  8
1
  6
Continuous
100
AcDbCircle
 10
604.3894905376081
 20
192.6688768068467
 30
0.0
 40
7.5
100
AcDbArc
 50
309.5652589999999
 51
31.558388
  0
LINE
  5
84D
330
18
100
AcDbEntity
  8
1
  6
Continuous
100
AcDbLine
 10
611.1002395376082
 20
207.4554928068467
 30
0.0
 11
612.2716585376082
 21
208.0769688068466
 31
0.0
  0
LINE
  5
84E
330
18
100
AcDbEntity
  8
1
  6
Continuous
100
AcDbLine
 10
516.3897025376082
 20
302.8999958068467
 30
0.0
 11
531.389702537608
 21
302.8999958068467
 31
0.0
  0
LINE
  5
84F
330
18
100
AcDbEntity
  8
1
  6
Continuous
100
AcDbLine
 10
513.889702537608
 20
300.3999958068465
 30
0.0
 11
533.8897025376081
 21
300.3999958068465
 31
0.0
  0
LINE
  5
850
330
18
100
AcDbEntity
  8
1
  6
Continuous
100
AcDbLine
 10
533.8897025376081
 20
280.2434658068467
 30
0.0
 11
513.889702537608
 21
280.2434658068467
 31
0.0
  0
LINE
  5
851
330
18
100
AcDbEntity
  8
1
  6
Continuous
100
AcDbLine
 10
515.1014775376081
 20
263.7000018068466
 30
0.0
 11
517.1014775376082
 21
265.7000018068465
 31
0.0
  0
LINE
  5
852
330
18
100
AcDbEntity
  8
1
  6
Continuous
100
AcDbLine
 10
516.8387355376081
 20
263.7000018068466
 30
0.0
 11
514.8387355376081
 21
265.7000018068465
 31
0.0
  0
LINE
  5
853
330
18
100
AcDbEntity
  8
1
  6
Continuous
100
AcDbLine
 10
494.1897025376081
 20
265.7000018068465
 30
0.0
 11
553.5897025376083
 21
265.7000018068465
 31
0.0
  0
LINE
  5
854
330
18
100
AcDbEntity
  8
1
  6
Continuous
100
AcDbLine
 10
494.1897025376081
 20
263.7000018068466
 30
0.0
 11
562.5897025376083
 21
263.7000018068466
 31
0.0
  0
LINE
  5
855
330
18
100
AcDbEntity
  8
1
  6
Continuous
100
AcDbLine
 10
494.1897025376081
 20
267.2000018068467
 30
0.0
 11
553.5897025376083
 21
267.2000018068467
 31
0.0
  0
LINE
  5
856
330
18
100
AcDbEntity
  8
1
  6
Continuous
100
AcDbLine
 10
500.7956925376082
 20
277.9000018068466
 30
0.0
 11
546.9837135376081
 21
277.9000018068466
 31
0.0
  0
LINE
  5
857
330
18
100
AcDbEntity
  8
1
  6
Continuous
100
AcDbLine
 10
500.7956925376082
 20
273.4000018068466
 30
0.0
 11
546.9837135376081
 21
273.4000018068466
 31
0.0
  0
ARC
  5
858
330
18
100
AcDbEntity
  8
1
  6
Continuous
100
AcDbCircle
 10
415.2155465376083
 20
243.7000018068467
 30
0.0
 40
8.0
100
AcDbArc
 50
25.17806699999999
 51
90.0
  0
LINE
  5
859
330
18
100
AcDbEntity
  8
1
  6
Continuous
100
AcDbLine
 10
381.9757965376081
 20
251.7000018068467
 30
0.0
 11
418.4036075376083
 21
251.7000018068467
 31
0.0
  0
LINE
  5
85A
330
18
100
AcDbEntity
  8
1
  6
Continuous
100
AcDbLine
 10
418.0288945376082
 20
263.7000018068466
 30
0.0
 11
416.0288945376083
 21
265.7000018068465
 31
0.0
  0
LINE
  5
85B
330
18
100
AcDbEntity
  8
1
  6
Continuous
100
AcDbLine
 10
416.2916355376081
 20
263.7000018068466
 30
0.0
 11
418.2916355376083
 21
265.7000018068465
 31
0.0
  0
ARC
  5
85C
330
18
100
AcDbEntity
  8
1
  6
Continuous
100
AcDbCircle
 10
416.6897025376082
 20
246.4742148068466
 30
0.0
 40
2.5
100
AcDbArc
 50
0.0
 51
83.57719799999998
  0
LINE
  5
85D
330
18
100
AcDbEntity
  8
1
  6
Continuous
100
AcDbLine
 10
380.1897025376081
 20
277.9000018068466
 30
0.0
 11
420.1897025376082
 21
277.9000018068466
 31
0.0
  0
LINE
  5
85E
330
18
100
AcDbEntity
  8
1
  6
Continuous
100
AcDbLine
 10
377.1897025376081
 20
273.4000018068466
 30
0.0
 11
423.1897025376081
 21
273.4000018068466
 31
0.0
  0
LINE
  5
85F
330
18
100
AcDbEntity
  8
1
  6
Continuous
100
AcDbLine
 10
370.4897025376082
 20
267.2000018068467
 30
0.0
 11
429.8897025376083
 21
267.2000018068467
 31
0.0
  0
LINE
  5
860
330
18
100
AcDbEntity
  8
1
  6
Continuous
100
AcDbLine
 10
370.4897025376082
 20
265.7000018068465
 30
0.0
 11
429.8897025376083
 21
265.7000018068465
 31
0.0
  0
LINE
  5
861
330
18
100
AcDbEntity
  8
1
  6
Continuous
100
AcDbLine
 10
370.4897025376082
 20
263.7000018068466
 30
0.0
 11
429.8897025376083
 21
263.7000018068466
 31
0.0
  0
LINE
  5
862
330
18
100
AcDbEntity
  8
2
  6
Continuous
100
AcDbLine
 10
391.5427025376081
 20
280.2434658068467
 30
0.0
 11
391.5427025376081
 21
301.7529958068467
 31
0.0
  0
LINE
  5
863
330
18
100
AcDbEntity
  8
2
  6
Continuous
100
AcDbLine
 10
408.8367025376081
 20
301.7529958068467
 30
0.0
 11
408.8367025376081
 21
280.2434658068467
 31
0.0
  0
LINE
  5
864
330
18
100
AcDbEntity
  8
1
  6
Continuous
100
AcDbLine
 10
410.1897025376081
 20
300.3999958068465
 30
0.0
 11
410.1897025376081
 21
277.9000018068466
 31
0.0
  0
LINE
  5
865
330
18
100
AcDbEntity
  8
1
  6
Continuous
100
AcDbLine
 10
390.1897025376081
 20
300.3999958068465
 30
0.0
 11
390.1897025376081
 21
277.9000018068466
 31
0.0
  0
LINE
  5
866
330
18
100
AcDbEntity
  8
1
  6
Continuous
100
AcDbLine
 10
368.6897025376081
 20
220.8155118068467
 30
0.0
 11
363.4897005376082
 21
220.8155118068467
 31
0.0
  0
LINE
  5
867
330
18
100
AcDbEntity
  8
1
  6
Continuous
100
AcDbLine
 10
368.6897025376081
 20
228.2949618068467
 30
0.0
 11
363.4897045376082
 21
228.2949618068467
 31
0.0
  0
ARC
  5
868
330
18
100
AcDbEntity
  8
1
  6
Continuous
100
AcDbCircle
 10
363.4897005376082
 20
247.5001618068467
 30
0.0
 40
26.684652
100
AcDbArc
 50
250.39594
 51
269.9999899999999
  0
ARC
  5
869
330
18
100
AcDbEntity
  8
1
  6
Continuous
100
AcDbCircle
 10
363.4897045376082
 20
201.6103018068467
 30
0.0
 40
26.684652
100
AcDbArc
 50
90.00000300000001
 51
109.6040579999999
  0
ARC
  5
86A
330
18
100
AcDbEntity
  8
1
  6
Continuous
100
AcDbCircle
 10
355.3175475376081
 20
224.5552318068466
 30
0.0
 40
2.327846
100
AcDbArc
 50
109.6040579999999
 51
250.39594
  0
ARC
  5
86B
330
18
100
AcDbEntity
  8
1
  6
Continuous
100
AcDbCircle
 10
355.3175475376081
 20
222.4060618068466
 30
0.0
 40
2.327846
100
AcDbArc
 50
180.0000029999999
 51
250.3959299999999
  0
LINE
  5
86C
330
18
100
AcDbEntity
  8
1
  6
Continuous
100
AcDbLine
 10
352.9897005376081
 20
222.4060618068466
 30
0.0
 11
352.9897005376081
 21
224.5552318068466
 31
0.0
  0
LINE
  5
86D
330
18
100
AcDbEntity
  8
1
  6
Continuous
100
AcDbLine
 10
368.6897025376081
 20
259.7000018068466
 30
0.0
 11
368.6897025376081
 21
220.6363908068465
 31
0.0
  0
LINE
  5
86E
330
18
100
AcDbEntity
  8
1
  6
Continuous
100
AcDbLine
 10
390.1897025376081
 20
251.4000018068467
 30
0.0
 11
410.1897025376081
 21
251.4000018068467
 31
0.0
  0
ARC
  5
86F
330
18
100
AcDbEntity
  8
1
  6
Continuous
100
AcDbCircle
 10
400.1897025376082
 20
99.90000180684674
 30
0.0
 40
150.0
100
AcDbArc
 50
83.57719799999998
 51
96.42280200000001
  0
ARC
  5
870
330
18
100
AcDbEntity
  8
1
  6
Continuous
100
AcDbCircle
 10
438.6487655376082
 20
218.5569178068467
 30
0.0
 40
70.0
100
AcDbArc
 50
156.07543
 51
177.744471
  0
ARC
  5
871
330
18
100
AcDbEntity
  8
1
  6
Continuous
100
AcDbCircle
 10
438.6487655376082
 20
218.5569178068467
 30
0.0
 40
67.09999999999999
100
AcDbArc
 50
154.821933
 51
177.744471
  0
LINE
  5
872
330
18
100
AcDbEntity
  8
1
  6
Continuous
100
AcDbLine
 10
380.1897025376081
 20
219.9000018068467
 30
0.0
 11
381.1897025376081
 21
223.9000018068467
 31
0.0
  0
ARC
  5
873
330
18
100
AcDbEntity
  8
1
  6
Continuous
100
AcDbCircle
 10
381.9757965376081
 20
243.7000018068467
 30
0.0
 40
8.0
100
AcDbArc
 50
90.0
 51
156.07543
  0
ARC
  5
874
330
18
100
AcDbEntity
  8
1
  6
Continuous
100
AcDbCircle
 10
385.1638575376081
 20
243.7000018068467
 30
0.0
 40
8.0
100
AcDbArc
 50
90.0
 51
154.821933
  0
ARC
  5
875
330
18
100
AcDbEntity
  8
1
  6
Continuous
100
AcDbCircle
 10
383.6897025376082
 20
246.4742148068466
 30
0.0
 40
2.5
100
AcDbArc
 50
96.42280200000001
 51
180.0
  0
LINE
  5
876
330
18
100
AcDbEntity
  8
1
  6
Continuous
100
AcDbLine
 10
390.2647015376081
 20
251.7000018068467
 30
0.0
 11
390.1897025376081
 21
251.4000018068467
 31
0.0
  0
LINE
  5
877
330
18
100
AcDbEntity
  8
1
  6
Continuous
100
AcDbLine
 10
397.1897025376081
 20
251.4000018068467
 30
0.0
 11
396.7897025376082
 21
251.7000018068467
 31
0.0
  0
LINE
  5
878
330
18
100
AcDbEntity
  8
1
  6
Continuous
100
AcDbLine
 10
393.1897025376081
 20
251.4000018068467
 30
0.0
 11
393.5897025376083
 21
251.7000018068467
 31
0.0
  0
LINE
  5
879
330
18
100
AcDbEntity
  8
1
  6
Continuous
100
AcDbLine
 10
403.1897025376081
 20
251.4000018068467
 30
0.0
 11
403.5897025376083
 21
251.7000018068467
 31
0.0
  0
LINE
  5
87A
330
18
100
AcDbEntity
  8
1
  6
Continuous
100
AcDbLine
 10
410.1147025376083
 20
251.7000018068467
 30
0.0
 11
410.1897025376081
 21
251.4000018068467
 31
0.0
  0
LINE
  5
87B
330
18
100
AcDbEntity
  8
1
  6
Continuous
100
AcDbLine
 10
407.1897025376081
 20
251.4000018068467
 30
0.0
 11
406.7897025376081
 21
251.7000018068467
 31
0.0
  0
LINE
  5
87C
330
18
100
AcDbEntity
  8
1
  6
Continuous
100
AcDbLine
 10
393.1387355376084
 20
263.7000018068466
 30
0.0
 11
391.1387355376083
 21
265.7000018068465
 31
0.0
  0
LINE
  5
87D
330
18
100
AcDbEntity
  8
1
  6
Continuous
100
AcDbLine
 10
391.4014775376084
 20
263.7000018068466
 30
0.0
 11
393.4014775376084
 21
265.7000018068465
 31
0.0
  0
LINE
  5
87E
330
18
100
AcDbEntity
  8
1
  6
Continuous
100
AcDbLine
 10
410.1897025376081
 20
280.2434658068467
 30
0.0
 11
390.1897025376081
 21
280.2434658068467
 31
0.0
  0
ARC
  5
87F
330
18
100
AcDbEntity
  8
1
  6
Continuous
100
AcDbCircle
 10
377.6573105376081
 20
267.2000018068467
 30
0.0
 40
6.217608999999997
100
AcDbArc
 50
94.31312500000002
 51
180.0
  0
LINE
  5
880
330
18
100
AcDbEntity
  8
1
  6
Continuous
100
AcDbLine
 10
381.8250265376082
 20
263.7000018068466
 30
0.0
 11
379.8250265376082
 21
265.7000018068465
 31
0.0
  0
ARC
  5
881
330
18
100
AcDbEntity
  8
1
  6
Continuous
100
AcDbCircle
 10
372.6897025376081
 20
259.7000018068466
 30
0.0
 40
4.0
100
AcDbArc
 50
90.0
 51
180.0
  0
LINE
  5
882
330
18
100
AcDbEntity
  8
1
  6
Continuous
100
AcDbLine
 10
375.0368015376083
 20
263.7000018068466
 30
0.0
 11
373.0368015376083
 21
265.7000018068465
 31
0.0
  0
LINE
  5
883
330
18
100
AcDbEntity
  8
1
  6
Continuous
100
AcDbLine
 10
373.2995435376082
 20
263.7000018068466
 30
0.0
 11
375.2995435376082
 21
265.7000018068465
 31
0.0
  0
LINE
  5
884
330
18
100
AcDbEntity
  8
1
  6
Continuous
100
AcDbLine
 10
372.7740605376081
 20
263.7000018068466
 30
0.0
 11
370.7740605376081
 21
265.7000018068465
 31
0.0
  0
LINE
  5
885
330
18
100
AcDbEntity
  8
1
  6
Continuous
100
AcDbLine
 10
371.0368015376083
 20
263.7000018068466
 30
0.0
 11
373.0368015376083
 21
265.7000018068465
 31
0.0
  0
LINE
  5
886
330
18
100
AcDbEntity
  8
1
  6
Continuous
100
AcDbLine
 10
370.4897025376082
 20
263.7216178068466
 30
0.0
 11
370.5113185376084
 21
263.7000018068466
 31
0.0
  0
LINE
  5
887
330
18
100
AcDbEntity
  8
1
  6
Continuous
100
AcDbLine
 10
370.4897025376082
 20
265.4156438068465
 30
0.0
 11
370.7740605376081
 21
265.7000018068465
 31
0.0
  0
LINE
  5
888
330
18
100
AcDbEntity
  8
1
  6
Continuous
100
AcDbLine
 10
370.4897025376082
 20
267.2000018068467
 30
0.0
 11
370.4897025376082
 21
263.7000018068466
 31
0.0
  0
LINE
  5
889
330
18
100
AcDbEntity
  8
1
  6
Continuous
100
AcDbLine
 10
377.2995435376082
 20
263.7000018068466
 30
0.0
 11
375.2995435376082
 21
265.7000018068465
 31
0.0
  0
LINE
  5
88A
330
18
100
AcDbEntity
  8
1
  6
Continuous
100
AcDbLine
 10
379.5622855376083
 20
263.7000018068466
 30
0.0
 11
377.5622855376083
 21
265.7000018068465
 31
0.0
  0
LINE
  5
88B
330
18
100
AcDbEntity
  8
1
  6
Continuous
100
AcDbLine
 10
375.5622855376083
 20
263.7000018068466
 30
0.0
 11
377.5622855376083
 21
265.7000018068465
 31
0.0
  0
LINE
  5
88C
330
18
100
AcDbEntity
  8
1
  6
Continuous
100
AcDbLine
 10
377.8250265376082
 20
263.7000018068466
 30
0.0
 11
379.8250265376082
 21
265.7000018068465
 31
0.0
  0
LINE
  5
88D
330
18
100
AcDbEntity
  8
1
  6
Continuous
100
AcDbLine
 10
384.6132515376081
 20
263.7000018068466
 30
0.0
 11
386.6132515376081
 21
265.7000018068465
 31
0.0
  0
LINE
  5
88E
330
18
100
AcDbEntity
  8
1
  6
Continuous
100
AcDbLine
 10
386.3505105376082
 20
263.7000018068466
 30
0.0
 11
384.3505105376081
 21
265.7000018068465
 31
0.0
  0
LINE
  5
88F
330
18
100
AcDbEntity
  8
1
  6
Continuous
100
AcDbLine
 10
384.0877685376082
 20
263.7000018068466
 30
0.0
 11
382.0877685376082
 21
265.7000018068465
 31
0.0
  0
LINE
  5
890
330
18
100
AcDbEntity
  8
1
  6
Continuous
100
AcDbLine
 10
380.0877685376082
 20
263.7000018068466
 30
0.0
 11
382.0877685376082
 21
265.7000018068465
 31
0.0
  0
LINE
  5
891
330
18
100
AcDbEntity
  8
1
  6
Continuous
100
AcDbLine
 10
382.3505105376082
 20
263.7000018068466
 30
0.0
 11
384.3505105376081
 21
265.7000018068465
 31
0.0
  0
LINE
  5
892
330
18
100
AcDbEntity
  8
1
  6
Continuous
100
AcDbLine
 10
388.6132515376083
 20
263.7000018068466
 30
0.0
 11
386.6132515376081
 21
265.7000018068465
 31
0.0
  0
LINE
  5
893
330
18
100
AcDbEntity
  8
1
  6
Continuous
100
AcDbLine
 10
390.8759935376081
 20
263.7000018068466
 30
0.0
 11
388.8759935376084
 21
265.7000018068465
 31
0.0
  0
LINE
  5
894
330
18
100
AcDbEntity
  8
1
  6
Continuous
100
AcDbLine
 10
386.8759935376083
 20
263.7000018068466
 30
0.0
 11
388.8759935376084
 21
265.7000018068465
 31
0.0
  0
LINE
  5
895
330
18
100
AcDbEntity
  8
1
  6
Continuous
100
AcDbLine
 10
389.1387355376081
 20
263.7000018068466
 30
0.0
 11
391.1387355376083
 21
265.7000018068465
 31
0.0
  0
LINE
  5
896
330
18
100
AcDbEntity
  8
2
  6
Continuous
100
AcDbLine
 10
391.5427025376081
 20
280.2434658068467
 30
0.0
 11
390.1897025376081
 21
277.9000018068466
 31
0.0
  0
LINE
  5
897
330
18
100
AcDbEntity
  8
1
  6
Continuous
100
AcDbLine
 10
380.1897025376081
 20
277.9000018068466
 30
0.0
 11
380.1897025376081
 21
273.4000018068466
 31
0.0
  0
LINE
  5
898
330
18
100
AcDbEntity
  8
1
  6
Continuous
100
AcDbLine
 10
406.7151855376081
 20
263.7000018068466
 30
0.0
 11
404.7151855376082
 21
265.7000018068465
 31
0.0
  0
LINE
  5
899
330
18
100
AcDbEntity
  8
1
  6
Continuous
100
AcDbLine
 10
399.9269605376083
 20
263.7000018068466
 30
0.0
 11
397.9269605376083
 21
265.7000018068465
 31
0.0
  0
LINE
  5
89A
330
18
100
AcDbEntity
  8
1
  6
Continuous
100
AcDbLine
 10
398.1897025376082
 20
263.7000018068466
 30
0.0
 11
400.1897025376082
 21
265.7000018068465
 31
0.0
  0
LINE
  5
89B
330
18
100
AcDbEntity
  8
1
  6
Continuous
100
AcDbLine
 10
397.6642185376083
 20
263.7000018068466
 30
0.0
 11
395.6642185376083
 21
265.7000018068465
 31
0.0
  0
LINE
  5
89C
330
18
100
AcDbEntity
  8
1
  6
Continuous
100
AcDbLine
 10
395.9269605376083
 20
263.7000018068466
 30
0.0
 11
397.9269605376083
 21
265.7000018068465
 31
0.0
  0
LINE
  5
89D
330
18
100
AcDbEntity
  8
1
  6
Continuous
100
AcDbLine
 10
395.4014775376084
 20
263.7000018068466
 30
0.0
 11
393.4014775376084
 21
265.7000018068465
 31
0.0
  0
LINE
  5
89E
330
18
100
AcDbEntity
  8
1
  6
Continuous
100
AcDbLine
 10
393.6642185376084
 20
263.7000018068466
 30
0.0
 11
395.6642185376083
 21
265.7000018068465
 31
0.0
  0
LINE
  5
89F
330
18
100
AcDbEntity
  8
1
  6
Continuous
100
AcDbLine
 10
404.4524435376083
 20
263.7000018068466
 30
0.0
 11
402.4524435376084
 21
265.7000018068465
 31
0.0
  0
LINE
  5
8A0
330
18
100
AcDbEntity
  8
1
  6
Continuous
100
AcDbLine
 10
402.1897025376081
 20
263.7000018068466
 30
0.0
 11
400.1897025376082
 21
265.7000018068465
 31
0.0
  0
LINE
  5
8A1
330
18
100
AcDbEntity
  8
1
  6
Continuous
100
AcDbLine
 10
402.7151855376081
 20
263.7000018068466
 30
0.0
 11
404.7151855376082
 21
265.7000018068465
 31
0.0
  0
LINE
  5
8A2
330
18
100
AcDbEntity
  8
1
  6
Continuous
100
AcDbLine
 10
400.4524435376083
 20
263.7000018068466
 30
0.0
 11
402.4524435376084
 21
265.7000018068465
 31
0.0
  0
LINE
  5
8A3
330
18
100
AcDbEntity
  8
1
  6
Continuous
100
AcDbLine
 10
411.2406685376082
 20
263.7000018068466
 30
0.0
 11
409.240668537608
 21
265.7000018068465
 31
0.0
  0
LINE
  5
8A4
330
18
100
AcDbEntity
  8
1
  6
Continuous
100
AcDbLine
 10
409.5034105376082
 20
263.7000018068466
 30
0.0
 11
411.503410537608
 21
265.7000018068465
 31
0.0
  0
LINE
  5
8A5
330
18
100
AcDbEntity
  8
1
  6
Continuous
100
AcDbLine
 10
408.9779275376081
 20
263.7000018068466
 30
0.0
 11
406.9779275376082
 21
265.7000018068465
 31
0.0
  0
LINE
  5
8A6
330
18
100
AcDbEntity
  8
1
  6
Continuous
100
AcDbLine
 10
407.2406685376082
 20
263.7000018068466
 30
0.0
 11
409.240668537608
 21
265.7000018068465
 31
0.0
  0
LINE
  5
8A7
330
18
100
AcDbEntity
  8
1
  6
Continuous
100
AcDbLine
 10
404.9779275376081
 20
263.7000018068466
 30
0.0
 11
406.9779275376082
 21
265.7000018068465
 31
0.0
  0
LINE
  5
8A8
330
18
100
AcDbEntity
  8
1
  6
Continuous
100
AcDbLine
 10
415.7661525376082
 20
263.7000018068466
 30
0.0
 11
413.7661525376083
 21
265.7000018068465
 31
0.0
  0
LINE
  5
8A9
330
18
100
AcDbEntity
  8
1
  6
Continuous
100
AcDbLine
 10
414.0288945376082
 20
263.7000018068466
 30
0.0
 11
416.0288945376083
 21
265.7000018068465
 31
0.0
  0
LINE
  5
8AA
330
18
100
AcDbEntity
  8
1
  6
Continuous
100
AcDbLine
 10
413.5034105376082
 20
263.7000018068466
 30
0.0
 11
411.503410537608
 21
265.7000018068465
 31
0.0
  0
LINE
  5
8AB
330
18
100
AcDbEntity
  8
1
  6
Continuous
100
AcDbLine
 10
411.7661525376082
 20
263.7000018068466
 30
0.0
 11
413.7661525376083
 21
265.7000018068465
 31
0.0
  0
LINE
  5
8AC
330
18
100
AcDbEntity
  8
1
  6
Continuous
100
AcDbLine
 10
400.1897025376082
 20
277.9000018068466
 30
0.0
 11
400.1897025376082
 21
273.4000018068466
 31
0.0
  0
LINE
  5
8AD
330
18
100
AcDbEntity
  8
2
  6
Continuous
100
AcDbLine
 10
408.8367025376081
 20
280.2434658068467
 30
0.0
 11
410.1897025376081
 21
277.9000018068466
 31
0.0
  0
LINE
  5
8AE
330
18
100
AcDbEntity
  8
1
  6
Continuous
100
AcDbLine
 10
392.6897025376081
 20
302.8999958068467
 30
0.0
 11
390.1897025376081
 21
300.3999958068465
 31
0.0
  0
LINE
  5
8AF
330
18
100
AcDbEntity
  8
1
  6
Continuous
100
AcDbLine
 10
390.1897025376081
 20
300.3999958068465
 30
0.0
 11
410.1897025376081
 21
300.3999958068465
 31
0.0
  0
LINE
  5
8B0
330
18
100
AcDbEntity
  8
1
  6
Continuous
100
AcDbLine
 10
392.6897025376081
 20
302.8999958068467
 30
0.0
 11
407.6897025376082
 21
302.8999958068467
 31
0.0
  0
LINE
  5
8B1
330
18
100
AcDbEntity
  8
1
  6
Continuous
100
AcDbLine
 10
407.6897025376082
 20
302.8999958068467
 30
0.0
 11
410.1897025376081
 21
300.3999958068465
 31
0.0
  0
LINE
  5
8B2
330
18
100
AcDbEntity
  8
2
  6
Continuous
100
AcDbLine
 10
515.2427025376083
 20
280.2434658068467
 30
0.0
 11
515.2427025376083
 21
301.7529958068467
 31
0.0
  0
LINE
  5
8B3
330
18
100
AcDbEntity
  8
1
  6
Continuous
100
AcDbLine
 10
513.889702537608
 20
300.3999958068465
 30
0.0
 11
513.889702537608
 21
277.9000018068466
 31
0.0
  0
LINE
  5
8B4
330
18
100
AcDbEntity
  8
1
  6
Continuous
100
AcDbLine
 10
431.6897025376081
 20
259.7000018068466
 30
0.0
 11
431.6897025376081
 21
220.6363908068465
 31
0.0
  0
ARC
  5
8B5
330
18
100
AcDbEntity
  8
1
  6
Continuous
100
AcDbCircle
 10
361.7306395376084
 20
218.5569178068467
 30
0.0
 40
70.0
100
AcDbArc
 50
2.255529
 51
23.92457
  0
ARC
  5
8B6
330
18
100
AcDbEntity
  8
1
  6
Continuous
100
AcDbCircle
 10
361.7306395376084
 20
218.5569178068467
 30
0.0
 40
67.09999999999999
100
AcDbArc
 50
2.255529
 51
25.17806699999999
  0
LINE
  5
8B7
330
18
100
AcDbEntity
  8
1
  6
Continuous
100
AcDbLine
 10
420.1897025376082
 20
219.9000018068467
 30
0.0
 11
419.1897025376081
 21
223.9000018068467
 31
0.0
  0
ARC
  5
8B8
330
18
100
AcDbEntity
  8
1
  6
Continuous
100
AcDbCircle
 10
418.4036075376083
 20
243.7000018068467
 30
0.0
 40
8.0
100
AcDbArc
 50
23.92457
 51
90.0
  0
ARC
  5
8B9
330
18
100
AcDbEntity
  8
1
  6
Continuous
100
AcDbCircle
 10
422.7220935376082
 20
267.2000018068467
 30
0.0
 40
6.217608999999997
100
AcDbArc
 50
0.0
 51
85.68687500000001
  0
LINE
  5
8BA
330
18
100
AcDbEntity
  8
1
  6
Continuous
100
AcDbLine
 10
427.6053445376081
 20
263.7000018068466
 30
0.0
 11
429.6053445376081
 21
265.7000018068465
 31
0.0
  0
ARC
  5
8BB
330
18
100
AcDbEntity
  8
1
  6
Continuous
100
AcDbCircle
 10
427.6897025376081
 20
259.7000018068466
 30
0.0
 40
4.0
100
AcDbArc
 50
0.0
 51
90.0
  0
LINE
  5
8BC
330
18
100
AcDbEntity
  8
1
  6
Continuous
100
AcDbLine
 10
424.817119537608
 20
263.7000018068466
 30
0.0
 11
422.8171195376082
 21
265.7000018068465
 31
0.0
  0
LINE
  5
8BD
330
18
100
AcDbEntity
  8
1
  6
Continuous
100
AcDbLine
 10
423.0798605376083
 20
263.7000018068466
 30
0.0
 11
425.0798605376083
 21
265.7000018068465
 31
0.0
  0
LINE
  5
8BE
330
18
100
AcDbEntity
  8
1
  6
Continuous
100
AcDbLine
 10
420.2916355376081
 20
263.7000018068466
 30
0.0
 11
418.2916355376083
 21
265.7000018068465
 31
0.0
  0
LINE
  5
8BF
330
18
100
AcDbEntity
  8
1
  6
Continuous
100
AcDbLine
 10
418.554377537608
 20
263.7000018068466
 30
0.0
 11
420.5543775376083
 21
265.7000018068465
 31
0.0
  0
LINE
  5
8C0
330
18
100
AcDbEntity
  8
1
  6
Continuous
100
AcDbLine
 10
422.554377537608
 20
263.7000018068466
 30
0.0
 11
420.5543775376083
 21
265.7000018068465
 31
0.0
  0
LINE
  5
8C1
330
18
100
AcDbEntity
  8
1
  6
Continuous
100
AcDbLine
 10
420.817119537608
 20
263.7000018068466
 30
0.0
 11
422.8171195376082
 21
265.7000018068465
 31
0.0
  0
LINE
  5
8C2
330
18
100
AcDbEntity
  8
1
  6
Continuous
100
AcDbLine
 10
429.3426025376083
 20
263.7000018068466
 30
0.0
 11
427.3426025376083
 21
265.7000018068465
 31
0.0
  0
LINE
  5
8C3
330
18
100
AcDbEntity
  8
1
  6
Continuous
100
AcDbLine
 10
427.0798605376083
 20
263.7000018068466
 30
0.0
 11
425.0798605376083
 21
265.7000018068465
 31
0.0
  0
LINE
  5
8C4
330
18
100
AcDbEntity
  8
1
  6
Continuous
100
AcDbLine
 10
425.3426025376083
 20
263.7000018068466
 30
0.0
 11
427.3426025376083
 21
265.7000018068465
 31
0.0
  0
LINE
  5
8C5
330
18
100
AcDbEntity
  8
1
  6
Continuous
100
AcDbLine
 10
429.8680855376083
 20
263.7000018068466
 30
0.0
 11
429.8897025376083
 21
263.7216178068466
 31
0.0
  0
LINE
  5
8C6
330
18
100
AcDbEntity
  8
1
  6
Continuous
100
AcDbLine
 10
429.8897025376083
 20
265.4156438068465
 30
0.0
 11
429.6053445376081
 21
265.7000018068465
 31
0.0
  0
LINE
  5
8C7
330
18
100
AcDbEntity
  8
1
  6
Continuous
100
AcDbLine
 10
429.8897025376083
 20
267.2000018068467
 30
0.0
 11
429.8897025376083
 21
263.7000018068466
 31
0.0
  0
LINE
  5
8C8
330
18
100
AcDbEntity
  8
1
  6
Continuous
100
AcDbLine
 10
420.1897025376082
 20
277.9000018068466
 30
0.0
 11
420.1897025376082
 21
273.4000018068466
 31
0.0
  0
LINE
  5
8C9
330
18
100
AcDbEntity
  8
1
  6
Continuous
100
AcDbLine
 10
491.8897025376083
 20
259.7000018068466
 30
0.0
 11
491.8897025376083
 21
251.7000018068467
 31
0.0
  0
ARC
  5
8CA
330
18
100
AcDbEntity
  8
1
  6
Continuous
100
AcDbCircle
 10
500.7080875376082
 20
239.2000018068467
 30
0.0
 40
12.5
100
AcDbArc
 50
34.35985200000001
 51
90.0
  0
LINE
  5
8CB
330
18
100
AcDbEntity
  8
1
  6
Continuous
100
AcDbLine
 10
491.8897025376083
 20
251.7000018068467
 30
0.0
 11
500.7080875376082
 21
251.7000018068467
 31
0.0
  0
ARC
  5
8CC
330
18
100
AcDbEntity
  8
1
  6
Continuous
100
AcDbCircle
 10
495.8897025376083
 20
259.7000018068466
 30
0.0
 40
4.0
100
AcDbArc
 50
90.0
 51
180.0
  0
ARC
  5
8CD
330
18
100
AcDbEntity
  8
1
  6
Continuous
100
AcDbCircle
 10
501.2759585376083
 20
267.2820178068465
 30
0.0
 40
6.136804999999997
100
AcDbArc
 50
94.48856199999999
 51
180.7657659999999
  0
LINE
  5
8CE
330
18
100
AcDbEntity
  8
1
  6
Continuous
100
AcDbLine
 10
503.7877685376082
 20
263.7000018068466
 30
0.0
 11
505.7877685376082
 21
265.7000018068465
 31
0.0
  0
LINE
  5
8CF
330
18
100
AcDbEntity
  8
1
  6
Continuous
100
AcDbLine
 10
505.5250265376082
 20
263.7000018068466
 30
0.0
 11
503.5250265376083
 21
265.7000018068465
 31
0.0
  0
LINE
  5
8D0
330
18
100
AcDbEntity
  8
1
  6
Continuous
100
AcDbLine
 10
496.9995435376083
 20
263.7000018068466
 30
0.0
 11
498.9995435376084
 21
265.7000018068465
 31
0.0
  0
LINE
  5
8D1
330
18
100
AcDbEntity
  8
1
  6
Continuous
100
AcDbLine
 10
498.7368015376083
 20
263.7000018068466
 30
0.0
 11
496.7368015376083
 21
265.7000018068465
 31
0.0
  0
LINE
  5
8D2
330
18
100
AcDbEntity
  8
1
  6
Continuous
100
AcDbLine
 10
494.1897025376081
 20
265.4156438068465
 30
0.0
 11
494.4740605376083
 21
265.7000018068465
 31
0.0
  0
LINE
  5
8D3
330
18
100
AcDbEntity
  8
1
  6
Continuous
100
AcDbLine
 10
494.1897025376081
 20
263.7216178068466
 30
0.0
 11
494.2113185376081
 21
263.7000018068466
 31
0.0
  0
LINE
  5
8D4
330
18
100
AcDbEntity
  8
1
  6
Continuous
100
AcDbLine
 10
494.7368015376081
 20
263.7000018068466
 30
0.0
 11
496.7368015376083
 21
265.7000018068465
 31
0.0
  0
LINE
  5
8D5
330
18
100
AcDbEntity
  8
1
  6
Continuous
100
AcDbLine
 10
496.4740605376081
 20
263.7000018068466
 30
0.0
 11
494.4740605376083
 21
265.7000018068465
 31
0.0
  0
LINE
  5
8D6
330
18
100
AcDbEntity
  8
1
  6
Continuous
100
AcDbLine
 10
494.1897025376081
 20
267.2000018068467
 30
0.0
 11
494.1897025376081
 21
263.7000018068466
 31
0.0
  0
LINE
  5
8D7
330
18
100
AcDbEntity
  8
1
  6
Continuous
100
AcDbLine
 10
501.5250265376082
 20
263.7000018068466
 30
0.0
 11
503.5250265376083
 21
265.7000018068465
 31
0.0
  0
LINE
  5
8D8
330
18
100
AcDbEntity
  8
1
  6
Continuous
100
AcDbLine
 10
499.2622855376081
 20
263.7000018068466
 30
0.0
 11
501.2622855376082
 21
265.7000018068465
 31
0.0
  0
LINE
  5
8D9
330
18
100
AcDbEntity
  8
1
  6
Continuous
100
AcDbLine
 10
500.9995435376083
 20
263.7000018068466
 30
0.0
 11
498.9995435376084
 21
265.7000018068465
 31
0.0
  0
LINE
  5
8DA
330
18
100
AcDbEntity
  8
1
  6
Continuous
100
AcDbLine
 10
503.2622855376081
 20
263.7000018068466
 30
0.0
 11
501.2622855376082
 21
265.7000018068465
 31
0.0
  0
LINE
  5
8DB
330
18
100
AcDbEntity
  8
1
  6
Continuous
100
AcDbLine
 10
508.3132515376082
 20
263.7000018068466
 30
0.0
 11
510.3132515376083
 21
265.7000018068465
 31
0.0
  0
LINE
  5
8DC
330
18
100
AcDbEntity
  8
1
  6
Continuous
100
AcDbLine
 10
510.0505105376082
 20
263.7000018068466
 30
0.0
 11
508.0505105376082
 21
265.7000018068465
 31
0.0
  0
LINE
  5
8DD
330
18
100
AcDbEntity
  8
1
  6
Continuous
100
AcDbLine
 10
506.0505105376082
 20
263.7000018068466
 30
0.0
 11
508.0505105376082
 21
265.7000018068465
 31
0.0
  0
LINE
  5
8DE
330
18
100
AcDbEntity
  8
1
  6
Continuous
100
AcDbLine
 10
507.7877685376082
 20
263.7000018068466
 30
0.0
 11
505.7877685376082
 21
265.7000018068465
 31
0.0
  0
LINE
  5
8DF
330
18
100
AcDbEntity
  8
1
  6
Continuous
100
AcDbLine
 10
512.8387355376081
 20
263.7000018068466
 30
0.0
 11
514.8387355376081
 21
265.7000018068465
 31
0.0
  0
LINE
  5
8E0
330
18
100
AcDbEntity
  8
1
  6
Continuous
100
AcDbLine
 10
510.5759935376082
 20
263.7000018068466
 30
0.0
 11
512.5759935376083
 21
265.7000018068465
 31
0.0
  0
LINE
  5
8E1
330
18
100
AcDbEntity
  8
1
  6
Continuous
100
AcDbLine
 10
514.5759935376084
 20
263.7000018068466
 30
0.0
 11
512.5759935376083
 21
265.7000018068465
 31
0.0
  0
LINE
  5
8E2
330
18
100
AcDbEntity
  8
1
  6
Continuous
100
AcDbLine
 10
512.3132515376084
 20
263.7000018068466
 30
0.0
 11
510.3132515376083
 21
265.7000018068465
 31
0.0
  0
LINE
  5
8E3
330
18
100
AcDbEntity
  8
1
  6
Continuous
100
AcDbLine
 10
500.7956925376082
 20
277.9000018068466
 30
0.0
 11
500.7956925376082
 21
273.4000018068466
 31
0.0
  0
LINE
  5
8E4
330
18
100
AcDbEntity
  8
2
  6
Continuous
100
AcDbLine
 10
515.2427025376083
 20
280.2434658068467
 30
0.0
 11
513.889702537608
 21
277.9000018068466
 31
0.0
  0
LINE
  5
8E5
330
18
100
AcDbEntity
  8
1
  6
Continuous
100
AcDbLine
 10
512.3426975376084
 20
277.9000018068466
 30
0.0
 11
512.3426975376084
 21
273.4000018068466
 31
0.0
  0
LINE
  5
8E6
330
18
100
AcDbEntity
  8
1
  6
Continuous
100
AcDbLine
 10
516.3897025376082
 20
302.8999958068467
 30
0.0
 11
513.889702537608
 21
300.3999958068465
 31
0.0
  0
LINE
  5
8E7
330
18
100
AcDbEntity
  8
2
  6
Continuous
100
AcDbLine
 10
532.5367025376082
 20
301.7529958068467
 30
0.0
 11
532.5367025376082
 21
280.2434658068467
 31
0.0
  0
LINE
  5
8E8
330
18
100
AcDbEntity
  8
1
  6
Continuous
100
AcDbLine
 10
533.8897025376081
 20
300.3999958068465
 30
0.0
 11
533.8897025376081
 21
277.9000018068466
 31
0.0
  0
LINE
  5
8E9
330
18
100
AcDbEntity
  8
1
  6
Continuous
100
AcDbLine
 10
539.9916355376082
 20
263.7000018068466
 30
0.0
 11
541.9916355376082
 21
265.7000018068465
 31
0.0
  0
LINE
  5
8EA
330
18
100
AcDbEntity
  8
1
  6
Continuous
100
AcDbLine
 10
541.7288945376082
 20
263.7000018068466
 30
0.0
 11
539.7288945376081
 21
265.7000018068465
 31
0.0
  0
LINE
  5
8EB
330
18
100
AcDbEntity
  8
1
  6
Continuous
100
AcDbLine
 10
528.6779275376082
 20
263.7000018068466
 30
0.0
 11
530.677927537608
 21
265.7000018068465
 31
0.0
  0
LINE
  5
8EC
330
18
100
AcDbEntity
  8
1
  6
Continuous
100
AcDbLine
 10
530.4151855376082
 20
263.7000018068466
 30
0.0
 11
528.415185537608
 21
265.7000018068465
 31
0.0
  0
LINE
  5
8ED
330
18
100
AcDbEntity
  8
1
  6
Continuous
100
AcDbLine
 10
521.889702537608
 20
263.7000018068466
 30
0.0
 11
523.8897025376082
 21
265.7000018068465
 31
0.0
  0
LINE
  5
8EE
330
18
100
AcDbEntity
  8
1
  6
Continuous
100
AcDbLine
 10
523.6269605376081
 20
263.7000018068466
 30
0.0
 11
521.6269605376083
 21
265.7000018068465
 31
0.0
  0
LINE
  5
8EF
330
18
100
AcDbEntity
  8
1
  6
Continuous
100
AcDbLine
 10
519.6269605376081
 20
263.7000018068466
 30
0.0
 11
521.6269605376083
 21
265.7000018068465
 31
0.0
  0
LINE
  5
8F0
330
18
100
AcDbEntity
  8
1
  6
Continuous
100
AcDbLine
 10
517.3642185376081
 20
263.7000018068466
 30
0.0
 11
519.3642185376083
 21
265.7000018068465
 31
0.0
  0
LINE
  5
8F1
330
18
100
AcDbEntity
  8
1
  6
Continuous
100
AcDbLine
 10
521.3642185376081
 20
263.7000018068466
 30
0.0
 11
519.3642185376083
 21
265.7000018068465
 31
0.0
  0
LINE
  5
8F2
330
18
100
AcDbEntity
  8
1
  6
Continuous
100
AcDbLine
 10
519.1014775376081
 20
263.7000018068466
 30
0.0
 11
517.1014775376082
 21
265.7000018068465
 31
0.0
  0
LINE
  5
8F3
330
18
100
AcDbEntity
  8
1
  6
Continuous
100
AcDbLine
 10
524.1524435376081
 20
263.7000018068466
 30
0.0
 11
526.152443537608
 21
265.7000018068465
 31
0.0
  0
LINE
  5
8F4
330
18
100
AcDbEntity
  8
1
  6
Continuous
100
AcDbLine
 10
526.4151855376081
 20
263.7000018068466
 30
0.0
 11
528.415185537608
 21
265.7000018068465
 31
0.0
  0
LINE
  5
8F5
330
18
100
AcDbEntity
  8
1
  6
Continuous
100
AcDbLine
 10
525.889702537608
 20
263.7000018068466
 30
0.0
 11
523.8897025376082
 21
265.7000018068465
 31
0.0
  0
LINE
  5
8F6
330
18
100
AcDbEntity
  8
1
  6
Continuous
100
AcDbLine
 10
528.1524435376081
 20
263.7000018068466
 30
0.0
 11
526.152443537608
 21
265.7000018068465
 31
0.0
  0
LINE
  5
8F7
330
18
100
AcDbEntity
  8
1
  6
Continuous
100
AcDbLine
 10
533.2034105376082
 20
263.7000018068466
 30
0.0
 11
535.2034105376083
 21
265.7000018068465
 31
0.0
  0
LINE
  5
8F8
330
18
100
AcDbEntity
  8
1
  6
Continuous
100
AcDbLine
 10
530.9406685376082
 20
263.7000018068466
 30
0.0
 11
532.9406685376083
 21
265.7000018068465
 31
0.0
  0
LINE
  5
8F9
330
18
100
AcDbEntity
  8
1
  6
Continuous
100
AcDbLine
 10
532.6779275376082
 20
263.7000018068466
 30
0.0
 11
530.677927537608
 21
265.7000018068465
 31
0.0
  0
LINE
  5
8FA
330
18
100
AcDbEntity
  8
1
  6
Continuous
100
AcDbLine
 10
534.9406685376082
 20
263.7000018068466
 30
0.0
 11
532.9406685376083
 21
265.7000018068465
 31
0.0
  0
LINE
  5
8FB
330
18
100
AcDbEntity
  8
1
  6
Continuous
100
AcDbLine
 10
535.4661525376082
 20
263.7000018068466
 30
0.0
 11
537.4661525376081
 21
265.7000018068465
 31
0.0
  0
LINE
  5
8FC
330
18
100
AcDbEntity
  8
1
  6
Continuous
100
AcDbLine
 10
537.7288945376082
 20
263.7000018068466
 30
0.0
 11
539.7288945376081
 21
265.7000018068465
 31
0.0
  0
LINE
  5
8FD
330
18
100
AcDbEntity
  8
1
  6
Continuous
100
AcDbLine
 10
537.2034105376082
 20
263.7000018068466
 30
0.0
 11
535.2034105376083
 21
265.7000018068465
 31
0.0
  0
LINE
  5
8FE
330
18
100
AcDbEntity
  8
1
  6
Continuous
100
AcDbLine
 10
539.4661525376082
 20
263.7000018068466
 30
0.0
 11
537.4661525376081
 21
265.7000018068465
 31
0.0
  0
LINE
  5
8FF
330
18
100
AcDbEntity
  8
2
  6
Continuous
100
AcDbLine
 10
532.5367025376082
 20
280.2434658068467
 30
0.0
 11
533.8897025376081
 21
277.9000018068466
 31
0.0
  0
LINE
  5
900
330
18
100
AcDbEntity
  8
1
  6
Continuous
100
AcDbLine
 10
535.4367085376085
 20
273.4000018068466
 30
0.0
 11
535.4367085376085
 21
277.9000018068466
 31
0.0
  0
ARC
  5
901
330
18
100
AcDbEntity
  8
1
  6
Continuous
100
AcDbCircle
 10
546.5034455376085
 20
267.2820188068466
 30
0.0
 40
6.136803999999997
100
AcDbArc
 50
359.2342259999999
 51
85.51143600000001
  0
LINE
  5
902
330
18
100
AcDbEntity
  8
1
  6
Continuous
100
AcDbLine
 10
546.7798605376083
 20
263.7000018068466
 30
0.0
 11
548.7798605376082
 21
265.7000018068465
 31
0.0
  0
LINE
  5
903
330
18
100
AcDbEntity
  8
1
  6
Continuous
100
AcDbLine
 10
548.5171195376083
 20
263.7000018068466
 30
0.0
 11
546.5171195376082
 21
265.7000018068465
 31
0.0
  0
LINE
  5
904
330
18
100
AcDbEntity
  8
1
  6
Continuous
100
AcDbLine
 10
542.2543775376082
 20
263.7000018068466
 30
0.0
 11
544.2543775376082
 21
265.7000018068465
 31
0.0
  0
LINE
  5
905
330
18
100
AcDbEntity
  8
1
  6
Continuous
100
AcDbLine
 10
544.5171195376082
 20
263.7000018068466
 30
0.0
 11
546.5171195376082
 21
265.7000018068465
 31
0.0
  0
LINE
  5
906
330
18
100
AcDbEntity
  8
1
  6
Continuous
100
AcDbLine
 10
543.9916355376082
 20
263.7000018068466
 30
0.0
 11
541.9916355376082
 21
265.7000018068465
 31
0.0
  0
LINE
  5
907
330
18
100
AcDbEntity
  8
1
  6
Continuous
100
AcDbLine
 10
546.2543775376082
 20
263.7000018068466
 30
0.0
 11
544.2543775376082
 21
265.7000018068465
 31
0.0
  0
LINE
  5
908
330
18
100
AcDbEntity
  8
1
  6
Continuous
100
AcDbLine
 10
553.5897025376083
 20
265.4156438068465
 30
0.0
 11
553.3053445376082
 21
265.7000018068465
 31
0.0
  0
LINE
  5
909
330
18
100
AcDbEntity
  8
1
  6
Continuous
100
AcDbLine
 10
553.5680855376083
 20
263.7000018068466
 30
0.0
 11
553.5897025376083
 21
263.7216178068466
 31
0.0
  0
LINE
  5
90A
330
18
100
AcDbEntity
  8
1
  6
Continuous
100
AcDbLine
 10
549.0426025376083
 20
263.7000018068466
 30
0.0
 11
551.0426025376082
 21
265.7000018068465
 31
0.0
  0
LINE
  5
90B
330
18
100
AcDbEntity
  8
1
  6
Continuous
100
AcDbLine
 10
551.3053445376083
 20
263.7000018068466
 30
0.0
 11
553.3053445376082
 21
265.7000018068465
 31
0.0
  0
LINE
  5
90C
330
18
100
AcDbEntity
  8
1
  6
Continuous
100
AcDbLine
 10
550.7798605376083
 20
263.7000018068466
 30
0.0
 11
548.7798605376082
 21
265.7000018068465
 31
0.0
  0
LINE
  5
90D
330
18
100
AcDbEntity
  8
1
  6
Continuous
100
AcDbLine
 10
553.0426025376083
 20
263.7000018068466
 30
0.0
 11
551.0426025376082
 21
265.7000018068465
 31
0.0
  0
LINE
  5
90E
330
18
100
AcDbEntity
  8
1
  6
Continuous
100
AcDbLine
 10
553.5897025376083
 20
267.2000018068467
 30
0.0
 11
553.5897025376083
 21
263.7000018068466
 31
0.0
  0
LINE
  5
90F
330
18
100
AcDbEntity
  8
1
  6
Continuous
100
AcDbLine
 10
562.5897025376083
 20
263.7000018068466
 30
0.0
 11
562.5897025376083
 21
260.8000018068466
 31
0.0
  0
LINE
  5
910
330
18
100
AcDbEntity
  8
1
  6
Continuous
100
AcDbLine
 10
562.5897025376083
 20
260.8000018068466
 30
0.0
 11
560.6720015376083
 21
260.8000018068466
 31
0.0
  0
LINE
  5
911
330
18
100
AcDbEntity
  8
1
  6
Continuous
100
AcDbLine
 10
546.9837135376081
 20
277.9000018068466
 30
0.0
 11
546.9837135376081
 21
273.4000018068466
 31
0.0
  0
LINE
  5
912
330
18
100
AcDbEntity
  8
1
  6
Continuous
100
AcDbLine
 10
610.2292625376085
 20
228.2949538068467
 30
0.0
 11
603.6633885376085
 21
225.7923118068467
 31
0.0
  0
LINE
  5
913
330
18
100
AcDbEntity
  8
1
  6
Continuous
100
AcDbLine
 10
531.389702537608
 20
302.8999958068467
 30
0.0
 11
533.8897025376081
 21
300.3999958068465
 31
0.0
  0
ENDSEC
  0
SECTION
  2
OBJECTS
  0
DICTIONARY
  5
C
330
0
100
AcDbDictionary
281
     1
  3
ACAD_CIP_PREVIOUS_PRODUCT_INFO
350
986
  3
ACAD_COLOR
350
969
  3
ACAD_DETAILVIEWSTYLE
350
982
  3
ACAD_GROUP
350
D
  3
ACAD_LAYOUT
350
94
  3
ACAD_MATERIAL
350
937
  3
ACAD_MLEADERSTYLE
350
97E
  3
ACAD_MLINESTYLE
350
1B
  3
ACAD_PLOTSETTINGS
350
95
  3
ACAD_PLOTSTYLENAME
350
935
  3
ACAD_SCALELIST
350
96C
  3
ACAD_SECTIONVIEWSTYLE
350
980
  3
ACAD_TABLESTYLE
350
96A
  3
ACAD_VISUALSTYLE
350
950
  3
ACDB_RECOMPOSE_DATA
350
9A4
  3
AcDbVariableDictionary
350
997
  3
CONTENTDICTIONARY
350
3D
  3
DWGPROPS
350
9A5
  0
DICTIONARY
  5
987
330
E
100
AcDbDictionary
280
     1
281
     1
  3
ADSK_XREC_LAYER_RECONCILED
360
988
  0
DICTIONARY
  5
989
330
4E
100
AcDbDictionary
280
     1
281
     1
  3
ADSK_XREC_LAYER_RECONCILED
360
98A
  0
DICTIONARY
  5
98B
330
4F
100
AcDbDictionary
280
     1
281
     1
  3
ADSK_XREC_LAYER_RECONCILED
360
98C
  0
DICTIONARY
  5
98D
330
50
100
AcDbDictionary
280
     1
281
     1
  3
ADSK_XREC_LAYER_RECONCILED
360
98E
  0
DICTIONARY
  5
98F
330
51
100
AcDbDictionary
280
     1
281
     1
  3
ADSK_XREC_LAYER_RECONCILED
360
990
  0
DICTIONARY
  5
991
330
52
100
AcDbDictionary
280
     1
281
     1
  3
ADSK_XREC_LAYER_RECONCILED
360
992
  0
DICTIONARY
  5
993
330
53
100
AcDbDictionary
280
     1
281
     1
  3
ADSK_XREC_LAYER_RECONCILED
360
994
  0
DICTIONARY
  5
995
330
54
100
AcDbDictionary
280
     1
281
     1
  3
ADSK_XREC_LAYER_RECONCILED
360
996
  0
DICTIONARY
  5
930
330
18
100
AcDbDictionary
281
     1
  3
ACAD_LAYOUTSELFREF
350
931
  0
DICTIONARY
  5
92E
330
15
100
AcDbDictionary
281
     1
  3
ACAD_LAYOUTSELFREF
350
92F
  0
XRECORD
  5
986
102
{ACAD_REACTORS
330
C
102
}
330
C
100
AcDbXrecord
280
     1
300
ACDLT
300
2014
300
ACDLT_F_S
  0
DICTIONARY
  5
969
102
{ACAD_REACTORS
330
C
102
}
330
C
100
AcDbDictionary
281
     1
  0
DICTIONARY
  5
982
102
{ACAD_REACTORS
330
C
102
}
330
C
100
AcDbDictionary
281
     1
  3
Imperial24
350
983
  0
DICTIONARY
  5
D
102
{ACAD_REACTORS
330
C
102
}
330
C
100
AcDbDictionary
281
     1
  0
DICTIONARY
  5
94
102
{ACAD_REACTORS
330
C
102
}
330
C
100
AcDbDictionary
281
     1
  3
Model
350
984
  3
レイアウト1
350
985
  0
DICTIONARY
  5
937
102
{ACAD_REACTORS
330
C
102
}
330
C
100
AcDbDictionary
281
     1
  3
ByBlock
350
940
  3
ByLayer
350
938
  3
Global
350
948
  0
DICTIONARY
  5
97E
102
{ACAD_REACTORS
330
C
102
}
330
C
100
AcDbDictionary
281
     1
  3
Standard
350
97F
  0
DICTIONARY
  5
1B
102
{ACAD_REACTORS
330
C
102
}
330
C
100
AcDbDictionary
281
     1
  3
STANDARD
350
1C
  0
DICTIONARY
  5
95
102
{ACAD_REACTORS
330
C
102
}
330
C
100
AcDbDictionary
281
     1
  0
ACDBDICTIONARYWDFLT
  5
935
102
{ACAD_REACTORS
330
C
102
}
330
C
100
AcDbDictionary
281
     1
  3
Normal
350
936
100
AcDbDictionaryWithDefault
340
936
  0
DICTIONARY
  5
96C
102
{ACAD_REACTORS
330
C
102
}
330
C
100
AcDbDictionary
281
     1
  3
A0
350
96D
  3
A1
350
96E
  3
A2
350
96F
  3
A3
350
970
  3
A4
350
971
  3
A5
350
972
  3
A6
350
973
  3
A7
350
974
  3
A8
350
975
  3
A9
350
976
  3
B0
350
977
  3
B1
350
978
  3
B2
350
979
  3
B3
350
97A
  3
B4
350
97B
  3
B5
350
97C
  3
B6
350
97D
  0
DICTIONARY
  5
980
102
{ACAD_REACTORS
330
C
102
}
330
C
100
AcDbDictionary
281
     1
  3
Imperial24
350
981
  0
DICTIONARY
  5
96A
102
{ACAD_REACTORS
330
C
102
}
330
C
100
AcDbDictionary
281
     1
  3
Standard
350
96B
  0
DICTIONARY
  5
950
102
{ACAD_REACTORS
330
C
102
}
330
C
100
AcDbDictionary
281
     1
  3
2dWireframe
350
956
  3
Basic
350
955
  3
Brighten
350
95C
  3
ColorChange
350
960
  3
Conceptual
350
959
  3
Dim
350
95B
  3
EdgeColorOff
350
968
  3
Facepattern
350
95F
  3
Flat
350
951
  3
FlatWithEdges
350
952
  3
Gouraud
350
953
  3
GouraudWithEdges
350
954
  3
Hidden
350
958
  3
JitterOff
350
966
  3
Linepattern
350
95E
  3
OverhangOff
350
967
  3
Realistic
350
95A
  3
Shaded
350
965
  3
Shaded with edges
350
964
  3
Shades of Gray
350
961
  3
Sketchy
350
962
  3
Thicken
350
95D
  3
Wireframe
350
957
  3
X-Ray
350
963
  0
XRECORD
  5
9A4
102
{ACAD_REACTORS
330
C
102
}
330
C
100
AcDbXrecord
280
     1
 90
        1
330
96B
  0
DICTIONARY
  5
997
102
{ACAD_REACTORS
330
C
102
}
330
C
100
AcDbDictionary
281
     1
  3
CANNOSCALE
350
99C
  3
CMLEADERSTYLE
350
999
  3
CTABLESTYLE
350
998
  3
CVIEWDETAILSTYLE
350
99A
  3
CVIEWSECTIONSTYLE
350
99B
  3
DIMASSOC
350
99F
  3
INDEXCTL
350
99E
  3
SORTENTS
350
99D
  3
XCLIPFRAME
350
9A0
  0
DICTIONARY
  5
3D
102
{ACAD_REACTORS
330
C
102
}
330
C
100
AcDbDictionary
281
     1
  0
XRECORD
  5
9A5
102
{ACAD_REACTORS
330
C
102
}
330
C
100
AcDbXrecord
280
     1
  1
DWGPROPS COOKIE
  2

  3

  4

  6

  7

  8
Yoshitsune
  9

300
=
301
=
302
=
303
=
304
=
305
=
306
=
307
=
308
=
309
=
 40
0.0030649652777778
 41
2454876.373515
 42
2457192.688130104
  1

 90
        0
  0
XRECORD
  5
988
102
{ACAD_REACTORS
330
987
102
}
330
987
100
AcDbXrecord
280
     1
290
     1
  0
XRECORD
  5
98A
102
{ACAD_REACTORS
330
989
102
}
330
989
100
AcDbXrecord
280
     1
290
     1
  0
XRECORD
  5
98C
102
{ACAD_REACTORS
330
98B
102
}
330
98B
100
AcDbXrecord
280
     1
290
     1
  0
XRECORD
  5
98E
102
{ACAD_REACTORS
330
98D
102
}
330
98D
100
AcDbXrecord
280
     1
290
     1
  0
XRECORD
  5
990
102
{ACAD_REACTORS
330
98F
102
}
330
98F
100
AcDbXrecord
280
     1
290
     1
  0
XRECORD
  5
992
102
{ACAD_REACTORS
330
991
102
}
330
991
100
AcDbXrecord
280
     1
290
     1
  0
XRECORD
  5
994
102
{ACAD_REACTORS
330
993
102
}
330
993
100
AcDbXrecord
280
     1
290
     1
  0
XRECORD
  5
996
102
{ACAD_REACTORS
330
995
102
}
330
995
100
AcDbXrecord
280
     1
290
     1
  0
XRECORD
  5
931
102
{ACAD_REACTORS
330
930
102
}
330
930
100
AcDbXrecord
280
     1
340
18
  0
XRECORD
  5
92F
102
{ACAD_REACTORS
330
92E
102
}
330
92E
100
AcDbXrecord
280
     1
340
15
  0
ACDBDETAILVIEWSTYLE
  5
983
102
{ACAD_XDICTIONARY
360
9DD
102
}
102
{ACAD_REACTORS
330
982
102
}
330
982
100
AcDbModelDocViewStyle
 70
     0
  3
Imperial24
290
     0
100
AcDbDetailViewStyle
 70
     0
 71
     0
 90
        3
 71
     1
340
F
 40
0.24
340
0
 40
0.24
300

 40
0.36
280
     3
 71
     2
340
14
 90
       25
 71
     3
340
F
 40
0.24
 90
        1
 40
0.75
 90
        1
300
%<\AcVar ViewType \f "%tc1">% %<\AcVar ViewDetailId>%\PSCALE %<\AcVar ViewScale \f "%sn">%
 71
     4
340
14
 90
       25
340
14
 90
       25
280
     0
  0
LAYOUT
  5
984
102
{ACAD_XDICTIONARY
360
9DF
102
}
102
{ACAD_REACTORS
330
94
102
}
330
94
100
AcDbPlotSettings
  1

  2
Canon LBP9100C
  4

  6

 40
0.0
 41
0.0
 42
0.0
 43
0.0
 44
0.0
 45
0.0
 46
0.0
 47
0.0
 48
0.0
 49
0.0
140
0.0
141
0.0
142
1.0
143
1.0
 70
  1712
 72
     0
 73
     0
 74
     0
  7

 75
     0
147
1.0
148
0.0
149
0.0
100
AcDbLayout
  1
Model
 70
     1
 71
     0
 10
0.0
 20
0.0
 11
12.0
 21
9.0
 12
0.0
 22
0.0
 32
0.0
 14
0.0
 24
0.0
 34
0.0
 15
0.0
 25
0.0
 35
0.0
146
0.0
 13
0.0
 23
0.0
 33
0.0
 16
1.0
 26
0.0
 36
0.0
 17
0.0
 27
1.0
 37
0.0
 76
     0
330
18
331
92D
  0
LAYOUT
  5
985
102
{ACAD_XDICTIONARY
360
9E1
102
}
102
{ACAD_REACTORS
330
94
102
}
330
94
100
AcDbPlotSettings
  1

  2
Canon LBP9100C
  4

  6

 40
0.0
 41
0.0
 42
0.0
 43
0.0
 44
0.0
 45
0.0
 46
0.0
 47
0.0
 48
0.0
 49
0.0
140
0.0
141
0.0
142
1.0
143
1.0
 70
   688
 72
     0
 73
     0
 74
     5
  7

 75
    16
147
1.0
148
0.0
149
0.0
100
AcDbLayout
  1
レイアウト1
 70
     1
 71
     1
 10
0.0
 20
0.0
 11
420.0
 21
297.0
 12
0.0
 22
0.0
 32
0.0
 14
1.000000000000000E+20
 24
1.000000000000000E+20
 34
1.000000000000000E+20
 15
-1.000000000000000E+20
 25
-1.000000000000000E+20
 35
-1.000000000000000E+20
146
0.0
 13
0.0
 23
0.0
 33
0.0
 16
1.0
 26
0.0
 36
0.0
 17
0.0
 27
1.0
 37
0.0
 76
     0
330
15
  0
MATERIAL
  5
940
102
{ACAD_XDICTIONARY
360
941
102
}
102
{ACAD_REACTORS
330
937
102
}
330
937
100
AcDbMaterial
  1
ByBlock
 72
     0
 43
0.0208333333333333
 43
0.0
 43
0.0
 43
0.0
 43
0.0
 43
0.0208333333333333
 43
0.0
 43
0.0
 43
0.0
 43
0.0
 43
1.0
 43
0.0
 43
0.0
 43
0.0
 43
0.0
 43
1.0
 77
     0
 47
0.0208333333333333
 47
0.0
 47
0.0
 47
0.0
 47
0.0
 47
0.0208333333333333
 47
0.0
 47
0.0
 47
0.0
 47
0.0
 47
1.0
 47
0.0
 47
0.0
 47
0.0
 47
0.0
 47
1.0
171
     0
 49
0.0208333333333333
 49
0.0
 49
0.0
 49
0.0
 49
0.0
 49
0.0208333333333333
 49
0.0
 49
0.0
 49
0.0
 49
0.0
 49
1.0
 49
0.0
 49
0.0
 49
0.0
 49
0.0
 49
1.0
175
     0
142
0.0208333333333333
142
0.0
142
0.0
142
0.0
142
0.0
142
0.0208333333333333
142
0.0
142
0.0
142
0.0
142
0.0
142
1.0
142
0.0
142
0.0
142
0.0
142
0.0
142
1.0
179
     0
144
0.0208333333333333
144
0.0
144
0.0
144
0.0
144
0.0
144
0.0208333333333333
144
0.0
144
0.0
144
0.0
144
0.0
144
1.0
144
0.0
144
0.0
144
0.0
144
0.0
144
1.0
147
0.0208333333333333
147
0.0
147
0.0
147
0.0
147
0.0
147
0.0208333333333333
147
0.0
147
0.0
147
0.0
147
0.0
147
1.0
147
0.0
147
0.0
147
0.0
147
0.0
147
1.0
  0
MATERIAL
  5
938
102
{ACAD_XDICTIONARY
360
939
102
}
102
{ACAD_REACTORS
330
937
102
}
330
937
100
AcDbMaterial
  1
ByLayer
 72
     0
 43
0.0208333333333333
 43
0.0
 43
0.0
 43
0.0
 43
0.0
 43
0.0208333333333333
 43
0.0
 43
0.0
 43
0.0
 43
0.0
 43
1.0
 43
0.0
 43
0.0
 43
0.0
 43
0.0
 43
1.0
 77
     0
 47
0.0208333333333333
 47
0.0
 47
0.0
 47
0.0
 47
0.0
 47
0.0208333333333333
 47
0.0
 47
0.0
 47
0.0
 47
0.0
 47
1.0
 47
0.0
 47
0.0
 47
0.0
 47
0.0
 47
1.0
171
     0
 49
0.0208333333333333
 49
0.0
 49
0.0
 49
0.0
 49
0.0
 49
0.0208333333333333
 49
0.0
 49
0.0
 49
0.0
 49
0.0
 49
1.0
 49
0.0
 49
0.0
 49
0.0
 49
0.0
 49
1.0
175
     0
142
0.0208333333333333
142
0.0
142
0.0
142
0.0
142
0.0
142
0.0208333333333333
142
0.0
142
0.0
142
0.0
142
0.0
142
1.0
142
0.0
142
0.0
142
0.0
142
0.0
142
1.0
179
     0
144
0.0208333333333333
144
0.0
144
0.0
144
0.0
144
0.0
144
0.0208333333333333
144
0.0
144
0.0
144
0.0
144
0.0
144
1.0
144
0.0
144
0.0
144
0.0
144
0.0
144
1.0
147
0.0208333333333333
147
0.0
147
0.0
147
0.0
147
0.0
147
0.0208333333333333
147
0.0
147
0.0
147
0.0
147
0.0
147
1.0
147
0.0
147
0.0
147
0.0
147
0.0
147
1.0
  0
MATERIAL
  5
948
102
{ACAD_XDICTIONARY
360
949
102
}
102
{ACAD_REACTORS
330
937
102
}
330
937
100
AcDbMaterial
  1
Global
 72
     0
 43
0.0208333333333333
 43
0.0
 43
0.0
 43
0.0
 43
0.0
 43
0.0208333333333333
 43
0.0
 43
0.0
 43
0.0
 43
0.0
 43
1.0
 43
0.0
 43
0.0
 43
0.0
 43
0.0
 43
1.0
 77
     0
 47
0.0208333333333333
 47
0.0
 47
0.0
 47
0.0
 47
0.0
 47
0.0208333333333333
 47
0.0
 47
0.0
 47
0.0
 47
0.0
 47
1.0
 47
0.0
 47
0.0
 47
0.0
 47
0.0
 47
1.0
171
     0
 49
0.0208333333333333
 49
0.0
 49
0.0
 49
0.0
 49
0.0
 49
0.0208333333333333
 49
0.0
 49
0.0
 49
0.0
 49
0.0
 49
1.0
 49
0.0
 49
0.0
 49
0.0
 49
0.0
 49
1.0
175
     0
142
0.0208333333333333
142
0.0
142
0.0
142
0.0
142
0.0
142
0.0208333333333333
142
0.0
142
0.0
142
0.0
142
0.0
142
1.0
142
0.0
142
0.0
142
0.0
142
0.0
142
1.0
179
     0
144
0.0208333333333333
144
0.0
144
0.0
144
0.0
144
0.0
144
0.0208333333333333
144
0.0
144
0.0
144
0.0
144
0.0
144
1.0
144
0.0
144
0.0
144
0.0
144
0.0
144
1.0
147
0.0208333333333333
147
0.0
147
0.0
147
0.0
147
0.0
147
0.0208333333333333
147
0.0
147
0.0
147
0.0
147
0.0
147
1.0
147
0.0
147
0.0
147
0.0
147
0.0
147
1.0
  0
MLEADERSTYLE
  5
97F
102
{ACAD_REACTORS
330
97E
102
}
330
97E
100
AcDbMLeaderStyle
170
     2
171
     1
172
     0
 90
        2
 40
0.0
 41
0.0
173
     1
 91
-1056964608
340
12
 92
       -2
290
     1
 42
0.09
291
     1
 43
0.36
  3
Standard
 44
0.18
300

342
F
174
     1
178
     6
175
     1
176
     0
 93
-1056964608
 45
0.18
292
     0
297
     0
 46
0.18
 94
-1056964608
 47
1.0
 49
1.0
140
1.0
293
     1
141
0.0
294
     1
177
     0
142
1.0
295
     0
296
     0
143
0.125
1001
ACAD_MLEADERVER
1070
     2
  0
MLINESTYLE
  5
1C
102
{ACAD_REACTORS
330
1B
102
}
330
1B
100
AcDbMlineStyle
  2
STANDARD
 70
     0
  3

 62
   256
 51
90.0
 52
90.0
 71
     2
 49
0.5
 62
   256
  6
BYLAYER
 49
-0.5
 62
   256
  6
BYLAYER
  0
ACDBPLACEHOLDER
  5
936
102
{ACAD_REACTORS
330
935
102
}
330
935
  0
SCALE
  5
96D
102
{ACAD_REACTORS
330
96C
102
}
330
96C
100
AcDbScale
 70
     0
300
1:1
140
1.0
141
1.0
290
     1
  0
SCALE
  5
96E
102
{ACAD_REACTORS
330
96C
102
}
330
96C
100
AcDbScale
 70
     0
300
1/128" = 1'-0"
140
0.0078125
141
12.0
290
     0
  0
SCALE
  5
96F
102
{ACAD_REACTORS
330
96C
102
}
330
96C
100
AcDbScale
 70
     0
300
1/64" = 1'-0"
140
0.015625
141
12.0
290
     0
  0
SCALE
  5
970
102
{ACAD_REACTORS
330
96C
102
}
330
96C
100
AcDbScale
 70
     0
300
1/32" = 1'-0"
140
0.03125
141
12.0
290
     0
  0
SCALE
  5
971
102
{ACAD_REACTORS
330
96C
102
}
330
96C
100
AcDbScale
 70
     0
300
1/16" = 1'-0"
140
0.0625
141
12.0
290
     0
  0
SCALE
  5
972
102
{ACAD_REACTORS
330
96C
102
}
330
96C
100
AcDbScale
 70
     0
300
3/32" = 1'-0"
140
0.09375
141
12.0
290
     0
  0
SCALE
  5
973
102
{ACAD_REACTORS
330
96C
102
}
330
96C
100
AcDbScale
 70
     0
300
1/8" = 1'-0"
140
0.125
141
12.0
290
     0
  0
SCALE
  5
974
102
{ACAD_REACTORS
330
96C
102
}
330
96C
100
AcDbScale
 70
     0
300
3/16" = 1'-0"
140
0.1875
141
12.0
290
     0
  0
SCALE
  5
975
102
{ACAD_REACTORS
330
96C
102
}
330
96C
100
AcDbScale
 70
     0
300
1/4" = 1'-0"
140
0.25
141
12.0
290
     0
  0
SCALE
  5
976
102
{ACAD_REACTORS
330
96C
102
}
330
96C
100
AcDbScale
 70
     0
300
3/8" = 1'-0"
140
0.375
141
12.0
290
     0
  0
SCALE
  5
977
102
{ACAD_REACTORS
330
96C
102
}
330
96C
100
AcDbScale
 70
     0
300
1/2" = 1'-0"
140
0.5
141
12.0
290
     0
  0
SCALE
  5
978
102
{ACAD_REACTORS
330
96C
102
}
330
96C
100
AcDbScale
 70
     0
300
3/4" = 1'-0"
140
0.75
141
12.0
290
     0
  0
SCALE
  5
979
102
{ACAD_REACTORS
330
96C
102
}
330
96C
100
AcDbScale
 70
     0
300
1" = 1'-0"
140
1.0
141
12.0
290
     0
  0
SCALE
  5
97A
102
{ACAD_REACTORS
330
96C
102
}
330
96C
100
AcDbScale
 70
     0
300
1-1/2" = 1'-0"
140
1.5
141
12.0
290
     0
  0
SCALE
  5
97B
102
{ACAD_REACTORS
330
96C
102
}
330
96C
100
AcDbScale
 70
     0
300
3" = 1'-0"
140
3.0
141
12.0
290
     0
  0
SCALE
  5
97C
102
{ACAD_REACTORS
330
96C
102
}
330
96C
100
AcDbScale
 70
     0
300
6" = 1'-0"
140
6.0
141
12.0
290
     0
  0
SCALE
  5
97D
102
{ACAD_REACTORS
330
96C
102
}
330
96C
100
AcDbScale
 70
     0
300
1'-0" = 1'-0"
140
12.0
141
12.0
290
     0
  0
ACDBSECTIONVIEWSTYLE
  5
981
102
{ACAD_XDICTIONARY
360
9DB
102
}
102
{ACAD_REACTORS
330
980
102
}
330
980
100
AcDbModelDocViewStyle
 70
     0
  3
Imperial24
290
     0
100
AcDbSectionViewStyle
 70
     0
 71
     0
 90
       78
 71
     1
340
F
 40
0.24
340
0
340
0
 40
0.24
300
I, O, Q, S, X, Z
 40
0.48
 90
        3
 40
0.18
 90
        1
 71
     2
340
14
 90
       25
340
14
 90
       50
 40
0.24
 40
0.0
 40
0.24
 71
     3
340
F
 40
0.24
 90
        1
 40
0.75
 90
        1
300
%<\AcVar ViewType \f "%tc1">% %<\AcVar ViewSectionStartId>%-%<\AcVar ViewSectionEndId>%\PSCALE %<\AcVar ViewScale \f "%sn">%
 71
     4
300
ANSI31
 40
1.0
 90
        0
290
     0
290
     0
 90
        6
 40
0.0
 40
1.570796326794896
 40
0.2617993877991494
 40
1.308996938995747
 40
-0.2617993877991494
 40
1.832595714594046
  0
TABLESTYLE
  5
96B
102
{ACAD_XDICTIONARY
360
9A2
102
}
102
{ACAD_REACTORS
330
96A
102
}
330
96A
100
AcDbTableStyle
  3
Standard
 70
     0
 71
     0
 40
0.06
 41
0.06
280
     0
281
     0
  7
STANDARD
140
0.18
170
     2
 62
     0
 63
     7
283
     0
274
    -2
284
     1
 64
     0
275
    -2
285
     1
 65
     0
276
    -2
286
     1
 66
     0
277
    -2
287
     1
 67
     0
278
    -2
288
     1
 68
     0
279
    -2
289
     1
 69
     0
  7
STANDARD
140
0.25
170
     5
 62
     0
 63
     7
283
     0
274
    -2
284
     1
 64
     0
275
    -2
285
     1
 65
     0
276
    -2
286
     1
 66
     0
277
    -2
287
     1
 67
     0
278
    -2
288
     1
 68
     0
279
    -2
289
     1
 69
     0
  7
STANDARD
140
0.18
170
     5
 62
     0
 63
     7
283
     0
274
    -2
284
     1
 64
     0
275
    -2
285
     1
 65
     0
276
    -2
286
     1
 66
     0
277
    -2
287
     1
 67
     0
278
    -2
288
     1
 68
     0
279
    -2
289
     1
 69
     0
  0
VISUALSTYLE
  5
956
102
{ACAD_XDICTIONARY
360
9B3
102
}
102
{ACAD_REACTORS
330
950
102
}
330
950
100
AcDbVisualStyle
  2
2dWireframe
 70
     4
 71
     0
 72
     2
 73
     0
 90
        0
 40
-0.6
 41
-30.0
 62
     5
 63
     7
 74
     1
 91
        4
 64
     7
 65
   257
 75
     1
175
     1
 42
1.0
 92
        0
 66
   257
 43
1.0
 76
     1
 77
     6
 78
     2
 67
     7
 79
     5
170
     0
171
     0
290
     0
174
     0
 93
        1
 44
0.0
173
     0
291
     0
 45
0.0
1001
ACAD
1000
AcDbSavedByObjectVersion
1070
     0
  0
VISUALSTYLE
  5
955
102
{ACAD_XDICTIONARY
360
9B1
102
}
102
{ACAD_REACTORS
330
950
102
}
330
950
100
AcDbVisualStyle
  2
Basic
 70
     7
 71
     1
 72
     0
 73
     1
 90
        0
 40
-0.6
 41
-30.0
 62
     5
 63
     7
 74
     0
 91
        4
 64
     7
 65
   257
 75
     1
175
     1
 42
1.0
 92
        8
 66
     7
 43
1.0
 76
     1
 77
     6
 78
     2
 67
     7
 79
     5
170
     0
171
     0
290
     0
174
     0
 93
        1
 44
0.0
173
     0
291
     1
 45
0.0
1001
ACAD
1000
AcDbSavedByObjectVersion
1070
     0
  0
VISUALSTYLE
  5
95C
102
{ACAD_XDICTIONARY
360
9BF
102
}
102
{ACAD_REACTORS
330
950
102
}
330
950
100
AcDbVisualStyle
  2
Brighten
 70
    12
 71
     2
 72
     2
 73
     0
 90
        0
 40
-0.6
 41
-30.0
 62
     5
 63
     7
 74
     1
 91
        4
 64
     7
 65
   257
 75
     1
175
     1
 42
1.0
 92
        8
 66
     7
 43
1.0
 76
     1
 77
     6
 78
     2
 67
     7
 79
     5
170
     0
171
     0
290
     0
174
     0
 93
        1
 44
50.0
173
     0
291
     1
 45
0.0
1001
ACAD
1000
AcDbSavedByObjectVersion
1070
     0
  0
VISUALSTYLE
  5
960
102
{ACAD_XDICTIONARY
360
9C7
102
}
102
{ACAD_REACTORS
330
950
102
}
330
950
100
AcDbVisualStyle
  2
ColorChange
 70
    16
 71
     2
 72
     2
 73
     3
 90
        0
 40
-0.6
 41
-30.0
 62
     5
 63
     8
 74
     1
 91
        4
 64
     7
 65
   257
 75
     1
175
     1
 42
1.0
 92
        8
 66
     8
 43
1.0
 76
     1
 77
     6
 78
     2
 67
     7
 79
     5
170
     0
171
     0
290
     0
174
     0
 93
        1
 44
0.0
173
     0
291
     1
 45
0.0
1001
ACAD
1000
AcDbSavedByObjectVersion
1070
     0
  0
VISUALSTYLE
  5
959
102
{ACAD_XDICTIONARY
360
9B9
102
}
102
{ACAD_REACTORS
330
950
102
}
330
950
100
AcDbVisualStyle
  2
Conceptual
 70
     9
 71
     3
 72
     2
 73
     0
 90
        0
 40
-0.6
 41
-30.0
 62
     5
 63
     7
 74
     2
 91
        2
 64
     7
 65
   257
 75
     1
175
     1
 42
179.0
 92
        8
 66
     7
 43
1.0
 76
     1
 77
     6
 78
     2
 67
     7
 79
     3
170
     0
171
     0
290
     0
174
     0
 93
        1
 44
0.0
173
     0
291
     0
 45
0.0
1001
ACAD
1000
AcDbSavedByObjectVersion
1070
     0
  0
VISUALSTYLE
  5
95B
102
{ACAD_XDICTIONARY
360
9BD
102
}
102
{ACAD_REACTORS
330
950
102
}
330
950
100
AcDbVisualStyle
  2
Dim
 70
    11
 71
     2
 72
     2
 73
     0
 90
        0
 40
-0.6
 41
-30.0
 62
     5
 63
     7
 74
     1
 91
        4
 64
     7
 65
   257
 75
     1
175
     1
 42
1.0
 92
        8
 66
     7
 43
1.0
 76
     1
 77
     6
 78
     2
 67
     7
 79
     5
170
     0
171
     0
290
     0
174
     0
 93
        1
 44
-50.0
173
     0
291
     1
 45
0.0
1001
ACAD
1000
AcDbSavedByObjectVersion
1070
     0
  0
VISUALSTYLE
  5
968
102
{ACAD_XDICTIONARY
360
9D7
102
}
102
{ACAD_REACTORS
330
950
102
}
330
950
100
AcDbVisualStyle
  2
EdgeColorOff
 70
    22
 71
     2
 72
     2
 73
     0
 90
        0
 40
-0.6
 41
-30.0
 62
     5
 63
     7
 74
     1
 91
        4
 64
     7
 65
   257
 75
     1
175
     1
 42
1.0
 92
        8
 66
     7
 43
1.0
 76
     1
 77
     6
 78
     2
 67
     7
 79
     5
170
     0
171
     0
290
     0
174
     0
 93
        1
 44
0.0
173
     0
291
     1
 45
0.0
1001
ACAD
1000
AcDbSavedByObjectVersion
1070
     0
  0
VISUALSTYLE
  5
95F
102
{ACAD_XDICTIONARY
360
9C5
102
}
102
{ACAD_REACTORS
330
950
102
}
330
950
100
AcDbVisualStyle
  2
Facepattern
 70
    15
 71
     2
 72
     2
 73
     0
 90
        0
 40
-0.6
 41
-30.0
 62
     5
 63
     7
 74
     1
 91
        4
 64
     7
 65
   257
 75
     1
175
     1
 42
1.0
 92
        8
 66
     7
 43
1.0
 76
     1
 77
     6
 78
     2
 67
     7
 79
     5
170
     0
171
     0
290
     0
174
     0
 93
        1
 44
0.0
173
     0
291
     1
 45
0.0
1001
ACAD
1000
AcDbSavedByObjectVersion
1070
     0
  0
VISUALSTYLE
  5
951
102
{ACAD_XDICTIONARY
360
9A9
102
}
102
{ACAD_REACTORS
330
950
102
}
330
950
100
AcDbVisualStyle
  2
Flat
 70
     0
 71
     2
 72
     1
 73
     1
 90
        2
 40
-0.6
 41
30.0
 62
     5
 63
     7
 74
     0
 91
        0
 64
     7
 65
   257
 75
     1
175
     1
 42
1.0
 92
        8
 66
     7
 43
1.0
 76
     1
 77
     6
 78
     2
 67
     7
 79
     5
170
     0
171
     0
290
     0
174
     0
 93
       13
 44
0.0
173
     0
291
     1
 45
0.0
1001
ACAD
1000
AcDbSavedByObjectVersion
1070
     0
  0
VISUALSTYLE
  5
952
102
{ACAD_XDICTIONARY
360
9AB
102
}
102
{ACAD_REACTORS
330
950
102
}
330
950
100
AcDbVisualStyle
  2
FlatWithEdges
 70
     1
 71
     2
 72
     1
 73
     1
 90
        2
 40
-0.6
 41
30.0
 62
     5
 63
     7
 74
     1
 91
        0
 64
     7
 65
   257
 75
     1
175
     1
 42
1.0
 92
        0
 66
   257
 43
1.0
 76
     1
 77
     6
 78
     2
 67
     7
 79
     5
170
     0
171
     0
290
     0
174
     0
 93
       13
 44
0.0
173
     0
291
     1
 45
0.0
1001
ACAD
1000
AcDbSavedByObjectVersion
1070
     0
  0
VISUALSTYLE
  5
953
102
{ACAD_XDICTIONARY
360
9AD
102
}
102
{ACAD_REACTORS
330
950
102
}
330
950
100
AcDbVisualStyle
  2
Gouraud
 70
     2
 71
     2
 72
     2
 73
     1
 90
        2
 40
-0.6
 41
30.0
 62
     5
 63
     7
 74
     0
 91
        0
 64
     7
 65
   257
 75
     1
175
     1
 42
1.0
 92
        0
 66
     7
 43
1.0
 76
     1
 77
     6
 78
     2
 67
     7
 79
     5
170
     0
171
     0
290
     0
174
     0
 93
       13
 44
0.0
173
     0
291
     1
 45
0.0
1001
ACAD
1000
AcDbSavedByObjectVersion
1070
     0
  0
VISUALSTYLE
  5
954
102
{ACAD_XDICTIONARY
360
9AF
102
}
102
{ACAD_REACTORS
330
950
102
}
330
950
100
AcDbVisualStyle
  2
GouraudWithEdges
 70
     3
 71
     2
 72
     2
 73
     1
 90
        2
 40
-0.6
 41
30.0
 62
     5
 63
     7
 74
     1
 91
        0
 64
     7
 65
   257
 75
     1
175
     1
 42
1.0
 92
        0
 66
   257
 43
1.0
 76
     1
 77
     6
 78
     2
 67
     7
 79
     5
170
     0
171
     0
290
     0
174
     0
 93
       13
 44
0.0
173
     0
291
     1
 45
0.0
1001
ACAD
1000
AcDbSavedByObjectVersion
1070
     0
  0
VISUALSTYLE
  5
958
102
{ACAD_XDICTIONARY
360
9B7
102
}
102
{ACAD_REACTORS
330
950
102
}
330
950
100
AcDbVisualStyle
  2
Hidden
 70
     6
 71
     1
 72
     2
 73
     2
 90
        0
 40
-0.6
 41
-30.0
 62
     5
 63
     7
 74
     2
 91
        2
 64
     7
 65
   257
 75
     2
175
     1
 42
40.0
 92
        0
 66
   257
 43
1.0
 76
     1
 77
     6
 78
     2
 67
     7
 79
     3
170
     0
171
     0
290
     0
174
     0
 93
        1
 44
0.0
173
     0
291
     0
 45
0.0
1001
ACAD
1000
AcDbSavedByObjectVersion
1070
     0
  0
VISUALSTYLE
  5
966
102
{ACAD_XDICTIONARY
360
9D3
102
}
102
{ACAD_REACTORS
330
950
102
}
330
950
100
AcDbVisualStyle
  2
JitterOff
 70
    20
 71
     2
 72
     2
 73
     0
 90
        0
 40
-0.6
 41
-30.0
 62
     5
 63
     7
 74
     1
 91
        4
 64
     7
 65
   257
 75
     1
175
     1
 42
1.0
 92
       10
 66
     7
 43
1.0
 76
     1
 77
     6
 78
     2
 67
     7
 79
     5
170
     0
171
     0
290
     0
174
     0
 93
        1
 44
0.0
173
     0
291
     1
 45
0.0
1001
ACAD
1000
AcDbSavedByObjectVersion
1070
     0
  0
VISUALSTYLE
  5
95E
102
{ACAD_XDICTIONARY
360
9C3
102
}
102
{ACAD_REACTORS
330
950
102
}
330
950
100
AcDbVisualStyle
  2
Linepattern
 70
    14
 71
     2
 72
     2
 73
     0
 90
        0
 40
-0.6
 41
-30.0
 62
     5
 63
     7
 74
     1
 91
        4
 64
     7
 65
   257
 75
     7
175
     7
 42
1.0
 92
        8
 66
     7
 43
1.0
 76
     1
 77
     6
 78
     2
 67
     7
 79
     5
170
     0
171
     0
290
     0
174
     0
 93
        1
 44
0.0
173
     0
291
     1
 45
0.0
1001
ACAD
1000
AcDbSavedByObjectVersion
1070
     0
  0
VISUALSTYLE
  5
967
102
{ACAD_XDICTIONARY
360
9D5
102
}
102
{ACAD_REACTORS
330
950
102
}
330
950
100
AcDbVisualStyle
  2
OverhangOff
 70
    21
 71
     2
 72
     2
 73
     0
 90
        0
 40
-0.6
 41
-30.0
 62
     5
 63
     7
 74
     1
 91
        4
 64
     7
 65
   257
 75
     1
175
     1
 42
1.0
 92
        9
 66
     7
 43
1.0
 76
     1
 77
     6
 78
     2
 67
     7
 79
     5
170
     0
171
     0
290
     0
174
     0
 93
        1
 44
0.0
173
     0
291
     1
 45
0.0
1001
ACAD
1000
AcDbSavedByObjectVersion
1070
     0
  0
VISUALSTYLE
  5
95A
102
{ACAD_XDICTIONARY
360
9BB
102
}
102
{ACAD_REACTORS
330
950
102
}
330
950
100
AcDbVisualStyle
  2
Realistic
 70
     8
 71
     2
 72
     3
 73
     0
 90
        2
 40
-0.6
 41
30.0
 62
     5
 63
     7
 74
     0
 91
        0
 64
     7
 65
   257
 75
     1
175
     1
 42
1.0
 92
        8
 66
   257
 43
1.0
 76
     1
 77
     6
 78
     2
 67
     7
 79
     3
170
     0
171
     0
290
     0
174
     0
 93
       13
 44
0.0
173
     0
291
     0
 45
0.0
1001
ACAD
1000
AcDbSavedByObjectVersion
1070
     0
  0
VISUALSTYLE
  5
965
102
{ACAD_XDICTIONARY
360
9D1
102
}
102
{ACAD_REACTORS
330
950
102
}
330
950
100
AcDbVisualStyle
  2
Shaded
 70
    27
 71
     2
 72
     2
 73
     1
 90
        2
 40
-0.6
 41
30.0
 62
     5
 63
     7
 74
     0
 91
        4
 64
     7
 65
   257
 75
     1
175
     1
 42
1.0
 92
        8
 66
   257
 43
1.0
 76
     1
 77
     6
 78
     2
 67
     8
 79
     3
170
     0
171
     0
290
     0
174
     0
 93
        5
 44
0.0
173
     0
291
     0
 45
0.0
1001
ACAD
1000
AcDbSavedByObjectVersion
1070
     0
  0
VISUALSTYLE
  5
964
102
{ACAD_XDICTIONARY
360
9CF
102
}
102
{ACAD_REACTORS
330
950
102
}
330
950
100
AcDbVisualStyle
  2
Shaded with edges
 70
    26
 71
     2
 72
     2
 73
     1
 90
        2
 40
-0.6
 41
30.0
 62
     5
 63
     7
 74
     1
 91
       10
 64
     7
 65
   257
 75
     2
175
     1
 42
1.0
 92
        8
 66
   257
 43
1.0
 76
     1
 77
     6
 78
     2
 67
     7
 79
     3
170
     0
171
     0
290
     0
174
     0
 93
        5
 44
0.0
173
     0
291
     0
 45
0.0
1001
ACAD
1000
AcDbSavedByObjectVersion
1070
     0
  0
VISUALSTYLE
  5
961
102
{ACAD_XDICTIONARY
360
9C9
102
}
102
{ACAD_REACTORS
330
950
102
}
330
950
100
AcDbVisualStyle
  2
Shades of Gray
 70
    23
 71
     2
 72
     2
 73
     3
 90
        0
 40
-0.6
 41
-30.0
 62
     5
 63
     7
 74
     2
 91
        2
 64
     7
 65
     7
 75
     1
175
     1
 42
40.0
 92
        8
 66
     7
 43
1.0
 76
     1
 77
     6
 78
     2
 67
     7
 79
     3
170
     0
171
     0
290
     0
174
     0
 93
        1
 44
0.0
173
     0
291
     0
 45
0.0
1001
ACAD
1000
AcDbSavedByObjectVersion
1070
     0
  0
VISUALSTYLE
  5
962
102
{ACAD_XDICTIONARY
360
9CB
102
}
102
{ACAD_REACTORS
330
950
102
}
330
950
100
AcDbVisualStyle
  2
Sketchy
 70
    24
 71
     1
 72
     2
 73
     2
 90
        0
 40
-0.6
 41
-30.0
 62
     5
 63
     7
 74
     2
 91
        2
 64
     7
 65
     7
 75
     1
175
     1
 42
40.0
 92
       11
 66
     7
 43
1.0
 76
     1
 77
     6
 78
     2
 67
     7
 79
     6
170
     0
171
     0
290
     0
174
     0
 93
        1
 44
0.0
173
     0
291
     0
 45
0.0
1001
ACAD
1000
AcDbSavedByObjectVersion
1070
     0
  0
VISUALSTYLE
  5
95D
102
{ACAD_XDICTIONARY
360
9C1
102
}
102
{ACAD_REACTORS
330
950
102
}
330
950
100
AcDbVisualStyle
  2
Thicken
 70
    13
 71
     2
 72
     2
 73
     0
 90
        0
 40
-0.6
 41
-30.0
 62
     5
 63
     7
 74
     1
 91
        4
 64
     7
 65
   257
 75
     1
175
     1
 42
1.0
 92
       12
 66
     7
 43
1.0
 76
     1
 77
     6
 78
     2
 67
     7
 79
     5
170
     0
171
     0
290
     0
174
     0
 93
        1
 44
0.0
173
     0
291
     1
 45
0.0
1001
ACAD
1000
AcDbSavedByObjectVersion
1070
     0
  0
VISUALSTYLE
  5
957
102
{ACAD_XDICTIONARY
360
9B5
102
}
102
{ACAD_REACTORS
330
950
102
}
330
950
100
AcDbVisualStyle
  2
Wireframe
 70
     5
 71
     0
 72
     2
 73
     0
 90
        0
 40
-0.6
 41
-30.0
 62
     5
 63
     7
 74
     1
 91
        4
 64
     7
 65
   257
 75
     1
175
     1
 42
1.0
 92
        0
 66
   257
 43
1.0
 76
     1
 77
     6
 78
     2
 67
     7
 79
     3
170
     0
171
     0
290
     0
174
     0
 93
        1
 44
0.0
173
     0
291
     0
 45
0.0
1001
ACAD
1000
AcDbSavedByObjectVersion
1070
     0
  0
VISUALSTYLE
  5
963
102
{ACAD_XDICTIONARY
360
9CD
102
}
102
{ACAD_REACTORS
330
950
102
}
330
950
100
AcDbVisualStyle
  2
X-Ray
 70
    25
 71
     2
 72
     2
 73
     1
 90
        1
 40
0.5
 41
-30.0
 62
     5
 63
     7
 74
     1
 91
        0
 64
     7
 65
   257
 75
     1
175
     1
 42
1.0
 92
        8
 66
     7
 43
1.0
 76
     1
 77
     6
 78
     2
 67
     7
 79
     3
170
     0
171
     0
290
     0
174
     0
 93
       13
 44
0.0
173
     0
291
     0
 45
0.0
1001
ACAD
1000
AcDbSavedByObjectVersion
1070
     0
  0
DICTIONARYVAR
  5
99C
102
{ACAD_REACTORS
330
997
102
}
330
997
100
DictionaryVariables
280
     0
  1
1:1
  0
DICTIONARYVAR
  5
999
102
{ACAD_REACTORS
330
997
102
}
330
997
100
DictionaryVariables
280
     0
  1
STANDARD
  0
DICTIONARYVAR
  5
998
102
{ACAD_REACTORS
330
997
102
}
330
997
100
DictionaryVariables
280
     0
  1
STANDARD
  0
DICTIONARYVAR
  5
99A
102
{ACAD_REACTORS
330
997
102
}
330
997
100
DictionaryVariables
280
     0
  1
Imperial24
  0
DICTIONARYVAR
  5
99B
102
{ACAD_REACTORS
330
997
102
}
330
997
100
DictionaryVariables
280
     0
  1
Imperial24
  0
DICTIONARYVAR
  5
99F
102
{ACAD_REACTORS
330
997
102
}
330
997
100
DictionaryVariables
280
     0
  1
1
  0
DICTIONARYVAR
  5
99E
102
{ACAD_REACTORS
330
997
102
}
330
997
100
DictionaryVariables
280
     0
  1
0
  0
DICTIONARYVAR
  5
99D
102
{ACAD_REACTORS
330
997
102
}
330
997
100
DictionaryVariables
280
     0
  1
127
  0
DICTIONARYVAR
  5
9A0
102
{ACAD_REACTORS
330
997
102
}
330
997
100
DictionaryVariables
280
     0
  1
2
  0
DICTIONARY
  5
9DD
330
983
100
AcDbDictionary
280
     1
281
     1
  3
ACAD_XREC_ROUNDTRIP
360
9DE
  0
DICTIONARY
  5
9DF
330
984
100
AcDbDictionary
280
     1
281
     1
  3
ACAD_XREC_ROUNDTRIP
360
9E0
  0
DICTIONARY
  5
9E1
330
985
100
AcDbDictionary
280
     1
281
     1
  3
ACAD_XREC_ROUNDTRIP
360
9E2
  0
DICTIONARY
  5
941
330
940
100
AcDbDictionary
280
     1
281
     1
  3
ACAD_XREC_ROUNDTRIP
360
9A7
  3
BUMPTILE
360
943
  3
DIFFUSETILE
360
942
  3
OPACITYTILE
360
946
  3
REFLECTIONTILE
360
945
  3
REFRACTIONTILE
360
947
  3
SPECULARTILE
360
944
  0
DICTIONARY
  5
939
330
938
100
AcDbDictionary
280
     1
281
     1
  3
ACAD_XREC_ROUNDTRIP
360
9A6
  3
BUMPTILE
360
93B
  3
DIFFUSETILE
360
93A
  3
OPACITYTILE
360
93E
  3
REFLECTIONTILE
360
93D
  3
REFRACTIONTILE
360
93F
  3
SPECULARTILE
360
93C
  0
DICTIONARY
  5
949
330
948
100
AcDbDictionary
280
     1
281
     1
  3
ACAD_XREC_ROUNDTRIP
360
9A8
  3
BUMPTILE
360
94B
  3
DIFFUSETILE
360
94A
  3
OPACITYTILE
360
94E
  3
REFLECTIONTILE
360
94D
  3
REFRACTIONTILE
360
94F
  3
SPECULARTILE
360
94C
  0
DICTIONARY
  5
9DB
330
981
100
AcDbDictionary
280
     1
281
     1
  3
ACAD_XREC_ROUNDTRIP
360
9DC
  0
DICTIONARY
  5
9A2
330
96B
100
AcDbDictionary
280
     1
281
     1
  3
ACAD_ROUNDTRIP_2008_TABLESTYLE_CELLSTYLEMAP
360
9A3
  3
ACAD_XREC_ROUNDTRIP
360
9D9
  0
DICTIONARY
  5
9B3
330
956
100
AcDbDictionary
280
     1
281
     1
  3
ACAD_XREC_ROUNDTRIP
360
9B4
  0
DICTIONARY
  5
9B1
330
955
100
AcDbDictionary
280
     1
281
     1
  3
ACAD_XREC_ROUNDTRIP
360
9B2
  0
DICTIONARY
  5
9BF
330
95C
100
AcDbDictionary
280
     1
281
     1
  3
ACAD_XREC_ROUNDTRIP
360
9C0
  0
DICTIONARY
  5
9C7
330
960
100
AcDbDictionary
280
     1
281
     1
  3
ACAD_XREC_ROUNDTRIP
360
9C8
  0
DICTIONARY
  5
9B9
330
959
100
AcDbDictionary
280
     1
281
     1
  3
ACAD_XREC_ROUNDTRIP
360
9BA
  0
DICTIONARY
  5
9BD
330
95B
100
AcDbDictionary
280
     1
281
     1
  3
ACAD_XREC_ROUNDTRIP
360
9BE
  0
DICTIONARY
  5
9D7
330
968
100
AcDbDictionary
280
     1
281
     1
  3
ACAD_XREC_ROUNDTRIP
360
9D8
  0
DICTIONARY
  5
9C5
330
95F
100
AcDbDictionary
280
     1
281
     1
  3
ACAD_XREC_ROUNDTRIP
360
9C6
  0
DICTIONARY
  5
9A9
330
951
100
AcDbDictionary
280
     1
281
     1
  3
ACAD_XREC_ROUNDTRIP
360
9AA
  0
DICTIONARY
  5
9AB
330
952
100
AcDbDictionary
280
     1
281
     1
  3
ACAD_XREC_ROUNDTRIP
360
9AC
  0
DICTIONARY
  5
9AD
330
953
100
AcDbDictionary
280
     1
281
     1
  3
ACAD_XREC_ROUNDTRIP
360
9AE
  0
DICTIONARY
  5
9AF
330
954
100
AcDbDictionary
280
     1
281
     1
  3
ACAD_XREC_ROUNDTRIP
360
9B0
  0
DICTIONARY
  5
9B7
330
958
100
AcDbDictionary
280
     1
281
     1
  3
ACAD_XREC_ROUNDTRIP
360
9B8
  0
DICTIONARY
  5
9D3
330
966
100
AcDbDictionary
280
     1
281
     1
  3
ACAD_XREC_ROUNDTRIP
360
9D4
  0
DICTIONARY
  5
9C3
330
95E
100
AcDbDictionary
280
     1
281
     1
  3
ACAD_XREC_ROUNDTRIP
360
9C4
  0
DICTIONARY
  5
9D5
330
967
100
AcDbDictionary
280
     1
281
     1
  3
ACAD_XREC_ROUNDTRIP
360
9D6
  0
DICTIONARY
  5
9BB
330
95A
100
AcDbDictionary
280
     1
281
     1
  3
ACAD_XREC_ROUNDTRIP
360
9BC
  0
DICTIONARY
  5
9D1
330
965
100
AcDbDictionary
280
     1
281
     1
  3
ACAD_XREC_ROUNDTRIP
360
9D2
  0
DICTIONARY
  5
9CF
330
964
100
AcDbDictionary
280
     1
281
     1
  3
ACAD_XREC_ROUNDTRIP
360
9D0
  0
DICTIONARY
  5
9C9
330
961
100
AcDbDictionary
280
     1
281
     1
  3
ACAD_XREC_ROUNDTRIP
360
9CA
  0
DICTIONARY
  5
9CB
330
962
100
AcDbDictionary
280
     1
281
     1
  3
ACAD_XREC_ROUNDTRIP
360
9CC
  0
DICTIONARY
  5
9C1
330
95D
100
AcDbDictionary
280
     1
281
     1
  3
ACAD_XREC_ROUNDTRIP
360
9C2
  0
DICTIONARY
  5
9B5
330
957
100
AcDbDictionary
280
     1
281
     1
  3
ACAD_XREC_ROUNDTRIP
360
9B6
  0
DICTIONARY
  5
9CD
330
963
100
AcDbDictionary
280
     1
281
     1
  3
ACAD_XREC_ROUNDTRIP
360
9CE
  0
XRECORD
  5
9DE
102
{ACAD_REACTORS
330
9DD
102
}
330
9DD
100
AcDbXrecord
280
     1
102
DISPLAYNAME
  1
Imperial24
102
FLAGS
 90
        0
  0
XRECORD
  5
9E0
102
{ACAD_REACTORS
330
9DF
102
}
330
9DF
100
AcDbXrecord
280
     1
102
SHADEPLOT
 70
     0
102
SHADEPLOTRESLEVEL
 70
     2
102
SHADEPLOTCUSTOMDPI
 70
   300
  0
XRECORD
  5
9E2
102
{ACAD_REACTORS
330
9E1
102
}
330
9E1
100
AcDbXrecord
280
     1
102
SHADEPLOT
 70
     0
102
SHADEPLOTRESLEVEL
 70
     2
102
SHADEPLOTCUSTOMDPI
 70
   300
  0
XRECORD
  5
9A7
102
{ACAD_REACTORS
330
941
102
}
330
941
100
AcDbXrecord
280
     1
102
MATERIAL
148
0.0
149
0.0
149
0.0
 93
        0
 94
      127
282
     0
 72
     0
 77
     0
171
     0
175
     0
179
     0
273
     0
  0
XRECORD
  5
943
102
{ACAD_REACTORS
330
941
102
}
330
941
100
AcDbXrecord
280
     1
270
     1
271
     1
  0
XRECORD
  5
942
102
{ACAD_REACTORS
330
941
102
}
330
941
100
AcDbXrecord
280
     1
270
     1
271
     1
  0
XRECORD
  5
946
102
{ACAD_REACTORS
330
941
102
}
330
941
100
AcDbXrecord
280
     1
270
     1
271
     1
  0
XRECORD
  5
945
102
{ACAD_REACTORS
330
941
102
}
330
941
100
AcDbXrecord
280
     1
270
     1
271
     1
  0
XRECORD
  5
947
102
{ACAD_REACTORS
330
941
102
}
330
941
100
AcDbXrecord
280
     1
270
     1
271
     1
  0
XRECORD
  5
944
102
{ACAD_REACTORS
330
941
102
}
330
941
100
AcDbXrecord
280
     1
270
     1
271
     1
  0
XRECORD
  5
9A6
102
{ACAD_REACTORS
330
939
102
}
330
939
100
AcDbXrecord
280
     1
102
MATERIAL
148
0.0
149
0.0
149
0.0
 93
        0
 94
      127
282
     0
 72
     0
 77
     0
171
     0
175
     0
179
     0
273
     0
  0
XRECORD
  5
93B
102
{ACAD_REACTORS
330
939
102
}
330
939
100
AcDbXrecord
280
     1
270
     1
271
     1
  0
XRECORD
  5
93A
102
{ACAD_REACTORS
330
939
102
}
330
939
100
AcDbXrecord
280
     1
270
     1
271
     1
  0
XRECORD
  5
93E
102
{ACAD_REACTORS
330
939
102
}
330
939
100
AcDbXrecord
280
     1
270
     1
271
     1
  0
XRECORD
  5
93D
102
{ACAD_REACTORS
330
939
102
}
330
939
100
AcDbXrecord
280
     1
270
     1
271
     1
  0
XRECORD
  5
93F
102
{ACAD_REACTORS
330
939
102
}
330
939
100
AcDbXrecord
280
     1
270
     1
271
     1
  0
XRECORD
  5
93C
102
{ACAD_REACTORS
330
939
102
}
330
939
100
AcDbXrecord
280
     1
270
     1
271
     1
  0
XRECORD
  5
9A8
102
{ACAD_REACTORS
330
949
102
}
330
949
100
AcDbXrecord
280
     1
102
MATERIAL
148
0.0
149
0.0
149
0.0
 93
        0
 94
      127
282
     0
 72
     0
 77
     0
171
     0
175
     0
179
     0
273
     0
  0
XRECORD
  5
94B
102
{ACAD_REACTORS
330
949
102
}
330
949
100
AcDbXrecord
280
     1
270
     1
271
     1
  0
XRECORD
  5
94A
102
{ACAD_REACTORS
330
949
102
}
330
949
100
AcDbXrecord
280
     1
270
     1
271
     1
  0
XRECORD
  5
94E
102
{ACAD_REACTORS
330
949
102
}
330
949
100
AcDbXrecord
280
     1
270
     1
271
     1
  0
XRECORD
  5
94D
102
{ACAD_REACTORS
330
949
102
}
330
949
100
AcDbXrecord
280
     1
270
     1
271
     1
  0
XRECORD
  5
94F
102
{ACAD_REACTORS
330
949
102
}
330
949
100
AcDbXrecord
280
     1
270
     1
271
     1
  0
XRECORD
  5
94C
102
{ACAD_REACTORS
330
949
102
}
330
949
100
AcDbXrecord
280
     1
270
     1
271
     1
  0
XRECORD
  5
9DC
102
{ACAD_REACTORS
330
9DB
102
}
330
9DB
100
AcDbXrecord
280
     1
102
DISPLAYNAME
  1
Imperial24
102
FLAGS
 90
        0
  0
CELLSTYLEMAP
  5
9A3
102
{ACAD_REACTORS
330
9A2
102
}
330
9A2
100
AcDbCellStyleMap
 90
        3
300
CELLSTYLE
  1
TABLEFORMAT_BEGIN
 90
        5
170
     1
 91
        0
 92
    32768
 62
   257
 93
        1
300
CONTENTFORMAT
  1
CONTENTFORMAT_BEGIN
 90
        0
 91
        0
 92
      512
 93
        0
300

 40
0.0
140
1.0
 94
        5
 62
     0
340
F
144
0.25
309
CONTENTFORMAT_END
171
     0
 94
        0
309
TABLEFORMAT_END
  1
CELLSTYLE_BEGIN
 90
        1
 91
        1
300
_TITLE
309
CELLSTYLE_END
300
CELLSTYLE
  1
TABLEFORMAT_BEGIN
 90
        5
170
     1
 91
        0
 92
        0
 62
   257
 93
        1
300
CONTENTFORMAT
  1
CONTENTFORMAT_BEGIN
 90
        0
 91
        0
 92
      512
 93
        0
300

 40
0.0
140
1.0
 94
        5
 62
     0
340
F
144
0.18
309
CONTENTFORMAT_END
171
     0
 94
        0
309
TABLEFORMAT_END
  1
CELLSTYLE_BEGIN
 90
        2
 91
        1
300
_HEADER
309
CELLSTYLE_END
300
CELLSTYLE
  1
TABLEFORMAT_BEGIN
 90
        5
170
     1
 91
        0
 92
        0
 62
   257
 93
        1
300
CONTENTFORMAT
  1
CONTENTFORMAT_BEGIN
 90
        0
 91
        0
 92
      512
 93
        0
300

 40
0.0
140
1.0
 94
        2
 62
     0
340
F
144
0.18
309
CONTENTFORMAT_END
171
     0
 94
        0
309
TABLEFORMAT_END
  1
CELLSTYLE_BEGIN
 90
        3
 91
        2
300
_DATA
309
CELLSTYLE_END
  0
XRECORD
  5
9D9
102
{ACAD_REACTORS
330
9A2
102
}
330
9A2
100
AcDbXrecord
280
     1
102
ACAD_ROUNDTRIP_PRE2007_TABLESTYLE
 90
      512
 91
        0
  1

 92
      512
 93
        0
  2

 94
      512
 95
        0
  3

  0
XRECORD
  5
9B4
102
{ACAD_REACTORS
330
9B3
102
}
330
9B3
100
AcDbXrecord
280
     1
102
RTVSPost2010Prop28
280
     1
102
RTVSPost2010PropOp28
 70
     1
102
RTVSPost2010Prop29
280
     1
102
RTVSPost2010PropOp29
 70
     1
102
RTVSPost2010Prop30
280
     0
102
RTVSPost2010PropOp30
 70
     1
102
RTVSPost2010Prop31
280
     0
102
RTVSPost2010PropOp31
 70
     1
102
RTVSPost2010Prop32
280
     0
102
RTVSPost2010PropOp32
 70
     1
102
RTVSPost2010Prop33
280
     0
102
RTVSPost2010PropOp33
 70
     1
102
RTVSPost2010Prop34
280
     0
102
RTVSPost2010PropOp34
 70
     1
102
RTVSPost2010Prop35
280
     0
102
RTVSPost2010PropOp35
 70
     1
102
RTVSPost2010Prop36
280
     0
102
RTVSPost2010PropOp36
 70
     1
102
RTVSPost2010Prop37
 90
       50
102
RTVSPost2010PropOp37
 70
     1
102
RTVSPost2010Prop38
140
0.0
102
RTVSPost2010PropOp38
 70
     1
102
RTVSPost2010Prop39
140
1.0
102
RTVSPost2010PropOp39
 70
     1
102
RTVSPost2010Prop40
 90
        0
102
RTVSPost2010PropOp40
 70
     1
102
RTVSPost2010Prop41ColorIndex
 90
       18
102
RTVSPost2010Prop41ColorRGB
 90
        0
102
RTVSPost2010PropOp41
 70
     1
102
RTVSPost2010Prop42
 90
       50
102
RTVSPost2010PropOp42
 70
     1
102
RTVSPost2010Prop43
 90
        3
102
RTVSPost2010PropOp43
 70
     1
102
RTVSPost2010Prop44ColorIndex
 90
        5
102
RTVSPost2010Prop44ColorRGB
 90
      255
102
RTVSPost2010PropOp44
 70
     1
102
RTVSPost2010Prop45
280
     0
102
RTVSPost2010PropOp45
 70
     1
102
RTVSPost2010Prop46
 90
       50
102
RTVSPost2010PropOp46
 70
     1
102
RTVSPost2010Prop47
 90
       50
102
RTVSPost2010PropOp47
 70
     1
102
RTVSPost2010Prop48
 90
       50
102
RTVSPost2010PropOp48
 70
     1
102
RTVSPost2010Prop49
280
     0
102
RTVSPost2010PropOp49
 70
     1
102
RTVSPost2010Prop50
 90
       50
102
RTVSPost2010PropOp50
 70
     1
102
RTVSPost2010Prop51ColorIndex
 90
      256
102
RTVSPost2010Prop51ColorRGB
 90
-16777216
102
RTVSPost2010PropOp51
 70
     0
102
RTVSPost2010Prop52
140
1.0
102
RTVSPost2010PropOp52
 70
     0
102
RTVSPost2010Prop53
 90
        2
102
RTVSPost2010PropOp53
 70
     1
102
RTVSPost2010Prop54
  1
strokes_ogs.tif
102
RTVSPost2010PropOp54
 70
     1
102
RTVSPost2010Prop55
280
     0
102
RTVSPost2010PropOp55
 70
     1
102
RTVSPost2010Prop56
140
1.0
102
RTVSPost2010PropOp56
 70
     1
102
RTVSPost2010Prop57
140
1.0
102
RTVSPost2010PropOp57
 70
     1
102
RTVSPropertyOp0
 70
     1
102
RTVSPropertyOp1
 70
     1
102
RTVSPropertyOp2
 70
     1
102
RTVSPropertyOp3
 70
     1
102
RTVSPropertyOp4
 70
     1
102
RTVSPropertyOp5
 70
     1
102
RTVSPropertyOp6
 70
     1
102
RTVSPropertyOp7
 70
     1
102
RTVSPropertyOp8
 70
     1
102
RTVSPropertyOp9
 70
     1
102
RTVSPropertyOp10
 70
     1
102
RTVSPropertyOp11
 70
     1
102
RTVSPropertyOp12
 70
     1
102
RTVSPropertyOp13
 70
     1
102
RTVSPropertyOp14
 70
     1
102
RTVSPropertyOp15
 70
     1
102
RTVSPropertyOp16
 70
     1
102
RTVSPropertyOp17
 70
     1
102
RTVSPropertyOp18
 70
     1
102
RTVSPropertyOp19
 70
     1
102
RTVSPropertyOp20
 70
     1
102
RTVSPropertyOp21
 70
     1
102
RTVSPropertyOp22
 70
     1
102
RTVSPropertyOp23
 70
     1
102
RTVSPropertyOp24
 70
     1
102
RTVSPropertyOp25
 70
     1
102
RTVSPropertyOp26
 70
     1
102
RTVSPropertyOp27
 70
     1
102
RTVSPropertyOp28
 70
     1
102
RTVSPropertyOp29
 70
     1
102
RTVSPropertyOp30
 70
     1
102
RTVSPropertyOp31
 70
     1
102
RTVSPropertyOp32
 70
     1
102
RTVSPropertyOp33
 70
     1
102
RTVSPropertyOp34
 70
     1
102
RTVSPropertyOp35
 70
     1
102
RTVSPropertyOp36
 70
     1
102
RTVSPropertyOp37
 70
     1
102
RTVSPropertyOp38
 70
     1
102
RTVSPropertyOp39
 70
     1
102
RTVSPropertyOp40
 70
     1
102
RTVSPropertyOp41
 70
     1
102
RTVSPropertyOp42
 70
     1
102
RTVSPropertyOp43
 70
     1
102
RTVSPropertyOp44
 70
     1
102
RTVSPropertyOp45
 70
     1
102
RTVSPropertyOp46
 70
     1
102
RTVSPropertyOp47
 70
     1
102
RTVSPropertyOp48
 70
     1
102
RTVSPropertyOp49
 70
     1
102
RTVSPropertyOp50
 70
     1
102
RTVSPropertyOp51
 70
     0
102
RTVSPropertyOp52
 70
     0
102
RTVSPropertyOp53
 70
     1
102
RTVSPropertyOp54
 70
     1
102
RTVSPropertyOp55
 70
     1
102
RTVSPropertyOp56
 70
     1
102
RTVSPropertyOp57
 70
     1
102
RTVSPropertyOp58
 70
     1
102
RTVSPropertyOp59
 70
     1
102
RTVSPropertyOp60
 70
     1
102
RTVSPropertyOp61
 70
     1
102
RTVSPropertyOp62
 70
     1
  0
XRECORD
  5
9B2
102
{ACAD_REACTORS
330
9B1
102
}
330
9B1
100
AcDbXrecord
280
     1
102
RTVSPost2010Prop28
280
     0
102
RTVSPost2010PropOp28
 70
     1
102
RTVSPost2010Prop29
280
     1
102
RTVSPost2010PropOp29
 70
     1
102
RTVSPost2010Prop30
280
     1
102
RTVSPost2010PropOp30
 70
     1
102
RTVSPost2010Prop31
280
     0
102
RTVSPost2010PropOp31
 70
     1
102
RTVSPost2010Prop32
280
     0
102
RTVSPost2010PropOp32
 70
     1
102
RTVSPost2010Prop33
280
     0
102
RTVSPost2010PropOp33
 70
     1
102
RTVSPost2010Prop34
280
     0
102
RTVSPost2010PropOp34
 70
     1
102
RTVSPost2010Prop35
280
     0
102
RTVSPost2010PropOp35
 70
     1
102
RTVSPost2010Prop36
280
     0
102
RTVSPost2010PropOp36
 70
     1
102
RTVSPost2010Prop37
 90
       50
102
RTVSPost2010PropOp37
 70
     1
102
RTVSPost2010Prop38
140
0.0
102
RTVSPost2010PropOp38
 70
     1
102
RTVSPost2010Prop39
140
1.0
102
RTVSPost2010PropOp39
 70
     1
102
RTVSPost2010Prop40
 90
        0
102
RTVSPost2010PropOp40
 70
     1
102
RTVSPost2010Prop41ColorIndex
 90
       18
102
RTVSPost2010Prop41ColorRGB
 90
        0
102
RTVSPost2010PropOp41
 70
     1
102
RTVSPost2010Prop42
 90
       50
102
RTVSPost2010PropOp42
 70
     1
102
RTVSPost2010Prop43
 90
        3
102
RTVSPost2010PropOp43
 70
     1
102
RTVSPost2010Prop44ColorIndex
 90
        5
102
RTVSPost2010Prop44ColorRGB
 90
      255
102
RTVSPost2010PropOp44
 70
     1
102
RTVSPost2010Prop45
280
     0
102
RTVSPost2010PropOp45
 70
     1
102
RTVSPost2010Prop46
 90
       50
102
RTVSPost2010PropOp46
 70
     1
102
RTVSPost2010Prop47
 90
       50
102
RTVSPost2010PropOp47
 70
     1
102
RTVSPost2010Prop48
 90
       50
102
RTVSPost2010PropOp48
 70
     1
102
RTVSPost2010Prop49
280
     0
102
RTVSPost2010PropOp49
 70
     1
102
RTVSPost2010Prop50
 90
       50
102
RTVSPost2010PropOp50
 70
     1
102
RTVSPost2010Prop51ColorIndex
 90
      256
102
RTVSPost2010Prop51ColorRGB
 90
-16777216
102
RTVSPost2010PropOp51
 70
     0
102
RTVSPost2010Prop52
140
1.0
102
RTVSPost2010PropOp52
 70
     0
102
RTVSPost2010Prop53
 90
        2
102
RTVSPost2010PropOp53
 70
     1
102
RTVSPost2010Prop54
  1
strokes_ogs.tif
102
RTVSPost2010PropOp54
 70
     1
102
RTVSPost2010Prop55
280
     0
102
RTVSPost2010PropOp55
 70
     1
102
RTVSPost2010Prop56
140
1.0
102
RTVSPost2010PropOp56
 70
     1
102
RTVSPost2010Prop57
140
1.0
102
RTVSPost2010PropOp57
 70
     1
102
RTVSPropertyOp0
 70
     1
102
RTVSPropertyOp1
 70
     1
102
RTVSPropertyOp2
 70
     1
102
RTVSPropertyOp3
 70
     1
102
RTVSPropertyOp4
 70
     1
102
RTVSPropertyOp5
 70
     1
102
RTVSPropertyOp6
 70
     1
102
RTVSPropertyOp7
 70
     1
102
RTVSPropertyOp8
 70
     1
102
RTVSPropertyOp9
 70
     1
102
RTVSPropertyOp10
 70
     1
102
RTVSPropertyOp11
 70
     1
102
RTVSPropertyOp12
 70
     1
102
RTVSPropertyOp13
 70
     1
102
RTVSPropertyOp14
 70
     1
102
RTVSPropertyOp15
 70
     1
102
RTVSPropertyOp16
 70
     1
102
RTVSPropertyOp17
 70
     1
102
RTVSPropertyOp18
 70
     1
102
RTVSPropertyOp19
 70
     1
102
RTVSPropertyOp20
 70
     1
102
RTVSPropertyOp21
 70
     1
102
RTVSPropertyOp22
 70
     1
102
RTVSPropertyOp23
 70
     1
102
RTVSPropertyOp24
 70
     1
102
RTVSPropertyOp25
 70
     1
102
RTVSPropertyOp26
 70
     1
102
RTVSPropertyOp27
 70
     1
102
RTVSPropertyOp28
 70
     1
102
RTVSPropertyOp29
 70
     1
102
RTVSPropertyOp30
 70
     1
102
RTVSPropertyOp31
 70
     1
102
RTVSPropertyOp32
 70
     1
102
RTVSPropertyOp33
 70
     1
102
RTVSPropertyOp34
 70
     1
102
RTVSPropertyOp35
 70
     1
102
RTVSPropertyOp36
 70
     1
102
RTVSPropertyOp37
 70
     1
102
RTVSPropertyOp38
 70
     1
102
RTVSPropertyOp39
 70
     1
102
RTVSPropertyOp40
 70
     1
102
RTVSPropertyOp41
 70
     1
102
RTVSPropertyOp42
 70
     1
102
RTVSPropertyOp43
 70
     1
102
RTVSPropertyOp44
 70
     1
102
RTVSPropertyOp45
 70
     1
102
RTVSPropertyOp46
 70
     1
102
RTVSPropertyOp47
 70
     1
102
RTVSPropertyOp48
 70
     1
102
RTVSPropertyOp49
 70
     1
102
RTVSPropertyOp50
 70
     1
102
RTVSPropertyOp51
 70
     0
102
RTVSPropertyOp52
 70
     0
102
RTVSPropertyOp53
 70
     1
102
RTVSPropertyOp54
 70
     1
102
RTVSPropertyOp55
 70
     1
102
RTVSPropertyOp56
 70
     1
102
RTVSPropertyOp57
 70
     1
102
RTVSPropertyOp58
 70
     1
102
RTVSPropertyOp59
 70
     1
102
RTVSPropertyOp60
 70
     1
102
RTVSPropertyOp61
 70
     1
102
RTVSPropertyOp62
 70
     1
  0
XRECORD
  5
9C0
102
{ACAD_REACTORS
330
9BF
102
}
330
9BF
100
AcDbXrecord
280
     1
102
RTVSPost2010Prop28
280
     0
102
RTVSPost2010PropOp28
 70
     1
102
RTVSPost2010Prop29
280
     1
102
RTVSPost2010PropOp29
 70
     1
102
RTVSPost2010Prop30
280
     1
102
RTVSPost2010PropOp30
 70
     1
102
RTVSPost2010Prop31
280
     0
102
RTVSPost2010PropOp31
 70
     1
102
RTVSPost2010Prop32
280
     0
102
RTVSPost2010PropOp32
 70
     1
102
RTVSPost2010Prop33
280
     0
102
RTVSPost2010PropOp33
 70
     1
102
RTVSPost2010Prop34
280
     0
102
RTVSPost2010PropOp34
 70
     1
102
RTVSPost2010Prop35
280
     0
102
RTVSPost2010PropOp35
 70
     1
102
RTVSPost2010Prop36
280
     0
102
RTVSPost2010PropOp36
 70
     1
102
RTVSPost2010Prop37
 90
       50
102
RTVSPost2010PropOp37
 70
     1
102
RTVSPost2010Prop38
140
0.0
102
RTVSPost2010PropOp38
 70
     1
102
RTVSPost2010Prop39
140
1.0
102
RTVSPost2010PropOp39
 70
     1
102
RTVSPost2010Prop40
 90
        0
102
RTVSPost2010PropOp40
 70
     1
102
RTVSPost2010Prop41ColorIndex
 90
       18
102
RTVSPost2010Prop41ColorRGB
 90
        0
102
RTVSPost2010PropOp41
 70
     1
102
RTVSPost2010Prop42
 90
       50
102
RTVSPost2010PropOp42
 70
     1
102
RTVSPost2010Prop43
 90
        3
102
RTVSPost2010PropOp43
 70
     1
102
RTVSPost2010Prop44ColorIndex
 90
        5
102
RTVSPost2010Prop44ColorRGB
 90
      255
102
RTVSPost2010PropOp44
 70
     1
102
RTVSPost2010Prop45
280
     0
102
RTVSPost2010PropOp45
 70
     1
102
RTVSPost2010Prop46
 90
       50
102
RTVSPost2010PropOp46
 70
     1
102
RTVSPost2010Prop47
 90
       50
102
RTVSPost2010PropOp47
 70
     1
102
RTVSPost2010Prop48
 90
       50
102
RTVSPost2010PropOp48
 70
     1
102
RTVSPost2010Prop49
280
     0
102
RTVSPost2010PropOp49
 70
     1
102
RTVSPost2010Prop50
 90
       50
102
RTVSPost2010PropOp50
 70
     1
102
RTVSPost2010Prop51ColorIndex
 90
      256
102
RTVSPost2010Prop51ColorRGB
 90
-16777216
102
RTVSPost2010PropOp51
 70
     0
102
RTVSPost2010Prop52
140
1.0
102
RTVSPost2010PropOp52
 70
     0
102
RTVSPost2010Prop53
 90
        2
102
RTVSPost2010PropOp53
 70
     1
102
RTVSPost2010Prop54
  1
strokes_ogs.tif
102
RTVSPost2010PropOp54
 70
     1
102
RTVSPost2010Prop55
280
     0
102
RTVSPost2010PropOp55
 70
     1
102
RTVSPost2010Prop56
140
1.0
102
RTVSPost2010PropOp56
 70
     1
102
RTVSPost2010Prop57
140
1.0
102
RTVSPost2010PropOp57
 70
     1
102
RTVSPropertyOp0
 70
     1
102
RTVSPropertyOp1
 70
     1
102
RTVSPropertyOp2
 70
     1
102
RTVSPropertyOp3
 70
     1
102
RTVSPropertyOp4
 70
     1
102
RTVSPropertyOp5
 70
     1
102
RTVSPropertyOp6
 70
     1
102
RTVSPropertyOp7
 70
     1
102
RTVSPropertyOp8
 70
     1
102
RTVSPropertyOp9
 70
     1
102
RTVSPropertyOp10
 70
     1
102
RTVSPropertyOp11
 70
     1
102
RTVSPropertyOp12
 70
     1
102
RTVSPropertyOp13
 70
     1
102
RTVSPropertyOp14
 70
     1
102
RTVSPropertyOp15
 70
     1
102
RTVSPropertyOp16
 70
     1
102
RTVSPropertyOp17
 70
     1
102
RTVSPropertyOp18
 70
     1
102
RTVSPropertyOp19
 70
     1
102
RTVSPropertyOp20
 70
     1
102
RTVSPropertyOp21
 70
     1
102
RTVSPropertyOp22
 70
     1
102
RTVSPropertyOp23
 70
     1
102
RTVSPropertyOp24
 70
     1
102
RTVSPropertyOp25
 70
     1
102
RTVSPropertyOp26
 70
     1
102
RTVSPropertyOp27
 70
     1
102
RTVSPropertyOp28
 70
     1
102
RTVSPropertyOp29
 70
     1
102
RTVSPropertyOp30
 70
     1
102
RTVSPropertyOp31
 70
     1
102
RTVSPropertyOp32
 70
     1
102
RTVSPropertyOp33
 70
     1
102
RTVSPropertyOp34
 70
     1
102
RTVSPropertyOp35
 70
     1
102
RTVSPropertyOp36
 70
     1
102
RTVSPropertyOp37
 70
     1
102
RTVSPropertyOp38
 70
     1
102
RTVSPropertyOp39
 70
     1
102
RTVSPropertyOp40
 70
     1
102
RTVSPropertyOp41
 70
     1
102
RTVSPropertyOp42
 70
     1
102
RTVSPropertyOp43
 70
     1
102
RTVSPropertyOp44
 70
     1
102
RTVSPropertyOp45
 70
     1
102
RTVSPropertyOp46
 70
     1
102
RTVSPropertyOp47
 70
     1
102
RTVSPropertyOp48
 70
     1
102
RTVSPropertyOp49
 70
     1
102
RTVSPropertyOp50
 70
     1
102
RTVSPropertyOp51
 70
     0
102
RTVSPropertyOp52
 70
     0
102
RTVSPropertyOp53
 70
     1
102
RTVSPropertyOp54
 70
     1
102
RTVSPropertyOp55
 70
     1
102
RTVSPropertyOp56
 70
     1
102
RTVSPropertyOp57
 70
     1
102
RTVSPropertyOp58
 70
     1
102
RTVSPropertyOp59
 70
     1
102
RTVSPropertyOp60
 70
     1
102
RTVSPropertyOp61
 70
     1
102
RTVSPropertyOp62
 70
     1
  0
XRECORD
  5
9C8
102
{ACAD_REACTORS
330
9C7
102
}
330
9C7
100
AcDbXrecord
280
     1
102
RTVSPost2010Prop28
280
     0
102
RTVSPost2010PropOp28
 70
     1
102
RTVSPost2010Prop29
280
     1
102
RTVSPost2010PropOp29
 70
     1
102
RTVSPost2010Prop30
280
     1
102
RTVSPost2010PropOp30
 70
     1
102
RTVSPost2010Prop31
280
     0
102
RTVSPost2010PropOp31
 70
     1
102
RTVSPost2010Prop32
280
     0
102
RTVSPost2010PropOp32
 70
     1
102
RTVSPost2010Prop33
280
     0
102
RTVSPost2010PropOp33
 70
     1
102
RTVSPost2010Prop34
280
     0
102
RTVSPost2010PropOp34
 70
     1
102
RTVSPost2010Prop35
280
     0
102
RTVSPost2010PropOp35
 70
     1
102
RTVSPost2010Prop36
280
     0
102
RTVSPost2010PropOp36
 70
     1
102
RTVSPost2010Prop37
 90
       50
102
RTVSPost2010PropOp37
 70
     1
102
RTVSPost2010Prop38
140
0.0
102
RTVSPost2010PropOp38
 70
     1
102
RTVSPost2010Prop39
140
1.0
102
RTVSPost2010PropOp39
 70
     1
102
RTVSPost2010Prop40
 90
        0
102
RTVSPost2010PropOp40
 70
     1
102
RTVSPost2010Prop41ColorIndex
 90
       18
102
RTVSPost2010Prop41ColorRGB
 90
        0
102
RTVSPost2010PropOp41
 70
     1
102
RTVSPost2010Prop42
 90
       50
102
RTVSPost2010PropOp42
 70
     1
102
RTVSPost2010Prop43
 90
        3
102
RTVSPost2010PropOp43
 70
     1
102
RTVSPost2010Prop44ColorIndex
 90
        5
102
RTVSPost2010Prop44ColorRGB
 90
      255
102
RTVSPost2010PropOp44
 70
     1
102
RTVSPost2010Prop45
280
     0
102
RTVSPost2010PropOp45
 70
     1
102
RTVSPost2010Prop46
 90
       50
102
RTVSPost2010PropOp46
 70
     1
102
RTVSPost2010Prop47
 90
       50
102
RTVSPost2010PropOp47
 70
     1
102
RTVSPost2010Prop48
 90
       50
102
RTVSPost2010PropOp48
 70
     1
102
RTVSPost2010Prop49
280
     0
102
RTVSPost2010PropOp49
 70
     1
102
RTVSPost2010Prop50
 90
       50
102
RTVSPost2010PropOp50
 70
     1
102
RTVSPost2010Prop51ColorIndex
 90
      256
102
RTVSPost2010Prop51ColorRGB
 90
-16777216
102
RTVSPost2010PropOp51
 70
     0
102
RTVSPost2010Prop52
140
1.0
102
RTVSPost2010PropOp52
 70
     0
102
RTVSPost2010Prop53
 90
        2
102
RTVSPost2010PropOp53
 70
     1
102
RTVSPost2010Prop54
  1
strokes_ogs.tif
102
RTVSPost2010PropOp54
 70
     1
102
RTVSPost2010Prop55
280
     0
102
RTVSPost2010PropOp55
 70
     1
102
RTVSPost2010Prop56
140
1.0
102
RTVSPost2010PropOp56
 70
     1
102
RTVSPost2010Prop57
140
1.0
102
RTVSPost2010PropOp57
 70
     1
102
RTVSPropertyOp0
 70
     1
102
RTVSPropertyOp1
 70
     1
102
RTVSPropertyOp2
 70
     1
102
RTVSPropertyOp3
 70
     1
102
RTVSPropertyOp4
 70
     1
102
RTVSPropertyOp5
 70
     1
102
RTVSPropertyOp6
 70
     1
102
RTVSPropertyOp7
 70
     1
102
RTVSPropertyOp8
 70
     1
102
RTVSPropertyOp9
 70
     1
102
RTVSPropertyOp10
 70
     1
102
RTVSPropertyOp11
 70
     1
102
RTVSPropertyOp12
 70
     1
102
RTVSPropertyOp13
 70
     1
102
RTVSPropertyOp14
 70
     1
102
RTVSPropertyOp15
 70
     1
102
RTVSPropertyOp16
 70
     1
102
RTVSPropertyOp17
 70
     1
102
RTVSPropertyOp18
 70
     1
102
RTVSPropertyOp19
 70
     1
102
RTVSPropertyOp20
 70
     1
102
RTVSPropertyOp21
 70
     1
102
RTVSPropertyOp22
 70
     1
102
RTVSPropertyOp23
 70
     1
102
RTVSPropertyOp24
 70
     1
102
RTVSPropertyOp25
 70
     1
102
RTVSPropertyOp26
 70
     1
102
RTVSPropertyOp27
 70
     1
102
RTVSPropertyOp28
 70
     1
102
RTVSPropertyOp29
 70
     1
102
RTVSPropertyOp30
 70
     1
102
RTVSPropertyOp31
 70
     1
102
RTVSPropertyOp32
 70
     1
102
RTVSPropertyOp33
 70
     1
102
RTVSPropertyOp34
 70
     1
102
RTVSPropertyOp35
 70
     1
102
RTVSPropertyOp36
 70
     1
102
RTVSPropertyOp37
 70
     1
102
RTVSPropertyOp38
 70
     1
102
RTVSPropertyOp39
 70
     1
102
RTVSPropertyOp40
 70
     1
102
RTVSPropertyOp41
 70
     1
102
RTVSPropertyOp42
 70
     1
102
RTVSPropertyOp43
 70
     1
102
RTVSPropertyOp44
 70
     1
102
RTVSPropertyOp45
 70
     1
102
RTVSPropertyOp46
 70
     1
102
RTVSPropertyOp47
 70
     1
102
RTVSPropertyOp48
 70
     1
102
RTVSPropertyOp49
 70
     1
102
RTVSPropertyOp50
 70
     1
102
RTVSPropertyOp51
 70
     0
102
RTVSPropertyOp52
 70
     0
102
RTVSPropertyOp53
 70
     1
102
RTVSPropertyOp54
 70
     1
102
RTVSPropertyOp55
 70
     1
102
RTVSPropertyOp56
 70
     1
102
RTVSPropertyOp57
 70
     1
102
RTVSPropertyOp58
 70
     1
102
RTVSPropertyOp59
 70
     1
102
RTVSPropertyOp60
 70
     1
102
RTVSPropertyOp61
 70
     1
102
RTVSPropertyOp62
 70
     1
  0
XRECORD
  5
9BA
102
{ACAD_REACTORS
330
9B9
102
}
330
9B9
100
AcDbXrecord
280
     1
102
RTVSPost2010Prop28
280
     0
102
RTVSPost2010PropOp28
 70
     1
102
RTVSPost2010Prop29
280
     1
102
RTVSPost2010PropOp29
 70
     1
102
RTVSPost2010Prop30
280
     1
102
RTVSPost2010PropOp30
 70
     1
102
RTVSPost2010Prop31
280
     0
102
RTVSPost2010PropOp31
 70
     1
102
RTVSPost2010Prop32
280
     0
102
RTVSPost2010PropOp32
 70
     1
102
RTVSPost2010Prop33
280
     0
102
RTVSPost2010PropOp33
 70
     1
102
RTVSPost2010Prop34
280
     0
102
RTVSPost2010PropOp34
 70
     1
102
RTVSPost2010Prop35
280
     0
102
RTVSPost2010PropOp35
 70
     1
102
RTVSPost2010Prop36
280
     0
102
RTVSPost2010PropOp36
 70
     1
102
RTVSPost2010Prop37
 90
       50
102
RTVSPost2010PropOp37
 70
     1
102
RTVSPost2010Prop38
140
0.0
102
RTVSPost2010PropOp38
 70
     1
102
RTVSPost2010Prop39
140
1.0
102
RTVSPost2010PropOp39
 70
     1
102
RTVSPost2010Prop40
 90
        0
102
RTVSPost2010PropOp40
 70
     1
102
RTVSPost2010Prop41ColorIndex
 90
       18
102
RTVSPost2010Prop41ColorRGB
 90
        0
102
RTVSPost2010PropOp41
 70
     1
102
RTVSPost2010Prop42
 90
       50
102
RTVSPost2010PropOp42
 70
     1
102
RTVSPost2010Prop43
 90
        3
102
RTVSPost2010PropOp43
 70
     1
102
RTVSPost2010Prop44ColorIndex
 90
        5
102
RTVSPost2010Prop44ColorRGB
 90
      255
102
RTVSPost2010PropOp44
 70
     1
102
RTVSPost2010Prop45
280
     0
102
RTVSPost2010PropOp45
 70
     1
102
RTVSPost2010Prop46
 90
       50
102
RTVSPost2010PropOp46
 70
     1
102
RTVSPost2010Prop47
 90
       50
102
RTVSPost2010PropOp47
 70
     1
102
RTVSPost2010Prop48
 90
       50
102
RTVSPost2010PropOp48
 70
     1
102
RTVSPost2010Prop49
280
     0
102
RTVSPost2010PropOp49
 70
     1
102
RTVSPost2010Prop50
 90
       50
102
RTVSPost2010PropOp50
 70
     1
102
RTVSPost2010Prop51ColorIndex
 90
      256
102
RTVSPost2010Prop51ColorRGB
 90
-16777216
102
RTVSPost2010PropOp51
 70
     0
102
RTVSPost2010Prop52
140
1.0
102
RTVSPost2010PropOp52
 70
     0
102
RTVSPost2010Prop53
 90
        2
102
RTVSPost2010PropOp53
 70
     1
102
RTVSPost2010Prop54
  1
strokes_ogs.tif
102
RTVSPost2010PropOp54
 70
     1
102
RTVSPost2010Prop55
280
     0
102
RTVSPost2010PropOp55
 70
     1
102
RTVSPost2010Prop56
140
1.0
102
RTVSPost2010PropOp56
 70
     1
102
RTVSPost2010Prop57
140
1.0
102
RTVSPost2010PropOp57
 70
     1
102
RTVSPropertyOp0
 70
     1
102
RTVSPropertyOp1
 70
     1
102
RTVSPropertyOp2
 70
     1
102
RTVSPropertyOp3
 70
     1
102
RTVSPropertyOp4
 70
     1
102
RTVSPropertyOp5
 70
     1
102
RTVSPropertyOp6
 70
     1
102
RTVSPropertyOp7
 70
     1
102
RTVSPropertyOp8
 70
     1
102
RTVSPropertyOp9
 70
     1
102
RTVSPropertyOp10
 70
     1
102
RTVSPropertyOp11
 70
     1
102
RTVSPropertyOp12
 70
     1
102
RTVSPropertyOp13
 70
     1
102
RTVSPropertyOp14
 70
     1
102
RTVSPropertyOp15
 70
     1
102
RTVSPropertyOp16
 70
     1
102
RTVSPropertyOp17
 70
     1
102
RTVSPropertyOp18
 70
     1
102
RTVSPropertyOp19
 70
     1
102
RTVSPropertyOp20
 70
     1
102
RTVSPropertyOp21
 70
     1
102
RTVSPropertyOp22
 70
     1
102
RTVSPropertyOp23
 70
     1
102
RTVSPropertyOp24
 70
     1
102
RTVSPropertyOp25
 70
     1
102
RTVSPropertyOp26
 70
     1
102
RTVSPropertyOp27
 70
     1
102
RTVSPropertyOp28
 70
     1
102
RTVSPropertyOp29
 70
     1
102
RTVSPropertyOp30
 70
     1
102
RTVSPropertyOp31
 70
     1
102
RTVSPropertyOp32
 70
     1
102
RTVSPropertyOp33
 70
     1
102
RTVSPropertyOp34
 70
     1
102
RTVSPropertyOp35
 70
     1
102
RTVSPropertyOp36
 70
     1
102
RTVSPropertyOp37
 70
     1
102
RTVSPropertyOp38
 70
     1
102
RTVSPropertyOp39
 70
     1
102
RTVSPropertyOp40
 70
     1
102
RTVSPropertyOp41
 70
     1
102
RTVSPropertyOp42
 70
     1
102
RTVSPropertyOp43
 70
     1
102
RTVSPropertyOp44
 70
     1
102
RTVSPropertyOp45
 70
     1
102
RTVSPropertyOp46
 70
     1
102
RTVSPropertyOp47
 70
     1
102
RTVSPropertyOp48
 70
     1
102
RTVSPropertyOp49
 70
     1
102
RTVSPropertyOp50
 70
     1
102
RTVSPropertyOp51
 70
     0
102
RTVSPropertyOp52
 70
     0
102
RTVSPropertyOp53
 70
     1
102
RTVSPropertyOp54
 70
     1
102
RTVSPropertyOp55
 70
     1
102
RTVSPropertyOp56
 70
     1
102
RTVSPropertyOp57
 70
     1
102
RTVSPropertyOp58
 70
     1
102
RTVSPropertyOp59
 70
     1
102
RTVSPropertyOp60
 70
     1
102
RTVSPropertyOp61
 70
     1
102
RTVSPropertyOp62
 70
     1
  0
XRECORD
  5
9BE
102
{ACAD_REACTORS
330
9BD
102
}
330
9BD
100
AcDbXrecord
280
     1
102
RTVSPost2010Prop28
280
     0
102
RTVSPost2010PropOp28
 70
     1
102
RTVSPost2010Prop29
280
     1
102
RTVSPost2010PropOp29
 70
     1
102
RTVSPost2010Prop30
280
     1
102
RTVSPost2010PropOp30
 70
     1
102
RTVSPost2010Prop31
280
     0
102
RTVSPost2010PropOp31
 70
     1
102
RTVSPost2010Prop32
280
     0
102
RTVSPost2010PropOp32
 70
     1
102
RTVSPost2010Prop33
280
     0
102
RTVSPost2010PropOp33
 70
     1
102
RTVSPost2010Prop34
280
     0
102
RTVSPost2010PropOp34
 70
     1
102
RTVSPost2010Prop35
280
     0
102
RTVSPost2010PropOp35
 70
     1
102
RTVSPost2010Prop36
280
     0
102
RTVSPost2010PropOp36
 70
     1
102
RTVSPost2010Prop37
 90
       50
102
RTVSPost2010PropOp37
 70
     1
102
RTVSPost2010Prop38
140
0.0
102
RTVSPost2010PropOp38
 70
     1
102
RTVSPost2010Prop39
140
1.0
102
RTVSPost2010PropOp39
 70
     1
102
RTVSPost2010Prop40
 90
        0
102
RTVSPost2010PropOp40
 70
     1
102
RTVSPost2010Prop41ColorIndex
 90
       18
102
RTVSPost2010Prop41ColorRGB
 90
        0
102
RTVSPost2010PropOp41
 70
     1
102
RTVSPost2010Prop42
 90
       50
102
RTVSPost2010PropOp42
 70
     1
102
RTVSPost2010Prop43
 90
        3
102
RTVSPost2010PropOp43
 70
     1
102
RTVSPost2010Prop44ColorIndex
 90
        5
102
RTVSPost2010Prop44ColorRGB
 90
      255
102
RTVSPost2010PropOp44
 70
     1
102
RTVSPost2010Prop45
280
     0
102
RTVSPost2010PropOp45
 70
     1
102
RTVSPost2010Prop46
 90
       50
102
RTVSPost2010PropOp46
 70
     1
102
RTVSPost2010Prop47
 90
       50
102
RTVSPost2010PropOp47
 70
     1
102
RTVSPost2010Prop48
 90
       50
102
RTVSPost2010PropOp48
 70
     1
102
RTVSPost2010Prop49
280
     0
102
RTVSPost2010PropOp49
 70
     1
102
RTVSPost2010Prop50
 90
       50
102
RTVSPost2010PropOp50
 70
     1
102
RTVSPost2010Prop51ColorIndex
 90
      256
102
RTVSPost2010Prop51ColorRGB
 90
-16777216
102
RTVSPost2010PropOp51
 70
     0
102
RTVSPost2010Prop52
140
1.0
102
RTVSPost2010PropOp52
 70
     0
102
RTVSPost2010Prop53
 90
        2
102
RTVSPost2010PropOp53
 70
     1
102
RTVSPost2010Prop54
  1
strokes_ogs.tif
102
RTVSPost2010PropOp54
 70
     1
102
RTVSPost2010Prop55
280
     0
102
RTVSPost2010PropOp55
 70
     1
102
RTVSPost2010Prop56
140
1.0
102
RTVSPost2010PropOp56
 70
     1
102
RTVSPost2010Prop57
140
1.0
102
RTVSPost2010PropOp57
 70
     1
102
RTVSPropertyOp0
 70
     1
102
RTVSPropertyOp1
 70
     1
102
RTVSPropertyOp2
 70
     1
102
RTVSPropertyOp3
 70
     1
102
RTVSPropertyOp4
 70
     1
102
RTVSPropertyOp5
 70
     1
102
RTVSPropertyOp6
 70
     1
102
RTVSPropertyOp7
 70
     1
102
RTVSPropertyOp8
 70
     1
102
RTVSPropertyOp9
 70
     1
102
RTVSPropertyOp10
 70
     1
102
RTVSPropertyOp11
 70
     1
102
RTVSPropertyOp12
 70
     1
102
RTVSPropertyOp13
 70
     1
102
RTVSPropertyOp14
 70
     1
102
RTVSPropertyOp15
 70
     1
102
RTVSPropertyOp16
 70
     1
102
RTVSPropertyOp17
 70
     1
102
RTVSPropertyOp18
 70
     1
102
RTVSPropertyOp19
 70
     1
102
RTVSPropertyOp20
 70
     1
102
RTVSPropertyOp21
 70
     1
102
RTVSPropertyOp22
 70
     1
102
RTVSPropertyOp23
 70
     1
102
RTVSPropertyOp24
 70
     1
102
RTVSPropertyOp25
 70
     1
102
RTVSPropertyOp26
 70
     1
102
RTVSPropertyOp27
 70
     1
102
RTVSPropertyOp28
 70
     1
102
RTVSPropertyOp29
 70
     1
102
RTVSPropertyOp30
 70
     1
102
RTVSPropertyOp31
 70
     1
102
RTVSPropertyOp32
 70
     1
102
RTVSPropertyOp33
 70
     1
102
RTVSPropertyOp34
 70
     1
102
RTVSPropertyOp35
 70
     1
102
RTVSPropertyOp36
 70
     1
102
RTVSPropertyOp37
 70
     1
102
RTVSPropertyOp38
 70
     1
102
RTVSPropertyOp39
 70
     1
102
RTVSPropertyOp40
 70
     1
102
RTVSPropertyOp41
 70
     1
102
RTVSPropertyOp42
 70
     1
102
RTVSPropertyOp43
 70
     1
102
RTVSPropertyOp44
 70
     1
102
RTVSPropertyOp45
 70
     1
102
RTVSPropertyOp46
 70
     1
102
RTVSPropertyOp47
 70
     1
102
RTVSPropertyOp48
 70
     1
102
RTVSPropertyOp49
 70
     1
102
RTVSPropertyOp50
 70
     1
102
RTVSPropertyOp51
 70
     0
102
RTVSPropertyOp52
 70
     0
102
RTVSPropertyOp53
 70
     1
102
RTVSPropertyOp54
 70
     1
102
RTVSPropertyOp55
 70
     1
102
RTVSPropertyOp56
 70
     1
102
RTVSPropertyOp57
 70
     1
102
RTVSPropertyOp58
 70
     1
102
RTVSPropertyOp59
 70
     1
102
RTVSPropertyOp60
 70
     1
102
RTVSPropertyOp61
 70
     1
102
RTVSPropertyOp62
 70
     1
  0
XRECORD
  5
9D8
102
{ACAD_REACTORS
330
9D7
102
}
330
9D7
100
AcDbXrecord
280
     1
102
RTVSPost2010Prop28
280
     0
102
RTVSPost2010PropOp28
 70
     1
102
RTVSPost2010Prop29
280
     1
102
RTVSPost2010PropOp29
 70
     1
102
RTVSPost2010Prop30
280
     1
102
RTVSPost2010PropOp30
 70
     1
102
RTVSPost2010Prop31
280
     0
102
RTVSPost2010PropOp31
 70
     1
102
RTVSPost2010Prop32
280
     0
102
RTVSPost2010PropOp32
 70
     1
102
RTVSPost2010Prop33
280
     0
102
RTVSPost2010PropOp33
 70
     1
102
RTVSPost2010Prop34
280
     0
102
RTVSPost2010PropOp34
 70
     1
102
RTVSPost2010Prop35
280
     0
102
RTVSPost2010PropOp35
 70
     1
102
RTVSPost2010Prop36
280
     0
102
RTVSPost2010PropOp36
 70
     1
102
RTVSPost2010Prop37
 90
       50
102
RTVSPost2010PropOp37
 70
     0
102
RTVSPost2010Prop38
140
0.0
102
RTVSPost2010PropOp38
 70
     0
102
RTVSPost2010Prop39
140
1.0
102
RTVSPost2010PropOp39
 70
     0
102
RTVSPost2010Prop40
 90
        0
102
RTVSPost2010PropOp40
 70
     0
102
RTVSPost2010Prop41ColorIndex
 90
       18
102
RTVSPost2010Prop41ColorRGB
 90
        0
102
RTVSPost2010PropOp41
 70
     0
102
RTVSPost2010Prop42
 90
       50
102
RTVSPost2010PropOp42
 70
     0
102
RTVSPost2010Prop43
 90
        3
102
RTVSPost2010PropOp43
 70
     0
102
RTVSPost2010Prop44ColorIndex
 90
        5
102
RTVSPost2010Prop44ColorRGB
 90
      255
102
RTVSPost2010PropOp44
 70
     0
102
RTVSPost2010Prop45
280
     0
102
RTVSPost2010PropOp45
 70
     1
102
RTVSPost2010Prop46
 90
       50
102
RTVSPost2010PropOp46
 70
     0
102
RTVSPost2010Prop47
 90
       50
102
RTVSPost2010PropOp47
 70
     0
102
RTVSPost2010Prop48
 90
       50
102
RTVSPost2010PropOp48
 70
     0
102
RTVSPost2010Prop49
280
     0
102
RTVSPost2010PropOp49
 70
     1
102
RTVSPost2010Prop50
 90
       50
102
RTVSPost2010PropOp50
 70
     0
102
RTVSPost2010Prop51ColorIndex
 90
      256
102
RTVSPost2010Prop51ColorRGB
 90
-16777216
102
RTVSPost2010PropOp51
 70
     0
102
RTVSPost2010Prop52
140
1.0
102
RTVSPost2010PropOp52
 70
     0
102
RTVSPost2010Prop53
 90
        2
102
RTVSPost2010PropOp53
 70
     0
102
RTVSPost2010Prop54
  1
strokes_ogs.tif
102
RTVSPost2010PropOp54
 70
     0
102
RTVSPost2010Prop55
280
     0
102
RTVSPost2010PropOp55
 70
     1
102
RTVSPost2010Prop56
140
1.0
102
RTVSPost2010PropOp56
 70
     0
102
RTVSPost2010Prop57
140
1.0
102
RTVSPost2010PropOp57
 70
     0
102
RTVSPropertyOp0
 70
     0
102
RTVSPropertyOp1
 70
     0
102
RTVSPropertyOp2
 70
     0
102
RTVSPropertyOp3
 70
     0
102
RTVSPropertyOp4
 70
     0
102
RTVSPropertyOp5
 70
     0
102
RTVSPropertyOp6
 70
     0
102
RTVSPropertyOp7
 70
     0
102
RTVSPropertyOp8
 70
     0
102
RTVSPropertyOp9
 70
     0
102
RTVSPropertyOp10
 70
     0
102
RTVSPropertyOp11
 70
     0
102
RTVSPropertyOp12
 70
     0
102
RTVSPropertyOp13
 70
     0
102
RTVSPropertyOp14
 70
     2
102
RTVSPropertyOp15
 70
     0
102
RTVSPropertyOp16
 70
     0
102
RTVSPropertyOp17
 70
     0
102
RTVSPropertyOp18
 70
     0
102
RTVSPropertyOp19
 70
     0
102
RTVSPropertyOp20
 70
     0
102
RTVSPropertyOp21
 70
     0
102
RTVSPropertyOp22
 70
     0
102
RTVSPropertyOp23
 70
     0
102
RTVSPropertyOp24
 70
     0
102
RTVSPropertyOp25
 70
     0
102
RTVSPropertyOp26
 70
     0
102
RTVSPropertyOp27
 70
     0
102
RTVSPropertyOp28
 70
     1
102
RTVSPropertyOp29
 70
     1
102
RTVSPropertyOp30
 70
     1
102
RTVSPropertyOp31
 70
     1
102
RTVSPropertyOp32
 70
     1
102
RTVSPropertyOp33
 70
     1
102
RTVSPropertyOp34
 70
     1
102
RTVSPropertyOp35
 70
     1
102
RTVSPropertyOp36
 70
     1
102
RTVSPropertyOp37
 70
     0
102
RTVSPropertyOp38
 70
     0
102
RTVSPropertyOp39
 70
     0
102
RTVSPropertyOp40
 70
     0
102
RTVSPropertyOp41
 70
     0
102
RTVSPropertyOp42
 70
     0
102
RTVSPropertyOp43
 70
     0
102
RTVSPropertyOp44
 70
     0
102
RTVSPropertyOp45
 70
     1
102
RTVSPropertyOp46
 70
     0
102
RTVSPropertyOp47
 70
     0
102
RTVSPropertyOp48
 70
     0
102
RTVSPropertyOp49
 70
     1
102
RTVSPropertyOp50
 70
     0
102
RTVSPropertyOp51
 70
     0
102
RTVSPropertyOp52
 70
     0
102
RTVSPropertyOp53
 70
     0
102
RTVSPropertyOp54
 70
     0
102
RTVSPropertyOp55
 70
     1
102
RTVSPropertyOp56
 70
     0
102
RTVSPropertyOp57
 70
     0
102
RTVSPropertyOp58
 70
     0
102
RTVSPropertyOp59
 70
     0
102
RTVSPropertyOp60
 70
     0
102
RTVSPropertyOp61
 70
     0
102
RTVSPropertyOp62
 70
     0
  0
XRECORD
  5
9C6
102
{ACAD_REACTORS
330
9C5
102
}
330
9C5
100
AcDbXrecord
280
     1
102
RTVSPost2010Prop28
280
     0
102
RTVSPost2010PropOp28
 70
     1
102
RTVSPost2010Prop29
280
     1
102
RTVSPost2010PropOp29
 70
     1
102
RTVSPost2010Prop30
280
     1
102
RTVSPost2010PropOp30
 70
     1
102
RTVSPost2010Prop31
280
     0
102
RTVSPost2010PropOp31
 70
     1
102
RTVSPost2010Prop32
280
     0
102
RTVSPost2010PropOp32
 70
     1
102
RTVSPost2010Prop33
280
     0
102
RTVSPost2010PropOp33
 70
     1
102
RTVSPost2010Prop34
280
     0
102
RTVSPost2010PropOp34
 70
     1
102
RTVSPost2010Prop35
280
     0
102
RTVSPost2010PropOp35
 70
     1
102
RTVSPost2010Prop36
280
     0
102
RTVSPost2010PropOp36
 70
     1
102
RTVSPost2010Prop37
 90
       50
102
RTVSPost2010PropOp37
 70
     1
102
RTVSPost2010Prop38
140
0.0
102
RTVSPost2010PropOp38
 70
     1
102
RTVSPost2010Prop39
140
1.0
102
RTVSPost2010PropOp39
 70
     1
102
RTVSPost2010Prop40
 90
        0
102
RTVSPost2010PropOp40
 70
     1
102
RTVSPost2010Prop41ColorIndex
 90
       18
102
RTVSPost2010Prop41ColorRGB
 90
        0
102
RTVSPost2010PropOp41
 70
     1
102
RTVSPost2010Prop42
 90
       50
102
RTVSPost2010PropOp42
 70
     1
102
RTVSPost2010Prop43
 90
        3
102
RTVSPost2010PropOp43
 70
     1
102
RTVSPost2010Prop44ColorIndex
 90
        5
102
RTVSPost2010Prop44ColorRGB
 90
      255
102
RTVSPost2010PropOp44
 70
     1
102
RTVSPost2010Prop45
280
     0
102
RTVSPost2010PropOp45
 70
     1
102
RTVSPost2010Prop46
 90
       50
102
RTVSPost2010PropOp46
 70
     1
102
RTVSPost2010Prop47
 90
       50
102
RTVSPost2010PropOp47
 70
     1
102
RTVSPost2010Prop48
 90
       50
102
RTVSPost2010PropOp48
 70
     1
102
RTVSPost2010Prop49
280
     0
102
RTVSPost2010PropOp49
 70
     1
102
RTVSPost2010Prop50
 90
       50
102
RTVSPost2010PropOp50
 70
     1
102
RTVSPost2010Prop51ColorIndex
 90
      256
102
RTVSPost2010Prop51ColorRGB
 90
-16777216
102
RTVSPost2010PropOp51
 70
     0
102
RTVSPost2010Prop52
140
1.0
102
RTVSPost2010PropOp52
 70
     0
102
RTVSPost2010Prop53
 90
        2
102
RTVSPost2010PropOp53
 70
     1
102
RTVSPost2010Prop54
  1
strokes_ogs.tif
102
RTVSPost2010PropOp54
 70
     1
102
RTVSPost2010Prop55
280
     0
102
RTVSPost2010PropOp55
 70
     1
102
RTVSPost2010Prop56
140
1.0
102
RTVSPost2010PropOp56
 70
     1
102
RTVSPost2010Prop57
140
1.0
102
RTVSPost2010PropOp57
 70
     1
102
RTVSPropertyOp0
 70
     1
102
RTVSPropertyOp1
 70
     1
102
RTVSPropertyOp2
 70
     1
102
RTVSPropertyOp3
 70
     1
102
RTVSPropertyOp4
 70
     1
102
RTVSPropertyOp5
 70
     1
102
RTVSPropertyOp6
 70
     1
102
RTVSPropertyOp7
 70
     1
102
RTVSPropertyOp8
 70
     1
102
RTVSPropertyOp9
 70
     1
102
RTVSPropertyOp10
 70
     1
102
RTVSPropertyOp11
 70
     1
102
RTVSPropertyOp12
 70
     1
102
RTVSPropertyOp13
 70
     1
102
RTVSPropertyOp14
 70
     1
102
RTVSPropertyOp15
 70
     1
102
RTVSPropertyOp16
 70
     1
102
RTVSPropertyOp17
 70
     1
102
RTVSPropertyOp18
 70
     1
102
RTVSPropertyOp19
 70
     1
102
RTVSPropertyOp20
 70
     1
102
RTVSPropertyOp21
 70
     1
102
RTVSPropertyOp22
 70
     1
102
RTVSPropertyOp23
 70
     1
102
RTVSPropertyOp24
 70
     1
102
RTVSPropertyOp25
 70
     1
102
RTVSPropertyOp26
 70
     1
102
RTVSPropertyOp27
 70
     1
102
RTVSPropertyOp28
 70
     1
102
RTVSPropertyOp29
 70
     1
102
RTVSPropertyOp30
 70
     1
102
RTVSPropertyOp31
 70
     1
102
RTVSPropertyOp32
 70
     1
102
RTVSPropertyOp33
 70
     1
102
RTVSPropertyOp34
 70
     1
102
RTVSPropertyOp35
 70
     1
102
RTVSPropertyOp36
 70
     1
102
RTVSPropertyOp37
 70
     1
102
RTVSPropertyOp38
 70
     1
102
RTVSPropertyOp39
 70
     1
102
RTVSPropertyOp40
 70
     1
102
RTVSPropertyOp41
 70
     1
102
RTVSPropertyOp42
 70
     1
102
RTVSPropertyOp43
 70
     1
102
RTVSPropertyOp44
 70
     1
102
RTVSPropertyOp45
 70
     1
102
RTVSPropertyOp46
 70
     1
102
RTVSPropertyOp47
 70
     1
102
RTVSPropertyOp48
 70
     1
102
RTVSPropertyOp49
 70
     1
102
RTVSPropertyOp50
 70
     1
102
RTVSPropertyOp51
 70
     0
102
RTVSPropertyOp52
 70
     0
102
RTVSPropertyOp53
 70
     1
102
RTVSPropertyOp54
 70
     1
102
RTVSPropertyOp55
 70
     1
102
RTVSPropertyOp56
 70
     1
102
RTVSPropertyOp57
 70
     1
102
RTVSPropertyOp58
 70
     1
102
RTVSPropertyOp59
 70
     1
102
RTVSPropertyOp60
 70
     1
102
RTVSPropertyOp61
 70
     1
102
RTVSPropertyOp62
 70
     1
  0
XRECORD
  5
9AA
102
{ACAD_REACTORS
330
9A9
102
}
330
9A9
100
AcDbXrecord
280
     1
102
RTVSPost2010Prop28
280
     0
102
RTVSPost2010PropOp28
 70
     1
102
RTVSPost2010Prop29
280
     1
102
RTVSPost2010PropOp29
 70
     1
102
RTVSPost2010Prop30
280
     1
102
RTVSPost2010PropOp30
 70
     1
102
RTVSPost2010Prop31
280
     0
102
RTVSPost2010PropOp31
 70
     1
102
RTVSPost2010Prop32
280
     0
102
RTVSPost2010PropOp32
 70
     1
102
RTVSPost2010Prop33
280
     0
102
RTVSPost2010PropOp33
 70
     1
102
RTVSPost2010Prop34
280
     0
102
RTVSPost2010PropOp34
 70
     1
102
RTVSPost2010Prop35
280
     0
102
RTVSPost2010PropOp35
 70
     1
102
RTVSPost2010Prop36
280
     0
102
RTVSPost2010PropOp36
 70
     1
102
RTVSPost2010Prop37
 90
       50
102
RTVSPost2010PropOp37
 70
     1
102
RTVSPost2010Prop38
140
0.0
102
RTVSPost2010PropOp38
 70
     1
102
RTVSPost2010Prop39
140
1.0
102
RTVSPost2010PropOp39
 70
     1
102
RTVSPost2010Prop40
 90
        0
102
RTVSPost2010PropOp40
 70
     1
102
RTVSPost2010Prop41ColorIndex
 90
       18
102
RTVSPost2010Prop41ColorRGB
 90
        0
102
RTVSPost2010PropOp41
 70
     1
102
RTVSPost2010Prop42
 90
       50
102
RTVSPost2010PropOp42
 70
     1
102
RTVSPost2010Prop43
 90
        3
102
RTVSPost2010PropOp43
 70
     1
102
RTVSPost2010Prop44ColorIndex
 90
        5
102
RTVSPost2010Prop44ColorRGB
 90
      255
102
RTVSPost2010PropOp44
 70
     1
102
RTVSPost2010Prop45
280
     0
102
RTVSPost2010PropOp45
 70
     1
102
RTVSPost2010Prop46
 90
       50
102
RTVSPost2010PropOp46
 70
     1
102
RTVSPost2010Prop47
 90
       50
102
RTVSPost2010PropOp47
 70
     1
102
RTVSPost2010Prop48
 90
       50
102
RTVSPost2010PropOp48
 70
     1
102
RTVSPost2010Prop49
280
     0
102
RTVSPost2010PropOp49
 70
     1
102
RTVSPost2010Prop50
 90
       50
102
RTVSPost2010PropOp50
 70
     1
102
RTVSPost2010Prop51ColorIndex
 90
      256
102
RTVSPost2010Prop51ColorRGB
 90
-16777216
102
RTVSPost2010PropOp51
 70
     0
102
RTVSPost2010Prop52
140
1.0
102
RTVSPost2010PropOp52
 70
     0
102
RTVSPost2010Prop53
 90
        2
102
RTVSPost2010PropOp53
 70
     1
102
RTVSPost2010Prop54
  1
strokes_ogs.tif
102
RTVSPost2010PropOp54
 70
     1
102
RTVSPost2010Prop55
280
     0
102
RTVSPost2010PropOp55
 70
     1
102
RTVSPost2010Prop56
140
1.0
102
RTVSPost2010PropOp56
 70
     1
102
RTVSPost2010Prop57
140
1.0
102
RTVSPost2010PropOp57
 70
     1
102
RTVSPropertyOp0
 70
     1
102
RTVSPropertyOp1
 70
     1
102
RTVSPropertyOp2
 70
     1
102
RTVSPropertyOp3
 70
     1
102
RTVSPropertyOp4
 70
     1
102
RTVSPropertyOp5
 70
     1
102
RTVSPropertyOp6
 70
     1
102
RTVSPropertyOp7
 70
     1
102
RTVSPropertyOp8
 70
     1
102
RTVSPropertyOp9
 70
     1
102
RTVSPropertyOp10
 70
     1
102
RTVSPropertyOp11
 70
     1
102
RTVSPropertyOp12
 70
     1
102
RTVSPropertyOp13
 70
     1
102
RTVSPropertyOp14
 70
     1
102
RTVSPropertyOp15
 70
     1
102
RTVSPropertyOp16
 70
     1
102
RTVSPropertyOp17
 70
     1
102
RTVSPropertyOp18
 70
     1
102
RTVSPropertyOp19
 70
     1
102
RTVSPropertyOp20
 70
     1
102
RTVSPropertyOp21
 70
     1
102
RTVSPropertyOp22
 70
     1
102
RTVSPropertyOp23
 70
     1
102
RTVSPropertyOp24
 70
     1
102
RTVSPropertyOp25
 70
     1
102
RTVSPropertyOp26
 70
     1
102
RTVSPropertyOp27
 70
     1
102
RTVSPropertyOp28
 70
     1
102
RTVSPropertyOp29
 70
     1
102
RTVSPropertyOp30
 70
     1
102
RTVSPropertyOp31
 70
     1
102
RTVSPropertyOp32
 70
     1
102
RTVSPropertyOp33
 70
     1
102
RTVSPropertyOp34
 70
     1
102
RTVSPropertyOp35
 70
     1
102
RTVSPropertyOp36
 70
     1
102
RTVSPropertyOp37
 70
     1
102
RTVSPropertyOp38
 70
     1
102
RTVSPropertyOp39
 70
     1
102
RTVSPropertyOp40
 70
     1
102
RTVSPropertyOp41
 70
     1
102
RTVSPropertyOp42
 70
     1
102
RTVSPropertyOp43
 70
     1
102
RTVSPropertyOp44
 70
     1
102
RTVSPropertyOp45
 70
     1
102
RTVSPropertyOp46
 70
     1
102
RTVSPropertyOp47
 70
     1
102
RTVSPropertyOp48
 70
     1
102
RTVSPropertyOp49
 70
     1
102
RTVSPropertyOp50
 70
     1
102
RTVSPropertyOp51
 70
     0
102
RTVSPropertyOp52
 70
     0
102
RTVSPropertyOp53
 70
     1
102
RTVSPropertyOp54
 70
     1
102
RTVSPropertyOp55
 70
     1
102
RTVSPropertyOp56
 70
     1
102
RTVSPropertyOp57
 70
     1
102
RTVSPropertyOp58
 70
     1
102
RTVSPropertyOp59
 70
     1
102
RTVSPropertyOp60
 70
     1
102
RTVSPropertyOp61
 70
     1
102
RTVSPropertyOp62
 70
     1
  0
XRECORD
  5
9AC
102
{ACAD_REACTORS
330
9AB
102
}
330
9AB
100
AcDbXrecord
280
     1
102
RTVSPost2010Prop28
280
     0
102
RTVSPost2010PropOp28
 70
     1
102
RTVSPost2010Prop29
280
     1
102
RTVSPost2010PropOp29
 70
     1
102
RTVSPost2010Prop30
280
     1
102
RTVSPost2010PropOp30
 70
     1
102
RTVSPost2010Prop31
280
     0
102
RTVSPost2010PropOp31
 70
     1
102
RTVSPost2010Prop32
280
     0
102
RTVSPost2010PropOp32
 70
     1
102
RTVSPost2010Prop33
280
     0
102
RTVSPost2010PropOp33
 70
     1
102
RTVSPost2010Prop34
280
     0
102
RTVSPost2010PropOp34
 70
     1
102
RTVSPost2010Prop35
280
     0
102
RTVSPost2010PropOp35
 70
     1
102
RTVSPost2010Prop36
280
     0
102
RTVSPost2010PropOp36
 70
     1
102
RTVSPost2010Prop37
 90
       50
102
RTVSPost2010PropOp37
 70
     1
102
RTVSPost2010Prop38
140
0.0
102
RTVSPost2010PropOp38
 70
     1
102
RTVSPost2010Prop39
140
1.0
102
RTVSPost2010PropOp39
 70
     1
102
RTVSPost2010Prop40
 90
        0
102
RTVSPost2010PropOp40
 70
     1
102
RTVSPost2010Prop41ColorIndex
 90
       18
102
RTVSPost2010Prop41ColorRGB
 90
        0
102
RTVSPost2010PropOp41
 70
     1
102
RTVSPost2010Prop42
 90
       50
102
RTVSPost2010PropOp42
 70
     1
102
RTVSPost2010Prop43
 90
        3
102
RTVSPost2010PropOp43
 70
     1
102
RTVSPost2010Prop44ColorIndex
 90
        5
102
RTVSPost2010Prop44ColorRGB
 90
      255
102
RTVSPost2010PropOp44
 70
     1
102
RTVSPost2010Prop45
280
     0
102
RTVSPost2010PropOp45
 70
     1
102
RTVSPost2010Prop46
 90
       50
102
RTVSPost2010PropOp46
 70
     1
102
RTVSPost2010Prop47
 90
       50
102
RTVSPost2010PropOp47
 70
     1
102
RTVSPost2010Prop48
 90
       50
102
RTVSPost2010PropOp48
 70
     1
102
RTVSPost2010Prop49
280
     0
102
RTVSPost2010PropOp49
 70
     1
102
RTVSPost2010Prop50
 90
       50
102
RTVSPost2010PropOp50
 70
     1
102
RTVSPost2010Prop51ColorIndex
 90
      256
102
RTVSPost2010Prop51ColorRGB
 90
-16777216
102
RTVSPost2010PropOp51
 70
     0
102
RTVSPost2010Prop52
140
1.0
102
RTVSPost2010PropOp52
 70
     0
102
RTVSPost2010Prop53
 90
        2
102
RTVSPost2010PropOp53
 70
     1
102
RTVSPost2010Prop54
  1
strokes_ogs.tif
102
RTVSPost2010PropOp54
 70
     1
102
RTVSPost2010Prop55
280
     0
102
RTVSPost2010PropOp55
 70
     1
102
RTVSPost2010Prop56
140
1.0
102
RTVSPost2010PropOp56
 70
     1
102
RTVSPost2010Prop57
140
1.0
102
RTVSPost2010PropOp57
 70
     1
102
RTVSPropertyOp0
 70
     1
102
RTVSPropertyOp1
 70
     1
102
RTVSPropertyOp2
 70
     1
102
RTVSPropertyOp3
 70
     1
102
RTVSPropertyOp4
 70
     1
102
RTVSPropertyOp5
 70
     1
102
RTVSPropertyOp6
 70
     1
102
RTVSPropertyOp7
 70
     1
102
RTVSPropertyOp8
 70
     1
102
RTVSPropertyOp9
 70
     1
102
RTVSPropertyOp10
 70
     1
102
RTVSPropertyOp11
 70
     1
102
RTVSPropertyOp12
 70
     1
102
RTVSPropertyOp13
 70
     1
102
RTVSPropertyOp14
 70
     1
102
RTVSPropertyOp15
 70
     1
102
RTVSPropertyOp16
 70
     1
102
RTVSPropertyOp17
 70
     1
102
RTVSPropertyOp18
 70
     1
102
RTVSPropertyOp19
 70
     1
102
RTVSPropertyOp20
 70
     1
102
RTVSPropertyOp21
 70
     1
102
RTVSPropertyOp22
 70
     1
102
RTVSPropertyOp23
 70
     1
102
RTVSPropertyOp24
 70
     1
102
RTVSPropertyOp25
 70
     1
102
RTVSPropertyOp26
 70
     1
102
RTVSPropertyOp27
 70
     1
102
RTVSPropertyOp28
 70
     1
102
RTVSPropertyOp29
 70
     1
102
RTVSPropertyOp30
 70
     1
102
RTVSPropertyOp31
 70
     1
102
RTVSPropertyOp32
 70
     1
102
RTVSPropertyOp33
 70
     1
102
RTVSPropertyOp34
 70
     1
102
RTVSPropertyOp35
 70
     1
102
RTVSPropertyOp36
 70
     1
102
RTVSPropertyOp37
 70
     1
102
RTVSPropertyOp38
 70
     1
102
RTVSPropertyOp39
 70
     1
102
RTVSPropertyOp40
 70
     1
102
RTVSPropertyOp41
 70
     1
102
RTVSPropertyOp42
 70
     1
102
RTVSPropertyOp43
 70
     1
102
RTVSPropertyOp44
 70
     1
102
RTVSPropertyOp45
 70
     1
102
RTVSPropertyOp46
 70
     1
102
RTVSPropertyOp47
 70
     1
102
RTVSPropertyOp48
 70
     1
102
RTVSPropertyOp49
 70
     1
102
RTVSPropertyOp50
 70
     1
102
RTVSPropertyOp51
 70
     0
102
RTVSPropertyOp52
 70
     0
102
RTVSPropertyOp53
 70
     1
102
RTVSPropertyOp54
 70
     1
102
RTVSPropertyOp55
 70
     1
102
RTVSPropertyOp56
 70
     1
102
RTVSPropertyOp57
 70
     1
102
RTVSPropertyOp58
 70
     1
102
RTVSPropertyOp59
 70
     1
102
RTVSPropertyOp60
 70
     1
102
RTVSPropertyOp61
 70
     1
102
RTVSPropertyOp62
 70
     1
  0
XRECORD
  5
9AE
102
{ACAD_REACTORS
330
9AD
102
}
330
9AD
100
AcDbXrecord
280
     1
102
RTVSPost2010Prop28
280
     0
102
RTVSPost2010PropOp28
 70
     1
102
RTVSPost2010Prop29
280
     1
102
RTVSPost2010PropOp29
 70
     1
102
RTVSPost2010Prop30
280
     1
102
RTVSPost2010PropOp30
 70
     1
102
RTVSPost2010Prop31
280
     0
102
RTVSPost2010PropOp31
 70
     1
102
RTVSPost2010Prop32
280
     0
102
RTVSPost2010PropOp32
 70
     1
102
RTVSPost2010Prop33
280
     0
102
RTVSPost2010PropOp33
 70
     1
102
RTVSPost2010Prop34
280
     0
102
RTVSPost2010PropOp34
 70
     1
102
RTVSPost2010Prop35
280
     0
102
RTVSPost2010PropOp35
 70
     1
102
RTVSPost2010Prop36
280
     0
102
RTVSPost2010PropOp36
 70
     1
102
RTVSPost2010Prop37
 90
       50
102
RTVSPost2010PropOp37
 70
     1
102
RTVSPost2010Prop38
140
0.0
102
RTVSPost2010PropOp38
 70
     1
102
RTVSPost2010Prop39
140
1.0
102
RTVSPost2010PropOp39
 70
     1
102
RTVSPost2010Prop40
 90
        0
102
RTVSPost2010PropOp40
 70
     1
102
RTVSPost2010Prop41ColorIndex
 90
       18
102
RTVSPost2010Prop41ColorRGB
 90
        0
102
RTVSPost2010PropOp41
 70
     1
102
RTVSPost2010Prop42
 90
       50
102
RTVSPost2010PropOp42
 70
     1
102
RTVSPost2010Prop43
 90
        3
102
RTVSPost2010PropOp43
 70
     1
102
RTVSPost2010Prop44ColorIndex
 90
        5
102
RTVSPost2010Prop44ColorRGB
 90
      255
102
RTVSPost2010PropOp44
 70
     1
102
RTVSPost2010Prop45
280
     0
102
RTVSPost2010PropOp45
 70
     1
102
RTVSPost2010Prop46
 90
       50
102
RTVSPost2010PropOp46
 70
     1
102
RTVSPost2010Prop47
 90
       50
102
RTVSPost2010PropOp47
 70
     1
102
RTVSPost2010Prop48
 90
       50
102
RTVSPost2010PropOp48
 70
     1
102
RTVSPost2010Prop49
280
     0
102
RTVSPost2010PropOp49
 70
     1
102
RTVSPost2010Prop50
 90
       50
102
RTVSPost2010PropOp50
 70
     1
102
RTVSPost2010Prop51ColorIndex
 90
      256
102
RTVSPost2010Prop51ColorRGB
 90
-16777216
102
RTVSPost2010PropOp51
 70
     0
102
RTVSPost2010Prop52
140
1.0
102
RTVSPost2010PropOp52
 70
     0
102
RTVSPost2010Prop53
 90
        2
102
RTVSPost2010PropOp53
 70
     1
102
RTVSPost2010Prop54
  1
strokes_ogs.tif
102
RTVSPost2010PropOp54
 70
     1
102
RTVSPost2010Prop55
280
     0
102
RTVSPost2010PropOp55
 70
     1
102
RTVSPost2010Prop56
140
1.0
102
RTVSPost2010PropOp56
 70
     1
102
RTVSPost2010Prop57
140
1.0
102
RTVSPost2010PropOp57
 70
     1
102
RTVSPropertyOp0
 70
     1
102
RTVSPropertyOp1
 70
     1
102
RTVSPropertyOp2
 70
     1
102
RTVSPropertyOp3
 70
     1
102
RTVSPropertyOp4
 70
     1
102
RTVSPropertyOp5
 70
     1
102
RTVSPropertyOp6
 70
     1
102
RTVSPropertyOp7
 70
     1
102
RTVSPropertyOp8
 70
     1
102
RTVSPropertyOp9
 70
     1
102
RTVSPropertyOp10
 70
     1
102
RTVSPropertyOp11
 70
     1
102
RTVSPropertyOp12
 70
     1
102
RTVSPropertyOp13
 70
     1
102
RTVSPropertyOp14
 70
     1
102
RTVSPropertyOp15
 70
     1
102
RTVSPropertyOp16
 70
     1
102
RTVSPropertyOp17
 70
     1
102
RTVSPropertyOp18
 70
     1
102
RTVSPropertyOp19
 70
     1
102
RTVSPropertyOp20
 70
     1
102
RTVSPropertyOp21
 70
     1
102
RTVSPropertyOp22
 70
     1
102
RTVSPropertyOp23
 70
     1
102
RTVSPropertyOp24
 70
     1
102
RTVSPropertyOp25
 70
     1
102
RTVSPropertyOp26
 70
     1
102
RTVSPropertyOp27
 70
     1
102
RTVSPropertyOp28
 70
     1
102
RTVSPropertyOp29
 70
     1
102
RTVSPropertyOp30
 70
     1
102
RTVSPropertyOp31
 70
     1
102
RTVSPropertyOp32
 70
     1
102
RTVSPropertyOp33
 70
     1
102
RTVSPropertyOp34
 70
     1
102
RTVSPropertyOp35
 70
     1
102
RTVSPropertyOp36
 70
     1
102
RTVSPropertyOp37
 70
     1
102
RTVSPropertyOp38
 70
     1
102
RTVSPropertyOp39
 70
     1
102
RTVSPropertyOp40
 70
     1
102
RTVSPropertyOp41
 70
     1
102
RTVSPropertyOp42
 70
     1
102
RTVSPropertyOp43
 70
     1
102
RTVSPropertyOp44
 70
     1
102
RTVSPropertyOp45
 70
     1
102
RTVSPropertyOp46
 70
     1
102
RTVSPropertyOp47
 70
     1
102
RTVSPropertyOp48
 70
     1
102
RTVSPropertyOp49
 70
     1
102
RTVSPropertyOp50
 70
     1
102
RTVSPropertyOp51
 70
     0
102
RTVSPropertyOp52
 70
     0
102
RTVSPropertyOp53
 70
     1
102
RTVSPropertyOp54
 70
     1
102
RTVSPropertyOp55
 70
     1
102
RTVSPropertyOp56
 70
     1
102
RTVSPropertyOp57
 70
     1
102
RTVSPropertyOp58
 70
     1
102
RTVSPropertyOp59
 70
     1
102
RTVSPropertyOp60
 70
     1
102
RTVSPropertyOp61
 70
     1
102
RTVSPropertyOp62
 70
     1
  0
XRECORD
  5
9B0
102
{ACAD_REACTORS
330
9AF
102
}
330
9AF
100
AcDbXrecord
280
     1
102
RTVSPost2010Prop28
280
     0
102
RTVSPost2010PropOp28
 70
     1
102
RTVSPost2010Prop29
280
     1
102
RTVSPost2010PropOp29
 70
     1
102
RTVSPost2010Prop30
280
     1
102
RTVSPost2010PropOp30
 70
     1
102
RTVSPost2010Prop31
280
     0
102
RTVSPost2010PropOp31
 70
     1
102
RTVSPost2010Prop32
280
     0
102
RTVSPost2010PropOp32
 70
     1
102
RTVSPost2010Prop33
280
     0
102
RTVSPost2010PropOp33
 70
     1
102
RTVSPost2010Prop34
280
     0
102
RTVSPost2010PropOp34
 70
     1
102
RTVSPost2010Prop35
280
     0
102
RTVSPost2010PropOp35
 70
     1
102
RTVSPost2010Prop36
280
     0
102
RTVSPost2010PropOp36
 70
     1
102
RTVSPost2010Prop37
 90
       50
102
RTVSPost2010PropOp37
 70
     1
102
RTVSPost2010Prop38
140
0.0
102
RTVSPost2010PropOp38
 70
     1
102
RTVSPost2010Prop39
140
1.0
102
RTVSPost2010PropOp39
 70
     1
102
RTVSPost2010Prop40
 90
        0
102
RTVSPost2010PropOp40
 70
     1
102
RTVSPost2010Prop41ColorIndex
 90
       18
102
RTVSPost2010Prop41ColorRGB
 90
        0
102
RTVSPost2010PropOp41
 70
     1
102
RTVSPost2010Prop42
 90
       50
102
RTVSPost2010PropOp42
 70
     1
102
RTVSPost2010Prop43
 90
        3
102
RTVSPost2010PropOp43
 70
     1
102
RTVSPost2010Prop44ColorIndex
 90
        5
102
RTVSPost2010Prop44ColorRGB
 90
      255
102
RTVSPost2010PropOp44
 70
     1
102
RTVSPost2010Prop45
280
     0
102
RTVSPost2010PropOp45
 70
     1
102
RTVSPost2010Prop46
 90
       50
102
RTVSPost2010PropOp46
 70
     1
102
RTVSPost2010Prop47
 90
       50
102
RTVSPost2010PropOp47
 70
     1
102
RTVSPost2010Prop48
 90
       50
102
RTVSPost2010PropOp48
 70
     1
102
RTVSPost2010Prop49
280
     0
102
RTVSPost2010PropOp49
 70
     1
102
RTVSPost2010Prop50
 90
       50
102
RTVSPost2010PropOp50
 70
     1
102
RTVSPost2010Prop51ColorIndex
 90
      256
102
RTVSPost2010Prop51ColorRGB
 90
-16777216
102
RTVSPost2010PropOp51
 70
     0
102
RTVSPost2010Prop52
140
1.0
102
RTVSPost2010PropOp52
 70
     0
102
RTVSPost2010Prop53
 90
        2
102
RTVSPost2010PropOp53
 70
     1
102
RTVSPost2010Prop54
  1
strokes_ogs.tif
102
RTVSPost2010PropOp54
 70
     1
102
RTVSPost2010Prop55
280
     0
102
RTVSPost2010PropOp55
 70
     1
102
RTVSPost2010Prop56
140
1.0
102
RTVSPost2010PropOp56
 70
     1
102
RTVSPost2010Prop57
140
1.0
102
RTVSPost2010PropOp57
 70
     1
102
RTVSPropertyOp0
 70
     1
102
RTVSPropertyOp1
 70
     1
102
RTVSPropertyOp2
 70
     1
102
RTVSPropertyOp3
 70
     1
102
RTVSPropertyOp4
 70
     1
102
RTVSPropertyOp5
 70
     1
102
RTVSPropertyOp6
 70
     1
102
RTVSPropertyOp7
 70
     1
102
RTVSPropertyOp8
 70
     1
102
RTVSPropertyOp9
 70
     1
102
RTVSPropertyOp10
 70
     1
102
RTVSPropertyOp11
 70
     1
102
RTVSPropertyOp12
 70
     1
102
RTVSPropertyOp13
 70
     1
102
RTVSPropertyOp14
 70
     1
102
RTVSPropertyOp15
 70
     1
102
RTVSPropertyOp16
 70
     1
102
RTVSPropertyOp17
 70
     1
102
RTVSPropertyOp18
 70
     1
102
RTVSPropertyOp19
 70
     1
102
RTVSPropertyOp20
 70
     1
102
RTVSPropertyOp21
 70
     1
102
RTVSPropertyOp22
 70
     1
102
RTVSPropertyOp23
 70
     1
102
RTVSPropertyOp24
 70
     1
102
RTVSPropertyOp25
 70
     1
102
RTVSPropertyOp26
 70
     1
102
RTVSPropertyOp27
 70
     1
102
RTVSPropertyOp28
 70
     1
102
RTVSPropertyOp29
 70
     1
102
RTVSPropertyOp30
 70
     1
102
RTVSPropertyOp31
 70
     1
102
RTVSPropertyOp32
 70
     1
102
RTVSPropertyOp33
 70
     1
102
RTVSPropertyOp34
 70
     1
102
RTVSPropertyOp35
 70
     1
102
RTVSPropertyOp36
 70
     1
102
RTVSPropertyOp37
 70
     1
102
RTVSPropertyOp38
 70
     1
102
RTVSPropertyOp39
 70
     1
102
RTVSPropertyOp40
 70
     1
102
RTVSPropertyOp41
 70
     1
102
RTVSPropertyOp42
 70
     1
102
RTVSPropertyOp43
 70
     1
102
RTVSPropertyOp44
 70
     1
102
RTVSPropertyOp45
 70
     1
102
RTVSPropertyOp46
 70
     1
102
RTVSPropertyOp47
 70
     1
102
RTVSPropertyOp48
 70
     1
102
RTVSPropertyOp49
 70
     1
102
RTVSPropertyOp50
 70
     1
102
RTVSPropertyOp51
 70
     0
102
RTVSPropertyOp52
 70
     0
102
RTVSPropertyOp53
 70
     1
102
RTVSPropertyOp54
 70
     1
102
RTVSPropertyOp55
 70
     1
102
RTVSPropertyOp56
 70
     1
102
RTVSPropertyOp57
 70
     1
102
RTVSPropertyOp58
 70
     1
102
RTVSPropertyOp59
 70
     1
102
RTVSPropertyOp60
 70
     1
102
RTVSPropertyOp61
 70
     1
102
RTVSPropertyOp62
 70
     1
  0
XRECORD
  5
9B8
102
{ACAD_REACTORS
330
9B7
102
}
330
9B7
100
AcDbXrecord
280
     1
102
RTVSPost2010Prop28
280
     0
102
RTVSPost2010PropOp28
 70
     1
102
RTVSPost2010Prop29
280
     1
102
RTVSPost2010PropOp29
 70
     1
102
RTVSPost2010Prop30
280
     1
102
RTVSPost2010PropOp30
 70
     1
102
RTVSPost2010Prop31
280
     0
102
RTVSPost2010PropOp31
 70
     1
102
RTVSPost2010Prop32
280
     0
102
RTVSPost2010PropOp32
 70
     1
102
RTVSPost2010Prop33
280
     0
102
RTVSPost2010PropOp33
 70
     1
102
RTVSPost2010Prop34
280
     0
102
RTVSPost2010PropOp34
 70
     1
102
RTVSPost2010Prop35
280
     0
102
RTVSPost2010PropOp35
 70
     1
102
RTVSPost2010Prop36
280
     0
102
RTVSPost2010PropOp36
 70
     1
102
RTVSPost2010Prop37
 90
       50
102
RTVSPost2010PropOp37
 70
     1
102
RTVSPost2010Prop38
140
0.0
102
RTVSPost2010PropOp38
 70
     1
102
RTVSPost2010Prop39
140
1.0
102
RTVSPost2010PropOp39
 70
     1
102
RTVSPost2010Prop40
 90
        0
102
RTVSPost2010PropOp40
 70
     1
102
RTVSPost2010Prop41ColorIndex
 90
       18
102
RTVSPost2010Prop41ColorRGB
 90
        0
102
RTVSPost2010PropOp41
 70
     1
102
RTVSPost2010Prop42
 90
       50
102
RTVSPost2010PropOp42
 70
     1
102
RTVSPost2010Prop43
 90
        3
102
RTVSPost2010PropOp43
 70
     1
102
RTVSPost2010Prop44ColorIndex
 90
        5
102
RTVSPost2010Prop44ColorRGB
 90
      255
102
RTVSPost2010PropOp44
 70
     1
102
RTVSPost2010Prop45
280
     0
102
RTVSPost2010PropOp45
 70
     1
102
RTVSPost2010Prop46
 90
       50
102
RTVSPost2010PropOp46
 70
     1
102
RTVSPost2010Prop47
 90
       50
102
RTVSPost2010PropOp47
 70
     1
102
RTVSPost2010Prop48
 90
       50
102
RTVSPost2010PropOp48
 70
     1
102
RTVSPost2010Prop49
280
     0
102
RTVSPost2010PropOp49
 70
     1
102
RTVSPost2010Prop50
 90
       50
102
RTVSPost2010PropOp50
 70
     1
102
RTVSPost2010Prop51ColorIndex
 90
      256
102
RTVSPost2010Prop51ColorRGB
 90
-16777216
102
RTVSPost2010PropOp51
 70
     0
102
RTVSPost2010Prop52
140
1.0
102
RTVSPost2010PropOp52
 70
     0
102
RTVSPost2010Prop53
 90
        2
102
RTVSPost2010PropOp53
 70
     1
102
RTVSPost2010Prop54
  1
strokes_ogs.tif
102
RTVSPost2010PropOp54
 70
     1
102
RTVSPost2010Prop55
280
     0
102
RTVSPost2010PropOp55
 70
     1
102
RTVSPost2010Prop56
140
1.0
102
RTVSPost2010PropOp56
 70
     1
102
RTVSPost2010Prop57
140
1.0
102
RTVSPost2010PropOp57
 70
     1
102
RTVSPropertyOp0
 70
     1
102
RTVSPropertyOp1
 70
     1
102
RTVSPropertyOp2
 70
     1
102
RTVSPropertyOp3
 70
     1
102
RTVSPropertyOp4
 70
     1
102
RTVSPropertyOp5
 70
     1
102
RTVSPropertyOp6
 70
     1
102
RTVSPropertyOp7
 70
     1
102
RTVSPropertyOp8
 70
     1
102
RTVSPropertyOp9
 70
     1
102
RTVSPropertyOp10
 70
     1
102
RTVSPropertyOp11
 70
     1
102
RTVSPropertyOp12
 70
     1
102
RTVSPropertyOp13
 70
     1
102
RTVSPropertyOp14
 70
     1
102
RTVSPropertyOp15
 70
     1
102
RTVSPropertyOp16
 70
     1
102
RTVSPropertyOp17
 70
     1
102
RTVSPropertyOp18
 70
     1
102
RTVSPropertyOp19
 70
     1
102
RTVSPropertyOp20
 70
     1
102
RTVSPropertyOp21
 70
     1
102
RTVSPropertyOp22
 70
     1
102
RTVSPropertyOp23
 70
     1
102
RTVSPropertyOp24
 70
     1
102
RTVSPropertyOp25
 70
     1
102
RTVSPropertyOp26
 70
     1
102
RTVSPropertyOp27
 70
     1
102
RTVSPropertyOp28
 70
     1
102
RTVSPropertyOp29
 70
     1
102
RTVSPropertyOp30
 70
     1
102
RTVSPropertyOp31
 70
     1
102
RTVSPropertyOp32
 70
     1
102
RTVSPropertyOp33
 70
     1
102
RTVSPropertyOp34
 70
     1
102
RTVSPropertyOp35
 70
     1
102
RTVSPropertyOp36
 70
     1
102
RTVSPropertyOp37
 70
     1
102
RTVSPropertyOp38
 70
     1
102
RTVSPropertyOp39
 70
     1
102
RTVSPropertyOp40
 70
     1
102
RTVSPropertyOp41
 70
     1
102
RTVSPropertyOp42
 70
     1
102
RTVSPropertyOp43
 70
     1
102
RTVSPropertyOp44
 70
     1
102
RTVSPropertyOp45
 70
     1
102
RTVSPropertyOp46
 70
     1
102
RTVSPropertyOp47
 70
     1
102
RTVSPropertyOp48
 70
     1
102
RTVSPropertyOp49
 70
     1
102
RTVSPropertyOp50
 70
     1
102
RTVSPropertyOp51
 70
     0
102
RTVSPropertyOp52
 70
     0
102
RTVSPropertyOp53
 70
     1
102
RTVSPropertyOp54
 70
     1
102
RTVSPropertyOp55
 70
     1
102
RTVSPropertyOp56
 70
     1
102
RTVSPropertyOp57
 70
     1
102
RTVSPropertyOp58
 70
     1
102
RTVSPropertyOp59
 70
     1
102
RTVSPropertyOp60
 70
     1
102
RTVSPropertyOp61
 70
     1
102
RTVSPropertyOp62
 70
     1
  0
XRECORD
  5
9D4
102
{ACAD_REACTORS
330
9D3
102
}
330
9D3
100
AcDbXrecord
280
     1
102
RTVSPost2010Prop28
280
     0
102
RTVSPost2010PropOp28
 70
     1
102
RTVSPost2010Prop29
280
     1
102
RTVSPost2010PropOp29
 70
     1
102
RTVSPost2010Prop30
280
     1
102
RTVSPost2010PropOp30
 70
     1
102
RTVSPost2010Prop31
280
     0
102
RTVSPost2010PropOp31
 70
     1
102
RTVSPost2010Prop32
280
     0
102
RTVSPost2010PropOp32
 70
     1
102
RTVSPost2010Prop33
280
     0
102
RTVSPost2010PropOp33
 70
     1
102
RTVSPost2010Prop34
280
     0
102
RTVSPost2010PropOp34
 70
     1
102
RTVSPost2010Prop35
280
     0
102
RTVSPost2010PropOp35
 70
     1
102
RTVSPost2010Prop36
280
     0
102
RTVSPost2010PropOp36
 70
     1
102
RTVSPost2010Prop37
 90
       50
102
RTVSPost2010PropOp37
 70
     0
102
RTVSPost2010Prop38
140
0.0
102
RTVSPost2010PropOp38
 70
     0
102
RTVSPost2010Prop39
140
1.0
102
RTVSPost2010PropOp39
 70
     0
102
RTVSPost2010Prop40
 90
        0
102
RTVSPost2010PropOp40
 70
     0
102
RTVSPost2010Prop41ColorIndex
 90
       18
102
RTVSPost2010Prop41ColorRGB
 90
        0
102
RTVSPost2010PropOp41
 70
     0
102
RTVSPost2010Prop42
 90
       50
102
RTVSPost2010PropOp42
 70
     0
102
RTVSPost2010Prop43
 90
        3
102
RTVSPost2010PropOp43
 70
     0
102
RTVSPost2010Prop44ColorIndex
 90
        5
102
RTVSPost2010Prop44ColorRGB
 90
      255
102
RTVSPost2010PropOp44
 70
     0
102
RTVSPost2010Prop45
280
     0
102
RTVSPost2010PropOp45
 70
     1
102
RTVSPost2010Prop46
 90
       50
102
RTVSPost2010PropOp46
 70
     0
102
RTVSPost2010Prop47
 90
       50
102
RTVSPost2010PropOp47
 70
     0
102
RTVSPost2010Prop48
 90
       50
102
RTVSPost2010PropOp48
 70
     0
102
RTVSPost2010Prop49
280
     0
102
RTVSPost2010PropOp49
 70
     1
102
RTVSPost2010Prop50
 90
       50
102
RTVSPost2010PropOp50
 70
     0
102
RTVSPost2010Prop51ColorIndex
 90
      256
102
RTVSPost2010Prop51ColorRGB
 90
-16777216
102
RTVSPost2010PropOp51
 70
     0
102
RTVSPost2010Prop52
140
1.0
102
RTVSPost2010PropOp52
 70
     0
102
RTVSPost2010Prop53
 90
        2
102
RTVSPost2010PropOp53
 70
     0
102
RTVSPost2010Prop54
  1
strokes_ogs.tif
102
RTVSPost2010PropOp54
 70
     0
102
RTVSPost2010Prop55
280
     0
102
RTVSPost2010PropOp55
 70
     1
102
RTVSPost2010Prop56
140
1.0
102
RTVSPost2010PropOp56
 70
     0
102
RTVSPost2010Prop57
140
1.0
102
RTVSPost2010PropOp57
 70
     0
102
RTVSPropertyOp0
 70
     0
102
RTVSPropertyOp1
 70
     0
102
RTVSPropertyOp2
 70
     0
102
RTVSPropertyOp3
 70
     0
102
RTVSPropertyOp4
 70
     0
102
RTVSPropertyOp5
 70
     0
102
RTVSPropertyOp6
 70
     0
102
RTVSPropertyOp7
 70
     0
102
RTVSPropertyOp8
 70
     0
102
RTVSPropertyOp9
 70
     0
102
RTVSPropertyOp10
 70
     0
102
RTVSPropertyOp11
 70
     0
102
RTVSPropertyOp12
 70
     0
102
RTVSPropertyOp13
 70
     0
102
RTVSPropertyOp14
 70
     2
102
RTVSPropertyOp15
 70
     0
102
RTVSPropertyOp16
 70
     0
102
RTVSPropertyOp17
 70
     0
102
RTVSPropertyOp18
 70
     0
102
RTVSPropertyOp19
 70
     0
102
RTVSPropertyOp20
 70
     0
102
RTVSPropertyOp21
 70
     0
102
RTVSPropertyOp22
 70
     0
102
RTVSPropertyOp23
 70
     0
102
RTVSPropertyOp24
 70
     0
102
RTVSPropertyOp25
 70
     0
102
RTVSPropertyOp26
 70
     0
102
RTVSPropertyOp27
 70
     0
102
RTVSPropertyOp28
 70
     1
102
RTVSPropertyOp29
 70
     1
102
RTVSPropertyOp30
 70
     1
102
RTVSPropertyOp31
 70
     1
102
RTVSPropertyOp32
 70
     1
102
RTVSPropertyOp33
 70
     1
102
RTVSPropertyOp34
 70
     1
102
RTVSPropertyOp35
 70
     1
102
RTVSPropertyOp36
 70
     1
102
RTVSPropertyOp37
 70
     0
102
RTVSPropertyOp38
 70
     0
102
RTVSPropertyOp39
 70
     0
102
RTVSPropertyOp40
 70
     0
102
RTVSPropertyOp41
 70
     0
102
RTVSPropertyOp42
 70
     0
102
RTVSPropertyOp43
 70
     0
102
RTVSPropertyOp44
 70
     0
102
RTVSPropertyOp45
 70
     1
102
RTVSPropertyOp46
 70
     0
102
RTVSPropertyOp47
 70
     0
102
RTVSPropertyOp48
 70
     0
102
RTVSPropertyOp49
 70
     1
102
RTVSPropertyOp50
 70
     0
102
RTVSPropertyOp51
 70
     0
102
RTVSPropertyOp52
 70
     0
102
RTVSPropertyOp53
 70
     0
102
RTVSPropertyOp54
 70
     0
102
RTVSPropertyOp55
 70
     1
102
RTVSPropertyOp56
 70
     0
102
RTVSPropertyOp57
 70
     0
102
RTVSPropertyOp58
 70
     0
102
RTVSPropertyOp59
 70
     0
102
RTVSPropertyOp60
 70
     0
102
RTVSPropertyOp61
 70
     0
102
RTVSPropertyOp62
 70
     0
  0
XRECORD
  5
9C4
102
{ACAD_REACTORS
330
9C3
102
}
330
9C3
100
AcDbXrecord
280
     1
102
RTVSPost2010Prop28
280
     0
102
RTVSPost2010PropOp28
 70
     1
102
RTVSPost2010Prop29
280
     1
102
RTVSPost2010PropOp29
 70
     1
102
RTVSPost2010Prop30
280
     1
102
RTVSPost2010PropOp30
 70
     1
102
RTVSPost2010Prop31
280
     0
102
RTVSPost2010PropOp31
 70
     1
102
RTVSPost2010Prop32
280
     0
102
RTVSPost2010PropOp32
 70
     1
102
RTVSPost2010Prop33
280
     0
102
RTVSPost2010PropOp33
 70
     1
102
RTVSPost2010Prop34
280
     0
102
RTVSPost2010PropOp34
 70
     1
102
RTVSPost2010Prop35
280
     0
102
RTVSPost2010PropOp35
 70
     1
102
RTVSPost2010Prop36
280
     0
102
RTVSPost2010PropOp36
 70
     1
102
RTVSPost2010Prop37
 90
       50
102
RTVSPost2010PropOp37
 70
     1
102
RTVSPost2010Prop38
140
0.0
102
RTVSPost2010PropOp38
 70
     1
102
RTVSPost2010Prop39
140
1.0
102
RTVSPost2010PropOp39
 70
     1
102
RTVSPost2010Prop40
 90
        0
102
RTVSPost2010PropOp40
 70
     1
102
RTVSPost2010Prop41ColorIndex
 90
       18
102
RTVSPost2010Prop41ColorRGB
 90
        0
102
RTVSPost2010PropOp41
 70
     1
102
RTVSPost2010Prop42
 90
       50
102
RTVSPost2010PropOp42
 70
     1
102
RTVSPost2010Prop43
 90
        3
102
RTVSPost2010PropOp43
 70
     1
102
RTVSPost2010Prop44ColorIndex
 90
        5
102
RTVSPost2010Prop44ColorRGB
 90
      255
102
RTVSPost2010PropOp44
 70
     1
102
RTVSPost2010Prop45
280
     0
102
RTVSPost2010PropOp45
 70
     1
102
RTVSPost2010Prop46
 90
       50
102
RTVSPost2010PropOp46
 70
     1
102
RTVSPost2010Prop47
 90
       50
102
RTVSPost2010PropOp47
 70
     1
102
RTVSPost2010Prop48
 90
       50
102
RTVSPost2010PropOp48
 70
     1
102
RTVSPost2010Prop49
280
     0
102
RTVSPost2010PropOp49
 70
     1
102
RTVSPost2010Prop50
 90
       50
102
RTVSPost2010PropOp50
 70
     1
102
RTVSPost2010Prop51ColorIndex
 90
      256
102
RTVSPost2010Prop51ColorRGB
 90
-16777216
102
RTVSPost2010PropOp51
 70
     0
102
RTVSPost2010Prop52
140
1.0
102
RTVSPost2010PropOp52
 70
     0
102
RTVSPost2010Prop53
 90
        2
102
RTVSPost2010PropOp53
 70
     1
102
RTVSPost2010Prop54
  1
strokes_ogs.tif
102
RTVSPost2010PropOp54
 70
     1
102
RTVSPost2010Prop55
280
     0
102
RTVSPost2010PropOp55
 70
     1
102
RTVSPost2010Prop56
140
1.0
102
RTVSPost2010PropOp56
 70
     1
102
RTVSPost2010Prop57
140
1.0
102
RTVSPost2010PropOp57
 70
     1
102
RTVSPropertyOp0
 70
     1
102
RTVSPropertyOp1
 70
     1
102
RTVSPropertyOp2
 70
     1
102
RTVSPropertyOp3
 70
     1
102
RTVSPropertyOp4
 70
     1
102
RTVSPropertyOp5
 70
     1
102
RTVSPropertyOp6
 70
     1
102
RTVSPropertyOp7
 70
     1
102
RTVSPropertyOp8
 70
     1
102
RTVSPropertyOp9
 70
     1
102
RTVSPropertyOp10
 70
     1
102
RTVSPropertyOp11
 70
     1
102
RTVSPropertyOp12
 70
     1
102
RTVSPropertyOp13
 70
     1
102
RTVSPropertyOp14
 70
     1
102
RTVSPropertyOp15
 70
     1
102
RTVSPropertyOp16
 70
     1
102
RTVSPropertyOp17
 70
     1
102
RTVSPropertyOp18
 70
     1
102
RTVSPropertyOp19
 70
     1
102
RTVSPropertyOp20
 70
     1
102
RTVSPropertyOp21
 70
     1
102
RTVSPropertyOp22
 70
     1
102
RTVSPropertyOp23
 70
     1
102
RTVSPropertyOp24
 70
     1
102
RTVSPropertyOp25
 70
     1
102
RTVSPropertyOp26
 70
     1
102
RTVSPropertyOp27
 70
     1
102
RTVSPropertyOp28
 70
     1
102
RTVSPropertyOp29
 70
     1
102
RTVSPropertyOp30
 70
     1
102
RTVSPropertyOp31
 70
     1
102
RTVSPropertyOp32
 70
     1
102
RTVSPropertyOp33
 70
     1
102
RTVSPropertyOp34
 70
     1
102
RTVSPropertyOp35
 70
     1
102
RTVSPropertyOp36
 70
     1
102
RTVSPropertyOp37
 70
     1
102
RTVSPropertyOp38
 70
     1
102
RTVSPropertyOp39
 70
     1
102
RTVSPropertyOp40
 70
     1
102
RTVSPropertyOp41
 70
     1
102
RTVSPropertyOp42
 70
     1
102
RTVSPropertyOp43
 70
     1
102
RTVSPropertyOp44
 70
     1
102
RTVSPropertyOp45
 70
     1
102
RTVSPropertyOp46
 70
     1
102
RTVSPropertyOp47
 70
     1
102
RTVSPropertyOp48
 70
     1
102
RTVSPropertyOp49
 70
     1
102
RTVSPropertyOp50
 70
     1
102
RTVSPropertyOp51
 70
     0
102
RTVSPropertyOp52
 70
     0
102
RTVSPropertyOp53
 70
     1
102
RTVSPropertyOp54
 70
     1
102
RTVSPropertyOp55
 70
     1
102
RTVSPropertyOp56
 70
     1
102
RTVSPropertyOp57
 70
     1
102
RTVSPropertyOp58
 70
     1
102
RTVSPropertyOp59
 70
     1
102
RTVSPropertyOp60
 70
     1
102
RTVSPropertyOp61
 70
     1
102
RTVSPropertyOp62
 70
     1
  0
XRECORD
  5
9D6
102
{ACAD_REACTORS
330
9D5
102
}
330
9D5
100
AcDbXrecord
280
     1
102
RTVSPost2010Prop28
280
     0
102
RTVSPost2010PropOp28
 70
     1
102
RTVSPost2010Prop29
280
     1
102
RTVSPost2010PropOp29
 70
     1
102
RTVSPost2010Prop30
280
     1
102
RTVSPost2010PropOp30
 70
     1
102
RTVSPost2010Prop31
280
     0
102
RTVSPost2010PropOp31
 70
     1
102
RTVSPost2010Prop32
280
     0
102
RTVSPost2010PropOp32
 70
     1
102
RTVSPost2010Prop33
280
     0
102
RTVSPost2010PropOp33
 70
     1
102
RTVSPost2010Prop34
280
     0
102
RTVSPost2010PropOp34
 70
     1
102
RTVSPost2010Prop35
280
     0
102
RTVSPost2010PropOp35
 70
     1
102
RTVSPost2010Prop36
280
     0
102
RTVSPost2010PropOp36
 70
     1
102
RTVSPost2010Prop37
 90
       50
102
RTVSPost2010PropOp37
 70
     0
102
RTVSPost2010Prop38
140
0.0
102
RTVSPost2010PropOp38
 70
     0
102
RTVSPost2010Prop39
140
1.0
102
RTVSPost2010PropOp39
 70
     0
102
RTVSPost2010Prop40
 90
        0
102
RTVSPost2010PropOp40
 70
     0
102
RTVSPost2010Prop41ColorIndex
 90
       18
102
RTVSPost2010Prop41ColorRGB
 90
        0
102
RTVSPost2010PropOp41
 70
     0
102
RTVSPost2010Prop42
 90
       50
102
RTVSPost2010PropOp42
 70
     0
102
RTVSPost2010Prop43
 90
        3
102
RTVSPost2010PropOp43
 70
     0
102
RTVSPost2010Prop44ColorIndex
 90
        5
102
RTVSPost2010Prop44ColorRGB
 90
      255
102
RTVSPost2010PropOp44
 70
     0
102
RTVSPost2010Prop45
280
     0
102
RTVSPost2010PropOp45
 70
     1
102
RTVSPost2010Prop46
 90
       50
102
RTVSPost2010PropOp46
 70
     0
102
RTVSPost2010Prop47
 90
       50
102
RTVSPost2010PropOp47
 70
     0
102
RTVSPost2010Prop48
 90
       50
102
RTVSPost2010PropOp48
 70
     0
102
RTVSPost2010Prop49
280
     0
102
RTVSPost2010PropOp49
 70
     1
102
RTVSPost2010Prop50
 90
       50
102
RTVSPost2010PropOp50
 70
     0
102
RTVSPost2010Prop51ColorIndex
 90
      256
102
RTVSPost2010Prop51ColorRGB
 90
-16777216
102
RTVSPost2010PropOp51
 70
     0
102
RTVSPost2010Prop52
140
1.0
102
RTVSPost2010PropOp52
 70
     0
102
RTVSPost2010Prop53
 90
        2
102
RTVSPost2010PropOp53
 70
     0
102
RTVSPost2010Prop54
  1
strokes_ogs.tif
102
RTVSPost2010PropOp54
 70
     0
102
RTVSPost2010Prop55
280
     0
102
RTVSPost2010PropOp55
 70
     1
102
RTVSPost2010Prop56
140
1.0
102
RTVSPost2010PropOp56
 70
     0
102
RTVSPost2010Prop57
140
1.0
102
RTVSPost2010PropOp57
 70
     0
102
RTVSPropertyOp0
 70
     0
102
RTVSPropertyOp1
 70
     0
102
RTVSPropertyOp2
 70
     0
102
RTVSPropertyOp3
 70
     0
102
RTVSPropertyOp4
 70
     0
102
RTVSPropertyOp5
 70
     0
102
RTVSPropertyOp6
 70
     0
102
RTVSPropertyOp7
 70
     0
102
RTVSPropertyOp8
 70
     0
102
RTVSPropertyOp9
 70
     0
102
RTVSPropertyOp10
 70
     0
102
RTVSPropertyOp11
 70
     0
102
RTVSPropertyOp12
 70
     0
102
RTVSPropertyOp13
 70
     0
102
RTVSPropertyOp14
 70
     2
102
RTVSPropertyOp15
 70
     0
102
RTVSPropertyOp16
 70
     0
102
RTVSPropertyOp17
 70
     0
102
RTVSPropertyOp18
 70
     0
102
RTVSPropertyOp19
 70
     0
102
RTVSPropertyOp20
 70
     0
102
RTVSPropertyOp21
 70
     0
102
RTVSPropertyOp22
 70
     0
102
RTVSPropertyOp23
 70
     0
102
RTVSPropertyOp24
 70
     0
102
RTVSPropertyOp25
 70
     0
102
RTVSPropertyOp26
 70
     0
102
RTVSPropertyOp27
 70
     0
102
RTVSPropertyOp28
 70
     1
102
RTVSPropertyOp29
 70
     1
102
RTVSPropertyOp30
 70
     1
102
RTVSPropertyOp31
 70
     1
102
RTVSPropertyOp32
 70
     1
102
RTVSPropertyOp33
 70
     1
102
RTVSPropertyOp34
 70
     1
102
RTVSPropertyOp35
 70
     1
102
RTVSPropertyOp36
 70
     1
102
RTVSPropertyOp37
 70
     0
102
RTVSPropertyOp38
 70
     0
102
RTVSPropertyOp39
 70
     0
102
RTVSPropertyOp40
 70
     0
102
RTVSPropertyOp41
 70
     0
102
RTVSPropertyOp42
 70
     0
102
RTVSPropertyOp43
 70
     0
102
RTVSPropertyOp44
 70
     0
102
RTVSPropertyOp45
 70
     1
102
RTVSPropertyOp46
 70
     0
102
RTVSPropertyOp47
 70
     0
102
RTVSPropertyOp48
 70
     0
102
RTVSPropertyOp49
 70
     1
102
RTVSPropertyOp50
 70
     0
102
RTVSPropertyOp51
 70
     0
102
RTVSPropertyOp52
 70
     0
102
RTVSPropertyOp53
 70
     0
102
RTVSPropertyOp54
 70
     0
102
RTVSPropertyOp55
 70
     1
102
RTVSPropertyOp56
 70
     0
102
RTVSPropertyOp57
 70
     0
102
RTVSPropertyOp58
 70
     0
102
RTVSPropertyOp59
 70
     0
102
RTVSPropertyOp60
 70
     0
102
RTVSPropertyOp61
 70
     0
102
RTVSPropertyOp62
 70
     0
  0
XRECORD
  5
9BC
102
{ACAD_REACTORS
330
9BB
102
}
330
9BB
100
AcDbXrecord
280
     1
102
RTVSPost2010Prop28
280
     0
102
RTVSPost2010PropOp28
 70
     1
102
RTVSPost2010Prop29
280
     1
102
RTVSPost2010PropOp29
 70
     1
102
RTVSPost2010Prop30
280
     1
102
RTVSPost2010PropOp30
 70
     1
102
RTVSPost2010Prop31
280
     0
102
RTVSPost2010PropOp31
 70
     1
102
RTVSPost2010Prop32
280
     0
102
RTVSPost2010PropOp32
 70
     1
102
RTVSPost2010Prop33
280
     0
102
RTVSPost2010PropOp33
 70
     1
102
RTVSPost2010Prop34
280
     0
102
RTVSPost2010PropOp34
 70
     1
102
RTVSPost2010Prop35
280
     0
102
RTVSPost2010PropOp35
 70
     1
102
RTVSPost2010Prop36
280
     0
102
RTVSPost2010PropOp36
 70
     1
102
RTVSPost2010Prop37
 90
       50
102
RTVSPost2010PropOp37
 70
     1
102
RTVSPost2010Prop38
140
0.0
102
RTVSPost2010PropOp38
 70
     1
102
RTVSPost2010Prop39
140
1.0
102
RTVSPost2010PropOp39
 70
     1
102
RTVSPost2010Prop40
 90
        0
102
RTVSPost2010PropOp40
 70
     1
102
RTVSPost2010Prop41ColorIndex
 90
       18
102
RTVSPost2010Prop41ColorRGB
 90
        0
102
RTVSPost2010PropOp41
 70
     1
102
RTVSPost2010Prop42
 90
       50
102
RTVSPost2010PropOp42
 70
     1
102
RTVSPost2010Prop43
 90
        3
102
RTVSPost2010PropOp43
 70
     1
102
RTVSPost2010Prop44ColorIndex
 90
        5
102
RTVSPost2010Prop44ColorRGB
 90
      255
102
RTVSPost2010PropOp44
 70
     1
102
RTVSPost2010Prop45
280
     0
102
RTVSPost2010PropOp45
 70
     1
102
RTVSPost2010Prop46
 90
       50
102
RTVSPost2010PropOp46
 70
     1
102
RTVSPost2010Prop47
 90
       50
102
RTVSPost2010PropOp47
 70
     1
102
RTVSPost2010Prop48
 90
       50
102
RTVSPost2010PropOp48
 70
     1
102
RTVSPost2010Prop49
280
     0
102
RTVSPost2010PropOp49
 70
     1
102
RTVSPost2010Prop50
 90
       50
102
RTVSPost2010PropOp50
 70
     1
102
RTVSPost2010Prop51ColorIndex
 90
      256
102
RTVSPost2010Prop51ColorRGB
 90
-16777216
102
RTVSPost2010PropOp51
 70
     0
102
RTVSPost2010Prop52
140
1.0
102
RTVSPost2010PropOp52
 70
     0
102
RTVSPost2010Prop53
 90
        2
102
RTVSPost2010PropOp53
 70
     1
102
RTVSPost2010Prop54
  1
strokes_ogs.tif
102
RTVSPost2010PropOp54
 70
     1
102
RTVSPost2010Prop55
280
     0
102
RTVSPost2010PropOp55
 70
     1
102
RTVSPost2010Prop56
140
1.0
102
RTVSPost2010PropOp56
 70
     1
102
RTVSPost2010Prop57
140
1.0
102
RTVSPost2010PropOp57
 70
     1
102
RTVSPropertyOp0
 70
     1
102
RTVSPropertyOp1
 70
     1
102
RTVSPropertyOp2
 70
     1
102
RTVSPropertyOp3
 70
     1
102
RTVSPropertyOp4
 70
     1
102
RTVSPropertyOp5
 70
     1
102
RTVSPropertyOp6
 70
     1
102
RTVSPropertyOp7
 70
     1
102
RTVSPropertyOp8
 70
     1
102
RTVSPropertyOp9
 70
     1
102
RTVSPropertyOp10
 70
     1
102
RTVSPropertyOp11
 70
     1
102
RTVSPropertyOp12
 70
     1
102
RTVSPropertyOp13
 70
     1
102
RTVSPropertyOp14
 70
     1
102
RTVSPropertyOp15
 70
     1
102
RTVSPropertyOp16
 70
     1
102
RTVSPropertyOp17
 70
     1
102
RTVSPropertyOp18
 70
     1
102
RTVSPropertyOp19
 70
     1
102
RTVSPropertyOp20
 70
     1
102
RTVSPropertyOp21
 70
     1
102
RTVSPropertyOp22
 70
     1
102
RTVSPropertyOp23
 70
     1
102
RTVSPropertyOp24
 70
     1
102
RTVSPropertyOp25
 70
     1
102
RTVSPropertyOp26
 70
     1
102
RTVSPropertyOp27
 70
     1
102
RTVSPropertyOp28
 70
     1
102
RTVSPropertyOp29
 70
     1
102
RTVSPropertyOp30
 70
     1
102
RTVSPropertyOp31
 70
     1
102
RTVSPropertyOp32
 70
     1
102
RTVSPropertyOp33
 70
     1
102
RTVSPropertyOp34
 70
     1
102
RTVSPropertyOp35
 70
     1
102
RTVSPropertyOp36
 70
     1
102
RTVSPropertyOp37
 70
     1
102
RTVSPropertyOp38
 70
     1
102
RTVSPropertyOp39
 70
     1
102
RTVSPropertyOp40
 70
     1
102
RTVSPropertyOp41
 70
     1
102
RTVSPropertyOp42
 70
     1
102
RTVSPropertyOp43
 70
     1
102
RTVSPropertyOp44
 70
     1
102
RTVSPropertyOp45
 70
     1
102
RTVSPropertyOp46
 70
     1
102
RTVSPropertyOp47
 70
     1
102
RTVSPropertyOp48
 70
     1
102
RTVSPropertyOp49
 70
     1
102
RTVSPropertyOp50
 70
     1
102
RTVSPropertyOp51
 70
     0
102
RTVSPropertyOp52
 70
     0
102
RTVSPropertyOp53
 70
     1
102
RTVSPropertyOp54
 70
     1
102
RTVSPropertyOp55
 70
     1
102
RTVSPropertyOp56
 70
     1
102
RTVSPropertyOp57
 70
     1
102
RTVSPropertyOp58
 70
     1
102
RTVSPropertyOp59
 70
     1
102
RTVSPropertyOp60
 70
     1
102
RTVSPropertyOp61
 70
     1
102
RTVSPropertyOp62
 70
     1
  0
XRECORD
  5
9D2
102
{ACAD_REACTORS
330
9D1
102
}
330
9D1
100
AcDbXrecord
280
     1
102
RTVSPost2010Prop28
280
     0
102
RTVSPost2010PropOp28
 70
     1
102
RTVSPost2010Prop29
280
     1
102
RTVSPost2010PropOp29
 70
     1
102
RTVSPost2010Prop30
280
     1
102
RTVSPost2010PropOp30
 70
     1
102
RTVSPost2010Prop31
280
     0
102
RTVSPost2010PropOp31
 70
     1
102
RTVSPost2010Prop32
280
     0
102
RTVSPost2010PropOp32
 70
     1
102
RTVSPost2010Prop33
280
     0
102
RTVSPost2010PropOp33
 70
     1
102
RTVSPost2010Prop34
280
     0
102
RTVSPost2010PropOp34
 70
     1
102
RTVSPost2010Prop35
280
     0
102
RTVSPost2010PropOp35
 70
     1
102
RTVSPost2010Prop36
280
     0
102
RTVSPost2010PropOp36
 70
     1
102
RTVSPost2010Prop37
 90
       50
102
RTVSPost2010PropOp37
 70
     1
102
RTVSPost2010Prop38
140
0.0
102
RTVSPost2010PropOp38
 70
     1
102
RTVSPost2010Prop39
140
1.0
102
RTVSPost2010PropOp39
 70
     1
102
RTVSPost2010Prop40
 90
        0
102
RTVSPost2010PropOp40
 70
     1
102
RTVSPost2010Prop41ColorIndex
 90
       18
102
RTVSPost2010Prop41ColorRGB
 90
        0
102
RTVSPost2010PropOp41
 70
     1
102
RTVSPost2010Prop42
 90
       50
102
RTVSPost2010PropOp42
 70
     1
102
RTVSPost2010Prop43
 90
        3
102
RTVSPost2010PropOp43
 70
     1
102
RTVSPost2010Prop44ColorIndex
 90
        5
102
RTVSPost2010Prop44ColorRGB
 90
      255
102
RTVSPost2010PropOp44
 70
     1
102
RTVSPost2010Prop45
280
     0
102
RTVSPost2010PropOp45
 70
     1
102
RTVSPost2010Prop46
 90
       50
102
RTVSPost2010PropOp46
 70
     1
102
RTVSPost2010Prop47
 90
       50
102
RTVSPost2010PropOp47
 70
     1
102
RTVSPost2010Prop48
 90
       50
102
RTVSPost2010PropOp48
 70
     1
102
RTVSPost2010Prop49
280
     0
102
RTVSPost2010PropOp49
 70
     1
102
RTVSPost2010Prop50
 90
       50
102
RTVSPost2010PropOp50
 70
     1
102
RTVSPost2010Prop51ColorIndex
 90
      256
102
RTVSPost2010Prop51ColorRGB
 90
-16777216
102
RTVSPost2010PropOp51
 70
     0
102
RTVSPost2010Prop52
140
1.0
102
RTVSPost2010PropOp52
 70
     0
102
RTVSPost2010Prop53
 90
        2
102
RTVSPost2010PropOp53
 70
     1
102
RTVSPost2010Prop54
  1
strokes_ogs.tif
102
RTVSPost2010PropOp54
 70
     1
102
RTVSPost2010Prop55
280
     0
102
RTVSPost2010PropOp55
 70
     1
102
RTVSPost2010Prop56
140
1.0
102
RTVSPost2010PropOp56
 70
     1
102
RTVSPost2010Prop57
140
1.0
102
RTVSPost2010PropOp57
 70
     1
102
RTVSPropertyOp0
 70
     1
102
RTVSPropertyOp1
 70
     1
102
RTVSPropertyOp2
 70
     1
102
RTVSPropertyOp3
 70
     1
102
RTVSPropertyOp4
 70
     1
102
RTVSPropertyOp5
 70
     1
102
RTVSPropertyOp6
 70
     1
102
RTVSPropertyOp7
 70
     1
102
RTVSPropertyOp8
 70
     1
102
RTVSPropertyOp9
 70
     1
102
RTVSPropertyOp10
 70
     1
102
RTVSPropertyOp11
 70
     1
102
RTVSPropertyOp12
 70
     1
102
RTVSPropertyOp13
 70
     1
102
RTVSPropertyOp14
 70
     1
102
RTVSPropertyOp15
 70
     1
102
RTVSPropertyOp16
 70
     1
102
RTVSPropertyOp17
 70
     1
102
RTVSPropertyOp18
 70
     1
102
RTVSPropertyOp19
 70
     1
102
RTVSPropertyOp20
 70
     1
102
RTVSPropertyOp21
 70
     1
102
RTVSPropertyOp22
 70
     1
102
RTVSPropertyOp23
 70
     1
102
RTVSPropertyOp24
 70
     1
102
RTVSPropertyOp25
 70
     1
102
RTVSPropertyOp26
 70
     1
102
RTVSPropertyOp27
 70
     1
102
RTVSPropertyOp28
 70
     1
102
RTVSPropertyOp29
 70
     1
102
RTVSPropertyOp30
 70
     1
102
RTVSPropertyOp31
 70
     1
102
RTVSPropertyOp32
 70
     1
102
RTVSPropertyOp33
 70
     1
102
RTVSPropertyOp34
 70
     1
102
RTVSPropertyOp35
 70
     1
102
RTVSPropertyOp36
 70
     1
102
RTVSPropertyOp37
 70
     1
102
RTVSPropertyOp38
 70
     1
102
RTVSPropertyOp39
 70
     1
102
RTVSPropertyOp40
 70
     1
102
RTVSPropertyOp41
 70
     1
102
RTVSPropertyOp42
 70
     1
102
RTVSPropertyOp43
 70
     1
102
RTVSPropertyOp44
 70
     1
102
RTVSPropertyOp45
 70
     1
102
RTVSPropertyOp46
 70
     1
102
RTVSPropertyOp47
 70
     1
102
RTVSPropertyOp48
 70
     1
102
RTVSPropertyOp49
 70
     1
102
RTVSPropertyOp50
 70
     1
102
RTVSPropertyOp51
 70
     0
102
RTVSPropertyOp52
 70
     0
102
RTVSPropertyOp53
 70
     1
102
RTVSPropertyOp54
 70
     1
102
RTVSPropertyOp55
 70
     1
102
RTVSPropertyOp56
 70
     1
102
RTVSPropertyOp57
 70
     1
102
RTVSPropertyOp58
 70
     1
102
RTVSPropertyOp59
 70
     1
102
RTVSPropertyOp60
 70
     1
102
RTVSPropertyOp61
 70
     1
102
RTVSPropertyOp62
 70
     1
  0
XRECORD
  5
9D0
102
{ACAD_REACTORS
330
9CF
102
}
330
9CF
100
AcDbXrecord
280
     1
102
RTVSPost2010Prop28
280
     0
102
RTVSPost2010PropOp28
 70
     1
102
RTVSPost2010Prop29
280
     1
102
RTVSPost2010PropOp29
 70
     1
102
RTVSPost2010Prop30
280
     1
102
RTVSPost2010PropOp30
 70
     1
102
RTVSPost2010Prop31
280
     0
102
RTVSPost2010PropOp31
 70
     1
102
RTVSPost2010Prop32
280
     0
102
RTVSPost2010PropOp32
 70
     1
102
RTVSPost2010Prop33
280
     0
102
RTVSPost2010PropOp33
 70
     1
102
RTVSPost2010Prop34
280
     0
102
RTVSPost2010PropOp34
 70
     1
102
RTVSPost2010Prop35
280
     0
102
RTVSPost2010PropOp35
 70
     1
102
RTVSPost2010Prop36
280
     0
102
RTVSPost2010PropOp36
 70
     1
102
RTVSPost2010Prop37
 90
       50
102
RTVSPost2010PropOp37
 70
     1
102
RTVSPost2010Prop38
140
0.0
102
RTVSPost2010PropOp38
 70
     1
102
RTVSPost2010Prop39
140
1.0
102
RTVSPost2010PropOp39
 70
     1
102
RTVSPost2010Prop40
 90
        0
102
RTVSPost2010PropOp40
 70
     1
102
RTVSPost2010Prop41ColorIndex
 90
       18
102
RTVSPost2010Prop41ColorRGB
 90
        0
102
RTVSPost2010PropOp41
 70
     1
102
RTVSPost2010Prop42
 90
       50
102
RTVSPost2010PropOp42
 70
     1
102
RTVSPost2010Prop43
 90
        3
102
RTVSPost2010PropOp43
 70
     1
102
RTVSPost2010Prop44ColorIndex
 90
        5
102
RTVSPost2010Prop44ColorRGB
 90
      255
102
RTVSPost2010PropOp44
 70
     1
102
RTVSPost2010Prop45
280
     0
102
RTVSPost2010PropOp45
 70
     1
102
RTVSPost2010Prop46
 90
       50
102
RTVSPost2010PropOp46
 70
     1
102
RTVSPost2010Prop47
 90
       50
102
RTVSPost2010PropOp47
 70
     1
102
RTVSPost2010Prop48
 90
       50
102
RTVSPost2010PropOp48
 70
     1
102
RTVSPost2010Prop49
280
     0
102
RTVSPost2010PropOp49
 70
     1
102
RTVSPost2010Prop50
 90
       50
102
RTVSPost2010PropOp50
 70
     1
102
RTVSPost2010Prop51ColorIndex
 90
      256
102
RTVSPost2010Prop51ColorRGB
 90
-16777216
102
RTVSPost2010PropOp51
 70
     0
102
RTVSPost2010Prop52
140
1.0
102
RTVSPost2010PropOp52
 70
     0
102
RTVSPost2010Prop53
 90
        2
102
RTVSPost2010PropOp53
 70
     1
102
RTVSPost2010Prop54
  1
strokes_ogs.tif
102
RTVSPost2010PropOp54
 70
     1
102
RTVSPost2010Prop55
280
     0
102
RTVSPost2010PropOp55
 70
     1
102
RTVSPost2010Prop56
140
1.0
102
RTVSPost2010PropOp56
 70
     1
102
RTVSPost2010Prop57
140
1.0
102
RTVSPost2010PropOp57
 70
     1
102
RTVSPropertyOp0
 70
     1
102
RTVSPropertyOp1
 70
     1
102
RTVSPropertyOp2
 70
     1
102
RTVSPropertyOp3
 70
     1
102
RTVSPropertyOp4
 70
     1
102
RTVSPropertyOp5
 70
     1
102
RTVSPropertyOp6
 70
     1
102
RTVSPropertyOp7
 70
     1
102
RTVSPropertyOp8
 70
     1
102
RTVSPropertyOp9
 70
     1
102
RTVSPropertyOp10
 70
     1
102
RTVSPropertyOp11
 70
     1
102
RTVSPropertyOp12
 70
     1
102
RTVSPropertyOp13
 70
     1
102
RTVSPropertyOp14
 70
     1
102
RTVSPropertyOp15
 70
     1
102
RTVSPropertyOp16
 70
     1
102
RTVSPropertyOp17
 70
     1
102
RTVSPropertyOp18
 70
     1
102
RTVSPropertyOp19
 70
     1
102
RTVSPropertyOp20
 70
     1
102
RTVSPropertyOp21
 70
     1
102
RTVSPropertyOp22
 70
     1
102
RTVSPropertyOp23
 70
     1
102
RTVSPropertyOp24
 70
     1
102
RTVSPropertyOp25
 70
     1
102
RTVSPropertyOp26
 70
     1
102
RTVSPropertyOp27
 70
     1
102
RTVSPropertyOp28
 70
     1
102
RTVSPropertyOp29
 70
     1
102
RTVSPropertyOp30
 70
     1
102
RTVSPropertyOp31
 70
     1
102
RTVSPropertyOp32
 70
     1
102
RTVSPropertyOp33
 70
     1
102
RTVSPropertyOp34
 70
     1
102
RTVSPropertyOp35
 70
     1
102
RTVSPropertyOp36
 70
     1
102
RTVSPropertyOp37
 70
     1
102
RTVSPropertyOp38
 70
     1
102
RTVSPropertyOp39
 70
     1
102
RTVSPropertyOp40
 70
     1
102
RTVSPropertyOp41
 70
     1
102
RTVSPropertyOp42
 70
     1
102
RTVSPropertyOp43
 70
     1
102
RTVSPropertyOp44
 70
     1
102
RTVSPropertyOp45
 70
     1
102
RTVSPropertyOp46
 70
     1
102
RTVSPropertyOp47
 70
     1
102
RTVSPropertyOp48
 70
     1
102
RTVSPropertyOp49
 70
     1
102
RTVSPropertyOp50
 70
     1
102
RTVSPropertyOp51
 70
     0
102
RTVSPropertyOp52
 70
     0
102
RTVSPropertyOp53
 70
     1
102
RTVSPropertyOp54
 70
     1
102
RTVSPropertyOp55
 70
     1
102
RTVSPropertyOp56
 70
     1
102
RTVSPropertyOp57
 70
     1
102
RTVSPropertyOp58
 70
     1
102
RTVSPropertyOp59
 70
     1
102
RTVSPropertyOp60
 70
     1
102
RTVSPropertyOp61
 70
     1
102
RTVSPropertyOp62
 70
     1
  0
XRECORD
  5
9CA
102
{ACAD_REACTORS
330
9C9
102
}
330
9C9
100
AcDbXrecord
280
     1
102
RTVSPost2010Prop28
280
     0
102
RTVSPost2010PropOp28
 70
     1
102
RTVSPost2010Prop29
280
     1
102
RTVSPost2010PropOp29
 70
     1
102
RTVSPost2010Prop30
280
     1
102
RTVSPost2010PropOp30
 70
     1
102
RTVSPost2010Prop31
280
     0
102
RTVSPost2010PropOp31
 70
     1
102
RTVSPost2010Prop32
280
     0
102
RTVSPost2010PropOp32
 70
     1
102
RTVSPost2010Prop33
280
     0
102
RTVSPost2010PropOp33
 70
     1
102
RTVSPost2010Prop34
280
     0
102
RTVSPost2010PropOp34
 70
     1
102
RTVSPost2010Prop35
280
     0
102
RTVSPost2010PropOp35
 70
     1
102
RTVSPost2010Prop36
280
     0
102
RTVSPost2010PropOp36
 70
     1
102
RTVSPost2010Prop37
 90
       50
102
RTVSPost2010PropOp37
 70
     1
102
RTVSPost2010Prop38
140
0.0
102
RTVSPost2010PropOp38
 70
     1
102
RTVSPost2010Prop39
140
1.0
102
RTVSPost2010PropOp39
 70
     1
102
RTVSPost2010Prop40
 90
        0
102
RTVSPost2010PropOp40
 70
     1
102
RTVSPost2010Prop41ColorIndex
 90
       18
102
RTVSPost2010Prop41ColorRGB
 90
        0
102
RTVSPost2010PropOp41
 70
     1
102
RTVSPost2010Prop42
 90
       50
102
RTVSPost2010PropOp42
 70
     1
102
RTVSPost2010Prop43
 90
        3
102
RTVSPost2010PropOp43
 70
     1
102
RTVSPost2010Prop44ColorIndex
 90
        5
102
RTVSPost2010Prop44ColorRGB
 90
      255
102
RTVSPost2010PropOp44
 70
     1
102
RTVSPost2010Prop45
280
     0
102
RTVSPost2010PropOp45
 70
     1
102
RTVSPost2010Prop46
 90
       50
102
RTVSPost2010PropOp46
 70
     1
102
RTVSPost2010Prop47
 90
       50
102
RTVSPost2010PropOp47
 70
     1
102
RTVSPost2010Prop48
 90
       50
102
RTVSPost2010PropOp48
 70
     1
102
RTVSPost2010Prop49
280
     0
102
RTVSPost2010PropOp49
 70
     1
102
RTVSPost2010Prop50
 90
       50
102
RTVSPost2010PropOp50
 70
     1
102
RTVSPost2010Prop51ColorIndex
 90
      256
102
RTVSPost2010Prop51ColorRGB
 90
-16777216
102
RTVSPost2010PropOp51
 70
     0
102
RTVSPost2010Prop52
140
1.0
102
RTVSPost2010PropOp52
 70
     0
102
RTVSPost2010Prop53
 90
        2
102
RTVSPost2010PropOp53
 70
     1
102
RTVSPost2010Prop54
  1
strokes_ogs.tif
102
RTVSPost2010PropOp54
 70
     1
102
RTVSPost2010Prop55
280
     0
102
RTVSPost2010PropOp55
 70
     1
102
RTVSPost2010Prop56
140
1.0
102
RTVSPost2010PropOp56
 70
     1
102
RTVSPost2010Prop57
140
1.0
102
RTVSPost2010PropOp57
 70
     1
102
RTVSPropertyOp0
 70
     1
102
RTVSPropertyOp1
 70
     1
102
RTVSPropertyOp2
 70
     1
102
RTVSPropertyOp3
 70
     1
102
RTVSPropertyOp4
 70
     1
102
RTVSPropertyOp5
 70
     1
102
RTVSPropertyOp6
 70
     1
102
RTVSPropertyOp7
 70
     1
102
RTVSPropertyOp8
 70
     1
102
RTVSPropertyOp9
 70
     1
102
RTVSPropertyOp10
 70
     1
102
RTVSPropertyOp11
 70
     1
102
RTVSPropertyOp12
 70
     1
102
RTVSPropertyOp13
 70
     1
102
RTVSPropertyOp14
 70
     1
102
RTVSPropertyOp15
 70
     1
102
RTVSPropertyOp16
 70
     1
102
RTVSPropertyOp17
 70
     1
102
RTVSPropertyOp18
 70
     1
102
RTVSPropertyOp19
 70
     1
102
RTVSPropertyOp20
 70
     1
102
RTVSPropertyOp21
 70
     1
102
RTVSPropertyOp22
 70
     1
102
RTVSPropertyOp23
 70
     1
102
RTVSPropertyOp24
 70
     1
102
RTVSPropertyOp25
 70
     1
102
RTVSPropertyOp26
 70
     1
102
RTVSPropertyOp27
 70
     1
102
RTVSPropertyOp28
 70
     1
102
RTVSPropertyOp29
 70
     1
102
RTVSPropertyOp30
 70
     1
102
RTVSPropertyOp31
 70
     1
102
RTVSPropertyOp32
 70
     1
102
RTVSPropertyOp33
 70
     1
102
RTVSPropertyOp34
 70
     1
102
RTVSPropertyOp35
 70
     1
102
RTVSPropertyOp36
 70
     1
102
RTVSPropertyOp37
 70
     1
102
RTVSPropertyOp38
 70
     1
102
RTVSPropertyOp39
 70
     1
102
RTVSPropertyOp40
 70
     1
102
RTVSPropertyOp41
 70
     1
102
RTVSPropertyOp42
 70
     1
102
RTVSPropertyOp43
 70
     1
102
RTVSPropertyOp44
 70
     1
102
RTVSPropertyOp45
 70
     1
102
RTVSPropertyOp46
 70
     1
102
RTVSPropertyOp47
 70
     1
102
RTVSPropertyOp48
 70
     1
102
RTVSPropertyOp49
 70
     1
102
RTVSPropertyOp50
 70
     1
102
RTVSPropertyOp51
 70
     0
102
RTVSPropertyOp52
 70
     0
102
RTVSPropertyOp53
 70
     1
102
RTVSPropertyOp54
 70
     1
102
RTVSPropertyOp55
 70
     1
102
RTVSPropertyOp56
 70
     1
102
RTVSPropertyOp57
 70
     1
102
RTVSPropertyOp58
 70
     1
102
RTVSPropertyOp59
 70
     1
102
RTVSPropertyOp60
 70
     1
102
RTVSPropertyOp61
 70
     1
102
RTVSPropertyOp62
 70
     1
  0
XRECORD
  5
9CC
102
{ACAD_REACTORS
330
9CB
102
}
330
9CB
100
AcDbXrecord
280
     1
102
RTVSPost2010Prop28
280
     0
102
RTVSPost2010PropOp28
 70
     1
102
RTVSPost2010Prop29
280
     1
102
RTVSPost2010PropOp29
 70
     1
102
RTVSPost2010Prop30
280
     1
102
RTVSPost2010PropOp30
 70
     1
102
RTVSPost2010Prop31
280
     0
102
RTVSPost2010PropOp31
 70
     1
102
RTVSPost2010Prop32
280
     0
102
RTVSPost2010PropOp32
 70
     1
102
RTVSPost2010Prop33
280
     0
102
RTVSPost2010PropOp33
 70
     1
102
RTVSPost2010Prop34
280
     0
102
RTVSPost2010PropOp34
 70
     1
102
RTVSPost2010Prop35
280
     0
102
RTVSPost2010PropOp35
 70
     1
102
RTVSPost2010Prop36
280
     0
102
RTVSPost2010PropOp36
 70
     1
102
RTVSPost2010Prop37
 90
       50
102
RTVSPost2010PropOp37
 70
     1
102
RTVSPost2010Prop38
140
0.0
102
RTVSPost2010PropOp38
 70
     1
102
RTVSPost2010Prop39
140
1.0
102
RTVSPost2010PropOp39
 70
     1
102
RTVSPost2010Prop40
 90
        0
102
RTVSPost2010PropOp40
 70
     1
102
RTVSPost2010Prop41ColorIndex
 90
       18
102
RTVSPost2010Prop41ColorRGB
 90
        0
102
RTVSPost2010PropOp41
 70
     1
102
RTVSPost2010Prop42
 90
       50
102
RTVSPost2010PropOp42
 70
     1
102
RTVSPost2010Prop43
 90
        3
102
RTVSPost2010PropOp43
 70
     1
102
RTVSPost2010Prop44ColorIndex
 90
        5
102
RTVSPost2010Prop44ColorRGB
 90
      255
102
RTVSPost2010PropOp44
 70
     1
102
RTVSPost2010Prop45
280
     0
102
RTVSPost2010PropOp45
 70
     1
102
RTVSPost2010Prop46
 90
       50
102
RTVSPost2010PropOp46
 70
     1
102
RTVSPost2010Prop47
 90
       50
102
RTVSPost2010PropOp47
 70
     1
102
RTVSPost2010Prop48
 90
       50
102
RTVSPost2010PropOp48
 70
     1
102
RTVSPost2010Prop49
280
     0
102
RTVSPost2010PropOp49
 70
     1
102
RTVSPost2010Prop50
 90
       50
102
RTVSPost2010PropOp50
 70
     1
102
RTVSPost2010Prop51ColorIndex
 90
      256
102
RTVSPost2010Prop51ColorRGB
 90
-16777216
102
RTVSPost2010PropOp51
 70
     0
102
RTVSPost2010Prop52
140
1.0
102
RTVSPost2010PropOp52
 70
     0
102
RTVSPost2010Prop53
 90
        2
102
RTVSPost2010PropOp53
 70
     1
102
RTVSPost2010Prop54
  1
strokes_ogs.tif
102
RTVSPost2010PropOp54
 70
     1
102
RTVSPost2010Prop55
280
     0
102
RTVSPost2010PropOp55
 70
     1
102
RTVSPost2010Prop56
140
1.0
102
RTVSPost2010PropOp56
 70
     1
102
RTVSPost2010Prop57
140
1.0
102
RTVSPost2010PropOp57
 70
     1
102
RTVSPropertyOp0
 70
     1
102
RTVSPropertyOp1
 70
     1
102
RTVSPropertyOp2
 70
     1
102
RTVSPropertyOp3
 70
     1
102
RTVSPropertyOp4
 70
     1
102
RTVSPropertyOp5
 70
     1
102
RTVSPropertyOp6
 70
     1
102
RTVSPropertyOp7
 70
     1
102
RTVSPropertyOp8
 70
     1
102
RTVSPropertyOp9
 70
     1
102
RTVSPropertyOp10
 70
     1
102
RTVSPropertyOp11
 70
     1
102
RTVSPropertyOp12
 70
     1
102
RTVSPropertyOp13
 70
     1
102
RTVSPropertyOp14
 70
     1
102
RTVSPropertyOp15
 70
     1
102
RTVSPropertyOp16
 70
     1
102
RTVSPropertyOp17
 70
     1
102
RTVSPropertyOp18
 70
     1
102
RTVSPropertyOp19
 70
     1
102
RTVSPropertyOp20
 70
     1
102
RTVSPropertyOp21
 70
     1
102
RTVSPropertyOp22
 70
     1
102
RTVSPropertyOp23
 70
     1
102
RTVSPropertyOp24
 70
     1
102
RTVSPropertyOp25
 70
     1
102
RTVSPropertyOp26
 70
     1
102
RTVSPropertyOp27
 70
     1
102
RTVSPropertyOp28
 70
     1
102
RTVSPropertyOp29
 70
     1
102
RTVSPropertyOp30
 70
     1
102
RTVSPropertyOp31
 70
     1
102
RTVSPropertyOp32
 70
     1
102
RTVSPropertyOp33
 70
     1
102
RTVSPropertyOp34
 70
     1
102
RTVSPropertyOp35
 70
     1
102
RTVSPropertyOp36
 70
     1
102
RTVSPropertyOp37
 70
     1
102
RTVSPropertyOp38
 70
     1
102
RTVSPropertyOp39
 70
     1
102
RTVSPropertyOp40
 70
     1
102
RTVSPropertyOp41
 70
     1
102
RTVSPropertyOp42
 70
     1
102
RTVSPropertyOp43
 70
     1
102
RTVSPropertyOp44
 70
     1
102
RTVSPropertyOp45
 70
     1
102
RTVSPropertyOp46
 70
     1
102
RTVSPropertyOp47
 70
     1
102
RTVSPropertyOp48
 70
     1
102
RTVSPropertyOp49
 70
     1
102
RTVSPropertyOp50
 70
     1
102
RTVSPropertyOp51
 70
     0
102
RTVSPropertyOp52
 70
     0
102
RTVSPropertyOp53
 70
     1
102
RTVSPropertyOp54
 70
     1
102
RTVSPropertyOp55
 70
     1
102
RTVSPropertyOp56
 70
     1
102
RTVSPropertyOp57
 70
     1
102
RTVSPropertyOp58
 70
     1
102
RTVSPropertyOp59
 70
     1
102
RTVSPropertyOp60
 70
     1
102
RTVSPropertyOp61
 70
     1
102
RTVSPropertyOp62
 70
     1
  0
XRECORD
  5
9C2
102
{ACAD_REACTORS
330
9C1
102
}
330
9C1
100
AcDbXrecord
280
     1
102
RTVSPost2010Prop28
280
     0
102
RTVSPost2010PropOp28
 70
     1
102
RTVSPost2010Prop29
280
     1
102
RTVSPost2010PropOp29
 70
     1
102
RTVSPost2010Prop30
280
     1
102
RTVSPost2010PropOp30
 70
     1
102
RTVSPost2010Prop31
280
     0
102
RTVSPost2010PropOp31
 70
     1
102
RTVSPost2010Prop32
280
     0
102
RTVSPost2010PropOp32
 70
     1
102
RTVSPost2010Prop33
280
     0
102
RTVSPost2010PropOp33
 70
     1
102
RTVSPost2010Prop34
280
     0
102
RTVSPost2010PropOp34
 70
     1
102
RTVSPost2010Prop35
280
     0
102
RTVSPost2010PropOp35
 70
     1
102
RTVSPost2010Prop36
280
     0
102
RTVSPost2010PropOp36
 70
     1
102
RTVSPost2010Prop37
 90
       50
102
RTVSPost2010PropOp37
 70
     1
102
RTVSPost2010Prop38
140
0.0
102
RTVSPost2010PropOp38
 70
     1
102
RTVSPost2010Prop39
140
1.0
102
RTVSPost2010PropOp39
 70
     1
102
RTVSPost2010Prop40
 90
        0
102
RTVSPost2010PropOp40
 70
     1
102
RTVSPost2010Prop41ColorIndex
 90
       18
102
RTVSPost2010Prop41ColorRGB
 90
        0
102
RTVSPost2010PropOp41
 70
     1
102
RTVSPost2010Prop42
 90
       50
102
RTVSPost2010PropOp42
 70
     1
102
RTVSPost2010Prop43
 90
        3
102
RTVSPost2010PropOp43
 70
     1
102
RTVSPost2010Prop44ColorIndex
 90
        5
102
RTVSPost2010Prop44ColorRGB
 90
      255
102
RTVSPost2010PropOp44
 70
     1
102
RTVSPost2010Prop45
280
     0
102
RTVSPost2010PropOp45
 70
     1
102
RTVSPost2010Prop46
 90
       50
102
RTVSPost2010PropOp46
 70
     1
102
RTVSPost2010Prop47
 90
       50
102
RTVSPost2010PropOp47
 70
     1
102
RTVSPost2010Prop48
 90
       50
102
RTVSPost2010PropOp48
 70
     1
102
RTVSPost2010Prop49
280
     0
102
RTVSPost2010PropOp49
 70
     1
102
RTVSPost2010Prop50
 90
       50
102
RTVSPost2010PropOp50
 70
     1
102
RTVSPost2010Prop51ColorIndex
 90
      256
102
RTVSPost2010Prop51ColorRGB
 90
-16777216
102
RTVSPost2010PropOp51
 70
     0
102
RTVSPost2010Prop52
140
1.0
102
RTVSPost2010PropOp52
 70
     0
102
RTVSPost2010Prop53
 90
        2
102
RTVSPost2010PropOp53
 70
     1
102
RTVSPost2010Prop54
  1
strokes_ogs.tif
102
RTVSPost2010PropOp54
 70
     1
102
RTVSPost2010Prop55
280
     0
102
RTVSPost2010PropOp55
 70
     1
102
RTVSPost2010Prop56
140
1.0
102
RTVSPost2010PropOp56
 70
     1
102
RTVSPost2010Prop57
140
1.0
102
RTVSPost2010PropOp57
 70
     1
102
RTVSPropertyOp0
 70
     1
102
RTVSPropertyOp1
 70
     1
102
RTVSPropertyOp2
 70
     1
102
RTVSPropertyOp3
 70
     1
102
RTVSPropertyOp4
 70
     1
102
RTVSPropertyOp5
 70
     1
102
RTVSPropertyOp6
 70
     1
102
RTVSPropertyOp7
 70
     1
102
RTVSPropertyOp8
 70
     1
102
RTVSPropertyOp9
 70
     1
102
RTVSPropertyOp10
 70
     1
102
RTVSPropertyOp11
 70
     1
102
RTVSPropertyOp12
 70
     1
102
RTVSPropertyOp13
 70
     1
102
RTVSPropertyOp14
 70
     1
102
RTVSPropertyOp15
 70
     1
102
RTVSPropertyOp16
 70
     1
102
RTVSPropertyOp17
 70
     1
102
RTVSPropertyOp18
 70
     1
102
RTVSPropertyOp19
 70
     1
102
RTVSPropertyOp20
 70
     1
102
RTVSPropertyOp21
 70
     1
102
RTVSPropertyOp22
 70
     1
102
RTVSPropertyOp23
 70
     1
102
RTVSPropertyOp24
 70
     1
102
RTVSPropertyOp25
 70
     1
102
RTVSPropertyOp26
 70
     1
102
RTVSPropertyOp27
 70
     1
102
RTVSPropertyOp28
 70
     1
102
RTVSPropertyOp29
 70
     1
102
RTVSPropertyOp30
 70
     1
102
RTVSPropertyOp31
 70
     1
102
RTVSPropertyOp32
 70
     1
102
RTVSPropertyOp33
 70
     1
102
RTVSPropertyOp34
 70
     1
102
RTVSPropertyOp35
 70
     1
102
RTVSPropertyOp36
 70
     1
102
RTVSPropertyOp37
 70
     1
102
RTVSPropertyOp38
 70
     1
102
RTVSPropertyOp39
 70
     1
102
RTVSPropertyOp40
 70
     1
102
RTVSPropertyOp41
 70
     1
102
RTVSPropertyOp42
 70
     1
102
RTVSPropertyOp43
 70
     1
102
RTVSPropertyOp44
 70
     1
102
RTVSPropertyOp45
 70
     1
102
RTVSPropertyOp46
 70
     1
102
RTVSPropertyOp47
 70
     1
102
RTVSPropertyOp48
 70
     1
102
RTVSPropertyOp49
 70
     1
102
RTVSPropertyOp50
 70
     1
102
RTVSPropertyOp51
 70
     0
102
RTVSPropertyOp52
 70
     0
102
RTVSPropertyOp53
 70
     1
102
RTVSPropertyOp54
 70
     1
102
RTVSPropertyOp55
 70
     1
102
RTVSPropertyOp56
 70
     1
102
RTVSPropertyOp57
 70
     1
102
RTVSPropertyOp58
 70
     1
102
RTVSPropertyOp59
 70
     1
102
RTVSPropertyOp60
 70
     1
102
RTVSPropertyOp61
 70
     1
102
RTVSPropertyOp62
 70
     1
  0
XRECORD
  5
9B6
102
{ACAD_REACTORS
330
9B5
102
}
330
9B5
100
AcDbXrecord
280
     1
102
RTVSPost2010Prop28
280
     0
102
RTVSPost2010PropOp28
 70
     1
102
RTVSPost2010Prop29
280
     1
102
RTVSPost2010PropOp29
 70
     1
102
RTVSPost2010Prop30
280
     1
102
RTVSPost2010PropOp30
 70
     1
102
RTVSPost2010Prop31
280
     0
102
RTVSPost2010PropOp31
 70
     1
102
RTVSPost2010Prop32
280
     0
102
RTVSPost2010PropOp32
 70
     1
102
RTVSPost2010Prop33
280
     0
102
RTVSPost2010PropOp33
 70
     1
102
RTVSPost2010Prop34
280
     0
102
RTVSPost2010PropOp34
 70
     1
102
RTVSPost2010Prop35
280
     0
102
RTVSPost2010PropOp35
 70
     1
102
RTVSPost2010Prop36
280
     0
102
RTVSPost2010PropOp36
 70
     1
102
RTVSPost2010Prop37
 90
       50
102
RTVSPost2010PropOp37
 70
     1
102
RTVSPost2010Prop38
140
0.0
102
RTVSPost2010PropOp38
 70
     1
102
RTVSPost2010Prop39
140
1.0
102
RTVSPost2010PropOp39
 70
     1
102
RTVSPost2010Prop40
 90
        0
102
RTVSPost2010PropOp40
 70
     1
102
RTVSPost2010Prop41ColorIndex
 90
       18
102
RTVSPost2010Prop41ColorRGB
 90
        0
102
RTVSPost2010PropOp41
 70
     1
102
RTVSPost2010Prop42
 90
       50
102
RTVSPost2010PropOp42
 70
     1
102
RTVSPost2010Prop43
 90
        3
102
RTVSPost2010PropOp43
 70
     1
102
RTVSPost2010Prop44ColorIndex
 90
        5
102
RTVSPost2010Prop44ColorRGB
 90
      255
102
RTVSPost2010PropOp44
 70
     1
102
RTVSPost2010Prop45
280
     0
102
RTVSPost2010PropOp45
 70
     1
102
RTVSPost2010Prop46
 90
       50
102
RTVSPost2010PropOp46
 70
     1
102
RTVSPost2010Prop47
 90
       50
102
RTVSPost2010PropOp47
 70
     1
102
RTVSPost2010Prop48
 90
       50
102
RTVSPost2010PropOp48
 70
     1
102
RTVSPost2010Prop49
280
     0
102
RTVSPost2010PropOp49
 70
     1
102
RTVSPost2010Prop50
 90
       50
102
RTVSPost2010PropOp50
 70
     1
102
RTVSPost2010Prop51ColorIndex
 90
      256
102
RTVSPost2010Prop51ColorRGB
 90
-16777216
102
RTVSPost2010PropOp51
 70
     0
102
RTVSPost2010Prop52
140
1.0
102
RTVSPost2010PropOp52
 70
     0
102
RTVSPost2010Prop53
 90
        2
102
RTVSPost2010PropOp53
 70
     1
102
RTVSPost2010Prop54
  1
strokes_ogs.tif
102
RTVSPost2010PropOp54
 70
     1
102
RTVSPost2010Prop55
280
     0
102
RTVSPost2010PropOp55
 70
     1
102
RTVSPost2010Prop56
140
1.0
102
RTVSPost2010PropOp56
 70
     1
102
RTVSPost2010Prop57
140
1.0
102
RTVSPost2010PropOp57
 70
     1
102
RTVSPropertyOp0
 70
     1
102
RTVSPropertyOp1
 70
     1
102
RTVSPropertyOp2
 70
     1
102
RTVSPropertyOp3
 70
     1
102
RTVSPropertyOp4
 70
     1
102
RTVSPropertyOp5
 70
     1
102
RTVSPropertyOp6
 70
     1
102
RTVSPropertyOp7
 70
     1
102
RTVSPropertyOp8
 70
     1
102
RTVSPropertyOp9
 70
     1
102
RTVSPropertyOp10
 70
     1
102
RTVSPropertyOp11
 70
     1
102
RTVSPropertyOp12
 70
     1
102
RTVSPropertyOp13
 70
     1
102
RTVSPropertyOp14
 70
     1
102
RTVSPropertyOp15
 70
     1
102
RTVSPropertyOp16
 70
     1
102
RTVSPropertyOp17
 70
     1
102
RTVSPropertyOp18
 70
     1
102
RTVSPropertyOp19
 70
     1
102
RTVSPropertyOp20
 70
     1
102
RTVSPropertyOp21
 70
     1
102
RTVSPropertyOp22
 70
     1
102
RTVSPropertyOp23
 70
     1
102
RTVSPropertyOp24
 70
     1
102
RTVSPropertyOp25
 70
     1
102
RTVSPropertyOp26
 70
     1
102
RTVSPropertyOp27
 70
     1
102
RTVSPropertyOp28
 70
     1
102
RTVSPropertyOp29
 70
     1
102
RTVSPropertyOp30
 70
     1
102
RTVSPropertyOp31
 70
     1
102
RTVSPropertyOp32
 70
     1
102
RTVSPropertyOp33
 70
     1
102
RTVSPropertyOp34
 70
     1
102
RTVSPropertyOp35
 70
     1
102
RTVSPropertyOp36
 70
     1
102
RTVSPropertyOp37
 70
     1
102
RTVSPropertyOp38
 70
     1
102
RTVSPropertyOp39
 70
     1
102
RTVSPropertyOp40
 70
     1
102
RTVSPropertyOp41
 70
     1
102
RTVSPropertyOp42
 70
     1
102
RTVSPropertyOp43
 70
     1
102
RTVSPropertyOp44
 70
     1
102
RTVSPropertyOp45
 70
     1
102
RTVSPropertyOp46
 70
     1
102
RTVSPropertyOp47
 70
     1
102
RTVSPropertyOp48
 70
     1
102
RTVSPropertyOp49
 70
     1
102
RTVSPropertyOp50
 70
     1
102
RTVSPropertyOp51
 70
     0
102
RTVSPropertyOp52
 70
     0
102
RTVSPropertyOp53
 70
     1
102
RTVSPropertyOp54
 70
     1
102
RTVSPropertyOp55
 70
     1
102
RTVSPropertyOp56
 70
     1
102
RTVSPropertyOp57
 70
     1
102
RTVSPropertyOp58
 70
     1
102
RTVSPropertyOp59
 70
     1
102
RTVSPropertyOp60
 70
     1
102
RTVSPropertyOp61
 70
     1
102
RTVSPropertyOp62
 70
     1
  0
XRECORD
  5
9CE
102
{ACAD_REACTORS
330
9CD
102
}
330
9CD
100
AcDbXrecord
280
     1
102
RTVSPost2010Prop28
280
     0
102
RTVSPost2010PropOp28
 70
     1
102
RTVSPost2010Prop29
280
     1
102
RTVSPost2010PropOp29
 70
     1
102
RTVSPost2010Prop30
280
     1
102
RTVSPost2010PropOp30
 70
     1
102
RTVSPost2010Prop31
280
     0
102
RTVSPost2010PropOp31
 70
     1
102
RTVSPost2010Prop32
280
     0
102
RTVSPost2010PropOp32
 70
     1
102
RTVSPost2010Prop33
280
     0
102
RTVSPost2010PropOp33
 70
     1
102
RTVSPost2010Prop34
280
     0
102
RTVSPost2010PropOp34
 70
     1
102
RTVSPost2010Prop35
280
     0
102
RTVSPost2010PropOp35
 70
     1
102
RTVSPost2010Prop36
280
     0
102
RTVSPost2010PropOp36
 70
     1
102
RTVSPost2010Prop37
 90
       50
102
RTVSPost2010PropOp37
 70
     1
102
RTVSPost2010Prop38
140
0.0
102
RTVSPost2010PropOp38
 70
     1
102
RTVSPost2010Prop39
140
1.0
102
RTVSPost2010PropOp39
 70
     1
102
RTVSPost2010Prop40
 90
        0
102
RTVSPost2010PropOp40
 70
     1
102
RTVSPost2010Prop41ColorIndex
 90
       18
102
RTVSPost2010Prop41ColorRGB
 90
        0
102
RTVSPost2010PropOp41
 70
     1
102
RTVSPost2010Prop42
 90
       50
102
RTVSPost2010PropOp42
 70
     1
102
RTVSPost2010Prop43
 90
        3
102
RTVSPost2010PropOp43
 70
     1
102
RTVSPost2010Prop44ColorIndex
 90
        5
102
RTVSPost2010Prop44ColorRGB
 90
      255
102
RTVSPost2010PropOp44
 70
     1
102
RTVSPost2010Prop45
280
     0
102
RTVSPost2010PropOp45
 70
     1
102
RTVSPost2010Prop46
 90
       50
102
RTVSPost2010PropOp46
 70
     1
102
RTVSPost2010Prop47
 90
       50
102
RTVSPost2010PropOp47
 70
     1
102
RTVSPost2010Prop48
 90
       50
102
RTVSPost2010PropOp48
 70
     1
102
RTVSPost2010Prop49
280
     0
102
RTVSPost2010PropOp49
 70
     1
102
RTVSPost2010Prop50
 90
       50
102
RTVSPost2010PropOp50
 70
     1
102
RTVSPost2010Prop51ColorIndex
 90
      256
102
RTVSPost2010Prop51ColorRGB
 90
-16777216
102
RTVSPost2010PropOp51
 70
     0
102
RTVSPost2010Prop52
140
1.0
102
RTVSPost2010PropOp52
 70
     0
102
RTVSPost2010Prop53
 90
        2
102
RTVSPost2010PropOp53
 70
     1
102
RTVSPost2010Prop54
  1
strokes_ogs.tif
102
RTVSPost2010PropOp54
 70
     1
102
RTVSPost2010Prop55
280
     0
102
RTVSPost2010PropOp55
 70
     1
102
RTVSPost2010Prop56
140
1.0
102
RTVSPost2010PropOp56
 70
     1
102
RTVSPost2010Prop57
140
1.0
102
RTVSPost2010PropOp57
 70
     1
102
RTVSPropertyOp0
 70
     1
102
RTVSPropertyOp1
 70
     1
102
RTVSPropertyOp2
 70
     1
102
RTVSPropertyOp3
 70
     1
102
RTVSPropertyOp4
 70
     1
102
RTVSPropertyOp5
 70
     1
102
RTVSPropertyOp6
 70
     1
102
RTVSPropertyOp7
 70
     1
102
RTVSPropertyOp8
 70
     1
102
RTVSPropertyOp9
 70
     1
102
RTVSPropertyOp10
 70
     1
102
RTVSPropertyOp11
 70
     1
102
RTVSPropertyOp12
 70
     1
102
RTVSPropertyOp13
 70
     1
102
RTVSPropertyOp14
 70
     1
102
RTVSPropertyOp15
 70
     1
102
RTVSPropertyOp16
 70
     1
102
RTVSPropertyOp17
 70
     1
102
RTVSPropertyOp18
 70
     1
102
RTVSPropertyOp19
 70
     1
102
RTVSPropertyOp20
 70
     1
102
RTVSPropertyOp21
 70
     1
102
RTVSPropertyOp22
 70
     1
102
RTVSPropertyOp23
 70
     1
102
RTVSPropertyOp24
 70
     1
102
RTVSPropertyOp25
 70
     1
102
RTVSPropertyOp26
 70
     1
102
RTVSPropertyOp27
 70
     1
102
RTVSPropertyOp28
 70
     1
102
RTVSPropertyOp29
 70
     1
102
RTVSPropertyOp30
 70
     1
102
RTVSPropertyOp31
 70
     1
102
RTVSPropertyOp32
 70
     1
102
RTVSPropertyOp33
 70
     1
102
RTVSPropertyOp34
 70
     1
102
RTVSPropertyOp35
 70
     1
102
RTVSPropertyOp36
 70
     1
102
RTVSPropertyOp37
 70
     1
102
RTVSPropertyOp38
 70
     1
102
RTVSPropertyOp39
 70
     1
102
RTVSPropertyOp40
 70
     1
102
RTVSPropertyOp41
 70
     1
102
RTVSPropertyOp42
 70
     1
102
RTVSPropertyOp43
 70
     1
102
RTVSPropertyOp44
 70
     1
102
RTVSPropertyOp45
 70
     1
102
RTVSPropertyOp46
 70
     1
102
RTVSPropertyOp47
 70
     1
102
RTVSPropertyOp48
 70
     1
102
RTVSPropertyOp49
 70
     1
102
RTVSPropertyOp50
 70
     1
102
RTVSPropertyOp51
 70
     0
102
RTVSPropertyOp52
 70
     0
102
RTVSPropertyOp53
 70
     1
102
RTVSPropertyOp54
 70
     1
102
RTVSPropertyOp55
 70
     1
102
RTVSPropertyOp56
 70
     1
102
RTVSPropertyOp57
 70
     1
102
RTVSPropertyOp58
 70
     1
102
RTVSPropertyOp59
 70
     1
102
RTVSPropertyOp60
 70
     1
102
RTVSPropertyOp61
 70
     1
102
RTVSPropertyOp62
 70
     1
  0
ENDSEC
  0
EOF
