  0
SECTION
  2
HEADER
  9
$ACADVER
  1
AC1015
  9
$ACADMAINTVER
 70
    20
  9
$DWGCODEPAGE
  3
ANSI_932
  9
$INSBASE
 10
0.0
 20
0.0
 30
0.0
  9
$EXTMIN
 10
10.0
 20
9.999999999999998
 30
0.0
  9
$EXTMAX
 10
568.231148
 20
458.2996709999998
 30
0.0
  9
$LIMMIN
 10
0.0
 20
0.0
  9
$LIMMAX
 10
705.9254179999997
 20
486.6607049999998
  9
$ORTHOMODE
 70
     1
  9
$REGENMODE
 70
     1
  9
$FILLMODE
 70
     1
  9
$QTEXTMODE
 70
     0
  9
$MIRRTEXT
 70
     1
  9
$LTSCALE
 40
20.0
  9
$ATTMODE
 70
     1
  9
$TEXTSIZE
 40
5.0
  9
$TRACEWID
 40
1.0
  9
$TEXTSTYLE
  7
STANDARD
  9
$CLAYER
  8
0
  9
$CELTYPE
  6
BYLAYER
  9
$CECOLOR
 62
   256
  9
$CELTSCALE
 40
1.0
  9
$DISPSILH
 70
     0
  9
$DIMSCALE
 40
1.0
  9
$DIMASZ
 40
3.0
  9
$DIMEXO
 40
1.0
  9
$DIMDLI
 40
10.0
  9
$DIMRND
 40
0.0
  9
$DIMDLE
 40
0.0
  9
$DIMEXE
 40
1.0
  9
$DIMTP
 40
0.0
  9
$DIMTM
 40
0.0
  9
$DIMTXT
 40
3.2
  9
$DIMCEN
 40
0.0
  9
$DIMTSZ
 40
0.0
  9
$DIMTOL
 70
     0
  9
$DIMLIM
 70
     0
  9
$DIMTIH
 70
     0
  9
$DIMTOH
 70
     0
  9
$DIMSE1
 70
     0
  9
$DIMSE2
 70
     0
  9
$DIMTAD
 70
     3
  9
$DIMZIN
 70
     8
  9
$DIMBLK
  1

  9
$DIMASO
 70
     1
  9
$DIMSHO
 70
     1
  9
$DIMPOST
  1

  9
$DIMAPOST
  1

  9
$DIMALT
 70
     0
  9
$DIMALTD
 70
     2
  9
$DIMALTF
 40
25.4
  9
$DIMLFAC
 40
1.0
  9
$DIMTOFL
 70
     1
  9
$DIMTVP
 40
0.0
  9
$DIMTIX
 70
     0
  9
$DIMSOXD
 70
     0
  9
$DIMSAH
 70
     1
  9
$DIMBLK1
  1
OPEN
  9
$DIMBLK2
  1
OPEN
  9
$DIMSTYLE
  2
STANDARD
  9
$DIMCLRD
 70
     0
  9
$DIMCLRE
 70
     0
  9
$DIMCLRT
 70
     0
  9
$DIMTFAC
 40
1.0
  9
$DIMGAP
 40
1.0
  9
$DIMJUST
 70
     0
  9
$DIMSD1
 70
     0
  9
$DIMSD2
 70
     0
  9
$DIMTOLJ
 70
     1
  9
$DIMTZIN
 70
     0
  9
$DIMALTZ
 70
     0
  9
$DIMALTTZ
 70
     0
  9
$DIMUPT
 70
     0
  9
$DIMDEC
 70
     4
  9
$DIMTDEC
 70
     4
  9
$DIMALTU
 70
     2
  9
$DIMALTTD
 70
     2
  9
$DIMTXSTY
  7
STANDARD
  9
$DIMAUNIT
 70
     0
  9
$DIMADEC
 70
     0
  9
$DIMALTRND
 40
0.0
  9
$DIMAZIN
 70
     0
  9
$DIMDSEP
 70
    46
  9
$DIMATFIT
 70
     3
  9
$DIMFRAC
 70
     0
  9
$DIMLDRBLK
  1
OPEN
  9
$DIMLUNIT
 70
     2
  9
$DIMLWD
 70
    -2
  9
$DIMLWE
 70
    -2
  9
$DIMTMOVE
 70
     0
  9
$LUNITS
 70
     2
  9
$LUPREC
 70
     4
  9
$SKETCHINC
 40
1.0
  9
$FILLETRAD
 40
11.3
  9
$AUNITS
 70
     0
  9
$AUPREC
 70
     2
  9
$MENU
  1
.
  9
$ELEVATION
 40
0.0
  9
$PELEVATION
 40
0.0
  9
$THICKNESS
 40
0.0
  9
$LIMCHECK
 70
     0
  9
$CHAMFERA
 40
10.0
  9
$CHAMFERB
 40
10.0
  9
$CHAMFERC
 40
0.0
  9
$CHAMFERD
 40
0.0
  9
$SKPOLY
 70
     0
  9
$TDCREATE
 40
2451301.676587269
  9
$TDUCREATE
 40
2451301.301587269
  9
$TDUPDATE
 40
2457192.688155475
  9
$TDUUPDATE
 40
2457192.313155474
  9
$TDINDWG
 40
0.0000124306
  9
$TDUSRTIMER
 40
0.0000119444
  9
$USRTIMER
 70
     1
  9
$ANGBASE
 50
0.0
  9
$ANGDIR
 70
     0
  9
$PDMODE
 70
     0
  9
$PDSIZE
 40
0.0
  9
$PLINEWID
 40
0.0
  9
$SPLFRAME
 70
     0
  9
$SPLINETYPE
 70
     6
  9
$SPLINESEGS
 70
     8
  9
$HANDSEED
  5
AF0C
  9
$SURFTAB1
 70
     6
  9
$SURFTAB2
 70
     6
  9
$SURFTYPE
 70
     6
  9
$SURFU
 70
     6
  9
$SURFV
 70
     6
  9
$UCSBASE
  2

  9
$UCSNAME
  2

  9
$UCSORG
 10
0.0
 20
0.0
 30
0.0
  9
$UCSXDIR
 10
1.0
 20
0.0
 30
0.0
  9
$UCSYDIR
 10
0.0
 20
1.0
 30
0.0
  9
$UCSORTHOREF
  2

  9
$UCSORTHOVIEW
 70
     0
  9
$UCSORGTOP
 10
0.0
 20
0.0
 30
0.0
  9
$UCSORGBOTTOM
 10
0.0
 20
0.0
 30
0.0
  9
$UCSORGLEFT
 10
0.0
 20
0.0
 30
0.0
  9
$UCSORGRIGHT
 10
0.0
 20
0.0
 30
0.0
  9
$UCSORGFRONT
 10
0.0
 20
0.0
 30
0.0
  9
$UCSORGBACK
 10
0.0
 20
0.0
 30
0.0
  9
$PUCSBASE
  2

  9
$PUCSNAME
  2

  9
$PUCSORG
 10
0.0
 20
0.0
 30
0.0
  9
$PUCSXDIR
 10
1.0
 20
0.0
 30
0.0
  9
$PUCSYDIR
 10
0.0
 20
1.0
 30
0.0
  9
$PUCSORTHOREF
  2

  9
$PUCSORTHOVIEW
 70
     0
  9
$PUCSORGTOP
 10
0.0
 20
0.0
 30
0.0
  9
$PUCSORGBOTTOM
 10
0.0
 20
0.0
 30
0.0
  9
$PUCSORGLEFT
 10
0.0
 20
0.0
 30
0.0
  9
$PUCSORGRIGHT
 10
0.0
 20
0.0
 30
0.0
  9
$PUCSORGFRONT
 10
0.0
 20
0.0
 30
0.0
  9
$PUCSORGBACK
 10
0.0
 20
0.0
 30
0.0
  9
$USERI1
 70
     0
  9
$USERI2
 70
     0
  9
$USERI3
 70
     0
  9
$USERI4
 70
     0
  9
$USERI5
 70
     0
  9
$USERR1
 40
0.0
  9
$USERR2
 40
0.0
  9
$USERR3
 40
0.0
  9
$USERR4
 40
0.0
  9
$USERR5
 40
0.0
  9
$WORLDVIEW
 70
     1
  9
$SHADEDGE
 70
     3
  9
$SHADEDIF
 70
    70
  9
$TILEMODE
 70
     1
  9
$MAXACTVP
 70
    16
  9
$PINSBASE
 10
0.0
 20
0.0
 30
0.0
  9
$PLIMCHECK
 70
     0
  9
$PEXTMIN
 10
1.000000000000000E+20
 20
1.000000000000000E+20
 30
1.000000000000000E+20
  9
$PEXTMAX
 10
-1.000000000000000E+20
 20
-1.000000000000000E+20
 30
-1.000000000000000E+20
  9
$PLIMMIN
 10
0.0
 20
0.0
  9
$PLIMMAX
 10
420.0
 20
297.0
  9
$UNITMODE
 70
     0
  9
$VISRETAIN
 70
     0
  9
$PLINEGEN
 70
     0
  9
$PSLTSCALE
 70
     0
  9
$TREEDEPTH
 70
  3020
  9
$CMLSTYLE
  2
STANDARD
  9
$CMLJUST
 70
     0
  9
$CMLSCALE
 40
1.0
  9
$PROXYGRAPHICS
 70
     1
  9
$MEASUREMENT
 70
     0
  9
$CELWEIGHT
370
    -1
  9
$ENDCAPS
280
     0
  9
$JOINSTYLE
280
     0
  9
$LWDISPLAY
290
     0
  9
$INSUNITS
 70
     0
  9
$HYPERLINKBASE
  1

  9
$STYLESHEET
  1

  9
$XEDIT
290
     1
  9
$CEPSNTYPE
380
     0
  9
$PSTYLEMODE
290
     1
  9
$FINGERPRINTGUID
  2
{73CBF0B4-65AB-42CC-B543-2DA9FB24633B}
  9
$VERSIONGUID
  2
{59D4AA6E-D1E8-4EA3-A8CB-4279BCD10E63}
  9
$EXTNAMES
290
     1
  9
$PSVPSCALE
 40
0.0
  9
$OLESTARTUP
290
     0
  0
ENDSEC
  0
SECTION
  2
CLASSES
  0
CLASS
  1
ACDBDICTIONARYWDFLT
  2
AcDbDictionaryWithDefault
  3
ObjectDBX Classes
 90
        0
280
     0
281
     0
  0
CLASS
  1
ACDBPLACEHOLDER
  2
AcDbPlaceHolder
  3
ObjectDBX Classes
 90
        0
280
     0
281
     0
  0
CLASS
  1
LAYOUT
  2
AcDbLayout
  3
ObjectDBX Classes
 90
        0
280
     0
281
     0
  0
CLASS
  1
DICTIONARYVAR
  2
AcDbDictionaryVar
  3
ObjectDBX Classes
 90
        0
280
     0
281
     0
  0
CLASS
  1
MATERIAL
  2
AcDbMaterial
  3
ObjectDBX Classes
 90
     1153
280
     0
281
     0
  0
CLASS
  1
VISUALSTYLE
  2
AcDbVisualStyle
  3
ObjectDBX Classes
 90
     4095
280
     0
281
     0
  0
CLASS
  1
TABLESTYLE
  2
AcDbTableStyle
  3
ObjectDBX Classes
 90
     4095
280
     0
281
     0
  0
CLASS
  1
SCALE
  2
AcDbScale
  3
ObjectDBX Classes
 90
     1153
280
     0
281
     0
  0
CLASS
  1
MLEADERSTYLE
  2
AcDbMLeaderStyle
  3
ACDB_MLEADERSTYLE_CLASS
 90
     4095
280
     0
281
     0
  0
CLASS
  1
ACDBSECTIONVIEWSTYLE
  2
AcDbSectionViewStyle
  3
ObjectDBX Classes
 90
     1025
280
     0
281
     0
  0
CLASS
  1
ACDBDETAILVIEWSTYLE
  2
AcDbDetailViewStyle
  3
ObjectDBX Classes
 90
     1025
280
     0
281
     0
  0
CLASS
  1
CELLSTYLEMAP
  2
AcDbCellStyleMap
  3
ObjectDBX Classes
 90
     1152
280
     0
281
     0
  0
ENDSEC
  0
SECTION
  2
TABLES
  0
TABLE
  2
VPORT
  5
AAE2
330
0
100
AcDbSymbolTable
 70
     1
  0
VPORT
  5
AE55
330
AAE2
100
AcDbSymbolTableRecord
100
AcDbViewportTableRecord
  2
*ACTIVE
 70
     0
 10
0.0
 20
0.0
 11
1.0
 21
1.0
 12
424.9070942985694
 22
234.1408604821766
 13
0.0
 23
0.0
 14
10.0
 24
10.0
 15
10.0
 25
10.0
 16
0.0
 26
0.0
 36
1.0
 17
0.0
 27
0.0
 37
0.0
 40
453.28986499812
 41
2.35006605019815
 42
50.0
 43
0.0
 44
0.0
 50
0.0
 51
0.0
 71
     0
 72
   100
 73
     1
 74
     0
 75
     0
 76
     0
 77
     0
 78
     0
281
     0
 65
     1
110
0.0
120
0.0
130
0.0
111
1.0
121
0.0
131
0.0
112
0.0
122
1.0
132
0.0
 79
     0
146
0.0
1001
ACAD_NAV_VCDISPLAY
1070
     3
  0
ENDTAB
  0
TABLE
  2
LTYPE
  5
AADF
330
0
100
AcDbSymbolTable
 70
     4
  0
LTYPE
  5
AAED
330
AADF
100
AcDbSymbolTableRecord
100
AcDbLinetypeTableRecord
  2
BYBLOCK
 70
     0
  3

 72
    65
 73
     0
 40
0.0
  0
LTYPE
  5
AAEE
330
AADF
100
AcDbSymbolTableRecord
100
AcDbLinetypeTableRecord
  2
BYLAYER
 70
     0
  3

 72
    65
 73
     0
 40
0.0
  0
LTYPE
  5
AAEF
330
AADF
100
AcDbSymbolTableRecord
100
AcDbLinetypeTableRecord
  2
CONTINUOUS
 70
     0
  3
Solid line
 72
    65
 73
     0
 40
0.0
  0
LTYPE
  5
AAFD
330
AADF
100
AcDbSymbolTableRecord
100
AcDbLinetypeTableRecord
  2
DASHED
 70
     0
  3
__ __ __ __ __ __ __ __ __ __ __ __ __ __ __ __
 72
    65
 73
     2
 40
0.75
 49
0.5
 74
     0
 49
-0.25
 74
     0
  0
LTYPE
  5
AAFE
330
AADF
100
AcDbSymbolTableRecord
100
AcDbLinetypeTableRecord
  2
CENTER
 70
     0
  3
____ _ ____ _ ____ _ ____ _ ____ _ ____ _ ____ 
 72
    65
 73
     4
 40
2.0
 49
1.25
 74
     0
 49
-0.25
 74
     0
 49
0.25
 74
     0
 49
-0.25
 74
     0
  0
LTYPE
  5
AAFF
330
AADF
100
AcDbSymbolTableRecord
100
AcDbLinetypeTableRecord
  2
PHANTOM
 70
     0
  3
______  __  __  ______  __  __  ______  __  __ 
 72
    65
 73
     6
 40
2.5
 49
1.25
 74
     0
 49
-0.25
 74
     0
 49
0.25
 74
     0
 49
-0.25
 74
     0
 49
0.25
 74
     0
 49
-0.25
 74
     0
  0
ENDTAB
  0
TABLE
  2
LAYER
  5
AADC
330
0
100
AcDbSymbolTable
 70
     8
  0
LAYER
  5
AAEA
102
{ACAD_XDICTIONARY
360
AEB0
102
}
330
AADC
100
AcDbSymbolTableRecord
100
AcDbLayerTableRecord
  2
0
 70
     0
 62
     7
  6
CONTINUOUS
370
    -3
390
AE5E
  0
LAYER
  5
AB00
102
{ACAD_XDICTIONARY
360
AEB2
102
}
330
AADC
100
AcDbSymbolTableRecord
100
AcDbLayerTableRecord
  2
4
 70
     0
 62
     1
  6
CENTER
370
    -3
390
AE5E
  0
LAYER
  5
AB01
102
{ACAD_XDICTIONARY
360
AEB4
102
}
330
AADC
100
AcDbSymbolTableRecord
100
AcDbLayerTableRecord
  2
5
 70
     0
 62
     6
  6
PHANTOM
370
    -3
390
AE5E
  0
LAYER
  5
AB02
102
{ACAD_XDICTIONARY
360
AEB6
102
}
330
AADC
100
AcDbSymbolTableRecord
100
AcDbLayerTableRecord
  2
1
 70
     0
 62
     7
  6
CONTINUOUS
370
    -3
390
AE5E
  0
LAYER
  5
AB03
102
{ACAD_XDICTIONARY
360
AEB8
102
}
330
AADC
100
AcDbSymbolTableRecord
100
AcDbLayerTableRecord
  2
2
 70
     0
 62
     4
  6
CONTINUOUS
370
    -3
390
AE5E
  0
LAYER
  5
AB04
102
{ACAD_XDICTIONARY
360
AEBA
102
}
330
AADC
100
AcDbSymbolTableRecord
100
AcDbLayerTableRecord
  2
3
 70
     0
 62
     2
  6
DASHED
370
    -3
390
AE5E
  0
LAYER
  5
AB05
102
{ACAD_XDICTIONARY
360
AEBC
102
}
330
AADC
100
AcDbSymbolTableRecord
100
AcDbLayerTableRecord
  2
6
 70
     0
 62
     5
  6
CONTINUOUS
370
    -3
390
AE5E
  0
LAYER
  5
AB06
102
{ACAD_XDICTIONARY
360
AEBE
102
}
330
AADC
100
AcDbSymbolTableRecord
100
AcDbLayerTableRecord
  2
7
 70
     0
 62
     3
  6
CONTINUOUS
370
    -3
390
AE5E
  0
ENDTAB
  0
TABLE
  2
STYLE
  5
AADD
330
0
100
AcDbSymbolTable
 70
     1
  0
STYLE
  5
AAEB
330
AADD
100
AcDbSymbolTableRecord
100
AcDbTextStyleTableRecord
  2
STANDARD
 70
     0
 40
0.0
 41
1.0
 50
0.0
 71
     0
 42
5.0
  3
txt
  4

  0
ENDTAB
  0
TABLE
  2
VIEW
  5
AAE0
330
0
100
AcDbSymbolTable
 70
     0
  0
ENDTAB
  0
TABLE
  2
UCS
  5
AAE1
330
0
100
AcDbSymbolTable
 70
     0
  0
ENDTAB
  0
TABLE
  2
APPID
  5
AAE3
330
0
100
AcDbSymbolTable
 70
     3
  0
APPID
  5
AAEC
330
AAE3
100
AcDbSymbolTableRecord
100
AcDbRegAppTableRecord
  2
ACAD
 70
     0
  0
APPID
  5
AECA
330
AAE3
100
AcDbSymbolTableRecord
100
AcDbRegAppTableRecord
  2
ACAD_NAV_VCDISPLAY
 70
     0
  0
APPID
  5
AF03
330
AAE3
100
AcDbSymbolTableRecord
100
AcDbRegAppTableRecord
  2
ACAD_MLEADERVER
 70
     0
  0
ENDTAB
  0
TABLE
  2
DIMSTYLE
  5
AAE4
330
0
100
AcDbSymbolTable
 70
     1
100
AcDbDimStyleTable
 71
     0
  0
DIMSTYLE
105
AB08
330
AAE4
100
AcDbSymbolTableRecord
100
AcDbDimStyleTableRecord
  2
STANDARD
 70
     0
 41
3.0
 42
1.0
 43
10.0
 44
1.0
 73
     0
 74
     0
 77
     3
 78
     8
140
3.2
141
0.0
147
1.0
172
     1
173
     1
284
     8
285
     8
286
     8
340
AAEB
  0
ENDTAB
  0
TABLE
  2
BLOCK_RECORD
  5
AADB
330
0
100
AcDbSymbolTable
 70
     1
  0
BLOCK_RECORD
  5
AAF8
102
{ACAD_XDICTIONARY
360
AE58
102
}
330
AADB
100
AcDbSymbolTableRecord
100
AcDbBlockTableRecord
  2
*MODEL_SPACE
340
AEAC
  0
BLOCK_RECORD
  5
AAF4
102
{ACAD_XDICTIONARY
360
AE56
102
}
330
AADB
100
AcDbSymbolTableRecord
100
AcDbBlockTableRecord
  2
*PAPER_SPACE
340
AEAD
  0
BLOCK_RECORD
  5
AB10
330
AADB
100
AcDbSymbolTableRecord
100
AcDbBlockTableRecord
  2
_OPEN
340
0
  0
ENDTAB
  0
ENDSEC
  0
SECTION
  2
BLOCKS
  0
BLOCK
  5
AAF9
330
AAF8
100
AcDbEntity
  8
0
100
AcDbBlockBegin
  2
*MODEL_SPACE
 70
     0
 10
0.0
 20
0.0
 30
0.0
  3
*MODEL_SPACE
  1

  0
ENDBLK
  5
AAFA
330
AAF8
100
AcDbEntity
  8
0
100
AcDbBlockEnd
  0
BLOCK
  5
AAF5
330
AAF4
100
AcDbEntity
 67
     1
  8
0
100
AcDbBlockBegin
  2
*PAPER_SPACE
 70
     0
 10
0.0
 20
0.0
 30
0.0
  3
*PAPER_SPACE
  1

  0
ENDBLK
  5
AAF6
330
AAF4
100
AcDbEntity
 67
     1
  8
0
100
AcDbBlockEnd
  0
BLOCK
  5
AB11
330
AB10
100
AcDbEntity
  8
0
100
AcDbBlockBegin
  2
_OPEN
 70
     0
 10
0.0
 20
0.0
 30
0.0
  3
_OPEN
  1

  0
LINE
  5
AB12
330
AB10
100
AcDbEntity
  8
0
  6
ByBlock
 62
     0
100
AcDbLine
 10
-1.0
 20
0.166667
 30
0.0
 11
0.0
 21
0.0
 31
0.0
  0
LINE
  5
AB13
330
AB10
100
AcDbEntity
  8
0
  6
ByBlock
 62
     0
100
AcDbLine
 10
0.0
 20
0.0
 30
0.0
 11
-1.0
 21
-0.166667
 31
0.0
  0
LINE
  5
AB14
330
AB10
100
AcDbEntity
  8
0
  6
ByBlock
 62
     0
100
AcDbLine
 10
0.0
 20
0.0
 30
0.0
 11
-1.0
 21
0.0
 31
0.0
  0
ENDBLK
  5
AB15
330
AB10
100
AcDbEntity
  8
0
100
AcDbBlockEnd
  0
ENDSEC
  0
SECTION
  2
ENTITIES
  0
TEXT
  5
AB16
330
AAF8
100
AcDbEntity
  8
7
  6
Continuous
100
AcDbText
 10
10.0
 20
18.0
 30
0.0
 40
3.0
  1
TYPE No.308
100
AcDbText
  0
TEXT
  5
AB17
330
AAF8
100
AcDbEntity
  8
7
  6
Continuous
100
AcDbText
 10
10.0
 20
26.0
 30
0.0
 40
3.0
  1
CODE No.9310
100
AcDbText
  0
TEXT
  5
AB18
330
AAF8
100
AcDbEntity
  8
1
  6
Continuous
100
AcDbText
 10
10.0
 20
10.0
 30
0.0
 40
1.399999999999999
  1
LAYER
100
AcDbText
  0
TEXT
  5
AB19
330
AAF8
100
AcDbEntity
  8
1
  6
Continuous
100
AcDbText
 10
17.97951099999998
 20
10.04873699999998
 30
0.0
 40
1.399999999999999
  1
1
100
AcDbText
  0
TEXT
  5
AB1A
330
AAF8
100
AcDbEntity
  8
7
  6
Continuous
100
AcDbText
 10
29.97951099999999
 20
10.04873699999998
 30
0.0
 40
1.399999999999999
  1
7
100
AcDbText
  0
TEXT
  5
AB1B
330
AAF8
100
AcDbEntity
  8
4
  6
CENTER
100
AcDbText
 10
23.97951099999999
 20
10.04873699999998
 30
0.0
 40
1.399999999999999
  1
4
100
AcDbText
  0
TEXT
  5
AB1C
330
AAF8
100
AcDbEntity
  8
3
  6
DASHED
100
AcDbText
 10
21.979511
 20
10.04873699999998
 30
0.0
 40
1.399999999999999
  1
3
100
AcDbText
  0
TEXT
  5
AB1D
330
AAF8
100
AcDbEntity
  8
2
  6
Continuous
100
AcDbText
 10
19.97951099999999
 20
10.04873699999998
 30
0.0
 40
1.399999999999999
  1
2
100
AcDbText
  0
TEXT
  5
AB1E
330
AAF8
100
AcDbEntity
  8
6
  6
Continuous
100
AcDbText
 10
27.979511
 20
10.04873699999998
 30
0.0
 40
1.399999999999999
  1
6
100
AcDbText
  0
TEXT
  5
AB1F
330
AAF8
100
AcDbEntity
  8
5
  6
PHANTOM
100
AcDbText
 10
25.97951099999999
 20
10.04873699999998
 30
0.0
 40
1.399999999999999
  1
5
100
AcDbText
  0
LINE
  5
AB20
330
AAF8
100
AcDbEntity
  8
4
  6
CENTER
100
AcDbLine
 10
319.009862
 20
229.6277349999999
 30
0.0
 11
379.6262299999999
 21
229.6277349999999
 31
0.0
  0
LINE
  5
AB21
330
AAF8
100
AcDbEntity
  8
1
  6
Continuous
100
AcDbLine
 10
325.6976399999999
 20
304.462739
 30
0.0
 11
378.919843
 21
304.462739
 31
0.0
  0
LINE
  5
AB22
330
AAF8
100
AcDbEntity
  8
4
  6
CENTER
100
AcDbLine
 10
282.2363389999998
 20
229.6277389999999
 30
0.0
 11
136.2363389999998
 21
229.6277389999999
 31
0.0
  0
LINE
  5
AB23
330
AAF8
100
AcDbEntity
  8
4
  6
CENTER
100
AcDbLine
 10
278.9418729999998
 20
424.324648
 30
0.0
 11
139.2363389999998
 21
424.324648
 31
0.0
  0
LINE
  5
AB24
330
AAF8
100
AcDbEntity
  8
4
  6
CENTER
100
AcDbLine
 10
245.2363389999999
 20
390.349626
 30
0.0
 11
245.2363389999999
 21
458.2996709999998
 31
0.0
  0
LINE
  5
AB25
330
AAF8
100
AcDbEntity
  8
4
  6
CENTER
100
AcDbLine
 10
352.233743
 20
350.627923
 30
0.0
 11
352.233743
 21
156.777739
 31
0.0
  0
ARC
  5
AB26
330
AAF8
100
AcDbEntity
  8
1
  6
Continuous
100
AcDbCircle
 10
105.9851689999999
 20
195.920948
 30
0.0
 40
277.8421779999998
100
AcDbArc
 50
13.58600199999999
 51
19.83204999999999
  0
ARC
  5
AB27
330
AAF8
100
AcDbEntity
  8
1
  6
Continuous
100
AcDbCircle
 10
105.9496709999999
 20
195.752224
 30
0.0
 40
280.2147699999999
100
AcDbArc
 50
13.044057
 51
19.16351999999999
  0
ARC
  5
AB28
330
AAF8
100
AcDbEntity
  8
1
  6
Continuous
100
AcDbCircle
 10
347.197645
 20
251.827299
 30
0.0
 40
32.53609799999999
100
AcDbArc
 50
2.672433999999999
 51
12.72982799999999
  0
LINE
  5
AB29
330
AAF8
100
AcDbEntity
  8
1
  6
Continuous
100
AcDbLine
 10
370.5865249999998
 20
226.8988069999998
 30
0.0
 11
370.576723
 21
217.1277529999999
 31
0.0
  0
ARC
  5
AB2A
330
AAF8
100
AcDbEntity
  8
1
  6
Continuous
100
AcDbCircle
 10
361.781274
 20
288.20501
 30
0.0
 40
5.908440999999998
100
AcDbArc
 50
19.557187
 51
71.279225
  0
ARC
  5
AB2B
330
AAF8
100
AcDbEntity
  8
1
  6
Continuous
100
AcDbCircle
 10
361.921012
 20
284.7600429999999
 30
0.0
 40
9.209889
100
AcDbArc
 50
18.85874099999998
 51
79.00453
  0
ARC
  5
AB2C
330
AAF8
100
AcDbEntity
  8
1
  6
Continuous
100
AcDbCircle
 10
352.233743
 20
234.9023229999999
 30
0.0
 40
60.0
100
AcDbArc
 50
79.00453
 51
100.9954699999999
  0
LINE
  5
AB2D
330
AAF8
100
AcDbEntity
  8
4
  6
CENTER
100
AcDbLine
 10
245.2363389999999
 20
249.214135
 30
0.0
 11
245.2363389999999
 21
350.627923
 31
0.0
  0
LINE
  5
AB2E
330
AAF8
100
AcDbEntity
  8
1
  6
Continuous
100
AcDbLine
 10
223.76406
 20
300.798268
 30
0.0
 11
223.76406
 21
230.793644
 31
0.0
  0
ARC
  5
AB2F
330
AAF8
100
AcDbEntity
  8
1
  6
Continuous
100
AcDbCircle
 10
107.3197639999999
 20
351.653945
 30
0.0
 40
171.799
100
AcDbArc
 50
309.937791
 51
339.6990839999999
  0
ARC
  5
AB30
330
AAF8
100
AcDbEntity
  8
1
  6
Continuous
100
AcDbCircle
 10
80.74851200000003
 20
296.1153649999999
 30
0.0
 40
132.243177
100
AcDbArc
 50
332.685565
 51
2.590463
  0
ARC
  5
AB31
330
AAF8
100
AcDbEntity
  8
1
  6
Continuous
100
AcDbCircle
 10
209.4863389999999
 20
229.6277389999999
 30
0.0
 40
12.65
100
AcDbArc
 50
152.6855649999999
 51
309.937791
  0
LINE
  5
AB32
330
AAF8
100
AcDbEntity
  8
1
  6
Continuous
100
AcDbLine
 10
271.9224389999999
 20
304.312739
 30
0.0
 11
218.5502389999999
 21
304.312739
 31
0.0
  0
ARC
  5
AB33
330
AAF8
100
AcDbEntity
  8
1
  6
Continuous
100
AcDbCircle
 10
266.252922
 20
300.152624
 30
0.0
 40
6.768752
100
AcDbArc
 50
16.69546099999999
 51
28.62323099999998
  0
ARC
  5
AB34
330
AAF8
100
AcDbEntity
  8
1
  6
Continuous
100
AcDbCircle
 10
269.50967
 20
301.929974
 30
0.0
 40
3.058577999999998
100
AcDbArc
 50
28.62323099999998
 51
51.173052
  0
LINE
  5
AB35
330
AAF8
100
AcDbEntity
  8
1
  6
Continuous
100
AcDbLine
 10
209.418711
 20
302.091789
 30
0.0
 11
223.7636549999999
 21
302.091789
 31
0.0
  0
ARC
  5
AB36
330
AAF8
100
AcDbEntity
  8
1
  6
Continuous
100
AcDbCircle
 10
221.4179389999999
 20
302.519206
 30
0.0
 40
2.384338999999997
100
AcDbArc
 50
349.6733199999998
 51
48.78250799999999
  0
ARC
  5
AB37
330
AAF8
100
AcDbEntity
  8
1
  6
Continuous
100
AcDbCircle
 10
217.7253169999999
 20
303.2410889999998
 30
0.0
 40
1.188780999999998
100
AcDbArc
 50
284.807772
 51
2.109159
  0
ARC
  5
AB38
330
AAF8
100
AcDbEntity
  8
1
  6
Continuous
100
AcDbCircle
 10
221.1087229999999
 20
302.604599
 30
0.0
 40
2.298399999999999
100
AcDbArc
 50
131.996419
 51
162.784696
  0
LINE
  5
AB39
330
AAF8
100
AcDbEntity
  8
1
  6
Continuous
100
AcDbLine
 10
209.260104
 20
299.5381619999998
 30
0.0
 11
212.947386
 21
299.5381619999998
 31
0.0
  0
ARC
  5
AB3A
330
AAF8
100
AcDbEntity
  8
1
  6
Continuous
100
AcDbCircle
 10
210.1356829999998
 20
301.1713379999998
 30
0.0
 40
2.172123
100
AcDbArc
 50
163.484735
 51
182.237079
  0
ARC
  5
AB3B
330
AAF8
100
AcDbEntity
  8
1
  6
Continuous
100
AcDbCircle
 10
199.7357799999998
 20
299.1607989999998
 30
0.0
 40
8.451753
100
AcDbArc
 50
4.483236999999999
 51
13.17066
  0
ARC
  5
AB3C
330
AAF8
100
AcDbEntity
  8
1
  6
Continuous
100
AcDbCircle
 10
208.578211
 20
301.029678
 30
0.0
 40
0.9230079999999999
100
AcDbArc
 50
108.7945229999998
 51
124.668912
  0
LINE
  5
AB3D
330
AAF8
100
AcDbEntity
  8
1
  6
Continuous
100
AcDbLine
 10
208.2973739999999
 20
299.65751
 30
0.0
 11
208.1616719999999
 21
299.821451
 31
0.0
  0
ARC
  5
AB3E
330
AAF8
100
AcDbEntity
  8
1
  6
Continuous
100
AcDbCircle
 10
209.260104
 20
303.480799
 30
0.0
 40
3.942636999999998
100
AcDbArc
 50
255.866358
 51
270.0
  0
ARC
  5
AB3F
330
AAF8
100
AcDbEntity
  8
1
  6
Continuous
100
AcDbCircle
 10
209.418711
 20
298.5599509999999
 30
0.0
 40
3.531837999999998
100
AcDbArc
 50
90.0
 51
108.7945229999998
  0
LINE
  5
AB40
330
AAF8
100
AcDbEntity
  8
4
  6
CENTER
100
AcDbLine
 10
66.238934
 20
350.6279369999999
 30
0.0
 11
66.238934
 21
156.6277389999999
 31
0.0
  0
LINE
  5
AB41
330
AAF8
100
AcDbEntity
  8
1
  6
Continuous
100
AcDbLine
 10
84.663128
 20
298.0877899999999
 30
0.0
 11
84.58176299999998
 21
216.9777529999998
 31
0.0
  0
LINE
  5
AB42
330
AAF8
100
AcDbEntity
  8
1
  6
Continuous
100
AcDbLine
 10
82.06357699999998
 20
298.537173
 30
0.0
 11
81.99445199999997
 21
229.6277529999999
 31
0.0
  0
LINE
  5
AB43
330
AAF8
100
AcDbEntity
  8
1
  6
Continuous
100
AcDbLine
 10
47.81474099999999
 20
298.0877899999999
 30
0.0
 11
47.896105
 21
216.9777529999998
 31
0.0
  0
LINE
  5
AB44
330
AAF8
100
AcDbEntity
  8
1
  6
Continuous
100
AcDbLine
 10
50.414291
 20
298.537173
 30
0.0
 11
50.496107
 21
216.9777529999998
 31
0.0
  0
ARC
  5
AB45
330
AAF8
100
AcDbEntity
  8
1
  6
Continuous
100
AcDbCircle
 10
53.938665
 20
254.901466
 30
0.0
 40
39.801511
100
AcDbArc
 50
332.553191
 51
359.5473579999999
  0
ARC
  5
AB46
330
AAF8
100
AcDbEntity
  8
1
  6
Continuous
100
AcDbCircle
 10
78.539203
 20
254.901466
 30
0.0
 40
39.801511
100
AcDbArc
 50
180.452642
 51
210.446211
  0
LINE
  5
AB47
330
AAF8
100
AcDbEntity
  8
4
  6
CENTER
100
AcDbLine
 10
38.33146
 20
229.6277529999999
 30
0.0
 11
96.586929
 21
229.6277529999999
 31
0.0
  0
LINE
  5
AB48
330
AAF8
100
AcDbEntity
  8
1
  6
Continuous
100
AcDbLine
 10
47.896105
 20
216.9777529999998
 30
0.0
 11
50.496107
 21
216.9777529999998
 31
0.0
  0
LINE
  5
AB49
330
AAF8
100
AcDbEntity
  8
1
  6
Continuous
100
AcDbLine
 10
50.488934
 20
224.127753
 30
0.0
 11
50.488934
 21
229.6277529999999
 31
0.0
  0
LINE
  5
AB4A
330
AAF8
100
AcDbEntity
  8
1
  6
Continuous
100
AcDbLine
 10
81.98893400000001
 20
216.9777529999998
 30
0.0
 11
81.98893400000001
 21
229.6277529999999
 31
0.0
  0
LINE
  5
AB4B
330
AAF8
100
AcDbEntity
  8
1
  6
Continuous
100
AcDbLine
 10
86.586929
 20
222.127753
 30
0.0
 11
86.586929
 21
237.1277529999999
 31
0.0
  0
LINE
  5
AB4C
330
AAF8
100
AcDbEntity
  8
1
  6
Continuous
100
AcDbLine
 10
81.981762
 20
216.9777529999998
 30
0.0
 11
84.58176299999998
 21
216.9777529999998
 31
0.0
  0
LINE
  5
AB4D
330
AAF8
100
AcDbEntity
  8
1
  6
Continuous
100
AcDbLine
 10
84.586929
 20
222.127753
 30
0.0
 11
86.586929
 21
222.127753
 31
0.0
  0
LINE
  5
AB4E
330
AAF8
100
AcDbEntity
  8
1
  6
Continuous
100
AcDbLine
 10
81.99043899999997
 20
225.6277529999999
 30
0.0
 11
81.98893400000001
 21
225.6277529999999
 31
0.0
  0
LINE
  5
AB4F
330
AAF8
100
AcDbEntity
  8
1
  6
Continuous
100
AcDbLine
 10
84.60197599999998
 20
237.1277529999999
 30
0.0
 11
86.586929
 21
237.1277529999999
 31
0.0
  0
LINE
  5
AB50
330
AAF8
100
AcDbEntity
  8
1
  6
Continuous
100
AcDbLine
 10
51.41429099999999
 20
299.5381759999999
 30
0.0
 11
81.06357800000003
 21
299.5381759999999
 31
0.0
  0
LINE
  5
AB51
330
AAF8
100
AcDbEntity
  8
1
  6
Continuous
100
AcDbLine
 10
51.814739
 20
302.0918029999999
 30
0.0
 11
80.66312999999999
 21
302.0918029999999
 31
0.0
  0
LINE
  5
AB52
330
AAF8
100
AcDbEntity
  8
1
  6
Continuous
100
AcDbLine
 10
39.552826
 20
304.312753
 30
0.0
 11
92.925026
 21
304.312753
 31
0.0
  0
ARC
  5
AB53
330
AAF8
100
AcDbEntity
  8
1
  6
Continuous
100
AcDbCircle
 10
51.814739
 20
298.0918029999999
 30
0.0
 40
4.0
100
AcDbArc
 50
90.0
 51
180.057476
  0
ARC
  5
AB54
330
AAF8
100
AcDbEntity
  8
1
  6
Continuous
100
AcDbCircle
 10
51.41429099999999
 20
298.5381759999999
 30
0.0
 40
1.0
100
AcDbArc
 50
90.0
 51
180.057476
  0
ARC
  5
AB55
330
AAF8
100
AcDbEntity
  8
1
  6
Continuous
100
AcDbCircle
 10
81.06357800000003
 20
298.5381759999999
 30
0.0
 40
1.0
100
AcDbArc
 50
359.9425239999998
 51
90.0
  0
ARC
  5
AB56
330
AAF8
100
AcDbEntity
  8
1
  6
Continuous
100
AcDbCircle
 10
80.66312999999999
 20
298.0918029999999
 30
0.0
 40
4.0
100
AcDbArc
 50
359.9425239999998
 51
90.0
  0
LINE
  5
AB57
330
AAF8
100
AcDbEntity
  8
1
  6
Continuous
100
AcDbLine
 10
38.738934
 20
297.5437529999999
 30
0.0
 11
38.738934
 21
254.587033
 31
0.0
  0
LINE
  5
AB58
330
AAF8
100
AcDbEntity
  8
1
  6
Continuous
100
AcDbLine
 10
93.738934
 20
297.5437529999999
 30
0.0
 11
93.738934
 21
254.587033
 31
0.0
  0
ARC
  5
AB59
330
AAF8
100
AcDbEntity
  8
1
  6
Continuous
100
AcDbCircle
 10
45.50793399999998
 20
297.5437529999999
 30
0.0
 40
6.769
100
AcDbArc
 50
90.0
 51
180.0
  0
ARC
  5
AB5A
330
AAF8
100
AcDbEntity
  8
1
  6
Continuous
100
AcDbCircle
 10
86.96993399999998
 20
297.5437529999999
 30
0.0
 40
6.769
100
AcDbArc
 50
0.0
 51
90.0
  0
LINE
  5
AB5B
330
AAF8
100
AcDbEntity
  8
1
  6
Continuous
100
AcDbLine
 10
84.594453
 20
229.6277529999999
 30
0.0
 11
86.586929
 21
231.620229
 31
0.0
  0
LINE
  5
AB5C
330
AAF8
100
AcDbEntity
  8
1
  6
Continuous
100
AcDbLine
 10
84.59245200000003
 20
227.6332759999998
 30
0.0
 11
86.586929
 21
229.6277529999999
 31
0.0
  0
LINE
  5
AB5D
330
AAF8
100
AcDbEntity
  8
1
  6
Continuous
100
AcDbLine
 10
379.733743
 20
297.336739
 30
0.0
 11
379.733743
 21
254.7370059999999
 31
0.0
  0
LINE
  5
AB5E
330
AAF8
100
AcDbEntity
  8
1
  6
Continuous
100
AcDbLine
 10
324.7337429999999
 20
297.336739
 30
0.0
 11
324.7337429999999
 21
254.73706
 31
0.0
  0
ARC
  5
AB5F
330
AAF8
100
AcDbEntity
  8
1
  6
Continuous
100
AcDbCircle
 10
331.859743
 20
297.336739
 30
0.0
 40
7.126
100
AcDbArc
 50
90.0
 51
180.0
  0
ARC
  5
AB60
330
AAF8
100
AcDbEntity
  8
1
  6
Continuous
100
AcDbCircle
 10
372.607743
 20
297.336739
 30
0.0
 40
7.126
100
AcDbArc
 50
0.0
 51
90.0
  0
ARC
  5
AB61
330
AAF8
100
AcDbEntity
  8
1
  6
Continuous
100
AcDbCircle
 10
598.4823169999997
 20
195.920948
 30
0.0
 40
277.8421779999998
100
AcDbArc
 50
160.1679499999999
 51
166.985586
  0
ARC
  5
AB62
330
AAF8
100
AcDbEntity
  8
1
  6
Continuous
100
AcDbCircle
 10
598.517816
 20
195.752224
 30
0.0
 40
280.2147699999999
100
AcDbArc
 50
160.8364799999999
 51
166.9559429999999
  0
ARC
  5
AB63
330
AAF8
100
AcDbEntity
  8
1
  6
Continuous
100
AcDbCircle
 10
342.5464739999999
 20
284.7600429999999
 30
0.0
 40
9.209889
100
AcDbArc
 50
100.9954699999999
 51
161.141259
  0
ARC
  5
AB64
330
AAF8
100
AcDbEntity
  8
1
  6
Continuous
100
AcDbCircle
 10
342.686212
 20
288.20501
 30
0.0
 40
5.908440999999998
100
AcDbArc
 50
108.720775
 51
160.442813
  0
ARC
  5
AB65
330
AAF8
100
AcDbEntity
  8
1
  6
Continuous
100
AcDbCircle
 10
339.933474
 20
255.051466
 30
0.0
 40
39.801511
100
AcDbArc
 50
324.005645
 51
359.5473579999999
  0
LINE
  5
AB66
330
AAF8
100
AcDbEntity
  8
1
  6
Continuous
100
AcDbLine
 10
336.419599
 20
288.221586
 30
0.0
 11
336.4909149999999
 21
217.1277529999999
 31
0.0
  0
LINE
  5
AB67
330
AAF8
100
AcDbEntity
  8
1
  6
Continuous
100
AcDbLine
 10
368.0478879999999
 20
288.221585
 30
0.0
 11
367.9765699999999
 21
217.1277529999999
 31
0.0
  0
LINE
  5
AB68
330
AAF8
100
AcDbEntity
  8
1
  6
Continuous
100
AcDbLine
 10
370.576723
 20
217.1277529999999
 30
0.0
 11
367.9765699999999
 21
217.1277529999999
 31
0.0
  0
LINE
  5
AB69
330
AAF8
100
AcDbEntity
  8
1
  6
Continuous
100
AcDbLine
 10
336.4909149999999
 20
217.1277529999999
 30
0.0
 11
333.890914
 21
217.1277529999999
 31
0.0
  0
ARC
  5
AB6A
330
AAF8
100
AcDbEntity
  8
1
  6
Continuous
100
AcDbCircle
 10
378.701521
 20
226.890666
 30
0.0
 40
8.115
100
AcDbArc
 50
144.0056449999999
 51
179.942522
  0
ARC
  5
AB6B
330
AAF8
100
AcDbEntity
  8
1
  6
Continuous
100
AcDbCircle
 10
339.933474
 20
255.051466
 30
0.0
 40
37.20151099999998
100
AcDbArc
 50
324.005645
 51
344.602802
  0
ARC
  5
AB6C
330
AAF8
100
AcDbEntity
  8
1
  6
Continuous
100
AcDbCircle
 10
378.701521
 20
226.890666
 30
0.0
 40
10.715
100
AcDbArc
 50
144.0056449999999
 51
179.942522
  0
ARC
  5
AB6D
330
AAF8
100
AcDbEntity
  8
1
  6
Continuous
100
AcDbCircle
 10
344.9482949999999
 20
253.670418
 30
0.0
 40
32.0
100
AcDbArc
 50
344.602802
 51
13.58600199999999
  0
ARC
  5
AB6E
330
AAF8
100
AcDbEntity
  8
1
  6
Continuous
100
AcDbCircle
 10
359.5191919999999
 20
253.670418
 30
0.0
 40
32.0
100
AcDbArc
 50
166.4139979999999
 51
195.3971979999998
  0
ARC
  5
AB6F
330
AAF8
100
AcDbEntity
  8
1
  6
Continuous
100
AcDbCircle
 10
357.269841
 20
251.827299
 30
0.0
 40
32.53609799999999
100
AcDbArc
 50
167.270172
 51
177.3275659999999
  0
ARC
  5
AB70
330
AAF8
100
AcDbEntity
  8
1
  6
Continuous
100
AcDbCircle
 10
364.534012
 20
255.051466
 30
0.0
 40
39.801511
100
AcDbArc
 50
180.452642
 51
215.9943549999999
  0
ARC
  5
AB71
330
AAF8
100
AcDbEntity
  8
1
  6
Continuous
100
AcDbCircle
 10
364.534012
 20
255.051466
 30
0.0
 40
37.20151099999998
100
AcDbArc
 50
195.3971979999998
 51
215.9943549999999
  0
ARC
  5
AB72
330
AAF8
100
AcDbEntity
  8
1
  6
Continuous
100
AcDbCircle
 10
325.7659659999998
 20
226.890666
 30
0.0
 40
10.715
100
AcDbArc
 50
0.057478
 51
35.994355
  0
ARC
  5
AB73
330
AAF8
100
AcDbEntity
  8
1
  6
Continuous
100
AcDbCircle
 10
325.7659659999998
 20
226.890666
 30
0.0
 40
8.115
100
AcDbArc
 50
0.057478
 51
35.994355
  0
LINE
  5
AB74
330
AAF8
100
AcDbEntity
  8
1
  6
Continuous
100
AcDbLine
 10
333.880962
 20
226.8988069999998
 30
0.0
 11
333.8907639999998
 21
217.1277529999999
 31
0.0
  0
LINE
  5
AB75
330
AAF8
100
AcDbEntity
  8
1
  6
Continuous
100
AcDbLine
 10
272.7363389999998
 20
294.7523229999998
 30
0.0
 11
272.7363389999998
 21
302.0971829999999
 31
0.0
  0
ARC
  5
AB76
330
AAF8
100
AcDbEntity
  8
1
  6
Continuous
100
AcDbCircle
 10
272.588482
 20
290.2331859999998
 30
0.0
 40
4.521554
100
AcDbArc
 50
88.126069
 51
156.3338149999998
  0
LINE
  5
AB77
330
AAF8
100
AcDbEntity
  8
4
  6
CENTER
100
AcDbLine
 10
279.236357
 20
87.422368
 30
0.0
 11
139.2363389999998
 21
87.422368
 31
0.0
  0
LINE
  5
AB78
330
AAF8
100
AcDbEntity
  8
4
  6
CENTER
100
AcDbLine
 10
245.2363389999999
 20
119.922368
 30
0.0
 11
245.2363389999999
 21
54.922368
 31
0.0
  0
LINE
  5
AB79
330
AAF8
100
AcDbEntity
  8
1
  6
Continuous
100
AcDbLine
 10
196.836339
 20
71.65441300000002
 30
0.0
 11
220.1895700000001
 21
71.67783900000002
 31
0.0
  0
LINE
  5
AB7A
330
AAF8
100
AcDbEntity
  8
1
  6
Continuous
100
AcDbLine
 10
196.836339
 20
69.054411
 30
0.0
 11
220.19218
 21
69.07784000000001
 31
0.0
  0
LINE
  5
AB7B
330
AAF8
100
AcDbEntity
  8
1
  6
Continuous
100
AcDbLine
 10
213.236339
 20
71.67086399999998
 30
0.0
 11
213.236339
 21
71.67236800000002
 31
0.0
  0
LINE
  5
AB7C
330
AAF8
100
AcDbEntity
  8
1
  6
Continuous
100
AcDbLine
 10
214.7363389999999
 20
71.67236800000002
 30
0.0
 11
209.236339
 21
71.67236800000002
 31
0.0
  0
LINE
  5
AB7D
330
AAF8
100
AcDbEntity
  8
1
  6
Continuous
100
AcDbLine
 10
203.7363389999999
 20
71.67236800000002
 30
0.0
 11
209.236339
 21
71.67236800000002
 31
0.0
  0
LINE
  5
AB7E
330
AAF8
100
AcDbEntity
  8
1
  6
Continuous
100
AcDbLine
 10
196.836339
 20
103.190325
 30
0.0
 11
220.189572
 21
103.166898
 31
0.0
  0
LINE
  5
AB7F
330
AAF8
100
AcDbEntity
  8
1
  6
Continuous
100
AcDbLine
 10
196.836339
 20
105.790326
 30
0.0
 11
220.192179
 21
105.7668969999999
 31
0.0
  0
LINE
  5
AB80
330
AAF8
100
AcDbEntity
  8
1
  6
Continuous
100
AcDbLine
 10
201.7363389999999
 20
105.78541
 30
0.0
 11
201.7363389999999
 21
107.770363
 31
0.0
  0
LINE
  5
AB81
330
AAF8
100
AcDbEntity
  8
1
  6
Continuous
100
AcDbLine
 10
211.2308159999999
 20
105.775886
 30
0.0
 11
209.236339
 21
107.770363
 31
0.0
  0
LINE
  5
AB82
330
AAF8
100
AcDbEntity
  8
1
  6
Continuous
100
AcDbLine
 10
216.7363389999999
 20
105.770363
 30
0.0
 11
216.7363389999999
 21
107.770363
 31
0.0
  0
LINE
  5
AB83
330
AAF8
100
AcDbEntity
  8
1
  6
Continuous
100
AcDbLine
 10
209.236339
 20
105.777887
 30
0.0
 11
207.2438629999998
 21
107.770363
 31
0.0
  0
LINE
  5
AB84
330
AAF8
100
AcDbEntity
  8
1
  6
Continuous
100
AcDbLine
 10
205.236339
 20
103.181899
 30
0.0
 11
205.236339
 21
103.172368
 31
0.0
  0
LINE
  5
AB85
330
AAF8
100
AcDbEntity
  8
1
  6
Continuous
100
AcDbLine
 10
203.7363389999999
 20
103.172368
 30
0.0
 11
209.236339
 21
103.172368
 31
0.0
  0
LINE
  5
AB86
330
AAF8
100
AcDbEntity
  8
1
  6
Continuous
100
AcDbLine
 10
216.7363389999999
 20
107.770363
 30
0.0
 11
201.7363389999999
 21
107.770363
 31
0.0
  0
LINE
  5
AB87
330
AAF8
100
AcDbEntity
  8
4
  6
CENTER
100
AcDbLine
 10
209.236339
 20
119.670363
 30
0.0
 11
209.236339
 21
59.06685
 31
0.0
  0
ARC
  5
AB88
330
AAF8
100
AcDbEntity
  8
1
  6
Continuous
100
AcDbCircle
 10
245.2363389999999
 20
87.422368
 30
0.0
 40
27.5
100
AcDbArc
 50
229.821137
 51
333.762068
  0
ARC
  5
AB89
330
AAF8
100
AcDbEntity
  8
1
  6
Continuous
100
AcDbCircle
 10
245.2363389999999
 20
87.422368
 30
0.0
 40
24.9
100
AcDbArc
 50
229.8211349999999
 51
329.8670609999998
  0
LINE
  5
AB8A
330
AAF8
100
AcDbEntity
  8
1
  6
Continuous
100
AcDbLine
 10
196.836339
 20
105.790326
 30
0.0
 11
196.836339
 21
103.190325
 31
0.0
  0
LINE
  5
AB8B
330
AAF8
100
AcDbEntity
  8
1
  6
Continuous
100
AcDbLine
 10
196.836339
 20
71.65441300000002
 30
0.0
 11
196.836339
 21
69.054411
 31
0.0
  0
LINE
  5
AB8C
330
AAF8
100
AcDbEntity
  8
1
  6
Continuous
100
AcDbLine
 10
221.431643
 20
69.07908299999999
 30
0.0
 11
221.447699
 21
69.07908299999999
 31
0.0
  0
ARC
  5
AB8D
330
AAF8
100
AcDbEntity
  8
1
  6
Continuous
100
AcDbCircle
 10
245.2363389999999
 20
87.422368
 30
0.0
 40
24.9
100
AcDbArc
 50
30.132939
 51
130.178862
  0
ARC
  5
AB8E
330
AAF8
100
AcDbEntity
  8
1
  6
Continuous
100
AcDbCircle
 10
245.2363389999999
 20
87.422368
 30
0.0
 40
27.5
100
AcDbArc
 50
26.237932
 51
130.1788629999998
  0
ARC
  5
AB8F
330
AAF8
100
AcDbEntity
  8
1
  6
Continuous
100
AcDbCircle
 10
245.2363389999999
 20
87.422368
 30
0.0
 40
20.89999999999999
100
AcDbArc
 50
36.732949
 51
140.9558719999999
  0
ARC
  5
AB90
330
AAF8
100
AcDbEntity
  8
1
  6
Continuous
100
AcDbCircle
 10
245.2363389999999
 20
87.422368
 30
0.0
 40
20.89999999999999
100
AcDbArc
 50
219.044124
 51
323.267051
  0
LINE
  5
AB91
330
AAF8
100
AcDbEntity
  8
1
  6
Continuous
100
AcDbLine
 10
91.586929
 20
235.6277529999999
 30
0.0
 11
91.586929
 21
223.6277529999999
 31
0.0
  0
ARC
  5
AB92
330
AAF8
100
AcDbEntity
  8
1
  6
Continuous
100
AcDbCircle
 10
80.12282799999999
 20
229.6277529999999
 30
0.0
 40
11.464102
100
AcDbArc
 50
342.4120459999999
 51
17.587954
  0
ARC
  5
AB93
330
AAF8
100
AcDbEntity
  8
1
  6
Continuous
100
AcDbCircle
 10
98.05103100000003
 20
229.6277529999999
 30
0.0
 40
11.464102
100
AcDbArc
 50
162.412046
 51
197.5879539999999
  0
LINE
  5
AB94
330
AAF8
100
AcDbEntity
  8
1
  6
Continuous
100
AcDbLine
 10
86.586929
 20
235.6277529999999
 30
0.0
 11
86.586929
 21
223.6277529999999
 31
0.0
  0
LINE
  5
AB95
330
AAF8
100
AcDbEntity
  8
1
  6
Continuous
100
AcDbLine
 10
91.05103099999999
 20
222.6995489999999
 30
0.0
 11
91.586929
 21
223.6277529999999
 31
0.0
  0
LINE
  5
AB96
330
AAF8
100
AcDbEntity
  8
1
  6
Continuous
100
AcDbLine
 10
87.122828
 20
222.6995489999999
 30
0.0
 11
86.586929
 21
223.6277529999999
 31
0.0
  0
LINE
  5
AB97
330
AAF8
100
AcDbEntity
  8
1
  6
Continuous
100
AcDbLine
 10
87.122828
 20
222.6995489999999
 30
0.0
 11
91.05103099999999
 21
222.6995489999999
 31
0.0
  0
LINE
  5
AB98
330
AAF8
100
AcDbEntity
  8
1
  6
Continuous
100
AcDbLine
 10
87.122828
 20
226.1636509999999
 30
0.0
 11
91.05103099999999
 21
226.1636509999999
 31
0.0
  0
ARC
  5
AB99
330
AAF8
100
AcDbEntity
  8
1
  6
Continuous
100
AcDbCircle
 10
89.65391600000002
 20
224.4315999999999
 30
0.0
 40
3.066986999999998
100
AcDbArc
 50
145.615753
 51
205.615753
  0
ARC
  5
AB9A
330
AAF8
100
AcDbEntity
  8
1
  6
Continuous
100
AcDbCircle
 10
88.519942
 20
224.4315999999999
 30
0.0
 40
3.066986999999998
100
AcDbArc
 50
334.384247
 51
34.38424699999998
  0
ARC
  5
AB9B
330
AAF8
100
AcDbEntity
  8
1
  6
Continuous
100
AcDbCircle
 10
88.519942
 20
234.8239049999999
 30
0.0
 40
3.066986999999998
100
AcDbArc
 50
325.6157529999999
 51
25.615753
  0
ARC
  5
AB9C
330
AAF8
100
AcDbEntity
  8
1
  6
Continuous
100
AcDbCircle
 10
89.65391600000002
 20
234.8239049999999
 30
0.0
 40
3.066986999999998
100
AcDbArc
 50
154.3842469999999
 51
214.384247
  0
LINE
  5
AB9D
330
AAF8
100
AcDbEntity
  8
1
  6
Continuous
100
AcDbLine
 10
87.122828
 20
233.091854
 30
0.0
 11
91.05103099999999
 21
233.091854
 31
0.0
  0
LINE
  5
AB9E
330
AAF8
100
AcDbEntity
  8
1
  6
Continuous
100
AcDbLine
 10
87.122828
 20
236.555956
 30
0.0
 11
91.05103099999999
 21
236.555956
 31
0.0
  0
LINE
  5
AB9F
330
AAF8
100
AcDbEntity
  8
1
  6
Continuous
100
AcDbLine
 10
87.122828
 20
236.555956
 30
0.0
 11
86.586929
 21
235.6277529999999
 31
0.0
  0
LINE
  5
ABA0
330
AAF8
100
AcDbEntity
  8
1
  6
Continuous
100
AcDbLine
 10
91.05103099999999
 20
236.555956
 30
0.0
 11
91.586929
 21
235.6277529999999
 31
0.0
  0
ARC
  5
ABA1
330
AAF8
100
AcDbEntity
  8
1
  6
Continuous
100
AcDbCircle
 10
212.2363389999999
 20
116.435427
 30
0.0
 40
8.665063999999999
100
AcDbArc
 50
249.7438419999999
 51
290.256158
  0
ARC
  5
ABA2
330
AAF8
100
AcDbEntity
  8
1
  6
Continuous
100
AcDbCircle
 10
212.2363389999999
 20
104.1053
 30
0.0
 40
8.665063999999999
100
AcDbArc
 50
69.743842
 51
110.256158
  0
LINE
  5
ABA3
330
AAF8
100
AcDbEntity
  8
1
  6
Continuous
100
AcDbLine
 10
203.2363389999999
 20
112.7703629999998
 30
0.0
 11
215.236339
 21
112.7703629999998
 31
0.0
  0
LINE
  5
ABA4
330
AAF8
100
AcDbEntity
  8
1
  6
Continuous
100
AcDbLine
 10
215.236339
 20
112.7703629999998
 30
0.0
 11
215.236339
 21
107.770363
 31
0.0
  0
ARC
  5
ABA5
330
AAF8
100
AcDbEntity
  8
1
  6
Continuous
100
AcDbCircle
 10
206.2363389999999
 20
116.435427
 30
0.0
 40
8.665063999999999
100
AcDbArc
 50
249.7438419999999
 51
290.256158
  0
ARC
  5
ABA6
330
AAF8
100
AcDbEntity
  8
1
  6
Continuous
100
AcDbCircle
 10
206.2363389999999
 20
104.1053
 30
0.0
 40
8.665063999999999
100
AcDbArc
 50
69.743842
 51
110.256158
  0
LINE
  5
ABA7
330
AAF8
100
AcDbEntity
  8
1
  6
Continuous
100
AcDbLine
 10
209.236339
 20
108.306262
 30
0.0
 11
209.236339
 21
112.2344649999998
 31
0.0
  0
LINE
  5
ABA8
330
AAF8
100
AcDbEntity
  8
1
  6
Continuous
100
AcDbLine
 10
203.2363389999999
 20
112.7703629999998
 30
0.0
 11
203.2363389999999
 21
107.770363
 31
0.0
  0
LINE
  5
ABA9
330
AAF8
100
AcDbEntity
  8
1
  6
Continuous
100
AcDbLine
 10
203.2363389999999
 20
233.0918409999999
 30
0.0
 11
203.2363389999999
 21
226.163638
 31
0.0
  0
LINE
  5
ABAA
330
AAF8
100
AcDbEntity
  8
1
  6
Continuous
100
AcDbLine
 10
215.236339
 20
233.0918409999999
 30
0.0
 11
215.236339
 21
226.163638
 31
0.0
  0
CIRCLE
  5
ABAB
330
AAF8
100
AcDbEntity
  8
1
  6
Continuous
100
AcDbCircle
 10
209.236339
 20
229.6277389999999
 30
0.0
 40
6.0
  0
LINE
  5
ABAC
330
AAF8
100
AcDbEntity
  8
1
  6
Continuous
100
AcDbLine
 10
209.236339
 20
222.699536
 30
0.0
 11
215.236339
 21
226.163638
 31
0.0
  0
LINE
  5
ABAD
330
AAF8
100
AcDbEntity
  8
1
  6
Continuous
100
AcDbLine
 10
209.236339
 20
222.699536
 30
0.0
 11
203.2363389999999
 21
226.163638
 31
0.0
  0
LINE
  5
ABAE
330
AAF8
100
AcDbEntity
  8
1
  6
Continuous
100
AcDbLine
 10
215.236339
 20
233.0918409999999
 30
0.0
 11
209.236339
 21
236.5559419999999
 31
0.0
  0
LINE
  5
ABAF
330
AAF8
100
AcDbEntity
  8
1
  6
Continuous
100
AcDbLine
 10
203.2363389999999
 20
233.0918409999999
 30
0.0
 11
209.236339
 21
236.5559419999999
 31
0.0
  0
CIRCLE
  5
ABB0
330
AAF8
100
AcDbEntity
  8
1
  6
Continuous
100
AcDbCircle
 10
209.236339
 20
229.6277389999999
 30
0.0
 40
4.0
  0
CIRCLE
  5
ABB1
330
AAF8
100
AcDbEntity
  8
2
  6
Continuous
100
AcDbCircle
 10
209.236339
 20
229.6277389999999
 30
0.0
 40
3.3235
  0
LINE
  5
ABB2
330
AAF8
100
AcDbEntity
  8
1
  6
Continuous
100
AcDbLine
 10
327.434365
 20
236.555938
 30
0.0
 11
326.898467
 21
235.627735
 31
0.0
  0
LINE
  5
ABB3
330
AAF8
100
AcDbEntity
  8
1
  6
Continuous
100
AcDbLine
 10
329.2909169999999
 20
236.555938
 30
0.0
 11
327.434365
 21
236.555938
 31
0.0
  0
LINE
  5
ABB4
330
AAF8
100
AcDbEntity
  8
1
  6
Continuous
100
AcDbLine
 10
331.362568
 20
233.091836
 30
0.0
 11
327.434365
 21
233.091836
 31
0.0
  0
ARC
  5
ABB5
330
AAF8
100
AcDbEntity
  8
1
  6
Continuous
100
AcDbCircle
 10
329.965454
 20
234.823887
 30
0.0
 40
3.066986999999998
100
AcDbArc
 50
154.3842469999999
 51
214.384247
  0
ARC
  5
ABB6
330
AAF8
100
AcDbEntity
  8
1
  6
Continuous
100
AcDbCircle
 10
329.965454
 20
224.431582
 30
0.0
 40
3.066986999999998
100
AcDbArc
 50
145.615753
 51
205.615753
  0
ARC
  5
ABB7
330
AAF8
100
AcDbEntity
  8
1
  6
Continuous
100
AcDbCircle
 10
328.831479
 20
224.431582
 30
0.0
 40
3.066986999999998
100
AcDbArc
 50
334.384247
 51
34.38424699999998
  0
LINE
  5
ABB8
330
AAF8
100
AcDbEntity
  8
1
  6
Continuous
100
AcDbLine
 10
331.362568
 20
226.1636329999999
 30
0.0
 11
327.434365
 21
226.1636329999999
 31
0.0
  0
LINE
  5
ABB9
330
AAF8
100
AcDbEntity
  8
1
  6
Continuous
100
AcDbLine
 10
331.362568
 20
222.6995309999999
 30
0.0
 11
327.434365
 21
222.6995309999999
 31
0.0
  0
LINE
  5
ABBA
330
AAF8
100
AcDbEntity
  8
1
  6
Continuous
100
AcDbLine
 10
331.362568
 20
222.6995309999999
 30
0.0
 11
331.8984669999999
 21
223.6277349999999
 31
0.0
  0
LINE
  5
ABBB
330
AAF8
100
AcDbEntity
  8
1
  6
Continuous
100
AcDbLine
 10
327.434365
 20
222.6995309999999
 30
0.0
 11
326.898467
 21
223.6277349999999
 31
0.0
  0
LINE
  5
ABBC
330
AAF8
100
AcDbEntity
  8
1
  6
Continuous
100
AcDbLine
 10
331.8984669999999
 20
232.2681059999999
 30
0.0
 11
331.8984669999999
 21
223.6277349999999
 31
0.0
  0
ARC
  5
ABBD
330
AAF8
100
AcDbEntity
  8
1
  6
Continuous
100
AcDbCircle
 10
320.434365
 20
229.6277349999999
 30
0.0
 40
11.464102
100
AcDbArc
 50
342.4120459999999
 51
17.587954
  0
ARC
  5
ABBE
330
AAF8
100
AcDbEntity
  8
1
  6
Continuous
100
AcDbCircle
 10
338.362568
 20
229.6277349999999
 30
0.0
 40
11.464102
100
AcDbArc
 50
162.412046
 51
197.5879539999999
  0
LINE
  5
ABBF
330
AAF8
100
AcDbEntity
  8
1
  6
Continuous
100
AcDbLine
 10
326.898467
 20
235.627735
 30
0.0
 11
326.898467
 21
223.6277349999999
 31
0.0
  0
LINE
  5
ABC0
330
AAF8
100
AcDbEntity
  8
1
  6
Continuous
100
AcDbLine
 10
333.8984669999998
 20
222.127735
 30
0.0
 11
331.8984669999999
 21
222.127735
 31
0.0
  0
LINE
  5
ABC1
330
AAF8
100
AcDbEntity
  8
1
  6
Continuous
100
AcDbLine
 10
331.8984669999999
 20
222.127735
 30
0.0
 11
331.8984669999999
 21
232.2681059999999
 31
0.0
  0
LINE
  5
ABC2
330
AAF8
100
AcDbEntity
  8
1
  6
Continuous
100
AcDbLine
 10
332.9449569999998
 20
230.674225
 30
0.0
 11
331.8984669999999
 21
229.6277349999999
 31
0.0
  0
LINE
  5
ABC3
330
AAF8
100
AcDbEntity
  8
1
  6
Continuous
100
AcDbLine
 10
333.523417
 20
229.2729279999999
 30
0.0
 11
331.8984669999999
 21
227.6479769999999
 31
0.0
  0
CIRCLE
  5
ABC4
330
AAF8
100
AcDbEntity
  8
1
  6
Continuous
100
AcDbCircle
 10
209.236339
 20
229.6277389999999
 30
0.0
 40
7.5
  0
LINE
  5
ABC5
330
AAF8
100
AcDbEntity
  8
1
  6
Continuous
100
AcDbLine
 10
205.236339
 20
113.6703629999999
 30
0.0
 11
213.236339
 21
113.6703629999999
 31
0.0
  0
LINE
  5
ABC6
330
AAF8
100
AcDbEntity
  8
1
  6
Continuous
100
AcDbLine
 10
206.2363389999999
 20
114.6703629999999
 30
0.0
 11
212.2363389999999
 21
114.6703629999999
 31
0.0
  0
LINE
  5
ABC7
330
AAF8
100
AcDbEntity
  8
1
  6
Continuous
100
AcDbLine
 10
205.236339
 20
112.7703629999998
 30
0.0
 11
205.236339
 21
113.6703629999999
 31
0.0
  0
LINE
  5
ABC8
330
AAF8
100
AcDbEntity
  8
1
  6
Continuous
100
AcDbLine
 10
213.236339
 20
112.7703629999998
 30
0.0
 11
213.236339
 21
113.6703629999999
 31
0.0
  0
LINE
  5
ABC9
330
AAF8
100
AcDbEntity
  8
2
  6
Continuous
100
AcDbLine
 10
212.5598389999999
 20
112.7703629999998
 30
0.0
 11
212.5598389999999
 21
114.3468629999998
 31
0.0
  0
LINE
  5
ABCA
330
AAF8
100
AcDbEntity
  8
2
  6
Continuous
100
AcDbLine
 10
205.912839
 20
112.7703629999998
 30
0.0
 11
205.912839
 21
114.3468629999998
 31
0.0
  0
LINE
  5
ABCB
330
AAF8
100
AcDbEntity
  8
1
  6
Continuous
100
AcDbLine
 10
206.2363389999999
 20
114.6703629999999
 30
0.0
 11
205.236339
 21
113.6703629999999
 31
0.0
  0
LINE
  5
ABCC
330
AAF8
100
AcDbEntity
  8
1
  6
Continuous
100
AcDbLine
 10
212.2363389999999
 20
114.6703629999999
 30
0.0
 11
213.236339
 21
113.6703629999999
 31
0.0
  0
LINE
  5
ABCD
330
AAF8
100
AcDbEntity
  8
1
  6
Continuous
100
AcDbLine
 10
93.48692900000001
 20
232.627753
 30
0.0
 11
92.48692899999999
 21
233.6277529999999
 31
0.0
  0
LINE
  5
ABCE
330
AAF8
100
AcDbEntity
  8
1
  6
Continuous
100
AcDbLine
 10
93.48692900000001
 20
226.6277529999999
 30
0.0
 11
92.48692899999999
 21
225.6277529999999
 31
0.0
  0
LINE
  5
ABCF
330
AAF8
100
AcDbEntity
  8
2
  6
Continuous
100
AcDbLine
 10
91.586929
 20
226.3042529999999
 30
0.0
 11
93.163429
 21
226.3042529999999
 31
0.0
  0
LINE
  5
ABD0
330
AAF8
100
AcDbEntity
  8
2
  6
Continuous
100
AcDbLine
 10
91.586929
 20
232.9512529999998
 30
0.0
 11
93.163429
 21
232.9512529999998
 31
0.0
  0
LINE
  5
ABD1
330
AAF8
100
AcDbEntity
  8
1
  6
Continuous
100
AcDbLine
 10
91.586929
 20
233.6277529999999
 30
0.0
 11
92.48692899999999
 21
233.6277529999999
 31
0.0
  0
LINE
  5
ABD2
330
AAF8
100
AcDbEntity
  8
1
  6
Continuous
100
AcDbLine
 10
91.586929
 20
225.6277529999999
 30
0.0
 11
92.48692899999999
 21
225.6277529999999
 31
0.0
  0
LINE
  5
ABD3
330
AAF8
100
AcDbEntity
  8
1
  6
Continuous
100
AcDbLine
 10
93.48692900000001
 20
226.6277529999999
 30
0.0
 11
93.48692900000001
 21
232.627753
 31
0.0
  0
LINE
  5
ABD4
330
AAF8
100
AcDbEntity
  8
1
  6
Continuous
100
AcDbLine
 10
92.48692899999999
 20
225.6277529999999
 30
0.0
 11
92.48692899999999
 21
233.6277529999999
 31
0.0
  0
LINE
  5
ABD5
330
AAF8
100
AcDbEntity
  8
1
  6
Continuous
100
AcDbLine
 10
324.9984669999999
 20
226.627735
 30
0.0
 11
324.9984669999999
 21
232.627735
 31
0.0
  0
LINE
  5
ABD6
330
AAF8
100
AcDbEntity
  8
1
  6
Continuous
100
AcDbLine
 10
326.898467
 20
233.627735
 30
0.0
 11
325.998467
 21
233.627735
 31
0.0
  0
LINE
  5
ABD7
330
AAF8
100
AcDbEntity
  8
1
  6
Continuous
100
AcDbLine
 10
326.898467
 20
225.6277349999999
 30
0.0
 11
325.998467
 21
225.6277349999999
 31
0.0
  0
LINE
  5
ABD8
330
AAF8
100
AcDbEntity
  8
1
  6
Continuous
100
AcDbLine
 10
325.998467
 20
225.6277349999999
 30
0.0
 11
325.998467
 21
233.627735
 31
0.0
  0
LINE
  5
ABD9
330
AAF8
100
AcDbEntity
  8
1
  6
Continuous
100
AcDbLine
 10
324.9984669999999
 20
232.627735
 30
0.0
 11
325.998467
 21
233.627735
 31
0.0
  0
LINE
  5
ABDA
330
AAF8
100
AcDbEntity
  8
1
  6
Continuous
100
AcDbLine
 10
324.9984669999999
 20
226.627735
 30
0.0
 11
325.998467
 21
225.6277349999999
 31
0.0
  0
LINE
  5
ABDB
330
AAF8
100
AcDbEntity
  8
2
  6
Continuous
100
AcDbLine
 10
326.898467
 20
226.304235
 30
0.0
 11
325.321967
 21
226.304235
 31
0.0
  0
LINE
  5
ABDC
330
AAF8
100
AcDbEntity
  8
2
  6
Continuous
100
AcDbLine
 10
326.898467
 20
232.9512349999999
 30
0.0
 11
325.321967
 21
232.9512349999999
 31
0.0
  0
LINE
  5
ABDD
330
AAF8
100
AcDbEntity
  8
1
  6
Continuous
100
AcDbLine
 10
78.738934
 20
170.779255
 30
0.0
 11
78.738934
 21
288.4762499999999
 31
0.0
  0
LINE
  5
ABDE
330
AAF8
100
AcDbEntity
  8
1
  6
Continuous
100
AcDbLine
 10
53.738934
 20
170.779255
 30
0.0
 11
53.738934
 21
288.4762499999999
 31
0.0
  0
ARC
  5
ABDF
330
AAF8
100
AcDbEntity
  8
1
  6
Continuous
100
AcDbCircle
 10
66.238934
 20
194.627735
 30
0.0
 40
30.0
100
AcDbArc
 50
252.542397
 51
287.457603
  0
ARC
  5
ABE0
330
AAF8
100
AcDbEntity
  8
1
  6
Continuous
100
AcDbCircle
 10
58.738934
 20
170.779255
 30
0.0
 40
5.0
100
AcDbArc
 50
180.0
 51
252.542397
  0
ARC
  5
ABE1
330
AAF8
100
AcDbEntity
  8
1
  6
Continuous
100
AcDbCircle
 10
73.738934
 20
170.779255
 30
0.0
 40
5.0
100
AcDbArc
 50
287.457603
 51
0.0
  0
LINE
  5
ABE2
330
AAF8
100
AcDbEntity
  8
1
  6
Continuous
100
AcDbLine
 10
81.238934
 20
222.6277529999999
 30
0.0
 11
81.238934
 21
236.627753
 31
0.0
  0
LINE
  5
ABE3
330
AAF8
100
AcDbEntity
  8
1
  6
Continuous
100
AcDbLine
 10
80.238934
 20
221.6277529999999
 30
0.0
 11
80.238934
 21
237.6277529999999
 31
0.0
  0
LINE
  5
ABE4
330
AAF8
100
AcDbEntity
  8
1
  6
Continuous
100
AcDbLine
 10
51.238934
 20
222.6277529999999
 30
0.0
 11
51.238934
 21
236.627753
 31
0.0
  0
LINE
  5
ABE5
330
AAF8
100
AcDbEntity
  8
1
  6
Continuous
100
AcDbLine
 10
52.238934
 20
221.6277529999999
 30
0.0
 11
52.238934
 21
237.6277529999999
 31
0.0
  0
ARC
  5
ABE6
330
AAF8
100
AcDbEntity
  8
1
  6
Continuous
100
AcDbCircle
 10
53.06180999999998
 20
223.4506279999999
 30
0.0
 40
2.0
100
AcDbArc
 50
204.295189
 51
245.704811
  0
ARC
  5
ABE7
330
AAF8
100
AcDbEntity
  8
1
  6
Continuous
100
AcDbCircle
 10
248.457737
 20
229.632221
 30
0.0
 40
196.382
100
AcDbArc
 50
182.3360049999998
 51
187.4621799999999
  0
ARC
  5
ABE8
330
AAF8
100
AcDbEntity
  8
1
  6
Continuous
100
AcDbCircle
 10
79.41605899999998
 20
223.4506279999999
 30
0.0
 40
2.0
100
AcDbArc
 50
294.2951889999998
 51
335.704811
  0
ARC
  5
ABE9
330
AAF8
100
AcDbEntity
  8
1
  6
Continuous
100
AcDbCircle
 10
-115.9798679999999
 20
229.632221
 30
0.0
 40
196.382
100
AcDbArc
 50
352.53782
 51
357.663995
  0
ARC
  5
ABEA
330
AAF8
100
AcDbEntity
  8
1
  6
Continuous
100
AcDbCircle
 10
248.45737
 20
229.6233149999999
 30
0.0
 40
196.381632
100
AcDbArc
 50
172.537815
 51
177.6639999999999
  0
LINE
  5
ABEB
330
AAF8
100
AcDbEntity
  8
1
  6
Continuous
100
AcDbLine
 10
50.738934
 20
224.127753
 30
0.0
 11
50.738934
 21
235.1277529999999
 31
0.0
  0
LINE
  5
ABEC
330
AAF8
100
AcDbEntity
  8
1
  6
Continuous
100
AcDbLine
 10
50.738934
 20
224.127753
 30
0.0
 11
51.238934
 21
224.127753
 31
0.0
  0
LINE
  5
ABED
330
AAF8
100
AcDbEntity
  8
1
  6
Continuous
100
AcDbLine
 10
50.48742999999999
 20
225.6277529999999
 30
0.0
 11
50.738934
 21
225.6277529999999
 31
0.0
  0
LINE
  5
ABEE
330
AAF8
100
AcDbEntity
  8
1
  6
Continuous
100
AcDbLine
 10
50.738934
 20
235.1277529999999
 30
0.0
 11
51.238934
 21
235.1277529999999
 31
0.0
  0
LINE
  5
ABEF
330
AAF8
100
AcDbEntity
  8
1
  6
Continuous
100
AcDbLine
 10
50.479405
 20
233.6277529999999
 30
0.0
 11
50.738934
 21
233.6277529999999
 31
0.0
  0
ARC
  5
ABF0
330
AAF8
100
AcDbEntity
  8
1
  6
Continuous
100
AcDbCircle
 10
53.06180999999998
 20
235.8048769999999
 30
0.0
 40
2.0
100
AcDbArc
 50
114.2951889999998
 51
155.704811
  0
ARC
  5
ABF1
330
AAF8
100
AcDbEntity
  8
1
  6
Continuous
100
AcDbCircle
 10
-115.9798679999999
 20
229.623284
 30
0.0
 40
196.382
100
AcDbArc
 50
2.336005
 51
7.46218
  0
LINE
  5
ABF2
330
AAF8
100
AcDbEntity
  8
1
  6
Continuous
100
AcDbLine
 10
81.738934
 20
224.127753
 30
0.0
 11
81.738934
 21
235.1277529999999
 31
0.0
  0
LINE
  5
ABF3
330
AAF8
100
AcDbEntity
  8
1
  6
Continuous
100
AcDbLine
 10
81.738934
 20
225.6277529999999
 30
0.0
 11
81.98893400000001
 21
225.6277529999999
 31
0.0
  0
LINE
  5
ABF4
330
AAF8
100
AcDbEntity
  8
1
  6
Continuous
100
AcDbLine
 10
81.738934
 20
233.6277529999999
 30
0.0
 11
81.998464
 21
233.6277529999999
 31
0.0
  0
ARC
  5
ABF5
330
AAF8
100
AcDbEntity
  8
1
  6
Continuous
100
AcDbCircle
 10
79.41605899999998
 20
235.8048769999999
 30
0.0
 40
2.0
100
AcDbArc
 50
24.295189
 51
65.70481099999999
  0
LINE
  5
ABF6
330
AAF8
100
AcDbEntity
  8
1
  6
Continuous
100
AcDbLine
 10
81.238934
 20
224.127753
 30
0.0
 11
81.738934
 21
224.127753
 31
0.0
  0
LINE
  5
ABF7
330
AAF8
100
AcDbEntity
  8
1
  6
Continuous
100
AcDbLine
 10
81.238934
 20
235.1277529999999
 30
0.0
 11
81.738934
 21
235.1277529999999
 31
0.0
  0
ARC
  5
ABF8
330
AAF8
100
AcDbEntity
  8
1
  6
Continuous
100
AcDbCircle
 10
66.238934
 20
264.62777
 30
0.0
 40
30.0
100
AcDbArc
 50
72.54239699999998
 51
107.457603
  0
ARC
  5
ABF9
330
AAF8
100
AcDbEntity
  8
1
  6
Continuous
100
AcDbCircle
 10
58.738934
 20
288.4762499999999
 30
0.0
 40
5.0
100
AcDbArc
 50
107.457603
 51
180.0
  0
ARC
  5
ABFA
330
AAF8
100
AcDbEntity
  8
1
  6
Continuous
100
AcDbCircle
 10
73.738934
 20
288.4762499999999
 30
0.0
 40
5.0
100
AcDbArc
 50
0.0
 51
72.54239699999998
  0
LINE
  5
ABFB
330
AAF8
100
AcDbEntity
  8
1
  6
Continuous
100
AcDbLine
 10
364.733743
 20
170.7792369999999
 30
0.0
 11
364.733743
 21
288.4762319999999
 31
0.0
  0
LINE
  5
ABFC
330
AAF8
100
AcDbEntity
  8
1
  6
Continuous
100
AcDbLine
 10
339.733743
 20
170.7792369999999
 30
0.0
 11
339.733743
 21
288.4762319999999
 31
0.0
  0
ARC
  5
ABFD
330
AAF8
100
AcDbEntity
  8
1
  6
Continuous
100
AcDbCircle
 10
352.233743
 20
194.6277169999999
 30
0.0
 40
30.0
100
AcDbArc
 50
252.542397
 51
287.457603
  0
ARC
  5
ABFE
330
AAF8
100
AcDbEntity
  8
1
  6
Continuous
100
AcDbCircle
 10
344.733743
 20
170.7792369999999
 30
0.0
 40
5.0
100
AcDbArc
 50
180.0
 51
252.542397
  0
ARC
  5
ABFF
330
AAF8
100
AcDbEntity
  8
1
  6
Continuous
100
AcDbCircle
 10
359.733743
 20
170.7792369999999
 30
0.0
 40
5.0
100
AcDbArc
 50
287.457603
 51
0.0
  0
LINE
  5
AC00
330
AAF8
100
AcDbEntity
  8
1
  6
Continuous
100
AcDbLine
 10
367.233743
 20
222.627735
 30
0.0
 11
367.233743
 21
236.627735
 31
0.0
  0
LINE
  5
AC01
330
AAF8
100
AcDbEntity
  8
1
  6
Continuous
100
AcDbLine
 10
366.233743
 20
221.6277349999999
 30
0.0
 11
366.233743
 21
237.627735
 31
0.0
  0
LINE
  5
AC02
330
AAF8
100
AcDbEntity
  8
1
  6
Continuous
100
AcDbLine
 10
337.2337429999999
 20
222.627735
 30
0.0
 11
337.2337429999999
 21
236.627735
 31
0.0
  0
LINE
  5
AC03
330
AAF8
100
AcDbEntity
  8
1
  6
Continuous
100
AcDbLine
 10
338.233743
 20
221.6277349999999
 30
0.0
 11
338.233743
 21
237.627735
 31
0.0
  0
ARC
  5
AC04
330
AAF8
100
AcDbEntity
  8
1
  6
Continuous
100
AcDbCircle
 10
339.056619
 20
223.45061
 30
0.0
 40
2.0
100
AcDbArc
 50
204.295189
 51
245.704811
  0
ARC
  5
AC05
330
AAF8
100
AcDbEntity
  8
1
  6
Continuous
100
AcDbCircle
 10
534.4525459999998
 20
229.6322029999998
 30
0.0
 40
196.382
100
AcDbArc
 50
182.3360049999998
 51
187.4621799999999
  0
ARC
  5
AC06
330
AAF8
100
AcDbEntity
  8
1
  6
Continuous
100
AcDbCircle
 10
365.410868
 20
223.45061
 30
0.0
 40
2.0
100
AcDbArc
 50
294.2951889999998
 51
335.704811
  0
ARC
  5
AC07
330
AAF8
100
AcDbEntity
  8
1
  6
Continuous
100
AcDbCircle
 10
170.0149409999999
 20
229.6322029999998
 30
0.0
 40
196.382
100
AcDbArc
 50
352.53782
 51
357.663995
  0
ARC
  5
AC08
330
AAF8
100
AcDbEntity
  8
1
  6
Continuous
100
AcDbCircle
 10
534.4521789999999
 20
229.623297
 30
0.0
 40
196.381632
100
AcDbArc
 50
172.537815
 51
177.6639999999999
  0
LINE
  5
AC09
330
AAF8
100
AcDbEntity
  8
1
  6
Continuous
100
AcDbLine
 10
336.733743
 20
224.127735
 30
0.0
 11
336.733743
 21
235.127735
 31
0.0
  0
LINE
  5
AC0A
330
AAF8
100
AcDbEntity
  8
1
  6
Continuous
100
AcDbLine
 10
336.733743
 20
224.127735
 30
0.0
 11
337.2337429999999
 21
224.127735
 31
0.0
  0
LINE
  5
AC0B
330
AAF8
100
AcDbEntity
  8
1
  6
Continuous
100
AcDbLine
 10
336.482389
 20
225.6277349999999
 30
0.0
 11
336.733743
 21
225.6277349999999
 31
0.0
  0
LINE
  5
AC0C
330
AAF8
100
AcDbEntity
  8
1
  6
Continuous
100
AcDbLine
 10
336.733743
 20
235.127735
 30
0.0
 11
337.2337429999999
 21
235.127735
 31
0.0
  0
LINE
  5
AC0D
330
AAF8
100
AcDbEntity
  8
1
  6
Continuous
100
AcDbLine
 10
336.4743639999999
 20
233.627735
 30
0.0
 11
336.733743
 21
233.627735
 31
0.0
  0
ARC
  5
AC0E
330
AAF8
100
AcDbEntity
  8
1
  6
Continuous
100
AcDbCircle
 10
339.056619
 20
235.804859
 30
0.0
 40
2.0
100
AcDbArc
 50
114.2951889999998
 51
155.704811
  0
ARC
  5
AC0F
330
AAF8
100
AcDbEntity
  8
1
  6
Continuous
100
AcDbCircle
 10
170.0149409999999
 20
229.623266
 30
0.0
 40
196.382
100
AcDbArc
 50
2.336005
 51
7.46218
  0
LINE
  5
AC10
330
AAF8
100
AcDbEntity
  8
1
  6
Continuous
100
AcDbLine
 10
367.733743
 20
224.127735
 30
0.0
 11
367.733743
 21
235.127735
 31
0.0
  0
LINE
  5
AC11
330
AAF8
100
AcDbEntity
  8
1
  6
Continuous
100
AcDbLine
 10
367.733743
 20
225.6277349999999
 30
0.0
 11
367.9850969999998
 21
225.6277349999999
 31
0.0
  0
LINE
  5
AC12
330
AAF8
100
AcDbEntity
  8
1
  6
Continuous
100
AcDbLine
 10
367.733743
 20
233.627735
 30
0.0
 11
367.993122
 21
233.627735
 31
0.0
  0
ARC
  5
AC13
330
AAF8
100
AcDbEntity
  8
1
  6
Continuous
100
AcDbCircle
 10
365.410868
 20
235.804859
 30
0.0
 40
2.0
100
AcDbArc
 50
24.295189
 51
65.70481099999999
  0
LINE
  5
AC14
330
AAF8
100
AcDbEntity
  8
1
  6
Continuous
100
AcDbLine
 10
367.233743
 20
224.127735
 30
0.0
 11
367.733743
 21
224.127735
 31
0.0
  0
LINE
  5
AC15
330
AAF8
100
AcDbEntity
  8
1
  6
Continuous
100
AcDbLine
 10
367.233743
 20
235.127735
 30
0.0
 11
367.733743
 21
235.127735
 31
0.0
  0
ARC
  5
AC16
330
AAF8
100
AcDbEntity
  8
1
  6
Continuous
100
AcDbCircle
 10
352.233743
 20
264.6277519999998
 30
0.0
 40
30.0
100
AcDbArc
 50
72.54239699999998
 51
107.457603
  0
ARC
  5
AC17
330
AAF8
100
AcDbEntity
  8
1
  6
Continuous
100
AcDbCircle
 10
344.733743
 20
288.4762319999999
 30
0.0
 40
5.0
100
AcDbArc
 50
107.457603
 51
180.0
  0
ARC
  5
AC18
330
AAF8
100
AcDbEntity
  8
1
  6
Continuous
100
AcDbCircle
 10
359.733743
 20
288.4762319999999
 30
0.0
 40
5.0
100
AcDbArc
 50
0.0
 51
72.54239699999998
  0
LINE
  5
AC19
330
AAF8
100
AcDbEntity
  8
1
  6
Continuous
100
AcDbLine
 10
268.084837
 20
74.922368
 30
0.0
 11
150.387842
 21
74.922368
 31
0.0
  0
LINE
  5
AC1A
330
AAF8
100
AcDbEntity
  8
1
  6
Continuous
100
AcDbLine
 10
268.084837
 20
99.922368
 30
0.0
 11
150.387842
 21
99.922368
 31
0.0
  0
ARC
  5
AC1B
330
AAF8
100
AcDbEntity
  8
1
  6
Continuous
100
AcDbCircle
 10
150.387842
 20
79.922368
 30
0.0
 40
5.0
100
AcDbArc
 50
197.457603
 51
270.0
  0
ARC
  5
AC1C
330
AAF8
100
AcDbEntity
  8
1
  6
Continuous
100
AcDbCircle
 10
150.387842
 20
94.922368
 30
0.0
 40
5.0
100
AcDbArc
 50
90.0
 51
162.5423969999999
  0
ARC
  5
AC1D
330
AAF8
100
AcDbEntity
  8
1
  6
Continuous
100
AcDbCircle
 10
174.236322
 20
87.422368
 30
0.0
 40
30.0
100
AcDbArc
 50
162.5423969999999
 51
197.457603
  0
ARC
  5
AC1E
330
AAF8
100
AcDbEntity
  8
1
  6
Continuous
100
AcDbCircle
 10
268.084837
 20
79.922368
 30
0.0
 40
5.0
100
AcDbArc
 50
270.0
 51
342.542397
  0
LINE
  5
AC1F
330
AAF8
100
AcDbEntity
  8
1
  6
Continuous
100
AcDbLine
 10
217.236339
 20
73.42236800000002
 30
0.0
 11
201.2363389999999
 21
73.42236800000002
 31
0.0
  0
LINE
  5
AC20
330
AAF8
100
AcDbEntity
  8
1
  6
Continuous
100
AcDbLine
 10
216.2363389999999
 20
72.422368
 30
0.0
 11
202.2363389999999
 21
72.422368
 31
0.0
  0
LINE
  5
AC21
330
AAF8
100
AcDbEntity
  8
1
  6
Continuous
100
AcDbLine
 10
214.7363389999999
 20
71.92236800000002
 30
0.0
 11
203.7363389999999
 21
71.92236800000002
 31
0.0
  0
ARC
  5
AC22
330
AAF8
100
AcDbEntity
  8
1
  6
Continuous
100
AcDbCircle
 10
209.240777
 20
269.640804
 30
0.0
 40
196.381632
100
AcDbArc
 50
262.5378149999999
 51
267.6639999999998
  0
LINE
  5
AC23
330
AAF8
100
AcDbEntity
  8
1
  6
Continuous
100
AcDbLine
 10
213.236339
 20
71.597859
 30
0.0
 11
213.236339
 21
71.92236800000002
 31
0.0
  0
LINE
  5
AC24
330
AAF8
100
AcDbEntity
  8
1
  6
Continuous
100
AcDbLine
 10
205.236339
 20
71.597859
 30
0.0
 11
205.236339
 21
71.92236800000002
 31
0.0
  0
ARC
  5
AC25
330
AAF8
100
AcDbEntity
  8
1
  6
Continuous
100
AcDbCircle
 10
203.0592149999999
 20
74.245244
 30
0.0
 40
2.0
100
AcDbArc
 50
204.295189
 51
245.704811
  0
LINE
  5
AC26
330
AAF8
100
AcDbEntity
  8
1
  6
Continuous
100
AcDbLine
 10
203.7363389999999
 20
71.92236800000002
 30
0.0
 11
203.7363389999999
 21
72.422368
 31
0.0
  0
ARC
  5
AC27
330
AAF8
100
AcDbEntity
  8
1
  6
Continuous
100
AcDbCircle
 10
209.2318709999999
 20
269.641171
 30
0.0
 40
196.382
100
AcDbArc
 50
272.336005
 51
277.4621799999998
  0
ARC
  5
AC28
330
AAF8
100
AcDbEntity
  8
1
  6
Continuous
100
AcDbCircle
 10
215.413464
 20
74.245244
 30
0.0
 40
2.0
100
AcDbArc
 50
294.2951889999998
 51
335.704811
  0
LINE
  5
AC29
330
AAF8
100
AcDbEntity
  8
1
  6
Continuous
100
AcDbLine
 10
214.7363389999999
 20
71.92236800000002
 30
0.0
 11
214.7363389999999
 21
72.422368
 31
0.0
  0
LINE
  5
AC2A
330
AAF8
100
AcDbEntity
  8
1
  6
Continuous
100
AcDbLine
 10
217.236339
 20
101.422368
 30
0.0
 11
201.2363389999999
 21
101.422368
 31
0.0
  0
LINE
  5
AC2B
330
AAF8
100
AcDbEntity
  8
1
  6
Continuous
100
AcDbLine
 10
216.2363389999999
 20
102.4223679999999
 30
0.0
 11
202.2363389999999
 21
102.4223679999999
 31
0.0
  0
LINE
  5
AC2C
330
AAF8
100
AcDbEntity
  8
1
  6
Continuous
100
AcDbLine
 10
214.7363389999999
 20
102.922368
 30
0.0
 11
203.7363389999999
 21
102.922368
 31
0.0
  0
ARC
  5
AC2D
330
AAF8
100
AcDbEntity
  8
1
  6
Continuous
100
AcDbCircle
 10
209.2408079999999
 20
-94.79643399999996
 30
0.0
 40
196.382
100
AcDbArc
 50
92.33600499999999
 51
97.46218000000002
  0
LINE
  5
AC2E
330
AAF8
100
AcDbEntity
  8
1
  6
Continuous
100
AcDbLine
 10
213.236339
 20
102.922368
 30
0.0
 11
213.236339
 21
103.2468769999999
 31
0.0
  0
LINE
  5
AC2F
330
AAF8
100
AcDbEntity
  8
1
  6
Continuous
100
AcDbLine
 10
205.236339
 20
102.922368
 30
0.0
 11
205.236339
 21
103.2468769999999
 31
0.0
  0
ARC
  5
AC30
330
AAF8
100
AcDbEntity
  8
1
  6
Continuous
100
AcDbCircle
 10
203.0592149999999
 20
100.599493
 30
0.0
 40
2.0
100
AcDbArc
 50
114.2951889999998
 51
155.704811
  0
LINE
  5
AC31
330
AAF8
100
AcDbEntity
  8
1
  6
Continuous
100
AcDbLine
 10
203.7363389999999
 20
102.4223679999999
 30
0.0
 11
203.7363389999999
 21
102.922368
 31
0.0
  0
ARC
  5
AC32
330
AAF8
100
AcDbEntity
  8
1
  6
Continuous
100
AcDbCircle
 10
209.2318709999999
 20
-94.79643399999996
 30
0.0
 40
196.382
100
AcDbArc
 50
82.53781999999999
 51
87.663995
  0
ARC
  5
AC33
330
AAF8
100
AcDbEntity
  8
1
  6
Continuous
100
AcDbCircle
 10
215.413464
 20
100.599493
 30
0.0
 40
2.0
100
AcDbArc
 50
24.295189
 51
65.70481099999999
  0
LINE
  5
AC34
330
AAF8
100
AcDbEntity
  8
1
  6
Continuous
100
AcDbLine
 10
214.7363389999999
 20
102.4223679999999
 30
0.0
 11
214.7363389999999
 21
102.922368
 31
0.0
  0
ARC
  5
AC35
330
AAF8
100
AcDbEntity
  8
1
  6
Continuous
100
AcDbCircle
 10
268.084837
 20
94.922368
 30
0.0
 40
5.0
100
AcDbArc
 50
17.45760299999999
 51
90.0
  0
ARC
  5
AC36
330
AAF8
100
AcDbEntity
  8
1
  6
Continuous
100
AcDbCircle
 10
244.2363569999999
 20
87.422368
 30
0.0
 40
30.0
100
AcDbArc
 50
342.542397
 51
17.45760299999999
  0
LINE
  5
AC37
330
AAF8
100
AcDbEntity
  8
1
  6
Continuous
100
AcDbLine
 10
202.2363389999999
 20
66.740612
 30
0.0
 11
202.2363389999999
 21
69.06685
 31
0.0
  0
LINE
  5
AC38
330
AAF8
100
AcDbEntity
  8
1
  6
Continuous
100
AcDbLine
 10
216.2363389999999
 20
66.740612
 30
0.0
 11
202.2363389999999
 21
66.740612
 31
0.0
  0
ARC
  5
AC39
330
AAF8
100
AcDbEntity
  8
1
  6
Continuous
100
AcDbCircle
 10
209.236339
 20
74.56685
 30
0.0
 40
10.5
100
AcDbArc
 50
228.1896849999998
 51
311.810315
  0
LINE
  5
AC3A
330
AAF8
100
AcDbEntity
  8
1
  6
Continuous
100
AcDbLine
 10
216.2363389999999
 20
66.740612
 30
0.0
 11
216.2363389999999
 21
69.06685
 31
0.0
  0
LINE
  5
AC3B
330
AAF8
100
AcDbEntity
  8
1
  6
Continuous
100
AcDbLine
 10
45.557178
 20
236.627753
 30
0.0
 11
45.557178
 21
222.6277529999999
 31
0.0
  0
ARC
  5
AC3C
330
AAF8
100
AcDbEntity
  8
1
  6
Continuous
100
AcDbCircle
 10
53.38341599999999
 20
229.6277529999999
 30
0.0
 40
10.5
100
AcDbArc
 50
138.1896849999999
 51
221.810315
  0
LINE
  5
AC3D
330
AAF8
100
AcDbEntity
  8
1
  6
Continuous
100
AcDbLine
 10
45.557178
 20
222.6277529999999
 30
0.0
 11
47.88341599999998
 21
222.6277529999999
 31
0.0
  0
LINE
  5
AC3E
330
AAF8
100
AcDbEntity
  8
1
  6
Continuous
100
AcDbLine
 10
45.557178
 20
236.627753
 30
0.0
 11
47.88341599999998
 21
236.627753
 31
0.0
  0
LINE
  5
AC3F
330
AAF8
100
AcDbEntity
  8
1
  6
Continuous
100
AcDbLine
 10
372.9155009999999
 20
232.7726359999998
 30
0.0
 11
372.9155009999999
 21
222.627735
 31
0.0
  0
ARC
  5
AC40
330
AAF8
100
AcDbEntity
  8
1
  6
Continuous
100
AcDbCircle
 10
365.089263
 20
229.6277349999999
 30
0.0
 40
10.5
100
AcDbArc
 50
318.189685
 51
29.66984899999999
  0
LINE
  5
AC41
330
AAF8
100
AcDbEntity
  8
1
  6
Continuous
100
AcDbLine
 10
372.9155009999999
 20
222.627735
 30
0.0
 11
370.589263
 21
222.627735
 31
0.0
  0
LINE
  5
AC42
330
AAF8
100
AcDbEntity
  8
1
  6
Continuous
100
AcDbLine
 10
358.2337429999999
 20
315.6279229999999
 30
0.0
 11
358.2337429999999
 21
344.127923
 31
0.0
  0
LINE
  5
AC43
330
AAF8
100
AcDbEntity
  8
1
  6
Continuous
100
AcDbLine
 10
346.233743
 20
315.6279229999999
 30
0.0
 11
346.233743
 21
344.127923
 31
0.0
  0
LINE
  5
AC44
330
AAF8
100
AcDbEntity
  8
1
  6
Continuous
100
AcDbLine
 10
344.334248
 20
304.462739
 30
0.0
 11
342.334248
 21
306.8337389999999
 31
0.0
  0
LINE
  5
AC45
330
AAF8
100
AcDbEntity
  8
1
  6
Continuous
100
AcDbLine
 10
341.748462
 20
304.462739
 30
0.0
 11
343.748462
 21
306.8337389999999
 31
0.0
  0
ARC
  5
AC46
330
AAF8
100
AcDbEntity
  8
1
  6
Continuous
100
AcDbCircle
 10
209.236339
 20
229.6277389999999
 30
0.0
 40
53.65
100
AcDbArc
 50
86.66410500000003
 51
35.298906
  0
ARC
  5
AC47
330
AAF8
100
AcDbEntity
  8
1
  6
Continuous
100
AcDbCircle
 10
209.236339
 20
229.6277389999999
 30
0.0
 40
65.0
100
AcDbArc
 50
86.69641400000001
 51
39.834024
  0
LINE
  5
AC48
330
AAF8
100
AcDbEntity
  8
1
  6
Continuous
100
AcDbLine
 10
366.233743
 20
315.6279229999999
 30
0.0
 11
338.233743
 21
315.6279229999999
 31
0.0
  0
LINE
  5
AC49
330
AAF8
100
AcDbEntity
  8
1
  6
Continuous
100
AcDbLine
 10
378.919843
 20
308.127945
 30
0.0
 11
325.5476429999998
 21
308.127945
 31
0.0
  0
LINE
  5
AC4A
330
AAF8
100
AcDbEntity
  8
1
  6
Continuous
100
AcDbLine
 10
331.2337429999999
 20
312.127945
 30
0.0
 11
373.233743
 21
312.127945
 31
0.0
  0
LINE
  5
AC4B
330
AAF8
100
AcDbEntity
  8
1
  6
Continuous
100
AcDbLine
 10
325.5476429999998
 20
306.8337389999999
 30
0.0
 11
378.919843
 21
306.8337389999999
 31
0.0
  0
LINE
  5
AC4C
330
AAF8
100
AcDbEntity
  8
1
  6
Continuous
100
AcDbLine
 10
325.5476429999998
 20
306.649781
 30
0.0
 11
327.3636849999999
 21
304.462739
 31
0.0
  0
LINE
  5
AC4D
330
AAF8
100
AcDbEntity
  8
1
  6
Continuous
100
AcDbLine
 10
325.5476429999998
 20
305.2324829999998
 30
0.0
 11
326.777899
 21
306.8337389999999
 31
0.0
  0
LINE
  5
AC4E
330
AAF8
100
AcDbEntity
  8
1
  6
Continuous
100
AcDbLine
 10
326.192112
 20
304.462739
 30
0.0
 11
328.192112
 21
306.8337389999999
 31
0.0
  0
LINE
  5
AC4F
330
AAF8
100
AcDbEntity
  8
1
  6
Continuous
100
AcDbLine
 10
325.5476429999998
 20
304.864568
 30
0.0
 11
325.949472
 21
304.462739
 31
0.0
  0
LINE
  5
AC50
330
AAF8
100
AcDbEntity
  8
1
  6
Continuous
100
AcDbLine
 10
325.5476429999998
 20
304.462739
 30
0.0
 11
325.5476429999998
 21
308.127945
 31
0.0
  0
LINE
  5
AC51
330
AAF8
100
AcDbEntity
  8
1
  6
Continuous
100
AcDbLine
 10
335.848967
 20
304.462739
 30
0.0
 11
333.848967
 21
306.8337389999999
 31
0.0
  0
LINE
  5
AC52
330
AAF8
100
AcDbEntity
  8
1
  6
Continuous
100
AcDbLine
 10
333.2631799999999
 20
304.462739
 30
0.0
 11
335.2631799999999
 21
306.8337389999999
 31
0.0
  0
LINE
  5
AC53
330
AAF8
100
AcDbEntity
  8
1
  6
Continuous
100
AcDbLine
 10
334.6773939999998
 20
304.462739
 30
0.0
 11
336.6773939999998
 21
306.8337389999999
 31
0.0
  0
ARC
  5
AC54
330
AAF8
100
AcDbEntity
  8
1
  6
Continuous
100
AcDbCircle
 10
331.2337429999999
 20
308.127945
 30
0.0
 40
4.0
100
AcDbArc
 50
90.0
 51
180.0
  0
LINE
  5
AC55
330
AAF8
100
AcDbEntity
  8
1
  6
Continuous
100
AcDbLine
 10
331.6063259999999
 20
304.462739
 30
0.0
 11
329.6063259999999
 21
306.8337389999999
 31
0.0
  0
LINE
  5
AC56
330
AAF8
100
AcDbEntity
  8
1
  6
Continuous
100
AcDbLine
 10
329.020539
 20
304.462739
 30
0.0
 11
331.020539
 21
306.8337389999999
 31
0.0
  0
LINE
  5
AC57
330
AAF8
100
AcDbEntity
  8
1
  6
Continuous
100
AcDbLine
 10
330.434753
 20
304.462739
 30
0.0
 11
332.434753
 21
306.8337389999999
 31
0.0
  0
LINE
  5
AC58
330
AAF8
100
AcDbEntity
  8
1
  6
Continuous
100
AcDbLine
 10
328.777899
 20
304.462739
 30
0.0
 11
326.777899
 21
306.8337389999999
 31
0.0
  0
LINE
  5
AC59
330
AAF8
100
AcDbEntity
  8
1
  6
Continuous
100
AcDbLine
 10
330.192112
 20
304.462739
 30
0.0
 11
328.192112
 21
306.8337389999999
 31
0.0
  0
LINE
  5
AC5A
330
AAF8
100
AcDbEntity
  8
1
  6
Continuous
100
AcDbLine
 10
327.6063259999999
 20
304.462739
 30
0.0
 11
329.6063259999999
 21
306.8337389999999
 31
0.0
  0
LINE
  5
AC5B
330
AAF8
100
AcDbEntity
  8
1
  6
Continuous
100
AcDbLine
 10
333.0205389999999
 20
304.462739
 30
0.0
 11
331.020539
 21
306.8337389999999
 31
0.0
  0
LINE
  5
AC5C
330
AAF8
100
AcDbEntity
  8
1
  6
Continuous
100
AcDbLine
 10
334.434753
 20
304.462739
 30
0.0
 11
332.434753
 21
306.8337389999999
 31
0.0
  0
LINE
  5
AC5D
330
AAF8
100
AcDbEntity
  8
1
  6
Continuous
100
AcDbLine
 10
331.848967
 20
304.462739
 30
0.0
 11
333.848967
 21
306.8337389999999
 31
0.0
  0
LINE
  5
AC5E
330
AAF8
100
AcDbEntity
  8
1
  6
Continuous
100
AcDbLine
 10
340.091607
 20
304.462739
 30
0.0
 11
338.091607
 21
306.8337389999999
 31
0.0
  0
LINE
  5
AC5F
330
AAF8
100
AcDbEntity
  8
1
  6
Continuous
100
AcDbLine
 10
337.5058209999999
 20
304.462739
 30
0.0
 11
339.5058209999999
 21
306.8337389999999
 31
0.0
  0
LINE
  5
AC60
330
AAF8
100
AcDbEntity
  8
1
  6
Continuous
100
AcDbLine
 10
337.2631799999999
 20
304.462739
 30
0.0
 11
335.2631799999999
 21
306.8337389999999
 31
0.0
  0
LINE
  5
AC61
330
AAF8
100
AcDbEntity
  8
1
  6
Continuous
100
AcDbLine
 10
338.6773939999998
 20
304.462739
 30
0.0
 11
336.6773939999998
 21
306.8337389999999
 31
0.0
  0
LINE
  5
AC62
330
AAF8
100
AcDbEntity
  8
1
  6
Continuous
100
AcDbLine
 10
336.091607
 20
304.462739
 30
0.0
 11
338.091607
 21
306.8337389999999
 31
0.0
  0
LINE
  5
AC63
330
AAF8
100
AcDbEntity
  8
1
  6
Continuous
100
AcDbLine
 10
341.5058209999999
 20
304.462739
 30
0.0
 11
339.5058209999999
 21
306.8337389999999
 31
0.0
  0
LINE
  5
AC64
330
AAF8
100
AcDbEntity
  8
1
  6
Continuous
100
AcDbLine
 10
342.9200339999998
 20
304.462739
 30
0.0
 11
340.9200339999998
 21
306.8337389999999
 31
0.0
  0
LINE
  5
AC65
330
AAF8
100
AcDbEntity
  8
1
  6
Continuous
100
AcDbLine
 10
338.9200339999998
 20
304.462739
 30
0.0
 11
340.9200339999998
 21
306.8337389999999
 31
0.0
  0
LINE
  5
AC66
330
AAF8
100
AcDbEntity
  8
1
  6
Continuous
100
AcDbLine
 10
340.334248
 20
304.462739
 30
0.0
 11
342.334248
 21
306.8337389999999
 31
0.0
  0
ARC
  5
AC67
330
AAF8
100
AcDbEntity
  8
1
  6
Continuous
100
AcDbCircle
 10
209.236339
 20
229.6277389999999
 30
0.0
 40
31.415325
100
AcDbArc
 50
91.79576500000001
 51
20.878579
  0
ARC
  5
AC68
330
AAF8
100
AcDbEntity
  8
1
  6
Continuous
100
AcDbCircle
 10
209.236339
 20
229.6277389999999
 30
0.0
 40
40.533539
100
AcDbArc
 50
88.331756
 51
28.25553499999999
  0
CIRCLE
  5
AC69
330
AAF8
100
AcDbEntity
  8
1
  6
Continuous
100
AcDbCircle
 10
174.998304
 20
218.503127
 30
0.0
 40
3.7
  0
CIRCLE
  5
AC6A
330
AAF8
100
AcDbEntity
  8
1
  6
Continuous
100
AcDbCircle
 10
209.236339
 20
193.6277389999999
 30
0.0
 40
3.7
  0
CIRCLE
  5
AC6B
330
AAF8
100
AcDbEntity
  8
1
  6
Continuous
100
AcDbCircle
 10
243.474374
 20
218.503127
 30
0.0
 40
3.7
  0
LINE
  5
AC6C
330
AAF8
100
AcDbEntity
  8
1
  6
Continuous
100
AcDbLine
 10
376.8611599999999
 20
304.462739
 30
0.0
 11
374.8611599999999
 21
306.8337389999999
 31
0.0
  0
LINE
  5
AC6D
330
AAF8
100
AcDbEntity
  8
1
  6
Continuous
100
AcDbLine
 10
375.689587
 20
304.462739
 30
0.0
 11
377.689587
 21
306.8337389999999
 31
0.0
  0
LINE
  5
AC6E
330
AAF8
100
AcDbEntity
  8
1
  6
Continuous
100
AcDbLine
 10
374.275373
 20
304.462739
 30
0.0
 11
376.275373
 21
306.8337389999999
 31
0.0
  0
ARC
  5
AC6F
330
AAF8
100
AcDbEntity
  8
1
  6
Continuous
100
AcDbCircle
 10
373.233743
 20
308.127945
 30
0.0
 40
4.0
100
AcDbArc
 50
0.0
 51
90.0
  0
LINE
  5
AC70
330
AAF8
100
AcDbEntity
  8
1
  6
Continuous
100
AcDbLine
 10
361.3048109999998
 20
304.462739
 30
0.0
 11
359.3048109999998
 21
306.8337389999999
 31
0.0
  0
LINE
  5
AC71
330
AAF8
100
AcDbEntity
  8
1
  6
Continuous
100
AcDbLine
 10
359.890597
 20
304.462739
 30
0.0
 11
357.890597
 21
306.8337389999999
 31
0.0
  0
LINE
  5
AC72
330
AAF8
100
AcDbEntity
  8
1
  6
Continuous
100
AcDbLine
 10
358.7190239999998
 20
304.462739
 30
0.0
 11
360.7190239999998
 21
306.8337389999999
 31
0.0
  0
LINE
  5
AC73
330
AAF8
100
AcDbEntity
  8
1
  6
Continuous
100
AcDbLine
 10
351.405316
 20
304.462739
 30
0.0
 11
349.405316
 21
306.8337389999999
 31
0.0
  0
LINE
  5
AC74
330
AAF8
100
AcDbEntity
  8
1
  6
Continuous
100
AcDbLine
 10
352.8195289999999
 20
304.462739
 30
0.0
 11
350.8195289999999
 21
306.8337389999999
 31
0.0
  0
LINE
  5
AC75
330
AAF8
100
AcDbEntity
  8
1
  6
Continuous
100
AcDbLine
 10
350.233743
 20
304.462739
 30
0.0
 11
352.233743
 21
306.8337389999999
 31
0.0
  0
LINE
  5
AC76
330
AAF8
100
AcDbEntity
  8
1
  6
Continuous
100
AcDbLine
 10
347.1626749999999
 20
304.462739
 30
0.0
 11
345.1626749999999
 21
306.8337389999999
 31
0.0
  0
LINE
  5
AC77
330
AAF8
100
AcDbEntity
  8
1
  6
Continuous
100
AcDbLine
 10
348.576889
 20
304.462739
 30
0.0
 11
346.576889
 21
306.8337389999999
 31
0.0
  0
LINE
  5
AC78
330
AAF8
100
AcDbEntity
  8
1
  6
Continuous
100
AcDbLine
 10
345.991102
 20
304.462739
 30
0.0
 11
347.991102
 21
306.8337389999999
 31
0.0
  0
LINE
  5
AC79
330
AAF8
100
AcDbEntity
  8
1
  6
Continuous
100
AcDbLine
 10
345.748462
 20
304.462739
 30
0.0
 11
343.748462
 21
306.8337389999999
 31
0.0
  0
LINE
  5
AC7A
330
AAF8
100
AcDbEntity
  8
1
  6
Continuous
100
AcDbLine
 10
343.1626749999999
 20
304.462739
 30
0.0
 11
345.1626749999999
 21
306.8337389999999
 31
0.0
  0
LINE
  5
AC7B
330
AAF8
100
AcDbEntity
  8
1
  6
Continuous
100
AcDbLine
 10
344.576889
 20
304.462739
 30
0.0
 11
346.576889
 21
306.8337389999999
 31
0.0
  0
LINE
  5
AC7C
330
AAF8
100
AcDbEntity
  8
1
  6
Continuous
100
AcDbLine
 10
349.991102
 20
304.462739
 30
0.0
 11
347.991102
 21
306.8337389999999
 31
0.0
  0
LINE
  5
AC7D
330
AAF8
100
AcDbEntity
  8
1
  6
Continuous
100
AcDbLine
 10
347.405316
 20
304.462739
 30
0.0
 11
349.405316
 21
306.8337389999999
 31
0.0
  0
LINE
  5
AC7E
330
AAF8
100
AcDbEntity
  8
1
  6
Continuous
100
AcDbLine
 10
348.819529
 20
304.462739
 30
0.0
 11
350.8195289999999
 21
306.8337389999999
 31
0.0
  0
LINE
  5
AC7F
330
AAF8
100
AcDbEntity
  8
1
  6
Continuous
100
AcDbLine
 10
357.0621699999999
 20
304.462739
 30
0.0
 11
355.0621699999999
 21
306.8337389999999
 31
0.0
  0
LINE
  5
AC80
330
AAF8
100
AcDbEntity
  8
1
  6
Continuous
100
AcDbLine
 10
355.647956
 20
304.462739
 30
0.0
 11
353.647956
 21
306.8337389999999
 31
0.0
  0
LINE
  5
AC81
330
AAF8
100
AcDbEntity
  8
1
  6
Continuous
100
AcDbLine
 10
354.4763839999998
 20
304.462739
 30
0.0
 11
356.4763839999998
 21
306.8337389999999
 31
0.0
  0
LINE
  5
AC82
330
AAF8
100
AcDbEntity
  8
1
  6
Continuous
100
AcDbLine
 10
354.2337429999999
 20
304.462739
 30
0.0
 11
352.233743
 21
306.8337389999999
 31
0.0
  0
LINE
  5
AC83
330
AAF8
100
AcDbEntity
  8
1
  6
Continuous
100
AcDbLine
 10
353.0621699999999
 20
304.462739
 30
0.0
 11
355.0621699999999
 21
306.8337389999999
 31
0.0
  0
LINE
  5
AC84
330
AAF8
100
AcDbEntity
  8
1
  6
Continuous
100
AcDbLine
 10
351.647956
 20
304.462739
 30
0.0
 11
353.647956
 21
306.8337389999999
 31
0.0
  0
LINE
  5
AC85
330
AAF8
100
AcDbEntity
  8
1
  6
Continuous
100
AcDbLine
 10
358.4763839999998
 20
304.462739
 30
0.0
 11
356.4763839999998
 21
306.8337389999999
 31
0.0
  0
LINE
  5
AC86
330
AAF8
100
AcDbEntity
  8
1
  6
Continuous
100
AcDbLine
 10
357.3048109999998
 20
304.462739
 30
0.0
 11
359.3048109999998
 21
306.8337389999999
 31
0.0
  0
LINE
  5
AC87
330
AAF8
100
AcDbEntity
  8
1
  6
Continuous
100
AcDbLine
 10
355.890597
 20
304.462739
 30
0.0
 11
357.890597
 21
306.8337389999999
 31
0.0
  0
LINE
  5
AC88
330
AAF8
100
AcDbEntity
  8
1
  6
Continuous
100
AcDbLine
 10
368.375879
 20
304.462739
 30
0.0
 11
366.375879
 21
306.8337389999999
 31
0.0
  0
LINE
  5
AC89
330
AAF8
100
AcDbEntity
  8
1
  6
Continuous
100
AcDbLine
 10
367.204306
 20
304.462739
 30
0.0
 11
369.2043059999999
 21
306.8337389999999
 31
0.0
  0
LINE
  5
AC8A
330
AAF8
100
AcDbEntity
  8
1
  6
Continuous
100
AcDbLine
 10
365.790092
 20
304.462739
 30
0.0
 11
367.790092
 21
306.8337389999999
 31
0.0
  0
LINE
  5
AC8B
330
AAF8
100
AcDbEntity
  8
1
  6
Continuous
100
AcDbLine
 10
364.133238
 20
304.462739
 30
0.0
 11
362.133238
 21
306.8337389999999
 31
0.0
  0
LINE
  5
AC8C
330
AAF8
100
AcDbEntity
  8
1
  6
Continuous
100
AcDbLine
 10
362.9616649999999
 20
304.462739
 30
0.0
 11
364.961665
 21
306.8337389999999
 31
0.0
  0
LINE
  5
AC8D
330
AAF8
100
AcDbEntity
  8
1
  6
Continuous
100
AcDbLine
 10
361.5474509999998
 20
304.462739
 30
0.0
 11
363.5474509999998
 21
306.8337389999999
 31
0.0
  0
LINE
  5
AC8E
330
AAF8
100
AcDbEntity
  8
1
  6
Continuous
100
AcDbLine
 10
362.719024
 20
304.462739
 30
0.0
 11
360.7190239999998
 21
306.8337389999999
 31
0.0
  0
LINE
  5
AC8F
330
AAF8
100
AcDbEntity
  8
1
  6
Continuous
100
AcDbLine
 10
360.133238
 20
304.462739
 30
0.0
 11
362.133238
 21
306.8337389999999
 31
0.0
  0
LINE
  5
AC90
330
AAF8
100
AcDbEntity
  8
1
  6
Continuous
100
AcDbLine
 10
366.961665
 20
304.462739
 30
0.0
 11
364.961665
 21
306.8337389999999
 31
0.0
  0
LINE
  5
AC91
330
AAF8
100
AcDbEntity
  8
1
  6
Continuous
100
AcDbLine
 10
365.5474509999999
 20
304.462739
 30
0.0
 11
363.5474509999998
 21
306.8337389999999
 31
0.0
  0
LINE
  5
AC92
330
AAF8
100
AcDbEntity
  8
1
  6
Continuous
100
AcDbLine
 10
364.375879
 20
304.462739
 30
0.0
 11
366.375879
 21
306.8337389999999
 31
0.0
  0
LINE
  5
AC93
330
AAF8
100
AcDbEntity
  8
1
  6
Continuous
100
AcDbLine
 10
372.6185189999998
 20
304.462739
 30
0.0
 11
370.6185189999998
 21
306.8337389999999
 31
0.0
  0
LINE
  5
AC94
330
AAF8
100
AcDbEntity
  8
1
  6
Continuous
100
AcDbLine
 10
371.4469459999999
 20
304.462739
 30
0.0
 11
373.4469459999999
 21
306.8337389999999
 31
0.0
  0
LINE
  5
AC95
330
AAF8
100
AcDbEntity
  8
1
  6
Continuous
100
AcDbLine
 10
370.032733
 20
304.462739
 30
0.0
 11
372.0327329999999
 21
306.8337389999999
 31
0.0
  0
LINE
  5
AC96
330
AAF8
100
AcDbEntity
  8
1
  6
Continuous
100
AcDbLine
 10
371.2043059999999
 20
304.462739
 30
0.0
 11
369.2043059999999
 21
306.8337389999999
 31
0.0
  0
LINE
  5
AC97
330
AAF8
100
AcDbEntity
  8
1
  6
Continuous
100
AcDbLine
 10
369.790092
 20
304.462739
 30
0.0
 11
367.790092
 21
306.8337389999999
 31
0.0
  0
LINE
  5
AC98
330
AAF8
100
AcDbEntity
  8
1
  6
Continuous
100
AcDbLine
 10
368.6185189999998
 20
304.462739
 30
0.0
 11
370.6185189999998
 21
306.8337389999999
 31
0.0
  0
LINE
  5
AC99
330
AAF8
100
AcDbEntity
  8
1
  6
Continuous
100
AcDbLine
 10
375.4469459999999
 20
304.462739
 30
0.0
 11
373.4469459999999
 21
306.8337389999999
 31
0.0
  0
LINE
  5
AC9A
330
AAF8
100
AcDbEntity
  8
1
  6
Continuous
100
AcDbLine
 10
374.0327329999999
 20
304.462739
 30
0.0
 11
372.0327329999999
 21
306.8337389999999
 31
0.0
  0
LINE
  5
AC9B
330
AAF8
100
AcDbEntity
  8
1
  6
Continuous
100
AcDbLine
 10
372.8611599999999
 20
304.462739
 30
0.0
 11
374.8611599999999
 21
306.8337389999999
 31
0.0
  0
LINE
  5
AC9C
330
AAF8
100
AcDbEntity
  8
1
  6
Continuous
100
AcDbLine
 10
378.919843
 20
305.2324829999998
 30
0.0
 11
377.689587
 21
306.8337389999999
 31
0.0
  0
LINE
  5
AC9D
330
AAF8
100
AcDbEntity
  8
1
  6
Continuous
100
AcDbLine
 10
378.275373
 20
304.462739
 30
0.0
 11
376.275373
 21
306.8337389999999
 31
0.0
  0
LINE
  5
AC9E
330
AAF8
100
AcDbEntity
  8
1
  6
Continuous
100
AcDbLine
 10
378.518014
 20
304.462739
 30
0.0
 11
378.919843
 21
304.864568
 31
0.0
  0
LINE
  5
AC9F
330
AAF8
100
AcDbEntity
  8
1
  6
Continuous
100
AcDbLine
 10
377.1038009999998
 20
304.462739
 30
0.0
 11
378.919843
 21
306.649781
 31
0.0
  0
LINE
  5
ACA0
330
AAF8
100
AcDbEntity
  8
1
  6
Continuous
100
AcDbLine
 10
378.919843
 20
308.127945
 30
0.0
 11
378.919843
 21
304.462739
 31
0.0
  0
ARC
  5
ACA1
330
AAF8
100
AcDbEntity
  8
1
  6
Continuous
100
AcDbCircle
 10
377.817106
 20
301.623577
 30
0.0
 40
2.839261999999998
100
AcDbArc
 50
86.26253100000004
 51
90.48175099999999
  0
CIRCLE
  5
ACA2
330
AAF8
100
AcDbEntity
  8
1
  6
Continuous
100
AcDbCircle
 10
245.2363389999999
 20
424.324648
 30
0.0
 40
25.0
  0
CIRCLE
  5
ACA3
330
AAF8
100
AcDbEntity
  8
1
  6
Continuous
100
AcDbCircle
 10
245.2363389999999
 20
424.324648
 30
0.0
 40
26.6861
  0
LINE
  5
ACA4
330
AAF8
100
AcDbEntity
  8
1
  6
Continuous
100
AcDbLine
 10
261.402147
 20
424.324648
 30
0.0
 11
253.319243
 21
410.324648
 31
0.0
  0
LINE
  5
ACA5
330
AAF8
100
AcDbEntity
  8
1
  6
Continuous
100
AcDbLine
 10
261.402147
 20
424.324648
 30
0.0
 11
253.319243
 21
438.324648
 31
0.0
  0
LINE
  5
ACA6
330
AAF8
100
AcDbEntity
  8
4
  6
CENTER
100
AcDbLine
 10
209.236352
 20
452.680167
 30
0.0
 11
209.236352
 21
392.0766529999998
 31
0.0
  0
ARC
  5
ACA7
330
AAF8
100
AcDbEntity
  8
1
  6
Continuous
100
AcDbCircle
 10
245.354157
 20
424.324648
 30
0.0
 40
28.865452
100
AcDbArc
 50
141.1675199999999
 51
218.8691829999999
  0
ARC
  5
ACA8
330
AAF8
100
AcDbEntity
  8
1
  6
Continuous
100
AcDbCircle
 10
261.313613
 20
424.32464
 30
0.0
 40
53.38794100000001
100
AcDbArc
 50
160.1823879999998
 51
200.1071739999999
  0
LINE
  5
ACA9
330
AAF8
100
AcDbEntity
  8
1
  6
Continuous
100
AcDbLine
 10
346.233743
 20
344.127923
 30
0.0
 11
358.2337429999999
 21
344.127923
 31
0.0
  0
LINE
  5
ACAA
330
AAF8
100
AcDbEntity
  8
1
  6
Continuous
100
AcDbLine
 10
347.7337429999999
 20
345.627923
 30
0.0
 11
356.733743
 21
345.627923
 31
0.0
  0
LINE
  5
ACAB
330
AAF8
100
AcDbEntity
  8
1
  6
Continuous
100
AcDbLine
 10
346.233743
 20
344.127923
 30
0.0
 11
347.7337429999999
 21
345.627923
 31
0.0
  0
LINE
  5
ACAC
330
AAF8
100
AcDbEntity
  8
1
  6
Continuous
100
AcDbLine
 10
358.2337429999999
 20
344.127923
 30
0.0
 11
356.733743
 21
345.627923
 31
0.0
  0
LINE
  5
ACAD
330
AAF8
100
AcDbEntity
  8
1
  6
Continuous
100
AcDbLine
 10
229.0705319999999
 20
424.324648
 30
0.0
 11
237.153435
 21
438.324648
 31
0.0
  0
LINE
  5
ACAE
330
AAF8
100
AcDbEntity
  8
1
  6
Continuous
100
AcDbLine
 10
237.153435
 20
410.324648
 30
0.0
 11
245.2363389999999
 21
410.324648
 31
0.0
  0
CIRCLE
  5
ACAF
330
AAF8
100
AcDbEntity
  8
1
  6
Continuous
100
AcDbCircle
 10
245.2363389999999
 20
424.324648
 30
0.0
 40
6.0
  0
LINE
  5
ACB0
330
AAF8
100
AcDbEntity
  8
1
  6
Continuous
100
AcDbLine
 10
253.319243
 20
410.324648
 30
0.0
 11
245.2363389999999
 21
410.324648
 31
0.0
  0
LINE
  5
ACB1
330
AAF8
100
AcDbEntity
  8
1
  6
Continuous
100
AcDbLine
 10
229.0705319999999
 20
424.324648
 30
0.0
 11
237.153435
 21
410.324648
 31
0.0
  0
LINE
  5
ACB2
330
AAF8
100
AcDbEntity
  8
1
  6
Continuous
100
AcDbLine
 10
237.153435
 20
438.324648
 30
0.0
 11
245.2363389999999
 21
438.324648
 31
0.0
  0
LINE
  5
ACB3
330
AAF8
100
AcDbEntity
  8
1
  6
Continuous
100
AcDbLine
 10
253.319243
 20
438.324648
 30
0.0
 11
245.2363389999999
 21
438.324648
 31
0.0
  0
LINE
  5
ACB4
330
AAF8
100
AcDbEntity
  8
2
  6
Continuous
100
AcDbLine
 10
346.9102429999999
 20
316.7996560000001
 30
0.0
 11
346.9102429999999
 21
344.8044229999999
 31
0.0
  0
LINE
  5
ACB5
330
AAF8
100
AcDbEntity
  8
2
  6
Continuous
100
AcDbLine
 10
357.5572430000002
 20
316.7996560000001
 30
0.0
 11
357.5572430000002
 21
344.8044229999999
 31
0.0
  0
LINE
  5
ACB6
330
AAF8
100
AcDbEntity
  8
2
  6
Continuous
100
AcDbLine
 10
346.9102429999999
 20
316.7996560000001
 30
0.0
 11
346.233743
 21
315.6279229999999
 31
0.0
  0
LINE
  5
ACB7
330
AAF8
100
AcDbEntity
  8
2
  6
Continuous
100
AcDbLine
 10
357.5572430000002
 20
316.7996560000001
 30
0.0
 11
358.2337429999999
 21
315.6279229999999
 31
0.0
  0
LINE
  5
ACB8
330
AAF8
100
AcDbEntity
  8
1
  6
Continuous
100
AcDbLine
 10
346.233743
 20
316.7996560000001
 30
0.0
 11
358.2337429999999
 21
316.7996560000001
 31
0.0
  0
LINE
  5
ACB9
330
AAF8
100
AcDbEntity
  8
1
  6
Continuous
100
AcDbLine
 10
338.233743
 20
315.6279229999999
 30
0.0
 11
338.233743
 21
312.127945
 31
0.0
  0
LINE
  5
ACBA
330
AAF8
100
AcDbEntity
  8
1
  6
Continuous
100
AcDbLine
 10
352.233743
 20
315.6279229999999
 30
0.0
 11
352.233743
 21
312.127945
 31
0.0
  0
LINE
  5
ACBB
330
AAF8
100
AcDbEntity
  8
1
  6
Continuous
100
AcDbLine
 10
366.233743
 20
315.6279229999999
 30
0.0
 11
366.233743
 21
312.127945
 31
0.0
  0
LINE
  5
ACBC
330
AAF8
100
AcDbEntity
  8
1
  6
Continuous
100
AcDbLine
 10
72.724215
 20
304.312753
 30
0.0
 11
74.724215
 21
306.8337529999999
 31
0.0
  0
LINE
  5
ACBD
330
AAF8
100
AcDbEntity
  8
1
  6
Continuous
100
AcDbLine
 10
39.55283399999999
 20
306.8337529999999
 30
0.0
 11
92.92503399999999
 21
306.8337529999999
 31
0.0
  0
LINE
  5
ACBE
330
AAF8
100
AcDbEntity
  8
1
  6
Continuous
100
AcDbLine
 10
45.238934
 20
312.1279589999998
 30
0.0
 11
87.23893399999999
 21
312.1279589999998
 31
0.0
  0
LINE
  5
ACBF
330
AAF8
100
AcDbEntity
  8
1
  6
Continuous
100
AcDbLine
 10
92.92503399999999
 20
308.1279589999998
 30
0.0
 11
39.55283399999999
 21
308.1279589999998
 31
0.0
  0
LINE
  5
ACC0
330
AAF8
100
AcDbEntity
  8
1
  6
Continuous
100
AcDbLine
 10
80.238934
 20
315.627937
 30
0.0
 11
52.238934
 21
315.627937
 31
0.0
  0
LINE
  5
ACC1
330
AAF8
100
AcDbEntity
  8
1
  6
Continuous
100
AcDbLine
 10
74.138429
 20
304.312753
 30
0.0
 11
76.138429
 21
306.8337529999999
 31
0.0
  0
LINE
  5
ACC2
330
AAF8
100
AcDbEntity
  8
1
  6
Continuous
100
AcDbLine
 10
75.31000199999998
 20
304.312753
 30
0.0
 11
73.31000199999998
 21
306.8337529999999
 31
0.0
  0
ARC
  5
ACC3
330
AAF8
100
AcDbEntity
  8
1
  6
Continuous
100
AcDbCircle
 10
45.238934
 20
308.1279589999998
 30
0.0
 40
4.0
100
AcDbArc
 50
90.0
 51
180.0
  0
LINE
  5
ACC4
330
AAF8
100
AcDbEntity
  8
1
  6
Continuous
100
AcDbLine
 10
54.339439
 20
304.312753
 30
0.0
 11
56.339439
 21
306.8337529999999
 31
0.0
  0
LINE
  5
ACC5
330
AAF8
100
AcDbEntity
  8
1
  6
Continuous
100
AcDbLine
 10
56.92522499999999
 20
304.312753
 30
0.0
 11
54.92522499999999
 21
306.8337529999999
 31
0.0
  0
LINE
  5
ACC6
330
AAF8
100
AcDbEntity
  8
1
  6
Continuous
100
AcDbLine
 10
52.925225
 20
304.312753
 30
0.0
 11
54.92522499999999
 21
306.8337529999999
 31
0.0
  0
LINE
  5
ACC7
330
AAF8
100
AcDbEntity
  8
1
  6
Continuous
100
AcDbLine
 10
55.511012
 20
304.312753
 30
0.0
 11
53.511012
 21
306.8337529999999
 31
0.0
  0
LINE
  5
ACC8
330
AAF8
100
AcDbEntity
  8
1
  6
Continuous
100
AcDbLine
 10
50.096798
 20
304.312753
 30
0.0
 11
52.09679799999999
 21
306.8337529999999
 31
0.0
  0
LINE
  5
ACC9
330
AAF8
100
AcDbEntity
  8
1
  6
Continuous
100
AcDbLine
 10
52.68258499999999
 20
304.312753
 30
0.0
 11
50.68258499999998
 21
306.8337529999999
 31
0.0
  0
LINE
  5
ACCA
330
AAF8
100
AcDbEntity
  8
1
  6
Continuous
100
AcDbLine
 10
51.268371
 20
304.312753
 30
0.0
 11
49.268371
 21
306.8337529999999
 31
0.0
  0
LINE
  5
ACCB
330
AAF8
100
AcDbEntity
  8
1
  6
Continuous
100
AcDbLine
 10
51.511012
 20
304.312753
 30
0.0
 11
53.511012
 21
306.8337529999999
 31
0.0
  0
LINE
  5
ACCC
330
AAF8
100
AcDbEntity
  8
1
  6
Continuous
100
AcDbLine
 10
54.096798
 20
304.312753
 30
0.0
 11
52.09679799999999
 21
306.8337529999999
 31
0.0
  0
LINE
  5
ACCD
330
AAF8
100
AcDbEntity
  8
1
  6
Continuous
100
AcDbLine
 10
45.85415799999998
 20
304.312753
 30
0.0
 11
47.85415799999999
 21
306.8337529999999
 31
0.0
  0
LINE
  5
ACCE
330
AAF8
100
AcDbEntity
  8
1
  6
Continuous
100
AcDbLine
 10
48.43994399999999
 20
304.312753
 30
0.0
 11
46.43994399999999
 21
306.8337529999999
 31
0.0
  0
LINE
  5
ACCF
330
AAF8
100
AcDbEntity
  8
1
  6
Continuous
100
AcDbLine
 10
47.02573
 20
304.312753
 30
0.0
 11
45.02572999999999
 21
306.8337529999999
 31
0.0
  0
LINE
  5
ACD0
330
AAF8
100
AcDbEntity
  8
1
  6
Continuous
100
AcDbLine
 10
41.611517
 20
304.312753
 30
0.0
 11
43.61151699999999
 21
306.8337529999999
 31
0.0
  0
LINE
  5
ACD1
330
AAF8
100
AcDbEntity
  8
1
  6
Continuous
100
AcDbLine
 10
44.197303
 20
304.312753
 30
0.0
 11
42.19730300000001
 21
306.8337529999999
 31
0.0
  0
LINE
  5
ACD2
330
AAF8
100
AcDbEntity
  8
1
  6
Continuous
100
AcDbLine
 10
42.78309
 20
304.312753
 30
0.0
 11
40.78308999999999
 21
306.8337529999999
 31
0.0
  0
LINE
  5
ACD3
330
AAF8
100
AcDbEntity
  8
1
  6
Continuous
100
AcDbLine
 10
44.439944
 20
304.312753
 30
0.0
 11
46.43994399999999
 21
306.8337529999999
 31
0.0
  0
LINE
  5
ACD4
330
AAF8
100
AcDbEntity
  8
1
  6
Continuous
100
AcDbLine
 10
43.02572999999997
 20
304.312753
 30
0.0
 11
45.02572999999999
 21
306.8337529999999
 31
0.0
  0
LINE
  5
ACD5
330
AAF8
100
AcDbEntity
  8
1
  6
Continuous
100
AcDbLine
 10
45.61151699999999
 20
304.312753
 30
0.0
 11
43.61151699999999
 21
306.8337529999999
 31
0.0
  0
LINE
  5
ACD6
330
AAF8
100
AcDbEntity
  8
1
  6
Continuous
100
AcDbLine
 10
48.68258499999999
 20
304.312753
 30
0.0
 11
50.68258499999998
 21
306.8337529999999
 31
0.0
  0
LINE
  5
ACD7
330
AAF8
100
AcDbEntity
  8
1
  6
Continuous
100
AcDbLine
 10
47.268371
 20
304.312753
 30
0.0
 11
49.268371
 21
306.8337529999999
 31
0.0
  0
LINE
  5
ACD8
330
AAF8
100
AcDbEntity
  8
1
  6
Continuous
100
AcDbLine
 10
49.854158
 20
304.312753
 30
0.0
 11
47.85415799999999
 21
306.8337529999999
 31
0.0
  0
LINE
  5
ACD9
330
AAF8
100
AcDbEntity
  8
1
  6
Continuous
100
AcDbLine
 10
39.55283399999999
 20
304.312753
 30
0.0
 11
39.55283399999999
 21
308.1279589999998
 31
0.0
  0
LINE
  5
ACDA
330
AAF8
100
AcDbEntity
  8
1
  6
Continuous
100
AcDbLine
 10
40.19730299999999
 20
304.312753
 30
0.0
 11
42.19730300000001
 21
306.8337529999999
 31
0.0
  0
LINE
  5
ACDB
330
AAF8
100
AcDbEntity
  8
1
  6
Continuous
100
AcDbLine
 10
39.55283399999999
 20
305.0824969999999
 30
0.0
 11
40.78308999999999
 21
306.8337529999999
 31
0.0
  0
LINE
  5
ACDC
330
AAF8
100
AcDbEntity
  8
1
  6
Continuous
100
AcDbLine
 10
39.55283399999999
 20
306.649795
 30
0.0
 11
41.368876
 21
304.312753
 31
0.0
  0
LINE
  5
ACDD
330
AAF8
100
AcDbEntity
  8
1
  6
Continuous
100
AcDbLine
 10
39.55283399999999
 20
304.714582
 30
0.0
 11
39.954663
 21
304.312753
 31
0.0
  0
LINE
  5
ACDE
330
AAF8
100
AcDbEntity
  8
1
  6
Continuous
100
AcDbLine
 10
62.82471999999999
 20
304.312753
 30
0.0
 11
64.82472
 21
306.8337529999999
 31
0.0
  0
LINE
  5
ACDF
330
AAF8
100
AcDbEntity
  8
1
  6
Continuous
100
AcDbLine
 10
61.410507
 20
304.312753
 30
0.0
 11
63.410507
 21
306.8337529999999
 31
0.0
  0
LINE
  5
ACE0
330
AAF8
100
AcDbEntity
  8
1
  6
Continuous
100
AcDbLine
 10
63.996293
 20
304.312753
 30
0.0
 11
61.99629300000001
 21
306.8337529999999
 31
0.0
  0
LINE
  5
ACE1
330
AAF8
100
AcDbEntity
  8
1
  6
Continuous
100
AcDbLine
 10
58.58208000000001
 20
304.312753
 30
0.0
 11
60.58208
 21
306.8337529999999
 31
0.0
  0
LINE
  5
ACE2
330
AAF8
100
AcDbEntity
  8
1
  6
Continuous
100
AcDbLine
 10
57.16786599999998
 20
304.312753
 30
0.0
 11
59.167866
 21
306.8337529999999
 31
0.0
  0
LINE
  5
ACE3
330
AAF8
100
AcDbEntity
  8
1
  6
Continuous
100
AcDbLine
 10
59.75365299999999
 20
304.312753
 30
0.0
 11
57.753653
 21
306.8337529999999
 31
0.0
  0
LINE
  5
ACE4
330
AAF8
100
AcDbEntity
  8
1
  6
Continuous
100
AcDbLine
 10
59.99629300000001
 20
304.312753
 30
0.0
 11
61.99629300000001
 21
306.8337529999999
 31
0.0
  0
LINE
  5
ACE5
330
AAF8
100
AcDbEntity
  8
1
  6
Continuous
100
AcDbLine
 10
62.58207999999999
 20
304.312753
 30
0.0
 11
60.58208
 21
306.8337529999999
 31
0.0
  0
LINE
  5
ACE6
330
AAF8
100
AcDbEntity
  8
1
  6
Continuous
100
AcDbLine
 10
61.16786600000001
 20
304.312753
 30
0.0
 11
59.167866
 21
306.8337529999999
 31
0.0
  0
LINE
  5
ACE7
330
AAF8
100
AcDbEntity
  8
1
  6
Continuous
100
AcDbLine
 10
65.41050699999999
 20
304.312753
 30
0.0
 11
63.410507
 21
306.8337529999999
 31
0.0
  0
LINE
  5
ACE8
330
AAF8
100
AcDbEntity
  8
1
  6
Continuous
100
AcDbLine
 10
58.339439
 20
304.312753
 30
0.0
 11
56.339439
 21
306.8337529999999
 31
0.0
  0
LINE
  5
ACE9
330
AAF8
100
AcDbEntity
  8
1
  6
Continuous
100
AcDbLine
 10
69.895788
 20
304.312753
 30
0.0
 11
71.89578799999998
 21
306.8337529999999
 31
0.0
  0
LINE
  5
ACEA
330
AAF8
100
AcDbEntity
  8
1
  6
Continuous
100
AcDbLine
 10
71.31000199999999
 20
304.312753
 30
0.0
 11
73.31000199999998
 21
306.8337529999999
 31
0.0
  0
LINE
  5
ACEB
330
AAF8
100
AcDbEntity
  8
1
  6
Continuous
100
AcDbLine
 10
72.48157500000002
 20
304.312753
 30
0.0
 11
70.48157500000002
 21
306.8337529999999
 31
0.0
  0
LINE
  5
ACEC
330
AAF8
100
AcDbEntity
  8
1
  6
Continuous
100
AcDbLine
 10
68.48157500000001
 20
304.312753
 30
0.0
 11
70.48157500000002
 21
306.8337529999999
 31
0.0
  0
LINE
  5
ACED
330
AAF8
100
AcDbEntity
  8
1
  6
Continuous
100
AcDbLine
 10
71.06736100000002
 20
304.312753
 30
0.0
 11
69.067361
 21
306.8337529999999
 31
0.0
  0
LINE
  5
ACEE
330
AAF8
100
AcDbEntity
  8
1
  6
Continuous
100
AcDbLine
 10
73.89578799999998
 20
304.312753
 30
0.0
 11
71.89578799999998
 21
306.8337529999999
 31
0.0
  0
LINE
  5
ACEF
330
AAF8
100
AcDbEntity
  8
1
  6
Continuous
100
AcDbLine
 10
65.653147
 20
304.312753
 30
0.0
 11
67.65314700000001
 21
306.8337529999999
 31
0.0
  0
LINE
  5
ACF0
330
AAF8
100
AcDbEntity
  8
1
  6
Continuous
100
AcDbLine
 10
67.067361
 20
304.312753
 30
0.0
 11
69.067361
 21
306.8337529999999
 31
0.0
  0
LINE
  5
ACF1
330
AAF8
100
AcDbEntity
  8
1
  6
Continuous
100
AcDbLine
 10
68.238934
 20
304.312753
 30
0.0
 11
66.238934
 21
306.8337529999999
 31
0.0
  0
LINE
  5
ACF2
330
AAF8
100
AcDbEntity
  8
1
  6
Continuous
100
AcDbLine
 10
69.653147
 20
304.312753
 30
0.0
 11
67.65314700000001
 21
306.8337529999999
 31
0.0
  0
LINE
  5
ACF3
330
AAF8
100
AcDbEntity
  8
1
  6
Continuous
100
AcDbLine
 10
64.238934
 20
304.312753
 30
0.0
 11
66.238934
 21
306.8337529999999
 31
0.0
  0
LINE
  5
ACF4
330
AAF8
100
AcDbEntity
  8
1
  6
Continuous
100
AcDbLine
 10
66.82472
 20
304.312753
 30
0.0
 11
64.82472
 21
306.8337529999999
 31
0.0
  0
LINE
  5
ACF5
330
AAF8
100
AcDbEntity
  8
1
  6
Continuous
100
AcDbLine
 10
55.753653
 20
304.312753
 30
0.0
 11
57.753653
 21
306.8337529999999
 31
0.0
  0
LINE
  5
ACF6
330
AAF8
100
AcDbEntity
  8
1
  6
Continuous
100
AcDbLine
 10
72.238934
 20
315.627937
 30
0.0
 11
72.238934
 21
344.1279369999999
 31
0.0
  0
LINE
  5
ACF7
330
AAF8
100
AcDbEntity
  8
1
  6
Continuous
100
AcDbLine
 10
60.23893399999999
 20
315.627937
 30
0.0
 11
60.23893399999999
 21
344.1279369999999
 31
0.0
  0
LINE
  5
ACF8
330
AAF8
100
AcDbEntity
  8
2
  6
Continuous
100
AcDbLine
 10
71.562434
 20
316.7996689999998
 30
0.0
 11
71.562434
 21
344.804437
 31
0.0
  0
LINE
  5
ACF9
330
AAF8
100
AcDbEntity
  8
2
  6
Continuous
100
AcDbLine
 10
60.91543399999999
 20
316.7996689999998
 30
0.0
 11
60.91543399999999
 21
344.804437
 31
0.0
  0
LINE
  5
ACFA
330
AAF8
100
AcDbEntity
  8
1
  6
Continuous
100
AcDbLine
 10
60.23893399999999
 20
316.7996689999998
 30
0.0
 11
72.238934
 21
316.7996689999998
 31
0.0
  0
LINE
  5
ACFB
330
AAF8
100
AcDbEntity
  8
2
  6
Continuous
100
AcDbLine
 10
60.91543399999999
 20
316.7996689999998
 30
0.0
 11
60.23893399999999
 21
315.627937
 31
0.0
  0
LINE
  5
ACFC
330
AAF8
100
AcDbEntity
  8
2
  6
Continuous
100
AcDbLine
 10
71.562434
 20
316.7996689999998
 30
0.0
 11
72.238934
 21
315.627937
 31
0.0
  0
LINE
  5
ACFD
330
AAF8
100
AcDbEntity
  8
1
  6
Continuous
100
AcDbLine
 10
72.238934
 20
344.1279369999999
 30
0.0
 11
70.738934
 21
345.6279369999998
 31
0.0
  0
LINE
  5
ACFE
330
AAF8
100
AcDbEntity
  8
1
  6
Continuous
100
AcDbLine
 10
60.23893399999999
 20
344.1279369999999
 30
0.0
 11
72.238934
 21
344.1279369999999
 31
0.0
  0
LINE
  5
ACFF
330
AAF8
100
AcDbEntity
  8
1
  6
Continuous
100
AcDbLine
 10
60.23893399999999
 20
344.1279369999999
 30
0.0
 11
61.73893399999999
 21
345.6279369999998
 31
0.0
  0
LINE
  5
AD00
330
AAF8
100
AcDbEntity
  8
1
  6
Continuous
100
AcDbLine
 10
61.73893399999999
 20
345.6279369999998
 30
0.0
 11
70.738934
 21
345.6279369999998
 31
0.0
  0
ARC
  5
AD01
330
AAF8
100
AcDbEntity
  8
1
  6
Continuous
100
AcDbCircle
 10
87.23893399999999
 20
308.1279589999998
 30
0.0
 40
4.0
100
AcDbArc
 50
0.0
 51
90.0
  0
LINE
  5
AD02
330
AAF8
100
AcDbEntity
  8
1
  6
Continuous
100
AcDbLine
 10
92.92503399999999
 20
308.1279589999998
 30
0.0
 11
92.92503399999999
 21
304.312753
 31
0.0
  0
LINE
  5
AD03
330
AAF8
100
AcDbEntity
  8
1
  6
Continuous
100
AcDbLine
 10
91.108992
 20
304.312753
 30
0.0
 11
92.92503399999999
 21
306.649795
 31
0.0
  0
LINE
  5
AD04
330
AAF8
100
AcDbEntity
  8
1
  6
Continuous
100
AcDbLine
 10
92.52320500000001
 20
304.312753
 30
0.0
 11
92.92503399999999
 21
304.714582
 31
0.0
  0
LINE
  5
AD05
330
AAF8
100
AcDbEntity
  8
1
  6
Continuous
100
AcDbLine
 10
92.28056399999998
 20
304.312753
 30
0.0
 11
90.280564
 21
306.8337529999999
 31
0.0
  0
LINE
  5
AD06
330
AAF8
100
AcDbEntity
  8
1
  6
Continuous
100
AcDbLine
 10
92.92503399999999
 20
305.0824969999999
 30
0.0
 11
91.69477800000001
 21
306.8337529999999
 31
0.0
  0
LINE
  5
AD07
330
AAF8
100
AcDbEntity
  8
1
  6
Continuous
100
AcDbLine
 10
86.86635099999998
 20
304.312753
 30
0.0
 11
88.86635099999997
 21
306.8337529999999
 31
0.0
  0
LINE
  5
AD08
330
AAF8
100
AcDbEntity
  8
1
  6
Continuous
100
AcDbLine
 10
88.037924
 20
304.312753
 30
0.0
 11
86.03792400000001
 21
306.8337529999999
 31
0.0
  0
LINE
  5
AD09
330
AAF8
100
AcDbEntity
  8
1
  6
Continuous
100
AcDbLine
 10
89.45213699999998
 20
304.312753
 30
0.0
 11
87.45213699999998
 21
306.8337529999999
 31
0.0
  0
LINE
  5
AD0A
330
AAF8
100
AcDbEntity
  8
1
  6
Continuous
100
AcDbLine
 10
82.62370999999998
 20
304.312753
 30
0.0
 11
84.62371
 21
306.8337529999999
 31
0.0
  0
LINE
  5
AD0B
330
AAF8
100
AcDbEntity
  8
1
  6
Continuous
100
AcDbLine
 10
83.795283
 20
304.312753
 30
0.0
 11
81.79528299999999
 21
306.8337529999999
 31
0.0
  0
LINE
  5
AD0C
330
AAF8
100
AcDbEntity
  8
1
  6
Continuous
100
AcDbLine
 10
85.209497
 20
304.312753
 30
0.0
 11
83.20949699999998
 21
306.8337529999999
 31
0.0
  0
LINE
  5
AD0D
330
AAF8
100
AcDbEntity
  8
1
  6
Continuous
100
AcDbLine
 10
84.037924
 20
304.312753
 30
0.0
 11
86.03792400000001
 21
306.8337529999999
 31
0.0
  0
LINE
  5
AD0E
330
AAF8
100
AcDbEntity
  8
1
  6
Continuous
100
AcDbLine
 10
85.45213699999996
 20
304.312753
 30
0.0
 11
87.45213699999998
 21
306.8337529999999
 31
0.0
  0
LINE
  5
AD0F
330
AAF8
100
AcDbEntity
  8
1
  6
Continuous
100
AcDbLine
 10
86.62371
 20
304.312753
 30
0.0
 11
84.62371
 21
306.8337529999999
 31
0.0
  0
LINE
  5
AD10
330
AAF8
100
AcDbEntity
  8
1
  6
Continuous
100
AcDbLine
 10
78.38106999999998
 20
304.312753
 30
0.0
 11
80.38106999999998
 21
306.8337529999999
 31
0.0
  0
LINE
  5
AD11
330
AAF8
100
AcDbEntity
  8
1
  6
Continuous
100
AcDbLine
 10
79.55264200000002
 20
304.312753
 30
0.0
 11
77.552642
 21
306.8337529999999
 31
0.0
  0
LINE
  5
AD12
330
AAF8
100
AcDbEntity
  8
1
  6
Continuous
100
AcDbLine
 10
80.966856
 20
304.312753
 30
0.0
 11
78.96685600000002
 21
306.8337529999999
 31
0.0
  0
LINE
  5
AD13
330
AAF8
100
AcDbEntity
  8
1
  6
Continuous
100
AcDbLine
 10
75.552642
 20
304.312753
 30
0.0
 11
77.552642
 21
306.8337529999999
 31
0.0
  0
LINE
  5
AD14
330
AAF8
100
AcDbEntity
  8
1
  6
Continuous
100
AcDbLine
 10
76.96685600000002
 20
304.312753
 30
0.0
 11
78.96685600000002
 21
306.8337529999999
 31
0.0
  0
LINE
  5
AD15
330
AAF8
100
AcDbEntity
  8
1
  6
Continuous
100
AcDbLine
 10
78.138429
 20
304.312753
 30
0.0
 11
76.138429
 21
306.8337529999999
 31
0.0
  0
LINE
  5
AD16
330
AAF8
100
AcDbEntity
  8
1
  6
Continuous
100
AcDbLine
 10
79.795283
 20
304.312753
 30
0.0
 11
81.79528299999999
 21
306.8337529999999
 31
0.0
  0
LINE
  5
AD17
330
AAF8
100
AcDbEntity
  8
1
  6
Continuous
100
AcDbLine
 10
81.209497
 20
304.312753
 30
0.0
 11
83.20949699999998
 21
306.8337529999999
 31
0.0
  0
LINE
  5
AD18
330
AAF8
100
AcDbEntity
  8
1
  6
Continuous
100
AcDbLine
 10
82.38106999999997
 20
304.312753
 30
0.0
 11
80.38106999999998
 21
306.8337529999999
 31
0.0
  0
LINE
  5
AD19
330
AAF8
100
AcDbEntity
  8
1
  6
Continuous
100
AcDbLine
 10
88.28056399999999
 20
304.312753
 30
0.0
 11
90.280564
 21
306.8337529999999
 31
0.0
  0
LINE
  5
AD1A
330
AAF8
100
AcDbEntity
  8
1
  6
Continuous
100
AcDbLine
 10
89.69477799999998
 20
304.312753
 30
0.0
 11
91.69477800000001
 21
306.8337529999999
 31
0.0
  0
LINE
  5
AD1B
330
AAF8
100
AcDbEntity
  8
1
  6
Continuous
100
AcDbLine
 10
90.866351
 20
304.312753
 30
0.0
 11
88.86635099999997
 21
306.8337529999999
 31
0.0
  0
ARC
  5
AD1C
330
AAF8
100
AcDbEntity
  8
1
  6
Continuous
100
AcDbCircle
 10
91.82229699999997
 20
301.473591
 30
0.0
 40
2.839261999999998
100
AcDbArc
 50
86.26253100000004
 51
90.48175099999999
  0
LINE
  5
AD1D
330
AAF8
100
AcDbEntity
  8
1
  6
Continuous
100
AcDbLine
 10
76.724215
 20
304.312753
 30
0.0
 11
74.724215
 21
306.8337529999999
 31
0.0
  0
LINE
  5
AD1E
330
AAF8
100
AcDbEntity
  8
1
  6
Continuous
100
AcDbLine
 10
66.238934
 20
315.627937
 30
0.0
 11
66.238934
 21
312.1279589999998
 31
0.0
  0
LINE
  5
AD1F
330
AAF8
100
AcDbEntity
  8
1
  6
Continuous
100
AcDbLine
 10
52.238934
 20
315.627937
 30
0.0
 11
52.238934
 21
312.1279589999998
 31
0.0
  0
LINE
  5
AD20
330
AAF8
100
AcDbEntity
  8
1
  6
Continuous
100
AcDbLine
 10
80.238934
 20
315.627937
 30
0.0
 11
80.238934
 21
312.1279589999998
 31
0.0
  0
LINE
  5
AD21
330
AAF8
100
AcDbEntity
  8
1
  6
Continuous
100
AcDbLine
 10
251.72162
 20
304.312739
 30
0.0
 11
253.72162
 21
306.8337389999999
 31
0.0
  0
LINE
  5
AD22
330
AAF8
100
AcDbEntity
  8
1
  6
Continuous
100
AcDbLine
 10
218.5502389999999
 20
306.8337389999999
 30
0.0
 11
271.9224389999999
 21
306.8337389999999
 31
0.0
  0
LINE
  5
AD23
330
AAF8
100
AcDbEntity
  8
1
  6
Continuous
100
AcDbLine
 10
224.2363389999999
 20
312.127945
 30
0.0
 11
266.2363389999998
 21
312.127945
 31
0.0
  0
LINE
  5
AD24
330
AAF8
100
AcDbEntity
  8
1
  6
Continuous
100
AcDbLine
 10
271.9224389999999
 20
308.127945
 30
0.0
 11
218.5502389999999
 21
308.127945
 31
0.0
  0
LINE
  5
AD25
330
AAF8
100
AcDbEntity
  8
1
  6
Continuous
100
AcDbLine
 10
261.402123
 20
315.6279229999999
 30
0.0
 11
229.070507
 21
315.6279229999999
 31
0.0
  0
LINE
  5
AD26
330
AAF8
100
AcDbEntity
  8
1
  6
Continuous
100
AcDbLine
 10
253.135834
 20
304.312739
 30
0.0
 11
255.1358339999999
 21
306.8337389999999
 31
0.0
  0
LINE
  5
AD27
330
AAF8
100
AcDbEntity
  8
1
  6
Continuous
100
AcDbLine
 10
254.3074069999999
 20
304.312739
 30
0.0
 11
252.3074069999999
 21
306.8337389999999
 31
0.0
  0
ARC
  5
AD28
330
AAF8
100
AcDbEntity
  8
1
  6
Continuous
100
AcDbCircle
 10
224.2363389999999
 20
308.127945
 30
0.0
 40
4.0
100
AcDbArc
 50
90.0
 51
180.0
  0
LINE
  5
AD29
330
AAF8
100
AcDbEntity
  8
1
  6
Continuous
100
AcDbLine
 10
233.336844
 20
304.312739
 30
0.0
 11
235.336844
 21
306.8337389999999
 31
0.0
  0
LINE
  5
AD2A
330
AAF8
100
AcDbEntity
  8
1
  6
Continuous
100
AcDbLine
 10
235.9226299999999
 20
304.312739
 30
0.0
 11
233.9226299999999
 21
306.8337389999999
 31
0.0
  0
LINE
  5
AD2B
330
AAF8
100
AcDbEntity
  8
1
  6
Continuous
100
AcDbLine
 10
231.9226299999999
 20
304.312739
 30
0.0
 11
233.9226299999999
 21
306.8337389999999
 31
0.0
  0
LINE
  5
AD2C
330
AAF8
100
AcDbEntity
  8
1
  6
Continuous
100
AcDbLine
 10
234.5084169999998
 20
304.312739
 30
0.0
 11
232.5084169999998
 21
306.8337389999999
 31
0.0
  0
LINE
  5
AD2D
330
AAF8
100
AcDbEntity
  8
1
  6
Continuous
100
AcDbLine
 10
229.094203
 20
304.312739
 30
0.0
 11
231.094203
 21
306.8337389999999
 31
0.0
  0
LINE
  5
AD2E
330
AAF8
100
AcDbEntity
  8
1
  6
Continuous
100
AcDbLine
 10
231.6799899999999
 20
304.312739
 30
0.0
 11
229.6799899999999
 21
306.8337389999999
 31
0.0
  0
LINE
  5
AD2F
330
AAF8
100
AcDbEntity
  8
1
  6
Continuous
100
AcDbLine
 10
230.2657759999999
 20
304.312739
 30
0.0
 11
228.2657759999999
 21
306.8337389999999
 31
0.0
  0
LINE
  5
AD30
330
AAF8
100
AcDbEntity
  8
1
  6
Continuous
100
AcDbLine
 10
230.5084169999998
 20
304.312739
 30
0.0
 11
232.5084169999998
 21
306.8337389999999
 31
0.0
  0
LINE
  5
AD31
330
AAF8
100
AcDbEntity
  8
1
  6
Continuous
100
AcDbLine
 10
233.094203
 20
304.312739
 30
0.0
 11
231.094203
 21
306.8337389999999
 31
0.0
  0
LINE
  5
AD32
330
AAF8
100
AcDbEntity
  8
1
  6
Continuous
100
AcDbLine
 10
224.8515629999999
 20
304.312739
 30
0.0
 11
226.851563
 21
306.8337389999999
 31
0.0
  0
LINE
  5
AD33
330
AAF8
100
AcDbEntity
  8
1
  6
Continuous
100
AcDbLine
 10
227.437349
 20
304.312739
 30
0.0
 11
225.437349
 21
306.8337389999999
 31
0.0
  0
LINE
  5
AD34
330
AAF8
100
AcDbEntity
  8
1
  6
Continuous
100
AcDbLine
 10
226.023135
 20
304.312739
 30
0.0
 11
224.023135
 21
306.8337389999999
 31
0.0
  0
LINE
  5
AD35
330
AAF8
100
AcDbEntity
  8
1
  6
Continuous
100
AcDbLine
 10
220.6089219999999
 20
304.312739
 30
0.0
 11
222.6089219999999
 21
306.8337389999999
 31
0.0
  0
LINE
  5
AD36
330
AAF8
100
AcDbEntity
  8
1
  6
Continuous
100
AcDbLine
 10
223.1947079999999
 20
304.312739
 30
0.0
 11
221.1947079999999
 21
306.8337389999999
 31
0.0
  0
LINE
  5
AD37
330
AAF8
100
AcDbEntity
  8
1
  6
Continuous
100
AcDbLine
 10
221.780495
 20
304.312739
 30
0.0
 11
219.780495
 21
306.8337389999999
 31
0.0
  0
LINE
  5
AD38
330
AAF8
100
AcDbEntity
  8
1
  6
Continuous
100
AcDbLine
 10
223.437349
 20
304.312739
 30
0.0
 11
225.437349
 21
306.8337389999999
 31
0.0
  0
LINE
  5
AD39
330
AAF8
100
AcDbEntity
  8
1
  6
Continuous
100
AcDbLine
 10
222.023135
 20
304.312739
 30
0.0
 11
224.023135
 21
306.8337389999999
 31
0.0
  0
LINE
  5
AD3A
330
AAF8
100
AcDbEntity
  8
1
  6
Continuous
100
AcDbLine
 10
224.6089219999999
 20
304.312739
 30
0.0
 11
222.6089219999999
 21
306.8337389999999
 31
0.0
  0
LINE
  5
AD3B
330
AAF8
100
AcDbEntity
  8
1
  6
Continuous
100
AcDbLine
 10
227.6799899999998
 20
304.312739
 30
0.0
 11
229.6799899999999
 21
306.8337389999999
 31
0.0
  0
LINE
  5
AD3C
330
AAF8
100
AcDbEntity
  8
1
  6
Continuous
100
AcDbLine
 10
226.2657759999999
 20
304.312739
 30
0.0
 11
228.2657759999999
 21
306.8337389999999
 31
0.0
  0
LINE
  5
AD3D
330
AAF8
100
AcDbEntity
  8
1
  6
Continuous
100
AcDbLine
 10
228.851563
 20
304.312739
 30
0.0
 11
226.851563
 21
306.8337389999999
 31
0.0
  0
LINE
  5
AD3E
330
AAF8
100
AcDbEntity
  8
1
  6
Continuous
100
AcDbLine
 10
218.5502389999999
 20
304.312739
 30
0.0
 11
218.5502389999999
 21
308.127945
 31
0.0
  0
LINE
  5
AD3F
330
AAF8
100
AcDbEntity
  8
1
  6
Continuous
100
AcDbLine
 10
219.1947079999999
 20
304.312739
 30
0.0
 11
221.1947079999999
 21
306.8337389999999
 31
0.0
  0
LINE
  5
AD40
330
AAF8
100
AcDbEntity
  8
1
  6
Continuous
100
AcDbLine
 10
218.5502389999999
 20
305.082483
 30
0.0
 11
219.780495
 21
306.8337389999999
 31
0.0
  0
LINE
  5
AD41
330
AAF8
100
AcDbEntity
  8
1
  6
Continuous
100
AcDbLine
 10
218.5502389999999
 20
306.649781
 30
0.0
 11
220.3662809999999
 21
304.312739
 31
0.0
  0
LINE
  5
AD42
330
AAF8
100
AcDbEntity
  8
1
  6
Continuous
100
AcDbLine
 10
218.5502389999999
 20
304.7145679999999
 30
0.0
 11
218.952068
 21
304.312739
 31
0.0
  0
LINE
  5
AD43
330
AAF8
100
AcDbEntity
  8
1
  6
Continuous
100
AcDbLine
 10
241.822125
 20
304.312739
 30
0.0
 11
243.822125
 21
306.8337389999999
 31
0.0
  0
LINE
  5
AD44
330
AAF8
100
AcDbEntity
  8
1
  6
Continuous
100
AcDbLine
 10
240.407912
 20
304.312739
 30
0.0
 11
242.407912
 21
306.8337389999999
 31
0.0
  0
LINE
  5
AD45
330
AAF8
100
AcDbEntity
  8
1
  6
Continuous
100
AcDbLine
 10
242.9936979999999
 20
304.312739
 30
0.0
 11
240.9936979999999
 21
306.8337389999999
 31
0.0
  0
LINE
  5
AD46
330
AAF8
100
AcDbEntity
  8
1
  6
Continuous
100
AcDbLine
 10
237.579485
 20
304.312739
 30
0.0
 11
239.579485
 21
306.8337389999999
 31
0.0
  0
LINE
  5
AD47
330
AAF8
100
AcDbEntity
  8
1
  6
Continuous
100
AcDbLine
 10
236.1652709999999
 20
304.312739
 30
0.0
 11
238.165271
 21
306.8337389999999
 31
0.0
  0
LINE
  5
AD48
330
AAF8
100
AcDbEntity
  8
1
  6
Continuous
100
AcDbLine
 10
238.751058
 20
304.312739
 30
0.0
 11
236.751058
 21
306.8337389999999
 31
0.0
  0
LINE
  5
AD49
330
AAF8
100
AcDbEntity
  8
1
  6
Continuous
100
AcDbLine
 10
238.9936979999998
 20
304.312739
 30
0.0
 11
240.9936979999999
 21
306.8337389999999
 31
0.0
  0
LINE
  5
AD4A
330
AAF8
100
AcDbEntity
  8
1
  6
Continuous
100
AcDbLine
 10
241.579485
 20
304.312739
 30
0.0
 11
239.579485
 21
306.8337389999999
 31
0.0
  0
LINE
  5
AD4B
330
AAF8
100
AcDbEntity
  8
1
  6
Continuous
100
AcDbLine
 10
240.165271
 20
304.312739
 30
0.0
 11
238.165271
 21
306.8337389999999
 31
0.0
  0
LINE
  5
AD4C
330
AAF8
100
AcDbEntity
  8
1
  6
Continuous
100
AcDbLine
 10
244.407912
 20
304.312739
 30
0.0
 11
242.407912
 21
306.8337389999999
 31
0.0
  0
LINE
  5
AD4D
330
AAF8
100
AcDbEntity
  8
1
  6
Continuous
100
AcDbLine
 10
237.3368439999999
 20
304.312739
 30
0.0
 11
235.336844
 21
306.8337389999999
 31
0.0
  0
LINE
  5
AD4E
330
AAF8
100
AcDbEntity
  8
1
  6
Continuous
100
AcDbLine
 10
248.893193
 20
304.312739
 30
0.0
 11
250.893193
 21
306.8337389999999
 31
0.0
  0
LINE
  5
AD4F
330
AAF8
100
AcDbEntity
  8
1
  6
Continuous
100
AcDbLine
 10
250.3074069999999
 20
304.312739
 30
0.0
 11
252.3074069999999
 21
306.8337389999999
 31
0.0
  0
LINE
  5
AD50
330
AAF8
100
AcDbEntity
  8
1
  6
Continuous
100
AcDbLine
 10
251.4789799999999
 20
304.312739
 30
0.0
 11
249.4789799999999
 21
306.8337389999999
 31
0.0
  0
LINE
  5
AD51
330
AAF8
100
AcDbEntity
  8
1
  6
Continuous
100
AcDbLine
 10
247.4789799999999
 20
304.312739
 30
0.0
 11
249.4789799999999
 21
306.8337389999999
 31
0.0
  0
LINE
  5
AD52
330
AAF8
100
AcDbEntity
  8
1
  6
Continuous
100
AcDbLine
 10
250.0647659999999
 20
304.312739
 30
0.0
 11
248.0647659999999
 21
306.8337389999999
 31
0.0
  0
LINE
  5
AD53
330
AAF8
100
AcDbEntity
  8
1
  6
Continuous
100
AcDbLine
 10
252.893193
 20
304.312739
 30
0.0
 11
250.893193
 21
306.8337389999999
 31
0.0
  0
LINE
  5
AD54
330
AAF8
100
AcDbEntity
  8
1
  6
Continuous
100
AcDbLine
 10
244.650552
 20
304.312739
 30
0.0
 11
246.650552
 21
306.8337389999999
 31
0.0
  0
LINE
  5
AD55
330
AAF8
100
AcDbEntity
  8
1
  6
Continuous
100
AcDbLine
 10
246.0647659999999
 20
304.312739
 30
0.0
 11
248.0647659999999
 21
306.8337389999999
 31
0.0
  0
LINE
  5
AD56
330
AAF8
100
AcDbEntity
  8
1
  6
Continuous
100
AcDbLine
 10
247.2363389999999
 20
304.312739
 30
0.0
 11
245.2363389999999
 21
306.8337389999999
 31
0.0
  0
LINE
  5
AD57
330
AAF8
100
AcDbEntity
  8
1
  6
Continuous
100
AcDbLine
 10
248.650552
 20
304.312739
 30
0.0
 11
246.650552
 21
306.8337389999999
 31
0.0
  0
LINE
  5
AD58
330
AAF8
100
AcDbEntity
  8
1
  6
Continuous
100
AcDbLine
 10
243.2363389999999
 20
304.312739
 30
0.0
 11
245.2363389999999
 21
306.8337389999999
 31
0.0
  0
LINE
  5
AD59
330
AAF8
100
AcDbEntity
  8
1
  6
Continuous
100
AcDbLine
 10
245.822125
 20
304.312739
 30
0.0
 11
243.822125
 21
306.8337389999999
 31
0.0
  0
LINE
  5
AD5A
330
AAF8
100
AcDbEntity
  8
1
  6
Continuous
100
AcDbLine
 10
234.751058
 20
304.312739
 30
0.0
 11
236.751058
 21
306.8337389999999
 31
0.0
  0
LINE
  5
AD5B
330
AAF8
100
AcDbEntity
  8
1
  6
Continuous
100
AcDbLine
 10
251.2363389999999
 20
315.6279229999999
 30
0.0
 11
251.2363389999999
 21
344.127923
 31
0.0
  0
LINE
  5
AD5C
330
AAF8
100
AcDbEntity
  8
1
  6
Continuous
100
AcDbLine
 10
239.2363389999999
 20
315.6279229999999
 30
0.0
 11
239.2363389999999
 21
344.127923
 31
0.0
  0
LINE
  5
AD5D
330
AAF8
100
AcDbEntity
  8
2
  6
Continuous
100
AcDbLine
 10
250.559839
 20
316.7996560000001
 30
0.0
 11
250.559839
 21
344.8044229999999
 31
0.0
  0
LINE
  5
AD5E
330
AAF8
100
AcDbEntity
  8
2
  6
Continuous
100
AcDbLine
 10
239.9128389999999
 20
316.7996560000001
 30
0.0
 11
239.9128389999999
 21
344.8044229999999
 31
0.0
  0
LINE
  5
AD5F
330
AAF8
100
AcDbEntity
  8
1
  6
Continuous
100
AcDbLine
 10
229.070507
 20
312.127945
 30
0.0
 11
229.070507
 21
315.6279229999999
 31
0.0
  0
LINE
  5
AD60
330
AAF8
100
AcDbEntity
  8
1
  6
Continuous
100
AcDbLine
 10
237.1534109999998
 20
312.127945
 30
0.0
 11
237.1534109999998
 21
315.6279229999999
 31
0.0
  0
LINE
  5
AD61
330
AAF8
100
AcDbEntity
  8
1
  6
Continuous
100
AcDbLine
 10
239.2363389999999
 20
316.7996560000001
 30
0.0
 11
251.2363389999999
 21
316.7996560000001
 31
0.0
  0
LINE
  5
AD62
330
AAF8
100
AcDbEntity
  8
2
  6
Continuous
100
AcDbLine
 10
239.9128389999999
 20
316.7996560000001
 30
0.0
 11
239.2363389999999
 21
315.6279229999999
 31
0.0
  0
LINE
  5
AD63
330
AAF8
100
AcDbEntity
  8
2
  6
Continuous
100
AcDbLine
 10
250.559839
 20
316.7996560000001
 30
0.0
 11
251.2363389999999
 21
315.6279229999999
 31
0.0
  0
LINE
  5
AD64
330
AAF8
100
AcDbEntity
  8
1
  6
Continuous
100
AcDbLine
 10
253.319267
 20
312.127945
 30
0.0
 11
253.319267
 21
315.6279229999999
 31
0.0
  0
LINE
  5
AD65
330
AAF8
100
AcDbEntity
  8
1
  6
Continuous
100
AcDbLine
 10
251.2363389999999
 20
344.127923
 30
0.0
 11
249.7363389999999
 21
345.627923
 31
0.0
  0
LINE
  5
AD66
330
AAF8
100
AcDbEntity
  8
1
  6
Continuous
100
AcDbLine
 10
239.2363389999999
 20
344.127923
 30
0.0
 11
251.2363389999999
 21
344.127923
 31
0.0
  0
LINE
  5
AD67
330
AAF8
100
AcDbEntity
  8
1
  6
Continuous
100
AcDbLine
 10
239.2363389999999
 20
344.127923
 30
0.0
 11
240.7363389999999
 21
345.627923
 31
0.0
  0
LINE
  5
AD68
330
AAF8
100
AcDbEntity
  8
1
  6
Continuous
100
AcDbLine
 10
240.7363389999999
 20
345.627923
 30
0.0
 11
249.7363389999999
 21
345.627923
 31
0.0
  0
ARC
  5
AD69
330
AAF8
100
AcDbEntity
  8
1
  6
Continuous
100
AcDbCircle
 10
266.2363389999998
 20
308.127945
 30
0.0
 40
4.0
100
AcDbArc
 50
0.0
 51
90.0
  0
LINE
  5
AD6A
330
AAF8
100
AcDbEntity
  8
1
  6
Continuous
100
AcDbLine
 10
271.9224389999999
 20
308.127945
 30
0.0
 11
271.9224389999999
 21
304.312739
 31
0.0
  0
LINE
  5
AD6B
330
AAF8
100
AcDbEntity
  8
1
  6
Continuous
100
AcDbLine
 10
270.106397
 20
304.312739
 30
0.0
 11
271.9224389999999
 21
306.649781
 31
0.0
  0
LINE
  5
AD6C
330
AAF8
100
AcDbEntity
  8
1
  6
Continuous
100
AcDbLine
 10
271.5206099999999
 20
304.312739
 30
0.0
 11
271.9224389999999
 21
304.7145679999999
 31
0.0
  0
LINE
  5
AD6D
330
AAF8
100
AcDbEntity
  8
1
  6
Continuous
100
AcDbLine
 10
271.277969
 20
304.312739
 30
0.0
 11
269.277969
 21
306.8337389999999
 31
0.0
  0
LINE
  5
AD6E
330
AAF8
100
AcDbEntity
  8
1
  6
Continuous
100
AcDbLine
 10
271.9224389999999
 20
305.082483
 30
0.0
 11
270.692183
 21
306.8337389999999
 31
0.0
  0
LINE
  5
AD6F
330
AAF8
100
AcDbEntity
  8
1
  6
Continuous
100
AcDbLine
 10
265.863756
 20
304.312739
 30
0.0
 11
267.863756
 21
306.8337389999999
 31
0.0
  0
LINE
  5
AD70
330
AAF8
100
AcDbEntity
  8
1
  6
Continuous
100
AcDbLine
 10
267.0353289999998
 20
304.312739
 30
0.0
 11
265.0353289999998
 21
306.8337389999999
 31
0.0
  0
LINE
  5
AD71
330
AAF8
100
AcDbEntity
  8
1
  6
Continuous
100
AcDbLine
 10
268.449542
 20
304.312739
 30
0.0
 11
266.449542
 21
306.8337389999999
 31
0.0
  0
LINE
  5
AD72
330
AAF8
100
AcDbEntity
  8
1
  6
Continuous
100
AcDbLine
 10
261.6211149999999
 20
304.312739
 30
0.0
 11
263.6211149999999
 21
306.8337389999999
 31
0.0
  0
LINE
  5
AD73
330
AAF8
100
AcDbEntity
  8
1
  6
Continuous
100
AcDbLine
 10
262.7926879999999
 20
304.312739
 30
0.0
 11
260.7926879999999
 21
306.8337389999999
 31
0.0
  0
LINE
  5
AD74
330
AAF8
100
AcDbEntity
  8
1
  6
Continuous
100
AcDbLine
 10
264.206902
 20
304.312739
 30
0.0
 11
262.206902
 21
306.8337389999999
 31
0.0
  0
LINE
  5
AD75
330
AAF8
100
AcDbEntity
  8
1
  6
Continuous
100
AcDbLine
 10
263.0353289999998
 20
304.312739
 30
0.0
 11
265.0353289999998
 21
306.8337389999999
 31
0.0
  0
LINE
  5
AD76
330
AAF8
100
AcDbEntity
  8
1
  6
Continuous
100
AcDbLine
 10
264.449542
 20
304.312739
 30
0.0
 11
266.449542
 21
306.8337389999999
 31
0.0
  0
LINE
  5
AD77
330
AAF8
100
AcDbEntity
  8
1
  6
Continuous
100
AcDbLine
 10
265.6211149999999
 20
304.312739
 30
0.0
 11
263.6211149999999
 21
306.8337389999999
 31
0.0
  0
LINE
  5
AD78
330
AAF8
100
AcDbEntity
  8
1
  6
Continuous
100
AcDbLine
 10
257.3784749999999
 20
304.312739
 30
0.0
 11
259.3784749999999
 21
306.8337389999999
 31
0.0
  0
LINE
  5
AD79
330
AAF8
100
AcDbEntity
  8
1
  6
Continuous
100
AcDbLine
 10
258.5500469999999
 20
304.312739
 30
0.0
 11
256.5500469999999
 21
306.8337389999999
 31
0.0
  0
LINE
  5
AD7A
330
AAF8
100
AcDbEntity
  8
1
  6
Continuous
100
AcDbLine
 10
259.9642609999999
 20
304.312739
 30
0.0
 11
257.9642609999999
 21
306.8337389999999
 31
0.0
  0
LINE
  5
AD7B
330
AAF8
100
AcDbEntity
  8
1
  6
Continuous
100
AcDbLine
 10
254.5500469999999
 20
304.312739
 30
0.0
 11
256.5500469999999
 21
306.8337389999999
 31
0.0
  0
LINE
  5
AD7C
330
AAF8
100
AcDbEntity
  8
1
  6
Continuous
100
AcDbLine
 10
255.964261
 20
304.312739
 30
0.0
 11
257.9642609999999
 21
306.8337389999999
 31
0.0
  0
LINE
  5
AD7D
330
AAF8
100
AcDbEntity
  8
1
  6
Continuous
100
AcDbLine
 10
257.1358339999998
 20
304.312739
 30
0.0
 11
255.1358339999999
 21
306.8337389999999
 31
0.0
  0
LINE
  5
AD7E
330
AAF8
100
AcDbEntity
  8
1
  6
Continuous
100
AcDbLine
 10
258.7926879999999
 20
304.312739
 30
0.0
 11
260.7926879999999
 21
306.8337389999999
 31
0.0
  0
LINE
  5
AD7F
330
AAF8
100
AcDbEntity
  8
1
  6
Continuous
100
AcDbLine
 10
260.206902
 20
304.312739
 30
0.0
 11
262.206902
 21
306.8337389999999
 31
0.0
  0
LINE
  5
AD80
330
AAF8
100
AcDbEntity
  8
1
  6
Continuous
100
AcDbLine
 10
261.3784749999999
 20
304.312739
 30
0.0
 11
259.3784749999999
 21
306.8337389999999
 31
0.0
  0
LINE
  5
AD81
330
AAF8
100
AcDbEntity
  8
1
  6
Continuous
100
AcDbLine
 10
267.277969
 20
304.312739
 30
0.0
 11
269.277969
 21
306.8337389999999
 31
0.0
  0
LINE
  5
AD82
330
AAF8
100
AcDbEntity
  8
1
  6
Continuous
100
AcDbLine
 10
268.692183
 20
304.312739
 30
0.0
 11
270.692183
 21
306.8337389999999
 31
0.0
  0
LINE
  5
AD83
330
AAF8
100
AcDbEntity
  8
1
  6
Continuous
100
AcDbLine
 10
269.863756
 20
304.312739
 30
0.0
 11
267.863756
 21
306.8337389999999
 31
0.0
  0
ARC
  5
AD84
330
AAF8
100
AcDbEntity
  8
1
  6
Continuous
100
AcDbCircle
 10
270.819702
 20
301.4735769999999
 30
0.0
 40
2.839261999999998
100
AcDbArc
 50
86.26253100000004
 51
90.48175099999999
  0
LINE
  5
AD85
330
AAF8
100
AcDbEntity
  8
1
  6
Continuous
100
AcDbLine
 10
255.72162
 20
304.312739
 30
0.0
 11
253.72162
 21
306.8337389999999
 31
0.0
  0
LINE
  5
AD86
330
AAF8
100
AcDbEntity
  8
1
  6
Continuous
100
AcDbLine
 10
261.402123
 20
312.127945
 30
0.0
 11
261.402123
 21
315.6279229999999
 31
0.0
  0
CIRCLE
  5
AD87
330
AAF8
100
AcDbEntity
  8
1
  6
Continuous
100
AcDbCircle
 10
188.0760699999999
 20
258.752351
 30
0.0
 40
3.7
  0
LINE
  5
AD88
330
AAF8
100
AcDbEntity
  8
1
  6
Continuous
100
AcDbLine
 10
209.409643
 20
436.824648
 30
0.0
 11
150.387842
 21
436.824648
 31
0.0
  0
LINE
  5
AD89
330
AAF8
100
AcDbEntity
  8
1
  6
Continuous
100
AcDbLine
 10
209.40964
 20
411.824648
 30
0.0
 11
150.387842
 21
411.824648
 31
0.0
  0
ARC
  5
AD8A
330
AAF8
100
AcDbEntity
  8
1
  6
Continuous
100
AcDbCircle
 10
174.236322
 20
424.324648
 30
0.0
 40
30.0
100
AcDbArc
 50
162.5423969999999
 51
197.457603
  0
ARC
  5
AD8B
330
AAF8
100
AcDbEntity
  8
1
  6
Continuous
100
AcDbCircle
 10
150.387842
 20
416.824648
 30
0.0
 40
5.0
100
AcDbArc
 50
197.457603
 51
270.0
  0
ARC
  5
AD8C
330
AAF8
100
AcDbEntity
  8
1
  6
Continuous
100
AcDbCircle
 10
150.387842
 20
431.8246479999998
 30
0.0
 40
5.0
100
AcDbArc
 50
90.0
 51
162.5423969999999
  0
ARC
  5
AD8D
330
AAF8
100
AcDbEntity
  8
1
  6
Continuous
100
AcDbCircle
 10
209.240777
 20
606.543084
 30
0.0
 40
196.381632
100
AcDbArc
 50
262.5378149999999
 51
267.6639999999998
  0
ARC
  5
AD8E
330
AAF8
100
AcDbEntity
  8
1
  6
Continuous
100
AcDbCircle
 10
209.236339
 20
437.1801669999999
 30
0.0
 40
10.5
100
AcDbArc
 50
48.189685
 51
131.810315
  0
LINE
  5
AD8F
330
AAF8
100
AcDbEntity
  8
1
  6
Continuous
100
AcDbLine
 10
216.2363389999999
 20
445.0064049999999
 30
0.0
 11
202.2363389999999
 21
445.0064049999999
 31
0.0
  0
LINE
  5
AD90
330
AAF8
100
AcDbEntity
  8
1
  6
Continuous
100
AcDbLine
 10
210.2252339999998
 20
408.824648
 30
0.0
 11
203.7363389999999
 21
408.824648
 31
0.0
  0
LINE
  5
AD91
330
AAF8
100
AcDbEntity
  8
1
  6
Continuous
100
AcDbLine
 10
210.0762
 20
409.324648
 30
0.0
 11
202.2363389999999
 21
409.324648
 31
0.0
  0
LINE
  5
AD92
330
AAF8
100
AcDbEntity
  8
1
  6
Continuous
100
AcDbLine
 10
209.793981
 20
410.324648
 30
0.0
 11
201.2363389999999
 21
410.324648
 31
0.0
  0
LINE
  5
AD93
330
AAF8
100
AcDbEntity
  8
1
  6
Continuous
100
AcDbLine
 10
196.836339
 20
405.956691
 30
0.0
 11
220.19218
 21
405.9801199999998
 31
0.0
  0
LINE
  5
AD94
330
AAF8
100
AcDbEntity
  8
1
  6
Continuous
100
AcDbLine
 10
196.836339
 20
408.5566929999997
 30
0.0
 11
210.3031249999999
 21
408.570202
 31
0.0
  0
LINE
  5
AD95
330
AAF8
100
AcDbEntity
  8
1
  6
Continuous
100
AcDbLine
 10
202.2363389999999
 20
445.0064049999999
 30
0.0
 11
202.2363389999999
 21
442.6801669999998
 31
0.0
  0
LINE
  5
AD96
330
AAF8
100
AcDbEntity
  8
1
  6
Continuous
100
AcDbLine
 10
203.7363389999999
 20
408.824648
 30
0.0
 11
203.7363389999999
 21
409.324648
 31
0.0
  0
ARC
  5
AD97
330
AAF8
100
AcDbEntity
  8
1
  6
Continuous
100
AcDbCircle
 10
203.0592149999999
 20
411.1475239999998
 30
0.0
 40
2.0
100
AcDbArc
 50
204.295189
 51
245.704811
  0
LINE
  5
AD98
330
AAF8
100
AcDbEntity
  8
1
  6
Continuous
100
AcDbLine
 10
205.236339
 20
408.565119
 30
0.0
 11
205.236339
 21
408.824648
 31
0.0
  0
LINE
  5
AD99
330
AAF8
100
AcDbEntity
  8
1
  6
Continuous
100
AcDbLine
 10
196.836339
 20
408.5566929999997
 30
0.0
 11
196.836339
 21
405.956691
 31
0.0
  0
LINE
  5
AD9A
330
AAF8
100
AcDbEntity
  8
1
  6
Continuous
100
AcDbLine
 10
216.2363389999999
 20
445.0064049999999
 30
0.0
 11
216.2363389999999
 21
442.6801669999998
 31
0.0
  0
ARC
  5
AD9B
330
AAF8
100
AcDbEntity
  8
1
  6
Continuous
100
AcDbCircle
 10
209.2408079999999
 20
242.1058459999999
 30
0.0
 40
196.382
100
AcDbArc
 50
92.33600499999999
 51
97.46218000000002
  0
LINE
  5
AD9C
330
AAF8
100
AcDbEntity
  8
1
  6
Continuous
100
AcDbLine
 10
209.236339
 20
405.9691299999998
 30
0.0
 11
211.2288149999999
 21
403.9766529999998
 31
0.0
  0
LINE
  5
AD9D
330
AAF8
100
AcDbEntity
  8
1
  6
Continuous
100
AcDbLine
 10
216.7363389999999
 20
405.976653
 30
0.0
 11
216.7363389999999
 21
403.9766529999998
 31
0.0
  0
LINE
  5
AD9E
330
AAF8
100
AcDbEntity
  8
1
  6
Continuous
100
AcDbLine
 10
207.241862
 20
405.97113
 30
0.0
 11
209.236339
 21
403.9766529999998
 31
0.0
  0
LINE
  5
AD9F
330
AAF8
100
AcDbEntity
  8
1
  6
Continuous
100
AcDbLine
 10
201.7363389999999
 20
405.961606
 30
0.0
 11
201.7363389999999
 21
403.9766529999998
 31
0.0
  0
LINE
  5
ADA0
330
AAF8
100
AcDbEntity
  8
1
  6
Continuous
100
AcDbLine
 10
210.2252379999999
 20
439.824648
 30
0.0
 11
203.7363389999999
 21
439.824648
 31
0.0
  0
LINE
  5
ADA1
330
AAF8
100
AcDbEntity
  8
1
  6
Continuous
100
AcDbLine
 10
210.0762049999999
 20
439.324648
 30
0.0
 11
202.2363389999999
 21
439.324648
 31
0.0
  0
LINE
  5
ADA2
330
AAF8
100
AcDbEntity
  8
1
  6
Continuous
100
AcDbLine
 10
209.7939849999999
 20
438.324648
 30
0.0
 11
201.2363389999999
 21
438.324648
 31
0.0
  0
LINE
  5
ADA3
330
AAF8
100
AcDbEntity
  8
1
  6
Continuous
100
AcDbLine
 10
196.836339
 20
442.6926059999998
 30
0.0
 11
220.192179
 21
442.6691769999997
 31
0.0
  0
LINE
  5
ADA4
330
AAF8
100
AcDbEntity
  8
1
  6
Continuous
100
AcDbLine
 10
196.836339
 20
440.0926049999998
 30
0.0
 11
210.30313
 21
440.079096
 31
0.0
  0
LINE
  5
ADA5
330
AAF8
100
AcDbEntity
  8
1
  6
Continuous
100
AcDbLine
 10
203.7363389999999
 20
439.324648
 30
0.0
 11
203.7363389999999
 21
439.824648
 31
0.0
  0
ARC
  5
ADA6
330
AAF8
100
AcDbEntity
  8
1
  6
Continuous
100
AcDbCircle
 10
203.0592149999999
 20
437.501773
 30
0.0
 40
2.0
100
AcDbArc
 50
114.2951889999998
 51
155.704811
  0
LINE
  5
ADA7
330
AAF8
100
AcDbEntity
  8
1
  6
Continuous
100
AcDbLine
 10
205.236339
 20
439.824648
 30
0.0
 11
205.236339
 21
440.084179
 31
0.0
  0
LINE
  5
ADA8
330
AAF8
100
AcDbEntity
  8
1
  6
Continuous
100
AcDbLine
 10
196.836339
 20
442.6926059999998
 30
0.0
 11
196.836339
 21
440.0926049999998
 31
0.0
  0
LINE
  5
ADA9
330
AAF8
100
AcDbEntity
  8
1
  6
Continuous
100
AcDbLine
 10
203.7363389999999
 20
440.074648
 30
0.0
 11
209.236339
 21
440.074648
 31
0.0
  0
LINE
  5
ADAA
330
AAF8
100
AcDbEntity
  8
1
  6
Continuous
100
AcDbLine
 10
205.236339
 20
440.084179
 30
0.0
 11
205.236339
 21
440.074648
 31
0.0
  0
LINE
  5
ADAB
330
AAF8
100
AcDbEntity
  8
1
  6
Continuous
100
AcDbLine
 10
206.2363389999999
 20
397.0766529999999
 30
0.0
 11
212.2363389999999
 21
397.0766529999999
 31
0.0
  0
LINE
  5
ADAC
330
AAF8
100
AcDbEntity
  8
1
  6
Continuous
100
AcDbLine
 10
205.236339
 20
398.076653
 30
0.0
 11
213.236339
 21
398.076653
 31
0.0
  0
LINE
  5
ADAD
330
AAF8
100
AcDbEntity
  8
1
  6
Continuous
100
AcDbLine
 10
203.2363389999999
 20
398.976653
 30
0.0
 11
215.236339
 21
398.976653
 31
0.0
  0
ARC
  5
ADAE
330
AAF8
100
AcDbEntity
  8
1
  6
Continuous
100
AcDbCircle
 10
212.2363389999999
 20
407.641717
 30
0.0
 40
8.665063999999999
100
AcDbArc
 50
249.7438419999999
 51
290.256158
  0
ARC
  5
ADAF
330
AAF8
100
AcDbEntity
  8
1
  6
Continuous
100
AcDbCircle
 10
212.2363389999999
 20
395.3115899999998
 30
0.0
 40
8.665063999999999
100
AcDbArc
 50
69.743842
 51
110.256158
  0
LINE
  5
ADB0
330
AAF8
100
AcDbEntity
  8
1
  6
Continuous
100
AcDbLine
 10
216.7363389999999
 20
403.9766529999998
 30
0.0
 11
201.7363389999999
 21
403.9766529999998
 31
0.0
  0
LINE
  5
ADB1
330
AAF8
100
AcDbEntity
  8
1
  6
Continuous
100
AcDbLine
 10
206.2363389999999
 20
397.0766529999999
 30
0.0
 11
205.236339
 21
398.076653
 31
0.0
  0
LINE
  5
ADB2
330
AAF8
100
AcDbEntity
  8
2
  6
Continuous
100
AcDbLine
 10
205.912839
 20
398.976653
 30
0.0
 11
205.912839
 21
397.4001529999999
 31
0.0
  0
LINE
  5
ADB3
330
AAF8
100
AcDbEntity
  8
1
  6
Continuous
100
AcDbLine
 10
205.236339
 20
398.976653
 30
0.0
 11
205.236339
 21
398.076653
 31
0.0
  0
LINE
  5
ADB4
330
AAF8
100
AcDbEntity
  8
1
  6
Continuous
100
AcDbLine
 10
203.2363389999999
 20
398.976653
 30
0.0
 11
203.2363389999999
 21
403.9766529999998
 31
0.0
  0
LINE
  5
ADB5
330
AAF8
100
AcDbEntity
  8
1
  6
Continuous
100
AcDbLine
 10
209.236339
 20
403.440755
 30
0.0
 11
209.236339
 21
399.512552
 31
0.0
  0
ARC
  5
ADB6
330
AAF8
100
AcDbEntity
  8
1
  6
Continuous
100
AcDbCircle
 10
206.2363389999999
 20
407.641717
 30
0.0
 40
8.665063999999999
100
AcDbArc
 50
249.7438419999999
 51
290.256158
  0
ARC
  5
ADB7
330
AAF8
100
AcDbEntity
  8
1
  6
Continuous
100
AcDbCircle
 10
206.2363389999999
 20
395.3115899999998
 30
0.0
 40
8.665063999999999
100
AcDbArc
 50
69.743842
 51
110.256158
  0
LINE
  5
ADB8
330
AAF8
100
AcDbEntity
  8
1
  6
Continuous
100
AcDbLine
 10
212.2363389999999
 20
397.0766529999999
 30
0.0
 11
213.236339
 21
398.076653
 31
0.0
  0
LINE
  5
ADB9
330
AAF8
100
AcDbEntity
  8
2
  6
Continuous
100
AcDbLine
 10
212.5598389999999
 20
398.976653
 30
0.0
 11
212.5598389999999
 21
397.4001529999999
 31
0.0
  0
LINE
  5
ADBA
330
AAF8
100
AcDbEntity
  8
1
  6
Continuous
100
AcDbLine
 10
213.236339
 20
398.976653
 30
0.0
 11
213.236339
 21
398.076653
 31
0.0
  0
LINE
  5
ADBB
330
AAF8
100
AcDbEntity
  8
1
  6
Continuous
100
AcDbLine
 10
215.236339
 20
398.976653
 30
0.0
 11
215.236339
 21
403.9766529999998
 31
0.0
  0
ARC
  5
ADBC
330
AAF8
100
AcDbEntity
  8
1
  6
Continuous
100
AcDbCircle
 10
244.2363569999999
 20
424.324648
 30
0.0
 40
30.0
100
AcDbArc
 50
342.542397
 51
17.45760299999999
  0
ARC
  5
ADBD
330
AAF8
100
AcDbEntity
  8
1
  6
Continuous
100
AcDbCircle
 10
268.084837
 20
416.824648
 30
0.0
 40
5.0
100
AcDbArc
 50
291.322179
 51
342.542397
  0
ARC
  5
ADBE
330
AAF8
100
AcDbEntity
  8
1
  6
Continuous
100
AcDbCircle
 10
268.084837
 20
431.8246479999998
 30
0.0
 40
5.0
100
AcDbArc
 50
17.45760299999999
 51
68.67782099999999
  0
ARC
  5
ADBF
330
AAF8
100
AcDbEntity
  8
1
  6
Continuous
100
AcDbCircle
 10
220.2035149999999
 20
117.066891
 30
0.0
 40
11.3
100
AcDbArc
 50
269.942524
 51
310.1788629999999
  0
ARC
  5
ADC0
330
AAF8
100
AcDbEntity
  8
1
  6
Continuous
100
AcDbCircle
 10
220.2035149999999
 20
117.066892
 30
0.0
 40
13.9
100
AcDbArc
 50
269.9425249999998
 51
310.1788619999999
  0
ARC
  5
ADC1
330
AAF8
100
AcDbEntity
  8
1
  6
Continuous
100
AcDbCircle
 10
220.203514
 20
57.777846
 30
0.0
 40
13.9
100
AcDbArc
 50
49.821135
 51
90.05747599999997
  0
ARC
  5
ADC2
330
AAF8
100
AcDbEntity
  8
1
  6
Continuous
100
AcDbCircle
 10
220.2035149999999
 20
57.777846
 30
0.0
 40
11.3
100
AcDbArc
 50
49.821137
 51
90.05747500000003
  0
CIRCLE
  5
ADC3
330
AAF8
100
AcDbEntity
  8
2
  6
Continuous
100
AcDbCircle
 10
245.2363389999999
 20
424.324648
 30
0.0
 40
5.3235
  0
ARC
  5
ADC4
330
AAF8
100
AcDbEntity
  8
1
  6
Continuous
100
AcDbCircle
 10
245.2363389999999
 20
424.324648
 30
0.0
 40
27.5
100
AcDbArc
 50
229.821137
 51
130.1788629999998
  0
ARC
  5
ADC5
330
AAF8
100
AcDbEntity
  8
1
  6
Continuous
100
AcDbCircle
 10
220.2035149999999
 20
453.969171
 30
0.0
 40
11.3
100
AcDbArc
 50
269.942524
 51
310.1788629999999
  0
ARC
  5
ADC6
330
AAF8
100
AcDbEntity
  8
1
  6
Continuous
100
AcDbCircle
 10
220.2035149999999
 20
394.6801259999999
 30
0.0
 40
11.3
100
AcDbArc
 50
49.821137
 51
90.05747500000003
  0
LINE
  5
ADC7
330
AAF8
100
AcDbEntity
  8
4
  6
CENTER
100
AcDbLine
 10
422.231148
 20
229.6277389999999
 30
0.0
 11
568.231148
 21
229.6277389999999
 31
0.0
  0
ARC
  5
ADC8
330
AAF8
100
AcDbEntity
  8
1
  6
Continuous
100
AcDbCircle
 10
495.231148
 20
229.6277389999999
 30
0.0
 40
65.0
100
AcDbArc
 50
140.165976
 51
93.30358600000002
  0
ARC
  5
ADC9
330
AAF8
100
AcDbEntity
  8
1
  6
Continuous
100
AcDbCircle
 10
597.147723
 20
351.653945
 30
0.0
 40
171.799
100
AcDbArc
 50
200.3009159999999
 51
230.062209
  0
ARC
  5
ADCA
330
AAF8
100
AcDbEntity
  8
1
  6
Continuous
100
AcDbCircle
 10
494.981148
 20
229.6277389999999
 30
0.0
 40
12.65
100
AcDbArc
 50
230.062209
 51
27.31443499999999
  0
ARC
  5
ADCB
330
AAF8
100
AcDbEntity
  8
1
  6
Continuous
100
AcDbCircle
 10
495.231148
 20
229.6277389999999
 30
0.0
 40
31.415325
100
AcDbArc
 50
159.1214209999999
 51
88.20423499999998
  0
ARC
  5
ADCC
330
AAF8
100
AcDbEntity
  8
1
  6
Continuous
100
AcDbCircle
 10
495.231148
 20
229.6277389999999
 30
0.0
 40
40.533539
100
AcDbArc
 50
151.7444649999999
 51
91.66824400000001
  0
ARC
  5
ADCD
330
AAF8
100
AcDbEntity
  8
1
  6
Continuous
100
AcDbCircle
 10
495.231148
 20
229.6277389999999
 30
0.0
 40
53.65
100
AcDbArc
 50
144.701094
 51
93.335895
  0
CIRCLE
  5
ADCE
330
AAF8
100
AcDbEntity
  8
1
  6
Continuous
100
AcDbCircle
 10
529.469183
 20
218.503127
 30
0.0
 40
3.7
  0
CIRCLE
  5
ADCF
330
AAF8
100
AcDbEntity
  8
1
  6
Continuous
100
AcDbCircle
 10
495.231148
 20
193.6277389999999
 30
0.0
 40
3.7
  0
CIRCLE
  5
ADD0
330
AAF8
100
AcDbEntity
  8
1
  6
Continuous
100
AcDbCircle
 10
460.9931129999998
 20
218.503127
 30
0.0
 40
3.7
  0
LINE
  5
ADD1
330
AAF8
100
AcDbEntity
  8
4
  6
CENTER
100
AcDbLine
 10
459.231148
 20
249.214135
 30
0.0
 11
459.231148
 21
350.627923
 31
0.0
  0
LINE
  5
ADD2
330
AAF8
100
AcDbEntity
  8
2
  6
Continuous
100
AcDbLine
 10
464.554648
 20
316.7996560000001
 30
0.0
 11
464.554648
 21
344.8044229999999
 31
0.0
  0
LINE
  5
ADD3
330
AAF8
100
AcDbEntity
  8
2
  6
Continuous
100
AcDbLine
 10
453.907648
 20
316.7996560000001
 30
0.0
 11
453.907648
 21
344.8044229999999
 31
0.0
  0
LINE
  5
ADD4
330
AAF8
100
AcDbEntity
  8
1
  6
Continuous
100
AcDbLine
 10
465.231148
 20
315.6279229999999
 30
0.0
 11
465.231148
 21
344.127923
 31
0.0
  0
LINE
  5
ADD5
330
AAF8
100
AcDbEntity
  8
1
  6
Continuous
100
AcDbLine
 10
453.231148
 20
315.6279229999999
 30
0.0
 11
453.231148
 21
344.127923
 31
0.0
  0
LINE
  5
ADD6
330
AAF8
100
AcDbEntity
  8
1
  6
Continuous
100
AcDbLine
 10
432.5450479999998
 20
304.312739
 30
0.0
 11
485.9172479999998
 21
304.312739
 31
0.0
  0
LINE
  5
ADD7
330
AAF8
100
AcDbEntity
  8
1
  6
Continuous
100
AcDbLine
 10
474.2017109999999
 20
304.312739
 30
0.0
 11
476.201711
 21
306.8337389999999
 31
0.0
  0
LINE
  5
ADD8
330
AAF8
100
AcDbEntity
  8
1
  6
Continuous
100
AcDbLine
 10
476.787497
 20
304.312739
 30
0.0
 11
474.7874969999998
 21
306.8337389999999
 31
0.0
  0
LINE
  5
ADD9
330
AAF8
100
AcDbEntity
  8
1
  6
Continuous
100
AcDbLine
 10
432.5450479999998
 20
308.127945
 30
0.0
 11
485.9172479999998
 21
308.127945
 31
0.0
  0
LINE
  5
ADDA
330
AAF8
100
AcDbEntity
  8
1
  6
Continuous
100
AcDbLine
 10
480.231148
 20
312.127945
 30
0.0
 11
438.231148
 21
312.127945
 31
0.0
  0
LINE
  5
ADDB
330
AAF8
100
AcDbEntity
  8
1
  6
Continuous
100
AcDbLine
 10
485.9172479999998
 20
306.8337389999999
 30
0.0
 11
432.5450479999998
 21
306.8337389999999
 31
0.0
  0
LINE
  5
ADDC
330
AAF8
100
AcDbEntity
  8
1
  6
Continuous
100
AcDbLine
 10
480.7034269999999
 20
300.798268
 30
0.0
 11
480.7034269999999
 21
230.793644
 31
0.0
  0
ARC
  5
ADDD
330
AAF8
100
AcDbEntity
  8
1
  6
Continuous
100
AcDbCircle
 10
623.7189749999997
 20
296.1153649999999
 30
0.0
 40
132.243177
100
AcDbArc
 50
177.4095369999998
 51
207.314435
  0
CIRCLE
  5
ADDE
330
AAF8
100
AcDbEntity
  8
1
  6
Continuous
100
AcDbCircle
 10
516.391417
 20
258.752351
 30
0.0
 40
3.7
  0
LINE
  5
ADDF
330
AAF8
100
AcDbEntity
  8
1
  6
Continuous
100
AcDbLine
 10
495.0487759999998
 20
302.091789
 30
0.0
 11
480.703832
 21
302.091789
 31
0.0
  0
LINE
  5
ADE0
330
AAF8
100
AcDbEntity
  8
1
  6
Continuous
100
AcDbLine
 10
495.2073829999998
 20
299.5381619999998
 30
0.0
 11
491.5201009999998
 21
299.5381619999998
 31
0.0
  0
ARC
  5
ADE1
330
AAF8
100
AcDbEntity
  8
1
  6
Continuous
100
AcDbCircle
 10
494.331804
 20
301.1713379999998
 30
0.0
 40
2.172123
100
AcDbArc
 50
357.762921
 51
16.515265
  0
ARC
  5
ADE2
330
AAF8
100
AcDbEntity
  8
1
  6
Continuous
100
AcDbCircle
 10
504.731707
 20
299.1607989999998
 30
0.0
 40
8.451753
100
AcDbArc
 50
166.82934
 51
175.516763
  0
ARC
  5
ADE3
330
AAF8
100
AcDbEntity
  8
1
  6
Continuous
100
AcDbCircle
 10
495.889276
 20
301.029678
 30
0.0
 40
0.9230079999999999
100
AcDbArc
 50
55.331088
 51
71.205477
  0
LINE
  5
ADE4
330
AAF8
100
AcDbEntity
  8
1
  6
Continuous
100
AcDbLine
 10
496.170113
 20
299.65751
 30
0.0
 11
496.3058150000001
 21
299.821451
 31
0.0
  0
ARC
  5
ADE5
330
AAF8
100
AcDbEntity
  8
1
  6
Continuous
100
AcDbCircle
 10
495.2073829999998
 20
303.480799
 30
0.0
 40
3.942636999999998
100
AcDbArc
 50
270.0
 51
284.133642
  0
ARC
  5
ADE6
330
AAF8
100
AcDbEntity
  8
1
  6
Continuous
100
AcDbCircle
 10
495.0487759999998
 20
298.5599509999999
 30
0.0
 40
3.531837999999998
100
AcDbArc
 50
71.205477
 51
90.0
  0
ARC
  5
ADE7
330
AAF8
100
AcDbEntity
  8
1
  6
Continuous
100
AcDbCircle
 10
483.049548
 20
302.519206
 30
0.0
 40
2.384338999999997
100
AcDbArc
 50
131.2174919999999
 51
190.32668
  0
ARC
  5
ADE8
330
AAF8
100
AcDbEntity
  8
1
  6
Continuous
100
AcDbCircle
 10
486.74217
 20
303.2410889999998
 30
0.0
 40
1.188780999999998
100
AcDbArc
 50
177.8908409999999
 51
255.1922279999998
  0
ARC
  5
ADE9
330
AAF8
100
AcDbEntity
  8
1
  6
Continuous
100
AcDbCircle
 10
483.3587639999998
 20
302.604599
 30
0.0
 40
2.298399999999999
100
AcDbArc
 50
17.21530399999998
 51
48.003581
  0
LINE
  5
ADEA
330
AAF8
100
AcDbEntity
  8
1
  6
Continuous
100
AcDbLine
 10
479.615924
 20
304.312739
 30
0.0
 11
477.615924
 21
306.8337389999999
 31
0.0
  0
LINE
  5
ADEB
330
AAF8
100
AcDbEntity
  8
1
  6
Continuous
100
AcDbLine
 10
477.0301379999998
 20
304.312739
 30
0.0
 11
479.0301379999998
 21
306.8337389999999
 31
0.0
  0
LINE
  5
ADEC
330
AAF8
100
AcDbEntity
  8
1
  6
Continuous
100
AcDbLine
 10
478.4443519999999
 20
304.312739
 30
0.0
 11
480.4443519999998
 21
306.8337389999999
 31
0.0
  0
LINE
  5
ADED
330
AAF8
100
AcDbEntity
  8
1
  6
Continuous
100
AcDbLine
 10
483.858565
 20
304.312739
 30
0.0
 11
481.8585650000001
 21
306.8337389999999
 31
0.0
  0
LINE
  5
ADEE
330
AAF8
100
AcDbEntity
  8
1
  6
Continuous
100
AcDbLine
 10
481.272779
 20
304.312739
 30
0.0
 11
483.2727789999998
 21
306.8337389999999
 31
0.0
  0
LINE
  5
ADEF
330
AAF8
100
AcDbEntity
  8
1
  6
Continuous
100
AcDbLine
 10
482.686992
 20
304.312739
 30
0.0
 11
484.6869919999998
 21
306.8337389999999
 31
0.0
  0
LINE
  5
ADF0
330
AAF8
100
AcDbEntity
  8
1
  6
Continuous
100
AcDbLine
 10
481.0301379999998
 20
304.312739
 30
0.0
 11
479.0301379999998
 21
306.8337389999999
 31
0.0
  0
LINE
  5
ADF1
330
AAF8
100
AcDbEntity
  8
1
  6
Continuous
100
AcDbLine
 10
482.4443519999999
 20
304.312739
 30
0.0
 11
480.4443519999998
 21
306.8337389999999
 31
0.0
  0
LINE
  5
ADF2
330
AAF8
100
AcDbEntity
  8
1
  6
Continuous
100
AcDbLine
 10
479.858565
 20
304.312739
 30
0.0
 11
481.8585650000001
 21
306.8337389999999
 31
0.0
  0
LINE
  5
ADF3
330
AAF8
100
AcDbEntity
  8
1
  6
Continuous
100
AcDbLine
 10
478.2017109999999
 20
304.312739
 30
0.0
 11
476.201711
 21
306.8337389999999
 31
0.0
  0
LINE
  5
ADF4
330
AAF8
100
AcDbEntity
  8
1
  6
Continuous
100
AcDbLine
 10
475.615924
 20
304.312739
 30
0.0
 11
477.615924
 21
306.8337389999999
 31
0.0
  0
LINE
  5
ADF5
330
AAF8
100
AcDbEntity
  8
1
  6
Continuous
100
AcDbLine
 10
485.9172479999998
 20
304.312739
 30
0.0
 11
485.9172479999998
 21
308.127945
 31
0.0
  0
LINE
  5
ADF6
330
AAF8
100
AcDbEntity
  8
1
  6
Continuous
100
AcDbLine
 10
485.272779
 20
304.312739
 30
0.0
 11
483.2727789999998
 21
306.8337389999999
 31
0.0
  0
LINE
  5
ADF7
330
AAF8
100
AcDbEntity
  8
1
  6
Continuous
100
AcDbLine
 10
485.9172479999998
 20
305.082483
 30
0.0
 11
484.6869919999998
 21
306.8337389999999
 31
0.0
  0
LINE
  5
ADF8
330
AAF8
100
AcDbEntity
  8
1
  6
Continuous
100
AcDbLine
 10
485.9172479999998
 20
306.649781
 30
0.0
 11
484.1012059999997
 21
304.312739
 31
0.0
  0
LINE
  5
ADF9
330
AAF8
100
AcDbEntity
  8
1
  6
Continuous
100
AcDbLine
 10
485.9172479999998
 20
304.7145679999999
 30
0.0
 11
485.515419
 21
304.312739
 31
0.0
  0
ARC
  5
ADFA
330
AAF8
100
AcDbEntity
  8
1
  6
Continuous
100
AcDbCircle
 10
480.231148
 20
308.127945
 30
0.0
 40
4.0
100
AcDbArc
 50
0.0
 51
90.0
  0
LINE
  5
ADFB
330
AAF8
100
AcDbEntity
  8
1
  6
Continuous
100
AcDbLine
 10
438.6037309999998
 20
304.312739
 30
0.0
 11
436.603731
 21
306.8337389999999
 31
0.0
  0
LINE
  5
ADFC
330
AAF8
100
AcDbEntity
  8
1
  6
Continuous
100
AcDbLine
 10
437.432158
 20
304.312739
 30
0.0
 11
439.432158
 21
306.8337389999999
 31
0.0
  0
LINE
  5
ADFD
330
AAF8
100
AcDbEntity
  8
1
  6
Continuous
100
AcDbLine
 10
436.017945
 20
304.312739
 30
0.0
 11
438.0179449999998
 21
306.8337389999999
 31
0.0
  0
ARC
  5
ADFE
330
AAF8
100
AcDbEntity
  8
1
  6
Continuous
100
AcDbCircle
 10
438.231148
 20
308.127945
 30
0.0
 40
4.0
100
AcDbArc
 50
90.0
 51
180.0
  0
LINE
  5
ADFF
330
AAF8
100
AcDbEntity
  8
1
  6
Continuous
100
AcDbLine
 10
456.988507
 20
304.312739
 30
0.0
 11
454.988507
 21
306.8337389999999
 31
0.0
  0
LINE
  5
AE00
330
AAF8
100
AcDbEntity
  8
1
  6
Continuous
100
AcDbLine
 10
458.402721
 20
304.312739
 30
0.0
 11
456.4027209999999
 21
306.8337389999999
 31
0.0
  0
LINE
  5
AE01
330
AAF8
100
AcDbEntity
  8
1
  6
Continuous
100
AcDbLine
 10
455.8169349999998
 20
304.312739
 30
0.0
 11
457.8169349999998
 21
306.8337389999999
 31
0.0
  0
LINE
  5
AE02
330
AAF8
100
AcDbEntity
  8
1
  6
Continuous
100
AcDbLine
 10
465.231148
 20
316.7996560000001
 30
0.0
 11
453.231148
 21
316.7996560000001
 31
0.0
  0
LINE
  5
AE03
330
AAF8
100
AcDbEntity
  8
1
  6
Continuous
100
AcDbLine
 10
443.065364
 20
315.6279229999999
 30
0.0
 11
475.39698
 21
315.6279229999999
 31
0.0
  0
LINE
  5
AE04
330
AAF8
100
AcDbEntity
  8
1
  6
Continuous
100
AcDbLine
 10
471.1306429999998
 20
304.312739
 30
0.0
 11
469.130643
 21
306.8337389999999
 31
0.0
  0
LINE
  5
AE05
330
AAF8
100
AcDbEntity
  8
1
  6
Continuous
100
AcDbLine
 10
468.544857
 20
304.312739
 30
0.0
 11
470.5448569999998
 21
306.8337389999999
 31
0.0
  0
LINE
  5
AE06
330
AAF8
100
AcDbEntity
  8
1
  6
Continuous
100
AcDbLine
 10
472.544857
 20
304.312739
 30
0.0
 11
470.5448569999998
 21
306.8337389999999
 31
0.0
  0
LINE
  5
AE07
330
AAF8
100
AcDbEntity
  8
1
  6
Continuous
100
AcDbLine
 10
469.9590699999998
 20
304.312739
 30
0.0
 11
471.95907
 21
306.8337389999999
 31
0.0
  0
LINE
  5
AE08
330
AAF8
100
AcDbEntity
  8
1
  6
Continuous
100
AcDbLine
 10
475.373284
 20
304.312739
 30
0.0
 11
473.373284
 21
306.8337389999999
 31
0.0
  0
LINE
  5
AE09
330
AAF8
100
AcDbEntity
  8
1
  6
Continuous
100
AcDbLine
 10
472.787497
 20
304.312739
 30
0.0
 11
474.7874969999998
 21
306.8337389999999
 31
0.0
  0
LINE
  5
AE0A
330
AAF8
100
AcDbEntity
  8
1
  6
Continuous
100
AcDbLine
 10
473.9590699999998
 20
304.312739
 30
0.0
 11
471.95907
 21
306.8337389999999
 31
0.0
  0
LINE
  5
AE0B
330
AAF8
100
AcDbEntity
  8
1
  6
Continuous
100
AcDbLine
 10
471.373284
 20
304.312739
 30
0.0
 11
473.373284
 21
306.8337389999999
 31
0.0
  0
LINE
  5
AE0C
330
AAF8
100
AcDbEntity
  8
1
  6
Continuous
100
AcDbLine
 10
462.6453619999998
 20
304.312739
 30
0.0
 11
460.6453619999999
 21
306.8337389999999
 31
0.0
  0
LINE
  5
AE0D
330
AAF8
100
AcDbEntity
  8
1
  6
Continuous
100
AcDbLine
 10
464.059575
 20
304.312739
 30
0.0
 11
462.0595749999998
 21
306.8337389999999
 31
0.0
  0
LINE
  5
AE0E
330
AAF8
100
AcDbEntity
  8
1
  6
Continuous
100
AcDbLine
 10
461.4737889999998
 20
304.312739
 30
0.0
 11
463.4737889999998
 21
306.8337389999999
 31
0.0
  0
LINE
  5
AE0F
330
AAF8
100
AcDbEntity
  8
1
  6
Continuous
100
AcDbLine
 10
466.8880019999998
 20
304.312739
 30
0.0
 11
464.888002
 21
306.8337389999999
 31
0.0
  0
LINE
  5
AE10
330
AAF8
100
AcDbEntity
  8
1
  6
Continuous
100
AcDbLine
 10
468.302216
 20
304.312739
 30
0.0
 11
466.3022159999998
 21
306.8337389999999
 31
0.0
  0
LINE
  5
AE11
330
AAF8
100
AcDbEntity
  8
1
  6
Continuous
100
AcDbLine
 10
465.7164289999998
 20
304.312739
 30
0.0
 11
467.716429
 21
306.8337389999999
 31
0.0
  0
LINE
  5
AE12
330
AAF8
100
AcDbEntity
  8
1
  6
Continuous
100
AcDbLine
 10
465.4737889999998
 20
304.312739
 30
0.0
 11
463.4737889999998
 21
306.8337389999999
 31
0.0
  0
LINE
  5
AE13
330
AAF8
100
AcDbEntity
  8
1
  6
Continuous
100
AcDbLine
 10
462.8880019999998
 20
304.312739
 30
0.0
 11
464.888002
 21
306.8337389999999
 31
0.0
  0
LINE
  5
AE14
330
AAF8
100
AcDbEntity
  8
1
  6
Continuous
100
AcDbLine
 10
464.302216
 20
304.312739
 30
0.0
 11
466.3022159999998
 21
306.8337389999999
 31
0.0
  0
LINE
  5
AE15
330
AAF8
100
AcDbEntity
  8
1
  6
Continuous
100
AcDbLine
 10
460.059575
 20
304.312739
 30
0.0
 11
462.0595749999998
 21
306.8337389999999
 31
0.0
  0
LINE
  5
AE16
330
AAF8
100
AcDbEntity
  8
1
  6
Continuous
100
AcDbLine
 10
467.1306429999998
 20
304.312739
 30
0.0
 11
469.130643
 21
306.8337389999999
 31
0.0
  0
LINE
  5
AE17
330
AAF8
100
AcDbEntity
  8
1
  6
Continuous
100
AcDbLine
 10
459.8169349999998
 20
304.312739
 30
0.0
 11
457.8169349999998
 21
306.8337389999999
 31
0.0
  0
LINE
  5
AE18
330
AAF8
100
AcDbEntity
  8
1
  6
Continuous
100
AcDbLine
 10
457.231148
 20
304.312739
 30
0.0
 11
459.231148
 21
306.8337389999999
 31
0.0
  0
LINE
  5
AE19
330
AAF8
100
AcDbEntity
  8
1
  6
Continuous
100
AcDbLine
 10
461.231148
 20
304.312739
 30
0.0
 11
459.231148
 21
306.8337389999999
 31
0.0
  0
LINE
  5
AE1A
330
AAF8
100
AcDbEntity
  8
1
  6
Continuous
100
AcDbLine
 10
458.6453619999998
 20
304.312739
 30
0.0
 11
460.6453619999999
 21
306.8337389999999
 31
0.0
  0
LINE
  5
AE1B
330
AAF8
100
AcDbEntity
  8
1
  6
Continuous
100
AcDbLine
 10
469.7164289999998
 20
304.312739
 30
0.0
 11
467.716429
 21
306.8337389999999
 31
0.0
  0
LINE
  5
AE1C
330
AAF8
100
AcDbEntity
  8
2
  6
Continuous
100
AcDbLine
 10
464.554648
 20
316.7996560000001
 30
0.0
 11
465.231148
 21
315.6279229999999
 31
0.0
  0
LINE
  5
AE1D
330
AAF8
100
AcDbEntity
  8
1
  6
Continuous
100
AcDbLine
 10
467.3140759999998
 20
312.127945
 30
0.0
 11
467.3140759999998
 21
315.6279229999999
 31
0.0
  0
LINE
  5
AE1E
330
AAF8
100
AcDbEntity
  8
1
  6
Continuous
100
AcDbLine
 10
475.39698
 20
312.127945
 30
0.0
 11
475.39698
 21
315.6279229999999
 31
0.0
  0
LINE
  5
AE1F
330
AAF8
100
AcDbEntity
  8
1
  6
Continuous
100
AcDbLine
 10
452.7458669999998
 20
304.312739
 30
0.0
 11
450.745867
 21
306.8337389999999
 31
0.0
  0
LINE
  5
AE20
330
AAF8
100
AcDbEntity
  8
1
  6
Continuous
100
AcDbLine
 10
451.3316529999998
 20
304.312739
 30
0.0
 11
449.331653
 21
306.8337389999999
 31
0.0
  0
LINE
  5
AE21
330
AAF8
100
AcDbEntity
  8
1
  6
Continuous
100
AcDbLine
 10
450.16008
 20
304.312739
 30
0.0
 11
452.1600799999998
 21
306.8337389999999
 31
0.0
  0
LINE
  5
AE22
330
AAF8
100
AcDbEntity
  8
1
  6
Continuous
100
AcDbLine
 10
455.574294
 20
304.312739
 30
0.0
 11
453.574294
 21
306.8337389999999
 31
0.0
  0
LINE
  5
AE23
330
AAF8
100
AcDbEntity
  8
1
  6
Continuous
100
AcDbLine
 10
454.16008
 20
304.312739
 30
0.0
 11
452.1600799999998
 21
306.8337389999999
 31
0.0
  0
LINE
  5
AE24
330
AAF8
100
AcDbEntity
  8
1
  6
Continuous
100
AcDbLine
 10
452.988507
 20
304.312739
 30
0.0
 11
454.988507
 21
306.8337389999999
 31
0.0
  0
LINE
  5
AE25
330
AAF8
100
AcDbEntity
  8
1
  6
Continuous
100
AcDbLine
 10
454.402721
 20
304.312739
 30
0.0
 11
456.4027209999999
 21
306.8337389999999
 31
0.0
  0
LINE
  5
AE26
330
AAF8
100
AcDbEntity
  8
1
  6
Continuous
100
AcDbLine
 10
451.5742939999998
 20
304.312739
 30
0.0
 11
453.574294
 21
306.8337389999999
 31
0.0
  0
LINE
  5
AE27
330
AAF8
100
AcDbEntity
  8
1
  6
Continuous
100
AcDbLine
 10
442.8463719999998
 20
304.312739
 30
0.0
 11
440.8463719999998
 21
306.8337389999999
 31
0.0
  0
LINE
  5
AE28
330
AAF8
100
AcDbEntity
  8
1
  6
Continuous
100
AcDbLine
 10
441.674799
 20
304.312739
 30
0.0
 11
443.6747989999998
 21
306.8337389999999
 31
0.0
  0
LINE
  5
AE29
330
AAF8
100
AcDbEntity
  8
1
  6
Continuous
100
AcDbLine
 10
440.2605849999998
 20
304.312739
 30
0.0
 11
442.2605849999998
 21
306.8337389999999
 31
0.0
  0
LINE
  5
AE2A
330
AAF8
100
AcDbEntity
  8
1
  6
Continuous
100
AcDbLine
 10
441.432158
 20
304.312739
 30
0.0
 11
439.432158
 21
306.8337389999999
 31
0.0
  0
LINE
  5
AE2B
330
AAF8
100
AcDbEntity
  8
1
  6
Continuous
100
AcDbLine
 10
440.017945
 20
304.312739
 30
0.0
 11
438.0179449999998
 21
306.8337389999999
 31
0.0
  0
LINE
  5
AE2C
330
AAF8
100
AcDbEntity
  8
1
  6
Continuous
100
AcDbLine
 10
438.8463719999998
 20
304.312739
 30
0.0
 11
440.8463719999998
 21
306.8337389999999
 31
0.0
  0
LINE
  5
AE2D
330
AAF8
100
AcDbEntity
  8
1
  6
Continuous
100
AcDbLine
 10
447.0890119999999
 20
304.312739
 30
0.0
 11
445.089012
 21
306.8337389999999
 31
0.0
  0
LINE
  5
AE2E
330
AAF8
100
AcDbEntity
  8
1
  6
Continuous
100
AcDbLine
 10
445.9174400000001
 20
304.312739
 30
0.0
 11
447.91744
 21
306.8337389999999
 31
0.0
  0
LINE
  5
AE2F
330
AAF8
100
AcDbEntity
  8
1
  6
Continuous
100
AcDbLine
 10
444.5032259999998
 20
304.312739
 30
0.0
 11
446.503226
 21
306.8337389999999
 31
0.0
  0
LINE
  5
AE30
330
AAF8
100
AcDbEntity
  8
1
  6
Continuous
100
AcDbLine
 10
449.91744
 20
304.312739
 30
0.0
 11
447.91744
 21
306.8337389999999
 31
0.0
  0
LINE
  5
AE31
330
AAF8
100
AcDbEntity
  8
1
  6
Continuous
100
AcDbLine
 10
448.5032259999998
 20
304.312739
 30
0.0
 11
446.503226
 21
306.8337389999999
 31
0.0
  0
LINE
  5
AE32
330
AAF8
100
AcDbEntity
  8
1
  6
Continuous
100
AcDbLine
 10
447.3316529999998
 20
304.312739
 30
0.0
 11
449.331653
 21
306.8337389999999
 31
0.0
  0
LINE
  5
AE33
330
AAF8
100
AcDbEntity
  8
1
  6
Continuous
100
AcDbLine
 10
445.674799
 20
304.312739
 30
0.0
 11
443.6747989999998
 21
306.8337389999999
 31
0.0
  0
LINE
  5
AE34
330
AAF8
100
AcDbEntity
  8
1
  6
Continuous
100
AcDbLine
 10
444.2605849999998
 20
304.312739
 30
0.0
 11
442.2605849999998
 21
306.8337389999999
 31
0.0
  0
LINE
  5
AE35
330
AAF8
100
AcDbEntity
  8
1
  6
Continuous
100
AcDbLine
 10
443.0890119999999
 20
304.312739
 30
0.0
 11
445.089012
 21
306.8337389999999
 31
0.0
  0
LINE
  5
AE36
330
AAF8
100
AcDbEntity
  8
1
  6
Continuous
100
AcDbLine
 10
448.7458669999998
 20
304.312739
 30
0.0
 11
450.745867
 21
306.8337389999999
 31
0.0
  0
LINE
  5
AE37
330
AAF8
100
AcDbEntity
  8
1
  6
Continuous
100
AcDbLine
 10
443.065364
 20
312.127945
 30
0.0
 11
443.065364
 21
315.6279229999999
 31
0.0
  0
LINE
  5
AE38
330
AAF8
100
AcDbEntity
  8
1
  6
Continuous
100
AcDbLine
 10
451.1482199999998
 20
312.127945
 30
0.0
 11
451.1482199999998
 21
315.6279229999999
 31
0.0
  0
LINE
  5
AE39
330
AAF8
100
AcDbEntity
  8
2
  6
Continuous
100
AcDbLine
 10
453.907648
 20
316.7996560000001
 30
0.0
 11
453.231148
 21
315.6279229999999
 31
0.0
  0
ARC
  5
AE3A
330
AAF8
100
AcDbEntity
  8
1
  6
Continuous
100
AcDbCircle
 10
431.879004
 20
290.2331859999998
 30
0.0
 40
4.521554
100
AcDbArc
 50
23.66618499999999
 51
91.87393099999995
  0
ARC
  5
AE3B
330
AAF8
100
AcDbEntity
  8
1
  6
Continuous
100
AcDbCircle
 10
438.214565
 20
300.152624
 30
0.0
 40
6.768752
100
AcDbArc
 50
151.3767689999999
 51
163.3045389999998
  0
ARC
  5
AE3C
330
AAF8
100
AcDbEntity
  8
1
  6
Continuous
100
AcDbCircle
 10
434.957817
 20
301.929974
 30
0.0
 40
3.058577999999998
100
AcDbArc
 50
128.8269479999998
 51
151.3767689999999
  0
LINE
  5
AE3D
330
AAF8
100
AcDbEntity
  8
1
  6
Continuous
100
AcDbLine
 10
431.7311479999998
 20
294.7523229999998
 30
0.0
 11
431.7311479999998
 21
302.0971829999999
 31
0.0
  0
LINE
  5
AE3E
330
AAF8
100
AcDbEntity
  8
1
  6
Continuous
100
AcDbLine
 10
432.5450479999998
 20
308.127945
 30
0.0
 11
432.5450479999998
 21
304.312739
 31
0.0
  0
LINE
  5
AE3F
330
AAF8
100
AcDbEntity
  8
1
  6
Continuous
100
AcDbLine
 10
434.3610899999998
 20
304.312739
 30
0.0
 11
432.5450479999998
 21
306.649781
 31
0.0
  0
LINE
  5
AE40
330
AAF8
100
AcDbEntity
  8
1
  6
Continuous
100
AcDbLine
 10
432.946877
 20
304.312739
 30
0.0
 11
432.5450479999998
 21
304.7145679999999
 31
0.0
  0
LINE
  5
AE41
330
AAF8
100
AcDbEntity
  8
1
  6
Continuous
100
AcDbLine
 10
433.189518
 20
304.312739
 30
0.0
 11
435.1895179999998
 21
306.8337389999999
 31
0.0
  0
LINE
  5
AE42
330
AAF8
100
AcDbEntity
  8
1
  6
Continuous
100
AcDbLine
 10
432.5450479999998
 20
305.082483
 30
0.0
 11
433.7753039999998
 21
306.8337389999999
 31
0.0
  0
LINE
  5
AE43
330
AAF8
100
AcDbEntity
  8
1
  6
Continuous
100
AcDbLine
 10
437.189518
 20
304.312739
 30
0.0
 11
435.1895179999998
 21
306.8337389999999
 31
0.0
  0
LINE
  5
AE44
330
AAF8
100
AcDbEntity
  8
1
  6
Continuous
100
AcDbLine
 10
435.775304
 20
304.312739
 30
0.0
 11
433.7753039999998
 21
306.8337389999999
 31
0.0
  0
LINE
  5
AE45
330
AAF8
100
AcDbEntity
  8
1
  6
Continuous
100
AcDbLine
 10
434.6037309999998
 20
304.312739
 30
0.0
 11
436.603731
 21
306.8337389999999
 31
0.0
  0
ARC
  5
AE46
330
AAF8
100
AcDbEntity
  8
1
  6
Continuous
100
AcDbCircle
 10
433.6477849999998
 20
301.4735769999999
 30
0.0
 40
2.839261999999998
100
AcDbArc
 50
89.51824899999998
 51
93.73746899999998
  0
LINE
  5
AE47
330
AAF8
100
AcDbEntity
  8
1
  6
Continuous
100
AcDbLine
 10
463.731148
 20
345.627923
 30
0.0
 11
454.731148
 21
345.627923
 31
0.0
  0
LINE
  5
AE48
330
AAF8
100
AcDbEntity
  8
1
  6
Continuous
100
AcDbLine
 10
465.231148
 20
344.127923
 30
0.0
 11
453.231148
 21
344.127923
 31
0.0
  0
LINE
  5
AE49
330
AAF8
100
AcDbEntity
  8
1
  6
Continuous
100
AcDbLine
 10
465.231148
 20
344.127923
 30
0.0
 11
463.731148
 21
345.627923
 31
0.0
  0
LINE
  5
AE4A
330
AAF8
100
AcDbEntity
  8
1
  6
Continuous
100
AcDbLine
 10
453.231148
 20
344.127923
 30
0.0
 11
454.731148
 21
345.627923
 31
0.0
  0
CIRCLE
  5
AE4B
330
AAF8
100
AcDbEntity
  8
1
  6
Continuous
100
AcDbCircle
 10
495.231148
 20
229.6277389999999
 30
0.0
 40
7.0
  0
LINE
  5
AE4C
330
AAF8
100
AcDbEntity
  8
4
  6
CENTER
100
AcDbLine
 10
209.236339
 20
302.627739
 30
0.0
 11
209.236339
 21
156.6277389999999
 31
0.0
  0
LINE
  5
AE4D
330
AAF8
100
AcDbEntity
  8
4
  6
CENTER
100
AcDbLine
 10
495.231148
 20
156.6277389999999
 30
0.0
 11
495.231148
 21
302.627739
 31
0.0
  0
ENDSEC
  0
SECTION
  2
OBJECTS
  0
DICTIONARY
  5
AAE6
330
0
100
AcDbDictionary
281
     1
  3
ACAD_CIP_PREVIOUS_PRODUCT_INFO
350
AEAF
  3
ACAD_COLOR
350
AE91
  3
ACAD_DETAILVIEWSTYLE
350
AEAA
  3
ACAD_GROUP
350
AAE7
  3
ACAD_LAYOUT
350
AAF3
  3
ACAD_MATERIAL
350
AE5F
  3
ACAD_MLEADERSTYLE
350
AEA6
  3
ACAD_MLINESTYLE
350
AAF0
  3
ACAD_PLOTSETTINGS
350
AAF2
  3
ACAD_PLOTSTYLENAME
350
AE5D
  3
ACAD_SCALELIST
350
AE94
  3
ACAD_SECTIONVIEWSTYLE
350
AEA8
  3
ACAD_TABLESTYLE
350
AE92
  3
ACAD_VISUALSTYLE
350
AE78
  3
ACDB_RECOMPOSE_DATA
350
AECD
  3
AcDbVariableDictionary
350
AEC0
  3
DWGPROPS
350
AECE
  0
DICTIONARY
  5
AEB0
330
AAEA
100
AcDbDictionary
280
     1
281
     1
  3
ADSK_XREC_LAYER_RECONCILED
360
AEB1
  0
DICTIONARY
  5
AEB2
330
AB00
100
AcDbDictionary
280
     1
281
     1
  3
ADSK_XREC_LAYER_RECONCILED
360
AEB3
  0
DICTIONARY
  5
AEB4
330
AB01
100
AcDbDictionary
280
     1
281
     1
  3
ADSK_XREC_LAYER_RECONCILED
360
AEB5
  0
DICTIONARY
  5
AEB6
330
AB02
100
AcDbDictionary
280
     1
281
     1
  3
ADSK_XREC_LAYER_RECONCILED
360
AEB7
  0
DICTIONARY
  5
AEB8
330
AB03
100
AcDbDictionary
280
     1
281
     1
  3
ADSK_XREC_LAYER_RECONCILED
360
AEB9
  0
DICTIONARY
  5
AEBA
330
AB04
100
AcDbDictionary
280
     1
281
     1
  3
ADSK_XREC_LAYER_RECONCILED
360
AEBB
  0
DICTIONARY
  5
AEBC
330
AB05
100
AcDbDictionary
280
     1
281
     1
  3
ADSK_XREC_LAYER_RECONCILED
360
AEBD
  0
DICTIONARY
  5
AEBE
330
AB06
100
AcDbDictionary
280
     1
281
     1
  3
ADSK_XREC_LAYER_RECONCILED
360
AEBF
  0
DICTIONARY
  5
AE58
330
AAF8
100
AcDbDictionary
281
     1
  3
ACAD_LAYOUTSELFREF
350
AE59
  0
DICTIONARY
  5
AE56
330
AAF4
100
AcDbDictionary
281
     1
  3
ACAD_LAYOUTSELFREF
350
AE57
  0
XRECORD
  5
AEAF
102
{ACAD_REACTORS
330
AAE6
102
}
330
AAE6
100
AcDbXrecord
280
     1
300
ACDLT
300
2014
300
ACDLT_F_S
  0
DICTIONARY
  5
AE91
102
{ACAD_REACTORS
330
AAE6
102
}
330
AAE6
100
AcDbDictionary
281
     1
  0
DICTIONARY
  5
AEAA
102
{ACAD_REACTORS
330
AAE6
102
}
330
AAE6
100
AcDbDictionary
281
     1
  3
Imperial24
350
AEAB
  0
DICTIONARY
  5
AAE7
102
{ACAD_REACTORS
330
AAE6
102
}
330
AAE6
100
AcDbDictionary
281
     1
  0
DICTIONARY
  5
AAF3
102
{ACAD_REACTORS
330
AAE6
102
}
330
AAE6
100
AcDbDictionary
281
     1
  3
Model
350
AEAC
  3
レイアウト1
350
AEAD
  0
DICTIONARY
  5
AE5F
102
{ACAD_REACTORS
330
AAE6
102
}
330
AAE6
100
AcDbDictionary
281
     1
  3
ByBlock
350
AE68
  3
ByLayer
350
AE60
  3
Global
350
AE70
  0
DICTIONARY
  5
AEA6
102
{ACAD_REACTORS
330
AAE6
102
}
330
AAE6
100
AcDbDictionary
281
     1
  3
Standard
350
AEA7
  0
DICTIONARY
  5
AAF0
102
{ACAD_REACTORS
330
AAE6
102
}
330
AAE6
100
AcDbDictionary
281
     1
  3
STANDARD
350
AAF1
  0
DICTIONARY
  5
AAF2
102
{ACAD_REACTORS
330
AAE6
102
}
330
AAE6
100
AcDbDictionary
281
     1
  0
ACDBDICTIONARYWDFLT
  5
AE5D
102
{ACAD_REACTORS
330
AAE6
102
}
330
AAE6
100
AcDbDictionary
281
     1
  3
Normal
350
AE5E
100
AcDbDictionaryWithDefault
340
AE5E
  0
DICTIONARY
  5
AE94
102
{ACAD_REACTORS
330
AAE6
102
}
330
AAE6
100
AcDbDictionary
281
     1
  3
A0
350
AE95
  3
A1
350
AE96
  3
A2
350
AE97
  3
A3
350
AE98
  3
A4
350
AE99
  3
A5
350
AE9A
  3
A6
350
AE9B
  3
A7
350
AE9C
  3
A8
350
AE9D
  3
A9
350
AE9E
  3
B0
350
AE9F
  3
B1
350
AEA0
  3
B2
350
AEA1
  3
B3
350
AEA2
  3
B4
350
AEA3
  3
B5
350
AEA4
  3
B6
350
AEA5
  0
DICTIONARY
  5
AEA8
102
{ACAD_REACTORS
330
AAE6
102
}
330
AAE6
100
AcDbDictionary
281
     1
  3
Imperial24
350
AEA9
  0
DICTIONARY
  5
AE92
102
{ACAD_REACTORS
330
AAE6
102
}
330
AAE6
100
AcDbDictionary
281
     1
  3
Standard
350
AE93
  0
DICTIONARY
  5
AE78
102
{ACAD_REACTORS
330
AAE6
102
}
330
AAE6
100
AcDbDictionary
281
     1
  3
2dWireframe
350
AE7E
  3
Basic
350
AE7D
  3
Brighten
350
AE84
  3
ColorChange
350
AE88
  3
Conceptual
350
AE81
  3
Dim
350
AE83
  3
EdgeColorOff
350
AE90
  3
Facepattern
350
AE87
  3
Flat
350
AE79
  3
FlatWithEdges
350
AE7A
  3
Gouraud
350
AE7B
  3
GouraudWithEdges
350
AE7C
  3
Hidden
350
AE80
  3
JitterOff
350
AE8E
  3
Linepattern
350
AE86
  3
OverhangOff
350
AE8F
  3
Realistic
350
AE82
  3
Shaded
350
AE8D
  3
Shaded with edges
350
AE8C
  3
Shades of Gray
350
AE89
  3
Sketchy
350
AE8A
  3
Thicken
350
AE85
  3
Wireframe
350
AE7F
  3
X-Ray
350
AE8B
  0
XRECORD
  5
AECD
102
{ACAD_REACTORS
330
AAE6
102
}
330
AAE6
100
AcDbXrecord
280
     1
 90
        1
330
AE93
  0
DICTIONARY
  5
AEC0
102
{ACAD_REACTORS
330
AAE6
102
}
330
AAE6
100
AcDbDictionary
281
     1
  3
CANNOSCALE
350
AEC5
  3
CMLEADERSTYLE
350
AEC2
  3
CTABLESTYLE
350
AEC1
  3
CVIEWDETAILSTYLE
350
AEC3
  3
CVIEWSECTIONSTYLE
350
AEC4
  3
DIMASSOC
350
AEC8
  3
INDEXCTL
350
AEC7
  3
SORTENTS
350
AEC6
  3
XCLIPFRAME
350
AEC9
  0
XRECORD
  5
AECE
102
{ACAD_REACTORS
330
AAE6
102
}
330
AAE6
100
AcDbXrecord
280
     1
  1
DWGPROPS COOKIE
  2

  3

  4

  6

  7

  8
Yoshitsune
  9

300
=
301
=
302
=
303
=
304
=
305
=
306
=
307
=
308
=
309
=
 40
0.0000117592592593
 41
2451301.676587269
 42
2457192.688155475
  1

 90
        0
  0
XRECORD
  5
AEB1
102
{ACAD_REACTORS
330
AEB0
102
}
330
AEB0
100
AcDbXrecord
280
     1
290
     1
  0
XRECORD
  5
AEB3
102
{ACAD_REACTORS
330
AEB2
102
}
330
AEB2
100
AcDbXrecord
280
     1
290
     1
  0
XRECORD
  5
AEB5
102
{ACAD_REACTORS
330
AEB4
102
}
330
AEB4
100
AcDbXrecord
280
     1
290
     1
  0
XRECORD
  5
AEB7
102
{ACAD_REACTORS
330
AEB6
102
}
330
AEB6
100
AcDbXrecord
280
     1
290
     1
  0
XRECORD
  5
AEB9
102
{ACAD_REACTORS
330
AEB8
102
}
330
AEB8
100
AcDbXrecord
280
     1
290
     1
  0
XRECORD
  5
AEBB
102
{ACAD_REACTORS
330
AEBA
102
}
330
AEBA
100
AcDbXrecord
280
     1
290
     1
  0
XRECORD
  5
AEBD
102
{ACAD_REACTORS
330
AEBC
102
}
330
AEBC
100
AcDbXrecord
280
     1
290
     1
  0
XRECORD
  5
AEBF
102
{ACAD_REACTORS
330
AEBE
102
}
330
AEBE
100
AcDbXrecord
280
     1
290
     1
  0
XRECORD
  5
AE59
102
{ACAD_REACTORS
330
AE58
102
}
330
AE58
100
AcDbXrecord
280
     1
340
AAF8
  0
XRECORD
  5
AE57
102
{ACAD_REACTORS
330
AE56
102
}
330
AE56
100
AcDbXrecord
280
     1
340
AAF4
  0
ACDBDETAILVIEWSTYLE
  5
AEAB
102
{ACAD_XDICTIONARY
360
AF06
102
}
102
{ACAD_REACTORS
330
AEAA
102
}
330
AEAA
100
AcDbModelDocViewStyle
 70
     0
  3
Imperial24
290
     0
100
AcDbDetailViewStyle
 70
     0
 71
     0
 90
        3
 71
     1
340
AAEB
 40
0.24
340
0
 40
0.24
300

 40
0.36
280
     3
 71
     2
340
AAEF
 90
       25
 71
     3
340
AAEB
 40
0.24
 90
        1
 40
0.75
 90
        1
300
%<\AcVar ViewType \f "%tc1">% %<\AcVar ViewDetailId>%\PSCALE %<\AcVar ViewScale \f "%sn">%
 71
     4
340
AAEF
 90
       25
340
AAEF
 90
       25
280
     0
  0
LAYOUT
  5
AEAC
102
{ACAD_XDICTIONARY
360
AF08
102
}
102
{ACAD_REACTORS
330
AAF3
102
}
330
AAF3
100
AcDbPlotSettings
  1

  2
Canon LBP9100C
  4

  6

 40
0.0
 41
0.0
 42
0.0
 43
0.0
 44
0.0
 45
0.0
 46
0.0
 47
0.0
 48
0.0
 49
0.0
140
0.0
141
0.0
142
1.0
143
1.0
 70
  1712
 72
     0
 73
     0
 74
     0
  7

 75
     0
147
1.0
148
0.0
149
0.0
100
AcDbLayout
  1
Model
 70
     1
 71
     0
 10
0.0
 20
0.0
 11
12.0
 21
9.0
 12
0.0
 22
0.0
 32
0.0
 14
0.0
 24
0.0
 34
0.0
 15
0.0
 25
0.0
 35
0.0
146
0.0
 13
0.0
 23
0.0
 33
0.0
 16
1.0
 26
0.0
 36
0.0
 17
0.0
 27
1.0
 37
0.0
 76
     0
330
AAF8
331
AE55
  0
LAYOUT
  5
AEAD
102
{ACAD_XDICTIONARY
360
AF0A
102
}
102
{ACAD_REACTORS
330
AAF3
102
}
330
AAF3
100
AcDbPlotSettings
  1

  2
Canon LBP9100C
  4

  6

 40
0.0
 41
0.0
 42
0.0
 43
0.0
 44
0.0
 45
0.0
 46
0.0
 47
0.0
 48
0.0
 49
0.0
140
0.0
141
0.0
142
1.0
143
1.0
 70
   688
 72
     0
 73
     0
 74
     5
  7

 75
    16
147
1.0
148
0.0
149
0.0
100
AcDbLayout
  1
レイアウト1
 70
     0
 71
     1
 10
0.0
 20
0.0
 11
420.0
 21
297.0
 12
0.0
 22
0.0
 32
0.0
 14
1.000000000000000E+20
 24
1.000000000000000E+20
 34
1.000000000000000E+20
 15
-1.000000000000000E+20
 25
-1.000000000000000E+20
 35
-1.000000000000000E+20
146
0.0
 13
0.0
 23
0.0
 33
0.0
 16
1.0
 26
0.0
 36
0.0
 17
0.0
 27
1.0
 37
0.0
 76
     0
330
AAF4
  0
MATERIAL
  5
AE68
102
{ACAD_XDICTIONARY
360
AE69
102
}
102
{ACAD_REACTORS
330
AE5F
102
}
330
AE5F
100
AcDbMaterial
  1
ByBlock
 72
     0
 43
0.0208333333333333
 43
0.0
 43
0.0
 43
0.0
 43
0.0
 43
0.0208333333333333
 43
0.0
 43
0.0
 43
0.0
 43
0.0
 43
1.0
 43
0.0
 43
0.0
 43
0.0
 43
0.0
 43
1.0
 77
     0
 47
0.0208333333333333
 47
0.0
 47
0.0
 47
0.0
 47
0.0
 47
0.0208333333333333
 47
0.0
 47
0.0
 47
0.0
 47
0.0
 47
1.0
 47
0.0
 47
0.0
 47
0.0
 47
0.0
 47
1.0
171
     0
 49
0.0208333333333333
 49
0.0
 49
0.0
 49
0.0
 49
0.0
 49
0.0208333333333333
 49
0.0
 49
0.0
 49
0.0
 49
0.0
 49
1.0
 49
0.0
 49
0.0
 49
0.0
 49
0.0
 49
1.0
175
     0
142
0.0208333333333333
142
0.0
142
0.0
142
0.0
142
0.0
142
0.0208333333333333
142
0.0
142
0.0
142
0.0
142
0.0
142
1.0
142
0.0
142
0.0
142
0.0
142
0.0
142
1.0
179
     0
144
0.0208333333333333
144
0.0
144
0.0
144
0.0
144
0.0
144
0.0208333333333333
144
0.0
144
0.0
144
0.0
144
0.0
144
1.0
144
0.0
144
0.0
144
0.0
144
0.0
144
1.0
147
0.0208333333333333
147
0.0
147
0.0
147
0.0
147
0.0
147
0.0208333333333333
147
0.0
147
0.0
147
0.0
147
0.0
147
1.0
147
0.0
147
0.0
147
0.0
147
0.0
147
1.0
  0
MATERIAL
  5
AE60
102
{ACAD_XDICTIONARY
360
AE61
102
}
102
{ACAD_REACTORS
330
AE5F
102
}
330
AE5F
100
AcDbMaterial
  1
ByLayer
 72
     0
 43
0.0208333333333333
 43
0.0
 43
0.0
 43
0.0
 43
0.0
 43
0.0208333333333333
 43
0.0
 43
0.0
 43
0.0
 43
0.0
 43
1.0
 43
0.0
 43
0.0
 43
0.0
 43
0.0
 43
1.0
 77
     0
 47
0.0208333333333333
 47
0.0
 47
0.0
 47
0.0
 47
0.0
 47
0.0208333333333333
 47
0.0
 47
0.0
 47
0.0
 47
0.0
 47
1.0
 47
0.0
 47
0.0
 47
0.0
 47
0.0
 47
1.0
171
     0
 49
0.0208333333333333
 49
0.0
 49
0.0
 49
0.0
 49
0.0
 49
0.0208333333333333
 49
0.0
 49
0.0
 49
0.0
 49
0.0
 49
1.0
 49
0.0
 49
0.0
 49
0.0
 49
0.0
 49
1.0
175
     0
142
0.0208333333333333
142
0.0
142
0.0
142
0.0
142
0.0
142
0.0208333333333333
142
0.0
142
0.0
142
0.0
142
0.0
142
1.0
142
0.0
142
0.0
142
0.0
142
0.0
142
1.0
179
     0
144
0.0208333333333333
144
0.0
144
0.0
144
0.0
144
0.0
144
0.0208333333333333
144
0.0
144
0.0
144
0.0
144
0.0
144
1.0
144
0.0
144
0.0
144
0.0
144
0.0
144
1.0
147
0.0208333333333333
147
0.0
147
0.0
147
0.0
147
0.0
147
0.0208333333333333
147
0.0
147
0.0
147
0.0
147
0.0
147
1.0
147
0.0
147
0.0
147
0.0
147
0.0
147
1.0
  0
MATERIAL
  5
AE70
102
{ACAD_XDICTIONARY
360
AE71
102
}
102
{ACAD_REACTORS
330
AE5F
102
}
330
AE5F
100
AcDbMaterial
  1
Global
 72
     0
 43
0.0208333333333333
 43
0.0
 43
0.0
 43
0.0
 43
0.0
 43
0.0208333333333333
 43
0.0
 43
0.0
 43
0.0
 43
0.0
 43
1.0
 43
0.0
 43
0.0
 43
0.0
 43
0.0
 43
1.0
 77
     0
 47
0.0208333333333333
 47
0.0
 47
0.0
 47
0.0
 47
0.0
 47
0.0208333333333333
 47
0.0
 47
0.0
 47
0.0
 47
0.0
 47
1.0
 47
0.0
 47
0.0
 47
0.0
 47
0.0
 47
1.0
171
     0
 49
0.0208333333333333
 49
0.0
 49
0.0
 49
0.0
 49
0.0
 49
0.0208333333333333
 49
0.0
 49
0.0
 49
0.0
 49
0.0
 49
1.0
 49
0.0
 49
0.0
 49
0.0
 49
0.0
 49
1.0
175
     0
142
0.0208333333333333
142
0.0
142
0.0
142
0.0
142
0.0
142
0.0208333333333333
142
0.0
142
0.0
142
0.0
142
0.0
142
1.0
142
0.0
142
0.0
142
0.0
142
0.0
142
1.0
179
     0
144
0.0208333333333333
144
0.0
144
0.0
144
0.0
144
0.0
144
0.0208333333333333
144
0.0
144
0.0
144
0.0
144
0.0
144
1.0
144
0.0
144
0.0
144
0.0
144
0.0
144
1.0
147
0.0208333333333333
147
0.0
147
0.0
147
0.0
147
0.0
147
0.0208333333333333
147
0.0
147
0.0
147
0.0
147
0.0
147
1.0
147
0.0
147
0.0
147
0.0
147
0.0
147
1.0
  0
MLEADERSTYLE
  5
AEA7
102
{ACAD_REACTORS
330
AEA6
102
}
330
AEA6
100
AcDbMLeaderStyle
170
     2
171
     1
172
     0
 90
        2
 40
0.0
 41
0.0
173
     1
 91
-1056964608
340
AAED
 92
       -2
290
     1
 42
0.09
291
     1
 43
0.36
  3
Standard
 44
0.18
300

342
AAEB
174
     1
178
     6
175
     1
176
     0
 93
-1056964608
 45
0.18
292
     0
297
     0
 46
0.18
 94
-1056964608
 47
1.0
 49
1.0
140
1.0
293
     1
141
0.0
294
     1
177
     0
142
1.0
295
     0
296
     0
143
0.125
1001
ACAD_MLEADERVER
1070
     2
  0
MLINESTYLE
  5
AAF1
102
{ACAD_REACTORS
330
AAF0
102
}
330
AAF0
100
AcDbMlineStyle
  2
STANDARD
 70
     0
  3

 62
   256
 51
90.0
 52
90.0
 71
     2
 49
0.5
 62
   256
  6
BYLAYER
 49
-0.5
 62
   256
  6
BYLAYER
  0
ACDBPLACEHOLDER
  5
AE5E
102
{ACAD_REACTORS
330
AE5D
102
}
330
AE5D
  0
SCALE
  5
AE95
102
{ACAD_REACTORS
330
AE94
102
}
330
AE94
100
AcDbScale
 70
     0
300
1:1
140
1.0
141
1.0
290
     1
  0
SCALE
  5
AE96
102
{ACAD_REACTORS
330
AE94
102
}
330
AE94
100
AcDbScale
 70
     0
300
1/128" = 1'-0"
140
0.0078125
141
12.0
290
     0
  0
SCALE
  5
AE97
102
{ACAD_REACTORS
330
AE94
102
}
330
AE94
100
AcDbScale
 70
     0
300
1/64" = 1'-0"
140
0.015625
141
12.0
290
     0
  0
SCALE
  5
AE98
102
{ACAD_REACTORS
330
AE94
102
}
330
AE94
100
AcDbScale
 70
     0
300
1/32" = 1'-0"
140
0.03125
141
12.0
290
     0
  0
SCALE
  5
AE99
102
{ACAD_REACTORS
330
AE94
102
}
330
AE94
100
AcDbScale
 70
     0
300
1/16" = 1'-0"
140
0.0625
141
12.0
290
     0
  0
SCALE
  5
AE9A
102
{ACAD_REACTORS
330
AE94
102
}
330
AE94
100
AcDbScale
 70
     0
300
3/32" = 1'-0"
140
0.09375
141
12.0
290
     0
  0
SCALE
  5
AE9B
102
{ACAD_REACTORS
330
AE94
102
}
330
AE94
100
AcDbScale
 70
     0
300
1/8" = 1'-0"
140
0.125
141
12.0
290
     0
  0
SCALE
  5
AE9C
102
{ACAD_REACTORS
330
AE94
102
}
330
AE94
100
AcDbScale
 70
     0
300
3/16" = 1'-0"
140
0.1875
141
12.0
290
     0
  0
SCALE
  5
AE9D
102
{ACAD_REACTORS
330
AE94
102
}
330
AE94
100
AcDbScale
 70
     0
300
1/4" = 1'-0"
140
0.25
141
12.0
290
     0
  0
SCALE
  5
AE9E
102
{ACAD_REACTORS
330
AE94
102
}
330
AE94
100
AcDbScale
 70
     0
300
3/8" = 1'-0"
140
0.375
141
12.0
290
     0
  0
SCALE
  5
AE9F
102
{ACAD_REACTORS
330
AE94
102
}
330
AE94
100
AcDbScale
 70
     0
300
1/2" = 1'-0"
140
0.5
141
12.0
290
     0
  0
SCALE
  5
AEA0
102
{ACAD_REACTORS
330
AE94
102
}
330
AE94
100
AcDbScale
 70
     0
300
3/4" = 1'-0"
140
0.75
141
12.0
290
     0
  0
SCALE
  5
AEA1
102
{ACAD_REACTORS
330
AE94
102
}
330
AE94
100
AcDbScale
 70
     0
300
1" = 1'-0"
140
1.0
141
12.0
290
     0
  0
SCALE
  5
AEA2
102
{ACAD_REACTORS
330
AE94
102
}
330
AE94
100
AcDbScale
 70
     0
300
1-1/2" = 1'-0"
140
1.5
141
12.0
290
     0
  0
SCALE
  5
AEA3
102
{ACAD_REACTORS
330
AE94
102
}
330
AE94
100
AcDbScale
 70
     0
300
3" = 1'-0"
140
3.0
141
12.0
290
     0
  0
SCALE
  5
AEA4
102
{ACAD_REACTORS
330
AE94
102
}
330
AE94
100
AcDbScale
 70
     0
300
6" = 1'-0"
140
6.0
141
12.0
290
     0
  0
SCALE
  5
AEA5
102
{ACAD_REACTORS
330
AE94
102
}
330
AE94
100
AcDbScale
 70
     0
300
1'-0" = 1'-0"
140
12.0
141
12.0
290
     0
  0
ACDBSECTIONVIEWSTYLE
  5
AEA9
102
{ACAD_XDICTIONARY
360
AF04
102
}
102
{ACAD_REACTORS
330
AEA8
102
}
330
AEA8
100
AcDbModelDocViewStyle
 70
     0
  3
Imperial24
290
     0
100
AcDbSectionViewStyle
 70
     0
 71
     0
 90
       78
 71
     1
340
AAEB
 40
0.24
340
0
340
0
 40
0.24
300
I, O, Q, S, X, Z
 40
0.48
 90
        3
 40
0.18
 90
        1
 71
     2
340
AAEF
 90
       25
340
AAEF
 90
       50
 40
0.24
 40
0.0
 40
0.24
 71
     3
340
AAEB
 40
0.24
 90
        1
 40
0.75
 90
        1
300
%<\AcVar ViewType \f "%tc1">% %<\AcVar ViewSectionStartId>%-%<\AcVar ViewSectionEndId>%\PSCALE %<\AcVar ViewScale \f "%sn">%
 71
     4
300
ANSI31
 40
1.0
 90
        0
290
     0
290
     0
 90
        6
 40
0.0
 40
1.570796326794896
 40
0.2617993877991494
 40
1.308996938995747
 40
-0.2617993877991494
 40
1.832595714594046
  0
TABLESTYLE
  5
AE93
102
{ACAD_XDICTIONARY
360
AECB
102
}
102
{ACAD_REACTORS
330
AE92
102
}
330
AE92
100
AcDbTableStyle
  3
Standard
 70
     0
 71
     0
 40
0.06
 41
0.06
280
     0
281
     0
  7
STANDARD
140
0.18
170
     2
 62
     0
 63
     7
283
     0
274
    -2
284
     1
 64
     0
275
    -2
285
     1
 65
     0
276
    -2
286
     1
 66
     0
277
    -2
287
     1
 67
     0
278
    -2
288
     1
 68
     0
279
    -2
289
     1
 69
     0
  7
STANDARD
140
0.25
170
     5
 62
     0
 63
     7
283
     0
274
    -2
284
     1
 64
     0
275
    -2
285
     1
 65
     0
276
    -2
286
     1
 66
     0
277
    -2
287
     1
 67
     0
278
    -2
288
     1
 68
     0
279
    -2
289
     1
 69
     0
  7
STANDARD
140
0.18
170
     5
 62
     0
 63
     7
283
     0
274
    -2
284
     1
 64
     0
275
    -2
285
     1
 65
     0
276
    -2
286
     1
 66
     0
277
    -2
287
     1
 67
     0
278
    -2
288
     1
 68
     0
279
    -2
289
     1
 69
     0
  0
VISUALSTYLE
  5
AE7E
102
{ACAD_XDICTIONARY
360
AEDC
102
}
102
{ACAD_REACTORS
330
AE78
102
}
330
AE78
100
AcDbVisualStyle
  2
2dWireframe
 70
     4
 71
     0
 72
     2
 73
     0
 90
        0
 40
-0.6
 41
-30.0
 62
     5
 63
     7
 74
     1
 91
        4
 64
     7
 65
   257
 75
     1
175
     1
 42
1.0
 92
        0
 66
   257
 43
1.0
 76
     1
 77
     6
 78
     2
 67
     7
 79
     5
170
     0
171
     0
290
     0
174
     0
 93
        1
 44
0.0
173
     0
291
     0
 45
0.0
1001
ACAD
1000
AcDbSavedByObjectVersion
1070
     0
  0
VISUALSTYLE
  5
AE7D
102
{ACAD_XDICTIONARY
360
AEDA
102
}
102
{ACAD_REACTORS
330
AE78
102
}
330
AE78
100
AcDbVisualStyle
  2
Basic
 70
     7
 71
     1
 72
     0
 73
     1
 90
        0
 40
-0.6
 41
-30.0
 62
     5
 63
     7
 74
     0
 91
        4
 64
     7
 65
   257
 75
     1
175
     1
 42
1.0
 92
        8
 66
     7
 43
1.0
 76
     1
 77
     6
 78
     2
 67
     7
 79
     5
170
     0
171
     0
290
     0
174
     0
 93
        1
 44
0.0
173
     0
291
     1
 45
0.0
1001
ACAD
1000
AcDbSavedByObjectVersion
1070
     0
  0
VISUALSTYLE
  5
AE84
102
{ACAD_XDICTIONARY
360
AEE8
102
}
102
{ACAD_REACTORS
330
AE78
102
}
330
AE78
100
AcDbVisualStyle
  2
Brighten
 70
    12
 71
     2
 72
     2
 73
     0
 90
        0
 40
-0.6
 41
-30.0
 62
     5
 63
     7
 74
     1
 91
        4
 64
     7
 65
   257
 75
     1
175
     1
 42
1.0
 92
        8
 66
     7
 43
1.0
 76
     1
 77
     6
 78
     2
 67
     7
 79
     5
170
     0
171
     0
290
     0
174
     0
 93
        1
 44
50.0
173
     0
291
     1
 45
0.0
1001
ACAD
1000
AcDbSavedByObjectVersion
1070
     0
  0
VISUALSTYLE
  5
AE88
102
{ACAD_XDICTIONARY
360
AEF0
102
}
102
{ACAD_REACTORS
330
AE78
102
}
330
AE78
100
AcDbVisualStyle
  2
ColorChange
 70
    16
 71
     2
 72
     2
 73
     3
 90
        0
 40
-0.6
 41
-30.0
 62
     5
 63
     8
 74
     1
 91
        4
 64
     7
 65
   257
 75
     1
175
     1
 42
1.0
 92
        8
 66
     8
 43
1.0
 76
     1
 77
     6
 78
     2
 67
     7
 79
     5
170
     0
171
     0
290
     0
174
     0
 93
        1
 44
0.0
173
     0
291
     1
 45
0.0
1001
ACAD
1000
AcDbSavedByObjectVersion
1070
     0
  0
VISUALSTYLE
  5
AE81
102
{ACAD_XDICTIONARY
360
AEE2
102
}
102
{ACAD_REACTORS
330
AE78
102
}
330
AE78
100
AcDbVisualStyle
  2
Conceptual
 70
     9
 71
     3
 72
     2
 73
     0
 90
        0
 40
-0.6
 41
-30.0
 62
     5
 63
     7
 74
     2
 91
        2
 64
     7
 65
   257
 75
     1
175
     1
 42
179.0
 92
        8
 66
     7
 43
1.0
 76
     1
 77
     6
 78
     2
 67
     7
 79
     3
170
     0
171
     0
290
     0
174
     0
 93
        1
 44
0.0
173
     0
291
     0
 45
0.0
1001
ACAD
1000
AcDbSavedByObjectVersion
1070
     0
  0
VISUALSTYLE
  5
AE83
102
{ACAD_XDICTIONARY
360
AEE6
102
}
102
{ACAD_REACTORS
330
AE78
102
}
330
AE78
100
AcDbVisualStyle
  2
Dim
 70
    11
 71
     2
 72
     2
 73
     0
 90
        0
 40
-0.6
 41
-30.0
 62
     5
 63
     7
 74
     1
 91
        4
 64
     7
 65
   257
 75
     1
175
     1
 42
1.0
 92
        8
 66
     7
 43
1.0
 76
     1
 77
     6
 78
     2
 67
     7
 79
     5
170
     0
171
     0
290
     0
174
     0
 93
        1
 44
-50.0
173
     0
291
     1
 45
0.0
1001
ACAD
1000
AcDbSavedByObjectVersion
1070
     0
  0
VISUALSTYLE
  5
AE90
102
{ACAD_XDICTIONARY
360
AF00
102
}
102
{ACAD_REACTORS
330
AE78
102
}
330
AE78
100
AcDbVisualStyle
  2
EdgeColorOff
 70
    22
 71
     2
 72
     2
 73
     0
 90
        0
 40
-0.6
 41
-30.0
 62
     5
 63
     7
 74
     1
 91
        4
 64
     7
 65
   257
 75
     1
175
     1
 42
1.0
 92
        8
 66
     7
 43
1.0
 76
     1
 77
     6
 78
     2
 67
     7
 79
     5
170
     0
171
     0
290
     0
174
     0
 93
        1
 44
0.0
173
     0
291
     1
 45
0.0
1001
ACAD
1000
AcDbSavedByObjectVersion
1070
     0
  0
VISUALSTYLE
  5
AE87
102
{ACAD_XDICTIONARY
360
AEEE
102
}
102
{ACAD_REACTORS
330
AE78
102
}
330
AE78
100
AcDbVisualStyle
  2
Facepattern
 70
    15
 71
     2
 72
     2
 73
     0
 90
        0
 40
-0.6
 41
-30.0
 62
     5
 63
     7
 74
     1
 91
        4
 64
     7
 65
   257
 75
     1
175
     1
 42
1.0
 92
        8
 66
     7
 43
1.0
 76
     1
 77
     6
 78
     2
 67
     7
 79
     5
170
     0
171
     0
290
     0
174
     0
 93
        1
 44
0.0
173
     0
291
     1
 45
0.0
1001
ACAD
1000
AcDbSavedByObjectVersion
1070
     0
  0
VISUALSTYLE
  5
AE79
102
{ACAD_XDICTIONARY
360
AED2
102
}
102
{ACAD_REACTORS
330
AE78
102
}
330
AE78
100
AcDbVisualStyle
  2
Flat
 70
     0
 71
     2
 72
     1
 73
     1
 90
        2
 40
-0.6
 41
30.0
 62
     5
 63
     7
 74
     0
 91
        0
 64
     7
 65
   257
 75
     1
175
     1
 42
1.0
 92
        8
 66
     7
 43
1.0
 76
     1
 77
     6
 78
     2
 67
     7
 79
     5
170
     0
171
     0
290
     0
174
     0
 93
       13
 44
0.0
173
     0
291
     1
 45
0.0
1001
ACAD
1000
AcDbSavedByObjectVersion
1070
     0
  0
VISUALSTYLE
  5
AE7A
102
{ACAD_XDICTIONARY
360
AED4
102
}
102
{ACAD_REACTORS
330
AE78
102
}
330
AE78
100
AcDbVisualStyle
  2
FlatWithEdges
 70
     1
 71
     2
 72
     1
 73
     1
 90
        2
 40
-0.6
 41
30.0
 62
     5
 63
     7
 74
     1
 91
        0
 64
     7
 65
   257
 75
     1
175
     1
 42
1.0
 92
        0
 66
   257
 43
1.0
 76
     1
 77
     6
 78
     2
 67
     7
 79
     5
170
     0
171
     0
290
     0
174
     0
 93
       13
 44
0.0
173
     0
291
     1
 45
0.0
1001
ACAD
1000
AcDbSavedByObjectVersion
1070
     0
  0
VISUALSTYLE
  5
AE7B
102
{ACAD_XDICTIONARY
360
AED6
102
}
102
{ACAD_REACTORS
330
AE78
102
}
330
AE78
100
AcDbVisualStyle
  2
Gouraud
 70
     2
 71
     2
 72
     2
 73
     1
 90
        2
 40
-0.6
 41
30.0
 62
     5
 63
     7
 74
     0
 91
        0
 64
     7
 65
   257
 75
     1
175
     1
 42
1.0
 92
        0
 66
     7
 43
1.0
 76
     1
 77
     6
 78
     2
 67
     7
 79
     5
170
     0
171
     0
290
     0
174
     0
 93
       13
 44
0.0
173
     0
291
     1
 45
0.0
1001
ACAD
1000
AcDbSavedByObjectVersion
1070
     0
  0
VISUALSTYLE
  5
AE7C
102
{ACAD_XDICTIONARY
360
AED8
102
}
102
{ACAD_REACTORS
330
AE78
102
}
330
AE78
100
AcDbVisualStyle
  2
GouraudWithEdges
 70
     3
 71
     2
 72
     2
 73
     1
 90
        2
 40
-0.6
 41
30.0
 62
     5
 63
     7
 74
     1
 91
        0
 64
     7
 65
   257
 75
     1
175
     1
 42
1.0
 92
        0
 66
   257
 43
1.0
 76
     1
 77
     6
 78
     2
 67
     7
 79
     5
170
     0
171
     0
290
     0
174
     0
 93
       13
 44
0.0
173
     0
291
     1
 45
0.0
1001
ACAD
1000
AcDbSavedByObjectVersion
1070
     0
  0
VISUALSTYLE
  5
AE80
102
{ACAD_XDICTIONARY
360
AEE0
102
}
102
{ACAD_REACTORS
330
AE78
102
}
330
AE78
100
AcDbVisualStyle
  2
Hidden
 70
     6
 71
     1
 72
     2
 73
     2
 90
        0
 40
-0.6
 41
-30.0
 62
     5
 63
     7
 74
     2
 91
        2
 64
     7
 65
   257
 75
     2
175
     1
 42
40.0
 92
        0
 66
   257
 43
1.0
 76
     1
 77
     6
 78
     2
 67
     7
 79
     3
170
     0
171
     0
290
     0
174
     0
 93
        1
 44
0.0
173
     0
291
     0
 45
0.0
1001
ACAD
1000
AcDbSavedByObjectVersion
1070
     0
  0
VISUALSTYLE
  5
AE8E
102
{ACAD_XDICTIONARY
360
AEFC
102
}
102
{ACAD_REACTORS
330
AE78
102
}
330
AE78
100
AcDbVisualStyle
  2
JitterOff
 70
    20
 71
     2
 72
     2
 73
     0
 90
        0
 40
-0.6
 41
-30.0
 62
     5
 63
     7
 74
     1
 91
        4
 64
     7
 65
   257
 75
     1
175
     1
 42
1.0
 92
       10
 66
     7
 43
1.0
 76
     1
 77
     6
 78
     2
 67
     7
 79
     5
170
     0
171
     0
290
     0
174
     0
 93
        1
 44
0.0
173
     0
291
     1
 45
0.0
1001
ACAD
1000
AcDbSavedByObjectVersion
1070
     0
  0
VISUALSTYLE
  5
AE86
102
{ACAD_XDICTIONARY
360
AEEC
102
}
102
{ACAD_REACTORS
330
AE78
102
}
330
AE78
100
AcDbVisualStyle
  2
Linepattern
 70
    14
 71
     2
 72
     2
 73
     0
 90
        0
 40
-0.6
 41
-30.0
 62
     5
 63
     7
 74
     1
 91
        4
 64
     7
 65
   257
 75
     7
175
     7
 42
1.0
 92
        8
 66
     7
 43
1.0
 76
     1
 77
     6
 78
     2
 67
     7
 79
     5
170
     0
171
     0
290
     0
174
     0
 93
        1
 44
0.0
173
     0
291
     1
 45
0.0
1001
ACAD
1000
AcDbSavedByObjectVersion
1070
     0
  0
VISUALSTYLE
  5
AE8F
102
{ACAD_XDICTIONARY
360
AEFE
102
}
102
{ACAD_REACTORS
330
AE78
102
}
330
AE78
100
AcDbVisualStyle
  2
OverhangOff
 70
    21
 71
     2
 72
     2
 73
     0
 90
        0
 40
-0.6
 41
-30.0
 62
     5
 63
     7
 74
     1
 91
        4
 64
     7
 65
   257
 75
     1
175
     1
 42
1.0
 92
        9
 66
     7
 43
1.0
 76
     1
 77
     6
 78
     2
 67
     7
 79
     5
170
     0
171
     0
290
     0
174
     0
 93
        1
 44
0.0
173
     0
291
     1
 45
0.0
1001
ACAD
1000
AcDbSavedByObjectVersion
1070
     0
  0
VISUALSTYLE
  5
AE82
102
{ACAD_XDICTIONARY
360
AEE4
102
}
102
{ACAD_REACTORS
330
AE78
102
}
330
AE78
100
AcDbVisualStyle
  2
Realistic
 70
     8
 71
     2
 72
     3
 73
     0
 90
        2
 40
-0.6
 41
30.0
 62
     5
 63
     7
 74
     0
 91
        0
 64
     7
 65
   257
 75
     1
175
     1
 42
1.0
 92
        8
 66
   257
 43
1.0
 76
     1
 77
     6
 78
     2
 67
     7
 79
     3
170
     0
171
     0
290
     0
174
     0
 93
       13
 44
0.0
173
     0
291
     0
 45
0.0
1001
ACAD
1000
AcDbSavedByObjectVersion
1070
     0
  0
VISUALSTYLE
  5
AE8D
102
{ACAD_XDICTIONARY
360
AEFA
102
}
102
{ACAD_REACTORS
330
AE78
102
}
330
AE78
100
AcDbVisualStyle
  2
Shaded
 70
    27
 71
     2
 72
     2
 73
     1
 90
        2
 40
-0.6
 41
30.0
 62
     5
 63
     7
 74
     0
 91
        4
 64
     7
 65
   257
 75
     1
175
     1
 42
1.0
 92
        8
 66
   257
 43
1.0
 76
     1
 77
     6
 78
     2
 67
     8
 79
     3
170
     0
171
     0
290
     0
174
     0
 93
        5
 44
0.0
173
     0
291
     0
 45
0.0
1001
ACAD
1000
AcDbSavedByObjectVersion
1070
     0
  0
VISUALSTYLE
  5
AE8C
102
{ACAD_XDICTIONARY
360
AEF8
102
}
102
{ACAD_REACTORS
330
AE78
102
}
330
AE78
100
AcDbVisualStyle
  2
Shaded with edges
 70
    26
 71
     2
 72
     2
 73
     1
 90
        2
 40
-0.6
 41
30.0
 62
     5
 63
     7
 74
     1
 91
       10
 64
     7
 65
   257
 75
     2
175
     1
 42
1.0
 92
        8
 66
   257
 43
1.0
 76
     1
 77
     6
 78
     2
 67
     7
 79
     3
170
     0
171
     0
290
     0
174
     0
 93
        5
 44
0.0
173
     0
291
     0
 45
0.0
1001
ACAD
1000
AcDbSavedByObjectVersion
1070
     0
  0
VISUALSTYLE
  5
AE89
102
{ACAD_XDICTIONARY
360
AEF2
102
}
102
{ACAD_REACTORS
330
AE78
102
}
330
AE78
100
AcDbVisualStyle
  2
Shades of Gray
 70
    23
 71
     2
 72
     2
 73
     3
 90
        0
 40
-0.6
 41
-30.0
 62
     5
 63
     7
 74
     2
 91
        2
 64
     7
 65
     7
 75
     1
175
     1
 42
40.0
 92
        8
 66
     7
 43
1.0
 76
     1
 77
     6
 78
     2
 67
     7
 79
     3
170
     0
171
     0
290
     0
174
     0
 93
        1
 44
0.0
173
     0
291
     0
 45
0.0
1001
ACAD
1000
AcDbSavedByObjectVersion
1070
     0
  0
VISUALSTYLE
  5
AE8A
102
{ACAD_XDICTIONARY
360
AEF4
102
}
102
{ACAD_REACTORS
330
AE78
102
}
330
AE78
100
AcDbVisualStyle
  2
Sketchy
 70
    24
 71
     1
 72
     2
 73
     2
 90
        0
 40
-0.6
 41
-30.0
 62
     5
 63
     7
 74
     2
 91
        2
 64
     7
 65
     7
 75
     1
175
     1
 42
40.0
 92
       11
 66
     7
 43
1.0
 76
     1
 77
     6
 78
     2
 67
     7
 79
     6
170
     0
171
     0
290
     0
174
     0
 93
        1
 44
0.0
173
     0
291
     0
 45
0.0
1001
ACAD
1000
AcDbSavedByObjectVersion
1070
     0
  0
VISUALSTYLE
  5
AE85
102
{ACAD_XDICTIONARY
360
AEEA
102
}
102
{ACAD_REACTORS
330
AE78
102
}
330
AE78
100
AcDbVisualStyle
  2
Thicken
 70
    13
 71
     2
 72
     2
 73
     0
 90
        0
 40
-0.6
 41
-30.0
 62
     5
 63
     7
 74
     1
 91
        4
 64
     7
 65
   257
 75
     1
175
     1
 42
1.0
 92
       12
 66
     7
 43
1.0
 76
     1
 77
     6
 78
     2
 67
     7
 79
     5
170
     0
171
     0
290
     0
174
     0
 93
        1
 44
0.0
173
     0
291
     1
 45
0.0
1001
ACAD
1000
AcDbSavedByObjectVersion
1070
     0
  0
VISUALSTYLE
  5
AE7F
102
{ACAD_XDICTIONARY
360
AEDE
102
}
102
{ACAD_REACTORS
330
AE78
102
}
330
AE78
100
AcDbVisualStyle
  2
Wireframe
 70
     5
 71
     0
 72
     2
 73
     0
 90
        0
 40
-0.6
 41
-30.0
 62
     5
 63
     7
 74
     1
 91
        4
 64
     7
 65
   257
 75
     1
175
     1
 42
1.0
 92
        0
 66
   257
 43
1.0
 76
     1
 77
     6
 78
     2
 67
     7
 79
     3
170
     0
171
     0
290
     0
174
     0
 93
        1
 44
0.0
173
     0
291
     0
 45
0.0
1001
ACAD
1000
AcDbSavedByObjectVersion
1070
     0
  0
VISUALSTYLE
  5
AE8B
102
{ACAD_XDICTIONARY
360
AEF6
102
}
102
{ACAD_REACTORS
330
AE78
102
}
330
AE78
100
AcDbVisualStyle
  2
X-Ray
 70
    25
 71
     2
 72
     2
 73
     1
 90
        1
 40
0.5
 41
-30.0
 62
     5
 63
     7
 74
     1
 91
        0
 64
     7
 65
   257
 75
     1
175
     1
 42
1.0
 92
        8
 66
     7
 43
1.0
 76
     1
 77
     6
 78
     2
 67
     7
 79
     3
170
     0
171
     0
290
     0
174
     0
 93
       13
 44
0.0
173
     0
291
     0
 45
0.0
1001
ACAD
1000
AcDbSavedByObjectVersion
1070
     0
  0
DICTIONARYVAR
  5
AEC5
102
{ACAD_REACTORS
330
AEC0
102
}
330
AEC0
100
DictionaryVariables
280
     0
  1
1:1
  0
DICTIONARYVAR
  5
AEC2
102
{ACAD_REACTORS
330
AEC0
102
}
330
AEC0
100
DictionaryVariables
280
     0
  1
STANDARD
  0
DICTIONARYVAR
  5
AEC1
102
{ACAD_REACTORS
330
AEC0
102
}
330
AEC0
100
DictionaryVariables
280
     0
  1
STANDARD
  0
DICTIONARYVAR
  5
AEC3
102
{ACAD_REACTORS
330
AEC0
102
}
330
AEC0
100
DictionaryVariables
280
     0
  1
Imperial24
  0
DICTIONARYVAR
  5
AEC4
102
{ACAD_REACTORS
330
AEC0
102
}
330
AEC0
100
DictionaryVariables
280
     0
  1
Imperial24
  0
DICTIONARYVAR
  5
AEC8
102
{ACAD_REACTORS
330
AEC0
102
}
330
AEC0
100
DictionaryVariables
280
     0
  1
1
  0
DICTIONARYVAR
  5
AEC7
102
{ACAD_REACTORS
330
AEC0
102
}
330
AEC0
100
DictionaryVariables
280
     0
  1
0
  0
DICTIONARYVAR
  5
AEC6
102
{ACAD_REACTORS
330
AEC0
102
}
330
AEC0
100
DictionaryVariables
280
     0
  1
127
  0
DICTIONARYVAR
  5
AEC9
102
{ACAD_REACTORS
330
AEC0
102
}
330
AEC0
100
DictionaryVariables
280
     0
  1
2
  0
DICTIONARY
  5
AF06
330
AEAB
100
AcDbDictionary
280
     1
281
     1
  3
ACAD_XREC_ROUNDTRIP
360
AF07
  0
DICTIONARY
  5
AF08
330
AEAC
100
AcDbDictionary
280
     1
281
     1
  3
ACAD_XREC_ROUNDTRIP
360
AF09
  0
DICTIONARY
  5
AF0A
330
AEAD
100
AcDbDictionary
280
     1
281
     1
  3
ACAD_XREC_ROUNDTRIP
360
AF0B
  0
DICTIONARY
  5
AE69
330
AE68
100
AcDbDictionary
280
     1
281
     1
  3
ACAD_XREC_ROUNDTRIP
360
AED0
  3
BUMPTILE
360
AE6B
  3
DIFFUSETILE
360
AE6A
  3
OPACITYTILE
360
AE6E
  3
REFLECTIONTILE
360
AE6D
  3
REFRACTIONTILE
360
AE6F
  3
SPECULARTILE
360
AE6C
  0
DICTIONARY
  5
AE61
330
AE60
100
AcDbDictionary
280
     1
281
     1
  3
ACAD_XREC_ROUNDTRIP
360
AECF
  3
BUMPTILE
360
AE63
  3
DIFFUSETILE
360
AE62
  3
OPACITYTILE
360
AE66
  3
REFLECTIONTILE
360
AE65
  3
REFRACTIONTILE
360
AE67
  3
SPECULARTILE
360
AE64
  0
DICTIONARY
  5
AE71
330
AE70
100
AcDbDictionary
280
     1
281
     1
  3
ACAD_XREC_ROUNDTRIP
360
AED1
  3
BUMPTILE
360
AE73
  3
DIFFUSETILE
360
AE72
  3
OPACITYTILE
360
AE76
  3
REFLECTIONTILE
360
AE75
  3
REFRACTIONTILE
360
AE77
  3
SPECULARTILE
360
AE74
  0
DICTIONARY
  5
AF04
330
AEA9
100
AcDbDictionary
280
     1
281
     1
  3
ACAD_XREC_ROUNDTRIP
360
AF05
  0
DICTIONARY
  5
AECB
330
AE93
100
AcDbDictionary
280
     1
281
     1
  3
ACAD_ROUNDTRIP_2008_TABLESTYLE_CELLSTYLEMAP
360
AECC
  3
ACAD_XREC_ROUNDTRIP
360
AF02
  0
DICTIONARY
  5
AEDC
330
AE7E
100
AcDbDictionary
280
     1
281
     1
  3
ACAD_XREC_ROUNDTRIP
360
AEDD
  0
DICTIONARY
  5
AEDA
330
AE7D
100
AcDbDictionary
280
     1
281
     1
  3
ACAD_XREC_ROUNDTRIP
360
AEDB
  0
DICTIONARY
  5
AEE8
330
AE84
100
AcDbDictionary
280
     1
281
     1
  3
ACAD_XREC_ROUNDTRIP
360
AEE9
  0
DICTIONARY
  5
AEF0
330
AE88
100
AcDbDictionary
280
     1
281
     1
  3
ACAD_XREC_ROUNDTRIP
360
AEF1
  0
DICTIONARY
  5
AEE2
330
AE81
100
AcDbDictionary
280
     1
281
     1
  3
ACAD_XREC_ROUNDTRIP
360
AEE3
  0
DICTIONARY
  5
AEE6
330
AE83
100
AcDbDictionary
280
     1
281
     1
  3
ACAD_XREC_ROUNDTRIP
360
AEE7
  0
DICTIONARY
  5
AF00
330
AE90
100
AcDbDictionary
280
     1
281
     1
  3
ACAD_XREC_ROUNDTRIP
360
AF01
  0
DICTIONARY
  5
AEEE
330
AE87
100
AcDbDictionary
280
     1
281
     1
  3
ACAD_XREC_ROUNDTRIP
360
AEEF
  0
DICTIONARY
  5
AED2
330
AE79
100
AcDbDictionary
280
     1
281
     1
  3
ACAD_XREC_ROUNDTRIP
360
AED3
  0
DICTIONARY
  5
AED4
330
AE7A
100
AcDbDictionary
280
     1
281
     1
  3
ACAD_XREC_ROUNDTRIP
360
AED5
  0
DICTIONARY
  5
AED6
330
AE7B
100
AcDbDictionary
280
     1
281
     1
  3
ACAD_XREC_ROUNDTRIP
360
AED7
  0
DICTIONARY
  5
AED8
330
AE7C
100
AcDbDictionary
280
     1
281
     1
  3
ACAD_XREC_ROUNDTRIP
360
AED9
  0
DICTIONARY
  5
AEE0
330
AE80
100
AcDbDictionary
280
     1
281
     1
  3
ACAD_XREC_ROUNDTRIP
360
AEE1
  0
DICTIONARY
  5
AEFC
330
AE8E
100
AcDbDictionary
280
     1
281
     1
  3
ACAD_XREC_ROUNDTRIP
360
AEFD
  0
DICTIONARY
  5
AEEC
330
AE86
100
AcDbDictionary
280
     1
281
     1
  3
ACAD_XREC_ROUNDTRIP
360
AEED
  0
DICTIONARY
  5
AEFE
330
AE8F
100
AcDbDictionary
280
     1
281
     1
  3
ACAD_XREC_ROUNDTRIP
360
AEFF
  0
DICTIONARY
  5
AEE4
330
AE82
100
AcDbDictionary
280
     1
281
     1
  3
ACAD_XREC_ROUNDTRIP
360
AEE5
  0
DICTIONARY
  5
AEFA
330
AE8D
100
AcDbDictionary
280
     1
281
     1
  3
ACAD_XREC_ROUNDTRIP
360
AEFB
  0
DICTIONARY
  5
AEF8
330
AE8C
100
AcDbDictionary
280
     1
281
     1
  3
ACAD_XREC_ROUNDTRIP
360
AEF9
  0
DICTIONARY
  5
AEF2
330
AE89
100
AcDbDictionary
280
     1
281
     1
  3
ACAD_XREC_ROUNDTRIP
360
AEF3
  0
DICTIONARY
  5
AEF4
330
AE8A
100
AcDbDictionary
280
     1
281
     1
  3
ACAD_XREC_ROUNDTRIP
360
AEF5
  0
DICTIONARY
  5
AEEA
330
AE85
100
AcDbDictionary
280
     1
281
     1
  3
ACAD_XREC_ROUNDTRIP
360
AEEB
  0
DICTIONARY
  5
AEDE
330
AE7F
100
AcDbDictionary
280
     1
281
     1
  3
ACAD_XREC_ROUNDTRIP
360
AEDF
  0
DICTIONARY
  5
AEF6
330
AE8B
100
AcDbDictionary
280
     1
281
     1
  3
ACAD_XREC_ROUNDTRIP
360
AEF7
  0
XRECORD
  5
AF07
102
{ACAD_REACTORS
330
AF06
102
}
330
AF06
100
AcDbXrecord
280
     1
102
DISPLAYNAME
  1
Imperial24
102
FLAGS
 90
        0
  0
XRECORD
  5
AF09
102
{ACAD_REACTORS
330
AF08
102
}
330
AF08
100
AcDbXrecord
280
     1
102
SHADEPLOT
 70
     0
102
SHADEPLOTRESLEVEL
 70
     2
102
SHADEPLOTCUSTOMDPI
 70
   300
  0
XRECORD
  5
AF0B
102
{ACAD_REACTORS
330
AF0A
102
}
330
AF0A
100
AcDbXrecord
280
     1
102
SHADEPLOT
 70
     0
102
SHADEPLOTRESLEVEL
 70
     2
102
SHADEPLOTCUSTOMDPI
 70
   300
  0
XRECORD
  5
AED0
102
{ACAD_REACTORS
330
AE69
102
}
330
AE69
100
AcDbXrecord
280
     1
102
MATERIAL
148
0.0
149
0.0
149
0.0
 93
        0
 94
      127
282
     0
 72
     0
 77
     0
171
     0
175
     0
179
     0
273
     0
  0
XRECORD
  5
AE6B
102
{ACAD_REACTORS
330
AE69
102
}
330
AE69
100
AcDbXrecord
280
     1
270
     1
271
     1
  0
XRECORD
  5
AE6A
102
{ACAD_REACTORS
330
AE69
102
}
330
AE69
100
AcDbXrecord
280
     1
270
     1
271
     1
  0
XRECORD
  5
AE6E
102
{ACAD_REACTORS
330
AE69
102
}
330
AE69
100
AcDbXrecord
280
     1
270
     1
271
     1
  0
XRECORD
  5
AE6D
102
{ACAD_REACTORS
330
AE69
102
}
330
AE69
100
AcDbXrecord
280
     1
270
     1
271
     1
  0
XRECORD
  5
AE6F
102
{ACAD_REACTORS
330
AE69
102
}
330
AE69
100
AcDbXrecord
280
     1
270
     1
271
     1
  0
XRECORD
  5
AE6C
102
{ACAD_REACTORS
330
AE69
102
}
330
AE69
100
AcDbXrecord
280
     1
270
     1
271
     1
  0
XRECORD
  5
AECF
102
{ACAD_REACTORS
330
AE61
102
}
330
AE61
100
AcDbXrecord
280
     1
102
MATERIAL
148
0.0
149
0.0
149
0.0
 93
        0
 94
      127
282
     0
 72
     0
 77
     0
171
     0
175
     0
179
     0
273
     0
  0
XRECORD
  5
AE63
102
{ACAD_REACTORS
330
AE61
102
}
330
AE61
100
AcDbXrecord
280
     1
270
     1
271
     1
  0
XRECORD
  5
AE62
102
{ACAD_REACTORS
330
AE61
102
}
330
AE61
100
AcDbXrecord
280
     1
270
     1
271
     1
  0
XRECORD
  5
AE66
102
{ACAD_REACTORS
330
AE61
102
}
330
AE61
100
AcDbXrecord
280
     1
270
     1
271
     1
  0
XRECORD
  5
AE65
102
{ACAD_REACTORS
330
AE61
102
}
330
AE61
100
AcDbXrecord
280
     1
270
     1
271
     1
  0
XRECORD
  5
AE67
102
{ACAD_REACTORS
330
AE61
102
}
330
AE61
100
AcDbXrecord
280
     1
270
     1
271
     1
  0
XRECORD
  5
AE64
102
{ACAD_REACTORS
330
AE61
102
}
330
AE61
100
AcDbXrecord
280
     1
270
     1
271
     1
  0
XRECORD
  5
AED1
102
{ACAD_REACTORS
330
AE71
102
}
330
AE71
100
AcDbXrecord
280
     1
102
MATERIAL
148
0.0
149
0.0
149
0.0
 93
        0
 94
      127
282
     0
 72
     0
 77
     0
171
     0
175
     0
179
     0
273
     0
  0
XRECORD
  5
AE73
102
{ACAD_REACTORS
330
AE71
102
}
330
AE71
100
AcDbXrecord
280
     1
270
     1
271
     1
  0
XRECORD
  5
AE72
102
{ACAD_REACTORS
330
AE71
102
}
330
AE71
100
AcDbXrecord
280
     1
270
     1
271
     1
  0
XRECORD
  5
AE76
102
{ACAD_REACTORS
330
AE71
102
}
330
AE71
100
AcDbXrecord
280
     1
270
     1
271
     1
  0
XRECORD
  5
AE75
102
{ACAD_REACTORS
330
AE71
102
}
330
AE71
100
AcDbXrecord
280
     1
270
     1
271
     1
  0
XRECORD
  5
AE77
102
{ACAD_REACTORS
330
AE71
102
}
330
AE71
100
AcDbXrecord
280
     1
270
     1
271
     1
  0
XRECORD
  5
AE74
102
{ACAD_REACTORS
330
AE71
102
}
330
AE71
100
AcDbXrecord
280
     1
270
     1
271
     1
  0
XRECORD
  5
AF05
102
{ACAD_REACTORS
330
AF04
102
}
330
AF04
100
AcDbXrecord
280
     1
102
DISPLAYNAME
  1
Imperial24
102
FLAGS
 90
        0
  0
CELLSTYLEMAP
  5
AECC
102
{ACAD_REACTORS
330
AECB
102
}
330
AECB
100
AcDbCellStyleMap
 90
        3
300
CELLSTYLE
  1
TABLEFORMAT_BEGIN
 90
        5
170
     1
 91
        0
 92
    32768
 62
   257
 93
        1
300
CONTENTFORMAT
  1
CONTENTFORMAT_BEGIN
 90
        0
 91
        0
 92
      512
 93
        0
300

 40
0.0
140
1.0
 94
        5
 62
     0
340
AAEB
144
0.25
309
CONTENTFORMAT_END
171
     0
 94
        0
309
TABLEFORMAT_END
  1
CELLSTYLE_BEGIN
 90
        1
 91
        1
300
_TITLE
309
CELLSTYLE_END
300
CELLSTYLE
  1
TABLEFORMAT_BEGIN
 90
        5
170
     1
 91
        0
 92
        0
 62
   257
 93
        1
300
CONTENTFORMAT
  1
CONTENTFORMAT_BEGIN
 90
        0
 91
        0
 92
      512
 93
        0
300

 40
0.0
140
1.0
 94
        5
 62
     0
340
AAEB
144
0.18
309
CONTENTFORMAT_END
171
     0
 94
        0
309
TABLEFORMAT_END
  1
CELLSTYLE_BEGIN
 90
        2
 91
        1
300
_HEADER
309
CELLSTYLE_END
300
CELLSTYLE
  1
TABLEFORMAT_BEGIN
 90
        5
170
     1
 91
        0
 92
        0
 62
   257
 93
        1
300
CONTENTFORMAT
  1
CONTENTFORMAT_BEGIN
 90
        0
 91
        0
 92
      512
 93
        0
300

 40
0.0
140
1.0
 94
        2
 62
     0
340
AAEB
144
0.18
309
CONTENTFORMAT_END
171
     0
 94
        0
309
TABLEFORMAT_END
  1
CELLSTYLE_BEGIN
 90
        3
 91
        2
300
_DATA
309
CELLSTYLE_END
  0
XRECORD
  5
AF02
102
{ACAD_REACTORS
330
AECB
102
}
330
AECB
100
AcDbXrecord
280
     1
102
ACAD_ROUNDTRIP_PRE2007_TABLESTYLE
 90
      512
 91
        0
  1

 92
      512
 93
        0
  2

 94
      512
 95
        0
  3

  0
XRECORD
  5
AEDD
102
{ACAD_REACTORS
330
AEDC
102
}
330
AEDC
100
AcDbXrecord
280
     1
102
RTVSPost2010Prop28
280
     1
102
RTVSPost2010PropOp28
 70
     1
102
RTVSPost2010Prop29
280
     1
102
RTVSPost2010PropOp29
 70
     1
102
RTVSPost2010Prop30
280
     0
102
RTVSPost2010PropOp30
 70
     1
102
RTVSPost2010Prop31
280
     0
102
RTVSPost2010PropOp31
 70
     1
102
RTVSPost2010Prop32
280
     0
102
RTVSPost2010PropOp32
 70
     1
102
RTVSPost2010Prop33
280
     0
102
RTVSPost2010PropOp33
 70
     1
102
RTVSPost2010Prop34
280
     0
102
RTVSPost2010PropOp34
 70
     1
102
RTVSPost2010Prop35
280
     0
102
RTVSPost2010PropOp35
 70
     1
102
RTVSPost2010Prop36
280
     0
102
RTVSPost2010PropOp36
 70
     1
102
RTVSPost2010Prop37
 90
       50
102
RTVSPost2010PropOp37
 70
     1
102
RTVSPost2010Prop38
140
0.0
102
RTVSPost2010PropOp38
 70
     1
102
RTVSPost2010Prop39
140
1.0
102
RTVSPost2010PropOp39
 70
     1
102
RTVSPost2010Prop40
 90
        0
102
RTVSPost2010PropOp40
 70
     1
102
RTVSPost2010Prop41ColorIndex
 90
       18
102
RTVSPost2010Prop41ColorRGB
 90
        0
102
RTVSPost2010PropOp41
 70
     1
102
RTVSPost2010Prop42
 90
       50
102
RTVSPost2010PropOp42
 70
     1
102
RTVSPost2010Prop43
 90
        3
102
RTVSPost2010PropOp43
 70
     1
102
RTVSPost2010Prop44ColorIndex
 90
        5
102
RTVSPost2010Prop44ColorRGB
 90
      255
102
RTVSPost2010PropOp44
 70
     1
102
RTVSPost2010Prop45
280
     0
102
RTVSPost2010PropOp45
 70
     1
102
RTVSPost2010Prop46
 90
       50
102
RTVSPost2010PropOp46
 70
     1
102
RTVSPost2010Prop47
 90
       50
102
RTVSPost2010PropOp47
 70
     1
102
RTVSPost2010Prop48
 90
       50
102
RTVSPost2010PropOp48
 70
     1
102
RTVSPost2010Prop49
280
     0
102
RTVSPost2010PropOp49
 70
     1
102
RTVSPost2010Prop50
 90
       50
102
RTVSPost2010PropOp50
 70
     1
102
RTVSPost2010Prop51ColorIndex
 90
      256
102
RTVSPost2010Prop51ColorRGB
 90
-16777216
102
RTVSPost2010PropOp51
 70
     0
102
RTVSPost2010Prop52
140
1.0
102
RTVSPost2010PropOp52
 70
     0
102
RTVSPost2010Prop53
 90
        2
102
RTVSPost2010PropOp53
 70
     1
102
RTVSPost2010Prop54
  1
strokes_ogs.tif
102
RTVSPost2010PropOp54
 70
     1
102
RTVSPost2010Prop55
280
     0
102
RTVSPost2010PropOp55
 70
     1
102
RTVSPost2010Prop56
140
1.0
102
RTVSPost2010PropOp56
 70
     1
102
RTVSPost2010Prop57
140
1.0
102
RTVSPost2010PropOp57
 70
     1
102
RTVSPropertyOp0
 70
     1
102
RTVSPropertyOp1
 70
     1
102
RTVSPropertyOp2
 70
     1
102
RTVSPropertyOp3
 70
     1
102
RTVSPropertyOp4
 70
     1
102
RTVSPropertyOp5
 70
     1
102
RTVSPropertyOp6
 70
     1
102
RTVSPropertyOp7
 70
     1
102
RTVSPropertyOp8
 70
     1
102
RTVSPropertyOp9
 70
     1
102
RTVSPropertyOp10
 70
     1
102
RTVSPropertyOp11
 70
     1
102
RTVSPropertyOp12
 70
     1
102
RTVSPropertyOp13
 70
     1
102
RTVSPropertyOp14
 70
     1
102
RTVSPropertyOp15
 70
     1
102
RTVSPropertyOp16
 70
     1
102
RTVSPropertyOp17
 70
     1
102
RTVSPropertyOp18
 70
     1
102
RTVSPropertyOp19
 70
     1
102
RTVSPropertyOp20
 70
     1
102
RTVSPropertyOp21
 70
     1
102
RTVSPropertyOp22
 70
     1
102
RTVSPropertyOp23
 70
     1
102
RTVSPropertyOp24
 70
     1
102
RTVSPropertyOp25
 70
     1
102
RTVSPropertyOp26
 70
     1
102
RTVSPropertyOp27
 70
     1
102
RTVSPropertyOp28
 70
     1
102
RTVSPropertyOp29
 70
     1
102
RTVSPropertyOp30
 70
     1
102
RTVSPropertyOp31
 70
     1
102
RTVSPropertyOp32
 70
     1
102
RTVSPropertyOp33
 70
     1
102
RTVSPropertyOp34
 70
     1
102
RTVSPropertyOp35
 70
     1
102
RTVSPropertyOp36
 70
     1
102
RTVSPropertyOp37
 70
     1
102
RTVSPropertyOp38
 70
     1
102
RTVSPropertyOp39
 70
     1
102
RTVSPropertyOp40
 70
     1
102
RTVSPropertyOp41
 70
     1
102
RTVSPropertyOp42
 70
     1
102
RTVSPropertyOp43
 70
     1
102
RTVSPropertyOp44
 70
     1
102
RTVSPropertyOp45
 70
     1
102
RTVSPropertyOp46
 70
     1
102
RTVSPropertyOp47
 70
     1
102
RTVSPropertyOp48
 70
     1
102
RTVSPropertyOp49
 70
     1
102
RTVSPropertyOp50
 70
     1
102
RTVSPropertyOp51
 70
     0
102
RTVSPropertyOp52
 70
     0
102
RTVSPropertyOp53
 70
     1
102
RTVSPropertyOp54
 70
     1
102
RTVSPropertyOp55
 70
     1
102
RTVSPropertyOp56
 70
     1
102
RTVSPropertyOp57
 70
     1
102
RTVSPropertyOp58
 70
     1
102
RTVSPropertyOp59
 70
     1
102
RTVSPropertyOp60
 70
     1
102
RTVSPropertyOp61
 70
     1
102
RTVSPropertyOp62
 70
     1
  0
XRECORD
  5
AEDB
102
{ACAD_REACTORS
330
AEDA
102
}
330
AEDA
100
AcDbXrecord
280
     1
102
RTVSPost2010Prop28
280
     0
102
RTVSPost2010PropOp28
 70
     1
102
RTVSPost2010Prop29
280
     1
102
RTVSPost2010PropOp29
 70
     1
102
RTVSPost2010Prop30
280
     1
102
RTVSPost2010PropOp30
 70
     1
102
RTVSPost2010Prop31
280
     0
102
RTVSPost2010PropOp31
 70
     1
102
RTVSPost2010Prop32
280
     0
102
RTVSPost2010PropOp32
 70
     1
102
RTVSPost2010Prop33
280
     0
102
RTVSPost2010PropOp33
 70
     1
102
RTVSPost2010Prop34
280
     0
102
RTVSPost2010PropOp34
 70
     1
102
RTVSPost2010Prop35
280
     0
102
RTVSPost2010PropOp35
 70
     1
102
RTVSPost2010Prop36
280
     0
102
RTVSPost2010PropOp36
 70
     1
102
RTVSPost2010Prop37
 90
       50
102
RTVSPost2010PropOp37
 70
     1
102
RTVSPost2010Prop38
140
0.0
102
RTVSPost2010PropOp38
 70
     1
102
RTVSPost2010Prop39
140
1.0
102
RTVSPost2010PropOp39
 70
     1
102
RTVSPost2010Prop40
 90
        0
102
RTVSPost2010PropOp40
 70
     1
102
RTVSPost2010Prop41ColorIndex
 90
       18
102
RTVSPost2010Prop41ColorRGB
 90
        0
102
RTVSPost2010PropOp41
 70
     1
102
RTVSPost2010Prop42
 90
       50
102
RTVSPost2010PropOp42
 70
     1
102
RTVSPost2010Prop43
 90
        3
102
RTVSPost2010PropOp43
 70
     1
102
RTVSPost2010Prop44ColorIndex
 90
        5
102
RTVSPost2010Prop44ColorRGB
 90
      255
102
RTVSPost2010PropOp44
 70
     1
102
RTVSPost2010Prop45
280
     0
102
RTVSPost2010PropOp45
 70
     1
102
RTVSPost2010Prop46
 90
       50
102
RTVSPost2010PropOp46
 70
     1
102
RTVSPost2010Prop47
 90
       50
102
RTVSPost2010PropOp47
 70
     1
102
RTVSPost2010Prop48
 90
       50
102
RTVSPost2010PropOp48
 70
     1
102
RTVSPost2010Prop49
280
     0
102
RTVSPost2010PropOp49
 70
     1
102
RTVSPost2010Prop50
 90
       50
102
RTVSPost2010PropOp50
 70
     1
102
RTVSPost2010Prop51ColorIndex
 90
      256
102
RTVSPost2010Prop51ColorRGB
 90
-16777216
102
RTVSPost2010PropOp51
 70
     0
102
RTVSPost2010Prop52
140
1.0
102
RTVSPost2010PropOp52
 70
     0
102
RTVSPost2010Prop53
 90
        2
102
RTVSPost2010PropOp53
 70
     1
102
RTVSPost2010Prop54
  1
strokes_ogs.tif
102
RTVSPost2010PropOp54
 70
     1
102
RTVSPost2010Prop55
280
     0
102
RTVSPost2010PropOp55
 70
     1
102
RTVSPost2010Prop56
140
1.0
102
RTVSPost2010PropOp56
 70
     1
102
RTVSPost2010Prop57
140
1.0
102
RTVSPost2010PropOp57
 70
     1
102
RTVSPropertyOp0
 70
     1
102
RTVSPropertyOp1
 70
     1
102
RTVSPropertyOp2
 70
     1
102
RTVSPropertyOp3
 70
     1
102
RTVSPropertyOp4
 70
     1
102
RTVSPropertyOp5
 70
     1
102
RTVSPropertyOp6
 70
     1
102
RTVSPropertyOp7
 70
     1
102
RTVSPropertyOp8
 70
     1
102
RTVSPropertyOp9
 70
     1
102
RTVSPropertyOp10
 70
     1
102
RTVSPropertyOp11
 70
     1
102
RTVSPropertyOp12
 70
     1
102
RTVSPropertyOp13
 70
     1
102
RTVSPropertyOp14
 70
     1
102
RTVSPropertyOp15
 70
     1
102
RTVSPropertyOp16
 70
     1
102
RTVSPropertyOp17
 70
     1
102
RTVSPropertyOp18
 70
     1
102
RTVSPropertyOp19
 70
     1
102
RTVSPropertyOp20
 70
     1
102
RTVSPropertyOp21
 70
     1
102
RTVSPropertyOp22
 70
     1
102
RTVSPropertyOp23
 70
     1
102
RTVSPropertyOp24
 70
     1
102
RTVSPropertyOp25
 70
     1
102
RTVSPropertyOp26
 70
     1
102
RTVSPropertyOp27
 70
     1
102
RTVSPropertyOp28
 70
     1
102
RTVSPropertyOp29
 70
     1
102
RTVSPropertyOp30
 70
     1
102
RTVSPropertyOp31
 70
     1
102
RTVSPropertyOp32
 70
     1
102
RTVSPropertyOp33
 70
     1
102
RTVSPropertyOp34
 70
     1
102
RTVSPropertyOp35
 70
     1
102
RTVSPropertyOp36
 70
     1
102
RTVSPropertyOp37
 70
     1
102
RTVSPropertyOp38
 70
     1
102
RTVSPropertyOp39
 70
     1
102
RTVSPropertyOp40
 70
     1
102
RTVSPropertyOp41
 70
     1
102
RTVSPropertyOp42
 70
     1
102
RTVSPropertyOp43
 70
     1
102
RTVSPropertyOp44
 70
     1
102
RTVSPropertyOp45
 70
     1
102
RTVSPropertyOp46
 70
     1
102
RTVSPropertyOp47
 70
     1
102
RTVSPropertyOp48
 70
     1
102
RTVSPropertyOp49
 70
     1
102
RTVSPropertyOp50
 70
     1
102
RTVSPropertyOp51
 70
     0
102
RTVSPropertyOp52
 70
     0
102
RTVSPropertyOp53
 70
     1
102
RTVSPropertyOp54
 70
     1
102
RTVSPropertyOp55
 70
     1
102
RTVSPropertyOp56
 70
     1
102
RTVSPropertyOp57
 70
     1
102
RTVSPropertyOp58
 70
     1
102
RTVSPropertyOp59
 70
     1
102
RTVSPropertyOp60
 70
     1
102
RTVSPropertyOp61
 70
     1
102
RTVSPropertyOp62
 70
     1
  0
XRECORD
  5
AEE9
102
{ACAD_REACTORS
330
AEE8
102
}
330
AEE8
100
AcDbXrecord
280
     1
102
RTVSPost2010Prop28
280
     0
102
RTVSPost2010PropOp28
 70
     1
102
RTVSPost2010Prop29
280
     1
102
RTVSPost2010PropOp29
 70
     1
102
RTVSPost2010Prop30
280
     1
102
RTVSPost2010PropOp30
 70
     1
102
RTVSPost2010Prop31
280
     0
102
RTVSPost2010PropOp31
 70
     1
102
RTVSPost2010Prop32
280
     0
102
RTVSPost2010PropOp32
 70
     1
102
RTVSPost2010Prop33
280
     0
102
RTVSPost2010PropOp33
 70
     1
102
RTVSPost2010Prop34
280
     0
102
RTVSPost2010PropOp34
 70
     1
102
RTVSPost2010Prop35
280
     0
102
RTVSPost2010PropOp35
 70
     1
102
RTVSPost2010Prop36
280
     0
102
RTVSPost2010PropOp36
 70
     1
102
RTVSPost2010Prop37
 90
       50
102
RTVSPost2010PropOp37
 70
     1
102
RTVSPost2010Prop38
140
0.0
102
RTVSPost2010PropOp38
 70
     1
102
RTVSPost2010Prop39
140
1.0
102
RTVSPost2010PropOp39
 70
     1
102
RTVSPost2010Prop40
 90
        0
102
RTVSPost2010PropOp40
 70
     1
102
RTVSPost2010Prop41ColorIndex
 90
       18
102
RTVSPost2010Prop41ColorRGB
 90
        0
102
RTVSPost2010PropOp41
 70
     1
102
RTVSPost2010Prop42
 90
       50
102
RTVSPost2010PropOp42
 70
     1
102
RTVSPost2010Prop43
 90
        3
102
RTVSPost2010PropOp43
 70
     1
102
RTVSPost2010Prop44ColorIndex
 90
        5
102
RTVSPost2010Prop44ColorRGB
 90
      255
102
RTVSPost2010PropOp44
 70
     1
102
RTVSPost2010Prop45
280
     0
102
RTVSPost2010PropOp45
 70
     1
102
RTVSPost2010Prop46
 90
       50
102
RTVSPost2010PropOp46
 70
     1
102
RTVSPost2010Prop47
 90
       50
102
RTVSPost2010PropOp47
 70
     1
102
RTVSPost2010Prop48
 90
       50
102
RTVSPost2010PropOp48
 70
     1
102
RTVSPost2010Prop49
280
     0
102
RTVSPost2010PropOp49
 70
     1
102
RTVSPost2010Prop50
 90
       50
102
RTVSPost2010PropOp50
 70
     1
102
RTVSPost2010Prop51ColorIndex
 90
      256
102
RTVSPost2010Prop51ColorRGB
 90
-16777216
102
RTVSPost2010PropOp51
 70
     0
102
RTVSPost2010Prop52
140
1.0
102
RTVSPost2010PropOp52
 70
     0
102
RTVSPost2010Prop53
 90
        2
102
RTVSPost2010PropOp53
 70
     1
102
RTVSPost2010Prop54
  1
strokes_ogs.tif
102
RTVSPost2010PropOp54
 70
     1
102
RTVSPost2010Prop55
280
     0
102
RTVSPost2010PropOp55
 70
     1
102
RTVSPost2010Prop56
140
1.0
102
RTVSPost2010PropOp56
 70
     1
102
RTVSPost2010Prop57
140
1.0
102
RTVSPost2010PropOp57
 70
     1
102
RTVSPropertyOp0
 70
     1
102
RTVSPropertyOp1
 70
     1
102
RTVSPropertyOp2
 70
     1
102
RTVSPropertyOp3
 70
     1
102
RTVSPropertyOp4
 70
     1
102
RTVSPropertyOp5
 70
     1
102
RTVSPropertyOp6
 70
     1
102
RTVSPropertyOp7
 70
     1
102
RTVSPropertyOp8
 70
     1
102
RTVSPropertyOp9
 70
     1
102
RTVSPropertyOp10
 70
     1
102
RTVSPropertyOp11
 70
     1
102
RTVSPropertyOp12
 70
     1
102
RTVSPropertyOp13
 70
     1
102
RTVSPropertyOp14
 70
     1
102
RTVSPropertyOp15
 70
     1
102
RTVSPropertyOp16
 70
     1
102
RTVSPropertyOp17
 70
     1
102
RTVSPropertyOp18
 70
     1
102
RTVSPropertyOp19
 70
     1
102
RTVSPropertyOp20
 70
     1
102
RTVSPropertyOp21
 70
     1
102
RTVSPropertyOp22
 70
     1
102
RTVSPropertyOp23
 70
     1
102
RTVSPropertyOp24
 70
     1
102
RTVSPropertyOp25
 70
     1
102
RTVSPropertyOp26
 70
     1
102
RTVSPropertyOp27
 70
     1
102
RTVSPropertyOp28
 70
     1
102
RTVSPropertyOp29
 70
     1
102
RTVSPropertyOp30
 70
     1
102
RTVSPropertyOp31
 70
     1
102
RTVSPropertyOp32
 70
     1
102
RTVSPropertyOp33
 70
     1
102
RTVSPropertyOp34
 70
     1
102
RTVSPropertyOp35
 70
     1
102
RTVSPropertyOp36
 70
     1
102
RTVSPropertyOp37
 70
     1
102
RTVSPropertyOp38
 70
     1
102
RTVSPropertyOp39
 70
     1
102
RTVSPropertyOp40
 70
     1
102
RTVSPropertyOp41
 70
     1
102
RTVSPropertyOp42
 70
     1
102
RTVSPropertyOp43
 70
     1
102
RTVSPropertyOp44
 70
     1
102
RTVSPropertyOp45
 70
     1
102
RTVSPropertyOp46
 70
     1
102
RTVSPropertyOp47
 70
     1
102
RTVSPropertyOp48
 70
     1
102
RTVSPropertyOp49
 70
     1
102
RTVSPropertyOp50
 70
     1
102
RTVSPropertyOp51
 70
     0
102
RTVSPropertyOp52
 70
     0
102
RTVSPropertyOp53
 70
     1
102
RTVSPropertyOp54
 70
     1
102
RTVSPropertyOp55
 70
     1
102
RTVSPropertyOp56
 70
     1
102
RTVSPropertyOp57
 70
     1
102
RTVSPropertyOp58
 70
     1
102
RTVSPropertyOp59
 70
     1
102
RTVSPropertyOp60
 70
     1
102
RTVSPropertyOp61
 70
     1
102
RTVSPropertyOp62
 70
     1
  0
XRECORD
  5
AEF1
102
{ACAD_REACTORS
330
AEF0
102
}
330
AEF0
100
AcDbXrecord
280
     1
102
RTVSPost2010Prop28
280
     0
102
RTVSPost2010PropOp28
 70
     1
102
RTVSPost2010Prop29
280
     1
102
RTVSPost2010PropOp29
 70
     1
102
RTVSPost2010Prop30
280
     1
102
RTVSPost2010PropOp30
 70
     1
102
RTVSPost2010Prop31
280
     0
102
RTVSPost2010PropOp31
 70
     1
102
RTVSPost2010Prop32
280
     0
102
RTVSPost2010PropOp32
 70
     1
102
RTVSPost2010Prop33
280
     0
102
RTVSPost2010PropOp33
 70
     1
102
RTVSPost2010Prop34
280
     0
102
RTVSPost2010PropOp34
 70
     1
102
RTVSPost2010Prop35
280
     0
102
RTVSPost2010PropOp35
 70
     1
102
RTVSPost2010Prop36
280
     0
102
RTVSPost2010PropOp36
 70
     1
102
RTVSPost2010Prop37
 90
       50
102
RTVSPost2010PropOp37
 70
     1
102
RTVSPost2010Prop38
140
0.0
102
RTVSPost2010PropOp38
 70
     1
102
RTVSPost2010Prop39
140
1.0
102
RTVSPost2010PropOp39
 70
     1
102
RTVSPost2010Prop40
 90
        0
102
RTVSPost2010PropOp40
 70
     1
102
RTVSPost2010Prop41ColorIndex
 90
       18
102
RTVSPost2010Prop41ColorRGB
 90
        0
102
RTVSPost2010PropOp41
 70
     1
102
RTVSPost2010Prop42
 90
       50
102
RTVSPost2010PropOp42
 70
     1
102
RTVSPost2010Prop43
 90
        3
102
RTVSPost2010PropOp43
 70
     1
102
RTVSPost2010Prop44ColorIndex
 90
        5
102
RTVSPost2010Prop44ColorRGB
 90
      255
102
RTVSPost2010PropOp44
 70
     1
102
RTVSPost2010Prop45
280
     0
102
RTVSPost2010PropOp45
 70
     1
102
RTVSPost2010Prop46
 90
       50
102
RTVSPost2010PropOp46
 70
     1
102
RTVSPost2010Prop47
 90
       50
102
RTVSPost2010PropOp47
 70
     1
102
RTVSPost2010Prop48
 90
       50
102
RTVSPost2010PropOp48
 70
     1
102
RTVSPost2010Prop49
280
     0
102
RTVSPost2010PropOp49
 70
     1
102
RTVSPost2010Prop50
 90
       50
102
RTVSPost2010PropOp50
 70
     1
102
RTVSPost2010Prop51ColorIndex
 90
      256
102
RTVSPost2010Prop51ColorRGB
 90
-16777216
102
RTVSPost2010PropOp51
 70
     0
102
RTVSPost2010Prop52
140
1.0
102
RTVSPost2010PropOp52
 70
     0
102
RTVSPost2010Prop53
 90
        2
102
RTVSPost2010PropOp53
 70
     1
102
RTVSPost2010Prop54
  1
strokes_ogs.tif
102
RTVSPost2010PropOp54
 70
     1
102
RTVSPost2010Prop55
280
     0
102
RTVSPost2010PropOp55
 70
     1
102
RTVSPost2010Prop56
140
1.0
102
RTVSPost2010PropOp56
 70
     1
102
RTVSPost2010Prop57
140
1.0
102
RTVSPost2010PropOp57
 70
     1
102
RTVSPropertyOp0
 70
     1
102
RTVSPropertyOp1
 70
     1
102
RTVSPropertyOp2
 70
     1
102
RTVSPropertyOp3
 70
     1
102
RTVSPropertyOp4
 70
     1
102
RTVSPropertyOp5
 70
     1
102
RTVSPropertyOp6
 70
     1
102
RTVSPropertyOp7
 70
     1
102
RTVSPropertyOp8
 70
     1
102
RTVSPropertyOp9
 70
     1
102
RTVSPropertyOp10
 70
     1
102
RTVSPropertyOp11
 70
     1
102
RTVSPropertyOp12
 70
     1
102
RTVSPropertyOp13
 70
     1
102
RTVSPropertyOp14
 70
     1
102
RTVSPropertyOp15
 70
     1
102
RTVSPropertyOp16
 70
     1
102
RTVSPropertyOp17
 70
     1
102
RTVSPropertyOp18
 70
     1
102
RTVSPropertyOp19
 70
     1
102
RTVSPropertyOp20
 70
     1
102
RTVSPropertyOp21
 70
     1
102
RTVSPropertyOp22
 70
     1
102
RTVSPropertyOp23
 70
     1
102
RTVSPropertyOp24
 70
     1
102
RTVSPropertyOp25
 70
     1
102
RTVSPropertyOp26
 70
     1
102
RTVSPropertyOp27
 70
     1
102
RTVSPropertyOp28
 70
     1
102
RTVSPropertyOp29
 70
     1
102
RTVSPropertyOp30
 70
     1
102
RTVSPropertyOp31
 70
     1
102
RTVSPropertyOp32
 70
     1
102
RTVSPropertyOp33
 70
     1
102
RTVSPropertyOp34
 70
     1
102
RTVSPropertyOp35
 70
     1
102
RTVSPropertyOp36
 70
     1
102
RTVSPropertyOp37
 70
     1
102
RTVSPropertyOp38
 70
     1
102
RTVSPropertyOp39
 70
     1
102
RTVSPropertyOp40
 70
     1
102
RTVSPropertyOp41
 70
     1
102
RTVSPropertyOp42
 70
     1
102
RTVSPropertyOp43
 70
     1
102
RTVSPropertyOp44
 70
     1
102
RTVSPropertyOp45
 70
     1
102
RTVSPropertyOp46
 70
     1
102
RTVSPropertyOp47
 70
     1
102
RTVSPropertyOp48
 70
     1
102
RTVSPropertyOp49
 70
     1
102
RTVSPropertyOp50
 70
     1
102
RTVSPropertyOp51
 70
     0
102
RTVSPropertyOp52
 70
     0
102
RTVSPropertyOp53
 70
     1
102
RTVSPropertyOp54
 70
     1
102
RTVSPropertyOp55
 70
     1
102
RTVSPropertyOp56
 70
     1
102
RTVSPropertyOp57
 70
     1
102
RTVSPropertyOp58
 70
     1
102
RTVSPropertyOp59
 70
     1
102
RTVSPropertyOp60
 70
     1
102
RTVSPropertyOp61
 70
     1
102
RTVSPropertyOp62
 70
     1
  0
XRECORD
  5
AEE3
102
{ACAD_REACTORS
330
AEE2
102
}
330
AEE2
100
AcDbXrecord
280
     1
102
RTVSPost2010Prop28
280
     0
102
RTVSPost2010PropOp28
 70
     1
102
RTVSPost2010Prop29
280
     1
102
RTVSPost2010PropOp29
 70
     1
102
RTVSPost2010Prop30
280
     1
102
RTVSPost2010PropOp30
 70
     1
102
RTVSPost2010Prop31
280
     0
102
RTVSPost2010PropOp31
 70
     1
102
RTVSPost2010Prop32
280
     0
102
RTVSPost2010PropOp32
 70
     1
102
RTVSPost2010Prop33
280
     0
102
RTVSPost2010PropOp33
 70
     1
102
RTVSPost2010Prop34
280
     0
102
RTVSPost2010PropOp34
 70
     1
102
RTVSPost2010Prop35
280
     0
102
RTVSPost2010PropOp35
 70
     1
102
RTVSPost2010Prop36
280
     0
102
RTVSPost2010PropOp36
 70
     1
102
RTVSPost2010Prop37
 90
       50
102
RTVSPost2010PropOp37
 70
     1
102
RTVSPost2010Prop38
140
0.0
102
RTVSPost2010PropOp38
 70
     1
102
RTVSPost2010Prop39
140
1.0
102
RTVSPost2010PropOp39
 70
     1
102
RTVSPost2010Prop40
 90
        0
102
RTVSPost2010PropOp40
 70
     1
102
RTVSPost2010Prop41ColorIndex
 90
       18
102
RTVSPost2010Prop41ColorRGB
 90
        0
102
RTVSPost2010PropOp41
 70
     1
102
RTVSPost2010Prop42
 90
       50
102
RTVSPost2010PropOp42
 70
     1
102
RTVSPost2010Prop43
 90
        3
102
RTVSPost2010PropOp43
 70
     1
102
RTVSPost2010Prop44ColorIndex
 90
        5
102
RTVSPost2010Prop44ColorRGB
 90
      255
102
RTVSPost2010PropOp44
 70
     1
102
RTVSPost2010Prop45
280
     0
102
RTVSPost2010PropOp45
 70
     1
102
RTVSPost2010Prop46
 90
       50
102
RTVSPost2010PropOp46
 70
     1
102
RTVSPost2010Prop47
 90
       50
102
RTVSPost2010PropOp47
 70
     1
102
RTVSPost2010Prop48
 90
       50
102
RTVSPost2010PropOp48
 70
     1
102
RTVSPost2010Prop49
280
     0
102
RTVSPost2010PropOp49
 70
     1
102
RTVSPost2010Prop50
 90
       50
102
RTVSPost2010PropOp50
 70
     1
102
RTVSPost2010Prop51ColorIndex
 90
      256
102
RTVSPost2010Prop51ColorRGB
 90
-16777216
102
RTVSPost2010PropOp51
 70
     0
102
RTVSPost2010Prop52
140
1.0
102
RTVSPost2010PropOp52
 70
     0
102
RTVSPost2010Prop53
 90
        2
102
RTVSPost2010PropOp53
 70
     1
102
RTVSPost2010Prop54
  1
strokes_ogs.tif
102
RTVSPost2010PropOp54
 70
     1
102
RTVSPost2010Prop55
280
     0
102
RTVSPost2010PropOp55
 70
     1
102
RTVSPost2010Prop56
140
1.0
102
RTVSPost2010PropOp56
 70
     1
102
RTVSPost2010Prop57
140
1.0
102
RTVSPost2010PropOp57
 70
     1
102
RTVSPropertyOp0
 70
     1
102
RTVSPropertyOp1
 70
     1
102
RTVSPropertyOp2
 70
     1
102
RTVSPropertyOp3
 70
     1
102
RTVSPropertyOp4
 70
     1
102
RTVSPropertyOp5
 70
     1
102
RTVSPropertyOp6
 70
     1
102
RTVSPropertyOp7
 70
     1
102
RTVSPropertyOp8
 70
     1
102
RTVSPropertyOp9
 70
     1
102
RTVSPropertyOp10
 70
     1
102
RTVSPropertyOp11
 70
     1
102
RTVSPropertyOp12
 70
     1
102
RTVSPropertyOp13
 70
     1
102
RTVSPropertyOp14
 70
     1
102
RTVSPropertyOp15
 70
     1
102
RTVSPropertyOp16
 70
     1
102
RTVSPropertyOp17
 70
     1
102
RTVSPropertyOp18
 70
     1
102
RTVSPropertyOp19
 70
     1
102
RTVSPropertyOp20
 70
     1
102
RTVSPropertyOp21
 70
     1
102
RTVSPropertyOp22
 70
     1
102
RTVSPropertyOp23
 70
     1
102
RTVSPropertyOp24
 70
     1
102
RTVSPropertyOp25
 70
     1
102
RTVSPropertyOp26
 70
     1
102
RTVSPropertyOp27
 70
     1
102
RTVSPropertyOp28
 70
     1
102
RTVSPropertyOp29
 70
     1
102
RTVSPropertyOp30
 70
     1
102
RTVSPropertyOp31
 70
     1
102
RTVSPropertyOp32
 70
     1
102
RTVSPropertyOp33
 70
     1
102
RTVSPropertyOp34
 70
     1
102
RTVSPropertyOp35
 70
     1
102
RTVSPropertyOp36
 70
     1
102
RTVSPropertyOp37
 70
     1
102
RTVSPropertyOp38
 70
     1
102
RTVSPropertyOp39
 70
     1
102
RTVSPropertyOp40
 70
     1
102
RTVSPropertyOp41
 70
     1
102
RTVSPropertyOp42
 70
     1
102
RTVSPropertyOp43
 70
     1
102
RTVSPropertyOp44
 70
     1
102
RTVSPropertyOp45
 70
     1
102
RTVSPropertyOp46
 70
     1
102
RTVSPropertyOp47
 70
     1
102
RTVSPropertyOp48
 70
     1
102
RTVSPropertyOp49
 70
     1
102
RTVSPropertyOp50
 70
     1
102
RTVSPropertyOp51
 70
     0
102
RTVSPropertyOp52
 70
     0
102
RTVSPropertyOp53
 70
     1
102
RTVSPropertyOp54
 70
     1
102
RTVSPropertyOp55
 70
     1
102
RTVSPropertyOp56
 70
     1
102
RTVSPropertyOp57
 70
     1
102
RTVSPropertyOp58
 70
     1
102
RTVSPropertyOp59
 70
     1
102
RTVSPropertyOp60
 70
     1
102
RTVSPropertyOp61
 70
     1
102
RTVSPropertyOp62
 70
     1
  0
XRECORD
  5
AEE7
102
{ACAD_REACTORS
330
AEE6
102
}
330
AEE6
100
AcDbXrecord
280
     1
102
RTVSPost2010Prop28
280
     0
102
RTVSPost2010PropOp28
 70
     1
102
RTVSPost2010Prop29
280
     1
102
RTVSPost2010PropOp29
 70
     1
102
RTVSPost2010Prop30
280
     1
102
RTVSPost2010PropOp30
 70
     1
102
RTVSPost2010Prop31
280
     0
102
RTVSPost2010PropOp31
 70
     1
102
RTVSPost2010Prop32
280
     0
102
RTVSPost2010PropOp32
 70
     1
102
RTVSPost2010Prop33
280
     0
102
RTVSPost2010PropOp33
 70
     1
102
RTVSPost2010Prop34
280
     0
102
RTVSPost2010PropOp34
 70
     1
102
RTVSPost2010Prop35
280
     0
102
RTVSPost2010PropOp35
 70
     1
102
RTVSPost2010Prop36
280
     0
102
RTVSPost2010PropOp36
 70
     1
102
RTVSPost2010Prop37
 90
       50
102
RTVSPost2010PropOp37
 70
     1
102
RTVSPost2010Prop38
140
0.0
102
RTVSPost2010PropOp38
 70
     1
102
RTVSPost2010Prop39
140
1.0
102
RTVSPost2010PropOp39
 70
     1
102
RTVSPost2010Prop40
 90
        0
102
RTVSPost2010PropOp40
 70
     1
102
RTVSPost2010Prop41ColorIndex
 90
       18
102
RTVSPost2010Prop41ColorRGB
 90
        0
102
RTVSPost2010PropOp41
 70
     1
102
RTVSPost2010Prop42
 90
       50
102
RTVSPost2010PropOp42
 70
     1
102
RTVSPost2010Prop43
 90
        3
102
RTVSPost2010PropOp43
 70
     1
102
RTVSPost2010Prop44ColorIndex
 90
        5
102
RTVSPost2010Prop44ColorRGB
 90
      255
102
RTVSPost2010PropOp44
 70
     1
102
RTVSPost2010Prop45
280
     0
102
RTVSPost2010PropOp45
 70
     1
102
RTVSPost2010Prop46
 90
       50
102
RTVSPost2010PropOp46
 70
     1
102
RTVSPost2010Prop47
 90
       50
102
RTVSPost2010PropOp47
 70
     1
102
RTVSPost2010Prop48
 90
       50
102
RTVSPost2010PropOp48
 70
     1
102
RTVSPost2010Prop49
280
     0
102
RTVSPost2010PropOp49
 70
     1
102
RTVSPost2010Prop50
 90
       50
102
RTVSPost2010PropOp50
 70
     1
102
RTVSPost2010Prop51ColorIndex
 90
      256
102
RTVSPost2010Prop51ColorRGB
 90
-16777216
102
RTVSPost2010PropOp51
 70
     0
102
RTVSPost2010Prop52
140
1.0
102
RTVSPost2010PropOp52
 70
     0
102
RTVSPost2010Prop53
 90
        2
102
RTVSPost2010PropOp53
 70
     1
102
RTVSPost2010Prop54
  1
strokes_ogs.tif
102
RTVSPost2010PropOp54
 70
     1
102
RTVSPost2010Prop55
280
     0
102
RTVSPost2010PropOp55
 70
     1
102
RTVSPost2010Prop56
140
1.0
102
RTVSPost2010PropOp56
 70
     1
102
RTVSPost2010Prop57
140
1.0
102
RTVSPost2010PropOp57
 70
     1
102
RTVSPropertyOp0
 70
     1
102
RTVSPropertyOp1
 70
     1
102
RTVSPropertyOp2
 70
     1
102
RTVSPropertyOp3
 70
     1
102
RTVSPropertyOp4
 70
     1
102
RTVSPropertyOp5
 70
     1
102
RTVSPropertyOp6
 70
     1
102
RTVSPropertyOp7
 70
     1
102
RTVSPropertyOp8
 70
     1
102
RTVSPropertyOp9
 70
     1
102
RTVSPropertyOp10
 70
     1
102
RTVSPropertyOp11
 70
     1
102
RTVSPropertyOp12
 70
     1
102
RTVSPropertyOp13
 70
     1
102
RTVSPropertyOp14
 70
     1
102
RTVSPropertyOp15
 70
     1
102
RTVSPropertyOp16
 70
     1
102
RTVSPropertyOp17
 70
     1
102
RTVSPropertyOp18
 70
     1
102
RTVSPropertyOp19
 70
     1
102
RTVSPropertyOp20
 70
     1
102
RTVSPropertyOp21
 70
     1
102
RTVSPropertyOp22
 70
     1
102
RTVSPropertyOp23
 70
     1
102
RTVSPropertyOp24
 70
     1
102
RTVSPropertyOp25
 70
     1
102
RTVSPropertyOp26
 70
     1
102
RTVSPropertyOp27
 70
     1
102
RTVSPropertyOp28
 70
     1
102
RTVSPropertyOp29
 70
     1
102
RTVSPropertyOp30
 70
     1
102
RTVSPropertyOp31
 70
     1
102
RTVSPropertyOp32
 70
     1
102
RTVSPropertyOp33
 70
     1
102
RTVSPropertyOp34
 70
     1
102
RTVSPropertyOp35
 70
     1
102
RTVSPropertyOp36
 70
     1
102
RTVSPropertyOp37
 70
     1
102
RTVSPropertyOp38
 70
     1
102
RTVSPropertyOp39
 70
     1
102
RTVSPropertyOp40
 70
     1
102
RTVSPropertyOp41
 70
     1
102
RTVSPropertyOp42
 70
     1
102
RTVSPropertyOp43
 70
     1
102
RTVSPropertyOp44
 70
     1
102
RTVSPropertyOp45
 70
     1
102
RTVSPropertyOp46
 70
     1
102
RTVSPropertyOp47
 70
     1
102
RTVSPropertyOp48
 70
     1
102
RTVSPropertyOp49
 70
     1
102
RTVSPropertyOp50
 70
     1
102
RTVSPropertyOp51
 70
     0
102
RTVSPropertyOp52
 70
     0
102
RTVSPropertyOp53
 70
     1
102
RTVSPropertyOp54
 70
     1
102
RTVSPropertyOp55
 70
     1
102
RTVSPropertyOp56
 70
     1
102
RTVSPropertyOp57
 70
     1
102
RTVSPropertyOp58
 70
     1
102
RTVSPropertyOp59
 70
     1
102
RTVSPropertyOp60
 70
     1
102
RTVSPropertyOp61
 70
     1
102
RTVSPropertyOp62
 70
     1
  0
XRECORD
  5
AF01
102
{ACAD_REACTORS
330
AF00
102
}
330
AF00
100
AcDbXrecord
280
     1
102
RTVSPost2010Prop28
280
     0
102
RTVSPost2010PropOp28
 70
     1
102
RTVSPost2010Prop29
280
     1
102
RTVSPost2010PropOp29
 70
     1
102
RTVSPost2010Prop30
280
     1
102
RTVSPost2010PropOp30
 70
     1
102
RTVSPost2010Prop31
280
     0
102
RTVSPost2010PropOp31
 70
     1
102
RTVSPost2010Prop32
280
     0
102
RTVSPost2010PropOp32
 70
     1
102
RTVSPost2010Prop33
280
     0
102
RTVSPost2010PropOp33
 70
     1
102
RTVSPost2010Prop34
280
     0
102
RTVSPost2010PropOp34
 70
     1
102
RTVSPost2010Prop35
280
     0
102
RTVSPost2010PropOp35
 70
     1
102
RTVSPost2010Prop36
280
     0
102
RTVSPost2010PropOp36
 70
     1
102
RTVSPost2010Prop37
 90
       50
102
RTVSPost2010PropOp37
 70
     0
102
RTVSPost2010Prop38
140
0.0
102
RTVSPost2010PropOp38
 70
     0
102
RTVSPost2010Prop39
140
1.0
102
RTVSPost2010PropOp39
 70
     0
102
RTVSPost2010Prop40
 90
        0
102
RTVSPost2010PropOp40
 70
     0
102
RTVSPost2010Prop41ColorIndex
 90
       18
102
RTVSPost2010Prop41ColorRGB
 90
        0
102
RTVSPost2010PropOp41
 70
     0
102
RTVSPost2010Prop42
 90
       50
102
RTVSPost2010PropOp42
 70
     0
102
RTVSPost2010Prop43
 90
        3
102
RTVSPost2010PropOp43
 70
     0
102
RTVSPost2010Prop44ColorIndex
 90
        5
102
RTVSPost2010Prop44ColorRGB
 90
      255
102
RTVSPost2010PropOp44
 70
     0
102
RTVSPost2010Prop45
280
     0
102
RTVSPost2010PropOp45
 70
     1
102
RTVSPost2010Prop46
 90
       50
102
RTVSPost2010PropOp46
 70
     0
102
RTVSPost2010Prop47
 90
       50
102
RTVSPost2010PropOp47
 70
     0
102
RTVSPost2010Prop48
 90
       50
102
RTVSPost2010PropOp48
 70
     0
102
RTVSPost2010Prop49
280
     0
102
RTVSPost2010PropOp49
 70
     1
102
RTVSPost2010Prop50
 90
       50
102
RTVSPost2010PropOp50
 70
     0
102
RTVSPost2010Prop51ColorIndex
 90
      256
102
RTVSPost2010Prop51ColorRGB
 90
-16777216
102
RTVSPost2010PropOp51
 70
     0
102
RTVSPost2010Prop52
140
1.0
102
RTVSPost2010PropOp52
 70
     0
102
RTVSPost2010Prop53
 90
        2
102
RTVSPost2010PropOp53
 70
     0
102
RTVSPost2010Prop54
  1
strokes_ogs.tif
102
RTVSPost2010PropOp54
 70
     0
102
RTVSPost2010Prop55
280
     0
102
RTVSPost2010PropOp55
 70
     1
102
RTVSPost2010Prop56
140
1.0
102
RTVSPost2010PropOp56
 70
     0
102
RTVSPost2010Prop57
140
1.0
102
RTVSPost2010PropOp57
 70
     0
102
RTVSPropertyOp0
 70
     0
102
RTVSPropertyOp1
 70
     0
102
RTVSPropertyOp2
 70
     0
102
RTVSPropertyOp3
 70
     0
102
RTVSPropertyOp4
 70
     0
102
RTVSPropertyOp5
 70
     0
102
RTVSPropertyOp6
 70
     0
102
RTVSPropertyOp7
 70
     0
102
RTVSPropertyOp8
 70
     0
102
RTVSPropertyOp9
 70
     0
102
RTVSPropertyOp10
 70
     0
102
RTVSPropertyOp11
 70
     0
102
RTVSPropertyOp12
 70
     0
102
RTVSPropertyOp13
 70
     0
102
RTVSPropertyOp14
 70
     2
102
RTVSPropertyOp15
 70
     0
102
RTVSPropertyOp16
 70
     0
102
RTVSPropertyOp17
 70
     0
102
RTVSPropertyOp18
 70
     0
102
RTVSPropertyOp19
 70
     0
102
RTVSPropertyOp20
 70
     0
102
RTVSPropertyOp21
 70
     0
102
RTVSPropertyOp22
 70
     0
102
RTVSPropertyOp23
 70
     0
102
RTVSPropertyOp24
 70
     0
102
RTVSPropertyOp25
 70
     0
102
RTVSPropertyOp26
 70
     0
102
RTVSPropertyOp27
 70
     0
102
RTVSPropertyOp28
 70
     1
102
RTVSPropertyOp29
 70
     1
102
RTVSPropertyOp30
 70
     1
102
RTVSPropertyOp31
 70
     1
102
RTVSPropertyOp32
 70
     1
102
RTVSPropertyOp33
 70
     1
102
RTVSPropertyOp34
 70
     1
102
RTVSPropertyOp35
 70
     1
102
RTVSPropertyOp36
 70
     1
102
RTVSPropertyOp37
 70
     0
102
RTVSPropertyOp38
 70
     0
102
RTVSPropertyOp39
 70
     0
102
RTVSPropertyOp40
 70
     0
102
RTVSPropertyOp41
 70
     0
102
RTVSPropertyOp42
 70
     0
102
RTVSPropertyOp43
 70
     0
102
RTVSPropertyOp44
 70
     0
102
RTVSPropertyOp45
 70
     1
102
RTVSPropertyOp46
 70
     0
102
RTVSPropertyOp47
 70
     0
102
RTVSPropertyOp48
 70
     0
102
RTVSPropertyOp49
 70
     1
102
RTVSPropertyOp50
 70
     0
102
RTVSPropertyOp51
 70
     0
102
RTVSPropertyOp52
 70
     0
102
RTVSPropertyOp53
 70
     0
102
RTVSPropertyOp54
 70
     0
102
RTVSPropertyOp55
 70
     1
102
RTVSPropertyOp56
 70
     0
102
RTVSPropertyOp57
 70
     0
102
RTVSPropertyOp58
 70
     0
102
RTVSPropertyOp59
 70
     0
102
RTVSPropertyOp60
 70
     0
102
RTVSPropertyOp61
 70
     0
102
RTVSPropertyOp62
 70
     0
  0
XRECORD
  5
AEEF
102
{ACAD_REACTORS
330
AEEE
102
}
330
AEEE
100
AcDbXrecord
280
     1
102
RTVSPost2010Prop28
280
     0
102
RTVSPost2010PropOp28
 70
     1
102
RTVSPost2010Prop29
280
     1
102
RTVSPost2010PropOp29
 70
     1
102
RTVSPost2010Prop30
280
     1
102
RTVSPost2010PropOp30
 70
     1
102
RTVSPost2010Prop31
280
     0
102
RTVSPost2010PropOp31
 70
     1
102
RTVSPost2010Prop32
280
     0
102
RTVSPost2010PropOp32
 70
     1
102
RTVSPost2010Prop33
280
     0
102
RTVSPost2010PropOp33
 70
     1
102
RTVSPost2010Prop34
280
     0
102
RTVSPost2010PropOp34
 70
     1
102
RTVSPost2010Prop35
280
     0
102
RTVSPost2010PropOp35
 70
     1
102
RTVSPost2010Prop36
280
     0
102
RTVSPost2010PropOp36
 70
     1
102
RTVSPost2010Prop37
 90
       50
102
RTVSPost2010PropOp37
 70
     1
102
RTVSPost2010Prop38
140
0.0
102
RTVSPost2010PropOp38
 70
     1
102
RTVSPost2010Prop39
140
1.0
102
RTVSPost2010PropOp39
 70
     1
102
RTVSPost2010Prop40
 90
        0
102
RTVSPost2010PropOp40
 70
     1
102
RTVSPost2010Prop41ColorIndex
 90
       18
102
RTVSPost2010Prop41ColorRGB
 90
        0
102
RTVSPost2010PropOp41
 70
     1
102
RTVSPost2010Prop42
 90
       50
102
RTVSPost2010PropOp42
 70
     1
102
RTVSPost2010Prop43
 90
        3
102
RTVSPost2010PropOp43
 70
     1
102
RTVSPost2010Prop44ColorIndex
 90
        5
102
RTVSPost2010Prop44ColorRGB
 90
      255
102
RTVSPost2010PropOp44
 70
     1
102
RTVSPost2010Prop45
280
     0
102
RTVSPost2010PropOp45
 70
     1
102
RTVSPost2010Prop46
 90
       50
102
RTVSPost2010PropOp46
 70
     1
102
RTVSPost2010Prop47
 90
       50
102
RTVSPost2010PropOp47
 70
     1
102
RTVSPost2010Prop48
 90
       50
102
RTVSPost2010PropOp48
 70
     1
102
RTVSPost2010Prop49
280
     0
102
RTVSPost2010PropOp49
 70
     1
102
RTVSPost2010Prop50
 90
       50
102
RTVSPost2010PropOp50
 70
     1
102
RTVSPost2010Prop51ColorIndex
 90
      256
102
RTVSPost2010Prop51ColorRGB
 90
-16777216
102
RTVSPost2010PropOp51
 70
     0
102
RTVSPost2010Prop52
140
1.0
102
RTVSPost2010PropOp52
 70
     0
102
RTVSPost2010Prop53
 90
        2
102
RTVSPost2010PropOp53
 70
     1
102
RTVSPost2010Prop54
  1
strokes_ogs.tif
102
RTVSPost2010PropOp54
 70
     1
102
RTVSPost2010Prop55
280
     0
102
RTVSPost2010PropOp55
 70
     1
102
RTVSPost2010Prop56
140
1.0
102
RTVSPost2010PropOp56
 70
     1
102
RTVSPost2010Prop57
140
1.0
102
RTVSPost2010PropOp57
 70
     1
102
RTVSPropertyOp0
 70
     1
102
RTVSPropertyOp1
 70
     1
102
RTVSPropertyOp2
 70
     1
102
RTVSPropertyOp3
 70
     1
102
RTVSPropertyOp4
 70
     1
102
RTVSPropertyOp5
 70
     1
102
RTVSPropertyOp6
 70
     1
102
RTVSPropertyOp7
 70
     1
102
RTVSPropertyOp8
 70
     1
102
RTVSPropertyOp9
 70
     1
102
RTVSPropertyOp10
 70
     1
102
RTVSPropertyOp11
 70
     1
102
RTVSPropertyOp12
 70
     1
102
RTVSPropertyOp13
 70
     1
102
RTVSPropertyOp14
 70
     1
102
RTVSPropertyOp15
 70
     1
102
RTVSPropertyOp16
 70
     1
102
RTVSPropertyOp17
 70
     1
102
RTVSPropertyOp18
 70
     1
102
RTVSPropertyOp19
 70
     1
102
RTVSPropertyOp20
 70
     1
102
RTVSPropertyOp21
 70
     1
102
RTVSPropertyOp22
 70
     1
102
RTVSPropertyOp23
 70
     1
102
RTVSPropertyOp24
 70
     1
102
RTVSPropertyOp25
 70
     1
102
RTVSPropertyOp26
 70
     1
102
RTVSPropertyOp27
 70
     1
102
RTVSPropertyOp28
 70
     1
102
RTVSPropertyOp29
 70
     1
102
RTVSPropertyOp30
 70
     1
102
RTVSPropertyOp31
 70
     1
102
RTVSPropertyOp32
 70
     1
102
RTVSPropertyOp33
 70
     1
102
RTVSPropertyOp34
 70
     1
102
RTVSPropertyOp35
 70
     1
102
RTVSPropertyOp36
 70
     1
102
RTVSPropertyOp37
 70
     1
102
RTVSPropertyOp38
 70
     1
102
RTVSPropertyOp39
 70
     1
102
RTVSPropertyOp40
 70
     1
102
RTVSPropertyOp41
 70
     1
102
RTVSPropertyOp42
 70
     1
102
RTVSPropertyOp43
 70
     1
102
RTVSPropertyOp44
 70
     1
102
RTVSPropertyOp45
 70
     1
102
RTVSPropertyOp46
 70
     1
102
RTVSPropertyOp47
 70
     1
102
RTVSPropertyOp48
 70
     1
102
RTVSPropertyOp49
 70
     1
102
RTVSPropertyOp50
 70
     1
102
RTVSPropertyOp51
 70
     0
102
RTVSPropertyOp52
 70
     0
102
RTVSPropertyOp53
 70
     1
102
RTVSPropertyOp54
 70
     1
102
RTVSPropertyOp55
 70
     1
102
RTVSPropertyOp56
 70
     1
102
RTVSPropertyOp57
 70
     1
102
RTVSPropertyOp58
 70
     1
102
RTVSPropertyOp59
 70
     1
102
RTVSPropertyOp60
 70
     1
102
RTVSPropertyOp61
 70
     1
102
RTVSPropertyOp62
 70
     1
  0
XRECORD
  5
AED3
102
{ACAD_REACTORS
330
AED2
102
}
330
AED2
100
AcDbXrecord
280
     1
102
RTVSPost2010Prop28
280
     0
102
RTVSPost2010PropOp28
 70
     1
102
RTVSPost2010Prop29
280
     1
102
RTVSPost2010PropOp29
 70
     1
102
RTVSPost2010Prop30
280
     1
102
RTVSPost2010PropOp30
 70
     1
102
RTVSPost2010Prop31
280
     0
102
RTVSPost2010PropOp31
 70
     1
102
RTVSPost2010Prop32
280
     0
102
RTVSPost2010PropOp32
 70
     1
102
RTVSPost2010Prop33
280
     0
102
RTVSPost2010PropOp33
 70
     1
102
RTVSPost2010Prop34
280
     0
102
RTVSPost2010PropOp34
 70
     1
102
RTVSPost2010Prop35
280
     0
102
RTVSPost2010PropOp35
 70
     1
102
RTVSPost2010Prop36
280
     0
102
RTVSPost2010PropOp36
 70
     1
102
RTVSPost2010Prop37
 90
       50
102
RTVSPost2010PropOp37
 70
     1
102
RTVSPost2010Prop38
140
0.0
102
RTVSPost2010PropOp38
 70
     1
102
RTVSPost2010Prop39
140
1.0
102
RTVSPost2010PropOp39
 70
     1
102
RTVSPost2010Prop40
 90
        0
102
RTVSPost2010PropOp40
 70
     1
102
RTVSPost2010Prop41ColorIndex
 90
       18
102
RTVSPost2010Prop41ColorRGB
 90
        0
102
RTVSPost2010PropOp41
 70
     1
102
RTVSPost2010Prop42
 90
       50
102
RTVSPost2010PropOp42
 70
     1
102
RTVSPost2010Prop43
 90
        3
102
RTVSPost2010PropOp43
 70
     1
102
RTVSPost2010Prop44ColorIndex
 90
        5
102
RTVSPost2010Prop44ColorRGB
 90
      255
102
RTVSPost2010PropOp44
 70
     1
102
RTVSPost2010Prop45
280
     0
102
RTVSPost2010PropOp45
 70
     1
102
RTVSPost2010Prop46
 90
       50
102
RTVSPost2010PropOp46
 70
     1
102
RTVSPost2010Prop47
 90
       50
102
RTVSPost2010PropOp47
 70
     1
102
RTVSPost2010Prop48
 90
       50
102
RTVSPost2010PropOp48
 70
     1
102
RTVSPost2010Prop49
280
     0
102
RTVSPost2010PropOp49
 70
     1
102
RTVSPost2010Prop50
 90
       50
102
RTVSPost2010PropOp50
 70
     1
102
RTVSPost2010Prop51ColorIndex
 90
      256
102
RTVSPost2010Prop51ColorRGB
 90
-16777216
102
RTVSPost2010PropOp51
 70
     0
102
RTVSPost2010Prop52
140
1.0
102
RTVSPost2010PropOp52
 70
     0
102
RTVSPost2010Prop53
 90
        2
102
RTVSPost2010PropOp53
 70
     1
102
RTVSPost2010Prop54
  1
strokes_ogs.tif
102
RTVSPost2010PropOp54
 70
     1
102
RTVSPost2010Prop55
280
     0
102
RTVSPost2010PropOp55
 70
     1
102
RTVSPost2010Prop56
140
1.0
102
RTVSPost2010PropOp56
 70
     1
102
RTVSPost2010Prop57
140
1.0
102
RTVSPost2010PropOp57
 70
     1
102
RTVSPropertyOp0
 70
     1
102
RTVSPropertyOp1
 70
     1
102
RTVSPropertyOp2
 70
     1
102
RTVSPropertyOp3
 70
     1
102
RTVSPropertyOp4
 70
     1
102
RTVSPropertyOp5
 70
     1
102
RTVSPropertyOp6
 70
     1
102
RTVSPropertyOp7
 70
     1
102
RTVSPropertyOp8
 70
     1
102
RTVSPropertyOp9
 70
     1
102
RTVSPropertyOp10
 70
     1
102
RTVSPropertyOp11
 70
     1
102
RTVSPropertyOp12
 70
     1
102
RTVSPropertyOp13
 70
     1
102
RTVSPropertyOp14
 70
     1
102
RTVSPropertyOp15
 70
     1
102
RTVSPropertyOp16
 70
     1
102
RTVSPropertyOp17
 70
     1
102
RTVSPropertyOp18
 70
     1
102
RTVSPropertyOp19
 70
     1
102
RTVSPropertyOp20
 70
     1
102
RTVSPropertyOp21
 70
     1
102
RTVSPropertyOp22
 70
     1
102
RTVSPropertyOp23
 70
     1
102
RTVSPropertyOp24
 70
     1
102
RTVSPropertyOp25
 70
     1
102
RTVSPropertyOp26
 70
     1
102
RTVSPropertyOp27
 70
     1
102
RTVSPropertyOp28
 70
     1
102
RTVSPropertyOp29
 70
     1
102
RTVSPropertyOp30
 70
     1
102
RTVSPropertyOp31
 70
     1
102
RTVSPropertyOp32
 70
     1
102
RTVSPropertyOp33
 70
     1
102
RTVSPropertyOp34
 70
     1
102
RTVSPropertyOp35
 70
     1
102
RTVSPropertyOp36
 70
     1
102
RTVSPropertyOp37
 70
     1
102
RTVSPropertyOp38
 70
     1
102
RTVSPropertyOp39
 70
     1
102
RTVSPropertyOp40
 70
     1
102
RTVSPropertyOp41
 70
     1
102
RTVSPropertyOp42
 70
     1
102
RTVSPropertyOp43
 70
     1
102
RTVSPropertyOp44
 70
     1
102
RTVSPropertyOp45
 70
     1
102
RTVSPropertyOp46
 70
     1
102
RTVSPropertyOp47
 70
     1
102
RTVSPropertyOp48
 70
     1
102
RTVSPropertyOp49
 70
     1
102
RTVSPropertyOp50
 70
     1
102
RTVSPropertyOp51
 70
     0
102
RTVSPropertyOp52
 70
     0
102
RTVSPropertyOp53
 70
     1
102
RTVSPropertyOp54
 70
     1
102
RTVSPropertyOp55
 70
     1
102
RTVSPropertyOp56
 70
     1
102
RTVSPropertyOp57
 70
     1
102
RTVSPropertyOp58
 70
     1
102
RTVSPropertyOp59
 70
     1
102
RTVSPropertyOp60
 70
     1
102
RTVSPropertyOp61
 70
     1
102
RTVSPropertyOp62
 70
     1
  0
XRECORD
  5
AED5
102
{ACAD_REACTORS
330
AED4
102
}
330
AED4
100
AcDbXrecord
280
     1
102
RTVSPost2010Prop28
280
     0
102
RTVSPost2010PropOp28
 70
     1
102
RTVSPost2010Prop29
280
     1
102
RTVSPost2010PropOp29
 70
     1
102
RTVSPost2010Prop30
280
     1
102
RTVSPost2010PropOp30
 70
     1
102
RTVSPost2010Prop31
280
     0
102
RTVSPost2010PropOp31
 70
     1
102
RTVSPost2010Prop32
280
     0
102
RTVSPost2010PropOp32
 70
     1
102
RTVSPost2010Prop33
280
     0
102
RTVSPost2010PropOp33
 70
     1
102
RTVSPost2010Prop34
280
     0
102
RTVSPost2010PropOp34
 70
     1
102
RTVSPost2010Prop35
280
     0
102
RTVSPost2010PropOp35
 70
     1
102
RTVSPost2010Prop36
280
     0
102
RTVSPost2010PropOp36
 70
     1
102
RTVSPost2010Prop37
 90
       50
102
RTVSPost2010PropOp37
 70
     1
102
RTVSPost2010Prop38
140
0.0
102
RTVSPost2010PropOp38
 70
     1
102
RTVSPost2010Prop39
140
1.0
102
RTVSPost2010PropOp39
 70
     1
102
RTVSPost2010Prop40
 90
        0
102
RTVSPost2010PropOp40
 70
     1
102
RTVSPost2010Prop41ColorIndex
 90
       18
102
RTVSPost2010Prop41ColorRGB
 90
        0
102
RTVSPost2010PropOp41
 70
     1
102
RTVSPost2010Prop42
 90
       50
102
RTVSPost2010PropOp42
 70
     1
102
RTVSPost2010Prop43
 90
        3
102
RTVSPost2010PropOp43
 70
     1
102
RTVSPost2010Prop44ColorIndex
 90
        5
102
RTVSPost2010Prop44ColorRGB
 90
      255
102
RTVSPost2010PropOp44
 70
     1
102
RTVSPost2010Prop45
280
     0
102
RTVSPost2010PropOp45
 70
     1
102
RTVSPost2010Prop46
 90
       50
102
RTVSPost2010PropOp46
 70
     1
102
RTVSPost2010Prop47
 90
       50
102
RTVSPost2010PropOp47
 70
     1
102
RTVSPost2010Prop48
 90
       50
102
RTVSPost2010PropOp48
 70
     1
102
RTVSPost2010Prop49
280
     0
102
RTVSPost2010PropOp49
 70
     1
102
RTVSPost2010Prop50
 90
       50
102
RTVSPost2010PropOp50
 70
     1
102
RTVSPost2010Prop51ColorIndex
 90
      256
102
RTVSPost2010Prop51ColorRGB
 90
-16777216
102
RTVSPost2010PropOp51
 70
     0
102
RTVSPost2010Prop52
140
1.0
102
RTVSPost2010PropOp52
 70
     0
102
RTVSPost2010Prop53
 90
        2
102
RTVSPost2010PropOp53
 70
     1
102
RTVSPost2010Prop54
  1
strokes_ogs.tif
102
RTVSPost2010PropOp54
 70
     1
102
RTVSPost2010Prop55
280
     0
102
RTVSPost2010PropOp55
 70
     1
102
RTVSPost2010Prop56
140
1.0
102
RTVSPost2010PropOp56
 70
     1
102
RTVSPost2010Prop57
140
1.0
102
RTVSPost2010PropOp57
 70
     1
102
RTVSPropertyOp0
 70
     1
102
RTVSPropertyOp1
 70
     1
102
RTVSPropertyOp2
 70
     1
102
RTVSPropertyOp3
 70
     1
102
RTVSPropertyOp4
 70
     1
102
RTVSPropertyOp5
 70
     1
102
RTVSPropertyOp6
 70
     1
102
RTVSPropertyOp7
 70
     1
102
RTVSPropertyOp8
 70
     1
102
RTVSPropertyOp9
 70
     1
102
RTVSPropertyOp10
 70
     1
102
RTVSPropertyOp11
 70
     1
102
RTVSPropertyOp12
 70
     1
102
RTVSPropertyOp13
 70
     1
102
RTVSPropertyOp14
 70
     1
102
RTVSPropertyOp15
 70
     1
102
RTVSPropertyOp16
 70
     1
102
RTVSPropertyOp17
 70
     1
102
RTVSPropertyOp18
 70
     1
102
RTVSPropertyOp19
 70
     1
102
RTVSPropertyOp20
 70
     1
102
RTVSPropertyOp21
 70
     1
102
RTVSPropertyOp22
 70
     1
102
RTVSPropertyOp23
 70
     1
102
RTVSPropertyOp24
 70
     1
102
RTVSPropertyOp25
 70
     1
102
RTVSPropertyOp26
 70
     1
102
RTVSPropertyOp27
 70
     1
102
RTVSPropertyOp28
 70
     1
102
RTVSPropertyOp29
 70
     1
102
RTVSPropertyOp30
 70
     1
102
RTVSPropertyOp31
 70
     1
102
RTVSPropertyOp32
 70
     1
102
RTVSPropertyOp33
 70
     1
102
RTVSPropertyOp34
 70
     1
102
RTVSPropertyOp35
 70
     1
102
RTVSPropertyOp36
 70
     1
102
RTVSPropertyOp37
 70
     1
102
RTVSPropertyOp38
 70
     1
102
RTVSPropertyOp39
 70
     1
102
RTVSPropertyOp40
 70
     1
102
RTVSPropertyOp41
 70
     1
102
RTVSPropertyOp42
 70
     1
102
RTVSPropertyOp43
 70
     1
102
RTVSPropertyOp44
 70
     1
102
RTVSPropertyOp45
 70
     1
102
RTVSPropertyOp46
 70
     1
102
RTVSPropertyOp47
 70
     1
102
RTVSPropertyOp48
 70
     1
102
RTVSPropertyOp49
 70
     1
102
RTVSPropertyOp50
 70
     1
102
RTVSPropertyOp51
 70
     0
102
RTVSPropertyOp52
 70
     0
102
RTVSPropertyOp53
 70
     1
102
RTVSPropertyOp54
 70
     1
102
RTVSPropertyOp55
 70
     1
102
RTVSPropertyOp56
 70
     1
102
RTVSPropertyOp57
 70
     1
102
RTVSPropertyOp58
 70
     1
102
RTVSPropertyOp59
 70
     1
102
RTVSPropertyOp60
 70
     1
102
RTVSPropertyOp61
 70
     1
102
RTVSPropertyOp62
 70
     1
  0
XRECORD
  5
AED7
102
{ACAD_REACTORS
330
AED6
102
}
330
AED6
100
AcDbXrecord
280
     1
102
RTVSPost2010Prop28
280
     0
102
RTVSPost2010PropOp28
 70
     1
102
RTVSPost2010Prop29
280
     1
102
RTVSPost2010PropOp29
 70
     1
102
RTVSPost2010Prop30
280
     1
102
RTVSPost2010PropOp30
 70
     1
102
RTVSPost2010Prop31
280
     0
102
RTVSPost2010PropOp31
 70
     1
102
RTVSPost2010Prop32
280
     0
102
RTVSPost2010PropOp32
 70
     1
102
RTVSPost2010Prop33
280
     0
102
RTVSPost2010PropOp33
 70
     1
102
RTVSPost2010Prop34
280
     0
102
RTVSPost2010PropOp34
 70
     1
102
RTVSPost2010Prop35
280
     0
102
RTVSPost2010PropOp35
 70
     1
102
RTVSPost2010Prop36
280
     0
102
RTVSPost2010PropOp36
 70
     1
102
RTVSPost2010Prop37
 90
       50
102
RTVSPost2010PropOp37
 70
     1
102
RTVSPost2010Prop38
140
0.0
102
RTVSPost2010PropOp38
 70
     1
102
RTVSPost2010Prop39
140
1.0
102
RTVSPost2010PropOp39
 70
     1
102
RTVSPost2010Prop40
 90
        0
102
RTVSPost2010PropOp40
 70
     1
102
RTVSPost2010Prop41ColorIndex
 90
       18
102
RTVSPost2010Prop41ColorRGB
 90
        0
102
RTVSPost2010PropOp41
 70
     1
102
RTVSPost2010Prop42
 90
       50
102
RTVSPost2010PropOp42
 70
     1
102
RTVSPost2010Prop43
 90
        3
102
RTVSPost2010PropOp43
 70
     1
102
RTVSPost2010Prop44ColorIndex
 90
        5
102
RTVSPost2010Prop44ColorRGB
 90
      255
102
RTVSPost2010PropOp44
 70
     1
102
RTVSPost2010Prop45
280
     0
102
RTVSPost2010PropOp45
 70
     1
102
RTVSPost2010Prop46
 90
       50
102
RTVSPost2010PropOp46
 70
     1
102
RTVSPost2010Prop47
 90
       50
102
RTVSPost2010PropOp47
 70
     1
102
RTVSPost2010Prop48
 90
       50
102
RTVSPost2010PropOp48
 70
     1
102
RTVSPost2010Prop49
280
     0
102
RTVSPost2010PropOp49
 70
     1
102
RTVSPost2010Prop50
 90
       50
102
RTVSPost2010PropOp50
 70
     1
102
RTVSPost2010Prop51ColorIndex
 90
      256
102
RTVSPost2010Prop51ColorRGB
 90
-16777216
102
RTVSPost2010PropOp51
 70
     0
102
RTVSPost2010Prop52
140
1.0
102
RTVSPost2010PropOp52
 70
     0
102
RTVSPost2010Prop53
 90
        2
102
RTVSPost2010PropOp53
 70
     1
102
RTVSPost2010Prop54
  1
strokes_ogs.tif
102
RTVSPost2010PropOp54
 70
     1
102
RTVSPost2010Prop55
280
     0
102
RTVSPost2010PropOp55
 70
     1
102
RTVSPost2010Prop56
140
1.0
102
RTVSPost2010PropOp56
 70
     1
102
RTVSPost2010Prop57
140
1.0
102
RTVSPost2010PropOp57
 70
     1
102
RTVSPropertyOp0
 70
     1
102
RTVSPropertyOp1
 70
     1
102
RTVSPropertyOp2
 70
     1
102
RTVSPropertyOp3
 70
     1
102
RTVSPropertyOp4
 70
     1
102
RTVSPropertyOp5
 70
     1
102
RTVSPropertyOp6
 70
     1
102
RTVSPropertyOp7
 70
     1
102
RTVSPropertyOp8
 70
     1
102
RTVSPropertyOp9
 70
     1
102
RTVSPropertyOp10
 70
     1
102
RTVSPropertyOp11
 70
     1
102
RTVSPropertyOp12
 70
     1
102
RTVSPropertyOp13
 70
     1
102
RTVSPropertyOp14
 70
     1
102
RTVSPropertyOp15
 70
     1
102
RTVSPropertyOp16
 70
     1
102
RTVSPropertyOp17
 70
     1
102
RTVSPropertyOp18
 70
     1
102
RTVSPropertyOp19
 70
     1
102
RTVSPropertyOp20
 70
     1
102
RTVSPropertyOp21
 70
     1
102
RTVSPropertyOp22
 70
     1
102
RTVSPropertyOp23
 70
     1
102
RTVSPropertyOp24
 70
     1
102
RTVSPropertyOp25
 70
     1
102
RTVSPropertyOp26
 70
     1
102
RTVSPropertyOp27
 70
     1
102
RTVSPropertyOp28
 70
     1
102
RTVSPropertyOp29
 70
     1
102
RTVSPropertyOp30
 70
     1
102
RTVSPropertyOp31
 70
     1
102
RTVSPropertyOp32
 70
     1
102
RTVSPropertyOp33
 70
     1
102
RTVSPropertyOp34
 70
     1
102
RTVSPropertyOp35
 70
     1
102
RTVSPropertyOp36
 70
     1
102
RTVSPropertyOp37
 70
     1
102
RTVSPropertyOp38
 70
     1
102
RTVSPropertyOp39
 70
     1
102
RTVSPropertyOp40
 70
     1
102
RTVSPropertyOp41
 70
     1
102
RTVSPropertyOp42
 70
     1
102
RTVSPropertyOp43
 70
     1
102
RTVSPropertyOp44
 70
     1
102
RTVSPropertyOp45
 70
     1
102
RTVSPropertyOp46
 70
     1
102
RTVSPropertyOp47
 70
     1
102
RTVSPropertyOp48
 70
     1
102
RTVSPropertyOp49
 70
     1
102
RTVSPropertyOp50
 70
     1
102
RTVSPropertyOp51
 70
     0
102
RTVSPropertyOp52
 70
     0
102
RTVSPropertyOp53
 70
     1
102
RTVSPropertyOp54
 70
     1
102
RTVSPropertyOp55
 70
     1
102
RTVSPropertyOp56
 70
     1
102
RTVSPropertyOp57
 70
     1
102
RTVSPropertyOp58
 70
     1
102
RTVSPropertyOp59
 70
     1
102
RTVSPropertyOp60
 70
     1
102
RTVSPropertyOp61
 70
     1
102
RTVSPropertyOp62
 70
     1
  0
XRECORD
  5
AED9
102
{ACAD_REACTORS
330
AED8
102
}
330
AED8
100
AcDbXrecord
280
     1
102
RTVSPost2010Prop28
280
     0
102
RTVSPost2010PropOp28
 70
     1
102
RTVSPost2010Prop29
280
     1
102
RTVSPost2010PropOp29
 70
     1
102
RTVSPost2010Prop30
280
     1
102
RTVSPost2010PropOp30
 70
     1
102
RTVSPost2010Prop31
280
     0
102
RTVSPost2010PropOp31
 70
     1
102
RTVSPost2010Prop32
280
     0
102
RTVSPost2010PropOp32
 70
     1
102
RTVSPost2010Prop33
280
     0
102
RTVSPost2010PropOp33
 70
     1
102
RTVSPost2010Prop34
280
     0
102
RTVSPost2010PropOp34
 70
     1
102
RTVSPost2010Prop35
280
     0
102
RTVSPost2010PropOp35
 70
     1
102
RTVSPost2010Prop36
280
     0
102
RTVSPost2010PropOp36
 70
     1
102
RTVSPost2010Prop37
 90
       50
102
RTVSPost2010PropOp37
 70
     1
102
RTVSPost2010Prop38
140
0.0
102
RTVSPost2010PropOp38
 70
     1
102
RTVSPost2010Prop39
140
1.0
102
RTVSPost2010PropOp39
 70
     1
102
RTVSPost2010Prop40
 90
        0
102
RTVSPost2010PropOp40
 70
     1
102
RTVSPost2010Prop41ColorIndex
 90
       18
102
RTVSPost2010Prop41ColorRGB
 90
        0
102
RTVSPost2010PropOp41
 70
     1
102
RTVSPost2010Prop42
 90
       50
102
RTVSPost2010PropOp42
 70
     1
102
RTVSPost2010Prop43
 90
        3
102
RTVSPost2010PropOp43
 70
     1
102
RTVSPost2010Prop44ColorIndex
 90
        5
102
RTVSPost2010Prop44ColorRGB
 90
      255
102
RTVSPost2010PropOp44
 70
     1
102
RTVSPost2010Prop45
280
     0
102
RTVSPost2010PropOp45
 70
     1
102
RTVSPost2010Prop46
 90
       50
102
RTVSPost2010PropOp46
 70
     1
102
RTVSPost2010Prop47
 90
       50
102
RTVSPost2010PropOp47
 70
     1
102
RTVSPost2010Prop48
 90
       50
102
RTVSPost2010PropOp48
 70
     1
102
RTVSPost2010Prop49
280
     0
102
RTVSPost2010PropOp49
 70
     1
102
RTVSPost2010Prop50
 90
       50
102
RTVSPost2010PropOp50
 70
     1
102
RTVSPost2010Prop51ColorIndex
 90
      256
102
RTVSPost2010Prop51ColorRGB
 90
-16777216
102
RTVSPost2010PropOp51
 70
     0
102
RTVSPost2010Prop52
140
1.0
102
RTVSPost2010PropOp52
 70
     0
102
RTVSPost2010Prop53
 90
        2
102
RTVSPost2010PropOp53
 70
     1
102
RTVSPost2010Prop54
  1
strokes_ogs.tif
102
RTVSPost2010PropOp54
 70
     1
102
RTVSPost2010Prop55
280
     0
102
RTVSPost2010PropOp55
 70
     1
102
RTVSPost2010Prop56
140
1.0
102
RTVSPost2010PropOp56
 70
     1
102
RTVSPost2010Prop57
140
1.0
102
RTVSPost2010PropOp57
 70
     1
102
RTVSPropertyOp0
 70
     1
102
RTVSPropertyOp1
 70
     1
102
RTVSPropertyOp2
 70
     1
102
RTVSPropertyOp3
 70
     1
102
RTVSPropertyOp4
 70
     1
102
RTVSPropertyOp5
 70
     1
102
RTVSPropertyOp6
 70
     1
102
RTVSPropertyOp7
 70
     1
102
RTVSPropertyOp8
 70
     1
102
RTVSPropertyOp9
 70
     1
102
RTVSPropertyOp10
 70
     1
102
RTVSPropertyOp11
 70
     1
102
RTVSPropertyOp12
 70
     1
102
RTVSPropertyOp13
 70
     1
102
RTVSPropertyOp14
 70
     1
102
RTVSPropertyOp15
 70
     1
102
RTVSPropertyOp16
 70
     1
102
RTVSPropertyOp17
 70
     1
102
RTVSPropertyOp18
 70
     1
102
RTVSPropertyOp19
 70
     1
102
RTVSPropertyOp20
 70
     1
102
RTVSPropertyOp21
 70
     1
102
RTVSPropertyOp22
 70
     1
102
RTVSPropertyOp23
 70
     1
102
RTVSPropertyOp24
 70
     1
102
RTVSPropertyOp25
 70
     1
102
RTVSPropertyOp26
 70
     1
102
RTVSPropertyOp27
 70
     1
102
RTVSPropertyOp28
 70
     1
102
RTVSPropertyOp29
 70
     1
102
RTVSPropertyOp30
 70
     1
102
RTVSPropertyOp31
 70
     1
102
RTVSPropertyOp32
 70
     1
102
RTVSPropertyOp33
 70
     1
102
RTVSPropertyOp34
 70
     1
102
RTVSPropertyOp35
 70
     1
102
RTVSPropertyOp36
 70
     1
102
RTVSPropertyOp37
 70
     1
102
RTVSPropertyOp38
 70
     1
102
RTVSPropertyOp39
 70
     1
102
RTVSPropertyOp40
 70
     1
102
RTVSPropertyOp41
 70
     1
102
RTVSPropertyOp42
 70
     1
102
RTVSPropertyOp43
 70
     1
102
RTVSPropertyOp44
 70
     1
102
RTVSPropertyOp45
 70
     1
102
RTVSPropertyOp46
 70
     1
102
RTVSPropertyOp47
 70
     1
102
RTVSPropertyOp48
 70
     1
102
RTVSPropertyOp49
 70
     1
102
RTVSPropertyOp50
 70
     1
102
RTVSPropertyOp51
 70
     0
102
RTVSPropertyOp52
 70
     0
102
RTVSPropertyOp53
 70
     1
102
RTVSPropertyOp54
 70
     1
102
RTVSPropertyOp55
 70
     1
102
RTVSPropertyOp56
 70
     1
102
RTVSPropertyOp57
 70
     1
102
RTVSPropertyOp58
 70
     1
102
RTVSPropertyOp59
 70
     1
102
RTVSPropertyOp60
 70
     1
102
RTVSPropertyOp61
 70
     1
102
RTVSPropertyOp62
 70
     1
  0
XRECORD
  5
AEE1
102
{ACAD_REACTORS
330
AEE0
102
}
330
AEE0
100
AcDbXrecord
280
     1
102
RTVSPost2010Prop28
280
     0
102
RTVSPost2010PropOp28
 70
     1
102
RTVSPost2010Prop29
280
     1
102
RTVSPost2010PropOp29
 70
     1
102
RTVSPost2010Prop30
280
     1
102
RTVSPost2010PropOp30
 70
     1
102
RTVSPost2010Prop31
280
     0
102
RTVSPost2010PropOp31
 70
     1
102
RTVSPost2010Prop32
280
     0
102
RTVSPost2010PropOp32
 70
     1
102
RTVSPost2010Prop33
280
     0
102
RTVSPost2010PropOp33
 70
     1
102
RTVSPost2010Prop34
280
     0
102
RTVSPost2010PropOp34
 70
     1
102
RTVSPost2010Prop35
280
     0
102
RTVSPost2010PropOp35
 70
     1
102
RTVSPost2010Prop36
280
     0
102
RTVSPost2010PropOp36
 70
     1
102
RTVSPost2010Prop37
 90
       50
102
RTVSPost2010PropOp37
 70
     1
102
RTVSPost2010Prop38
140
0.0
102
RTVSPost2010PropOp38
 70
     1
102
RTVSPost2010Prop39
140
1.0
102
RTVSPost2010PropOp39
 70
     1
102
RTVSPost2010Prop40
 90
        0
102
RTVSPost2010PropOp40
 70
     1
102
RTVSPost2010Prop41ColorIndex
 90
       18
102
RTVSPost2010Prop41ColorRGB
 90
        0
102
RTVSPost2010PropOp41
 70
     1
102
RTVSPost2010Prop42
 90
       50
102
RTVSPost2010PropOp42
 70
     1
102
RTVSPost2010Prop43
 90
        3
102
RTVSPost2010PropOp43
 70
     1
102
RTVSPost2010Prop44ColorIndex
 90
        5
102
RTVSPost2010Prop44ColorRGB
 90
      255
102
RTVSPost2010PropOp44
 70
     1
102
RTVSPost2010Prop45
280
     0
102
RTVSPost2010PropOp45
 70
     1
102
RTVSPost2010Prop46
 90
       50
102
RTVSPost2010PropOp46
 70
     1
102
RTVSPost2010Prop47
 90
       50
102
RTVSPost2010PropOp47
 70
     1
102
RTVSPost2010Prop48
 90
       50
102
RTVSPost2010PropOp48
 70
     1
102
RTVSPost2010Prop49
280
     0
102
RTVSPost2010PropOp49
 70
     1
102
RTVSPost2010Prop50
 90
       50
102
RTVSPost2010PropOp50
 70
     1
102
RTVSPost2010Prop51ColorIndex
 90
      256
102
RTVSPost2010Prop51ColorRGB
 90
-16777216
102
RTVSPost2010PropOp51
 70
     0
102
RTVSPost2010Prop52
140
1.0
102
RTVSPost2010PropOp52
 70
     0
102
RTVSPost2010Prop53
 90
        2
102
RTVSPost2010PropOp53
 70
     1
102
RTVSPost2010Prop54
  1
strokes_ogs.tif
102
RTVSPost2010PropOp54
 70
     1
102
RTVSPost2010Prop55
280
     0
102
RTVSPost2010PropOp55
 70
     1
102
RTVSPost2010Prop56
140
1.0
102
RTVSPost2010PropOp56
 70
     1
102
RTVSPost2010Prop57
140
1.0
102
RTVSPost2010PropOp57
 70
     1
102
RTVSPropertyOp0
 70
     1
102
RTVSPropertyOp1
 70
     1
102
RTVSPropertyOp2
 70
     1
102
RTVSPropertyOp3
 70
     1
102
RTVSPropertyOp4
 70
     1
102
RTVSPropertyOp5
 70
     1
102
RTVSPropertyOp6
 70
     1
102
RTVSPropertyOp7
 70
     1
102
RTVSPropertyOp8
 70
     1
102
RTVSPropertyOp9
 70
     1
102
RTVSPropertyOp10
 70
     1
102
RTVSPropertyOp11
 70
     1
102
RTVSPropertyOp12
 70
     1
102
RTVSPropertyOp13
 70
     1
102
RTVSPropertyOp14
 70
     1
102
RTVSPropertyOp15
 70
     1
102
RTVSPropertyOp16
 70
     1
102
RTVSPropertyOp17
 70
     1
102
RTVSPropertyOp18
 70
     1
102
RTVSPropertyOp19
 70
     1
102
RTVSPropertyOp20
 70
     1
102
RTVSPropertyOp21
 70
     1
102
RTVSPropertyOp22
 70
     1
102
RTVSPropertyOp23
 70
     1
102
RTVSPropertyOp24
 70
     1
102
RTVSPropertyOp25
 70
     1
102
RTVSPropertyOp26
 70
     1
102
RTVSPropertyOp27
 70
     1
102
RTVSPropertyOp28
 70
     1
102
RTVSPropertyOp29
 70
     1
102
RTVSPropertyOp30
 70
     1
102
RTVSPropertyOp31
 70
     1
102
RTVSPropertyOp32
 70
     1
102
RTVSPropertyOp33
 70
     1
102
RTVSPropertyOp34
 70
     1
102
RTVSPropertyOp35
 70
     1
102
RTVSPropertyOp36
 70
     1
102
RTVSPropertyOp37
 70
     1
102
RTVSPropertyOp38
 70
     1
102
RTVSPropertyOp39
 70
     1
102
RTVSPropertyOp40
 70
     1
102
RTVSPropertyOp41
 70
     1
102
RTVSPropertyOp42
 70
     1
102
RTVSPropertyOp43
 70
     1
102
RTVSPropertyOp44
 70
     1
102
RTVSPropertyOp45
 70
     1
102
RTVSPropertyOp46
 70
     1
102
RTVSPropertyOp47
 70
     1
102
RTVSPropertyOp48
 70
     1
102
RTVSPropertyOp49
 70
     1
102
RTVSPropertyOp50
 70
     1
102
RTVSPropertyOp51
 70
     0
102
RTVSPropertyOp52
 70
     0
102
RTVSPropertyOp53
 70
     1
102
RTVSPropertyOp54
 70
     1
102
RTVSPropertyOp55
 70
     1
102
RTVSPropertyOp56
 70
     1
102
RTVSPropertyOp57
 70
     1
102
RTVSPropertyOp58
 70
     1
102
RTVSPropertyOp59
 70
     1
102
RTVSPropertyOp60
 70
     1
102
RTVSPropertyOp61
 70
     1
102
RTVSPropertyOp62
 70
     1
  0
XRECORD
  5
AEFD
102
{ACAD_REACTORS
330
AEFC
102
}
330
AEFC
100
AcDbXrecord
280
     1
102
RTVSPost2010Prop28
280
     0
102
RTVSPost2010PropOp28
 70
     1
102
RTVSPost2010Prop29
280
     1
102
RTVSPost2010PropOp29
 70
     1
102
RTVSPost2010Prop30
280
     1
102
RTVSPost2010PropOp30
 70
     1
102
RTVSPost2010Prop31
280
     0
102
RTVSPost2010PropOp31
 70
     1
102
RTVSPost2010Prop32
280
     0
102
RTVSPost2010PropOp32
 70
     1
102
RTVSPost2010Prop33
280
     0
102
RTVSPost2010PropOp33
 70
     1
102
RTVSPost2010Prop34
280
     0
102
RTVSPost2010PropOp34
 70
     1
102
RTVSPost2010Prop35
280
     0
102
RTVSPost2010PropOp35
 70
     1
102
RTVSPost2010Prop36
280
     0
102
RTVSPost2010PropOp36
 70
     1
102
RTVSPost2010Prop37
 90
       50
102
RTVSPost2010PropOp37
 70
     0
102
RTVSPost2010Prop38
140
0.0
102
RTVSPost2010PropOp38
 70
     0
102
RTVSPost2010Prop39
140
1.0
102
RTVSPost2010PropOp39
 70
     0
102
RTVSPost2010Prop40
 90
        0
102
RTVSPost2010PropOp40
 70
     0
102
RTVSPost2010Prop41ColorIndex
 90
       18
102
RTVSPost2010Prop41ColorRGB
 90
        0
102
RTVSPost2010PropOp41
 70
     0
102
RTVSPost2010Prop42
 90
       50
102
RTVSPost2010PropOp42
 70
     0
102
RTVSPost2010Prop43
 90
        3
102
RTVSPost2010PropOp43
 70
     0
102
RTVSPost2010Prop44ColorIndex
 90
        5
102
RTVSPost2010Prop44ColorRGB
 90
      255
102
RTVSPost2010PropOp44
 70
     0
102
RTVSPost2010Prop45
280
     0
102
RTVSPost2010PropOp45
 70
     1
102
RTVSPost2010Prop46
 90
       50
102
RTVSPost2010PropOp46
 70
     0
102
RTVSPost2010Prop47
 90
       50
102
RTVSPost2010PropOp47
 70
     0
102
RTVSPost2010Prop48
 90
       50
102
RTVSPost2010PropOp48
 70
     0
102
RTVSPost2010Prop49
280
     0
102
RTVSPost2010PropOp49
 70
     1
102
RTVSPost2010Prop50
 90
       50
102
RTVSPost2010PropOp50
 70
     0
102
RTVSPost2010Prop51ColorIndex
 90
      256
102
RTVSPost2010Prop51ColorRGB
 90
-16777216
102
RTVSPost2010PropOp51
 70
     0
102
RTVSPost2010Prop52
140
1.0
102
RTVSPost2010PropOp52
 70
     0
102
RTVSPost2010Prop53
 90
        2
102
RTVSPost2010PropOp53
 70
     0
102
RTVSPost2010Prop54
  1
strokes_ogs.tif
102
RTVSPost2010PropOp54
 70
     0
102
RTVSPost2010Prop55
280
     0
102
RTVSPost2010PropOp55
 70
     1
102
RTVSPost2010Prop56
140
1.0
102
RTVSPost2010PropOp56
 70
     0
102
RTVSPost2010Prop57
140
1.0
102
RTVSPost2010PropOp57
 70
     0
102
RTVSPropertyOp0
 70
     0
102
RTVSPropertyOp1
 70
     0
102
RTVSPropertyOp2
 70
     0
102
RTVSPropertyOp3
 70
     0
102
RTVSPropertyOp4
 70
     0
102
RTVSPropertyOp5
 70
     0
102
RTVSPropertyOp6
 70
     0
102
RTVSPropertyOp7
 70
     0
102
RTVSPropertyOp8
 70
     0
102
RTVSPropertyOp9
 70
     0
102
RTVSPropertyOp10
 70
     0
102
RTVSPropertyOp11
 70
     0
102
RTVSPropertyOp12
 70
     0
102
RTVSPropertyOp13
 70
     0
102
RTVSPropertyOp14
 70
     2
102
RTVSPropertyOp15
 70
     0
102
RTVSPropertyOp16
 70
     0
102
RTVSPropertyOp17
 70
     0
102
RTVSPropertyOp18
 70
     0
102
RTVSPropertyOp19
 70
     0
102
RTVSPropertyOp20
 70
     0
102
RTVSPropertyOp21
 70
     0
102
RTVSPropertyOp22
 70
     0
102
RTVSPropertyOp23
 70
     0
102
RTVSPropertyOp24
 70
     0
102
RTVSPropertyOp25
 70
     0
102
RTVSPropertyOp26
 70
     0
102
RTVSPropertyOp27
 70
     0
102
RTVSPropertyOp28
 70
     1
102
RTVSPropertyOp29
 70
     1
102
RTVSPropertyOp30
 70
     1
102
RTVSPropertyOp31
 70
     1
102
RTVSPropertyOp32
 70
     1
102
RTVSPropertyOp33
 70
     1
102
RTVSPropertyOp34
 70
     1
102
RTVSPropertyOp35
 70
     1
102
RTVSPropertyOp36
 70
     1
102
RTVSPropertyOp37
 70
     0
102
RTVSPropertyOp38
 70
     0
102
RTVSPropertyOp39
 70
     0
102
RTVSPropertyOp40
 70
     0
102
RTVSPropertyOp41
 70
     0
102
RTVSPropertyOp42
 70
     0
102
RTVSPropertyOp43
 70
     0
102
RTVSPropertyOp44
 70
     0
102
RTVSPropertyOp45
 70
     1
102
RTVSPropertyOp46
 70
     0
102
RTVSPropertyOp47
 70
     0
102
RTVSPropertyOp48
 70
     0
102
RTVSPropertyOp49
 70
     1
102
RTVSPropertyOp50
 70
     0
102
RTVSPropertyOp51
 70
     0
102
RTVSPropertyOp52
 70
     0
102
RTVSPropertyOp53
 70
     0
102
RTVSPropertyOp54
 70
     0
102
RTVSPropertyOp55
 70
     1
102
RTVSPropertyOp56
 70
     0
102
RTVSPropertyOp57
 70
     0
102
RTVSPropertyOp58
 70
     0
102
RTVSPropertyOp59
 70
     0
102
RTVSPropertyOp60
 70
     0
102
RTVSPropertyOp61
 70
     0
102
RTVSPropertyOp62
 70
     0
  0
XRECORD
  5
AEED
102
{ACAD_REACTORS
330
AEEC
102
}
330
AEEC
100
AcDbXrecord
280
     1
102
RTVSPost2010Prop28
280
     0
102
RTVSPost2010PropOp28
 70
     1
102
RTVSPost2010Prop29
280
     1
102
RTVSPost2010PropOp29
 70
     1
102
RTVSPost2010Prop30
280
     1
102
RTVSPost2010PropOp30
 70
     1
102
RTVSPost2010Prop31
280
     0
102
RTVSPost2010PropOp31
 70
     1
102
RTVSPost2010Prop32
280
     0
102
RTVSPost2010PropOp32
 70
     1
102
RTVSPost2010Prop33
280
     0
102
RTVSPost2010PropOp33
 70
     1
102
RTVSPost2010Prop34
280
     0
102
RTVSPost2010PropOp34
 70
     1
102
RTVSPost2010Prop35
280
     0
102
RTVSPost2010PropOp35
 70
     1
102
RTVSPost2010Prop36
280
     0
102
RTVSPost2010PropOp36
 70
     1
102
RTVSPost2010Prop37
 90
       50
102
RTVSPost2010PropOp37
 70
     1
102
RTVSPost2010Prop38
140
0.0
102
RTVSPost2010PropOp38
 70
     1
102
RTVSPost2010Prop39
140
1.0
102
RTVSPost2010PropOp39
 70
     1
102
RTVSPost2010Prop40
 90
        0
102
RTVSPost2010PropOp40
 70
     1
102
RTVSPost2010Prop41ColorIndex
 90
       18
102
RTVSPost2010Prop41ColorRGB
 90
        0
102
RTVSPost2010PropOp41
 70
     1
102
RTVSPost2010Prop42
 90
       50
102
RTVSPost2010PropOp42
 70
     1
102
RTVSPost2010Prop43
 90
        3
102
RTVSPost2010PropOp43
 70
     1
102
RTVSPost2010Prop44ColorIndex
 90
        5
102
RTVSPost2010Prop44ColorRGB
 90
      255
102
RTVSPost2010PropOp44
 70
     1
102
RTVSPost2010Prop45
280
     0
102
RTVSPost2010PropOp45
 70
     1
102
RTVSPost2010Prop46
 90
       50
102
RTVSPost2010PropOp46
 70
     1
102
RTVSPost2010Prop47
 90
       50
102
RTVSPost2010PropOp47
 70
     1
102
RTVSPost2010Prop48
 90
       50
102
RTVSPost2010PropOp48
 70
     1
102
RTVSPost2010Prop49
280
     0
102
RTVSPost2010PropOp49
 70
     1
102
RTVSPost2010Prop50
 90
       50
102
RTVSPost2010PropOp50
 70
     1
102
RTVSPost2010Prop51ColorIndex
 90
      256
102
RTVSPost2010Prop51ColorRGB
 90
-16777216
102
RTVSPost2010PropOp51
 70
     0
102
RTVSPost2010Prop52
140
1.0
102
RTVSPost2010PropOp52
 70
     0
102
RTVSPost2010Prop53
 90
        2
102
RTVSPost2010PropOp53
 70
     1
102
RTVSPost2010Prop54
  1
strokes_ogs.tif
102
RTVSPost2010PropOp54
 70
     1
102
RTVSPost2010Prop55
280
     0
102
RTVSPost2010PropOp55
 70
     1
102
RTVSPost2010Prop56
140
1.0
102
RTVSPost2010PropOp56
 70
     1
102
RTVSPost2010Prop57
140
1.0
102
RTVSPost2010PropOp57
 70
     1
102
RTVSPropertyOp0
 70
     1
102
RTVSPropertyOp1
 70
     1
102
RTVSPropertyOp2
 70
     1
102
RTVSPropertyOp3
 70
     1
102
RTVSPropertyOp4
 70
     1
102
RTVSPropertyOp5
 70
     1
102
RTVSPropertyOp6
 70
     1
102
RTVSPropertyOp7
 70
     1
102
RTVSPropertyOp8
 70
     1
102
RTVSPropertyOp9
 70
     1
102
RTVSPropertyOp10
 70
     1
102
RTVSPropertyOp11
 70
     1
102
RTVSPropertyOp12
 70
     1
102
RTVSPropertyOp13
 70
     1
102
RTVSPropertyOp14
 70
     1
102
RTVSPropertyOp15
 70
     1
102
RTVSPropertyOp16
 70
     1
102
RTVSPropertyOp17
 70
     1
102
RTVSPropertyOp18
 70
     1
102
RTVSPropertyOp19
 70
     1
102
RTVSPropertyOp20
 70
     1
102
RTVSPropertyOp21
 70
     1
102
RTVSPropertyOp22
 70
     1
102
RTVSPropertyOp23
 70
     1
102
RTVSPropertyOp24
 70
     1
102
RTVSPropertyOp25
 70
     1
102
RTVSPropertyOp26
 70
     1
102
RTVSPropertyOp27
 70
     1
102
RTVSPropertyOp28
 70
     1
102
RTVSPropertyOp29
 70
     1
102
RTVSPropertyOp30
 70
     1
102
RTVSPropertyOp31
 70
     1
102
RTVSPropertyOp32
 70
     1
102
RTVSPropertyOp33
 70
     1
102
RTVSPropertyOp34
 70
     1
102
RTVSPropertyOp35
 70
     1
102
RTVSPropertyOp36
 70
     1
102
RTVSPropertyOp37
 70
     1
102
RTVSPropertyOp38
 70
     1
102
RTVSPropertyOp39
 70
     1
102
RTVSPropertyOp40
 70
     1
102
RTVSPropertyOp41
 70
     1
102
RTVSPropertyOp42
 70
     1
102
RTVSPropertyOp43
 70
     1
102
RTVSPropertyOp44
 70
     1
102
RTVSPropertyOp45
 70
     1
102
RTVSPropertyOp46
 70
     1
102
RTVSPropertyOp47
 70
     1
102
RTVSPropertyOp48
 70
     1
102
RTVSPropertyOp49
 70
     1
102
RTVSPropertyOp50
 70
     1
102
RTVSPropertyOp51
 70
     0
102
RTVSPropertyOp52
 70
     0
102
RTVSPropertyOp53
 70
     1
102
RTVSPropertyOp54
 70
     1
102
RTVSPropertyOp55
 70
     1
102
RTVSPropertyOp56
 70
     1
102
RTVSPropertyOp57
 70
     1
102
RTVSPropertyOp58
 70
     1
102
RTVSPropertyOp59
 70
     1
102
RTVSPropertyOp60
 70
     1
102
RTVSPropertyOp61
 70
     1
102
RTVSPropertyOp62
 70
     1
  0
XRECORD
  5
AEFF
102
{ACAD_REACTORS
330
AEFE
102
}
330
AEFE
100
AcDbXrecord
280
     1
102
RTVSPost2010Prop28
280
     0
102
RTVSPost2010PropOp28
 70
     1
102
RTVSPost2010Prop29
280
     1
102
RTVSPost2010PropOp29
 70
     1
102
RTVSPost2010Prop30
280
     1
102
RTVSPost2010PropOp30
 70
     1
102
RTVSPost2010Prop31
280
     0
102
RTVSPost2010PropOp31
 70
     1
102
RTVSPost2010Prop32
280
     0
102
RTVSPost2010PropOp32
 70
     1
102
RTVSPost2010Prop33
280
     0
102
RTVSPost2010PropOp33
 70
     1
102
RTVSPost2010Prop34
280
     0
102
RTVSPost2010PropOp34
 70
     1
102
RTVSPost2010Prop35
280
     0
102
RTVSPost2010PropOp35
 70
     1
102
RTVSPost2010Prop36
280
     0
102
RTVSPost2010PropOp36
 70
     1
102
RTVSPost2010Prop37
 90
       50
102
RTVSPost2010PropOp37
 70
     0
102
RTVSPost2010Prop38
140
0.0
102
RTVSPost2010PropOp38
 70
     0
102
RTVSPost2010Prop39
140
1.0
102
RTVSPost2010PropOp39
 70
     0
102
RTVSPost2010Prop40
 90
        0
102
RTVSPost2010PropOp40
 70
     0
102
RTVSPost2010Prop41ColorIndex
 90
       18
102
RTVSPost2010Prop41ColorRGB
 90
        0
102
RTVSPost2010PropOp41
 70
     0
102
RTVSPost2010Prop42
 90
       50
102
RTVSPost2010PropOp42
 70
     0
102
RTVSPost2010Prop43
 90
        3
102
RTVSPost2010PropOp43
 70
     0
102
RTVSPost2010Prop44ColorIndex
 90
        5
102
RTVSPost2010Prop44ColorRGB
 90
      255
102
RTVSPost2010PropOp44
 70
     0
102
RTVSPost2010Prop45
280
     0
102
RTVSPost2010PropOp45
 70
     1
102
RTVSPost2010Prop46
 90
       50
102
RTVSPost2010PropOp46
 70
     0
102
RTVSPost2010Prop47
 90
       50
102
RTVSPost2010PropOp47
 70
     0
102
RTVSPost2010Prop48
 90
       50
102
RTVSPost2010PropOp48
 70
     0
102
RTVSPost2010Prop49
280
     0
102
RTVSPost2010PropOp49
 70
     1
102
RTVSPost2010Prop50
 90
       50
102
RTVSPost2010PropOp50
 70
     0
102
RTVSPost2010Prop51ColorIndex
 90
      256
102
RTVSPost2010Prop51ColorRGB
 90
-16777216
102
RTVSPost2010PropOp51
 70
     0
102
RTVSPost2010Prop52
140
1.0
102
RTVSPost2010PropOp52
 70
     0
102
RTVSPost2010Prop53
 90
        2
102
RTVSPost2010PropOp53
 70
     0
102
RTVSPost2010Prop54
  1
strokes_ogs.tif
102
RTVSPost2010PropOp54
 70
     0
102
RTVSPost2010Prop55
280
     0
102
RTVSPost2010PropOp55
 70
     1
102
RTVSPost2010Prop56
140
1.0
102
RTVSPost2010PropOp56
 70
     0
102
RTVSPost2010Prop57
140
1.0
102
RTVSPost2010PropOp57
 70
     0
102
RTVSPropertyOp0
 70
     0
102
RTVSPropertyOp1
 70
     0
102
RTVSPropertyOp2
 70
     0
102
RTVSPropertyOp3
 70
     0
102
RTVSPropertyOp4
 70
     0
102
RTVSPropertyOp5
 70
     0
102
RTVSPropertyOp6
 70
     0
102
RTVSPropertyOp7
 70
     0
102
RTVSPropertyOp8
 70
     0
102
RTVSPropertyOp9
 70
     0
102
RTVSPropertyOp10
 70
     0
102
RTVSPropertyOp11
 70
     0
102
RTVSPropertyOp12
 70
     0
102
RTVSPropertyOp13
 70
     0
102
RTVSPropertyOp14
 70
     2
102
RTVSPropertyOp15
 70
     0
102
RTVSPropertyOp16
 70
     0
102
RTVSPropertyOp17
 70
     0
102
RTVSPropertyOp18
 70
     0
102
RTVSPropertyOp19
 70
     0
102
RTVSPropertyOp20
 70
     0
102
RTVSPropertyOp21
 70
     0
102
RTVSPropertyOp22
 70
     0
102
RTVSPropertyOp23
 70
     0
102
RTVSPropertyOp24
 70
     0
102
RTVSPropertyOp25
 70
     0
102
RTVSPropertyOp26
 70
     0
102
RTVSPropertyOp27
 70
     0
102
RTVSPropertyOp28
 70
     1
102
RTVSPropertyOp29
 70
     1
102
RTVSPropertyOp30
 70
     1
102
RTVSPropertyOp31
 70
     1
102
RTVSPropertyOp32
 70
     1
102
RTVSPropertyOp33
 70
     1
102
RTVSPropertyOp34
 70
     1
102
RTVSPropertyOp35
 70
     1
102
RTVSPropertyOp36
 70
     1
102
RTVSPropertyOp37
 70
     0
102
RTVSPropertyOp38
 70
     0
102
RTVSPropertyOp39
 70
     0
102
RTVSPropertyOp40
 70
     0
102
RTVSPropertyOp41
 70
     0
102
RTVSPropertyOp42
 70
     0
102
RTVSPropertyOp43
 70
     0
102
RTVSPropertyOp44
 70
     0
102
RTVSPropertyOp45
 70
     1
102
RTVSPropertyOp46
 70
     0
102
RTVSPropertyOp47
 70
     0
102
RTVSPropertyOp48
 70
     0
102
RTVSPropertyOp49
 70
     1
102
RTVSPropertyOp50
 70
     0
102
RTVSPropertyOp51
 70
     0
102
RTVSPropertyOp52
 70
     0
102
RTVSPropertyOp53
 70
     0
102
RTVSPropertyOp54
 70
     0
102
RTVSPropertyOp55
 70
     1
102
RTVSPropertyOp56
 70
     0
102
RTVSPropertyOp57
 70
     0
102
RTVSPropertyOp58
 70
     0
102
RTVSPropertyOp59
 70
     0
102
RTVSPropertyOp60
 70
     0
102
RTVSPropertyOp61
 70
     0
102
RTVSPropertyOp62
 70
     0
  0
XRECORD
  5
AEE5
102
{ACAD_REACTORS
330
AEE4
102
}
330
AEE4
100
AcDbXrecord
280
     1
102
RTVSPost2010Prop28
280
     0
102
RTVSPost2010PropOp28
 70
     1
102
RTVSPost2010Prop29
280
     1
102
RTVSPost2010PropOp29
 70
     1
102
RTVSPost2010Prop30
280
     1
102
RTVSPost2010PropOp30
 70
     1
102
RTVSPost2010Prop31
280
     0
102
RTVSPost2010PropOp31
 70
     1
102
RTVSPost2010Prop32
280
     0
102
RTVSPost2010PropOp32
 70
     1
102
RTVSPost2010Prop33
280
     0
102
RTVSPost2010PropOp33
 70
     1
102
RTVSPost2010Prop34
280
     0
102
RTVSPost2010PropOp34
 70
     1
102
RTVSPost2010Prop35
280
     0
102
RTVSPost2010PropOp35
 70
     1
102
RTVSPost2010Prop36
280
     0
102
RTVSPost2010PropOp36
 70
     1
102
RTVSPost2010Prop37
 90
       50
102
RTVSPost2010PropOp37
 70
     1
102
RTVSPost2010Prop38
140
0.0
102
RTVSPost2010PropOp38
 70
     1
102
RTVSPost2010Prop39
140
1.0
102
RTVSPost2010PropOp39
 70
     1
102
RTVSPost2010Prop40
 90
        0
102
RTVSPost2010PropOp40
 70
     1
102
RTVSPost2010Prop41ColorIndex
 90
       18
102
RTVSPost2010Prop41ColorRGB
 90
        0
102
RTVSPost2010PropOp41
 70
     1
102
RTVSPost2010Prop42
 90
       50
102
RTVSPost2010PropOp42
 70
     1
102
RTVSPost2010Prop43
 90
        3
102
RTVSPost2010PropOp43
 70
     1
102
RTVSPost2010Prop44ColorIndex
 90
        5
102
RTVSPost2010Prop44ColorRGB
 90
      255
102
RTVSPost2010PropOp44
 70
     1
102
RTVSPost2010Prop45
280
     0
102
RTVSPost2010PropOp45
 70
     1
102
RTVSPost2010Prop46
 90
       50
102
RTVSPost2010PropOp46
 70
     1
102
RTVSPost2010Prop47
 90
       50
102
RTVSPost2010PropOp47
 70
     1
102
RTVSPost2010Prop48
 90
       50
102
RTVSPost2010PropOp48
 70
     1
102
RTVSPost2010Prop49
280
     0
102
RTVSPost2010PropOp49
 70
     1
102
RTVSPost2010Prop50
 90
       50
102
RTVSPost2010PropOp50
 70
     1
102
RTVSPost2010Prop51ColorIndex
 90
      256
102
RTVSPost2010Prop51ColorRGB
 90
-16777216
102
RTVSPost2010PropOp51
 70
     0
102
RTVSPost2010Prop52
140
1.0
102
RTVSPost2010PropOp52
 70
     0
102
RTVSPost2010Prop53
 90
        2
102
RTVSPost2010PropOp53
 70
     1
102
RTVSPost2010Prop54
  1
strokes_ogs.tif
102
RTVSPost2010PropOp54
 70
     1
102
RTVSPost2010Prop55
280
     0
102
RTVSPost2010PropOp55
 70
     1
102
RTVSPost2010Prop56
140
1.0
102
RTVSPost2010PropOp56
 70
     1
102
RTVSPost2010Prop57
140
1.0
102
RTVSPost2010PropOp57
 70
     1
102
RTVSPropertyOp0
 70
     1
102
RTVSPropertyOp1
 70
     1
102
RTVSPropertyOp2
 70
     1
102
RTVSPropertyOp3
 70
     1
102
RTVSPropertyOp4
 70
     1
102
RTVSPropertyOp5
 70
     1
102
RTVSPropertyOp6
 70
     1
102
RTVSPropertyOp7
 70
     1
102
RTVSPropertyOp8
 70
     1
102
RTVSPropertyOp9
 70
     1
102
RTVSPropertyOp10
 70
     1
102
RTVSPropertyOp11
 70
     1
102
RTVSPropertyOp12
 70
     1
102
RTVSPropertyOp13
 70
     1
102
RTVSPropertyOp14
 70
     1
102
RTVSPropertyOp15
 70
     1
102
RTVSPropertyOp16
 70
     1
102
RTVSPropertyOp17
 70
     1
102
RTVSPropertyOp18
 70
     1
102
RTVSPropertyOp19
 70
     1
102
RTVSPropertyOp20
 70
     1
102
RTVSPropertyOp21
 70
     1
102
RTVSPropertyOp22
 70
     1
102
RTVSPropertyOp23
 70
     1
102
RTVSPropertyOp24
 70
     1
102
RTVSPropertyOp25
 70
     1
102
RTVSPropertyOp26
 70
     1
102
RTVSPropertyOp27
 70
     1
102
RTVSPropertyOp28
 70
     1
102
RTVSPropertyOp29
 70
     1
102
RTVSPropertyOp30
 70
     1
102
RTVSPropertyOp31
 70
     1
102
RTVSPropertyOp32
 70
     1
102
RTVSPropertyOp33
 70
     1
102
RTVSPropertyOp34
 70
     1
102
RTVSPropertyOp35
 70
     1
102
RTVSPropertyOp36
 70
     1
102
RTVSPropertyOp37
 70
     1
102
RTVSPropertyOp38
 70
     1
102
RTVSPropertyOp39
 70
     1
102
RTVSPropertyOp40
 70
     1
102
RTVSPropertyOp41
 70
     1
102
RTVSPropertyOp42
 70
     1
102
RTVSPropertyOp43
 70
     1
102
RTVSPropertyOp44
 70
     1
102
RTVSPropertyOp45
 70
     1
102
RTVSPropertyOp46
 70
     1
102
RTVSPropertyOp47
 70
     1
102
RTVSPropertyOp48
 70
     1
102
RTVSPropertyOp49
 70
     1
102
RTVSPropertyOp50
 70
     1
102
RTVSPropertyOp51
 70
     0
102
RTVSPropertyOp52
 70
     0
102
RTVSPropertyOp53
 70
     1
102
RTVSPropertyOp54
 70
     1
102
RTVSPropertyOp55
 70
     1
102
RTVSPropertyOp56
 70
     1
102
RTVSPropertyOp57
 70
     1
102
RTVSPropertyOp58
 70
     1
102
RTVSPropertyOp59
 70
     1
102
RTVSPropertyOp60
 70
     1
102
RTVSPropertyOp61
 70
     1
102
RTVSPropertyOp62
 70
     1
  0
XRECORD
  5
AEFB
102
{ACAD_REACTORS
330
AEFA
102
}
330
AEFA
100
AcDbXrecord
280
     1
102
RTVSPost2010Prop28
280
     0
102
RTVSPost2010PropOp28
 70
     1
102
RTVSPost2010Prop29
280
     1
102
RTVSPost2010PropOp29
 70
     1
102
RTVSPost2010Prop30
280
     1
102
RTVSPost2010PropOp30
 70
     1
102
RTVSPost2010Prop31
280
     0
102
RTVSPost2010PropOp31
 70
     1
102
RTVSPost2010Prop32
280
     0
102
RTVSPost2010PropOp32
 70
     1
102
RTVSPost2010Prop33
280
     0
102
RTVSPost2010PropOp33
 70
     1
102
RTVSPost2010Prop34
280
     0
102
RTVSPost2010PropOp34
 70
     1
102
RTVSPost2010Prop35
280
     0
102
RTVSPost2010PropOp35
 70
     1
102
RTVSPost2010Prop36
280
     0
102
RTVSPost2010PropOp36
 70
     1
102
RTVSPost2010Prop37
 90
       50
102
RTVSPost2010PropOp37
 70
     1
102
RTVSPost2010Prop38
140
0.0
102
RTVSPost2010PropOp38
 70
     1
102
RTVSPost2010Prop39
140
1.0
102
RTVSPost2010PropOp39
 70
     1
102
RTVSPost2010Prop40
 90
        0
102
RTVSPost2010PropOp40
 70
     1
102
RTVSPost2010Prop41ColorIndex
 90
       18
102
RTVSPost2010Prop41ColorRGB
 90
        0
102
RTVSPost2010PropOp41
 70
     1
102
RTVSPost2010Prop42
 90
       50
102
RTVSPost2010PropOp42
 70
     1
102
RTVSPost2010Prop43
 90
        3
102
RTVSPost2010PropOp43
 70
     1
102
RTVSPost2010Prop44ColorIndex
 90
        5
102
RTVSPost2010Prop44ColorRGB
 90
      255
102
RTVSPost2010PropOp44
 70
     1
102
RTVSPost2010Prop45
280
     0
102
RTVSPost2010PropOp45
 70
     1
102
RTVSPost2010Prop46
 90
       50
102
RTVSPost2010PropOp46
 70
     1
102
RTVSPost2010Prop47
 90
       50
102
RTVSPost2010PropOp47
 70
     1
102
RTVSPost2010Prop48
 90
       50
102
RTVSPost2010PropOp48
 70
     1
102
RTVSPost2010Prop49
280
     0
102
RTVSPost2010PropOp49
 70
     1
102
RTVSPost2010Prop50
 90
       50
102
RTVSPost2010PropOp50
 70
     1
102
RTVSPost2010Prop51ColorIndex
 90
      256
102
RTVSPost2010Prop51ColorRGB
 90
-16777216
102
RTVSPost2010PropOp51
 70
     0
102
RTVSPost2010Prop52
140
1.0
102
RTVSPost2010PropOp52
 70
     0
102
RTVSPost2010Prop53
 90
        2
102
RTVSPost2010PropOp53
 70
     1
102
RTVSPost2010Prop54
  1
strokes_ogs.tif
102
RTVSPost2010PropOp54
 70
     1
102
RTVSPost2010Prop55
280
     0
102
RTVSPost2010PropOp55
 70
     1
102
RTVSPost2010Prop56
140
1.0
102
RTVSPost2010PropOp56
 70
     1
102
RTVSPost2010Prop57
140
1.0
102
RTVSPost2010PropOp57
 70
     1
102
RTVSPropertyOp0
 70
     1
102
RTVSPropertyOp1
 70
     1
102
RTVSPropertyOp2
 70
     1
102
RTVSPropertyOp3
 70
     1
102
RTVSPropertyOp4
 70
     1
102
RTVSPropertyOp5
 70
     1
102
RTVSPropertyOp6
 70
     1
102
RTVSPropertyOp7
 70
     1
102
RTVSPropertyOp8
 70
     1
102
RTVSPropertyOp9
 70
     1
102
RTVSPropertyOp10
 70
     1
102
RTVSPropertyOp11
 70
     1
102
RTVSPropertyOp12
 70
     1
102
RTVSPropertyOp13
 70
     1
102
RTVSPropertyOp14
 70
     1
102
RTVSPropertyOp15
 70
     1
102
RTVSPropertyOp16
 70
     1
102
RTVSPropertyOp17
 70
     1
102
RTVSPropertyOp18
 70
     1
102
RTVSPropertyOp19
 70
     1
102
RTVSPropertyOp20
 70
     1
102
RTVSPropertyOp21
 70
     1
102
RTVSPropertyOp22
 70
     1
102
RTVSPropertyOp23
 70
     1
102
RTVSPropertyOp24
 70
     1
102
RTVSPropertyOp25
 70
     1
102
RTVSPropertyOp26
 70
     1
102
RTVSPropertyOp27
 70
     1
102
RTVSPropertyOp28
 70
     1
102
RTVSPropertyOp29
 70
     1
102
RTVSPropertyOp30
 70
     1
102
RTVSPropertyOp31
 70
     1
102
RTVSPropertyOp32
 70
     1
102
RTVSPropertyOp33
 70
     1
102
RTVSPropertyOp34
 70
     1
102
RTVSPropertyOp35
 70
     1
102
RTVSPropertyOp36
 70
     1
102
RTVSPropertyOp37
 70
     1
102
RTVSPropertyOp38
 70
     1
102
RTVSPropertyOp39
 70
     1
102
RTVSPropertyOp40
 70
     1
102
RTVSPropertyOp41
 70
     1
102
RTVSPropertyOp42
 70
     1
102
RTVSPropertyOp43
 70
     1
102
RTVSPropertyOp44
 70
     1
102
RTVSPropertyOp45
 70
     1
102
RTVSPropertyOp46
 70
     1
102
RTVSPropertyOp47
 70
     1
102
RTVSPropertyOp48
 70
     1
102
RTVSPropertyOp49
 70
     1
102
RTVSPropertyOp50
 70
     1
102
RTVSPropertyOp51
 70
     0
102
RTVSPropertyOp52
 70
     0
102
RTVSPropertyOp53
 70
     1
102
RTVSPropertyOp54
 70
     1
102
RTVSPropertyOp55
 70
     1
102
RTVSPropertyOp56
 70
     1
102
RTVSPropertyOp57
 70
     1
102
RTVSPropertyOp58
 70
     1
102
RTVSPropertyOp59
 70
     1
102
RTVSPropertyOp60
 70
     1
102
RTVSPropertyOp61
 70
     1
102
RTVSPropertyOp62
 70
     1
  0
XRECORD
  5
AEF9
102
{ACAD_REACTORS
330
AEF8
102
}
330
AEF8
100
AcDbXrecord
280
     1
102
RTVSPost2010Prop28
280
     0
102
RTVSPost2010PropOp28
 70
     1
102
RTVSPost2010Prop29
280
     1
102
RTVSPost2010PropOp29
 70
     1
102
RTVSPost2010Prop30
280
     1
102
RTVSPost2010PropOp30
 70
     1
102
RTVSPost2010Prop31
280
     0
102
RTVSPost2010PropOp31
 70
     1
102
RTVSPost2010Prop32
280
     0
102
RTVSPost2010PropOp32
 70
     1
102
RTVSPost2010Prop33
280
     0
102
RTVSPost2010PropOp33
 70
     1
102
RTVSPost2010Prop34
280
     0
102
RTVSPost2010PropOp34
 70
     1
102
RTVSPost2010Prop35
280
     0
102
RTVSPost2010PropOp35
 70
     1
102
RTVSPost2010Prop36
280
     0
102
RTVSPost2010PropOp36
 70
     1
102
RTVSPost2010Prop37
 90
       50
102
RTVSPost2010PropOp37
 70
     1
102
RTVSPost2010Prop38
140
0.0
102
RTVSPost2010PropOp38
 70
     1
102
RTVSPost2010Prop39
140
1.0
102
RTVSPost2010PropOp39
 70
     1
102
RTVSPost2010Prop40
 90
        0
102
RTVSPost2010PropOp40
 70
     1
102
RTVSPost2010Prop41ColorIndex
 90
       18
102
RTVSPost2010Prop41ColorRGB
 90
        0
102
RTVSPost2010PropOp41
 70
     1
102
RTVSPost2010Prop42
 90
       50
102
RTVSPost2010PropOp42
 70
     1
102
RTVSPost2010Prop43
 90
        3
102
RTVSPost2010PropOp43
 70
     1
102
RTVSPost2010Prop44ColorIndex
 90
        5
102
RTVSPost2010Prop44ColorRGB
 90
      255
102
RTVSPost2010PropOp44
 70
     1
102
RTVSPost2010Prop45
280
     0
102
RTVSPost2010PropOp45
 70
     1
102
RTVSPost2010Prop46
 90
       50
102
RTVSPost2010PropOp46
 70
     1
102
RTVSPost2010Prop47
 90
       50
102
RTVSPost2010PropOp47
 70
     1
102
RTVSPost2010Prop48
 90
       50
102
RTVSPost2010PropOp48
 70
     1
102
RTVSPost2010Prop49
280
     0
102
RTVSPost2010PropOp49
 70
     1
102
RTVSPost2010Prop50
 90
       50
102
RTVSPost2010PropOp50
 70
     1
102
RTVSPost2010Prop51ColorIndex
 90
      256
102
RTVSPost2010Prop51ColorRGB
 90
-16777216
102
RTVSPost2010PropOp51
 70
     0
102
RTVSPost2010Prop52
140
1.0
102
RTVSPost2010PropOp52
 70
     0
102
RTVSPost2010Prop53
 90
        2
102
RTVSPost2010PropOp53
 70
     1
102
RTVSPost2010Prop54
  1
strokes_ogs.tif
102
RTVSPost2010PropOp54
 70
     1
102
RTVSPost2010Prop55
280
     0
102
RTVSPost2010PropOp55
 70
     1
102
RTVSPost2010Prop56
140
1.0
102
RTVSPost2010PropOp56
 70
     1
102
RTVSPost2010Prop57
140
1.0
102
RTVSPost2010PropOp57
 70
     1
102
RTVSPropertyOp0
 70
     1
102
RTVSPropertyOp1
 70
     1
102
RTVSPropertyOp2
 70
     1
102
RTVSPropertyOp3
 70
     1
102
RTVSPropertyOp4
 70
     1
102
RTVSPropertyOp5
 70
     1
102
RTVSPropertyOp6
 70
     1
102
RTVSPropertyOp7
 70
     1
102
RTVSPropertyOp8
 70
     1
102
RTVSPropertyOp9
 70
     1
102
RTVSPropertyOp10
 70
     1
102
RTVSPropertyOp11
 70
     1
102
RTVSPropertyOp12
 70
     1
102
RTVSPropertyOp13
 70
     1
102
RTVSPropertyOp14
 70
     1
102
RTVSPropertyOp15
 70
     1
102
RTVSPropertyOp16
 70
     1
102
RTVSPropertyOp17
 70
     1
102
RTVSPropertyOp18
 70
     1
102
RTVSPropertyOp19
 70
     1
102
RTVSPropertyOp20
 70
     1
102
RTVSPropertyOp21
 70
     1
102
RTVSPropertyOp22
 70
     1
102
RTVSPropertyOp23
 70
     1
102
RTVSPropertyOp24
 70
     1
102
RTVSPropertyOp25
 70
     1
102
RTVSPropertyOp26
 70
     1
102
RTVSPropertyOp27
 70
     1
102
RTVSPropertyOp28
 70
     1
102
RTVSPropertyOp29
 70
     1
102
RTVSPropertyOp30
 70
     1
102
RTVSPropertyOp31
 70
     1
102
RTVSPropertyOp32
 70
     1
102
RTVSPropertyOp33
 70
     1
102
RTVSPropertyOp34
 70
     1
102
RTVSPropertyOp35
 70
     1
102
RTVSPropertyOp36
 70
     1
102
RTVSPropertyOp37
 70
     1
102
RTVSPropertyOp38
 70
     1
102
RTVSPropertyOp39
 70
     1
102
RTVSPropertyOp40
 70
     1
102
RTVSPropertyOp41
 70
     1
102
RTVSPropertyOp42
 70
     1
102
RTVSPropertyOp43
 70
     1
102
RTVSPropertyOp44
 70
     1
102
RTVSPropertyOp45
 70
     1
102
RTVSPropertyOp46
 70
     1
102
RTVSPropertyOp47
 70
     1
102
RTVSPropertyOp48
 70
     1
102
RTVSPropertyOp49
 70
     1
102
RTVSPropertyOp50
 70
     1
102
RTVSPropertyOp51
 70
     0
102
RTVSPropertyOp52
 70
     0
102
RTVSPropertyOp53
 70
     1
102
RTVSPropertyOp54
 70
     1
102
RTVSPropertyOp55
 70
     1
102
RTVSPropertyOp56
 70
     1
102
RTVSPropertyOp57
 70
     1
102
RTVSPropertyOp58
 70
     1
102
RTVSPropertyOp59
 70
     1
102
RTVSPropertyOp60
 70
     1
102
RTVSPropertyOp61
 70
     1
102
RTVSPropertyOp62
 70
     1
  0
XRECORD
  5
AEF3
102
{ACAD_REACTORS
330
AEF2
102
}
330
AEF2
100
AcDbXrecord
280
     1
102
RTVSPost2010Prop28
280
     0
102
RTVSPost2010PropOp28
 70
     1
102
RTVSPost2010Prop29
280
     1
102
RTVSPost2010PropOp29
 70
     1
102
RTVSPost2010Prop30
280
     1
102
RTVSPost2010PropOp30
 70
     1
102
RTVSPost2010Prop31
280
     0
102
RTVSPost2010PropOp31
 70
     1
102
RTVSPost2010Prop32
280
     0
102
RTVSPost2010PropOp32
 70
     1
102
RTVSPost2010Prop33
280
     0
102
RTVSPost2010PropOp33
 70
     1
102
RTVSPost2010Prop34
280
     0
102
RTVSPost2010PropOp34
 70
     1
102
RTVSPost2010Prop35
280
     0
102
RTVSPost2010PropOp35
 70
     1
102
RTVSPost2010Prop36
280
     0
102
RTVSPost2010PropOp36
 70
     1
102
RTVSPost2010Prop37
 90
       50
102
RTVSPost2010PropOp37
 70
     1
102
RTVSPost2010Prop38
140
0.0
102
RTVSPost2010PropOp38
 70
     1
102
RTVSPost2010Prop39
140
1.0
102
RTVSPost2010PropOp39
 70
     1
102
RTVSPost2010Prop40
 90
        0
102
RTVSPost2010PropOp40
 70
     1
102
RTVSPost2010Prop41ColorIndex
 90
       18
102
RTVSPost2010Prop41ColorRGB
 90
        0
102
RTVSPost2010PropOp41
 70
     1
102
RTVSPost2010Prop42
 90
       50
102
RTVSPost2010PropOp42
 70
     1
102
RTVSPost2010Prop43
 90
        3
102
RTVSPost2010PropOp43
 70
     1
102
RTVSPost2010Prop44ColorIndex
 90
        5
102
RTVSPost2010Prop44ColorRGB
 90
      255
102
RTVSPost2010PropOp44
 70
     1
102
RTVSPost2010Prop45
280
     0
102
RTVSPost2010PropOp45
 70
     1
102
RTVSPost2010Prop46
 90
       50
102
RTVSPost2010PropOp46
 70
     1
102
RTVSPost2010Prop47
 90
       50
102
RTVSPost2010PropOp47
 70
     1
102
RTVSPost2010Prop48
 90
       50
102
RTVSPost2010PropOp48
 70
     1
102
RTVSPost2010Prop49
280
     0
102
RTVSPost2010PropOp49
 70
     1
102
RTVSPost2010Prop50
 90
       50
102
RTVSPost2010PropOp50
 70
     1
102
RTVSPost2010Prop51ColorIndex
 90
      256
102
RTVSPost2010Prop51ColorRGB
 90
-16777216
102
RTVSPost2010PropOp51
 70
     0
102
RTVSPost2010Prop52
140
1.0
102
RTVSPost2010PropOp52
 70
     0
102
RTVSPost2010Prop53
 90
        2
102
RTVSPost2010PropOp53
 70
     1
102
RTVSPost2010Prop54
  1
strokes_ogs.tif
102
RTVSPost2010PropOp54
 70
     1
102
RTVSPost2010Prop55
280
     0
102
RTVSPost2010PropOp55
 70
     1
102
RTVSPost2010Prop56
140
1.0
102
RTVSPost2010PropOp56
 70
     1
102
RTVSPost2010Prop57
140
1.0
102
RTVSPost2010PropOp57
 70
     1
102
RTVSPropertyOp0
 70
     1
102
RTVSPropertyOp1
 70
     1
102
RTVSPropertyOp2
 70
     1
102
RTVSPropertyOp3
 70
     1
102
RTVSPropertyOp4
 70
     1
102
RTVSPropertyOp5
 70
     1
102
RTVSPropertyOp6
 70
     1
102
RTVSPropertyOp7
 70
     1
102
RTVSPropertyOp8
 70
     1
102
RTVSPropertyOp9
 70
     1
102
RTVSPropertyOp10
 70
     1
102
RTVSPropertyOp11
 70
     1
102
RTVSPropertyOp12
 70
     1
102
RTVSPropertyOp13
 70
     1
102
RTVSPropertyOp14
 70
     1
102
RTVSPropertyOp15
 70
     1
102
RTVSPropertyOp16
 70
     1
102
RTVSPropertyOp17
 70
     1
102
RTVSPropertyOp18
 70
     1
102
RTVSPropertyOp19
 70
     1
102
RTVSPropertyOp20
 70
     1
102
RTVSPropertyOp21
 70
     1
102
RTVSPropertyOp22
 70
     1
102
RTVSPropertyOp23
 70
     1
102
RTVSPropertyOp24
 70
     1
102
RTVSPropertyOp25
 70
     1
102
RTVSPropertyOp26
 70
     1
102
RTVSPropertyOp27
 70
     1
102
RTVSPropertyOp28
 70
     1
102
RTVSPropertyOp29
 70
     1
102
RTVSPropertyOp30
 70
     1
102
RTVSPropertyOp31
 70
     1
102
RTVSPropertyOp32
 70
     1
102
RTVSPropertyOp33
 70
     1
102
RTVSPropertyOp34
 70
     1
102
RTVSPropertyOp35
 70
     1
102
RTVSPropertyOp36
 70
     1
102
RTVSPropertyOp37
 70
     1
102
RTVSPropertyOp38
 70
     1
102
RTVSPropertyOp39
 70
     1
102
RTVSPropertyOp40
 70
     1
102
RTVSPropertyOp41
 70
     1
102
RTVSPropertyOp42
 70
     1
102
RTVSPropertyOp43
 70
     1
102
RTVSPropertyOp44
 70
     1
102
RTVSPropertyOp45
 70
     1
102
RTVSPropertyOp46
 70
     1
102
RTVSPropertyOp47
 70
     1
102
RTVSPropertyOp48
 70
     1
102
RTVSPropertyOp49
 70
     1
102
RTVSPropertyOp50
 70
     1
102
RTVSPropertyOp51
 70
     0
102
RTVSPropertyOp52
 70
     0
102
RTVSPropertyOp53
 70
     1
102
RTVSPropertyOp54
 70
     1
102
RTVSPropertyOp55
 70
     1
102
RTVSPropertyOp56
 70
     1
102
RTVSPropertyOp57
 70
     1
102
RTVSPropertyOp58
 70
     1
102
RTVSPropertyOp59
 70
     1
102
RTVSPropertyOp60
 70
     1
102
RTVSPropertyOp61
 70
     1
102
RTVSPropertyOp62
 70
     1
  0
XRECORD
  5
AEF5
102
{ACAD_REACTORS
330
AEF4
102
}
330
AEF4
100
AcDbXrecord
280
     1
102
RTVSPost2010Prop28
280
     0
102
RTVSPost2010PropOp28
 70
     1
102
RTVSPost2010Prop29
280
     1
102
RTVSPost2010PropOp29
 70
     1
102
RTVSPost2010Prop30
280
     1
102
RTVSPost2010PropOp30
 70
     1
102
RTVSPost2010Prop31
280
     0
102
RTVSPost2010PropOp31
 70
     1
102
RTVSPost2010Prop32
280
     0
102
RTVSPost2010PropOp32
 70
     1
102
RTVSPost2010Prop33
280
     0
102
RTVSPost2010PropOp33
 70
     1
102
RTVSPost2010Prop34
280
     0
102
RTVSPost2010PropOp34
 70
     1
102
RTVSPost2010Prop35
280
     0
102
RTVSPost2010PropOp35
 70
     1
102
RTVSPost2010Prop36
280
     0
102
RTVSPost2010PropOp36
 70
     1
102
RTVSPost2010Prop37
 90
       50
102
RTVSPost2010PropOp37
 70
     1
102
RTVSPost2010Prop38
140
0.0
102
RTVSPost2010PropOp38
 70
     1
102
RTVSPost2010Prop39
140
1.0
102
RTVSPost2010PropOp39
 70
     1
102
RTVSPost2010Prop40
 90
        0
102
RTVSPost2010PropOp40
 70
     1
102
RTVSPost2010Prop41ColorIndex
 90
       18
102
RTVSPost2010Prop41ColorRGB
 90
        0
102
RTVSPost2010PropOp41
 70
     1
102
RTVSPost2010Prop42
 90
       50
102
RTVSPost2010PropOp42
 70
     1
102
RTVSPost2010Prop43
 90
        3
102
RTVSPost2010PropOp43
 70
     1
102
RTVSPost2010Prop44ColorIndex
 90
        5
102
RTVSPost2010Prop44ColorRGB
 90
      255
102
RTVSPost2010PropOp44
 70
     1
102
RTVSPost2010Prop45
280
     0
102
RTVSPost2010PropOp45
 70
     1
102
RTVSPost2010Prop46
 90
       50
102
RTVSPost2010PropOp46
 70
     1
102
RTVSPost2010Prop47
 90
       50
102
RTVSPost2010PropOp47
 70
     1
102
RTVSPost2010Prop48
 90
       50
102
RTVSPost2010PropOp48
 70
     1
102
RTVSPost2010Prop49
280
     0
102
RTVSPost2010PropOp49
 70
     1
102
RTVSPost2010Prop50
 90
       50
102
RTVSPost2010PropOp50
 70
     1
102
RTVSPost2010Prop51ColorIndex
 90
      256
102
RTVSPost2010Prop51ColorRGB
 90
-16777216
102
RTVSPost2010PropOp51
 70
     0
102
RTVSPost2010Prop52
140
1.0
102
RTVSPost2010PropOp52
 70
     0
102
RTVSPost2010Prop53
 90
        2
102
RTVSPost2010PropOp53
 70
     1
102
RTVSPost2010Prop54
  1
strokes_ogs.tif
102
RTVSPost2010PropOp54
 70
     1
102
RTVSPost2010Prop55
280
     0
102
RTVSPost2010PropOp55
 70
     1
102
RTVSPost2010Prop56
140
1.0
102
RTVSPost2010PropOp56
 70
     1
102
RTVSPost2010Prop57
140
1.0
102
RTVSPost2010PropOp57
 70
     1
102
RTVSPropertyOp0
 70
     1
102
RTVSPropertyOp1
 70
     1
102
RTVSPropertyOp2
 70
     1
102
RTVSPropertyOp3
 70
     1
102
RTVSPropertyOp4
 70
     1
102
RTVSPropertyOp5
 70
     1
102
RTVSPropertyOp6
 70
     1
102
RTVSPropertyOp7
 70
     1
102
RTVSPropertyOp8
 70
     1
102
RTVSPropertyOp9
 70
     1
102
RTVSPropertyOp10
 70
     1
102
RTVSPropertyOp11
 70
     1
102
RTVSPropertyOp12
 70
     1
102
RTVSPropertyOp13
 70
     1
102
RTVSPropertyOp14
 70
     1
102
RTVSPropertyOp15
 70
     1
102
RTVSPropertyOp16
 70
     1
102
RTVSPropertyOp17
 70
     1
102
RTVSPropertyOp18
 70
     1
102
RTVSPropertyOp19
 70
     1
102
RTVSPropertyOp20
 70
     1
102
RTVSPropertyOp21
 70
     1
102
RTVSPropertyOp22
 70
     1
102
RTVSPropertyOp23
 70
     1
102
RTVSPropertyOp24
 70
     1
102
RTVSPropertyOp25
 70
     1
102
RTVSPropertyOp26
 70
     1
102
RTVSPropertyOp27
 70
     1
102
RTVSPropertyOp28
 70
     1
102
RTVSPropertyOp29
 70
     1
102
RTVSPropertyOp30
 70
     1
102
RTVSPropertyOp31
 70
     1
102
RTVSPropertyOp32
 70
     1
102
RTVSPropertyOp33
 70
     1
102
RTVSPropertyOp34
 70
     1
102
RTVSPropertyOp35
 70
     1
102
RTVSPropertyOp36
 70
     1
102
RTVSPropertyOp37
 70
     1
102
RTVSPropertyOp38
 70
     1
102
RTVSPropertyOp39
 70
     1
102
RTVSPropertyOp40
 70
     1
102
RTVSPropertyOp41
 70
     1
102
RTVSPropertyOp42
 70
     1
102
RTVSPropertyOp43
 70
     1
102
RTVSPropertyOp44
 70
     1
102
RTVSPropertyOp45
 70
     1
102
RTVSPropertyOp46
 70
     1
102
RTVSPropertyOp47
 70
     1
102
RTVSPropertyOp48
 70
     1
102
RTVSPropertyOp49
 70
     1
102
RTVSPropertyOp50
 70
     1
102
RTVSPropertyOp51
 70
     0
102
RTVSPropertyOp52
 70
     0
102
RTVSPropertyOp53
 70
     1
102
RTVSPropertyOp54
 70
     1
102
RTVSPropertyOp55
 70
     1
102
RTVSPropertyOp56
 70
     1
102
RTVSPropertyOp57
 70
     1
102
RTVSPropertyOp58
 70
     1
102
RTVSPropertyOp59
 70
     1
102
RTVSPropertyOp60
 70
     1
102
RTVSPropertyOp61
 70
     1
102
RTVSPropertyOp62
 70
     1
  0
XRECORD
  5
AEEB
102
{ACAD_REACTORS
330
AEEA
102
}
330
AEEA
100
AcDbXrecord
280
     1
102
RTVSPost2010Prop28
280
     0
102
RTVSPost2010PropOp28
 70
     1
102
RTVSPost2010Prop29
280
     1
102
RTVSPost2010PropOp29
 70
     1
102
RTVSPost2010Prop30
280
     1
102
RTVSPost2010PropOp30
 70
     1
102
RTVSPost2010Prop31
280
     0
102
RTVSPost2010PropOp31
 70
     1
102
RTVSPost2010Prop32
280
     0
102
RTVSPost2010PropOp32
 70
     1
102
RTVSPost2010Prop33
280
     0
102
RTVSPost2010PropOp33
 70
     1
102
RTVSPost2010Prop34
280
     0
102
RTVSPost2010PropOp34
 70
     1
102
RTVSPost2010Prop35
280
     0
102
RTVSPost2010PropOp35
 70
     1
102
RTVSPost2010Prop36
280
     0
102
RTVSPost2010PropOp36
 70
     1
102
RTVSPost2010Prop37
 90
       50
102
RTVSPost2010PropOp37
 70
     1
102
RTVSPost2010Prop38
140
0.0
102
RTVSPost2010PropOp38
 70
     1
102
RTVSPost2010Prop39
140
1.0
102
RTVSPost2010PropOp39
 70
     1
102
RTVSPost2010Prop40
 90
        0
102
RTVSPost2010PropOp40
 70
     1
102
RTVSPost2010Prop41ColorIndex
 90
       18
102
RTVSPost2010Prop41ColorRGB
 90
        0
102
RTVSPost2010PropOp41
 70
     1
102
RTVSPost2010Prop42
 90
       50
102
RTVSPost2010PropOp42
 70
     1
102
RTVSPost2010Prop43
 90
        3
102
RTVSPost2010PropOp43
 70
     1
102
RTVSPost2010Prop44ColorIndex
 90
        5
102
RTVSPost2010Prop44ColorRGB
 90
      255
102
RTVSPost2010PropOp44
 70
     1
102
RTVSPost2010Prop45
280
     0
102
RTVSPost2010PropOp45
 70
     1
102
RTVSPost2010Prop46
 90
       50
102
RTVSPost2010PropOp46
 70
     1
102
RTVSPost2010Prop47
 90
       50
102
RTVSPost2010PropOp47
 70
     1
102
RTVSPost2010Prop48
 90
       50
102
RTVSPost2010PropOp48
 70
     1
102
RTVSPost2010Prop49
280
     0
102
RTVSPost2010PropOp49
 70
     1
102
RTVSPost2010Prop50
 90
       50
102
RTVSPost2010PropOp50
 70
     1
102
RTVSPost2010Prop51ColorIndex
 90
      256
102
RTVSPost2010Prop51ColorRGB
 90
-16777216
102
RTVSPost2010PropOp51
 70
     0
102
RTVSPost2010Prop52
140
1.0
102
RTVSPost2010PropOp52
 70
     0
102
RTVSPost2010Prop53
 90
        2
102
RTVSPost2010PropOp53
 70
     1
102
RTVSPost2010Prop54
  1
strokes_ogs.tif
102
RTVSPost2010PropOp54
 70
     1
102
RTVSPost2010Prop55
280
     0
102
RTVSPost2010PropOp55
 70
     1
102
RTVSPost2010Prop56
140
1.0
102
RTVSPost2010PropOp56
 70
     1
102
RTVSPost2010Prop57
140
1.0
102
RTVSPost2010PropOp57
 70
     1
102
RTVSPropertyOp0
 70
     1
102
RTVSPropertyOp1
 70
     1
102
RTVSPropertyOp2
 70
     1
102
RTVSPropertyOp3
 70
     1
102
RTVSPropertyOp4
 70
     1
102
RTVSPropertyOp5
 70
     1
102
RTVSPropertyOp6
 70
     1
102
RTVSPropertyOp7
 70
     1
102
RTVSPropertyOp8
 70
     1
102
RTVSPropertyOp9
 70
     1
102
RTVSPropertyOp10
 70
     1
102
RTVSPropertyOp11
 70
     1
102
RTVSPropertyOp12
 70
     1
102
RTVSPropertyOp13
 70
     1
102
RTVSPropertyOp14
 70
     1
102
RTVSPropertyOp15
 70
     1
102
RTVSPropertyOp16
 70
     1
102
RTVSPropertyOp17
 70
     1
102
RTVSPropertyOp18
 70
     1
102
RTVSPropertyOp19
 70
     1
102
RTVSPropertyOp20
 70
     1
102
RTVSPropertyOp21
 70
     1
102
RTVSPropertyOp22
 70
     1
102
RTVSPropertyOp23
 70
     1
102
RTVSPropertyOp24
 70
     1
102
RTVSPropertyOp25
 70
     1
102
RTVSPropertyOp26
 70
     1
102
RTVSPropertyOp27
 70
     1
102
RTVSPropertyOp28
 70
     1
102
RTVSPropertyOp29
 70
     1
102
RTVSPropertyOp30
 70
     1
102
RTVSPropertyOp31
 70
     1
102
RTVSPropertyOp32
 70
     1
102
RTVSPropertyOp33
 70
     1
102
RTVSPropertyOp34
 70
     1
102
RTVSPropertyOp35
 70
     1
102
RTVSPropertyOp36
 70
     1
102
RTVSPropertyOp37
 70
     1
102
RTVSPropertyOp38
 70
     1
102
RTVSPropertyOp39
 70
     1
102
RTVSPropertyOp40
 70
     1
102
RTVSPropertyOp41
 70
     1
102
RTVSPropertyOp42
 70
     1
102
RTVSPropertyOp43
 70
     1
102
RTVSPropertyOp44
 70
     1
102
RTVSPropertyOp45
 70
     1
102
RTVSPropertyOp46
 70
     1
102
RTVSPropertyOp47
 70
     1
102
RTVSPropertyOp48
 70
     1
102
RTVSPropertyOp49
 70
     1
102
RTVSPropertyOp50
 70
     1
102
RTVSPropertyOp51
 70
     0
102
RTVSPropertyOp52
 70
     0
102
RTVSPropertyOp53
 70
     1
102
RTVSPropertyOp54
 70
     1
102
RTVSPropertyOp55
 70
     1
102
RTVSPropertyOp56
 70
     1
102
RTVSPropertyOp57
 70
     1
102
RTVSPropertyOp58
 70
     1
102
RTVSPropertyOp59
 70
     1
102
RTVSPropertyOp60
 70
     1
102
RTVSPropertyOp61
 70
     1
102
RTVSPropertyOp62
 70
     1
  0
XRECORD
  5
AEDF
102
{ACAD_REACTORS
330
AEDE
102
}
330
AEDE
100
AcDbXrecord
280
     1
102
RTVSPost2010Prop28
280
     0
102
RTVSPost2010PropOp28
 70
     1
102
RTVSPost2010Prop29
280
     1
102
RTVSPost2010PropOp29
 70
     1
102
RTVSPost2010Prop30
280
     1
102
RTVSPost2010PropOp30
 70
     1
102
RTVSPost2010Prop31
280
     0
102
RTVSPost2010PropOp31
 70
     1
102
RTVSPost2010Prop32
280
     0
102
RTVSPost2010PropOp32
 70
     1
102
RTVSPost2010Prop33
280
     0
102
RTVSPost2010PropOp33
 70
     1
102
RTVSPost2010Prop34
280
     0
102
RTVSPost2010PropOp34
 70
     1
102
RTVSPost2010Prop35
280
     0
102
RTVSPost2010PropOp35
 70
     1
102
RTVSPost2010Prop36
280
     0
102
RTVSPost2010PropOp36
 70
     1
102
RTVSPost2010Prop37
 90
       50
102
RTVSPost2010PropOp37
 70
     1
102
RTVSPost2010Prop38
140
0.0
102
RTVSPost2010PropOp38
 70
     1
102
RTVSPost2010Prop39
140
1.0
102
RTVSPost2010PropOp39
 70
     1
102
RTVSPost2010Prop40
 90
        0
102
RTVSPost2010PropOp40
 70
     1
102
RTVSPost2010Prop41ColorIndex
 90
       18
102
RTVSPost2010Prop41ColorRGB
 90
        0
102
RTVSPost2010PropOp41
 70
     1
102
RTVSPost2010Prop42
 90
       50
102
RTVSPost2010PropOp42
 70
     1
102
RTVSPost2010Prop43
 90
        3
102
RTVSPost2010PropOp43
 70
     1
102
RTVSPost2010Prop44ColorIndex
 90
        5
102
RTVSPost2010Prop44ColorRGB
 90
      255
102
RTVSPost2010PropOp44
 70
     1
102
RTVSPost2010Prop45
280
     0
102
RTVSPost2010PropOp45
 70
     1
102
RTVSPost2010Prop46
 90
       50
102
RTVSPost2010PropOp46
 70
     1
102
RTVSPost2010Prop47
 90
       50
102
RTVSPost2010PropOp47
 70
     1
102
RTVSPost2010Prop48
 90
       50
102
RTVSPost2010PropOp48
 70
     1
102
RTVSPost2010Prop49
280
     0
102
RTVSPost2010PropOp49
 70
     1
102
RTVSPost2010Prop50
 90
       50
102
RTVSPost2010PropOp50
 70
     1
102
RTVSPost2010Prop51ColorIndex
 90
      256
102
RTVSPost2010Prop51ColorRGB
 90
-16777216
102
RTVSPost2010PropOp51
 70
     0
102
RTVSPost2010Prop52
140
1.0
102
RTVSPost2010PropOp52
 70
     0
102
RTVSPost2010Prop53
 90
        2
102
RTVSPost2010PropOp53
 70
     1
102
RTVSPost2010Prop54
  1
strokes_ogs.tif
102
RTVSPost2010PropOp54
 70
     1
102
RTVSPost2010Prop55
280
     0
102
RTVSPost2010PropOp55
 70
     1
102
RTVSPost2010Prop56
140
1.0
102
RTVSPost2010PropOp56
 70
     1
102
RTVSPost2010Prop57
140
1.0
102
RTVSPost2010PropOp57
 70
     1
102
RTVSPropertyOp0
 70
     1
102
RTVSPropertyOp1
 70
     1
102
RTVSPropertyOp2
 70
     1
102
RTVSPropertyOp3
 70
     1
102
RTVSPropertyOp4
 70
     1
102
RTVSPropertyOp5
 70
     1
102
RTVSPropertyOp6
 70
     1
102
RTVSPropertyOp7
 70
     1
102
RTVSPropertyOp8
 70
     1
102
RTVSPropertyOp9
 70
     1
102
RTVSPropertyOp10
 70
     1
102
RTVSPropertyOp11
 70
     1
102
RTVSPropertyOp12
 70
     1
102
RTVSPropertyOp13
 70
     1
102
RTVSPropertyOp14
 70
     1
102
RTVSPropertyOp15
 70
     1
102
RTVSPropertyOp16
 70
     1
102
RTVSPropertyOp17
 70
     1
102
RTVSPropertyOp18
 70
     1
102
RTVSPropertyOp19
 70
     1
102
RTVSPropertyOp20
 70
     1
102
RTVSPropertyOp21
 70
     1
102
RTVSPropertyOp22
 70
     1
102
RTVSPropertyOp23
 70
     1
102
RTVSPropertyOp24
 70
     1
102
RTVSPropertyOp25
 70
     1
102
RTVSPropertyOp26
 70
     1
102
RTVSPropertyOp27
 70
     1
102
RTVSPropertyOp28
 70
     1
102
RTVSPropertyOp29
 70
     1
102
RTVSPropertyOp30
 70
     1
102
RTVSPropertyOp31
 70
     1
102
RTVSPropertyOp32
 70
     1
102
RTVSPropertyOp33
 70
     1
102
RTVSPropertyOp34
 70
     1
102
RTVSPropertyOp35
 70
     1
102
RTVSPropertyOp36
 70
     1
102
RTVSPropertyOp37
 70
     1
102
RTVSPropertyOp38
 70
     1
102
RTVSPropertyOp39
 70
     1
102
RTVSPropertyOp40
 70
     1
102
RTVSPropertyOp41
 70
     1
102
RTVSPropertyOp42
 70
     1
102
RTVSPropertyOp43
 70
     1
102
RTVSPropertyOp44
 70
     1
102
RTVSPropertyOp45
 70
     1
102
RTVSPropertyOp46
 70
     1
102
RTVSPropertyOp47
 70
     1
102
RTVSPropertyOp48
 70
     1
102
RTVSPropertyOp49
 70
     1
102
RTVSPropertyOp50
 70
     1
102
RTVSPropertyOp51
 70
     0
102
RTVSPropertyOp52
 70
     0
102
RTVSPropertyOp53
 70
     1
102
RTVSPropertyOp54
 70
     1
102
RTVSPropertyOp55
 70
     1
102
RTVSPropertyOp56
 70
     1
102
RTVSPropertyOp57
 70
     1
102
RTVSPropertyOp58
 70
     1
102
RTVSPropertyOp59
 70
     1
102
RTVSPropertyOp60
 70
     1
102
RTVSPropertyOp61
 70
     1
102
RTVSPropertyOp62
 70
     1
  0
XRECORD
  5
AEF7
102
{ACAD_REACTORS
330
AEF6
102
}
330
AEF6
100
AcDbXrecord
280
     1
102
RTVSPost2010Prop28
280
     0
102
RTVSPost2010PropOp28
 70
     1
102
RTVSPost2010Prop29
280
     1
102
RTVSPost2010PropOp29
 70
     1
102
RTVSPost2010Prop30
280
     1
102
RTVSPost2010PropOp30
 70
     1
102
RTVSPost2010Prop31
280
     0
102
RTVSPost2010PropOp31
 70
     1
102
RTVSPost2010Prop32
280
     0
102
RTVSPost2010PropOp32
 70
     1
102
RTVSPost2010Prop33
280
     0
102
RTVSPost2010PropOp33
 70
     1
102
RTVSPost2010Prop34
280
     0
102
RTVSPost2010PropOp34
 70
     1
102
RTVSPost2010Prop35
280
     0
102
RTVSPost2010PropOp35
 70
     1
102
RTVSPost2010Prop36
280
     0
102
RTVSPost2010PropOp36
 70
     1
102
RTVSPost2010Prop37
 90
       50
102
RTVSPost2010PropOp37
 70
     1
102
RTVSPost2010Prop38
140
0.0
102
RTVSPost2010PropOp38
 70
     1
102
RTVSPost2010Prop39
140
1.0
102
RTVSPost2010PropOp39
 70
     1
102
RTVSPost2010Prop40
 90
        0
102
RTVSPost2010PropOp40
 70
     1
102
RTVSPost2010Prop41ColorIndex
 90
       18
102
RTVSPost2010Prop41ColorRGB
 90
        0
102
RTVSPost2010PropOp41
 70
     1
102
RTVSPost2010Prop42
 90
       50
102
RTVSPost2010PropOp42
 70
     1
102
RTVSPost2010Prop43
 90
        3
102
RTVSPost2010PropOp43
 70
     1
102
RTVSPost2010Prop44ColorIndex
 90
        5
102
RTVSPost2010Prop44ColorRGB
 90
      255
102
RTVSPost2010PropOp44
 70
     1
102
RTVSPost2010Prop45
280
     0
102
RTVSPost2010PropOp45
 70
     1
102
RTVSPost2010Prop46
 90
       50
102
RTVSPost2010PropOp46
 70
     1
102
RTVSPost2010Prop47
 90
       50
102
RTVSPost2010PropOp47
 70
     1
102
RTVSPost2010Prop48
 90
       50
102
RTVSPost2010PropOp48
 70
     1
102
RTVSPost2010Prop49
280
     0
102
RTVSPost2010PropOp49
 70
     1
102
RTVSPost2010Prop50
 90
       50
102
RTVSPost2010PropOp50
 70
     1
102
RTVSPost2010Prop51ColorIndex
 90
      256
102
RTVSPost2010Prop51ColorRGB
 90
-16777216
102
RTVSPost2010PropOp51
 70
     0
102
RTVSPost2010Prop52
140
1.0
102
RTVSPost2010PropOp52
 70
     0
102
RTVSPost2010Prop53
 90
        2
102
RTVSPost2010PropOp53
 70
     1
102
RTVSPost2010Prop54
  1
strokes_ogs.tif
102
RTVSPost2010PropOp54
 70
     1
102
RTVSPost2010Prop55
280
     0
102
RTVSPost2010PropOp55
 70
     1
102
RTVSPost2010Prop56
140
1.0
102
RTVSPost2010PropOp56
 70
     1
102
RTVSPost2010Prop57
140
1.0
102
RTVSPost2010PropOp57
 70
     1
102
RTVSPropertyOp0
 70
     1
102
RTVSPropertyOp1
 70
     1
102
RTVSPropertyOp2
 70
     1
102
RTVSPropertyOp3
 70
     1
102
RTVSPropertyOp4
 70
     1
102
RTVSPropertyOp5
 70
     1
102
RTVSPropertyOp6
 70
     1
102
RTVSPropertyOp7
 70
     1
102
RTVSPropertyOp8
 70
     1
102
RTVSPropertyOp9
 70
     1
102
RTVSPropertyOp10
 70
     1
102
RTVSPropertyOp11
 70
     1
102
RTVSPropertyOp12
 70
     1
102
RTVSPropertyOp13
 70
     1
102
RTVSPropertyOp14
 70
     1
102
RTVSPropertyOp15
 70
     1
102
RTVSPropertyOp16
 70
     1
102
RTVSPropertyOp17
 70
     1
102
RTVSPropertyOp18
 70
     1
102
RTVSPropertyOp19
 70
     1
102
RTVSPropertyOp20
 70
     1
102
RTVSPropertyOp21
 70
     1
102
RTVSPropertyOp22
 70
     1
102
RTVSPropertyOp23
 70
     1
102
RTVSPropertyOp24
 70
     1
102
RTVSPropertyOp25
 70
     1
102
RTVSPropertyOp26
 70
     1
102
RTVSPropertyOp27
 70
     1
102
RTVSPropertyOp28
 70
     1
102
RTVSPropertyOp29
 70
     1
102
RTVSPropertyOp30
 70
     1
102
RTVSPropertyOp31
 70
     1
102
RTVSPropertyOp32
 70
     1
102
RTVSPropertyOp33
 70
     1
102
RTVSPropertyOp34
 70
     1
102
RTVSPropertyOp35
 70
     1
102
RTVSPropertyOp36
 70
     1
102
RTVSPropertyOp37
 70
     1
102
RTVSPropertyOp38
 70
     1
102
RTVSPropertyOp39
 70
     1
102
RTVSPropertyOp40
 70
     1
102
RTVSPropertyOp41
 70
     1
102
RTVSPropertyOp42
 70
     1
102
RTVSPropertyOp43
 70
     1
102
RTVSPropertyOp44
 70
     1
102
RTVSPropertyOp45
 70
     1
102
RTVSPropertyOp46
 70
     1
102
RTVSPropertyOp47
 70
     1
102
RTVSPropertyOp48
 70
     1
102
RTVSPropertyOp49
 70
     1
102
RTVSPropertyOp50
 70
     1
102
RTVSPropertyOp51
 70
     0
102
RTVSPropertyOp52
 70
     0
102
RTVSPropertyOp53
 70
     1
102
RTVSPropertyOp54
 70
     1
102
RTVSPropertyOp55
 70
     1
102
RTVSPropertyOp56
 70
     1
102
RTVSPropertyOp57
 70
     1
102
RTVSPropertyOp58
 70
     1
102
RTVSPropertyOp59
 70
     1
102
RTVSPropertyOp60
 70
     1
102
RTVSPropertyOp61
 70
     1
102
RTVSPropertyOp62
 70
     1
  0
ENDSEC
  0
EOF
