  0
SECTION
  2
HEADER
  9
$ACADVER
  1
AC1015
  9
$ACADMAINTVER
 70
    20
  9
$DWGCODEPAGE
  3
ANSI_932
  9
$INSBASE
 10
0.0
 20
0.0
 30
0.0
  9
$EXTMIN
 10
10.0
 20
9.999999999999998
 30
0.0
  9
$EXTMAX
 10
568.231148
 20
458.2996709999998
 30
0.0
  9
$LIMMIN
 10
0.0
 20
0.0
  9
$LIMMAX
 10
705.9254179999997
 20
486.6607049999998
  9
$ORTHOMODE
 70
     1
  9
$REGENMODE
 70
     1
  9
$FILLMODE
 70
     1
  9
$QTEXTMODE
 70
     0
  9
$MIRRTEXT
 70
     1
  9
$LTSCALE
 40
20.0
  9
$ATTMODE
 70
     1
  9
$TEXTSIZE
 40
5.0
  9
$TRACEWID
 40
1.0
  9
$TEXTSTYLE
  7
STANDARD
  9
$CLAYER
  8
0
  9
$CELTYPE
  6
BYLAYER
  9
$CECOLOR
 62
   256
  9
$CELTSCALE
 40
1.0
  9
$DISPSILH
 70
     0
  9
$DIMSCALE
 40
1.0
  9
$DIMASZ
 40
3.0
  9
$DIMEXO
 40
1.0
  9
$DIMDLI
 40
10.0
  9
$DIMRND
 40
0.0
  9
$DIMDLE
 40
0.0
  9
$DIMEXE
 40
1.0
  9
$DIMTP
 40
0.0
  9
$DIMTM
 40
0.0
  9
$DIMTXT
 40
3.2
  9
$DIMCEN
 40
0.0
  9
$DIMTSZ
 40
0.0
  9
$DIMTOL
 70
     0
  9
$DIMLIM
 70
     0
  9
$DIMTIH
 70
     0
  9
$DIMTOH
 70
     0
  9
$DIMSE1
 70
     0
  9
$DIMSE2
 70
     0
  9
$DIMTAD
 70
     3
  9
$DIMZIN
 70
     8
  9
$DIMBLK
  1

  9
$DIMASO
 70
     1
  9
$DIMSHO
 70
     1
  9
$DIMPOST
  1

  9
$DIMAPOST
  1

  9
$DIMALT
 70
     0
  9
$DIMALTD
 70
     2
  9
$DIMALTF
 40
25.4
  9
$DIMLFAC
 40
1.0
  9
$DIMTOFL
 70
     1
  9
$DIMTVP
 40
0.0
  9
$DIMTIX
 70
     0
  9
$DIMSOXD
 70
     0
  9
$DIMSAH
 70
     1
  9
$DIMBLK1
  1
OPEN
  9
$DIMBLK2
  1
OPEN
  9
$DIMSTYLE
  2
STANDARD
  9
$DIMCLRD
 70
     0
  9
$DIMCLRE
 70
     0
  9
$DIMCLRT
 70
     0
  9
$DIMTFAC
 40
1.0
  9
$DIMGAP
 40
1.0
  9
$DIMJUST
 70
     0
  9
$DIMSD1
 70
     0
  9
$DIMSD2
 70
     0
  9
$DIMTOLJ
 70
     1
  9
$DIMTZIN
 70
     0
  9
$DIMALTZ
 70
     0
  9
$DIMALTTZ
 70
     0
  9
$DIMUPT
 70
     0
  9
$DIMDEC
 70
     4
  9
$DIMTDEC
 70
     4
  9
$DIMALTU
 70
     2
  9
$DIMALTTD
 70
     2
  9
$DIMTXSTY
  7
STANDARD
  9
$DIMAUNIT
 70
     0
  9
$DIMADEC
 70
     0
  9
$DIMALTRND
 40
0.0
  9
$DIMAZIN
 70
     0
  9
$DIMDSEP
 70
    46
  9
$DIMATFIT
 70
     3
  9
$DIMFRAC
 70
     0
  9
$DIMLDRBLK
  1
OPEN
  9
$DIMLUNIT
 70
     2
  9
$DIMLWD
 70
    -2
  9
$DIMLWE
 70
    -2
  9
$DIMTMOVE
 70
     0
  9
$LUNITS
 70
     2
  9
$LUPREC
 70
     4
  9
$SKETCHINC
 40
1.0
  9
$FILLETRAD
 40
11.3
  9
$AUNITS
 70
     0
  9
$AUPREC
 70
     2
  9
$MENU
  1
.
  9
$ELEVATION
 40
0.0
  9
$PELEVATION
 40
0.0
  9
$THICKNESS
 40
0.0
  9
$LIMCHECK
 70
     0
  9
$CHAMFERA
 40
10.0
  9
$CHAMFERB
 40
10.0
  9
$CHAMFERC
 40
0.0
  9
$CHAMFERD
 40
0.0
  9
$SKPOLY
 70
     0
  9
$TDCREATE
 40
2451301.677080556
  9
$TDUCREATE
 40
2451301.302080555
  9
$TDUPDATE
 40
2457192.688165567
  9
$TDUUPDATE
 40
2457192.313165567
  9
$TDINDWG
 40
0.0000137269
  9
$TDUSRTIMER
 40
0.0000132986
  9
$USRTIMER
 70
     1
  9
$ANGBASE
 50
0.0
  9
$ANGDIR
 70
     0
  9
$PDMODE
 70
     0
  9
$PDSIZE
 40
0.0
  9
$PLINEWID
 40
0.0
  9
$SPLFRAME
 70
     0
  9
$SPLINETYPE
 70
     6
  9
$SPLINESEGS
 70
     8
  9
$HANDSEED
  5
C33A
  9
$SURFTAB1
 70
     6
  9
$SURFTAB2
 70
     6
  9
$SURFTYPE
 70
     6
  9
$SURFU
 70
     6
  9
$SURFV
 70
     6
  9
$UCSBASE
  2

  9
$UCSNAME
  2

  9
$UCSORG
 10
0.0
 20
0.0
 30
0.0
  9
$UCSXDIR
 10
1.0
 20
0.0
 30
0.0
  9
$UCSYDIR
 10
0.0
 20
1.0
 30
0.0
  9
$UCSORTHOREF
  2

  9
$UCSORTHOVIEW
 70
     0
  9
$UCSORGTOP
 10
0.0
 20
0.0
 30
0.0
  9
$UCSORGBOTTOM
 10
0.0
 20
0.0
 30
0.0
  9
$UCSORGLEFT
 10
0.0
 20
0.0
 30
0.0
  9
$UCSORGRIGHT
 10
0.0
 20
0.0
 30
0.0
  9
$UCSORGFRONT
 10
0.0
 20
0.0
 30
0.0
  9
$UCSORGBACK
 10
0.0
 20
0.0
 30
0.0
  9
$PUCSBASE
  2

  9
$PUCSNAME
  2

  9
$PUCSORG
 10
0.0
 20
0.0
 30
0.0
  9
$PUCSXDIR
 10
1.0
 20
0.0
 30
0.0
  9
$PUCSYDIR
 10
0.0
 20
1.0
 30
0.0
  9
$PUCSORTHOREF
  2

  9
$PUCSORTHOVIEW
 70
     0
  9
$PUCSORGTOP
 10
0.0
 20
0.0
 30
0.0
  9
$PUCSORGBOTTOM
 10
0.0
 20
0.0
 30
0.0
  9
$PUCSORGLEFT
 10
0.0
 20
0.0
 30
0.0
  9
$PUCSORGRIGHT
 10
0.0
 20
0.0
 30
0.0
  9
$PUCSORGFRONT
 10
0.0
 20
0.0
 30
0.0
  9
$PUCSORGBACK
 10
0.0
 20
0.0
 30
0.0
  9
$USERI1
 70
     0
  9
$USERI2
 70
     0
  9
$USERI3
 70
     0
  9
$USERI4
 70
     0
  9
$USERI5
 70
     0
  9
$USERR1
 40
0.0
  9
$USERR2
 40
0.0
  9
$USERR3
 40
0.0
  9
$USERR4
 40
0.0
  9
$USERR5
 40
0.0
  9
$WORLDVIEW
 70
     1
  9
$SHADEDGE
 70
     3
  9
$SHADEDIF
 70
    70
  9
$TILEMODE
 70
     1
  9
$MAXACTVP
 70
    16
  9
$PINSBASE
 10
0.0
 20
0.0
 30
0.0
  9
$PLIMCHECK
 70
     0
  9
$PEXTMIN
 10
1.000000000000000E+20
 20
1.000000000000000E+20
 30
1.000000000000000E+20
  9
$PEXTMAX
 10
-1.000000000000000E+20
 20
-1.000000000000000E+20
 30
-1.000000000000000E+20
  9
$PLIMMIN
 10
0.0
 20
0.0
  9
$PLIMMAX
 10
420.0
 20
297.0
  9
$UNITMODE
 70
     0
  9
$VISRETAIN
 70
     0
  9
$PLINEGEN
 70
     0
  9
$PSLTSCALE
 70
     0
  9
$TREEDEPTH
 70
  3020
  9
$CMLSTYLE
  2
STANDARD
  9
$CMLJUST
 70
     0
  9
$CMLSCALE
 40
1.0
  9
$PROXYGRAPHICS
 70
     1
  9
$MEASUREMENT
 70
     0
  9
$CELWEIGHT
370
    -1
  9
$ENDCAPS
280
     0
  9
$JOINSTYLE
280
     0
  9
$LWDISPLAY
290
     0
  9
$INSUNITS
 70
     0
  9
$HYPERLINKBASE
  1

  9
$STYLESHEET
  1

  9
$XEDIT
290
     1
  9
$CEPSNTYPE
380
     0
  9
$PSTYLEMODE
290
     1
  9
$FINGERPRINTGUID
  2
{345E9648-DF3D-44DB-861E-C114428D2BB1}
  9
$VERSIONGUID
  2
{218B6E42-6314-4CB7-9D78-C9A3502C870C}
  9
$EXTNAMES
290
     1
  9
$PSVPSCALE
 40
0.0
  9
$OLESTARTUP
290
     0
  0
ENDSEC
  0
SECTION
  2
CLASSES
  0
CLASS
  1
ACDBDICTIONARYWDFLT
  2
AcDbDictionaryWithDefault
  3
ObjectDBX Classes
 90
        0
280
     0
281
     0
  0
CLASS
  1
ACDBPLACEHOLDER
  2
AcDbPlaceHolder
  3
ObjectDBX Classes
 90
        0
280
     0
281
     0
  0
CLASS
  1
LAYOUT
  2
AcDbLayout
  3
ObjectDBX Classes
 90
        0
280
     0
281
     0
  0
CLASS
  1
DICTIONARYVAR
  2
AcDbDictionaryVar
  3
ObjectDBX Classes
 90
        0
280
     0
281
     0
  0
CLASS
  1
MATERIAL
  2
AcDbMaterial
  3
ObjectDBX Classes
 90
     1153
280
     0
281
     0
  0
CLASS
  1
VISUALSTYLE
  2
AcDbVisualStyle
  3
ObjectDBX Classes
 90
     4095
280
     0
281
     0
  0
CLASS
  1
TABLESTYLE
  2
AcDbTableStyle
  3
ObjectDBX Classes
 90
     4095
280
     0
281
     0
  0
CLASS
  1
SCALE
  2
AcDbScale
  3
ObjectDBX Classes
 90
     1153
280
     0
281
     0
  0
CLASS
  1
MLEADERSTYLE
  2
AcDbMLeaderStyle
  3
ACDB_MLEADERSTYLE_CLASS
 90
     4095
280
     0
281
     0
  0
CLASS
  1
ACDBSECTIONVIEWSTYLE
  2
AcDbSectionViewStyle
  3
ObjectDBX Classes
 90
     1025
280
     0
281
     0
  0
CLASS
  1
ACDBDETAILVIEWSTYLE
  2
AcDbDetailViewStyle
  3
ObjectDBX Classes
 90
     1025
280
     0
281
     0
  0
CLASS
  1
CELLSTYLEMAP
  2
AcDbCellStyleMap
  3
ObjectDBX Classes
 90
     1152
280
     0
281
     0
  0
ENDSEC
  0
SECTION
  2
TABLES
  0
TABLE
  2
VPORT
  5
BE0A
330
0
100
AcDbSymbolTable
 70
     1
  0
VPORT
  5
C283
330
BE0A
100
AcDbSymbolTableRecord
100
AcDbViewportTableRecord
  2
*ACTIVE
 70
     0
 10
0.0
 20
0.0
 11
1.0
 21
1.0
 12
424.9070942985694
 22
234.1408604821766
 13
0.0
 23
0.0
 14
10.0
 24
10.0
 15
10.0
 25
10.0
 16
0.0
 26
0.0
 36
1.0
 17
0.0
 27
0.0
 37
0.0
 40
453.28986499812
 41
2.35006605019815
 42
50.0
 43
0.0
 44
0.0
 50
0.0
 51
0.0
 71
     0
 72
   100
 73
     1
 74
     0
 75
     0
 76
     0
 77
     0
 78
     0
281
     0
 65
     1
110
0.0
120
0.0
130
0.0
111
1.0
121
0.0
131
0.0
112
0.0
122
1.0
132
0.0
 79
     0
146
0.0
1001
ACAD_NAV_VCDISPLAY
1070
     3
  0
ENDTAB
  0
TABLE
  2
LTYPE
  5
BE07
330
0
100
AcDbSymbolTable
 70
     4
  0
LTYPE
  5
BE15
330
BE07
100
AcDbSymbolTableRecord
100
AcDbLinetypeTableRecord
  2
BYBLOCK
 70
     0
  3

 72
    65
 73
     0
 40
0.0
  0
LTYPE
  5
BE16
330
BE07
100
AcDbSymbolTableRecord
100
AcDbLinetypeTableRecord
  2
BYLAYER
 70
     0
  3

 72
    65
 73
     0
 40
0.0
  0
LTYPE
  5
BE17
330
BE07
100
AcDbSymbolTableRecord
100
AcDbLinetypeTableRecord
  2
CONTINUOUS
 70
     0
  3
Solid line
 72
    65
 73
     0
 40
0.0
  0
LTYPE
  5
BE25
330
BE07
100
AcDbSymbolTableRecord
100
AcDbLinetypeTableRecord
  2
DASHED
 70
     0
  3
__ __ __ __ __ __ __ __ __ __ __ __ __ __ __ __
 72
    65
 73
     2
 40
0.75
 49
0.5
 74
     0
 49
-0.25
 74
     0
  0
LTYPE
  5
BE26
330
BE07
100
AcDbSymbolTableRecord
100
AcDbLinetypeTableRecord
  2
CENTER
 70
     0
  3
____ _ ____ _ ____ _ ____ _ ____ _ ____ _ ____ 
 72
    65
 73
     4
 40
2.0
 49
1.25
 74
     0
 49
-0.25
 74
     0
 49
0.25
 74
     0
 49
-0.25
 74
     0
  0
LTYPE
  5
BE27
330
BE07
100
AcDbSymbolTableRecord
100
AcDbLinetypeTableRecord
  2
PHANTOM
 70
     0
  3
______  __  __  ______  __  __  ______  __  __ 
 72
    65
 73
     6
 40
2.5
 49
1.25
 74
     0
 49
-0.25
 74
     0
 49
0.25
 74
     0
 49
-0.25
 74
     0
 49
0.25
 74
     0
 49
-0.25
 74
     0
  0
ENDTAB
  0
TABLE
  2
LAYER
  5
BE04
330
0
100
AcDbSymbolTable
 70
     8
  0
LAYER
  5
BE12
102
{ACAD_XDICTIONARY
360
C2DE
102
}
330
BE04
100
AcDbSymbolTableRecord
100
AcDbLayerTableRecord
  2
0
 70
     0
 62
     7
  6
CONTINUOUS
370
    -3
390
C28C
  0
LAYER
  5
BE28
102
{ACAD_XDICTIONARY
360
C2E0
102
}
330
BE04
100
AcDbSymbolTableRecord
100
AcDbLayerTableRecord
  2
4
 70
     0
 62
     1
  6
CENTER
370
    -3
390
C28C
  0
LAYER
  5
BE29
102
{ACAD_XDICTIONARY
360
C2E2
102
}
330
BE04
100
AcDbSymbolTableRecord
100
AcDbLayerTableRecord
  2
5
 70
     0
 62
     6
  6
PHANTOM
370
    -3
390
C28C
  0
LAYER
  5
BE2A
102
{ACAD_XDICTIONARY
360
C2E4
102
}
330
BE04
100
AcDbSymbolTableRecord
100
AcDbLayerTableRecord
  2
1
 70
     0
 62
     7
  6
CONTINUOUS
370
    -3
390
C28C
  0
LAYER
  5
BE2B
102
{ACAD_XDICTIONARY
360
C2E6
102
}
330
BE04
100
AcDbSymbolTableRecord
100
AcDbLayerTableRecord
  2
2
 70
     0
 62
     4
  6
CONTINUOUS
370
    -3
390
C28C
  0
LAYER
  5
BE2C
102
{ACAD_XDICTIONARY
360
C2E8
102
}
330
BE04
100
AcDbSymbolTableRecord
100
AcDbLayerTableRecord
  2
3
 70
     0
 62
     2
  6
DASHED
370
    -3
390
C28C
  0
LAYER
  5
BE2D
102
{ACAD_XDICTIONARY
360
C2EA
102
}
330
BE04
100
AcDbSymbolTableRecord
100
AcDbLayerTableRecord
  2
6
 70
     0
 62
     5
  6
CONTINUOUS
370
    -3
390
C28C
  0
LAYER
  5
BE2E
102
{ACAD_XDICTIONARY
360
C2EC
102
}
330
BE04
100
AcDbSymbolTableRecord
100
AcDbLayerTableRecord
  2
7
 70
     0
 62
     3
  6
CONTINUOUS
370
    -3
390
C28C
  0
ENDTAB
  0
TABLE
  2
STYLE
  5
BE05
330
0
100
AcDbSymbolTable
 70
     1
  0
STYLE
  5
BE13
330
BE05
100
AcDbSymbolTableRecord
100
AcDbTextStyleTableRecord
  2
STANDARD
 70
     0
 40
0.0
 41
1.0
 50
0.0
 71
     0
 42
5.0
  3
txt
  4

  0
ENDTAB
  0
TABLE
  2
VIEW
  5
BE08
330
0
100
AcDbSymbolTable
 70
     0
  0
ENDTAB
  0
TABLE
  2
UCS
  5
BE09
330
0
100
AcDbSymbolTable
 70
     0
  0
ENDTAB
  0
TABLE
  2
APPID
  5
BE0B
330
0
100
AcDbSymbolTable
 70
     3
  0
APPID
  5
BE14
330
BE0B
100
AcDbSymbolTableRecord
100
AcDbRegAppTableRecord
  2
ACAD
 70
     0
  0
APPID
  5
C2F8
330
BE0B
100
AcDbSymbolTableRecord
100
AcDbRegAppTableRecord
  2
ACAD_NAV_VCDISPLAY
 70
     0
  0
APPID
  5
C331
330
BE0B
100
AcDbSymbolTableRecord
100
AcDbRegAppTableRecord
  2
ACAD_MLEADERVER
 70
     0
  0
ENDTAB
  0
TABLE
  2
DIMSTYLE
  5
BE0C
330
0
100
AcDbSymbolTable
 70
     1
100
AcDbDimStyleTable
 71
     0
  0
DIMSTYLE
105
BE30
330
BE0C
100
AcDbSymbolTableRecord
100
AcDbDimStyleTableRecord
  2
STANDARD
 70
     0
 41
3.0
 42
1.0
 43
10.0
 44
1.0
 73
     0
 74
     0
 77
     3
 78
     8
140
3.2
141
0.0
147
1.0
172
     1
173
     1
284
     8
285
     8
286
     8
340
BE13
  0
ENDTAB
  0
TABLE
  2
BLOCK_RECORD
  5
BE03
330
0
100
AcDbSymbolTable
 70
     1
  0
BLOCK_RECORD
  5
BE20
102
{ACAD_XDICTIONARY
360
C286
102
}
330
BE03
100
AcDbSymbolTableRecord
100
AcDbBlockTableRecord
  2
*MODEL_SPACE
340
C2DA
  0
BLOCK_RECORD
  5
BE1C
102
{ACAD_XDICTIONARY
360
C284
102
}
330
BE03
100
AcDbSymbolTableRecord
100
AcDbBlockTableRecord
  2
*PAPER_SPACE
340
C2DB
  0
BLOCK_RECORD
  5
BE38
330
BE03
100
AcDbSymbolTableRecord
100
AcDbBlockTableRecord
  2
_OPEN
340
0
  0
ENDTAB
  0
ENDSEC
  0
SECTION
  2
BLOCKS
  0
BLOCK
  5
BE21
330
BE20
100
AcDbEntity
  8
0
100
AcDbBlockBegin
  2
*MODEL_SPACE
 70
     0
 10
0.0
 20
0.0
 30
0.0
  3
*MODEL_SPACE
  1

  0
ENDBLK
  5
BE22
330
BE20
100
AcDbEntity
  8
0
100
AcDbBlockEnd
  0
BLOCK
  5
BE1D
330
BE1C
100
AcDbEntity
 67
     1
  8
0
100
AcDbBlockBegin
  2
*PAPER_SPACE
 70
     0
 10
0.0
 20
0.0
 30
0.0
  3
*PAPER_SPACE
  1

  0
ENDBLK
  5
BE1E
330
BE1C
100
AcDbEntity
 67
     1
  8
0
100
AcDbBlockEnd
  0
BLOCK
  5
BE39
330
BE38
100
AcDbEntity
  8
0
100
AcDbBlockBegin
  2
_OPEN
 70
     0
 10
0.0
 20
0.0
 30
0.0
  3
_OPEN
  1

  0
LINE
  5
BE3A
330
BE38
100
AcDbEntity
  8
0
  6
ByBlock
 62
     0
100
AcDbLine
 10
-1.0
 20
0.166667
 30
0.0
 11
0.0
 21
0.0
 31
0.0
  0
LINE
  5
BE3B
330
BE38
100
AcDbEntity
  8
0
  6
ByBlock
 62
     0
100
AcDbLine
 10
0.0
 20
0.0
 30
0.0
 11
-1.0
 21
-0.166667
 31
0.0
  0
LINE
  5
BE3C
330
BE38
100
AcDbEntity
  8
0
  6
ByBlock
 62
     0
100
AcDbLine
 10
0.0
 20
0.0
 30
0.0
 11
-1.0
 21
0.0
 31
0.0
  0
ENDBLK
  5
BE3D
330
BE38
100
AcDbEntity
  8
0
100
AcDbBlockEnd
  0
ENDSEC
  0
SECTION
  2
ENTITIES
  0
TEXT
  5
BE3E
330
BE20
100
AcDbEntity
  8
7
  6
Continuous
100
AcDbText
 10
10.0
 20
18.0
 30
0.0
 40
3.0
  1
TYPE No.308S
100
AcDbText
  0
TEXT
  5
BE3F
330
BE20
100
AcDbEntity
  8
7
  6
Continuous
100
AcDbText
 10
10.0
 20
26.0
 30
0.0
 40
3.0
  1
CODE No.9322
100
AcDbText
  0
TEXT
  5
BE40
330
BE20
100
AcDbEntity
  8
1
  6
Continuous
100
AcDbText
 10
10.0
 20
10.0
 30
0.0
 40
1.399999999999999
  1
LAYER
100
AcDbText
  0
TEXT
  5
BE41
330
BE20
100
AcDbEntity
  8
1
  6
Continuous
100
AcDbText
 10
17.97951099999998
 20
10.04873699999998
 30
0.0
 40
1.399999999999999
  1
1
100
AcDbText
  0
TEXT
  5
BE42
330
BE20
100
AcDbEntity
  8
7
  6
Continuous
100
AcDbText
 10
29.97951099999999
 20
10.04873699999998
 30
0.0
 40
1.399999999999999
  1
7
100
AcDbText
  0
TEXT
  5
BE43
330
BE20
100
AcDbEntity
  8
4
  6
CENTER
100
AcDbText
 10
23.97951099999999
 20
10.04873699999998
 30
0.0
 40
1.399999999999999
  1
4
100
AcDbText
  0
TEXT
  5
BE44
330
BE20
100
AcDbEntity
  8
3
  6
DASHED
100
AcDbText
 10
21.979511
 20
10.04873699999998
 30
0.0
 40
1.399999999999999
  1
3
100
AcDbText
  0
TEXT
  5
BE45
330
BE20
100
AcDbEntity
  8
2
  6
Continuous
100
AcDbText
 10
19.97951099999999
 20
10.04873699999998
 30
0.0
 40
1.399999999999999
  1
2
100
AcDbText
  0
TEXT
  5
BE46
330
BE20
100
AcDbEntity
  8
6
  6
Continuous
100
AcDbText
 10
27.979511
 20
10.04873699999998
 30
0.0
 40
1.399999999999999
  1
6
100
AcDbText
  0
TEXT
  5
BE47
330
BE20
100
AcDbEntity
  8
5
  6
PHANTOM
100
AcDbText
 10
25.97951099999999
 20
10.04873699999998
 30
0.0
 40
1.399999999999999
  1
5
100
AcDbText
  0
LINE
  5
BE48
330
BE20
100
AcDbEntity
  8
4
  6
CENTER
100
AcDbLine
 10
319.009862
 20
229.6277349999999
 30
0.0
 11
379.6262299999999
 21
229.6277349999999
 31
0.0
  0
LINE
  5
BE49
330
BE20
100
AcDbEntity
  8
1
  6
Continuous
100
AcDbLine
 10
325.6976399999999
 20
304.462739
 30
0.0
 11
378.919843
 21
304.462739
 31
0.0
  0
LINE
  5
BE4A
330
BE20
100
AcDbEntity
  8
4
  6
CENTER
100
AcDbLine
 10
282.2363389999998
 20
229.6277389999999
 30
0.0
 11
136.2363389999998
 21
229.6277389999999
 31
0.0
  0
LINE
  5
BE4B
330
BE20
100
AcDbEntity
  8
4
  6
CENTER
100
AcDbLine
 10
278.9418729999998
 20
424.324648
 30
0.0
 11
139.2363389999998
 21
424.324648
 31
0.0
  0
LINE
  5
BE4C
330
BE20
100
AcDbEntity
  8
4
  6
CENTER
100
AcDbLine
 10
245.2363389999999
 20
390.349626
 30
0.0
 11
245.2363389999999
 21
458.2996709999998
 31
0.0
  0
LINE
  5
BE4D
330
BE20
100
AcDbEntity
  8
4
  6
CENTER
100
AcDbLine
 10
352.233743
 20
350.627923
 30
0.0
 11
352.233743
 21
156.777739
 31
0.0
  0
ARC
  5
BE4E
330
BE20
100
AcDbEntity
  8
1
  6
Continuous
100
AcDbCircle
 10
105.9851689999999
 20
195.920948
 30
0.0
 40
277.8421779999998
100
AcDbArc
 50
13.58600199999999
 51
19.83204999999999
  0
ARC
  5
BE4F
330
BE20
100
AcDbEntity
  8
1
  6
Continuous
100
AcDbCircle
 10
105.9496709999999
 20
195.752224
 30
0.0
 40
280.2147699999999
100
AcDbArc
 50
13.044057
 51
19.16351999999999
  0
ARC
  5
BE50
330
BE20
100
AcDbEntity
  8
1
  6
Continuous
100
AcDbCircle
 10
347.197645
 20
251.827299
 30
0.0
 40
32.53609799999999
100
AcDbArc
 50
2.672433999999999
 51
12.72982799999999
  0
LINE
  5
BE51
330
BE20
100
AcDbEntity
  8
1
  6
Continuous
100
AcDbLine
 10
370.5865249999998
 20
226.8988069999998
 30
0.0
 11
370.576723
 21
217.1277529999999
 31
0.0
  0
ARC
  5
BE52
330
BE20
100
AcDbEntity
  8
1
  6
Continuous
100
AcDbCircle
 10
361.781274
 20
288.20501
 30
0.0
 40
5.908440999999998
100
AcDbArc
 50
19.557187
 51
71.279225
  0
ARC
  5
BE53
330
BE20
100
AcDbEntity
  8
1
  6
Continuous
100
AcDbCircle
 10
361.921012
 20
284.7600429999999
 30
0.0
 40
9.209889
100
AcDbArc
 50
18.85874099999998
 51
79.00453
  0
ARC
  5
BE54
330
BE20
100
AcDbEntity
  8
1
  6
Continuous
100
AcDbCircle
 10
352.233743
 20
234.9023229999999
 30
0.0
 40
60.0
100
AcDbArc
 50
79.00453
 51
100.9954699999999
  0
LINE
  5
BE55
330
BE20
100
AcDbEntity
  8
4
  6
CENTER
100
AcDbLine
 10
245.2363389999999
 20
249.214135
 30
0.0
 11
245.2363389999999
 21
350.627923
 31
0.0
  0
LINE
  5
BE56
330
BE20
100
AcDbEntity
  8
1
  6
Continuous
100
AcDbLine
 10
223.76406
 20
300.798268
 30
0.0
 11
223.76406
 21
242.429823
 31
0.0
  0
ARC
  5
BE57
330
BE20
100
AcDbEntity
  8
1
  6
Continuous
100
AcDbCircle
 10
107.3197639999999
 20
351.653945
 30
0.0
 40
171.799
100
AcDbArc
 50
317.908121
 51
339.6990839999999
  0
ARC
  5
BE58
330
BE20
100
AcDbEntity
  8
1
  6
Continuous
100
AcDbCircle
 10
80.74851200000003
 20
296.1153649999999
 30
0.0
 40
132.243177
100
AcDbArc
 50
337.884289
 51
2.590463
  0
LINE
  5
BE59
330
BE20
100
AcDbEntity
  8
1
  6
Continuous
100
AcDbLine
 10
271.9224389999999
 20
304.312739
 30
0.0
 11
218.5502389999999
 21
304.312739
 31
0.0
  0
ARC
  5
BE5A
330
BE20
100
AcDbEntity
  8
1
  6
Continuous
100
AcDbCircle
 10
266.252922
 20
300.152624
 30
0.0
 40
6.768752
100
AcDbArc
 50
16.69546099999999
 51
28.62323099999998
  0
ARC
  5
BE5B
330
BE20
100
AcDbEntity
  8
1
  6
Continuous
100
AcDbCircle
 10
269.50967
 20
301.929974
 30
0.0
 40
3.058577999999998
100
AcDbArc
 50
28.62323099999998
 51
51.173052
  0
LINE
  5
BE5C
330
BE20
100
AcDbEntity
  8
1
  6
Continuous
100
AcDbLine
 10
209.418711
 20
302.091789
 30
0.0
 11
223.7636549999999
 21
302.091789
 31
0.0
  0
ARC
  5
BE5D
330
BE20
100
AcDbEntity
  8
1
  6
Continuous
100
AcDbCircle
 10
221.4179389999999
 20
302.519206
 30
0.0
 40
2.384338999999997
100
AcDbArc
 50
349.6733199999998
 51
48.78250799999999
  0
ARC
  5
BE5E
330
BE20
100
AcDbEntity
  8
1
  6
Continuous
100
AcDbCircle
 10
217.7253169999999
 20
303.2410889999998
 30
0.0
 40
1.188780999999998
100
AcDbArc
 50
284.807772
 51
2.109159
  0
ARC
  5
BE5F
330
BE20
100
AcDbEntity
  8
1
  6
Continuous
100
AcDbCircle
 10
221.1087229999999
 20
302.604599
 30
0.0
 40
2.298399999999999
100
AcDbArc
 50
131.996419
 51
162.784696
  0
LINE
  5
BE60
330
BE20
100
AcDbEntity
  8
1
  6
Continuous
100
AcDbLine
 10
209.260104
 20
299.5381619999998
 30
0.0
 11
212.947386
 21
299.5381619999998
 31
0.0
  0
ARC
  5
BE61
330
BE20
100
AcDbEntity
  8
1
  6
Continuous
100
AcDbCircle
 10
210.1356829999998
 20
301.1713379999998
 30
0.0
 40
2.172123
100
AcDbArc
 50
163.484735
 51
182.237079
  0
ARC
  5
BE62
330
BE20
100
AcDbEntity
  8
1
  6
Continuous
100
AcDbCircle
 10
199.7357799999998
 20
299.1607989999998
 30
0.0
 40
8.451753
100
AcDbArc
 50
4.483236999999999
 51
13.17066
  0
ARC
  5
BE63
330
BE20
100
AcDbEntity
  8
1
  6
Continuous
100
AcDbCircle
 10
208.578211
 20
301.029678
 30
0.0
 40
0.9230079999999999
100
AcDbArc
 50
108.7945229999998
 51
124.668912
  0
LINE
  5
BE64
330
BE20
100
AcDbEntity
  8
1
  6
Continuous
100
AcDbLine
 10
208.2973739999999
 20
299.65751
 30
0.0
 11
208.1616719999999
 21
299.821451
 31
0.0
  0
ARC
  5
BE65
330
BE20
100
AcDbEntity
  8
1
  6
Continuous
100
AcDbCircle
 10
209.260104
 20
303.480799
 30
0.0
 40
3.942636999999998
100
AcDbArc
 50
255.866358
 51
270.0
  0
ARC
  5
BE66
330
BE20
100
AcDbEntity
  8
1
  6
Continuous
100
AcDbCircle
 10
209.418711
 20
298.5599509999999
 30
0.0
 40
3.531837999999998
100
AcDbArc
 50
90.0
 51
108.7945229999998
  0
LINE
  5
BE67
330
BE20
100
AcDbEntity
  8
4
  6
CENTER
100
AcDbLine
 10
66.238934
 20
350.6279369999999
 30
0.0
 11
66.238934
 21
156.6277389999999
 31
0.0
  0
LINE
  5
BE68
330
BE20
100
AcDbEntity
  8
1
  6
Continuous
100
AcDbLine
 10
84.663128
 20
298.0877899999999
 30
0.0
 11
84.616552
 21
251.657473
 31
0.0
  0
LINE
  5
BE69
330
BE20
100
AcDbEntity
  8
1
  6
Continuous
100
AcDbLine
 10
82.06357699999998
 20
298.537173
 30
0.0
 11
82.01655100000001
 21
251.657473
 31
0.0
  0
LINE
  5
BE6A
330
BE20
100
AcDbEntity
  8
1
  6
Continuous
100
AcDbLine
 10
47.81474099999999
 20
298.0877899999999
 30
0.0
 11
47.896105
 21
216.9777529999998
 31
0.0
  0
LINE
  5
BE6B
330
BE20
100
AcDbEntity
  8
1
  6
Continuous
100
AcDbLine
 10
50.414291
 20
298.537173
 30
0.0
 11
50.496107
 21
216.9777529999998
 31
0.0
  0
ARC
  5
BE6C
330
BE20
100
AcDbEntity
  8
1
  6
Continuous
100
AcDbCircle
 10
53.938665
 20
254.901466
 30
0.0
 40
39.801511
100
AcDbArc
 50
338.6329589999999
 51
349.0860599999999
  0
ARC
  5
BE6D
330
BE20
100
AcDbEntity
  8
1
  6
Continuous
100
AcDbCircle
 10
78.539203
 20
254.901466
 30
0.0
 40
39.801511
100
AcDbArc
 50
180.452642
 51
210.446211
  0
LINE
  5
BE6E
330
BE20
100
AcDbEntity
  8
4
  6
CENTER
100
AcDbLine
 10
38.33146
 20
229.6277529999999
 30
0.0
 11
99.74338000000001
 21
229.6277529999999
 31
0.0
  0
LINE
  5
BE6F
330
BE20
100
AcDbEntity
  8
1
  6
Continuous
100
AcDbLine
 10
47.896105
 20
216.9777529999998
 30
0.0
 11
50.496107
 21
216.9777529999998
 31
0.0
  0
LINE
  5
BE70
330
BE20
100
AcDbEntity
  8
1
  6
Continuous
100
AcDbLine
 10
50.488934
 20
224.127753
 30
0.0
 11
50.488934
 21
229.6277529999999
 31
0.0
  0
LINE
  5
BE71
330
BE20
100
AcDbEntity
  8
1
  6
Continuous
100
AcDbLine
 10
51.41429099999999
 20
299.5381759999999
 30
0.0
 11
81.06357800000003
 21
299.5381759999999
 31
0.0
  0
LINE
  5
BE72
330
BE20
100
AcDbEntity
  8
1
  6
Continuous
100
AcDbLine
 10
51.814739
 20
302.0918029999999
 30
0.0
 11
80.66312999999999
 21
302.0918029999999
 31
0.0
  0
LINE
  5
BE73
330
BE20
100
AcDbEntity
  8
1
  6
Continuous
100
AcDbLine
 10
39.552826
 20
304.312753
 30
0.0
 11
92.925026
 21
304.312753
 31
0.0
  0
ARC
  5
BE74
330
BE20
100
AcDbEntity
  8
1
  6
Continuous
100
AcDbCircle
 10
51.814739
 20
298.0918029999999
 30
0.0
 40
4.0
100
AcDbArc
 50
90.0
 51
180.057476
  0
ARC
  5
BE75
330
BE20
100
AcDbEntity
  8
1
  6
Continuous
100
AcDbCircle
 10
51.41429099999999
 20
298.5381759999999
 30
0.0
 40
1.0
100
AcDbArc
 50
90.0
 51
180.057476
  0
ARC
  5
BE76
330
BE20
100
AcDbEntity
  8
1
  6
Continuous
100
AcDbCircle
 10
81.06357800000003
 20
298.5381759999999
 30
0.0
 40
1.0
100
AcDbArc
 50
359.9425239999998
 51
90.0
  0
ARC
  5
BE77
330
BE20
100
AcDbEntity
  8
1
  6
Continuous
100
AcDbCircle
 10
80.66312999999999
 20
298.0918029999999
 30
0.0
 40
4.0
100
AcDbArc
 50
359.9425239999998
 51
90.0
  0
LINE
  5
BE78
330
BE20
100
AcDbEntity
  8
1
  6
Continuous
100
AcDbLine
 10
38.738934
 20
297.5437529999999
 30
0.0
 11
38.738934
 21
254.587033
 31
0.0
  0
LINE
  5
BE79
330
BE20
100
AcDbEntity
  8
1
  6
Continuous
100
AcDbLine
 10
93.738934
 20
297.5437529999999
 30
0.0
 11
93.738934
 21
254.587033
 31
0.0
  0
ARC
  5
BE7A
330
BE20
100
AcDbEntity
  8
1
  6
Continuous
100
AcDbCircle
 10
45.50793399999998
 20
297.5437529999999
 30
0.0
 40
6.769
100
AcDbArc
 50
90.0
 51
180.0
  0
ARC
  5
BE7B
330
BE20
100
AcDbEntity
  8
1
  6
Continuous
100
AcDbCircle
 10
86.96993399999998
 20
297.5437529999999
 30
0.0
 40
6.769
100
AcDbArc
 50
0.0
 51
90.0
  0
LINE
  5
BE7C
330
BE20
100
AcDbEntity
  8
1
  6
Continuous
100
AcDbLine
 10
379.733743
 20
297.336739
 30
0.0
 11
379.733743
 21
254.7370059999999
 31
0.0
  0
LINE
  5
BE7D
330
BE20
100
AcDbEntity
  8
1
  6
Continuous
100
AcDbLine
 10
324.7337429999999
 20
297.336739
 30
0.0
 11
324.7337429999999
 21
254.73706
 31
0.0
  0
ARC
  5
BE7E
330
BE20
100
AcDbEntity
  8
1
  6
Continuous
100
AcDbCircle
 10
331.859743
 20
297.336739
 30
0.0
 40
7.126
100
AcDbArc
 50
90.0
 51
180.0
  0
ARC
  5
BE7F
330
BE20
100
AcDbEntity
  8
1
  6
Continuous
100
AcDbCircle
 10
372.607743
 20
297.336739
 30
0.0
 40
7.126
100
AcDbArc
 50
0.0
 51
90.0
  0
ARC
  5
BE80
330
BE20
100
AcDbEntity
  8
1
  6
Continuous
100
AcDbCircle
 10
598.4823169999997
 20
195.920948
 30
0.0
 40
277.8421779999998
100
AcDbArc
 50
160.1679499999999
 51
166.985586
  0
ARC
  5
BE81
330
BE20
100
AcDbEntity
  8
1
  6
Continuous
100
AcDbCircle
 10
598.517816
 20
195.752224
 30
0.0
 40
280.2147699999999
100
AcDbArc
 50
160.8364799999999
 51
166.9559429999999
  0
ARC
  5
BE82
330
BE20
100
AcDbEntity
  8
1
  6
Continuous
100
AcDbCircle
 10
342.5464739999999
 20
284.7600429999999
 30
0.0
 40
9.209889
100
AcDbArc
 50
100.9954699999999
 51
161.141259
  0
ARC
  5
BE83
330
BE20
100
AcDbEntity
  8
1
  6
Continuous
100
AcDbCircle
 10
342.686212
 20
288.20501
 30
0.0
 40
5.908440999999998
100
AcDbArc
 50
108.720775
 51
160.442813
  0
ARC
  5
BE84
330
BE20
100
AcDbEntity
  8
1
  6
Continuous
100
AcDbCircle
 10
339.933474
 20
255.051466
 30
0.0
 40
39.801511
100
AcDbArc
 50
324.005645
 51
359.5473579999999
  0
LINE
  5
BE85
330
BE20
100
AcDbEntity
  8
1
  6
Continuous
100
AcDbLine
 10
336.419599
 20
288.221586
 30
0.0
 11
336.4590559999999
 21
248.887654
 31
0.0
  0
LINE
  5
BE86
330
BE20
100
AcDbEntity
  8
1
  6
Continuous
100
AcDbLine
 10
368.0478879999999
 20
288.221585
 30
0.0
 11
367.9765699999999
 21
217.1277529999999
 31
0.0
  0
LINE
  5
BE87
330
BE20
100
AcDbEntity
  8
1
  6
Continuous
100
AcDbLine
 10
370.576723
 20
217.1277529999999
 30
0.0
 11
367.9765699999999
 21
217.1277529999999
 31
0.0
  0
ARC
  5
BE88
330
BE20
100
AcDbEntity
  8
1
  6
Continuous
100
AcDbCircle
 10
378.701521
 20
226.890666
 30
0.0
 40
8.115
100
AcDbArc
 50
144.0056449999999
 51
179.942522
  0
ARC
  5
BE89
330
BE20
100
AcDbEntity
  8
1
  6
Continuous
100
AcDbCircle
 10
339.933474
 20
255.051466
 30
0.0
 40
37.20151099999998
100
AcDbArc
 50
324.005645
 51
344.602802
  0
ARC
  5
BE8A
330
BE20
100
AcDbEntity
  8
1
  6
Continuous
100
AcDbCircle
 10
378.701521
 20
226.890666
 30
0.0
 40
10.715
100
AcDbArc
 50
144.0056449999999
 51
179.942522
  0
ARC
  5
BE8B
330
BE20
100
AcDbEntity
  8
1
  6
Continuous
100
AcDbCircle
 10
344.9482949999999
 20
253.670418
 30
0.0
 40
32.0
100
AcDbArc
 50
344.602802
 51
13.58600199999999
  0
ARC
  5
BE8C
330
BE20
100
AcDbEntity
  8
1
  6
Continuous
100
AcDbCircle
 10
359.5191919999999
 20
253.670418
 30
0.0
 40
32.0
100
AcDbArc
 50
166.4139979999999
 51
195.3971979999998
  0
ARC
  5
BE8D
330
BE20
100
AcDbEntity
  8
1
  6
Continuous
100
AcDbCircle
 10
357.269841
 20
251.827299
 30
0.0
 40
32.53609799999999
100
AcDbArc
 50
167.270172
 51
177.3275659999999
  0
ARC
  5
BE8E
330
BE20
100
AcDbEntity
  8
1
  6
Continuous
100
AcDbCircle
 10
364.534012
 20
255.051466
 30
0.0
 40
39.801511
100
AcDbArc
 50
180.452642
 51
208.1055469999999
  0
ARC
  5
BE8F
330
BE20
100
AcDbEntity
  8
1
  6
Continuous
100
AcDbCircle
 10
364.534012
 20
255.051466
 30
0.0
 40
37.20151099999998
100
AcDbArc
 50
195.3971979999998
 51
196.292101
  0
LINE
  5
BE90
330
BE20
100
AcDbEntity
  8
1
  6
Continuous
100
AcDbLine
 10
272.7363389999998
 20
294.7523229999998
 30
0.0
 11
272.7363389999998
 21
302.0971829999999
 31
0.0
  0
ARC
  5
BE91
330
BE20
100
AcDbEntity
  8
1
  6
Continuous
100
AcDbCircle
 10
272.588482
 20
290.2331859999998
 30
0.0
 40
4.521554
100
AcDbArc
 50
88.126069
 51
156.3338149999998
  0
LINE
  5
BE92
330
BE20
100
AcDbEntity
  8
4
  6
CENTER
100
AcDbLine
 10
279.236357
 20
87.422368
 30
0.0
 11
139.2363389999998
 21
87.422368
 31
0.0
  0
LINE
  5
BE93
330
BE20
100
AcDbEntity
  8
4
  6
CENTER
100
AcDbLine
 10
245.2363389999999
 20
119.922368
 30
0.0
 11
245.2363389999999
 21
54.922368
 31
0.0
  0
LINE
  5
BE94
330
BE20
100
AcDbEntity
  8
1
  6
Continuous
100
AcDbLine
 10
196.836339
 20
71.65441300000002
 30
0.0
 11
220.1895700000001
 21
71.67783900000002
 31
0.0
  0
LINE
  5
BE95
330
BE20
100
AcDbEntity
  8
1
  6
Continuous
100
AcDbLine
 10
196.836339
 20
69.054411
 30
0.0
 11
220.19218
 21
69.07784000000001
 31
0.0
  0
LINE
  5
BE96
330
BE20
100
AcDbEntity
  8
1
  6
Continuous
100
AcDbLine
 10
213.236339
 20
71.67086399999998
 30
0.0
 11
213.236339
 21
71.67236800000002
 31
0.0
  0
LINE
  5
BE97
330
BE20
100
AcDbEntity
  8
1
  6
Continuous
100
AcDbLine
 10
214.7363389999999
 20
71.67236800000002
 30
0.0
 11
209.236339
 21
71.67236800000002
 31
0.0
  0
LINE
  5
BE98
330
BE20
100
AcDbEntity
  8
1
  6
Continuous
100
AcDbLine
 10
203.7363389999999
 20
71.67236800000002
 30
0.0
 11
209.236339
 21
71.67236800000002
 31
0.0
  0
LINE
  5
BE99
330
BE20
100
AcDbEntity
  8
4
  6
CENTER
100
AcDbLine
 10
209.236339
 20
120.960719
 30
0.0
 11
209.236339
 21
59.06685
 31
0.0
  0
ARC
  5
BE9A
330
BE20
100
AcDbEntity
  8
1
  6
Continuous
100
AcDbCircle
 10
245.2363389999999
 20
87.422368
 30
0.0
 40
27.5
100
AcDbArc
 50
229.821137
 51
333.762068
  0
ARC
  5
BE9B
330
BE20
100
AcDbEntity
  8
1
  6
Continuous
100
AcDbCircle
 10
245.2363389999999
 20
87.422368
 30
0.0
 40
24.9
100
AcDbArc
 50
229.8211349999999
 51
329.8670609999998
  0
LINE
  5
BE9C
330
BE20
100
AcDbEntity
  8
1
  6
Continuous
100
AcDbLine
 10
196.836339
 20
71.65441300000002
 30
0.0
 11
196.836339
 21
69.054411
 31
0.0
  0
LINE
  5
BE9D
330
BE20
100
AcDbEntity
  8
1
  6
Continuous
100
AcDbLine
 10
221.431643
 20
69.07908299999999
 30
0.0
 11
221.447699
 21
69.07908299999999
 31
0.0
  0
ARC
  5
BE9E
330
BE20
100
AcDbEntity
  8
1
  6
Continuous
100
AcDbCircle
 10
245.2363389999999
 20
87.422368
 30
0.0
 40
24.9
100
AcDbArc
 50
30.132939
 51
34.11649699999999
  0
ARC
  5
BE9F
330
BE20
100
AcDbEntity
  8
1
  6
Continuous
100
AcDbCircle
 10
245.2363389999999
 20
87.422368
 30
0.0
 40
27.5
100
AcDbArc
 50
26.237932
 51
30.818017
  0
ARC
  5
BEA0
330
BE20
100
AcDbEntity
  8
1
  6
Continuous
100
AcDbCircle
 10
245.2363389999999
 20
87.422368
 30
0.0
 40
20.89999999999999
100
AcDbArc
 50
36.732949
 51
41.197625
  0
ARC
  5
BEA1
330
BE20
100
AcDbEntity
  8
1
  6
Continuous
100
AcDbCircle
 10
245.2363389999999
 20
87.422368
 30
0.0
 40
20.89999999999999
100
AcDbArc
 50
219.044124
 51
323.267051
  0
LINE
  5
BEA2
330
BE20
100
AcDbEntity
  8
1
  6
Continuous
100
AcDbLine
 10
203.2363389999999
 20
233.0918409999999
 30
0.0
 11
203.2363389999999
 21
226.163638
 31
0.0
  0
LINE
  5
BEA3
330
BE20
100
AcDbEntity
  8
1
  6
Continuous
100
AcDbLine
 10
215.236339
 20
233.0918409999999
 30
0.0
 11
215.236339
 21
226.163638
 31
0.0
  0
CIRCLE
  5
BEA4
330
BE20
100
AcDbEntity
  8
1
  6
Continuous
100
AcDbCircle
 10
209.236339
 20
229.6277389999999
 30
0.0
 40
6.0
  0
LINE
  5
BEA5
330
BE20
100
AcDbEntity
  8
1
  6
Continuous
100
AcDbLine
 10
209.236339
 20
222.699536
 30
0.0
 11
215.236339
 21
226.163638
 31
0.0
  0
LINE
  5
BEA6
330
BE20
100
AcDbEntity
  8
1
  6
Continuous
100
AcDbLine
 10
209.236339
 20
222.699536
 30
0.0
 11
203.2363389999999
 21
226.163638
 31
0.0
  0
LINE
  5
BEA7
330
BE20
100
AcDbEntity
  8
1
  6
Continuous
100
AcDbLine
 10
215.236339
 20
233.0918409999999
 30
0.0
 11
209.236339
 21
236.5559419999999
 31
0.0
  0
LINE
  5
BEA8
330
BE20
100
AcDbEntity
  8
1
  6
Continuous
100
AcDbLine
 10
203.2363389999999
 20
233.0918409999999
 30
0.0
 11
209.236339
 21
236.5559419999999
 31
0.0
  0
CIRCLE
  5
BEA9
330
BE20
100
AcDbEntity
  8
1
  6
Continuous
100
AcDbCircle
 10
209.236339
 20
229.6277389999999
 30
0.0
 40
4.0
  0
CIRCLE
  5
BEAA
330
BE20
100
AcDbEntity
  8
2
  6
Continuous
100
AcDbCircle
 10
209.236339
 20
229.6277389999999
 30
0.0
 40
3.3235
  0
LINE
  5
BEAB
330
BE20
100
AcDbEntity
  8
1
  6
Continuous
100
AcDbLine
 10
78.738934
 20
170.779255
 30
0.0
 11
78.738934
 21
288.4762499999999
 31
0.0
  0
LINE
  5
BEAC
330
BE20
100
AcDbEntity
  8
1
  6
Continuous
100
AcDbLine
 10
53.738934
 20
170.779255
 30
0.0
 11
53.738934
 21
288.4762499999999
 31
0.0
  0
ARC
  5
BEAD
330
BE20
100
AcDbEntity
  8
1
  6
Continuous
100
AcDbCircle
 10
66.238934
 20
194.627735
 30
0.0
 40
30.0
100
AcDbArc
 50
252.542397
 51
287.457603
  0
ARC
  5
BEAE
330
BE20
100
AcDbEntity
  8
1
  6
Continuous
100
AcDbCircle
 10
58.738934
 20
170.779255
 30
0.0
 40
5.0
100
AcDbArc
 50
180.0
 51
252.542397
  0
ARC
  5
BEAF
330
BE20
100
AcDbEntity
  8
1
  6
Continuous
100
AcDbCircle
 10
73.738934
 20
170.779255
 30
0.0
 40
5.0
100
AcDbArc
 50
287.457603
 51
0.0
  0
LINE
  5
BEB0
330
BE20
100
AcDbEntity
  8
1
  6
Continuous
100
AcDbLine
 10
51.238934
 20
222.6277529999999
 30
0.0
 11
51.238934
 21
236.627753
 31
0.0
  0
LINE
  5
BEB1
330
BE20
100
AcDbEntity
  8
1
  6
Continuous
100
AcDbLine
 10
52.238934
 20
221.6277529999999
 30
0.0
 11
52.238934
 21
237.6277529999999
 31
0.0
  0
ARC
  5
BEB2
330
BE20
100
AcDbEntity
  8
1
  6
Continuous
100
AcDbCircle
 10
53.06180999999998
 20
223.4506279999999
 30
0.0
 40
2.0
100
AcDbArc
 50
204.295189
 51
245.704811
  0
ARC
  5
BEB3
330
BE20
100
AcDbEntity
  8
1
  6
Continuous
100
AcDbCircle
 10
248.457737
 20
229.632221
 30
0.0
 40
196.382
100
AcDbArc
 50
182.3360049999998
 51
187.4621799999999
  0
ARC
  5
BEB4
330
BE20
100
AcDbEntity
  8
1
  6
Continuous
100
AcDbCircle
 10
-115.9798679999999
 20
229.632221
 30
0.0
 40
196.382
100
AcDbArc
 50
352.53782
 51
355.8339389999999
  0
ARC
  5
BEB5
330
BE20
100
AcDbEntity
  8
1
  6
Continuous
100
AcDbCircle
 10
248.45737
 20
229.6233149999999
 30
0.0
 40
196.381632
100
AcDbArc
 50
172.537815
 51
177.6639999999999
  0
LINE
  5
BEB6
330
BE20
100
AcDbEntity
  8
1
  6
Continuous
100
AcDbLine
 10
50.738934
 20
224.127753
 30
0.0
 11
50.738934
 21
235.1277529999999
 31
0.0
  0
LINE
  5
BEB7
330
BE20
100
AcDbEntity
  8
1
  6
Continuous
100
AcDbLine
 10
50.738934
 20
224.127753
 30
0.0
 11
51.238934
 21
224.127753
 31
0.0
  0
LINE
  5
BEB8
330
BE20
100
AcDbEntity
  8
1
  6
Continuous
100
AcDbLine
 10
50.48742999999999
 20
225.6277529999999
 30
0.0
 11
50.738934
 21
225.6277529999999
 31
0.0
  0
LINE
  5
BEB9
330
BE20
100
AcDbEntity
  8
1
  6
Continuous
100
AcDbLine
 10
50.738934
 20
235.1277529999999
 30
0.0
 11
51.238934
 21
235.1277529999999
 31
0.0
  0
LINE
  5
BEBA
330
BE20
100
AcDbEntity
  8
1
  6
Continuous
100
AcDbLine
 10
50.479405
 20
233.6277529999999
 30
0.0
 11
50.738934
 21
233.6277529999999
 31
0.0
  0
ARC
  5
BEBB
330
BE20
100
AcDbEntity
  8
1
  6
Continuous
100
AcDbCircle
 10
53.06180999999998
 20
235.8048769999999
 30
0.0
 40
2.0
100
AcDbArc
 50
114.2951889999998
 51
155.704811
  0
ARC
  5
BEBC
330
BE20
100
AcDbEntity
  8
1
  6
Continuous
100
AcDbCircle
 10
-115.9798679999999
 20
229.623284
 30
0.0
 40
196.382
100
AcDbArc
 50
4.517903999999997
 51
7.46218
  0
ARC
  5
BEBD
330
BE20
100
AcDbEntity
  8
1
  6
Continuous
100
AcDbCircle
 10
66.238934
 20
264.62777
 30
0.0
 40
30.0
100
AcDbArc
 50
72.54239699999998
 51
107.457603
  0
ARC
  5
BEBE
330
BE20
100
AcDbEntity
  8
1
  6
Continuous
100
AcDbCircle
 10
58.738934
 20
288.4762499999999
 30
0.0
 40
5.0
100
AcDbArc
 50
107.457603
 51
180.0
  0
ARC
  5
BEBF
330
BE20
100
AcDbEntity
  8
1
  6
Continuous
100
AcDbCircle
 10
73.738934
 20
288.4762499999999
 30
0.0
 40
5.0
100
AcDbArc
 50
0.0
 51
72.54239699999998
  0
LINE
  5
BEC0
330
BE20
100
AcDbEntity
  8
1
  6
Continuous
100
AcDbLine
 10
364.733743
 20
170.7792369999999
 30
0.0
 11
364.733743
 21
288.4762319999999
 31
0.0
  0
LINE
  5
BEC1
330
BE20
100
AcDbEntity
  8
1
  6
Continuous
100
AcDbLine
 10
339.733743
 20
170.7792369999999
 30
0.0
 11
339.733743
 21
288.4762319999999
 31
0.0
  0
ARC
  5
BEC2
330
BE20
100
AcDbEntity
  8
1
  6
Continuous
100
AcDbCircle
 10
352.233743
 20
194.6277169999999
 30
0.0
 40
30.0
100
AcDbArc
 50
252.542397
 51
287.457603
  0
ARC
  5
BEC3
330
BE20
100
AcDbEntity
  8
1
  6
Continuous
100
AcDbCircle
 10
344.733743
 20
170.7792369999999
 30
0.0
 40
5.0
100
AcDbArc
 50
180.0
 51
252.542397
  0
ARC
  5
BEC4
330
BE20
100
AcDbEntity
  8
1
  6
Continuous
100
AcDbCircle
 10
359.733743
 20
170.7792369999999
 30
0.0
 40
5.0
100
AcDbArc
 50
287.457603
 51
0.0
  0
LINE
  5
BEC5
330
BE20
100
AcDbEntity
  8
1
  6
Continuous
100
AcDbLine
 10
367.233743
 20
222.627735
 30
0.0
 11
367.233743
 21
236.627735
 31
0.0
  0
LINE
  5
BEC6
330
BE20
100
AcDbEntity
  8
1
  6
Continuous
100
AcDbLine
 10
366.233743
 20
221.6277349999999
 30
0.0
 11
366.233743
 21
237.627735
 31
0.0
  0
ARC
  5
BEC7
330
BE20
100
AcDbEntity
  8
1
  6
Continuous
100
AcDbCircle
 10
534.4525459999998
 20
229.6322029999998
 30
0.0
 40
196.382
100
AcDbArc
 50
185.8187189999999
 51
187.4621799999999
  0
ARC
  5
BEC8
330
BE20
100
AcDbEntity
  8
1
  6
Continuous
100
AcDbCircle
 10
365.410868
 20
223.45061
 30
0.0
 40
2.0
100
AcDbArc
 50
294.2951889999998
 51
335.704811
  0
ARC
  5
BEC9
330
BE20
100
AcDbEntity
  8
1
  6
Continuous
100
AcDbCircle
 10
170.0149409999999
 20
229.6322029999998
 30
0.0
 40
196.382
100
AcDbArc
 50
352.53782
 51
357.663995
  0
ARC
  5
BECA
330
BE20
100
AcDbEntity
  8
1
  6
Continuous
100
AcDbCircle
 10
534.4521789999999
 20
229.623297
 30
0.0
 40
196.381632
100
AcDbArc
 50
172.537815
 51
175.7173009999999
  0
ARC
  5
BECB
330
BE20
100
AcDbEntity
  8
1
  6
Continuous
100
AcDbCircle
 10
170.0149409999999
 20
229.623266
 30
0.0
 40
196.382
100
AcDbArc
 50
2.336005
 51
7.46218
  0
LINE
  5
BECC
330
BE20
100
AcDbEntity
  8
1
  6
Continuous
100
AcDbLine
 10
367.733743
 20
224.127735
 30
0.0
 11
367.733743
 21
235.127735
 31
0.0
  0
LINE
  5
BECD
330
BE20
100
AcDbEntity
  8
1
  6
Continuous
100
AcDbLine
 10
367.733743
 20
225.6277349999999
 30
0.0
 11
367.9850969999998
 21
225.6277349999999
 31
0.0
  0
LINE
  5
BECE
330
BE20
100
AcDbEntity
  8
1
  6
Continuous
100
AcDbLine
 10
367.733743
 20
233.627735
 30
0.0
 11
367.993122
 21
233.627735
 31
0.0
  0
ARC
  5
BECF
330
BE20
100
AcDbEntity
  8
1
  6
Continuous
100
AcDbCircle
 10
365.410868
 20
235.804859
 30
0.0
 40
2.0
100
AcDbArc
 50
24.295189
 51
65.70481099999999
  0
LINE
  5
BED0
330
BE20
100
AcDbEntity
  8
1
  6
Continuous
100
AcDbLine
 10
367.233743
 20
224.127735
 30
0.0
 11
367.733743
 21
224.127735
 31
0.0
  0
LINE
  5
BED1
330
BE20
100
AcDbEntity
  8
1
  6
Continuous
100
AcDbLine
 10
367.233743
 20
235.127735
 30
0.0
 11
367.733743
 21
235.127735
 31
0.0
  0
ARC
  5
BED2
330
BE20
100
AcDbEntity
  8
1
  6
Continuous
100
AcDbCircle
 10
352.233743
 20
264.6277519999998
 30
0.0
 40
30.0
100
AcDbArc
 50
72.54239699999998
 51
107.457603
  0
ARC
  5
BED3
330
BE20
100
AcDbEntity
  8
1
  6
Continuous
100
AcDbCircle
 10
344.733743
 20
288.4762319999999
 30
0.0
 40
5.0
100
AcDbArc
 50
107.457603
 51
180.0
  0
ARC
  5
BED4
330
BE20
100
AcDbEntity
  8
1
  6
Continuous
100
AcDbCircle
 10
359.733743
 20
288.4762319999999
 30
0.0
 40
5.0
100
AcDbArc
 50
0.0
 51
72.54239699999998
  0
LINE
  5
BED5
330
BE20
100
AcDbEntity
  8
1
  6
Continuous
100
AcDbLine
 10
268.084837
 20
74.922368
 30
0.0
 11
150.387842
 21
74.922368
 31
0.0
  0
LINE
  5
BED6
330
BE20
100
AcDbEntity
  8
1
  6
Continuous
100
AcDbLine
 10
268.084837
 20
99.922368
 30
0.0
 11
150.387842
 21
99.922368
 31
0.0
  0
ARC
  5
BED7
330
BE20
100
AcDbEntity
  8
1
  6
Continuous
100
AcDbCircle
 10
150.387842
 20
79.922368
 30
0.0
 40
5.0
100
AcDbArc
 50
197.457603
 51
270.0
  0
ARC
  5
BED8
330
BE20
100
AcDbEntity
  8
1
  6
Continuous
100
AcDbCircle
 10
150.387842
 20
94.922368
 30
0.0
 40
5.0
100
AcDbArc
 50
90.0
 51
162.5423969999999
  0
ARC
  5
BED9
330
BE20
100
AcDbEntity
  8
1
  6
Continuous
100
AcDbCircle
 10
174.236322
 20
87.422368
 30
0.0
 40
30.0
100
AcDbArc
 50
162.5423969999999
 51
197.457603
  0
ARC
  5
BEDA
330
BE20
100
AcDbEntity
  8
1
  6
Continuous
100
AcDbCircle
 10
268.084837
 20
79.922368
 30
0.0
 40
5.0
100
AcDbArc
 50
270.0
 51
342.542397
  0
LINE
  5
BEDB
330
BE20
100
AcDbEntity
  8
1
  6
Continuous
100
AcDbLine
 10
217.236339
 20
73.42236800000002
 30
0.0
 11
201.2363389999999
 21
73.42236800000002
 31
0.0
  0
LINE
  5
BEDC
330
BE20
100
AcDbEntity
  8
1
  6
Continuous
100
AcDbLine
 10
216.2363389999999
 20
72.422368
 30
0.0
 11
202.2363389999999
 21
72.422368
 31
0.0
  0
LINE
  5
BEDD
330
BE20
100
AcDbEntity
  8
1
  6
Continuous
100
AcDbLine
 10
214.7363389999999
 20
71.92236800000002
 30
0.0
 11
203.7363389999999
 21
71.92236800000002
 31
0.0
  0
ARC
  5
BEDE
330
BE20
100
AcDbEntity
  8
1
  6
Continuous
100
AcDbCircle
 10
209.240777
 20
269.640804
 30
0.0
 40
196.381632
100
AcDbArc
 50
262.5378149999999
 51
267.6639999999998
  0
LINE
  5
BEDF
330
BE20
100
AcDbEntity
  8
1
  6
Continuous
100
AcDbLine
 10
213.236339
 20
71.597859
 30
0.0
 11
213.236339
 21
71.92236800000002
 31
0.0
  0
LINE
  5
BEE0
330
BE20
100
AcDbEntity
  8
1
  6
Continuous
100
AcDbLine
 10
205.236339
 20
71.597859
 30
0.0
 11
205.236339
 21
71.92236800000002
 31
0.0
  0
ARC
  5
BEE1
330
BE20
100
AcDbEntity
  8
1
  6
Continuous
100
AcDbCircle
 10
203.0592149999999
 20
74.245244
 30
0.0
 40
2.0
100
AcDbArc
 50
204.295189
 51
245.704811
  0
LINE
  5
BEE2
330
BE20
100
AcDbEntity
  8
1
  6
Continuous
100
AcDbLine
 10
203.7363389999999
 20
71.92236800000002
 30
0.0
 11
203.7363389999999
 21
72.422368
 31
0.0
  0
ARC
  5
BEE3
330
BE20
100
AcDbEntity
  8
1
  6
Continuous
100
AcDbCircle
 10
209.2318709999999
 20
269.641171
 30
0.0
 40
196.382
100
AcDbArc
 50
272.336005
 51
277.4621799999998
  0
ARC
  5
BEE4
330
BE20
100
AcDbEntity
  8
1
  6
Continuous
100
AcDbCircle
 10
215.413464
 20
74.245244
 30
0.0
 40
2.0
100
AcDbArc
 50
294.2951889999998
 51
335.704811
  0
LINE
  5
BEE5
330
BE20
100
AcDbEntity
  8
1
  6
Continuous
100
AcDbLine
 10
214.7363389999999
 20
71.92236800000002
 30
0.0
 11
214.7363389999999
 21
72.422368
 31
0.0
  0
ARC
  5
BEE6
330
BE20
100
AcDbEntity
  8
1
  6
Continuous
100
AcDbCircle
 10
209.2408079999999
 20
-94.79643399999996
 30
0.0
 40
196.382
100
AcDbArc
 50
96.24572899999998
 51
97.46218000000002
  0
ARC
  5
BEE7
330
BE20
100
AcDbEntity
  8
1
  6
Continuous
100
AcDbCircle
 10
209.2318709999999
 20
-94.79643399999996
 30
0.0
 40
196.382
100
AcDbArc
 50
82.53781999999999
 51
83.75427100000003
  0
ARC
  5
BEE8
330
BE20
100
AcDbEntity
  8
1
  6
Continuous
100
AcDbCircle
 10
268.084837
 20
94.922368
 30
0.0
 40
5.0
100
AcDbArc
 50
17.45760299999999
 51
90.0
  0
ARC
  5
BEE9
330
BE20
100
AcDbEntity
  8
1
  6
Continuous
100
AcDbCircle
 10
244.2363569999999
 20
87.422368
 30
0.0
 40
30.0
100
AcDbArc
 50
342.542397
 51
17.45760299999999
  0
LINE
  5
BEEA
330
BE20
100
AcDbEntity
  8
1
  6
Continuous
100
AcDbLine
 10
202.2363389999999
 20
66.740612
 30
0.0
 11
202.2363389999999
 21
69.06685
 31
0.0
  0
LINE
  5
BEEB
330
BE20
100
AcDbEntity
  8
1
  6
Continuous
100
AcDbLine
 10
216.2363389999999
 20
66.740612
 30
0.0
 11
202.2363389999999
 21
66.740612
 31
0.0
  0
ARC
  5
BEEC
330
BE20
100
AcDbEntity
  8
1
  6
Continuous
100
AcDbCircle
 10
209.236339
 20
74.56685
 30
0.0
 40
10.5
100
AcDbArc
 50
228.1896849999998
 51
311.810315
  0
LINE
  5
BEED
330
BE20
100
AcDbEntity
  8
1
  6
Continuous
100
AcDbLine
 10
216.2363389999999
 20
66.740612
 30
0.0
 11
216.2363389999999
 21
69.06685
 31
0.0
  0
LINE
  5
BEEE
330
BE20
100
AcDbEntity
  8
1
  6
Continuous
100
AcDbLine
 10
45.557178
 20
236.627753
 30
0.0
 11
45.557178
 21
222.6277529999999
 31
0.0
  0
ARC
  5
BEEF
330
BE20
100
AcDbEntity
  8
1
  6
Continuous
100
AcDbCircle
 10
53.38341599999999
 20
229.6277529999999
 30
0.0
 40
10.5
100
AcDbArc
 50
138.1896849999999
 51
221.810315
  0
LINE
  5
BEF0
330
BE20
100
AcDbEntity
  8
1
  6
Continuous
100
AcDbLine
 10
45.557178
 20
222.6277529999999
 30
0.0
 11
47.88341599999998
 21
222.6277529999999
 31
0.0
  0
LINE
  5
BEF1
330
BE20
100
AcDbEntity
  8
1
  6
Continuous
100
AcDbLine
 10
45.557178
 20
236.627753
 30
0.0
 11
47.88341599999998
 21
236.627753
 31
0.0
  0
LINE
  5
BEF2
330
BE20
100
AcDbEntity
  8
1
  6
Continuous
100
AcDbLine
 10
372.9155009999999
 20
232.7726359999998
 30
0.0
 11
372.9155009999999
 21
222.627735
 31
0.0
  0
ARC
  5
BEF3
330
BE20
100
AcDbEntity
  8
1
  6
Continuous
100
AcDbCircle
 10
365.089263
 20
229.6277349999999
 30
0.0
 40
10.5
100
AcDbArc
 50
318.189685
 51
29.66984899999999
  0
LINE
  5
BEF4
330
BE20
100
AcDbEntity
  8
1
  6
Continuous
100
AcDbLine
 10
372.9155009999999
 20
222.627735
 30
0.0
 11
370.589263
 21
222.627735
 31
0.0
  0
LINE
  5
BEF5
330
BE20
100
AcDbEntity
  8
1
  6
Continuous
100
AcDbLine
 10
358.2337429999999
 20
315.6279229999999
 30
0.0
 11
358.2337429999999
 21
344.127923
 31
0.0
  0
LINE
  5
BEF6
330
BE20
100
AcDbEntity
  8
1
  6
Continuous
100
AcDbLine
 10
346.233743
 20
315.6279229999999
 30
0.0
 11
346.233743
 21
344.127923
 31
0.0
  0
LINE
  5
BEF7
330
BE20
100
AcDbEntity
  8
1
  6
Continuous
100
AcDbLine
 10
344.334248
 20
304.462739
 30
0.0
 11
342.334248
 21
306.8337389999999
 31
0.0
  0
LINE
  5
BEF8
330
BE20
100
AcDbEntity
  8
1
  6
Continuous
100
AcDbLine
 10
341.748462
 20
304.462739
 30
0.0
 11
343.748462
 21
306.8337389999999
 31
0.0
  0
ARC
  5
BEF9
330
BE20
100
AcDbEntity
  8
1
  6
Continuous
100
AcDbCircle
 10
209.236339
 20
229.6277389999999
 30
0.0
 40
53.65
100
AcDbArc
 50
86.66410500000003
 51
155.568776
  0
ARC
  5
BEFA
330
BE20
100
AcDbEntity
  8
1
  6
Continuous
100
AcDbCircle
 10
209.236339
 20
229.6277389999999
 30
0.0
 40
65.0
100
AcDbArc
 50
86.69641400000001
 51
181.2281549999999
  0
LINE
  5
BEFB
330
BE20
100
AcDbEntity
  8
1
  6
Continuous
100
AcDbLine
 10
366.233743
 20
315.6279229999999
 30
0.0
 11
338.233743
 21
315.6279229999999
 31
0.0
  0
LINE
  5
BEFC
330
BE20
100
AcDbEntity
  8
1
  6
Continuous
100
AcDbLine
 10
378.919843
 20
308.127945
 30
0.0
 11
325.5476429999998
 21
308.127945
 31
0.0
  0
LINE
  5
BEFD
330
BE20
100
AcDbEntity
  8
1
  6
Continuous
100
AcDbLine
 10
331.2337429999999
 20
312.127945
 30
0.0
 11
373.233743
 21
312.127945
 31
0.0
  0
LINE
  5
BEFE
330
BE20
100
AcDbEntity
  8
1
  6
Continuous
100
AcDbLine
 10
325.5476429999998
 20
306.8337389999999
 30
0.0
 11
378.919843
 21
306.8337389999999
 31
0.0
  0
LINE
  5
BEFF
330
BE20
100
AcDbEntity
  8
1
  6
Continuous
100
AcDbLine
 10
325.5476429999998
 20
306.649781
 30
0.0
 11
327.3636849999999
 21
304.462739
 31
0.0
  0
LINE
  5
BF00
330
BE20
100
AcDbEntity
  8
1
  6
Continuous
100
AcDbLine
 10
325.5476429999998
 20
305.2324829999998
 30
0.0
 11
326.777899
 21
306.8337389999999
 31
0.0
  0
LINE
  5
BF01
330
BE20
100
AcDbEntity
  8
1
  6
Continuous
100
AcDbLine
 10
326.192112
 20
304.462739
 30
0.0
 11
328.192112
 21
306.8337389999999
 31
0.0
  0
LINE
  5
BF02
330
BE20
100
AcDbEntity
  8
1
  6
Continuous
100
AcDbLine
 10
325.5476429999998
 20
304.864568
 30
0.0
 11
325.949472
 21
304.462739
 31
0.0
  0
LINE
  5
BF03
330
BE20
100
AcDbEntity
  8
1
  6
Continuous
100
AcDbLine
 10
325.5476429999998
 20
304.462739
 30
0.0
 11
325.5476429999998
 21
308.127945
 31
0.0
  0
LINE
  5
BF04
330
BE20
100
AcDbEntity
  8
1
  6
Continuous
100
AcDbLine
 10
335.848967
 20
304.462739
 30
0.0
 11
333.848967
 21
306.8337389999999
 31
0.0
  0
LINE
  5
BF05
330
BE20
100
AcDbEntity
  8
1
  6
Continuous
100
AcDbLine
 10
333.2631799999999
 20
304.462739
 30
0.0
 11
335.2631799999999
 21
306.8337389999999
 31
0.0
  0
LINE
  5
BF06
330
BE20
100
AcDbEntity
  8
1
  6
Continuous
100
AcDbLine
 10
334.6773939999998
 20
304.462739
 30
0.0
 11
336.6773939999998
 21
306.8337389999999
 31
0.0
  0
ARC
  5
BF07
330
BE20
100
AcDbEntity
  8
1
  6
Continuous
100
AcDbCircle
 10
331.2337429999999
 20
308.127945
 30
0.0
 40
4.0
100
AcDbArc
 50
90.0
 51
180.0
  0
LINE
  5
BF08
330
BE20
100
AcDbEntity
  8
1
  6
Continuous
100
AcDbLine
 10
331.6063259999999
 20
304.462739
 30
0.0
 11
329.6063259999999
 21
306.8337389999999
 31
0.0
  0
LINE
  5
BF09
330
BE20
100
AcDbEntity
  8
1
  6
Continuous
100
AcDbLine
 10
329.020539
 20
304.462739
 30
0.0
 11
331.020539
 21
306.8337389999999
 31
0.0
  0
LINE
  5
BF0A
330
BE20
100
AcDbEntity
  8
1
  6
Continuous
100
AcDbLine
 10
330.434753
 20
304.462739
 30
0.0
 11
332.434753
 21
306.8337389999999
 31
0.0
  0
LINE
  5
BF0B
330
BE20
100
AcDbEntity
  8
1
  6
Continuous
100
AcDbLine
 10
328.777899
 20
304.462739
 30
0.0
 11
326.777899
 21
306.8337389999999
 31
0.0
  0
LINE
  5
BF0C
330
BE20
100
AcDbEntity
  8
1
  6
Continuous
100
AcDbLine
 10
330.192112
 20
304.462739
 30
0.0
 11
328.192112
 21
306.8337389999999
 31
0.0
  0
LINE
  5
BF0D
330
BE20
100
AcDbEntity
  8
1
  6
Continuous
100
AcDbLine
 10
327.6063259999999
 20
304.462739
 30
0.0
 11
329.6063259999999
 21
306.8337389999999
 31
0.0
  0
LINE
  5
BF0E
330
BE20
100
AcDbEntity
  8
1
  6
Continuous
100
AcDbLine
 10
333.0205389999999
 20
304.462739
 30
0.0
 11
331.020539
 21
306.8337389999999
 31
0.0
  0
LINE
  5
BF0F
330
BE20
100
AcDbEntity
  8
1
  6
Continuous
100
AcDbLine
 10
334.434753
 20
304.462739
 30
0.0
 11
332.434753
 21
306.8337389999999
 31
0.0
  0
LINE
  5
BF10
330
BE20
100
AcDbEntity
  8
1
  6
Continuous
100
AcDbLine
 10
331.848967
 20
304.462739
 30
0.0
 11
333.848967
 21
306.8337389999999
 31
0.0
  0
LINE
  5
BF11
330
BE20
100
AcDbEntity
  8
1
  6
Continuous
100
AcDbLine
 10
340.091607
 20
304.462739
 30
0.0
 11
338.091607
 21
306.8337389999999
 31
0.0
  0
LINE
  5
BF12
330
BE20
100
AcDbEntity
  8
1
  6
Continuous
100
AcDbLine
 10
337.5058209999999
 20
304.462739
 30
0.0
 11
339.5058209999999
 21
306.8337389999999
 31
0.0
  0
LINE
  5
BF13
330
BE20
100
AcDbEntity
  8
1
  6
Continuous
100
AcDbLine
 10
337.2631799999999
 20
304.462739
 30
0.0
 11
335.2631799999999
 21
306.8337389999999
 31
0.0
  0
LINE
  5
BF14
330
BE20
100
AcDbEntity
  8
1
  6
Continuous
100
AcDbLine
 10
338.6773939999998
 20
304.462739
 30
0.0
 11
336.6773939999998
 21
306.8337389999999
 31
0.0
  0
LINE
  5
BF15
330
BE20
100
AcDbEntity
  8
1
  6
Continuous
100
AcDbLine
 10
336.091607
 20
304.462739
 30
0.0
 11
338.091607
 21
306.8337389999999
 31
0.0
  0
LINE
  5
BF16
330
BE20
100
AcDbEntity
  8
1
  6
Continuous
100
AcDbLine
 10
341.5058209999999
 20
304.462739
 30
0.0
 11
339.5058209999999
 21
306.8337389999999
 31
0.0
  0
LINE
  5
BF17
330
BE20
100
AcDbEntity
  8
1
  6
Continuous
100
AcDbLine
 10
342.9200339999998
 20
304.462739
 30
0.0
 11
340.9200339999998
 21
306.8337389999999
 31
0.0
  0
LINE
  5
BF18
330
BE20
100
AcDbEntity
  8
1
  6
Continuous
100
AcDbLine
 10
338.9200339999998
 20
304.462739
 30
0.0
 11
340.9200339999998
 21
306.8337389999999
 31
0.0
  0
LINE
  5
BF19
330
BE20
100
AcDbEntity
  8
1
  6
Continuous
100
AcDbLine
 10
340.334248
 20
304.462739
 30
0.0
 11
342.334248
 21
306.8337389999999
 31
0.0
  0
ARC
  5
BF1A
330
BE20
100
AcDbEntity
  8
1
  6
Continuous
100
AcDbCircle
 10
209.236339
 20
229.6277389999999
 30
0.0
 40
31.415325
100
AcDbArc
 50
91.79576500000001
 51
154.9116329999999
  0
ARC
  5
BF1B
330
BE20
100
AcDbEntity
  8
1
  6
Continuous
100
AcDbCircle
 10
209.236339
 20
229.6277389999999
 30
0.0
 40
40.533539
100
AcDbArc
 50
88.331756
 51
153.484236
  0
ARC
  5
BF1C
330
BE20
100
AcDbEntity
  8
1
  6
Continuous
100
AcDbCircle
 10
174.998304
 20
218.503127
 30
0.0
 40
3.7
100
AcDbArc
 50
222.217559
 51
344.9962409999998
  0
CIRCLE
  5
BF1D
330
BE20
100
AcDbEntity
  8
1
  6
Continuous
100
AcDbCircle
 10
209.236339
 20
193.6277389999999
 30
0.0
 40
3.7
  0
LINE
  5
BF1E
330
BE20
100
AcDbEntity
  8
1
  6
Continuous
100
AcDbLine
 10
376.8611599999999
 20
304.462739
 30
0.0
 11
374.8611599999999
 21
306.8337389999999
 31
0.0
  0
LINE
  5
BF1F
330
BE20
100
AcDbEntity
  8
1
  6
Continuous
100
AcDbLine
 10
375.689587
 20
304.462739
 30
0.0
 11
377.689587
 21
306.8337389999999
 31
0.0
  0
LINE
  5
BF20
330
BE20
100
AcDbEntity
  8
1
  6
Continuous
100
AcDbLine
 10
374.275373
 20
304.462739
 30
0.0
 11
376.275373
 21
306.8337389999999
 31
0.0
  0
ARC
  5
BF21
330
BE20
100
AcDbEntity
  8
1
  6
Continuous
100
AcDbCircle
 10
373.233743
 20
308.127945
 30
0.0
 40
4.0
100
AcDbArc
 50
0.0
 51
90.0
  0
LINE
  5
BF22
330
BE20
100
AcDbEntity
  8
1
  6
Continuous
100
AcDbLine
 10
361.3048109999998
 20
304.462739
 30
0.0
 11
359.3048109999998
 21
306.8337389999999
 31
0.0
  0
LINE
  5
BF23
330
BE20
100
AcDbEntity
  8
1
  6
Continuous
100
AcDbLine
 10
359.890597
 20
304.462739
 30
0.0
 11
357.890597
 21
306.8337389999999
 31
0.0
  0
LINE
  5
BF24
330
BE20
100
AcDbEntity
  8
1
  6
Continuous
100
AcDbLine
 10
358.7190239999998
 20
304.462739
 30
0.0
 11
360.7190239999998
 21
306.8337389999999
 31
0.0
  0
LINE
  5
BF25
330
BE20
100
AcDbEntity
  8
1
  6
Continuous
100
AcDbLine
 10
351.405316
 20
304.462739
 30
0.0
 11
349.405316
 21
306.8337389999999
 31
0.0
  0
LINE
  5
BF26
330
BE20
100
AcDbEntity
  8
1
  6
Continuous
100
AcDbLine
 10
352.8195289999999
 20
304.462739
 30
0.0
 11
350.8195289999999
 21
306.8337389999999
 31
0.0
  0
LINE
  5
BF27
330
BE20
100
AcDbEntity
  8
1
  6
Continuous
100
AcDbLine
 10
350.233743
 20
304.462739
 30
0.0
 11
352.233743
 21
306.8337389999999
 31
0.0
  0
LINE
  5
BF28
330
BE20
100
AcDbEntity
  8
1
  6
Continuous
100
AcDbLine
 10
347.1626749999999
 20
304.462739
 30
0.0
 11
345.1626749999999
 21
306.8337389999999
 31
0.0
  0
LINE
  5
BF29
330
BE20
100
AcDbEntity
  8
1
  6
Continuous
100
AcDbLine
 10
348.576889
 20
304.462739
 30
0.0
 11
346.576889
 21
306.8337389999999
 31
0.0
  0
LINE
  5
BF2A
330
BE20
100
AcDbEntity
  8
1
  6
Continuous
100
AcDbLine
 10
345.991102
 20
304.462739
 30
0.0
 11
347.991102
 21
306.8337389999999
 31
0.0
  0
LINE
  5
BF2B
330
BE20
100
AcDbEntity
  8
1
  6
Continuous
100
AcDbLine
 10
345.748462
 20
304.462739
 30
0.0
 11
343.748462
 21
306.8337389999999
 31
0.0
  0
LINE
  5
BF2C
330
BE20
100
AcDbEntity
  8
1
  6
Continuous
100
AcDbLine
 10
343.1626749999999
 20
304.462739
 30
0.0
 11
345.1626749999999
 21
306.8337389999999
 31
0.0
  0
LINE
  5
BF2D
330
BE20
100
AcDbEntity
  8
1
  6
Continuous
100
AcDbLine
 10
344.576889
 20
304.462739
 30
0.0
 11
346.576889
 21
306.8337389999999
 31
0.0
  0
LINE
  5
BF2E
330
BE20
100
AcDbEntity
  8
1
  6
Continuous
100
AcDbLine
 10
349.991102
 20
304.462739
 30
0.0
 11
347.991102
 21
306.8337389999999
 31
0.0
  0
LINE
  5
BF2F
330
BE20
100
AcDbEntity
  8
1
  6
Continuous
100
AcDbLine
 10
347.405316
 20
304.462739
 30
0.0
 11
349.405316
 21
306.8337389999999
 31
0.0
  0
LINE
  5
BF30
330
BE20
100
AcDbEntity
  8
1
  6
Continuous
100
AcDbLine
 10
348.819529
 20
304.462739
 30
0.0
 11
350.8195289999999
 21
306.8337389999999
 31
0.0
  0
LINE
  5
BF31
330
BE20
100
AcDbEntity
  8
1
  6
Continuous
100
AcDbLine
 10
357.0621699999999
 20
304.462739
 30
0.0
 11
355.0621699999999
 21
306.8337389999999
 31
0.0
  0
LINE
  5
BF32
330
BE20
100
AcDbEntity
  8
1
  6
Continuous
100
AcDbLine
 10
355.647956
 20
304.462739
 30
0.0
 11
353.647956
 21
306.8337389999999
 31
0.0
  0
LINE
  5
BF33
330
BE20
100
AcDbEntity
  8
1
  6
Continuous
100
AcDbLine
 10
354.4763839999998
 20
304.462739
 30
0.0
 11
356.4763839999998
 21
306.8337389999999
 31
0.0
  0
LINE
  5
BF34
330
BE20
100
AcDbEntity
  8
1
  6
Continuous
100
AcDbLine
 10
354.2337429999999
 20
304.462739
 30
0.0
 11
352.233743
 21
306.8337389999999
 31
0.0
  0
LINE
  5
BF35
330
BE20
100
AcDbEntity
  8
1
  6
Continuous
100
AcDbLine
 10
353.0621699999999
 20
304.462739
 30
0.0
 11
355.0621699999999
 21
306.8337389999999
 31
0.0
  0
LINE
  5
BF36
330
BE20
100
AcDbEntity
  8
1
  6
Continuous
100
AcDbLine
 10
351.647956
 20
304.462739
 30
0.0
 11
353.647956
 21
306.8337389999999
 31
0.0
  0
LINE
  5
BF37
330
BE20
100
AcDbEntity
  8
1
  6
Continuous
100
AcDbLine
 10
358.4763839999998
 20
304.462739
 30
0.0
 11
356.4763839999998
 21
306.8337389999999
 31
0.0
  0
LINE
  5
BF38
330
BE20
100
AcDbEntity
  8
1
  6
Continuous
100
AcDbLine
 10
357.3048109999998
 20
304.462739
 30
0.0
 11
359.3048109999998
 21
306.8337389999999
 31
0.0
  0
LINE
  5
BF39
330
BE20
100
AcDbEntity
  8
1
  6
Continuous
100
AcDbLine
 10
355.890597
 20
304.462739
 30
0.0
 11
357.890597
 21
306.8337389999999
 31
0.0
  0
LINE
  5
BF3A
330
BE20
100
AcDbEntity
  8
1
  6
Continuous
100
AcDbLine
 10
368.375879
 20
304.462739
 30
0.0
 11
366.375879
 21
306.8337389999999
 31
0.0
  0
LINE
  5
BF3B
330
BE20
100
AcDbEntity
  8
1
  6
Continuous
100
AcDbLine
 10
367.204306
 20
304.462739
 30
0.0
 11
369.2043059999999
 21
306.8337389999999
 31
0.0
  0
LINE
  5
BF3C
330
BE20
100
AcDbEntity
  8
1
  6
Continuous
100
AcDbLine
 10
365.790092
 20
304.462739
 30
0.0
 11
367.790092
 21
306.8337389999999
 31
0.0
  0
LINE
  5
BF3D
330
BE20
100
AcDbEntity
  8
1
  6
Continuous
100
AcDbLine
 10
364.133238
 20
304.462739
 30
0.0
 11
362.133238
 21
306.8337389999999
 31
0.0
  0
LINE
  5
BF3E
330
BE20
100
AcDbEntity
  8
1
  6
Continuous
100
AcDbLine
 10
362.9616649999999
 20
304.462739
 30
0.0
 11
364.961665
 21
306.8337389999999
 31
0.0
  0
LINE
  5
BF3F
330
BE20
100
AcDbEntity
  8
1
  6
Continuous
100
AcDbLine
 10
361.5474509999998
 20
304.462739
 30
0.0
 11
363.5474509999998
 21
306.8337389999999
 31
0.0
  0
LINE
  5
BF40
330
BE20
100
AcDbEntity
  8
1
  6
Continuous
100
AcDbLine
 10
362.719024
 20
304.462739
 30
0.0
 11
360.7190239999998
 21
306.8337389999999
 31
0.0
  0
LINE
  5
BF41
330
BE20
100
AcDbEntity
  8
1
  6
Continuous
100
AcDbLine
 10
360.133238
 20
304.462739
 30
0.0
 11
362.133238
 21
306.8337389999999
 31
0.0
  0
LINE
  5
BF42
330
BE20
100
AcDbEntity
  8
1
  6
Continuous
100
AcDbLine
 10
366.961665
 20
304.462739
 30
0.0
 11
364.961665
 21
306.8337389999999
 31
0.0
  0
LINE
  5
BF43
330
BE20
100
AcDbEntity
  8
1
  6
Continuous
100
AcDbLine
 10
365.5474509999999
 20
304.462739
 30
0.0
 11
363.5474509999998
 21
306.8337389999999
 31
0.0
  0
LINE
  5
BF44
330
BE20
100
AcDbEntity
  8
1
  6
Continuous
100
AcDbLine
 10
364.375879
 20
304.462739
 30
0.0
 11
366.375879
 21
306.8337389999999
 31
0.0
  0
LINE
  5
BF45
330
BE20
100
AcDbEntity
  8
1
  6
Continuous
100
AcDbLine
 10
372.6185189999998
 20
304.462739
 30
0.0
 11
370.6185189999998
 21
306.8337389999999
 31
0.0
  0
LINE
  5
BF46
330
BE20
100
AcDbEntity
  8
1
  6
Continuous
100
AcDbLine
 10
371.4469459999999
 20
304.462739
 30
0.0
 11
373.4469459999999
 21
306.8337389999999
 31
0.0
  0
LINE
  5
BF47
330
BE20
100
AcDbEntity
  8
1
  6
Continuous
100
AcDbLine
 10
370.032733
 20
304.462739
 30
0.0
 11
372.0327329999999
 21
306.8337389999999
 31
0.0
  0
LINE
  5
BF48
330
BE20
100
AcDbEntity
  8
1
  6
Continuous
100
AcDbLine
 10
371.2043059999999
 20
304.462739
 30
0.0
 11
369.2043059999999
 21
306.8337389999999
 31
0.0
  0
LINE
  5
BF49
330
BE20
100
AcDbEntity
  8
1
  6
Continuous
100
AcDbLine
 10
369.790092
 20
304.462739
 30
0.0
 11
367.790092
 21
306.8337389999999
 31
0.0
  0
LINE
  5
BF4A
330
BE20
100
AcDbEntity
  8
1
  6
Continuous
100
AcDbLine
 10
368.6185189999998
 20
304.462739
 30
0.0
 11
370.6185189999998
 21
306.8337389999999
 31
0.0
  0
LINE
  5
BF4B
330
BE20
100
AcDbEntity
  8
1
  6
Continuous
100
AcDbLine
 10
375.4469459999999
 20
304.462739
 30
0.0
 11
373.4469459999999
 21
306.8337389999999
 31
0.0
  0
LINE
  5
BF4C
330
BE20
100
AcDbEntity
  8
1
  6
Continuous
100
AcDbLine
 10
374.0327329999999
 20
304.462739
 30
0.0
 11
372.0327329999999
 21
306.8337389999999
 31
0.0
  0
LINE
  5
BF4D
330
BE20
100
AcDbEntity
  8
1
  6
Continuous
100
AcDbLine
 10
372.8611599999999
 20
304.462739
 30
0.0
 11
374.8611599999999
 21
306.8337389999999
 31
0.0
  0
LINE
  5
BF4E
330
BE20
100
AcDbEntity
  8
1
  6
Continuous
100
AcDbLine
 10
378.919843
 20
305.2324829999998
 30
0.0
 11
377.689587
 21
306.8337389999999
 31
0.0
  0
LINE
  5
BF4F
330
BE20
100
AcDbEntity
  8
1
  6
Continuous
100
AcDbLine
 10
378.275373
 20
304.462739
 30
0.0
 11
376.275373
 21
306.8337389999999
 31
0.0
  0
LINE
  5
BF50
330
BE20
100
AcDbEntity
  8
1
  6
Continuous
100
AcDbLine
 10
378.518014
 20
304.462739
 30
0.0
 11
378.919843
 21
304.864568
 31
0.0
  0
LINE
  5
BF51
330
BE20
100
AcDbEntity
  8
1
  6
Continuous
100
AcDbLine
 10
377.1038009999998
 20
304.462739
 30
0.0
 11
378.919843
 21
306.649781
 31
0.0
  0
LINE
  5
BF52
330
BE20
100
AcDbEntity
  8
1
  6
Continuous
100
AcDbLine
 10
378.919843
 20
308.127945
 30
0.0
 11
378.919843
 21
304.462739
 31
0.0
  0
ARC
  5
BF53
330
BE20
100
AcDbEntity
  8
1
  6
Continuous
100
AcDbCircle
 10
377.817106
 20
301.623577
 30
0.0
 40
2.839261999999998
100
AcDbArc
 50
86.26253100000004
 51
90.48175099999999
  0
CIRCLE
  5
BF54
330
BE20
100
AcDbEntity
  8
1
  6
Continuous
100
AcDbCircle
 10
245.2363389999999
 20
424.324648
 30
0.0
 40
25.0
  0
CIRCLE
  5
BF55
330
BE20
100
AcDbEntity
  8
1
  6
Continuous
100
AcDbCircle
 10
245.2363389999999
 20
424.324648
 30
0.0
 40
26.6861
  0
LINE
  5
BF56
330
BE20
100
AcDbEntity
  8
1
  6
Continuous
100
AcDbLine
 10
261.402147
 20
424.324648
 30
0.0
 11
253.319243
 21
410.324648
 31
0.0
  0
LINE
  5
BF57
330
BE20
100
AcDbEntity
  8
1
  6
Continuous
100
AcDbLine
 10
261.402147
 20
424.324648
 30
0.0
 11
253.319243
 21
438.324648
 31
0.0
  0
LINE
  5
BF58
330
BE20
100
AcDbEntity
  8
4
  6
CENTER
100
AcDbLine
 10
209.236352
 20
452.680167
 30
0.0
 11
209.236352
 21
390.786312
 31
0.0
  0
ARC
  5
BF59
330
BE20
100
AcDbEntity
  8
1
  6
Continuous
100
AcDbCircle
 10
245.354157
 20
424.324648
 30
0.0
 40
28.865452
100
AcDbArc
 50
141.1675199999999
 51
218.8691829999999
  0
ARC
  5
BF5A
330
BE20
100
AcDbEntity
  8
1
  6
Continuous
100
AcDbCircle
 10
261.313613
 20
424.32464
 30
0.0
 40
53.38794100000001
100
AcDbArc
 50
160.1823879999998
 51
200.1071739999999
  0
LINE
  5
BF5B
330
BE20
100
AcDbEntity
  8
1
  6
Continuous
100
AcDbLine
 10
346.233743
 20
344.127923
 30
0.0
 11
358.2337429999999
 21
344.127923
 31
0.0
  0
LINE
  5
BF5C
330
BE20
100
AcDbEntity
  8
1
  6
Continuous
100
AcDbLine
 10
347.7337429999999
 20
345.627923
 30
0.0
 11
356.733743
 21
345.627923
 31
0.0
  0
LINE
  5
BF5D
330
BE20
100
AcDbEntity
  8
1
  6
Continuous
100
AcDbLine
 10
346.233743
 20
344.127923
 30
0.0
 11
347.7337429999999
 21
345.627923
 31
0.0
  0
LINE
  5
BF5E
330
BE20
100
AcDbEntity
  8
1
  6
Continuous
100
AcDbLine
 10
358.2337429999999
 20
344.127923
 30
0.0
 11
356.733743
 21
345.627923
 31
0.0
  0
LINE
  5
BF5F
330
BE20
100
AcDbEntity
  8
1
  6
Continuous
100
AcDbLine
 10
229.0705319999999
 20
424.324648
 30
0.0
 11
237.153435
 21
438.324648
 31
0.0
  0
LINE
  5
BF60
330
BE20
100
AcDbEntity
  8
1
  6
Continuous
100
AcDbLine
 10
237.153435
 20
410.324648
 30
0.0
 11
245.2363389999999
 21
410.324648
 31
0.0
  0
CIRCLE
  5
BF61
330
BE20
100
AcDbEntity
  8
1
  6
Continuous
100
AcDbCircle
 10
245.2363389999999
 20
424.324648
 30
0.0
 40
6.0
  0
LINE
  5
BF62
330
BE20
100
AcDbEntity
  8
1
  6
Continuous
100
AcDbLine
 10
253.319243
 20
410.324648
 30
0.0
 11
245.2363389999999
 21
410.324648
 31
0.0
  0
LINE
  5
BF63
330
BE20
100
AcDbEntity
  8
1
  6
Continuous
100
AcDbLine
 10
229.0705319999999
 20
424.324648
 30
0.0
 11
237.153435
 21
410.324648
 31
0.0
  0
LINE
  5
BF64
330
BE20
100
AcDbEntity
  8
1
  6
Continuous
100
AcDbLine
 10
237.153435
 20
438.324648
 30
0.0
 11
245.2363389999999
 21
438.324648
 31
0.0
  0
LINE
  5
BF65
330
BE20
100
AcDbEntity
  8
1
  6
Continuous
100
AcDbLine
 10
253.319243
 20
438.324648
 30
0.0
 11
245.2363389999999
 21
438.324648
 31
0.0
  0
LINE
  5
BF66
330
BE20
100
AcDbEntity
  8
2
  6
Continuous
100
AcDbLine
 10
346.9102429999999
 20
316.7996560000001
 30
0.0
 11
346.9102429999999
 21
344.8044229999999
 31
0.0
  0
LINE
  5
BF67
330
BE20
100
AcDbEntity
  8
2
  6
Continuous
100
AcDbLine
 10
357.5572430000002
 20
316.7996560000001
 30
0.0
 11
357.5572430000002
 21
344.8044229999999
 31
0.0
  0
LINE
  5
BF68
330
BE20
100
AcDbEntity
  8
2
  6
Continuous
100
AcDbLine
 10
346.9102429999999
 20
316.7996560000001
 30
0.0
 11
346.233743
 21
315.6279229999999
 31
0.0
  0
LINE
  5
BF69
330
BE20
100
AcDbEntity
  8
2
  6
Continuous
100
AcDbLine
 10
357.5572430000002
 20
316.7996560000001
 30
0.0
 11
358.2337429999999
 21
315.6279229999999
 31
0.0
  0
LINE
  5
BF6A
330
BE20
100
AcDbEntity
  8
1
  6
Continuous
100
AcDbLine
 10
346.233743
 20
316.7996560000001
 30
0.0
 11
358.2337429999999
 21
316.7996560000001
 31
0.0
  0
LINE
  5
BF6B
330
BE20
100
AcDbEntity
  8
1
  6
Continuous
100
AcDbLine
 10
338.233743
 20
315.6279229999999
 30
0.0
 11
338.233743
 21
312.127945
 31
0.0
  0
LINE
  5
BF6C
330
BE20
100
AcDbEntity
  8
1
  6
Continuous
100
AcDbLine
 10
352.233743
 20
315.6279229999999
 30
0.0
 11
352.233743
 21
312.127945
 31
0.0
  0
LINE
  5
BF6D
330
BE20
100
AcDbEntity
  8
1
  6
Continuous
100
AcDbLine
 10
366.233743
 20
315.6279229999999
 30
0.0
 11
366.233743
 21
312.127945
 31
0.0
  0
LINE
  5
BF6E
330
BE20
100
AcDbEntity
  8
1
  6
Continuous
100
AcDbLine
 10
72.724215
 20
304.312753
 30
0.0
 11
74.724215
 21
306.8337529999999
 31
0.0
  0
LINE
  5
BF6F
330
BE20
100
AcDbEntity
  8
1
  6
Continuous
100
AcDbLine
 10
39.55283399999999
 20
306.8337529999999
 30
0.0
 11
92.92503399999999
 21
306.8337529999999
 31
0.0
  0
LINE
  5
BF70
330
BE20
100
AcDbEntity
  8
1
  6
Continuous
100
AcDbLine
 10
45.238934
 20
312.1279589999998
 30
0.0
 11
87.23893399999999
 21
312.1279589999998
 31
0.0
  0
LINE
  5
BF71
330
BE20
100
AcDbEntity
  8
1
  6
Continuous
100
AcDbLine
 10
92.92503399999999
 20
308.1279589999998
 30
0.0
 11
39.55283399999999
 21
308.1279589999998
 31
0.0
  0
LINE
  5
BF72
330
BE20
100
AcDbEntity
  8
1
  6
Continuous
100
AcDbLine
 10
80.238934
 20
315.627937
 30
0.0
 11
52.238934
 21
315.627937
 31
0.0
  0
LINE
  5
BF73
330
BE20
100
AcDbEntity
  8
1
  6
Continuous
100
AcDbLine
 10
74.138429
 20
304.312753
 30
0.0
 11
76.138429
 21
306.8337529999999
 31
0.0
  0
LINE
  5
BF74
330
BE20
100
AcDbEntity
  8
1
  6
Continuous
100
AcDbLine
 10
75.31000199999998
 20
304.312753
 30
0.0
 11
73.31000199999998
 21
306.8337529999999
 31
0.0
  0
ARC
  5
BF75
330
BE20
100
AcDbEntity
  8
1
  6
Continuous
100
AcDbCircle
 10
45.238934
 20
308.1279589999998
 30
0.0
 40
4.0
100
AcDbArc
 50
90.0
 51
180.0
  0
LINE
  5
BF76
330
BE20
100
AcDbEntity
  8
1
  6
Continuous
100
AcDbLine
 10
54.339439
 20
304.312753
 30
0.0
 11
56.339439
 21
306.8337529999999
 31
0.0
  0
LINE
  5
BF77
330
BE20
100
AcDbEntity
  8
1
  6
Continuous
100
AcDbLine
 10
56.92522499999999
 20
304.312753
 30
0.0
 11
54.92522499999999
 21
306.8337529999999
 31
0.0
  0
LINE
  5
BF78
330
BE20
100
AcDbEntity
  8
1
  6
Continuous
100
AcDbLine
 10
52.925225
 20
304.312753
 30
0.0
 11
54.92522499999999
 21
306.8337529999999
 31
0.0
  0
LINE
  5
BF79
330
BE20
100
AcDbEntity
  8
1
  6
Continuous
100
AcDbLine
 10
55.511012
 20
304.312753
 30
0.0
 11
53.511012
 21
306.8337529999999
 31
0.0
  0
LINE
  5
BF7A
330
BE20
100
AcDbEntity
  8
1
  6
Continuous
100
AcDbLine
 10
50.096798
 20
304.312753
 30
0.0
 11
52.09679799999999
 21
306.8337529999999
 31
0.0
  0
LINE
  5
BF7B
330
BE20
100
AcDbEntity
  8
1
  6
Continuous
100
AcDbLine
 10
52.68258499999999
 20
304.312753
 30
0.0
 11
50.68258499999998
 21
306.8337529999999
 31
0.0
  0
LINE
  5
BF7C
330
BE20
100
AcDbEntity
  8
1
  6
Continuous
100
AcDbLine
 10
51.268371
 20
304.312753
 30
0.0
 11
49.268371
 21
306.8337529999999
 31
0.0
  0
LINE
  5
BF7D
330
BE20
100
AcDbEntity
  8
1
  6
Continuous
100
AcDbLine
 10
51.511012
 20
304.312753
 30
0.0
 11
53.511012
 21
306.8337529999999
 31
0.0
  0
LINE
  5
BF7E
330
BE20
100
AcDbEntity
  8
1
  6
Continuous
100
AcDbLine
 10
54.096798
 20
304.312753
 30
0.0
 11
52.09679799999999
 21
306.8337529999999
 31
0.0
  0
LINE
  5
BF7F
330
BE20
100
AcDbEntity
  8
1
  6
Continuous
100
AcDbLine
 10
45.85415799999998
 20
304.312753
 30
0.0
 11
47.85415799999999
 21
306.8337529999999
 31
0.0
  0
LINE
  5
BF80
330
BE20
100
AcDbEntity
  8
1
  6
Continuous
100
AcDbLine
 10
48.43994399999999
 20
304.312753
 30
0.0
 11
46.43994399999999
 21
306.8337529999999
 31
0.0
  0
LINE
  5
BF81
330
BE20
100
AcDbEntity
  8
1
  6
Continuous
100
AcDbLine
 10
47.02573
 20
304.312753
 30
0.0
 11
45.02572999999999
 21
306.8337529999999
 31
0.0
  0
LINE
  5
BF82
330
BE20
100
AcDbEntity
  8
1
  6
Continuous
100
AcDbLine
 10
41.611517
 20
304.312753
 30
0.0
 11
43.61151699999999
 21
306.8337529999999
 31
0.0
  0
LINE
  5
BF83
330
BE20
100
AcDbEntity
  8
1
  6
Continuous
100
AcDbLine
 10
44.197303
 20
304.312753
 30
0.0
 11
42.19730300000001
 21
306.8337529999999
 31
0.0
  0
LINE
  5
BF84
330
BE20
100
AcDbEntity
  8
1
  6
Continuous
100
AcDbLine
 10
42.78309
 20
304.312753
 30
0.0
 11
40.78308999999999
 21
306.8337529999999
 31
0.0
  0
LINE
  5
BF85
330
BE20
100
AcDbEntity
  8
1
  6
Continuous
100
AcDbLine
 10
44.439944
 20
304.312753
 30
0.0
 11
46.43994399999999
 21
306.8337529999999
 31
0.0
  0
LINE
  5
BF86
330
BE20
100
AcDbEntity
  8
1
  6
Continuous
100
AcDbLine
 10
43.02572999999997
 20
304.312753
 30
0.0
 11
45.02572999999999
 21
306.8337529999999
 31
0.0
  0
LINE
  5
BF87
330
BE20
100
AcDbEntity
  8
1
  6
Continuous
100
AcDbLine
 10
45.61151699999999
 20
304.312753
 30
0.0
 11
43.61151699999999
 21
306.8337529999999
 31
0.0
  0
LINE
  5
BF88
330
BE20
100
AcDbEntity
  8
1
  6
Continuous
100
AcDbLine
 10
48.68258499999999
 20
304.312753
 30
0.0
 11
50.68258499999998
 21
306.8337529999999
 31
0.0
  0
LINE
  5
BF89
330
BE20
100
AcDbEntity
  8
1
  6
Continuous
100
AcDbLine
 10
47.268371
 20
304.312753
 30
0.0
 11
49.268371
 21
306.8337529999999
 31
0.0
  0
LINE
  5
BF8A
330
BE20
100
AcDbEntity
  8
1
  6
Continuous
100
AcDbLine
 10
49.854158
 20
304.312753
 30
0.0
 11
47.85415799999999
 21
306.8337529999999
 31
0.0
  0
LINE
  5
BF8B
330
BE20
100
AcDbEntity
  8
1
  6
Continuous
100
AcDbLine
 10
39.55283399999999
 20
304.312753
 30
0.0
 11
39.55283399999999
 21
308.1279589999998
 31
0.0
  0
LINE
  5
BF8C
330
BE20
100
AcDbEntity
  8
1
  6
Continuous
100
AcDbLine
 10
40.19730299999999
 20
304.312753
 30
0.0
 11
42.19730300000001
 21
306.8337529999999
 31
0.0
  0
LINE
  5
BF8D
330
BE20
100
AcDbEntity
  8
1
  6
Continuous
100
AcDbLine
 10
39.55283399999999
 20
305.0824969999999
 30
0.0
 11
40.78308999999999
 21
306.8337529999999
 31
0.0
  0
LINE
  5
BF8E
330
BE20
100
AcDbEntity
  8
1
  6
Continuous
100
AcDbLine
 10
39.55283399999999
 20
306.649795
 30
0.0
 11
41.368876
 21
304.312753
 31
0.0
  0
LINE
  5
BF8F
330
BE20
100
AcDbEntity
  8
1
  6
Continuous
100
AcDbLine
 10
39.55283399999999
 20
304.714582
 30
0.0
 11
39.954663
 21
304.312753
 31
0.0
  0
LINE
  5
BF90
330
BE20
100
AcDbEntity
  8
1
  6
Continuous
100
AcDbLine
 10
62.82471999999999
 20
304.312753
 30
0.0
 11
64.82472
 21
306.8337529999999
 31
0.0
  0
LINE
  5
BF91
330
BE20
100
AcDbEntity
  8
1
  6
Continuous
100
AcDbLine
 10
61.410507
 20
304.312753
 30
0.0
 11
63.410507
 21
306.8337529999999
 31
0.0
  0
LINE
  5
BF92
330
BE20
100
AcDbEntity
  8
1
  6
Continuous
100
AcDbLine
 10
63.996293
 20
304.312753
 30
0.0
 11
61.99629300000001
 21
306.8337529999999
 31
0.0
  0
LINE
  5
BF93
330
BE20
100
AcDbEntity
  8
1
  6
Continuous
100
AcDbLine
 10
58.58208000000001
 20
304.312753
 30
0.0
 11
60.58208
 21
306.8337529999999
 31
0.0
  0
LINE
  5
BF94
330
BE20
100
AcDbEntity
  8
1
  6
Continuous
100
AcDbLine
 10
57.16786599999998
 20
304.312753
 30
0.0
 11
59.167866
 21
306.8337529999999
 31
0.0
  0
LINE
  5
BF95
330
BE20
100
AcDbEntity
  8
1
  6
Continuous
100
AcDbLine
 10
59.75365299999999
 20
304.312753
 30
0.0
 11
57.753653
 21
306.8337529999999
 31
0.0
  0
LINE
  5
BF96
330
BE20
100
AcDbEntity
  8
1
  6
Continuous
100
AcDbLine
 10
59.99629300000001
 20
304.312753
 30
0.0
 11
61.99629300000001
 21
306.8337529999999
 31
0.0
  0
LINE
  5
BF97
330
BE20
100
AcDbEntity
  8
1
  6
Continuous
100
AcDbLine
 10
62.58207999999999
 20
304.312753
 30
0.0
 11
60.58208
 21
306.8337529999999
 31
0.0
  0
LINE
  5
BF98
330
BE20
100
AcDbEntity
  8
1
  6
Continuous
100
AcDbLine
 10
61.16786600000001
 20
304.312753
 30
0.0
 11
59.167866
 21
306.8337529999999
 31
0.0
  0
LINE
  5
BF99
330
BE20
100
AcDbEntity
  8
1
  6
Continuous
100
AcDbLine
 10
65.41050699999999
 20
304.312753
 30
0.0
 11
63.410507
 21
306.8337529999999
 31
0.0
  0
LINE
  5
BF9A
330
BE20
100
AcDbEntity
  8
1
  6
Continuous
100
AcDbLine
 10
58.339439
 20
304.312753
 30
0.0
 11
56.339439
 21
306.8337529999999
 31
0.0
  0
LINE
  5
BF9B
330
BE20
100
AcDbEntity
  8
1
  6
Continuous
100
AcDbLine
 10
69.895788
 20
304.312753
 30
0.0
 11
71.89578799999998
 21
306.8337529999999
 31
0.0
  0
LINE
  5
BF9C
330
BE20
100
AcDbEntity
  8
1
  6
Continuous
100
AcDbLine
 10
71.31000199999999
 20
304.312753
 30
0.0
 11
73.31000199999998
 21
306.8337529999999
 31
0.0
  0
LINE
  5
BF9D
330
BE20
100
AcDbEntity
  8
1
  6
Continuous
100
AcDbLine
 10
72.48157500000002
 20
304.312753
 30
0.0
 11
70.48157500000002
 21
306.8337529999999
 31
0.0
  0
LINE
  5
BF9E
330
BE20
100
AcDbEntity
  8
1
  6
Continuous
100
AcDbLine
 10
68.48157500000001
 20
304.312753
 30
0.0
 11
70.48157500000002
 21
306.8337529999999
 31
0.0
  0
LINE
  5
BF9F
330
BE20
100
AcDbEntity
  8
1
  6
Continuous
100
AcDbLine
 10
71.06736100000002
 20
304.312753
 30
0.0
 11
69.067361
 21
306.8337529999999
 31
0.0
  0
LINE
  5
BFA0
330
BE20
100
AcDbEntity
  8
1
  6
Continuous
100
AcDbLine
 10
73.89578799999998
 20
304.312753
 30
0.0
 11
71.89578799999998
 21
306.8337529999999
 31
0.0
  0
LINE
  5
BFA1
330
BE20
100
AcDbEntity
  8
1
  6
Continuous
100
AcDbLine
 10
65.653147
 20
304.312753
 30
0.0
 11
67.65314700000001
 21
306.8337529999999
 31
0.0
  0
LINE
  5
BFA2
330
BE20
100
AcDbEntity
  8
1
  6
Continuous
100
AcDbLine
 10
67.067361
 20
304.312753
 30
0.0
 11
69.067361
 21
306.8337529999999
 31
0.0
  0
LINE
  5
BFA3
330
BE20
100
AcDbEntity
  8
1
  6
Continuous
100
AcDbLine
 10
68.238934
 20
304.312753
 30
0.0
 11
66.238934
 21
306.8337529999999
 31
0.0
  0
LINE
  5
BFA4
330
BE20
100
AcDbEntity
  8
1
  6
Continuous
100
AcDbLine
 10
69.653147
 20
304.312753
 30
0.0
 11
67.65314700000001
 21
306.8337529999999
 31
0.0
  0
LINE
  5
BFA5
330
BE20
100
AcDbEntity
  8
1
  6
Continuous
100
AcDbLine
 10
64.238934
 20
304.312753
 30
0.0
 11
66.238934
 21
306.8337529999999
 31
0.0
  0
LINE
  5
BFA6
330
BE20
100
AcDbEntity
  8
1
  6
Continuous
100
AcDbLine
 10
66.82472
 20
304.312753
 30
0.0
 11
64.82472
 21
306.8337529999999
 31
0.0
  0
LINE
  5
BFA7
330
BE20
100
AcDbEntity
  8
1
  6
Continuous
100
AcDbLine
 10
55.753653
 20
304.312753
 30
0.0
 11
57.753653
 21
306.8337529999999
 31
0.0
  0
LINE
  5
BFA8
330
BE20
100
AcDbEntity
  8
1
  6
Continuous
100
AcDbLine
 10
72.238934
 20
315.627937
 30
0.0
 11
72.238934
 21
344.1279369999999
 31
0.0
  0
LINE
  5
BFA9
330
BE20
100
AcDbEntity
  8
1
  6
Continuous
100
AcDbLine
 10
60.23893399999999
 20
315.627937
 30
0.0
 11
60.23893399999999
 21
344.1279369999999
 31
0.0
  0
LINE
  5
BFAA
330
BE20
100
AcDbEntity
  8
2
  6
Continuous
100
AcDbLine
 10
71.562434
 20
316.7996689999998
 30
0.0
 11
71.562434
 21
344.804437
 31
0.0
  0
LINE
  5
BFAB
330
BE20
100
AcDbEntity
  8
2
  6
Continuous
100
AcDbLine
 10
60.91543399999999
 20
316.7996689999998
 30
0.0
 11
60.91543399999999
 21
344.804437
 31
0.0
  0
LINE
  5
BFAC
330
BE20
100
AcDbEntity
  8
1
  6
Continuous
100
AcDbLine
 10
60.23893399999999
 20
316.7996689999998
 30
0.0
 11
72.238934
 21
316.7996689999998
 31
0.0
  0
LINE
  5
BFAD
330
BE20
100
AcDbEntity
  8
2
  6
Continuous
100
AcDbLine
 10
60.91543399999999
 20
316.7996689999998
 30
0.0
 11
60.23893399999999
 21
315.627937
 31
0.0
  0
LINE
  5
BFAE
330
BE20
100
AcDbEntity
  8
2
  6
Continuous
100
AcDbLine
 10
71.562434
 20
316.7996689999998
 30
0.0
 11
72.238934
 21
315.627937
 31
0.0
  0
LINE
  5
BFAF
330
BE20
100
AcDbEntity
  8
1
  6
Continuous
100
AcDbLine
 10
72.238934
 20
344.1279369999999
 30
0.0
 11
70.738934
 21
345.6279369999998
 31
0.0
  0
LINE
  5
BFB0
330
BE20
100
AcDbEntity
  8
1
  6
Continuous
100
AcDbLine
 10
60.23893399999999
 20
344.1279369999999
 30
0.0
 11
72.238934
 21
344.1279369999999
 31
0.0
  0
LINE
  5
BFB1
330
BE20
100
AcDbEntity
  8
1
  6
Continuous
100
AcDbLine
 10
60.23893399999999
 20
344.1279369999999
 30
0.0
 11
61.73893399999999
 21
345.6279369999998
 31
0.0
  0
LINE
  5
BFB2
330
BE20
100
AcDbEntity
  8
1
  6
Continuous
100
AcDbLine
 10
61.73893399999999
 20
345.6279369999998
 30
0.0
 11
70.738934
 21
345.6279369999998
 31
0.0
  0
ARC
  5
BFB3
330
BE20
100
AcDbEntity
  8
1
  6
Continuous
100
AcDbCircle
 10
87.23893399999999
 20
308.1279589999998
 30
0.0
 40
4.0
100
AcDbArc
 50
0.0
 51
90.0
  0
LINE
  5
BFB4
330
BE20
100
AcDbEntity
  8
1
  6
Continuous
100
AcDbLine
 10
92.92503399999999
 20
308.1279589999998
 30
0.0
 11
92.92503399999999
 21
304.312753
 31
0.0
  0
LINE
  5
BFB5
330
BE20
100
AcDbEntity
  8
1
  6
Continuous
100
AcDbLine
 10
91.108992
 20
304.312753
 30
0.0
 11
92.92503399999999
 21
306.649795
 31
0.0
  0
LINE
  5
BFB6
330
BE20
100
AcDbEntity
  8
1
  6
Continuous
100
AcDbLine
 10
92.52320500000001
 20
304.312753
 30
0.0
 11
92.92503399999999
 21
304.714582
 31
0.0
  0
LINE
  5
BFB7
330
BE20
100
AcDbEntity
  8
1
  6
Continuous
100
AcDbLine
 10
92.28056399999998
 20
304.312753
 30
0.0
 11
90.280564
 21
306.8337529999999
 31
0.0
  0
LINE
  5
BFB8
330
BE20
100
AcDbEntity
  8
1
  6
Continuous
100
AcDbLine
 10
92.92503399999999
 20
305.0824969999999
 30
0.0
 11
91.69477800000001
 21
306.8337529999999
 31
0.0
  0
LINE
  5
BFB9
330
BE20
100
AcDbEntity
  8
1
  6
Continuous
100
AcDbLine
 10
86.86635099999998
 20
304.312753
 30
0.0
 11
88.86635099999997
 21
306.8337529999999
 31
0.0
  0
LINE
  5
BFBA
330
BE20
100
AcDbEntity
  8
1
  6
Continuous
100
AcDbLine
 10
88.037924
 20
304.312753
 30
0.0
 11
86.03792400000001
 21
306.8337529999999
 31
0.0
  0
LINE
  5
BFBB
330
BE20
100
AcDbEntity
  8
1
  6
Continuous
100
AcDbLine
 10
89.45213699999998
 20
304.312753
 30
0.0
 11
87.45213699999998
 21
306.8337529999999
 31
0.0
  0
LINE
  5
BFBC
330
BE20
100
AcDbEntity
  8
1
  6
Continuous
100
AcDbLine
 10
82.62370999999998
 20
304.312753
 30
0.0
 11
84.62371
 21
306.8337529999999
 31
0.0
  0
LINE
  5
BFBD
330
BE20
100
AcDbEntity
  8
1
  6
Continuous
100
AcDbLine
 10
83.795283
 20
304.312753
 30
0.0
 11
81.79528299999999
 21
306.8337529999999
 31
0.0
  0
LINE
  5
BFBE
330
BE20
100
AcDbEntity
  8
1
  6
Continuous
100
AcDbLine
 10
85.209497
 20
304.312753
 30
0.0
 11
83.20949699999998
 21
306.8337529999999
 31
0.0
  0
LINE
  5
BFBF
330
BE20
100
AcDbEntity
  8
1
  6
Continuous
100
AcDbLine
 10
84.037924
 20
304.312753
 30
0.0
 11
86.03792400000001
 21
306.8337529999999
 31
0.0
  0
LINE
  5
BFC0
330
BE20
100
AcDbEntity
  8
1
  6
Continuous
100
AcDbLine
 10
85.45213699999996
 20
304.312753
 30
0.0
 11
87.45213699999998
 21
306.8337529999999
 31
0.0
  0
LINE
  5
BFC1
330
BE20
100
AcDbEntity
  8
1
  6
Continuous
100
AcDbLine
 10
86.62371
 20
304.312753
 30
0.0
 11
84.62371
 21
306.8337529999999
 31
0.0
  0
LINE
  5
BFC2
330
BE20
100
AcDbEntity
  8
1
  6
Continuous
100
AcDbLine
 10
78.38106999999998
 20
304.312753
 30
0.0
 11
80.38106999999998
 21
306.8337529999999
 31
0.0
  0
LINE
  5
BFC3
330
BE20
100
AcDbEntity
  8
1
  6
Continuous
100
AcDbLine
 10
79.55264200000002
 20
304.312753
 30
0.0
 11
77.552642
 21
306.8337529999999
 31
0.0
  0
LINE
  5
BFC4
330
BE20
100
AcDbEntity
  8
1
  6
Continuous
100
AcDbLine
 10
80.966856
 20
304.312753
 30
0.0
 11
78.96685600000002
 21
306.8337529999999
 31
0.0
  0
LINE
  5
BFC5
330
BE20
100
AcDbEntity
  8
1
  6
Continuous
100
AcDbLine
 10
75.552642
 20
304.312753
 30
0.0
 11
77.552642
 21
306.8337529999999
 31
0.0
  0
LINE
  5
BFC6
330
BE20
100
AcDbEntity
  8
1
  6
Continuous
100
AcDbLine
 10
76.96685600000002
 20
304.312753
 30
0.0
 11
78.96685600000002
 21
306.8337529999999
 31
0.0
  0
LINE
  5
BFC7
330
BE20
100
AcDbEntity
  8
1
  6
Continuous
100
AcDbLine
 10
78.138429
 20
304.312753
 30
0.0
 11
76.138429
 21
306.8337529999999
 31
0.0
  0
LINE
  5
BFC8
330
BE20
100
AcDbEntity
  8
1
  6
Continuous
100
AcDbLine
 10
79.795283
 20
304.312753
 30
0.0
 11
81.79528299999999
 21
306.8337529999999
 31
0.0
  0
LINE
  5
BFC9
330
BE20
100
AcDbEntity
  8
1
  6
Continuous
100
AcDbLine
 10
81.209497
 20
304.312753
 30
0.0
 11
83.20949699999998
 21
306.8337529999999
 31
0.0
  0
LINE
  5
BFCA
330
BE20
100
AcDbEntity
  8
1
  6
Continuous
100
AcDbLine
 10
82.38106999999997
 20
304.312753
 30
0.0
 11
80.38106999999998
 21
306.8337529999999
 31
0.0
  0
LINE
  5
BFCB
330
BE20
100
AcDbEntity
  8
1
  6
Continuous
100
AcDbLine
 10
88.28056399999999
 20
304.312753
 30
0.0
 11
90.280564
 21
306.8337529999999
 31
0.0
  0
LINE
  5
BFCC
330
BE20
100
AcDbEntity
  8
1
  6
Continuous
100
AcDbLine
 10
89.69477799999998
 20
304.312753
 30
0.0
 11
91.69477800000001
 21
306.8337529999999
 31
0.0
  0
LINE
  5
BFCD
330
BE20
100
AcDbEntity
  8
1
  6
Continuous
100
AcDbLine
 10
90.866351
 20
304.312753
 30
0.0
 11
88.86635099999997
 21
306.8337529999999
 31
0.0
  0
ARC
  5
BFCE
330
BE20
100
AcDbEntity
  8
1
  6
Continuous
100
AcDbCircle
 10
91.82229699999997
 20
301.473591
 30
0.0
 40
2.839261999999998
100
AcDbArc
 50
86.26253100000004
 51
90.48175099999999
  0
LINE
  5
BFCF
330
BE20
100
AcDbEntity
  8
1
  6
Continuous
100
AcDbLine
 10
76.724215
 20
304.312753
 30
0.0
 11
74.724215
 21
306.8337529999999
 31
0.0
  0
LINE
  5
BFD0
330
BE20
100
AcDbEntity
  8
1
  6
Continuous
100
AcDbLine
 10
66.238934
 20
315.627937
 30
0.0
 11
66.238934
 21
312.1279589999998
 31
0.0
  0
LINE
  5
BFD1
330
BE20
100
AcDbEntity
  8
1
  6
Continuous
100
AcDbLine
 10
52.238934
 20
315.627937
 30
0.0
 11
52.238934
 21
312.1279589999998
 31
0.0
  0
LINE
  5
BFD2
330
BE20
100
AcDbEntity
  8
1
  6
Continuous
100
AcDbLine
 10
80.238934
 20
315.627937
 30
0.0
 11
80.238934
 21
312.1279589999998
 31
0.0
  0
LINE
  5
BFD3
330
BE20
100
AcDbEntity
  8
1
  6
Continuous
100
AcDbLine
 10
251.72162
 20
304.312739
 30
0.0
 11
253.72162
 21
306.8337389999999
 31
0.0
  0
LINE
  5
BFD4
330
BE20
100
AcDbEntity
  8
1
  6
Continuous
100
AcDbLine
 10
218.5502389999999
 20
306.8337389999999
 30
0.0
 11
271.9224389999999
 21
306.8337389999999
 31
0.0
  0
LINE
  5
BFD5
330
BE20
100
AcDbEntity
  8
1
  6
Continuous
100
AcDbLine
 10
224.2363389999999
 20
312.127945
 30
0.0
 11
266.2363389999998
 21
312.127945
 31
0.0
  0
LINE
  5
BFD6
330
BE20
100
AcDbEntity
  8
1
  6
Continuous
100
AcDbLine
 10
271.9224389999999
 20
308.127945
 30
0.0
 11
218.5502389999999
 21
308.127945
 31
0.0
  0
LINE
  5
BFD7
330
BE20
100
AcDbEntity
  8
1
  6
Continuous
100
AcDbLine
 10
261.402123
 20
315.6279229999999
 30
0.0
 11
229.070507
 21
315.6279229999999
 31
0.0
  0
LINE
  5
BFD8
330
BE20
100
AcDbEntity
  8
1
  6
Continuous
100
AcDbLine
 10
253.135834
 20
304.312739
 30
0.0
 11
255.1358339999999
 21
306.8337389999999
 31
0.0
  0
LINE
  5
BFD9
330
BE20
100
AcDbEntity
  8
1
  6
Continuous
100
AcDbLine
 10
254.3074069999999
 20
304.312739
 30
0.0
 11
252.3074069999999
 21
306.8337389999999
 31
0.0
  0
ARC
  5
BFDA
330
BE20
100
AcDbEntity
  8
1
  6
Continuous
100
AcDbCircle
 10
224.2363389999999
 20
308.127945
 30
0.0
 40
4.0
100
AcDbArc
 50
90.0
 51
180.0
  0
LINE
  5
BFDB
330
BE20
100
AcDbEntity
  8
1
  6
Continuous
100
AcDbLine
 10
233.336844
 20
304.312739
 30
0.0
 11
235.336844
 21
306.8337389999999
 31
0.0
  0
LINE
  5
BFDC
330
BE20
100
AcDbEntity
  8
1
  6
Continuous
100
AcDbLine
 10
235.9226299999999
 20
304.312739
 30
0.0
 11
233.9226299999999
 21
306.8337389999999
 31
0.0
  0
LINE
  5
BFDD
330
BE20
100
AcDbEntity
  8
1
  6
Continuous
100
AcDbLine
 10
231.9226299999999
 20
304.312739
 30
0.0
 11
233.9226299999999
 21
306.8337389999999
 31
0.0
  0
LINE
  5
BFDE
330
BE20
100
AcDbEntity
  8
1
  6
Continuous
100
AcDbLine
 10
234.5084169999998
 20
304.312739
 30
0.0
 11
232.5084169999998
 21
306.8337389999999
 31
0.0
  0
LINE
  5
BFDF
330
BE20
100
AcDbEntity
  8
1
  6
Continuous
100
AcDbLine
 10
229.094203
 20
304.312739
 30
0.0
 11
231.094203
 21
306.8337389999999
 31
0.0
  0
LINE
  5
BFE0
330
BE20
100
AcDbEntity
  8
1
  6
Continuous
100
AcDbLine
 10
231.6799899999999
 20
304.312739
 30
0.0
 11
229.6799899999999
 21
306.8337389999999
 31
0.0
  0
LINE
  5
BFE1
330
BE20
100
AcDbEntity
  8
1
  6
Continuous
100
AcDbLine
 10
230.2657759999999
 20
304.312739
 30
0.0
 11
228.2657759999999
 21
306.8337389999999
 31
0.0
  0
LINE
  5
BFE2
330
BE20
100
AcDbEntity
  8
1
  6
Continuous
100
AcDbLine
 10
230.5084169999998
 20
304.312739
 30
0.0
 11
232.5084169999998
 21
306.8337389999999
 31
0.0
  0
LINE
  5
BFE3
330
BE20
100
AcDbEntity
  8
1
  6
Continuous
100
AcDbLine
 10
233.094203
 20
304.312739
 30
0.0
 11
231.094203
 21
306.8337389999999
 31
0.0
  0
LINE
  5
BFE4
330
BE20
100
AcDbEntity
  8
1
  6
Continuous
100
AcDbLine
 10
224.8515629999999
 20
304.312739
 30
0.0
 11
226.851563
 21
306.8337389999999
 31
0.0
  0
LINE
  5
BFE5
330
BE20
100
AcDbEntity
  8
1
  6
Continuous
100
AcDbLine
 10
227.437349
 20
304.312739
 30
0.0
 11
225.437349
 21
306.8337389999999
 31
0.0
  0
LINE
  5
BFE6
330
BE20
100
AcDbEntity
  8
1
  6
Continuous
100
AcDbLine
 10
226.023135
 20
304.312739
 30
0.0
 11
224.023135
 21
306.8337389999999
 31
0.0
  0
LINE
  5
BFE7
330
BE20
100
AcDbEntity
  8
1
  6
Continuous
100
AcDbLine
 10
220.6089219999999
 20
304.312739
 30
0.0
 11
222.6089219999999
 21
306.8337389999999
 31
0.0
  0
LINE
  5
BFE8
330
BE20
100
AcDbEntity
  8
1
  6
Continuous
100
AcDbLine
 10
223.1947079999999
 20
304.312739
 30
0.0
 11
221.1947079999999
 21
306.8337389999999
 31
0.0
  0
LINE
  5
BFE9
330
BE20
100
AcDbEntity
  8
1
  6
Continuous
100
AcDbLine
 10
221.780495
 20
304.312739
 30
0.0
 11
219.780495
 21
306.8337389999999
 31
0.0
  0
LINE
  5
BFEA
330
BE20
100
AcDbEntity
  8
1
  6
Continuous
100
AcDbLine
 10
223.437349
 20
304.312739
 30
0.0
 11
225.437349
 21
306.8337389999999
 31
0.0
  0
LINE
  5
BFEB
330
BE20
100
AcDbEntity
  8
1
  6
Continuous
100
AcDbLine
 10
222.023135
 20
304.312739
 30
0.0
 11
224.023135
 21
306.8337389999999
 31
0.0
  0
LINE
  5
BFEC
330
BE20
100
AcDbEntity
  8
1
  6
Continuous
100
AcDbLine
 10
224.6089219999999
 20
304.312739
 30
0.0
 11
222.6089219999999
 21
306.8337389999999
 31
0.0
  0
LINE
  5
BFED
330
BE20
100
AcDbEntity
  8
1
  6
Continuous
100
AcDbLine
 10
227.6799899999998
 20
304.312739
 30
0.0
 11
229.6799899999999
 21
306.8337389999999
 31
0.0
  0
LINE
  5
BFEE
330
BE20
100
AcDbEntity
  8
1
  6
Continuous
100
AcDbLine
 10
226.2657759999999
 20
304.312739
 30
0.0
 11
228.2657759999999
 21
306.8337389999999
 31
0.0
  0
LINE
  5
BFEF
330
BE20
100
AcDbEntity
  8
1
  6
Continuous
100
AcDbLine
 10
228.851563
 20
304.312739
 30
0.0
 11
226.851563
 21
306.8337389999999
 31
0.0
  0
LINE
  5
BFF0
330
BE20
100
AcDbEntity
  8
1
  6
Continuous
100
AcDbLine
 10
218.5502389999999
 20
304.312739
 30
0.0
 11
218.5502389999999
 21
308.127945
 31
0.0
  0
LINE
  5
BFF1
330
BE20
100
AcDbEntity
  8
1
  6
Continuous
100
AcDbLine
 10
219.1947079999999
 20
304.312739
 30
0.0
 11
221.1947079999999
 21
306.8337389999999
 31
0.0
  0
LINE
  5
BFF2
330
BE20
100
AcDbEntity
  8
1
  6
Continuous
100
AcDbLine
 10
218.5502389999999
 20
305.082483
 30
0.0
 11
219.780495
 21
306.8337389999999
 31
0.0
  0
LINE
  5
BFF3
330
BE20
100
AcDbEntity
  8
1
  6
Continuous
100
AcDbLine
 10
218.5502389999999
 20
306.649781
 30
0.0
 11
220.3662809999999
 21
304.312739
 31
0.0
  0
LINE
  5
BFF4
330
BE20
100
AcDbEntity
  8
1
  6
Continuous
100
AcDbLine
 10
218.5502389999999
 20
304.7145679999999
 30
0.0
 11
218.952068
 21
304.312739
 31
0.0
  0
LINE
  5
BFF5
330
BE20
100
AcDbEntity
  8
1
  6
Continuous
100
AcDbLine
 10
241.822125
 20
304.312739
 30
0.0
 11
243.822125
 21
306.8337389999999
 31
0.0
  0
LINE
  5
BFF6
330
BE20
100
AcDbEntity
  8
1
  6
Continuous
100
AcDbLine
 10
240.407912
 20
304.312739
 30
0.0
 11
242.407912
 21
306.8337389999999
 31
0.0
  0
LINE
  5
BFF7
330
BE20
100
AcDbEntity
  8
1
  6
Continuous
100
AcDbLine
 10
242.9936979999999
 20
304.312739
 30
0.0
 11
240.9936979999999
 21
306.8337389999999
 31
0.0
  0
LINE
  5
BFF8
330
BE20
100
AcDbEntity
  8
1
  6
Continuous
100
AcDbLine
 10
237.579485
 20
304.312739
 30
0.0
 11
239.579485
 21
306.8337389999999
 31
0.0
  0
LINE
  5
BFF9
330
BE20
100
AcDbEntity
  8
1
  6
Continuous
100
AcDbLine
 10
236.1652709999999
 20
304.312739
 30
0.0
 11
238.165271
 21
306.8337389999999
 31
0.0
  0
LINE
  5
BFFA
330
BE20
100
AcDbEntity
  8
1
  6
Continuous
100
AcDbLine
 10
238.751058
 20
304.312739
 30
0.0
 11
236.751058
 21
306.8337389999999
 31
0.0
  0
LINE
  5
BFFB
330
BE20
100
AcDbEntity
  8
1
  6
Continuous
100
AcDbLine
 10
238.9936979999998
 20
304.312739
 30
0.0
 11
240.9936979999999
 21
306.8337389999999
 31
0.0
  0
LINE
  5
BFFC
330
BE20
100
AcDbEntity
  8
1
  6
Continuous
100
AcDbLine
 10
241.579485
 20
304.312739
 30
0.0
 11
239.579485
 21
306.8337389999999
 31
0.0
  0
LINE
  5
BFFD
330
BE20
100
AcDbEntity
  8
1
  6
Continuous
100
AcDbLine
 10
240.165271
 20
304.312739
 30
0.0
 11
238.165271
 21
306.8337389999999
 31
0.0
  0
LINE
  5
BFFE
330
BE20
100
AcDbEntity
  8
1
  6
Continuous
100
AcDbLine
 10
244.407912
 20
304.312739
 30
0.0
 11
242.407912
 21
306.8337389999999
 31
0.0
  0
LINE
  5
BFFF
330
BE20
100
AcDbEntity
  8
1
  6
Continuous
100
AcDbLine
 10
237.3368439999999
 20
304.312739
 30
0.0
 11
235.336844
 21
306.8337389999999
 31
0.0
  0
LINE
  5
C000
330
BE20
100
AcDbEntity
  8
1
  6
Continuous
100
AcDbLine
 10
248.893193
 20
304.312739
 30
0.0
 11
250.893193
 21
306.8337389999999
 31
0.0
  0
LINE
  5
C001
330
BE20
100
AcDbEntity
  8
1
  6
Continuous
100
AcDbLine
 10
250.3074069999999
 20
304.312739
 30
0.0
 11
252.3074069999999
 21
306.8337389999999
 31
0.0
  0
LINE
  5
C002
330
BE20
100
AcDbEntity
  8
1
  6
Continuous
100
AcDbLine
 10
251.4789799999999
 20
304.312739
 30
0.0
 11
249.4789799999999
 21
306.8337389999999
 31
0.0
  0
LINE
  5
C003
330
BE20
100
AcDbEntity
  8
1
  6
Continuous
100
AcDbLine
 10
247.4789799999999
 20
304.312739
 30
0.0
 11
249.4789799999999
 21
306.8337389999999
 31
0.0
  0
LINE
  5
C004
330
BE20
100
AcDbEntity
  8
1
  6
Continuous
100
AcDbLine
 10
250.0647659999999
 20
304.312739
 30
0.0
 11
248.0647659999999
 21
306.8337389999999
 31
0.0
  0
LINE
  5
C005
330
BE20
100
AcDbEntity
  8
1
  6
Continuous
100
AcDbLine
 10
252.893193
 20
304.312739
 30
0.0
 11
250.893193
 21
306.8337389999999
 31
0.0
  0
LINE
  5
C006
330
BE20
100
AcDbEntity
  8
1
  6
Continuous
100
AcDbLine
 10
244.650552
 20
304.312739
 30
0.0
 11
246.650552
 21
306.8337389999999
 31
0.0
  0
LINE
  5
C007
330
BE20
100
AcDbEntity
  8
1
  6
Continuous
100
AcDbLine
 10
246.0647659999999
 20
304.312739
 30
0.0
 11
248.0647659999999
 21
306.8337389999999
 31
0.0
  0
LINE
  5
C008
330
BE20
100
AcDbEntity
  8
1
  6
Continuous
100
AcDbLine
 10
247.2363389999999
 20
304.312739
 30
0.0
 11
245.2363389999999
 21
306.8337389999999
 31
0.0
  0
LINE
  5
C009
330
BE20
100
AcDbEntity
  8
1
  6
Continuous
100
AcDbLine
 10
248.650552
 20
304.312739
 30
0.0
 11
246.650552
 21
306.8337389999999
 31
0.0
  0
LINE
  5
C00A
330
BE20
100
AcDbEntity
  8
1
  6
Continuous
100
AcDbLine
 10
243.2363389999999
 20
304.312739
 30
0.0
 11
245.2363389999999
 21
306.8337389999999
 31
0.0
  0
LINE
  5
C00B
330
BE20
100
AcDbEntity
  8
1
  6
Continuous
100
AcDbLine
 10
245.822125
 20
304.312739
 30
0.0
 11
243.822125
 21
306.8337389999999
 31
0.0
  0
LINE
  5
C00C
330
BE20
100
AcDbEntity
  8
1
  6
Continuous
100
AcDbLine
 10
234.751058
 20
304.312739
 30
0.0
 11
236.751058
 21
306.8337389999999
 31
0.0
  0
LINE
  5
C00D
330
BE20
100
AcDbEntity
  8
1
  6
Continuous
100
AcDbLine
 10
251.2363389999999
 20
315.6279229999999
 30
0.0
 11
251.2363389999999
 21
344.127923
 31
0.0
  0
LINE
  5
C00E
330
BE20
100
AcDbEntity
  8
1
  6
Continuous
100
AcDbLine
 10
239.2363389999999
 20
315.6279229999999
 30
0.0
 11
239.2363389999999
 21
344.127923
 31
0.0
  0
LINE
  5
C00F
330
BE20
100
AcDbEntity
  8
2
  6
Continuous
100
AcDbLine
 10
250.559839
 20
316.7996560000001
 30
0.0
 11
250.559839
 21
344.8044229999999
 31
0.0
  0
LINE
  5
C010
330
BE20
100
AcDbEntity
  8
2
  6
Continuous
100
AcDbLine
 10
239.9128389999999
 20
316.7996560000001
 30
0.0
 11
239.9128389999999
 21
344.8044229999999
 31
0.0
  0
LINE
  5
C011
330
BE20
100
AcDbEntity
  8
1
  6
Continuous
100
AcDbLine
 10
229.070507
 20
312.127945
 30
0.0
 11
229.070507
 21
315.6279229999999
 31
0.0
  0
LINE
  5
C012
330
BE20
100
AcDbEntity
  8
1
  6
Continuous
100
AcDbLine
 10
237.1534109999998
 20
312.127945
 30
0.0
 11
237.1534109999998
 21
315.6279229999999
 31
0.0
  0
LINE
  5
C013
330
BE20
100
AcDbEntity
  8
1
  6
Continuous
100
AcDbLine
 10
239.2363389999999
 20
316.7996560000001
 30
0.0
 11
251.2363389999999
 21
316.7996560000001
 31
0.0
  0
LINE
  5
C014
330
BE20
100
AcDbEntity
  8
2
  6
Continuous
100
AcDbLine
 10
239.9128389999999
 20
316.7996560000001
 30
0.0
 11
239.2363389999999
 21
315.6279229999999
 31
0.0
  0
LINE
  5
C015
330
BE20
100
AcDbEntity
  8
2
  6
Continuous
100
AcDbLine
 10
250.559839
 20
316.7996560000001
 30
0.0
 11
251.2363389999999
 21
315.6279229999999
 31
0.0
  0
LINE
  5
C016
330
BE20
100
AcDbEntity
  8
1
  6
Continuous
100
AcDbLine
 10
253.319267
 20
312.127945
 30
0.0
 11
253.319267
 21
315.6279229999999
 31
0.0
  0
LINE
  5
C017
330
BE20
100
AcDbEntity
  8
1
  6
Continuous
100
AcDbLine
 10
251.2363389999999
 20
344.127923
 30
0.0
 11
249.7363389999999
 21
345.627923
 31
0.0
  0
LINE
  5
C018
330
BE20
100
AcDbEntity
  8
1
  6
Continuous
100
AcDbLine
 10
239.2363389999999
 20
344.127923
 30
0.0
 11
251.2363389999999
 21
344.127923
 31
0.0
  0
LINE
  5
C019
330
BE20
100
AcDbEntity
  8
1
  6
Continuous
100
AcDbLine
 10
239.2363389999999
 20
344.127923
 30
0.0
 11
240.7363389999999
 21
345.627923
 31
0.0
  0
LINE
  5
C01A
330
BE20
100
AcDbEntity
  8
1
  6
Continuous
100
AcDbLine
 10
240.7363389999999
 20
345.627923
 30
0.0
 11
249.7363389999999
 21
345.627923
 31
0.0
  0
ARC
  5
C01B
330
BE20
100
AcDbEntity
  8
1
  6
Continuous
100
AcDbCircle
 10
266.2363389999998
 20
308.127945
 30
0.0
 40
4.0
100
AcDbArc
 50
0.0
 51
90.0
  0
LINE
  5
C01C
330
BE20
100
AcDbEntity
  8
1
  6
Continuous
100
AcDbLine
 10
271.9224389999999
 20
308.127945
 30
0.0
 11
271.9224389999999
 21
304.312739
 31
0.0
  0
LINE
  5
C01D
330
BE20
100
AcDbEntity
  8
1
  6
Continuous
100
AcDbLine
 10
270.106397
 20
304.312739
 30
0.0
 11
271.9224389999999
 21
306.649781
 31
0.0
  0
LINE
  5
C01E
330
BE20
100
AcDbEntity
  8
1
  6
Continuous
100
AcDbLine
 10
271.5206099999999
 20
304.312739
 30
0.0
 11
271.9224389999999
 21
304.7145679999999
 31
0.0
  0
LINE
  5
C01F
330
BE20
100
AcDbEntity
  8
1
  6
Continuous
100
AcDbLine
 10
271.277969
 20
304.312739
 30
0.0
 11
269.277969
 21
306.8337389999999
 31
0.0
  0
LINE
  5
C020
330
BE20
100
AcDbEntity
  8
1
  6
Continuous
100
AcDbLine
 10
271.9224389999999
 20
305.082483
 30
0.0
 11
270.692183
 21
306.8337389999999
 31
0.0
  0
LINE
  5
C021
330
BE20
100
AcDbEntity
  8
1
  6
Continuous
100
AcDbLine
 10
265.863756
 20
304.312739
 30
0.0
 11
267.863756
 21
306.8337389999999
 31
0.0
  0
LINE
  5
C022
330
BE20
100
AcDbEntity
  8
1
  6
Continuous
100
AcDbLine
 10
267.0353289999998
 20
304.312739
 30
0.0
 11
265.0353289999998
 21
306.8337389999999
 31
0.0
  0
LINE
  5
C023
330
BE20
100
AcDbEntity
  8
1
  6
Continuous
100
AcDbLine
 10
268.449542
 20
304.312739
 30
0.0
 11
266.449542
 21
306.8337389999999
 31
0.0
  0
LINE
  5
C024
330
BE20
100
AcDbEntity
  8
1
  6
Continuous
100
AcDbLine
 10
261.6211149999999
 20
304.312739
 30
0.0
 11
263.6211149999999
 21
306.8337389999999
 31
0.0
  0
LINE
  5
C025
330
BE20
100
AcDbEntity
  8
1
  6
Continuous
100
AcDbLine
 10
262.7926879999999
 20
304.312739
 30
0.0
 11
260.7926879999999
 21
306.8337389999999
 31
0.0
  0
LINE
  5
C026
330
BE20
100
AcDbEntity
  8
1
  6
Continuous
100
AcDbLine
 10
264.206902
 20
304.312739
 30
0.0
 11
262.206902
 21
306.8337389999999
 31
0.0
  0
LINE
  5
C027
330
BE20
100
AcDbEntity
  8
1
  6
Continuous
100
AcDbLine
 10
263.0353289999998
 20
304.312739
 30
0.0
 11
265.0353289999998
 21
306.8337389999999
 31
0.0
  0
LINE
  5
C028
330
BE20
100
AcDbEntity
  8
1
  6
Continuous
100
AcDbLine
 10
264.449542
 20
304.312739
 30
0.0
 11
266.449542
 21
306.8337389999999
 31
0.0
  0
LINE
  5
C029
330
BE20
100
AcDbEntity
  8
1
  6
Continuous
100
AcDbLine
 10
265.6211149999999
 20
304.312739
 30
0.0
 11
263.6211149999999
 21
306.8337389999999
 31
0.0
  0
LINE
  5
C02A
330
BE20
100
AcDbEntity
  8
1
  6
Continuous
100
AcDbLine
 10
257.3784749999999
 20
304.312739
 30
0.0
 11
259.3784749999999
 21
306.8337389999999
 31
0.0
  0
LINE
  5
C02B
330
BE20
100
AcDbEntity
  8
1
  6
Continuous
100
AcDbLine
 10
258.5500469999999
 20
304.312739
 30
0.0
 11
256.5500469999999
 21
306.8337389999999
 31
0.0
  0
LINE
  5
C02C
330
BE20
100
AcDbEntity
  8
1
  6
Continuous
100
AcDbLine
 10
259.9642609999999
 20
304.312739
 30
0.0
 11
257.9642609999999
 21
306.8337389999999
 31
0.0
  0
LINE
  5
C02D
330
BE20
100
AcDbEntity
  8
1
  6
Continuous
100
AcDbLine
 10
254.5500469999999
 20
304.312739
 30
0.0
 11
256.5500469999999
 21
306.8337389999999
 31
0.0
  0
LINE
  5
C02E
330
BE20
100
AcDbEntity
  8
1
  6
Continuous
100
AcDbLine
 10
255.964261
 20
304.312739
 30
0.0
 11
257.9642609999999
 21
306.8337389999999
 31
0.0
  0
LINE
  5
C02F
330
BE20
100
AcDbEntity
  8
1
  6
Continuous
100
AcDbLine
 10
257.1358339999998
 20
304.312739
 30
0.0
 11
255.1358339999999
 21
306.8337389999999
 31
0.0
  0
LINE
  5
C030
330
BE20
100
AcDbEntity
  8
1
  6
Continuous
100
AcDbLine
 10
258.7926879999999
 20
304.312739
 30
0.0
 11
260.7926879999999
 21
306.8337389999999
 31
0.0
  0
LINE
  5
C031
330
BE20
100
AcDbEntity
  8
1
  6
Continuous
100
AcDbLine
 10
260.206902
 20
304.312739
 30
0.0
 11
262.206902
 21
306.8337389999999
 31
0.0
  0
LINE
  5
C032
330
BE20
100
AcDbEntity
  8
1
  6
Continuous
100
AcDbLine
 10
261.3784749999999
 20
304.312739
 30
0.0
 11
259.3784749999999
 21
306.8337389999999
 31
0.0
  0
LINE
  5
C033
330
BE20
100
AcDbEntity
  8
1
  6
Continuous
100
AcDbLine
 10
267.277969
 20
304.312739
 30
0.0
 11
269.277969
 21
306.8337389999999
 31
0.0
  0
LINE
  5
C034
330
BE20
100
AcDbEntity
  8
1
  6
Continuous
100
AcDbLine
 10
268.692183
 20
304.312739
 30
0.0
 11
270.692183
 21
306.8337389999999
 31
0.0
  0
LINE
  5
C035
330
BE20
100
AcDbEntity
  8
1
  6
Continuous
100
AcDbLine
 10
269.863756
 20
304.312739
 30
0.0
 11
267.863756
 21
306.8337389999999
 31
0.0
  0
ARC
  5
C036
330
BE20
100
AcDbEntity
  8
1
  6
Continuous
100
AcDbCircle
 10
270.819702
 20
301.4735769999999
 30
0.0
 40
2.839261999999998
100
AcDbArc
 50
86.26253100000004
 51
90.48175099999999
  0
LINE
  5
C037
330
BE20
100
AcDbEntity
  8
1
  6
Continuous
100
AcDbLine
 10
255.72162
 20
304.312739
 30
0.0
 11
253.72162
 21
306.8337389999999
 31
0.0
  0
LINE
  5
C038
330
BE20
100
AcDbEntity
  8
1
  6
Continuous
100
AcDbLine
 10
261.402123
 20
312.127945
 30
0.0
 11
261.402123
 21
315.6279229999999
 31
0.0
  0
CIRCLE
  5
C039
330
BE20
100
AcDbEntity
  8
1
  6
Continuous
100
AcDbCircle
 10
188.0760699999999
 20
258.752351
 30
0.0
 40
3.7
  0
LINE
  5
C03A
330
BE20
100
AcDbEntity
  8
1
  6
Continuous
100
AcDbLine
 10
209.409643
 20
436.824648
 30
0.0
 11
150.387842
 21
436.824648
 31
0.0
  0
LINE
  5
C03B
330
BE20
100
AcDbEntity
  8
1
  6
Continuous
100
AcDbLine
 10
209.40964
 20
411.824648
 30
0.0
 11
150.387842
 21
411.824648
 31
0.0
  0
ARC
  5
C03C
330
BE20
100
AcDbEntity
  8
1
  6
Continuous
100
AcDbCircle
 10
174.236322
 20
424.324648
 30
0.0
 40
30.0
100
AcDbArc
 50
162.5423969999999
 51
197.457603
  0
ARC
  5
C03D
330
BE20
100
AcDbEntity
  8
1
  6
Continuous
100
AcDbCircle
 10
150.387842
 20
416.824648
 30
0.0
 40
5.0
100
AcDbArc
 50
197.457603
 51
270.0
  0
ARC
  5
C03E
330
BE20
100
AcDbEntity
  8
1
  6
Continuous
100
AcDbCircle
 10
150.387842
 20
431.8246479999998
 30
0.0
 40
5.0
100
AcDbArc
 50
90.0
 51
162.5423969999999
  0
ARC
  5
C03F
330
BE20
100
AcDbEntity
  8
1
  6
Continuous
100
AcDbCircle
 10
209.240777
 20
606.543084
 30
0.0
 40
196.381632
100
AcDbArc
 50
262.5378149999999
 51
263.7542049999999
  0
ARC
  5
C040
330
BE20
100
AcDbEntity
  8
1
  6
Continuous
100
AcDbCircle
 10
209.236339
 20
437.1801669999999
 30
0.0
 40
10.5
100
AcDbArc
 50
48.189685
 51
131.810315
  0
LINE
  5
C041
330
BE20
100
AcDbEntity
  8
1
  6
Continuous
100
AcDbLine
 10
216.2363389999999
 20
445.0064049999999
 30
0.0
 11
202.2363389999999
 21
445.0064049999999
 31
0.0
  0
LINE
  5
C042
330
BE20
100
AcDbEntity
  8
1
  6
Continuous
100
AcDbLine
 10
210.2252339999998
 20
408.824648
 30
0.0
 11
203.7363389999999
 21
408.824648
 31
0.0
  0
LINE
  5
C043
330
BE20
100
AcDbEntity
  8
1
  6
Continuous
100
AcDbLine
 10
210.0762
 20
409.324648
 30
0.0
 11
203.069735
 21
409.324648
 31
0.0
  0
LINE
  5
C044
330
BE20
100
AcDbEntity
  8
1
  6
Continuous
100
AcDbLine
 10
209.793981
 20
410.324648
 30
0.0
 11
201.2363389999999
 21
410.324648
 31
0.0
  0
LINE
  5
C045
330
BE20
100
AcDbEntity
  8
1
  6
Continuous
100
AcDbLine
 10
203.220552
 20
408.563097
 30
0.0
 11
210.3031249999999
 21
408.570202
 31
0.0
  0
LINE
  5
C046
330
BE20
100
AcDbEntity
  8
1
  6
Continuous
100
AcDbLine
 10
202.2363389999999
 20
445.0064049999999
 30
0.0
 11
202.2363389999999
 21
442.6801669999998
 31
0.0
  0
LINE
  5
C047
330
BE20
100
AcDbEntity
  8
1
  6
Continuous
100
AcDbLine
 10
203.7363389999999
 20
408.824648
 30
0.0
 11
203.7363389999999
 21
409.324648
 31
0.0
  0
ARC
  5
C048
330
BE20
100
AcDbEntity
  8
1
  6
Continuous
100
AcDbCircle
 10
203.0592149999999
 20
411.1475239999998
 30
0.0
 40
2.0
100
AcDbArc
 50
204.295189
 51
209.2878359999999
  0
LINE
  5
C049
330
BE20
100
AcDbEntity
  8
1
  6
Continuous
100
AcDbLine
 10
205.236339
 20
408.565119
 30
0.0
 11
205.236339
 21
408.824648
 31
0.0
  0
LINE
  5
C04A
330
BE20
100
AcDbEntity
  8
1
  6
Continuous
100
AcDbLine
 10
216.2363389999999
 20
445.0064049999999
 30
0.0
 11
216.2363389999999
 21
442.6801669999998
 31
0.0
  0
ARC
  5
C04B
330
BE20
100
AcDbEntity
  8
1
  6
Continuous
100
AcDbCircle
 10
209.2408079999999
 20
242.1058459999999
 30
0.0
 40
196.382
100
AcDbArc
 50
92.33600499999999
 51
97.46218000000002
  0
LINE
  5
C04C
330
BE20
100
AcDbEntity
  8
1
  6
Continuous
100
AcDbLine
 10
210.2252379999999
 20
439.824648
 30
0.0
 11
203.7363389999999
 21
439.824648
 31
0.0
  0
LINE
  5
C04D
330
BE20
100
AcDbEntity
  8
1
  6
Continuous
100
AcDbLine
 10
210.0762049999999
 20
439.324648
 30
0.0
 11
202.2363389999999
 21
439.324648
 31
0.0
  0
LINE
  5
C04E
330
BE20
100
AcDbEntity
  8
1
  6
Continuous
100
AcDbLine
 10
209.7939849999999
 20
438.324648
 30
0.0
 11
201.2363389999999
 21
438.324648
 31
0.0
  0
LINE
  5
C04F
330
BE20
100
AcDbEntity
  8
1
  6
Continuous
100
AcDbLine
 10
196.836339
 20
442.6926059999998
 30
0.0
 11
220.192179
 21
442.6691769999997
 31
0.0
  0
LINE
  5
C050
330
BE20
100
AcDbEntity
  8
1
  6
Continuous
100
AcDbLine
 10
196.836339
 20
440.0926049999998
 30
0.0
 11
210.30313
 21
440.079096
 31
0.0
  0
LINE
  5
C051
330
BE20
100
AcDbEntity
  8
1
  6
Continuous
100
AcDbLine
 10
203.7363389999999
 20
439.324648
 30
0.0
 11
203.7363389999999
 21
439.824648
 31
0.0
  0
ARC
  5
C052
330
BE20
100
AcDbEntity
  8
1
  6
Continuous
100
AcDbCircle
 10
203.0592149999999
 20
437.501773
 30
0.0
 40
2.0
100
AcDbArc
 50
114.2951889999998
 51
155.704811
  0
LINE
  5
C053
330
BE20
100
AcDbEntity
  8
1
  6
Continuous
100
AcDbLine
 10
205.236339
 20
439.824648
 30
0.0
 11
205.236339
 21
440.084179
 31
0.0
  0
LINE
  5
C054
330
BE20
100
AcDbEntity
  8
1
  6
Continuous
100
AcDbLine
 10
196.836339
 20
442.6926059999998
 30
0.0
 11
196.836339
 21
440.0926049999998
 31
0.0
  0
LINE
  5
C055
330
BE20
100
AcDbEntity
  8
1
  6
Continuous
100
AcDbLine
 10
203.7363389999999
 20
440.074648
 30
0.0
 11
209.236339
 21
440.074648
 31
0.0
  0
LINE
  5
C056
330
BE20
100
AcDbEntity
  8
1
  6
Continuous
100
AcDbLine
 10
205.236339
 20
440.084179
 30
0.0
 11
205.236339
 21
440.074648
 31
0.0
  0
ARC
  5
C057
330
BE20
100
AcDbEntity
  8
1
  6
Continuous
100
AcDbCircle
 10
244.2363569999999
 20
424.324648
 30
0.0
 40
30.0
100
AcDbArc
 50
342.542397
 51
17.45760299999999
  0
ARC
  5
C058
330
BE20
100
AcDbEntity
  8
1
  6
Continuous
100
AcDbCircle
 10
268.084837
 20
416.824648
 30
0.0
 40
5.0
100
AcDbArc
 50
291.322179
 51
342.542397
  0
ARC
  5
C059
330
BE20
100
AcDbEntity
  8
1
  6
Continuous
100
AcDbCircle
 10
268.084837
 20
431.8246479999998
 30
0.0
 40
5.0
100
AcDbArc
 50
17.45760299999999
 51
68.67782099999999
  0
ARC
  5
C05A
330
BE20
100
AcDbEntity
  8
1
  6
Continuous
100
AcDbCircle
 10
220.203514
 20
57.777846
 30
0.0
 40
13.9
100
AcDbArc
 50
49.821135
 51
90.05747599999997
  0
ARC
  5
C05B
330
BE20
100
AcDbEntity
  8
1
  6
Continuous
100
AcDbCircle
 10
220.2035149999999
 20
57.777846
 30
0.0
 40
11.3
100
AcDbArc
 50
49.821137
 51
90.05747500000003
  0
CIRCLE
  5
C05C
330
BE20
100
AcDbEntity
  8
2
  6
Continuous
100
AcDbCircle
 10
245.2363389999999
 20
424.324648
 30
0.0
 40
5.3235
  0
ARC
  5
C05D
330
BE20
100
AcDbEntity
  8
1
  6
Continuous
100
AcDbCircle
 10
245.2363389999999
 20
424.324648
 30
0.0
 40
27.5
100
AcDbArc
 50
229.821137
 51
130.1788629999998
  0
ARC
  5
C05E
330
BE20
100
AcDbEntity
  8
1
  6
Continuous
100
AcDbCircle
 10
220.2035149999999
 20
453.969171
 30
0.0
 40
11.3
100
AcDbArc
 50
269.942524
 51
310.1788629999999
  0
ARC
  5
C05F
330
BE20
100
AcDbEntity
  8
1
  6
Continuous
100
AcDbCircle
 10
220.2035149999999
 20
394.6801259999999
 30
0.0
 40
11.3
100
AcDbArc
 50
49.821137
 51
87.472173
  0
LINE
  5
C060
330
BE20
100
AcDbEntity
  8
4
  6
CENTER
100
AcDbLine
 10
209.236339
 20
302.627739
 30
0.0
 11
209.236339
 21
156.6277389999999
 31
0.0
  0
ARC
  5
C061
330
BE20
100
AcDbEntity
  8
1
  6
Continuous
100
AcDbCircle
 10
211.8918569999999
 20
208.137337
 30
0.0
 40
36.478828
100
AcDbArc
 50
72.90225599999998
 51
82.346502
  0
ARC
  5
C062
330
BE20
100
AcDbEntity
  8
1
  6
Continuous
100
AcDbCircle
 10
242.184345
 20
381.3829529999999
 30
0.0
 40
170.4503199999998
100
AcDbArc
 50
261.76691
 51
267.67719
  0
LINE
  5
C063
330
BE20
100
AcDbEntity
  8
1
  6
Continuous
100
AcDbLine
 10
222.708681
 20
242.9190979999999
 30
0.0
 11
217.455818
 21
212.6656969999999
 31
0.0
  0
LINE
  5
C064
330
BE20
100
AcDbEntity
  8
1
  6
Continuous
100
AcDbLine
 10
230.4389309999999
 20
210.123564
 30
0.0
 11
219.7783319999998
 21
212.411706
 31
0.0
  0
ARC
  5
C065
330
BE20
100
AcDbEntity
  8
1
  6
Continuous
100
AcDbCircle
 10
242.6332899999999
 20
81.56298099999998
 30
0.0
 40
34.628464
100
AcDbArc
 50
100.4079299999998
 51
131.4236699999999
  0
ARC
  5
C066
330
BE20
100
AcDbEntity
  8
1
  6
Continuous
100
AcDbCircle
 10
247.8861569999998
 20
81.56298099999998
 30
0.0
 40
34.628464
100
AcDbArc
 50
105.9986399999999
 51
131.4236699999999
  0
ARC
  5
C067
330
BE20
100
AcDbEntity
  8
1
  6
Continuous
100
AcDbCircle
 10
242.6332899999999
 20
81.56298099999998
 30
0.0
 40
36.928463
100
AcDbArc
 50
100.4079299999998
 51
132.9837099999998
  0
LINE
  5
C068
330
BE20
100
AcDbEntity
  8
1
  6
Continuous
100
AcDbLine
 10
173.54611
 20
100.919931
 30
0.0
 11
242.159703
 21
100.919931
 31
0.0
  0
LINE
  5
C069
330
BE20
100
AcDbEntity
  8
1
  6
Continuous
100
AcDbLine
 10
173.54611
 20
100.419931
 30
0.0
 11
242.169918
 21
100.419931
 31
0.0
  0
ARC
  5
C06A
330
BE20
100
AcDbEntity
  8
1
  6
Continuous
100
AcDbCircle
 10
221.667123
 20
400.46913
 30
0.0
 40
5.5
100
AcDbArc
 50
48.57633299999999
 51
55.974605
  0
ARC
  5
C06B
330
BE20
100
AcDbEntity
  8
1
  6
Continuous
100
AcDbCircle
 10
247.8861699999999
 20
430.18407
 30
0.0
 40
36.928463
100
AcDbArc
 50
227.01629
 51
259.5920599999999
  0
ARC
  5
C06C
330
BE20
100
AcDbEntity
  8
1
  6
Continuous
100
AcDbCircle
 10
221.667123
 20
400.46913
 30
0.0
 40
5.0
100
AcDbArc
 50
48.57633299999999
 51
90.00000300000001
  0
ARC
  5
C06D
330
BE20
100
AcDbEntity
  8
1
  6
Continuous
100
AcDbCircle
 10
242.6333029999999
 20
430.18407
 30
0.0
 40
36.928463
100
AcDbArc
 50
227.01629
 51
259.5920699999999
  0
ARC
  5
C06E
330
BE20
100
AcDbEntity
  8
5
  6
PHANTOM
100
AcDbCircle
 10
197.726734
 20
384.4913629999999
 30
0.0
 40
170.4503199999998
100
AcDbArc
 50
278.26691
 51
284.1772
  0
ARC
  5
C06F
330
BE20
100
AcDbEntity
  8
5
  6
PHANTOM
100
AcDbCircle
 10
172.023235
 20
-12.184897
 30
0.0
 40
262.5541999999999
100
AcDbArc
 50
74.93044000000002
 51
79.51924099999998
  0
LINE
  5
C070
330
BE20
100
AcDbEntity
  8
1
  6
Continuous
100
AcDbLine
 10
87.36057499999999
 20
212.6657129999999
 30
0.0
 11
95.577067
 21
211.0401629999998
 31
0.0
  0
LINE
  5
C071
330
BE20
100
AcDbEntity
  8
1
  6
Continuous
100
AcDbLine
 10
95.68653199999998
 20
211.024723
 30
0.0
 11
87.39445499999998
 21
211.728823
 31
0.0
  0
LINE
  5
C072
330
BE20
100
AcDbEntity
  8
1
  6
Continuous
100
AcDbLine
 10
95.820561
 20
234.1459729999999
 30
0.0
 11
100.6488609999999
 21
234.1459729999999
 31
0.0
  0
LINE
  5
C073
330
BE20
100
AcDbEntity
  8
1
  6
Continuous
100
AcDbLine
 10
96.730242
 20
230.3664629999999
 30
0.0
 11
100.6488609999999
 21
230.3664629999999
 31
0.0
  0
ARC
  5
C074
330
BE20
100
AcDbEntity
  8
1
  6
Continuous
100
AcDbCircle
 10
76.95342700000002
 20
224.109623
 30
0.0
 40
21.51306299999999
100
AcDbArc
 50
35.82969699999999
 51
61.06876999999999
  0
LINE
  5
C075
330
BE20
100
AcDbEntity
  8
1
  6
Continuous
100
AcDbLine
 10
94.59914600000001
 20
236.412083
 30
0.0
 11
100.6488609999999
 21
236.412083
 31
0.0
  0
LINE
  5
C076
330
BE20
100
AcDbEntity
  8
1
  6
Continuous
100
AcDbLine
 10
89.36056200000001
 20
247.365673
 30
0.0
 11
100.6506469999999
 21
247.365673
 31
0.0
  0
LINE
  5
C077
330
BE20
100
AcDbEntity
  8
1
  6
Continuous
100
AcDbLine
 10
90.096234
 20
251.1451829999999
 30
0.0
 11
100.6506469999999
 21
251.1451829999999
 31
0.0
  0
LINE
  5
C078
330
BE20
100
AcDbEntity
  8
1
  6
Continuous
100
AcDbLine
 10
90.094449
 20
253.411293
 30
0.0
 11
100.6506469999999
 21
253.411293
 31
0.0
  0
LINE
  5
C079
330
BE20
100
AcDbEntity
  8
1
  6
Continuous
100
AcDbLine
 10
87.360562
 20
241.2799729999999
 30
0.0
 11
87.360562
 21
248.411293
 31
0.0
  0
LINE
  5
C07A
330
BE20
100
AcDbEntity
  8
1
  6
Continuous
100
AcDbLine
 10
85.09444899999998
 20
230.408333
 30
0.0
 11
85.09444899999998
 21
248.411293
 31
0.0
  0
LINE
  5
C07B
330
BE20
100
AcDbEntity
  8
1
  6
Continuous
100
AcDbLine
 10
80.94665199999999
 20
245.092413
 30
0.0
 11
80.94665199999999
 21
209.722753
 31
0.0
  0
LINE
  5
C07C
330
BE20
100
AcDbEntity
  8
1
  6
Continuous
100
AcDbLine
 10
80.446652
 20
245.092413
 30
0.0
 11
80.446652
 21
209.722753
 31
0.0
  0
LINE
  5
C07D
330
BE20
100
AcDbEntity
  8
1
  6
Continuous
100
AcDbLine
 10
79.23647699999998
 20
245.092413
 30
0.0
 11
79.23647699999998
 21
221.842753
 31
0.0
  0
LINE
  5
C07E
330
BE20
100
AcDbEntity
  8
1
  6
Continuous
100
AcDbLine
 10
89.940762
 20
225.2846729999999
 30
0.0
 11
89.940762
 21
218.4008229999998
 31
0.0
  0
LINE
  5
C07F
330
BE20
100
AcDbEntity
  8
1
  6
Continuous
100
AcDbLine
 10
79.23648799999998
 20
221.842753
 30
0.0
 11
80.44665999999997
 21
209.722753
 31
0.0
  0
ARC
  5
C080
330
BE20
100
AcDbEntity
  8
1
  6
Continuous
100
AcDbCircle
 10
84.940762
 20
218.4008229999998
 30
0.0
 40
5.0
100
AcDbArc
 50
284.446613
 51
0.000003
  0
ARC
  5
C081
330
BE20
100
AcDbEntity
  8
1
  6
Continuous
100
AcDbCircle
 10
82.90647599999998
 20
210.6482029999999
 30
0.0
 40
2.0
100
AcDbArc
 50
104.44661
 51
168.4959
  0
LINE
  5
C082
330
BE20
100
AcDbEntity
  8
1
  6
Continuous
100
AcDbLine
 10
85.09444899999998
 20
212.6657129999999
 30
0.0
 11
87.360562
 21
212.6657129999999
 31
0.0
  0
LINE
  5
C083
330
BE20
100
AcDbEntity
  8
1
  6
Continuous
100
AcDbLine
 10
86.188151
 20
213.558933
 30
0.0
 11
82.40751299999997
 21
212.5849629999999
 31
0.0
  0
LINE
  5
C084
330
BE20
100
AcDbEntity
  8
1
  6
Continuous
100
AcDbLine
 10
80.446652
 20
209.722753
 30
0.0
 11
80.94665199999999
 21
209.722753
 31
0.0
  0
LINE
  5
C085
330
BE20
100
AcDbEntity
  8
1
  6
Continuous
100
AcDbLine
 10
87.360562
 20
212.6657129999999
 30
0.0
 11
87.360562
 21
214.025393
 31
0.0
  0
LINE
  5
C086
330
BE20
100
AcDbEntity
  8
1
  6
Continuous
100
AcDbLine
 10
87.394452
 20
211.728823
 30
0.0
 11
85.09444899999998
 21
211.728823
 31
0.0
  0
LINE
  5
C087
330
BE20
100
AcDbEntity
  8
1
  6
Continuous
100
AcDbLine
 10
85.09444899999998
 20
211.728823
 30
0.0
 11
85.09444899999998
 21
213.277163
 31
0.0
  0
ARC
  5
C088
330
BE20
100
AcDbEntity
  8
1
  6
Continuous
100
AcDbCircle
 10
84.940762
 20
225.2846729999999
 30
0.0
 40
5.0
100
AcDbArc
 50
0.000003
 51
75.55338999999998
  0
ARC
  5
C089
330
BE20
100
AcDbEntity
  8
1
  6
Continuous
100
AcDbCircle
 10
82.90647599999998
 20
233.037303
 30
0.0
 40
2.0
100
AcDbArc
 50
191.5041099999998
 51
255.5533799999999
  0
LINE
  5
C08A
330
BE20
100
AcDbEntity
  8
1
  6
Continuous
100
AcDbLine
 10
86.18814899999998
 20
230.1265629999999
 30
0.0
 11
82.407511
 21
231.1005329999999
 31
0.0
  0
ARC
  5
C08B
330
BE20
100
AcDbEntity
  8
1
  6
Continuous
100
AcDbCircle
 10
95.360562
 20
241.2799729999999
 30
0.0
 40
8.0
100
AcDbArc
 50
180.0
 51
204.57293
  0
ARC
  5
C08C
330
BE20
100
AcDbEntity
  8
1
  6
Continuous
100
AcDbCircle
 10
95.094449
 20
241.950383
 30
0.0
 40
10.0
100
AcDbArc
 50
180.0
 51
205.9646899999999
  0
ARC
  5
C08D
330
BE20
100
AcDbEntity
  8
1
  6
Continuous
100
AcDbCircle
 10
68.43009599999999
 20
228.965643
 30
0.0
 40
19.65790399999999
100
AcDbArc
 50
0.5978420000000001
 51
25.96469
  0
ARC
  5
C08E
330
BE20
100
AcDbEntity
  8
1
  6
Continuous
100
AcDbCircle
 10
68.43009599999999
 20
228.965643
 30
0.0
 40
21.61238299999999
100
AcDbArc
 50
352.575136
 51
24.57292999999999
  0
ARC
  5
C08F
330
BE20
100
AcDbEntity
  8
1
  6
Continuous
100
AcDbCircle
 10
89.36056200000001
 20
245.365673
 30
0.0
 40
2.0
100
AcDbArc
 50
90.00001000000002
 51
180.0
  0
LINE
  5
C090
330
BE20
100
AcDbEntity
  8
1
  6
Continuous
100
AcDbLine
 10
80.39445200000001
 20
249.357493
 30
0.0
 11
85.18479499999996
 21
249.357493
 31
0.0
  0
LINE
  5
C091
330
BE20
100
AcDbEntity
  8
1
  6
Continuous
100
AcDbLine
 10
80.39445200000001
 20
249.357493
 30
0.0
 11
80.39445200000001
 21
251.657473
 31
0.0
  0
LINE
  5
C092
330
BE20
100
AcDbEntity
  8
1
  6
Continuous
100
AcDbLine
 10
80.39445200000001
 20
251.657473
 30
0.0
 11
85.39445200000001
 21
251.657473
 31
0.0
  0
ARC
  5
C093
330
BE20
100
AcDbEntity
  8
1
  6
Continuous
100
AcDbCircle
 10
90.094449
 20
248.411293
 30
0.0
 40
2.733886999999998
100
AcDbArc
 50
90.00001000000002
 51
180.0
  0
ARC
  5
C094
330
BE20
100
AcDbEntity
  8
1
  6
Continuous
100
AcDbCircle
 10
90.094449
 20
248.411293
 30
0.0
 40
5.0
100
AcDbArc
 50
90.00001000000002
 51
180.0
  0
ARC
  5
C095
330
BE20
100
AcDbEntity
  8
1
  6
Continuous
100
AcDbCircle
 10
85.39445200000001
 20
249.657473
 30
0.0
 40
2.0
100
AcDbArc
 50
67.33977
 51
90.00001000000002
  0
LINE
  5
C096
330
BE20
100
AcDbEntity
  8
1
  6
Continuous
100
AcDbLine
 10
79.23647699999998
 20
245.092413
 30
0.0
 11
85.09444899999998
 21
245.092413
 31
0.0
  0
ARC
  5
C097
330
BE20
100
AcDbEntity
  8
1
  6
Continuous
100
AcDbCircle
 10
148.2235039999999
 20
72.83846099999998
 30
0.0
 40
40.0
100
AcDbArc
 50
47.31937300000002
 51
77.68316299999998
  0
ARC
  5
C098
330
BE20
100
AcDbEntity
  8
1
  6
Continuous
100
AcDbCircle
 10
161.8170869999999
 20
121.334101
 30
0.0
 40
11.0
100
AcDbArc
 50
0.0
 51
180.00001
  0
ARC
  5
C099
330
BE20
100
AcDbEntity
  8
1
  6
Continuous
100
AcDbCircle
 10
160.44198
 20
6.441371
 30
0.0
 40
104.78456
100
AcDbArc
 50
77.09166899999998
 51
89.896156
  0
LINE
  5
C09A
330
BE20
100
AcDbEntity
  8
1
  6
Continuous
100
AcDbLine
 10
141.86635
 20
103.801961
 30
0.0
 11
173.568723
 21
100.919931
 31
0.0
  0
LINE
  5
C09B
330
BE20
100
AcDbEntity
  8
1
  6
Continuous
100
AcDbLine
 10
141.8210769999998
 20
103.3040109999999
 30
0.0
 11
173.546113
 21
100.419911
 31
0.0
  0
LINE
  5
C09C
330
BE20
100
AcDbEntity
  8
1
  6
Continuous
100
AcDbLine
 10
150.8170869999999
 20
111.3095909999999
 30
0.0
 11
150.8170869999999
 21
121.334101
 31
0.0
  0
ARC
  5
C09D
330
BE20
100
AcDbEntity
  8
1
  6
Continuous
100
AcDbCircle
 10
154.836343
 20
103.1249309999999
 30
0.0
 40
9.0
100
AcDbArc
 50
77.68316299999998
 51
166.96805
  0
ARC
  5
C09E
330
BE20
100
AcDbEntity
  8
1
  6
Continuous
100
AcDbCircle
 10
144.119653
 20
105.605371
 30
0.0
 40
2.0
100
AcDbArc
 50
264.80557
 51
346.9680499999999
  0
LINE
  5
C09F
330
BE20
100
AcDbEntity
  8
1
  6
Continuous
100
AcDbLine
 10
141.86635
 20
103.801961
 30
0.0
 11
141.8210769999998
 21
103.3040109999999
 31
0.0
  0
ARC
  5
C0A0
330
BE20
100
AcDbEntity
  8
1
  6
Continuous
100
AcDbCircle
 10
193.3042879999999
 20
102.919931
 30
0.0
 40
2.0
100
AcDbArc
 50
270.0
 51
0.0
  0
LINE
  5
C0A1
330
BE20
100
AcDbEntity
  8
1
  6
Continuous
100
AcDbLine
 10
183.849996
 20
108.5779009999999
 30
0.0
 11
217.455815
 21
108.5779009999999
 31
0.0
  0
LINE
  5
C0A2
330
BE20
100
AcDbEntity
  8
1
  6
Continuous
100
AcDbLine
 10
170.173521
 20
106.277901
 30
0.0
 11
221.6671109999999
 21
106.277901
 31
0.0
  0
LINE
  5
C0A3
330
BE20
100
AcDbEntity
  8
1
  6
Continuous
100
AcDbLine
 10
172.8170899999998
 20
110.492621
 30
0.0
 11
172.8170899999998
 21
121.334101
 31
0.0
  0
ARC
  5
C0A4
330
BE20
100
AcDbEntity
  8
1
  6
Continuous
100
AcDbCircle
 10
178.7295049999999
 20
105.919931
 30
0.0
 40
5.0
100
AcDbArc
 50
227.31937
 51
270.0
  0
ARC
  5
C0A5
330
BE20
100
AcDbEntity
  8
1
  6
Continuous
100
AcDbCircle
 10
160.44198
 20
6.441371
 30
0.0
 40
102.48456
100
AcDbArc
 50
76.946999
 51
87.02353599999998
  0
ARC
  5
C0A6
330
BE20
100
AcDbEntity
  8
1
  6
Continuous
100
AcDbCircle
 10
197.3042879999999
 20
104.277901
 30
0.0
 40
2.0
100
AcDbArc
 50
90.00000300000001
 51
180.00001
  0
LINE
  5
C0A7
330
BE20
100
AcDbEntity
  8
1
  6
Continuous
100
AcDbLine
 10
195.3042879999999
 20
104.277901
 30
0.0
 11
195.3042879999999
 21
102.919931
 31
0.0
  0
ARC
  5
C0A8
330
BE20
100
AcDbEntity
  8
1
  6
Continuous
100
AcDbCircle
 10
216.414242
 20
111.277901
 30
0.0
 40
5.0
100
AcDbArc
 50
270.0
 51
311.42367
  0
ARC
  5
C0A9
330
BE20
100
AcDbEntity
  8
1
  6
Continuous
100
AcDbCircle
 10
221.6671109999999
 20
111.277901
 30
0.0
 40
5.0
100
AcDbArc
 50
270.0
 51
311.42367
  0
LINE
  5
C0AA
330
BE20
100
AcDbEntity
  8
1
  6
Continuous
100
AcDbLine
 10
96.77114500000001
 20
212.0211529999999
 30
0.0
 11
96.77114500000001
 21
230.3664629999999
 31
0.0
  0
ARC
  5
C0AB
330
BE20
100
AcDbEntity
  8
1
  6
Continuous
100
AcDbCircle
 10
95.77114499999996
 20
212.0211529999999
 30
0.0
 40
1.0
100
AcDbArc
 50
265.1466200000001
 51
0.000003
  0
ARC
  5
C0AC
330
BE20
100
AcDbEntity
  8
1
  6
Continuous
100
AcDbCircle
 10
100.6488609999999
 20
179.7015429999999
 30
0.0
 40
54.44366099999999
100
AcDbArc
 50
79.80144
 51
90.00001000000002
  0
ARC
  5
C0AD
330
BE20
100
AcDbEntity
  8
1
  6
Continuous
100
AcDbCircle
 10
100.6488609999999
 20
284.810923
 30
0.0
 40
54.44366099999999
100
AcDbArc
 50
270.0
 51
280.1985559999998
  0
ARC
  5
C0AE
330
BE20
100
AcDbEntity
  8
1
  6
Continuous
100
AcDbCircle
 10
100.6488609999999
 20
181.967653
 30
0.0
 40
54.44366099999999
100
AcDbArc
 50
79.80144
 51
90.00001000000002
  0
ARC
  5
C0AF
330
BE20
100
AcDbEntity
  8
1
  6
Continuous
100
AcDbCircle
 10
110.1035729999999
 20
234.522343
 30
0.0
 40
1.045285
100
AcDbArc
 50
0.000003
 51
79.80144
  0
ARC
  5
C0B0
330
BE20
100
AcDbEntity
  8
1
  6
Continuous
100
AcDbCircle
 10
110.1035729999999
 20
232.256233
 30
0.0
 40
1.045285
100
AcDbArc
 50
280.1985559999998
 51
79.80144
  0
LINE
  5
C0B1
330
BE20
100
AcDbEntity
  8
1
  6
Continuous
100
AcDbLine
 10
111.148861
 20
232.256233
 30
0.0
 11
111.148861
 21
234.522343
 31
0.0
  0
ARC
  5
C0B2
330
BE20
100
AcDbEntity
  8
1
  6
Continuous
100
AcDbCircle
 10
100.6506469999999
 20
196.700723
 30
0.0
 40
54.44366099999999
100
AcDbArc
 50
79.80144
 51
90.00001000000002
  0
ARC
  5
C0B3
330
BE20
100
AcDbEntity
  8
1
  6
Continuous
100
AcDbCircle
 10
100.6506469999999
 20
301.810093
 30
0.0
 40
54.44366099999999
100
AcDbArc
 50
270.0
 51
280.1985559999998
  0
ARC
  5
C0B4
330
BE20
100
AcDbEntity
  8
1
  6
Continuous
100
AcDbCircle
 10
100.6506469999999
 20
198.966833
 30
0.0
 40
54.44366099999999
100
AcDbArc
 50
79.80144
 51
90.00001000000002
  0
ARC
  5
C0B5
330
BE20
100
AcDbEntity
  8
1
  6
Continuous
100
AcDbCircle
 10
110.105359
 20
249.2554129999998
 30
0.0
 40
1.045285
100
AcDbArc
 50
280.1985559999998
 51
79.80144
  0
LINE
  5
C0B6
330
BE20
100
AcDbEntity
  8
1
  6
Continuous
100
AcDbLine
 10
111.1506469999999
 20
251.5215229999999
 30
0.0
 11
111.1506469999999
 21
249.2554129999998
 31
0.0
  0
ARC
  5
C0B7
330
BE20
100
AcDbEntity
  8
1
  6
Continuous
100
AcDbCircle
 10
110.105359
 20
251.5215229999999
 30
0.0
 40
1.045285
100
AcDbArc
 50
0.000003
 51
79.80144
  0
LINE
  5
C0B8
330
BE20
100
AcDbEntity
  8
1
  6
Continuous
100
AcDbLine
 10
151.210552
 20
253.411266
 30
0.0
 11
173.00196
 21
249.627668
 31
0.0
  0
LINE
  5
C0B9
330
BE20
100
AcDbEntity
  8
1
  6
Continuous
100
AcDbLine
 10
150.8170959999999
 20
251.1451679999999
 30
0.0
 11
172.608501
 21
247.3615689999999
 31
0.0
  0
ARC
  5
C0BA
330
BE20
100
AcDbEntity
  8
1
  6
Continuous
100
AcDbCircle
 10
-898.6949609999996
 20
-1701.780427
 30
0.0
 40
2206.895999999999
100
AcDbArc
 50
60.47544399999999
 51
61.59328
  0
ARC
  5
C0BB
330
BE20
100
AcDbEntity
  8
1
  6
Continuous
100
AcDbCircle
 10
179.410427
 20
256.8252529999999
 30
0.0
 40
33.692234
100
AcDbArc
 50
219.0668599999999
 51
247.66752
  0
ARC
  5
C0BC
330
BE20
100
AcDbEntity
  8
1
  6
Continuous
100
AcDbCircle
 10
179.410427
 20
256.8252529999999
 30
0.0
 40
34.992233
100
AcDbArc
 50
221.7816099999998
 51
252.28302
  0
ARC
  5
C0BD
330
BE20
100
AcDbEntity
  8
1
  6
Continuous
100
AcDbCircle
 10
138.0709949999999
 20
259.2582859999998
 30
0.0
 40
50.0
100
AcDbArc
 50
294.1364399999999
 51
312.6920999999999
  0
ARC
  5
C0BE
330
BE20
100
AcDbEntity
  8
1
  6
Continuous
100
AcDbCircle
 10
152.894603
 20
227.7741629999999
 30
0.0
 40
18.068386
100
AcDbArc
 50
274.11842
 51
296.3888
  0
ARC
  5
C0BF
330
BE20
100
AcDbEntity
  8
1
  6
Continuous
100
AcDbCircle
 10
154.836345
 20
221.8427359999998
 30
0.0
 40
9.0
100
AcDbArc
 50
82.14887799999997
 51
294.1364399999999
  0
ARC
  5
C0C0
330
BE20
100
AcDbEntity
  8
5
  6
PHANTOM
100
AcDbCircle
 10
172.91415
 20
247.234235
 30
0.0
 40
34.992233
100
AcDbArc
 50
238.28162
 51
268.7830099999998
  0
ARC
  5
C0C1
330
BE20
100
AcDbEntity
  8
5
  6
PHANTOM
100
AcDbCircle
 10
-304.5205009999999
 20
-1936.914127
 30
0.0
 40
2206.895999999999
100
AcDbArc
 50
76.97544599999997
 51
78.09347999999999
  0
ARC
  5
C0C2
330
BE20
100
AcDbEntity
  8
5
  6
PHANTOM
100
AcDbCircle
 10
172.91415
 20
247.234235
 30
0.0
 40
33.692234
100
AcDbArc
 50
235.56686
 51
264.16751
  0
LINE
  5
C0C3
330
BE20
100
AcDbEntity
  8
5
  6
PHANTOM
100
AcDbLine
 10
147.1115369999999
 20
233.667113
 30
0.0
 11
169.080161
 21
236.2284169999998
 31
0.0
  0
LINE
  5
C0C4
330
BE20
100
AcDbEntity
  8
5
  6
PHANTOM
100
AcDbLine
 10
146.8451879999998
 20
235.951638
 30
0.0
 11
168.8138079999999
 21
238.5129419999999
 31
0.0
  0
LINE
  5
C0C5
330
BE20
100
AcDbEntity
  8
1
  6
Continuous
100
AcDbLine
 10
150.403919
 20
244.961243
 30
0.0
 11
150.4955479999999
 21
248.377747
 31
0.0
  0
ARC
  5
C0C6
330
BE20
100
AcDbEntity
  8
1
  6
Continuous
100
AcDbCircle
 10
153.3663439999999
 20
221.222741
 30
0.0
 40
11.5
100
AcDbArc
 50
126.7532799999999
 51
274.1184099999999
  0
ARC
  5
C0C7
330
BE20
100
AcDbEntity
  8
5
  6
PHANTOM
100
AcDbCircle
 10
162.993602
 20
231.1282579999999
 30
0.0
 40
14.939529
100
AcDbArc
 50
193.57967
 51
218.2506099999999
  0
ARC
  5
C0C8
330
BE20
100
AcDbEntity
  8
5
  6
PHANTOM
100
AcDbCircle
 10
159.446559
 20
225.443993
 30
0.0
 40
9.376015999999998
100
AcDbArc
 50
194.04088
 51
238.28162
  0
ARC
  5
C0C9
330
BE20
100
AcDbEntity
  8
5
  6
PHANTOM
100
AcDbCircle
 10
160.553874
 20
229.2048949999999
 30
0.0
 40
11.832833
100
AcDbArc
 50
218.2506099999999
 51
235.56686
  0
ARC
  5
C0CA
330
BE20
100
AcDbEntity
  8
1
  6
Continuous
100
AcDbCircle
 10
165.324062
 20
244.200112
 30
0.0
 40
14.939529
100
AcDbArc
 50
177.0796599999999
 51
201.7506099999999
  0
ARC
  5
C0CB
330
BE20
100
AcDbEntity
  8
1
  6
Continuous
100
AcDbCircle
 10
162.4385479999999
 20
243.048871
 30
0.0
 40
11.832833
100
AcDbArc
 50
201.7506099999999
 51
219.0668599999999
  0
ARC
  5
C0CC
330
BE20
100
AcDbEntity
  8
1
  6
Continuous
100
AcDbCircle
 10
160.3086659999999
 20
239.7573359999999
 30
0.0
 40
9.376015999999998
100
AcDbArc
 50
177.5408899999999
 51
221.7816200000001
  0
ARC
  5
C0CD
330
BE20
100
AcDbEntity
  8
1
  6
Continuous
100
AcDbCircle
 10
159.266414
 20
213.322533
 30
0.0
 40
21.36022399999999
100
AcDbArc
 50
106.81413
 51
126.7948649999999
  0
LINE
  5
C0CE
330
BE20
100
AcDbEntity
  8
5
  6
PHANTOM
100
AcDbLine
 10
148.471706
 20
227.6204949999999
 30
0.0
 11
147.589214
 21
230.9223279999999
 31
0.0
  0
ARC
  5
C0CF
330
BE20
100
AcDbEntity
  8
5
  6
PHANTOM
100
AcDbCircle
 10
102.7603089999999
 20
221.2984169999999
 30
0.0
 40
45.850311
100
AcDbArc
 50
12.116412
 51
13.862037
  0
ARC
  5
C0D0
330
BE20
100
AcDbEntity
  8
5
  6
PHANTOM
100
AcDbCircle
 10
156.3005479999999
 20
234.5106429999999
 30
0.0
 40
9.296041999999998
100
AcDbArc
 50
179.5564099999998
 51
193.8620399999999
  0
LINE
  5
C0D1
330
BE20
100
AcDbEntity
  8
5
  6
PHANTOM
100
AcDbLine
 10
147.111522
 20
233.6671109999998
 30
0.0
 11
146.845172
 21
235.9516029999999
 31
0.0
  0
LINE
  5
C0D2
330
BE20
100
AcDbEntity
  8
1
  6
Continuous
100
AcDbLine
 10
150.8170889999998
 20
251.145166
 30
0.0
 11
151.210544
 21
253.4112339999999
 31
0.0
  0
ARC
  5
C0D3
330
BE20
100
AcDbEntity
  8
1
  6
Continuous
100
AcDbCircle
 10
104.7793689999999
 20
251.8822399999999
 30
0.0
 40
45.850311
100
AcDbArc
 50
355.6164099999999
 51
357.3620399999999
  0
ARC
  5
C0D4
330
BE20
100
AcDbEntity
  8
1
  6
Continuous
100
AcDbCircle
 10
159.8672899999999
 20
249.3441359999999
 30
0.0
 40
9.296041999999998
100
AcDbArc
 50
163.0564099999998
 51
177.3620399999999
  0
LINE
  5
C0D5
330
BE20
100
AcDbEntity
  8
1
  6
Continuous
100
AcDbLine
 10
172.7576709999999
 20
248.220689
 30
0.0
 11
173.786823
 21
245.7709299999999
 31
0.0
  0
LINE
  5
C0D6
330
BE20
100
AcDbEntity
  8
1
  6
Continuous
100
AcDbLine
 10
203.4143559999999
 20
247.6327019999998
 30
0.0
 11
203.1824739999999
 21
245.648602
 31
0.0
  0
ARC
  5
C0D7
330
BE20
100
AcDbEntity
  8
1
  6
Continuous
100
AcDbCircle
 10
207.7259629999999
 20
247.221204
 30
0.0
 40
4.807947999999998
100
AcDbArc
 50
163.71358
 51
201.2460599999999
  0
ARC
  5
C0D8
330
BE20
100
AcDbEntity
  8
1
  6
Continuous
100
AcDbCircle
 10
45.58350899999999
 20
262.6253659999999
 30
0.0
 40
148.2797099999999
100
AcDbArc
 50
353.7905959999998
 51
354.99627
  0
ARC
  5
C0D9
330
BE20
100
AcDbEntity
  8
1
  6
Continuous
100
AcDbCircle
 10
41.92117899999997
 20
283.2101989999999
 30
0.0
 40
155.69888
100
AcDbArc
 50
346.634874
 51
347.88306
  0
ARC
  5
C0DA
330
BE20
100
AcDbEntity
  8
5
  6
PHANTOM
100
AcDbCircle
 10
194.362331
 20
246.0363089999999
 30
0.0
 40
3.621125
100
AcDbArc
 50
0.213582
 51
24.55412
  0
LINE
  5
C0DB
330
BE20
100
AcDbEntity
  8
5
  6
PHANTOM
100
AcDbLine
 10
188.4935909999999
 20
246.459335
 30
0.0
 11
197.6559959999999
 21
247.5410759999999
 31
0.0
  0
ARC
  5
C0DC
330
BE20
100
AcDbEntity
  8
1
  6
Continuous
100
AcDbCircle
 10
206.406246
 20
180.5330599999998
 30
0.0
 40
66.55304
100
AcDbArc
 50
102.80966
 51
105.7025
  0
ARC
  5
C0DD
330
BE20
100
AcDbEntity
  8
1
  6
Continuous
100
AcDbCircle
 10
228.620021
 20
376.6171529999998
 30
0.0
 40
163.19777
100
AcDbArc
 50
247.66752
 51
257.7541899999999
  0
ARC
  5
C0DE
330
BE20
100
AcDbEntity
  8
1
  6
Continuous
100
AcDbCircle
 10
208.565608
 20
253.317268
 30
0.0
 40
40.0
100
AcDbArc
 50
243.5478699999999
 51
273.2371
  0
ARC
  5
C0DF
330
BE20
100
AcDbEntity
  8
1
  6
Continuous
100
AcDbCircle
 10
186.293109
 20
208.551926
 30
0.0
 40
10.0
100
AcDbArc
 50
63.54786800000001
 51
95.21480399999999
  0
ARC
  5
C0E0
330
BE20
100
AcDbEntity
  8
5
  6
PHANTOM
100
AcDbCircle
 10
186.0745419999998
 20
376.0693529999999
 30
0.0
 40
163.19777
100
AcDbArc
 50
264.16751
 51
274.2541899999998
  0
ARC
  5
C0E1
330
BE20
100
AcDbEntity
  8
1
  6
Continuous
100
AcDbCircle
 10
212.3055759999998
 20
359.7939929999999
 30
0.0
 40
143.0878099999999
100
AcDbArc
 50
252.28302
 51
259.10244
  0
ARC
  5
C0E2
330
BE20
100
AcDbEntity
  8
1
  6
Continuous
100
AcDbCircle
 10
191.6716949999998
 20
149.6198859999998
 30
0.0
 40
69.176979
100
AcDbArc
 50
95.21480399999999
 51
116.3888
  0
ARC
  5
C0E3
330
BE20
100
AcDbEntity
  8
5
  6
PHANTOM
100
AcDbCircle
 10
175.2099719999999
 20
355.305423
 30
0.0
 40
143.0878099999999
100
AcDbArc
 50
268.7830099999998
 51
275.60244
  0
ARC
  5
C0E4
330
BE20
100
AcDbEntity
  8
1
  6
Continuous
100
AcDbCircle
 10
178.106197
 20
247.512948
 30
0.0
 40
4.657426
100
AcDbArc
 50
201.96431
 51
250.65271
  0
ARC
  5
C0E5
330
BE20
100
AcDbEntity
  8
5
  6
PHANTOM
100
AcDbCircle
 10
174.416133
 20
240.099709
 30
0.0
 40
6.824819999999997
100
AcDbArc
 50
267.1526999999999
 51
294.41348
  0
ARC
  5
C0E6
330
BE20
100
AcDbEntity
  8
5
  6
PHANTOM
100
AcDbCircle
 10
174.3084669999998
 20
237.93499
 30
0.0
 40
4.657426
100
AcDbArc
 50
218.46431
 51
267.1526999999999
  0
LINE
  5
C0E7
330
BE20
100
AcDbEntity
  8
5
  6
PHANTOM
100
AcDbLine
 10
168.979198
 20
237.0945289999999
 30
0.0
 11
170.6617349999999
 21
235.037947
 31
0.0
  0
LINE
  5
C0E8
330
BE20
100
AcDbEntity
  8
5
  6
PHANTOM
100
AcDbLine
 10
169.080173
 20
236.22842
 30
0.0
 11
168.813827
 21
238.512892
 31
0.0
  0
ARC
  5
C0E9
330
BE20
100
AcDbEntity
  8
1
  6
Continuous
100
AcDbCircle
 10
170.8277089999999
 20
307.0865309999998
 30
0.0
 40
64.906509
100
AcDbArc
 50
277.91348
 51
285.70251
  0
ARC
  5
C0EA
330
BE20
100
AcDbEntity
  8
1
  6
Continuous
100
AcDbCircle
 10
178.824245
 20
249.5579419999998
 30
0.0
 40
6.824819999999997
100
AcDbArc
 50
250.65271
 51
277.91348
  0
ARC
  5
C0EB
330
BE20
100
AcDbEntity
  8
5
  6
PHANTOM
100
AcDbCircle
 10
42.950939
 20
214.786598
 30
0.0
 40
148.2797099999999
100
AcDbArc
 50
10.036237
 51
11.49626799999998
  0
ARC
  5
C0EC
330
BE20
100
AcDbEntity
  8
5
  6
PHANTOM
100
AcDbCircle
 10
220.4664339999999
 20
181.751001
 30
0.0
 40
66.55304
100
AcDbArc
 50
119.30966
 51
122.2025099999999
  0
ARC
  5
C0ED
330
BE20
100
AcDbEntity
  8
5
  6
PHANTOM
100
AcDbCircle
 10
185.700984
 20
243.6778379999998
 30
0.0
 40
4.465050999999998
100
AcDbArc
 50
299.30966
 51
319.96476
  0
ARC
  5
C0EE
330
BE20
100
AcDbEntity
  8
5
  6
PHANTOM
100
AcDbCircle
 10
150.4098919999998
 20
292.988112
 30
0.0
 40
64.906509
100
AcDbArc
 50
294.41348
 51
302.2024999999998
  0
ARC
  5
C0EF
330
BE20
100
AcDbEntity
  8
5
  6
PHANTOM
100
AcDbCircle
 10
178.828945
 20
246.4699759999998
 30
0.0
 40
9.664652
100
AcDbArc
 50
347.2642299999998
 51
359.93691
  0
ARC
  5
C0F0
330
BE20
100
AcDbEntity
  8
5
  6
PHANTOM
100
AcDbCircle
 10
33.593029
 20
233.4835899999999
 30
0.0
 40
155.69888
100
AcDbArc
 50
2.695447999999998
 51
4.383064
  0
ARC
  5
C0F1
330
BE20
100
AcDbEntity
  8
5
  6
PHANTOM
100
AcDbCircle
 10
186.3856769999999
 20
245.194913
 30
0.0
 40
2.458061999999999
100
AcDbArc
 50
4.383064
 51
30.95727899999998
  0
LINE
  5
C0F2
330
BE20
100
AcDbEntity
  8
5
  6
PHANTOM
100
AcDbLine
 10
218.378939
 20
246.198108
 30
0.0
 11
221.934819
 21
215.6986559999999
 31
0.0
  0
ARC
  5
C0F3
330
BE20
100
AcDbEntity
  8
1
  6
Continuous
100
AcDbCircle
 10
289.30709
 20
656.2235829999997
 30
0.0
 40
449.3142999999998
100
AcDbArc
 50
257.7541899999999
 51
260.46011
  0
ARC
  5
C0F4
330
BE20
100
AcDbEntity
  8
5
  6
PHANTOM
100
AcDbCircle
 10
164.849986
 20
661.3975629999997
 30
0.0
 40
449.3142999999998
100
AcDbArc
 50
274.2541899999998
 51
276.9601
  0
LINE
  5
C0F5
330
BE20
100
AcDbEntity
  8
1
  6
Continuous
100
AcDbLine
 10
214.8402879999999
 20
213.123093
 30
0.0
 11
216.4091169999999
 21
212.80312
 31
0.0
  0
ARC
  5
C0F6
330
BE20
100
AcDbEntity
  8
1
  6
Continuous
100
AcDbCircle
 10
217.4681119999999
 20
216.814285
 30
0.0
 40
4.148610999999998
100
AcDbArc
 50
255.21079
 51
274.2280099999999
  0
ARC
  5
C0F7
330
BE20
100
AcDbEntity
  8
1
  6
Continuous
100
AcDbCircle
 10
212.2982359999999
 20
187.321238
 30
0.0
 40
26.101501
100
AcDbArc
 50
88.10390099999997
 51
93.237109
  0
ARC
  5
C0F8
330
BE20
100
AcDbEntity
  8
5
  6
PHANTOM
100
AcDbCircle
 10
220.768337
 20
219.6799019999999
 30
0.0
 40
4.148610999999998
100
AcDbArc
 50
271.7107899999999
 51
290.7280099999999
  0
LINE
  5
C0F9
330
BE20
100
AcDbEntity
  8
5
  6
PHANTOM
100
AcDbLine
 10
219.2970939999999
 20
215.3943649999999
 30
0.0
 11
220.892189
 21
215.53314
 31
0.0
  0
ARC
  5
C0FA
330
BE20
100
AcDbEntity
  8
1
  6
Continuous
100
AcDbCircle
 10
216.66563
 20
366.7242529999999
 30
0.0
 40
121.98586
100
AcDbArc
 50
263.68355
 51
266.9217699999999
  0
ARC
  5
C0FB
330
BE20
100
AcDbEntity
  8
5
  6
PHANTOM
100
AcDbCircle
 10
225.114116
 20
163.335768
 30
0.0
 40
83.478699
100
AcDbArc
 50
98.84650399999999
 51
103.42178
  0
ARC
  5
C0FC
330
BE20
100
AcDbEntity
  8
1
  6
Continuous
100
AcDbCircle
 10
189.4648039999999
 20
249.3231919999999
 30
0.0
 40
4.465050999999998
100
AcDbArc
 50
299.30966
 51
331.8913529999999
  0
ARC
  5
C0FD
330
BE20
100
AcDbEntity
  8
5
  6
PHANTOM
100
AcDbCircle
 10
177.422176
 20
363.1886129999998
 30
0.0
 40
121.98586
100
AcDbArc
 50
280.18356
 51
283.4217799999998
  0
ARC
  5
C0FE
330
BE20
100
AcDbEntity
  8
5
  6
PHANTOM
100
AcDbCircle
 10
203.894206
 20
248.412915
 30
0.0
 40
6.21023
100
AcDbArc
 50
195.72791
 51
210.67112
  0
ARC
  5
C0FF
330
BE20
100
AcDbEntity
  8
5
  6
PHANTOM
100
AcDbCircle
 10
202.791347
 20
246.067731
 30
0.0
 40
4.807947999999998
100
AcDbArc
 50
180.2135899999999
 51
217.7460499999999
  0
LINE
  5
C100
330
BE20
100
AcDbEntity
  8
5
  6
PHANTOM
100
AcDbLine
 10
198.540424
 20
245.2377219999999
 30
0.0
 11
198.8816059999998
 21
243.2694689999999
 31
0.0
  0
ARC
  5
C101
330
BE20
100
AcDbEntity
  8
1
  6
Continuous
100
AcDbCircle
 10
205.632327
 20
161.556151
 30
0.0
 40
83.478699
100
AcDbArc
 50
82.346502
 51
86.92178
  0
ARC
  5
C102
330
BE20
100
AcDbEntity
  8
5
  6
PHANTOM
100
AcDbCircle
 10
225.616443
 20
283.9172189999998
 30
0.0
 40
38.374275
100
AcDbArc
 50
258.9579899999999
 51
261.25671
  0
ARC
  5
C103
330
BE20
100
AcDbEntity
  8
5
  6
PHANTOM
100
AcDbCircle
 10
217.886104
 20
209.776527
 30
0.0
 40
36.478828
100
AcDbArc
 50
89.40225799999996
 51
98.84650399999999
  0
LINE
  5
C104
330
BE20
100
AcDbEntity
  8
1
  6
Continuous
100
AcDbLine
 10
172.608505
 20
247.361567
 30
0.0
 11
173.001956
 21
249.627612
 31
0.0
  0
LINE
  5
C105
330
BE20
100
AcDbEntity
  8
1
  6
Continuous
100
AcDbLine
 10
194.1282149999999
 20
251.6574609999999
 30
0.0
 11
203.220539
 21
250.0923919999999
 31
0.0
  0
ARC
  5
C106
330
BE20
100
AcDbEntity
  8
1
  6
Continuous
100
AcDbCircle
 10
191.7479889999999
 20
251.0437889999999
 30
0.0
 40
2.458061999999999
100
AcDbArc
 50
347.88306
 51
14.457279
  0
ARC
  5
C107
330
BE20
100
AcDbEntity
  8
1
  6
Continuous
100
AcDbCircle
 10
184.8645809999999
 20
254.412575
 30
0.0
 40
9.664652
100
AcDbArc
 50
330.7642299999999
 51
343.43691
  0
ARC
  5
C108
330
BE20
100
AcDbEntity
  8
1
  6
Continuous
100
AcDbCircle
 10
199.6351349999999
 20
249.585046
 30
0.0
 40
3.621125
100
AcDbArc
 50
343.71358
 51
8.054121
  0
ARC
  5
C109
330
BE20
100
AcDbEntity
  8
1
  6
Continuous
100
AcDbCircle
 10
209.449474
 20
249.156587
 30
0.0
 40
6.21023
100
AcDbArc
 50
179.2279199999999
 51
194.17113
  0
ARC
  5
C10A
330
BE20
100
AcDbEntity
  8
1
  6
Continuous
100
AcDbCircle
 10
161.8171
 20
390.41295
 30
0.0
 40
11.0
100
AcDbArc
 50
179.9999899999999
 51
0.00001
  0
LINE
  5
C10B
330
BE20
100
AcDbEntity
  8
1
  6
Continuous
100
AcDbLine
 10
141.8663549999999
 20
407.94509
 30
0.0
 11
173.568732
 21
410.8271199999999
 31
0.0
  0
LINE
  5
C10C
330
BE20
100
AcDbEntity
  8
1
  6
Continuous
100
AcDbLine
 10
152.8171
 20
405.4691299999998
 30
0.0
 11
193.1227679999999
 21
405.4691299999998
 31
0.0
  0
LINE
  5
C10D
330
BE20
100
AcDbEntity
  8
1
  6
Continuous
100
AcDbLine
 10
141.82109
 20
408.4430299999998
 30
0.0
 11
173.546123
 21
411.3271199999998
 31
0.0
  0
LINE
  5
C10E
330
BE20
100
AcDbEntity
  8
1
  6
Continuous
100
AcDbLine
 10
150.8171
 20
403.46913
 30
0.0
 11
150.8171
 21
390.41295
 31
0.0
  0
LINE
  5
C10F
330
BE20
100
AcDbEntity
  8
1
  6
Continuous
100
AcDbLine
 10
141.8663549999999
 20
407.94509
 30
0.0
 11
141.82109
 21
408.4430299999998
 31
0.0
  0
ARC
  5
C110
330
BE20
100
AcDbEntity
  8
1
  6
Continuous
100
AcDbCircle
 10
152.8171
 20
403.46913
 30
0.0
 40
2.0
100
AcDbArc
 50
90.00000300000001
 51
180.00001
  0
ARC
  5
C111
330
BE20
100
AcDbEntity
  8
1
  6
Continuous
100
AcDbCircle
 10
144.1196659999999
 20
406.1416799999998
 30
0.0
 40
2.0
100
AcDbArc
 50
13.03195299999999
 51
95.19443
  0
ARC
  5
C112
330
BE20
100
AcDbEntity
  8
1
  6
Continuous
100
AcDbCircle
 10
154.836356
 20
408.6221199999997
 30
0.0
 40
9.0
100
AcDbArc
 50
193.03195
 51
243.4752700000001
  0
LINE
  5
C113
330
BE20
100
AcDbEntity
  8
1
  6
Continuous
100
AcDbLine
 10
173.546123
 20
410.82711
 30
0.0
 11
193.304301
 21
410.82711
 31
0.0
  0
LINE
  5
C114
330
BE20
100
AcDbEntity
  8
1
  6
Continuous
100
AcDbLine
 10
174.8171029999998
 20
403.16913
 30
0.0
 11
222.708696
 21
403.16913
 31
0.0
  0
LINE
  5
C115
330
BE20
100
AcDbEntity
  8
1
  6
Continuous
100
AcDbLine
 10
173.546123
 20
411.32711
 30
0.0
 11
193.304301
 21
411.32711
 31
0.0
  0
LINE
  5
C116
330
BE20
100
AcDbEntity
  8
1
  6
Continuous
100
AcDbLine
 10
172.817103
 20
401.1691299999998
 30
0.0
 11
172.817103
 21
390.41295
 31
0.0
  0
ARC
  5
C117
330
BE20
100
AcDbEntity
  8
1
  6
Continuous
100
AcDbCircle
 10
178.7295179999999
 20
405.8271099999998
 30
0.0
 40
5.0
100
AcDbArc
 50
90.00000300000001
 51
132.68063
  0
ARC
  5
C118
330
BE20
100
AcDbEntity
  8
1
  6
Continuous
100
AcDbCircle
 10
160.4419929999999
 20
505.30568
 30
0.0
 40
104.78456
100
AcDbArc
 50
276.7824899999999
 51
282.9083299999999
  0
ARC
  5
C119
330
BE20
100
AcDbEntity
  8
1
  6
Continuous
100
AcDbCircle
 10
174.8171029999998
 20
401.1691299999998
 30
0.0
 40
2.0
100
AcDbArc
 50
90.00000300000001
 51
180.00001
  0
ARC
  5
C11A
330
BE20
100
AcDbEntity
  8
1
  6
Continuous
100
AcDbCircle
 10
148.2235169999998
 20
438.90859
 30
0.0
 40
40.0
100
AcDbArc
 50
303.28134
 51
312.68063
  0
LINE
  5
C11B
330
BE20
100
AcDbEntity
  8
1
  6
Continuous
100
AcDbLine
 10
203.220552
 20
405.9691299999998
 30
0.0
 11
220.701897
 21
405.9691299999998
 31
0.0
  0
LINE
  5
C11C
330
BE20
100
AcDbEntity
  8
1
  6
Continuous
100
AcDbLine
 10
203.220552
 20
405.4691299999998
 30
0.0
 11
221.667123
 21
405.4691299999998
 31
0.0
  0
ARC
  5
C11D
330
BE20
100
AcDbEntity
  8
1
  6
Continuous
100
AcDbCircle
 10
193.304301
 20
408.82711
 30
0.0
 40
2.5
100
AcDbArc
 50
32.466765
 51
90.00000300000001
  0
ARC
  5
C11E
330
BE20
100
AcDbEntity
  8
1
  6
Continuous
100
AcDbCircle
 10
202.2205519999999
 20
404.16913
 30
0.0
 40
1.0
100
AcDbArc
 50
270.0
 51
0.0
  0
ARC
  5
C11F
330
BE20
100
AcDbEntity
  8
1
  6
Continuous
100
AcDbCircle
 10
193.12823
 20
404.16913
 30
0.0
 40
1.0
100
AcDbArc
 50
270.0
 51
0.0
  0
ARC
  5
C120
330
BE20
100
AcDbEntity
  8
1
  6
Continuous
100
AcDbCircle
 10
194.6227679999998
 20
408.66913
 30
0.0
 40
1.5
100
AcDbArc
 50
90.00000300000001
 51
180.00001
  0
ARC
  5
C121
330
BE20
100
AcDbEntity
  8
1
  6
Continuous
100
AcDbCircle
 10
201.720552
 20
408.66913
 30
0.0
 40
1.5
100
AcDbArc
 50
0.0
 51
90.00000300000001
  0
ARC
  5
C122
330
BE20
100
AcDbEntity
  8
1
  6
Continuous
100
AcDbCircle
 10
195.6282299999998
 20
408.66913
 30
0.0
 40
1.5
100
AcDbArc
 50
90.00000300000001
 51
180.00001
  0
ARC
  5
C123
330
BE20
100
AcDbEntity
  8
1
  6
Continuous
100
AcDbCircle
 10
193.304301
 20
408.82711
 30
0.0
 40
2.0
100
AcDbArc
 50
42.145286
 51
90.00000300000001
  0
LINE
  5
C124
330
BE20
100
AcDbEntity
  8
1
  6
Continuous
100
AcDbLine
 10
194.6227679999998
 20
410.1691299999997
 30
0.0
 11
201.720552
 21
410.1691299999997
 31
0.0
  0
LINE
  5
C125
330
BE20
100
AcDbEntity
  8
1
  6
Continuous
100
AcDbLine
 10
203.220552
 20
408.66913
 30
0.0
 11
203.220552
 21
404.16913
 31
0.0
  0
LINE
  5
C126
330
BE20
100
AcDbEntity
  8
1
  6
Continuous
100
AcDbLine
 10
194.12823
 20
408.66913
 30
0.0
 11
194.12823
 21
404.16913
 31
0.0
  0
LINE
  5
C127
330
BE20
100
AcDbEntity
  8
1
  6
Continuous
100
AcDbLine
 10
193.1227679999999
 20
408.66913
 30
0.0
 11
193.1227679999999
 21
405.4691299999998
 31
0.0
  0
LINE
  5
C128
330
BE20
100
AcDbEntity
  8
1
  6
Continuous
100
AcDbLine
 10
333.3782240000001
 20
211.7288049999999
 30
0.0
 11
333.3782240000001
 21
233.398795
 31
0.0
  0
LINE
  5
C129
330
BE20
100
AcDbEntity
  8
1
  6
Continuous
100
AcDbLine
 10
338.026023
 20
252.4194049999999
 30
0.0
 11
338.026023
 21
209.7227349999998
 31
0.0
  0
LINE
  5
C12A
330
BE20
100
AcDbEntity
  8
1
  6
Continuous
100
AcDbLine
 10
337.526023
 20
252.4194049999999
 30
0.0
 11
337.526023
 21
209.7227349999998
 31
0.0
  0
LINE
  5
C12B
330
BE20
100
AcDbEntity
  8
1
  6
Continuous
100
AcDbLine
 10
339.236195
 20
235.822865
 30
0.0
 11
339.236195
 21
209.7227349999998
 31
0.0
  0
LINE
  5
C12C
330
BE20
100
AcDbEntity
  8
1
  6
Continuous
100
AcDbLine
 10
331.1121099999998
 20
211.7288049999999
 30
0.0
 11
331.1121099999998
 21
227.632575
 31
0.0
  0
ARC
  5
C12D
330
BE20
100
AcDbEntity
  8
1
  6
Continuous
100
AcDbCircle
 10
336.736197
 20
213.695685
 30
0.0
 40
2.0
100
AcDbArc
 50
66.73944
 51
90.00000300000001
  0
ARC
  5
C12E
330
BE20
100
AcDbEntity
  8
1
  6
Continuous
100
AcDbCircle
 10
335.378226
 20
217.6956849999999
 30
0.0
 40
2.0
100
AcDbArc
 50
180.0000029999999
 51
270.00001
  0
LINE
  5
C12F
330
BE20
100
AcDbEntity
  8
1
  6
Continuous
100
AcDbLine
 10
321.7015369999999
 20
212.0211349999999
 30
0.0
 11
321.7015369999999
 21
230.3664549999998
 31
0.0
  0
ARC
  5
C130
330
BE20
100
AcDbEntity
  8
1
  6
Continuous
100
AcDbCircle
 10
259.374031
 20
102.1242109999999
 30
0.0
 40
9.0
100
AcDbArc
 50
10.178917
 51
27.485306
  0
ARC
  5
C131
330
BE20
100
AcDbEntity
  8
1
  6
Continuous
100
AcDbCircle
 10
259.606758
 20
121.4501709999999
 30
0.0
 40
10.883919
100
AcDbArc
 50
0.0
 51
180.00001
  0
LINE
  5
C132
330
BE20
100
AcDbEntity
  8
1
  6
Continuous
100
AcDbLine
 10
242.169922
 20
100.419931
 30
0.0
 11
271.766767
 21
101.630101
 31
0.0
  0
LINE
  5
C133
330
BE20
100
AcDbEntity
  8
1
  6
Continuous
100
AcDbLine
 10
242.159703
 20
100.919931
 30
0.0
 11
271.7463389999999
 21
102.129671
 31
0.0
  0
LINE
  5
C134
330
BE20
100
AcDbEntity
  8
1
  6
Continuous
100
AcDbLine
 10
243.793782
 20
106.277901
 30
0.0
 11
268.884141
 21
106.277901
 31
0.0
  0
LINE
  5
C135
330
BE20
100
AcDbEntity
  8
1
  6
Continuous
100
AcDbLine
 10
243.793782
 20
108.5779009999999
 30
0.0
 11
269.490678
 21
108.5779009999999
 31
0.0
  0
ARC
  5
C136
330
BE20
100
AcDbEntity
  8
1
  6
Continuous
100
AcDbCircle
 10
236.7387809999999
 20
113.6545909999999
 30
0.0
 40
2.0
100
AcDbArc
 50
11.499673
 51
100.4079299999998
  0
LINE
  5
C137
330
BE20
100
AcDbEntity
  8
1
  6
Continuous
100
AcDbLine
 10
240.9524629999999
 20
114.5118509999999
 30
0.0
 11
241.8339299999999
 21
110.179161
 31
0.0
  0
LINE
  5
C138
330
BE20
100
AcDbEntity
  8
1
  6
Continuous
100
AcDbLine
 10
246.205334
 20
114.5118509999999
 30
0.0
 11
247.0868009999998
 21
110.179161
 31
0.0
  0
LINE
  5
C139
330
BE20
100
AcDbEntity
  8
1
  6
Continuous
100
AcDbLine
 10
248.7228389999999
 20
108.5779009999999
 30
0.0
 11
248.7228389999999
 21
121.4501709999999
 31
0.0
  0
ARC
  5
C13A
330
BE20
100
AcDbEntity
  8
1
  6
Continuous
100
AcDbCircle
 10
243.793782
 20
110.577901
 30
0.0
 40
2.0
100
AcDbArc
 50
191.49967
 51
270.0
  0
ARC
  5
C13B
330
BE20
100
AcDbEntity
  8
1
  6
Continuous
100
AcDbCircle
 10
239.8874549999999
 20
105.919931
 30
0.0
 40
5.0
100
AcDbArc
 50
270.0
 51
316.9468399999999
  0
ARC
  5
C13C
330
BE20
100
AcDbEntity
  8
1
  6
Continuous
100
AcDbCircle
 10
243.793782
 20
110.577901
 30
0.0
 40
4.299999999999998
100
AcDbArc
 50
191.49967
 51
270.0
  0
ARC
  5
C13D
330
BE20
100
AcDbEntity
  8
1
  6
Continuous
100
AcDbCircle
 10
237.2363389999999
 20
102.919931
 30
0.0
 40
2.0
100
AcDbArc
 50
179.9999899999999
 51
270.0
  0
ARC
  5
C13E
330
BE20
100
AcDbEntity
  8
1
  6
Continuous
100
AcDbCircle
 10
225.2363389999999
 20
103.209521
 30
0.0
 40
10.0
100
AcDbArc
 50
0.0
 51
45.00000099999999
  0
ARC
  5
C13F
330
BE20
100
AcDbEntity
  8
1
  6
Continuous
100
AcDbCircle
 10
230.703525
 20
110.4702709999999
 30
0.0
 40
1.0
100
AcDbArc
 50
45.00000099999999
 51
120.72746
  0
LINE
  5
C140
330
BE20
100
AcDbEntity
  8
1
  6
Continuous
100
AcDbLine
 10
235.2363399999999
 20
103.209521
 30
0.0
 11
235.2363399999999
 21
102.919931
 31
0.0
  0
LINE
  5
C141
330
BE20
100
AcDbEntity
  8
1
  6
Continuous
100
AcDbLine
 10
238.698631
 20
114.053301
 30
0.0
 11
239.580098
 21
109.720631
 31
0.0
  0
LINE
  5
C142
330
BE20
100
AcDbEntity
  8
1
  6
Continuous
100
AcDbLine
 10
231.410629
 20
111.177341
 30
0.0
 11
232.307395
 21
110.280581
 31
0.0
  0
ARC
  5
C143
330
BE20
100
AcDbEntity
  8
1
  6
Continuous
100
AcDbCircle
 10
265.4626819999999
 20
82.026251
 30
0.0
 40
30.0
100
AcDbArc
 50
126.061235
 51
136.9468399999999
  0
ARC
  5
C144
330
BE20
100
AcDbEntity
  8
1
  6
Continuous
100
AcDbCircle
 10
249.046649
 20
110.577901
 30
0.0
 40
2.0
100
AcDbArc
 50
191.49967
 51
270.0
  0
ARC
  5
C145
330
BE20
100
AcDbEntity
  8
1
  6
Continuous
100
AcDbCircle
 10
241.9916499999999
 20
113.6545909999999
 30
0.0
 40
4.299999999999998
100
AcDbArc
 50
11.499673
 51
100.4079299999998
  0
ARC
  5
C146
330
BE20
100
AcDbEntity
  8
1
  6
Continuous
100
AcDbCircle
 10
236.7387809999999
 20
113.6545909999999
 30
0.0
 40
4.299999999999998
100
AcDbArc
 50
11.499673
 51
100.4079299999998
  0
LINE
  5
C147
330
BE20
100
AcDbEntity
  8
1
  6
Continuous
100
AcDbLine
 10
236.7387809999999
 20
117.9545909999998
 30
0.0
 11
241.9916499999999
 21
117.9545909999998
 31
0.0
  0
LINE
  5
C148
330
BE20
100
AcDbEntity
  8
1
  6
Continuous
100
AcDbLine
 10
270.884141
 20
108.277901
 30
0.0
 11
270.884141
 21
121.4501709999999
 31
0.0
  0
LINE
  5
C149
330
BE20
100
AcDbEntity
  8
1
  6
Continuous
100
AcDbLine
 10
270.4906779999999
 20
109.577901
 30
0.0
 11
270.4906779999999
 21
121.4501709999999
 31
0.0
  0
ARC
  5
C14A
330
BE20
100
AcDbEntity
  8
1
  6
Continuous
100
AcDbCircle
 10
270.2008989999999
 20
104.0681709999998
 30
0.0
 40
2.0
100
AcDbArc
 50
190.1789199999998
 51
272.3414299999999
  0
ARC
  5
C14B
330
BE20
100
AcDbEntity
  8
1
  6
Continuous
100
AcDbCircle
 10
269.490678
 20
109.577901
 30
0.0
 40
1.0
100
AcDbArc
 50
270.0
 51
0.0
  0
ARC
  5
C14C
330
BE20
100
AcDbEntity
  8
1
  6
Continuous
100
AcDbCircle
 10
268.884141
 20
108.277901
 30
0.0
 40
2.0
100
AcDbArc
 50
270.0
 51
0.0
  0
LINE
  5
C14D
330
BE20
100
AcDbEntity
  8
1
  6
Continuous
100
AcDbLine
 10
271.7463389999999
 20
102.129671
 30
0.0
 11
271.766767
 21
101.630101
 31
0.0
  0
ARC
  5
C14E
330
BE20
100
AcDbEntity
  8
1
  6
Continuous
100
AcDbCircle
 10
260.0002209999999
 20
121.4501709999999
 30
0.0
 40
10.883919
100
AcDbArc
 50
0.0
 51
91.035705
  0
ARC
  5
C14F
330
BE20
100
AcDbEntity
  8
1
  6
Continuous
100
AcDbCircle
 10
322.7015369999999
 20
212.0211349999999
 30
0.0
 40
1.0
100
AcDbArc
 50
180.0000029999999
 51
274.8533699999999
  0
LINE
  5
C150
330
BE20
100
AcDbEntity
  8
1
  6
Continuous
100
AcDbLine
 10
339.236195
 20
209.7227349999998
 30
0.0
 11
337.526023
 21
209.7227349999998
 31
0.0
  0
LINE
  5
C151
330
BE20
100
AcDbEntity
  8
1
  6
Continuous
100
AcDbLine
 10
322.7861439999998
 20
211.0247049999999
 30
0.0
 11
331.0782239999999
 21
211.728795
 31
0.0
  0
LINE
  5
C152
330
BE20
100
AcDbEntity
  8
1
  6
Continuous
100
AcDbLine
 10
331.078223
 20
211.7288049999999
 30
0.0
 11
333.3782240000001
 21
211.7288049999999
 31
0.0
  0
LINE
  5
C153
330
BE20
100
AcDbEntity
  8
1
  6
Continuous
100
AcDbLine
 10
238.1056029999998
 20
234.5829179999999
 30
0.0
 11
253.3688479999999
 21
249.4529029999999
 31
0.0
  0
ARC
  5
C154
330
BE20
100
AcDbEntity
  8
1
  6
Continuous
100
AcDbCircle
 10
259.006339
 20
239.482739
 30
0.0
 40
9.0
100
AcDbArc
 50
318.5396299999998
 51
138.74191
  0
ARC
  5
C155
330
BE20
100
AcDbEntity
  8
1
  6
Continuous
100
AcDbCircle
 10
260.2127679999999
 20
240.8858449999999
 30
0.0
 40
11.53356999999999
100
AcDbArc
 50
317.00515
 51
74.245632
  0
LINE
  5
C156
330
BE20
100
AcDbEntity
  8
5
  6
PHANTOM
100
AcDbLine
 10
267.758399
 20
247.733214
 30
0.0
 11
245.8135179999999
 21
245.1746949999999
 31
0.0
  0
LINE
  5
C157
330
BE20
100
AcDbEntity
  8
5
  6
PHANTOM
100
AcDbLine
 10
268.232189
 20
245.953181
 30
0.0
 11
267.6737549999999
 21
248.4592129999998
 31
0.0
  0
LINE
  5
C158
330
BE20
100
AcDbEntity
  8
5
  6
PHANTOM
100
AcDbLine
 10
245.8266609999999
 20
245.062
 30
0.0
 11
245.547174
 21
247.4592149999998
 31
0.0
  0
LINE
  5
C159
330
BE20
100
AcDbEntity
  8
1
  6
Continuous
100
AcDbLine
 10
249.116296
 20
236.412081
 30
0.0
 11
270.8841389999999
 21
232.632573
 31
0.0
  0
ARC
  5
C15A
330
BE20
100
AcDbEntity
  8
1
  6
Continuous
100
AcDbCircle
 10
241.472225
 20
252.8136439999999
 30
0.0
 40
40.555782
100
AcDbArc
 50
278.45716
 51
295.54208
  0
LINE
  5
C15B
330
BE20
100
AcDbEntity
  8
1
  6
Continuous
100
AcDbLine
 10
270.4906799999998
 20
230.3664649999999
 30
0.0
 11
248.7228389999999
 21
234.1459889999999
 31
0.0
  0
ARC
  5
C15C
330
BE20
100
AcDbEntity
  8
5
  6
PHANTOM
100
AcDbCircle
 10
233.559589
 20
261.0143279999999
 30
0.0
 40
40.555782
100
AcDbArc
 50
294.95716
 51
312.04208
  0
LINE
  5
C15D
330
BE20
100
AcDbEntity
  8
1
  6
Continuous
100
AcDbLine
 10
245.559028
 20
231.306921
 30
0.0
 11
242.159703
 21
211.7288
 31
0.0
  0
LINE
  5
C15E
330
BE20
100
AcDbEntity
  8
5
  6
PHANTOM
100
AcDbLine
 10
243.5863349999999
 20
241.5539719999999
 30
0.0
 11
245.887479
 21
221.816629
 31
0.0
  0
ARC
  5
C15F
330
BE20
100
AcDbEntity
  8
1
  6
Continuous
100
AcDbCircle
 10
236.31039
 20
236.571793
 30
0.0
 40
25.520075
100
AcDbArc
 50
267.67719
 51
282.5895899999998
  0
ARC
  5
C160
330
BE20
100
AcDbEntity
  8
1
  6
Continuous
100
AcDbCircle
 10
234.2163419999998
 20
227.72274
 30
0.0
 40
18.0
100
AcDbArc
 50
257.88608
 51
288.33201
  0
ARC
  5
C161
330
BE20
100
AcDbEntity
  8
1
  6
Continuous
100
AcDbCircle
 10
258.9786559999998
 20
135.073225
 30
0.0
 40
78.47901199999999
100
AcDbArc
 50
98.457156
 51
102.58959
  0
ARC
  5
C162
330
BE20
100
AcDbEntity
  8
1
  6
Continuous
100
AcDbCircle
 10
227.3470569999998
 20
248.454675
 30
0.0
 40
39.84033199999999
100
AcDbArc
 50
288.33201
 51
293.753979
  0
ARC
  5
C163
330
BE20
100
AcDbEntity
  8
5
  6
PHANTOM
100
AcDbCircle
 10
283.78519
 20
153.094587
 30
0.0
 40
78.47901199999999
100
AcDbArc
 50
114.95717
 51
119.0895899999999
  0
ARC
  5
C164
330
BE20
100
AcDbEntity
  8
5
  6
PHANTOM
100
AcDbCircle
 10
233.223262
 20
243.9752819999999
 30
0.0
 40
25.520075
100
AcDbArc
 50
284.1772
 51
299.0896
  0
ARC
  5
C165
330
BE20
100
AcDbEntity
  8
1
  6
Continuous
100
AcDbCircle
 10
104.8771889999998
 20
8.342113000000001
 30
0.0
 40
262.5541999999999
100
AcDbArc
 50
58.430438
 51
63.01923900000001
  0
ARC
  5
C166
330
BE20
100
AcDbEntity
  8
1
  6
Continuous
100
AcDbCircle
 10
240.3609499999999
 20
277.0293639999998
 30
0.0
 40
38.374275
100
AcDbArc
 50
242.45799
 51
244.7567200000001
  0
ARC
  5
C167
330
BE20
100
AcDbEntity
  8
1
  6
Continuous
100
AcDbCircle
 10
244.8450039999999
 20
235.574677
 30
0.0
 40
4.327073999999998
100
AcDbArc
 50
238.36829
 51
298.99679
  0
LINE
  5
C168
330
BE20
100
AcDbEntity
  8
1
  6
Continuous
100
AcDbLine
 10
248.7034279999999
 20
234.034202
 30
0.0
 11
249.1162939999999
 21
236.4120769999999
 31
0.0
  0
ARC
  5
C169
330
BE20
100
AcDbEntity
  8
1
  6
Continuous
100
AcDbCircle
 10
245.164695
 20
234.9978679999999
 30
0.0
 40
3.667600999999999
100
AcDbArc
 50
298.99679
 51
344.7665799999999
  0
ARC
  5
C16A
330
BE20
100
AcDbEntity
  8
1
  6
Continuous
100
AcDbCircle
 10
289.8279529999999
 20
212.445206
 30
0.0
 40
50.0
100
AcDbArc
 50
138.74191
 51
157.6752699999999
  0
ARC
  5
C16B
330
BE20
100
AcDbEntity
  8
5
  6
PHANTOM
100
AcDbCircle
 10
241.6896089999999
 20
245.4431889999999
 30
0.0
 40
4.327073999999998
100
AcDbArc
 50
254.86829
 51
315.4967899999999
  0
ARC
  5
C16C
330
BE20
100
AcDbEntity
  8
5
  6
PHANTOM
100
AcDbCircle
 10
164.9608259999999
 20
-38.414747
 30
0.0
 40
289.71823
100
AcDbArc
 50
74.87402900000002
 51
74.93044000000002
  0
ARC
  5
C16D
330
BE20
100
AcDbEntity
  8
5
  6
PHANTOM
100
AcDbCircle
 10
242.1599539999998
 20
244.980931
 30
0.0
 40
3.667600999999999
100
AcDbArc
 50
315.4967899999999
 51
1.266575999999999
  0
ARC
  5
C16E
330
BE20
100
AcDbEntity
  8
1
  6
Continuous
100
AcDbCircle
 10
249.035121
 20
236.987629
 30
0.0
 40
23.015539
100
AcDbArc
 50
295.54208
 51
338.4279899999999
  0
LINE
  5
C16F
330
BE20
100
AcDbEntity
  8
1
  6
Continuous
100
AcDbLine
 10
270.4394029999999
 20
228.52517
 30
0.0
 11
270.615718
 21
231.0866059999999
 31
0.0
  0
ARC
  5
C170
330
BE20
100
AcDbEntity
  8
5
  6
PHANTOM
100
AcDbCircle
 10
245.305877
 20
247.9880109999998
 30
0.0
 40
23.015539
100
AcDbArc
 50
312.04208
 51
354.9279899999998
  0
LINE
  5
C171
330
BE20
100
AcDbEntity
  8
1
  6
Continuous
100
AcDbLine
 10
270.490676
 20
230.3664599999999
 30
0.0
 11
270.884136
 21
232.6325509999998
 31
0.0
  0
ARC
  5
C172
330
BE20
100
AcDbEntity
  8
1
  6
Continuous
100
AcDbCircle
 10
260.550136
 20
242.081704
 30
0.0
 40
10.291035
100
AcDbArc
 50
74.245632
 51
134.2523
  0
LINE
  5
C173
330
BE20
100
AcDbEntity
  8
5
  6
PHANTOM
100
AcDbLine
 10
245.5471699999999
 20
247.459225
 30
0.0
 11
267.492046
 21
250.0177589999999
 31
0.0
  0
LINE
  5
C174
330
BE20
100
AcDbEntity
  8
5
  6
PHANTOM
100
AcDbLine
 10
267.758399
 20
247.733215
 30
0.0
 11
267.492053
 21
250.017737
 31
0.0
  0
LINE
  5
C175
330
BE20
100
AcDbEntity
  8
1
  6
Continuous
100
AcDbLine
 10
325.1032259999998
 20
249.631745
 30
0.0
 11
317.8220359999999
 21
249.631745
 31
0.0
  0
LINE
  5
C176
330
BE20
100
AcDbEntity
  8
1
  6
Continuous
100
AcDbLine
 10
325.481633
 20
247.365635
 30
0.0
 11
317.8220359999999
 21
247.365635
 31
0.0
  0
LINE
  5
C177
330
BE20
100
AcDbEntity
  8
1
  6
Continuous
100
AcDbLine
 10
328.3782239999999
 20
236.4120849999999
 30
0.0
 11
317.823816
 21
236.4120849999999
 31
0.0
  0
LINE
  5
C178
330
BE20
100
AcDbEntity
  8
1
  6
Continuous
100
AcDbLine
 10
328.3782239999999
 20
232.632575
 30
0.0
 11
317.823816
 21
232.632575
 31
0.0
  0
LINE
  5
C179
330
BE20
100
AcDbEntity
  8
1
  6
Continuous
100
AcDbLine
 10
328.3782239999999
 20
230.3664549999998
 30
0.0
 11
317.823816
 21
230.3664549999998
 31
0.0
  0
LINE
  5
C17A
330
BE20
100
AcDbEntity
  8
1
  6
Continuous
100
AcDbLine
 10
324.766343
 20
253.4104849999999
 30
0.0
 11
317.8220359999999
 21
253.4104849999999
 31
0.0
  0
ARC
  5
C17B
330
BE20
100
AcDbEntity
  8
1
  6
Continuous
100
AcDbCircle
 10
308.3690999999999
 20
232.2562149999999
 30
0.0
 40
1.045285
100
AcDbArc
 50
180.0000029999999
 51
259.80144
  0
ARC
  5
C17C
330
BE20
100
AcDbEntity
  8
1
  6
Continuous
100
AcDbCircle
 10
317.823816
 20
284.810905
 30
0.0
 40
54.44366099999999
100
AcDbArc
 50
259.80144
 51
269.9999899999999
  0
LINE
  5
C17D
330
BE20
100
AcDbEntity
  8
1
  6
Continuous
100
AcDbLine
 10
307.323816
 20
234.522325
 30
0.0
 11
307.323816
 21
232.2562149999999
 31
0.0
  0
ARC
  5
C17E
330
BE20
100
AcDbEntity
  8
1
  6
Continuous
100
AcDbCircle
 10
308.3690999999999
 20
234.522325
 30
0.0
 40
1.045285
100
AcDbArc
 50
100.1985609999999
 51
259.80144
  0
ARC
  5
C17F
330
BE20
100
AcDbEntity
  8
1
  6
Continuous
100
AcDbCircle
 10
317.823816
 20
181.9676349999998
 30
0.0
 40
54.44366099999999
100
AcDbArc
 50
90.00000300000001
 51
100.1985609999999
  0
ARC
  5
C180
330
BE20
100
AcDbEntity
  8
1
  6
Continuous
100
AcDbCircle
 10
317.823816
 20
287.077015
 30
0.0
 40
54.44366099999999
100
AcDbArc
 50
259.80144
 51
269.9999899999999
  0
ARC
  5
C181
330
BE20
100
AcDbEntity
  8
1
  6
Continuous
100
AcDbCircle
 10
317.8220359999999
 20
301.8100749999998
 30
0.0
 40
54.44366099999999
100
AcDbArc
 50
259.80144
 51
269.9999899999999
  0
LINE
  5
C182
330
BE20
100
AcDbEntity
  8
1
  6
Continuous
100
AcDbLine
 10
307.3220379999999
 20
249.255395
 30
0.0
 11
307.3220379999999
 21
251.521505
 31
0.0
  0
ARC
  5
C183
330
BE20
100
AcDbEntity
  8
1
  6
Continuous
100
AcDbCircle
 10
317.8220359999999
 20
198.9668149999999
 30
0.0
 40
54.44366099999999
100
AcDbArc
 50
90.00000300000001
 51
100.1985609999999
  0
ARC
  5
C184
330
BE20
100
AcDbEntity
  8
1
  6
Continuous
100
AcDbCircle
 10
308.367322
 20
249.255395
 30
0.0
 40
1.045285
100
AcDbArc
 50
180.0000029999999
 51
259.80144
  0
ARC
  5
C185
330
BE20
100
AcDbEntity
  8
1
  6
Continuous
100
AcDbCircle
 10
308.367322
 20
251.521505
 30
0.0
 40
1.045285
100
AcDbArc
 50
100.1985609999999
 51
259.80144
  0
ARC
  5
C186
330
BE20
100
AcDbEntity
  8
1
  6
Continuous
100
AcDbCircle
 10
317.8220359999999
 20
304.0761949999999
 30
0.0
 40
54.44366099999999
100
AcDbArc
 50
259.80144
 51
269.9999899999999
  0
ARC
  5
C187
330
BE20
100
AcDbEntity
  8
1
  6
Continuous
100
AcDbCircle
 10
350.3013179999999
 20
248.4735649999998
 30
0.0
 40
22.66362
100
AcDbArc
 50
198.30912
 51
230.01768
  0
LINE
  5
C188
330
BE20
100
AcDbEntity
  8
1
  6
Continuous
100
AcDbLine
 10
338.026024
 20
252.4194049999999
 30
0.0
 11
339.236195
 21
235.822865
 31
0.0
  0
ARC
  5
C189
330
BE20
100
AcDbEntity
  8
1
  6
Continuous
100
AcDbCircle
 10
341.5192569999998
 20
224.1096049999999
 30
0.0
 40
20.0
100
AcDbArc
 50
132.0325369999999
 51
142.039099
  0
ARC
  5
C18A
330
BE20
100
AcDbEntity
  8
1
  6
Continuous
100
AcDbCircle
 10
341.5192569999998
 20
224.1096049999999
 30
0.0
 40
21.51306299999999
100
AcDbArc
 50
130.6239009999998
 51
145.1199369999999
  0
ARC
  5
C18B
330
BE20
100
AcDbEntity
  8
1
  6
Continuous
100
AcDbCircle
 10
328.3782239999999
 20
231.412065
 30
0.0
 40
5.0
100
AcDbArc
 50
0.0
 51
90.00000300000001
  0
ARC
  5
C18C
330
BE20
100
AcDbEntity
  8
1
  6
Continuous
100
AcDbCircle
 10
328.3782239999999
 20
227.632575
 30
0.0
 40
5.0
100
AcDbArc
 50
0.0
 51
90.00000300000001
  0
LINE
  5
C18D
330
BE20
100
AcDbEntity
  8
1
  6
Continuous
100
AcDbLine
 10
335.378226
 20
215.6956849999999
 30
0.0
 11
336.736197
 21
215.6956849999999
 31
0.0
  0
ARC
  5
C18E
330
BE20
100
AcDbEntity
  8
1
  6
Continuous
100
AcDbCircle
 10
328.3782239999999
 20
227.632575
 30
0.0
 40
2.733886999999998
100
AcDbArc
 50
0.0
 51
90.00000300000001
  0
ARC
  5
C18F
330
BE20
100
AcDbEntity
  8
1
  6
Continuous
100
AcDbCircle
 10
332.526023
 20
227.2765049999999
 30
0.0
 40
5.0
100
AcDbArc
 50
0.0
 51
51.07577
  0
ARC
  5
C190
330
BE20
100
AcDbEntity
  8
1
  6
Continuous
100
AcDbCircle
 10
333.5319099999999
 20
242.924645
 30
0.0
 40
5.0
100
AcDbArc
 50
104.446617
 51
198.3091
  0
LINE
  5
C191
330
BE20
100
AcDbEntity
  8
1
  6
Continuous
100
AcDbLine
 10
337.526023
 20
250.092395
 30
0.0
 11
336.457847
 21
250.092395
 31
0.0
  0
LINE
  5
C192
330
BE20
100
AcDbEntity
  8
1
  6
Continuous
100
AcDbLine
 10
337.526023
 20
251.6574549999999
 30
0.0
 11
336.4562779999999
 21
251.6574549999999
 31
0.0
  0
LINE
  5
C193
330
BE20
100
AcDbEntity
  8
1
  6
Continuous
100
AcDbLine
 10
338.026023
 20
252.4194049999999
 30
0.0
 11
337.526023
 21
252.4194049999999
 31
0.0
  0
LINE
  5
C194
330
BE20
100
AcDbEntity
  8
1
  6
Continuous
100
AcDbLine
 10
332.2845229999999
 20
247.7665449999999
 30
0.0
 11
336.0651579999998
 21
248.740525
 31
0.0
  0
ARC
  5
C195
330
BE20
100
AcDbEntity
  8
1
  6
Continuous
100
AcDbCircle
 10
335.566202
 20
250.6772949999999
 30
0.0
 40
2.0
100
AcDbArc
 50
284.44661
 51
348.4958999999999
  0
ARC
  5
C196
330
BE20
100
AcDbEntity
  8
1
  6
Continuous
100
AcDbCircle
 10
259.6067709999999
 20
390.2968599999999
 30
0.0
 40
10.883919
100
AcDbArc
 50
179.9999899999999
 51
271.0357
  0
ARC
  5
C197
330
BE20
100
AcDbEntity
  8
1
  6
Continuous
100
AcDbCircle
 10
260.0002339999999
 20
390.2968599999999
 30
0.0
 40
10.883919
100
AcDbArc
 50
179.9999899999999
 51
0.00001
  0
LINE
  5
C198
330
BE20
100
AcDbEntity
  8
1
  6
Continuous
100
AcDbLine
 10
267.358207
 20
405.4691299999998
 30
0.0
 11
268.884154
 21
405.4691299999998
 31
0.0
  0
LINE
  5
C199
330
BE20
100
AcDbEntity
  8
1
  6
Continuous
100
AcDbLine
 10
248.7228519999999
 20
397.0465579999999
 30
0.0
 11
248.7228519999999
 21
390.2968599999999
 31
0.0
  0
LINE
  5
C19A
330
BE20
100
AcDbEntity
  8
1
  6
Continuous
100
AcDbLine
 10
249.1163149999999
 20
397.099737
 30
0.0
 11
249.1163149999999
 21
390.2968599999999
 31
0.0
  0
ARC
  5
C19B
330
BE20
100
AcDbEntity
  8
1
  6
Continuous
100
AcDbCircle
 10
247.8861699999999
 20
430.18407
 30
0.0
 40
34.628464
100
AcDbArc
 50
228.57633
 51
259.5920599999999
  0
LINE
  5
C19C
330
BE20
100
AcDbEntity
  8
1
  6
Continuous
100
AcDbLine
 10
236.7387939999999
 20
393.7924499999999
 30
0.0
 11
241.9916629999999
 21
393.7924499999999
 31
0.0
  0
ARC
  5
C19D
330
BE20
100
AcDbEntity
  8
1
  6
Continuous
100
AcDbCircle
 10
247.8861699999999
 20
430.18407
 30
0.0
 40
34.12846
100
AcDbArc
 50
228.57633
 51
248.1093299999999
  0
ARC
  5
C19E
330
BE20
100
AcDbEntity
  8
1
  6
Continuous
100
AcDbCircle
 10
236.7387939999999
 20
398.09246
 30
0.0
 40
4.299999999999998
100
AcDbArc
 50
259.5920699999999
 51
270.0
  0
ARC
  5
C19F
330
BE20
100
AcDbEntity
  8
1
  6
Continuous
100
AcDbCircle
 10
236.7387939999999
 20
398.09246
 30
0.0
 40
2.0
100
AcDbArc
 50
323.2863699999999
 51
346.2552
  0
LINE
  5
C1A0
330
BE20
100
AcDbEntity
  8
1
  6
Continuous
100
AcDbLine
 10
234.980001
 20
398.05057
 30
0.0
 11
235.161831
 21
398.5163799999999
 31
0.0
  0
ARC
  5
C1A1
330
BE20
100
AcDbEntity
  8
1
  6
Continuous
100
AcDbCircle
 10
241.9916629999999
 20
398.09246
 30
0.0
 40
4.299999999999998
100
AcDbArc
 50
259.5920699999999
 51
343.0432029999999
  0
ARC
  5
C1A2
330
BE20
100
AcDbEntity
  8
1
  6
Continuous
100
AcDbCircle
 10
241.9916629999999
 20
398.09246
 30
0.0
 40
2.0
100
AcDbArc
 50
259.5920699999999
 51
322.490898
  0
LINE
  5
C1A3
330
BE20
100
AcDbEntity
  8
1
  6
Continuous
100
AcDbLine
 10
270.884154
 20
403.46913
 30
0.0
 11
270.884154
 21
390.2968599999999
 31
0.0
  0
ARC
  5
C1A4
330
BE20
100
AcDbEntity
  8
1
  6
Continuous
100
AcDbCircle
 10
260.0002339999999
 20
390.2968599999999
 30
0.0
 40
10.883919
100
AcDbArc
 50
268.9642899999999
 51
0.0
  0
LINE
  5
C1A5
330
BE20
100
AcDbEntity
  8
1
  6
Continuous
100
AcDbLine
 10
268.8533259999999
 20
410.2360739999999
 30
0.0
 11
271.76678
 21
410.11695
 31
0.0
  0
LINE
  5
C1A6
330
BE20
100
AcDbEntity
  8
1
  6
Continuous
100
AcDbLine
 10
268.5551469999999
 20
409.7478449999998
 30
0.0
 11
271.7463519999999
 21
409.61736
 31
0.0
  0
ARC
  5
C1A7
330
BE20
100
AcDbEntity
  8
1
  6
Continuous
100
AcDbCircle
 10
270.200912
 20
407.67888
 30
0.0
 40
2.0
100
AcDbArc
 50
87.65856599999997
 51
169.82108
  0
ARC
  5
C1A8
330
BE20
100
AcDbEntity
  8
1
  6
Continuous
100
AcDbCircle
 10
259.3740439999999
 20
409.6228199999997
 30
0.0
 40
9.0
100
AcDbArc
 50
268.7969269999999
 51
349.8210799999998
  0
ARC
  5
C1A9
330
BE20
100
AcDbEntity
  8
1
  6
Continuous
100
AcDbCircle
 10
268.884154
 20
403.46913
 30
0.0
 40
2.0
100
AcDbArc
 50
0.0
 51
90.00000300000001
  0
LINE
  5
C1AA
330
BE20
100
AcDbEntity
  8
1
  6
Continuous
100
AcDbLine
 10
271.7463519999999
 20
409.61736
 30
0.0
 11
271.76678
 21
410.11695
 31
0.0
  0
LINE
  5
C1AB
330
BE20
100
AcDbEntity
  8
1
  6
Continuous
100
AcDbLine
 10
216.2363519999999
 20
401.6691299999997
 30
0.0
 11
216.2363519999999
 21
403.16913
 31
0.0
  0
LINE
  5
C1AC
330
BE20
100
AcDbEntity
  8
1
  6
Continuous
100
AcDbLine
 10
202.236352
 20
401.6691299999997
 30
0.0
 11
202.236352
 21
403.16913
 31
0.0
  0
LINE
  5
C1AD
330
BE20
100
AcDbEntity
  8
1
  6
Continuous
100
AcDbLine
 10
216.2363519999999
 20
401.6691299999997
 30
0.0
 11
202.236352
 21
401.6691299999997
 31
0.0
  0
LINE
  5
C1AE
330
BE20
100
AcDbEntity
  8
1
  6
Continuous
100
AcDbLine
 10
94.74338000000001
 20
232.8277529999998
 30
0.0
 11
93.94338000000001
 21
233.6277529999999
 31
0.0
  0
LINE
  5
C1AF
330
BE20
100
AcDbEntity
  8
2
  6
Continuous
100
AcDbLine
 10
94.61988000000003
 20
232.9512529999998
 30
0.0
 11
93.860562
 21
232.9512529999998
 31
0.0
  0
ARC
  5
C1B0
330
BE20
100
AcDbEntity
  8
1
  6
Continuous
100
AcDbCircle
 10
212.2363519999999
 20
405.334193
 30
0.0
 40
8.665063999999999
100
AcDbArc
 50
249.7438419999999
 51
290.256158
  0
LINE
  5
C1B1
330
BE20
100
AcDbEntity
  8
1
  6
Continuous
100
AcDbLine
 10
205.236352
 20
396.586312
 30
0.0
 11
213.236352
 21
396.586312
 31
0.0
  0
LINE
  5
C1B2
330
BE20
100
AcDbEntity
  8
1
  6
Continuous
100
AcDbLine
 10
212.436352
 20
395.786312
 30
0.0
 11
206.036352
 21
395.786312
 31
0.0
  0
LINE
  5
C1B3
330
BE20
100
AcDbEntity
  8
1
  6
Continuous
100
AcDbLine
 10
203.236352
 20
396.6691299999998
 30
0.0
 11
215.236352
 21
396.6691299999998
 31
0.0
  0
LINE
  5
C1B4
330
BE20
100
AcDbEntity
  8
1
  6
Continuous
100
AcDbLine
 10
94.74338000000001
 20
226.4277529999999
 30
0.0
 11
93.94338000000001
 21
225.6277529999999
 31
0.0
  0
LINE
  5
C1B5
330
BE20
100
AcDbEntity
  8
2
  6
Continuous
100
AcDbLine
 10
94.61988000000003
 20
226.3042529999999
 30
0.0
 11
93.860562
 21
226.3042529999999
 31
0.0
  0
ARC
  5
C1B6
330
BE20
100
AcDbEntity
  8
1
  6
Continuous
100
AcDbCircle
 10
212.2363519999999
 20
393.004066
 30
0.0
 40
8.665063999999999
100
AcDbArc
 50
69.743842
 51
110.256158
  0
LINE
  5
C1B7
330
BE20
100
AcDbEntity
  8
1
  6
Continuous
100
AcDbLine
 10
93.94338000000001
 20
233.6277529999999
 30
0.0
 11
93.94338000000001
 21
225.6277529999999
 31
0.0
  0
ARC
  5
C1B8
330
BE20
100
AcDbEntity
  8
1
  6
Continuous
100
AcDbCircle
 10
82.39646099999999
 20
229.6277529999999
 30
0.0
 40
11.464102
100
AcDbArc
 50
342.4120459999999
 51
17.587954
  0
LINE
  5
C1B9
330
BE20
100
AcDbEntity
  8
1
  6
Continuous
100
AcDbLine
 10
93.860562
 20
235.6277529999999
 30
0.0
 11
93.860562
 21
223.6277529999999
 31
0.0
  0
LINE
  5
C1BA
330
BE20
100
AcDbEntity
  8
2
  6
Continuous
100
AcDbLine
 10
205.9128519999999
 20
395.909812
 30
0.0
 11
205.9128519999999
 21
396.6691299999998
 31
0.0
  0
LINE
  5
C1BB
330
BE20
100
AcDbEntity
  8
1
  6
Continuous
100
AcDbLine
 10
206.036352
 20
395.786312
 30
0.0
 11
205.236352
 21
396.586312
 31
0.0
  0
LINE
  5
C1BC
330
BE20
100
AcDbEntity
  8
1
  6
Continuous
100
AcDbLine
 10
205.236352
 20
396.6691299999998
 30
0.0
 11
205.236352
 21
396.586312
 31
0.0
  0
ARC
  5
C1BD
330
BE20
100
AcDbEntity
  8
1
  6
Continuous
100
AcDbCircle
 10
206.236352
 20
405.334193
 30
0.0
 40
8.665063999999999
100
AcDbArc
 50
249.7438419999999
 51
290.256158
  0
LINE
  5
C1BE
330
BE20
100
AcDbEntity
  8
1
  6
Continuous
100
AcDbLine
 10
209.236352
 20
401.133231
 30
0.0
 11
209.236352
 21
397.2050279999999
 31
0.0
  0
LINE
  5
C1BF
330
BE20
100
AcDbEntity
  8
1
  6
Continuous
100
AcDbLine
 10
93.860562
 20
225.6277529999999
 30
0.0
 11
93.94338000000001
 21
225.6277529999999
 31
0.0
  0
ARC
  5
C1C0
330
BE20
100
AcDbEntity
  8
1
  6
Continuous
100
AcDbCircle
 10
90.793575
 20
224.4315999999999
 30
0.0
 40
3.066986999999998
100
AcDbArc
 50
334.384247
 51
34.38424699999998
  0
LINE
  5
C1C1
330
BE20
100
AcDbEntity
  8
1
  6
Continuous
100
AcDbLine
 10
89.86289599999997
 20
226.1636509999999
 30
0.0
 11
93.32466399999999
 21
226.1636509999999
 31
0.0
  0
LINE
  5
C1C2
330
BE20
100
AcDbEntity
  8
1
  6
Continuous
100
AcDbLine
 10
89.940762
 20
222.6995489999999
 30
0.0
 11
93.32466399999999
 21
222.6995489999999
 31
0.0
  0
LINE
  5
C1C3
330
BE20
100
AcDbEntity
  8
1
  6
Continuous
100
AcDbLine
 10
93.32466399999999
 20
222.6995489999999
 30
0.0
 11
93.860562
 21
223.6277529999999
 31
0.0
  0
ARC
  5
C1C4
330
BE20
100
AcDbEntity
  8
1
  6
Continuous
100
AcDbCircle
 10
206.236352
 20
393.004066
 30
0.0
 40
8.665063999999999
100
AcDbArc
 50
69.743842
 51
110.256158
  0
LINE
  5
C1C5
330
BE20
100
AcDbEntity
  8
1
  6
Continuous
100
AcDbLine
 10
203.236352
 20
396.6691299999998
 30
0.0
 11
203.236352
 21
401.6691299999997
 31
0.0
  0
LINE
  5
C1C6
330
BE20
100
AcDbEntity
  8
1
  6
Continuous
100
AcDbLine
 10
93.860562
 20
233.6277529999999
 30
0.0
 11
93.94338000000001
 21
233.6277529999999
 31
0.0
  0
LINE
  5
C1C7
330
BE20
100
AcDbEntity
  8
1
  6
Continuous
100
AcDbLine
 10
93.32466399999999
 20
236.555956
 30
0.0
 11
93.860562
 21
235.6277529999999
 31
0.0
  0
LINE
  5
C1C8
330
BE20
100
AcDbEntity
  8
1
  6
Continuous
100
AcDbLine
 10
89.396461
 20
236.555956
 30
0.0
 11
88.94314300000003
 21
235.770787
 31
0.0
  0
LINE
  5
C1C9
330
BE20
100
AcDbEntity
  8
1
  6
Continuous
100
AcDbLine
 10
89.396461
 20
236.555956
 30
0.0
 11
93.32466399999999
 21
236.555956
 31
0.0
  0
LINE
  5
C1CA
330
BE20
100
AcDbEntity
  8
1
  6
Continuous
100
AcDbLine
 10
89.644937
 20
233.091854
 30
0.0
 11
93.32466399999999
 21
233.091854
 31
0.0
  0
ARC
  5
C1CB
330
BE20
100
AcDbEntity
  8
1
  6
Continuous
100
AcDbCircle
 10
91.92754900000002
 20
234.8239049999999
 30
0.0
 40
3.066986999999998
100
AcDbArc
 50
154.3842469999999
 51
164.0899249999999
  0
ARC
  5
C1CC
330
BE20
100
AcDbEntity
  8
1
  6
Continuous
100
AcDbCircle
 10
90.793575
 20
234.8239049999999
 30
0.0
 40
3.066986999999998
100
AcDbArc
 50
325.6157529999999
 51
25.615753
  0
LINE
  5
C1CD
330
BE20
100
AcDbEntity
  8
1
  6
Continuous
100
AcDbLine
 10
94.74338000000001
 20
226.4277529999999
 30
0.0
 11
94.74338000000001
 21
232.8277529999998
 31
0.0
  0
LINE
  5
C1CE
330
BE20
100
AcDbEntity
  8
2
  6
Continuous
100
AcDbLine
 10
212.559852
 20
395.909812
 30
0.0
 11
212.559852
 21
396.6691299999998
 31
0.0
  0
LINE
  5
C1CF
330
BE20
100
AcDbEntity
  8
1
  6
Continuous
100
AcDbLine
 10
212.436352
 20
395.786312
 30
0.0
 11
213.236352
 21
396.586312
 31
0.0
  0
LINE
  5
C1D0
330
BE20
100
AcDbEntity
  8
1
  6
Continuous
100
AcDbLine
 10
213.236352
 20
396.6691299999998
 30
0.0
 11
213.236352
 21
396.586312
 31
0.0
  0
LINE
  5
C1D1
330
BE20
100
AcDbEntity
  8
1
  6
Continuous
100
AcDbLine
 10
215.236352
 20
396.6691299999998
 30
0.0
 11
215.236352
 21
401.6691299999997
 31
0.0
  0
CIRCLE
  5
C1D2
330
BE20
100
AcDbEntity
  8
1
  6
Continuous
100
AcDbCircle
 10
209.236339
 20
229.6277389999999
 30
0.0
 40
7.0
  0
LINE
  5
C1D3
330
BE20
100
AcDbEntity
  8
1
  6
Continuous
100
AcDbLine
 10
82.01424299999997
 20
249.357493
 30
0.0
 11
82.00996499999998
 21
245.092413
 31
0.0
  0
LINE
  5
C1D4
330
BE20
100
AcDbEntity
  8
1
  6
Continuous
100
AcDbLine
 10
84.61424499999997
 20
249.357493
 30
0.0
 11
84.60996599999999
 21
245.092413
 31
0.0
  0
ARC
  5
C1D5
330
BE20
100
AcDbEntity
  8
1
  6
Continuous
100
AcDbCircle
 10
53.938665
 20
254.901466
 30
0.0
 40
39.801511
100
AcDbArc
 50
357.8543379999999
 51
359.5473579999999
  0
ARC
  5
C1D6
330
BE20
100
AcDbEntity
  8
1
  6
Continuous
100
AcDbCircle
 10
209.240777
 20
606.543084
 30
0.0
 40
196.381632
100
AcDbArc
 50
265.8365109999999
 51
267.6639999999998
  0
ARC
  5
C1D7
330
BE20
100
AcDbEntity
  8
1
  6
Continuous
100
AcDbCircle
 10
245.2363389999999
 20
87.422368
 30
0.0
 40
20.89999999999999
100
AcDbArc
 50
103.028305
 51
119.5039509999999
  0
ARC
  5
C1D8
330
BE20
100
AcDbEntity
  8
1
  6
Continuous
100
AcDbCircle
 10
245.2363389999999
 20
87.422368
 30
0.0
 40
24.9
100
AcDbArc
 50
104.0253309999999
 51
118.853991
  0
ARC
  5
C1D9
330
BE20
100
AcDbEntity
  8
1
  6
Continuous
100
AcDbCircle
 10
245.2363389999999
 20
87.422368
 30
0.0
 40
27.5
100
AcDbArc
 50
103.7895999999998
 51
120.2081769999999
  0
LINE
  5
C1DA
330
BE20
100
AcDbEntity
  8
4
  6
CENTER
100
AcDbLine
 10
495.231148
 20
302.627739
 30
0.0
 11
495.231148
 21
156.6277389999999
 31
0.0
  0
CIRCLE
  5
C1DB
330
BE20
100
AcDbEntity
  8
1
  6
Continuous
100
AcDbCircle
 10
495.231148
 20
193.6277389999999
 30
0.0
 40
3.7
  0
ARC
  5
C1DC
330
BE20
100
AcDbEntity
  8
1
  6
Continuous
100
AcDbCircle
 10
495.231148
 20
229.6277389999999
 30
0.0
 40
40.533539
100
AcDbArc
 50
151.7444649999999
 51
91.66824400000001
  0
ARC
  5
C1DD
330
BE20
100
AcDbEntity
  8
1
  6
Continuous
100
AcDbCircle
 10
495.231148
 20
229.6277389999999
 30
0.0
 40
65.0
100
AcDbArc
 50
140.165976
 51
93.30358600000002
  0
ARC
  5
C1DE
330
BE20
100
AcDbEntity
  8
1
  6
Continuous
100
AcDbCircle
 10
495.231148
 20
229.6277389999999
 30
0.0
 40
53.65
100
AcDbArc
 50
144.701094
 51
93.335895
  0
LINE
  5
C1DF
330
BE20
100
AcDbEntity
  8
1
  6
Continuous
100
AcDbLine
 10
443.065364
 20
312.127945
 30
0.0
 11
443.065364
 21
315.6279229999999
 31
0.0
  0
ARC
  5
C1E0
330
BE20
100
AcDbEntity
  8
1
  6
Continuous
100
AcDbCircle
 10
438.231148
 20
308.127945
 30
0.0
 40
4.0
100
AcDbArc
 50
90.0
 51
180.0
  0
LINE
  5
C1E1
330
BE20
100
AcDbEntity
  8
1
  6
Continuous
100
AcDbLine
 10
451.1482199999998
 20
312.127945
 30
0.0
 11
451.1482199999998
 21
315.6279229999999
 31
0.0
  0
LINE
  5
C1E2
330
BE20
100
AcDbEntity
  8
1
  6
Continuous
100
AcDbLine
 10
467.3140759999998
 20
312.127945
 30
0.0
 11
467.3140759999998
 21
315.6279229999999
 31
0.0
  0
LINE
  5
C1E3
330
BE20
100
AcDbEntity
  8
1
  6
Continuous
100
AcDbLine
 10
475.39698
 20
312.127945
 30
0.0
 11
475.39698
 21
315.6279229999999
 31
0.0
  0
ARC
  5
C1E4
330
BE20
100
AcDbEntity
  8
1
  6
Continuous
100
AcDbCircle
 10
480.231148
 20
308.127945
 30
0.0
 40
4.0
100
AcDbArc
 50
0.0
 51
90.0
  0
LINE
  5
C1E5
330
BE20
100
AcDbEntity
  8
4
  6
CENTER
100
AcDbLine
 10
459.231148
 20
249.214135
 30
0.0
 11
459.231148
 21
350.627923
 31
0.0
  0
LINE
  5
C1E6
330
BE20
100
AcDbEntity
  8
1
  6
Continuous
100
AcDbLine
 10
485.9172479999998
 20
304.7145679999999
 30
0.0
 11
485.515419
 21
304.312739
 31
0.0
  0
LINE
  5
C1E7
330
BE20
100
AcDbEntity
  8
1
  6
Continuous
100
AcDbLine
 10
485.9172479999998
 20
306.649781
 30
0.0
 11
484.1012059999997
 21
304.312739
 31
0.0
  0
LINE
  5
C1E8
330
BE20
100
AcDbEntity
  8
1
  6
Continuous
100
AcDbLine
 10
485.9172479999998
 20
305.082483
 30
0.0
 11
484.6869919999998
 21
306.8337389999999
 31
0.0
  0
LINE
  5
C1E9
330
BE20
100
AcDbEntity
  8
1
  6
Continuous
100
AcDbLine
 10
432.5450479999998
 20
308.127945
 30
0.0
 11
485.9172479999998
 21
308.127945
 31
0.0
  0
LINE
  5
C1EA
330
BE20
100
AcDbEntity
  8
1
  6
Continuous
100
AcDbLine
 10
485.9172479999998
 20
306.8337389999999
 30
0.0
 11
432.5450479999998
 21
306.8337389999999
 31
0.0
  0
ARC
  5
C1EB
330
BE20
100
AcDbEntity
  8
1
  6
Continuous
100
AcDbCircle
 10
495.231148
 20
229.6277389999999
 30
0.0
 40
31.415325
100
AcDbArc
 50
159.1214209999999
 51
88.20423499999998
  0
ARC
  5
C1EC
330
BE20
100
AcDbEntity
  8
1
  6
Continuous
100
AcDbCircle
 10
486.74217
 20
303.2410889999998
 30
0.0
 40
1.188780999999998
100
AcDbArc
 50
177.8908409999999
 51
255.1922279999998
  0
LINE
  5
C1ED
330
BE20
100
AcDbEntity
  8
1
  6
Continuous
100
AcDbLine
 10
495.0487759999998
 20
302.091789
 30
0.0
 11
480.703832
 21
302.091789
 31
0.0
  0
LINE
  5
C1EE
330
BE20
100
AcDbEntity
  8
1
  6
Continuous
100
AcDbLine
 10
432.5450479999998
 20
304.312739
 30
0.0
 11
485.9172479999998
 21
304.312739
 31
0.0
  0
ARC
  5
C1EF
330
BE20
100
AcDbEntity
  8
1
  6
Continuous
100
AcDbCircle
 10
597.147723
 20
351.653945
 30
0.0
 40
171.799
100
AcDbArc
 50
200.3009159999999
 51
230.062209
  0
LINE
  5
C1F0
330
BE20
100
AcDbEntity
  8
4
  6
CENTER
100
AcDbLine
 10
422.231148
 20
229.6277389999999
 30
0.0
 11
568.231148
 21
229.6277389999999
 31
0.0
  0
ARC
  5
C1F1
330
BE20
100
AcDbEntity
  8
1
  6
Continuous
100
AcDbCircle
 10
623.7189749999997
 20
296.1153649999999
 30
0.0
 40
132.243177
100
AcDbArc
 50
177.4095369999998
 51
207.314435
  0
ARC
  5
C1F2
330
BE20
100
AcDbEntity
  8
1
  6
Continuous
100
AcDbCircle
 10
551.1011429999999
 20
221.222741
 30
0.0
 40
11.5
100
AcDbArc
 50
305.3198929999999
 51
37.569435
  0
ARC
  5
C1F3
330
BE20
100
AcDbEntity
  8
1
  6
Continuous
100
AcDbCircle
 10
494.981148
 20
229.6277389999999
 30
0.0
 40
12.65
100
AcDbArc
 50
230.062209
 51
27.31443499999999
  0
CIRCLE
  5
C1F4
330
BE20
100
AcDbEntity
  8
1
  6
Continuous
100
AcDbCircle
 10
529.469183
 20
218.503127
 30
0.0
 40
3.7
  0
CIRCLE
  5
C1F5
330
BE20
100
AcDbEntity
  8
1
  6
Continuous
100
AcDbCircle
 10
516.391417
 20
258.752351
 30
0.0
 40
3.7
  0
LINE
  5
C1F6
330
BE20
100
AcDbEntity
  8
1
  6
Continuous
100
AcDbLine
 10
485.9172479999998
 20
304.312739
 30
0.0
 11
485.9172479999998
 21
308.127945
 31
0.0
  0
ARC
  5
C1F7
330
BE20
100
AcDbEntity
  8
1
  6
Continuous
100
AcDbCircle
 10
495.0487759999998
 20
298.5599509999999
 30
0.0
 40
3.531837999999998
100
AcDbArc
 50
71.205477
 51
90.0
  0
ARC
  5
C1F8
330
BE20
100
AcDbEntity
  8
1
  6
Continuous
100
AcDbCircle
 10
495.2073829999998
 20
303.480799
 30
0.0
 40
3.942636999999998
100
AcDbArc
 50
270.0
 51
284.133642
  0
LINE
  5
C1F9
330
BE20
100
AcDbEntity
  8
1
  6
Continuous
100
AcDbLine
 10
496.170113
 20
299.65751
 30
0.0
 11
496.3058150000001
 21
299.821451
 31
0.0
  0
ARC
  5
C1FA
330
BE20
100
AcDbEntity
  8
1
  6
Continuous
100
AcDbCircle
 10
495.889276
 20
301.029678
 30
0.0
 40
0.9230079999999999
100
AcDbArc
 50
55.331088
 51
71.205477
  0
ARC
  5
C1FB
330
BE20
100
AcDbEntity
  8
1
  6
Continuous
100
AcDbCircle
 10
504.731707
 20
299.1607989999998
 30
0.0
 40
8.451753
100
AcDbArc
 50
166.82934
 51
175.516763
  0
ARC
  5
C1FC
330
BE20
100
AcDbEntity
  8
1
  6
Continuous
100
AcDbCircle
 10
494.331804
 20
301.1713379999998
 30
0.0
 40
2.172123
100
AcDbArc
 50
357.762921
 51
16.515265
  0
LINE
  5
C1FD
330
BE20
100
AcDbEntity
  8
1
  6
Continuous
100
AcDbLine
 10
495.2073829999998
 20
299.5381619999998
 30
0.0
 11
491.5201009999998
 21
299.5381619999998
 31
0.0
  0
LINE
  5
C1FE
330
BE20
100
AcDbEntity
  8
1
  6
Continuous
100
AcDbLine
 10
480.7034269999999
 20
300.798268
 30
0.0
 11
480.7034269999999
 21
230.793644
 31
0.0
  0
CIRCLE
  5
C1FF
330
BE20
100
AcDbEntity
  8
1
  6
Continuous
100
AcDbCircle
 10
460.9931129999998
 20
218.503127
 30
0.0
 40
3.7
  0
LINE
  5
C200
330
BE20
100
AcDbEntity
  8
1
  6
Continuous
100
AcDbLine
 10
432.5450479999998
 20
305.082483
 30
0.0
 11
433.7753039999998
 21
306.8337389999999
 31
0.0
  0
LINE
  5
C201
330
BE20
100
AcDbEntity
  8
1
  6
Continuous
100
AcDbLine
 10
432.946877
 20
304.312739
 30
0.0
 11
432.5450479999998
 21
304.7145679999999
 31
0.0
  0
LINE
  5
C202
330
BE20
100
AcDbEntity
  8
1
  6
Continuous
100
AcDbLine
 10
434.3610899999998
 20
304.312739
 30
0.0
 11
432.5450479999998
 21
306.649781
 31
0.0
  0
ARC
  5
C203
330
BE20
100
AcDbEntity
  8
1
  6
Continuous
100
AcDbCircle
 10
431.879004
 20
290.2331859999998
 30
0.0
 40
4.521554
100
AcDbArc
 50
23.66618499999999
 51
91.87393099999995
  0
ARC
  5
C204
330
BE20
100
AcDbEntity
  8
1
  6
Continuous
100
AcDbCircle
 10
434.957817
 20
301.929974
 30
0.0
 40
3.058577999999998
100
AcDbArc
 50
128.8269479999998
 51
151.3767689999999
  0
LINE
  5
C205
330
BE20
100
AcDbEntity
  8
1
  6
Continuous
100
AcDbLine
 10
458.6453619999998
 20
304.312739
 30
0.0
 11
460.6453619999999
 21
306.8337389999999
 31
0.0
  0
LINE
  5
C206
330
BE20
100
AcDbEntity
  8
1
  6
Continuous
100
AcDbLine
 10
461.231148
 20
304.312739
 30
0.0
 11
459.231148
 21
306.8337389999999
 31
0.0
  0
LINE
  5
C207
330
BE20
100
AcDbEntity
  8
1
  6
Continuous
100
AcDbLine
 10
459.8169349999998
 20
304.312739
 30
0.0
 11
457.8169349999998
 21
306.8337389999999
 31
0.0
  0
LINE
  5
C208
330
BE20
100
AcDbEntity
  8
1
  6
Continuous
100
AcDbLine
 10
480.231148
 20
312.127945
 30
0.0
 11
438.231148
 21
312.127945
 31
0.0
  0
LINE
  5
C209
330
BE20
100
AcDbEntity
  8
1
  6
Continuous
100
AcDbLine
 10
469.7164289999998
 20
304.312739
 30
0.0
 11
467.716429
 21
306.8337389999999
 31
0.0
  0
LINE
  5
C20A
330
BE20
100
AcDbEntity
  8
1
  6
Continuous
100
AcDbLine
 10
467.1306429999998
 20
304.312739
 30
0.0
 11
469.130643
 21
306.8337389999999
 31
0.0
  0
LINE
  5
C20B
330
BE20
100
AcDbEntity
  8
1
  6
Continuous
100
AcDbLine
 10
460.059575
 20
304.312739
 30
0.0
 11
462.0595749999998
 21
306.8337389999999
 31
0.0
  0
LINE
  5
C20C
330
BE20
100
AcDbEntity
  8
1
  6
Continuous
100
AcDbLine
 10
464.302216
 20
304.312739
 30
0.0
 11
466.3022159999998
 21
306.8337389999999
 31
0.0
  0
LINE
  5
C20D
330
BE20
100
AcDbEntity
  8
1
  6
Continuous
100
AcDbLine
 10
462.8880019999998
 20
304.312739
 30
0.0
 11
464.888002
 21
306.8337389999999
 31
0.0
  0
LINE
  5
C20E
330
BE20
100
AcDbEntity
  8
1
  6
Continuous
100
AcDbLine
 10
465.4737889999998
 20
304.312739
 30
0.0
 11
463.4737889999998
 21
306.8337389999999
 31
0.0
  0
LINE
  5
C20F
330
BE20
100
AcDbEntity
  8
1
  6
Continuous
100
AcDbLine
 10
465.7164289999998
 20
304.312739
 30
0.0
 11
467.716429
 21
306.8337389999999
 31
0.0
  0
LINE
  5
C210
330
BE20
100
AcDbEntity
  8
1
  6
Continuous
100
AcDbLine
 10
468.302216
 20
304.312739
 30
0.0
 11
466.3022159999998
 21
306.8337389999999
 31
0.0
  0
LINE
  5
C211
330
BE20
100
AcDbEntity
  8
1
  6
Continuous
100
AcDbLine
 10
466.8880019999998
 20
304.312739
 30
0.0
 11
464.888002
 21
306.8337389999999
 31
0.0
  0
LINE
  5
C212
330
BE20
100
AcDbEntity
  8
1
  6
Continuous
100
AcDbLine
 10
461.4737889999998
 20
304.312739
 30
0.0
 11
463.4737889999998
 21
306.8337389999999
 31
0.0
  0
LINE
  5
C213
330
BE20
100
AcDbEntity
  8
1
  6
Continuous
100
AcDbLine
 10
464.059575
 20
304.312739
 30
0.0
 11
462.0595749999998
 21
306.8337389999999
 31
0.0
  0
LINE
  5
C214
330
BE20
100
AcDbEntity
  8
1
  6
Continuous
100
AcDbLine
 10
462.6453619999998
 20
304.312739
 30
0.0
 11
460.6453619999999
 21
306.8337389999999
 31
0.0
  0
LINE
  5
C215
330
BE20
100
AcDbEntity
  8
1
  6
Continuous
100
AcDbLine
 10
485.272779
 20
304.312739
 30
0.0
 11
483.2727789999998
 21
306.8337389999999
 31
0.0
  0
LINE
  5
C216
330
BE20
100
AcDbEntity
  8
1
  6
Continuous
100
AcDbLine
 10
475.615924
 20
304.312739
 30
0.0
 11
477.615924
 21
306.8337389999999
 31
0.0
  0
LINE
  5
C217
330
BE20
100
AcDbEntity
  8
1
  6
Continuous
100
AcDbLine
 10
478.2017109999999
 20
304.312739
 30
0.0
 11
476.201711
 21
306.8337389999999
 31
0.0
  0
LINE
  5
C218
330
BE20
100
AcDbEntity
  8
1
  6
Continuous
100
AcDbLine
 10
476.787497
 20
304.312739
 30
0.0
 11
474.7874969999998
 21
306.8337389999999
 31
0.0
  0
LINE
  5
C219
330
BE20
100
AcDbEntity
  8
1
  6
Continuous
100
AcDbLine
 10
479.858565
 20
304.312739
 30
0.0
 11
481.8585650000001
 21
306.8337389999999
 31
0.0
  0
LINE
  5
C21A
330
BE20
100
AcDbEntity
  8
1
  6
Continuous
100
AcDbLine
 10
482.4443519999999
 20
304.312739
 30
0.0
 11
480.4443519999998
 21
306.8337389999999
 31
0.0
  0
LINE
  5
C21B
330
BE20
100
AcDbEntity
  8
1
  6
Continuous
100
AcDbLine
 10
481.0301379999998
 20
304.312739
 30
0.0
 11
479.0301379999998
 21
306.8337389999999
 31
0.0
  0
LINE
  5
C21C
330
BE20
100
AcDbEntity
  8
1
  6
Continuous
100
AcDbLine
 10
482.686992
 20
304.312739
 30
0.0
 11
484.6869919999998
 21
306.8337389999999
 31
0.0
  0
LINE
  5
C21D
330
BE20
100
AcDbEntity
  8
1
  6
Continuous
100
AcDbLine
 10
481.272779
 20
304.312739
 30
0.0
 11
483.2727789999998
 21
306.8337389999999
 31
0.0
  0
LINE
  5
C21E
330
BE20
100
AcDbEntity
  8
1
  6
Continuous
100
AcDbLine
 10
483.858565
 20
304.312739
 30
0.0
 11
481.8585650000001
 21
306.8337389999999
 31
0.0
  0
LINE
  5
C21F
330
BE20
100
AcDbEntity
  8
1
  6
Continuous
100
AcDbLine
 10
478.4443519999999
 20
304.312739
 30
0.0
 11
480.4443519999998
 21
306.8337389999999
 31
0.0
  0
LINE
  5
C220
330
BE20
100
AcDbEntity
  8
1
  6
Continuous
100
AcDbLine
 10
477.0301379999998
 20
304.312739
 30
0.0
 11
479.0301379999998
 21
306.8337389999999
 31
0.0
  0
LINE
  5
C221
330
BE20
100
AcDbEntity
  8
1
  6
Continuous
100
AcDbLine
 10
479.615924
 20
304.312739
 30
0.0
 11
477.615924
 21
306.8337389999999
 31
0.0
  0
LINE
  5
C222
330
BE20
100
AcDbEntity
  8
1
  6
Continuous
100
AcDbLine
 10
471.373284
 20
304.312739
 30
0.0
 11
473.373284
 21
306.8337389999999
 31
0.0
  0
LINE
  5
C223
330
BE20
100
AcDbEntity
  8
1
  6
Continuous
100
AcDbLine
 10
473.9590699999998
 20
304.312739
 30
0.0
 11
471.95907
 21
306.8337389999999
 31
0.0
  0
LINE
  5
C224
330
BE20
100
AcDbEntity
  8
1
  6
Continuous
100
AcDbLine
 10
474.2017109999999
 20
304.312739
 30
0.0
 11
476.201711
 21
306.8337389999999
 31
0.0
  0
LINE
  5
C225
330
BE20
100
AcDbEntity
  8
1
  6
Continuous
100
AcDbLine
 10
472.787497
 20
304.312739
 30
0.0
 11
474.7874969999998
 21
306.8337389999999
 31
0.0
  0
LINE
  5
C226
330
BE20
100
AcDbEntity
  8
1
  6
Continuous
100
AcDbLine
 10
475.373284
 20
304.312739
 30
0.0
 11
473.373284
 21
306.8337389999999
 31
0.0
  0
LINE
  5
C227
330
BE20
100
AcDbEntity
  8
1
  6
Continuous
100
AcDbLine
 10
469.9590699999998
 20
304.312739
 30
0.0
 11
471.95907
 21
306.8337389999999
 31
0.0
  0
LINE
  5
C228
330
BE20
100
AcDbEntity
  8
1
  6
Continuous
100
AcDbLine
 10
472.544857
 20
304.312739
 30
0.0
 11
470.5448569999998
 21
306.8337389999999
 31
0.0
  0
LINE
  5
C229
330
BE20
100
AcDbEntity
  8
1
  6
Continuous
100
AcDbLine
 10
468.544857
 20
304.312739
 30
0.0
 11
470.5448569999998
 21
306.8337389999999
 31
0.0
  0
LINE
  5
C22A
330
BE20
100
AcDbEntity
  8
1
  6
Continuous
100
AcDbLine
 10
471.1306429999998
 20
304.312739
 30
0.0
 11
469.130643
 21
306.8337389999999
 31
0.0
  0
ARC
  5
C22B
330
BE20
100
AcDbEntity
  8
1
  6
Continuous
100
AcDbCircle
 10
483.3587639999998
 20
302.604599
 30
0.0
 40
2.298399999999999
100
AcDbArc
 50
17.21530399999998
 51
48.003581
  0
ARC
  5
C22C
330
BE20
100
AcDbEntity
  8
1
  6
Continuous
100
AcDbCircle
 10
483.049548
 20
302.519206
 30
0.0
 40
2.384338999999997
100
AcDbArc
 50
131.2174919999999
 51
190.32668
  0
LINE
  5
C22D
330
BE20
100
AcDbEntity
  8
1
  6
Continuous
100
AcDbLine
 10
448.7458669999998
 20
304.312739
 30
0.0
 11
450.745867
 21
306.8337389999999
 31
0.0
  0
ARC
  5
C22E
330
BE20
100
AcDbEntity
  8
1
  6
Continuous
100
AcDbCircle
 10
433.6477849999998
 20
301.4735769999999
 30
0.0
 40
2.839261999999998
100
AcDbArc
 50
89.51824899999998
 51
93.73746899999998
  0
LINE
  5
C22F
330
BE20
100
AcDbEntity
  8
1
  6
Continuous
100
AcDbLine
 10
434.6037309999998
 20
304.312739
 30
0.0
 11
436.603731
 21
306.8337389999999
 31
0.0
  0
LINE
  5
C230
330
BE20
100
AcDbEntity
  8
1
  6
Continuous
100
AcDbLine
 10
435.775304
 20
304.312739
 30
0.0
 11
433.7753039999998
 21
306.8337389999999
 31
0.0
  0
LINE
  5
C231
330
BE20
100
AcDbEntity
  8
1
  6
Continuous
100
AcDbLine
 10
437.189518
 20
304.312739
 30
0.0
 11
435.1895179999998
 21
306.8337389999999
 31
0.0
  0
LINE
  5
C232
330
BE20
100
AcDbEntity
  8
1
  6
Continuous
100
AcDbLine
 10
443.0890119999999
 20
304.312739
 30
0.0
 11
445.089012
 21
306.8337389999999
 31
0.0
  0
LINE
  5
C233
330
BE20
100
AcDbEntity
  8
1
  6
Continuous
100
AcDbLine
 10
444.2605849999998
 20
304.312739
 30
0.0
 11
442.2605849999998
 21
306.8337389999999
 31
0.0
  0
LINE
  5
C234
330
BE20
100
AcDbEntity
  8
1
  6
Continuous
100
AcDbLine
 10
445.674799
 20
304.312739
 30
0.0
 11
443.6747989999998
 21
306.8337389999999
 31
0.0
  0
LINE
  5
C235
330
BE20
100
AcDbEntity
  8
1
  6
Continuous
100
AcDbLine
 10
447.3316529999998
 20
304.312739
 30
0.0
 11
449.331653
 21
306.8337389999999
 31
0.0
  0
LINE
  5
C236
330
BE20
100
AcDbEntity
  8
1
  6
Continuous
100
AcDbLine
 10
448.5032259999998
 20
304.312739
 30
0.0
 11
446.503226
 21
306.8337389999999
 31
0.0
  0
LINE
  5
C237
330
BE20
100
AcDbEntity
  8
1
  6
Continuous
100
AcDbLine
 10
449.91744
 20
304.312739
 30
0.0
 11
447.91744
 21
306.8337389999999
 31
0.0
  0
LINE
  5
C238
330
BE20
100
AcDbEntity
  8
1
  6
Continuous
100
AcDbLine
 10
444.5032259999998
 20
304.312739
 30
0.0
 11
446.503226
 21
306.8337389999999
 31
0.0
  0
LINE
  5
C239
330
BE20
100
AcDbEntity
  8
1
  6
Continuous
100
AcDbLine
 10
445.9174400000001
 20
304.312739
 30
0.0
 11
447.91744
 21
306.8337389999999
 31
0.0
  0
LINE
  5
C23A
330
BE20
100
AcDbEntity
  8
1
  6
Continuous
100
AcDbLine
 10
447.0890119999999
 20
304.312739
 30
0.0
 11
445.089012
 21
306.8337389999999
 31
0.0
  0
LINE
  5
C23B
330
BE20
100
AcDbEntity
  8
1
  6
Continuous
100
AcDbLine
 10
438.8463719999998
 20
304.312739
 30
0.0
 11
440.8463719999998
 21
306.8337389999999
 31
0.0
  0
LINE
  5
C23C
330
BE20
100
AcDbEntity
  8
1
  6
Continuous
100
AcDbLine
 10
440.017945
 20
304.312739
 30
0.0
 11
438.0179449999998
 21
306.8337389999999
 31
0.0
  0
LINE
  5
C23D
330
BE20
100
AcDbEntity
  8
1
  6
Continuous
100
AcDbLine
 10
441.432158
 20
304.312739
 30
0.0
 11
439.432158
 21
306.8337389999999
 31
0.0
  0
LINE
  5
C23E
330
BE20
100
AcDbEntity
  8
1
  6
Continuous
100
AcDbLine
 10
440.2605849999998
 20
304.312739
 30
0.0
 11
442.2605849999998
 21
306.8337389999999
 31
0.0
  0
LINE
  5
C23F
330
BE20
100
AcDbEntity
  8
1
  6
Continuous
100
AcDbLine
 10
441.674799
 20
304.312739
 30
0.0
 11
443.6747989999998
 21
306.8337389999999
 31
0.0
  0
LINE
  5
C240
330
BE20
100
AcDbEntity
  8
1
  6
Continuous
100
AcDbLine
 10
442.8463719999998
 20
304.312739
 30
0.0
 11
440.8463719999998
 21
306.8337389999999
 31
0.0
  0
LINE
  5
C241
330
BE20
100
AcDbEntity
  8
1
  6
Continuous
100
AcDbLine
 10
436.017945
 20
304.312739
 30
0.0
 11
438.0179449999998
 21
306.8337389999999
 31
0.0
  0
LINE
  5
C242
330
BE20
100
AcDbEntity
  8
1
  6
Continuous
100
AcDbLine
 10
437.432158
 20
304.312739
 30
0.0
 11
439.432158
 21
306.8337389999999
 31
0.0
  0
LINE
  5
C243
330
BE20
100
AcDbEntity
  8
1
  6
Continuous
100
AcDbLine
 10
438.6037309999998
 20
304.312739
 30
0.0
 11
436.603731
 21
306.8337389999999
 31
0.0
  0
LINE
  5
C244
330
BE20
100
AcDbEntity
  8
1
  6
Continuous
100
AcDbLine
 10
433.189518
 20
304.312739
 30
0.0
 11
435.1895179999998
 21
306.8337389999999
 31
0.0
  0
LINE
  5
C245
330
BE20
100
AcDbEntity
  8
1
  6
Continuous
100
AcDbLine
 10
455.8169349999998
 20
304.312739
 30
0.0
 11
457.8169349999998
 21
306.8337389999999
 31
0.0
  0
LINE
  5
C246
330
BE20
100
AcDbEntity
  8
1
  6
Continuous
100
AcDbLine
 10
457.231148
 20
304.312739
 30
0.0
 11
459.231148
 21
306.8337389999999
 31
0.0
  0
LINE
  5
C247
330
BE20
100
AcDbEntity
  8
1
  6
Continuous
100
AcDbLine
 10
458.402721
 20
304.312739
 30
0.0
 11
456.4027209999999
 21
306.8337389999999
 31
0.0
  0
LINE
  5
C248
330
BE20
100
AcDbEntity
  8
1
  6
Continuous
100
AcDbLine
 10
451.5742939999998
 20
304.312739
 30
0.0
 11
453.574294
 21
306.8337389999999
 31
0.0
  0
LINE
  5
C249
330
BE20
100
AcDbEntity
  8
1
  6
Continuous
100
AcDbLine
 10
454.402721
 20
304.312739
 30
0.0
 11
456.4027209999999
 21
306.8337389999999
 31
0.0
  0
LINE
  5
C24A
330
BE20
100
AcDbEntity
  8
1
  6
Continuous
100
AcDbLine
 10
456.988507
 20
304.312739
 30
0.0
 11
454.988507
 21
306.8337389999999
 31
0.0
  0
LINE
  5
C24B
330
BE20
100
AcDbEntity
  8
1
  6
Continuous
100
AcDbLine
 10
452.988507
 20
304.312739
 30
0.0
 11
454.988507
 21
306.8337389999999
 31
0.0
  0
LINE
  5
C24C
330
BE20
100
AcDbEntity
  8
1
  6
Continuous
100
AcDbLine
 10
454.16008
 20
304.312739
 30
0.0
 11
452.1600799999998
 21
306.8337389999999
 31
0.0
  0
LINE
  5
C24D
330
BE20
100
AcDbEntity
  8
1
  6
Continuous
100
AcDbLine
 10
455.574294
 20
304.312739
 30
0.0
 11
453.574294
 21
306.8337389999999
 31
0.0
  0
LINE
  5
C24E
330
BE20
100
AcDbEntity
  8
1
  6
Continuous
100
AcDbLine
 10
450.16008
 20
304.312739
 30
0.0
 11
452.1600799999998
 21
306.8337389999999
 31
0.0
  0
LINE
  5
C24F
330
BE20
100
AcDbEntity
  8
1
  6
Continuous
100
AcDbLine
 10
451.3316529999998
 20
304.312739
 30
0.0
 11
449.331653
 21
306.8337389999999
 31
0.0
  0
LINE
  5
C250
330
BE20
100
AcDbEntity
  8
1
  6
Continuous
100
AcDbLine
 10
452.7458669999998
 20
304.312739
 30
0.0
 11
450.745867
 21
306.8337389999999
 31
0.0
  0
LINE
  5
C251
330
BE20
100
AcDbEntity
  8
1
  6
Continuous
100
AcDbLine
 10
432.5450479999998
 20
308.127945
 30
0.0
 11
432.5450479999998
 21
304.312739
 31
0.0
  0
LINE
  5
C252
330
BE20
100
AcDbEntity
  8
1
  6
Continuous
100
AcDbLine
 10
431.7311479999998
 20
294.7523229999998
 30
0.0
 11
431.7311479999998
 21
302.0971829999999
 31
0.0
  0
ARC
  5
C253
330
BE20
100
AcDbEntity
  8
1
  6
Continuous
100
AcDbCircle
 10
438.214565
 20
300.152624
 30
0.0
 40
6.768752
100
AcDbArc
 50
151.3767689999999
 51
163.3045389999998
  0
LINE
  5
C254
330
BE20
100
AcDbEntity
  8
2
  6
Continuous
100
AcDbLine
 10
464.554648
 20
316.7996560000001
 30
0.0
 11
464.554648
 21
344.8044229999999
 31
0.0
  0
LINE
  5
C255
330
BE20
100
AcDbEntity
  8
2
  6
Continuous
100
AcDbLine
 10
453.907648
 20
316.7996560000001
 30
0.0
 11
453.907648
 21
344.8044229999999
 31
0.0
  0
LINE
  5
C256
330
BE20
100
AcDbEntity
  8
1
  6
Continuous
100
AcDbLine
 10
465.231148
 20
315.6279229999999
 30
0.0
 11
465.231148
 21
344.127923
 31
0.0
  0
LINE
  5
C257
330
BE20
100
AcDbEntity
  8
1
  6
Continuous
100
AcDbLine
 10
453.231148
 20
315.6279229999999
 30
0.0
 11
453.231148
 21
344.127923
 31
0.0
  0
LINE
  5
C258
330
BE20
100
AcDbEntity
  8
1
  6
Continuous
100
AcDbLine
 10
465.231148
 20
316.7996560000001
 30
0.0
 11
453.231148
 21
316.7996560000001
 31
0.0
  0
LINE
  5
C259
330
BE20
100
AcDbEntity
  8
1
  6
Continuous
100
AcDbLine
 10
443.065364
 20
315.6279229999999
 30
0.0
 11
475.39698
 21
315.6279229999999
 31
0.0
  0
LINE
  5
C25A
330
BE20
100
AcDbEntity
  8
2
  6
Continuous
100
AcDbLine
 10
464.554648
 20
316.7996560000001
 30
0.0
 11
465.231148
 21
315.6279229999999
 31
0.0
  0
LINE
  5
C25B
330
BE20
100
AcDbEntity
  8
2
  6
Continuous
100
AcDbLine
 10
453.907648
 20
316.7996560000001
 30
0.0
 11
453.231148
 21
315.6279229999999
 31
0.0
  0
LINE
  5
C25C
330
BE20
100
AcDbEntity
  8
1
  6
Continuous
100
AcDbLine
 10
463.731148
 20
345.627923
 30
0.0
 11
454.731148
 21
345.627923
 31
0.0
  0
LINE
  5
C25D
330
BE20
100
AcDbEntity
  8
1
  6
Continuous
100
AcDbLine
 10
465.231148
 20
344.127923
 30
0.0
 11
453.231148
 21
344.127923
 31
0.0
  0
LINE
  5
C25E
330
BE20
100
AcDbEntity
  8
1
  6
Continuous
100
AcDbLine
 10
465.231148
 20
344.127923
 30
0.0
 11
463.731148
 21
345.627923
 31
0.0
  0
LINE
  5
C25F
330
BE20
100
AcDbEntity
  8
1
  6
Continuous
100
AcDbLine
 10
453.231148
 20
344.127923
 30
0.0
 11
454.731148
 21
345.627923
 31
0.0
  0
CIRCLE
  5
C260
330
BE20
100
AcDbEntity
  8
1
  6
Continuous
100
AcDbCircle
 10
495.231148
 20
229.6277389999999
 30
0.0
 40
7.0
  0
LINE
  5
C261
330
BE20
100
AcDbEntity
  8
1
  6
Continuous
100
AcDbLine
 10
216.2363389999999
 20
110.0779009999999
 30
0.0
 11
202.2363389999999
 21
110.0779009999999
 31
0.0
  0
LINE
  5
C262
330
BE20
100
AcDbEntity
  8
1
  6
Continuous
100
AcDbLine
 10
202.2363389999999
 20
110.0779009999999
 30
0.0
 11
202.2363389999999
 21
108.5779009999999
 31
0.0
  0
LINE
  5
C263
330
BE20
100
AcDbEntity
  8
1
  6
Continuous
100
AcDbLine
 10
215.236339
 20
115.0779009999999
 30
0.0
 11
215.236339
 21
110.0779009999999
 31
0.0
  0
LINE
  5
C264
330
BE20
100
AcDbEntity
  8
1
  6
Continuous
100
AcDbLine
 10
213.236339
 20
115.0779009999999
 30
0.0
 11
213.236339
 21
115.160719
 31
0.0
  0
LINE
  5
C265
330
BE20
100
AcDbEntity
  8
1
  6
Continuous
100
AcDbLine
 10
212.436339
 20
115.960719
 30
0.0
 11
213.236339
 21
115.160719
 31
0.0
  0
LINE
  5
C266
330
BE20
100
AcDbEntity
  8
2
  6
Continuous
100
AcDbLine
 10
212.5598389999999
 20
115.8372189999999
 30
0.0
 11
212.5598389999999
 21
115.0779009999999
 31
0.0
  0
LINE
  5
C267
330
BE20
100
AcDbEntity
  8
1
  6
Continuous
100
AcDbLine
 10
203.2363389999999
 20
115.0779009999999
 30
0.0
 11
203.2363389999999
 21
110.0779009999999
 31
0.0
  0
ARC
  5
C268
330
BE20
100
AcDbEntity
  8
1
  6
Continuous
100
AcDbCircle
 10
206.2363389999999
 20
118.7429649999999
 30
0.0
 40
8.665063999999999
100
AcDbArc
 50
249.7438419999999
 51
290.256158
  0
LINE
  5
C269
330
BE20
100
AcDbEntity
  8
1
  6
Continuous
100
AcDbLine
 10
209.236339
 20
110.6138
 30
0.0
 11
209.236339
 21
114.5420029999999
 31
0.0
  0
ARC
  5
C26A
330
BE20
100
AcDbEntity
  8
1
  6
Continuous
100
AcDbCircle
 10
206.2363389999999
 20
106.4128379999998
 30
0.0
 40
8.665063999999999
100
AcDbArc
 50
69.743842
 51
110.256158
  0
LINE
  5
C26B
330
BE20
100
AcDbEntity
  8
1
  6
Continuous
100
AcDbLine
 10
205.236339
 20
115.0779009999999
 30
0.0
 11
205.236339
 21
115.160719
 31
0.0
  0
LINE
  5
C26C
330
BE20
100
AcDbEntity
  8
1
  6
Continuous
100
AcDbLine
 10
206.036339
 20
115.960719
 30
0.0
 11
205.236339
 21
115.160719
 31
0.0
  0
LINE
  5
C26D
330
BE20
100
AcDbEntity
  8
2
  6
Continuous
100
AcDbLine
 10
205.912839
 20
115.8372189999999
 30
0.0
 11
205.912839
 21
115.0779009999999
 31
0.0
  0
ARC
  5
C26E
330
BE20
100
AcDbEntity
  8
1
  6
Continuous
100
AcDbCircle
 10
212.2363389999999
 20
118.7429649999999
 30
0.0
 40
8.665063999999999
100
AcDbArc
 50
249.7438419999999
 51
290.256158
  0
LINE
  5
C26F
330
BE20
100
AcDbEntity
  8
1
  6
Continuous
100
AcDbLine
 10
203.2363389999999
 20
115.0779009999999
 30
0.0
 11
215.236339
 21
115.0779009999999
 31
0.0
  0
LINE
  5
C270
330
BE20
100
AcDbEntity
  8
1
  6
Continuous
100
AcDbLine
 10
212.436339
 20
115.960719
 30
0.0
 11
206.036339
 21
115.960719
 31
0.0
  0
LINE
  5
C271
330
BE20
100
AcDbEntity
  8
1
  6
Continuous
100
AcDbLine
 10
205.236339
 20
115.160719
 30
0.0
 11
213.236339
 21
115.160719
 31
0.0
  0
ARC
  5
C272
330
BE20
100
AcDbEntity
  8
1
  6
Continuous
100
AcDbCircle
 10
212.2363389999999
 20
106.4128379999998
 30
0.0
 40
8.665063999999999
100
AcDbArc
 50
69.743842
 51
110.256158
  0
LINE
  5
C273
330
BE20
100
AcDbEntity
  8
1
  6
Continuous
100
AcDbLine
 10
216.2363389999999
 20
110.0779009999999
 30
0.0
 11
216.2363389999999
 21
108.5779009999999
 31
0.0
  0
ARC
  5
C274
330
BE20
100
AcDbEntity
  8
1
  6
Continuous
100
AcDbCircle
 10
209.236339
 20
229.6277389999999
 30
0.0
 40
40.533539
100
AcDbArc
 50
20.08231099999998
 51
28.25553499999999
  0
ARC
  5
C275
330
BE20
100
AcDbEntity
  8
1
  6
Continuous
100
AcDbCircle
 10
209.236339
 20
229.6277389999999
 30
0.0
 40
53.65
100
AcDbArc
 50
24.699746
 51
35.298906
  0
ARC
  5
C276
330
BE20
100
AcDbEntity
  8
1
  6
Continuous
100
AcDbCircle
 10
209.236339
 20
229.6277389999999
 30
0.0
 40
40.533539
100
AcDbArc
 50
200.111448
 51
334.948225
  0
ARC
  5
C277
330
BE20
100
AcDbEntity
  8
1
  6
Continuous
100
AcDbCircle
 10
209.236339
 20
229.6277389999999
 30
0.0
 40
31.415325
100
AcDbArc
 50
202.065805
 51
320.712178
  0
ARC
  5
C278
330
BE20
100
AcDbEntity
  8
1
  6
Continuous
100
AcDbCircle
 10
209.236339
 20
229.6277389999999
 30
0.0
 40
53.65
100
AcDbArc
 50
200.576744
 51
347.113086
  0
ARC
  5
C279
330
BE20
100
AcDbEntity
  8
1
  6
Continuous
100
AcDbCircle
 10
209.236339
 20
229.6277389999999
 30
0.0
 40
65.0
100
AcDbArc
 50
195.8825169999999
 51
39.834024
  0
ARC
  5
C27A
330
BE20
100
AcDbEntity
  8
1
  6
Continuous
100
AcDbCircle
 10
209.236339
 20
229.6277389999999
 30
0.0
 40
31.415325
100
AcDbArc
 50
12.36261099999999
 51
20.878579
  0
ARC
  5
C27B
330
BE20
100
AcDbEntity
  8
1
  6
Continuous
100
AcDbCircle
 10
84.21680999999997
 20
229.3538649999999
 30
0.0
 40
12.554335
100
AcDbArc
 50
0.0
 51
35.82969699999999
  0
ENDSEC
  0
SECTION
  2
OBJECTS
  0
DICTIONARY
  5
BE0E
330
0
100
AcDbDictionary
281
     1
  3
ACAD_CIP_PREVIOUS_PRODUCT_INFO
350
C2DD
  3
ACAD_COLOR
350
C2BF
  3
ACAD_DETAILVIEWSTYLE
350
C2D8
  3
ACAD_GROUP
350
BE0F
  3
ACAD_LAYOUT
350
BE1B
  3
ACAD_MATERIAL
350
C28D
  3
ACAD_MLEADERSTYLE
350
C2D4
  3
ACAD_MLINESTYLE
350
BE18
  3
ACAD_PLOTSETTINGS
350
BE1A
  3
ACAD_PLOTSTYLENAME
350
C28B
  3
ACAD_SCALELIST
350
C2C2
  3
ACAD_SECTIONVIEWSTYLE
350
C2D6
  3
ACAD_TABLESTYLE
350
C2C0
  3
ACAD_VISUALSTYLE
350
C2A6
  3
ACDB_RECOMPOSE_DATA
350
C2FB
  3
AcDbVariableDictionary
350
C2EE
  3
DWGPROPS
350
C2FC
  0
DICTIONARY
  5
C2DE
330
BE12
100
AcDbDictionary
280
     1
281
     1
  3
ADSK_XREC_LAYER_RECONCILED
360
C2DF
  0
DICTIONARY
  5
C2E0
330
BE28
100
AcDbDictionary
280
     1
281
     1
  3
ADSK_XREC_LAYER_RECONCILED
360
C2E1
  0
DICTIONARY
  5
C2E2
330
BE29
100
AcDbDictionary
280
     1
281
     1
  3
ADSK_XREC_LAYER_RECONCILED
360
C2E3
  0
DICTIONARY
  5
C2E4
330
BE2A
100
AcDbDictionary
280
     1
281
     1
  3
ADSK_XREC_LAYER_RECONCILED
360
C2E5
  0
DICTIONARY
  5
C2E6
330
BE2B
100
AcDbDictionary
280
     1
281
     1
  3
ADSK_XREC_LAYER_RECONCILED
360
C2E7
  0
DICTIONARY
  5
C2E8
330
BE2C
100
AcDbDictionary
280
     1
281
     1
  3
ADSK_XREC_LAYER_RECONCILED
360
C2E9
  0
DICTIONARY
  5
C2EA
330
BE2D
100
AcDbDictionary
280
     1
281
     1
  3
ADSK_XREC_LAYER_RECONCILED
360
C2EB
  0
DICTIONARY
  5
C2EC
330
BE2E
100
AcDbDictionary
280
     1
281
     1
  3
ADSK_XREC_LAYER_RECONCILED
360
C2ED
  0
DICTIONARY
  5
C286
330
BE20
100
AcDbDictionary
281
     1
  3
ACAD_LAYOUTSELFREF
350
C287
  0
DICTIONARY
  5
C284
330
BE1C
100
AcDbDictionary
281
     1
  3
ACAD_LAYOUTSELFREF
350
C285
  0
XRECORD
  5
C2DD
102
{ACAD_REACTORS
330
BE0E
102
}
330
BE0E
100
AcDbXrecord
280
     1
300
ACDLT
300
2014
300
ACDLT_F_S
  0
DICTIONARY
  5
C2BF
102
{ACAD_REACTORS
330
BE0E
102
}
330
BE0E
100
AcDbDictionary
281
     1
  0
DICTIONARY
  5
C2D8
102
{ACAD_REACTORS
330
BE0E
102
}
330
BE0E
100
AcDbDictionary
281
     1
  3
Imperial24
350
C2D9
  0
DICTIONARY
  5
BE0F
102
{ACAD_REACTORS
330
BE0E
102
}
330
BE0E
100
AcDbDictionary
281
     1
  0
DICTIONARY
  5
BE1B
102
{ACAD_REACTORS
330
BE0E
102
}
330
BE0E
100
AcDbDictionary
281
     1
  3
Model
350
C2DA
  3
レイアウト1
350
C2DB
  0
DICTIONARY
  5
C28D
102
{ACAD_REACTORS
330
BE0E
102
}
330
BE0E
100
AcDbDictionary
281
     1
  3
ByBlock
350
C296
  3
ByLayer
350
C28E
  3
Global
350
C29E
  0
DICTIONARY
  5
C2D4
102
{ACAD_REACTORS
330
BE0E
102
}
330
BE0E
100
AcDbDictionary
281
     1
  3
Standard
350
C2D5
  0
DICTIONARY
  5
BE18
102
{ACAD_REACTORS
330
BE0E
102
}
330
BE0E
100
AcDbDictionary
281
     1
  3
STANDARD
350
BE19
  0
DICTIONARY
  5
BE1A
102
{ACAD_REACTORS
330
BE0E
102
}
330
BE0E
100
AcDbDictionary
281
     1
  0
ACDBDICTIONARYWDFLT
  5
C28B
102
{ACAD_REACTORS
330
BE0E
102
}
330
BE0E
100
AcDbDictionary
281
     1
  3
Normal
350
C28C
100
AcDbDictionaryWithDefault
340
C28C
  0
DICTIONARY
  5
C2C2
102
{ACAD_REACTORS
330
BE0E
102
}
330
BE0E
100
AcDbDictionary
281
     1
  3
A0
350
C2C3
  3
A1
350
C2C4
  3
A2
350
C2C5
  3
A3
350
C2C6
  3
A4
350
C2C7
  3
A5
350
C2C8
  3
A6
350
C2C9
  3
A7
350
C2CA
  3
A8
350
C2CB
  3
A9
350
C2CC
  3
B0
350
C2CD
  3
B1
350
C2CE
  3
B2
350
C2CF
  3
B3
350
C2D0
  3
B4
350
C2D1
  3
B5
350
C2D2
  3
B6
350
C2D3
  0
DICTIONARY
  5
C2D6
102
{ACAD_REACTORS
330
BE0E
102
}
330
BE0E
100
AcDbDictionary
281
     1
  3
Imperial24
350
C2D7
  0
DICTIONARY
  5
C2C0
102
{ACAD_REACTORS
330
BE0E
102
}
330
BE0E
100
AcDbDictionary
281
     1
  3
Standard
350
C2C1
  0
DICTIONARY
  5
C2A6
102
{ACAD_REACTORS
330
BE0E
102
}
330
BE0E
100
AcDbDictionary
281
     1
  3
2dWireframe
350
C2AC
  3
Basic
350
C2AB
  3
Brighten
350
C2B2
  3
ColorChange
350
C2B6
  3
Conceptual
350
C2AF
  3
Dim
350
C2B1
  3
EdgeColorOff
350
C2BE
  3
Facepattern
350
C2B5
  3
Flat
350
C2A7
  3
FlatWithEdges
350
C2A8
  3
Gouraud
350
C2A9
  3
GouraudWithEdges
350
C2AA
  3
Hidden
350
C2AE
  3
JitterOff
350
C2BC
  3
Linepattern
350
C2B4
  3
OverhangOff
350
C2BD
  3
Realistic
350
C2B0
  3
Shaded
350
C2BB
  3
Shaded with edges
350
C2BA
  3
Shades of Gray
350
C2B7
  3
Sketchy
350
C2B8
  3
Thicken
350
C2B3
  3
Wireframe
350
C2AD
  3
X-Ray
350
C2B9
  0
XRECORD
  5
C2FB
102
{ACAD_REACTORS
330
BE0E
102
}
330
BE0E
100
AcDbXrecord
280
     1
 90
        1
330
C2C1
  0
DICTIONARY
  5
C2EE
102
{ACAD_REACTORS
330
BE0E
102
}
330
BE0E
100
AcDbDictionary
281
     1
  3
CANNOSCALE
350
C2F3
  3
CMLEADERSTYLE
350
C2F0
  3
CTABLESTYLE
350
C2EF
  3
CVIEWDETAILSTYLE
350
C2F1
  3
CVIEWSECTIONSTYLE
350
C2F2
  3
DIMASSOC
350
C2F6
  3
INDEXCTL
350
C2F5
  3
SORTENTS
350
C2F4
  3
XCLIPFRAME
350
C2F7
  0
XRECORD
  5
C2FC
102
{ACAD_REACTORS
330
BE0E
102
}
330
BE0E
100
AcDbXrecord
280
     1
  1
DWGPROPS COOKIE
  2

  3

  4

  6

  7

  8
Yoshitsune
  9

300
=
301
=
302
=
303
=
304
=
305
=
306
=
307
=
308
=
309
=
 40
0.0000130555555556
 41
2451301.677080556
 42
2457192.688165567
  1

 90
        0
  0
XRECORD
  5
C2DF
102
{ACAD_REACTORS
330
C2DE
102
}
330
C2DE
100
AcDbXrecord
280
     1
290
     1
  0
XRECORD
  5
C2E1
102
{ACAD_REACTORS
330
C2E0
102
}
330
C2E0
100
AcDbXrecord
280
     1
290
     1
  0
XRECORD
  5
C2E3
102
{ACAD_REACTORS
330
C2E2
102
}
330
C2E2
100
AcDbXrecord
280
     1
290
     1
  0
XRECORD
  5
C2E5
102
{ACAD_REACTORS
330
C2E4
102
}
330
C2E4
100
AcDbXrecord
280
     1
290
     1
  0
XRECORD
  5
C2E7
102
{ACAD_REACTORS
330
C2E6
102
}
330
C2E6
100
AcDbXrecord
280
     1
290
     1
  0
XRECORD
  5
C2E9
102
{ACAD_REACTORS
330
C2E8
102
}
330
C2E8
100
AcDbXrecord
280
     1
290
     1
  0
XRECORD
  5
C2EB
102
{ACAD_REACTORS
330
C2EA
102
}
330
C2EA
100
AcDbXrecord
280
     1
290
     1
  0
XRECORD
  5
C2ED
102
{ACAD_REACTORS
330
C2EC
102
}
330
C2EC
100
AcDbXrecord
280
     1
290
     1
  0
XRECORD
  5
C287
102
{ACAD_REACTORS
330
C286
102
}
330
C286
100
AcDbXrecord
280
     1
340
BE20
  0
XRECORD
  5
C285
102
{ACAD_REACTORS
330
C284
102
}
330
C284
100
AcDbXrecord
280
     1
340
BE1C
  0
ACDBDETAILVIEWSTYLE
  5
C2D9
102
{ACAD_XDICTIONARY
360
C334
102
}
102
{ACAD_REACTORS
330
C2D8
102
}
330
C2D8
100
AcDbModelDocViewStyle
 70
     0
  3
Imperial24
290
     0
100
AcDbDetailViewStyle
 70
     0
 71
     0
 90
        3
 71
     1
340
BE13
 40
0.24
340
0
 40
0.24
300

 40
0.36
280
     3
 71
     2
340
BE17
 90
       25
 71
     3
340
BE13
 40
0.24
 90
        1
 40
0.75
 90
        1
300
%<\AcVar ViewType \f "%tc1">% %<\AcVar ViewDetailId>%\PSCALE %<\AcVar ViewScale \f "%sn">%
 71
     4
340
BE17
 90
       25
340
BE17
 90
       25
280
     0
  0
LAYOUT
  5
C2DA
102
{ACAD_XDICTIONARY
360
C336
102
}
102
{ACAD_REACTORS
330
BE1B
102
}
330
BE1B
100
AcDbPlotSettings
  1

  2
Canon LBP9100C
  4

  6

 40
0.0
 41
0.0
 42
0.0
 43
0.0
 44
0.0
 45
0.0
 46
0.0
 47
0.0
 48
0.0
 49
0.0
140
0.0
141
0.0
142
1.0
143
1.0
 70
  1712
 72
     0
 73
     0
 74
     0
  7

 75
     0
147
1.0
148
0.0
149
0.0
100
AcDbLayout
  1
Model
 70
     1
 71
     0
 10
0.0
 20
0.0
 11
12.0
 21
9.0
 12
0.0
 22
0.0
 32
0.0
 14
0.0
 24
0.0
 34
0.0
 15
0.0
 25
0.0
 35
0.0
146
0.0
 13
0.0
 23
0.0
 33
0.0
 16
1.0
 26
0.0
 36
0.0
 17
0.0
 27
1.0
 37
0.0
 76
     0
330
BE20
331
C283
  0
LAYOUT
  5
C2DB
102
{ACAD_XDICTIONARY
360
C338
102
}
102
{ACAD_REACTORS
330
BE1B
102
}
330
BE1B
100
AcDbPlotSettings
  1

  2
Canon LBP9100C
  4

  6

 40
0.0
 41
0.0
 42
0.0
 43
0.0
 44
0.0
 45
0.0
 46
0.0
 47
0.0
 48
0.0
 49
0.0
140
0.0
141
0.0
142
1.0
143
1.0
 70
   688
 72
     0
 73
     0
 74
     5
  7

 75
    16
147
1.0
148
0.0
149
0.0
100
AcDbLayout
  1
レイアウト1
 70
     0
 71
     1
 10
0.0
 20
0.0
 11
420.0
 21
297.0
 12
0.0
 22
0.0
 32
0.0
 14
1.000000000000000E+20
 24
1.000000000000000E+20
 34
1.000000000000000E+20
 15
-1.000000000000000E+20
 25
-1.000000000000000E+20
 35
-1.000000000000000E+20
146
0.0
 13
0.0
 23
0.0
 33
0.0
 16
1.0
 26
0.0
 36
0.0
 17
0.0
 27
1.0
 37
0.0
 76
     0
330
BE1C
  0
MATERIAL
  5
C296
102
{ACAD_XDICTIONARY
360
C297
102
}
102
{ACAD_REACTORS
330
C28D
102
}
330
C28D
100
AcDbMaterial
  1
ByBlock
 72
     0
 43
0.0208333333333333
 43
0.0
 43
0.0
 43
0.0
 43
0.0
 43
0.0208333333333333
 43
0.0
 43
0.0
 43
0.0
 43
0.0
 43
1.0
 43
0.0
 43
0.0
 43
0.0
 43
0.0
 43
1.0
 77
     0
 47
0.0208333333333333
 47
0.0
 47
0.0
 47
0.0
 47
0.0
 47
0.0208333333333333
 47
0.0
 47
0.0
 47
0.0
 47
0.0
 47
1.0
 47
0.0
 47
0.0
 47
0.0
 47
0.0
 47
1.0
171
     0
 49
0.0208333333333333
 49
0.0
 49
0.0
 49
0.0
 49
0.0
 49
0.0208333333333333
 49
0.0
 49
0.0
 49
0.0
 49
0.0
 49
1.0
 49
0.0
 49
0.0
 49
0.0
 49
0.0
 49
1.0
175
     0
142
0.0208333333333333
142
0.0
142
0.0
142
0.0
142
0.0
142
0.0208333333333333
142
0.0
142
0.0
142
0.0
142
0.0
142
1.0
142
0.0
142
0.0
142
0.0
142
0.0
142
1.0
179
     0
144
0.0208333333333333
144
0.0
144
0.0
144
0.0
144
0.0
144
0.0208333333333333
144
0.0
144
0.0
144
0.0
144
0.0
144
1.0
144
0.0
144
0.0
144
0.0
144
0.0
144
1.0
147
0.0208333333333333
147
0.0
147
0.0
147
0.0
147
0.0
147
0.0208333333333333
147
0.0
147
0.0
147
0.0
147
0.0
147
1.0
147
0.0
147
0.0
147
0.0
147
0.0
147
1.0
  0
MATERIAL
  5
C28E
102
{ACAD_XDICTIONARY
360
C28F
102
}
102
{ACAD_REACTORS
330
C28D
102
}
330
C28D
100
AcDbMaterial
  1
ByLayer
 72
     0
 43
0.0208333333333333
 43
0.0
 43
0.0
 43
0.0
 43
0.0
 43
0.0208333333333333
 43
0.0
 43
0.0
 43
0.0
 43
0.0
 43
1.0
 43
0.0
 43
0.0
 43
0.0
 43
0.0
 43
1.0
 77
     0
 47
0.0208333333333333
 47
0.0
 47
0.0
 47
0.0
 47
0.0
 47
0.0208333333333333
 47
0.0
 47
0.0
 47
0.0
 47
0.0
 47
1.0
 47
0.0
 47
0.0
 47
0.0
 47
0.0
 47
1.0
171
     0
 49
0.0208333333333333
 49
0.0
 49
0.0
 49
0.0
 49
0.0
 49
0.0208333333333333
 49
0.0
 49
0.0
 49
0.0
 49
0.0
 49
1.0
 49
0.0
 49
0.0
 49
0.0
 49
0.0
 49
1.0
175
     0
142
0.0208333333333333
142
0.0
142
0.0
142
0.0
142
0.0
142
0.0208333333333333
142
0.0
142
0.0
142
0.0
142
0.0
142
1.0
142
0.0
142
0.0
142
0.0
142
0.0
142
1.0
179
     0
144
0.0208333333333333
144
0.0
144
0.0
144
0.0
144
0.0
144
0.0208333333333333
144
0.0
144
0.0
144
0.0
144
0.0
144
1.0
144
0.0
144
0.0
144
0.0
144
0.0
144
1.0
147
0.0208333333333333
147
0.0
147
0.0
147
0.0
147
0.0
147
0.0208333333333333
147
0.0
147
0.0
147
0.0
147
0.0
147
1.0
147
0.0
147
0.0
147
0.0
147
0.0
147
1.0
  0
MATERIAL
  5
C29E
102
{ACAD_XDICTIONARY
360
C29F
102
}
102
{ACAD_REACTORS
330
C28D
102
}
330
C28D
100
AcDbMaterial
  1
Global
 72
     0
 43
0.0208333333333333
 43
0.0
 43
0.0
 43
0.0
 43
0.0
 43
0.0208333333333333
 43
0.0
 43
0.0
 43
0.0
 43
0.0
 43
1.0
 43
0.0
 43
0.0
 43
0.0
 43
0.0
 43
1.0
 77
     0
 47
0.0208333333333333
 47
0.0
 47
0.0
 47
0.0
 47
0.0
 47
0.0208333333333333
 47
0.0
 47
0.0
 47
0.0
 47
0.0
 47
1.0
 47
0.0
 47
0.0
 47
0.0
 47
0.0
 47
1.0
171
     0
 49
0.0208333333333333
 49
0.0
 49
0.0
 49
0.0
 49
0.0
 49
0.0208333333333333
 49
0.0
 49
0.0
 49
0.0
 49
0.0
 49
1.0
 49
0.0
 49
0.0
 49
0.0
 49
0.0
 49
1.0
175
     0
142
0.0208333333333333
142
0.0
142
0.0
142
0.0
142
0.0
142
0.0208333333333333
142
0.0
142
0.0
142
0.0
142
0.0
142
1.0
142
0.0
142
0.0
142
0.0
142
0.0
142
1.0
179
     0
144
0.0208333333333333
144
0.0
144
0.0
144
0.0
144
0.0
144
0.0208333333333333
144
0.0
144
0.0
144
0.0
144
0.0
144
1.0
144
0.0
144
0.0
144
0.0
144
0.0
144
1.0
147
0.0208333333333333
147
0.0
147
0.0
147
0.0
147
0.0
147
0.0208333333333333
147
0.0
147
0.0
147
0.0
147
0.0
147
1.0
147
0.0
147
0.0
147
0.0
147
0.0
147
1.0
  0
MLEADERSTYLE
  5
C2D5
102
{ACAD_REACTORS
330
C2D4
102
}
330
C2D4
100
AcDbMLeaderStyle
170
     2
171
     1
172
     0
 90
        2
 40
0.0
 41
0.0
173
     1
 91
-1056964608
340
BE15
 92
       -2
290
     1
 42
0.09
291
     1
 43
0.36
  3
Standard
 44
0.18
300

342
BE13
174
     1
178
     6
175
     1
176
     0
 93
-1056964608
 45
0.18
292
     0
297
     0
 46
0.18
 94
-1056964608
 47
1.0
 49
1.0
140
1.0
293
     1
141
0.0
294
     1
177
     0
142
1.0
295
     0
296
     0
143
0.125
1001
ACAD_MLEADERVER
1070
     2
  0
MLINESTYLE
  5
BE19
102
{ACAD_REACTORS
330
BE18
102
}
330
BE18
100
AcDbMlineStyle
  2
STANDARD
 70
     0
  3

 62
   256
 51
90.0
 52
90.0
 71
     2
 49
0.5
 62
   256
  6
BYLAYER
 49
-0.5
 62
   256
  6
BYLAYER
  0
ACDBPLACEHOLDER
  5
C28C
102
{ACAD_REACTORS
330
C28B
102
}
330
C28B
  0
SCALE
  5
C2C3
102
{ACAD_REACTORS
330
C2C2
102
}
330
C2C2
100
AcDbScale
 70
     0
300
1:1
140
1.0
141
1.0
290
     1
  0
SCALE
  5
C2C4
102
{ACAD_REACTORS
330
C2C2
102
}
330
C2C2
100
AcDbScale
 70
     0
300
1/128" = 1'-0"
140
0.0078125
141
12.0
290
     0
  0
SCALE
  5
C2C5
102
{ACAD_REACTORS
330
C2C2
102
}
330
C2C2
100
AcDbScale
 70
     0
300
1/64" = 1'-0"
140
0.015625
141
12.0
290
     0
  0
SCALE
  5
C2C6
102
{ACAD_REACTORS
330
C2C2
102
}
330
C2C2
100
AcDbScale
 70
     0
300
1/32" = 1'-0"
140
0.03125
141
12.0
290
     0
  0
SCALE
  5
C2C7
102
{ACAD_REACTORS
330
C2C2
102
}
330
C2C2
100
AcDbScale
 70
     0
300
1/16" = 1'-0"
140
0.0625
141
12.0
290
     0
  0
SCALE
  5
C2C8
102
{ACAD_REACTORS
330
C2C2
102
}
330
C2C2
100
AcDbScale
 70
     0
300
3/32" = 1'-0"
140
0.09375
141
12.0
290
     0
  0
SCALE
  5
C2C9
102
{ACAD_REACTORS
330
C2C2
102
}
330
C2C2
100
AcDbScale
 70
     0
300
1/8" = 1'-0"
140
0.125
141
12.0
290
     0
  0
SCALE
  5
C2CA
102
{ACAD_REACTORS
330
C2C2
102
}
330
C2C2
100
AcDbScale
 70
     0
300
3/16" = 1'-0"
140
0.1875
141
12.0
290
     0
  0
SCALE
  5
C2CB
102
{ACAD_REACTORS
330
C2C2
102
}
330
C2C2
100
AcDbScale
 70
     0
300
1/4" = 1'-0"
140
0.25
141
12.0
290
     0
  0
SCALE
  5
C2CC
102
{ACAD_REACTORS
330
C2C2
102
}
330
C2C2
100
AcDbScale
 70
     0
300
3/8" = 1'-0"
140
0.375
141
12.0
290
     0
  0
SCALE
  5
C2CD
102
{ACAD_REACTORS
330
C2C2
102
}
330
C2C2
100
AcDbScale
 70
     0
300
1/2" = 1'-0"
140
0.5
141
12.0
290
     0
  0
SCALE
  5
C2CE
102
{ACAD_REACTORS
330
C2C2
102
}
330
C2C2
100
AcDbScale
 70
     0
300
3/4" = 1'-0"
140
0.75
141
12.0
290
     0
  0
SCALE
  5
C2CF
102
{ACAD_REACTORS
330
C2C2
102
}
330
C2C2
100
AcDbScale
 70
     0
300
1" = 1'-0"
140
1.0
141
12.0
290
     0
  0
SCALE
  5
C2D0
102
{ACAD_REACTORS
330
C2C2
102
}
330
C2C2
100
AcDbScale
 70
     0
300
1-1/2" = 1'-0"
140
1.5
141
12.0
290
     0
  0
SCALE
  5
C2D1
102
{ACAD_REACTORS
330
C2C2
102
}
330
C2C2
100
AcDbScale
 70
     0
300
3" = 1'-0"
140
3.0
141
12.0
290
     0
  0
SCALE
  5
C2D2
102
{ACAD_REACTORS
330
C2C2
102
}
330
C2C2
100
AcDbScale
 70
     0
300
6" = 1'-0"
140
6.0
141
12.0
290
     0
  0
SCALE
  5
C2D3
102
{ACAD_REACTORS
330
C2C2
102
}
330
C2C2
100
AcDbScale
 70
     0
300
1'-0" = 1'-0"
140
12.0
141
12.0
290
     0
  0
ACDBSECTIONVIEWSTYLE
  5
C2D7
102
{ACAD_XDICTIONARY
360
C332
102
}
102
{ACAD_REACTORS
330
C2D6
102
}
330
C2D6
100
AcDbModelDocViewStyle
 70
     0
  3
Imperial24
290
     0
100
AcDbSectionViewStyle
 70
     0
 71
     0
 90
       78
 71
     1
340
BE13
 40
0.24
340
0
340
0
 40
0.24
300
I, O, Q, S, X, Z
 40
0.48
 90
        3
 40
0.18
 90
        1
 71
     2
340
BE17
 90
       25
340
BE17
 90
       50
 40
0.24
 40
0.0
 40
0.24
 71
     3
340
BE13
 40
0.24
 90
        1
 40
0.75
 90
        1
300
%<\AcVar ViewType \f "%tc1">% %<\AcVar ViewSectionStartId>%-%<\AcVar ViewSectionEndId>%\PSCALE %<\AcVar ViewScale \f "%sn">%
 71
     4
300
ANSI31
 40
1.0
 90
        0
290
     0
290
     0
 90
        6
 40
0.0
 40
1.570796326794896
 40
0.2617993877991494
 40
1.308996938995747
 40
-0.2617993877991494
 40
1.832595714594046
  0
TABLESTYLE
  5
C2C1
102
{ACAD_XDICTIONARY
360
C2F9
102
}
102
{ACAD_REACTORS
330
C2C0
102
}
330
C2C0
100
AcDbTableStyle
  3
Standard
 70
     0
 71
     0
 40
0.06
 41
0.06
280
     0
281
     0
  7
STANDARD
140
0.18
170
     2
 62
     0
 63
     7
283
     0
274
    -2
284
     1
 64
     0
275
    -2
285
     1
 65
     0
276
    -2
286
     1
 66
     0
277
    -2
287
     1
 67
     0
278
    -2
288
     1
 68
     0
279
    -2
289
     1
 69
     0
  7
STANDARD
140
0.25
170
     5
 62
     0
 63
     7
283
     0
274
    -2
284
     1
 64
     0
275
    -2
285
     1
 65
     0
276
    -2
286
     1
 66
     0
277
    -2
287
     1
 67
     0
278
    -2
288
     1
 68
     0
279
    -2
289
     1
 69
     0
  7
STANDARD
140
0.18
170
     5
 62
     0
 63
     7
283
     0
274
    -2
284
     1
 64
     0
275
    -2
285
     1
 65
     0
276
    -2
286
     1
 66
     0
277
    -2
287
     1
 67
     0
278
    -2
288
     1
 68
     0
279
    -2
289
     1
 69
     0
  0
VISUALSTYLE
  5
C2AC
102
{ACAD_XDICTIONARY
360
C30A
102
}
102
{ACAD_REACTORS
330
C2A6
102
}
330
C2A6
100
AcDbVisualStyle
  2
2dWireframe
 70
     4
 71
     0
 72
     2
 73
     0
 90
        0
 40
-0.6
 41
-30.0
 62
     5
 63
     7
 74
     1
 91
        4
 64
     7
 65
   257
 75
     1
175
     1
 42
1.0
 92
        0
 66
   257
 43
1.0
 76
     1
 77
     6
 78
     2
 67
     7
 79
     5
170
     0
171
     0
290
     0
174
     0
 93
        1
 44
0.0
173
     0
291
     0
 45
0.0
1001
ACAD
1000
AcDbSavedByObjectVersion
1070
     0
  0
VISUALSTYLE
  5
C2AB
102
{ACAD_XDICTIONARY
360
C308
102
}
102
{ACAD_REACTORS
330
C2A6
102
}
330
C2A6
100
AcDbVisualStyle
  2
Basic
 70
     7
 71
     1
 72
     0
 73
     1
 90
        0
 40
-0.6
 41
-30.0
 62
     5
 63
     7
 74
     0
 91
        4
 64
     7
 65
   257
 75
     1
175
     1
 42
1.0
 92
        8
 66
     7
 43
1.0
 76
     1
 77
     6
 78
     2
 67
     7
 79
     5
170
     0
171
     0
290
     0
174
     0
 93
        1
 44
0.0
173
     0
291
     1
 45
0.0
1001
ACAD
1000
AcDbSavedByObjectVersion
1070
     0
  0
VISUALSTYLE
  5
C2B2
102
{ACAD_XDICTIONARY
360
C316
102
}
102
{ACAD_REACTORS
330
C2A6
102
}
330
C2A6
100
AcDbVisualStyle
  2
Brighten
 70
    12
 71
     2
 72
     2
 73
     0
 90
        0
 40
-0.6
 41
-30.0
 62
     5
 63
     7
 74
     1
 91
        4
 64
     7
 65
   257
 75
     1
175
     1
 42
1.0
 92
        8
 66
     7
 43
1.0
 76
     1
 77
     6
 78
     2
 67
     7
 79
     5
170
     0
171
     0
290
     0
174
     0
 93
        1
 44
50.0
173
     0
291
     1
 45
0.0
1001
ACAD
1000
AcDbSavedByObjectVersion
1070
     0
  0
VISUALSTYLE
  5
C2B6
102
{ACAD_XDICTIONARY
360
C31E
102
}
102
{ACAD_REACTORS
330
C2A6
102
}
330
C2A6
100
AcDbVisualStyle
  2
ColorChange
 70
    16
 71
     2
 72
     2
 73
     3
 90
        0
 40
-0.6
 41
-30.0
 62
     5
 63
     8
 74
     1
 91
        4
 64
     7
 65
   257
 75
     1
175
     1
 42
1.0
 92
        8
 66
     8
 43
1.0
 76
     1
 77
     6
 78
     2
 67
     7
 79
     5
170
     0
171
     0
290
     0
174
     0
 93
        1
 44
0.0
173
     0
291
     1
 45
0.0
1001
ACAD
1000
AcDbSavedByObjectVersion
1070
     0
  0
VISUALSTYLE
  5
C2AF
102
{ACAD_XDICTIONARY
360
C310
102
}
102
{ACAD_REACTORS
330
C2A6
102
}
330
C2A6
100
AcDbVisualStyle
  2
Conceptual
 70
     9
 71
     3
 72
     2
 73
     0
 90
        0
 40
-0.6
 41
-30.0
 62
     5
 63
     7
 74
     2
 91
        2
 64
     7
 65
   257
 75
     1
175
     1
 42
179.0
 92
        8
 66
     7
 43
1.0
 76
     1
 77
     6
 78
     2
 67
     7
 79
     3
170
     0
171
     0
290
     0
174
     0
 93
        1
 44
0.0
173
     0
291
     0
 45
0.0
1001
ACAD
1000
AcDbSavedByObjectVersion
1070
     0
  0
VISUALSTYLE
  5
C2B1
102
{ACAD_XDICTIONARY
360
C314
102
}
102
{ACAD_REACTORS
330
C2A6
102
}
330
C2A6
100
AcDbVisualStyle
  2
Dim
 70
    11
 71
     2
 72
     2
 73
     0
 90
        0
 40
-0.6
 41
-30.0
 62
     5
 63
     7
 74
     1
 91
        4
 64
     7
 65
   257
 75
     1
175
     1
 42
1.0
 92
        8
 66
     7
 43
1.0
 76
     1
 77
     6
 78
     2
 67
     7
 79
     5
170
     0
171
     0
290
     0
174
     0
 93
        1
 44
-50.0
173
     0
291
     1
 45
0.0
1001
ACAD
1000
AcDbSavedByObjectVersion
1070
     0
  0
VISUALSTYLE
  5
C2BE
102
{ACAD_XDICTIONARY
360
C32E
102
}
102
{ACAD_REACTORS
330
C2A6
102
}
330
C2A6
100
AcDbVisualStyle
  2
EdgeColorOff
 70
    22
 71
     2
 72
     2
 73
     0
 90
        0
 40
-0.6
 41
-30.0
 62
     5
 63
     7
 74
     1
 91
        4
 64
     7
 65
   257
 75
     1
175
     1
 42
1.0
 92
        8
 66
     7
 43
1.0
 76
     1
 77
     6
 78
     2
 67
     7
 79
     5
170
     0
171
     0
290
     0
174
     0
 93
        1
 44
0.0
173
     0
291
     1
 45
0.0
1001
ACAD
1000
AcDbSavedByObjectVersion
1070
     0
  0
VISUALSTYLE
  5
C2B5
102
{ACAD_XDICTIONARY
360
C31C
102
}
102
{ACAD_REACTORS
330
C2A6
102
}
330
C2A6
100
AcDbVisualStyle
  2
Facepattern
 70
    15
 71
     2
 72
     2
 73
     0
 90
        0
 40
-0.6
 41
-30.0
 62
     5
 63
     7
 74
     1
 91
        4
 64
     7
 65
   257
 75
     1
175
     1
 42
1.0
 92
        8
 66
     7
 43
1.0
 76
     1
 77
     6
 78
     2
 67
     7
 79
     5
170
     0
171
     0
290
     0
174
     0
 93
        1
 44
0.0
173
     0
291
     1
 45
0.0
1001
ACAD
1000
AcDbSavedByObjectVersion
1070
     0
  0
VISUALSTYLE
  5
C2A7
102
{ACAD_XDICTIONARY
360
C300
102
}
102
{ACAD_REACTORS
330
C2A6
102
}
330
C2A6
100
AcDbVisualStyle
  2
Flat
 70
     0
 71
     2
 72
     1
 73
     1
 90
        2
 40
-0.6
 41
30.0
 62
     5
 63
     7
 74
     0
 91
        0
 64
     7
 65
   257
 75
     1
175
     1
 42
1.0
 92
        8
 66
     7
 43
1.0
 76
     1
 77
     6
 78
     2
 67
     7
 79
     5
170
     0
171
     0
290
     0
174
     0
 93
       13
 44
0.0
173
     0
291
     1
 45
0.0
1001
ACAD
1000
AcDbSavedByObjectVersion
1070
     0
  0
VISUALSTYLE
  5
C2A8
102
{ACAD_XDICTIONARY
360
C302
102
}
102
{ACAD_REACTORS
330
C2A6
102
}
330
C2A6
100
AcDbVisualStyle
  2
FlatWithEdges
 70
     1
 71
     2
 72
     1
 73
     1
 90
        2
 40
-0.6
 41
30.0
 62
     5
 63
     7
 74
     1
 91
        0
 64
     7
 65
   257
 75
     1
175
     1
 42
1.0
 92
        0
 66
   257
 43
1.0
 76
     1
 77
     6
 78
     2
 67
     7
 79
     5
170
     0
171
     0
290
     0
174
     0
 93
       13
 44
0.0
173
     0
291
     1
 45
0.0
1001
ACAD
1000
AcDbSavedByObjectVersion
1070
     0
  0
VISUALSTYLE
  5
C2A9
102
{ACAD_XDICTIONARY
360
C304
102
}
102
{ACAD_REACTORS
330
C2A6
102
}
330
C2A6
100
AcDbVisualStyle
  2
Gouraud
 70
     2
 71
     2
 72
     2
 73
     1
 90
        2
 40
-0.6
 41
30.0
 62
     5
 63
     7
 74
     0
 91
        0
 64
     7
 65
   257
 75
     1
175
     1
 42
1.0
 92
        0
 66
     7
 43
1.0
 76
     1
 77
     6
 78
     2
 67
     7
 79
     5
170
     0
171
     0
290
     0
174
     0
 93
       13
 44
0.0
173
     0
291
     1
 45
0.0
1001
ACAD
1000
AcDbSavedByObjectVersion
1070
     0
  0
VISUALSTYLE
  5
C2AA
102
{ACAD_XDICTIONARY
360
C306
102
}
102
{ACAD_REACTORS
330
C2A6
102
}
330
C2A6
100
AcDbVisualStyle
  2
GouraudWithEdges
 70
     3
 71
     2
 72
     2
 73
     1
 90
        2
 40
-0.6
 41
30.0
 62
     5
 63
     7
 74
     1
 91
        0
 64
     7
 65
   257
 75
     1
175
     1
 42
1.0
 92
        0
 66
   257
 43
1.0
 76
     1
 77
     6
 78
     2
 67
     7
 79
     5
170
     0
171
     0
290
     0
174
     0
 93
       13
 44
0.0
173
     0
291
     1
 45
0.0
1001
ACAD
1000
AcDbSavedByObjectVersion
1070
     0
  0
VISUALSTYLE
  5
C2AE
102
{ACAD_XDICTIONARY
360
C30E
102
}
102
{ACAD_REACTORS
330
C2A6
102
}
330
C2A6
100
AcDbVisualStyle
  2
Hidden
 70
     6
 71
     1
 72
     2
 73
     2
 90
        0
 40
-0.6
 41
-30.0
 62
     5
 63
     7
 74
     2
 91
        2
 64
     7
 65
   257
 75
     2
175
     1
 42
40.0
 92
        0
 66
   257
 43
1.0
 76
     1
 77
     6
 78
     2
 67
     7
 79
     3
170
     0
171
     0
290
     0
174
     0
 93
        1
 44
0.0
173
     0
291
     0
 45
0.0
1001
ACAD
1000
AcDbSavedByObjectVersion
1070
     0
  0
VISUALSTYLE
  5
C2BC
102
{ACAD_XDICTIONARY
360
C32A
102
}
102
{ACAD_REACTORS
330
C2A6
102
}
330
C2A6
100
AcDbVisualStyle
  2
JitterOff
 70
    20
 71
     2
 72
     2
 73
     0
 90
        0
 40
-0.6
 41
-30.0
 62
     5
 63
     7
 74
     1
 91
        4
 64
     7
 65
   257
 75
     1
175
     1
 42
1.0
 92
       10
 66
     7
 43
1.0
 76
     1
 77
     6
 78
     2
 67
     7
 79
     5
170
     0
171
     0
290
     0
174
     0
 93
        1
 44
0.0
173
     0
291
     1
 45
0.0
1001
ACAD
1000
AcDbSavedByObjectVersion
1070
     0
  0
VISUALSTYLE
  5
C2B4
102
{ACAD_XDICTIONARY
360
C31A
102
}
102
{ACAD_REACTORS
330
C2A6
102
}
330
C2A6
100
AcDbVisualStyle
  2
Linepattern
 70
    14
 71
     2
 72
     2
 73
     0
 90
        0
 40
-0.6
 41
-30.0
 62
     5
 63
     7
 74
     1
 91
        4
 64
     7
 65
   257
 75
     7
175
     7
 42
1.0
 92
        8
 66
     7
 43
1.0
 76
     1
 77
     6
 78
     2
 67
     7
 79
     5
170
     0
171
     0
290
     0
174
     0
 93
        1
 44
0.0
173
     0
291
     1
 45
0.0
1001
ACAD
1000
AcDbSavedByObjectVersion
1070
     0
  0
VISUALSTYLE
  5
C2BD
102
{ACAD_XDICTIONARY
360
C32C
102
}
102
{ACAD_REACTORS
330
C2A6
102
}
330
C2A6
100
AcDbVisualStyle
  2
OverhangOff
 70
    21
 71
     2
 72
     2
 73
     0
 90
        0
 40
-0.6
 41
-30.0
 62
     5
 63
     7
 74
     1
 91
        4
 64
     7
 65
   257
 75
     1
175
     1
 42
1.0
 92
        9
 66
     7
 43
1.0
 76
     1
 77
     6
 78
     2
 67
     7
 79
     5
170
     0
171
     0
290
     0
174
     0
 93
        1
 44
0.0
173
     0
291
     1
 45
0.0
1001
ACAD
1000
AcDbSavedByObjectVersion
1070
     0
  0
VISUALSTYLE
  5
C2B0
102
{ACAD_XDICTIONARY
360
C312
102
}
102
{ACAD_REACTORS
330
C2A6
102
}
330
C2A6
100
AcDbVisualStyle
  2
Realistic
 70
     8
 71
     2
 72
     3
 73
     0
 90
        2
 40
-0.6
 41
30.0
 62
     5
 63
     7
 74
     0
 91
        0
 64
     7
 65
   257
 75
     1
175
     1
 42
1.0
 92
        8
 66
   257
 43
1.0
 76
     1
 77
     6
 78
     2
 67
     7
 79
     3
170
     0
171
     0
290
     0
174
     0
 93
       13
 44
0.0
173
     0
291
     0
 45
0.0
1001
ACAD
1000
AcDbSavedByObjectVersion
1070
     0
  0
VISUALSTYLE
  5
C2BB
102
{ACAD_XDICTIONARY
360
C328
102
}
102
{ACAD_REACTORS
330
C2A6
102
}
330
C2A6
100
AcDbVisualStyle
  2
Shaded
 70
    27
 71
     2
 72
     2
 73
     1
 90
        2
 40
-0.6
 41
30.0
 62
     5
 63
     7
 74
     0
 91
        4
 64
     7
 65
   257
 75
     1
175
     1
 42
1.0
 92
        8
 66
   257
 43
1.0
 76
     1
 77
     6
 78
     2
 67
     8
 79
     3
170
     0
171
     0
290
     0
174
     0
 93
        5
 44
0.0
173
     0
291
     0
 45
0.0
1001
ACAD
1000
AcDbSavedByObjectVersion
1070
     0
  0
VISUALSTYLE
  5
C2BA
102
{ACAD_XDICTIONARY
360
C326
102
}
102
{ACAD_REACTORS
330
C2A6
102
}
330
C2A6
100
AcDbVisualStyle
  2
Shaded with edges
 70
    26
 71
     2
 72
     2
 73
     1
 90
        2
 40
-0.6
 41
30.0
 62
     5
 63
     7
 74
     1
 91
       10
 64
     7
 65
   257
 75
     2
175
     1
 42
1.0
 92
        8
 66
   257
 43
1.0
 76
     1
 77
     6
 78
     2
 67
     7
 79
     3
170
     0
171
     0
290
     0
174
     0
 93
        5
 44
0.0
173
     0
291
     0
 45
0.0
1001
ACAD
1000
AcDbSavedByObjectVersion
1070
     0
  0
VISUALSTYLE
  5
C2B7
102
{ACAD_XDICTIONARY
360
C320
102
}
102
{ACAD_REACTORS
330
C2A6
102
}
330
C2A6
100
AcDbVisualStyle
  2
Shades of Gray
 70
    23
 71
     2
 72
     2
 73
     3
 90
        0
 40
-0.6
 41
-30.0
 62
     5
 63
     7
 74
     2
 91
        2
 64
     7
 65
     7
 75
     1
175
     1
 42
40.0
 92
        8
 66
     7
 43
1.0
 76
     1
 77
     6
 78
     2
 67
     7
 79
     3
170
     0
171
     0
290
     0
174
     0
 93
        1
 44
0.0
173
     0
291
     0
 45
0.0
1001
ACAD
1000
AcDbSavedByObjectVersion
1070
     0
  0
VISUALSTYLE
  5
C2B8
102
{ACAD_XDICTIONARY
360
C322
102
}
102
{ACAD_REACTORS
330
C2A6
102
}
330
C2A6
100
AcDbVisualStyle
  2
Sketchy
 70
    24
 71
     1
 72
     2
 73
     2
 90
        0
 40
-0.6
 41
-30.0
 62
     5
 63
     7
 74
     2
 91
        2
 64
     7
 65
     7
 75
     1
175
     1
 42
40.0
 92
       11
 66
     7
 43
1.0
 76
     1
 77
     6
 78
     2
 67
     7
 79
     6
170
     0
171
     0
290
     0
174
     0
 93
        1
 44
0.0
173
     0
291
     0
 45
0.0
1001
ACAD
1000
AcDbSavedByObjectVersion
1070
     0
  0
VISUALSTYLE
  5
C2B3
102
{ACAD_XDICTIONARY
360
C318
102
}
102
{ACAD_REACTORS
330
C2A6
102
}
330
C2A6
100
AcDbVisualStyle
  2
Thicken
 70
    13
 71
     2
 72
     2
 73
     0
 90
        0
 40
-0.6
 41
-30.0
 62
     5
 63
     7
 74
     1
 91
        4
 64
     7
 65
   257
 75
     1
175
     1
 42
1.0
 92
       12
 66
     7
 43
1.0
 76
     1
 77
     6
 78
     2
 67
     7
 79
     5
170
     0
171
     0
290
     0
174
     0
 93
        1
 44
0.0
173
     0
291
     1
 45
0.0
1001
ACAD
1000
AcDbSavedByObjectVersion
1070
     0
  0
VISUALSTYLE
  5
C2AD
102
{ACAD_XDICTIONARY
360
C30C
102
}
102
{ACAD_REACTORS
330
C2A6
102
}
330
C2A6
100
AcDbVisualStyle
  2
Wireframe
 70
     5
 71
     0
 72
     2
 73
     0
 90
        0
 40
-0.6
 41
-30.0
 62
     5
 63
     7
 74
     1
 91
        4
 64
     7
 65
   257
 75
     1
175
     1
 42
1.0
 92
        0
 66
   257
 43
1.0
 76
     1
 77
     6
 78
     2
 67
     7
 79
     3
170
     0
171
     0
290
     0
174
     0
 93
        1
 44
0.0
173
     0
291
     0
 45
0.0
1001
ACAD
1000
AcDbSavedByObjectVersion
1070
     0
  0
VISUALSTYLE
  5
C2B9
102
{ACAD_XDICTIONARY
360
C324
102
}
102
{ACAD_REACTORS
330
C2A6
102
}
330
C2A6
100
AcDbVisualStyle
  2
X-Ray
 70
    25
 71
     2
 72
     2
 73
     1
 90
        1
 40
0.5
 41
-30.0
 62
     5
 63
     7
 74
     1
 91
        0
 64
     7
 65
   257
 75
     1
175
     1
 42
1.0
 92
        8
 66
     7
 43
1.0
 76
     1
 77
     6
 78
     2
 67
     7
 79
     3
170
     0
171
     0
290
     0
174
     0
 93
       13
 44
0.0
173
     0
291
     0
 45
0.0
1001
ACAD
1000
AcDbSavedByObjectVersion
1070
     0
  0
DICTIONARYVAR
  5
C2F3
102
{ACAD_REACTORS
330
C2EE
102
}
330
C2EE
100
DictionaryVariables
280
     0
  1
1:1
  0
DICTIONARYVAR
  5
C2F0
102
{ACAD_REACTORS
330
C2EE
102
}
330
C2EE
100
DictionaryVariables
280
     0
  1
STANDARD
  0
DICTIONARYVAR
  5
C2EF
102
{ACAD_REACTORS
330
C2EE
102
}
330
C2EE
100
DictionaryVariables
280
     0
  1
STANDARD
  0
DICTIONARYVAR
  5
C2F1
102
{ACAD_REACTORS
330
C2EE
102
}
330
C2EE
100
DictionaryVariables
280
     0
  1
Imperial24
  0
DICTIONARYVAR
  5
C2F2
102
{ACAD_REACTORS
330
C2EE
102
}
330
C2EE
100
DictionaryVariables
280
     0
  1
Imperial24
  0
DICTIONARYVAR
  5
C2F6
102
{ACAD_REACTORS
330
C2EE
102
}
330
C2EE
100
DictionaryVariables
280
     0
  1
1
  0
DICTIONARYVAR
  5
C2F5
102
{ACAD_REACTORS
330
C2EE
102
}
330
C2EE
100
DictionaryVariables
280
     0
  1
0
  0
DICTIONARYVAR
  5
C2F4
102
{ACAD_REACTORS
330
C2EE
102
}
330
C2EE
100
DictionaryVariables
280
     0
  1
127
  0
DICTIONARYVAR
  5
C2F7
102
{ACAD_REACTORS
330
C2EE
102
}
330
C2EE
100
DictionaryVariables
280
     0
  1
2
  0
DICTIONARY
  5
C334
330
C2D9
100
AcDbDictionary
280
     1
281
     1
  3
ACAD_XREC_ROUNDTRIP
360
C335
  0
DICTIONARY
  5
C336
330
C2DA
100
AcDbDictionary
280
     1
281
     1
  3
ACAD_XREC_ROUNDTRIP
360
C337
  0
DICTIONARY
  5
C338
330
C2DB
100
AcDbDictionary
280
     1
281
     1
  3
ACAD_XREC_ROUNDTRIP
360
C339
  0
DICTIONARY
  5
C297
330
C296
100
AcDbDictionary
280
     1
281
     1
  3
ACAD_XREC_ROUNDTRIP
360
C2FE
  3
BUMPTILE
360
C299
  3
DIFFUSETILE
360
C298
  3
OPACITYTILE
360
C29C
  3
REFLECTIONTILE
360
C29B
  3
REFRACTIONTILE
360
C29D
  3
SPECULARTILE
360
C29A
  0
DICTIONARY
  5
C28F
330
C28E
100
AcDbDictionary
280
     1
281
     1
  3
ACAD_XREC_ROUNDTRIP
360
C2FD
  3
BUMPTILE
360
C291
  3
DIFFUSETILE
360
C290
  3
OPACITYTILE
360
C294
  3
REFLECTIONTILE
360
C293
  3
REFRACTIONTILE
360
C295
  3
SPECULARTILE
360
C292
  0
DICTIONARY
  5
C29F
330
C29E
100
AcDbDictionary
280
     1
281
     1
  3
ACAD_XREC_ROUNDTRIP
360
C2FF
  3
BUMPTILE
360
C2A1
  3
DIFFUSETILE
360
C2A0
  3
OPACITYTILE
360
C2A4
  3
REFLECTIONTILE
360
C2A3
  3
REFRACTIONTILE
360
C2A5
  3
SPECULARTILE
360
C2A2
  0
DICTIONARY
  5
C332
330
C2D7
100
AcDbDictionary
280
     1
281
     1
  3
ACAD_XREC_ROUNDTRIP
360
C333
  0
DICTIONARY
  5
C2F9
330
C2C1
100
AcDbDictionary
280
     1
281
     1
  3
ACAD_ROUNDTRIP_2008_TABLESTYLE_CELLSTYLEMAP
360
C2FA
  3
ACAD_XREC_ROUNDTRIP
360
C330
  0
DICTIONARY
  5
C30A
330
C2AC
100
AcDbDictionary
280
     1
281
     1
  3
ACAD_XREC_ROUNDTRIP
360
C30B
  0
DICTIONARY
  5
C308
330
C2AB
100
AcDbDictionary
280
     1
281
     1
  3
ACAD_XREC_ROUNDTRIP
360
C309
  0
DICTIONARY
  5
C316
330
C2B2
100
AcDbDictionary
280
     1
281
     1
  3
ACAD_XREC_ROUNDTRIP
360
C317
  0
DICTIONARY
  5
C31E
330
C2B6
100
AcDbDictionary
280
     1
281
     1
  3
ACAD_XREC_ROUNDTRIP
360
C31F
  0
DICTIONARY
  5
C310
330
C2AF
100
AcDbDictionary
280
     1
281
     1
  3
ACAD_XREC_ROUNDTRIP
360
C311
  0
DICTIONARY
  5
C314
330
C2B1
100
AcDbDictionary
280
     1
281
     1
  3
ACAD_XREC_ROUNDTRIP
360
C315
  0
DICTIONARY
  5
C32E
330
C2BE
100
AcDbDictionary
280
     1
281
     1
  3
ACAD_XREC_ROUNDTRIP
360
C32F
  0
DICTIONARY
  5
C31C
330
C2B5
100
AcDbDictionary
280
     1
281
     1
  3
ACAD_XREC_ROUNDTRIP
360
C31D
  0
DICTIONARY
  5
C300
330
C2A7
100
AcDbDictionary
280
     1
281
     1
  3
ACAD_XREC_ROUNDTRIP
360
C301
  0
DICTIONARY
  5
C302
330
C2A8
100
AcDbDictionary
280
     1
281
     1
  3
ACAD_XREC_ROUNDTRIP
360
C303
  0
DICTIONARY
  5
C304
330
C2A9
100
AcDbDictionary
280
     1
281
     1
  3
ACAD_XREC_ROUNDTRIP
360
C305
  0
DICTIONARY
  5
C306
330
C2AA
100
AcDbDictionary
280
     1
281
     1
  3
ACAD_XREC_ROUNDTRIP
360
C307
  0
DICTIONARY
  5
C30E
330
C2AE
100
AcDbDictionary
280
     1
281
     1
  3
ACAD_XREC_ROUNDTRIP
360
C30F
  0
DICTIONARY
  5
C32A
330
C2BC
100
AcDbDictionary
280
     1
281
     1
  3
ACAD_XREC_ROUNDTRIP
360
C32B
  0
DICTIONARY
  5
C31A
330
C2B4
100
AcDbDictionary
280
     1
281
     1
  3
ACAD_XREC_ROUNDTRIP
360
C31B
  0
DICTIONARY
  5
C32C
330
C2BD
100
AcDbDictionary
280
     1
281
     1
  3
ACAD_XREC_ROUNDTRIP
360
C32D
  0
DICTIONARY
  5
C312
330
C2B0
100
AcDbDictionary
280
     1
281
     1
  3
ACAD_XREC_ROUNDTRIP
360
C313
  0
DICTIONARY
  5
C328
330
C2BB
100
AcDbDictionary
280
     1
281
     1
  3
ACAD_XREC_ROUNDTRIP
360
C329
  0
DICTIONARY
  5
C326
330
C2BA
100
AcDbDictionary
280
     1
281
     1
  3
ACAD_XREC_ROUNDTRIP
360
C327
  0
DICTIONARY
  5
C320
330
C2B7
100
AcDbDictionary
280
     1
281
     1
  3
ACAD_XREC_ROUNDTRIP
360
C321
  0
DICTIONARY
  5
C322
330
C2B8
100
AcDbDictionary
280
     1
281
     1
  3
ACAD_XREC_ROUNDTRIP
360
C323
  0
DICTIONARY
  5
C318
330
C2B3
100
AcDbDictionary
280
     1
281
     1
  3
ACAD_XREC_ROUNDTRIP
360
C319
  0
DICTIONARY
  5
C30C
330
C2AD
100
AcDbDictionary
280
     1
281
     1
  3
ACAD_XREC_ROUNDTRIP
360
C30D
  0
DICTIONARY
  5
C324
330
C2B9
100
AcDbDictionary
280
     1
281
     1
  3
ACAD_XREC_ROUNDTRIP
360
C325
  0
XRECORD
  5
C335
102
{ACAD_REACTORS
330
C334
102
}
330
C334
100
AcDbXrecord
280
     1
102
DISPLAYNAME
  1
Imperial24
102
FLAGS
 90
        0
  0
XRECORD
  5
C337
102
{ACAD_REACTORS
330
C336
102
}
330
C336
100
AcDbXrecord
280
     1
102
SHADEPLOT
 70
     0
102
SHADEPLOTRESLEVEL
 70
     2
102
SHADEPLOTCUSTOMDPI
 70
   300
  0
XRECORD
  5
C339
102
{ACAD_REACTORS
330
C338
102
}
330
C338
100
AcDbXrecord
280
     1
102
SHADEPLOT
 70
     0
102
SHADEPLOTRESLEVEL
 70
     2
102
SHADEPLOTCUSTOMDPI
 70
   300
  0
XRECORD
  5
C2FE
102
{ACAD_REACTORS
330
C297
102
}
330
C297
100
AcDbXrecord
280
     1
102
MATERIAL
148
0.0
149
0.0
149
0.0
 93
        0
 94
      127
282
     0
 72
     0
 77
     0
171
     0
175
     0
179
     0
273
     0
  0
XRECORD
  5
C299
102
{ACAD_REACTORS
330
C297
102
}
330
C297
100
AcDbXrecord
280
     1
270
     1
271
     1
  0
XRECORD
  5
C298
102
{ACAD_REACTORS
330
C297
102
}
330
C297
100
AcDbXrecord
280
     1
270
     1
271
     1
  0
XRECORD
  5
C29C
102
{ACAD_REACTORS
330
C297
102
}
330
C297
100
AcDbXrecord
280
     1
270
     1
271
     1
  0
XRECORD
  5
C29B
102
{ACAD_REACTORS
330
C297
102
}
330
C297
100
AcDbXrecord
280
     1
270
     1
271
     1
  0
XRECORD
  5
C29D
102
{ACAD_REACTORS
330
C297
102
}
330
C297
100
AcDbXrecord
280
     1
270
     1
271
     1
  0
XRECORD
  5
C29A
102
{ACAD_REACTORS
330
C297
102
}
330
C297
100
AcDbXrecord
280
     1
270
     1
271
     1
  0
XRECORD
  5
C2FD
102
{ACAD_REACTORS
330
C28F
102
}
330
C28F
100
AcDbXrecord
280
     1
102
MATERIAL
148
0.0
149
0.0
149
0.0
 93
        0
 94
      127
282
     0
 72
     0
 77
     0
171
     0
175
     0
179
     0
273
     0
  0
XRECORD
  5
C291
102
{ACAD_REACTORS
330
C28F
102
}
330
C28F
100
AcDbXrecord
280
     1
270
     1
271
     1
  0
XRECORD
  5
C290
102
{ACAD_REACTORS
330
C28F
102
}
330
C28F
100
AcDbXrecord
280
     1
270
     1
271
     1
  0
XRECORD
  5
C294
102
{ACAD_REACTORS
330
C28F
102
}
330
C28F
100
AcDbXrecord
280
     1
270
     1
271
     1
  0
XRECORD
  5
C293
102
{ACAD_REACTORS
330
C28F
102
}
330
C28F
100
AcDbXrecord
280
     1
270
     1
271
     1
  0
XRECORD
  5
C295
102
{ACAD_REACTORS
330
C28F
102
}
330
C28F
100
AcDbXrecord
280
     1
270
     1
271
     1
  0
XRECORD
  5
C292
102
{ACAD_REACTORS
330
C28F
102
}
330
C28F
100
AcDbXrecord
280
     1
270
     1
271
     1
  0
XRECORD
  5
C2FF
102
{ACAD_REACTORS
330
C29F
102
}
330
C29F
100
AcDbXrecord
280
     1
102
MATERIAL
148
0.0
149
0.0
149
0.0
 93
        0
 94
      127
282
     0
 72
     0
 77
     0
171
     0
175
     0
179
     0
273
     0
  0
XRECORD
  5
C2A1
102
{ACAD_REACTORS
330
C29F
102
}
330
C29F
100
AcDbXrecord
280
     1
270
     1
271
     1
  0
XRECORD
  5
C2A0
102
{ACAD_REACTORS
330
C29F
102
}
330
C29F
100
AcDbXrecord
280
     1
270
     1
271
     1
  0
XRECORD
  5
C2A4
102
{ACAD_REACTORS
330
C29F
102
}
330
C29F
100
AcDbXrecord
280
     1
270
     1
271
     1
  0
XRECORD
  5
C2A3
102
{ACAD_REACTORS
330
C29F
102
}
330
C29F
100
AcDbXrecord
280
     1
270
     1
271
     1
  0
XRECORD
  5
C2A5
102
{ACAD_REACTORS
330
C29F
102
}
330
C29F
100
AcDbXrecord
280
     1
270
     1
271
     1
  0
XRECORD
  5
C2A2
102
{ACAD_REACTORS
330
C29F
102
}
330
C29F
100
AcDbXrecord
280
     1
270
     1
271
     1
  0
XRECORD
  5
C333
102
{ACAD_REACTORS
330
C332
102
}
330
C332
100
AcDbXrecord
280
     1
102
DISPLAYNAME
  1
Imperial24
102
FLAGS
 90
        0
  0
CELLSTYLEMAP
  5
C2FA
102
{ACAD_REACTORS
330
C2F9
102
}
330
C2F9
100
AcDbCellStyleMap
 90
        3
300
CELLSTYLE
  1
TABLEFORMAT_BEGIN
 90
        5
170
     1
 91
        0
 92
    32768
 62
   257
 93
        1
300
CONTENTFORMAT
  1
CONTENTFORMAT_BEGIN
 90
        0
 91
        0
 92
      512
 93
        0
300

 40
0.0
140
1.0
 94
        5
 62
     0
340
BE13
144
0.25
309
CONTENTFORMAT_END
171
     0
 94
        0
309
TABLEFORMAT_END
  1
CELLSTYLE_BEGIN
 90
        1
 91
        1
300
_TITLE
309
CELLSTYLE_END
300
CELLSTYLE
  1
TABLEFORMAT_BEGIN
 90
        5
170
     1
 91
        0
 92
        0
 62
   257
 93
        1
300
CONTENTFORMAT
  1
CONTENTFORMAT_BEGIN
 90
        0
 91
        0
 92
      512
 93
        0
300

 40
0.0
140
1.0
 94
        5
 62
     0
340
BE13
144
0.18
309
CONTENTFORMAT_END
171
     0
 94
        0
309
TABLEFORMAT_END
  1
CELLSTYLE_BEGIN
 90
        2
 91
        1
300
_HEADER
309
CELLSTYLE_END
300
CELLSTYLE
  1
TABLEFORMAT_BEGIN
 90
        5
170
     1
 91
        0
 92
        0
 62
   257
 93
        1
300
CONTENTFORMAT
  1
CONTENTFORMAT_BEGIN
 90
        0
 91
        0
 92
      512
 93
        0
300

 40
0.0
140
1.0
 94
        2
 62
     0
340
BE13
144
0.18
309
CONTENTFORMAT_END
171
     0
 94
        0
309
TABLEFORMAT_END
  1
CELLSTYLE_BEGIN
 90
        3
 91
        2
300
_DATA
309
CELLSTYLE_END
  0
XRECORD
  5
C330
102
{ACAD_REACTORS
330
C2F9
102
}
330
C2F9
100
AcDbXrecord
280
     1
102
ACAD_ROUNDTRIP_PRE2007_TABLESTYLE
 90
      512
 91
        0
  1

 92
      512
 93
        0
  2

 94
      512
 95
        0
  3

  0
XRECORD
  5
C30B
102
{ACAD_REACTORS
330
C30A
102
}
330
C30A
100
AcDbXrecord
280
     1
102
RTVSPost2010Prop28
280
     1
102
RTVSPost2010PropOp28
 70
     1
102
RTVSPost2010Prop29
280
     1
102
RTVSPost2010PropOp29
 70
     1
102
RTVSPost2010Prop30
280
     0
102
RTVSPost2010PropOp30
 70
     1
102
RTVSPost2010Prop31
280
     0
102
RTVSPost2010PropOp31
 70
     1
102
RTVSPost2010Prop32
280
     0
102
RTVSPost2010PropOp32
 70
     1
102
RTVSPost2010Prop33
280
     0
102
RTVSPost2010PropOp33
 70
     1
102
RTVSPost2010Prop34
280
     0
102
RTVSPost2010PropOp34
 70
     1
102
RTVSPost2010Prop35
280
     0
102
RTVSPost2010PropOp35
 70
     1
102
RTVSPost2010Prop36
280
     0
102
RTVSPost2010PropOp36
 70
     1
102
RTVSPost2010Prop37
 90
       50
102
RTVSPost2010PropOp37
 70
     1
102
RTVSPost2010Prop38
140
0.0
102
RTVSPost2010PropOp38
 70
     1
102
RTVSPost2010Prop39
140
1.0
102
RTVSPost2010PropOp39
 70
     1
102
RTVSPost2010Prop40
 90
        0
102
RTVSPost2010PropOp40
 70
     1
102
RTVSPost2010Prop41ColorIndex
 90
       18
102
RTVSPost2010Prop41ColorRGB
 90
        0
102
RTVSPost2010PropOp41
 70
     1
102
RTVSPost2010Prop42
 90
       50
102
RTVSPost2010PropOp42
 70
     1
102
RTVSPost2010Prop43
 90
        3
102
RTVSPost2010PropOp43
 70
     1
102
RTVSPost2010Prop44ColorIndex
 90
        5
102
RTVSPost2010Prop44ColorRGB
 90
      255
102
RTVSPost2010PropOp44
 70
     1
102
RTVSPost2010Prop45
280
     0
102
RTVSPost2010PropOp45
 70
     1
102
RTVSPost2010Prop46
 90
       50
102
RTVSPost2010PropOp46
 70
     1
102
RTVSPost2010Prop47
 90
       50
102
RTVSPost2010PropOp47
 70
     1
102
RTVSPost2010Prop48
 90
       50
102
RTVSPost2010PropOp48
 70
     1
102
RTVSPost2010Prop49
280
     0
102
RTVSPost2010PropOp49
 70
     1
102
RTVSPost2010Prop50
 90
       50
102
RTVSPost2010PropOp50
 70
     1
102
RTVSPost2010Prop51ColorIndex
 90
      256
102
RTVSPost2010Prop51ColorRGB
 90
-16777216
102
RTVSPost2010PropOp51
 70
     0
102
RTVSPost2010Prop52
140
1.0
102
RTVSPost2010PropOp52
 70
     0
102
RTVSPost2010Prop53
 90
        2
102
RTVSPost2010PropOp53
 70
     1
102
RTVSPost2010Prop54
  1
strokes_ogs.tif
102
RTVSPost2010PropOp54
 70
     1
102
RTVSPost2010Prop55
280
     0
102
RTVSPost2010PropOp55
 70
     1
102
RTVSPost2010Prop56
140
1.0
102
RTVSPost2010PropOp56
 70
     1
102
RTVSPost2010Prop57
140
1.0
102
RTVSPost2010PropOp57
 70
     1
102
RTVSPropertyOp0
 70
     1
102
RTVSPropertyOp1
 70
     1
102
RTVSPropertyOp2
 70
     1
102
RTVSPropertyOp3
 70
     1
102
RTVSPropertyOp4
 70
     1
102
RTVSPropertyOp5
 70
     1
102
RTVSPropertyOp6
 70
     1
102
RTVSPropertyOp7
 70
     1
102
RTVSPropertyOp8
 70
     1
102
RTVSPropertyOp9
 70
     1
102
RTVSPropertyOp10
 70
     1
102
RTVSPropertyOp11
 70
     1
102
RTVSPropertyOp12
 70
     1
102
RTVSPropertyOp13
 70
     1
102
RTVSPropertyOp14
 70
     1
102
RTVSPropertyOp15
 70
     1
102
RTVSPropertyOp16
 70
     1
102
RTVSPropertyOp17
 70
     1
102
RTVSPropertyOp18
 70
     1
102
RTVSPropertyOp19
 70
     1
102
RTVSPropertyOp20
 70
     1
102
RTVSPropertyOp21
 70
     1
102
RTVSPropertyOp22
 70
     1
102
RTVSPropertyOp23
 70
     1
102
RTVSPropertyOp24
 70
     1
102
RTVSPropertyOp25
 70
     1
102
RTVSPropertyOp26
 70
     1
102
RTVSPropertyOp27
 70
     1
102
RTVSPropertyOp28
 70
     1
102
RTVSPropertyOp29
 70
     1
102
RTVSPropertyOp30
 70
     1
102
RTVSPropertyOp31
 70
     1
102
RTVSPropertyOp32
 70
     1
102
RTVSPropertyOp33
 70
     1
102
RTVSPropertyOp34
 70
     1
102
RTVSPropertyOp35
 70
     1
102
RTVSPropertyOp36
 70
     1
102
RTVSPropertyOp37
 70
     1
102
RTVSPropertyOp38
 70
     1
102
RTVSPropertyOp39
 70
     1
102
RTVSPropertyOp40
 70
     1
102
RTVSPropertyOp41
 70
     1
102
RTVSPropertyOp42
 70
     1
102
RTVSPropertyOp43
 70
     1
102
RTVSPropertyOp44
 70
     1
102
RTVSPropertyOp45
 70
     1
102
RTVSPropertyOp46
 70
     1
102
RTVSPropertyOp47
 70
     1
102
RTVSPropertyOp48
 70
     1
102
RTVSPropertyOp49
 70
     1
102
RTVSPropertyOp50
 70
     1
102
RTVSPropertyOp51
 70
     0
102
RTVSPropertyOp52
 70
     0
102
RTVSPropertyOp53
 70
     1
102
RTVSPropertyOp54
 70
     1
102
RTVSPropertyOp55
 70
     1
102
RTVSPropertyOp56
 70
     1
102
RTVSPropertyOp57
 70
     1
102
RTVSPropertyOp58
 70
     1
102
RTVSPropertyOp59
 70
     1
102
RTVSPropertyOp60
 70
     1
102
RTVSPropertyOp61
 70
     1
102
RTVSPropertyOp62
 70
     1
  0
XRECORD
  5
C309
102
{ACAD_REACTORS
330
C308
102
}
330
C308
100
AcDbXrecord
280
     1
102
RTVSPost2010Prop28
280
     0
102
RTVSPost2010PropOp28
 70
     1
102
RTVSPost2010Prop29
280
     1
102
RTVSPost2010PropOp29
 70
     1
102
RTVSPost2010Prop30
280
     1
102
RTVSPost2010PropOp30
 70
     1
102
RTVSPost2010Prop31
280
     0
102
RTVSPost2010PropOp31
 70
     1
102
RTVSPost2010Prop32
280
     0
102
RTVSPost2010PropOp32
 70
     1
102
RTVSPost2010Prop33
280
     0
102
RTVSPost2010PropOp33
 70
     1
102
RTVSPost2010Prop34
280
     0
102
RTVSPost2010PropOp34
 70
     1
102
RTVSPost2010Prop35
280
     0
102
RTVSPost2010PropOp35
 70
     1
102
RTVSPost2010Prop36
280
     0
102
RTVSPost2010PropOp36
 70
     1
102
RTVSPost2010Prop37
 90
       50
102
RTVSPost2010PropOp37
 70
     1
102
RTVSPost2010Prop38
140
0.0
102
RTVSPost2010PropOp38
 70
     1
102
RTVSPost2010Prop39
140
1.0
102
RTVSPost2010PropOp39
 70
     1
102
RTVSPost2010Prop40
 90
        0
102
RTVSPost2010PropOp40
 70
     1
102
RTVSPost2010Prop41ColorIndex
 90
       18
102
RTVSPost2010Prop41ColorRGB
 90
        0
102
RTVSPost2010PropOp41
 70
     1
102
RTVSPost2010Prop42
 90
       50
102
RTVSPost2010PropOp42
 70
     1
102
RTVSPost2010Prop43
 90
        3
102
RTVSPost2010PropOp43
 70
     1
102
RTVSPost2010Prop44ColorIndex
 90
        5
102
RTVSPost2010Prop44ColorRGB
 90
      255
102
RTVSPost2010PropOp44
 70
     1
102
RTVSPost2010Prop45
280
     0
102
RTVSPost2010PropOp45
 70
     1
102
RTVSPost2010Prop46
 90
       50
102
RTVSPost2010PropOp46
 70
     1
102
RTVSPost2010Prop47
 90
       50
102
RTVSPost2010PropOp47
 70
     1
102
RTVSPost2010Prop48
 90
       50
102
RTVSPost2010PropOp48
 70
     1
102
RTVSPost2010Prop49
280
     0
102
RTVSPost2010PropOp49
 70
     1
102
RTVSPost2010Prop50
 90
       50
102
RTVSPost2010PropOp50
 70
     1
102
RTVSPost2010Prop51ColorIndex
 90
      256
102
RTVSPost2010Prop51ColorRGB
 90
-16777216
102
RTVSPost2010PropOp51
 70
     0
102
RTVSPost2010Prop52
140
1.0
102
RTVSPost2010PropOp52
 70
     0
102
RTVSPost2010Prop53
 90
        2
102
RTVSPost2010PropOp53
 70
     1
102
RTVSPost2010Prop54
  1
strokes_ogs.tif
102
RTVSPost2010PropOp54
 70
     1
102
RTVSPost2010Prop55
280
     0
102
RTVSPost2010PropOp55
 70
     1
102
RTVSPost2010Prop56
140
1.0
102
RTVSPost2010PropOp56
 70
     1
102
RTVSPost2010Prop57
140
1.0
102
RTVSPost2010PropOp57
 70
     1
102
RTVSPropertyOp0
 70
     1
102
RTVSPropertyOp1
 70
     1
102
RTVSPropertyOp2
 70
     1
102
RTVSPropertyOp3
 70
     1
102
RTVSPropertyOp4
 70
     1
102
RTVSPropertyOp5
 70
     1
102
RTVSPropertyOp6
 70
     1
102
RTVSPropertyOp7
 70
     1
102
RTVSPropertyOp8
 70
     1
102
RTVSPropertyOp9
 70
     1
102
RTVSPropertyOp10
 70
     1
102
RTVSPropertyOp11
 70
     1
102
RTVSPropertyOp12
 70
     1
102
RTVSPropertyOp13
 70
     1
102
RTVSPropertyOp14
 70
     1
102
RTVSPropertyOp15
 70
     1
102
RTVSPropertyOp16
 70
     1
102
RTVSPropertyOp17
 70
     1
102
RTVSPropertyOp18
 70
     1
102
RTVSPropertyOp19
 70
     1
102
RTVSPropertyOp20
 70
     1
102
RTVSPropertyOp21
 70
     1
102
RTVSPropertyOp22
 70
     1
102
RTVSPropertyOp23
 70
     1
102
RTVSPropertyOp24
 70
     1
102
RTVSPropertyOp25
 70
     1
102
RTVSPropertyOp26
 70
     1
102
RTVSPropertyOp27
 70
     1
102
RTVSPropertyOp28
 70
     1
102
RTVSPropertyOp29
 70
     1
102
RTVSPropertyOp30
 70
     1
102
RTVSPropertyOp31
 70
     1
102
RTVSPropertyOp32
 70
     1
102
RTVSPropertyOp33
 70
     1
102
RTVSPropertyOp34
 70
     1
102
RTVSPropertyOp35
 70
     1
102
RTVSPropertyOp36
 70
     1
102
RTVSPropertyOp37
 70
     1
102
RTVSPropertyOp38
 70
     1
102
RTVSPropertyOp39
 70
     1
102
RTVSPropertyOp40
 70
     1
102
RTVSPropertyOp41
 70
     1
102
RTVSPropertyOp42
 70
     1
102
RTVSPropertyOp43
 70
     1
102
RTVSPropertyOp44
 70
     1
102
RTVSPropertyOp45
 70
     1
102
RTVSPropertyOp46
 70
     1
102
RTVSPropertyOp47
 70
     1
102
RTVSPropertyOp48
 70
     1
102
RTVSPropertyOp49
 70
     1
102
RTVSPropertyOp50
 70
     1
102
RTVSPropertyOp51
 70
     0
102
RTVSPropertyOp52
 70
     0
102
RTVSPropertyOp53
 70
     1
102
RTVSPropertyOp54
 70
     1
102
RTVSPropertyOp55
 70
     1
102
RTVSPropertyOp56
 70
     1
102
RTVSPropertyOp57
 70
     1
102
RTVSPropertyOp58
 70
     1
102
RTVSPropertyOp59
 70
     1
102
RTVSPropertyOp60
 70
     1
102
RTVSPropertyOp61
 70
     1
102
RTVSPropertyOp62
 70
     1
  0
XRECORD
  5
C317
102
{ACAD_REACTORS
330
C316
102
}
330
C316
100
AcDbXrecord
280
     1
102
RTVSPost2010Prop28
280
     0
102
RTVSPost2010PropOp28
 70
     1
102
RTVSPost2010Prop29
280
     1
102
RTVSPost2010PropOp29
 70
     1
102
RTVSPost2010Prop30
280
     1
102
RTVSPost2010PropOp30
 70
     1
102
RTVSPost2010Prop31
280
     0
102
RTVSPost2010PropOp31
 70
     1
102
RTVSPost2010Prop32
280
     0
102
RTVSPost2010PropOp32
 70
     1
102
RTVSPost2010Prop33
280
     0
102
RTVSPost2010PropOp33
 70
     1
102
RTVSPost2010Prop34
280
     0
102
RTVSPost2010PropOp34
 70
     1
102
RTVSPost2010Prop35
280
     0
102
RTVSPost2010PropOp35
 70
     1
102
RTVSPost2010Prop36
280
     0
102
RTVSPost2010PropOp36
 70
     1
102
RTVSPost2010Prop37
 90
       50
102
RTVSPost2010PropOp37
 70
     1
102
RTVSPost2010Prop38
140
0.0
102
RTVSPost2010PropOp38
 70
     1
102
RTVSPost2010Prop39
140
1.0
102
RTVSPost2010PropOp39
 70
     1
102
RTVSPost2010Prop40
 90
        0
102
RTVSPost2010PropOp40
 70
     1
102
RTVSPost2010Prop41ColorIndex
 90
       18
102
RTVSPost2010Prop41ColorRGB
 90
        0
102
RTVSPost2010PropOp41
 70
     1
102
RTVSPost2010Prop42
 90
       50
102
RTVSPost2010PropOp42
 70
     1
102
RTVSPost2010Prop43
 90
        3
102
RTVSPost2010PropOp43
 70
     1
102
RTVSPost2010Prop44ColorIndex
 90
        5
102
RTVSPost2010Prop44ColorRGB
 90
      255
102
RTVSPost2010PropOp44
 70
     1
102
RTVSPost2010Prop45
280
     0
102
RTVSPost2010PropOp45
 70
     1
102
RTVSPost2010Prop46
 90
       50
102
RTVSPost2010PropOp46
 70
     1
102
RTVSPost2010Prop47
 90
       50
102
RTVSPost2010PropOp47
 70
     1
102
RTVSPost2010Prop48
 90
       50
102
RTVSPost2010PropOp48
 70
     1
102
RTVSPost2010Prop49
280
     0
102
RTVSPost2010PropOp49
 70
     1
102
RTVSPost2010Prop50
 90
       50
102
RTVSPost2010PropOp50
 70
     1
102
RTVSPost2010Prop51ColorIndex
 90
      256
102
RTVSPost2010Prop51ColorRGB
 90
-16777216
102
RTVSPost2010PropOp51
 70
     0
102
RTVSPost2010Prop52
140
1.0
102
RTVSPost2010PropOp52
 70
     0
102
RTVSPost2010Prop53
 90
        2
102
RTVSPost2010PropOp53
 70
     1
102
RTVSPost2010Prop54
  1
strokes_ogs.tif
102
RTVSPost2010PropOp54
 70
     1
102
RTVSPost2010Prop55
280
     0
102
RTVSPost2010PropOp55
 70
     1
102
RTVSPost2010Prop56
140
1.0
102
RTVSPost2010PropOp56
 70
     1
102
RTVSPost2010Prop57
140
1.0
102
RTVSPost2010PropOp57
 70
     1
102
RTVSPropertyOp0
 70
     1
102
RTVSPropertyOp1
 70
     1
102
RTVSPropertyOp2
 70
     1
102
RTVSPropertyOp3
 70
     1
102
RTVSPropertyOp4
 70
     1
102
RTVSPropertyOp5
 70
     1
102
RTVSPropertyOp6
 70
     1
102
RTVSPropertyOp7
 70
     1
102
RTVSPropertyOp8
 70
     1
102
RTVSPropertyOp9
 70
     1
102
RTVSPropertyOp10
 70
     1
102
RTVSPropertyOp11
 70
     1
102
RTVSPropertyOp12
 70
     1
102
RTVSPropertyOp13
 70
     1
102
RTVSPropertyOp14
 70
     1
102
RTVSPropertyOp15
 70
     1
102
RTVSPropertyOp16
 70
     1
102
RTVSPropertyOp17
 70
     1
102
RTVSPropertyOp18
 70
     1
102
RTVSPropertyOp19
 70
     1
102
RTVSPropertyOp20
 70
     1
102
RTVSPropertyOp21
 70
     1
102
RTVSPropertyOp22
 70
     1
102
RTVSPropertyOp23
 70
     1
102
RTVSPropertyOp24
 70
     1
102
RTVSPropertyOp25
 70
     1
102
RTVSPropertyOp26
 70
     1
102
RTVSPropertyOp27
 70
     1
102
RTVSPropertyOp28
 70
     1
102
RTVSPropertyOp29
 70
     1
102
RTVSPropertyOp30
 70
     1
102
RTVSPropertyOp31
 70
     1
102
RTVSPropertyOp32
 70
     1
102
RTVSPropertyOp33
 70
     1
102
RTVSPropertyOp34
 70
     1
102
RTVSPropertyOp35
 70
     1
102
RTVSPropertyOp36
 70
     1
102
RTVSPropertyOp37
 70
     1
102
RTVSPropertyOp38
 70
     1
102
RTVSPropertyOp39
 70
     1
102
RTVSPropertyOp40
 70
     1
102
RTVSPropertyOp41
 70
     1
102
RTVSPropertyOp42
 70
     1
102
RTVSPropertyOp43
 70
     1
102
RTVSPropertyOp44
 70
     1
102
RTVSPropertyOp45
 70
     1
102
RTVSPropertyOp46
 70
     1
102
RTVSPropertyOp47
 70
     1
102
RTVSPropertyOp48
 70
     1
102
RTVSPropertyOp49
 70
     1
102
RTVSPropertyOp50
 70
     1
102
RTVSPropertyOp51
 70
     0
102
RTVSPropertyOp52
 70
     0
102
RTVSPropertyOp53
 70
     1
102
RTVSPropertyOp54
 70
     1
102
RTVSPropertyOp55
 70
     1
102
RTVSPropertyOp56
 70
     1
102
RTVSPropertyOp57
 70
     1
102
RTVSPropertyOp58
 70
     1
102
RTVSPropertyOp59
 70
     1
102
RTVSPropertyOp60
 70
     1
102
RTVSPropertyOp61
 70
     1
102
RTVSPropertyOp62
 70
     1
  0
XRECORD
  5
C31F
102
{ACAD_REACTORS
330
C31E
102
}
330
C31E
100
AcDbXrecord
280
     1
102
RTVSPost2010Prop28
280
     0
102
RTVSPost2010PropOp28
 70
     1
102
RTVSPost2010Prop29
280
     1
102
RTVSPost2010PropOp29
 70
     1
102
RTVSPost2010Prop30
280
     1
102
RTVSPost2010PropOp30
 70
     1
102
RTVSPost2010Prop31
280
     0
102
RTVSPost2010PropOp31
 70
     1
102
RTVSPost2010Prop32
280
     0
102
RTVSPost2010PropOp32
 70
     1
102
RTVSPost2010Prop33
280
     0
102
RTVSPost2010PropOp33
 70
     1
102
RTVSPost2010Prop34
280
     0
102
RTVSPost2010PropOp34
 70
     1
102
RTVSPost2010Prop35
280
     0
102
RTVSPost2010PropOp35
 70
     1
102
RTVSPost2010Prop36
280
     0
102
RTVSPost2010PropOp36
 70
     1
102
RTVSPost2010Prop37
 90
       50
102
RTVSPost2010PropOp37
 70
     1
102
RTVSPost2010Prop38
140
0.0
102
RTVSPost2010PropOp38
 70
     1
102
RTVSPost2010Prop39
140
1.0
102
RTVSPost2010PropOp39
 70
     1
102
RTVSPost2010Prop40
 90
        0
102
RTVSPost2010PropOp40
 70
     1
102
RTVSPost2010Prop41ColorIndex
 90
       18
102
RTVSPost2010Prop41ColorRGB
 90
        0
102
RTVSPost2010PropOp41
 70
     1
102
RTVSPost2010Prop42
 90
       50
102
RTVSPost2010PropOp42
 70
     1
102
RTVSPost2010Prop43
 90
        3
102
RTVSPost2010PropOp43
 70
     1
102
RTVSPost2010Prop44ColorIndex
 90
        5
102
RTVSPost2010Prop44ColorRGB
 90
      255
102
RTVSPost2010PropOp44
 70
     1
102
RTVSPost2010Prop45
280
     0
102
RTVSPost2010PropOp45
 70
     1
102
RTVSPost2010Prop46
 90
       50
102
RTVSPost2010PropOp46
 70
     1
102
RTVSPost2010Prop47
 90
       50
102
RTVSPost2010PropOp47
 70
     1
102
RTVSPost2010Prop48
 90
       50
102
RTVSPost2010PropOp48
 70
     1
102
RTVSPost2010Prop49
280
     0
102
RTVSPost2010PropOp49
 70
     1
102
RTVSPost2010Prop50
 90
       50
102
RTVSPost2010PropOp50
 70
     1
102
RTVSPost2010Prop51ColorIndex
 90
      256
102
RTVSPost2010Prop51ColorRGB
 90
-16777216
102
RTVSPost2010PropOp51
 70
     0
102
RTVSPost2010Prop52
140
1.0
102
RTVSPost2010PropOp52
 70
     0
102
RTVSPost2010Prop53
 90
        2
102
RTVSPost2010PropOp53
 70
     1
102
RTVSPost2010Prop54
  1
strokes_ogs.tif
102
RTVSPost2010PropOp54
 70
     1
102
RTVSPost2010Prop55
280
     0
102
RTVSPost2010PropOp55
 70
     1
102
RTVSPost2010Prop56
140
1.0
102
RTVSPost2010PropOp56
 70
     1
102
RTVSPost2010Prop57
140
1.0
102
RTVSPost2010PropOp57
 70
     1
102
RTVSPropertyOp0
 70
     1
102
RTVSPropertyOp1
 70
     1
102
RTVSPropertyOp2
 70
     1
102
RTVSPropertyOp3
 70
     1
102
RTVSPropertyOp4
 70
     1
102
RTVSPropertyOp5
 70
     1
102
RTVSPropertyOp6
 70
     1
102
RTVSPropertyOp7
 70
     1
102
RTVSPropertyOp8
 70
     1
102
RTVSPropertyOp9
 70
     1
102
RTVSPropertyOp10
 70
     1
102
RTVSPropertyOp11
 70
     1
102
RTVSPropertyOp12
 70
     1
102
RTVSPropertyOp13
 70
     1
102
RTVSPropertyOp14
 70
     1
102
RTVSPropertyOp15
 70
     1
102
RTVSPropertyOp16
 70
     1
102
RTVSPropertyOp17
 70
     1
102
RTVSPropertyOp18
 70
     1
102
RTVSPropertyOp19
 70
     1
102
RTVSPropertyOp20
 70
     1
102
RTVSPropertyOp21
 70
     1
102
RTVSPropertyOp22
 70
     1
102
RTVSPropertyOp23
 70
     1
102
RTVSPropertyOp24
 70
     1
102
RTVSPropertyOp25
 70
     1
102
RTVSPropertyOp26
 70
     1
102
RTVSPropertyOp27
 70
     1
102
RTVSPropertyOp28
 70
     1
102
RTVSPropertyOp29
 70
     1
102
RTVSPropertyOp30
 70
     1
102
RTVSPropertyOp31
 70
     1
102
RTVSPropertyOp32
 70
     1
102
RTVSPropertyOp33
 70
     1
102
RTVSPropertyOp34
 70
     1
102
RTVSPropertyOp35
 70
     1
102
RTVSPropertyOp36
 70
     1
102
RTVSPropertyOp37
 70
     1
102
RTVSPropertyOp38
 70
     1
102
RTVSPropertyOp39
 70
     1
102
RTVSPropertyOp40
 70
     1
102
RTVSPropertyOp41
 70
     1
102
RTVSPropertyOp42
 70
     1
102
RTVSPropertyOp43
 70
     1
102
RTVSPropertyOp44
 70
     1
102
RTVSPropertyOp45
 70
     1
102
RTVSPropertyOp46
 70
     1
102
RTVSPropertyOp47
 70
     1
102
RTVSPropertyOp48
 70
     1
102
RTVSPropertyOp49
 70
     1
102
RTVSPropertyOp50
 70
     1
102
RTVSPropertyOp51
 70
     0
102
RTVSPropertyOp52
 70
     0
102
RTVSPropertyOp53
 70
     1
102
RTVSPropertyOp54
 70
     1
102
RTVSPropertyOp55
 70
     1
102
RTVSPropertyOp56
 70
     1
102
RTVSPropertyOp57
 70
     1
102
RTVSPropertyOp58
 70
     1
102
RTVSPropertyOp59
 70
     1
102
RTVSPropertyOp60
 70
     1
102
RTVSPropertyOp61
 70
     1
102
RTVSPropertyOp62
 70
     1
  0
XRECORD
  5
C311
102
{ACAD_REACTORS
330
C310
102
}
330
C310
100
AcDbXrecord
280
     1
102
RTVSPost2010Prop28
280
     0
102
RTVSPost2010PropOp28
 70
     1
102
RTVSPost2010Prop29
280
     1
102
RTVSPost2010PropOp29
 70
     1
102
RTVSPost2010Prop30
280
     1
102
RTVSPost2010PropOp30
 70
     1
102
RTVSPost2010Prop31
280
     0
102
RTVSPost2010PropOp31
 70
     1
102
RTVSPost2010Prop32
280
     0
102
RTVSPost2010PropOp32
 70
     1
102
RTVSPost2010Prop33
280
     0
102
RTVSPost2010PropOp33
 70
     1
102
RTVSPost2010Prop34
280
     0
102
RTVSPost2010PropOp34
 70
     1
102
RTVSPost2010Prop35
280
     0
102
RTVSPost2010PropOp35
 70
     1
102
RTVSPost2010Prop36
280
     0
102
RTVSPost2010PropOp36
 70
     1
102
RTVSPost2010Prop37
 90
       50
102
RTVSPost2010PropOp37
 70
     1
102
RTVSPost2010Prop38
140
0.0
102
RTVSPost2010PropOp38
 70
     1
102
RTVSPost2010Prop39
140
1.0
102
RTVSPost2010PropOp39
 70
     1
102
RTVSPost2010Prop40
 90
        0
102
RTVSPost2010PropOp40
 70
     1
102
RTVSPost2010Prop41ColorIndex
 90
       18
102
RTVSPost2010Prop41ColorRGB
 90
        0
102
RTVSPost2010PropOp41
 70
     1
102
RTVSPost2010Prop42
 90
       50
102
RTVSPost2010PropOp42
 70
     1
102
RTVSPost2010Prop43
 90
        3
102
RTVSPost2010PropOp43
 70
     1
102
RTVSPost2010Prop44ColorIndex
 90
        5
102
RTVSPost2010Prop44ColorRGB
 90
      255
102
RTVSPost2010PropOp44
 70
     1
102
RTVSPost2010Prop45
280
     0
102
RTVSPost2010PropOp45
 70
     1
102
RTVSPost2010Prop46
 90
       50
102
RTVSPost2010PropOp46
 70
     1
102
RTVSPost2010Prop47
 90
       50
102
RTVSPost2010PropOp47
 70
     1
102
RTVSPost2010Prop48
 90
       50
102
RTVSPost2010PropOp48
 70
     1
102
RTVSPost2010Prop49
280
     0
102
RTVSPost2010PropOp49
 70
     1
102
RTVSPost2010Prop50
 90
       50
102
RTVSPost2010PropOp50
 70
     1
102
RTVSPost2010Prop51ColorIndex
 90
      256
102
RTVSPost2010Prop51ColorRGB
 90
-16777216
102
RTVSPost2010PropOp51
 70
     0
102
RTVSPost2010Prop52
140
1.0
102
RTVSPost2010PropOp52
 70
     0
102
RTVSPost2010Prop53
 90
        2
102
RTVSPost2010PropOp53
 70
     1
102
RTVSPost2010Prop54
  1
strokes_ogs.tif
102
RTVSPost2010PropOp54
 70
     1
102
RTVSPost2010Prop55
280
     0
102
RTVSPost2010PropOp55
 70
     1
102
RTVSPost2010Prop56
140
1.0
102
RTVSPost2010PropOp56
 70
     1
102
RTVSPost2010Prop57
140
1.0
102
RTVSPost2010PropOp57
 70
     1
102
RTVSPropertyOp0
 70
     1
102
RTVSPropertyOp1
 70
     1
102
RTVSPropertyOp2
 70
     1
102
RTVSPropertyOp3
 70
     1
102
RTVSPropertyOp4
 70
     1
102
RTVSPropertyOp5
 70
     1
102
RTVSPropertyOp6
 70
     1
102
RTVSPropertyOp7
 70
     1
102
RTVSPropertyOp8
 70
     1
102
RTVSPropertyOp9
 70
     1
102
RTVSPropertyOp10
 70
     1
102
RTVSPropertyOp11
 70
     1
102
RTVSPropertyOp12
 70
     1
102
RTVSPropertyOp13
 70
     1
102
RTVSPropertyOp14
 70
     1
102
RTVSPropertyOp15
 70
     1
102
RTVSPropertyOp16
 70
     1
102
RTVSPropertyOp17
 70
     1
102
RTVSPropertyOp18
 70
     1
102
RTVSPropertyOp19
 70
     1
102
RTVSPropertyOp20
 70
     1
102
RTVSPropertyOp21
 70
     1
102
RTVSPropertyOp22
 70
     1
102
RTVSPropertyOp23
 70
     1
102
RTVSPropertyOp24
 70
     1
102
RTVSPropertyOp25
 70
     1
102
RTVSPropertyOp26
 70
     1
102
RTVSPropertyOp27
 70
     1
102
RTVSPropertyOp28
 70
     1
102
RTVSPropertyOp29
 70
     1
102
RTVSPropertyOp30
 70
     1
102
RTVSPropertyOp31
 70
     1
102
RTVSPropertyOp32
 70
     1
102
RTVSPropertyOp33
 70
     1
102
RTVSPropertyOp34
 70
     1
102
RTVSPropertyOp35
 70
     1
102
RTVSPropertyOp36
 70
     1
102
RTVSPropertyOp37
 70
     1
102
RTVSPropertyOp38
 70
     1
102
RTVSPropertyOp39
 70
     1
102
RTVSPropertyOp40
 70
     1
102
RTVSPropertyOp41
 70
     1
102
RTVSPropertyOp42
 70
     1
102
RTVSPropertyOp43
 70
     1
102
RTVSPropertyOp44
 70
     1
102
RTVSPropertyOp45
 70
     1
102
RTVSPropertyOp46
 70
     1
102
RTVSPropertyOp47
 70
     1
102
RTVSPropertyOp48
 70
     1
102
RTVSPropertyOp49
 70
     1
102
RTVSPropertyOp50
 70
     1
102
RTVSPropertyOp51
 70
     0
102
RTVSPropertyOp52
 70
     0
102
RTVSPropertyOp53
 70
     1
102
RTVSPropertyOp54
 70
     1
102
RTVSPropertyOp55
 70
     1
102
RTVSPropertyOp56
 70
     1
102
RTVSPropertyOp57
 70
     1
102
RTVSPropertyOp58
 70
     1
102
RTVSPropertyOp59
 70
     1
102
RTVSPropertyOp60
 70
     1
102
RTVSPropertyOp61
 70
     1
102
RTVSPropertyOp62
 70
     1
  0
XRECORD
  5
C315
102
{ACAD_REACTORS
330
C314
102
}
330
C314
100
AcDbXrecord
280
     1
102
RTVSPost2010Prop28
280
     0
102
RTVSPost2010PropOp28
 70
     1
102
RTVSPost2010Prop29
280
     1
102
RTVSPost2010PropOp29
 70
     1
102
RTVSPost2010Prop30
280
     1
102
RTVSPost2010PropOp30
 70
     1
102
RTVSPost2010Prop31
280
     0
102
RTVSPost2010PropOp31
 70
     1
102
RTVSPost2010Prop32
280
     0
102
RTVSPost2010PropOp32
 70
     1
102
RTVSPost2010Prop33
280
     0
102
RTVSPost2010PropOp33
 70
     1
102
RTVSPost2010Prop34
280
     0
102
RTVSPost2010PropOp34
 70
     1
102
RTVSPost2010Prop35
280
     0
102
RTVSPost2010PropOp35
 70
     1
102
RTVSPost2010Prop36
280
     0
102
RTVSPost2010PropOp36
 70
     1
102
RTVSPost2010Prop37
 90
       50
102
RTVSPost2010PropOp37
 70
     1
102
RTVSPost2010Prop38
140
0.0
102
RTVSPost2010PropOp38
 70
     1
102
RTVSPost2010Prop39
140
1.0
102
RTVSPost2010PropOp39
 70
     1
102
RTVSPost2010Prop40
 90
        0
102
RTVSPost2010PropOp40
 70
     1
102
RTVSPost2010Prop41ColorIndex
 90
       18
102
RTVSPost2010Prop41ColorRGB
 90
        0
102
RTVSPost2010PropOp41
 70
     1
102
RTVSPost2010Prop42
 90
       50
102
RTVSPost2010PropOp42
 70
     1
102
RTVSPost2010Prop43
 90
        3
102
RTVSPost2010PropOp43
 70
     1
102
RTVSPost2010Prop44ColorIndex
 90
        5
102
RTVSPost2010Prop44ColorRGB
 90
      255
102
RTVSPost2010PropOp44
 70
     1
102
RTVSPost2010Prop45
280
     0
102
RTVSPost2010PropOp45
 70
     1
102
RTVSPost2010Prop46
 90
       50
102
RTVSPost2010PropOp46
 70
     1
102
RTVSPost2010Prop47
 90
       50
102
RTVSPost2010PropOp47
 70
     1
102
RTVSPost2010Prop48
 90
       50
102
RTVSPost2010PropOp48
 70
     1
102
RTVSPost2010Prop49
280
     0
102
RTVSPost2010PropOp49
 70
     1
102
RTVSPost2010Prop50
 90
       50
102
RTVSPost2010PropOp50
 70
     1
102
RTVSPost2010Prop51ColorIndex
 90
      256
102
RTVSPost2010Prop51ColorRGB
 90
-16777216
102
RTVSPost2010PropOp51
 70
     0
102
RTVSPost2010Prop52
140
1.0
102
RTVSPost2010PropOp52
 70
     0
102
RTVSPost2010Prop53
 90
        2
102
RTVSPost2010PropOp53
 70
     1
102
RTVSPost2010Prop54
  1
strokes_ogs.tif
102
RTVSPost2010PropOp54
 70
     1
102
RTVSPost2010Prop55
280
     0
102
RTVSPost2010PropOp55
 70
     1
102
RTVSPost2010Prop56
140
1.0
102
RTVSPost2010PropOp56
 70
     1
102
RTVSPost2010Prop57
140
1.0
102
RTVSPost2010PropOp57
 70
     1
102
RTVSPropertyOp0
 70
     1
102
RTVSPropertyOp1
 70
     1
102
RTVSPropertyOp2
 70
     1
102
RTVSPropertyOp3
 70
     1
102
RTVSPropertyOp4
 70
     1
102
RTVSPropertyOp5
 70
     1
102
RTVSPropertyOp6
 70
     1
102
RTVSPropertyOp7
 70
     1
102
RTVSPropertyOp8
 70
     1
102
RTVSPropertyOp9
 70
     1
102
RTVSPropertyOp10
 70
     1
102
RTVSPropertyOp11
 70
     1
102
RTVSPropertyOp12
 70
     1
102
RTVSPropertyOp13
 70
     1
102
RTVSPropertyOp14
 70
     1
102
RTVSPropertyOp15
 70
     1
102
RTVSPropertyOp16
 70
     1
102
RTVSPropertyOp17
 70
     1
102
RTVSPropertyOp18
 70
     1
102
RTVSPropertyOp19
 70
     1
102
RTVSPropertyOp20
 70
     1
102
RTVSPropertyOp21
 70
     1
102
RTVSPropertyOp22
 70
     1
102
RTVSPropertyOp23
 70
     1
102
RTVSPropertyOp24
 70
     1
102
RTVSPropertyOp25
 70
     1
102
RTVSPropertyOp26
 70
     1
102
RTVSPropertyOp27
 70
     1
102
RTVSPropertyOp28
 70
     1
102
RTVSPropertyOp29
 70
     1
102
RTVSPropertyOp30
 70
     1
102
RTVSPropertyOp31
 70
     1
102
RTVSPropertyOp32
 70
     1
102
RTVSPropertyOp33
 70
     1
102
RTVSPropertyOp34
 70
     1
102
RTVSPropertyOp35
 70
     1
102
RTVSPropertyOp36
 70
     1
102
RTVSPropertyOp37
 70
     1
102
RTVSPropertyOp38
 70
     1
102
RTVSPropertyOp39
 70
     1
102
RTVSPropertyOp40
 70
     1
102
RTVSPropertyOp41
 70
     1
102
RTVSPropertyOp42
 70
     1
102
RTVSPropertyOp43
 70
     1
102
RTVSPropertyOp44
 70
     1
102
RTVSPropertyOp45
 70
     1
102
RTVSPropertyOp46
 70
     1
102
RTVSPropertyOp47
 70
     1
102
RTVSPropertyOp48
 70
     1
102
RTVSPropertyOp49
 70
     1
102
RTVSPropertyOp50
 70
     1
102
RTVSPropertyOp51
 70
     0
102
RTVSPropertyOp52
 70
     0
102
RTVSPropertyOp53
 70
     1
102
RTVSPropertyOp54
 70
     1
102
RTVSPropertyOp55
 70
     1
102
RTVSPropertyOp56
 70
     1
102
RTVSPropertyOp57
 70
     1
102
RTVSPropertyOp58
 70
     1
102
RTVSPropertyOp59
 70
     1
102
RTVSPropertyOp60
 70
     1
102
RTVSPropertyOp61
 70
     1
102
RTVSPropertyOp62
 70
     1
  0
XRECORD
  5
C32F
102
{ACAD_REACTORS
330
C32E
102
}
330
C32E
100
AcDbXrecord
280
     1
102
RTVSPost2010Prop28
280
     0
102
RTVSPost2010PropOp28
 70
     1
102
RTVSPost2010Prop29
280
     1
102
RTVSPost2010PropOp29
 70
     1
102
RTVSPost2010Prop30
280
     1
102
RTVSPost2010PropOp30
 70
     1
102
RTVSPost2010Prop31
280
     0
102
RTVSPost2010PropOp31
 70
     1
102
RTVSPost2010Prop32
280
     0
102
RTVSPost2010PropOp32
 70
     1
102
RTVSPost2010Prop33
280
     0
102
RTVSPost2010PropOp33
 70
     1
102
RTVSPost2010Prop34
280
     0
102
RTVSPost2010PropOp34
 70
     1
102
RTVSPost2010Prop35
280
     0
102
RTVSPost2010PropOp35
 70
     1
102
RTVSPost2010Prop36
280
     0
102
RTVSPost2010PropOp36
 70
     1
102
RTVSPost2010Prop37
 90
       50
102
RTVSPost2010PropOp37
 70
     0
102
RTVSPost2010Prop38
140
0.0
102
RTVSPost2010PropOp38
 70
     0
102
RTVSPost2010Prop39
140
1.0
102
RTVSPost2010PropOp39
 70
     0
102
RTVSPost2010Prop40
 90
        0
102
RTVSPost2010PropOp40
 70
     0
102
RTVSPost2010Prop41ColorIndex
 90
       18
102
RTVSPost2010Prop41ColorRGB
 90
        0
102
RTVSPost2010PropOp41
 70
     0
102
RTVSPost2010Prop42
 90
       50
102
RTVSPost2010PropOp42
 70
     0
102
RTVSPost2010Prop43
 90
        3
102
RTVSPost2010PropOp43
 70
     0
102
RTVSPost2010Prop44ColorIndex
 90
        5
102
RTVSPost2010Prop44ColorRGB
 90
      255
102
RTVSPost2010PropOp44
 70
     0
102
RTVSPost2010Prop45
280
     0
102
RTVSPost2010PropOp45
 70
     1
102
RTVSPost2010Prop46
 90
       50
102
RTVSPost2010PropOp46
 70
     0
102
RTVSPost2010Prop47
 90
       50
102
RTVSPost2010PropOp47
 70
     0
102
RTVSPost2010Prop48
 90
       50
102
RTVSPost2010PropOp48
 70
     0
102
RTVSPost2010Prop49
280
     0
102
RTVSPost2010PropOp49
 70
     1
102
RTVSPost2010Prop50
 90
       50
102
RTVSPost2010PropOp50
 70
     0
102
RTVSPost2010Prop51ColorIndex
 90
      256
102
RTVSPost2010Prop51ColorRGB
 90
-16777216
102
RTVSPost2010PropOp51
 70
     0
102
RTVSPost2010Prop52
140
1.0
102
RTVSPost2010PropOp52
 70
     0
102
RTVSPost2010Prop53
 90
        2
102
RTVSPost2010PropOp53
 70
     0
102
RTVSPost2010Prop54
  1
strokes_ogs.tif
102
RTVSPost2010PropOp54
 70
     0
102
RTVSPost2010Prop55
280
     0
102
RTVSPost2010PropOp55
 70
     1
102
RTVSPost2010Prop56
140
1.0
102
RTVSPost2010PropOp56
 70
     0
102
RTVSPost2010Prop57
140
1.0
102
RTVSPost2010PropOp57
 70
     0
102
RTVSPropertyOp0
 70
     0
102
RTVSPropertyOp1
 70
     0
102
RTVSPropertyOp2
 70
     0
102
RTVSPropertyOp3
 70
     0
102
RTVSPropertyOp4
 70
     0
102
RTVSPropertyOp5
 70
     0
102
RTVSPropertyOp6
 70
     0
102
RTVSPropertyOp7
 70
     0
102
RTVSPropertyOp8
 70
     0
102
RTVSPropertyOp9
 70
     0
102
RTVSPropertyOp10
 70
     0
102
RTVSPropertyOp11
 70
     0
102
RTVSPropertyOp12
 70
     0
102
RTVSPropertyOp13
 70
     0
102
RTVSPropertyOp14
 70
     2
102
RTVSPropertyOp15
 70
     0
102
RTVSPropertyOp16
 70
     0
102
RTVSPropertyOp17
 70
     0
102
RTVSPropertyOp18
 70
     0
102
RTVSPropertyOp19
 70
     0
102
RTVSPropertyOp20
 70
     0
102
RTVSPropertyOp21
 70
     0
102
RTVSPropertyOp22
 70
     0
102
RTVSPropertyOp23
 70
     0
102
RTVSPropertyOp24
 70
     0
102
RTVSPropertyOp25
 70
     0
102
RTVSPropertyOp26
 70
     0
102
RTVSPropertyOp27
 70
     0
102
RTVSPropertyOp28
 70
     1
102
RTVSPropertyOp29
 70
     1
102
RTVSPropertyOp30
 70
     1
102
RTVSPropertyOp31
 70
     1
102
RTVSPropertyOp32
 70
     1
102
RTVSPropertyOp33
 70
     1
102
RTVSPropertyOp34
 70
     1
102
RTVSPropertyOp35
 70
     1
102
RTVSPropertyOp36
 70
     1
102
RTVSPropertyOp37
 70
     0
102
RTVSPropertyOp38
 70
     0
102
RTVSPropertyOp39
 70
     0
102
RTVSPropertyOp40
 70
     0
102
RTVSPropertyOp41
 70
     0
102
RTVSPropertyOp42
 70
     0
102
RTVSPropertyOp43
 70
     0
102
RTVSPropertyOp44
 70
     0
102
RTVSPropertyOp45
 70
     1
102
RTVSPropertyOp46
 70
     0
102
RTVSPropertyOp47
 70
     0
102
RTVSPropertyOp48
 70
     0
102
RTVSPropertyOp49
 70
     1
102
RTVSPropertyOp50
 70
     0
102
RTVSPropertyOp51
 70
     0
102
RTVSPropertyOp52
 70
     0
102
RTVSPropertyOp53
 70
     0
102
RTVSPropertyOp54
 70
     0
102
RTVSPropertyOp55
 70
     1
102
RTVSPropertyOp56
 70
     0
102
RTVSPropertyOp57
 70
     0
102
RTVSPropertyOp58
 70
     0
102
RTVSPropertyOp59
 70
     0
102
RTVSPropertyOp60
 70
     0
102
RTVSPropertyOp61
 70
     0
102
RTVSPropertyOp62
 70
     0
  0
XRECORD
  5
C31D
102
{ACAD_REACTORS
330
C31C
102
}
330
C31C
100
AcDbXrecord
280
     1
102
RTVSPost2010Prop28
280
     0
102
RTVSPost2010PropOp28
 70
     1
102
RTVSPost2010Prop29
280
     1
102
RTVSPost2010PropOp29
 70
     1
102
RTVSPost2010Prop30
280
     1
102
RTVSPost2010PropOp30
 70
     1
102
RTVSPost2010Prop31
280
     0
102
RTVSPost2010PropOp31
 70
     1
102
RTVSPost2010Prop32
280
     0
102
RTVSPost2010PropOp32
 70
     1
102
RTVSPost2010Prop33
280
     0
102
RTVSPost2010PropOp33
 70
     1
102
RTVSPost2010Prop34
280
     0
102
RTVSPost2010PropOp34
 70
     1
102
RTVSPost2010Prop35
280
     0
102
RTVSPost2010PropOp35
 70
     1
102
RTVSPost2010Prop36
280
     0
102
RTVSPost2010PropOp36
 70
     1
102
RTVSPost2010Prop37
 90
       50
102
RTVSPost2010PropOp37
 70
     1
102
RTVSPost2010Prop38
140
0.0
102
RTVSPost2010PropOp38
 70
     1
102
RTVSPost2010Prop39
140
1.0
102
RTVSPost2010PropOp39
 70
     1
102
RTVSPost2010Prop40
 90
        0
102
RTVSPost2010PropOp40
 70
     1
102
RTVSPost2010Prop41ColorIndex
 90
       18
102
RTVSPost2010Prop41ColorRGB
 90
        0
102
RTVSPost2010PropOp41
 70
     1
102
RTVSPost2010Prop42
 90
       50
102
RTVSPost2010PropOp42
 70
     1
102
RTVSPost2010Prop43
 90
        3
102
RTVSPost2010PropOp43
 70
     1
102
RTVSPost2010Prop44ColorIndex
 90
        5
102
RTVSPost2010Prop44ColorRGB
 90
      255
102
RTVSPost2010PropOp44
 70
     1
102
RTVSPost2010Prop45
280
     0
102
RTVSPost2010PropOp45
 70
     1
102
RTVSPost2010Prop46
 90
       50
102
RTVSPost2010PropOp46
 70
     1
102
RTVSPost2010Prop47
 90
       50
102
RTVSPost2010PropOp47
 70
     1
102
RTVSPost2010Prop48
 90
       50
102
RTVSPost2010PropOp48
 70
     1
102
RTVSPost2010Prop49
280
     0
102
RTVSPost2010PropOp49
 70
     1
102
RTVSPost2010Prop50
 90
       50
102
RTVSPost2010PropOp50
 70
     1
102
RTVSPost2010Prop51ColorIndex
 90
      256
102
RTVSPost2010Prop51ColorRGB
 90
-16777216
102
RTVSPost2010PropOp51
 70
     0
102
RTVSPost2010Prop52
140
1.0
102
RTVSPost2010PropOp52
 70
     0
102
RTVSPost2010Prop53
 90
        2
102
RTVSPost2010PropOp53
 70
     1
102
RTVSPost2010Prop54
  1
strokes_ogs.tif
102
RTVSPost2010PropOp54
 70
     1
102
RTVSPost2010Prop55
280
     0
102
RTVSPost2010PropOp55
 70
     1
102
RTVSPost2010Prop56
140
1.0
102
RTVSPost2010PropOp56
 70
     1
102
RTVSPost2010Prop57
140
1.0
102
RTVSPost2010PropOp57
 70
     1
102
RTVSPropertyOp0
 70
     1
102
RTVSPropertyOp1
 70
     1
102
RTVSPropertyOp2
 70
     1
102
RTVSPropertyOp3
 70
     1
102
RTVSPropertyOp4
 70
     1
102
RTVSPropertyOp5
 70
     1
102
RTVSPropertyOp6
 70
     1
102
RTVSPropertyOp7
 70
     1
102
RTVSPropertyOp8
 70
     1
102
RTVSPropertyOp9
 70
     1
102
RTVSPropertyOp10
 70
     1
102
RTVSPropertyOp11
 70
     1
102
RTVSPropertyOp12
 70
     1
102
RTVSPropertyOp13
 70
     1
102
RTVSPropertyOp14
 70
     1
102
RTVSPropertyOp15
 70
     1
102
RTVSPropertyOp16
 70
     1
102
RTVSPropertyOp17
 70
     1
102
RTVSPropertyOp18
 70
     1
102
RTVSPropertyOp19
 70
     1
102
RTVSPropertyOp20
 70
     1
102
RTVSPropertyOp21
 70
     1
102
RTVSPropertyOp22
 70
     1
102
RTVSPropertyOp23
 70
     1
102
RTVSPropertyOp24
 70
     1
102
RTVSPropertyOp25
 70
     1
102
RTVSPropertyOp26
 70
     1
102
RTVSPropertyOp27
 70
     1
102
RTVSPropertyOp28
 70
     1
102
RTVSPropertyOp29
 70
     1
102
RTVSPropertyOp30
 70
     1
102
RTVSPropertyOp31
 70
     1
102
RTVSPropertyOp32
 70
     1
102
RTVSPropertyOp33
 70
     1
102
RTVSPropertyOp34
 70
     1
102
RTVSPropertyOp35
 70
     1
102
RTVSPropertyOp36
 70
     1
102
RTVSPropertyOp37
 70
     1
102
RTVSPropertyOp38
 70
     1
102
RTVSPropertyOp39
 70
     1
102
RTVSPropertyOp40
 70
     1
102
RTVSPropertyOp41
 70
     1
102
RTVSPropertyOp42
 70
     1
102
RTVSPropertyOp43
 70
     1
102
RTVSPropertyOp44
 70
     1
102
RTVSPropertyOp45
 70
     1
102
RTVSPropertyOp46
 70
     1
102
RTVSPropertyOp47
 70
     1
102
RTVSPropertyOp48
 70
     1
102
RTVSPropertyOp49
 70
     1
102
RTVSPropertyOp50
 70
     1
102
RTVSPropertyOp51
 70
     0
102
RTVSPropertyOp52
 70
     0
102
RTVSPropertyOp53
 70
     1
102
RTVSPropertyOp54
 70
     1
102
RTVSPropertyOp55
 70
     1
102
RTVSPropertyOp56
 70
     1
102
RTVSPropertyOp57
 70
     1
102
RTVSPropertyOp58
 70
     1
102
RTVSPropertyOp59
 70
     1
102
RTVSPropertyOp60
 70
     1
102
RTVSPropertyOp61
 70
     1
102
RTVSPropertyOp62
 70
     1
  0
XRECORD
  5
C301
102
{ACAD_REACTORS
330
C300
102
}
330
C300
100
AcDbXrecord
280
     1
102
RTVSPost2010Prop28
280
     0
102
RTVSPost2010PropOp28
 70
     1
102
RTVSPost2010Prop29
280
     1
102
RTVSPost2010PropOp29
 70
     1
102
RTVSPost2010Prop30
280
     1
102
RTVSPost2010PropOp30
 70
     1
102
RTVSPost2010Prop31
280
     0
102
RTVSPost2010PropOp31
 70
     1
102
RTVSPost2010Prop32
280
     0
102
RTVSPost2010PropOp32
 70
     1
102
RTVSPost2010Prop33
280
     0
102
RTVSPost2010PropOp33
 70
     1
102
RTVSPost2010Prop34
280
     0
102
RTVSPost2010PropOp34
 70
     1
102
RTVSPost2010Prop35
280
     0
102
RTVSPost2010PropOp35
 70
     1
102
RTVSPost2010Prop36
280
     0
102
RTVSPost2010PropOp36
 70
     1
102
RTVSPost2010Prop37
 90
       50
102
RTVSPost2010PropOp37
 70
     1
102
RTVSPost2010Prop38
140
0.0
102
RTVSPost2010PropOp38
 70
     1
102
RTVSPost2010Prop39
140
1.0
102
RTVSPost2010PropOp39
 70
     1
102
RTVSPost2010Prop40
 90
        0
102
RTVSPost2010PropOp40
 70
     1
102
RTVSPost2010Prop41ColorIndex
 90
       18
102
RTVSPost2010Prop41ColorRGB
 90
        0
102
RTVSPost2010PropOp41
 70
     1
102
RTVSPost2010Prop42
 90
       50
102
RTVSPost2010PropOp42
 70
     1
102
RTVSPost2010Prop43
 90
        3
102
RTVSPost2010PropOp43
 70
     1
102
RTVSPost2010Prop44ColorIndex
 90
        5
102
RTVSPost2010Prop44ColorRGB
 90
      255
102
RTVSPost2010PropOp44
 70
     1
102
RTVSPost2010Prop45
280
     0
102
RTVSPost2010PropOp45
 70
     1
102
RTVSPost2010Prop46
 90
       50
102
RTVSPost2010PropOp46
 70
     1
102
RTVSPost2010Prop47
 90
       50
102
RTVSPost2010PropOp47
 70
     1
102
RTVSPost2010Prop48
 90
       50
102
RTVSPost2010PropOp48
 70
     1
102
RTVSPost2010Prop49
280
     0
102
RTVSPost2010PropOp49
 70
     1
102
RTVSPost2010Prop50
 90
       50
102
RTVSPost2010PropOp50
 70
     1
102
RTVSPost2010Prop51ColorIndex
 90
      256
102
RTVSPost2010Prop51ColorRGB
 90
-16777216
102
RTVSPost2010PropOp51
 70
     0
102
RTVSPost2010Prop52
140
1.0
102
RTVSPost2010PropOp52
 70
     0
102
RTVSPost2010Prop53
 90
        2
102
RTVSPost2010PropOp53
 70
     1
102
RTVSPost2010Prop54
  1
strokes_ogs.tif
102
RTVSPost2010PropOp54
 70
     1
102
RTVSPost2010Prop55
280
     0
102
RTVSPost2010PropOp55
 70
     1
102
RTVSPost2010Prop56
140
1.0
102
RTVSPost2010PropOp56
 70
     1
102
RTVSPost2010Prop57
140
1.0
102
RTVSPost2010PropOp57
 70
     1
102
RTVSPropertyOp0
 70
     1
102
RTVSPropertyOp1
 70
     1
102
RTVSPropertyOp2
 70
     1
102
RTVSPropertyOp3
 70
     1
102
RTVSPropertyOp4
 70
     1
102
RTVSPropertyOp5
 70
     1
102
RTVSPropertyOp6
 70
     1
102
RTVSPropertyOp7
 70
     1
102
RTVSPropertyOp8
 70
     1
102
RTVSPropertyOp9
 70
     1
102
RTVSPropertyOp10
 70
     1
102
RTVSPropertyOp11
 70
     1
102
RTVSPropertyOp12
 70
     1
102
RTVSPropertyOp13
 70
     1
102
RTVSPropertyOp14
 70
     1
102
RTVSPropertyOp15
 70
     1
102
RTVSPropertyOp16
 70
     1
102
RTVSPropertyOp17
 70
     1
102
RTVSPropertyOp18
 70
     1
102
RTVSPropertyOp19
 70
     1
102
RTVSPropertyOp20
 70
     1
102
RTVSPropertyOp21
 70
     1
102
RTVSPropertyOp22
 70
     1
102
RTVSPropertyOp23
 70
     1
102
RTVSPropertyOp24
 70
     1
102
RTVSPropertyOp25
 70
     1
102
RTVSPropertyOp26
 70
     1
102
RTVSPropertyOp27
 70
     1
102
RTVSPropertyOp28
 70
     1
102
RTVSPropertyOp29
 70
     1
102
RTVSPropertyOp30
 70
     1
102
RTVSPropertyOp31
 70
     1
102
RTVSPropertyOp32
 70
     1
102
RTVSPropertyOp33
 70
     1
102
RTVSPropertyOp34
 70
     1
102
RTVSPropertyOp35
 70
     1
102
RTVSPropertyOp36
 70
     1
102
RTVSPropertyOp37
 70
     1
102
RTVSPropertyOp38
 70
     1
102
RTVSPropertyOp39
 70
     1
102
RTVSPropertyOp40
 70
     1
102
RTVSPropertyOp41
 70
     1
102
RTVSPropertyOp42
 70
     1
102
RTVSPropertyOp43
 70
     1
102
RTVSPropertyOp44
 70
     1
102
RTVSPropertyOp45
 70
     1
102
RTVSPropertyOp46
 70
     1
102
RTVSPropertyOp47
 70
     1
102
RTVSPropertyOp48
 70
     1
102
RTVSPropertyOp49
 70
     1
102
RTVSPropertyOp50
 70
     1
102
RTVSPropertyOp51
 70
     0
102
RTVSPropertyOp52
 70
     0
102
RTVSPropertyOp53
 70
     1
102
RTVSPropertyOp54
 70
     1
102
RTVSPropertyOp55
 70
     1
102
RTVSPropertyOp56
 70
     1
102
RTVSPropertyOp57
 70
     1
102
RTVSPropertyOp58
 70
     1
102
RTVSPropertyOp59
 70
     1
102
RTVSPropertyOp60
 70
     1
102
RTVSPropertyOp61
 70
     1
102
RTVSPropertyOp62
 70
     1
  0
XRECORD
  5
C303
102
{ACAD_REACTORS
330
C302
102
}
330
C302
100
AcDbXrecord
280
     1
102
RTVSPost2010Prop28
280
     0
102
RTVSPost2010PropOp28
 70
     1
102
RTVSPost2010Prop29
280
     1
102
RTVSPost2010PropOp29
 70
     1
102
RTVSPost2010Prop30
280
     1
102
RTVSPost2010PropOp30
 70
     1
102
RTVSPost2010Prop31
280
     0
102
RTVSPost2010PropOp31
 70
     1
102
RTVSPost2010Prop32
280
     0
102
RTVSPost2010PropOp32
 70
     1
102
RTVSPost2010Prop33
280
     0
102
RTVSPost2010PropOp33
 70
     1
102
RTVSPost2010Prop34
280
     0
102
RTVSPost2010PropOp34
 70
     1
102
RTVSPost2010Prop35
280
     0
102
RTVSPost2010PropOp35
 70
     1
102
RTVSPost2010Prop36
280
     0
102
RTVSPost2010PropOp36
 70
     1
102
RTVSPost2010Prop37
 90
       50
102
RTVSPost2010PropOp37
 70
     1
102
RTVSPost2010Prop38
140
0.0
102
RTVSPost2010PropOp38
 70
     1
102
RTVSPost2010Prop39
140
1.0
102
RTVSPost2010PropOp39
 70
     1
102
RTVSPost2010Prop40
 90
        0
102
RTVSPost2010PropOp40
 70
     1
102
RTVSPost2010Prop41ColorIndex
 90
       18
102
RTVSPost2010Prop41ColorRGB
 90
        0
102
RTVSPost2010PropOp41
 70
     1
102
RTVSPost2010Prop42
 90
       50
102
RTVSPost2010PropOp42
 70
     1
102
RTVSPost2010Prop43
 90
        3
102
RTVSPost2010PropOp43
 70
     1
102
RTVSPost2010Prop44ColorIndex
 90
        5
102
RTVSPost2010Prop44ColorRGB
 90
      255
102
RTVSPost2010PropOp44
 70
     1
102
RTVSPost2010Prop45
280
     0
102
RTVSPost2010PropOp45
 70
     1
102
RTVSPost2010Prop46
 90
       50
102
RTVSPost2010PropOp46
 70
     1
102
RTVSPost2010Prop47
 90
       50
102
RTVSPost2010PropOp47
 70
     1
102
RTVSPost2010Prop48
 90
       50
102
RTVSPost2010PropOp48
 70
     1
102
RTVSPost2010Prop49
280
     0
102
RTVSPost2010PropOp49
 70
     1
102
RTVSPost2010Prop50
 90
       50
102
RTVSPost2010PropOp50
 70
     1
102
RTVSPost2010Prop51ColorIndex
 90
      256
102
RTVSPost2010Prop51ColorRGB
 90
-16777216
102
RTVSPost2010PropOp51
 70
     0
102
RTVSPost2010Prop52
140
1.0
102
RTVSPost2010PropOp52
 70
     0
102
RTVSPost2010Prop53
 90
        2
102
RTVSPost2010PropOp53
 70
     1
102
RTVSPost2010Prop54
  1
strokes_ogs.tif
102
RTVSPost2010PropOp54
 70
     1
102
RTVSPost2010Prop55
280
     0
102
RTVSPost2010PropOp55
 70
     1
102
RTVSPost2010Prop56
140
1.0
102
RTVSPost2010PropOp56
 70
     1
102
RTVSPost2010Prop57
140
1.0
102
RTVSPost2010PropOp57
 70
     1
102
RTVSPropertyOp0
 70
     1
102
RTVSPropertyOp1
 70
     1
102
RTVSPropertyOp2
 70
     1
102
RTVSPropertyOp3
 70
     1
102
RTVSPropertyOp4
 70
     1
102
RTVSPropertyOp5
 70
     1
102
RTVSPropertyOp6
 70
     1
102
RTVSPropertyOp7
 70
     1
102
RTVSPropertyOp8
 70
     1
102
RTVSPropertyOp9
 70
     1
102
RTVSPropertyOp10
 70
     1
102
RTVSPropertyOp11
 70
     1
102
RTVSPropertyOp12
 70
     1
102
RTVSPropertyOp13
 70
     1
102
RTVSPropertyOp14
 70
     1
102
RTVSPropertyOp15
 70
     1
102
RTVSPropertyOp16
 70
     1
102
RTVSPropertyOp17
 70
     1
102
RTVSPropertyOp18
 70
     1
102
RTVSPropertyOp19
 70
     1
102
RTVSPropertyOp20
 70
     1
102
RTVSPropertyOp21
 70
     1
102
RTVSPropertyOp22
 70
     1
102
RTVSPropertyOp23
 70
     1
102
RTVSPropertyOp24
 70
     1
102
RTVSPropertyOp25
 70
     1
102
RTVSPropertyOp26
 70
     1
102
RTVSPropertyOp27
 70
     1
102
RTVSPropertyOp28
 70
     1
102
RTVSPropertyOp29
 70
     1
102
RTVSPropertyOp30
 70
     1
102
RTVSPropertyOp31
 70
     1
102
RTVSPropertyOp32
 70
     1
102
RTVSPropertyOp33
 70
     1
102
RTVSPropertyOp34
 70
     1
102
RTVSPropertyOp35
 70
     1
102
RTVSPropertyOp36
 70
     1
102
RTVSPropertyOp37
 70
     1
102
RTVSPropertyOp38
 70
     1
102
RTVSPropertyOp39
 70
     1
102
RTVSPropertyOp40
 70
     1
102
RTVSPropertyOp41
 70
     1
102
RTVSPropertyOp42
 70
     1
102
RTVSPropertyOp43
 70
     1
102
RTVSPropertyOp44
 70
     1
102
RTVSPropertyOp45
 70
     1
102
RTVSPropertyOp46
 70
     1
102
RTVSPropertyOp47
 70
     1
102
RTVSPropertyOp48
 70
     1
102
RTVSPropertyOp49
 70
     1
102
RTVSPropertyOp50
 70
     1
102
RTVSPropertyOp51
 70
     0
102
RTVSPropertyOp52
 70
     0
102
RTVSPropertyOp53
 70
     1
102
RTVSPropertyOp54
 70
     1
102
RTVSPropertyOp55
 70
     1
102
RTVSPropertyOp56
 70
     1
102
RTVSPropertyOp57
 70
     1
102
RTVSPropertyOp58
 70
     1
102
RTVSPropertyOp59
 70
     1
102
RTVSPropertyOp60
 70
     1
102
RTVSPropertyOp61
 70
     1
102
RTVSPropertyOp62
 70
     1
  0
XRECORD
  5
C305
102
{ACAD_REACTORS
330
C304
102
}
330
C304
100
AcDbXrecord
280
     1
102
RTVSPost2010Prop28
280
     0
102
RTVSPost2010PropOp28
 70
     1
102
RTVSPost2010Prop29
280
     1
102
RTVSPost2010PropOp29
 70
     1
102
RTVSPost2010Prop30
280
     1
102
RTVSPost2010PropOp30
 70
     1
102
RTVSPost2010Prop31
280
     0
102
RTVSPost2010PropOp31
 70
     1
102
RTVSPost2010Prop32
280
     0
102
RTVSPost2010PropOp32
 70
     1
102
RTVSPost2010Prop33
280
     0
102
RTVSPost2010PropOp33
 70
     1
102
RTVSPost2010Prop34
280
     0
102
RTVSPost2010PropOp34
 70
     1
102
RTVSPost2010Prop35
280
     0
102
RTVSPost2010PropOp35
 70
     1
102
RTVSPost2010Prop36
280
     0
102
RTVSPost2010PropOp36
 70
     1
102
RTVSPost2010Prop37
 90
       50
102
RTVSPost2010PropOp37
 70
     1
102
RTVSPost2010Prop38
140
0.0
102
RTVSPost2010PropOp38
 70
     1
102
RTVSPost2010Prop39
140
1.0
102
RTVSPost2010PropOp39
 70
     1
102
RTVSPost2010Prop40
 90
        0
102
RTVSPost2010PropOp40
 70
     1
102
RTVSPost2010Prop41ColorIndex
 90
       18
102
RTVSPost2010Prop41ColorRGB
 90
        0
102
RTVSPost2010PropOp41
 70
     1
102
RTVSPost2010Prop42
 90
       50
102
RTVSPost2010PropOp42
 70
     1
102
RTVSPost2010Prop43
 90
        3
102
RTVSPost2010PropOp43
 70
     1
102
RTVSPost2010Prop44ColorIndex
 90
        5
102
RTVSPost2010Prop44ColorRGB
 90
      255
102
RTVSPost2010PropOp44
 70
     1
102
RTVSPost2010Prop45
280
     0
102
RTVSPost2010PropOp45
 70
     1
102
RTVSPost2010Prop46
 90
       50
102
RTVSPost2010PropOp46
 70
     1
102
RTVSPost2010Prop47
 90
       50
102
RTVSPost2010PropOp47
 70
     1
102
RTVSPost2010Prop48
 90
       50
102
RTVSPost2010PropOp48
 70
     1
102
RTVSPost2010Prop49
280
     0
102
RTVSPost2010PropOp49
 70
     1
102
RTVSPost2010Prop50
 90
       50
102
RTVSPost2010PropOp50
 70
     1
102
RTVSPost2010Prop51ColorIndex
 90
      256
102
RTVSPost2010Prop51ColorRGB
 90
-16777216
102
RTVSPost2010PropOp51
 70
     0
102
RTVSPost2010Prop52
140
1.0
102
RTVSPost2010PropOp52
 70
     0
102
RTVSPost2010Prop53
 90
        2
102
RTVSPost2010PropOp53
 70
     1
102
RTVSPost2010Prop54
  1
strokes_ogs.tif
102
RTVSPost2010PropOp54
 70
     1
102
RTVSPost2010Prop55
280
     0
102
RTVSPost2010PropOp55
 70
     1
102
RTVSPost2010Prop56
140
1.0
102
RTVSPost2010PropOp56
 70
     1
102
RTVSPost2010Prop57
140
1.0
102
RTVSPost2010PropOp57
 70
     1
102
RTVSPropertyOp0
 70
     1
102
RTVSPropertyOp1
 70
     1
102
RTVSPropertyOp2
 70
     1
102
RTVSPropertyOp3
 70
     1
102
RTVSPropertyOp4
 70
     1
102
RTVSPropertyOp5
 70
     1
102
RTVSPropertyOp6
 70
     1
102
RTVSPropertyOp7
 70
     1
102
RTVSPropertyOp8
 70
     1
102
RTVSPropertyOp9
 70
     1
102
RTVSPropertyOp10
 70
     1
102
RTVSPropertyOp11
 70
     1
102
RTVSPropertyOp12
 70
     1
102
RTVSPropertyOp13
 70
     1
102
RTVSPropertyOp14
 70
     1
102
RTVSPropertyOp15
 70
     1
102
RTVSPropertyOp16
 70
     1
102
RTVSPropertyOp17
 70
     1
102
RTVSPropertyOp18
 70
     1
102
RTVSPropertyOp19
 70
     1
102
RTVSPropertyOp20
 70
     1
102
RTVSPropertyOp21
 70
     1
102
RTVSPropertyOp22
 70
     1
102
RTVSPropertyOp23
 70
     1
102
RTVSPropertyOp24
 70
     1
102
RTVSPropertyOp25
 70
     1
102
RTVSPropertyOp26
 70
     1
102
RTVSPropertyOp27
 70
     1
102
RTVSPropertyOp28
 70
     1
102
RTVSPropertyOp29
 70
     1
102
RTVSPropertyOp30
 70
     1
102
RTVSPropertyOp31
 70
     1
102
RTVSPropertyOp32
 70
     1
102
RTVSPropertyOp33
 70
     1
102
RTVSPropertyOp34
 70
     1
102
RTVSPropertyOp35
 70
     1
102
RTVSPropertyOp36
 70
     1
102
RTVSPropertyOp37
 70
     1
102
RTVSPropertyOp38
 70
     1
102
RTVSPropertyOp39
 70
     1
102
RTVSPropertyOp40
 70
     1
102
RTVSPropertyOp41
 70
     1
102
RTVSPropertyOp42
 70
     1
102
RTVSPropertyOp43
 70
     1
102
RTVSPropertyOp44
 70
     1
102
RTVSPropertyOp45
 70
     1
102
RTVSPropertyOp46
 70
     1
102
RTVSPropertyOp47
 70
     1
102
RTVSPropertyOp48
 70
     1
102
RTVSPropertyOp49
 70
     1
102
RTVSPropertyOp50
 70
     1
102
RTVSPropertyOp51
 70
     0
102
RTVSPropertyOp52
 70
     0
102
RTVSPropertyOp53
 70
     1
102
RTVSPropertyOp54
 70
     1
102
RTVSPropertyOp55
 70
     1
102
RTVSPropertyOp56
 70
     1
102
RTVSPropertyOp57
 70
     1
102
RTVSPropertyOp58
 70
     1
102
RTVSPropertyOp59
 70
     1
102
RTVSPropertyOp60
 70
     1
102
RTVSPropertyOp61
 70
     1
102
RTVSPropertyOp62
 70
     1
  0
XRECORD
  5
C307
102
{ACAD_REACTORS
330
C306
102
}
330
C306
100
AcDbXrecord
280
     1
102
RTVSPost2010Prop28
280
     0
102
RTVSPost2010PropOp28
 70
     1
102
RTVSPost2010Prop29
280
     1
102
RTVSPost2010PropOp29
 70
     1
102
RTVSPost2010Prop30
280
     1
102
RTVSPost2010PropOp30
 70
     1
102
RTVSPost2010Prop31
280
     0
102
RTVSPost2010PropOp31
 70
     1
102
RTVSPost2010Prop32
280
     0
102
RTVSPost2010PropOp32
 70
     1
102
RTVSPost2010Prop33
280
     0
102
RTVSPost2010PropOp33
 70
     1
102
RTVSPost2010Prop34
280
     0
102
RTVSPost2010PropOp34
 70
     1
102
RTVSPost2010Prop35
280
     0
102
RTVSPost2010PropOp35
 70
     1
102
RTVSPost2010Prop36
280
     0
102
RTVSPost2010PropOp36
 70
     1
102
RTVSPost2010Prop37
 90
       50
102
RTVSPost2010PropOp37
 70
     1
102
RTVSPost2010Prop38
140
0.0
102
RTVSPost2010PropOp38
 70
     1
102
RTVSPost2010Prop39
140
1.0
102
RTVSPost2010PropOp39
 70
     1
102
RTVSPost2010Prop40
 90
        0
102
RTVSPost2010PropOp40
 70
     1
102
RTVSPost2010Prop41ColorIndex
 90
       18
102
RTVSPost2010Prop41ColorRGB
 90
        0
102
RTVSPost2010PropOp41
 70
     1
102
RTVSPost2010Prop42
 90
       50
102
RTVSPost2010PropOp42
 70
     1
102
RTVSPost2010Prop43
 90
        3
102
RTVSPost2010PropOp43
 70
     1
102
RTVSPost2010Prop44ColorIndex
 90
        5
102
RTVSPost2010Prop44ColorRGB
 90
      255
102
RTVSPost2010PropOp44
 70
     1
102
RTVSPost2010Prop45
280
     0
102
RTVSPost2010PropOp45
 70
     1
102
RTVSPost2010Prop46
 90
       50
102
RTVSPost2010PropOp46
 70
     1
102
RTVSPost2010Prop47
 90
       50
102
RTVSPost2010PropOp47
 70
     1
102
RTVSPost2010Prop48
 90
       50
102
RTVSPost2010PropOp48
 70
     1
102
RTVSPost2010Prop49
280
     0
102
RTVSPost2010PropOp49
 70
     1
102
RTVSPost2010Prop50
 90
       50
102
RTVSPost2010PropOp50
 70
     1
102
RTVSPost2010Prop51ColorIndex
 90
      256
102
RTVSPost2010Prop51ColorRGB
 90
-16777216
102
RTVSPost2010PropOp51
 70
     0
102
RTVSPost2010Prop52
140
1.0
102
RTVSPost2010PropOp52
 70
     0
102
RTVSPost2010Prop53
 90
        2
102
RTVSPost2010PropOp53
 70
     1
102
RTVSPost2010Prop54
  1
strokes_ogs.tif
102
RTVSPost2010PropOp54
 70
     1
102
RTVSPost2010Prop55
280
     0
102
RTVSPost2010PropOp55
 70
     1
102
RTVSPost2010Prop56
140
1.0
102
RTVSPost2010PropOp56
 70
     1
102
RTVSPost2010Prop57
140
1.0
102
RTVSPost2010PropOp57
 70
     1
102
RTVSPropertyOp0
 70
     1
102
RTVSPropertyOp1
 70
     1
102
RTVSPropertyOp2
 70
     1
102
RTVSPropertyOp3
 70
     1
102
RTVSPropertyOp4
 70
     1
102
RTVSPropertyOp5
 70
     1
102
RTVSPropertyOp6
 70
     1
102
RTVSPropertyOp7
 70
     1
102
RTVSPropertyOp8
 70
     1
102
RTVSPropertyOp9
 70
     1
102
RTVSPropertyOp10
 70
     1
102
RTVSPropertyOp11
 70
     1
102
RTVSPropertyOp12
 70
     1
102
RTVSPropertyOp13
 70
     1
102
RTVSPropertyOp14
 70
     1
102
RTVSPropertyOp15
 70
     1
102
RTVSPropertyOp16
 70
     1
102
RTVSPropertyOp17
 70
     1
102
RTVSPropertyOp18
 70
     1
102
RTVSPropertyOp19
 70
     1
102
RTVSPropertyOp20
 70
     1
102
RTVSPropertyOp21
 70
     1
102
RTVSPropertyOp22
 70
     1
102
RTVSPropertyOp23
 70
     1
102
RTVSPropertyOp24
 70
     1
102
RTVSPropertyOp25
 70
     1
102
RTVSPropertyOp26
 70
     1
102
RTVSPropertyOp27
 70
     1
102
RTVSPropertyOp28
 70
     1
102
RTVSPropertyOp29
 70
     1
102
RTVSPropertyOp30
 70
     1
102
RTVSPropertyOp31
 70
     1
102
RTVSPropertyOp32
 70
     1
102
RTVSPropertyOp33
 70
     1
102
RTVSPropertyOp34
 70
     1
102
RTVSPropertyOp35
 70
     1
102
RTVSPropertyOp36
 70
     1
102
RTVSPropertyOp37
 70
     1
102
RTVSPropertyOp38
 70
     1
102
RTVSPropertyOp39
 70
     1
102
RTVSPropertyOp40
 70
     1
102
RTVSPropertyOp41
 70
     1
102
RTVSPropertyOp42
 70
     1
102
RTVSPropertyOp43
 70
     1
102
RTVSPropertyOp44
 70
     1
102
RTVSPropertyOp45
 70
     1
102
RTVSPropertyOp46
 70
     1
102
RTVSPropertyOp47
 70
     1
102
RTVSPropertyOp48
 70
     1
102
RTVSPropertyOp49
 70
     1
102
RTVSPropertyOp50
 70
     1
102
RTVSPropertyOp51
 70
     0
102
RTVSPropertyOp52
 70
     0
102
RTVSPropertyOp53
 70
     1
102
RTVSPropertyOp54
 70
     1
102
RTVSPropertyOp55
 70
     1
102
RTVSPropertyOp56
 70
     1
102
RTVSPropertyOp57
 70
     1
102
RTVSPropertyOp58
 70
     1
102
RTVSPropertyOp59
 70
     1
102
RTVSPropertyOp60
 70
     1
102
RTVSPropertyOp61
 70
     1
102
RTVSPropertyOp62
 70
     1
  0
XRECORD
  5
C30F
102
{ACAD_REACTORS
330
C30E
102
}
330
C30E
100
AcDbXrecord
280
     1
102
RTVSPost2010Prop28
280
     0
102
RTVSPost2010PropOp28
 70
     1
102
RTVSPost2010Prop29
280
     1
102
RTVSPost2010PropOp29
 70
     1
102
RTVSPost2010Prop30
280
     1
102
RTVSPost2010PropOp30
 70
     1
102
RTVSPost2010Prop31
280
     0
102
RTVSPost2010PropOp31
 70
     1
102
RTVSPost2010Prop32
280
     0
102
RTVSPost2010PropOp32
 70
     1
102
RTVSPost2010Prop33
280
     0
102
RTVSPost2010PropOp33
 70
     1
102
RTVSPost2010Prop34
280
     0
102
RTVSPost2010PropOp34
 70
     1
102
RTVSPost2010Prop35
280
     0
102
RTVSPost2010PropOp35
 70
     1
102
RTVSPost2010Prop36
280
     0
102
RTVSPost2010PropOp36
 70
     1
102
RTVSPost2010Prop37
 90
       50
102
RTVSPost2010PropOp37
 70
     1
102
RTVSPost2010Prop38
140
0.0
102
RTVSPost2010PropOp38
 70
     1
102
RTVSPost2010Prop39
140
1.0
102
RTVSPost2010PropOp39
 70
     1
102
RTVSPost2010Prop40
 90
        0
102
RTVSPost2010PropOp40
 70
     1
102
RTVSPost2010Prop41ColorIndex
 90
       18
102
RTVSPost2010Prop41ColorRGB
 90
        0
102
RTVSPost2010PropOp41
 70
     1
102
RTVSPost2010Prop42
 90
       50
102
RTVSPost2010PropOp42
 70
     1
102
RTVSPost2010Prop43
 90
        3
102
RTVSPost2010PropOp43
 70
     1
102
RTVSPost2010Prop44ColorIndex
 90
        5
102
RTVSPost2010Prop44ColorRGB
 90
      255
102
RTVSPost2010PropOp44
 70
     1
102
RTVSPost2010Prop45
280
     0
102
RTVSPost2010PropOp45
 70
     1
102
RTVSPost2010Prop46
 90
       50
102
RTVSPost2010PropOp46
 70
     1
102
RTVSPost2010Prop47
 90
       50
102
RTVSPost2010PropOp47
 70
     1
102
RTVSPost2010Prop48
 90
       50
102
RTVSPost2010PropOp48
 70
     1
102
RTVSPost2010Prop49
280
     0
102
RTVSPost2010PropOp49
 70
     1
102
RTVSPost2010Prop50
 90
       50
102
RTVSPost2010PropOp50
 70
     1
102
RTVSPost2010Prop51ColorIndex
 90
      256
102
RTVSPost2010Prop51ColorRGB
 90
-16777216
102
RTVSPost2010PropOp51
 70
     0
102
RTVSPost2010Prop52
140
1.0
102
RTVSPost2010PropOp52
 70
     0
102
RTVSPost2010Prop53
 90
        2
102
RTVSPost2010PropOp53
 70
     1
102
RTVSPost2010Prop54
  1
strokes_ogs.tif
102
RTVSPost2010PropOp54
 70
     1
102
RTVSPost2010Prop55
280
     0
102
RTVSPost2010PropOp55
 70
     1
102
RTVSPost2010Prop56
140
1.0
102
RTVSPost2010PropOp56
 70
     1
102
RTVSPost2010Prop57
140
1.0
102
RTVSPost2010PropOp57
 70
     1
102
RTVSPropertyOp0
 70
     1
102
RTVSPropertyOp1
 70
     1
102
RTVSPropertyOp2
 70
     1
102
RTVSPropertyOp3
 70
     1
102
RTVSPropertyOp4
 70
     1
102
RTVSPropertyOp5
 70
     1
102
RTVSPropertyOp6
 70
     1
102
RTVSPropertyOp7
 70
     1
102
RTVSPropertyOp8
 70
     1
102
RTVSPropertyOp9
 70
     1
102
RTVSPropertyOp10
 70
     1
102
RTVSPropertyOp11
 70
     1
102
RTVSPropertyOp12
 70
     1
102
RTVSPropertyOp13
 70
     1
102
RTVSPropertyOp14
 70
     1
102
RTVSPropertyOp15
 70
     1
102
RTVSPropertyOp16
 70
     1
102
RTVSPropertyOp17
 70
     1
102
RTVSPropertyOp18
 70
     1
102
RTVSPropertyOp19
 70
     1
102
RTVSPropertyOp20
 70
     1
102
RTVSPropertyOp21
 70
     1
102
RTVSPropertyOp22
 70
     1
102
RTVSPropertyOp23
 70
     1
102
RTVSPropertyOp24
 70
     1
102
RTVSPropertyOp25
 70
     1
102
RTVSPropertyOp26
 70
     1
102
RTVSPropertyOp27
 70
     1
102
RTVSPropertyOp28
 70
     1
102
RTVSPropertyOp29
 70
     1
102
RTVSPropertyOp30
 70
     1
102
RTVSPropertyOp31
 70
     1
102
RTVSPropertyOp32
 70
     1
102
RTVSPropertyOp33
 70
     1
102
RTVSPropertyOp34
 70
     1
102
RTVSPropertyOp35
 70
     1
102
RTVSPropertyOp36
 70
     1
102
RTVSPropertyOp37
 70
     1
102
RTVSPropertyOp38
 70
     1
102
RTVSPropertyOp39
 70
     1
102
RTVSPropertyOp40
 70
     1
102
RTVSPropertyOp41
 70
     1
102
RTVSPropertyOp42
 70
     1
102
RTVSPropertyOp43
 70
     1
102
RTVSPropertyOp44
 70
     1
102
RTVSPropertyOp45
 70
     1
102
RTVSPropertyOp46
 70
     1
102
RTVSPropertyOp47
 70
     1
102
RTVSPropertyOp48
 70
     1
102
RTVSPropertyOp49
 70
     1
102
RTVSPropertyOp50
 70
     1
102
RTVSPropertyOp51
 70
     0
102
RTVSPropertyOp52
 70
     0
102
RTVSPropertyOp53
 70
     1
102
RTVSPropertyOp54
 70
     1
102
RTVSPropertyOp55
 70
     1
102
RTVSPropertyOp56
 70
     1
102
RTVSPropertyOp57
 70
     1
102
RTVSPropertyOp58
 70
     1
102
RTVSPropertyOp59
 70
     1
102
RTVSPropertyOp60
 70
     1
102
RTVSPropertyOp61
 70
     1
102
RTVSPropertyOp62
 70
     1
  0
XRECORD
  5
C32B
102
{ACAD_REACTORS
330
C32A
102
}
330
C32A
100
AcDbXrecord
280
     1
102
RTVSPost2010Prop28
280
     0
102
RTVSPost2010PropOp28
 70
     1
102
RTVSPost2010Prop29
280
     1
102
RTVSPost2010PropOp29
 70
     1
102
RTVSPost2010Prop30
280
     1
102
RTVSPost2010PropOp30
 70
     1
102
RTVSPost2010Prop31
280
     0
102
RTVSPost2010PropOp31
 70
     1
102
RTVSPost2010Prop32
280
     0
102
RTVSPost2010PropOp32
 70
     1
102
RTVSPost2010Prop33
280
     0
102
RTVSPost2010PropOp33
 70
     1
102
RTVSPost2010Prop34
280
     0
102
RTVSPost2010PropOp34
 70
     1
102
RTVSPost2010Prop35
280
     0
102
RTVSPost2010PropOp35
 70
     1
102
RTVSPost2010Prop36
280
     0
102
RTVSPost2010PropOp36
 70
     1
102
RTVSPost2010Prop37
 90
       50
102
RTVSPost2010PropOp37
 70
     0
102
RTVSPost2010Prop38
140
0.0
102
RTVSPost2010PropOp38
 70
     0
102
RTVSPost2010Prop39
140
1.0
102
RTVSPost2010PropOp39
 70
     0
102
RTVSPost2010Prop40
 90
        0
102
RTVSPost2010PropOp40
 70
     0
102
RTVSPost2010Prop41ColorIndex
 90
       18
102
RTVSPost2010Prop41ColorRGB
 90
        0
102
RTVSPost2010PropOp41
 70
     0
102
RTVSPost2010Prop42
 90
       50
102
RTVSPost2010PropOp42
 70
     0
102
RTVSPost2010Prop43
 90
        3
102
RTVSPost2010PropOp43
 70
     0
102
RTVSPost2010Prop44ColorIndex
 90
        5
102
RTVSPost2010Prop44ColorRGB
 90
      255
102
RTVSPost2010PropOp44
 70
     0
102
RTVSPost2010Prop45
280
     0
102
RTVSPost2010PropOp45
 70
     1
102
RTVSPost2010Prop46
 90
       50
102
RTVSPost2010PropOp46
 70
     0
102
RTVSPost2010Prop47
 90
       50
102
RTVSPost2010PropOp47
 70
     0
102
RTVSPost2010Prop48
 90
       50
102
RTVSPost2010PropOp48
 70
     0
102
RTVSPost2010Prop49
280
     0
102
RTVSPost2010PropOp49
 70
     1
102
RTVSPost2010Prop50
 90
       50
102
RTVSPost2010PropOp50
 70
     0
102
RTVSPost2010Prop51ColorIndex
 90
      256
102
RTVSPost2010Prop51ColorRGB
 90
-16777216
102
RTVSPost2010PropOp51
 70
     0
102
RTVSPost2010Prop52
140
1.0
102
RTVSPost2010PropOp52
 70
     0
102
RTVSPost2010Prop53
 90
        2
102
RTVSPost2010PropOp53
 70
     0
102
RTVSPost2010Prop54
  1
strokes_ogs.tif
102
RTVSPost2010PropOp54
 70
     0
102
RTVSPost2010Prop55
280
     0
102
RTVSPost2010PropOp55
 70
     1
102
RTVSPost2010Prop56
140
1.0
102
RTVSPost2010PropOp56
 70
     0
102
RTVSPost2010Prop57
140
1.0
102
RTVSPost2010PropOp57
 70
     0
102
RTVSPropertyOp0
 70
     0
102
RTVSPropertyOp1
 70
     0
102
RTVSPropertyOp2
 70
     0
102
RTVSPropertyOp3
 70
     0
102
RTVSPropertyOp4
 70
     0
102
RTVSPropertyOp5
 70
     0
102
RTVSPropertyOp6
 70
     0
102
RTVSPropertyOp7
 70
     0
102
RTVSPropertyOp8
 70
     0
102
RTVSPropertyOp9
 70
     0
102
RTVSPropertyOp10
 70
     0
102
RTVSPropertyOp11
 70
     0
102
RTVSPropertyOp12
 70
     0
102
RTVSPropertyOp13
 70
     0
102
RTVSPropertyOp14
 70
     2
102
RTVSPropertyOp15
 70
     0
102
RTVSPropertyOp16
 70
     0
102
RTVSPropertyOp17
 70
     0
102
RTVSPropertyOp18
 70
     0
102
RTVSPropertyOp19
 70
     0
102
RTVSPropertyOp20
 70
     0
102
RTVSPropertyOp21
 70
     0
102
RTVSPropertyOp22
 70
     0
102
RTVSPropertyOp23
 70
     0
102
RTVSPropertyOp24
 70
     0
102
RTVSPropertyOp25
 70
     0
102
RTVSPropertyOp26
 70
     0
102
RTVSPropertyOp27
 70
     0
102
RTVSPropertyOp28
 70
     1
102
RTVSPropertyOp29
 70
     1
102
RTVSPropertyOp30
 70
     1
102
RTVSPropertyOp31
 70
     1
102
RTVSPropertyOp32
 70
     1
102
RTVSPropertyOp33
 70
     1
102
RTVSPropertyOp34
 70
     1
102
RTVSPropertyOp35
 70
     1
102
RTVSPropertyOp36
 70
     1
102
RTVSPropertyOp37
 70
     0
102
RTVSPropertyOp38
 70
     0
102
RTVSPropertyOp39
 70
     0
102
RTVSPropertyOp40
 70
     0
102
RTVSPropertyOp41
 70
     0
102
RTVSPropertyOp42
 70
     0
102
RTVSPropertyOp43
 70
     0
102
RTVSPropertyOp44
 70
     0
102
RTVSPropertyOp45
 70
     1
102
RTVSPropertyOp46
 70
     0
102
RTVSPropertyOp47
 70
     0
102
RTVSPropertyOp48
 70
     0
102
RTVSPropertyOp49
 70
     1
102
RTVSPropertyOp50
 70
     0
102
RTVSPropertyOp51
 70
     0
102
RTVSPropertyOp52
 70
     0
102
RTVSPropertyOp53
 70
     0
102
RTVSPropertyOp54
 70
     0
102
RTVSPropertyOp55
 70
     1
102
RTVSPropertyOp56
 70
     0
102
RTVSPropertyOp57
 70
     0
102
RTVSPropertyOp58
 70
     0
102
RTVSPropertyOp59
 70
     0
102
RTVSPropertyOp60
 70
     0
102
RTVSPropertyOp61
 70
     0
102
RTVSPropertyOp62
 70
     0
  0
XRECORD
  5
C31B
102
{ACAD_REACTORS
330
C31A
102
}
330
C31A
100
AcDbXrecord
280
     1
102
RTVSPost2010Prop28
280
     0
102
RTVSPost2010PropOp28
 70
     1
102
RTVSPost2010Prop29
280
     1
102
RTVSPost2010PropOp29
 70
     1
102
RTVSPost2010Prop30
280
     1
102
RTVSPost2010PropOp30
 70
     1
102
RTVSPost2010Prop31
280
     0
102
RTVSPost2010PropOp31
 70
     1
102
RTVSPost2010Prop32
280
     0
102
RTVSPost2010PropOp32
 70
     1
102
RTVSPost2010Prop33
280
     0
102
RTVSPost2010PropOp33
 70
     1
102
RTVSPost2010Prop34
280
     0
102
RTVSPost2010PropOp34
 70
     1
102
RTVSPost2010Prop35
280
     0
102
RTVSPost2010PropOp35
 70
     1
102
RTVSPost2010Prop36
280
     0
102
RTVSPost2010PropOp36
 70
     1
102
RTVSPost2010Prop37
 90
       50
102
RTVSPost2010PropOp37
 70
     1
102
RTVSPost2010Prop38
140
0.0
102
RTVSPost2010PropOp38
 70
     1
102
RTVSPost2010Prop39
140
1.0
102
RTVSPost2010PropOp39
 70
     1
102
RTVSPost2010Prop40
 90
        0
102
RTVSPost2010PropOp40
 70
     1
102
RTVSPost2010Prop41ColorIndex
 90
       18
102
RTVSPost2010Prop41ColorRGB
 90
        0
102
RTVSPost2010PropOp41
 70
     1
102
RTVSPost2010Prop42
 90
       50
102
RTVSPost2010PropOp42
 70
     1
102
RTVSPost2010Prop43
 90
        3
102
RTVSPost2010PropOp43
 70
     1
102
RTVSPost2010Prop44ColorIndex
 90
        5
102
RTVSPost2010Prop44ColorRGB
 90
      255
102
RTVSPost2010PropOp44
 70
     1
102
RTVSPost2010Prop45
280
     0
102
RTVSPost2010PropOp45
 70
     1
102
RTVSPost2010Prop46
 90
       50
102
RTVSPost2010PropOp46
 70
     1
102
RTVSPost2010Prop47
 90
       50
102
RTVSPost2010PropOp47
 70
     1
102
RTVSPost2010Prop48
 90
       50
102
RTVSPost2010PropOp48
 70
     1
102
RTVSPost2010Prop49
280
     0
102
RTVSPost2010PropOp49
 70
     1
102
RTVSPost2010Prop50
 90
       50
102
RTVSPost2010PropOp50
 70
     1
102
RTVSPost2010Prop51ColorIndex
 90
      256
102
RTVSPost2010Prop51ColorRGB
 90
-16777216
102
RTVSPost2010PropOp51
 70
     0
102
RTVSPost2010Prop52
140
1.0
102
RTVSPost2010PropOp52
 70
     0
102
RTVSPost2010Prop53
 90
        2
102
RTVSPost2010PropOp53
 70
     1
102
RTVSPost2010Prop54
  1
strokes_ogs.tif
102
RTVSPost2010PropOp54
 70
     1
102
RTVSPost2010Prop55
280
     0
102
RTVSPost2010PropOp55
 70
     1
102
RTVSPost2010Prop56
140
1.0
102
RTVSPost2010PropOp56
 70
     1
102
RTVSPost2010Prop57
140
1.0
102
RTVSPost2010PropOp57
 70
     1
102
RTVSPropertyOp0
 70
     1
102
RTVSPropertyOp1
 70
     1
102
RTVSPropertyOp2
 70
     1
102
RTVSPropertyOp3
 70
     1
102
RTVSPropertyOp4
 70
     1
102
RTVSPropertyOp5
 70
     1
102
RTVSPropertyOp6
 70
     1
102
RTVSPropertyOp7
 70
     1
102
RTVSPropertyOp8
 70
     1
102
RTVSPropertyOp9
 70
     1
102
RTVSPropertyOp10
 70
     1
102
RTVSPropertyOp11
 70
     1
102
RTVSPropertyOp12
 70
     1
102
RTVSPropertyOp13
 70
     1
102
RTVSPropertyOp14
 70
     1
102
RTVSPropertyOp15
 70
     1
102
RTVSPropertyOp16
 70
     1
102
RTVSPropertyOp17
 70
     1
102
RTVSPropertyOp18
 70
     1
102
RTVSPropertyOp19
 70
     1
102
RTVSPropertyOp20
 70
     1
102
RTVSPropertyOp21
 70
     1
102
RTVSPropertyOp22
 70
     1
102
RTVSPropertyOp23
 70
     1
102
RTVSPropertyOp24
 70
     1
102
RTVSPropertyOp25
 70
     1
102
RTVSPropertyOp26
 70
     1
102
RTVSPropertyOp27
 70
     1
102
RTVSPropertyOp28
 70
     1
102
RTVSPropertyOp29
 70
     1
102
RTVSPropertyOp30
 70
     1
102
RTVSPropertyOp31
 70
     1
102
RTVSPropertyOp32
 70
     1
102
RTVSPropertyOp33
 70
     1
102
RTVSPropertyOp34
 70
     1
102
RTVSPropertyOp35
 70
     1
102
RTVSPropertyOp36
 70
     1
102
RTVSPropertyOp37
 70
     1
102
RTVSPropertyOp38
 70
     1
102
RTVSPropertyOp39
 70
     1
102
RTVSPropertyOp40
 70
     1
102
RTVSPropertyOp41
 70
     1
102
RTVSPropertyOp42
 70
     1
102
RTVSPropertyOp43
 70
     1
102
RTVSPropertyOp44
 70
     1
102
RTVSPropertyOp45
 70
     1
102
RTVSPropertyOp46
 70
     1
102
RTVSPropertyOp47
 70
     1
102
RTVSPropertyOp48
 70
     1
102
RTVSPropertyOp49
 70
     1
102
RTVSPropertyOp50
 70
     1
102
RTVSPropertyOp51
 70
     0
102
RTVSPropertyOp52
 70
     0
102
RTVSPropertyOp53
 70
     1
102
RTVSPropertyOp54
 70
     1
102
RTVSPropertyOp55
 70
     1
102
RTVSPropertyOp56
 70
     1
102
RTVSPropertyOp57
 70
     1
102
RTVSPropertyOp58
 70
     1
102
RTVSPropertyOp59
 70
     1
102
RTVSPropertyOp60
 70
     1
102
RTVSPropertyOp61
 70
     1
102
RTVSPropertyOp62
 70
     1
  0
XRECORD
  5
C32D
102
{ACAD_REACTORS
330
C32C
102
}
330
C32C
100
AcDbXrecord
280
     1
102
RTVSPost2010Prop28
280
     0
102
RTVSPost2010PropOp28
 70
     1
102
RTVSPost2010Prop29
280
     1
102
RTVSPost2010PropOp29
 70
     1
102
RTVSPost2010Prop30
280
     1
102
RTVSPost2010PropOp30
 70
     1
102
RTVSPost2010Prop31
280
     0
102
RTVSPost2010PropOp31
 70
     1
102
RTVSPost2010Prop32
280
     0
102
RTVSPost2010PropOp32
 70
     1
102
RTVSPost2010Prop33
280
     0
102
RTVSPost2010PropOp33
 70
     1
102
RTVSPost2010Prop34
280
     0
102
RTVSPost2010PropOp34
 70
     1
102
RTVSPost2010Prop35
280
     0
102
RTVSPost2010PropOp35
 70
     1
102
RTVSPost2010Prop36
280
     0
102
RTVSPost2010PropOp36
 70
     1
102
RTVSPost2010Prop37
 90
       50
102
RTVSPost2010PropOp37
 70
     0
102
RTVSPost2010Prop38
140
0.0
102
RTVSPost2010PropOp38
 70
     0
102
RTVSPost2010Prop39
140
1.0
102
RTVSPost2010PropOp39
 70
     0
102
RTVSPost2010Prop40
 90
        0
102
RTVSPost2010PropOp40
 70
     0
102
RTVSPost2010Prop41ColorIndex
 90
       18
102
RTVSPost2010Prop41ColorRGB
 90
        0
102
RTVSPost2010PropOp41
 70
     0
102
RTVSPost2010Prop42
 90
       50
102
RTVSPost2010PropOp42
 70
     0
102
RTVSPost2010Prop43
 90
        3
102
RTVSPost2010PropOp43
 70
     0
102
RTVSPost2010Prop44ColorIndex
 90
        5
102
RTVSPost2010Prop44ColorRGB
 90
      255
102
RTVSPost2010PropOp44
 70
     0
102
RTVSPost2010Prop45
280
     0
102
RTVSPost2010PropOp45
 70
     1
102
RTVSPost2010Prop46
 90
       50
102
RTVSPost2010PropOp46
 70
     0
102
RTVSPost2010Prop47
 90
       50
102
RTVSPost2010PropOp47
 70
     0
102
RTVSPost2010Prop48
 90
       50
102
RTVSPost2010PropOp48
 70
     0
102
RTVSPost2010Prop49
280
     0
102
RTVSPost2010PropOp49
 70
     1
102
RTVSPost2010Prop50
 90
       50
102
RTVSPost2010PropOp50
 70
     0
102
RTVSPost2010Prop51ColorIndex
 90
      256
102
RTVSPost2010Prop51ColorRGB
 90
-16777216
102
RTVSPost2010PropOp51
 70
     0
102
RTVSPost2010Prop52
140
1.0
102
RTVSPost2010PropOp52
 70
     0
102
RTVSPost2010Prop53
 90
        2
102
RTVSPost2010PropOp53
 70
     0
102
RTVSPost2010Prop54
  1
strokes_ogs.tif
102
RTVSPost2010PropOp54
 70
     0
102
RTVSPost2010Prop55
280
     0
102
RTVSPost2010PropOp55
 70
     1
102
RTVSPost2010Prop56
140
1.0
102
RTVSPost2010PropOp56
 70
     0
102
RTVSPost2010Prop57
140
1.0
102
RTVSPost2010PropOp57
 70
     0
102
RTVSPropertyOp0
 70
     0
102
RTVSPropertyOp1
 70
     0
102
RTVSPropertyOp2
 70
     0
102
RTVSPropertyOp3
 70
     0
102
RTVSPropertyOp4
 70
     0
102
RTVSPropertyOp5
 70
     0
102
RTVSPropertyOp6
 70
     0
102
RTVSPropertyOp7
 70
     0
102
RTVSPropertyOp8
 70
     0
102
RTVSPropertyOp9
 70
     0
102
RTVSPropertyOp10
 70
     0
102
RTVSPropertyOp11
 70
     0
102
RTVSPropertyOp12
 70
     0
102
RTVSPropertyOp13
 70
     0
102
RTVSPropertyOp14
 70
     2
102
RTVSPropertyOp15
 70
     0
102
RTVSPropertyOp16
 70
     0
102
RTVSPropertyOp17
 70
     0
102
RTVSPropertyOp18
 70
     0
102
RTVSPropertyOp19
 70
     0
102
RTVSPropertyOp20
 70
     0
102
RTVSPropertyOp21
 70
     0
102
RTVSPropertyOp22
 70
     0
102
RTVSPropertyOp23
 70
     0
102
RTVSPropertyOp24
 70
     0
102
RTVSPropertyOp25
 70
     0
102
RTVSPropertyOp26
 70
     0
102
RTVSPropertyOp27
 70
     0
102
RTVSPropertyOp28
 70
     1
102
RTVSPropertyOp29
 70
     1
102
RTVSPropertyOp30
 70
     1
102
RTVSPropertyOp31
 70
     1
102
RTVSPropertyOp32
 70
     1
102
RTVSPropertyOp33
 70
     1
102
RTVSPropertyOp34
 70
     1
102
RTVSPropertyOp35
 70
     1
102
RTVSPropertyOp36
 70
     1
102
RTVSPropertyOp37
 70
     0
102
RTVSPropertyOp38
 70
     0
102
RTVSPropertyOp39
 70
     0
102
RTVSPropertyOp40
 70
     0
102
RTVSPropertyOp41
 70
     0
102
RTVSPropertyOp42
 70
     0
102
RTVSPropertyOp43
 70
     0
102
RTVSPropertyOp44
 70
     0
102
RTVSPropertyOp45
 70
     1
102
RTVSPropertyOp46
 70
     0
102
RTVSPropertyOp47
 70
     0
102
RTVSPropertyOp48
 70
     0
102
RTVSPropertyOp49
 70
     1
102
RTVSPropertyOp50
 70
     0
102
RTVSPropertyOp51
 70
     0
102
RTVSPropertyOp52
 70
     0
102
RTVSPropertyOp53
 70
     0
102
RTVSPropertyOp54
 70
     0
102
RTVSPropertyOp55
 70
     1
102
RTVSPropertyOp56
 70
     0
102
RTVSPropertyOp57
 70
     0
102
RTVSPropertyOp58
 70
     0
102
RTVSPropertyOp59
 70
     0
102
RTVSPropertyOp60
 70
     0
102
RTVSPropertyOp61
 70
     0
102
RTVSPropertyOp62
 70
     0
  0
XRECORD
  5
C313
102
{ACAD_REACTORS
330
C312
102
}
330
C312
100
AcDbXrecord
280
     1
102
RTVSPost2010Prop28
280
     0
102
RTVSPost2010PropOp28
 70
     1
102
RTVSPost2010Prop29
280
     1
102
RTVSPost2010PropOp29
 70
     1
102
RTVSPost2010Prop30
280
     1
102
RTVSPost2010PropOp30
 70
     1
102
RTVSPost2010Prop31
280
     0
102
RTVSPost2010PropOp31
 70
     1
102
RTVSPost2010Prop32
280
     0
102
RTVSPost2010PropOp32
 70
     1
102
RTVSPost2010Prop33
280
     0
102
RTVSPost2010PropOp33
 70
     1
102
RTVSPost2010Prop34
280
     0
102
RTVSPost2010PropOp34
 70
     1
102
RTVSPost2010Prop35
280
     0
102
RTVSPost2010PropOp35
 70
     1
102
RTVSPost2010Prop36
280
     0
102
RTVSPost2010PropOp36
 70
     1
102
RTVSPost2010Prop37
 90
       50
102
RTVSPost2010PropOp37
 70
     1
102
RTVSPost2010Prop38
140
0.0
102
RTVSPost2010PropOp38
 70
     1
102
RTVSPost2010Prop39
140
1.0
102
RTVSPost2010PropOp39
 70
     1
102
RTVSPost2010Prop40
 90
        0
102
RTVSPost2010PropOp40
 70
     1
102
RTVSPost2010Prop41ColorIndex
 90
       18
102
RTVSPost2010Prop41ColorRGB
 90
        0
102
RTVSPost2010PropOp41
 70
     1
102
RTVSPost2010Prop42
 90
       50
102
RTVSPost2010PropOp42
 70
     1
102
RTVSPost2010Prop43
 90
        3
102
RTVSPost2010PropOp43
 70
     1
102
RTVSPost2010Prop44ColorIndex
 90
        5
102
RTVSPost2010Prop44ColorRGB
 90
      255
102
RTVSPost2010PropOp44
 70
     1
102
RTVSPost2010Prop45
280
     0
102
RTVSPost2010PropOp45
 70
     1
102
RTVSPost2010Prop46
 90
       50
102
RTVSPost2010PropOp46
 70
     1
102
RTVSPost2010Prop47
 90
       50
102
RTVSPost2010PropOp47
 70
     1
102
RTVSPost2010Prop48
 90
       50
102
RTVSPost2010PropOp48
 70
     1
102
RTVSPost2010Prop49
280
     0
102
RTVSPost2010PropOp49
 70
     1
102
RTVSPost2010Prop50
 90
       50
102
RTVSPost2010PropOp50
 70
     1
102
RTVSPost2010Prop51ColorIndex
 90
      256
102
RTVSPost2010Prop51ColorRGB
 90
-16777216
102
RTVSPost2010PropOp51
 70
     0
102
RTVSPost2010Prop52
140
1.0
102
RTVSPost2010PropOp52
 70
     0
102
RTVSPost2010Prop53
 90
        2
102
RTVSPost2010PropOp53
 70
     1
102
RTVSPost2010Prop54
  1
strokes_ogs.tif
102
RTVSPost2010PropOp54
 70
     1
102
RTVSPost2010Prop55
280
     0
102
RTVSPost2010PropOp55
 70
     1
102
RTVSPost2010Prop56
140
1.0
102
RTVSPost2010PropOp56
 70
     1
102
RTVSPost2010Prop57
140
1.0
102
RTVSPost2010PropOp57
 70
     1
102
RTVSPropertyOp0
 70
     1
102
RTVSPropertyOp1
 70
     1
102
RTVSPropertyOp2
 70
     1
102
RTVSPropertyOp3
 70
     1
102
RTVSPropertyOp4
 70
     1
102
RTVSPropertyOp5
 70
     1
102
RTVSPropertyOp6
 70
     1
102
RTVSPropertyOp7
 70
     1
102
RTVSPropertyOp8
 70
     1
102
RTVSPropertyOp9
 70
     1
102
RTVSPropertyOp10
 70
     1
102
RTVSPropertyOp11
 70
     1
102
RTVSPropertyOp12
 70
     1
102
RTVSPropertyOp13
 70
     1
102
RTVSPropertyOp14
 70
     1
102
RTVSPropertyOp15
 70
     1
102
RTVSPropertyOp16
 70
     1
102
RTVSPropertyOp17
 70
     1
102
RTVSPropertyOp18
 70
     1
102
RTVSPropertyOp19
 70
     1
102
RTVSPropertyOp20
 70
     1
102
RTVSPropertyOp21
 70
     1
102
RTVSPropertyOp22
 70
     1
102
RTVSPropertyOp23
 70
     1
102
RTVSPropertyOp24
 70
     1
102
RTVSPropertyOp25
 70
     1
102
RTVSPropertyOp26
 70
     1
102
RTVSPropertyOp27
 70
     1
102
RTVSPropertyOp28
 70
     1
102
RTVSPropertyOp29
 70
     1
102
RTVSPropertyOp30
 70
     1
102
RTVSPropertyOp31
 70
     1
102
RTVSPropertyOp32
 70
     1
102
RTVSPropertyOp33
 70
     1
102
RTVSPropertyOp34
 70
     1
102
RTVSPropertyOp35
 70
     1
102
RTVSPropertyOp36
 70
     1
102
RTVSPropertyOp37
 70
     1
102
RTVSPropertyOp38
 70
     1
102
RTVSPropertyOp39
 70
     1
102
RTVSPropertyOp40
 70
     1
102
RTVSPropertyOp41
 70
     1
102
RTVSPropertyOp42
 70
     1
102
RTVSPropertyOp43
 70
     1
102
RTVSPropertyOp44
 70
     1
102
RTVSPropertyOp45
 70
     1
102
RTVSPropertyOp46
 70
     1
102
RTVSPropertyOp47
 70
     1
102
RTVSPropertyOp48
 70
     1
102
RTVSPropertyOp49
 70
     1
102
RTVSPropertyOp50
 70
     1
102
RTVSPropertyOp51
 70
     0
102
RTVSPropertyOp52
 70
     0
102
RTVSPropertyOp53
 70
     1
102
RTVSPropertyOp54
 70
     1
102
RTVSPropertyOp55
 70
     1
102
RTVSPropertyOp56
 70
     1
102
RTVSPropertyOp57
 70
     1
102
RTVSPropertyOp58
 70
     1
102
RTVSPropertyOp59
 70
     1
102
RTVSPropertyOp60
 70
     1
102
RTVSPropertyOp61
 70
     1
102
RTVSPropertyOp62
 70
     1
  0
XRECORD
  5
C329
102
{ACAD_REACTORS
330
C328
102
}
330
C328
100
AcDbXrecord
280
     1
102
RTVSPost2010Prop28
280
     0
102
RTVSPost2010PropOp28
 70
     1
102
RTVSPost2010Prop29
280
     1
102
RTVSPost2010PropOp29
 70
     1
102
RTVSPost2010Prop30
280
     1
102
RTVSPost2010PropOp30
 70
     1
102
RTVSPost2010Prop31
280
     0
102
RTVSPost2010PropOp31
 70
     1
102
RTVSPost2010Prop32
280
     0
102
RTVSPost2010PropOp32
 70
     1
102
RTVSPost2010Prop33
280
     0
102
RTVSPost2010PropOp33
 70
     1
102
RTVSPost2010Prop34
280
     0
102
RTVSPost2010PropOp34
 70
     1
102
RTVSPost2010Prop35
280
     0
102
RTVSPost2010PropOp35
 70
     1
102
RTVSPost2010Prop36
280
     0
102
RTVSPost2010PropOp36
 70
     1
102
RTVSPost2010Prop37
 90
       50
102
RTVSPost2010PropOp37
 70
     1
102
RTVSPost2010Prop38
140
0.0
102
RTVSPost2010PropOp38
 70
     1
102
RTVSPost2010Prop39
140
1.0
102
RTVSPost2010PropOp39
 70
     1
102
RTVSPost2010Prop40
 90
        0
102
RTVSPost2010PropOp40
 70
     1
102
RTVSPost2010Prop41ColorIndex
 90
       18
102
RTVSPost2010Prop41ColorRGB
 90
        0
102
RTVSPost2010PropOp41
 70
     1
102
RTVSPost2010Prop42
 90
       50
102
RTVSPost2010PropOp42
 70
     1
102
RTVSPost2010Prop43
 90
        3
102
RTVSPost2010PropOp43
 70
     1
102
RTVSPost2010Prop44ColorIndex
 90
        5
102
RTVSPost2010Prop44ColorRGB
 90
      255
102
RTVSPost2010PropOp44
 70
     1
102
RTVSPost2010Prop45
280
     0
102
RTVSPost2010PropOp45
 70
     1
102
RTVSPost2010Prop46
 90
       50
102
RTVSPost2010PropOp46
 70
     1
102
RTVSPost2010Prop47
 90
       50
102
RTVSPost2010PropOp47
 70
     1
102
RTVSPost2010Prop48
 90
       50
102
RTVSPost2010PropOp48
 70
     1
102
RTVSPost2010Prop49
280
     0
102
RTVSPost2010PropOp49
 70
     1
102
RTVSPost2010Prop50
 90
       50
102
RTVSPost2010PropOp50
 70
     1
102
RTVSPost2010Prop51ColorIndex
 90
      256
102
RTVSPost2010Prop51ColorRGB
 90
-16777216
102
RTVSPost2010PropOp51
 70
     0
102
RTVSPost2010Prop52
140
1.0
102
RTVSPost2010PropOp52
 70
     0
102
RTVSPost2010Prop53
 90
        2
102
RTVSPost2010PropOp53
 70
     1
102
RTVSPost2010Prop54
  1
strokes_ogs.tif
102
RTVSPost2010PropOp54
 70
     1
102
RTVSPost2010Prop55
280
     0
102
RTVSPost2010PropOp55
 70
     1
102
RTVSPost2010Prop56
140
1.0
102
RTVSPost2010PropOp56
 70
     1
102
RTVSPost2010Prop57
140
1.0
102
RTVSPost2010PropOp57
 70
     1
102
RTVSPropertyOp0
 70
     1
102
RTVSPropertyOp1
 70
     1
102
RTVSPropertyOp2
 70
     1
102
RTVSPropertyOp3
 70
     1
102
RTVSPropertyOp4
 70
     1
102
RTVSPropertyOp5
 70
     1
102
RTVSPropertyOp6
 70
     1
102
RTVSPropertyOp7
 70
     1
102
RTVSPropertyOp8
 70
     1
102
RTVSPropertyOp9
 70
     1
102
RTVSPropertyOp10
 70
     1
102
RTVSPropertyOp11
 70
     1
102
RTVSPropertyOp12
 70
     1
102
RTVSPropertyOp13
 70
     1
102
RTVSPropertyOp14
 70
     1
102
RTVSPropertyOp15
 70
     1
102
RTVSPropertyOp16
 70
     1
102
RTVSPropertyOp17
 70
     1
102
RTVSPropertyOp18
 70
     1
102
RTVSPropertyOp19
 70
     1
102
RTVSPropertyOp20
 70
     1
102
RTVSPropertyOp21
 70
     1
102
RTVSPropertyOp22
 70
     1
102
RTVSPropertyOp23
 70
     1
102
RTVSPropertyOp24
 70
     1
102
RTVSPropertyOp25
 70
     1
102
RTVSPropertyOp26
 70
     1
102
RTVSPropertyOp27
 70
     1
102
RTVSPropertyOp28
 70
     1
102
RTVSPropertyOp29
 70
     1
102
RTVSPropertyOp30
 70
     1
102
RTVSPropertyOp31
 70
     1
102
RTVSPropertyOp32
 70
     1
102
RTVSPropertyOp33
 70
     1
102
RTVSPropertyOp34
 70
     1
102
RTVSPropertyOp35
 70
     1
102
RTVSPropertyOp36
 70
     1
102
RTVSPropertyOp37
 70
     1
102
RTVSPropertyOp38
 70
     1
102
RTVSPropertyOp39
 70
     1
102
RTVSPropertyOp40
 70
     1
102
RTVSPropertyOp41
 70
     1
102
RTVSPropertyOp42
 70
     1
102
RTVSPropertyOp43
 70
     1
102
RTVSPropertyOp44
 70
     1
102
RTVSPropertyOp45
 70
     1
102
RTVSPropertyOp46
 70
     1
102
RTVSPropertyOp47
 70
     1
102
RTVSPropertyOp48
 70
     1
102
RTVSPropertyOp49
 70
     1
102
RTVSPropertyOp50
 70
     1
102
RTVSPropertyOp51
 70
     0
102
RTVSPropertyOp52
 70
     0
102
RTVSPropertyOp53
 70
     1
102
RTVSPropertyOp54
 70
     1
102
RTVSPropertyOp55
 70
     1
102
RTVSPropertyOp56
 70
     1
102
RTVSPropertyOp57
 70
     1
102
RTVSPropertyOp58
 70
     1
102
RTVSPropertyOp59
 70
     1
102
RTVSPropertyOp60
 70
     1
102
RTVSPropertyOp61
 70
     1
102
RTVSPropertyOp62
 70
     1
  0
XRECORD
  5
C327
102
{ACAD_REACTORS
330
C326
102
}
330
C326
100
AcDbXrecord
280
     1
102
RTVSPost2010Prop28
280
     0
102
RTVSPost2010PropOp28
 70
     1
102
RTVSPost2010Prop29
280
     1
102
RTVSPost2010PropOp29
 70
     1
102
RTVSPost2010Prop30
280
     1
102
RTVSPost2010PropOp30
 70
     1
102
RTVSPost2010Prop31
280
     0
102
RTVSPost2010PropOp31
 70
     1
102
RTVSPost2010Prop32
280
     0
102
RTVSPost2010PropOp32
 70
     1
102
RTVSPost2010Prop33
280
     0
102
RTVSPost2010PropOp33
 70
     1
102
RTVSPost2010Prop34
280
     0
102
RTVSPost2010PropOp34
 70
     1
102
RTVSPost2010Prop35
280
     0
102
RTVSPost2010PropOp35
 70
     1
102
RTVSPost2010Prop36
280
     0
102
RTVSPost2010PropOp36
 70
     1
102
RTVSPost2010Prop37
 90
       50
102
RTVSPost2010PropOp37
 70
     1
102
RTVSPost2010Prop38
140
0.0
102
RTVSPost2010PropOp38
 70
     1
102
RTVSPost2010Prop39
140
1.0
102
RTVSPost2010PropOp39
 70
     1
102
RTVSPost2010Prop40
 90
        0
102
RTVSPost2010PropOp40
 70
     1
102
RTVSPost2010Prop41ColorIndex
 90
       18
102
RTVSPost2010Prop41ColorRGB
 90
        0
102
RTVSPost2010PropOp41
 70
     1
102
RTVSPost2010Prop42
 90
       50
102
RTVSPost2010PropOp42
 70
     1
102
RTVSPost2010Prop43
 90
        3
102
RTVSPost2010PropOp43
 70
     1
102
RTVSPost2010Prop44ColorIndex
 90
        5
102
RTVSPost2010Prop44ColorRGB
 90
      255
102
RTVSPost2010PropOp44
 70
     1
102
RTVSPost2010Prop45
280
     0
102
RTVSPost2010PropOp45
 70
     1
102
RTVSPost2010Prop46
 90
       50
102
RTVSPost2010PropOp46
 70
     1
102
RTVSPost2010Prop47
 90
       50
102
RTVSPost2010PropOp47
 70
     1
102
RTVSPost2010Prop48
 90
       50
102
RTVSPost2010PropOp48
 70
     1
102
RTVSPost2010Prop49
280
     0
102
RTVSPost2010PropOp49
 70
     1
102
RTVSPost2010Prop50
 90
       50
102
RTVSPost2010PropOp50
 70
     1
102
RTVSPost2010Prop51ColorIndex
 90
      256
102
RTVSPost2010Prop51ColorRGB
 90
-16777216
102
RTVSPost2010PropOp51
 70
     0
102
RTVSPost2010Prop52
140
1.0
102
RTVSPost2010PropOp52
 70
     0
102
RTVSPost2010Prop53
 90
        2
102
RTVSPost2010PropOp53
 70
     1
102
RTVSPost2010Prop54
  1
strokes_ogs.tif
102
RTVSPost2010PropOp54
 70
     1
102
RTVSPost2010Prop55
280
     0
102
RTVSPost2010PropOp55
 70
     1
102
RTVSPost2010Prop56
140
1.0
102
RTVSPost2010PropOp56
 70
     1
102
RTVSPost2010Prop57
140
1.0
102
RTVSPost2010PropOp57
 70
     1
102
RTVSPropertyOp0
 70
     1
102
RTVSPropertyOp1
 70
     1
102
RTVSPropertyOp2
 70
     1
102
RTVSPropertyOp3
 70
     1
102
RTVSPropertyOp4
 70
     1
102
RTVSPropertyOp5
 70
     1
102
RTVSPropertyOp6
 70
     1
102
RTVSPropertyOp7
 70
     1
102
RTVSPropertyOp8
 70
     1
102
RTVSPropertyOp9
 70
     1
102
RTVSPropertyOp10
 70
     1
102
RTVSPropertyOp11
 70
     1
102
RTVSPropertyOp12
 70
     1
102
RTVSPropertyOp13
 70
     1
102
RTVSPropertyOp14
 70
     1
102
RTVSPropertyOp15
 70
     1
102
RTVSPropertyOp16
 70
     1
102
RTVSPropertyOp17
 70
     1
102
RTVSPropertyOp18
 70
     1
102
RTVSPropertyOp19
 70
     1
102
RTVSPropertyOp20
 70
     1
102
RTVSPropertyOp21
 70
     1
102
RTVSPropertyOp22
 70
     1
102
RTVSPropertyOp23
 70
     1
102
RTVSPropertyOp24
 70
     1
102
RTVSPropertyOp25
 70
     1
102
RTVSPropertyOp26
 70
     1
102
RTVSPropertyOp27
 70
     1
102
RTVSPropertyOp28
 70
     1
102
RTVSPropertyOp29
 70
     1
102
RTVSPropertyOp30
 70
     1
102
RTVSPropertyOp31
 70
     1
102
RTVSPropertyOp32
 70
     1
102
RTVSPropertyOp33
 70
     1
102
RTVSPropertyOp34
 70
     1
102
RTVSPropertyOp35
 70
     1
102
RTVSPropertyOp36
 70
     1
102
RTVSPropertyOp37
 70
     1
102
RTVSPropertyOp38
 70
     1
102
RTVSPropertyOp39
 70
     1
102
RTVSPropertyOp40
 70
     1
102
RTVSPropertyOp41
 70
     1
102
RTVSPropertyOp42
 70
     1
102
RTVSPropertyOp43
 70
     1
102
RTVSPropertyOp44
 70
     1
102
RTVSPropertyOp45
 70
     1
102
RTVSPropertyOp46
 70
     1
102
RTVSPropertyOp47
 70
     1
102
RTVSPropertyOp48
 70
     1
102
RTVSPropertyOp49
 70
     1
102
RTVSPropertyOp50
 70
     1
102
RTVSPropertyOp51
 70
     0
102
RTVSPropertyOp52
 70
     0
102
RTVSPropertyOp53
 70
     1
102
RTVSPropertyOp54
 70
     1
102
RTVSPropertyOp55
 70
     1
102
RTVSPropertyOp56
 70
     1
102
RTVSPropertyOp57
 70
     1
102
RTVSPropertyOp58
 70
     1
102
RTVSPropertyOp59
 70
     1
102
RTVSPropertyOp60
 70
     1
102
RTVSPropertyOp61
 70
     1
102
RTVSPropertyOp62
 70
     1
  0
XRECORD
  5
C321
102
{ACAD_REACTORS
330
C320
102
}
330
C320
100
AcDbXrecord
280
     1
102
RTVSPost2010Prop28
280
     0
102
RTVSPost2010PropOp28
 70
     1
102
RTVSPost2010Prop29
280
     1
102
RTVSPost2010PropOp29
 70
     1
102
RTVSPost2010Prop30
280
     1
102
RTVSPost2010PropOp30
 70
     1
102
RTVSPost2010Prop31
280
     0
102
RTVSPost2010PropOp31
 70
     1
102
RTVSPost2010Prop32
280
     0
102
RTVSPost2010PropOp32
 70
     1
102
RTVSPost2010Prop33
280
     0
102
RTVSPost2010PropOp33
 70
     1
102
RTVSPost2010Prop34
280
     0
102
RTVSPost2010PropOp34
 70
     1
102
RTVSPost2010Prop35
280
     0
102
RTVSPost2010PropOp35
 70
     1
102
RTVSPost2010Prop36
280
     0
102
RTVSPost2010PropOp36
 70
     1
102
RTVSPost2010Prop37
 90
       50
102
RTVSPost2010PropOp37
 70
     1
102
RTVSPost2010Prop38
140
0.0
102
RTVSPost2010PropOp38
 70
     1
102
RTVSPost2010Prop39
140
1.0
102
RTVSPost2010PropOp39
 70
     1
102
RTVSPost2010Prop40
 90
        0
102
RTVSPost2010PropOp40
 70
     1
102
RTVSPost2010Prop41ColorIndex
 90
       18
102
RTVSPost2010Prop41ColorRGB
 90
        0
102
RTVSPost2010PropOp41
 70
     1
102
RTVSPost2010Prop42
 90
       50
102
RTVSPost2010PropOp42
 70
     1
102
RTVSPost2010Prop43
 90
        3
102
RTVSPost2010PropOp43
 70
     1
102
RTVSPost2010Prop44ColorIndex
 90
        5
102
RTVSPost2010Prop44ColorRGB
 90
      255
102
RTVSPost2010PropOp44
 70
     1
102
RTVSPost2010Prop45
280
     0
102
RTVSPost2010PropOp45
 70
     1
102
RTVSPost2010Prop46
 90
       50
102
RTVSPost2010PropOp46
 70
     1
102
RTVSPost2010Prop47
 90
       50
102
RTVSPost2010PropOp47
 70
     1
102
RTVSPost2010Prop48
 90
       50
102
RTVSPost2010PropOp48
 70
     1
102
RTVSPost2010Prop49
280
     0
102
RTVSPost2010PropOp49
 70
     1
102
RTVSPost2010Prop50
 90
       50
102
RTVSPost2010PropOp50
 70
     1
102
RTVSPost2010Prop51ColorIndex
 90
      256
102
RTVSPost2010Prop51ColorRGB
 90
-16777216
102
RTVSPost2010PropOp51
 70
     0
102
RTVSPost2010Prop52
140
1.0
102
RTVSPost2010PropOp52
 70
     0
102
RTVSPost2010Prop53
 90
        2
102
RTVSPost2010PropOp53
 70
     1
102
RTVSPost2010Prop54
  1
strokes_ogs.tif
102
RTVSPost2010PropOp54
 70
     1
102
RTVSPost2010Prop55
280
     0
102
RTVSPost2010PropOp55
 70
     1
102
RTVSPost2010Prop56
140
1.0
102
RTVSPost2010PropOp56
 70
     1
102
RTVSPost2010Prop57
140
1.0
102
RTVSPost2010PropOp57
 70
     1
102
RTVSPropertyOp0
 70
     1
102
RTVSPropertyOp1
 70
     1
102
RTVSPropertyOp2
 70
     1
102
RTVSPropertyOp3
 70
     1
102
RTVSPropertyOp4
 70
     1
102
RTVSPropertyOp5
 70
     1
102
RTVSPropertyOp6
 70
     1
102
RTVSPropertyOp7
 70
     1
102
RTVSPropertyOp8
 70
     1
102
RTVSPropertyOp9
 70
     1
102
RTVSPropertyOp10
 70
     1
102
RTVSPropertyOp11
 70
     1
102
RTVSPropertyOp12
 70
     1
102
RTVSPropertyOp13
 70
     1
102
RTVSPropertyOp14
 70
     1
102
RTVSPropertyOp15
 70
     1
102
RTVSPropertyOp16
 70
     1
102
RTVSPropertyOp17
 70
     1
102
RTVSPropertyOp18
 70
     1
102
RTVSPropertyOp19
 70
     1
102
RTVSPropertyOp20
 70
     1
102
RTVSPropertyOp21
 70
     1
102
RTVSPropertyOp22
 70
     1
102
RTVSPropertyOp23
 70
     1
102
RTVSPropertyOp24
 70
     1
102
RTVSPropertyOp25
 70
     1
102
RTVSPropertyOp26
 70
     1
102
RTVSPropertyOp27
 70
     1
102
RTVSPropertyOp28
 70
     1
102
RTVSPropertyOp29
 70
     1
102
RTVSPropertyOp30
 70
     1
102
RTVSPropertyOp31
 70
     1
102
RTVSPropertyOp32
 70
     1
102
RTVSPropertyOp33
 70
     1
102
RTVSPropertyOp34
 70
     1
102
RTVSPropertyOp35
 70
     1
102
RTVSPropertyOp36
 70
     1
102
RTVSPropertyOp37
 70
     1
102
RTVSPropertyOp38
 70
     1
102
RTVSPropertyOp39
 70
     1
102
RTVSPropertyOp40
 70
     1
102
RTVSPropertyOp41
 70
     1
102
RTVSPropertyOp42
 70
     1
102
RTVSPropertyOp43
 70
     1
102
RTVSPropertyOp44
 70
     1
102
RTVSPropertyOp45
 70
     1
102
RTVSPropertyOp46
 70
     1
102
RTVSPropertyOp47
 70
     1
102
RTVSPropertyOp48
 70
     1
102
RTVSPropertyOp49
 70
     1
102
RTVSPropertyOp50
 70
     1
102
RTVSPropertyOp51
 70
     0
102
RTVSPropertyOp52
 70
     0
102
RTVSPropertyOp53
 70
     1
102
RTVSPropertyOp54
 70
     1
102
RTVSPropertyOp55
 70
     1
102
RTVSPropertyOp56
 70
     1
102
RTVSPropertyOp57
 70
     1
102
RTVSPropertyOp58
 70
     1
102
RTVSPropertyOp59
 70
     1
102
RTVSPropertyOp60
 70
     1
102
RTVSPropertyOp61
 70
     1
102
RTVSPropertyOp62
 70
     1
  0
XRECORD
  5
C323
102
{ACAD_REACTORS
330
C322
102
}
330
C322
100
AcDbXrecord
280
     1
102
RTVSPost2010Prop28
280
     0
102
RTVSPost2010PropOp28
 70
     1
102
RTVSPost2010Prop29
280
     1
102
RTVSPost2010PropOp29
 70
     1
102
RTVSPost2010Prop30
280
     1
102
RTVSPost2010PropOp30
 70
     1
102
RTVSPost2010Prop31
280
     0
102
RTVSPost2010PropOp31
 70
     1
102
RTVSPost2010Prop32
280
     0
102
RTVSPost2010PropOp32
 70
     1
102
RTVSPost2010Prop33
280
     0
102
RTVSPost2010PropOp33
 70
     1
102
RTVSPost2010Prop34
280
     0
102
RTVSPost2010PropOp34
 70
     1
102
RTVSPost2010Prop35
280
     0
102
RTVSPost2010PropOp35
 70
     1
102
RTVSPost2010Prop36
280
     0
102
RTVSPost2010PropOp36
 70
     1
102
RTVSPost2010Prop37
 90
       50
102
RTVSPost2010PropOp37
 70
     1
102
RTVSPost2010Prop38
140
0.0
102
RTVSPost2010PropOp38
 70
     1
102
RTVSPost2010Prop39
140
1.0
102
RTVSPost2010PropOp39
 70
     1
102
RTVSPost2010Prop40
 90
        0
102
RTVSPost2010PropOp40
 70
     1
102
RTVSPost2010Prop41ColorIndex
 90
       18
102
RTVSPost2010Prop41ColorRGB
 90
        0
102
RTVSPost2010PropOp41
 70
     1
102
RTVSPost2010Prop42
 90
       50
102
RTVSPost2010PropOp42
 70
     1
102
RTVSPost2010Prop43
 90
        3
102
RTVSPost2010PropOp43
 70
     1
102
RTVSPost2010Prop44ColorIndex
 90
        5
102
RTVSPost2010Prop44ColorRGB
 90
      255
102
RTVSPost2010PropOp44
 70
     1
102
RTVSPost2010Prop45
280
     0
102
RTVSPost2010PropOp45
 70
     1
102
RTVSPost2010Prop46
 90
       50
102
RTVSPost2010PropOp46
 70
     1
102
RTVSPost2010Prop47
 90
       50
102
RTVSPost2010PropOp47
 70
     1
102
RTVSPost2010Prop48
 90
       50
102
RTVSPost2010PropOp48
 70
     1
102
RTVSPost2010Prop49
280
     0
102
RTVSPost2010PropOp49
 70
     1
102
RTVSPost2010Prop50
 90
       50
102
RTVSPost2010PropOp50
 70
     1
102
RTVSPost2010Prop51ColorIndex
 90
      256
102
RTVSPost2010Prop51ColorRGB
 90
-16777216
102
RTVSPost2010PropOp51
 70
     0
102
RTVSPost2010Prop52
140
1.0
102
RTVSPost2010PropOp52
 70
     0
102
RTVSPost2010Prop53
 90
        2
102
RTVSPost2010PropOp53
 70
     1
102
RTVSPost2010Prop54
  1
strokes_ogs.tif
102
RTVSPost2010PropOp54
 70
     1
102
RTVSPost2010Prop55
280
     0
102
RTVSPost2010PropOp55
 70
     1
102
RTVSPost2010Prop56
140
1.0
102
RTVSPost2010PropOp56
 70
     1
102
RTVSPost2010Prop57
140
1.0
102
RTVSPost2010PropOp57
 70
     1
102
RTVSPropertyOp0
 70
     1
102
RTVSPropertyOp1
 70
     1
102
RTVSPropertyOp2
 70
     1
102
RTVSPropertyOp3
 70
     1
102
RTVSPropertyOp4
 70
     1
102
RTVSPropertyOp5
 70
     1
102
RTVSPropertyOp6
 70
     1
102
RTVSPropertyOp7
 70
     1
102
RTVSPropertyOp8
 70
     1
102
RTVSPropertyOp9
 70
     1
102
RTVSPropertyOp10
 70
     1
102
RTVSPropertyOp11
 70
     1
102
RTVSPropertyOp12
 70
     1
102
RTVSPropertyOp13
 70
     1
102
RTVSPropertyOp14
 70
     1
102
RTVSPropertyOp15
 70
     1
102
RTVSPropertyOp16
 70
     1
102
RTVSPropertyOp17
 70
     1
102
RTVSPropertyOp18
 70
     1
102
RTVSPropertyOp19
 70
     1
102
RTVSPropertyOp20
 70
     1
102
RTVSPropertyOp21
 70
     1
102
RTVSPropertyOp22
 70
     1
102
RTVSPropertyOp23
 70
     1
102
RTVSPropertyOp24
 70
     1
102
RTVSPropertyOp25
 70
     1
102
RTVSPropertyOp26
 70
     1
102
RTVSPropertyOp27
 70
     1
102
RTVSPropertyOp28
 70
     1
102
RTVSPropertyOp29
 70
     1
102
RTVSPropertyOp30
 70
     1
102
RTVSPropertyOp31
 70
     1
102
RTVSPropertyOp32
 70
     1
102
RTVSPropertyOp33
 70
     1
102
RTVSPropertyOp34
 70
     1
102
RTVSPropertyOp35
 70
     1
102
RTVSPropertyOp36
 70
     1
102
RTVSPropertyOp37
 70
     1
102
RTVSPropertyOp38
 70
     1
102
RTVSPropertyOp39
 70
     1
102
RTVSPropertyOp40
 70
     1
102
RTVSPropertyOp41
 70
     1
102
RTVSPropertyOp42
 70
     1
102
RTVSPropertyOp43
 70
     1
102
RTVSPropertyOp44
 70
     1
102
RTVSPropertyOp45
 70
     1
102
RTVSPropertyOp46
 70
     1
102
RTVSPropertyOp47
 70
     1
102
RTVSPropertyOp48
 70
     1
102
RTVSPropertyOp49
 70
     1
102
RTVSPropertyOp50
 70
     1
102
RTVSPropertyOp51
 70
     0
102
RTVSPropertyOp52
 70
     0
102
RTVSPropertyOp53
 70
     1
102
RTVSPropertyOp54
 70
     1
102
RTVSPropertyOp55
 70
     1
102
RTVSPropertyOp56
 70
     1
102
RTVSPropertyOp57
 70
     1
102
RTVSPropertyOp58
 70
     1
102
RTVSPropertyOp59
 70
     1
102
RTVSPropertyOp60
 70
     1
102
RTVSPropertyOp61
 70
     1
102
RTVSPropertyOp62
 70
     1
  0
XRECORD
  5
C319
102
{ACAD_REACTORS
330
C318
102
}
330
C318
100
AcDbXrecord
280
     1
102
RTVSPost2010Prop28
280
     0
102
RTVSPost2010PropOp28
 70
     1
102
RTVSPost2010Prop29
280
     1
102
RTVSPost2010PropOp29
 70
     1
102
RTVSPost2010Prop30
280
     1
102
RTVSPost2010PropOp30
 70
     1
102
RTVSPost2010Prop31
280
     0
102
RTVSPost2010PropOp31
 70
     1
102
RTVSPost2010Prop32
280
     0
102
RTVSPost2010PropOp32
 70
     1
102
RTVSPost2010Prop33
280
     0
102
RTVSPost2010PropOp33
 70
     1
102
RTVSPost2010Prop34
280
     0
102
RTVSPost2010PropOp34
 70
     1
102
RTVSPost2010Prop35
280
     0
102
RTVSPost2010PropOp35
 70
     1
102
RTVSPost2010Prop36
280
     0
102
RTVSPost2010PropOp36
 70
     1
102
RTVSPost2010Prop37
 90
       50
102
RTVSPost2010PropOp37
 70
     1
102
RTVSPost2010Prop38
140
0.0
102
RTVSPost2010PropOp38
 70
     1
102
RTVSPost2010Prop39
140
1.0
102
RTVSPost2010PropOp39
 70
     1
102
RTVSPost2010Prop40
 90
        0
102
RTVSPost2010PropOp40
 70
     1
102
RTVSPost2010Prop41ColorIndex
 90
       18
102
RTVSPost2010Prop41ColorRGB
 90
        0
102
RTVSPost2010PropOp41
 70
     1
102
RTVSPost2010Prop42
 90
       50
102
RTVSPost2010PropOp42
 70
     1
102
RTVSPost2010Prop43
 90
        3
102
RTVSPost2010PropOp43
 70
     1
102
RTVSPost2010Prop44ColorIndex
 90
        5
102
RTVSPost2010Prop44ColorRGB
 90
      255
102
RTVSPost2010PropOp44
 70
     1
102
RTVSPost2010Prop45
280
     0
102
RTVSPost2010PropOp45
 70
     1
102
RTVSPost2010Prop46
 90
       50
102
RTVSPost2010PropOp46
 70
     1
102
RTVSPost2010Prop47
 90
       50
102
RTVSPost2010PropOp47
 70
     1
102
RTVSPost2010Prop48
 90
       50
102
RTVSPost2010PropOp48
 70
     1
102
RTVSPost2010Prop49
280
     0
102
RTVSPost2010PropOp49
 70
     1
102
RTVSPost2010Prop50
 90
       50
102
RTVSPost2010PropOp50
 70
     1
102
RTVSPost2010Prop51ColorIndex
 90
      256
102
RTVSPost2010Prop51ColorRGB
 90
-16777216
102
RTVSPost2010PropOp51
 70
     0
102
RTVSPost2010Prop52
140
1.0
102
RTVSPost2010PropOp52
 70
     0
102
RTVSPost2010Prop53
 90
        2
102
RTVSPost2010PropOp53
 70
     1
102
RTVSPost2010Prop54
  1
strokes_ogs.tif
102
RTVSPost2010PropOp54
 70
     1
102
RTVSPost2010Prop55
280
     0
102
RTVSPost2010PropOp55
 70
     1
102
RTVSPost2010Prop56
140
1.0
102
RTVSPost2010PropOp56
 70
     1
102
RTVSPost2010Prop57
140
1.0
102
RTVSPost2010PropOp57
 70
     1
102
RTVSPropertyOp0
 70
     1
102
RTVSPropertyOp1
 70
     1
102
RTVSPropertyOp2
 70
     1
102
RTVSPropertyOp3
 70
     1
102
RTVSPropertyOp4
 70
     1
102
RTVSPropertyOp5
 70
     1
102
RTVSPropertyOp6
 70
     1
102
RTVSPropertyOp7
 70
     1
102
RTVSPropertyOp8
 70
     1
102
RTVSPropertyOp9
 70
     1
102
RTVSPropertyOp10
 70
     1
102
RTVSPropertyOp11
 70
     1
102
RTVSPropertyOp12
 70
     1
102
RTVSPropertyOp13
 70
     1
102
RTVSPropertyOp14
 70
     1
102
RTVSPropertyOp15
 70
     1
102
RTVSPropertyOp16
 70
     1
102
RTVSPropertyOp17
 70
     1
102
RTVSPropertyOp18
 70
     1
102
RTVSPropertyOp19
 70
     1
102
RTVSPropertyOp20
 70
     1
102
RTVSPropertyOp21
 70
     1
102
RTVSPropertyOp22
 70
     1
102
RTVSPropertyOp23
 70
     1
102
RTVSPropertyOp24
 70
     1
102
RTVSPropertyOp25
 70
     1
102
RTVSPropertyOp26
 70
     1
102
RTVSPropertyOp27
 70
     1
102
RTVSPropertyOp28
 70
     1
102
RTVSPropertyOp29
 70
     1
102
RTVSPropertyOp30
 70
     1
102
RTVSPropertyOp31
 70
     1
102
RTVSPropertyOp32
 70
     1
102
RTVSPropertyOp33
 70
     1
102
RTVSPropertyOp34
 70
     1
102
RTVSPropertyOp35
 70
     1
102
RTVSPropertyOp36
 70
     1
102
RTVSPropertyOp37
 70
     1
102
RTVSPropertyOp38
 70
     1
102
RTVSPropertyOp39
 70
     1
102
RTVSPropertyOp40
 70
     1
102
RTVSPropertyOp41
 70
     1
102
RTVSPropertyOp42
 70
     1
102
RTVSPropertyOp43
 70
     1
102
RTVSPropertyOp44
 70
     1
102
RTVSPropertyOp45
 70
     1
102
RTVSPropertyOp46
 70
     1
102
RTVSPropertyOp47
 70
     1
102
RTVSPropertyOp48
 70
     1
102
RTVSPropertyOp49
 70
     1
102
RTVSPropertyOp50
 70
     1
102
RTVSPropertyOp51
 70
     0
102
RTVSPropertyOp52
 70
     0
102
RTVSPropertyOp53
 70
     1
102
RTVSPropertyOp54
 70
     1
102
RTVSPropertyOp55
 70
     1
102
RTVSPropertyOp56
 70
     1
102
RTVSPropertyOp57
 70
     1
102
RTVSPropertyOp58
 70
     1
102
RTVSPropertyOp59
 70
     1
102
RTVSPropertyOp60
 70
     1
102
RTVSPropertyOp61
 70
     1
102
RTVSPropertyOp62
 70
     1
  0
XRECORD
  5
C30D
102
{ACAD_REACTORS
330
C30C
102
}
330
C30C
100
AcDbXrecord
280
     1
102
RTVSPost2010Prop28
280
     0
102
RTVSPost2010PropOp28
 70
     1
102
RTVSPost2010Prop29
280
     1
102
RTVSPost2010PropOp29
 70
     1
102
RTVSPost2010Prop30
280
     1
102
RTVSPost2010PropOp30
 70
     1
102
RTVSPost2010Prop31
280
     0
102
RTVSPost2010PropOp31
 70
     1
102
RTVSPost2010Prop32
280
     0
102
RTVSPost2010PropOp32
 70
     1
102
RTVSPost2010Prop33
280
     0
102
RTVSPost2010PropOp33
 70
     1
102
RTVSPost2010Prop34
280
     0
102
RTVSPost2010PropOp34
 70
     1
102
RTVSPost2010Prop35
280
     0
102
RTVSPost2010PropOp35
 70
     1
102
RTVSPost2010Prop36
280
     0
102
RTVSPost2010PropOp36
 70
     1
102
RTVSPost2010Prop37
 90
       50
102
RTVSPost2010PropOp37
 70
     1
102
RTVSPost2010Prop38
140
0.0
102
RTVSPost2010PropOp38
 70
     1
102
RTVSPost2010Prop39
140
1.0
102
RTVSPost2010PropOp39
 70
     1
102
RTVSPost2010Prop40
 90
        0
102
RTVSPost2010PropOp40
 70
     1
102
RTVSPost2010Prop41ColorIndex
 90
       18
102
RTVSPost2010Prop41ColorRGB
 90
        0
102
RTVSPost2010PropOp41
 70
     1
102
RTVSPost2010Prop42
 90
       50
102
RTVSPost2010PropOp42
 70
     1
102
RTVSPost2010Prop43
 90
        3
102
RTVSPost2010PropOp43
 70
     1
102
RTVSPost2010Prop44ColorIndex
 90
        5
102
RTVSPost2010Prop44ColorRGB
 90
      255
102
RTVSPost2010PropOp44
 70
     1
102
RTVSPost2010Prop45
280
     0
102
RTVSPost2010PropOp45
 70
     1
102
RTVSPost2010Prop46
 90
       50
102
RTVSPost2010PropOp46
 70
     1
102
RTVSPost2010Prop47
 90
       50
102
RTVSPost2010PropOp47
 70
     1
102
RTVSPost2010Prop48
 90
       50
102
RTVSPost2010PropOp48
 70
     1
102
RTVSPost2010Prop49
280
     0
102
RTVSPost2010PropOp49
 70
     1
102
RTVSPost2010Prop50
 90
       50
102
RTVSPost2010PropOp50
 70
     1
102
RTVSPost2010Prop51ColorIndex
 90
      256
102
RTVSPost2010Prop51ColorRGB
 90
-16777216
102
RTVSPost2010PropOp51
 70
     0
102
RTVSPost2010Prop52
140
1.0
102
RTVSPost2010PropOp52
 70
     0
102
RTVSPost2010Prop53
 90
        2
102
RTVSPost2010PropOp53
 70
     1
102
RTVSPost2010Prop54
  1
strokes_ogs.tif
102
RTVSPost2010PropOp54
 70
     1
102
RTVSPost2010Prop55
280
     0
102
RTVSPost2010PropOp55
 70
     1
102
RTVSPost2010Prop56
140
1.0
102
RTVSPost2010PropOp56
 70
     1
102
RTVSPost2010Prop57
140
1.0
102
RTVSPost2010PropOp57
 70
     1
102
RTVSPropertyOp0
 70
     1
102
RTVSPropertyOp1
 70
     1
102
RTVSPropertyOp2
 70
     1
102
RTVSPropertyOp3
 70
     1
102
RTVSPropertyOp4
 70
     1
102
RTVSPropertyOp5
 70
     1
102
RTVSPropertyOp6
 70
     1
102
RTVSPropertyOp7
 70
     1
102
RTVSPropertyOp8
 70
     1
102
RTVSPropertyOp9
 70
     1
102
RTVSPropertyOp10
 70
     1
102
RTVSPropertyOp11
 70
     1
102
RTVSPropertyOp12
 70
     1
102
RTVSPropertyOp13
 70
     1
102
RTVSPropertyOp14
 70
     1
102
RTVSPropertyOp15
 70
     1
102
RTVSPropertyOp16
 70
     1
102
RTVSPropertyOp17
 70
     1
102
RTVSPropertyOp18
 70
     1
102
RTVSPropertyOp19
 70
     1
102
RTVSPropertyOp20
 70
     1
102
RTVSPropertyOp21
 70
     1
102
RTVSPropertyOp22
 70
     1
102
RTVSPropertyOp23
 70
     1
102
RTVSPropertyOp24
 70
     1
102
RTVSPropertyOp25
 70
     1
102
RTVSPropertyOp26
 70
     1
102
RTVSPropertyOp27
 70
     1
102
RTVSPropertyOp28
 70
     1
102
RTVSPropertyOp29
 70
     1
102
RTVSPropertyOp30
 70
     1
102
RTVSPropertyOp31
 70
     1
102
RTVSPropertyOp32
 70
     1
102
RTVSPropertyOp33
 70
     1
102
RTVSPropertyOp34
 70
     1
102
RTVSPropertyOp35
 70
     1
102
RTVSPropertyOp36
 70
     1
102
RTVSPropertyOp37
 70
     1
102
RTVSPropertyOp38
 70
     1
102
RTVSPropertyOp39
 70
     1
102
RTVSPropertyOp40
 70
     1
102
RTVSPropertyOp41
 70
     1
102
RTVSPropertyOp42
 70
     1
102
RTVSPropertyOp43
 70
     1
102
RTVSPropertyOp44
 70
     1
102
RTVSPropertyOp45
 70
     1
102
RTVSPropertyOp46
 70
     1
102
RTVSPropertyOp47
 70
     1
102
RTVSPropertyOp48
 70
     1
102
RTVSPropertyOp49
 70
     1
102
RTVSPropertyOp50
 70
     1
102
RTVSPropertyOp51
 70
     0
102
RTVSPropertyOp52
 70
     0
102
RTVSPropertyOp53
 70
     1
102
RTVSPropertyOp54
 70
     1
102
RTVSPropertyOp55
 70
     1
102
RTVSPropertyOp56
 70
     1
102
RTVSPropertyOp57
 70
     1
102
RTVSPropertyOp58
 70
     1
102
RTVSPropertyOp59
 70
     1
102
RTVSPropertyOp60
 70
     1
102
RTVSPropertyOp61
 70
     1
102
RTVSPropertyOp62
 70
     1
  0
XRECORD
  5
C325
102
{ACAD_REACTORS
330
C324
102
}
330
C324
100
AcDbXrecord
280
     1
102
RTVSPost2010Prop28
280
     0
102
RTVSPost2010PropOp28
 70
     1
102
RTVSPost2010Prop29
280
     1
102
RTVSPost2010PropOp29
 70
     1
102
RTVSPost2010Prop30
280
     1
102
RTVSPost2010PropOp30
 70
     1
102
RTVSPost2010Prop31
280
     0
102
RTVSPost2010PropOp31
 70
     1
102
RTVSPost2010Prop32
280
     0
102
RTVSPost2010PropOp32
 70
     1
102
RTVSPost2010Prop33
280
     0
102
RTVSPost2010PropOp33
 70
     1
102
RTVSPost2010Prop34
280
     0
102
RTVSPost2010PropOp34
 70
     1
102
RTVSPost2010Prop35
280
     0
102
RTVSPost2010PropOp35
 70
     1
102
RTVSPost2010Prop36
280
     0
102
RTVSPost2010PropOp36
 70
     1
102
RTVSPost2010Prop37
 90
       50
102
RTVSPost2010PropOp37
 70
     1
102
RTVSPost2010Prop38
140
0.0
102
RTVSPost2010PropOp38
 70
     1
102
RTVSPost2010Prop39
140
1.0
102
RTVSPost2010PropOp39
 70
     1
102
RTVSPost2010Prop40
 90
        0
102
RTVSPost2010PropOp40
 70
     1
102
RTVSPost2010Prop41ColorIndex
 90
       18
102
RTVSPost2010Prop41ColorRGB
 90
        0
102
RTVSPost2010PropOp41
 70
     1
102
RTVSPost2010Prop42
 90
       50
102
RTVSPost2010PropOp42
 70
     1
102
RTVSPost2010Prop43
 90
        3
102
RTVSPost2010PropOp43
 70
     1
102
RTVSPost2010Prop44ColorIndex
 90
        5
102
RTVSPost2010Prop44ColorRGB
 90
      255
102
RTVSPost2010PropOp44
 70
     1
102
RTVSPost2010Prop45
280
     0
102
RTVSPost2010PropOp45
 70
     1
102
RTVSPost2010Prop46
 90
       50
102
RTVSPost2010PropOp46
 70
     1
102
RTVSPost2010Prop47
 90
       50
102
RTVSPost2010PropOp47
 70
     1
102
RTVSPost2010Prop48
 90
       50
102
RTVSPost2010PropOp48
 70
     1
102
RTVSPost2010Prop49
280
     0
102
RTVSPost2010PropOp49
 70
     1
102
RTVSPost2010Prop50
 90
       50
102
RTVSPost2010PropOp50
 70
     1
102
RTVSPost2010Prop51ColorIndex
 90
      256
102
RTVSPost2010Prop51ColorRGB
 90
-16777216
102
RTVSPost2010PropOp51
 70
     0
102
RTVSPost2010Prop52
140
1.0
102
RTVSPost2010PropOp52
 70
     0
102
RTVSPost2010Prop53
 90
        2
102
RTVSPost2010PropOp53
 70
     1
102
RTVSPost2010Prop54
  1
strokes_ogs.tif
102
RTVSPost2010PropOp54
 70
     1
102
RTVSPost2010Prop55
280
     0
102
RTVSPost2010PropOp55
 70
     1
102
RTVSPost2010Prop56
140
1.0
102
RTVSPost2010PropOp56
 70
     1
102
RTVSPost2010Prop57
140
1.0
102
RTVSPost2010PropOp57
 70
     1
102
RTVSPropertyOp0
 70
     1
102
RTVSPropertyOp1
 70
     1
102
RTVSPropertyOp2
 70
     1
102
RTVSPropertyOp3
 70
     1
102
RTVSPropertyOp4
 70
     1
102
RTVSPropertyOp5
 70
     1
102
RTVSPropertyOp6
 70
     1
102
RTVSPropertyOp7
 70
     1
102
RTVSPropertyOp8
 70
     1
102
RTVSPropertyOp9
 70
     1
102
RTVSPropertyOp10
 70
     1
102
RTVSPropertyOp11
 70
     1
102
RTVSPropertyOp12
 70
     1
102
RTVSPropertyOp13
 70
     1
102
RTVSPropertyOp14
 70
     1
102
RTVSPropertyOp15
 70
     1
102
RTVSPropertyOp16
 70
     1
102
RTVSPropertyOp17
 70
     1
102
RTVSPropertyOp18
 70
     1
102
RTVSPropertyOp19
 70
     1
102
RTVSPropertyOp20
 70
     1
102
RTVSPropertyOp21
 70
     1
102
RTVSPropertyOp22
 70
     1
102
RTVSPropertyOp23
 70
     1
102
RTVSPropertyOp24
 70
     1
102
RTVSPropertyOp25
 70
     1
102
RTVSPropertyOp26
 70
     1
102
RTVSPropertyOp27
 70
     1
102
RTVSPropertyOp28
 70
     1
102
RTVSPropertyOp29
 70
     1
102
RTVSPropertyOp30
 70
     1
102
RTVSPropertyOp31
 70
     1
102
RTVSPropertyOp32
 70
     1
102
RTVSPropertyOp33
 70
     1
102
RTVSPropertyOp34
 70
     1
102
RTVSPropertyOp35
 70
     1
102
RTVSPropertyOp36
 70
     1
102
RTVSPropertyOp37
 70
     1
102
RTVSPropertyOp38
 70
     1
102
RTVSPropertyOp39
 70
     1
102
RTVSPropertyOp40
 70
     1
102
RTVSPropertyOp41
 70
     1
102
RTVSPropertyOp42
 70
     1
102
RTVSPropertyOp43
 70
     1
102
RTVSPropertyOp44
 70
     1
102
RTVSPropertyOp45
 70
     1
102
RTVSPropertyOp46
 70
     1
102
RTVSPropertyOp47
 70
     1
102
RTVSPropertyOp48
 70
     1
102
RTVSPropertyOp49
 70
     1
102
RTVSPropertyOp50
 70
     1
102
RTVSPropertyOp51
 70
     0
102
RTVSPropertyOp52
 70
     0
102
RTVSPropertyOp53
 70
     1
102
RTVSPropertyOp54
 70
     1
102
RTVSPropertyOp55
 70
     1
102
RTVSPropertyOp56
 70
     1
102
RTVSPropertyOp57
 70
     1
102
RTVSPropertyOp58
 70
     1
102
RTVSPropertyOp59
 70
     1
102
RTVSPropertyOp60
 70
     1
102
RTVSPropertyOp61
 70
     1
102
RTVSPropertyOp62
 70
     1
  0
ENDSEC
  0
EOF
