  0
SECTION
  2
HEADER
  9
$ACADVER
  1
AC1015
  9
$ACADMAINTVER
 70
    20
  9
$DWGCODEPAGE
  3
ANSI_932
  9
$INSBASE
 10
0.0
 20
0.0
 30
0.0
  9
$EXTMIN
 10
10.0
 20
9.999999999999998
 30
0.0
  9
$EXTMAX
 10
445.45
 20
286.911449
 30
0.0
  9
$LIMMIN
 10
0.0
 20
0.0
  9
$LIMMAX
 10
495.0
 20
341.25
  9
$ORTHOMODE
 70
     0
  9
$REGENMODE
 70
     1
  9
$FILLMODE
 70
     1
  9
$QTEXTMODE
 70
     0
  9
$MIRRTEXT
 70
     1
  9
$LTSCALE
 40
20.0
  9
$ATTMODE
 70
     1
  9
$TEXTSIZE
 40
5.0
  9
$TRACEWID
 40
1.0
  9
$TEXTSTYLE
  7
STANDARD
  9
$CLAYER
  8
0
  9
$CELTYPE
  6
BYLAYER
  9
$CECOLOR
 62
   256
  9
$CELTSCALE
 40
1.0
  9
$DISPSILH
 70
     0
  9
$DIMSCALE
 40
1.0
  9
$DIMASZ
 40
3.0
  9
$DIMEXO
 40
1.0
  9
$DIMDLI
 40
10.0
  9
$DIMRND
 40
0.0
  9
$DIMDLE
 40
0.0
  9
$DIMEXE
 40
1.0
  9
$DIMTP
 40
0.0
  9
$DIMTM
 40
0.0
  9
$DIMTXT
 40
2.5
  9
$DIMCEN
 40
0.0
  9
$DIMTSZ
 40
0.0
  9
$DIMTOL
 70
     0
  9
$DIMLIM
 70
     0
  9
$DIMTIH
 70
     0
  9
$DIMTOH
 70
     0
  9
$DIMSE1
 70
     1
  9
$DIMSE2
 70
     1
  9
$DIMTAD
 70
     3
  9
$DIMZIN
 70
     8
  9
$DIMBLK
  1

  9
$DIMASO
 70
     1
  9
$DIMSHO
 70
     1
  9
$DIMPOST
  1

  9
$DIMAPOST
  1

  9
$DIMALT
 70
     0
  9
$DIMALTD
 70
     2
  9
$DIMALTF
 40
25.4
  9
$DIMLFAC
 40
1.0
  9
$DIMTOFL
 70
     1
  9
$DIMTVP
 40
0.0
  9
$DIMTIX
 70
     0
  9
$DIMSOXD
 70
     0
  9
$DIMSAH
 70
     1
  9
$DIMBLK1
  1
OPEN
  9
$DIMBLK2
  1
OPEN
  9
$DIMSTYLE
  2
STANDARD
  9
$DIMCLRD
 70
     0
  9
$DIMCLRE
 70
     0
  9
$DIMCLRT
 70
     0
  9
$DIMTFAC
 40
1.0
  9
$DIMGAP
 40
1.0
  9
$DIMJUST
 70
     0
  9
$DIMSD1
 70
     0
  9
$DIMSD2
 70
     0
  9
$DIMTOLJ
 70
     1
  9
$DIMTZIN
 70
     0
  9
$DIMALTZ
 70
     0
  9
$DIMALTTZ
 70
     0
  9
$DIMUPT
 70
     0
  9
$DIMDEC
 70
     4
  9
$DIMTDEC
 70
     4
  9
$DIMALTU
 70
     2
  9
$DIMALTTD
 70
     2
  9
$DIMTXSTY
  7
STANDARD
  9
$DIMAUNIT
 70
     0
  9
$DIMADEC
 70
     0
  9
$DIMALTRND
 40
0.0
  9
$DIMAZIN
 70
     0
  9
$DIMDSEP
 70
    46
  9
$DIMATFIT
 70
     3
  9
$DIMFRAC
 70
     0
  9
$DIMLDRBLK
  1
OPEN
  9
$DIMLUNIT
 70
     2
  9
$DIMLWD
 70
    -2
  9
$DIMLWE
 70
    -2
  9
$DIMTMOVE
 70
     0
  9
$LUNITS
 70
     2
  9
$LUPREC
 70
     4
  9
$SKETCHINC
 40
1.0
  9
$FILLETRAD
 40
0.0
  9
$AUNITS
 70
     0
  9
$AUPREC
 70
     2
  9
$MENU
  1
.
  9
$ELEVATION
 40
0.0
  9
$PELEVATION
 40
0.0
  9
$THICKNESS
 40
0.0
  9
$LIMCHECK
 70
     0
  9
$CHAMFERA
 40
0.6
  9
$CHAMFERB
 40
0.6
  9
$CHAMFERC
 40
0.0
  9
$CHAMFERD
 40
0.0
  9
$SKPOLY
 70
     0
  9
$TDCREATE
 40
2451301.420436111
  9
$TDUCREATE
 40
2451301.045436111
  9
$TDUPDATE
 40
2457192.688224977
  9
$TDUUPDATE
 40
2457192.313224977
  9
$TDINDWG
 40
0.0000097454
  9
$TDUSRTIMER
 40
0.0000094329
  9
$USRTIMER
 70
     1
  9
$ANGBASE
 50
0.0
  9
$ANGDIR
 70
     0
  9
$PDMODE
 70
     0
  9
$PDSIZE
 40
0.0
  9
$PLINEWID
 40
0.0
  9
$SPLFRAME
 70
     0
  9
$SPLINETYPE
 70
     6
  9
$SPLINESEGS
 70
     8
  9
$HANDSEED
  5
AEBF
  9
$SURFTAB1
 70
     6
  9
$SURFTAB2
 70
     6
  9
$SURFTYPE
 70
     6
  9
$SURFU
 70
     6
  9
$SURFV
 70
     6
  9
$UCSBASE
  2

  9
$UCSNAME
  2

  9
$UCSORG
 10
0.0
 20
0.0
 30
0.0
  9
$UCSXDIR
 10
1.0
 20
0.0
 30
0.0
  9
$UCSYDIR
 10
0.0
 20
1.0
 30
0.0
  9
$UCSORTHOREF
  2

  9
$UCSORTHOVIEW
 70
     0
  9
$UCSORGTOP
 10
0.0
 20
0.0
 30
0.0
  9
$UCSORGBOTTOM
 10
0.0
 20
0.0
 30
0.0
  9
$UCSORGLEFT
 10
0.0
 20
0.0
 30
0.0
  9
$UCSORGRIGHT
 10
0.0
 20
0.0
 30
0.0
  9
$UCSORGFRONT
 10
0.0
 20
0.0
 30
0.0
  9
$UCSORGBACK
 10
0.0
 20
0.0
 30
0.0
  9
$PUCSBASE
  2

  9
$PUCSNAME
  2

  9
$PUCSORG
 10
0.0
 20
0.0
 30
0.0
  9
$PUCSXDIR
 10
1.0
 20
0.0
 30
0.0
  9
$PUCSYDIR
 10
0.0
 20
1.0
 30
0.0
  9
$PUCSORTHOREF
  2

  9
$PUCSORTHOVIEW
 70
     0
  9
$PUCSORGTOP
 10
0.0
 20
0.0
 30
0.0
  9
$PUCSORGBOTTOM
 10
0.0
 20
0.0
 30
0.0
  9
$PUCSORGLEFT
 10
0.0
 20
0.0
 30
0.0
  9
$PUCSORGRIGHT
 10
0.0
 20
0.0
 30
0.0
  9
$PUCSORGFRONT
 10
0.0
 20
0.0
 30
0.0
  9
$PUCSORGBACK
 10
0.0
 20
0.0
 30
0.0
  9
$USERI1
 70
     0
  9
$USERI2
 70
     0
  9
$USERI3
 70
     0
  9
$USERI4
 70
     0
  9
$USERI5
 70
     0
  9
$USERR1
 40
0.0
  9
$USERR2
 40
0.0
  9
$USERR3
 40
0.0
  9
$USERR4
 40
0.0
  9
$USERR5
 40
0.0
  9
$WORLDVIEW
 70
     1
  9
$SHADEDGE
 70
     3
  9
$SHADEDIF
 70
    70
  9
$TILEMODE
 70
     1
  9
$MAXACTVP
 70
    16
  9
$PINSBASE
 10
0.0
 20
0.0
 30
0.0
  9
$PLIMCHECK
 70
     0
  9
$PEXTMIN
 10
1.000000000000000E+20
 20
1.000000000000000E+20
 30
1.000000000000000E+20
  9
$PEXTMAX
 10
-1.000000000000000E+20
 20
-1.000000000000000E+20
 30
-1.000000000000000E+20
  9
$PLIMMIN
 10
0.0
 20
0.0
  9
$PLIMMAX
 10
420.0
 20
297.0
  9
$UNITMODE
 70
     0
  9
$VISRETAIN
 70
     0
  9
$PLINEGEN
 70
     0
  9
$PSLTSCALE
 70
     0
  9
$TREEDEPTH
 70
  3020
  9
$CMLSTYLE
  2
STANDARD
  9
$CMLJUST
 70
     0
  9
$CMLSCALE
 40
1.0
  9
$PROXYGRAPHICS
 70
     1
  9
$MEASUREMENT
 70
     0
  9
$CELWEIGHT
370
    -1
  9
$ENDCAPS
280
     0
  9
$JOINSTYLE
280
     0
  9
$LWDISPLAY
290
     0
  9
$INSUNITS
 70
     0
  9
$HYPERLINKBASE
  1

  9
$STYLESHEET
  1

  9
$XEDIT
290
     1
  9
$CEPSNTYPE
380
     0
  9
$PSTYLEMODE
290
     1
  9
$FINGERPRINTGUID
  2
{3D8F90DE-5893-4FAB-8A3E-26D418DF9934}
  9
$VERSIONGUID
  2
{3B804CB8-178B-48BA-892E-A65440C93E61}
  9
$EXTNAMES
290
     1
  9
$PSVPSCALE
 40
0.0
  9
$OLESTARTUP
290
     0
  0
ENDSEC
  0
SECTION
  2
CLASSES
  0
CLASS
  1
ACDBDICTIONARYWDFLT
  2
AcDbDictionaryWithDefault
  3
ObjectDBX Classes
 90
        0
280
     0
281
     0
  0
CLASS
  1
ACDBPLACEHOLDER
  2
AcDbPlaceHolder
  3
ObjectDBX Classes
 90
        0
280
     0
281
     0
  0
CLASS
  1
LAYOUT
  2
AcDbLayout
  3
ObjectDBX Classes
 90
        0
280
     0
281
     0
  0
CLASS
  1
DICTIONARYVAR
  2
AcDbDictionaryVar
  3
ObjectDBX Classes
 90
        0
280
     0
281
     0
  0
CLASS
  1
MATERIAL
  2
AcDbMaterial
  3
ObjectDBX Classes
 90
     1153
280
     0
281
     0
  0
CLASS
  1
VISUALSTYLE
  2
AcDbVisualStyle
  3
ObjectDBX Classes
 90
     4095
280
     0
281
     0
  0
CLASS
  1
TABLESTYLE
  2
AcDbTableStyle
  3
ObjectDBX Classes
 90
     4095
280
     0
281
     0
  0
CLASS
  1
SCALE
  2
AcDbScale
  3
ObjectDBX Classes
 90
     1153
280
     0
281
     0
  0
CLASS
  1
MLEADERSTYLE
  2
AcDbMLeaderStyle
  3
ACDB_MLEADERSTYLE_CLASS
 90
     4095
280
     0
281
     0
  0
CLASS
  1
ACDBSECTIONVIEWSTYLE
  2
AcDbSectionViewStyle
  3
ObjectDBX Classes
 90
     1025
280
     0
281
     0
  0
CLASS
  1
ACDBDETAILVIEWSTYLE
  2
AcDbDetailViewStyle
  3
ObjectDBX Classes
 90
     1025
280
     0
281
     0
  0
CLASS
  1
CELLSTYLEMAP
  2
AcDbCellStyleMap
  3
ObjectDBX Classes
 90
     1152
280
     0
281
     0
  0
ENDSEC
  0
SECTION
  2
TABLES
  0
TABLE
  2
VPORT
  5
AC26
330
0
100
AcDbSymbolTable
 70
     1
  0
VPORT
  5
AE08
330
AC26
100
AcDbSymbolTableRecord
100
AcDbViewportTableRecord
  2
*ACTIVE
 70
     0
 10
0.0
 20
0.0
 11
1.0
 21
1.0
 12
311.6091562197821
 22
148.4559352932624
 13
0.0
 23
0.0
 14
10.0
 24
10.0
 15
10.0
 25
10.0
 16
0.0
 26
0.0
 36
1.0
 17
0.0
 27
0.0
 37
0.0
 40
279.9976637910523
 41
2.35006605019815
 42
50.0
 43
0.0
 44
0.0
 50
0.0
 51
0.0
 71
     0
 72
   100
 73
     1
 74
     0
 75
     0
 76
     0
 77
     0
 78
     0
281
     0
 65
     1
110
0.0
120
0.0
130
0.0
111
1.0
121
0.0
131
0.0
112
0.0
122
1.0
132
0.0
 79
     0
146
0.0
1001
ACAD_NAV_VCDISPLAY
1070
     3
  0
ENDTAB
  0
TABLE
  2
LTYPE
  5
AC23
330
0
100
AcDbSymbolTable
 70
     4
  0
LTYPE
  5
AC31
330
AC23
100
AcDbSymbolTableRecord
100
AcDbLinetypeTableRecord
  2
BYBLOCK
 70
     0
  3

 72
    65
 73
     0
 40
0.0
  0
LTYPE
  5
AC32
330
AC23
100
AcDbSymbolTableRecord
100
AcDbLinetypeTableRecord
  2
BYLAYER
 70
     0
  3

 72
    65
 73
     0
 40
0.0
  0
LTYPE
  5
AC33
330
AC23
100
AcDbSymbolTableRecord
100
AcDbLinetypeTableRecord
  2
CONTINUOUS
 70
     0
  3
Solid line
 72
    65
 73
     0
 40
0.0
  0
LTYPE
  5
AC41
330
AC23
100
AcDbSymbolTableRecord
100
AcDbLinetypeTableRecord
  2
DASHED
 70
     0
  3
__ __ __ __ __ __ __ __ __ __ __ __ __ __ __ __
 72
    65
 73
     2
 40
0.75
 49
0.5
 74
     0
 49
-0.25
 74
     0
  0
LTYPE
  5
AC42
330
AC23
100
AcDbSymbolTableRecord
100
AcDbLinetypeTableRecord
  2
CENTER
 70
     0
  3
____ _ ____ _ ____ _ ____ _ ____ _ ____ _ ____ 
 72
    65
 73
     4
 40
2.0
 49
1.25
 74
     0
 49
-0.25
 74
     0
 49
0.25
 74
     0
 49
-0.25
 74
     0
  0
LTYPE
  5
AC43
330
AC23
100
AcDbSymbolTableRecord
100
AcDbLinetypeTableRecord
  2
PHANTOM
 70
     0
  3
______  __  __  ______  __  __  ______  __  __ 
 72
    65
 73
     6
 40
2.5
 49
1.25
 74
     0
 49
-0.25
 74
     0
 49
0.25
 74
     0
 49
-0.25
 74
     0
 49
0.25
 74
     0
 49
-0.25
 74
     0
  0
ENDTAB
  0
TABLE
  2
LAYER
  5
AC20
330
0
100
AcDbSymbolTable
 70
     8
  0
LAYER
  5
AC2E
102
{ACAD_XDICTIONARY
360
AE63
102
}
330
AC20
100
AcDbSymbolTableRecord
100
AcDbLayerTableRecord
  2
0
 70
     0
 62
     7
  6
CONTINUOUS
370
    -3
390
AE11
  0
LAYER
  5
AC44
102
{ACAD_XDICTIONARY
360
AE65
102
}
330
AC20
100
AcDbSymbolTableRecord
100
AcDbLayerTableRecord
  2
4
 70
     0
 62
     1
  6
CENTER
370
    -3
390
AE11
  0
LAYER
  5
AC45
102
{ACAD_XDICTIONARY
360
AE67
102
}
330
AC20
100
AcDbSymbolTableRecord
100
AcDbLayerTableRecord
  2
5
 70
     0
 62
     6
  6
PHANTOM
370
    -3
390
AE11
  0
LAYER
  5
AC46
102
{ACAD_XDICTIONARY
360
AE69
102
}
330
AC20
100
AcDbSymbolTableRecord
100
AcDbLayerTableRecord
  2
1
 70
     0
 62
     7
  6
CONTINUOUS
370
    -3
390
AE11
  0
LAYER
  5
AC47
102
{ACAD_XDICTIONARY
360
AE6B
102
}
330
AC20
100
AcDbSymbolTableRecord
100
AcDbLayerTableRecord
  2
2
 70
     0
 62
     4
  6
CONTINUOUS
370
    -3
390
AE11
  0
LAYER
  5
AC48
102
{ACAD_XDICTIONARY
360
AE6D
102
}
330
AC20
100
AcDbSymbolTableRecord
100
AcDbLayerTableRecord
  2
3
 70
     0
 62
     2
  6
DASHED
370
    -3
390
AE11
  0
LAYER
  5
AC49
102
{ACAD_XDICTIONARY
360
AE6F
102
}
330
AC20
100
AcDbSymbolTableRecord
100
AcDbLayerTableRecord
  2
6
 70
     0
 62
     5
  6
CONTINUOUS
370
    -3
390
AE11
  0
LAYER
  5
AC4A
102
{ACAD_XDICTIONARY
360
AE71
102
}
330
AC20
100
AcDbSymbolTableRecord
100
AcDbLayerTableRecord
  2
7
 70
     0
 62
     3
  6
CONTINUOUS
370
    -3
390
AE11
  0
ENDTAB
  0
TABLE
  2
STYLE
  5
AC21
330
0
100
AcDbSymbolTable
 70
     1
  0
STYLE
  5
AC2F
330
AC21
100
AcDbSymbolTableRecord
100
AcDbTextStyleTableRecord
  2
STANDARD
 70
     0
 40
0.0
 41
1.0
 50
0.0
 71
     0
 42
5.0
  3
txt
  4

  0
ENDTAB
  0
TABLE
  2
VIEW
  5
AC24
330
0
100
AcDbSymbolTable
 70
     0
  0
ENDTAB
  0
TABLE
  2
UCS
  5
AC25
330
0
100
AcDbSymbolTable
 70
     0
  0
ENDTAB
  0
TABLE
  2
APPID
  5
AC27
330
0
100
AcDbSymbolTable
 70
     3
  0
APPID
  5
AC30
330
AC27
100
AcDbSymbolTableRecord
100
AcDbRegAppTableRecord
  2
ACAD
 70
     0
  0
APPID
  5
AE7D
330
AC27
100
AcDbSymbolTableRecord
100
AcDbRegAppTableRecord
  2
ACAD_NAV_VCDISPLAY
 70
     0
  0
APPID
  5
AEB6
330
AC27
100
AcDbSymbolTableRecord
100
AcDbRegAppTableRecord
  2
ACAD_MLEADERVER
 70
     0
  0
ENDTAB
  0
TABLE
  2
DIMSTYLE
  5
AC28
330
0
100
AcDbSymbolTable
 70
     1
100
AcDbDimStyleTable
 71
     0
  0
DIMSTYLE
105
AC4C
330
AC28
100
AcDbSymbolTableRecord
100
AcDbDimStyleTableRecord
  2
STANDARD
 70
     0
 41
3.0
 42
1.0
 43
10.0
 44
1.0
 73
     0
 74
     0
 77
     3
 78
     8
140
2.5
141
0.0
147
1.0
172
     1
173
     1
284
     8
285
     8
286
     8
340
AC2F
  0
ENDTAB
  0
TABLE
  2
BLOCK_RECORD
  5
AC1F
330
0
100
AcDbSymbolTable
 70
     1
  0
BLOCK_RECORD
  5
AC3C
102
{ACAD_XDICTIONARY
360
AE0B
102
}
330
AC1F
100
AcDbSymbolTableRecord
100
AcDbBlockTableRecord
  2
*MODEL_SPACE
340
AE5F
  0
BLOCK_RECORD
  5
AC38
102
{ACAD_XDICTIONARY
360
AE09
102
}
330
AC1F
100
AcDbSymbolTableRecord
100
AcDbBlockTableRecord
  2
*PAPER_SPACE
340
AE60
  0
BLOCK_RECORD
  5
AC54
330
AC1F
100
AcDbSymbolTableRecord
100
AcDbBlockTableRecord
  2
_OPEN
340
0
  0
ENDTAB
  0
ENDSEC
  0
SECTION
  2
BLOCKS
  0
BLOCK
  5
AC3D
330
AC3C
100
AcDbEntity
  8
0
100
AcDbBlockBegin
  2
*MODEL_SPACE
 70
     0
 10
0.0
 20
0.0
 30
0.0
  3
*MODEL_SPACE
  1

  0
ENDBLK
  5
AC3E
330
AC3C
100
AcDbEntity
  8
0
100
AcDbBlockEnd
  0
BLOCK
  5
AC39
330
AC38
100
AcDbEntity
 67
     1
  8
0
100
AcDbBlockBegin
  2
*PAPER_SPACE
 70
     0
 10
0.0
 20
0.0
 30
0.0
  3
*PAPER_SPACE
  1

  0
ENDBLK
  5
AC3A
330
AC38
100
AcDbEntity
 67
     1
  8
0
100
AcDbBlockEnd
  0
BLOCK
  5
AC55
330
AC54
100
AcDbEntity
  8
0
100
AcDbBlockBegin
  2
_OPEN
 70
     0
 10
0.0
 20
0.0
 30
0.0
  3
_OPEN
  1

  0
LINE
  5
AC56
330
AC54
100
AcDbEntity
  8
0
  6
ByBlock
 62
     0
100
AcDbLine
 10
-1.0
 20
0.166667
 30
0.0
 11
0.0
 21
0.0
 31
0.0
  0
LINE
  5
AC57
330
AC54
100
AcDbEntity
  8
0
  6
ByBlock
 62
     0
100
AcDbLine
 10
0.0
 20
0.0
 30
0.0
 11
-1.0
 21
-0.166667
 31
0.0
  0
LINE
  5
AC58
330
AC54
100
AcDbEntity
  8
0
  6
ByBlock
 62
     0
100
AcDbLine
 10
0.0
 20
0.0
 30
0.0
 11
-1.0
 21
0.0
 31
0.0
  0
ENDBLK
  5
AC59
330
AC54
100
AcDbEntity
  8
0
100
AcDbBlockEnd
  0
ENDSEC
  0
SECTION
  2
ENTITIES
  0
TEXT
  5
AC5A
330
AC3C
100
AcDbEntity
  8
7
  6
Continuous
100
AcDbText
 10
10.0
 20
18.0
 30
0.0
 40
3.0
  1
TYPE No.602HB2-EP
100
AcDbText
  0
TEXT
  5
AC5B
330
AC3C
100
AcDbEntity
  8
7
  6
Continuous
100
AcDbText
 10
10.0
 20
26.0
 30
0.0
 40
3.0
  1
CODE No.19086
100
AcDbText
  0
TEXT
  5
AC5C
330
AC3C
100
AcDbEntity
  8
1
  6
Continuous
100
AcDbText
 10
10.0
 20
10.0
 30
0.0
 40
1.399999999999999
  1
LAYER
100
AcDbText
  0
TEXT
  5
AC5D
330
AC3C
100
AcDbEntity
  8
1
  6
Continuous
100
AcDbText
 10
17.97951099999998
 20
10.04873699999998
 30
0.0
 40
1.399999999999999
  1
1
100
AcDbText
  0
TEXT
  5
AC5E
330
AC3C
100
AcDbEntity
  8
7
  6
Continuous
100
AcDbText
 10
29.97951099999999
 20
10.04873699999998
 30
0.0
 40
1.399999999999999
  1
7
100
AcDbText
  0
TEXT
  5
AC5F
330
AC3C
100
AcDbEntity
  8
4
  6
CENTER
100
AcDbText
 10
23.97951099999999
 20
10.04873699999998
 30
0.0
 40
1.399999999999999
  1
4
100
AcDbText
  0
TEXT
  5
AC60
330
AC3C
100
AcDbEntity
  8
3
  6
DASHED
100
AcDbText
 10
21.979511
 20
10.04873699999998
 30
0.0
 40
1.399999999999999
  1
3
100
AcDbText
  0
TEXT
  5
AC61
330
AC3C
100
AcDbEntity
  8
2
  6
Continuous
100
AcDbText
 10
19.97951099999999
 20
10.04873699999998
 30
0.0
 40
1.399999999999999
  1
2
100
AcDbText
  0
TEXT
  5
AC62
330
AC3C
100
AcDbEntity
  8
6
  6
Continuous
100
AcDbText
 10
27.979511
 20
10.04873699999998
 30
0.0
 40
1.399999999999999
  1
6
100
AcDbText
  0
TEXT
  5
AC63
330
AC3C
100
AcDbEntity
  8
5
  6
PHANTOM
100
AcDbText
 10
25.97951099999999
 20
10.04873699999998
 30
0.0
 40
1.399999999999999
  1
5
100
AcDbText
  0
LINE
  5
AC64
330
AC3C
100
AcDbEntity
  8
1
  6
Continuous
100
AcDbLine
 10
162.9499999999999
 20
277.4999999999999
 30
0.0
 11
177.9499999999999
 21
277.4999999999999
 31
0.0
  0
LINE
  5
AC65
330
AC3C
100
AcDbEntity
  8
1
  6
Continuous
100
AcDbLine
 10
162.9499999999999
 20
275.4999999999999
 30
0.0
 11
162.9499999999999
 21
277.4999999999999
 31
0.0
  0
LINE
  5
AC66
330
AC3C
100
AcDbEntity
  8
1
  6
Continuous
100
AcDbLine
 10
177.9499999999999
 20
275.4999999999999
 30
0.0
 11
177.9499999999999
 21
277.4999999999999
 31
0.0
  0
LINE
  5
AC67
330
AC3C
100
AcDbEntity
  8
1
  6
Continuous
100
AcDbLine
 10
133.45
 20
192.4499999999999
 30
0.0
 11
207.45
 21
192.4499999999999
 31
0.0
  0
ARC
  5
AC68
330
AC3C
100
AcDbEntity
  8
1
  6
Continuous
100
AcDbCircle
 10
170.4499999999999
 20
152.4499999999999
 30
0.0
 40
10.34999999999999
100
AcDbArc
 50
196.5495329999999
 51
343.4504669999999
  0
LINE
  5
AC69
330
AC3C
100
AcDbEntity
  8
1
  6
Continuous
100
AcDbLine
 10
148.4499999999998
 20
190.15
 30
0.0
 11
133.45
 21
190.15
 31
0.0
  0
LINE
  5
AC6A
330
AC3C
100
AcDbEntity
  8
1
  6
Continuous
100
AcDbLine
 10
192.4499999999999
 20
190.15
 30
0.0
 11
207.45
 21
190.15
 31
0.0
  0
CIRCLE
  5
AC6B
330
AC3C
100
AcDbEntity
  8
1
  6
Continuous
100
AcDbCircle
 10
170.4499999999999
 20
152.4499999999999
 30
0.0
 40
7.0
  0
LINE
  5
AC6C
330
AC3C
100
AcDbEntity
  8
1
  6
Continuous
100
AcDbLine
 10
162.848264
 20
275.4999999999999
 30
0.0
 11
178.051736
 21
275.4999999999999
 31
0.0
  0
CIRCLE
  5
AC6D
330
AC3C
100
AcDbEntity
  8
1
  6
Continuous
100
AcDbCircle
 10
140.4499999999998
 20
242.45
 30
0.0
 40
3.25
  0
CIRCLE
  5
AC6E
330
AC3C
100
AcDbEntity
  8
1
  6
Continuous
100
AcDbCircle
 10
140.4499999999998
 20
272.4499999999998
 30
0.0
 40
3.25
  0
CIRCLE
  5
AC6F
330
AC3C
100
AcDbEntity
  8
1
  6
Continuous
100
AcDbCircle
 10
200.4499999999999
 20
242.45
 30
0.0
 40
3.25
  0
CIRCLE
  5
AC70
330
AC3C
100
AcDbEntity
  8
1
  6
Continuous
100
AcDbCircle
 10
200.4499999999999
 20
272.4499999999998
 30
0.0
 40
3.25
  0
LINE
  5
AC71
330
AC3C
100
AcDbEntity
  8
1
  6
Continuous
100
AcDbLine
 10
133.45
 20
242.45
 30
0.0
 11
133.45
 21
272.4499999999998
 31
0.0
  0
LINE
  5
AC72
330
AC3C
100
AcDbEntity
  8
1
  6
Continuous
100
AcDbLine
 10
207.45
 20
242.45
 30
0.0
 11
207.45
 21
272.4499999999998
 31
0.0
  0
ARC
  5
AC73
330
AC3C
100
AcDbEntity
  8
1
  6
Continuous
100
AcDbCircle
 10
140.4499999999998
 20
242.45
 30
0.0
 40
7.0
100
AcDbArc
 50
180.0
 51
321.286308
  0
ARC
  5
AC74
330
AC3C
100
AcDbEntity
  8
1
  6
Continuous
100
AcDbCircle
 10
140.4499999999998
 20
272.4499999999998
 30
0.0
 40
7.0
100
AcDbArc
 50
38.713692
 51
180.0
  0
ARC
  5
AC75
330
AC3C
100
AcDbEntity
  8
1
  6
Continuous
100
AcDbCircle
 10
200.4499999999999
 20
272.4499999999998
 30
0.0
 40
7.0
100
AcDbArc
 50
0.0
 51
141.2863079999999
  0
ARC
  5
AC76
330
AC3C
100
AcDbEntity
  8
1
  6
Continuous
100
AcDbCircle
 10
200.4499999999999
 20
242.45
 30
0.0
 40
7.0
100
AcDbArc
 50
218.7136919999999
 51
0.0
  0
LINE
  5
AC77
330
AC3C
100
AcDbEntity
  8
1
  6
Continuous
100
AcDbLine
 10
133.45
 20
190.15
 30
0.0
 11
133.45
 21
192.4499999999999
 31
0.0
  0
LINE
  5
AC78
330
AC3C
100
AcDbEntity
  8
1
  6
Continuous
100
AcDbLine
 10
207.45
 20
190.15
 30
0.0
 11
207.45
 21
192.4499999999999
 31
0.0
  0
ARC
  5
AC79
330
AC3C
100
AcDbEntity
  8
1
  6
Continuous
100
AcDbCircle
 10
162.848264
 20
282.3999999999998
 30
0.0
 40
6.9
100
AcDbArc
 50
239.317968
 51
270.0
  0
LINE
  5
AC7A
330
AC3C
100
AcDbEntity
  8
1
  6
Continuous
100
AcDbLine
 10
148.4499999999998
 20
277.1499999999999
 30
0.0
 11
148.4499999999998
 21
279.4499999999998
 31
0.0
  0
ARC
  5
AC7B
330
AC3C
100
AcDbEntity
  8
1
  6
Continuous
100
AcDbCircle
 10
147.0823879999999
 20
277.7661479999998
 30
0.0
 40
1.5
100
AcDbArc
 50
218.7136919999999
 51
335.7470909999999
  0
ARC
  5
AC7C
330
AC3C
100
AcDbEntity
  8
1
  6
Continuous
100
AcDbCircle
 10
178.051736
 20
282.3999999999998
 30
0.0
 40
6.9
100
AcDbArc
 50
270.0
 51
300.682032
  0
LINE
  5
AC7D
330
AC3C
100
AcDbEntity
  8
1
  6
Continuous
100
AcDbLine
 10
192.4499999999999
 20
277.1499999999999
 30
0.0
 11
192.4499999999999
 21
279.4499999999998
 31
0.0
  0
ARC
  5
AC7E
330
AC3C
100
AcDbEntity
  8
1
  6
Continuous
100
AcDbCircle
 10
193.817612
 20
277.7661479999998
 30
0.0
 40
1.5
100
AcDbArc
 50
204.2529089999999
 51
321.286308
  0
LINE
  5
AC7F
330
AC3C
100
AcDbEntity
  8
1
  6
Continuous
100
AcDbLine
 10
162.848264
 20
239.4
 30
0.0
 11
178.051736
 21
239.4
 31
0.0
  0
ARC
  5
AC80
330
AC3C
100
AcDbEntity
  8
1
  6
Continuous
100
AcDbCircle
 10
162.848264
 20
232.5
 30
0.0
 40
6.9
100
AcDbArc
 50
90.0
 51
120.682032
  0
LINE
  5
AC81
330
AC3C
100
AcDbEntity
  8
1
  6
Continuous
100
AcDbLine
 10
148.4499999999998
 20
237.7499999999999
 30
0.0
 11
148.4499999999998
 21
235.4499999999999
 31
0.0
  0
ARC
  5
AC82
330
AC3C
100
AcDbEntity
  8
1
  6
Continuous
100
AcDbCircle
 10
147.0823879999999
 20
237.133853
 30
0.0
 40
1.5
100
AcDbArc
 50
24.252909
 51
141.2863079999999
  0
ARC
  5
AC83
330
AC3C
100
AcDbEntity
  8
1
  6
Continuous
100
AcDbCircle
 10
178.051736
 20
232.5
 30
0.0
 40
6.9
100
AcDbArc
 50
59.317968
 51
90.0
  0
LINE
  5
AC84
330
AC3C
100
AcDbEntity
  8
1
  6
Continuous
100
AcDbLine
 10
192.4499999999999
 20
237.7499999999999
 30
0.0
 11
192.4499999999999
 21
235.4499999999999
 31
0.0
  0
ARC
  5
AC85
330
AC3C
100
AcDbEntity
  8
1
  6
Continuous
100
AcDbCircle
 10
193.817612
 20
237.133853
 30
0.0
 40
1.5
100
AcDbArc
 50
38.713692
 51
155.7470909999999
  0
LINE
  5
AC86
330
AC3C
100
AcDbEntity
  8
1
  6
Continuous
100
AcDbLine
 10
160.5287609999998
 20
149.5018629999998
 30
0.0
 11
147.766546
 21
192.4499999999999
 31
0.0
  0
LINE
  5
AC87
330
AC3C
100
AcDbEntity
  8
1
  6
Continuous
100
AcDbLine
 10
180.371239
 20
149.5018629999998
 30
0.0
 11
193.133455
 21
192.4499999999999
 31
0.0
  0
ARC
  5
AC88
330
AC3C
100
AcDbEntity
  8
1
  6
Continuous
100
AcDbCircle
 10
170.4499999999999
 20
152.4499999999999
 30
0.0
 40
20.0
100
AcDbArc
 50
137.7142379999999
 51
42.285762
  0
LINE
  5
AC89
330
AC3C
100
AcDbEntity
  8
1
  6
Continuous
100
AcDbLine
 10
163.4499999999999
 20
237.0737619999999
 30
0.0
 11
163.4499999999999
 21
239.4
 31
0.0
  0
LINE
  5
AC8A
330
AC3C
100
AcDbEntity
  8
1
  6
Continuous
100
AcDbLine
 10
177.4499999999999
 20
237.0737619999999
 30
0.0
 11
177.4499999999999
 21
239.4
 31
0.0
  0
ARC
  5
AC8B
330
AC3C
100
AcDbEntity
  8
1
  6
Continuous
100
AcDbCircle
 10
170.4499999999999
 20
244.9
 30
0.0
 40
10.5
100
AcDbArc
 50
228.1896849999998
 51
311.810315
  0
LINE
  5
AC8C
330
AC3C
100
AcDbEntity
  8
1
  6
Continuous
100
AcDbLine
 10
163.4499999999999
 20
237.0737619999999
 30
0.0
 11
177.4499999999999
 21
237.0737619999999
 31
0.0
  0
ARC
  5
AC8D
330
AC3C
100
AcDbEntity
  8
1
  6
Continuous
100
AcDbCircle
 10
151.503116
 20
245.6089229999999
 30
0.0
 40
2.5
100
AcDbArc
 50
222.5810889999999
 51
42.58108899999998
  0
ARC
  5
AC8E
330
AC3C
100
AcDbEntity
  8
1
  6
Continuous
100
AcDbCircle
 10
164.3887239999999
 20
257.45
 30
0.0
 40
15.0
100
AcDbArc
 50
137.417045
 51
222.5810889999999
  0
ARC
  5
AC8F
330
AC3C
100
AcDbEntity
  8
1
  6
Continuous
100
AcDbCircle
 10
189.396884
 20
245.6089229999999
 30
0.0
 40
2.5
100
AcDbArc
 50
137.418911
 51
317.4189109999999
  0
ARC
  5
AC90
330
AC3C
100
AcDbEntity
  8
1
  6
Continuous
100
AcDbCircle
 10
176.511276
 20
257.45
 30
0.0
 40
15.0
100
AcDbArc
 50
317.4189109999999
 51
42.582955
  0
ARC
  5
AC91
330
AC3C
100
AcDbEntity
  8
1
  6
Continuous
100
AcDbCircle
 10
151.503116
 20
269.2910769999999
 30
0.0
 40
2.5
100
AcDbArc
 50
317.4189109999999
 51
137.418911
  0
ARC
  5
AC92
330
AC3C
100
AcDbEntity
  8
1
  6
Continuous
100
AcDbCircle
 10
189.396884
 20
269.2910769999999
 30
0.0
 40
2.5
100
AcDbArc
 50
42.58108899999998
 51
222.5810889999999
  0
ARC
  5
AC93
330
AC3C
100
AcDbEntity
  8
1
  6
Continuous
100
AcDbCircle
 10
170.4499999999999
 20
152.4499999999999
 30
0.0
 40
13.5
100
AcDbArc
 50
156.6050279999998
 51
23.39497199999999
  0
ARC
  5
AC94
330
AC3C
100
AcDbEntity
  8
1
  6
Continuous
100
AcDbCircle
 10
170.4499999999999
 20
152.4499999999999
 30
0.0
 40
14.0
100
AcDbArc
 50
154.2201379999999
 51
25.77986199999999
  0
LINE
  5
AC95
330
AC3C
100
AcDbEntity
  8
1
  6
Continuous
100
AcDbLine
 10
143.8887239999999
 20
190.15
 30
0.0
 11
143.8887239999999
 21
189.6499999999998
 31
0.0
  0
LINE
  5
AC96
330
AC3C
100
AcDbEntity
  8
1
  6
Continuous
100
AcDbLine
 10
267.45
 20
192.4499999999999
 30
0.0
 11
267.45
 21
190.15
 31
0.0
  0
LINE
  5
AC97
330
AC3C
100
AcDbEntity
  8
1
  6
Continuous
100
AcDbLine
 10
311.45
 20
192.4499999999999
 30
0.0
 11
311.45
 21
190.15
 31
0.0
  0
LINE
  5
AC98
330
AC3C
100
AcDbEntity
  8
1
  6
Continuous
100
AcDbLine
 10
267.45
 20
192.4499999999999
 30
0.0
 11
311.45
 21
192.4499999999999
 31
0.0
  0
LINE
  5
AC99
330
AC3C
100
AcDbEntity
  8
1
  6
Continuous
100
AcDbLine
 10
267.45
 20
190.15
 30
0.0
 11
311.45
 21
190.15
 31
0.0
  0
ARC
  5
AC9A
330
AC3C
100
AcDbEntity
  8
1
  6
Continuous
100
AcDbCircle
 10
289.4499999999998
 20
232.45
 30
0.0
 40
100.0
100
AcDbArc
 50
263.8491129999998
 51
276.151049
  0
ARC
  5
AC9B
330
AC3C
100
AcDbEntity
  8
1
  6
Continuous
100
AcDbCircle
 10
278.949579
 20
135.0141689999998
 30
0.0
 40
2.0
100
AcDbArc
 50
179.990094
 51
263.8491129999998
  0
ARC
  5
AC9C
330
AC3C
100
AcDbEntity
  8
1
  6
Continuous
100
AcDbCircle
 10
299.9504209999999
 20
135.0141689999998
 30
0.0
 40
2.0
100
AcDbArc
 50
276.150887
 51
1.175799
  0
ARC
  5
AC9D
330
AC3C
100
AcDbEntity
  8
1
  6
Continuous
100
AcDbCircle
 10
289.4499999999998
 20
72.45
 30
0.0
 40
100.0
100
AcDbArc
 50
83.84895099999999
 51
96.15088700000001
  0
ARC
  5
AC9E
330
AC3C
100
AcDbEntity
  8
1
  6
Continuous
100
AcDbCircle
 10
278.949579
 20
169.885831
 30
0.0
 40
2.0
100
AcDbArc
 50
96.15088700000001
 51
180.0099059999998
  0
ARC
  5
AC9F
330
AC3C
100
AcDbEntity
  8
1
  6
Continuous
100
AcDbCircle
 10
299.9504209999999
 20
169.885831
 30
0.0
 40
2.0
100
AcDbArc
 50
359.9900939999998
 51
83.849113
  0
LINE
  5
ACA0
330
AC3C
100
AcDbEntity
  8
1
  6
Continuous
100
AcDbLine
 10
301.9499999999998
 20
134.973129
 30
0.0
 11
301.9499999999998
 21
169.926872
 31
0.0
  0
LINE
  5
ACA1
330
AC3C
100
AcDbEntity
  8
1
  6
Continuous
100
AcDbLine
 10
276.9499999999998
 20
134.973129
 30
0.0
 11
276.9499999999998
 21
169.926872
 31
0.0
  0
ARC
  5
ACA2
330
AC3C
100
AcDbEntity
  8
1
  6
Continuous
100
AcDbCircle
 10
284.5667139999998
 20
149.3783089999998
 30
0.0
 40
20.0
100
AcDbArc
 50
330.36167
 51
347.181131
  0
LINE
  5
ACA3
330
AC3C
100
AcDbEntity
  8
1
  6
Continuous
100
AcDbLine
 10
304.95
 20
145.4499999999999
 30
0.0
 11
304.068241
 21
144.9409159999999
 31
0.0
  0
ARC
  5
ACA4
330
AC3C
100
AcDbEntity
  8
1
  6
Continuous
100
AcDbCircle
 10
284.5667139999998
 20
155.521692
 30
0.0
 40
20.0
100
AcDbArc
 50
12.81886899999999
 51
29.63833
  0
ARC
  5
ACA5
330
AC3C
100
AcDbEntity
  8
1
  6
Continuous
100
AcDbCircle
 10
294.3332859999998
 20
149.3783089999998
 30
0.0
 40
20.0
100
AcDbArc
 50
192.818869
 51
209.6383299999998
  0
LINE
  5
ACA6
330
AC3C
100
AcDbEntity
  8
1
  6
Continuous
100
AcDbLine
 10
273.95
 20
145.4499999999999
 30
0.0
 11
274.8317589999999
 21
144.9409159999999
 31
0.0
  0
ARC
  5
ACA7
330
AC3C
100
AcDbEntity
  8
1
  6
Continuous
100
AcDbCircle
 10
294.3332859999998
 20
155.521692
 30
0.0
 40
20.0
100
AcDbArc
 50
150.36167
 51
167.181131
  0
LINE
  5
ACA8
330
AC3C
100
AcDbEntity
  8
1
  6
Continuous
100
AcDbLine
 10
273.95
 20
159.45
 30
0.0
 11
274.8317589999999
 21
159.9590839999999
 31
0.0
  0
LINE
  5
ACA9
330
AC3C
100
AcDbEntity
  8
1
  6
Continuous
100
AcDbLine
 10
304.068241
 20
144.9409159999999
 30
0.0
 11
304.068241
 21
159.9590839999999
 31
0.0
  0
LINE
  5
ACAA
330
AC3C
100
AcDbEntity
  8
1
  6
Continuous
100
AcDbLine
 10
274.8317589999999
 20
144.9409159999999
 30
0.0
 11
274.8317589999999
 21
159.9590839999999
 31
0.0
  0
LINE
  5
ACAB
330
AC3C
100
AcDbEntity
  8
1
  6
Continuous
100
AcDbLine
 10
304.95
 20
159.45
 30
0.0
 11
304.068241
 21
159.9590839999999
 31
0.0
  0
LINE
  5
ACAC
330
AC3C
100
AcDbEntity
  8
1
  6
Continuous
100
AcDbLine
 10
273.95
 20
145.4499999999999
 30
0.0
 11
273.95
 21
159.45
 31
0.0
  0
LINE
  5
ACAD
330
AC3C
100
AcDbEntity
  8
1
  6
Continuous
100
AcDbLine
 10
304.95
 20
145.4499999999999
 30
0.0
 11
304.95
 21
159.45
 31
0.0
  0
LINE
  5
ACAE
330
AC3C
100
AcDbEntity
  8
1
  6
Continuous
100
AcDbLine
 10
277.6089
 20
189.15
 30
0.0
 11
301.2910999999999
 21
189.15
 31
0.0
  0
LINE
  5
ACAF
330
AC3C
100
AcDbEntity
  8
1
  6
Continuous
100
AcDbLine
 10
274.6089
 20
189.6499999999998
 30
0.0
 11
274.6089
 21
190.15
 31
0.0
  0
LINE
  5
ACB0
330
AC3C
100
AcDbEntity
  8
1
  6
Continuous
100
AcDbLine
 10
304.2910999999999
 20
189.6499999999998
 30
0.0
 11
304.2910999999999
 21
190.15
 31
0.0
  0
ARC
  5
ACB1
330
AC3C
100
AcDbEntity
  8
1
  6
Continuous
100
AcDbCircle
 10
148.4499999999998
 20
258.1332279999999
 30
0.0
 40
21.31677199999999
100
AcDbArc
 50
59.317968
 51
90.0
  0
ARC
  5
ACB2
330
AC3C
100
AcDbEntity
  8
1
  6
Continuous
100
AcDbCircle
 10
192.4499999999999
 20
258.1332279999999
 30
0.0
 40
21.31677199999999
100
AcDbArc
 50
90.0
 51
120.682032
  0
ARC
  5
ACB3
330
AC3C
100
AcDbEntity
  8
1
  6
Continuous
100
AcDbCircle
 10
148.4499999999998
 20
256.766773
 30
0.0
 40
21.31677199999999
100
AcDbArc
 50
270.0
 51
300.682032
  0
ARC
  5
ACB4
330
AC3C
100
AcDbEntity
  8
1
  6
Continuous
100
AcDbCircle
 10
192.4499999999999
 20
256.766773
 30
0.0
 40
21.31677199999999
100
AcDbArc
 50
239.317968
 51
270.0
  0
LINE
  5
ACB5
330
AC3C
100
AcDbEntity
  8
1
  6
Continuous
100
AcDbLine
 10
307.5
 20
142.1
 30
0.0
 11
305.2
 21
142.1
 31
0.0
  0
LINE
  5
ACB6
330
AC3C
100
AcDbEntity
  8
1
  6
Continuous
100
AcDbLine
 10
304.95
 20
156.4499999999999
 30
0.0
 11
305.2
 21
156.4499999999999
 31
0.0
  0
LINE
  5
ACB7
330
AC3C
100
AcDbEntity
  8
1
  6
Continuous
100
AcDbLine
 10
304.95
 20
148.4499999999998
 30
0.0
 11
305.2
 21
148.4499999999998
 31
0.0
  0
LINE
  5
ACB8
330
AC3C
100
AcDbEntity
  8
1
  6
Continuous
100
AcDbLine
 10
167.05
 20
283.9
 30
0.0
 11
173.8499999999999
 21
283.9
 31
0.0
  0
LINE
  5
ACB9
330
AC3C
100
AcDbEntity
  8
1
  6
Continuous
100
AcDbLine
 10
166.4499999999998
 20
283.3
 30
0.0
 11
166.4499999999998
 21
282.5
 31
0.0
  0
LINE
  5
ACBA
330
AC3C
100
AcDbEntity
  8
1
  6
Continuous
100
AcDbLine
 10
174.4499999999999
 20
283.3
 30
0.0
 11
174.4499999999999
 21
282.5
 31
0.0
  0
LINE
  5
ACBB
330
AC3C
100
AcDbEntity
  8
1
  6
Continuous
100
AcDbLine
 10
146.8887239999999
 20
189.15
 30
0.0
 11
148.747154
 21
189.15
 31
0.0
  0
ARC
  5
ACBC
330
AC3C
100
AcDbEntity
  8
1
  6
Continuous
100
AcDbCircle
 10
146.8887239999999
 20
198.4
 30
0.0
 40
9.25
100
AcDbArc
 50
251.075356
 51
270.0
  0
LINE
  5
ACBD
330
AC3C
100
AcDbEntity
  8
1
  6
Continuous
100
AcDbLine
 10
197.011276
 20
190.15
 30
0.0
 11
197.011276
 21
189.6499999999998
 31
0.0
  0
LINE
  5
ACBE
330
AC3C
100
AcDbEntity
  8
1
  6
Continuous
100
AcDbLine
 10
194.011276
 20
189.15
 30
0.0
 11
192.1528459999999
 21
189.15
 31
0.0
  0
ARC
  5
ACBF
330
AC3C
100
AcDbEntity
  8
1
  6
Continuous
100
AcDbCircle
 10
194.011276
 20
198.4
 30
0.0
 40
9.25
100
AcDbArc
 50
270.0
 51
288.9246439999999
  0
ARC
  5
ACC0
330
AC3C
100
AcDbEntity
  8
1
  6
Continuous
100
AcDbCircle
 10
277.6089
 20
198.4
 30
0.0
 40
9.25
100
AcDbArc
 50
251.075356
 51
270.0
  0
ARC
  5
ACC1
330
AC3C
100
AcDbEntity
  8
1
  6
Continuous
100
AcDbCircle
 10
301.2910999999999
 20
198.4
 30
0.0
 40
9.25
100
AcDbArc
 50
270.0
 51
288.9246439999999
  0
LINE
  5
ACC2
330
AC3C
100
AcDbEntity
  8
1
  6
Continuous
100
AcDbLine
 10
166.4499999999998
 20
283.3
 30
0.0
 11
174.4499999999999
 21
283.3
 31
0.0
  0
LINE
  5
ACC3
330
AC3C
100
AcDbEntity
  8
1
  6
Continuous
100
AcDbLine
 10
143.8887239999999
 20
189.6499999999998
 30
0.0
 11
148.598577
 21
189.6499999999998
 31
0.0
  0
LINE
  5
ACC4
330
AC3C
100
AcDbEntity
  8
1
  6
Continuous
100
AcDbLine
 10
197.011276
 20
189.6499999999998
 30
0.0
 11
192.3014229999998
 21
189.6499999999998
 31
0.0
  0
LINE
  5
ACC5
330
AC3C
100
AcDbEntity
  8
1
  6
Continuous
100
AcDbLine
 10
274.6089
 20
189.6499999999998
 30
0.0
 11
304.2910999999999
 21
189.6499999999998
 31
0.0
  0
ARC
  5
ACC6
330
AC3C
100
AcDbEntity
  8
1
  6
Continuous
100
AcDbCircle
 10
306.950043
 20
187.9499999999999
 30
0.0
 40
4.5
100
AcDbArc
 50
359.7470819999998
 51
29.267578
  0
ARC
  5
ACC7
330
AC3C
100
AcDbEntity
  8
1
  6
Continuous
100
AcDbCircle
 10
143.475203
 20
187.949601
 30
0.0
 40
167.974797
100
AcDbArc
 50
348.233432
 51
0.006919
  0
LINE
  5
ACC8
330
AC3C
100
AcDbEntity
  8
1
  6
Continuous
100
AcDbLine
 10
162.848264
 20
148.995133
 30
0.0
 11
162.848264
 21
187.9499999999999
 31
0.0
  0
LINE
  5
ACC9
330
AC3C
100
AcDbEntity
  8
1
  6
Continuous
100
AcDbLine
 10
178.051736
 20
148.995133
 30
0.0
 11
178.051736
 21
187.9499999999999
 31
0.0
  0
LINE
  5
ACCA
330
AC3C
100
AcDbEntity
  8
4
  6
CENTER
100
AcDbLine
 10
130.4499999999999
 20
257.45
 30
0.0
 11
210.4499999999999
 21
257.45
 31
0.0
  0
LINE
  5
ACCB
330
AC3C
100
AcDbEntity
  8
4
  6
CENTER
100
AcDbLine
 10
170.4499999999999
 20
129.4499999999999
 30
0.0
 11
170.4499999999999
 21
195.4499999999999
 31
0.0
  0
LINE
  5
ACCC
330
AC3C
100
AcDbEntity
  8
4
  6
CENTER
100
AcDbLine
 10
147.4499999999999
 20
152.4499999999999
 30
0.0
 11
193.4499999999999
 21
152.4499999999999
 31
0.0
  0
LINE
  5
ACCD
330
AC3C
100
AcDbEntity
  8
4
  6
CENTER
100
AcDbLine
 10
134.1999999999998
 20
242.45
 30
0.0
 11
146.6999999999998
 21
242.45
 31
0.0
  0
LINE
  5
ACCE
330
AC3C
100
AcDbEntity
  8
4
  6
CENTER
100
AcDbLine
 10
140.4499999999998
 20
248.7
 30
0.0
 11
140.4499999999998
 21
236.2
 31
0.0
  0
LINE
  5
ACCF
330
AC3C
100
AcDbEntity
  8
4
  6
CENTER
100
AcDbLine
 10
134.1999999999998
 20
272.4499999999998
 30
0.0
 11
146.6999999999998
 21
272.4499999999998
 31
0.0
  0
LINE
  5
ACD0
330
AC3C
100
AcDbEntity
  8
4
  6
CENTER
100
AcDbLine
 10
140.4499999999998
 20
278.6999999999998
 30
0.0
 11
140.4499999999998
 21
266.1999999999998
 31
0.0
  0
LINE
  5
ACD1
330
AC3C
100
AcDbEntity
  8
4
  6
CENTER
100
AcDbLine
 10
194.1999999999999
 20
272.4499999999998
 30
0.0
 11
206.6999999999999
 21
272.4499999999998
 31
0.0
  0
LINE
  5
ACD2
330
AC3C
100
AcDbEntity
  8
4
  6
CENTER
100
AcDbLine
 10
200.4499999999999
 20
278.6999999999998
 30
0.0
 11
200.4499999999999
 21
266.1999999999998
 31
0.0
  0
LINE
  5
ACD3
330
AC3C
100
AcDbEntity
  8
4
  6
CENTER
100
AcDbLine
 10
194.1999999999999
 20
242.45
 30
0.0
 11
206.6999999999999
 21
242.45
 31
0.0
  0
LINE
  5
ACD4
330
AC3C
100
AcDbEntity
  8
4
  6
CENTER
100
AcDbLine
 10
200.4499999999999
 20
248.7
 30
0.0
 11
200.4499999999999
 21
236.2
 31
0.0
  0
LINE
  5
ACD5
330
AC3C
100
AcDbEntity
  8
4
  6
CENTER
100
AcDbLine
 10
289.4499999999998
 20
129.4499999999999
 30
0.0
 11
289.4499999999998
 21
195.4499999999999
 31
0.0
  0
LINE
  5
ACD6
330
AC3C
100
AcDbEntity
  8
4
  6
CENTER
100
AcDbLine
 10
263.6499509999998
 20
152.4499999999999
 30
0.0
 11
319.1499509999998
 21
152.4499999999999
 31
0.0
  0
LINE
  5
ACD7
330
AC3C
100
AcDbEntity
  8
4
  6
CENTER
100
AcDbLine
 10
170.4499999999999
 20
231.65
 30
0.0
 11
170.4499999999999
 21
286.911449
 31
0.0
  0
LINE
  5
ACD8
330
AC3C
100
AcDbEntity
  8
4
  6
CENTER
100
AcDbLine
 10
140.4499999999998
 20
194.9365069999998
 30
0.0
 11
140.4499999999998
 21
187.7902169999999
 31
0.0
  0
LINE
  5
ACD9
330
AC3C
100
AcDbEntity
  8
4
  6
CENTER
100
AcDbLine
 10
200.4499999999999
 20
194.9365069999998
 30
0.0
 11
200.4499999999999
 21
187.7902169999999
 31
0.0
  0
LINE
  5
ACDA
330
AC3C
100
AcDbEntity
  8
4
  6
CENTER
100
AcDbLine
 10
274.4499999999998
 20
194.2619579999999
 30
0.0
 11
274.4499999999998
 21
187.654122
 31
0.0
  0
LINE
  5
ACDB
330
AC3C
100
AcDbEntity
  8
4
  6
CENTER
100
AcDbLine
 10
304.4499999999998
 20
194.2619579999999
 30
0.0
 11
304.4499999999998
 21
187.654122
 31
0.0
  0
ARC
  5
ACDC
330
AC3C
100
AcDbEntity
  8
1
  6
Continuous
100
AcDbCircle
 10
164.3887239999999
 20
257.45
 30
0.0
 40
20.0
100
AcDbArc
 50
137.417045
 51
222.5810889999999
  0
ARC
  5
ACDD
330
AC3C
100
AcDbEntity
  8
1
  6
Continuous
100
AcDbCircle
 10
176.511276
 20
257.45
 30
0.0
 40
20.0
100
AcDbArc
 50
317.4189109999999
 51
42.582955
  0
LINE
  5
ACDE
330
AC3C
100
AcDbEntity
  8
1
  6
Continuous
100
AcDbLine
 10
168.4499999999998
 20
277.4999999999999
 30
0.0
 11
170.4499999999999
 21
275.4999999999999
 31
0.0
  0
LINE
  5
ACDF
330
AC3C
100
AcDbEntity
  8
1
  6
Continuous
100
AcDbLine
 10
170.4499999999999
 20
277.4999999999999
 30
0.0
 11
172.4499999999999
 21
275.4999999999999
 31
0.0
  0
ARC
  5
ACE0
330
AC3C
100
AcDbEntity
  8
1
  6
Continuous
100
AcDbCircle
 10
167.4499999999999
 20
273.8349359999999
 30
0.0
 40
8.665063999999999
100
AcDbArc
 50
69.743842
 51
110.256158
  0
ARC
  5
ACE1
330
AC3C
100
AcDbEntity
  8
1
  6
Continuous
100
AcDbCircle
 10
167.4499999999999
 20
286.1650639999999
 30
0.0
 40
8.665063999999999
100
AcDbArc
 50
249.7438419999999
 51
290.256158
  0
LINE
  5
ACE2
330
AC3C
100
AcDbEntity
  8
1
  6
Continuous
100
AcDbLine
 10
176.4499999999999
 20
282.5
 30
0.0
 11
164.4499999999998
 21
282.5
 31
0.0
  0
LINE
  5
ACE3
330
AC3C
100
AcDbEntity
  8
1
  6
Continuous
100
AcDbLine
 10
164.4499999999998
 20
277.4999999999999
 30
0.0
 11
164.4499999999998
 21
282.5
 31
0.0
  0
ARC
  5
ACE4
330
AC3C
100
AcDbEntity
  8
1
  6
Continuous
100
AcDbCircle
 10
173.4499999999999
 20
273.8349359999999
 30
0.0
 40
8.665063999999999
100
AcDbArc
 50
69.743842
 51
110.256158
  0
ARC
  5
ACE5
330
AC3C
100
AcDbEntity
  8
1
  6
Continuous
100
AcDbCircle
 10
173.4499999999999
 20
286.1650639999999
 30
0.0
 40
8.665063999999999
100
AcDbArc
 50
249.7438419999999
 51
290.256158
  0
LINE
  5
ACE6
330
AC3C
100
AcDbEntity
  8
1
  6
Continuous
100
AcDbLine
 10
170.4499999999999
 20
281.964102
 30
0.0
 11
170.4499999999999
 21
278.0358979999999
 31
0.0
  0
LINE
  5
ACE7
330
AC3C
100
AcDbEntity
  8
1
  6
Continuous
100
AcDbLine
 10
176.4499999999999
 20
277.4999999999999
 30
0.0
 11
176.4499999999999
 21
282.5
 31
0.0
  0
LINE
  5
ACE8
330
AC3C
100
AcDbEntity
  8
2
  6
Continuous
100
AcDbLine
 10
173.7735
 20
282.5
 30
0.0
 11
173.7735
 21
283.9
 31
0.0
  0
LINE
  5
ACE9
330
AC3C
100
AcDbEntity
  8
2
  6
Continuous
100
AcDbLine
 10
167.1265
 20
282.5
 30
0.0
 11
167.1265
 21
283.9
 31
0.0
  0
LINE
  5
ACEA
330
AC3C
100
AcDbEntity
  8
1
  6
Continuous
100
AcDbLine
 10
307.5
 20
142.1
 30
0.0
 11
307.5
 21
149.6168679999998
 31
0.0
  0
LINE
  5
ACEB
330
AC3C
100
AcDbEntity
  8
1
  6
Continuous
100
AcDbLine
 10
305.2
 20
142.1
 30
0.0
 11
305.2
 21
190.15
 31
0.0
  0
ARC
  5
ACEC
330
AC3C
100
AcDbEntity
  8
1
  6
Continuous
100
AcDbCircle
 10
327.4999999999999
 20
149.6168679999998
 30
0.0
 40
20.0
100
AcDbArc
 50
168.233432
 51
180.0
  0
ARC
  5
ACED
330
AC3C
100
AcDbEntity
  8
1
  6
Continuous
100
AcDbCircle
 10
143.475203
 20
187.949601
 30
0.0
 40
165.6747969999998
100
AcDbArc
 50
348.233432
 51
0.006919
  0
ARC
  5
ACEE
330
AC3C
100
AcDbEntity
  8
1
  6
Continuous
100
AcDbCircle
 10
306.950043
 20
187.9499999999999
 30
0.0
 40
2.2
100
AcDbArc
 50
359.7470819999998
 51
90.0
  0
ARC
  5
ACEF
330
AC3C
100
AcDbEntity
  8
1
  6
Continuous
100
AcDbCircle
 10
327.4999999999999
 20
149.6168679999998
 30
0.0
 40
22.29999999999999
100
AcDbArc
 50
168.233432
 51
180.0
  0
ARC
  5
ACF0
330
AC3C
100
AcDbEntity
  8
1
  6
Continuous
100
AcDbCircle
 10
271.9499569999999
 20
187.9499999999999
 30
0.0
 40
2.2
100
AcDbArc
 50
90.0
 51
180.252918
  0
ARC
  5
ACF1
330
AC3C
100
AcDbEntity
  8
1
  6
Continuous
100
AcDbCircle
 10
271.9499569999999
 20
187.9499999999999
 30
0.0
 40
4.5
100
AcDbArc
 50
150.7324219999999
 51
180.252918
  0
ARC
  5
ACF2
330
AC3C
100
AcDbEntity
  8
1
  6
Continuous
100
AcDbCircle
 10
435.4247969999998
 20
187.949601
 30
0.0
 40
165.6747969999998
100
AcDbArc
 50
179.993081
 51
191.766568
  0
ARC
  5
ACF3
330
AC3C
100
AcDbEntity
  8
1
  6
Continuous
100
AcDbCircle
 10
435.4247969999998
 20
187.949601
 30
0.0
 40
167.974797
100
AcDbArc
 50
179.993081
 51
191.766568
  0
ARC
  5
ACF4
330
AC3C
100
AcDbEntity
  8
1
  6
Continuous
100
AcDbCircle
 10
251.4
 20
149.6168679999998
 30
0.0
 40
20.0
100
AcDbArc
 50
0.0
 51
11.76656799999999
  0
ARC
  5
ACF5
330
AC3C
100
AcDbEntity
  8
1
  6
Continuous
100
AcDbCircle
 10
251.4
 20
149.6168679999998
 30
0.0
 40
22.29999999999999
100
AcDbArc
 50
0.0
 51
11.76656799999999
  0
LINE
  5
ACF6
330
AC3C
100
AcDbEntity
  8
1
  6
Continuous
100
AcDbLine
 10
273.7
 20
142.1
 30
0.0
 11
273.7
 21
190.15
 31
0.0
  0
LINE
  5
ACF7
330
AC3C
100
AcDbEntity
  8
1
  6
Continuous
100
AcDbLine
 10
271.3999999999999
 20
142.1
 30
0.0
 11
273.7
 21
142.1
 31
0.0
  0
LINE
  5
ACF8
330
AC3C
100
AcDbEntity
  8
1
  6
Continuous
100
AcDbLine
 10
271.3999999999999
 20
142.1
 30
0.0
 11
271.3999999999999
 21
149.6168679999998
 31
0.0
  0
LINE
  5
ACF9
330
AC3C
100
AcDbEntity
  8
1
  6
Continuous
100
AcDbLine
 10
273.95
 20
148.4499999999998
 30
0.0
 11
273.7
 21
148.4499999999998
 31
0.0
  0
LINE
  5
ACFA
330
AC3C
100
AcDbEntity
  8
1
  6
Continuous
100
AcDbLine
 10
273.95
 20
156.4499999999999
 30
0.0
 11
273.7
 21
156.4499999999999
 31
0.0
  0
LINE
  5
ACFB
330
AC3C
100
AcDbEntity
  8
1
  6
Continuous
100
AcDbLine
 10
269.0737619999998
 20
159.45
 30
0.0
 11
269.0737619999998
 21
145.4499999999999
 31
0.0
  0
ARC
  5
ACFC
330
AC3C
100
AcDbEntity
  8
1
  6
Continuous
100
AcDbCircle
 10
276.8999999999999
 20
152.4499999999999
 30
0.0
 40
10.5
100
AcDbArc
 50
138.1896849999999
 51
221.810315
  0
LINE
  5
ACFD
330
AC3C
100
AcDbEntity
  8
1
  6
Continuous
100
AcDbLine
 10
269.0737619999998
 20
159.45
 30
0.0
 11
269.88536
 21
159.45
 31
0.0
  0
LINE
  5
ACFE
330
AC3C
100
AcDbEntity
  8
1
  6
Continuous
100
AcDbLine
 10
269.0737619999998
 20
145.4499999999999
 30
0.0
 11
271.3999999999999
 21
145.4499999999999
 31
0.0
  0
LINE
  5
ACFF
330
AC3C
100
AcDbEntity
  8
1
  6
Continuous
100
AcDbLine
 10
309.5
 20
159.9499999999999
 30
0.0
 11
309.5
 21
144.95
 31
0.0
  0
LINE
  5
AD00
330
AC3C
100
AcDbEntity
  8
1
  6
Continuous
100
AcDbLine
 10
309.099944
 20
159.9499999999999
 30
0.0
 11
309.5
 21
159.9499999999999
 31
0.0
  0
LINE
  5
AD01
330
AC3C
100
AcDbEntity
  8
1
  6
Continuous
100
AcDbLine
 10
315.3
 20
156.4499999999999
 30
0.0
 11
314.5
 21
156.4499999999999
 31
0.0
  0
LINE
  5
AD02
330
AC3C
100
AcDbEntity
  8
2
  6
Continuous
100
AcDbLine
 10
314.5
 20
155.7735
 30
0.0
 11
315.8999999999999
 21
155.7735
 31
0.0
  0
LINE
  5
AD03
330
AC3C
100
AcDbEntity
  8
2
  6
Continuous
100
AcDbLine
 10
314.5
 20
149.1265
 30
0.0
 11
315.8999999999999
 21
149.1265
 31
0.0
  0
LINE
  5
AD04
330
AC3C
100
AcDbEntity
  8
1
  6
Continuous
100
AcDbLine
 10
315.3
 20
148.4499999999998
 30
0.0
 11
314.5
 21
148.4499999999998
 31
0.0
  0
LINE
  5
AD05
330
AC3C
100
AcDbEntity
  8
1
  6
Continuous
100
AcDbLine
 10
309.5
 20
152.4499999999999
 30
0.0
 11
307.518124
 21
150.468124
 31
0.0
  0
LINE
  5
AD06
330
AC3C
100
AcDbEntity
  8
1
  6
Continuous
100
AcDbLine
 10
309.5
 20
154.45
 30
0.0
 11
307.7370559999998
 21
152.687056
 31
0.0
  0
LINE
  5
AD07
330
AC3C
100
AcDbEntity
  8
1
  6
Continuous
100
AcDbLine
 10
307.5
 20
144.95
 30
0.0
 11
309.5
 21
144.95
 31
0.0
  0
LINE
  5
AD08
330
AC3C
100
AcDbEntity
  8
1
  6
Continuous
100
AcDbLine
 10
315.8999999999999
 20
155.8499999999999
 30
0.0
 11
315.8999999999999
 21
149.05
 31
0.0
  0
LINE
  5
AD09
330
AC3C
100
AcDbEntity
  8
1
  6
Continuous
100
AcDbLine
 10
315.3
 20
156.4499999999999
 30
0.0
 11
315.3
 21
148.4499999999998
 31
0.0
  0
ARC
  5
AD0A
330
AC3C
100
AcDbEntity
  8
1
  6
Continuous
100
AcDbCircle
 10
320.964102
 20
152.4499999999999
 30
0.0
 40
11.464102
100
AcDbArc
 50
162.412046
 51
197.5879539999999
  0
ARC
  5
AD0B
330
AC3C
100
AcDbEntity
  8
1
  6
Continuous
100
AcDbCircle
 10
303.0358979999999
 20
152.4499999999999
 30
0.0
 40
11.464102
100
AcDbArc
 50
342.4120459999999
 51
17.587954
  0
LINE
  5
AD0C
330
AC3C
100
AcDbEntity
  8
1
  6
Continuous
100
AcDbLine
 10
314.5
 20
146.4499999999999
 30
0.0
 11
314.5
 21
158.45
 31
0.0
  0
LINE
  5
AD0D
330
AC3C
100
AcDbEntity
  8
1
  6
Continuous
100
AcDbLine
 10
310.0358979999999
 20
159.378203
 30
0.0
 11
309.5
 21
158.45
 31
0.0
  0
LINE
  5
AD0E
330
AC3C
100
AcDbEntity
  8
1
  6
Continuous
100
AcDbLine
 10
313.964102
 20
159.378203
 30
0.0
 11
314.5
 21
158.45
 31
0.0
  0
LINE
  5
AD0F
330
AC3C
100
AcDbEntity
  8
1
  6
Continuous
100
AcDbLine
 10
313.964102
 20
159.378203
 30
0.0
 11
310.0358979999999
 21
159.378203
 31
0.0
  0
LINE
  5
AD10
330
AC3C
100
AcDbEntity
  8
1
  6
Continuous
100
AcDbLine
 10
313.964102
 20
155.914102
 30
0.0
 11
310.0358979999999
 21
155.914102
 31
0.0
  0
ARC
  5
AD11
330
AC3C
100
AcDbEntity
  8
1
  6
Continuous
100
AcDbCircle
 10
311.433013
 20
157.646152
 30
0.0
 40
3.066986999999998
100
AcDbArc
 50
325.6157529999999
 51
25.615753
  0
ARC
  5
AD12
330
AC3C
100
AcDbEntity
  8
1
  6
Continuous
100
AcDbCircle
 10
312.5669869999999
 20
157.646152
 30
0.0
 40
3.066986999999998
100
AcDbArc
 50
154.3842469999999
 51
214.384247
  0
ARC
  5
AD13
330
AC3C
100
AcDbEntity
  8
1
  6
Continuous
100
AcDbCircle
 10
312.5669869999999
 20
147.253848
 30
0.0
 40
3.066986999999998
100
AcDbArc
 50
145.615753
 51
205.615753
  0
ARC
  5
AD14
330
AC3C
100
AcDbEntity
  8
1
  6
Continuous
100
AcDbCircle
 10
311.433013
 20
147.253848
 30
0.0
 40
3.066986999999998
100
AcDbArc
 50
334.384247
 51
34.38424699999998
  0
LINE
  5
AD15
330
AC3C
100
AcDbEntity
  8
1
  6
Continuous
100
AcDbLine
 10
313.964102
 20
148.9858979999999
 30
0.0
 11
310.0358979999999
 21
148.9858979999999
 31
0.0
  0
LINE
  5
AD16
330
AC3C
100
AcDbEntity
  8
1
  6
Continuous
100
AcDbLine
 10
313.964102
 20
145.5217969999999
 30
0.0
 11
310.0358979999999
 21
145.5217969999999
 31
0.0
  0
LINE
  5
AD17
330
AC3C
100
AcDbEntity
  8
1
  6
Continuous
100
AcDbLine
 10
313.964102
 20
145.5217969999999
 30
0.0
 11
314.5
 21
146.4499999999999
 31
0.0
  0
LINE
  5
AD18
330
AC3C
100
AcDbEntity
  8
1
  6
Continuous
100
AcDbLine
 10
310.0358979999999
 20
145.5217969999999
 30
0.0
 11
309.5
 21
146.4499999999999
 31
0.0
  0
LINE
  5
AD19
330
AC3C
100
AcDbEntity
  8
1
  6
Continuous
100
AcDbLine
 10
38.95
 20
134.973129
 30
0.0
 11
38.95
 21
169.926872
 31
0.0
  0
LINE
  5
AD1A
330
AC3C
100
AcDbEntity
  8
1
  6
Continuous
100
AcDbLine
 10
63.95
 20
134.973129
 30
0.0
 11
63.95
 21
169.926872
 31
0.0
  0
LINE
  5
AD1B
330
AC3C
100
AcDbEntity
  8
1
  6
Continuous
100
AcDbLine
 10
36.83175900000001
 20
144.9409159999999
 30
0.0
 11
36.83175900000001
 21
159.9590839999999
 31
0.0
  0
LINE
  5
AD1C
330
AC3C
100
AcDbEntity
  8
1
  6
Continuous
100
AcDbLine
 10
66.068241
 20
144.9409159999999
 30
0.0
 11
66.068241
 21
159.9590839999999
 31
0.0
  0
LINE
  5
AD1D
330
AC3C
100
AcDbEntity
  8
1
  6
Continuous
100
AcDbLine
 10
66.95
 20
145.4499999999999
 30
0.0
 11
66.95
 21
159.45
 31
0.0
  0
LINE
  5
AD1E
330
AC3C
100
AcDbEntity
  8
1
  6
Continuous
100
AcDbLine
 10
35.95000000000001
 20
145.4499999999999
 30
0.0
 11
35.95000000000001
 21
159.45
 31
0.0
  0
LINE
  5
AD1F
330
AC3C
100
AcDbEntity
  8
4
  6
CENTER
100
AcDbLine
 10
51.45
 20
129.4499999999999
 30
0.0
 11
51.45
 21
195.4499999999999
 31
0.0
  0
LINE
  5
AD20
330
AC3C
100
AcDbEntity
  8
1
  6
Continuous
100
AcDbLine
 10
35.70000000000001
 20
142.1
 30
0.0
 11
35.70000000000001
 21
190.15
 31
0.0
  0
ARC
  5
AD21
330
AC3C
100
AcDbEntity
  8
1
  6
Continuous
100
AcDbCircle
 10
197.424797
 20
187.949601
 30
0.0
 40
167.974797
100
AcDbArc
 50
179.993081
 51
191.766568
  0
ARC
  5
AD22
330
AC3C
100
AcDbEntity
  8
1
  6
Continuous
100
AcDbCircle
 10
197.424797
 20
187.949601
 30
0.0
 40
165.6747969999998
100
AcDbArc
 50
179.993081
 51
191.766568
  0
ARC
  5
AD23
330
AC3C
100
AcDbEntity
  8
1
  6
Continuous
100
AcDbCircle
 10
-94.52479700000001
 20
187.949601
 30
0.0
 40
165.6747969999998
100
AcDbArc
 50
348.233432
 51
0.006919
  0
ARC
  5
AD24
330
AC3C
100
AcDbEntity
  8
1
  6
Continuous
100
AcDbCircle
 10
-94.52479700000001
 20
187.949601
 30
0.0
 40
167.974797
100
AcDbArc
 50
348.233432
 51
0.006919
  0
LINE
  5
AD25
330
AC3C
100
AcDbEntity
  8
1
  6
Continuous
100
AcDbLine
 10
67.2
 20
142.1
 30
0.0
 11
67.2
 21
190.15
 31
0.0
  0
LINE
  5
AD26
330
AC3C
100
AcDbEntity
  8
1
  6
Continuous
100
AcDbLine
 10
31.4
 20
159.9499999999999
 30
0.0
 11
31.4
 21
144.95
 31
0.0
  0
LINE
  5
AD27
330
AC3C
100
AcDbEntity
  8
1
  6
Continuous
100
AcDbLine
 10
71.826238
 20
159.45
 30
0.0
 11
71.826238
 21
145.4499999999999
 31
0.0
  0
ARC
  5
AD28
330
AC3C
100
AcDbEntity
  8
1
  6
Continuous
100
AcDbCircle
 10
64.0
 20
152.4499999999999
 30
0.0
 40
10.5
100
AcDbArc
 50
318.189685
 51
41.810315
  0
ARC
  5
AD29
330
AC3C
100
AcDbEntity
  8
1
  6
Continuous
100
AcDbCircle
 10
28.333013
 20
157.646152
 30
0.0
 40
3.066986999999998
100
AcDbArc
 50
325.6157529999999
 51
25.615753
  0
ARC
  5
AD2A
330
AC3C
100
AcDbEntity
  8
1
  6
Continuous
100
AcDbCircle
 10
29.466987
 20
157.646152
 30
0.0
 40
3.066986999999998
100
AcDbArc
 50
154.3842469999999
 51
214.384247
  0
LINE
  5
AD2B
330
AC3C
100
AcDbEntity
  8
1
  6
Continuous
100
AcDbLine
 10
26.4
 20
146.4499999999999
 30
0.0
 11
26.4
 21
158.45
 31
0.0
  0
ARC
  5
AD2C
330
AC3C
100
AcDbEntity
  8
1
  6
Continuous
100
AcDbCircle
 10
51.45
 20
232.45
 30
0.0
 40
100.0
100
AcDbArc
 50
263.8489509999998
 51
276.150887
  0
LINE
  5
AD2D
330
AC3C
100
AcDbEntity
  8
4
  6
CENTER
100
AcDbLine
 10
77.250049
 20
152.4499999999999
 30
0.0
 11
21.750049
 21
152.4499999999999
 31
0.0
  0
ARC
  5
AD2E
330
AC3C
100
AcDbEntity
  8
1
  6
Continuous
100
AcDbCircle
 10
61.950421
 20
135.0141689999998
 30
0.0
 40
2.0
100
AcDbArc
 50
276.150887
 51
0.009906
  0
LINE
  5
AD2F
330
AC3C
100
AcDbEntity
  8
1
  6
Continuous
100
AcDbLine
 10
66.95
 20
145.4499999999999
 30
0.0
 11
66.068241
 21
144.9409159999999
 31
0.0
  0
ARC
  5
AD30
330
AC3C
100
AcDbEntity
  8
1
  6
Continuous
100
AcDbCircle
 10
89.50000000000001
 20
149.6168679999998
 30
0.0
 40
20.0
100
AcDbArc
 50
168.233432
 51
180.0
  0
ARC
  5
AD31
330
AC3C
100
AcDbEntity
  8
1
  6
Continuous
100
AcDbCircle
 10
89.50000000000001
 20
149.6168679999998
 30
0.0
 40
22.29999999999999
100
AcDbArc
 50
168.233432
 51
180.0
  0
LINE
  5
AD32
330
AC3C
100
AcDbEntity
  8
1
  6
Continuous
100
AcDbLine
 10
69.5
 20
142.1
 30
0.0
 11
67.2
 21
142.1
 31
0.0
  0
LINE
  5
AD33
330
AC3C
100
AcDbEntity
  8
1
  6
Continuous
100
AcDbLine
 10
69.5
 20
142.1
 30
0.0
 11
69.5
 21
149.6168679999998
 31
0.0
  0
LINE
  5
AD34
330
AC3C
100
AcDbEntity
  8
1
  6
Continuous
100
AcDbLine
 10
66.95
 20
148.4499999999998
 30
0.0
 11
67.2
 21
148.4499999999998
 31
0.0
  0
LINE
  5
AD35
330
AC3C
100
AcDbEntity
  8
1
  6
Continuous
100
AcDbLine
 10
66.95
 20
156.4499999999999
 30
0.0
 11
67.2
 21
156.4499999999999
 31
0.0
  0
LINE
  5
AD36
330
AC3C
100
AcDbEntity
  8
1
  6
Continuous
100
AcDbLine
 10
71.826238
 20
145.4499999999999
 30
0.0
 11
69.5
 21
145.4499999999999
 31
0.0
  0
ARC
  5
AD37
330
AC3C
100
AcDbEntity
  8
1
  6
Continuous
100
AcDbCircle
 10
46.56671399999999
 20
149.3783089999998
 30
0.0
 40
20.0
100
AcDbArc
 50
330.36167
 51
347.181131
  0
LINE
  5
AD38
330
AC3C
100
AcDbEntity
  8
1
  6
Continuous
100
AcDbLine
 10
26.93589799999999
 20
145.5217969999999
 30
0.0
 11
30.86410199999999
 21
145.5217969999999
 31
0.0
  0
LINE
  5
AD39
330
AC3C
100
AcDbEntity
  8
1
  6
Continuous
100
AcDbLine
 10
26.93589799999999
 20
148.9858979999999
 30
0.0
 11
30.86410199999999
 21
148.9858979999999
 31
0.0
  0
LINE
  5
AD3A
330
AC3C
100
AcDbEntity
  8
1
  6
Continuous
100
AcDbLine
 10
26.93589799999999
 20
155.914102
 30
0.0
 11
30.86410199999999
 21
155.914102
 31
0.0
  0
ARC
  5
AD3B
330
AC3C
100
AcDbEntity
  8
1
  6
Continuous
100
AcDbCircle
 10
40.94957899999999
 20
135.0141689999998
 30
0.0
 40
2.0
100
AcDbArc
 50
178.8242009999999
 51
263.8491129999998
  0
LINE
  5
AD3C
330
AC3C
100
AcDbEntity
  8
1
  6
Continuous
100
AcDbLine
 10
30.86410199999999
 20
145.5217969999999
 30
0.0
 11
31.4
 21
146.4499999999999
 31
0.0
  0
ARC
  5
AD3D
330
AC3C
100
AcDbEntity
  8
1
  6
Continuous
100
AcDbCircle
 10
28.333013
 20
147.253848
 30
0.0
 40
3.066986999999998
100
AcDbArc
 50
334.384247
 51
34.38424699999998
  0
ARC
  5
AD3E
330
AC3C
100
AcDbEntity
  8
1
  6
Continuous
100
AcDbCircle
 10
19.935898
 20
152.4499999999999
 30
0.0
 40
11.464102
100
AcDbArc
 50
342.4120459999999
 51
17.587954
  0
ARC
  5
AD3F
330
AC3C
100
AcDbEntity
  8
1
  6
Continuous
100
AcDbCircle
 10
56.333286
 20
149.3783089999998
 30
0.0
 40
20.0
100
AcDbArc
 50
192.818869
 51
209.6383299999998
  0
LINE
  5
AD40
330
AC3C
100
AcDbEntity
  8
1
  6
Continuous
100
AcDbLine
 10
35.95000000000001
 20
145.4499999999999
 30
0.0
 11
36.83175900000001
 21
144.9409159999999
 31
0.0
  0
LINE
  5
AD41
330
AC3C
100
AcDbEntity
  8
1
  6
Continuous
100
AcDbLine
 10
33.39999999999999
 20
142.1
 30
0.0
 11
35.70000000000001
 21
142.1
 31
0.0
  0
LINE
  5
AD42
330
AC3C
100
AcDbEntity
  8
1
  6
Continuous
100
AcDbLine
 10
35.95000000000001
 20
156.4499999999999
 30
0.0
 11
35.70000000000001
 21
156.4499999999999
 31
0.0
  0
LINE
  5
AD43
330
AC3C
100
AcDbEntity
  8
1
  6
Continuous
100
AcDbLine
 10
35.95000000000001
 20
148.4499999999998
 30
0.0
 11
35.70000000000001
 21
148.4499999999998
 31
0.0
  0
ARC
  5
AD44
330
AC3C
100
AcDbEntity
  8
1
  6
Continuous
100
AcDbCircle
 10
13.4
 20
149.6168679999998
 30
0.0
 40
20.0
100
AcDbArc
 50
0.0
 51
11.76656799999999
  0
LINE
  5
AD45
330
AC3C
100
AcDbEntity
  8
1
  6
Continuous
100
AcDbLine
 10
33.39999999999999
 20
142.1
 30
0.0
 11
33.39999999999999
 21
149.6168679999998
 31
0.0
  0
ARC
  5
AD46
330
AC3C
100
AcDbEntity
  8
1
  6
Continuous
100
AcDbCircle
 10
13.4
 20
149.6168679999998
 30
0.0
 40
22.29999999999999
100
AcDbArc
 50
0.0
 51
11.76656799999999
  0
LINE
  5
AD47
330
AC3C
100
AcDbEntity
  8
1
  6
Continuous
100
AcDbLine
 10
33.39999999999999
 20
144.95
 30
0.0
 11
31.4
 21
144.95
 31
0.0
  0
LINE
  5
AD48
330
AC3C
100
AcDbEntity
  8
1
  6
Continuous
100
AcDbLine
 10
31.4
 20
150.4499999999999
 30
0.0
 11
33.222858
 21
152.272858
 31
0.0
  0
LINE
  5
AD49
330
AC3C
100
AcDbEntity
  8
1
  6
Continuous
100
AcDbLine
 10
31.4
 20
152.4499999999999
 30
0.0
 11
32.92228999999999
 21
153.9722899999999
 31
0.0
  0
LINE
  5
AD4A
330
AC3C
100
AcDbEntity
  8
2
  6
Continuous
100
AcDbLine
 10
26.4
 20
149.1265
 30
0.0
 11
25.0
 21
149.1265
 31
0.0
  0
LINE
  5
AD4B
330
AC3C
100
AcDbEntity
  8
1
  6
Continuous
100
AcDbLine
 10
25.6
 20
148.4499999999998
 30
0.0
 11
26.4
 21
148.4499999999998
 31
0.0
  0
LINE
  5
AD4C
330
AC3C
100
AcDbEntity
  8
1
  6
Continuous
100
AcDbLine
 10
25.6
 20
156.4499999999999
 30
0.0
 11
26.4
 21
156.4499999999999
 31
0.0
  0
LINE
  5
AD4D
330
AC3C
100
AcDbEntity
  8
2
  6
Continuous
100
AcDbLine
 10
26.4
 20
155.7735
 30
0.0
 11
25.0
 21
155.7735
 31
0.0
  0
LINE
  5
AD4E
330
AC3C
100
AcDbEntity
  8
1
  6
Continuous
100
AcDbLine
 10
25.0
 20
155.8499999999999
 30
0.0
 11
25.0
 21
149.05
 31
0.0
  0
LINE
  5
AD4F
330
AC3C
100
AcDbEntity
  8
1
  6
Continuous
100
AcDbLine
 10
25.6
 20
156.4499999999999
 30
0.0
 11
25.6
 21
148.4499999999998
 31
0.0
  0
ARC
  5
AD50
330
AC3C
100
AcDbEntity
  8
1
  6
Continuous
100
AcDbCircle
 10
29.466987
 20
147.253848
 30
0.0
 40
3.066986999999998
100
AcDbArc
 50
145.615753
 51
205.615753
  0
LINE
  5
AD51
330
AC3C
100
AcDbEntity
  8
1
  6
Continuous
100
AcDbLine
 10
26.93589799999999
 20
145.5217969999999
 30
0.0
 11
26.4
 21
146.4499999999999
 31
0.0
  0
ARC
  5
AD52
330
AC3C
100
AcDbEntity
  8
1
  6
Continuous
100
AcDbCircle
 10
37.86410200000001
 20
152.4499999999999
 30
0.0
 40
11.464102
100
AcDbArc
 50
162.412046
 51
197.5879539999999
  0
LINE
  5
AD53
330
AC3C
100
AcDbEntity
  8
1
  6
Continuous
100
AcDbLine
 10
63.2911
 20
189.15
 30
0.0
 11
39.6089
 21
189.15
 31
0.0
  0
ARC
  5
AD54
330
AC3C
100
AcDbEntity
  8
1
  6
Continuous
100
AcDbCircle
 10
51.45
 20
72.45
 30
0.0
 40
100.0
100
AcDbArc
 50
83.849113
 51
96.15104900000002
  0
LINE
  5
AD55
330
AC3C
100
AcDbEntity
  8
1
  6
Continuous
100
AcDbLine
 10
73.45
 20
192.4499999999999
 30
0.0
 11
29.45
 21
192.4499999999999
 31
0.0
  0
LINE
  5
AD56
330
AC3C
100
AcDbEntity
  8
1
  6
Continuous
100
AcDbLine
 10
73.45
 20
190.15
 30
0.0
 11
29.45
 21
190.15
 31
0.0
  0
LINE
  5
AD57
330
AC3C
100
AcDbEntity
  8
1
  6
Continuous
100
AcDbLine
 10
66.2911
 20
189.6499999999998
 30
0.0
 11
36.6089
 21
189.6499999999998
 31
0.0
  0
LINE
  5
AD58
330
AC3C
100
AcDbEntity
  8
1
  6
Continuous
100
AcDbLine
 10
66.95
 20
159.45
 30
0.0
 11
66.068241
 21
159.9590839999999
 31
0.0
  0
LINE
  5
AD59
330
AC3C
100
AcDbEntity
  8
1
  6
Continuous
100
AcDbLine
 10
71.826238
 20
159.45
 30
0.0
 11
71.01463999999999
 21
159.45
 31
0.0
  0
ARC
  5
AD5A
330
AC3C
100
AcDbEntity
  8
1
  6
Continuous
100
AcDbCircle
 10
61.950421
 20
169.885831
 30
0.0
 40
2.0
100
AcDbArc
 50
359.9900939999998
 51
83.849113
  0
ARC
  5
AD5B
330
AC3C
100
AcDbEntity
  8
1
  6
Continuous
100
AcDbCircle
 10
46.56671399999999
 20
155.521692
 30
0.0
 40
20.0
100
AcDbArc
 50
12.81886899999999
 51
29.63833
  0
LINE
  5
AD5C
330
AC3C
100
AcDbEntity
  8
1
  6
Continuous
100
AcDbLine
 10
73.45
 20
192.4499999999999
 30
0.0
 11
73.45
 21
190.15
 31
0.0
  0
LINE
  5
AD5D
330
AC3C
100
AcDbEntity
  8
1
  6
Continuous
100
AcDbLine
 10
66.2911
 20
189.6499999999998
 30
0.0
 11
66.2911
 21
190.15
 31
0.0
  0
LINE
  5
AD5E
330
AC3C
100
AcDbEntity
  8
4
  6
CENTER
100
AcDbLine
 10
66.45
 20
194.2619579999999
 30
0.0
 11
66.45
 21
187.654122
 31
0.0
  0
ARC
  5
AD5F
330
AC3C
100
AcDbEntity
  8
1
  6
Continuous
100
AcDbCircle
 10
68.950043
 20
187.9499999999999
 30
0.0
 40
2.2
100
AcDbArc
 50
359.7470819999998
 51
90.0
  0
ARC
  5
AD60
330
AC3C
100
AcDbEntity
  8
1
  6
Continuous
100
AcDbCircle
 10
68.950043
 20
187.9499999999999
 30
0.0
 40
4.5
100
AcDbArc
 50
359.7470819999998
 51
29.267578
  0
ARC
  5
AD61
330
AC3C
100
AcDbEntity
  8
1
  6
Continuous
100
AcDbCircle
 10
63.2911
 20
198.4
 30
0.0
 40
9.25
100
AcDbArc
 50
270.0
 51
288.9246439999999
  0
LINE
  5
AD62
330
AC3C
100
AcDbEntity
  8
1
  6
Continuous
100
AcDbLine
 10
26.93589799999999
 20
159.378203
 30
0.0
 11
30.86410199999999
 21
159.378203
 31
0.0
  0
LINE
  5
AD63
330
AC3C
100
AcDbEntity
  8
1
  6
Continuous
100
AcDbLine
 10
31.800056
 20
159.9499999999999
 30
0.0
 11
31.4
 21
159.9499999999999
 31
0.0
  0
LINE
  5
AD64
330
AC3C
100
AcDbEntity
  8
1
  6
Continuous
100
AcDbLine
 10
30.86410199999999
 20
159.378203
 30
0.0
 11
31.4
 21
158.45
 31
0.0
  0
ARC
  5
AD65
330
AC3C
100
AcDbEntity
  8
1
  6
Continuous
100
AcDbCircle
 10
40.94957899999999
 20
169.885831
 30
0.0
 40
2.0
100
AcDbArc
 50
96.15088700000001
 51
180.0099059999998
  0
ARC
  5
AD66
330
AC3C
100
AcDbEntity
  8
1
  6
Continuous
100
AcDbCircle
 10
56.333286
 20
155.521692
 30
0.0
 40
20.0
100
AcDbArc
 50
150.36167
 51
167.181131
  0
LINE
  5
AD67
330
AC3C
100
AcDbEntity
  8
1
  6
Continuous
100
AcDbLine
 10
35.95000000000001
 20
159.45
 30
0.0
 11
36.83175900000001
 21
159.9590839999999
 31
0.0
  0
LINE
  5
AD68
330
AC3C
100
AcDbEntity
  8
1
  6
Continuous
100
AcDbLine
 10
36.6089
 20
189.6499999999998
 30
0.0
 11
36.6089
 21
190.15
 31
0.0
  0
ARC
  5
AD69
330
AC3C
100
AcDbEntity
  8
1
  6
Continuous
100
AcDbCircle
 10
39.6089
 20
198.4
 30
0.0
 40
9.25
100
AcDbArc
 50
251.075356
 51
270.0
  0
LINE
  5
AD6A
330
AC3C
100
AcDbEntity
  8
4
  6
CENTER
100
AcDbLine
 10
36.45
 20
194.2619579999999
 30
0.0
 11
36.45
 21
187.654122
 31
0.0
  0
ARC
  5
AD6B
330
AC3C
100
AcDbEntity
  8
1
  6
Continuous
100
AcDbCircle
 10
33.94995699999999
 20
187.9499999999999
 30
0.0
 40
2.2
100
AcDbArc
 50
90.0
 51
180.252918
  0
LINE
  5
AD6C
330
AC3C
100
AcDbEntity
  8
1
  6
Continuous
100
AcDbLine
 10
26.93589799999999
 20
159.378203
 30
0.0
 11
26.4
 21
158.45
 31
0.0
  0
LINE
  5
AD6D
330
AC3C
100
AcDbEntity
  8
1
  6
Continuous
100
AcDbLine
 10
29.45
 20
192.4499999999999
 30
0.0
 11
29.45
 21
190.15
 31
0.0
  0
ARC
  5
AD6E
330
AC3C
100
AcDbEntity
  8
1
  6
Continuous
100
AcDbCircle
 10
33.94995699999999
 20
187.9499999999999
 30
0.0
 40
4.5
100
AcDbArc
 50
150.7324219999999
 51
180.252918
  0
LINE
  5
AD6F
330
AC3C
100
AcDbEntity
  8
1
  6
Continuous
100
AcDbLine
 10
418.371239
 20
149.5018629999998
 30
0.0
 11
431.1334539999998
 21
192.4499999999999
 31
0.0
  0
LINE
  5
AD70
330
AC3C
100
AcDbEntity
  8
1
  6
Continuous
100
AcDbLine
 10
398.5287609999998
 20
149.5018629999998
 30
0.0
 11
385.766545
 21
192.4499999999999
 31
0.0
  0
ARC
  5
AD71
330
AC3C
100
AcDbEntity
  8
1
  6
Continuous
100
AcDbCircle
 10
408.45
 20
152.4499999999999
 30
0.0
 40
20.0
100
AcDbArc
 50
137.7142379999999
 51
42.285762
  0
ARC
  5
AD72
330
AC3C
100
AcDbEntity
  8
1
  6
Continuous
100
AcDbCircle
 10
408.45
 20
152.4499999999999
 30
0.0
 40
13.5
100
AcDbArc
 50
156.6050279999998
 51
23.39497199999999
  0
ARC
  5
AD73
330
AC3C
100
AcDbEntity
  8
1
  6
Continuous
100
AcDbCircle
 10
408.45
 20
152.4499999999999
 30
0.0
 40
14.0
100
AcDbArc
 50
154.2201379999999
 51
25.77986199999999
  0
LINE
  5
AD74
330
AC3C
100
AcDbEntity
  8
1
  6
Continuous
100
AcDbLine
 10
416.051736
 20
148.995133
 30
0.0
 11
416.051736
 21
187.9499999999999
 31
0.0
  0
LINE
  5
AD75
330
AC3C
100
AcDbEntity
  8
1
  6
Continuous
100
AcDbLine
 10
400.8482639999998
 20
148.995133
 30
0.0
 11
400.8482639999998
 21
187.9499999999999
 31
0.0
  0
LINE
  5
AD76
330
AC3C
100
AcDbEntity
  8
4
  6
CENTER
100
AcDbLine
 10
408.45
 20
129.4499999999999
 30
0.0
 11
408.45
 21
195.4499999999999
 31
0.0
  0
LINE
  5
AD77
330
AC3C
100
AcDbEntity
  8
4
  6
CENTER
100
AcDbLine
 10
431.4499999999998
 20
152.4499999999999
 30
0.0
 11
385.4499999999999
 21
152.4499999999999
 31
0.0
  0
ARC
  5
AD78
330
AC3C
100
AcDbEntity
  8
1
  6
Continuous
100
AcDbCircle
 10
408.45
 20
152.4499999999999
 30
0.0
 40
10.34999999999999
100
AcDbArc
 50
196.5495329999999
 51
343.4504669999999
  0
LINE
  5
AD79
330
AC3C
100
AcDbEntity
  8
1
  6
Continuous
100
AcDbLine
 10
445.45
 20
192.4499999999999
 30
0.0
 11
371.45
 21
192.4499999999999
 31
0.0
  0
LINE
  5
AD7A
330
AC3C
100
AcDbEntity
  8
1
  6
Continuous
100
AcDbLine
 10
430.4499999999999
 20
190.15
 30
0.0
 11
445.45
 21
190.15
 31
0.0
  0
LINE
  5
AD7B
330
AC3C
100
AcDbEntity
  8
1
  6
Continuous
100
AcDbLine
 10
445.45
 20
190.15
 30
0.0
 11
445.45
 21
192.4499999999999
 31
0.0
  0
LINE
  5
AD7C
330
AC3C
100
AcDbEntity
  8
1
  6
Continuous
100
AcDbLine
 10
435.011276
 20
190.15
 30
0.0
 11
435.011276
 21
189.6499999999998
 31
0.0
  0
LINE
  5
AD7D
330
AC3C
100
AcDbEntity
  8
1
  6
Continuous
100
AcDbLine
 10
432.0112759999998
 20
189.15
 30
0.0
 11
430.152846
 21
189.15
 31
0.0
  0
ARC
  5
AD7E
330
AC3C
100
AcDbEntity
  8
1
  6
Continuous
100
AcDbCircle
 10
432.0112759999998
 20
198.4
 30
0.0
 40
9.25
100
AcDbArc
 50
270.0
 51
288.9246439999999
  0
LINE
  5
AD7F
330
AC3C
100
AcDbEntity
  8
1
  6
Continuous
100
AcDbLine
 10
435.011276
 20
189.6499999999998
 30
0.0
 11
430.301423
 21
189.6499999999998
 31
0.0
  0
LINE
  5
AD80
330
AC3C
100
AcDbEntity
  8
4
  6
CENTER
100
AcDbLine
 10
438.45
 20
194.9365069999998
 30
0.0
 11
438.45
 21
187.7902169999999
 31
0.0
  0
LINE
  5
AD81
330
AC3C
100
AcDbEntity
  8
1
  6
Continuous
100
AcDbLine
 10
386.4499999999999
 20
190.15
 30
0.0
 11
371.45
 21
190.15
 31
0.0
  0
LINE
  5
AD82
330
AC3C
100
AcDbEntity
  8
1
  6
Continuous
100
AcDbLine
 10
381.888724
 20
190.15
 30
0.0
 11
381.888724
 21
189.6499999999998
 31
0.0
  0
LINE
  5
AD83
330
AC3C
100
AcDbEntity
  8
1
  6
Continuous
100
AcDbLine
 10
384.888724
 20
189.15
 30
0.0
 11
386.747154
 21
189.15
 31
0.0
  0
ARC
  5
AD84
330
AC3C
100
AcDbEntity
  8
1
  6
Continuous
100
AcDbCircle
 10
384.888724
 20
198.4
 30
0.0
 40
9.25
100
AcDbArc
 50
251.075356
 51
270.0
  0
LINE
  5
AD85
330
AC3C
100
AcDbEntity
  8
1
  6
Continuous
100
AcDbLine
 10
381.888724
 20
189.6499999999998
 30
0.0
 11
386.5985769999999
 21
189.6499999999998
 31
0.0
  0
LINE
  5
AD86
330
AC3C
100
AcDbEntity
  8
1
  6
Continuous
100
AcDbLine
 10
371.45
 20
190.15
 30
0.0
 11
371.45
 21
192.4499999999999
 31
0.0
  0
LINE
  5
AD87
330
AC3C
100
AcDbEntity
  8
4
  6
CENTER
100
AcDbLine
 10
378.4499999999999
 20
194.9365069999998
 30
0.0
 11
378.4499999999999
 21
187.7902169999999
 31
0.0
  0
CIRCLE
  5
AD88
330
AC3C
100
AcDbEntity
  8
1
  6
Continuous
100
AcDbCircle
 10
140.4499999999998
 20
82.45
 30
0.0
 40
3.25
  0
CIRCLE
  5
AD89
330
AC3C
100
AcDbEntity
  8
1
  6
Continuous
100
AcDbCircle
 10
200.4499999999999
 20
82.45
 30
0.0
 40
3.25
  0
LINE
  5
AD8A
330
AC3C
100
AcDbEntity
  8
1
  6
Continuous
100
AcDbLine
 10
133.45
 20
82.45
 30
0.0
 11
133.45
 21
52.45
 31
0.0
  0
LINE
  5
AD8B
330
AC3C
100
AcDbEntity
  8
1
  6
Continuous
100
AcDbLine
 10
207.45
 20
82.45
 30
0.0
 11
207.45
 21
52.45
 31
0.0
  0
LINE
  5
AD8C
330
AC3C
100
AcDbEntity
  8
4
  6
CENTER
100
AcDbLine
 10
140.4499999999998
 20
76.2
 30
0.0
 11
140.4499999999998
 21
88.7
 31
0.0
  0
LINE
  5
AD8D
330
AC3C
100
AcDbEntity
  8
4
  6
CENTER
100
AcDbLine
 10
200.4499999999999
 20
76.2
 30
0.0
 11
200.4499999999999
 21
88.7
 31
0.0
  0
LINE
  5
AD8E
330
AC3C
100
AcDbEntity
  8
4
  6
CENTER
100
AcDbLine
 10
170.4499999999999
 20
93.25000000000001
 30
0.0
 11
170.4499999999999
 21
37.988551
 31
0.0
  0
ARC
  5
AD8F
330
AC3C
100
AcDbEntity
  8
1
  6
Continuous
100
AcDbCircle
 10
148.4499999999998
 20
68.133227
 30
0.0
 40
21.31677199999999
100
AcDbArc
 50
59.317968
 51
90.0
  0
LINE
  5
AD90
330
AC3C
100
AcDbEntity
  8
4
  6
CENTER
100
AcDbLine
 10
134.1999999999998
 20
82.45
 30
0.0
 11
146.6999999999998
 21
82.45
 31
0.0
  0
ARC
  5
AD91
330
AC3C
100
AcDbEntity
  8
1
  6
Continuous
100
AcDbCircle
 10
140.4499999999998
 20
82.45
 30
0.0
 40
7.0
100
AcDbArc
 50
38.713692
 51
180.0
  0
LINE
  5
AD92
330
AC3C
100
AcDbEntity
  8
1
  6
Continuous
100
AcDbLine
 10
148.4499999999998
 20
87.15000000000001
 30
0.0
 11
148.4499999999998
 21
89.45
 31
0.0
  0
ARC
  5
AD93
330
AC3C
100
AcDbEntity
  8
1
  6
Continuous
100
AcDbCircle
 10
147.0823879999999
 20
87.76614700000001
 30
0.0
 40
1.5
100
AcDbArc
 50
218.7136919999999
 51
335.7470909999999
  0
ARC
  5
AD94
330
AC3C
100
AcDbEntity
  8
1
  6
Continuous
100
AcDbCircle
 10
192.4499999999999
 20
68.133227
 30
0.0
 40
21.31677199999999
100
AcDbArc
 50
90.0
 51
120.682032
  0
LINE
  5
AD95
330
AC3C
100
AcDbEntity
  8
1
  6
Continuous
100
AcDbLine
 10
162.848264
 20
85.5
 30
0.0
 11
178.051736
 21
85.5
 31
0.0
  0
ARC
  5
AD96
330
AC3C
100
AcDbEntity
  8
1
  6
Continuous
100
AcDbCircle
 10
170.4499999999999
 20
80.0
 30
0.0
 40
10.5
100
AcDbArc
 50
48.189685
 51
131.810315
  0
LINE
  5
AD97
330
AC3C
100
AcDbEntity
  8
1
  6
Continuous
100
AcDbLine
 10
163.4499999999999
 20
87.82623800000001
 30
0.0
 11
177.4499999999999
 21
87.82623800000001
 31
0.0
  0
ARC
  5
AD98
330
AC3C
100
AcDbEntity
  8
1
  6
Continuous
100
AcDbCircle
 10
162.848264
 20
92.4
 30
0.0
 40
6.9
100
AcDbArc
 50
239.317968
 51
270.0
  0
LINE
  5
AD99
330
AC3C
100
AcDbEntity
  8
1
  6
Continuous
100
AcDbLine
 10
163.4499999999999
 20
87.82623800000001
 30
0.0
 11
163.4499999999999
 21
85.5
 31
0.0
  0
LINE
  5
AD9A
330
AC3C
100
AcDbEntity
  8
1
  6
Continuous
100
AcDbLine
 10
177.4499999999999
 20
87.82623800000001
 30
0.0
 11
177.4499999999999
 21
85.5
 31
0.0
  0
ARC
  5
AD9B
330
AC3C
100
AcDbEntity
  8
1
  6
Continuous
100
AcDbCircle
 10
178.051736
 20
92.4
 30
0.0
 40
6.9
100
AcDbArc
 50
270.0
 51
300.682032
  0
ARC
  5
AD9C
330
AC3C
100
AcDbEntity
  8
1
  6
Continuous
100
AcDbCircle
 10
200.4499999999999
 20
82.45
 30
0.0
 40
7.0
100
AcDbArc
 50
0.0
 51
141.2863079999999
  0
LINE
  5
AD9D
330
AC3C
100
AcDbEntity
  8
4
  6
CENTER
100
AcDbLine
 10
194.1999999999999
 20
82.45
 30
0.0
 11
206.6999999999999
 21
82.45
 31
0.0
  0
LINE
  5
AD9E
330
AC3C
100
AcDbEntity
  8
1
  6
Continuous
100
AcDbLine
 10
192.4499999999999
 20
87.15000000000001
 30
0.0
 11
192.4499999999999
 21
89.45
 31
0.0
  0
ARC
  5
AD9F
330
AC3C
100
AcDbEntity
  8
1
  6
Continuous
100
AcDbCircle
 10
193.817612
 20
87.76614700000001
 30
0.0
 40
1.5
100
AcDbArc
 50
204.2529089999999
 51
321.286308
  0
ARC
  5
ADA0
330
AC3C
100
AcDbEntity
  8
1
  6
Continuous
100
AcDbCircle
 10
148.4499999999998
 20
66.766772
 30
0.0
 40
21.31677199999999
100
AcDbArc
 50
270.0
 51
300.682032
  0
LINE
  5
ADA1
330
AC3C
100
AcDbEntity
  8
4
  6
CENTER
100
AcDbLine
 10
130.4499999999999
 20
67.45
 30
0.0
 11
210.4499999999999
 21
67.45
 31
0.0
  0
LINE
  5
ADA2
330
AC3C
100
AcDbEntity
  8
4
  6
CENTER
100
AcDbLine
 10
140.4499999999998
 20
46.2
 30
0.0
 11
140.4499999999998
 21
58.7
 31
0.0
  0
LINE
  5
ADA3
330
AC3C
100
AcDbEntity
  8
4
  6
CENTER
100
AcDbLine
 10
134.1999999999998
 20
52.45
 30
0.0
 11
146.6999999999998
 21
52.45
 31
0.0
  0
ARC
  5
ADA4
330
AC3C
100
AcDbEntity
  8
1
  6
Continuous
100
AcDbCircle
 10
140.4499999999998
 20
52.45
 30
0.0
 40
7.0
100
AcDbArc
 50
180.0
 51
321.286308
  0
CIRCLE
  5
ADA5
330
AC3C
100
AcDbEntity
  8
1
  6
Continuous
100
AcDbCircle
 10
140.4499999999998
 20
52.45
 30
0.0
 40
3.25
  0
LINE
  5
ADA6
330
AC3C
100
AcDbEntity
  8
1
  6
Continuous
100
AcDbLine
 10
148.4499999999998
 20
47.75
 30
0.0
 11
148.4499999999998
 21
45.45
 31
0.0
  0
ARC
  5
ADA7
330
AC3C
100
AcDbEntity
  8
1
  6
Continuous
100
AcDbCircle
 10
147.0823879999999
 20
47.133852
 30
0.0
 40
1.5
100
AcDbArc
 50
24.252909
 51
141.2863079999999
  0
ARC
  5
ADA8
330
AC3C
100
AcDbEntity
  8
1
  6
Continuous
100
AcDbCircle
 10
192.4499999999999
 20
66.766772
 30
0.0
 40
21.31677199999999
100
AcDbArc
 50
239.317968
 51
270.0
  0
LINE
  5
ADA9
330
AC3C
100
AcDbEntity
  8
1
  6
Continuous
100
AcDbLine
 10
166.4499999999998
 20
41.6
 30
0.0
 11
174.4499999999999
 21
41.6
 31
0.0
  0
LINE
  5
ADAA
330
AC3C
100
AcDbEntity
  8
1
  6
Continuous
100
AcDbLine
 10
162.848264
 20
49.4
 30
0.0
 11
178.051736
 21
49.4
 31
0.0
  0
LINE
  5
ADAB
330
AC3C
100
AcDbEntity
  8
1
  6
Continuous
100
AcDbLine
 10
176.4499999999999
 20
42.4
 30
0.0
 11
164.4499999999998
 21
42.4
 31
0.0
  0
ARC
  5
ADAC
330
AC3C
100
AcDbEntity
  8
1
  6
Continuous
100
AcDbCircle
 10
167.4499999999999
 20
38.73493599999999
 30
0.0
 40
8.665063999999999
100
AcDbArc
 50
69.743842
 51
110.256158
  0
ARC
  5
ADAD
330
AC3C
100
AcDbEntity
  8
1
  6
Continuous
100
AcDbCircle
 10
167.4499999999999
 20
51.065064
 30
0.0
 40
8.665063999999999
100
AcDbArc
 50
249.7438419999999
 51
290.256158
  0
LINE
  5
ADAE
330
AC3C
100
AcDbEntity
  8
1
  6
Continuous
100
AcDbLine
 10
162.9499999999999
 20
47.4
 30
0.0
 11
177.9499999999999
 21
47.4
 31
0.0
  0
LINE
  5
ADAF
330
AC3C
100
AcDbEntity
  8
2
  6
Continuous
100
AcDbLine
 10
167.1265
 20
42.4
 30
0.0
 11
167.1265
 21
41.0
 31
0.0
  0
LINE
  5
ADB0
330
AC3C
100
AcDbEntity
  8
1
  6
Continuous
100
AcDbLine
 10
166.4499999999998
 20
41.6
 30
0.0
 11
166.4499999999998
 21
42.4
 31
0.0
  0
ARC
  5
ADB1
330
AC3C
100
AcDbEntity
  8
1
  6
Continuous
100
AcDbCircle
 10
162.848264
 20
42.5
 30
0.0
 40
6.9
100
AcDbArc
 50
90.0
 51
120.682032
  0
LINE
  5
ADB2
330
AC3C
100
AcDbEntity
  8
1
  6
Continuous
100
AcDbLine
 10
164.4499999999998
 20
47.4
 30
0.0
 11
164.4499999999998
 21
42.4
 31
0.0
  0
LINE
  5
ADB3
330
AC3C
100
AcDbEntity
  8
1
  6
Continuous
100
AcDbLine
 10
162.9499999999999
 20
49.4
 30
0.0
 11
162.9499999999999
 21
47.4
 31
0.0
  0
LINE
  5
ADB4
330
AC3C
100
AcDbEntity
  8
1
  6
Continuous
100
AcDbLine
 10
167.05
 20
41.0
 30
0.0
 11
173.8499999999999
 21
41.0
 31
0.0
  0
LINE
  5
ADB5
330
AC3C
100
AcDbEntity
  8
1
  6
Continuous
100
AcDbLine
 10
176.4499999999999
 20
47.4
 30
0.0
 11
176.4499999999999
 21
42.4
 31
0.0
  0
ARC
  5
ADB6
330
AC3C
100
AcDbEntity
  8
1
  6
Continuous
100
AcDbCircle
 10
173.4499999999999
 20
38.73493599999999
 30
0.0
 40
8.665063999999999
100
AcDbArc
 50
69.743842
 51
110.256158
  0
ARC
  5
ADB7
330
AC3C
100
AcDbEntity
  8
1
  6
Continuous
100
AcDbCircle
 10
173.4499999999999
 20
51.065064
 30
0.0
 40
8.665063999999999
100
AcDbArc
 50
249.7438419999999
 51
290.256158
  0
LINE
  5
ADB8
330
AC3C
100
AcDbEntity
  8
1
  6
Continuous
100
AcDbLine
 10
170.4499999999999
 20
42.935898
 30
0.0
 11
170.4499999999999
 21
46.864102
 31
0.0
  0
LINE
  5
ADB9
330
AC3C
100
AcDbEntity
  8
1
  6
Continuous
100
AcDbLine
 10
177.9499999999999
 20
49.4
 30
0.0
 11
177.9499999999999
 21
47.4
 31
0.0
  0
LINE
  5
ADBA
330
AC3C
100
AcDbEntity
  8
1
  6
Continuous
100
AcDbLine
 10
172.4499999999999
 20
47.4
 30
0.0
 11
170.4499999999999
 21
49.4
 31
0.0
  0
LINE
  5
ADBB
330
AC3C
100
AcDbEntity
  8
1
  6
Continuous
100
AcDbLine
 10
170.4499999999999
 20
47.4
 30
0.0
 11
168.4499999999998
 21
49.4
 31
0.0
  0
LINE
  5
ADBC
330
AC3C
100
AcDbEntity
  8
1
  6
Continuous
100
AcDbLine
 10
174.4499999999999
 20
41.6
 30
0.0
 11
174.4499999999999
 21
42.4
 31
0.0
  0
LINE
  5
ADBD
330
AC3C
100
AcDbEntity
  8
2
  6
Continuous
100
AcDbLine
 10
173.7735
 20
42.4
 30
0.0
 11
173.7735
 21
41.0
 31
0.0
  0
ARC
  5
ADBE
330
AC3C
100
AcDbEntity
  8
1
  6
Continuous
100
AcDbCircle
 10
178.051736
 20
42.5
 30
0.0
 40
6.9
100
AcDbArc
 50
59.317968
 51
90.0
  0
LINE
  5
ADBF
330
AC3C
100
AcDbEntity
  8
4
  6
CENTER
100
AcDbLine
 10
200.4499999999999
 20
46.2
 30
0.0
 11
200.4499999999999
 21
58.7
 31
0.0
  0
CIRCLE
  5
ADC0
330
AC3C
100
AcDbEntity
  8
1
  6
Continuous
100
AcDbCircle
 10
200.4499999999999
 20
52.45
 30
0.0
 40
3.25
  0
ARC
  5
ADC1
330
AC3C
100
AcDbEntity
  8
1
  6
Continuous
100
AcDbCircle
 10
200.4499999999999
 20
52.45
 30
0.0
 40
7.0
100
AcDbArc
 50
218.7136919999999
 51
0.0
  0
LINE
  5
ADC2
330
AC3C
100
AcDbEntity
  8
4
  6
CENTER
100
AcDbLine
 10
194.1999999999999
 20
52.45
 30
0.0
 11
206.6999999999999
 21
52.45
 31
0.0
  0
LINE
  5
ADC3
330
AC3C
100
AcDbEntity
  8
1
  6
Continuous
100
AcDbLine
 10
192.4499999999999
 20
47.75
 30
0.0
 11
192.4499999999999
 21
45.45
 31
0.0
  0
ARC
  5
ADC4
330
AC3C
100
AcDbEntity
  8
1
  6
Continuous
100
AcDbCircle
 10
193.817612
 20
47.133852
 30
0.0
 40
1.5
100
AcDbArc
 50
38.713692
 51
155.7470909999999
  0
ARC
  5
ADC5
330
AC3C
100
AcDbEntity
  8
1
  6
Continuous
100
AcDbCircle
 10
187.885831
 20
56.94957900000001
 30
0.0
 40
2.0
100
AcDbArc
 50
269.990094
 51
353.849113
  0
ARC
  5
ADC6
330
AC3C
100
AcDbEntity
  8
1
  6
Continuous
100
AcDbCircle
 10
153.0141689999998
 20
56.94957900000001
 30
0.0
 40
2.0
100
AcDbArc
 50
186.150887
 51
270.0099059999998
  0
LINE
  5
ADC7
330
AC3C
100
AcDbEntity
  8
1
  6
Continuous
100
AcDbLine
 10
152.9731289999998
 20
79.95
 30
0.0
 11
187.9268719999998
 21
79.95
 31
0.0
  0
LINE
  5
ADC8
330
AC3C
100
AcDbEntity
  8
1
  6
Continuous
100
AcDbLine
 10
162.9409159999999
 20
82.068241
 30
0.0
 11
177.959084
 21
82.068241
 31
0.0
  0
LINE
  5
ADC9
330
AC3C
100
AcDbEntity
  8
1
  6
Continuous
100
AcDbLine
 10
163.4499999999999
 20
82.94999999999998
 30
0.0
 11
177.4499999999999
 21
82.94999999999998
 31
0.0
  0
ARC
  5
ADCA
330
AC3C
100
AcDbEntity
  8
1
  6
Continuous
100
AcDbCircle
 10
250.4499999999999
 20
67.45
 30
0.0
 40
100.0
100
AcDbArc
 50
173.8489509999998
 51
186.150887
  0
ARC
  5
ADCB
330
AC3C
100
AcDbEntity
  8
1
  6
Continuous
100
AcDbCircle
 10
167.378309
 20
62.566714
 30
0.0
 40
20.0
100
AcDbArc
 50
102.8188689999999
 51
119.6383299999999
  0
LINE
  5
ADCC
330
AC3C
100
AcDbEntity
  8
1
  6
Continuous
100
AcDbLine
 10
163.4499999999999
 20
82.94999999999998
 30
0.0
 11
162.9409159999999
 21
82.068241
 31
0.0
  0
LINE
  5
ADCD
330
AC3C
100
AcDbEntity
  8
1
  6
Continuous
100
AcDbLine
 10
166.4499999999998
 20
82.94999999999998
 30
0.0
 11
166.4499999999998
 21
83.2
 31
0.0
  0
ARC
  5
ADCE
330
AC3C
100
AcDbEntity
  8
1
  6
Continuous
100
AcDbCircle
 10
153.0141689999998
 20
77.95042099999998
 30
0.0
 40
2.0
100
AcDbArc
 50
88.824201
 51
173.849113
  0
ARC
  5
ADCF
330
AC3C
100
AcDbEntity
  8
1
  6
Continuous
100
AcDbCircle
 10
90.44999999999999
 20
67.45
 30
0.0
 40
100.0
100
AcDbArc
 50
353.849113
 51
6.151048999999999
  0
ARC
  5
ADD0
330
AC3C
100
AcDbEntity
  8
1
  6
Continuous
100
AcDbCircle
 10
173.521692
 20
62.566714
 30
0.0
 40
20.0
100
AcDbArc
 50
60.36166999999998
 51
77.18113099999998
  0
LINE
  5
ADD1
330
AC3C
100
AcDbEntity
  8
1
  6
Continuous
100
AcDbLine
 10
177.4499999999999
 20
82.94999999999998
 30
0.0
 11
177.959084
 21
82.068241
 31
0.0
  0
ARC
  5
ADD2
330
AC3C
100
AcDbEntity
  8
1
  6
Continuous
100
AcDbCircle
 10
187.885831
 20
77.95042099999998
 30
0.0
 40
2.0
100
AcDbArc
 50
6.150886999999999
 51
90.00990599999999
  0
LINE
  5
ADD3
330
AC3C
100
AcDbEntity
  8
1
  6
Continuous
100
AcDbLine
 10
174.4499999999999
 20
82.94999999999998
 30
0.0
 11
174.4499999999999
 21
83.2
 31
0.0
  0
LINE
  5
ADD4
330
AC3C
100
AcDbEntity
  8
1
  6
Continuous
100
AcDbLine
 10
152.9731289999998
 20
54.95
 30
0.0
 11
187.9268719999998
 21
54.95
 31
0.0
  0
LINE
  5
ADD5
330
AC3C
100
AcDbEntity
  8
1
  6
Continuous
100
AcDbLine
 10
162.9409159999999
 20
52.83175899999999
 30
0.0
 11
177.959084
 21
52.83175899999999
 31
0.0
  0
LINE
  5
ADD6
330
AC3C
100
AcDbEntity
  8
1
  6
Continuous
100
AcDbLine
 10
163.4499999999999
 20
51.95
 30
0.0
 11
177.4499999999999
 21
51.95
 31
0.0
  0
LINE
  5
ADD7
330
AC3C
100
AcDbEntity
  8
1
  6
Continuous
100
AcDbLine
 10
163.4499999999999
 20
51.95
 30
0.0
 11
162.9409159999999
 21
52.83175899999999
 31
0.0
  0
LINE
  5
ADD8
330
AC3C
100
AcDbEntity
  8
1
  6
Continuous
100
AcDbLine
 10
166.4499999999998
 20
51.95
 30
0.0
 11
166.4499999999998
 21
51.7
 31
0.0
  0
ARC
  5
ADD9
330
AC3C
100
AcDbEntity
  8
1
  6
Continuous
100
AcDbCircle
 10
167.378309
 20
72.333286
 30
0.0
 40
20.0
100
AcDbArc
 50
240.3616700000001
 51
257.181131
  0
LINE
  5
ADDA
330
AC3C
100
AcDbEntity
  8
1
  6
Continuous
100
AcDbLine
 10
177.4499999999999
 20
51.95
 30
0.0
 11
177.959084
 21
52.83175899999999
 31
0.0
  0
ARC
  5
ADDB
330
AC3C
100
AcDbEntity
  8
1
  6
Continuous
100
AcDbCircle
 10
173.521692
 20
72.333286
 30
0.0
 40
20.0
100
AcDbArc
 50
282.818869
 51
299.63833
  0
LINE
  5
ADDC
330
AC3C
100
AcDbEntity
  8
1
  6
Continuous
100
AcDbLine
 10
174.4499999999999
 20
51.95
 30
0.0
 11
174.4499999999999
 21
51.7
 31
0.0
  0
LINE
  5
ADDD
330
AC3C
100
AcDbEntity
  8
1
  6
Continuous
100
AcDbLine
 10
162.848264
 20
83.2
 30
0.0
 11
178.051736
 21
83.2
 31
0.0
  0
ARC
  5
ADDE
330
AC3C
100
AcDbEntity
  8
1
  6
Continuous
100
AcDbCircle
 10
162.848264
 20
92.4
 30
0.0
 40
9.199999999999999
100
AcDbArc
 50
239.317968
 51
270.0
  0
ARC
  5
ADDF
330
AC3C
100
AcDbEntity
  8
1
  6
Continuous
100
AcDbCircle
 10
178.051736
 20
92.4
 30
0.0
 40
9.199999999999999
100
AcDbArc
 50
270.0
 51
300.682032
  0
ARC
  5
ADE0
330
AC3C
100
AcDbEntity
  8
1
  6
Continuous
100
AcDbCircle
 10
192.4499999999999
 20
68.133227
 30
0.0
 40
19.01677199999999
100
AcDbArc
 50
90.0
 51
120.682032
  0
ARC
  5
ADE1
330
AC3C
100
AcDbEntity
  8
1
  6
Continuous
100
AcDbCircle
 10
148.4499999999998
 20
68.133227
 30
0.0
 40
19.01677199999999
100
AcDbArc
 50
59.317968
 51
90.0
  0
ARC
  5
ADE2
330
AC3C
100
AcDbEntity
  8
1
  6
Continuous
100
AcDbCircle
 10
192.4499999999999
 20
66.766772
 30
0.0
 40
19.01677199999999
100
AcDbArc
 50
239.317968
 51
270.0
  0
ARC
  5
ADE3
330
AC3C
100
AcDbEntity
  8
1
  6
Continuous
100
AcDbCircle
 10
178.051736
 20
42.5
 30
0.0
 40
9.199999999999999
100
AcDbArc
 50
59.317968
 51
90.0
  0
LINE
  5
ADE4
330
AC3C
100
AcDbEntity
  8
1
  6
Continuous
100
AcDbLine
 10
162.848264
 20
51.7
 30
0.0
 11
178.051736
 21
51.7
 31
0.0
  0
ARC
  5
ADE5
330
AC3C
100
AcDbEntity
  8
1
  6
Continuous
100
AcDbCircle
 10
162.848264
 20
42.5
 30
0.0
 40
9.199999999999999
100
AcDbArc
 50
90.0
 51
120.682032
  0
ARC
  5
ADE6
330
AC3C
100
AcDbEntity
  8
1
  6
Continuous
100
AcDbCircle
 10
148.4499999999998
 20
66.766772
 30
0.0
 40
19.01677199999999
100
AcDbArc
 50
270.0
 51
300.682032
  0
ARC
  5
ADE7
330
AC3C
100
AcDbEntity
  8
1
  6
Continuous
100
AcDbCircle
 10
176.511276
 20
67.45
 30
0.0
 40
20.5
100
AcDbArc
 50
317.4170449999999
 51
42.58108899999998
  0
ARC
  5
ADE8
330
AC3C
100
AcDbEntity
  8
1
  6
Continuous
100
AcDbCircle
 10
189.396884
 20
79.291077
 30
0.0
 40
3.0
100
AcDbArc
 50
42.58108899999998
 51
167.3120519999999
  0
ARC
  5
ADE9
330
AC3C
100
AcDbEntity
  8
1
  6
Continuous
100
AcDbCircle
 10
189.396884
 20
55.60892299999999
 30
0.0
 40
3.0
100
AcDbArc
 50
192.687948
 51
317.4189109999999
  0
ARC
  5
ADEA
330
AC3C
100
AcDbEntity
  8
1
  6
Continuous
100
AcDbCircle
 10
176.511276
 20
67.45
 30
0.0
 40
14.5
100
AcDbArc
 50
342.726014
 51
17.27398599999999
  0
ARC
  5
ADEB
330
AC3C
100
AcDbEntity
  8
1
  6
Continuous
100
AcDbCircle
 10
164.3887239999999
 20
67.45
 30
0.0
 40
14.5
100
AcDbArc
 50
162.7260139999999
 51
197.273986
  0
ARC
  5
ADEC
330
AC3C
100
AcDbEntity
  8
1
  6
Continuous
100
AcDbCircle
 10
151.503116
 20
79.291077
 30
0.0
 40
3.0
100
AcDbArc
 50
12.687948
 51
137.418911
  0
ARC
  5
ADED
330
AC3C
100
AcDbEntity
  8
1
  6
Continuous
100
AcDbCircle
 10
164.3887239999999
 20
67.45
 30
0.0
 40
20.5
100
AcDbArc
 50
137.418911
 51
222.5829549999999
  0
ARC
  5
ADEE
330
AC3C
100
AcDbEntity
  8
1
  6
Continuous
100
AcDbCircle
 10
151.503116
 20
55.60892299999999
 30
0.0
 40
3.0
100
AcDbArc
 50
222.5810889999999
 51
347.312052
  0
CIRCLE
  5
ADEF
330
AC3C
100
AcDbEntity
  8
1
  6
Continuous
100
AcDbCircle
 10
408.45
 20
152.4499999999999
 30
0.0
 40
7.5
  0
CIRCLE
  5
ADF0
330
AC3C
100
AcDbEntity
  8
1
  6
Continuous
100
AcDbCircle
 10
408.45
 20
152.4499999999999
 30
0.0
 40
4.0
  0
CIRCLE
  5
ADF1
330
AC3C
100
AcDbEntity
  8
2
  6
Continuous
100
AcDbCircle
 10
408.45
 20
152.4499999999999
 30
0.0
 40
3.3235
  0
LINE
  5
ADF2
330
AC3C
100
AcDbEntity
  8
1
  6
Continuous
100
AcDbLine
 10
402.4499999999998
 20
155.914102
 30
0.0
 11
402.4499999999998
 21
148.9858979999999
 31
0.0
  0
LINE
  5
ADF3
330
AC3C
100
AcDbEntity
  8
1
  6
Continuous
100
AcDbLine
 10
414.4499999999998
 20
155.914102
 30
0.0
 11
414.4499999999998
 21
148.9858979999999
 31
0.0
  0
CIRCLE
  5
ADF4
330
AC3C
100
AcDbEntity
  8
1
  6
Continuous
100
AcDbCircle
 10
408.45
 20
152.4499999999999
 30
0.0
 40
6.0
  0
LINE
  5
ADF5
330
AC3C
100
AcDbEntity
  8
1
  6
Continuous
100
AcDbLine
 10
408.45
 20
145.5217969999999
 30
0.0
 11
414.4499999999998
 21
148.9858979999999
 31
0.0
  0
LINE
  5
ADF6
330
AC3C
100
AcDbEntity
  8
1
  6
Continuous
100
AcDbLine
 10
408.45
 20
145.5217969999999
 30
0.0
 11
402.4499999999998
 21
148.9858979999999
 31
0.0
  0
LINE
  5
ADF7
330
AC3C
100
AcDbEntity
  8
1
  6
Continuous
100
AcDbLine
 10
414.4499999999998
 20
155.914102
 30
0.0
 11
408.45
 21
159.378203
 31
0.0
  0
LINE
  5
ADF8
330
AC3C
100
AcDbEntity
  8
1
  6
Continuous
100
AcDbLine
 10
402.4499999999998
 20
155.914102
 30
0.0
 11
408.45
 21
159.378203
 31
0.0
  0
LINE
  5
ADF9
330
AC3C
100
AcDbEntity
  8
1
  6
Continuous
100
AcDbLine
 10
25.6
 20
156.4499999999999
 30
0.0
 11
25.0
 21
155.8499999999999
 31
0.0
  0
LINE
  5
ADFA
330
AC3C
100
AcDbEntity
  8
1
  6
Continuous
100
AcDbLine
 10
25.0
 20
149.05
 30
0.0
 11
25.6
 21
148.4499999999998
 31
0.0
  0
LINE
  5
ADFB
330
AC3C
100
AcDbEntity
  8
1
  6
Continuous
100
AcDbLine
 10
315.3
 20
156.4499999999999
 30
0.0
 11
315.8999999999999
 21
155.8499999999999
 31
0.0
  0
LINE
  5
ADFC
330
AC3C
100
AcDbEntity
  8
1
  6
Continuous
100
AcDbLine
 10
315.8999999999999
 20
149.05
 30
0.0
 11
315.3
 21
148.4499999999998
 31
0.0
  0
LINE
  5
ADFD
330
AC3C
100
AcDbEntity
  8
1
  6
Continuous
100
AcDbLine
 10
166.4499999999998
 20
283.3
 30
0.0
 11
167.05
 21
283.9
 31
0.0
  0
LINE
  5
ADFE
330
AC3C
100
AcDbEntity
  8
1
  6
Continuous
100
AcDbLine
 10
173.8499999999999
 20
283.9
 30
0.0
 11
174.4499999999999
 21
283.3
 31
0.0
  0
LINE
  5
ADFF
330
AC3C
100
AcDbEntity
  8
1
  6
Continuous
100
AcDbLine
 10
166.4499999999998
 20
41.6
 30
0.0
 11
167.05
 21
41.0
 31
0.0
  0
LINE
  5
AE00
330
AC3C
100
AcDbEntity
  8
1
  6
Continuous
100
AcDbLine
 10
173.8499999999999
 20
41.0
 30
0.0
 11
174.4499999999999
 21
41.6
 31
0.0
  0
ENDSEC
  0
SECTION
  2
OBJECTS
  0
DICTIONARY
  5
AC2A
330
0
100
AcDbDictionary
281
     1
  3
ACAD_CIP_PREVIOUS_PRODUCT_INFO
350
AE62
  3
ACAD_COLOR
350
AE44
  3
ACAD_DETAILVIEWSTYLE
350
AE5D
  3
ACAD_GROUP
350
AC2B
  3
ACAD_LAYOUT
350
AC37
  3
ACAD_MATERIAL
350
AE12
  3
ACAD_MLEADERSTYLE
350
AE59
  3
ACAD_MLINESTYLE
350
AC34
  3
ACAD_PLOTSETTINGS
350
AC36
  3
ACAD_PLOTSTYLENAME
350
AE10
  3
ACAD_SCALELIST
350
AE47
  3
ACAD_SECTIONVIEWSTYLE
350
AE5B
  3
ACAD_TABLESTYLE
350
AE45
  3
ACAD_VISUALSTYLE
350
AE2B
  3
ACDB_RECOMPOSE_DATA
350
AE80
  3
AcDbVariableDictionary
350
AE73
  3
DWGPROPS
350
AE81
  0
DICTIONARY
  5
AE63
330
AC2E
100
AcDbDictionary
280
     1
281
     1
  3
ADSK_XREC_LAYER_RECONCILED
360
AE64
  0
DICTIONARY
  5
AE65
330
AC44
100
AcDbDictionary
280
     1
281
     1
  3
ADSK_XREC_LAYER_RECONCILED
360
AE66
  0
DICTIONARY
  5
AE67
330
AC45
100
AcDbDictionary
280
     1
281
     1
  3
ADSK_XREC_LAYER_RECONCILED
360
AE68
  0
DICTIONARY
  5
AE69
330
AC46
100
AcDbDictionary
280
     1
281
     1
  3
ADSK_XREC_LAYER_RECONCILED
360
AE6A
  0
DICTIONARY
  5
AE6B
330
AC47
100
AcDbDictionary
280
     1
281
     1
  3
ADSK_XREC_LAYER_RECONCILED
360
AE6C
  0
DICTIONARY
  5
AE6D
330
AC48
100
AcDbDictionary
280
     1
281
     1
  3
ADSK_XREC_LAYER_RECONCILED
360
AE6E
  0
DICTIONARY
  5
AE6F
330
AC49
100
AcDbDictionary
280
     1
281
     1
  3
ADSK_XREC_LAYER_RECONCILED
360
AE70
  0
DICTIONARY
  5
AE71
330
AC4A
100
AcDbDictionary
280
     1
281
     1
  3
ADSK_XREC_LAYER_RECONCILED
360
AE72
  0
DICTIONARY
  5
AE0B
330
AC3C
100
AcDbDictionary
281
     1
  3
ACAD_LAYOUTSELFREF
350
AE0C
  0
DICTIONARY
  5
AE09
330
AC38
100
AcDbDictionary
281
     1
  3
ACAD_LAYOUTSELFREF
350
AE0A
  0
XRECORD
  5
AE62
102
{ACAD_REACTORS
330
AC2A
102
}
330
AC2A
100
AcDbXrecord
280
     1
300
ACDLT
300
2014
300
ACDLT_F_S
  0
DICTIONARY
  5
AE44
102
{ACAD_REACTORS
330
AC2A
102
}
330
AC2A
100
AcDbDictionary
281
     1
  0
DICTIONARY
  5
AE5D
102
{ACAD_REACTORS
330
AC2A
102
}
330
AC2A
100
AcDbDictionary
281
     1
  3
Imperial24
350
AE5E
  0
DICTIONARY
  5
AC2B
102
{ACAD_REACTORS
330
AC2A
102
}
330
AC2A
100
AcDbDictionary
281
     1
  0
DICTIONARY
  5
AC37
102
{ACAD_REACTORS
330
AC2A
102
}
330
AC2A
100
AcDbDictionary
281
     1
  3
Model
350
AE5F
  3
レイアウト1
350
AE60
  0
DICTIONARY
  5
AE12
102
{ACAD_REACTORS
330
AC2A
102
}
330
AC2A
100
AcDbDictionary
281
     1
  3
ByBlock
350
AE1B
  3
ByLayer
350
AE13
  3
Global
350
AE23
  0
DICTIONARY
  5
AE59
102
{ACAD_REACTORS
330
AC2A
102
}
330
AC2A
100
AcDbDictionary
281
     1
  3
Standard
350
AE5A
  0
DICTIONARY
  5
AC34
102
{ACAD_REACTORS
330
AC2A
102
}
330
AC2A
100
AcDbDictionary
281
     1
  3
STANDARD
350
AC35
  0
DICTIONARY
  5
AC36
102
{ACAD_REACTORS
330
AC2A
102
}
330
AC2A
100
AcDbDictionary
281
     1
  0
ACDBDICTIONARYWDFLT
  5
AE10
102
{ACAD_REACTORS
330
AC2A
102
}
330
AC2A
100
AcDbDictionary
281
     1
  3
Normal
350
AE11
100
AcDbDictionaryWithDefault
340
AE11
  0
DICTIONARY
  5
AE47
102
{ACAD_REACTORS
330
AC2A
102
}
330
AC2A
100
AcDbDictionary
281
     1
  3
A0
350
AE48
  3
A1
350
AE49
  3
A2
350
AE4A
  3
A3
350
AE4B
  3
A4
350
AE4C
  3
A5
350
AE4D
  3
A6
350
AE4E
  3
A7
350
AE4F
  3
A8
350
AE50
  3
A9
350
AE51
  3
B0
350
AE52
  3
B1
350
AE53
  3
B2
350
AE54
  3
B3
350
AE55
  3
B4
350
AE56
  3
B5
350
AE57
  3
B6
350
AE58
  0
DICTIONARY
  5
AE5B
102
{ACAD_REACTORS
330
AC2A
102
}
330
AC2A
100
AcDbDictionary
281
     1
  3
Imperial24
350
AE5C
  0
DICTIONARY
  5
AE45
102
{ACAD_REACTORS
330
AC2A
102
}
330
AC2A
100
AcDbDictionary
281
     1
  3
Standard
350
AE46
  0
DICTIONARY
  5
AE2B
102
{ACAD_REACTORS
330
AC2A
102
}
330
AC2A
100
AcDbDictionary
281
     1
  3
2dWireframe
350
AE31
  3
Basic
350
AE30
  3
Brighten
350
AE37
  3
ColorChange
350
AE3B
  3
Conceptual
350
AE34
  3
Dim
350
AE36
  3
EdgeColorOff
350
AE43
  3
Facepattern
350
AE3A
  3
Flat
350
AE2C
  3
FlatWithEdges
350
AE2D
  3
Gouraud
350
AE2E
  3
GouraudWithEdges
350
AE2F
  3
Hidden
350
AE33
  3
JitterOff
350
AE41
  3
Linepattern
350
AE39
  3
OverhangOff
350
AE42
  3
Realistic
350
AE35
  3
Shaded
350
AE40
  3
Shaded with edges
350
AE3F
  3
Shades of Gray
350
AE3C
  3
Sketchy
350
AE3D
  3
Thicken
350
AE38
  3
Wireframe
350
AE32
  3
X-Ray
350
AE3E
  0
XRECORD
  5
AE80
102
{ACAD_REACTORS
330
AC2A
102
}
330
AC2A
100
AcDbXrecord
280
     1
 90
        1
330
AE46
  0
DICTIONARY
  5
AE73
102
{ACAD_REACTORS
330
AC2A
102
}
330
AC2A
100
AcDbDictionary
281
     1
  3
CANNOSCALE
350
AE78
  3
CMLEADERSTYLE
350
AE75
  3
CTABLESTYLE
350
AE74
  3
CVIEWDETAILSTYLE
350
AE76
  3
CVIEWSECTIONSTYLE
350
AE77
  3
DIMASSOC
350
AE7B
  3
INDEXCTL
350
AE7A
  3
SORTENTS
350
AE79
  3
XCLIPFRAME
350
AE7C
  0
XRECORD
  5
AE81
102
{ACAD_REACTORS
330
AC2A
102
}
330
AC2A
100
AcDbXrecord
280
     1
  1
DWGPROPS COOKIE
  2

  3

  4

  6

  7

  8
Yoshitsune
  9

300
=
301
=
302
=
303
=
304
=
305
=
306
=
307
=
308
=
309
=
 40
0.0000090740740741
 41
2451301.420436111
 42
2457192.688224977
  1

 90
        0
  0
XRECORD
  5
AE64
102
{ACAD_REACTORS
330
AE63
102
}
330
AE63
100
AcDbXrecord
280
     1
290
     1
  0
XRECORD
  5
AE66
102
{ACAD_REACTORS
330
AE65
102
}
330
AE65
100
AcDbXrecord
280
     1
290
     1
  0
XRECORD
  5
AE68
102
{ACAD_REACTORS
330
AE67
102
}
330
AE67
100
AcDbXrecord
280
     1
290
     1
  0
XRECORD
  5
AE6A
102
{ACAD_REACTORS
330
AE69
102
}
330
AE69
100
AcDbXrecord
280
     1
290
     1
  0
XRECORD
  5
AE6C
102
{ACAD_REACTORS
330
AE6B
102
}
330
AE6B
100
AcDbXrecord
280
     1
290
     1
  0
XRECORD
  5
AE6E
102
{ACAD_REACTORS
330
AE6D
102
}
330
AE6D
100
AcDbXrecord
280
     1
290
     1
  0
XRECORD
  5
AE70
102
{ACAD_REACTORS
330
AE6F
102
}
330
AE6F
100
AcDbXrecord
280
     1
290
     1
  0
XRECORD
  5
AE72
102
{ACAD_REACTORS
330
AE71
102
}
330
AE71
100
AcDbXrecord
280
     1
290
     1
  0
XRECORD
  5
AE0C
102
{ACAD_REACTORS
330
AE0B
102
}
330
AE0B
100
AcDbXrecord
280
     1
340
AC3C
  0
XRECORD
  5
AE0A
102
{ACAD_REACTORS
330
AE09
102
}
330
AE09
100
AcDbXrecord
280
     1
340
AC38
  0
ACDBDETAILVIEWSTYLE
  5
AE5E
102
{ACAD_XDICTIONARY
360
AEB9
102
}
102
{ACAD_REACTORS
330
AE5D
102
}
330
AE5D
100
AcDbModelDocViewStyle
 70
     0
  3
Imperial24
290
     0
100
AcDbDetailViewStyle
 70
     0
 71
     0
 90
        3
 71
     1
340
AC2F
 40
0.24
340
0
 40
0.24
300

 40
0.36
280
     3
 71
     2
340
AC33
 90
       25
 71
     3
340
AC2F
 40
0.24
 90
        1
 40
0.75
 90
        1
300
%<\AcVar ViewType \f "%tc1">% %<\AcVar ViewDetailId>%\PSCALE %<\AcVar ViewScale \f "%sn">%
 71
     4
340
AC33
 90
       25
340
AC33
 90
       25
280
     0
  0
LAYOUT
  5
AE5F
102
{ACAD_XDICTIONARY
360
AEBB
102
}
102
{ACAD_REACTORS
330
AC37
102
}
330
AC37
100
AcDbPlotSettings
  1

  2
Canon LBP9100C
  4

  6

 40
0.0
 41
0.0
 42
0.0
 43
0.0
 44
0.0
 45
0.0
 46
0.0
 47
0.0
 48
0.0
 49
0.0
140
0.0
141
0.0
142
1.0
143
1.0
 70
  1712
 72
     0
 73
     0
 74
     0
  7

 75
     0
147
1.0
148
0.0
149
0.0
100
AcDbLayout
  1
Model
 70
     1
 71
     0
 10
0.0
 20
0.0
 11
12.0
 21
9.0
 12
0.0
 22
0.0
 32
0.0
 14
0.0
 24
0.0
 34
0.0
 15
0.0
 25
0.0
 35
0.0
146
0.0
 13
0.0
 23
0.0
 33
0.0
 16
1.0
 26
0.0
 36
0.0
 17
0.0
 27
1.0
 37
0.0
 76
     0
330
AC3C
331
AE08
  0
LAYOUT
  5
AE60
102
{ACAD_XDICTIONARY
360
AEBD
102
}
102
{ACAD_REACTORS
330
AC37
102
}
330
AC37
100
AcDbPlotSettings
  1

  2
Canon LBP9100C
  4

  6

 40
0.0
 41
0.0
 42
0.0
 43
0.0
 44
0.0
 45
0.0
 46
0.0
 47
0.0
 48
0.0
 49
0.0
140
0.0
141
0.0
142
1.0
143
1.0
 70
   688
 72
     0
 73
     0
 74
     5
  7

 75
    16
147
1.0
148
0.0
149
0.0
100
AcDbLayout
  1
レイアウト1
 70
     0
 71
     1
 10
0.0
 20
0.0
 11
420.0
 21
297.0
 12
0.0
 22
0.0
 32
0.0
 14
1.000000000000000E+20
 24
1.000000000000000E+20
 34
1.000000000000000E+20
 15
-1.000000000000000E+20
 25
-1.000000000000000E+20
 35
-1.000000000000000E+20
146
0.0
 13
0.0
 23
0.0
 33
0.0
 16
1.0
 26
0.0
 36
0.0
 17
0.0
 27
1.0
 37
0.0
 76
     0
330
AC38
  0
MATERIAL
  5
AE1B
102
{ACAD_XDICTIONARY
360
AE1C
102
}
102
{ACAD_REACTORS
330
AE12
102
}
330
AE12
100
AcDbMaterial
  1
ByBlock
 72
     0
 43
0.0208333333333333
 43
0.0
 43
0.0
 43
0.0
 43
0.0
 43
0.0208333333333333
 43
0.0
 43
0.0
 43
0.0
 43
0.0
 43
1.0
 43
0.0
 43
0.0
 43
0.0
 43
0.0
 43
1.0
 77
     0
 47
0.0208333333333333
 47
0.0
 47
0.0
 47
0.0
 47
0.0
 47
0.0208333333333333
 47
0.0
 47
0.0
 47
0.0
 47
0.0
 47
1.0
 47
0.0
 47
0.0
 47
0.0
 47
0.0
 47
1.0
171
     0
 49
0.0208333333333333
 49
0.0
 49
0.0
 49
0.0
 49
0.0
 49
0.0208333333333333
 49
0.0
 49
0.0
 49
0.0
 49
0.0
 49
1.0
 49
0.0
 49
0.0
 49
0.0
 49
0.0
 49
1.0
175
     0
142
0.0208333333333333
142
0.0
142
0.0
142
0.0
142
0.0
142
0.0208333333333333
142
0.0
142
0.0
142
0.0
142
0.0
142
1.0
142
0.0
142
0.0
142
0.0
142
0.0
142
1.0
179
     0
144
0.0208333333333333
144
0.0
144
0.0
144
0.0
144
0.0
144
0.0208333333333333
144
0.0
144
0.0
144
0.0
144
0.0
144
1.0
144
0.0
144
0.0
144
0.0
144
0.0
144
1.0
147
0.0208333333333333
147
0.0
147
0.0
147
0.0
147
0.0
147
0.0208333333333333
147
0.0
147
0.0
147
0.0
147
0.0
147
1.0
147
0.0
147
0.0
147
0.0
147
0.0
147
1.0
  0
MATERIAL
  5
AE13
102
{ACAD_XDICTIONARY
360
AE14
102
}
102
{ACAD_REACTORS
330
AE12
102
}
330
AE12
100
AcDbMaterial
  1
ByLayer
 72
     0
 43
0.0208333333333333
 43
0.0
 43
0.0
 43
0.0
 43
0.0
 43
0.0208333333333333
 43
0.0
 43
0.0
 43
0.0
 43
0.0
 43
1.0
 43
0.0
 43
0.0
 43
0.0
 43
0.0
 43
1.0
 77
     0
 47
0.0208333333333333
 47
0.0
 47
0.0
 47
0.0
 47
0.0
 47
0.0208333333333333
 47
0.0
 47
0.0
 47
0.0
 47
0.0
 47
1.0
 47
0.0
 47
0.0
 47
0.0
 47
0.0
 47
1.0
171
     0
 49
0.0208333333333333
 49
0.0
 49
0.0
 49
0.0
 49
0.0
 49
0.0208333333333333
 49
0.0
 49
0.0
 49
0.0
 49
0.0
 49
1.0
 49
0.0
 49
0.0
 49
0.0
 49
0.0
 49
1.0
175
     0
142
0.0208333333333333
142
0.0
142
0.0
142
0.0
142
0.0
142
0.0208333333333333
142
0.0
142
0.0
142
0.0
142
0.0
142
1.0
142
0.0
142
0.0
142
0.0
142
0.0
142
1.0
179
     0
144
0.0208333333333333
144
0.0
144
0.0
144
0.0
144
0.0
144
0.0208333333333333
144
0.0
144
0.0
144
0.0
144
0.0
144
1.0
144
0.0
144
0.0
144
0.0
144
0.0
144
1.0
147
0.0208333333333333
147
0.0
147
0.0
147
0.0
147
0.0
147
0.0208333333333333
147
0.0
147
0.0
147
0.0
147
0.0
147
1.0
147
0.0
147
0.0
147
0.0
147
0.0
147
1.0
  0
MATERIAL
  5
AE23
102
{ACAD_XDICTIONARY
360
AE24
102
}
102
{ACAD_REACTORS
330
AE12
102
}
330
AE12
100
AcDbMaterial
  1
Global
 72
     0
 43
0.0208333333333333
 43
0.0
 43
0.0
 43
0.0
 43
0.0
 43
0.0208333333333333
 43
0.0
 43
0.0
 43
0.0
 43
0.0
 43
1.0
 43
0.0
 43
0.0
 43
0.0
 43
0.0
 43
1.0
 77
     0
 47
0.0208333333333333
 47
0.0
 47
0.0
 47
0.0
 47
0.0
 47
0.0208333333333333
 47
0.0
 47
0.0
 47
0.0
 47
0.0
 47
1.0
 47
0.0
 47
0.0
 47
0.0
 47
0.0
 47
1.0
171
     0
 49
0.0208333333333333
 49
0.0
 49
0.0
 49
0.0
 49
0.0
 49
0.0208333333333333
 49
0.0
 49
0.0
 49
0.0
 49
0.0
 49
1.0
 49
0.0
 49
0.0
 49
0.0
 49
0.0
 49
1.0
175
     0
142
0.0208333333333333
142
0.0
142
0.0
142
0.0
142
0.0
142
0.0208333333333333
142
0.0
142
0.0
142
0.0
142
0.0
142
1.0
142
0.0
142
0.0
142
0.0
142
0.0
142
1.0
179
     0
144
0.0208333333333333
144
0.0
144
0.0
144
0.0
144
0.0
144
0.0208333333333333
144
0.0
144
0.0
144
0.0
144
0.0
144
1.0
144
0.0
144
0.0
144
0.0
144
0.0
144
1.0
147
0.0208333333333333
147
0.0
147
0.0
147
0.0
147
0.0
147
0.0208333333333333
147
0.0
147
0.0
147
0.0
147
0.0
147
1.0
147
0.0
147
0.0
147
0.0
147
0.0
147
1.0
  0
MLEADERSTYLE
  5
AE5A
102
{ACAD_REACTORS
330
AE59
102
}
330
AE59
100
AcDbMLeaderStyle
170
     2
171
     1
172
     0
 90
        2
 40
0.0
 41
0.0
173
     1
 91
-1056964608
340
AC31
 92
       -2
290
     1
 42
0.09
291
     1
 43
0.36
  3
Standard
 44
0.18
300

342
AC2F
174
     1
178
     6
175
     1
176
     0
 93
-1056964608
 45
0.18
292
     0
297
     0
 46
0.18
 94
-1056964608
 47
1.0
 49
1.0
140
1.0
293
     1
141
0.0
294
     1
177
     0
142
1.0
295
     0
296
     0
143
0.125
1001
ACAD_MLEADERVER
1070
     2
  0
MLINESTYLE
  5
AC35
102
{ACAD_REACTORS
330
AC34
102
}
330
AC34
100
AcDbMlineStyle
  2
STANDARD
 70
     0
  3

 62
   256
 51
90.0
 52
90.0
 71
     2
 49
0.5
 62
   256
  6
BYLAYER
 49
-0.5
 62
   256
  6
BYLAYER
  0
ACDBPLACEHOLDER
  5
AE11
102
{ACAD_REACTORS
330
AE10
102
}
330
AE10
  0
SCALE
  5
AE48
102
{ACAD_REACTORS
330
AE47
102
}
330
AE47
100
AcDbScale
 70
     0
300
1:1
140
1.0
141
1.0
290
     1
  0
SCALE
  5
AE49
102
{ACAD_REACTORS
330
AE47
102
}
330
AE47
100
AcDbScale
 70
     0
300
1/128" = 1'-0"
140
0.0078125
141
12.0
290
     0
  0
SCALE
  5
AE4A
102
{ACAD_REACTORS
330
AE47
102
}
330
AE47
100
AcDbScale
 70
     0
300
1/64" = 1'-0"
140
0.015625
141
12.0
290
     0
  0
SCALE
  5
AE4B
102
{ACAD_REACTORS
330
AE47
102
}
330
AE47
100
AcDbScale
 70
     0
300
1/32" = 1'-0"
140
0.03125
141
12.0
290
     0
  0
SCALE
  5
AE4C
102
{ACAD_REACTORS
330
AE47
102
}
330
AE47
100
AcDbScale
 70
     0
300
1/16" = 1'-0"
140
0.0625
141
12.0
290
     0
  0
SCALE
  5
AE4D
102
{ACAD_REACTORS
330
AE47
102
}
330
AE47
100
AcDbScale
 70
     0
300
3/32" = 1'-0"
140
0.09375
141
12.0
290
     0
  0
SCALE
  5
AE4E
102
{ACAD_REACTORS
330
AE47
102
}
330
AE47
100
AcDbScale
 70
     0
300
1/8" = 1'-0"
140
0.125
141
12.0
290
     0
  0
SCALE
  5
AE4F
102
{ACAD_REACTORS
330
AE47
102
}
330
AE47
100
AcDbScale
 70
     0
300
3/16" = 1'-0"
140
0.1875
141
12.0
290
     0
  0
SCALE
  5
AE50
102
{ACAD_REACTORS
330
AE47
102
}
330
AE47
100
AcDbScale
 70
     0
300
1/4" = 1'-0"
140
0.25
141
12.0
290
     0
  0
SCALE
  5
AE51
102
{ACAD_REACTORS
330
AE47
102
}
330
AE47
100
AcDbScale
 70
     0
300
3/8" = 1'-0"
140
0.375
141
12.0
290
     0
  0
SCALE
  5
AE52
102
{ACAD_REACTORS
330
AE47
102
}
330
AE47
100
AcDbScale
 70
     0
300
1/2" = 1'-0"
140
0.5
141
12.0
290
     0
  0
SCALE
  5
AE53
102
{ACAD_REACTORS
330
AE47
102
}
330
AE47
100
AcDbScale
 70
     0
300
3/4" = 1'-0"
140
0.75
141
12.0
290
     0
  0
SCALE
  5
AE54
102
{ACAD_REACTORS
330
AE47
102
}
330
AE47
100
AcDbScale
 70
     0
300
1" = 1'-0"
140
1.0
141
12.0
290
     0
  0
SCALE
  5
AE55
102
{ACAD_REACTORS
330
AE47
102
}
330
AE47
100
AcDbScale
 70
     0
300
1-1/2" = 1'-0"
140
1.5
141
12.0
290
     0
  0
SCALE
  5
AE56
102
{ACAD_REACTORS
330
AE47
102
}
330
AE47
100
AcDbScale
 70
     0
300
3" = 1'-0"
140
3.0
141
12.0
290
     0
  0
SCALE
  5
AE57
102
{ACAD_REACTORS
330
AE47
102
}
330
AE47
100
AcDbScale
 70
     0
300
6" = 1'-0"
140
6.0
141
12.0
290
     0
  0
SCALE
  5
AE58
102
{ACAD_REACTORS
330
AE47
102
}
330
AE47
100
AcDbScale
 70
     0
300
1'-0" = 1'-0"
140
12.0
141
12.0
290
     0
  0
ACDBSECTIONVIEWSTYLE
  5
AE5C
102
{ACAD_XDICTIONARY
360
AEB7
102
}
102
{ACAD_REACTORS
330
AE5B
102
}
330
AE5B
100
AcDbModelDocViewStyle
 70
     0
  3
Imperial24
290
     0
100
AcDbSectionViewStyle
 70
     0
 71
     0
 90
       78
 71
     1
340
AC2F
 40
0.24
340
0
340
0
 40
0.24
300
I, O, Q, S, X, Z
 40
0.48
 90
        3
 40
0.18
 90
        1
 71
     2
340
AC33
 90
       25
340
AC33
 90
       50
 40
0.24
 40
0.0
 40
0.24
 71
     3
340
AC2F
 40
0.24
 90
        1
 40
0.75
 90
        1
300
%<\AcVar ViewType \f "%tc1">% %<\AcVar ViewSectionStartId>%-%<\AcVar ViewSectionEndId>%\PSCALE %<\AcVar ViewScale \f "%sn">%
 71
     4
300
ANSI31
 40
1.0
 90
        0
290
     0
290
     0
 90
        6
 40
0.0
 40
1.570796326794896
 40
0.2617993877991494
 40
1.308996938995747
 40
-0.2617993877991494
 40
1.832595714594046
  0
TABLESTYLE
  5
AE46
102
{ACAD_XDICTIONARY
360
AE7E
102
}
102
{ACAD_REACTORS
330
AE45
102
}
330
AE45
100
AcDbTableStyle
  3
Standard
 70
     0
 71
     0
 40
0.06
 41
0.06
280
     0
281
     0
  7
STANDARD
140
0.18
170
     2
 62
     0
 63
     7
283
     0
274
    -2
284
     1
 64
     0
275
    -2
285
     1
 65
     0
276
    -2
286
     1
 66
     0
277
    -2
287
     1
 67
     0
278
    -2
288
     1
 68
     0
279
    -2
289
     1
 69
     0
  7
STANDARD
140
0.25
170
     5
 62
     0
 63
     7
283
     0
274
    -2
284
     1
 64
     0
275
    -2
285
     1
 65
     0
276
    -2
286
     1
 66
     0
277
    -2
287
     1
 67
     0
278
    -2
288
     1
 68
     0
279
    -2
289
     1
 69
     0
  7
STANDARD
140
0.18
170
     5
 62
     0
 63
     7
283
     0
274
    -2
284
     1
 64
     0
275
    -2
285
     1
 65
     0
276
    -2
286
     1
 66
     0
277
    -2
287
     1
 67
     0
278
    -2
288
     1
 68
     0
279
    -2
289
     1
 69
     0
  0
VISUALSTYLE
  5
AE31
102
{ACAD_XDICTIONARY
360
AE8F
102
}
102
{ACAD_REACTORS
330
AE2B
102
}
330
AE2B
100
AcDbVisualStyle
  2
2dWireframe
 70
     4
 71
     0
 72
     2
 73
     0
 90
        0
 40
-0.6
 41
-30.0
 62
     5
 63
     7
 74
     1
 91
        4
 64
     7
 65
   257
 75
     1
175
     1
 42
1.0
 92
        0
 66
   257
 43
1.0
 76
     1
 77
     6
 78
     2
 67
     7
 79
     5
170
     0
171
     0
290
     0
174
     0
 93
        1
 44
0.0
173
     0
291
     0
 45
0.0
1001
ACAD
1000
AcDbSavedByObjectVersion
1070
     0
  0
VISUALSTYLE
  5
AE30
102
{ACAD_XDICTIONARY
360
AE8D
102
}
102
{ACAD_REACTORS
330
AE2B
102
}
330
AE2B
100
AcDbVisualStyle
  2
Basic
 70
     7
 71
     1
 72
     0
 73
     1
 90
        0
 40
-0.6
 41
-30.0
 62
     5
 63
     7
 74
     0
 91
        4
 64
     7
 65
   257
 75
     1
175
     1
 42
1.0
 92
        8
 66
     7
 43
1.0
 76
     1
 77
     6
 78
     2
 67
     7
 79
     5
170
     0
171
     0
290
     0
174
     0
 93
        1
 44
0.0
173
     0
291
     1
 45
0.0
1001
ACAD
1000
AcDbSavedByObjectVersion
1070
     0
  0
VISUALSTYLE
  5
AE37
102
{ACAD_XDICTIONARY
360
AE9B
102
}
102
{ACAD_REACTORS
330
AE2B
102
}
330
AE2B
100
AcDbVisualStyle
  2
Brighten
 70
    12
 71
     2
 72
     2
 73
     0
 90
        0
 40
-0.6
 41
-30.0
 62
     5
 63
     7
 74
     1
 91
        4
 64
     7
 65
   257
 75
     1
175
     1
 42
1.0
 92
        8
 66
     7
 43
1.0
 76
     1
 77
     6
 78
     2
 67
     7
 79
     5
170
     0
171
     0
290
     0
174
     0
 93
        1
 44
50.0
173
     0
291
     1
 45
0.0
1001
ACAD
1000
AcDbSavedByObjectVersion
1070
     0
  0
VISUALSTYLE
  5
AE3B
102
{ACAD_XDICTIONARY
360
AEA3
102
}
102
{ACAD_REACTORS
330
AE2B
102
}
330
AE2B
100
AcDbVisualStyle
  2
ColorChange
 70
    16
 71
     2
 72
     2
 73
     3
 90
        0
 40
-0.6
 41
-30.0
 62
     5
 63
     8
 74
     1
 91
        4
 64
     7
 65
   257
 75
     1
175
     1
 42
1.0
 92
        8
 66
     8
 43
1.0
 76
     1
 77
     6
 78
     2
 67
     7
 79
     5
170
     0
171
     0
290
     0
174
     0
 93
        1
 44
0.0
173
     0
291
     1
 45
0.0
1001
ACAD
1000
AcDbSavedByObjectVersion
1070
     0
  0
VISUALSTYLE
  5
AE34
102
{ACAD_XDICTIONARY
360
AE95
102
}
102
{ACAD_REACTORS
330
AE2B
102
}
330
AE2B
100
AcDbVisualStyle
  2
Conceptual
 70
     9
 71
     3
 72
     2
 73
     0
 90
        0
 40
-0.6
 41
-30.0
 62
     5
 63
     7
 74
     2
 91
        2
 64
     7
 65
   257
 75
     1
175
     1
 42
179.0
 92
        8
 66
     7
 43
1.0
 76
     1
 77
     6
 78
     2
 67
     7
 79
     3
170
     0
171
     0
290
     0
174
     0
 93
        1
 44
0.0
173
     0
291
     0
 45
0.0
1001
ACAD
1000
AcDbSavedByObjectVersion
1070
     0
  0
VISUALSTYLE
  5
AE36
102
{ACAD_XDICTIONARY
360
AE99
102
}
102
{ACAD_REACTORS
330
AE2B
102
}
330
AE2B
100
AcDbVisualStyle
  2
Dim
 70
    11
 71
     2
 72
     2
 73
     0
 90
        0
 40
-0.6
 41
-30.0
 62
     5
 63
     7
 74
     1
 91
        4
 64
     7
 65
   257
 75
     1
175
     1
 42
1.0
 92
        8
 66
     7
 43
1.0
 76
     1
 77
     6
 78
     2
 67
     7
 79
     5
170
     0
171
     0
290
     0
174
     0
 93
        1
 44
-50.0
173
     0
291
     1
 45
0.0
1001
ACAD
1000
AcDbSavedByObjectVersion
1070
     0
  0
VISUALSTYLE
  5
AE43
102
{ACAD_XDICTIONARY
360
AEB3
102
}
102
{ACAD_REACTORS
330
AE2B
102
}
330
AE2B
100
AcDbVisualStyle
  2
EdgeColorOff
 70
    22
 71
     2
 72
     2
 73
     0
 90
        0
 40
-0.6
 41
-30.0
 62
     5
 63
     7
 74
     1
 91
        4
 64
     7
 65
   257
 75
     1
175
     1
 42
1.0
 92
        8
 66
     7
 43
1.0
 76
     1
 77
     6
 78
     2
 67
     7
 79
     5
170
     0
171
     0
290
     0
174
     0
 93
        1
 44
0.0
173
     0
291
     1
 45
0.0
1001
ACAD
1000
AcDbSavedByObjectVersion
1070
     0
  0
VISUALSTYLE
  5
AE3A
102
{ACAD_XDICTIONARY
360
AEA1
102
}
102
{ACAD_REACTORS
330
AE2B
102
}
330
AE2B
100
AcDbVisualStyle
  2
Facepattern
 70
    15
 71
     2
 72
     2
 73
     0
 90
        0
 40
-0.6
 41
-30.0
 62
     5
 63
     7
 74
     1
 91
        4
 64
     7
 65
   257
 75
     1
175
     1
 42
1.0
 92
        8
 66
     7
 43
1.0
 76
     1
 77
     6
 78
     2
 67
     7
 79
     5
170
     0
171
     0
290
     0
174
     0
 93
        1
 44
0.0
173
     0
291
     1
 45
0.0
1001
ACAD
1000
AcDbSavedByObjectVersion
1070
     0
  0
VISUALSTYLE
  5
AE2C
102
{ACAD_XDICTIONARY
360
AE85
102
}
102
{ACAD_REACTORS
330
AE2B
102
}
330
AE2B
100
AcDbVisualStyle
  2
Flat
 70
     0
 71
     2
 72
     1
 73
     1
 90
        2
 40
-0.6
 41
30.0
 62
     5
 63
     7
 74
     0
 91
        0
 64
     7
 65
   257
 75
     1
175
     1
 42
1.0
 92
        8
 66
     7
 43
1.0
 76
     1
 77
     6
 78
     2
 67
     7
 79
     5
170
     0
171
     0
290
     0
174
     0
 93
       13
 44
0.0
173
     0
291
     1
 45
0.0
1001
ACAD
1000
AcDbSavedByObjectVersion
1070
     0
  0
VISUALSTYLE
  5
AE2D
102
{ACAD_XDICTIONARY
360
AE87
102
}
102
{ACAD_REACTORS
330
AE2B
102
}
330
AE2B
100
AcDbVisualStyle
  2
FlatWithEdges
 70
     1
 71
     2
 72
     1
 73
     1
 90
        2
 40
-0.6
 41
30.0
 62
     5
 63
     7
 74
     1
 91
        0
 64
     7
 65
   257
 75
     1
175
     1
 42
1.0
 92
        0
 66
   257
 43
1.0
 76
     1
 77
     6
 78
     2
 67
     7
 79
     5
170
     0
171
     0
290
     0
174
     0
 93
       13
 44
0.0
173
     0
291
     1
 45
0.0
1001
ACAD
1000
AcDbSavedByObjectVersion
1070
     0
  0
VISUALSTYLE
  5
AE2E
102
{ACAD_XDICTIONARY
360
AE89
102
}
102
{ACAD_REACTORS
330
AE2B
102
}
330
AE2B
100
AcDbVisualStyle
  2
Gouraud
 70
     2
 71
     2
 72
     2
 73
     1
 90
        2
 40
-0.6
 41
30.0
 62
     5
 63
     7
 74
     0
 91
        0
 64
     7
 65
   257
 75
     1
175
     1
 42
1.0
 92
        0
 66
     7
 43
1.0
 76
     1
 77
     6
 78
     2
 67
     7
 79
     5
170
     0
171
     0
290
     0
174
     0
 93
       13
 44
0.0
173
     0
291
     1
 45
0.0
1001
ACAD
1000
AcDbSavedByObjectVersion
1070
     0
  0
VISUALSTYLE
  5
AE2F
102
{ACAD_XDICTIONARY
360
AE8B
102
}
102
{ACAD_REACTORS
330
AE2B
102
}
330
AE2B
100
AcDbVisualStyle
  2
GouraudWithEdges
 70
     3
 71
     2
 72
     2
 73
     1
 90
        2
 40
-0.6
 41
30.0
 62
     5
 63
     7
 74
     1
 91
        0
 64
     7
 65
   257
 75
     1
175
     1
 42
1.0
 92
        0
 66
   257
 43
1.0
 76
     1
 77
     6
 78
     2
 67
     7
 79
     5
170
     0
171
     0
290
     0
174
     0
 93
       13
 44
0.0
173
     0
291
     1
 45
0.0
1001
ACAD
1000
AcDbSavedByObjectVersion
1070
     0
  0
VISUALSTYLE
  5
AE33
102
{ACAD_XDICTIONARY
360
AE93
102
}
102
{ACAD_REACTORS
330
AE2B
102
}
330
AE2B
100
AcDbVisualStyle
  2
Hidden
 70
     6
 71
     1
 72
     2
 73
     2
 90
        0
 40
-0.6
 41
-30.0
 62
     5
 63
     7
 74
     2
 91
        2
 64
     7
 65
   257
 75
     2
175
     1
 42
40.0
 92
        0
 66
   257
 43
1.0
 76
     1
 77
     6
 78
     2
 67
     7
 79
     3
170
     0
171
     0
290
     0
174
     0
 93
        1
 44
0.0
173
     0
291
     0
 45
0.0
1001
ACAD
1000
AcDbSavedByObjectVersion
1070
     0
  0
VISUALSTYLE
  5
AE41
102
{ACAD_XDICTIONARY
360
AEAF
102
}
102
{ACAD_REACTORS
330
AE2B
102
}
330
AE2B
100
AcDbVisualStyle
  2
JitterOff
 70
    20
 71
     2
 72
     2
 73
     0
 90
        0
 40
-0.6
 41
-30.0
 62
     5
 63
     7
 74
     1
 91
        4
 64
     7
 65
   257
 75
     1
175
     1
 42
1.0
 92
       10
 66
     7
 43
1.0
 76
     1
 77
     6
 78
     2
 67
     7
 79
     5
170
     0
171
     0
290
     0
174
     0
 93
        1
 44
0.0
173
     0
291
     1
 45
0.0
1001
ACAD
1000
AcDbSavedByObjectVersion
1070
     0
  0
VISUALSTYLE
  5
AE39
102
{ACAD_XDICTIONARY
360
AE9F
102
}
102
{ACAD_REACTORS
330
AE2B
102
}
330
AE2B
100
AcDbVisualStyle
  2
Linepattern
 70
    14
 71
     2
 72
     2
 73
     0
 90
        0
 40
-0.6
 41
-30.0
 62
     5
 63
     7
 74
     1
 91
        4
 64
     7
 65
   257
 75
     7
175
     7
 42
1.0
 92
        8
 66
     7
 43
1.0
 76
     1
 77
     6
 78
     2
 67
     7
 79
     5
170
     0
171
     0
290
     0
174
     0
 93
        1
 44
0.0
173
     0
291
     1
 45
0.0
1001
ACAD
1000
AcDbSavedByObjectVersion
1070
     0
  0
VISUALSTYLE
  5
AE42
102
{ACAD_XDICTIONARY
360
AEB1
102
}
102
{ACAD_REACTORS
330
AE2B
102
}
330
AE2B
100
AcDbVisualStyle
  2
OverhangOff
 70
    21
 71
     2
 72
     2
 73
     0
 90
        0
 40
-0.6
 41
-30.0
 62
     5
 63
     7
 74
     1
 91
        4
 64
     7
 65
   257
 75
     1
175
     1
 42
1.0
 92
        9
 66
     7
 43
1.0
 76
     1
 77
     6
 78
     2
 67
     7
 79
     5
170
     0
171
     0
290
     0
174
     0
 93
        1
 44
0.0
173
     0
291
     1
 45
0.0
1001
ACAD
1000
AcDbSavedByObjectVersion
1070
     0
  0
VISUALSTYLE
  5
AE35
102
{ACAD_XDICTIONARY
360
AE97
102
}
102
{ACAD_REACTORS
330
AE2B
102
}
330
AE2B
100
AcDbVisualStyle
  2
Realistic
 70
     8
 71
     2
 72
     3
 73
     0
 90
        2
 40
-0.6
 41
30.0
 62
     5
 63
     7
 74
     0
 91
        0
 64
     7
 65
   257
 75
     1
175
     1
 42
1.0
 92
        8
 66
   257
 43
1.0
 76
     1
 77
     6
 78
     2
 67
     7
 79
     3
170
     0
171
     0
290
     0
174
     0
 93
       13
 44
0.0
173
     0
291
     0
 45
0.0
1001
ACAD
1000
AcDbSavedByObjectVersion
1070
     0
  0
VISUALSTYLE
  5
AE40
102
{ACAD_XDICTIONARY
360
AEAD
102
}
102
{ACAD_REACTORS
330
AE2B
102
}
330
AE2B
100
AcDbVisualStyle
  2
Shaded
 70
    27
 71
     2
 72
     2
 73
     1
 90
        2
 40
-0.6
 41
30.0
 62
     5
 63
     7
 74
     0
 91
        4
 64
     7
 65
   257
 75
     1
175
     1
 42
1.0
 92
        8
 66
   257
 43
1.0
 76
     1
 77
     6
 78
     2
 67
     8
 79
     3
170
     0
171
     0
290
     0
174
     0
 93
        5
 44
0.0
173
     0
291
     0
 45
0.0
1001
ACAD
1000
AcDbSavedByObjectVersion
1070
     0
  0
VISUALSTYLE
  5
AE3F
102
{ACAD_XDICTIONARY
360
AEAB
102
}
102
{ACAD_REACTORS
330
AE2B
102
}
330
AE2B
100
AcDbVisualStyle
  2
Shaded with edges
 70
    26
 71
     2
 72
     2
 73
     1
 90
        2
 40
-0.6
 41
30.0
 62
     5
 63
     7
 74
     1
 91
       10
 64
     7
 65
   257
 75
     2
175
     1
 42
1.0
 92
        8
 66
   257
 43
1.0
 76
     1
 77
     6
 78
     2
 67
     7
 79
     3
170
     0
171
     0
290
     0
174
     0
 93
        5
 44
0.0
173
     0
291
     0
 45
0.0
1001
ACAD
1000
AcDbSavedByObjectVersion
1070
     0
  0
VISUALSTYLE
  5
AE3C
102
{ACAD_XDICTIONARY
360
AEA5
102
}
102
{ACAD_REACTORS
330
AE2B
102
}
330
AE2B
100
AcDbVisualStyle
  2
Shades of Gray
 70
    23
 71
     2
 72
     2
 73
     3
 90
        0
 40
-0.6
 41
-30.0
 62
     5
 63
     7
 74
     2
 91
        2
 64
     7
 65
     7
 75
     1
175
     1
 42
40.0
 92
        8
 66
     7
 43
1.0
 76
     1
 77
     6
 78
     2
 67
     7
 79
     3
170
     0
171
     0
290
     0
174
     0
 93
        1
 44
0.0
173
     0
291
     0
 45
0.0
1001
ACAD
1000
AcDbSavedByObjectVersion
1070
     0
  0
VISUALSTYLE
  5
AE3D
102
{ACAD_XDICTIONARY
360
AEA7
102
}
102
{ACAD_REACTORS
330
AE2B
102
}
330
AE2B
100
AcDbVisualStyle
  2
Sketchy
 70
    24
 71
     1
 72
     2
 73
     2
 90
        0
 40
-0.6
 41
-30.0
 62
     5
 63
     7
 74
     2
 91
        2
 64
     7
 65
     7
 75
     1
175
     1
 42
40.0
 92
       11
 66
     7
 43
1.0
 76
     1
 77
     6
 78
     2
 67
     7
 79
     6
170
     0
171
     0
290
     0
174
     0
 93
        1
 44
0.0
173
     0
291
     0
 45
0.0
1001
ACAD
1000
AcDbSavedByObjectVersion
1070
     0
  0
VISUALSTYLE
  5
AE38
102
{ACAD_XDICTIONARY
360
AE9D
102
}
102
{ACAD_REACTORS
330
AE2B
102
}
330
AE2B
100
AcDbVisualStyle
  2
Thicken
 70
    13
 71
     2
 72
     2
 73
     0
 90
        0
 40
-0.6
 41
-30.0
 62
     5
 63
     7
 74
     1
 91
        4
 64
     7
 65
   257
 75
     1
175
     1
 42
1.0
 92
       12
 66
     7
 43
1.0
 76
     1
 77
     6
 78
     2
 67
     7
 79
     5
170
     0
171
     0
290
     0
174
     0
 93
        1
 44
0.0
173
     0
291
     1
 45
0.0
1001
ACAD
1000
AcDbSavedByObjectVersion
1070
     0
  0
VISUALSTYLE
  5
AE32
102
{ACAD_XDICTIONARY
360
AE91
102
}
102
{ACAD_REACTORS
330
AE2B
102
}
330
AE2B
100
AcDbVisualStyle
  2
Wireframe
 70
     5
 71
     0
 72
     2
 73
     0
 90
        0
 40
-0.6
 41
-30.0
 62
     5
 63
     7
 74
     1
 91
        4
 64
     7
 65
   257
 75
     1
175
     1
 42
1.0
 92
        0
 66
   257
 43
1.0
 76
     1
 77
     6
 78
     2
 67
     7
 79
     3
170
     0
171
     0
290
     0
174
     0
 93
        1
 44
0.0
173
     0
291
     0
 45
0.0
1001
ACAD
1000
AcDbSavedByObjectVersion
1070
     0
  0
VISUALSTYLE
  5
AE3E
102
{ACAD_XDICTIONARY
360
AEA9
102
}
102
{ACAD_REACTORS
330
AE2B
102
}
330
AE2B
100
AcDbVisualStyle
  2
X-Ray
 70
    25
 71
     2
 72
     2
 73
     1
 90
        1
 40
0.5
 41
-30.0
 62
     5
 63
     7
 74
     1
 91
        0
 64
     7
 65
   257
 75
     1
175
     1
 42
1.0
 92
        8
 66
     7
 43
1.0
 76
     1
 77
     6
 78
     2
 67
     7
 79
     3
170
     0
171
     0
290
     0
174
     0
 93
       13
 44
0.0
173
     0
291
     0
 45
0.0
1001
ACAD
1000
AcDbSavedByObjectVersion
1070
     0
  0
DICTIONARYVAR
  5
AE78
102
{ACAD_REACTORS
330
AE73
102
}
330
AE73
100
DictionaryVariables
280
     0
  1
1:1
  0
DICTIONARYVAR
  5
AE75
102
{ACAD_REACTORS
330
AE73
102
}
330
AE73
100
DictionaryVariables
280
     0
  1
STANDARD
  0
DICTIONARYVAR
  5
AE74
102
{ACAD_REACTORS
330
AE73
102
}
330
AE73
100
DictionaryVariables
280
     0
  1
STANDARD
  0
DICTIONARYVAR
  5
AE76
102
{ACAD_REACTORS
330
AE73
102
}
330
AE73
100
DictionaryVariables
280
     0
  1
Imperial24
  0
DICTIONARYVAR
  5
AE77
102
{ACAD_REACTORS
330
AE73
102
}
330
AE73
100
DictionaryVariables
280
     0
  1
Imperial24
  0
DICTIONARYVAR
  5
AE7B
102
{ACAD_REACTORS
330
AE73
102
}
330
AE73
100
DictionaryVariables
280
     0
  1
1
  0
DICTIONARYVAR
  5
AE7A
102
{ACAD_REACTORS
330
AE73
102
}
330
AE73
100
DictionaryVariables
280
     0
  1
0
  0
DICTIONARYVAR
  5
AE79
102
{ACAD_REACTORS
330
AE73
102
}
330
AE73
100
DictionaryVariables
280
     0
  1
127
  0
DICTIONARYVAR
  5
AE7C
102
{ACAD_REACTORS
330
AE73
102
}
330
AE73
100
DictionaryVariables
280
     0
  1
2
  0
DICTIONARY
  5
AEB9
330
AE5E
100
AcDbDictionary
280
     1
281
     1
  3
ACAD_XREC_ROUNDTRIP
360
AEBA
  0
DICTIONARY
  5
AEBB
330
AE5F
100
AcDbDictionary
280
     1
281
     1
  3
ACAD_XREC_ROUNDTRIP
360
AEBC
  0
DICTIONARY
  5
AEBD
330
AE60
100
AcDbDictionary
280
     1
281
     1
  3
ACAD_XREC_ROUNDTRIP
360
AEBE
  0
DICTIONARY
  5
AE1C
330
AE1B
100
AcDbDictionary
280
     1
281
     1
  3
ACAD_XREC_ROUNDTRIP
360
AE83
  3
BUMPTILE
360
AE1E
  3
DIFFUSETILE
360
AE1D
  3
OPACITYTILE
360
AE21
  3
REFLECTIONTILE
360
AE20
  3
REFRACTIONTILE
360
AE22
  3
SPECULARTILE
360
AE1F
  0
DICTIONARY
  5
AE14
330
AE13
100
AcDbDictionary
280
     1
281
     1
  3
ACAD_XREC_ROUNDTRIP
360
AE82
  3
BUMPTILE
360
AE16
  3
DIFFUSETILE
360
AE15
  3
OPACITYTILE
360
AE19
  3
REFLECTIONTILE
360
AE18
  3
REFRACTIONTILE
360
AE1A
  3
SPECULARTILE
360
AE17
  0
DICTIONARY
  5
AE24
330
AE23
100
AcDbDictionary
280
     1
281
     1
  3
ACAD_XREC_ROUNDTRIP
360
AE84
  3
BUMPTILE
360
AE26
  3
DIFFUSETILE
360
AE25
  3
OPACITYTILE
360
AE29
  3
REFLECTIONTILE
360
AE28
  3
REFRACTIONTILE
360
AE2A
  3
SPECULARTILE
360
AE27
  0
DICTIONARY
  5
AEB7
330
AE5C
100
AcDbDictionary
280
     1
281
     1
  3
ACAD_XREC_ROUNDTRIP
360
AEB8
  0
DICTIONARY
  5
AE7E
330
AE46
100
AcDbDictionary
280
     1
281
     1
  3
ACAD_ROUNDTRIP_2008_TABLESTYLE_CELLSTYLEMAP
360
AE7F
  3
ACAD_XREC_ROUNDTRIP
360
AEB5
  0
DICTIONARY
  5
AE8F
330
AE31
100
AcDbDictionary
280
     1
281
     1
  3
ACAD_XREC_ROUNDTRIP
360
AE90
  0
DICTIONARY
  5
AE8D
330
AE30
100
AcDbDictionary
280
     1
281
     1
  3
ACAD_XREC_ROUNDTRIP
360
AE8E
  0
DICTIONARY
  5
AE9B
330
AE37
100
AcDbDictionary
280
     1
281
     1
  3
ACAD_XREC_ROUNDTRIP
360
AE9C
  0
DICTIONARY
  5
AEA3
330
AE3B
100
AcDbDictionary
280
     1
281
     1
  3
ACAD_XREC_ROUNDTRIP
360
AEA4
  0
DICTIONARY
  5
AE95
330
AE34
100
AcDbDictionary
280
     1
281
     1
  3
ACAD_XREC_ROUNDTRIP
360
AE96
  0
DICTIONARY
  5
AE99
330
AE36
100
AcDbDictionary
280
     1
281
     1
  3
ACAD_XREC_ROUNDTRIP
360
AE9A
  0
DICTIONARY
  5
AEB3
330
AE43
100
AcDbDictionary
280
     1
281
     1
  3
ACAD_XREC_ROUNDTRIP
360
AEB4
  0
DICTIONARY
  5
AEA1
330
AE3A
100
AcDbDictionary
280
     1
281
     1
  3
ACAD_XREC_ROUNDTRIP
360
AEA2
  0
DICTIONARY
  5
AE85
330
AE2C
100
AcDbDictionary
280
     1
281
     1
  3
ACAD_XREC_ROUNDTRIP
360
AE86
  0
DICTIONARY
  5
AE87
330
AE2D
100
AcDbDictionary
280
     1
281
     1
  3
ACAD_XREC_ROUNDTRIP
360
AE88
  0
DICTIONARY
  5
AE89
330
AE2E
100
AcDbDictionary
280
     1
281
     1
  3
ACAD_XREC_ROUNDTRIP
360
AE8A
  0
DICTIONARY
  5
AE8B
330
AE2F
100
AcDbDictionary
280
     1
281
     1
  3
ACAD_XREC_ROUNDTRIP
360
AE8C
  0
DICTIONARY
  5
AE93
330
AE33
100
AcDbDictionary
280
     1
281
     1
  3
ACAD_XREC_ROUNDTRIP
360
AE94
  0
DICTIONARY
  5
AEAF
330
AE41
100
AcDbDictionary
280
     1
281
     1
  3
ACAD_XREC_ROUNDTRIP
360
AEB0
  0
DICTIONARY
  5
AE9F
330
AE39
100
AcDbDictionary
280
     1
281
     1
  3
ACAD_XREC_ROUNDTRIP
360
AEA0
  0
DICTIONARY
  5
AEB1
330
AE42
100
AcDbDictionary
280
     1
281
     1
  3
ACAD_XREC_ROUNDTRIP
360
AEB2
  0
DICTIONARY
  5
AE97
330
AE35
100
AcDbDictionary
280
     1
281
     1
  3
ACAD_XREC_ROUNDTRIP
360
AE98
  0
DICTIONARY
  5
AEAD
330
AE40
100
AcDbDictionary
280
     1
281
     1
  3
ACAD_XREC_ROUNDTRIP
360
AEAE
  0
DICTIONARY
  5
AEAB
330
AE3F
100
AcDbDictionary
280
     1
281
     1
  3
ACAD_XREC_ROUNDTRIP
360
AEAC
  0
DICTIONARY
  5
AEA5
330
AE3C
100
AcDbDictionary
280
     1
281
     1
  3
ACAD_XREC_ROUNDTRIP
360
AEA6
  0
DICTIONARY
  5
AEA7
330
AE3D
100
AcDbDictionary
280
     1
281
     1
  3
ACAD_XREC_ROUNDTRIP
360
AEA8
  0
DICTIONARY
  5
AE9D
330
AE38
100
AcDbDictionary
280
     1
281
     1
  3
ACAD_XREC_ROUNDTRIP
360
AE9E
  0
DICTIONARY
  5
AE91
330
AE32
100
AcDbDictionary
280
     1
281
     1
  3
ACAD_XREC_ROUNDTRIP
360
AE92
  0
DICTIONARY
  5
AEA9
330
AE3E
100
AcDbDictionary
280
     1
281
     1
  3
ACAD_XREC_ROUNDTRIP
360
AEAA
  0
XRECORD
  5
AEBA
102
{ACAD_REACTORS
330
AEB9
102
}
330
AEB9
100
AcDbXrecord
280
     1
102
DISPLAYNAME
  1
Imperial24
102
FLAGS
 90
        0
  0
XRECORD
  5
AEBC
102
{ACAD_REACTORS
330
AEBB
102
}
330
AEBB
100
AcDbXrecord
280
     1
102
SHADEPLOT
 70
     0
102
SHADEPLOTRESLEVEL
 70
     2
102
SHADEPLOTCUSTOMDPI
 70
   300
  0
XRECORD
  5
AEBE
102
{ACAD_REACTORS
330
AEBD
102
}
330
AEBD
100
AcDbXrecord
280
     1
102
SHADEPLOT
 70
     0
102
SHADEPLOTRESLEVEL
 70
     2
102
SHADEPLOTCUSTOMDPI
 70
   300
  0
XRECORD
  5
AE83
102
{ACAD_REACTORS
330
AE1C
102
}
330
AE1C
100
AcDbXrecord
280
     1
102
MATERIAL
148
0.0
149
0.0
149
0.0
 93
        0
 94
      127
282
     0
 72
     0
 77
     0
171
     0
175
     0
179
     0
273
     0
  0
XRECORD
  5
AE1E
102
{ACAD_REACTORS
330
AE1C
102
}
330
AE1C
100
AcDbXrecord
280
     1
270
     1
271
     1
  0
XRECORD
  5
AE1D
102
{ACAD_REACTORS
330
AE1C
102
}
330
AE1C
100
AcDbXrecord
280
     1
270
     1
271
     1
  0
XRECORD
  5
AE21
102
{ACAD_REACTORS
330
AE1C
102
}
330
AE1C
100
AcDbXrecord
280
     1
270
     1
271
     1
  0
XRECORD
  5
AE20
102
{ACAD_REACTORS
330
AE1C
102
}
330
AE1C
100
AcDbXrecord
280
     1
270
     1
271
     1
  0
XRECORD
  5
AE22
102
{ACAD_REACTORS
330
AE1C
102
}
330
AE1C
100
AcDbXrecord
280
     1
270
     1
271
     1
  0
XRECORD
  5
AE1F
102
{ACAD_REACTORS
330
AE1C
102
}
330
AE1C
100
AcDbXrecord
280
     1
270
     1
271
     1
  0
XRECORD
  5
AE82
102
{ACAD_REACTORS
330
AE14
102
}
330
AE14
100
AcDbXrecord
280
     1
102
MATERIAL
148
0.0
149
0.0
149
0.0
 93
        0
 94
      127
282
     0
 72
     0
 77
     0
171
     0
175
     0
179
     0
273
     0
  0
XRECORD
  5
AE16
102
{ACAD_REACTORS
330
AE14
102
}
330
AE14
100
AcDbXrecord
280
     1
270
     1
271
     1
  0
XRECORD
  5
AE15
102
{ACAD_REACTORS
330
AE14
102
}
330
AE14
100
AcDbXrecord
280
     1
270
     1
271
     1
  0
XRECORD
  5
AE19
102
{ACAD_REACTORS
330
AE14
102
}
330
AE14
100
AcDbXrecord
280
     1
270
     1
271
     1
  0
XRECORD
  5
AE18
102
{ACAD_REACTORS
330
AE14
102
}
330
AE14
100
AcDbXrecord
280
     1
270
     1
271
     1
  0
XRECORD
  5
AE1A
102
{ACAD_REACTORS
330
AE14
102
}
330
AE14
100
AcDbXrecord
280
     1
270
     1
271
     1
  0
XRECORD
  5
AE17
102
{ACAD_REACTORS
330
AE14
102
}
330
AE14
100
AcDbXrecord
280
     1
270
     1
271
     1
  0
XRECORD
  5
AE84
102
{ACAD_REACTORS
330
AE24
102
}
330
AE24
100
AcDbXrecord
280
     1
102
MATERIAL
148
0.0
149
0.0
149
0.0
 93
        0
 94
      127
282
     0
 72
     0
 77
     0
171
     0
175
     0
179
     0
273
     0
  0
XRECORD
  5
AE26
102
{ACAD_REACTORS
330
AE24
102
}
330
AE24
100
AcDbXrecord
280
     1
270
     1
271
     1
  0
XRECORD
  5
AE25
102
{ACAD_REACTORS
330
AE24
102
}
330
AE24
100
AcDbXrecord
280
     1
270
     1
271
     1
  0
XRECORD
  5
AE29
102
{ACAD_REACTORS
330
AE24
102
}
330
AE24
100
AcDbXrecord
280
     1
270
     1
271
     1
  0
XRECORD
  5
AE28
102
{ACAD_REACTORS
330
AE24
102
}
330
AE24
100
AcDbXrecord
280
     1
270
     1
271
     1
  0
XRECORD
  5
AE2A
102
{ACAD_REACTORS
330
AE24
102
}
330
AE24
100
AcDbXrecord
280
     1
270
     1
271
     1
  0
XRECORD
  5
AE27
102
{ACAD_REACTORS
330
AE24
102
}
330
AE24
100
AcDbXrecord
280
     1
270
     1
271
     1
  0
XRECORD
  5
AEB8
102
{ACAD_REACTORS
330
AEB7
102
}
330
AEB7
100
AcDbXrecord
280
     1
102
DISPLAYNAME
  1
Imperial24
102
FLAGS
 90
        0
  0
CELLSTYLEMAP
  5
AE7F
102
{ACAD_REACTORS
330
AE7E
102
}
330
AE7E
100
AcDbCellStyleMap
 90
        3
300
CELLSTYLE
  1
TABLEFORMAT_BEGIN
 90
        5
170
     1
 91
        0
 92
    32768
 62
   257
 93
        1
300
CONTENTFORMAT
  1
CONTENTFORMAT_BEGIN
 90
        0
 91
        0
 92
      512
 93
        0
300

 40
0.0
140
1.0
 94
        5
 62
     0
340
AC2F
144
0.25
309
CONTENTFORMAT_END
171
     0
 94
        0
309
TABLEFORMAT_END
  1
CELLSTYLE_BEGIN
 90
        1
 91
        1
300
_TITLE
309
CELLSTYLE_END
300
CELLSTYLE
  1
TABLEFORMAT_BEGIN
 90
        5
170
     1
 91
        0
 92
        0
 62
   257
 93
        1
300
CONTENTFORMAT
  1
CONTENTFORMAT_BEGIN
 90
        0
 91
        0
 92
      512
 93
        0
300

 40
0.0
140
1.0
 94
        5
 62
     0
340
AC2F
144
0.18
309
CONTENTFORMAT_END
171
     0
 94
        0
309
TABLEFORMAT_END
  1
CELLSTYLE_BEGIN
 90
        2
 91
        1
300
_HEADER
309
CELLSTYLE_END
300
CELLSTYLE
  1
TABLEFORMAT_BEGIN
 90
        5
170
     1
 91
        0
 92
        0
 62
   257
 93
        1
300
CONTENTFORMAT
  1
CONTENTFORMAT_BEGIN
 90
        0
 91
        0
 92
      512
 93
        0
300

 40
0.0
140
1.0
 94
        2
 62
     0
340
AC2F
144
0.18
309
CONTENTFORMAT_END
171
     0
 94
        0
309
TABLEFORMAT_END
  1
CELLSTYLE_BEGIN
 90
        3
 91
        2
300
_DATA
309
CELLSTYLE_END
  0
XRECORD
  5
AEB5
102
{ACAD_REACTORS
330
AE7E
102
}
330
AE7E
100
AcDbXrecord
280
     1
102
ACAD_ROUNDTRIP_PRE2007_TABLESTYLE
 90
      512
 91
        0
  1

 92
      512
 93
        0
  2

 94
      512
 95
        0
  3

  0
XRECORD
  5
AE90
102
{ACAD_REACTORS
330
AE8F
102
}
330
AE8F
100
AcDbXrecord
280
     1
102
RTVSPost2010Prop28
280
     1
102
RTVSPost2010PropOp28
 70
     1
102
RTVSPost2010Prop29
280
     1
102
RTVSPost2010PropOp29
 70
     1
102
RTVSPost2010Prop30
280
     0
102
RTVSPost2010PropOp30
 70
     1
102
RTVSPost2010Prop31
280
     0
102
RTVSPost2010PropOp31
 70
     1
102
RTVSPost2010Prop32
280
     0
102
RTVSPost2010PropOp32
 70
     1
102
RTVSPost2010Prop33
280
     0
102
RTVSPost2010PropOp33
 70
     1
102
RTVSPost2010Prop34
280
     0
102
RTVSPost2010PropOp34
 70
     1
102
RTVSPost2010Prop35
280
     0
102
RTVSPost2010PropOp35
 70
     1
102
RTVSPost2010Prop36
280
     0
102
RTVSPost2010PropOp36
 70
     1
102
RTVSPost2010Prop37
 90
       50
102
RTVSPost2010PropOp37
 70
     1
102
RTVSPost2010Prop38
140
0.0
102
RTVSPost2010PropOp38
 70
     1
102
RTVSPost2010Prop39
140
1.0
102
RTVSPost2010PropOp39
 70
     1
102
RTVSPost2010Prop40
 90
        0
102
RTVSPost2010PropOp40
 70
     1
102
RTVSPost2010Prop41ColorIndex
 90
       18
102
RTVSPost2010Prop41ColorRGB
 90
        0
102
RTVSPost2010PropOp41
 70
     1
102
RTVSPost2010Prop42
 90
       50
102
RTVSPost2010PropOp42
 70
     1
102
RTVSPost2010Prop43
 90
        3
102
RTVSPost2010PropOp43
 70
     1
102
RTVSPost2010Prop44ColorIndex
 90
        5
102
RTVSPost2010Prop44ColorRGB
 90
      255
102
RTVSPost2010PropOp44
 70
     1
102
RTVSPost2010Prop45
280
     0
102
RTVSPost2010PropOp45
 70
     1
102
RTVSPost2010Prop46
 90
       50
102
RTVSPost2010PropOp46
 70
     1
102
RTVSPost2010Prop47
 90
       50
102
RTVSPost2010PropOp47
 70
     1
102
RTVSPost2010Prop48
 90
       50
102
RTVSPost2010PropOp48
 70
     1
102
RTVSPost2010Prop49
280
     0
102
RTVSPost2010PropOp49
 70
     1
102
RTVSPost2010Prop50
 90
       50
102
RTVSPost2010PropOp50
 70
     1
102
RTVSPost2010Prop51ColorIndex
 90
      256
102
RTVSPost2010Prop51ColorRGB
 90
-16777216
102
RTVSPost2010PropOp51
 70
     0
102
RTVSPost2010Prop52
140
1.0
102
RTVSPost2010PropOp52
 70
     0
102
RTVSPost2010Prop53
 90
        2
102
RTVSPost2010PropOp53
 70
     1
102
RTVSPost2010Prop54
  1
strokes_ogs.tif
102
RTVSPost2010PropOp54
 70
     1
102
RTVSPost2010Prop55
280
     0
102
RTVSPost2010PropOp55
 70
     1
102
RTVSPost2010Prop56
140
1.0
102
RTVSPost2010PropOp56
 70
     1
102
RTVSPost2010Prop57
140
1.0
102
RTVSPost2010PropOp57
 70
     1
102
RTVSPropertyOp0
 70
     1
102
RTVSPropertyOp1
 70
     1
102
RTVSPropertyOp2
 70
     1
102
RTVSPropertyOp3
 70
     1
102
RTVSPropertyOp4
 70
     1
102
RTVSPropertyOp5
 70
     1
102
RTVSPropertyOp6
 70
     1
102
RTVSPropertyOp7
 70
     1
102
RTVSPropertyOp8
 70
     1
102
RTVSPropertyOp9
 70
     1
102
RTVSPropertyOp10
 70
     1
102
RTVSPropertyOp11
 70
     1
102
RTVSPropertyOp12
 70
     1
102
RTVSPropertyOp13
 70
     1
102
RTVSPropertyOp14
 70
     1
102
RTVSPropertyOp15
 70
     1
102
RTVSPropertyOp16
 70
     1
102
RTVSPropertyOp17
 70
     1
102
RTVSPropertyOp18
 70
     1
102
RTVSPropertyOp19
 70
     1
102
RTVSPropertyOp20
 70
     1
102
RTVSPropertyOp21
 70
     1
102
RTVSPropertyOp22
 70
     1
102
RTVSPropertyOp23
 70
     1
102
RTVSPropertyOp24
 70
     1
102
RTVSPropertyOp25
 70
     1
102
RTVSPropertyOp26
 70
     1
102
RTVSPropertyOp27
 70
     1
102
RTVSPropertyOp28
 70
     1
102
RTVSPropertyOp29
 70
     1
102
RTVSPropertyOp30
 70
     1
102
RTVSPropertyOp31
 70
     1
102
RTVSPropertyOp32
 70
     1
102
RTVSPropertyOp33
 70
     1
102
RTVSPropertyOp34
 70
     1
102
RTVSPropertyOp35
 70
     1
102
RTVSPropertyOp36
 70
     1
102
RTVSPropertyOp37
 70
     1
102
RTVSPropertyOp38
 70
     1
102
RTVSPropertyOp39
 70
     1
102
RTVSPropertyOp40
 70
     1
102
RTVSPropertyOp41
 70
     1
102
RTVSPropertyOp42
 70
     1
102
RTVSPropertyOp43
 70
     1
102
RTVSPropertyOp44
 70
     1
102
RTVSPropertyOp45
 70
     1
102
RTVSPropertyOp46
 70
     1
102
RTVSPropertyOp47
 70
     1
102
RTVSPropertyOp48
 70
     1
102
RTVSPropertyOp49
 70
     1
102
RTVSPropertyOp50
 70
     1
102
RTVSPropertyOp51
 70
     0
102
RTVSPropertyOp52
 70
     0
102
RTVSPropertyOp53
 70
     1
102
RTVSPropertyOp54
 70
     1
102
RTVSPropertyOp55
 70
     1
102
RTVSPropertyOp56
 70
     1
102
RTVSPropertyOp57
 70
     1
102
RTVSPropertyOp58
 70
     1
102
RTVSPropertyOp59
 70
     1
102
RTVSPropertyOp60
 70
     1
102
RTVSPropertyOp61
 70
     1
102
RTVSPropertyOp62
 70
     1
  0
XRECORD
  5
AE8E
102
{ACAD_REACTORS
330
AE8D
102
}
330
AE8D
100
AcDbXrecord
280
     1
102
RTVSPost2010Prop28
280
     0
102
RTVSPost2010PropOp28
 70
     1
102
RTVSPost2010Prop29
280
     1
102
RTVSPost2010PropOp29
 70
     1
102
RTVSPost2010Prop30
280
     1
102
RTVSPost2010PropOp30
 70
     1
102
RTVSPost2010Prop31
280
     0
102
RTVSPost2010PropOp31
 70
     1
102
RTVSPost2010Prop32
280
     0
102
RTVSPost2010PropOp32
 70
     1
102
RTVSPost2010Prop33
280
     0
102
RTVSPost2010PropOp33
 70
     1
102
RTVSPost2010Prop34
280
     0
102
RTVSPost2010PropOp34
 70
     1
102
RTVSPost2010Prop35
280
     0
102
RTVSPost2010PropOp35
 70
     1
102
RTVSPost2010Prop36
280
     0
102
RTVSPost2010PropOp36
 70
     1
102
RTVSPost2010Prop37
 90
       50
102
RTVSPost2010PropOp37
 70
     1
102
RTVSPost2010Prop38
140
0.0
102
RTVSPost2010PropOp38
 70
     1
102
RTVSPost2010Prop39
140
1.0
102
RTVSPost2010PropOp39
 70
     1
102
RTVSPost2010Prop40
 90
        0
102
RTVSPost2010PropOp40
 70
     1
102
RTVSPost2010Prop41ColorIndex
 90
       18
102
RTVSPost2010Prop41ColorRGB
 90
        0
102
RTVSPost2010PropOp41
 70
     1
102
RTVSPost2010Prop42
 90
       50
102
RTVSPost2010PropOp42
 70
     1
102
RTVSPost2010Prop43
 90
        3
102
RTVSPost2010PropOp43
 70
     1
102
RTVSPost2010Prop44ColorIndex
 90
        5
102
RTVSPost2010Prop44ColorRGB
 90
      255
102
RTVSPost2010PropOp44
 70
     1
102
RTVSPost2010Prop45
280
     0
102
RTVSPost2010PropOp45
 70
     1
102
RTVSPost2010Prop46
 90
       50
102
RTVSPost2010PropOp46
 70
     1
102
RTVSPost2010Prop47
 90
       50
102
RTVSPost2010PropOp47
 70
     1
102
RTVSPost2010Prop48
 90
       50
102
RTVSPost2010PropOp48
 70
     1
102
RTVSPost2010Prop49
280
     0
102
RTVSPost2010PropOp49
 70
     1
102
RTVSPost2010Prop50
 90
       50
102
RTVSPost2010PropOp50
 70
     1
102
RTVSPost2010Prop51ColorIndex
 90
      256
102
RTVSPost2010Prop51ColorRGB
 90
-16777216
102
RTVSPost2010PropOp51
 70
     0
102
RTVSPost2010Prop52
140
1.0
102
RTVSPost2010PropOp52
 70
     0
102
RTVSPost2010Prop53
 90
        2
102
RTVSPost2010PropOp53
 70
     1
102
RTVSPost2010Prop54
  1
strokes_ogs.tif
102
RTVSPost2010PropOp54
 70
     1
102
RTVSPost2010Prop55
280
     0
102
RTVSPost2010PropOp55
 70
     1
102
RTVSPost2010Prop56
140
1.0
102
RTVSPost2010PropOp56
 70
     1
102
RTVSPost2010Prop57
140
1.0
102
RTVSPost2010PropOp57
 70
     1
102
RTVSPropertyOp0
 70
     1
102
RTVSPropertyOp1
 70
     1
102
RTVSPropertyOp2
 70
     1
102
RTVSPropertyOp3
 70
     1
102
RTVSPropertyOp4
 70
     1
102
RTVSPropertyOp5
 70
     1
102
RTVSPropertyOp6
 70
     1
102
RTVSPropertyOp7
 70
     1
102
RTVSPropertyOp8
 70
     1
102
RTVSPropertyOp9
 70
     1
102
RTVSPropertyOp10
 70
     1
102
RTVSPropertyOp11
 70
     1
102
RTVSPropertyOp12
 70
     1
102
RTVSPropertyOp13
 70
     1
102
RTVSPropertyOp14
 70
     1
102
RTVSPropertyOp15
 70
     1
102
RTVSPropertyOp16
 70
     1
102
RTVSPropertyOp17
 70
     1
102
RTVSPropertyOp18
 70
     1
102
RTVSPropertyOp19
 70
     1
102
RTVSPropertyOp20
 70
     1
102
RTVSPropertyOp21
 70
     1
102
RTVSPropertyOp22
 70
     1
102
RTVSPropertyOp23
 70
     1
102
RTVSPropertyOp24
 70
     1
102
RTVSPropertyOp25
 70
     1
102
RTVSPropertyOp26
 70
     1
102
RTVSPropertyOp27
 70
     1
102
RTVSPropertyOp28
 70
     1
102
RTVSPropertyOp29
 70
     1
102
RTVSPropertyOp30
 70
     1
102
RTVSPropertyOp31
 70
     1
102
RTVSPropertyOp32
 70
     1
102
RTVSPropertyOp33
 70
     1
102
RTVSPropertyOp34
 70
     1
102
RTVSPropertyOp35
 70
     1
102
RTVSPropertyOp36
 70
     1
102
RTVSPropertyOp37
 70
     1
102
RTVSPropertyOp38
 70
     1
102
RTVSPropertyOp39
 70
     1
102
RTVSPropertyOp40
 70
     1
102
RTVSPropertyOp41
 70
     1
102
RTVSPropertyOp42
 70
     1
102
RTVSPropertyOp43
 70
     1
102
RTVSPropertyOp44
 70
     1
102
RTVSPropertyOp45
 70
     1
102
RTVSPropertyOp46
 70
     1
102
RTVSPropertyOp47
 70
     1
102
RTVSPropertyOp48
 70
     1
102
RTVSPropertyOp49
 70
     1
102
RTVSPropertyOp50
 70
     1
102
RTVSPropertyOp51
 70
     0
102
RTVSPropertyOp52
 70
     0
102
RTVSPropertyOp53
 70
     1
102
RTVSPropertyOp54
 70
     1
102
RTVSPropertyOp55
 70
     1
102
RTVSPropertyOp56
 70
     1
102
RTVSPropertyOp57
 70
     1
102
RTVSPropertyOp58
 70
     1
102
RTVSPropertyOp59
 70
     1
102
RTVSPropertyOp60
 70
     1
102
RTVSPropertyOp61
 70
     1
102
RTVSPropertyOp62
 70
     1
  0
XRECORD
  5
AE9C
102
{ACAD_REACTORS
330
AE9B
102
}
330
AE9B
100
AcDbXrecord
280
     1
102
RTVSPost2010Prop28
280
     0
102
RTVSPost2010PropOp28
 70
     1
102
RTVSPost2010Prop29
280
     1
102
RTVSPost2010PropOp29
 70
     1
102
RTVSPost2010Prop30
280
     1
102
RTVSPost2010PropOp30
 70
     1
102
RTVSPost2010Prop31
280
     0
102
RTVSPost2010PropOp31
 70
     1
102
RTVSPost2010Prop32
280
     0
102
RTVSPost2010PropOp32
 70
     1
102
RTVSPost2010Prop33
280
     0
102
RTVSPost2010PropOp33
 70
     1
102
RTVSPost2010Prop34
280
     0
102
RTVSPost2010PropOp34
 70
     1
102
RTVSPost2010Prop35
280
     0
102
RTVSPost2010PropOp35
 70
     1
102
RTVSPost2010Prop36
280
     0
102
RTVSPost2010PropOp36
 70
     1
102
RTVSPost2010Prop37
 90
       50
102
RTVSPost2010PropOp37
 70
     1
102
RTVSPost2010Prop38
140
0.0
102
RTVSPost2010PropOp38
 70
     1
102
RTVSPost2010Prop39
140
1.0
102
RTVSPost2010PropOp39
 70
     1
102
RTVSPost2010Prop40
 90
        0
102
RTVSPost2010PropOp40
 70
     1
102
RTVSPost2010Prop41ColorIndex
 90
       18
102
RTVSPost2010Prop41ColorRGB
 90
        0
102
RTVSPost2010PropOp41
 70
     1
102
RTVSPost2010Prop42
 90
       50
102
RTVSPost2010PropOp42
 70
     1
102
RTVSPost2010Prop43
 90
        3
102
RTVSPost2010PropOp43
 70
     1
102
RTVSPost2010Prop44ColorIndex
 90
        5
102
RTVSPost2010Prop44ColorRGB
 90
      255
102
RTVSPost2010PropOp44
 70
     1
102
RTVSPost2010Prop45
280
     0
102
RTVSPost2010PropOp45
 70
     1
102
RTVSPost2010Prop46
 90
       50
102
RTVSPost2010PropOp46
 70
     1
102
RTVSPost2010Prop47
 90
       50
102
RTVSPost2010PropOp47
 70
     1
102
RTVSPost2010Prop48
 90
       50
102
RTVSPost2010PropOp48
 70
     1
102
RTVSPost2010Prop49
280
     0
102
RTVSPost2010PropOp49
 70
     1
102
RTVSPost2010Prop50
 90
       50
102
RTVSPost2010PropOp50
 70
     1
102
RTVSPost2010Prop51ColorIndex
 90
      256
102
RTVSPost2010Prop51ColorRGB
 90
-16777216
102
RTVSPost2010PropOp51
 70
     0
102
RTVSPost2010Prop52
140
1.0
102
RTVSPost2010PropOp52
 70
     0
102
RTVSPost2010Prop53
 90
        2
102
RTVSPost2010PropOp53
 70
     1
102
RTVSPost2010Prop54
  1
strokes_ogs.tif
102
RTVSPost2010PropOp54
 70
     1
102
RTVSPost2010Prop55
280
     0
102
RTVSPost2010PropOp55
 70
     1
102
RTVSPost2010Prop56
140
1.0
102
RTVSPost2010PropOp56
 70
     1
102
RTVSPost2010Prop57
140
1.0
102
RTVSPost2010PropOp57
 70
     1
102
RTVSPropertyOp0
 70
     1
102
RTVSPropertyOp1
 70
     1
102
RTVSPropertyOp2
 70
     1
102
RTVSPropertyOp3
 70
     1
102
RTVSPropertyOp4
 70
     1
102
RTVSPropertyOp5
 70
     1
102
RTVSPropertyOp6
 70
     1
102
RTVSPropertyOp7
 70
     1
102
RTVSPropertyOp8
 70
     1
102
RTVSPropertyOp9
 70
     1
102
RTVSPropertyOp10
 70
     1
102
RTVSPropertyOp11
 70
     1
102
RTVSPropertyOp12
 70
     1
102
RTVSPropertyOp13
 70
     1
102
RTVSPropertyOp14
 70
     1
102
RTVSPropertyOp15
 70
     1
102
RTVSPropertyOp16
 70
     1
102
RTVSPropertyOp17
 70
     1
102
RTVSPropertyOp18
 70
     1
102
RTVSPropertyOp19
 70
     1
102
RTVSPropertyOp20
 70
     1
102
RTVSPropertyOp21
 70
     1
102
RTVSPropertyOp22
 70
     1
102
RTVSPropertyOp23
 70
     1
102
RTVSPropertyOp24
 70
     1
102
RTVSPropertyOp25
 70
     1
102
RTVSPropertyOp26
 70
     1
102
RTVSPropertyOp27
 70
     1
102
RTVSPropertyOp28
 70
     1
102
RTVSPropertyOp29
 70
     1
102
RTVSPropertyOp30
 70
     1
102
RTVSPropertyOp31
 70
     1
102
RTVSPropertyOp32
 70
     1
102
RTVSPropertyOp33
 70
     1
102
RTVSPropertyOp34
 70
     1
102
RTVSPropertyOp35
 70
     1
102
RTVSPropertyOp36
 70
     1
102
RTVSPropertyOp37
 70
     1
102
RTVSPropertyOp38
 70
     1
102
RTVSPropertyOp39
 70
     1
102
RTVSPropertyOp40
 70
     1
102
RTVSPropertyOp41
 70
     1
102
RTVSPropertyOp42
 70
     1
102
RTVSPropertyOp43
 70
     1
102
RTVSPropertyOp44
 70
     1
102
RTVSPropertyOp45
 70
     1
102
RTVSPropertyOp46
 70
     1
102
RTVSPropertyOp47
 70
     1
102
RTVSPropertyOp48
 70
     1
102
RTVSPropertyOp49
 70
     1
102
RTVSPropertyOp50
 70
     1
102
RTVSPropertyOp51
 70
     0
102
RTVSPropertyOp52
 70
     0
102
RTVSPropertyOp53
 70
     1
102
RTVSPropertyOp54
 70
     1
102
RTVSPropertyOp55
 70
     1
102
RTVSPropertyOp56
 70
     1
102
RTVSPropertyOp57
 70
     1
102
RTVSPropertyOp58
 70
     1
102
RTVSPropertyOp59
 70
     1
102
RTVSPropertyOp60
 70
     1
102
RTVSPropertyOp61
 70
     1
102
RTVSPropertyOp62
 70
     1
  0
XRECORD
  5
AEA4
102
{ACAD_REACTORS
330
AEA3
102
}
330
AEA3
100
AcDbXrecord
280
     1
102
RTVSPost2010Prop28
280
     0
102
RTVSPost2010PropOp28
 70
     1
102
RTVSPost2010Prop29
280
     1
102
RTVSPost2010PropOp29
 70
     1
102
RTVSPost2010Prop30
280
     1
102
RTVSPost2010PropOp30
 70
     1
102
RTVSPost2010Prop31
280
     0
102
RTVSPost2010PropOp31
 70
     1
102
RTVSPost2010Prop32
280
     0
102
RTVSPost2010PropOp32
 70
     1
102
RTVSPost2010Prop33
280
     0
102
RTVSPost2010PropOp33
 70
     1
102
RTVSPost2010Prop34
280
     0
102
RTVSPost2010PropOp34
 70
     1
102
RTVSPost2010Prop35
280
     0
102
RTVSPost2010PropOp35
 70
     1
102
RTVSPost2010Prop36
280
     0
102
RTVSPost2010PropOp36
 70
     1
102
RTVSPost2010Prop37
 90
       50
102
RTVSPost2010PropOp37
 70
     1
102
RTVSPost2010Prop38
140
0.0
102
RTVSPost2010PropOp38
 70
     1
102
RTVSPost2010Prop39
140
1.0
102
RTVSPost2010PropOp39
 70
     1
102
RTVSPost2010Prop40
 90
        0
102
RTVSPost2010PropOp40
 70
     1
102
RTVSPost2010Prop41ColorIndex
 90
       18
102
RTVSPost2010Prop41ColorRGB
 90
        0
102
RTVSPost2010PropOp41
 70
     1
102
RTVSPost2010Prop42
 90
       50
102
RTVSPost2010PropOp42
 70
     1
102
RTVSPost2010Prop43
 90
        3
102
RTVSPost2010PropOp43
 70
     1
102
RTVSPost2010Prop44ColorIndex
 90
        5
102
RTVSPost2010Prop44ColorRGB
 90
      255
102
RTVSPost2010PropOp44
 70
     1
102
RTVSPost2010Prop45
280
     0
102
RTVSPost2010PropOp45
 70
     1
102
RTVSPost2010Prop46
 90
       50
102
RTVSPost2010PropOp46
 70
     1
102
RTVSPost2010Prop47
 90
       50
102
RTVSPost2010PropOp47
 70
     1
102
RTVSPost2010Prop48
 90
       50
102
RTVSPost2010PropOp48
 70
     1
102
RTVSPost2010Prop49
280
     0
102
RTVSPost2010PropOp49
 70
     1
102
RTVSPost2010Prop50
 90
       50
102
RTVSPost2010PropOp50
 70
     1
102
RTVSPost2010Prop51ColorIndex
 90
      256
102
RTVSPost2010Prop51ColorRGB
 90
-16777216
102
RTVSPost2010PropOp51
 70
     0
102
RTVSPost2010Prop52
140
1.0
102
RTVSPost2010PropOp52
 70
     0
102
RTVSPost2010Prop53
 90
        2
102
RTVSPost2010PropOp53
 70
     1
102
RTVSPost2010Prop54
  1
strokes_ogs.tif
102
RTVSPost2010PropOp54
 70
     1
102
RTVSPost2010Prop55
280
     0
102
RTVSPost2010PropOp55
 70
     1
102
RTVSPost2010Prop56
140
1.0
102
RTVSPost2010PropOp56
 70
     1
102
RTVSPost2010Prop57
140
1.0
102
RTVSPost2010PropOp57
 70
     1
102
RTVSPropertyOp0
 70
     1
102
RTVSPropertyOp1
 70
     1
102
RTVSPropertyOp2
 70
     1
102
RTVSPropertyOp3
 70
     1
102
RTVSPropertyOp4
 70
     1
102
RTVSPropertyOp5
 70
     1
102
RTVSPropertyOp6
 70
     1
102
RTVSPropertyOp7
 70
     1
102
RTVSPropertyOp8
 70
     1
102
RTVSPropertyOp9
 70
     1
102
RTVSPropertyOp10
 70
     1
102
RTVSPropertyOp11
 70
     1
102
RTVSPropertyOp12
 70
     1
102
RTVSPropertyOp13
 70
     1
102
RTVSPropertyOp14
 70
     1
102
RTVSPropertyOp15
 70
     1
102
RTVSPropertyOp16
 70
     1
102
RTVSPropertyOp17
 70
     1
102
RTVSPropertyOp18
 70
     1
102
RTVSPropertyOp19
 70
     1
102
RTVSPropertyOp20
 70
     1
102
RTVSPropertyOp21
 70
     1
102
RTVSPropertyOp22
 70
     1
102
RTVSPropertyOp23
 70
     1
102
RTVSPropertyOp24
 70
     1
102
RTVSPropertyOp25
 70
     1
102
RTVSPropertyOp26
 70
     1
102
RTVSPropertyOp27
 70
     1
102
RTVSPropertyOp28
 70
     1
102
RTVSPropertyOp29
 70
     1
102
RTVSPropertyOp30
 70
     1
102
RTVSPropertyOp31
 70
     1
102
RTVSPropertyOp32
 70
     1
102
RTVSPropertyOp33
 70
     1
102
RTVSPropertyOp34
 70
     1
102
RTVSPropertyOp35
 70
     1
102
RTVSPropertyOp36
 70
     1
102
RTVSPropertyOp37
 70
     1
102
RTVSPropertyOp38
 70
     1
102
RTVSPropertyOp39
 70
     1
102
RTVSPropertyOp40
 70
     1
102
RTVSPropertyOp41
 70
     1
102
RTVSPropertyOp42
 70
     1
102
RTVSPropertyOp43
 70
     1
102
RTVSPropertyOp44
 70
     1
102
RTVSPropertyOp45
 70
     1
102
RTVSPropertyOp46
 70
     1
102
RTVSPropertyOp47
 70
     1
102
RTVSPropertyOp48
 70
     1
102
RTVSPropertyOp49
 70
     1
102
RTVSPropertyOp50
 70
     1
102
RTVSPropertyOp51
 70
     0
102
RTVSPropertyOp52
 70
     0
102
RTVSPropertyOp53
 70
     1
102
RTVSPropertyOp54
 70
     1
102
RTVSPropertyOp55
 70
     1
102
RTVSPropertyOp56
 70
     1
102
RTVSPropertyOp57
 70
     1
102
RTVSPropertyOp58
 70
     1
102
RTVSPropertyOp59
 70
     1
102
RTVSPropertyOp60
 70
     1
102
RTVSPropertyOp61
 70
     1
102
RTVSPropertyOp62
 70
     1
  0
XRECORD
  5
AE96
102
{ACAD_REACTORS
330
AE95
102
}
330
AE95
100
AcDbXrecord
280
     1
102
RTVSPost2010Prop28
280
     0
102
RTVSPost2010PropOp28
 70
     1
102
RTVSPost2010Prop29
280
     1
102
RTVSPost2010PropOp29
 70
     1
102
RTVSPost2010Prop30
280
     1
102
RTVSPost2010PropOp30
 70
     1
102
RTVSPost2010Prop31
280
     0
102
RTVSPost2010PropOp31
 70
     1
102
RTVSPost2010Prop32
280
     0
102
RTVSPost2010PropOp32
 70
     1
102
RTVSPost2010Prop33
280
     0
102
RTVSPost2010PropOp33
 70
     1
102
RTVSPost2010Prop34
280
     0
102
RTVSPost2010PropOp34
 70
     1
102
RTVSPost2010Prop35
280
     0
102
RTVSPost2010PropOp35
 70
     1
102
RTVSPost2010Prop36
280
     0
102
RTVSPost2010PropOp36
 70
     1
102
RTVSPost2010Prop37
 90
       50
102
RTVSPost2010PropOp37
 70
     1
102
RTVSPost2010Prop38
140
0.0
102
RTVSPost2010PropOp38
 70
     1
102
RTVSPost2010Prop39
140
1.0
102
RTVSPost2010PropOp39
 70
     1
102
RTVSPost2010Prop40
 90
        0
102
RTVSPost2010PropOp40
 70
     1
102
RTVSPost2010Prop41ColorIndex
 90
       18
102
RTVSPost2010Prop41ColorRGB
 90
        0
102
RTVSPost2010PropOp41
 70
     1
102
RTVSPost2010Prop42
 90
       50
102
RTVSPost2010PropOp42
 70
     1
102
RTVSPost2010Prop43
 90
        3
102
RTVSPost2010PropOp43
 70
     1
102
RTVSPost2010Prop44ColorIndex
 90
        5
102
RTVSPost2010Prop44ColorRGB
 90
      255
102
RTVSPost2010PropOp44
 70
     1
102
RTVSPost2010Prop45
280
     0
102
RTVSPost2010PropOp45
 70
     1
102
RTVSPost2010Prop46
 90
       50
102
RTVSPost2010PropOp46
 70
     1
102
RTVSPost2010Prop47
 90
       50
102
RTVSPost2010PropOp47
 70
     1
102
RTVSPost2010Prop48
 90
       50
102
RTVSPost2010PropOp48
 70
     1
102
RTVSPost2010Prop49
280
     0
102
RTVSPost2010PropOp49
 70
     1
102
RTVSPost2010Prop50
 90
       50
102
RTVSPost2010PropOp50
 70
     1
102
RTVSPost2010Prop51ColorIndex
 90
      256
102
RTVSPost2010Prop51ColorRGB
 90
-16777216
102
RTVSPost2010PropOp51
 70
     0
102
RTVSPost2010Prop52
140
1.0
102
RTVSPost2010PropOp52
 70
     0
102
RTVSPost2010Prop53
 90
        2
102
RTVSPost2010PropOp53
 70
     1
102
RTVSPost2010Prop54
  1
strokes_ogs.tif
102
RTVSPost2010PropOp54
 70
     1
102
RTVSPost2010Prop55
280
     0
102
RTVSPost2010PropOp55
 70
     1
102
RTVSPost2010Prop56
140
1.0
102
RTVSPost2010PropOp56
 70
     1
102
RTVSPost2010Prop57
140
1.0
102
RTVSPost2010PropOp57
 70
     1
102
RTVSPropertyOp0
 70
     1
102
RTVSPropertyOp1
 70
     1
102
RTVSPropertyOp2
 70
     1
102
RTVSPropertyOp3
 70
     1
102
RTVSPropertyOp4
 70
     1
102
RTVSPropertyOp5
 70
     1
102
RTVSPropertyOp6
 70
     1
102
RTVSPropertyOp7
 70
     1
102
RTVSPropertyOp8
 70
     1
102
RTVSPropertyOp9
 70
     1
102
RTVSPropertyOp10
 70
     1
102
RTVSPropertyOp11
 70
     1
102
RTVSPropertyOp12
 70
     1
102
RTVSPropertyOp13
 70
     1
102
RTVSPropertyOp14
 70
     1
102
RTVSPropertyOp15
 70
     1
102
RTVSPropertyOp16
 70
     1
102
RTVSPropertyOp17
 70
     1
102
RTVSPropertyOp18
 70
     1
102
RTVSPropertyOp19
 70
     1
102
RTVSPropertyOp20
 70
     1
102
RTVSPropertyOp21
 70
     1
102
RTVSPropertyOp22
 70
     1
102
RTVSPropertyOp23
 70
     1
102
RTVSPropertyOp24
 70
     1
102
RTVSPropertyOp25
 70
     1
102
RTVSPropertyOp26
 70
     1
102
RTVSPropertyOp27
 70
     1
102
RTVSPropertyOp28
 70
     1
102
RTVSPropertyOp29
 70
     1
102
RTVSPropertyOp30
 70
     1
102
RTVSPropertyOp31
 70
     1
102
RTVSPropertyOp32
 70
     1
102
RTVSPropertyOp33
 70
     1
102
RTVSPropertyOp34
 70
     1
102
RTVSPropertyOp35
 70
     1
102
RTVSPropertyOp36
 70
     1
102
RTVSPropertyOp37
 70
     1
102
RTVSPropertyOp38
 70
     1
102
RTVSPropertyOp39
 70
     1
102
RTVSPropertyOp40
 70
     1
102
RTVSPropertyOp41
 70
     1
102
RTVSPropertyOp42
 70
     1
102
RTVSPropertyOp43
 70
     1
102
RTVSPropertyOp44
 70
     1
102
RTVSPropertyOp45
 70
     1
102
RTVSPropertyOp46
 70
     1
102
RTVSPropertyOp47
 70
     1
102
RTVSPropertyOp48
 70
     1
102
RTVSPropertyOp49
 70
     1
102
RTVSPropertyOp50
 70
     1
102
RTVSPropertyOp51
 70
     0
102
RTVSPropertyOp52
 70
     0
102
RTVSPropertyOp53
 70
     1
102
RTVSPropertyOp54
 70
     1
102
RTVSPropertyOp55
 70
     1
102
RTVSPropertyOp56
 70
     1
102
RTVSPropertyOp57
 70
     1
102
RTVSPropertyOp58
 70
     1
102
RTVSPropertyOp59
 70
     1
102
RTVSPropertyOp60
 70
     1
102
RTVSPropertyOp61
 70
     1
102
RTVSPropertyOp62
 70
     1
  0
XRECORD
  5
AE9A
102
{ACAD_REACTORS
330
AE99
102
}
330
AE99
100
AcDbXrecord
280
     1
102
RTVSPost2010Prop28
280
     0
102
RTVSPost2010PropOp28
 70
     1
102
RTVSPost2010Prop29
280
     1
102
RTVSPost2010PropOp29
 70
     1
102
RTVSPost2010Prop30
280
     1
102
RTVSPost2010PropOp30
 70
     1
102
RTVSPost2010Prop31
280
     0
102
RTVSPost2010PropOp31
 70
     1
102
RTVSPost2010Prop32
280
     0
102
RTVSPost2010PropOp32
 70
     1
102
RTVSPost2010Prop33
280
     0
102
RTVSPost2010PropOp33
 70
     1
102
RTVSPost2010Prop34
280
     0
102
RTVSPost2010PropOp34
 70
     1
102
RTVSPost2010Prop35
280
     0
102
RTVSPost2010PropOp35
 70
     1
102
RTVSPost2010Prop36
280
     0
102
RTVSPost2010PropOp36
 70
     1
102
RTVSPost2010Prop37
 90
       50
102
RTVSPost2010PropOp37
 70
     1
102
RTVSPost2010Prop38
140
0.0
102
RTVSPost2010PropOp38
 70
     1
102
RTVSPost2010Prop39
140
1.0
102
RTVSPost2010PropOp39
 70
     1
102
RTVSPost2010Prop40
 90
        0
102
RTVSPost2010PropOp40
 70
     1
102
RTVSPost2010Prop41ColorIndex
 90
       18
102
RTVSPost2010Prop41ColorRGB
 90
        0
102
RTVSPost2010PropOp41
 70
     1
102
RTVSPost2010Prop42
 90
       50
102
RTVSPost2010PropOp42
 70
     1
102
RTVSPost2010Prop43
 90
        3
102
RTVSPost2010PropOp43
 70
     1
102
RTVSPost2010Prop44ColorIndex
 90
        5
102
RTVSPost2010Prop44ColorRGB
 90
      255
102
RTVSPost2010PropOp44
 70
     1
102
RTVSPost2010Prop45
280
     0
102
RTVSPost2010PropOp45
 70
     1
102
RTVSPost2010Prop46
 90
       50
102
RTVSPost2010PropOp46
 70
     1
102
RTVSPost2010Prop47
 90
       50
102
RTVSPost2010PropOp47
 70
     1
102
RTVSPost2010Prop48
 90
       50
102
RTVSPost2010PropOp48
 70
     1
102
RTVSPost2010Prop49
280
     0
102
RTVSPost2010PropOp49
 70
     1
102
RTVSPost2010Prop50
 90
       50
102
RTVSPost2010PropOp50
 70
     1
102
RTVSPost2010Prop51ColorIndex
 90
      256
102
RTVSPost2010Prop51ColorRGB
 90
-16777216
102
RTVSPost2010PropOp51
 70
     0
102
RTVSPost2010Prop52
140
1.0
102
RTVSPost2010PropOp52
 70
     0
102
RTVSPost2010Prop53
 90
        2
102
RTVSPost2010PropOp53
 70
     1
102
RTVSPost2010Prop54
  1
strokes_ogs.tif
102
RTVSPost2010PropOp54
 70
     1
102
RTVSPost2010Prop55
280
     0
102
RTVSPost2010PropOp55
 70
     1
102
RTVSPost2010Prop56
140
1.0
102
RTVSPost2010PropOp56
 70
     1
102
RTVSPost2010Prop57
140
1.0
102
RTVSPost2010PropOp57
 70
     1
102
RTVSPropertyOp0
 70
     1
102
RTVSPropertyOp1
 70
     1
102
RTVSPropertyOp2
 70
     1
102
RTVSPropertyOp3
 70
     1
102
RTVSPropertyOp4
 70
     1
102
RTVSPropertyOp5
 70
     1
102
RTVSPropertyOp6
 70
     1
102
RTVSPropertyOp7
 70
     1
102
RTVSPropertyOp8
 70
     1
102
RTVSPropertyOp9
 70
     1
102
RTVSPropertyOp10
 70
     1
102
RTVSPropertyOp11
 70
     1
102
RTVSPropertyOp12
 70
     1
102
RTVSPropertyOp13
 70
     1
102
RTVSPropertyOp14
 70
     1
102
RTVSPropertyOp15
 70
     1
102
RTVSPropertyOp16
 70
     1
102
RTVSPropertyOp17
 70
     1
102
RTVSPropertyOp18
 70
     1
102
RTVSPropertyOp19
 70
     1
102
RTVSPropertyOp20
 70
     1
102
RTVSPropertyOp21
 70
     1
102
RTVSPropertyOp22
 70
     1
102
RTVSPropertyOp23
 70
     1
102
RTVSPropertyOp24
 70
     1
102
RTVSPropertyOp25
 70
     1
102
RTVSPropertyOp26
 70
     1
102
RTVSPropertyOp27
 70
     1
102
RTVSPropertyOp28
 70
     1
102
RTVSPropertyOp29
 70
     1
102
RTVSPropertyOp30
 70
     1
102
RTVSPropertyOp31
 70
     1
102
RTVSPropertyOp32
 70
     1
102
RTVSPropertyOp33
 70
     1
102
RTVSPropertyOp34
 70
     1
102
RTVSPropertyOp35
 70
     1
102
RTVSPropertyOp36
 70
     1
102
RTVSPropertyOp37
 70
     1
102
RTVSPropertyOp38
 70
     1
102
RTVSPropertyOp39
 70
     1
102
RTVSPropertyOp40
 70
     1
102
RTVSPropertyOp41
 70
     1
102
RTVSPropertyOp42
 70
     1
102
RTVSPropertyOp43
 70
     1
102
RTVSPropertyOp44
 70
     1
102
RTVSPropertyOp45
 70
     1
102
RTVSPropertyOp46
 70
     1
102
RTVSPropertyOp47
 70
     1
102
RTVSPropertyOp48
 70
     1
102
RTVSPropertyOp49
 70
     1
102
RTVSPropertyOp50
 70
     1
102
RTVSPropertyOp51
 70
     0
102
RTVSPropertyOp52
 70
     0
102
RTVSPropertyOp53
 70
     1
102
RTVSPropertyOp54
 70
     1
102
RTVSPropertyOp55
 70
     1
102
RTVSPropertyOp56
 70
     1
102
RTVSPropertyOp57
 70
     1
102
RTVSPropertyOp58
 70
     1
102
RTVSPropertyOp59
 70
     1
102
RTVSPropertyOp60
 70
     1
102
RTVSPropertyOp61
 70
     1
102
RTVSPropertyOp62
 70
     1
  0
XRECORD
  5
AEB4
102
{ACAD_REACTORS
330
AEB3
102
}
330
AEB3
100
AcDbXrecord
280
     1
102
RTVSPost2010Prop28
280
     0
102
RTVSPost2010PropOp28
 70
     1
102
RTVSPost2010Prop29
280
     1
102
RTVSPost2010PropOp29
 70
     1
102
RTVSPost2010Prop30
280
     1
102
RTVSPost2010PropOp30
 70
     1
102
RTVSPost2010Prop31
280
     0
102
RTVSPost2010PropOp31
 70
     1
102
RTVSPost2010Prop32
280
     0
102
RTVSPost2010PropOp32
 70
     1
102
RTVSPost2010Prop33
280
     0
102
RTVSPost2010PropOp33
 70
     1
102
RTVSPost2010Prop34
280
     0
102
RTVSPost2010PropOp34
 70
     1
102
RTVSPost2010Prop35
280
     0
102
RTVSPost2010PropOp35
 70
     1
102
RTVSPost2010Prop36
280
     0
102
RTVSPost2010PropOp36
 70
     1
102
RTVSPost2010Prop37
 90
       50
102
RTVSPost2010PropOp37
 70
     0
102
RTVSPost2010Prop38
140
0.0
102
RTVSPost2010PropOp38
 70
     0
102
RTVSPost2010Prop39
140
1.0
102
RTVSPost2010PropOp39
 70
     0
102
RTVSPost2010Prop40
 90
        0
102
RTVSPost2010PropOp40
 70
     0
102
RTVSPost2010Prop41ColorIndex
 90
       18
102
RTVSPost2010Prop41ColorRGB
 90
        0
102
RTVSPost2010PropOp41
 70
     0
102
RTVSPost2010Prop42
 90
       50
102
RTVSPost2010PropOp42
 70
     0
102
RTVSPost2010Prop43
 90
        3
102
RTVSPost2010PropOp43
 70
     0
102
RTVSPost2010Prop44ColorIndex
 90
        5
102
RTVSPost2010Prop44ColorRGB
 90
      255
102
RTVSPost2010PropOp44
 70
     0
102
RTVSPost2010Prop45
280
     0
102
RTVSPost2010PropOp45
 70
     1
102
RTVSPost2010Prop46
 90
       50
102
RTVSPost2010PropOp46
 70
     0
102
RTVSPost2010Prop47
 90
       50
102
RTVSPost2010PropOp47
 70
     0
102
RTVSPost2010Prop48
 90
       50
102
RTVSPost2010PropOp48
 70
     0
102
RTVSPost2010Prop49
280
     0
102
RTVSPost2010PropOp49
 70
     1
102
RTVSPost2010Prop50
 90
       50
102
RTVSPost2010PropOp50
 70
     0
102
RTVSPost2010Prop51ColorIndex
 90
      256
102
RTVSPost2010Prop51ColorRGB
 90
-16777216
102
RTVSPost2010PropOp51
 70
     0
102
RTVSPost2010Prop52
140
1.0
102
RTVSPost2010PropOp52
 70
     0
102
RTVSPost2010Prop53
 90
        2
102
RTVSPost2010PropOp53
 70
     0
102
RTVSPost2010Prop54
  1
strokes_ogs.tif
102
RTVSPost2010PropOp54
 70
     0
102
RTVSPost2010Prop55
280
     0
102
RTVSPost2010PropOp55
 70
     1
102
RTVSPost2010Prop56
140
1.0
102
RTVSPost2010PropOp56
 70
     0
102
RTVSPost2010Prop57
140
1.0
102
RTVSPost2010PropOp57
 70
     0
102
RTVSPropertyOp0
 70
     0
102
RTVSPropertyOp1
 70
     0
102
RTVSPropertyOp2
 70
     0
102
RTVSPropertyOp3
 70
     0
102
RTVSPropertyOp4
 70
     0
102
RTVSPropertyOp5
 70
     0
102
RTVSPropertyOp6
 70
     0
102
RTVSPropertyOp7
 70
     0
102
RTVSPropertyOp8
 70
     0
102
RTVSPropertyOp9
 70
     0
102
RTVSPropertyOp10
 70
     0
102
RTVSPropertyOp11
 70
     0
102
RTVSPropertyOp12
 70
     0
102
RTVSPropertyOp13
 70
     0
102
RTVSPropertyOp14
 70
     2
102
RTVSPropertyOp15
 70
     0
102
RTVSPropertyOp16
 70
     0
102
RTVSPropertyOp17
 70
     0
102
RTVSPropertyOp18
 70
     0
102
RTVSPropertyOp19
 70
     0
102
RTVSPropertyOp20
 70
     0
102
RTVSPropertyOp21
 70
     0
102
RTVSPropertyOp22
 70
     0
102
RTVSPropertyOp23
 70
     0
102
RTVSPropertyOp24
 70
     0
102
RTVSPropertyOp25
 70
     0
102
RTVSPropertyOp26
 70
     0
102
RTVSPropertyOp27
 70
     0
102
RTVSPropertyOp28
 70
     1
102
RTVSPropertyOp29
 70
     1
102
RTVSPropertyOp30
 70
     1
102
RTVSPropertyOp31
 70
     1
102
RTVSPropertyOp32
 70
     1
102
RTVSPropertyOp33
 70
     1
102
RTVSPropertyOp34
 70
     1
102
RTVSPropertyOp35
 70
     1
102
RTVSPropertyOp36
 70
     1
102
RTVSPropertyOp37
 70
     0
102
RTVSPropertyOp38
 70
     0
102
RTVSPropertyOp39
 70
     0
102
RTVSPropertyOp40
 70
     0
102
RTVSPropertyOp41
 70
     0
102
RTVSPropertyOp42
 70
     0
102
RTVSPropertyOp43
 70
     0
102
RTVSPropertyOp44
 70
     0
102
RTVSPropertyOp45
 70
     1
102
RTVSPropertyOp46
 70
     0
102
RTVSPropertyOp47
 70
     0
102
RTVSPropertyOp48
 70
     0
102
RTVSPropertyOp49
 70
     1
102
RTVSPropertyOp50
 70
     0
102
RTVSPropertyOp51
 70
     0
102
RTVSPropertyOp52
 70
     0
102
RTVSPropertyOp53
 70
     0
102
RTVSPropertyOp54
 70
     0
102
RTVSPropertyOp55
 70
     1
102
RTVSPropertyOp56
 70
     0
102
RTVSPropertyOp57
 70
     0
102
RTVSPropertyOp58
 70
     0
102
RTVSPropertyOp59
 70
     0
102
RTVSPropertyOp60
 70
     0
102
RTVSPropertyOp61
 70
     0
102
RTVSPropertyOp62
 70
     0
  0
XRECORD
  5
AEA2
102
{ACAD_REACTORS
330
AEA1
102
}
330
AEA1
100
AcDbXrecord
280
     1
102
RTVSPost2010Prop28
280
     0
102
RTVSPost2010PropOp28
 70
     1
102
RTVSPost2010Prop29
280
     1
102
RTVSPost2010PropOp29
 70
     1
102
RTVSPost2010Prop30
280
     1
102
RTVSPost2010PropOp30
 70
     1
102
RTVSPost2010Prop31
280
     0
102
RTVSPost2010PropOp31
 70
     1
102
RTVSPost2010Prop32
280
     0
102
RTVSPost2010PropOp32
 70
     1
102
RTVSPost2010Prop33
280
     0
102
RTVSPost2010PropOp33
 70
     1
102
RTVSPost2010Prop34
280
     0
102
RTVSPost2010PropOp34
 70
     1
102
RTVSPost2010Prop35
280
     0
102
RTVSPost2010PropOp35
 70
     1
102
RTVSPost2010Prop36
280
     0
102
RTVSPost2010PropOp36
 70
     1
102
RTVSPost2010Prop37
 90
       50
102
RTVSPost2010PropOp37
 70
     1
102
RTVSPost2010Prop38
140
0.0
102
RTVSPost2010PropOp38
 70
     1
102
RTVSPost2010Prop39
140
1.0
102
RTVSPost2010PropOp39
 70
     1
102
RTVSPost2010Prop40
 90
        0
102
RTVSPost2010PropOp40
 70
     1
102
RTVSPost2010Prop41ColorIndex
 90
       18
102
RTVSPost2010Prop41ColorRGB
 90
        0
102
RTVSPost2010PropOp41
 70
     1
102
RTVSPost2010Prop42
 90
       50
102
RTVSPost2010PropOp42
 70
     1
102
RTVSPost2010Prop43
 90
        3
102
RTVSPost2010PropOp43
 70
     1
102
RTVSPost2010Prop44ColorIndex
 90
        5
102
RTVSPost2010Prop44ColorRGB
 90
      255
102
RTVSPost2010PropOp44
 70
     1
102
RTVSPost2010Prop45
280
     0
102
RTVSPost2010PropOp45
 70
     1
102
RTVSPost2010Prop46
 90
       50
102
RTVSPost2010PropOp46
 70
     1
102
RTVSPost2010Prop47
 90
       50
102
RTVSPost2010PropOp47
 70
     1
102
RTVSPost2010Prop48
 90
       50
102
RTVSPost2010PropOp48
 70
     1
102
RTVSPost2010Prop49
280
     0
102
RTVSPost2010PropOp49
 70
     1
102
RTVSPost2010Prop50
 90
       50
102
RTVSPost2010PropOp50
 70
     1
102
RTVSPost2010Prop51ColorIndex
 90
      256
102
RTVSPost2010Prop51ColorRGB
 90
-16777216
102
RTVSPost2010PropOp51
 70
     0
102
RTVSPost2010Prop52
140
1.0
102
RTVSPost2010PropOp52
 70
     0
102
RTVSPost2010Prop53
 90
        2
102
RTVSPost2010PropOp53
 70
     1
102
RTVSPost2010Prop54
  1
strokes_ogs.tif
102
RTVSPost2010PropOp54
 70
     1
102
RTVSPost2010Prop55
280
     0
102
RTVSPost2010PropOp55
 70
     1
102
RTVSPost2010Prop56
140
1.0
102
RTVSPost2010PropOp56
 70
     1
102
RTVSPost2010Prop57
140
1.0
102
RTVSPost2010PropOp57
 70
     1
102
RTVSPropertyOp0
 70
     1
102
RTVSPropertyOp1
 70
     1
102
RTVSPropertyOp2
 70
     1
102
RTVSPropertyOp3
 70
     1
102
RTVSPropertyOp4
 70
     1
102
RTVSPropertyOp5
 70
     1
102
RTVSPropertyOp6
 70
     1
102
RTVSPropertyOp7
 70
     1
102
RTVSPropertyOp8
 70
     1
102
RTVSPropertyOp9
 70
     1
102
RTVSPropertyOp10
 70
     1
102
RTVSPropertyOp11
 70
     1
102
RTVSPropertyOp12
 70
     1
102
RTVSPropertyOp13
 70
     1
102
RTVSPropertyOp14
 70
     1
102
RTVSPropertyOp15
 70
     1
102
RTVSPropertyOp16
 70
     1
102
RTVSPropertyOp17
 70
     1
102
RTVSPropertyOp18
 70
     1
102
RTVSPropertyOp19
 70
     1
102
RTVSPropertyOp20
 70
     1
102
RTVSPropertyOp21
 70
     1
102
RTVSPropertyOp22
 70
     1
102
RTVSPropertyOp23
 70
     1
102
RTVSPropertyOp24
 70
     1
102
RTVSPropertyOp25
 70
     1
102
RTVSPropertyOp26
 70
     1
102
RTVSPropertyOp27
 70
     1
102
RTVSPropertyOp28
 70
     1
102
RTVSPropertyOp29
 70
     1
102
RTVSPropertyOp30
 70
     1
102
RTVSPropertyOp31
 70
     1
102
RTVSPropertyOp32
 70
     1
102
RTVSPropertyOp33
 70
     1
102
RTVSPropertyOp34
 70
     1
102
RTVSPropertyOp35
 70
     1
102
RTVSPropertyOp36
 70
     1
102
RTVSPropertyOp37
 70
     1
102
RTVSPropertyOp38
 70
     1
102
RTVSPropertyOp39
 70
     1
102
RTVSPropertyOp40
 70
     1
102
RTVSPropertyOp41
 70
     1
102
RTVSPropertyOp42
 70
     1
102
RTVSPropertyOp43
 70
     1
102
RTVSPropertyOp44
 70
     1
102
RTVSPropertyOp45
 70
     1
102
RTVSPropertyOp46
 70
     1
102
RTVSPropertyOp47
 70
     1
102
RTVSPropertyOp48
 70
     1
102
RTVSPropertyOp49
 70
     1
102
RTVSPropertyOp50
 70
     1
102
RTVSPropertyOp51
 70
     0
102
RTVSPropertyOp52
 70
     0
102
RTVSPropertyOp53
 70
     1
102
RTVSPropertyOp54
 70
     1
102
RTVSPropertyOp55
 70
     1
102
RTVSPropertyOp56
 70
     1
102
RTVSPropertyOp57
 70
     1
102
RTVSPropertyOp58
 70
     1
102
RTVSPropertyOp59
 70
     1
102
RTVSPropertyOp60
 70
     1
102
RTVSPropertyOp61
 70
     1
102
RTVSPropertyOp62
 70
     1
  0
XRECORD
  5
AE86
102
{ACAD_REACTORS
330
AE85
102
}
330
AE85
100
AcDbXrecord
280
     1
102
RTVSPost2010Prop28
280
     0
102
RTVSPost2010PropOp28
 70
     1
102
RTVSPost2010Prop29
280
     1
102
RTVSPost2010PropOp29
 70
     1
102
RTVSPost2010Prop30
280
     1
102
RTVSPost2010PropOp30
 70
     1
102
RTVSPost2010Prop31
280
     0
102
RTVSPost2010PropOp31
 70
     1
102
RTVSPost2010Prop32
280
     0
102
RTVSPost2010PropOp32
 70
     1
102
RTVSPost2010Prop33
280
     0
102
RTVSPost2010PropOp33
 70
     1
102
RTVSPost2010Prop34
280
     0
102
RTVSPost2010PropOp34
 70
     1
102
RTVSPost2010Prop35
280
     0
102
RTVSPost2010PropOp35
 70
     1
102
RTVSPost2010Prop36
280
     0
102
RTVSPost2010PropOp36
 70
     1
102
RTVSPost2010Prop37
 90
       50
102
RTVSPost2010PropOp37
 70
     1
102
RTVSPost2010Prop38
140
0.0
102
RTVSPost2010PropOp38
 70
     1
102
RTVSPost2010Prop39
140
1.0
102
RTVSPost2010PropOp39
 70
     1
102
RTVSPost2010Prop40
 90
        0
102
RTVSPost2010PropOp40
 70
     1
102
RTVSPost2010Prop41ColorIndex
 90
       18
102
RTVSPost2010Prop41ColorRGB
 90
        0
102
RTVSPost2010PropOp41
 70
     1
102
RTVSPost2010Prop42
 90
       50
102
RTVSPost2010PropOp42
 70
     1
102
RTVSPost2010Prop43
 90
        3
102
RTVSPost2010PropOp43
 70
     1
102
RTVSPost2010Prop44ColorIndex
 90
        5
102
RTVSPost2010Prop44ColorRGB
 90
      255
102
RTVSPost2010PropOp44
 70
     1
102
RTVSPost2010Prop45
280
     0
102
RTVSPost2010PropOp45
 70
     1
102
RTVSPost2010Prop46
 90
       50
102
RTVSPost2010PropOp46
 70
     1
102
RTVSPost2010Prop47
 90
       50
102
RTVSPost2010PropOp47
 70
     1
102
RTVSPost2010Prop48
 90
       50
102
RTVSPost2010PropOp48
 70
     1
102
RTVSPost2010Prop49
280
     0
102
RTVSPost2010PropOp49
 70
     1
102
RTVSPost2010Prop50
 90
       50
102
RTVSPost2010PropOp50
 70
     1
102
RTVSPost2010Prop51ColorIndex
 90
      256
102
RTVSPost2010Prop51ColorRGB
 90
-16777216
102
RTVSPost2010PropOp51
 70
     0
102
RTVSPost2010Prop52
140
1.0
102
RTVSPost2010PropOp52
 70
     0
102
RTVSPost2010Prop53
 90
        2
102
RTVSPost2010PropOp53
 70
     1
102
RTVSPost2010Prop54
  1
strokes_ogs.tif
102
RTVSPost2010PropOp54
 70
     1
102
RTVSPost2010Prop55
280
     0
102
RTVSPost2010PropOp55
 70
     1
102
RTVSPost2010Prop56
140
1.0
102
RTVSPost2010PropOp56
 70
     1
102
RTVSPost2010Prop57
140
1.0
102
RTVSPost2010PropOp57
 70
     1
102
RTVSPropertyOp0
 70
     1
102
RTVSPropertyOp1
 70
     1
102
RTVSPropertyOp2
 70
     1
102
RTVSPropertyOp3
 70
     1
102
RTVSPropertyOp4
 70
     1
102
RTVSPropertyOp5
 70
     1
102
RTVSPropertyOp6
 70
     1
102
RTVSPropertyOp7
 70
     1
102
RTVSPropertyOp8
 70
     1
102
RTVSPropertyOp9
 70
     1
102
RTVSPropertyOp10
 70
     1
102
RTVSPropertyOp11
 70
     1
102
RTVSPropertyOp12
 70
     1
102
RTVSPropertyOp13
 70
     1
102
RTVSPropertyOp14
 70
     1
102
RTVSPropertyOp15
 70
     1
102
RTVSPropertyOp16
 70
     1
102
RTVSPropertyOp17
 70
     1
102
RTVSPropertyOp18
 70
     1
102
RTVSPropertyOp19
 70
     1
102
RTVSPropertyOp20
 70
     1
102
RTVSPropertyOp21
 70
     1
102
RTVSPropertyOp22
 70
     1
102
RTVSPropertyOp23
 70
     1
102
RTVSPropertyOp24
 70
     1
102
RTVSPropertyOp25
 70
     1
102
RTVSPropertyOp26
 70
     1
102
RTVSPropertyOp27
 70
     1
102
RTVSPropertyOp28
 70
     1
102
RTVSPropertyOp29
 70
     1
102
RTVSPropertyOp30
 70
     1
102
RTVSPropertyOp31
 70
     1
102
RTVSPropertyOp32
 70
     1
102
RTVSPropertyOp33
 70
     1
102
RTVSPropertyOp34
 70
     1
102
RTVSPropertyOp35
 70
     1
102
RTVSPropertyOp36
 70
     1
102
RTVSPropertyOp37
 70
     1
102
RTVSPropertyOp38
 70
     1
102
RTVSPropertyOp39
 70
     1
102
RTVSPropertyOp40
 70
     1
102
RTVSPropertyOp41
 70
     1
102
RTVSPropertyOp42
 70
     1
102
RTVSPropertyOp43
 70
     1
102
RTVSPropertyOp44
 70
     1
102
RTVSPropertyOp45
 70
     1
102
RTVSPropertyOp46
 70
     1
102
RTVSPropertyOp47
 70
     1
102
RTVSPropertyOp48
 70
     1
102
RTVSPropertyOp49
 70
     1
102
RTVSPropertyOp50
 70
     1
102
RTVSPropertyOp51
 70
     0
102
RTVSPropertyOp52
 70
     0
102
RTVSPropertyOp53
 70
     1
102
RTVSPropertyOp54
 70
     1
102
RTVSPropertyOp55
 70
     1
102
RTVSPropertyOp56
 70
     1
102
RTVSPropertyOp57
 70
     1
102
RTVSPropertyOp58
 70
     1
102
RTVSPropertyOp59
 70
     1
102
RTVSPropertyOp60
 70
     1
102
RTVSPropertyOp61
 70
     1
102
RTVSPropertyOp62
 70
     1
  0
XRECORD
  5
AE88
102
{ACAD_REACTORS
330
AE87
102
}
330
AE87
100
AcDbXrecord
280
     1
102
RTVSPost2010Prop28
280
     0
102
RTVSPost2010PropOp28
 70
     1
102
RTVSPost2010Prop29
280
     1
102
RTVSPost2010PropOp29
 70
     1
102
RTVSPost2010Prop30
280
     1
102
RTVSPost2010PropOp30
 70
     1
102
RTVSPost2010Prop31
280
     0
102
RTVSPost2010PropOp31
 70
     1
102
RTVSPost2010Prop32
280
     0
102
RTVSPost2010PropOp32
 70
     1
102
RTVSPost2010Prop33
280
     0
102
RTVSPost2010PropOp33
 70
     1
102
RTVSPost2010Prop34
280
     0
102
RTVSPost2010PropOp34
 70
     1
102
RTVSPost2010Prop35
280
     0
102
RTVSPost2010PropOp35
 70
     1
102
RTVSPost2010Prop36
280
     0
102
RTVSPost2010PropOp36
 70
     1
102
RTVSPost2010Prop37
 90
       50
102
RTVSPost2010PropOp37
 70
     1
102
RTVSPost2010Prop38
140
0.0
102
RTVSPost2010PropOp38
 70
     1
102
RTVSPost2010Prop39
140
1.0
102
RTVSPost2010PropOp39
 70
     1
102
RTVSPost2010Prop40
 90
        0
102
RTVSPost2010PropOp40
 70
     1
102
RTVSPost2010Prop41ColorIndex
 90
       18
102
RTVSPost2010Prop41ColorRGB
 90
        0
102
RTVSPost2010PropOp41
 70
     1
102
RTVSPost2010Prop42
 90
       50
102
RTVSPost2010PropOp42
 70
     1
102
RTVSPost2010Prop43
 90
        3
102
RTVSPost2010PropOp43
 70
     1
102
RTVSPost2010Prop44ColorIndex
 90
        5
102
RTVSPost2010Prop44ColorRGB
 90
      255
102
RTVSPost2010PropOp44
 70
     1
102
RTVSPost2010Prop45
280
     0
102
RTVSPost2010PropOp45
 70
     1
102
RTVSPost2010Prop46
 90
       50
102
RTVSPost2010PropOp46
 70
     1
102
RTVSPost2010Prop47
 90
       50
102
RTVSPost2010PropOp47
 70
     1
102
RTVSPost2010Prop48
 90
       50
102
RTVSPost2010PropOp48
 70
     1
102
RTVSPost2010Prop49
280
     0
102
RTVSPost2010PropOp49
 70
     1
102
RTVSPost2010Prop50
 90
       50
102
RTVSPost2010PropOp50
 70
     1
102
RTVSPost2010Prop51ColorIndex
 90
      256
102
RTVSPost2010Prop51ColorRGB
 90
-16777216
102
RTVSPost2010PropOp51
 70
     0
102
RTVSPost2010Prop52
140
1.0
102
RTVSPost2010PropOp52
 70
     0
102
RTVSPost2010Prop53
 90
        2
102
RTVSPost2010PropOp53
 70
     1
102
RTVSPost2010Prop54
  1
strokes_ogs.tif
102
RTVSPost2010PropOp54
 70
     1
102
RTVSPost2010Prop55
280
     0
102
RTVSPost2010PropOp55
 70
     1
102
RTVSPost2010Prop56
140
1.0
102
RTVSPost2010PropOp56
 70
     1
102
RTVSPost2010Prop57
140
1.0
102
RTVSPost2010PropOp57
 70
     1
102
RTVSPropertyOp0
 70
     1
102
RTVSPropertyOp1
 70
     1
102
RTVSPropertyOp2
 70
     1
102
RTVSPropertyOp3
 70
     1
102
RTVSPropertyOp4
 70
     1
102
RTVSPropertyOp5
 70
     1
102
RTVSPropertyOp6
 70
     1
102
RTVSPropertyOp7
 70
     1
102
RTVSPropertyOp8
 70
     1
102
RTVSPropertyOp9
 70
     1
102
RTVSPropertyOp10
 70
     1
102
RTVSPropertyOp11
 70
     1
102
RTVSPropertyOp12
 70
     1
102
RTVSPropertyOp13
 70
     1
102
RTVSPropertyOp14
 70
     1
102
RTVSPropertyOp15
 70
     1
102
RTVSPropertyOp16
 70
     1
102
RTVSPropertyOp17
 70
     1
102
RTVSPropertyOp18
 70
     1
102
RTVSPropertyOp19
 70
     1
102
RTVSPropertyOp20
 70
     1
102
RTVSPropertyOp21
 70
     1
102
RTVSPropertyOp22
 70
     1
102
RTVSPropertyOp23
 70
     1
102
RTVSPropertyOp24
 70
     1
102
RTVSPropertyOp25
 70
     1
102
RTVSPropertyOp26
 70
     1
102
RTVSPropertyOp27
 70
     1
102
RTVSPropertyOp28
 70
     1
102
RTVSPropertyOp29
 70
     1
102
RTVSPropertyOp30
 70
     1
102
RTVSPropertyOp31
 70
     1
102
RTVSPropertyOp32
 70
     1
102
RTVSPropertyOp33
 70
     1
102
RTVSPropertyOp34
 70
     1
102
RTVSPropertyOp35
 70
     1
102
RTVSPropertyOp36
 70
     1
102
RTVSPropertyOp37
 70
     1
102
RTVSPropertyOp38
 70
     1
102
RTVSPropertyOp39
 70
     1
102
RTVSPropertyOp40
 70
     1
102
RTVSPropertyOp41
 70
     1
102
RTVSPropertyOp42
 70
     1
102
RTVSPropertyOp43
 70
     1
102
RTVSPropertyOp44
 70
     1
102
RTVSPropertyOp45
 70
     1
102
RTVSPropertyOp46
 70
     1
102
RTVSPropertyOp47
 70
     1
102
RTVSPropertyOp48
 70
     1
102
RTVSPropertyOp49
 70
     1
102
RTVSPropertyOp50
 70
     1
102
RTVSPropertyOp51
 70
     0
102
RTVSPropertyOp52
 70
     0
102
RTVSPropertyOp53
 70
     1
102
RTVSPropertyOp54
 70
     1
102
RTVSPropertyOp55
 70
     1
102
RTVSPropertyOp56
 70
     1
102
RTVSPropertyOp57
 70
     1
102
RTVSPropertyOp58
 70
     1
102
RTVSPropertyOp59
 70
     1
102
RTVSPropertyOp60
 70
     1
102
RTVSPropertyOp61
 70
     1
102
RTVSPropertyOp62
 70
     1
  0
XRECORD
  5
AE8A
102
{ACAD_REACTORS
330
AE89
102
}
330
AE89
100
AcDbXrecord
280
     1
102
RTVSPost2010Prop28
280
     0
102
RTVSPost2010PropOp28
 70
     1
102
RTVSPost2010Prop29
280
     1
102
RTVSPost2010PropOp29
 70
     1
102
RTVSPost2010Prop30
280
     1
102
RTVSPost2010PropOp30
 70
     1
102
RTVSPost2010Prop31
280
     0
102
RTVSPost2010PropOp31
 70
     1
102
RTVSPost2010Prop32
280
     0
102
RTVSPost2010PropOp32
 70
     1
102
RTVSPost2010Prop33
280
     0
102
RTVSPost2010PropOp33
 70
     1
102
RTVSPost2010Prop34
280
     0
102
RTVSPost2010PropOp34
 70
     1
102
RTVSPost2010Prop35
280
     0
102
RTVSPost2010PropOp35
 70
     1
102
RTVSPost2010Prop36
280
     0
102
RTVSPost2010PropOp36
 70
     1
102
RTVSPost2010Prop37
 90
       50
102
RTVSPost2010PropOp37
 70
     1
102
RTVSPost2010Prop38
140
0.0
102
RTVSPost2010PropOp38
 70
     1
102
RTVSPost2010Prop39
140
1.0
102
RTVSPost2010PropOp39
 70
     1
102
RTVSPost2010Prop40
 90
        0
102
RTVSPost2010PropOp40
 70
     1
102
RTVSPost2010Prop41ColorIndex
 90
       18
102
RTVSPost2010Prop41ColorRGB
 90
        0
102
RTVSPost2010PropOp41
 70
     1
102
RTVSPost2010Prop42
 90
       50
102
RTVSPost2010PropOp42
 70
     1
102
RTVSPost2010Prop43
 90
        3
102
RTVSPost2010PropOp43
 70
     1
102
RTVSPost2010Prop44ColorIndex
 90
        5
102
RTVSPost2010Prop44ColorRGB
 90
      255
102
RTVSPost2010PropOp44
 70
     1
102
RTVSPost2010Prop45
280
     0
102
RTVSPost2010PropOp45
 70
     1
102
RTVSPost2010Prop46
 90
       50
102
RTVSPost2010PropOp46
 70
     1
102
RTVSPost2010Prop47
 90
       50
102
RTVSPost2010PropOp47
 70
     1
102
RTVSPost2010Prop48
 90
       50
102
RTVSPost2010PropOp48
 70
     1
102
RTVSPost2010Prop49
280
     0
102
RTVSPost2010PropOp49
 70
     1
102
RTVSPost2010Prop50
 90
       50
102
RTVSPost2010PropOp50
 70
     1
102
RTVSPost2010Prop51ColorIndex
 90
      256
102
RTVSPost2010Prop51ColorRGB
 90
-16777216
102
RTVSPost2010PropOp51
 70
     0
102
RTVSPost2010Prop52
140
1.0
102
RTVSPost2010PropOp52
 70
     0
102
RTVSPost2010Prop53
 90
        2
102
RTVSPost2010PropOp53
 70
     1
102
RTVSPost2010Prop54
  1
strokes_ogs.tif
102
RTVSPost2010PropOp54
 70
     1
102
RTVSPost2010Prop55
280
     0
102
RTVSPost2010PropOp55
 70
     1
102
RTVSPost2010Prop56
140
1.0
102
RTVSPost2010PropOp56
 70
     1
102
RTVSPost2010Prop57
140
1.0
102
RTVSPost2010PropOp57
 70
     1
102
RTVSPropertyOp0
 70
     1
102
RTVSPropertyOp1
 70
     1
102
RTVSPropertyOp2
 70
     1
102
RTVSPropertyOp3
 70
     1
102
RTVSPropertyOp4
 70
     1
102
RTVSPropertyOp5
 70
     1
102
RTVSPropertyOp6
 70
     1
102
RTVSPropertyOp7
 70
     1
102
RTVSPropertyOp8
 70
     1
102
RTVSPropertyOp9
 70
     1
102
RTVSPropertyOp10
 70
     1
102
RTVSPropertyOp11
 70
     1
102
RTVSPropertyOp12
 70
     1
102
RTVSPropertyOp13
 70
     1
102
RTVSPropertyOp14
 70
     1
102
RTVSPropertyOp15
 70
     1
102
RTVSPropertyOp16
 70
     1
102
RTVSPropertyOp17
 70
     1
102
RTVSPropertyOp18
 70
     1
102
RTVSPropertyOp19
 70
     1
102
RTVSPropertyOp20
 70
     1
102
RTVSPropertyOp21
 70
     1
102
RTVSPropertyOp22
 70
     1
102
RTVSPropertyOp23
 70
     1
102
RTVSPropertyOp24
 70
     1
102
RTVSPropertyOp25
 70
     1
102
RTVSPropertyOp26
 70
     1
102
RTVSPropertyOp27
 70
     1
102
RTVSPropertyOp28
 70
     1
102
RTVSPropertyOp29
 70
     1
102
RTVSPropertyOp30
 70
     1
102
RTVSPropertyOp31
 70
     1
102
RTVSPropertyOp32
 70
     1
102
RTVSPropertyOp33
 70
     1
102
RTVSPropertyOp34
 70
     1
102
RTVSPropertyOp35
 70
     1
102
RTVSPropertyOp36
 70
     1
102
RTVSPropertyOp37
 70
     1
102
RTVSPropertyOp38
 70
     1
102
RTVSPropertyOp39
 70
     1
102
RTVSPropertyOp40
 70
     1
102
RTVSPropertyOp41
 70
     1
102
RTVSPropertyOp42
 70
     1
102
RTVSPropertyOp43
 70
     1
102
RTVSPropertyOp44
 70
     1
102
RTVSPropertyOp45
 70
     1
102
RTVSPropertyOp46
 70
     1
102
RTVSPropertyOp47
 70
     1
102
RTVSPropertyOp48
 70
     1
102
RTVSPropertyOp49
 70
     1
102
RTVSPropertyOp50
 70
     1
102
RTVSPropertyOp51
 70
     0
102
RTVSPropertyOp52
 70
     0
102
RTVSPropertyOp53
 70
     1
102
RTVSPropertyOp54
 70
     1
102
RTVSPropertyOp55
 70
     1
102
RTVSPropertyOp56
 70
     1
102
RTVSPropertyOp57
 70
     1
102
RTVSPropertyOp58
 70
     1
102
RTVSPropertyOp59
 70
     1
102
RTVSPropertyOp60
 70
     1
102
RTVSPropertyOp61
 70
     1
102
RTVSPropertyOp62
 70
     1
  0
XRECORD
  5
AE8C
102
{ACAD_REACTORS
330
AE8B
102
}
330
AE8B
100
AcDbXrecord
280
     1
102
RTVSPost2010Prop28
280
     0
102
RTVSPost2010PropOp28
 70
     1
102
RTVSPost2010Prop29
280
     1
102
RTVSPost2010PropOp29
 70
     1
102
RTVSPost2010Prop30
280
     1
102
RTVSPost2010PropOp30
 70
     1
102
RTVSPost2010Prop31
280
     0
102
RTVSPost2010PropOp31
 70
     1
102
RTVSPost2010Prop32
280
     0
102
RTVSPost2010PropOp32
 70
     1
102
RTVSPost2010Prop33
280
     0
102
RTVSPost2010PropOp33
 70
     1
102
RTVSPost2010Prop34
280
     0
102
RTVSPost2010PropOp34
 70
     1
102
RTVSPost2010Prop35
280
     0
102
RTVSPost2010PropOp35
 70
     1
102
RTVSPost2010Prop36
280
     0
102
RTVSPost2010PropOp36
 70
     1
102
RTVSPost2010Prop37
 90
       50
102
RTVSPost2010PropOp37
 70
     1
102
RTVSPost2010Prop38
140
0.0
102
RTVSPost2010PropOp38
 70
     1
102
RTVSPost2010Prop39
140
1.0
102
RTVSPost2010PropOp39
 70
     1
102
RTVSPost2010Prop40
 90
        0
102
RTVSPost2010PropOp40
 70
     1
102
RTVSPost2010Prop41ColorIndex
 90
       18
102
RTVSPost2010Prop41ColorRGB
 90
        0
102
RTVSPost2010PropOp41
 70
     1
102
RTVSPost2010Prop42
 90
       50
102
RTVSPost2010PropOp42
 70
     1
102
RTVSPost2010Prop43
 90
        3
102
RTVSPost2010PropOp43
 70
     1
102
RTVSPost2010Prop44ColorIndex
 90
        5
102
RTVSPost2010Prop44ColorRGB
 90
      255
102
RTVSPost2010PropOp44
 70
     1
102
RTVSPost2010Prop45
280
     0
102
RTVSPost2010PropOp45
 70
     1
102
RTVSPost2010Prop46
 90
       50
102
RTVSPost2010PropOp46
 70
     1
102
RTVSPost2010Prop47
 90
       50
102
RTVSPost2010PropOp47
 70
     1
102
RTVSPost2010Prop48
 90
       50
102
RTVSPost2010PropOp48
 70
     1
102
RTVSPost2010Prop49
280
     0
102
RTVSPost2010PropOp49
 70
     1
102
RTVSPost2010Prop50
 90
       50
102
RTVSPost2010PropOp50
 70
     1
102
RTVSPost2010Prop51ColorIndex
 90
      256
102
RTVSPost2010Prop51ColorRGB
 90
-16777216
102
RTVSPost2010PropOp51
 70
     0
102
RTVSPost2010Prop52
140
1.0
102
RTVSPost2010PropOp52
 70
     0
102
RTVSPost2010Prop53
 90
        2
102
RTVSPost2010PropOp53
 70
     1
102
RTVSPost2010Prop54
  1
strokes_ogs.tif
102
RTVSPost2010PropOp54
 70
     1
102
RTVSPost2010Prop55
280
     0
102
RTVSPost2010PropOp55
 70
     1
102
RTVSPost2010Prop56
140
1.0
102
RTVSPost2010PropOp56
 70
     1
102
RTVSPost2010Prop57
140
1.0
102
RTVSPost2010PropOp57
 70
     1
102
RTVSPropertyOp0
 70
     1
102
RTVSPropertyOp1
 70
     1
102
RTVSPropertyOp2
 70
     1
102
RTVSPropertyOp3
 70
     1
102
RTVSPropertyOp4
 70
     1
102
RTVSPropertyOp5
 70
     1
102
RTVSPropertyOp6
 70
     1
102
RTVSPropertyOp7
 70
     1
102
RTVSPropertyOp8
 70
     1
102
RTVSPropertyOp9
 70
     1
102
RTVSPropertyOp10
 70
     1
102
RTVSPropertyOp11
 70
     1
102
RTVSPropertyOp12
 70
     1
102
RTVSPropertyOp13
 70
     1
102
RTVSPropertyOp14
 70
     1
102
RTVSPropertyOp15
 70
     1
102
RTVSPropertyOp16
 70
     1
102
RTVSPropertyOp17
 70
     1
102
RTVSPropertyOp18
 70
     1
102
RTVSPropertyOp19
 70
     1
102
RTVSPropertyOp20
 70
     1
102
RTVSPropertyOp21
 70
     1
102
RTVSPropertyOp22
 70
     1
102
RTVSPropertyOp23
 70
     1
102
RTVSPropertyOp24
 70
     1
102
RTVSPropertyOp25
 70
     1
102
RTVSPropertyOp26
 70
     1
102
RTVSPropertyOp27
 70
     1
102
RTVSPropertyOp28
 70
     1
102
RTVSPropertyOp29
 70
     1
102
RTVSPropertyOp30
 70
     1
102
RTVSPropertyOp31
 70
     1
102
RTVSPropertyOp32
 70
     1
102
RTVSPropertyOp33
 70
     1
102
RTVSPropertyOp34
 70
     1
102
RTVSPropertyOp35
 70
     1
102
RTVSPropertyOp36
 70
     1
102
RTVSPropertyOp37
 70
     1
102
RTVSPropertyOp38
 70
     1
102
RTVSPropertyOp39
 70
     1
102
RTVSPropertyOp40
 70
     1
102
RTVSPropertyOp41
 70
     1
102
RTVSPropertyOp42
 70
     1
102
RTVSPropertyOp43
 70
     1
102
RTVSPropertyOp44
 70
     1
102
RTVSPropertyOp45
 70
     1
102
RTVSPropertyOp46
 70
     1
102
RTVSPropertyOp47
 70
     1
102
RTVSPropertyOp48
 70
     1
102
RTVSPropertyOp49
 70
     1
102
RTVSPropertyOp50
 70
     1
102
RTVSPropertyOp51
 70
     0
102
RTVSPropertyOp52
 70
     0
102
RTVSPropertyOp53
 70
     1
102
RTVSPropertyOp54
 70
     1
102
RTVSPropertyOp55
 70
     1
102
RTVSPropertyOp56
 70
     1
102
RTVSPropertyOp57
 70
     1
102
RTVSPropertyOp58
 70
     1
102
RTVSPropertyOp59
 70
     1
102
RTVSPropertyOp60
 70
     1
102
RTVSPropertyOp61
 70
     1
102
RTVSPropertyOp62
 70
     1
  0
XRECORD
  5
AE94
102
{ACAD_REACTORS
330
AE93
102
}
330
AE93
100
AcDbXrecord
280
     1
102
RTVSPost2010Prop28
280
     0
102
RTVSPost2010PropOp28
 70
     1
102
RTVSPost2010Prop29
280
     1
102
RTVSPost2010PropOp29
 70
     1
102
RTVSPost2010Prop30
280
     1
102
RTVSPost2010PropOp30
 70
     1
102
RTVSPost2010Prop31
280
     0
102
RTVSPost2010PropOp31
 70
     1
102
RTVSPost2010Prop32
280
     0
102
RTVSPost2010PropOp32
 70
     1
102
RTVSPost2010Prop33
280
     0
102
RTVSPost2010PropOp33
 70
     1
102
RTVSPost2010Prop34
280
     0
102
RTVSPost2010PropOp34
 70
     1
102
RTVSPost2010Prop35
280
     0
102
RTVSPost2010PropOp35
 70
     1
102
RTVSPost2010Prop36
280
     0
102
RTVSPost2010PropOp36
 70
     1
102
RTVSPost2010Prop37
 90
       50
102
RTVSPost2010PropOp37
 70
     1
102
RTVSPost2010Prop38
140
0.0
102
RTVSPost2010PropOp38
 70
     1
102
RTVSPost2010Prop39
140
1.0
102
RTVSPost2010PropOp39
 70
     1
102
RTVSPost2010Prop40
 90
        0
102
RTVSPost2010PropOp40
 70
     1
102
RTVSPost2010Prop41ColorIndex
 90
       18
102
RTVSPost2010Prop41ColorRGB
 90
        0
102
RTVSPost2010PropOp41
 70
     1
102
RTVSPost2010Prop42
 90
       50
102
RTVSPost2010PropOp42
 70
     1
102
RTVSPost2010Prop43
 90
        3
102
RTVSPost2010PropOp43
 70
     1
102
RTVSPost2010Prop44ColorIndex
 90
        5
102
RTVSPost2010Prop44ColorRGB
 90
      255
102
RTVSPost2010PropOp44
 70
     1
102
RTVSPost2010Prop45
280
     0
102
RTVSPost2010PropOp45
 70
     1
102
RTVSPost2010Prop46
 90
       50
102
RTVSPost2010PropOp46
 70
     1
102
RTVSPost2010Prop47
 90
       50
102
RTVSPost2010PropOp47
 70
     1
102
RTVSPost2010Prop48
 90
       50
102
RTVSPost2010PropOp48
 70
     1
102
RTVSPost2010Prop49
280
     0
102
RTVSPost2010PropOp49
 70
     1
102
RTVSPost2010Prop50
 90
       50
102
RTVSPost2010PropOp50
 70
     1
102
RTVSPost2010Prop51ColorIndex
 90
      256
102
RTVSPost2010Prop51ColorRGB
 90
-16777216
102
RTVSPost2010PropOp51
 70
     0
102
RTVSPost2010Prop52
140
1.0
102
RTVSPost2010PropOp52
 70
     0
102
RTVSPost2010Prop53
 90
        2
102
RTVSPost2010PropOp53
 70
     1
102
RTVSPost2010Prop54
  1
strokes_ogs.tif
102
RTVSPost2010PropOp54
 70
     1
102
RTVSPost2010Prop55
280
     0
102
RTVSPost2010PropOp55
 70
     1
102
RTVSPost2010Prop56
140
1.0
102
RTVSPost2010PropOp56
 70
     1
102
RTVSPost2010Prop57
140
1.0
102
RTVSPost2010PropOp57
 70
     1
102
RTVSPropertyOp0
 70
     1
102
RTVSPropertyOp1
 70
     1
102
RTVSPropertyOp2
 70
     1
102
RTVSPropertyOp3
 70
     1
102
RTVSPropertyOp4
 70
     1
102
RTVSPropertyOp5
 70
     1
102
RTVSPropertyOp6
 70
     1
102
RTVSPropertyOp7
 70
     1
102
RTVSPropertyOp8
 70
     1
102
RTVSPropertyOp9
 70
     1
102
RTVSPropertyOp10
 70
     1
102
RTVSPropertyOp11
 70
     1
102
RTVSPropertyOp12
 70
     1
102
RTVSPropertyOp13
 70
     1
102
RTVSPropertyOp14
 70
     1
102
RTVSPropertyOp15
 70
     1
102
RTVSPropertyOp16
 70
     1
102
RTVSPropertyOp17
 70
     1
102
RTVSPropertyOp18
 70
     1
102
RTVSPropertyOp19
 70
     1
102
RTVSPropertyOp20
 70
     1
102
RTVSPropertyOp21
 70
     1
102
RTVSPropertyOp22
 70
     1
102
RTVSPropertyOp23
 70
     1
102
RTVSPropertyOp24
 70
     1
102
RTVSPropertyOp25
 70
     1
102
RTVSPropertyOp26
 70
     1
102
RTVSPropertyOp27
 70
     1
102
RTVSPropertyOp28
 70
     1
102
RTVSPropertyOp29
 70
     1
102
RTVSPropertyOp30
 70
     1
102
RTVSPropertyOp31
 70
     1
102
RTVSPropertyOp32
 70
     1
102
RTVSPropertyOp33
 70
     1
102
RTVSPropertyOp34
 70
     1
102
RTVSPropertyOp35
 70
     1
102
RTVSPropertyOp36
 70
     1
102
RTVSPropertyOp37
 70
     1
102
RTVSPropertyOp38
 70
     1
102
RTVSPropertyOp39
 70
     1
102
RTVSPropertyOp40
 70
     1
102
RTVSPropertyOp41
 70
     1
102
RTVSPropertyOp42
 70
     1
102
RTVSPropertyOp43
 70
     1
102
RTVSPropertyOp44
 70
     1
102
RTVSPropertyOp45
 70
     1
102
RTVSPropertyOp46
 70
     1
102
RTVSPropertyOp47
 70
     1
102
RTVSPropertyOp48
 70
     1
102
RTVSPropertyOp49
 70
     1
102
RTVSPropertyOp50
 70
     1
102
RTVSPropertyOp51
 70
     0
102
RTVSPropertyOp52
 70
     0
102
RTVSPropertyOp53
 70
     1
102
RTVSPropertyOp54
 70
     1
102
RTVSPropertyOp55
 70
     1
102
RTVSPropertyOp56
 70
     1
102
RTVSPropertyOp57
 70
     1
102
RTVSPropertyOp58
 70
     1
102
RTVSPropertyOp59
 70
     1
102
RTVSPropertyOp60
 70
     1
102
RTVSPropertyOp61
 70
     1
102
RTVSPropertyOp62
 70
     1
  0
XRECORD
  5
AEB0
102
{ACAD_REACTORS
330
AEAF
102
}
330
AEAF
100
AcDbXrecord
280
     1
102
RTVSPost2010Prop28
280
     0
102
RTVSPost2010PropOp28
 70
     1
102
RTVSPost2010Prop29
280
     1
102
RTVSPost2010PropOp29
 70
     1
102
RTVSPost2010Prop30
280
     1
102
RTVSPost2010PropOp30
 70
     1
102
RTVSPost2010Prop31
280
     0
102
RTVSPost2010PropOp31
 70
     1
102
RTVSPost2010Prop32
280
     0
102
RTVSPost2010PropOp32
 70
     1
102
RTVSPost2010Prop33
280
     0
102
RTVSPost2010PropOp33
 70
     1
102
RTVSPost2010Prop34
280
     0
102
RTVSPost2010PropOp34
 70
     1
102
RTVSPost2010Prop35
280
     0
102
RTVSPost2010PropOp35
 70
     1
102
RTVSPost2010Prop36
280
     0
102
RTVSPost2010PropOp36
 70
     1
102
RTVSPost2010Prop37
 90
       50
102
RTVSPost2010PropOp37
 70
     0
102
RTVSPost2010Prop38
140
0.0
102
RTVSPost2010PropOp38
 70
     0
102
RTVSPost2010Prop39
140
1.0
102
RTVSPost2010PropOp39
 70
     0
102
RTVSPost2010Prop40
 90
        0
102
RTVSPost2010PropOp40
 70
     0
102
RTVSPost2010Prop41ColorIndex
 90
       18
102
RTVSPost2010Prop41ColorRGB
 90
        0
102
RTVSPost2010PropOp41
 70
     0
102
RTVSPost2010Prop42
 90
       50
102
RTVSPost2010PropOp42
 70
     0
102
RTVSPost2010Prop43
 90
        3
102
RTVSPost2010PropOp43
 70
     0
102
RTVSPost2010Prop44ColorIndex
 90
        5
102
RTVSPost2010Prop44ColorRGB
 90
      255
102
RTVSPost2010PropOp44
 70
     0
102
RTVSPost2010Prop45
280
     0
102
RTVSPost2010PropOp45
 70
     1
102
RTVSPost2010Prop46
 90
       50
102
RTVSPost2010PropOp46
 70
     0
102
RTVSPost2010Prop47
 90
       50
102
RTVSPost2010PropOp47
 70
     0
102
RTVSPost2010Prop48
 90
       50
102
RTVSPost2010PropOp48
 70
     0
102
RTVSPost2010Prop49
280
     0
102
RTVSPost2010PropOp49
 70
     1
102
RTVSPost2010Prop50
 90
       50
102
RTVSPost2010PropOp50
 70
     0
102
RTVSPost2010Prop51ColorIndex
 90
      256
102
RTVSPost2010Prop51ColorRGB
 90
-16777216
102
RTVSPost2010PropOp51
 70
     0
102
RTVSPost2010Prop52
140
1.0
102
RTVSPost2010PropOp52
 70
     0
102
RTVSPost2010Prop53
 90
        2
102
RTVSPost2010PropOp53
 70
     0
102
RTVSPost2010Prop54
  1
strokes_ogs.tif
102
RTVSPost2010PropOp54
 70
     0
102
RTVSPost2010Prop55
280
     0
102
RTVSPost2010PropOp55
 70
     1
102
RTVSPost2010Prop56
140
1.0
102
RTVSPost2010PropOp56
 70
     0
102
RTVSPost2010Prop57
140
1.0
102
RTVSPost2010PropOp57
 70
     0
102
RTVSPropertyOp0
 70
     0
102
RTVSPropertyOp1
 70
     0
102
RTVSPropertyOp2
 70
     0
102
RTVSPropertyOp3
 70
     0
102
RTVSPropertyOp4
 70
     0
102
RTVSPropertyOp5
 70
     0
102
RTVSPropertyOp6
 70
     0
102
RTVSPropertyOp7
 70
     0
102
RTVSPropertyOp8
 70
     0
102
RTVSPropertyOp9
 70
     0
102
RTVSPropertyOp10
 70
     0
102
RTVSPropertyOp11
 70
     0
102
RTVSPropertyOp12
 70
     0
102
RTVSPropertyOp13
 70
     0
102
RTVSPropertyOp14
 70
     2
102
RTVSPropertyOp15
 70
     0
102
RTVSPropertyOp16
 70
     0
102
RTVSPropertyOp17
 70
     0
102
RTVSPropertyOp18
 70
     0
102
RTVSPropertyOp19
 70
     0
102
RTVSPropertyOp20
 70
     0
102
RTVSPropertyOp21
 70
     0
102
RTVSPropertyOp22
 70
     0
102
RTVSPropertyOp23
 70
     0
102
RTVSPropertyOp24
 70
     0
102
RTVSPropertyOp25
 70
     0
102
RTVSPropertyOp26
 70
     0
102
RTVSPropertyOp27
 70
     0
102
RTVSPropertyOp28
 70
     1
102
RTVSPropertyOp29
 70
     1
102
RTVSPropertyOp30
 70
     1
102
RTVSPropertyOp31
 70
     1
102
RTVSPropertyOp32
 70
     1
102
RTVSPropertyOp33
 70
     1
102
RTVSPropertyOp34
 70
     1
102
RTVSPropertyOp35
 70
     1
102
RTVSPropertyOp36
 70
     1
102
RTVSPropertyOp37
 70
     0
102
RTVSPropertyOp38
 70
     0
102
RTVSPropertyOp39
 70
     0
102
RTVSPropertyOp40
 70
     0
102
RTVSPropertyOp41
 70
     0
102
RTVSPropertyOp42
 70
     0
102
RTVSPropertyOp43
 70
     0
102
RTVSPropertyOp44
 70
     0
102
RTVSPropertyOp45
 70
     1
102
RTVSPropertyOp46
 70
     0
102
RTVSPropertyOp47
 70
     0
102
RTVSPropertyOp48
 70
     0
102
RTVSPropertyOp49
 70
     1
102
RTVSPropertyOp50
 70
     0
102
RTVSPropertyOp51
 70
     0
102
RTVSPropertyOp52
 70
     0
102
RTVSPropertyOp53
 70
     0
102
RTVSPropertyOp54
 70
     0
102
RTVSPropertyOp55
 70
     1
102
RTVSPropertyOp56
 70
     0
102
RTVSPropertyOp57
 70
     0
102
RTVSPropertyOp58
 70
     0
102
RTVSPropertyOp59
 70
     0
102
RTVSPropertyOp60
 70
     0
102
RTVSPropertyOp61
 70
     0
102
RTVSPropertyOp62
 70
     0
  0
XRECORD
  5
AEA0
102
{ACAD_REACTORS
330
AE9F
102
}
330
AE9F
100
AcDbXrecord
280
     1
102
RTVSPost2010Prop28
280
     0
102
RTVSPost2010PropOp28
 70
     1
102
RTVSPost2010Prop29
280
     1
102
RTVSPost2010PropOp29
 70
     1
102
RTVSPost2010Prop30
280
     1
102
RTVSPost2010PropOp30
 70
     1
102
RTVSPost2010Prop31
280
     0
102
RTVSPost2010PropOp31
 70
     1
102
RTVSPost2010Prop32
280
     0
102
RTVSPost2010PropOp32
 70
     1
102
RTVSPost2010Prop33
280
     0
102
RTVSPost2010PropOp33
 70
     1
102
RTVSPost2010Prop34
280
     0
102
RTVSPost2010PropOp34
 70
     1
102
RTVSPost2010Prop35
280
     0
102
RTVSPost2010PropOp35
 70
     1
102
RTVSPost2010Prop36
280
     0
102
RTVSPost2010PropOp36
 70
     1
102
RTVSPost2010Prop37
 90
       50
102
RTVSPost2010PropOp37
 70
     1
102
RTVSPost2010Prop38
140
0.0
102
RTVSPost2010PropOp38
 70
     1
102
RTVSPost2010Prop39
140
1.0
102
RTVSPost2010PropOp39
 70
     1
102
RTVSPost2010Prop40
 90
        0
102
RTVSPost2010PropOp40
 70
     1
102
RTVSPost2010Prop41ColorIndex
 90
       18
102
RTVSPost2010Prop41ColorRGB
 90
        0
102
RTVSPost2010PropOp41
 70
     1
102
RTVSPost2010Prop42
 90
       50
102
RTVSPost2010PropOp42
 70
     1
102
RTVSPost2010Prop43
 90
        3
102
RTVSPost2010PropOp43
 70
     1
102
RTVSPost2010Prop44ColorIndex
 90
        5
102
RTVSPost2010Prop44ColorRGB
 90
      255
102
RTVSPost2010PropOp44
 70
     1
102
RTVSPost2010Prop45
280
     0
102
RTVSPost2010PropOp45
 70
     1
102
RTVSPost2010Prop46
 90
       50
102
RTVSPost2010PropOp46
 70
     1
102
RTVSPost2010Prop47
 90
       50
102
RTVSPost2010PropOp47
 70
     1
102
RTVSPost2010Prop48
 90
       50
102
RTVSPost2010PropOp48
 70
     1
102
RTVSPost2010Prop49
280
     0
102
RTVSPost2010PropOp49
 70
     1
102
RTVSPost2010Prop50
 90
       50
102
RTVSPost2010PropOp50
 70
     1
102
RTVSPost2010Prop51ColorIndex
 90
      256
102
RTVSPost2010Prop51ColorRGB
 90
-16777216
102
RTVSPost2010PropOp51
 70
     0
102
RTVSPost2010Prop52
140
1.0
102
RTVSPost2010PropOp52
 70
     0
102
RTVSPost2010Prop53
 90
        2
102
RTVSPost2010PropOp53
 70
     1
102
RTVSPost2010Prop54
  1
strokes_ogs.tif
102
RTVSPost2010PropOp54
 70
     1
102
RTVSPost2010Prop55
280
     0
102
RTVSPost2010PropOp55
 70
     1
102
RTVSPost2010Prop56
140
1.0
102
RTVSPost2010PropOp56
 70
     1
102
RTVSPost2010Prop57
140
1.0
102
RTVSPost2010PropOp57
 70
     1
102
RTVSPropertyOp0
 70
     1
102
RTVSPropertyOp1
 70
     1
102
RTVSPropertyOp2
 70
     1
102
RTVSPropertyOp3
 70
     1
102
RTVSPropertyOp4
 70
     1
102
RTVSPropertyOp5
 70
     1
102
RTVSPropertyOp6
 70
     1
102
RTVSPropertyOp7
 70
     1
102
RTVSPropertyOp8
 70
     1
102
RTVSPropertyOp9
 70
     1
102
RTVSPropertyOp10
 70
     1
102
RTVSPropertyOp11
 70
     1
102
RTVSPropertyOp12
 70
     1
102
RTVSPropertyOp13
 70
     1
102
RTVSPropertyOp14
 70
     1
102
RTVSPropertyOp15
 70
     1
102
RTVSPropertyOp16
 70
     1
102
RTVSPropertyOp17
 70
     1
102
RTVSPropertyOp18
 70
     1
102
RTVSPropertyOp19
 70
     1
102
RTVSPropertyOp20
 70
     1
102
RTVSPropertyOp21
 70
     1
102
RTVSPropertyOp22
 70
     1
102
RTVSPropertyOp23
 70
     1
102
RTVSPropertyOp24
 70
     1
102
RTVSPropertyOp25
 70
     1
102
RTVSPropertyOp26
 70
     1
102
RTVSPropertyOp27
 70
     1
102
RTVSPropertyOp28
 70
     1
102
RTVSPropertyOp29
 70
     1
102
RTVSPropertyOp30
 70
     1
102
RTVSPropertyOp31
 70
     1
102
RTVSPropertyOp32
 70
     1
102
RTVSPropertyOp33
 70
     1
102
RTVSPropertyOp34
 70
     1
102
RTVSPropertyOp35
 70
     1
102
RTVSPropertyOp36
 70
     1
102
RTVSPropertyOp37
 70
     1
102
RTVSPropertyOp38
 70
     1
102
RTVSPropertyOp39
 70
     1
102
RTVSPropertyOp40
 70
     1
102
RTVSPropertyOp41
 70
     1
102
RTVSPropertyOp42
 70
     1
102
RTVSPropertyOp43
 70
     1
102
RTVSPropertyOp44
 70
     1
102
RTVSPropertyOp45
 70
     1
102
RTVSPropertyOp46
 70
     1
102
RTVSPropertyOp47
 70
     1
102
RTVSPropertyOp48
 70
     1
102
RTVSPropertyOp49
 70
     1
102
RTVSPropertyOp50
 70
     1
102
RTVSPropertyOp51
 70
     0
102
RTVSPropertyOp52
 70
     0
102
RTVSPropertyOp53
 70
     1
102
RTVSPropertyOp54
 70
     1
102
RTVSPropertyOp55
 70
     1
102
RTVSPropertyOp56
 70
     1
102
RTVSPropertyOp57
 70
     1
102
RTVSPropertyOp58
 70
     1
102
RTVSPropertyOp59
 70
     1
102
RTVSPropertyOp60
 70
     1
102
RTVSPropertyOp61
 70
     1
102
RTVSPropertyOp62
 70
     1
  0
XRECORD
  5
AEB2
102
{ACAD_REACTORS
330
AEB1
102
}
330
AEB1
100
AcDbXrecord
280
     1
102
RTVSPost2010Prop28
280
     0
102
RTVSPost2010PropOp28
 70
     1
102
RTVSPost2010Prop29
280
     1
102
RTVSPost2010PropOp29
 70
     1
102
RTVSPost2010Prop30
280
     1
102
RTVSPost2010PropOp30
 70
     1
102
RTVSPost2010Prop31
280
     0
102
RTVSPost2010PropOp31
 70
     1
102
RTVSPost2010Prop32
280
     0
102
RTVSPost2010PropOp32
 70
     1
102
RTVSPost2010Prop33
280
     0
102
RTVSPost2010PropOp33
 70
     1
102
RTVSPost2010Prop34
280
     0
102
RTVSPost2010PropOp34
 70
     1
102
RTVSPost2010Prop35
280
     0
102
RTVSPost2010PropOp35
 70
     1
102
RTVSPost2010Prop36
280
     0
102
RTVSPost2010PropOp36
 70
     1
102
RTVSPost2010Prop37
 90
       50
102
RTVSPost2010PropOp37
 70
     0
102
RTVSPost2010Prop38
140
0.0
102
RTVSPost2010PropOp38
 70
     0
102
RTVSPost2010Prop39
140
1.0
102
RTVSPost2010PropOp39
 70
     0
102
RTVSPost2010Prop40
 90
        0
102
RTVSPost2010PropOp40
 70
     0
102
RTVSPost2010Prop41ColorIndex
 90
       18
102
RTVSPost2010Prop41ColorRGB
 90
        0
102
RTVSPost2010PropOp41
 70
     0
102
RTVSPost2010Prop42
 90
       50
102
RTVSPost2010PropOp42
 70
     0
102
RTVSPost2010Prop43
 90
        3
102
RTVSPost2010PropOp43
 70
     0
102
RTVSPost2010Prop44ColorIndex
 90
        5
102
RTVSPost2010Prop44ColorRGB
 90
      255
102
RTVSPost2010PropOp44
 70
     0
102
RTVSPost2010Prop45
280
     0
102
RTVSPost2010PropOp45
 70
     1
102
RTVSPost2010Prop46
 90
       50
102
RTVSPost2010PropOp46
 70
     0
102
RTVSPost2010Prop47
 90
       50
102
RTVSPost2010PropOp47
 70
     0
102
RTVSPost2010Prop48
 90
       50
102
RTVSPost2010PropOp48
 70
     0
102
RTVSPost2010Prop49
280
     0
102
RTVSPost2010PropOp49
 70
     1
102
RTVSPost2010Prop50
 90
       50
102
RTVSPost2010PropOp50
 70
     0
102
RTVSPost2010Prop51ColorIndex
 90
      256
102
RTVSPost2010Prop51ColorRGB
 90
-16777216
102
RTVSPost2010PropOp51
 70
     0
102
RTVSPost2010Prop52
140
1.0
102
RTVSPost2010PropOp52
 70
     0
102
RTVSPost2010Prop53
 90
        2
102
RTVSPost2010PropOp53
 70
     0
102
RTVSPost2010Prop54
  1
strokes_ogs.tif
102
RTVSPost2010PropOp54
 70
     0
102
RTVSPost2010Prop55
280
     0
102
RTVSPost2010PropOp55
 70
     1
102
RTVSPost2010Prop56
140
1.0
102
RTVSPost2010PropOp56
 70
     0
102
RTVSPost2010Prop57
140
1.0
102
RTVSPost2010PropOp57
 70
     0
102
RTVSPropertyOp0
 70
     0
102
RTVSPropertyOp1
 70
     0
102
RTVSPropertyOp2
 70
     0
102
RTVSPropertyOp3
 70
     0
102
RTVSPropertyOp4
 70
     0
102
RTVSPropertyOp5
 70
     0
102
RTVSPropertyOp6
 70
     0
102
RTVSPropertyOp7
 70
     0
102
RTVSPropertyOp8
 70
     0
102
RTVSPropertyOp9
 70
     0
102
RTVSPropertyOp10
 70
     0
102
RTVSPropertyOp11
 70
     0
102
RTVSPropertyOp12
 70
     0
102
RTVSPropertyOp13
 70
     0
102
RTVSPropertyOp14
 70
     2
102
RTVSPropertyOp15
 70
     0
102
RTVSPropertyOp16
 70
     0
102
RTVSPropertyOp17
 70
     0
102
RTVSPropertyOp18
 70
     0
102
RTVSPropertyOp19
 70
     0
102
RTVSPropertyOp20
 70
     0
102
RTVSPropertyOp21
 70
     0
102
RTVSPropertyOp22
 70
     0
102
RTVSPropertyOp23
 70
     0
102
RTVSPropertyOp24
 70
     0
102
RTVSPropertyOp25
 70
     0
102
RTVSPropertyOp26
 70
     0
102
RTVSPropertyOp27
 70
     0
102
RTVSPropertyOp28
 70
     1
102
RTVSPropertyOp29
 70
     1
102
RTVSPropertyOp30
 70
     1
102
RTVSPropertyOp31
 70
     1
102
RTVSPropertyOp32
 70
     1
102
RTVSPropertyOp33
 70
     1
102
RTVSPropertyOp34
 70
     1
102
RTVSPropertyOp35
 70
     1
102
RTVSPropertyOp36
 70
     1
102
RTVSPropertyOp37
 70
     0
102
RTVSPropertyOp38
 70
     0
102
RTVSPropertyOp39
 70
     0
102
RTVSPropertyOp40
 70
     0
102
RTVSPropertyOp41
 70
     0
102
RTVSPropertyOp42
 70
     0
102
RTVSPropertyOp43
 70
     0
102
RTVSPropertyOp44
 70
     0
102
RTVSPropertyOp45
 70
     1
102
RTVSPropertyOp46
 70
     0
102
RTVSPropertyOp47
 70
     0
102
RTVSPropertyOp48
 70
     0
102
RTVSPropertyOp49
 70
     1
102
RTVSPropertyOp50
 70
     0
102
RTVSPropertyOp51
 70
     0
102
RTVSPropertyOp52
 70
     0
102
RTVSPropertyOp53
 70
     0
102
RTVSPropertyOp54
 70
     0
102
RTVSPropertyOp55
 70
     1
102
RTVSPropertyOp56
 70
     0
102
RTVSPropertyOp57
 70
     0
102
RTVSPropertyOp58
 70
     0
102
RTVSPropertyOp59
 70
     0
102
RTVSPropertyOp60
 70
     0
102
RTVSPropertyOp61
 70
     0
102
RTVSPropertyOp62
 70
     0
  0
XRECORD
  5
AE98
102
{ACAD_REACTORS
330
AE97
102
}
330
AE97
100
AcDbXrecord
280
     1
102
RTVSPost2010Prop28
280
     0
102
RTVSPost2010PropOp28
 70
     1
102
RTVSPost2010Prop29
280
     1
102
RTVSPost2010PropOp29
 70
     1
102
RTVSPost2010Prop30
280
     1
102
RTVSPost2010PropOp30
 70
     1
102
RTVSPost2010Prop31
280
     0
102
RTVSPost2010PropOp31
 70
     1
102
RTVSPost2010Prop32
280
     0
102
RTVSPost2010PropOp32
 70
     1
102
RTVSPost2010Prop33
280
     0
102
RTVSPost2010PropOp33
 70
     1
102
RTVSPost2010Prop34
280
     0
102
RTVSPost2010PropOp34
 70
     1
102
RTVSPost2010Prop35
280
     0
102
RTVSPost2010PropOp35
 70
     1
102
RTVSPost2010Prop36
280
     0
102
RTVSPost2010PropOp36
 70
     1
102
RTVSPost2010Prop37
 90
       50
102
RTVSPost2010PropOp37
 70
     1
102
RTVSPost2010Prop38
140
0.0
102
RTVSPost2010PropOp38
 70
     1
102
RTVSPost2010Prop39
140
1.0
102
RTVSPost2010PropOp39
 70
     1
102
RTVSPost2010Prop40
 90
        0
102
RTVSPost2010PropOp40
 70
     1
102
RTVSPost2010Prop41ColorIndex
 90
       18
102
RTVSPost2010Prop41ColorRGB
 90
        0
102
RTVSPost2010PropOp41
 70
     1
102
RTVSPost2010Prop42
 90
       50
102
RTVSPost2010PropOp42
 70
     1
102
RTVSPost2010Prop43
 90
        3
102
RTVSPost2010PropOp43
 70
     1
102
RTVSPost2010Prop44ColorIndex
 90
        5
102
RTVSPost2010Prop44ColorRGB
 90
      255
102
RTVSPost2010PropOp44
 70
     1
102
RTVSPost2010Prop45
280
     0
102
RTVSPost2010PropOp45
 70
     1
102
RTVSPost2010Prop46
 90
       50
102
RTVSPost2010PropOp46
 70
     1
102
RTVSPost2010Prop47
 90
       50
102
RTVSPost2010PropOp47
 70
     1
102
RTVSPost2010Prop48
 90
       50
102
RTVSPost2010PropOp48
 70
     1
102
RTVSPost2010Prop49
280
     0
102
RTVSPost2010PropOp49
 70
     1
102
RTVSPost2010Prop50
 90
       50
102
RTVSPost2010PropOp50
 70
     1
102
RTVSPost2010Prop51ColorIndex
 90
      256
102
RTVSPost2010Prop51ColorRGB
 90
-16777216
102
RTVSPost2010PropOp51
 70
     0
102
RTVSPost2010Prop52
140
1.0
102
RTVSPost2010PropOp52
 70
     0
102
RTVSPost2010Prop53
 90
        2
102
RTVSPost2010PropOp53
 70
     1
102
RTVSPost2010Prop54
  1
strokes_ogs.tif
102
RTVSPost2010PropOp54
 70
     1
102
RTVSPost2010Prop55
280
     0
102
RTVSPost2010PropOp55
 70
     1
102
RTVSPost2010Prop56
140
1.0
102
RTVSPost2010PropOp56
 70
     1
102
RTVSPost2010Prop57
140
1.0
102
RTVSPost2010PropOp57
 70
     1
102
RTVSPropertyOp0
 70
     1
102
RTVSPropertyOp1
 70
     1
102
RTVSPropertyOp2
 70
     1
102
RTVSPropertyOp3
 70
     1
102
RTVSPropertyOp4
 70
     1
102
RTVSPropertyOp5
 70
     1
102
RTVSPropertyOp6
 70
     1
102
RTVSPropertyOp7
 70
     1
102
RTVSPropertyOp8
 70
     1
102
RTVSPropertyOp9
 70
     1
102
RTVSPropertyOp10
 70
     1
102
RTVSPropertyOp11
 70
     1
102
RTVSPropertyOp12
 70
     1
102
RTVSPropertyOp13
 70
     1
102
RTVSPropertyOp14
 70
     1
102
RTVSPropertyOp15
 70
     1
102
RTVSPropertyOp16
 70
     1
102
RTVSPropertyOp17
 70
     1
102
RTVSPropertyOp18
 70
     1
102
RTVSPropertyOp19
 70
     1
102
RTVSPropertyOp20
 70
     1
102
RTVSPropertyOp21
 70
     1
102
RTVSPropertyOp22
 70
     1
102
RTVSPropertyOp23
 70
     1
102
RTVSPropertyOp24
 70
     1
102
RTVSPropertyOp25
 70
     1
102
RTVSPropertyOp26
 70
     1
102
RTVSPropertyOp27
 70
     1
102
RTVSPropertyOp28
 70
     1
102
RTVSPropertyOp29
 70
     1
102
RTVSPropertyOp30
 70
     1
102
RTVSPropertyOp31
 70
     1
102
RTVSPropertyOp32
 70
     1
102
RTVSPropertyOp33
 70
     1
102
RTVSPropertyOp34
 70
     1
102
RTVSPropertyOp35
 70
     1
102
RTVSPropertyOp36
 70
     1
102
RTVSPropertyOp37
 70
     1
102
RTVSPropertyOp38
 70
     1
102
RTVSPropertyOp39
 70
     1
102
RTVSPropertyOp40
 70
     1
102
RTVSPropertyOp41
 70
     1
102
RTVSPropertyOp42
 70
     1
102
RTVSPropertyOp43
 70
     1
102
RTVSPropertyOp44
 70
     1
102
RTVSPropertyOp45
 70
     1
102
RTVSPropertyOp46
 70
     1
102
RTVSPropertyOp47
 70
     1
102
RTVSPropertyOp48
 70
     1
102
RTVSPropertyOp49
 70
     1
102
RTVSPropertyOp50
 70
     1
102
RTVSPropertyOp51
 70
     0
102
RTVSPropertyOp52
 70
     0
102
RTVSPropertyOp53
 70
     1
102
RTVSPropertyOp54
 70
     1
102
RTVSPropertyOp55
 70
     1
102
RTVSPropertyOp56
 70
     1
102
RTVSPropertyOp57
 70
     1
102
RTVSPropertyOp58
 70
     1
102
RTVSPropertyOp59
 70
     1
102
RTVSPropertyOp60
 70
     1
102
RTVSPropertyOp61
 70
     1
102
RTVSPropertyOp62
 70
     1
  0
XRECORD
  5
AEAE
102
{ACAD_REACTORS
330
AEAD
102
}
330
AEAD
100
AcDbXrecord
280
     1
102
RTVSPost2010Prop28
280
     0
102
RTVSPost2010PropOp28
 70
     1
102
RTVSPost2010Prop29
280
     1
102
RTVSPost2010PropOp29
 70
     1
102
RTVSPost2010Prop30
280
     1
102
RTVSPost2010PropOp30
 70
     1
102
RTVSPost2010Prop31
280
     0
102
RTVSPost2010PropOp31
 70
     1
102
RTVSPost2010Prop32
280
     0
102
RTVSPost2010PropOp32
 70
     1
102
RTVSPost2010Prop33
280
     0
102
RTVSPost2010PropOp33
 70
     1
102
RTVSPost2010Prop34
280
     0
102
RTVSPost2010PropOp34
 70
     1
102
RTVSPost2010Prop35
280
     0
102
RTVSPost2010PropOp35
 70
     1
102
RTVSPost2010Prop36
280
     0
102
RTVSPost2010PropOp36
 70
     1
102
RTVSPost2010Prop37
 90
       50
102
RTVSPost2010PropOp37
 70
     1
102
RTVSPost2010Prop38
140
0.0
102
RTVSPost2010PropOp38
 70
     1
102
RTVSPost2010Prop39
140
1.0
102
RTVSPost2010PropOp39
 70
     1
102
RTVSPost2010Prop40
 90
        0
102
RTVSPost2010PropOp40
 70
     1
102
RTVSPost2010Prop41ColorIndex
 90
       18
102
RTVSPost2010Prop41ColorRGB
 90
        0
102
RTVSPost2010PropOp41
 70
     1
102
RTVSPost2010Prop42
 90
       50
102
RTVSPost2010PropOp42
 70
     1
102
RTVSPost2010Prop43
 90
        3
102
RTVSPost2010PropOp43
 70
     1
102
RTVSPost2010Prop44ColorIndex
 90
        5
102
RTVSPost2010Prop44ColorRGB
 90
      255
102
RTVSPost2010PropOp44
 70
     1
102
RTVSPost2010Prop45
280
     0
102
RTVSPost2010PropOp45
 70
     1
102
RTVSPost2010Prop46
 90
       50
102
RTVSPost2010PropOp46
 70
     1
102
RTVSPost2010Prop47
 90
       50
102
RTVSPost2010PropOp47
 70
     1
102
RTVSPost2010Prop48
 90
       50
102
RTVSPost2010PropOp48
 70
     1
102
RTVSPost2010Prop49
280
     0
102
RTVSPost2010PropOp49
 70
     1
102
RTVSPost2010Prop50
 90
       50
102
RTVSPost2010PropOp50
 70
     1
102
RTVSPost2010Prop51ColorIndex
 90
      256
102
RTVSPost2010Prop51ColorRGB
 90
-16777216
102
RTVSPost2010PropOp51
 70
     0
102
RTVSPost2010Prop52
140
1.0
102
RTVSPost2010PropOp52
 70
     0
102
RTVSPost2010Prop53
 90
        2
102
RTVSPost2010PropOp53
 70
     1
102
RTVSPost2010Prop54
  1
strokes_ogs.tif
102
RTVSPost2010PropOp54
 70
     1
102
RTVSPost2010Prop55
280
     0
102
RTVSPost2010PropOp55
 70
     1
102
RTVSPost2010Prop56
140
1.0
102
RTVSPost2010PropOp56
 70
     1
102
RTVSPost2010Prop57
140
1.0
102
RTVSPost2010PropOp57
 70
     1
102
RTVSPropertyOp0
 70
     1
102
RTVSPropertyOp1
 70
     1
102
RTVSPropertyOp2
 70
     1
102
RTVSPropertyOp3
 70
     1
102
RTVSPropertyOp4
 70
     1
102
RTVSPropertyOp5
 70
     1
102
RTVSPropertyOp6
 70
     1
102
RTVSPropertyOp7
 70
     1
102
RTVSPropertyOp8
 70
     1
102
RTVSPropertyOp9
 70
     1
102
RTVSPropertyOp10
 70
     1
102
RTVSPropertyOp11
 70
     1
102
RTVSPropertyOp12
 70
     1
102
RTVSPropertyOp13
 70
     1
102
RTVSPropertyOp14
 70
     1
102
RTVSPropertyOp15
 70
     1
102
RTVSPropertyOp16
 70
     1
102
RTVSPropertyOp17
 70
     1
102
RTVSPropertyOp18
 70
     1
102
RTVSPropertyOp19
 70
     1
102
RTVSPropertyOp20
 70
     1
102
RTVSPropertyOp21
 70
     1
102
RTVSPropertyOp22
 70
     1
102
RTVSPropertyOp23
 70
     1
102
RTVSPropertyOp24
 70
     1
102
RTVSPropertyOp25
 70
     1
102
RTVSPropertyOp26
 70
     1
102
RTVSPropertyOp27
 70
     1
102
RTVSPropertyOp28
 70
     1
102
RTVSPropertyOp29
 70
     1
102
RTVSPropertyOp30
 70
     1
102
RTVSPropertyOp31
 70
     1
102
RTVSPropertyOp32
 70
     1
102
RTVSPropertyOp33
 70
     1
102
RTVSPropertyOp34
 70
     1
102
RTVSPropertyOp35
 70
     1
102
RTVSPropertyOp36
 70
     1
102
RTVSPropertyOp37
 70
     1
102
RTVSPropertyOp38
 70
     1
102
RTVSPropertyOp39
 70
     1
102
RTVSPropertyOp40
 70
     1
102
RTVSPropertyOp41
 70
     1
102
RTVSPropertyOp42
 70
     1
102
RTVSPropertyOp43
 70
     1
102
RTVSPropertyOp44
 70
     1
102
RTVSPropertyOp45
 70
     1
102
RTVSPropertyOp46
 70
     1
102
RTVSPropertyOp47
 70
     1
102
RTVSPropertyOp48
 70
     1
102
RTVSPropertyOp49
 70
     1
102
RTVSPropertyOp50
 70
     1
102
RTVSPropertyOp51
 70
     0
102
RTVSPropertyOp52
 70
     0
102
RTVSPropertyOp53
 70
     1
102
RTVSPropertyOp54
 70
     1
102
RTVSPropertyOp55
 70
     1
102
RTVSPropertyOp56
 70
     1
102
RTVSPropertyOp57
 70
     1
102
RTVSPropertyOp58
 70
     1
102
RTVSPropertyOp59
 70
     1
102
RTVSPropertyOp60
 70
     1
102
RTVSPropertyOp61
 70
     1
102
RTVSPropertyOp62
 70
     1
  0
XRECORD
  5
AEAC
102
{ACAD_REACTORS
330
AEAB
102
}
330
AEAB
100
AcDbXrecord
280
     1
102
RTVSPost2010Prop28
280
     0
102
RTVSPost2010PropOp28
 70
     1
102
RTVSPost2010Prop29
280
     1
102
RTVSPost2010PropOp29
 70
     1
102
RTVSPost2010Prop30
280
     1
102
RTVSPost2010PropOp30
 70
     1
102
RTVSPost2010Prop31
280
     0
102
RTVSPost2010PropOp31
 70
     1
102
RTVSPost2010Prop32
280
     0
102
RTVSPost2010PropOp32
 70
     1
102
RTVSPost2010Prop33
280
     0
102
RTVSPost2010PropOp33
 70
     1
102
RTVSPost2010Prop34
280
     0
102
RTVSPost2010PropOp34
 70
     1
102
RTVSPost2010Prop35
280
     0
102
RTVSPost2010PropOp35
 70
     1
102
RTVSPost2010Prop36
280
     0
102
RTVSPost2010PropOp36
 70
     1
102
RTVSPost2010Prop37
 90
       50
102
RTVSPost2010PropOp37
 70
     1
102
RTVSPost2010Prop38
140
0.0
102
RTVSPost2010PropOp38
 70
     1
102
RTVSPost2010Prop39
140
1.0
102
RTVSPost2010PropOp39
 70
     1
102
RTVSPost2010Prop40
 90
        0
102
RTVSPost2010PropOp40
 70
     1
102
RTVSPost2010Prop41ColorIndex
 90
       18
102
RTVSPost2010Prop41ColorRGB
 90
        0
102
RTVSPost2010PropOp41
 70
     1
102
RTVSPost2010Prop42
 90
       50
102
RTVSPost2010PropOp42
 70
     1
102
RTVSPost2010Prop43
 90
        3
102
RTVSPost2010PropOp43
 70
     1
102
RTVSPost2010Prop44ColorIndex
 90
        5
102
RTVSPost2010Prop44ColorRGB
 90
      255
102
RTVSPost2010PropOp44
 70
     1
102
RTVSPost2010Prop45
280
     0
102
RTVSPost2010PropOp45
 70
     1
102
RTVSPost2010Prop46
 90
       50
102
RTVSPost2010PropOp46
 70
     1
102
RTVSPost2010Prop47
 90
       50
102
RTVSPost2010PropOp47
 70
     1
102
RTVSPost2010Prop48
 90
       50
102
RTVSPost2010PropOp48
 70
     1
102
RTVSPost2010Prop49
280
     0
102
RTVSPost2010PropOp49
 70
     1
102
RTVSPost2010Prop50
 90
       50
102
RTVSPost2010PropOp50
 70
     1
102
RTVSPost2010Prop51ColorIndex
 90
      256
102
RTVSPost2010Prop51ColorRGB
 90
-16777216
102
RTVSPost2010PropOp51
 70
     0
102
RTVSPost2010Prop52
140
1.0
102
RTVSPost2010PropOp52
 70
     0
102
RTVSPost2010Prop53
 90
        2
102
RTVSPost2010PropOp53
 70
     1
102
RTVSPost2010Prop54
  1
strokes_ogs.tif
102
RTVSPost2010PropOp54
 70
     1
102
RTVSPost2010Prop55
280
     0
102
RTVSPost2010PropOp55
 70
     1
102
RTVSPost2010Prop56
140
1.0
102
RTVSPost2010PropOp56
 70
     1
102
RTVSPost2010Prop57
140
1.0
102
RTVSPost2010PropOp57
 70
     1
102
RTVSPropertyOp0
 70
     1
102
RTVSPropertyOp1
 70
     1
102
RTVSPropertyOp2
 70
     1
102
RTVSPropertyOp3
 70
     1
102
RTVSPropertyOp4
 70
     1
102
RTVSPropertyOp5
 70
     1
102
RTVSPropertyOp6
 70
     1
102
RTVSPropertyOp7
 70
     1
102
RTVSPropertyOp8
 70
     1
102
RTVSPropertyOp9
 70
     1
102
RTVSPropertyOp10
 70
     1
102
RTVSPropertyOp11
 70
     1
102
RTVSPropertyOp12
 70
     1
102
RTVSPropertyOp13
 70
     1
102
RTVSPropertyOp14
 70
     1
102
RTVSPropertyOp15
 70
     1
102
RTVSPropertyOp16
 70
     1
102
RTVSPropertyOp17
 70
     1
102
RTVSPropertyOp18
 70
     1
102
RTVSPropertyOp19
 70
     1
102
RTVSPropertyOp20
 70
     1
102
RTVSPropertyOp21
 70
     1
102
RTVSPropertyOp22
 70
     1
102
RTVSPropertyOp23
 70
     1
102
RTVSPropertyOp24
 70
     1
102
RTVSPropertyOp25
 70
     1
102
RTVSPropertyOp26
 70
     1
102
RTVSPropertyOp27
 70
     1
102
RTVSPropertyOp28
 70
     1
102
RTVSPropertyOp29
 70
     1
102
RTVSPropertyOp30
 70
     1
102
RTVSPropertyOp31
 70
     1
102
RTVSPropertyOp32
 70
     1
102
RTVSPropertyOp33
 70
     1
102
RTVSPropertyOp34
 70
     1
102
RTVSPropertyOp35
 70
     1
102
RTVSPropertyOp36
 70
     1
102
RTVSPropertyOp37
 70
     1
102
RTVSPropertyOp38
 70
     1
102
RTVSPropertyOp39
 70
     1
102
RTVSPropertyOp40
 70
     1
102
RTVSPropertyOp41
 70
     1
102
RTVSPropertyOp42
 70
     1
102
RTVSPropertyOp43
 70
     1
102
RTVSPropertyOp44
 70
     1
102
RTVSPropertyOp45
 70
     1
102
RTVSPropertyOp46
 70
     1
102
RTVSPropertyOp47
 70
     1
102
RTVSPropertyOp48
 70
     1
102
RTVSPropertyOp49
 70
     1
102
RTVSPropertyOp50
 70
     1
102
RTVSPropertyOp51
 70
     0
102
RTVSPropertyOp52
 70
     0
102
RTVSPropertyOp53
 70
     1
102
RTVSPropertyOp54
 70
     1
102
RTVSPropertyOp55
 70
     1
102
RTVSPropertyOp56
 70
     1
102
RTVSPropertyOp57
 70
     1
102
RTVSPropertyOp58
 70
     1
102
RTVSPropertyOp59
 70
     1
102
RTVSPropertyOp60
 70
     1
102
RTVSPropertyOp61
 70
     1
102
RTVSPropertyOp62
 70
     1
  0
XRECORD
  5
AEA6
102
{ACAD_REACTORS
330
AEA5
102
}
330
AEA5
100
AcDbXrecord
280
     1
102
RTVSPost2010Prop28
280
     0
102
RTVSPost2010PropOp28
 70
     1
102
RTVSPost2010Prop29
280
     1
102
RTVSPost2010PropOp29
 70
     1
102
RTVSPost2010Prop30
280
     1
102
RTVSPost2010PropOp30
 70
     1
102
RTVSPost2010Prop31
280
     0
102
RTVSPost2010PropOp31
 70
     1
102
RTVSPost2010Prop32
280
     0
102
RTVSPost2010PropOp32
 70
     1
102
RTVSPost2010Prop33
280
     0
102
RTVSPost2010PropOp33
 70
     1
102
RTVSPost2010Prop34
280
     0
102
RTVSPost2010PropOp34
 70
     1
102
RTVSPost2010Prop35
280
     0
102
RTVSPost2010PropOp35
 70
     1
102
RTVSPost2010Prop36
280
     0
102
RTVSPost2010PropOp36
 70
     1
102
RTVSPost2010Prop37
 90
       50
102
RTVSPost2010PropOp37
 70
     1
102
RTVSPost2010Prop38
140
0.0
102
RTVSPost2010PropOp38
 70
     1
102
RTVSPost2010Prop39
140
1.0
102
RTVSPost2010PropOp39
 70
     1
102
RTVSPost2010Prop40
 90
        0
102
RTVSPost2010PropOp40
 70
     1
102
RTVSPost2010Prop41ColorIndex
 90
       18
102
RTVSPost2010Prop41ColorRGB
 90
        0
102
RTVSPost2010PropOp41
 70
     1
102
RTVSPost2010Prop42
 90
       50
102
RTVSPost2010PropOp42
 70
     1
102
RTVSPost2010Prop43
 90
        3
102
RTVSPost2010PropOp43
 70
     1
102
RTVSPost2010Prop44ColorIndex
 90
        5
102
RTVSPost2010Prop44ColorRGB
 90
      255
102
RTVSPost2010PropOp44
 70
     1
102
RTVSPost2010Prop45
280
     0
102
RTVSPost2010PropOp45
 70
     1
102
RTVSPost2010Prop46
 90
       50
102
RTVSPost2010PropOp46
 70
     1
102
RTVSPost2010Prop47
 90
       50
102
RTVSPost2010PropOp47
 70
     1
102
RTVSPost2010Prop48
 90
       50
102
RTVSPost2010PropOp48
 70
     1
102
RTVSPost2010Prop49
280
     0
102
RTVSPost2010PropOp49
 70
     1
102
RTVSPost2010Prop50
 90
       50
102
RTVSPost2010PropOp50
 70
     1
102
RTVSPost2010Prop51ColorIndex
 90
      256
102
RTVSPost2010Prop51ColorRGB
 90
-16777216
102
RTVSPost2010PropOp51
 70
     0
102
RTVSPost2010Prop52
140
1.0
102
RTVSPost2010PropOp52
 70
     0
102
RTVSPost2010Prop53
 90
        2
102
RTVSPost2010PropOp53
 70
     1
102
RTVSPost2010Prop54
  1
strokes_ogs.tif
102
RTVSPost2010PropOp54
 70
     1
102
RTVSPost2010Prop55
280
     0
102
RTVSPost2010PropOp55
 70
     1
102
RTVSPost2010Prop56
140
1.0
102
RTVSPost2010PropOp56
 70
     1
102
RTVSPost2010Prop57
140
1.0
102
RTVSPost2010PropOp57
 70
     1
102
RTVSPropertyOp0
 70
     1
102
RTVSPropertyOp1
 70
     1
102
RTVSPropertyOp2
 70
     1
102
RTVSPropertyOp3
 70
     1
102
RTVSPropertyOp4
 70
     1
102
RTVSPropertyOp5
 70
     1
102
RTVSPropertyOp6
 70
     1
102
RTVSPropertyOp7
 70
     1
102
RTVSPropertyOp8
 70
     1
102
RTVSPropertyOp9
 70
     1
102
RTVSPropertyOp10
 70
     1
102
RTVSPropertyOp11
 70
     1
102
RTVSPropertyOp12
 70
     1
102
RTVSPropertyOp13
 70
     1
102
RTVSPropertyOp14
 70
     1
102
RTVSPropertyOp15
 70
     1
102
RTVSPropertyOp16
 70
     1
102
RTVSPropertyOp17
 70
     1
102
RTVSPropertyOp18
 70
     1
102
RTVSPropertyOp19
 70
     1
102
RTVSPropertyOp20
 70
     1
102
RTVSPropertyOp21
 70
     1
102
RTVSPropertyOp22
 70
     1
102
RTVSPropertyOp23
 70
     1
102
RTVSPropertyOp24
 70
     1
102
RTVSPropertyOp25
 70
     1
102
RTVSPropertyOp26
 70
     1
102
RTVSPropertyOp27
 70
     1
102
RTVSPropertyOp28
 70
     1
102
RTVSPropertyOp29
 70
     1
102
RTVSPropertyOp30
 70
     1
102
RTVSPropertyOp31
 70
     1
102
RTVSPropertyOp32
 70
     1
102
RTVSPropertyOp33
 70
     1
102
RTVSPropertyOp34
 70
     1
102
RTVSPropertyOp35
 70
     1
102
RTVSPropertyOp36
 70
     1
102
RTVSPropertyOp37
 70
     1
102
RTVSPropertyOp38
 70
     1
102
RTVSPropertyOp39
 70
     1
102
RTVSPropertyOp40
 70
     1
102
RTVSPropertyOp41
 70
     1
102
RTVSPropertyOp42
 70
     1
102
RTVSPropertyOp43
 70
     1
102
RTVSPropertyOp44
 70
     1
102
RTVSPropertyOp45
 70
     1
102
RTVSPropertyOp46
 70
     1
102
RTVSPropertyOp47
 70
     1
102
RTVSPropertyOp48
 70
     1
102
RTVSPropertyOp49
 70
     1
102
RTVSPropertyOp50
 70
     1
102
RTVSPropertyOp51
 70
     0
102
RTVSPropertyOp52
 70
     0
102
RTVSPropertyOp53
 70
     1
102
RTVSPropertyOp54
 70
     1
102
RTVSPropertyOp55
 70
     1
102
RTVSPropertyOp56
 70
     1
102
RTVSPropertyOp57
 70
     1
102
RTVSPropertyOp58
 70
     1
102
RTVSPropertyOp59
 70
     1
102
RTVSPropertyOp60
 70
     1
102
RTVSPropertyOp61
 70
     1
102
RTVSPropertyOp62
 70
     1
  0
XRECORD
  5
AEA8
102
{ACAD_REACTORS
330
AEA7
102
}
330
AEA7
100
AcDbXrecord
280
     1
102
RTVSPost2010Prop28
280
     0
102
RTVSPost2010PropOp28
 70
     1
102
RTVSPost2010Prop29
280
     1
102
RTVSPost2010PropOp29
 70
     1
102
RTVSPost2010Prop30
280
     1
102
RTVSPost2010PropOp30
 70
     1
102
RTVSPost2010Prop31
280
     0
102
RTVSPost2010PropOp31
 70
     1
102
RTVSPost2010Prop32
280
     0
102
RTVSPost2010PropOp32
 70
     1
102
RTVSPost2010Prop33
280
     0
102
RTVSPost2010PropOp33
 70
     1
102
RTVSPost2010Prop34
280
     0
102
RTVSPost2010PropOp34
 70
     1
102
RTVSPost2010Prop35
280
     0
102
RTVSPost2010PropOp35
 70
     1
102
RTVSPost2010Prop36
280
     0
102
RTVSPost2010PropOp36
 70
     1
102
RTVSPost2010Prop37
 90
       50
102
RTVSPost2010PropOp37
 70
     1
102
RTVSPost2010Prop38
140
0.0
102
RTVSPost2010PropOp38
 70
     1
102
RTVSPost2010Prop39
140
1.0
102
RTVSPost2010PropOp39
 70
     1
102
RTVSPost2010Prop40
 90
        0
102
RTVSPost2010PropOp40
 70
     1
102
RTVSPost2010Prop41ColorIndex
 90
       18
102
RTVSPost2010Prop41ColorRGB
 90
        0
102
RTVSPost2010PropOp41
 70
     1
102
RTVSPost2010Prop42
 90
       50
102
RTVSPost2010PropOp42
 70
     1
102
RTVSPost2010Prop43
 90
        3
102
RTVSPost2010PropOp43
 70
     1
102
RTVSPost2010Prop44ColorIndex
 90
        5
102
RTVSPost2010Prop44ColorRGB
 90
      255
102
RTVSPost2010PropOp44
 70
     1
102
RTVSPost2010Prop45
280
     0
102
RTVSPost2010PropOp45
 70
     1
102
RTVSPost2010Prop46
 90
       50
102
RTVSPost2010PropOp46
 70
     1
102
RTVSPost2010Prop47
 90
       50
102
RTVSPost2010PropOp47
 70
     1
102
RTVSPost2010Prop48
 90
       50
102
RTVSPost2010PropOp48
 70
     1
102
RTVSPost2010Prop49
280
     0
102
RTVSPost2010PropOp49
 70
     1
102
RTVSPost2010Prop50
 90
       50
102
RTVSPost2010PropOp50
 70
     1
102
RTVSPost2010Prop51ColorIndex
 90
      256
102
RTVSPost2010Prop51ColorRGB
 90
-16777216
102
RTVSPost2010PropOp51
 70
     0
102
RTVSPost2010Prop52
140
1.0
102
RTVSPost2010PropOp52
 70
     0
102
RTVSPost2010Prop53
 90
        2
102
RTVSPost2010PropOp53
 70
     1
102
RTVSPost2010Prop54
  1
strokes_ogs.tif
102
RTVSPost2010PropOp54
 70
     1
102
RTVSPost2010Prop55
280
     0
102
RTVSPost2010PropOp55
 70
     1
102
RTVSPost2010Prop56
140
1.0
102
RTVSPost2010PropOp56
 70
     1
102
RTVSPost2010Prop57
140
1.0
102
RTVSPost2010PropOp57
 70
     1
102
RTVSPropertyOp0
 70
     1
102
RTVSPropertyOp1
 70
     1
102
RTVSPropertyOp2
 70
     1
102
RTVSPropertyOp3
 70
     1
102
RTVSPropertyOp4
 70
     1
102
RTVSPropertyOp5
 70
     1
102
RTVSPropertyOp6
 70
     1
102
RTVSPropertyOp7
 70
     1
102
RTVSPropertyOp8
 70
     1
102
RTVSPropertyOp9
 70
     1
102
RTVSPropertyOp10
 70
     1
102
RTVSPropertyOp11
 70
     1
102
RTVSPropertyOp12
 70
     1
102
RTVSPropertyOp13
 70
     1
102
RTVSPropertyOp14
 70
     1
102
RTVSPropertyOp15
 70
     1
102
RTVSPropertyOp16
 70
     1
102
RTVSPropertyOp17
 70
     1
102
RTVSPropertyOp18
 70
     1
102
RTVSPropertyOp19
 70
     1
102
RTVSPropertyOp20
 70
     1
102
RTVSPropertyOp21
 70
     1
102
RTVSPropertyOp22
 70
     1
102
RTVSPropertyOp23
 70
     1
102
RTVSPropertyOp24
 70
     1
102
RTVSPropertyOp25
 70
     1
102
RTVSPropertyOp26
 70
     1
102
RTVSPropertyOp27
 70
     1
102
RTVSPropertyOp28
 70
     1
102
RTVSPropertyOp29
 70
     1
102
RTVSPropertyOp30
 70
     1
102
RTVSPropertyOp31
 70
     1
102
RTVSPropertyOp32
 70
     1
102
RTVSPropertyOp33
 70
     1
102
RTVSPropertyOp34
 70
     1
102
RTVSPropertyOp35
 70
     1
102
RTVSPropertyOp36
 70
     1
102
RTVSPropertyOp37
 70
     1
102
RTVSPropertyOp38
 70
     1
102
RTVSPropertyOp39
 70
     1
102
RTVSPropertyOp40
 70
     1
102
RTVSPropertyOp41
 70
     1
102
RTVSPropertyOp42
 70
     1
102
RTVSPropertyOp43
 70
     1
102
RTVSPropertyOp44
 70
     1
102
RTVSPropertyOp45
 70
     1
102
RTVSPropertyOp46
 70
     1
102
RTVSPropertyOp47
 70
     1
102
RTVSPropertyOp48
 70
     1
102
RTVSPropertyOp49
 70
     1
102
RTVSPropertyOp50
 70
     1
102
RTVSPropertyOp51
 70
     0
102
RTVSPropertyOp52
 70
     0
102
RTVSPropertyOp53
 70
     1
102
RTVSPropertyOp54
 70
     1
102
RTVSPropertyOp55
 70
     1
102
RTVSPropertyOp56
 70
     1
102
RTVSPropertyOp57
 70
     1
102
RTVSPropertyOp58
 70
     1
102
RTVSPropertyOp59
 70
     1
102
RTVSPropertyOp60
 70
     1
102
RTVSPropertyOp61
 70
     1
102
RTVSPropertyOp62
 70
     1
  0
XRECORD
  5
AE9E
102
{ACAD_REACTORS
330
AE9D
102
}
330
AE9D
100
AcDbXrecord
280
     1
102
RTVSPost2010Prop28
280
     0
102
RTVSPost2010PropOp28
 70
     1
102
RTVSPost2010Prop29
280
     1
102
RTVSPost2010PropOp29
 70
     1
102
RTVSPost2010Prop30
280
     1
102
RTVSPost2010PropOp30
 70
     1
102
RTVSPost2010Prop31
280
     0
102
RTVSPost2010PropOp31
 70
     1
102
RTVSPost2010Prop32
280
     0
102
RTVSPost2010PropOp32
 70
     1
102
RTVSPost2010Prop33
280
     0
102
RTVSPost2010PropOp33
 70
     1
102
RTVSPost2010Prop34
280
     0
102
RTVSPost2010PropOp34
 70
     1
102
RTVSPost2010Prop35
280
     0
102
RTVSPost2010PropOp35
 70
     1
102
RTVSPost2010Prop36
280
     0
102
RTVSPost2010PropOp36
 70
     1
102
RTVSPost2010Prop37
 90
       50
102
RTVSPost2010PropOp37
 70
     1
102
RTVSPost2010Prop38
140
0.0
102
RTVSPost2010PropOp38
 70
     1
102
RTVSPost2010Prop39
140
1.0
102
RTVSPost2010PropOp39
 70
     1
102
RTVSPost2010Prop40
 90
        0
102
RTVSPost2010PropOp40
 70
     1
102
RTVSPost2010Prop41ColorIndex
 90
       18
102
RTVSPost2010Prop41ColorRGB
 90
        0
102
RTVSPost2010PropOp41
 70
     1
102
RTVSPost2010Prop42
 90
       50
102
RTVSPost2010PropOp42
 70
     1
102
RTVSPost2010Prop43
 90
        3
102
RTVSPost2010PropOp43
 70
     1
102
RTVSPost2010Prop44ColorIndex
 90
        5
102
RTVSPost2010Prop44ColorRGB
 90
      255
102
RTVSPost2010PropOp44
 70
     1
102
RTVSPost2010Prop45
280
     0
102
RTVSPost2010PropOp45
 70
     1
102
RTVSPost2010Prop46
 90
       50
102
RTVSPost2010PropOp46
 70
     1
102
RTVSPost2010Prop47
 90
       50
102
RTVSPost2010PropOp47
 70
     1
102
RTVSPost2010Prop48
 90
       50
102
RTVSPost2010PropOp48
 70
     1
102
RTVSPost2010Prop49
280
     0
102
RTVSPost2010PropOp49
 70
     1
102
RTVSPost2010Prop50
 90
       50
102
RTVSPost2010PropOp50
 70
     1
102
RTVSPost2010Prop51ColorIndex
 90
      256
102
RTVSPost2010Prop51ColorRGB
 90
-16777216
102
RTVSPost2010PropOp51
 70
     0
102
RTVSPost2010Prop52
140
1.0
102
RTVSPost2010PropOp52
 70
     0
102
RTVSPost2010Prop53
 90
        2
102
RTVSPost2010PropOp53
 70
     1
102
RTVSPost2010Prop54
  1
strokes_ogs.tif
102
RTVSPost2010PropOp54
 70
     1
102
RTVSPost2010Prop55
280
     0
102
RTVSPost2010PropOp55
 70
     1
102
RTVSPost2010Prop56
140
1.0
102
RTVSPost2010PropOp56
 70
     1
102
RTVSPost2010Prop57
140
1.0
102
RTVSPost2010PropOp57
 70
     1
102
RTVSPropertyOp0
 70
     1
102
RTVSPropertyOp1
 70
     1
102
RTVSPropertyOp2
 70
     1
102
RTVSPropertyOp3
 70
     1
102
RTVSPropertyOp4
 70
     1
102
RTVSPropertyOp5
 70
     1
102
RTVSPropertyOp6
 70
     1
102
RTVSPropertyOp7
 70
     1
102
RTVSPropertyOp8
 70
     1
102
RTVSPropertyOp9
 70
     1
102
RTVSPropertyOp10
 70
     1
102
RTVSPropertyOp11
 70
     1
102
RTVSPropertyOp12
 70
     1
102
RTVSPropertyOp13
 70
     1
102
RTVSPropertyOp14
 70
     1
102
RTVSPropertyOp15
 70
     1
102
RTVSPropertyOp16
 70
     1
102
RTVSPropertyOp17
 70
     1
102
RTVSPropertyOp18
 70
     1
102
RTVSPropertyOp19
 70
     1
102
RTVSPropertyOp20
 70
     1
102
RTVSPropertyOp21
 70
     1
102
RTVSPropertyOp22
 70
     1
102
RTVSPropertyOp23
 70
     1
102
RTVSPropertyOp24
 70
     1
102
RTVSPropertyOp25
 70
     1
102
RTVSPropertyOp26
 70
     1
102
RTVSPropertyOp27
 70
     1
102
RTVSPropertyOp28
 70
     1
102
RTVSPropertyOp29
 70
     1
102
RTVSPropertyOp30
 70
     1
102
RTVSPropertyOp31
 70
     1
102
RTVSPropertyOp32
 70
     1
102
RTVSPropertyOp33
 70
     1
102
RTVSPropertyOp34
 70
     1
102
RTVSPropertyOp35
 70
     1
102
RTVSPropertyOp36
 70
     1
102
RTVSPropertyOp37
 70
     1
102
RTVSPropertyOp38
 70
     1
102
RTVSPropertyOp39
 70
     1
102
RTVSPropertyOp40
 70
     1
102
RTVSPropertyOp41
 70
     1
102
RTVSPropertyOp42
 70
     1
102
RTVSPropertyOp43
 70
     1
102
RTVSPropertyOp44
 70
     1
102
RTVSPropertyOp45
 70
     1
102
RTVSPropertyOp46
 70
     1
102
RTVSPropertyOp47
 70
     1
102
RTVSPropertyOp48
 70
     1
102
RTVSPropertyOp49
 70
     1
102
RTVSPropertyOp50
 70
     1
102
RTVSPropertyOp51
 70
     0
102
RTVSPropertyOp52
 70
     0
102
RTVSPropertyOp53
 70
     1
102
RTVSPropertyOp54
 70
     1
102
RTVSPropertyOp55
 70
     1
102
RTVSPropertyOp56
 70
     1
102
RTVSPropertyOp57
 70
     1
102
RTVSPropertyOp58
 70
     1
102
RTVSPropertyOp59
 70
     1
102
RTVSPropertyOp60
 70
     1
102
RTVSPropertyOp61
 70
     1
102
RTVSPropertyOp62
 70
     1
  0
XRECORD
  5
AE92
102
{ACAD_REACTORS
330
AE91
102
}
330
AE91
100
AcDbXrecord
280
     1
102
RTVSPost2010Prop28
280
     0
102
RTVSPost2010PropOp28
 70
     1
102
RTVSPost2010Prop29
280
     1
102
RTVSPost2010PropOp29
 70
     1
102
RTVSPost2010Prop30
280
     1
102
RTVSPost2010PropOp30
 70
     1
102
RTVSPost2010Prop31
280
     0
102
RTVSPost2010PropOp31
 70
     1
102
RTVSPost2010Prop32
280
     0
102
RTVSPost2010PropOp32
 70
     1
102
RTVSPost2010Prop33
280
     0
102
RTVSPost2010PropOp33
 70
     1
102
RTVSPost2010Prop34
280
     0
102
RTVSPost2010PropOp34
 70
     1
102
RTVSPost2010Prop35
280
     0
102
RTVSPost2010PropOp35
 70
     1
102
RTVSPost2010Prop36
280
     0
102
RTVSPost2010PropOp36
 70
     1
102
RTVSPost2010Prop37
 90
       50
102
RTVSPost2010PropOp37
 70
     1
102
RTVSPost2010Prop38
140
0.0
102
RTVSPost2010PropOp38
 70
     1
102
RTVSPost2010Prop39
140
1.0
102
RTVSPost2010PropOp39
 70
     1
102
RTVSPost2010Prop40
 90
        0
102
RTVSPost2010PropOp40
 70
     1
102
RTVSPost2010Prop41ColorIndex
 90
       18
102
RTVSPost2010Prop41ColorRGB
 90
        0
102
RTVSPost2010PropOp41
 70
     1
102
RTVSPost2010Prop42
 90
       50
102
RTVSPost2010PropOp42
 70
     1
102
RTVSPost2010Prop43
 90
        3
102
RTVSPost2010PropOp43
 70
     1
102
RTVSPost2010Prop44ColorIndex
 90
        5
102
RTVSPost2010Prop44ColorRGB
 90
      255
102
RTVSPost2010PropOp44
 70
     1
102
RTVSPost2010Prop45
280
     0
102
RTVSPost2010PropOp45
 70
     1
102
RTVSPost2010Prop46
 90
       50
102
RTVSPost2010PropOp46
 70
     1
102
RTVSPost2010Prop47
 90
       50
102
RTVSPost2010PropOp47
 70
     1
102
RTVSPost2010Prop48
 90
       50
102
RTVSPost2010PropOp48
 70
     1
102
RTVSPost2010Prop49
280
     0
102
RTVSPost2010PropOp49
 70
     1
102
RTVSPost2010Prop50
 90
       50
102
RTVSPost2010PropOp50
 70
     1
102
RTVSPost2010Prop51ColorIndex
 90
      256
102
RTVSPost2010Prop51ColorRGB
 90
-16777216
102
RTVSPost2010PropOp51
 70
     0
102
RTVSPost2010Prop52
140
1.0
102
RTVSPost2010PropOp52
 70
     0
102
RTVSPost2010Prop53
 90
        2
102
RTVSPost2010PropOp53
 70
     1
102
RTVSPost2010Prop54
  1
strokes_ogs.tif
102
RTVSPost2010PropOp54
 70
     1
102
RTVSPost2010Prop55
280
     0
102
RTVSPost2010PropOp55
 70
     1
102
RTVSPost2010Prop56
140
1.0
102
RTVSPost2010PropOp56
 70
     1
102
RTVSPost2010Prop57
140
1.0
102
RTVSPost2010PropOp57
 70
     1
102
RTVSPropertyOp0
 70
     1
102
RTVSPropertyOp1
 70
     1
102
RTVSPropertyOp2
 70
     1
102
RTVSPropertyOp3
 70
     1
102
RTVSPropertyOp4
 70
     1
102
RTVSPropertyOp5
 70
     1
102
RTVSPropertyOp6
 70
     1
102
RTVSPropertyOp7
 70
     1
102
RTVSPropertyOp8
 70
     1
102
RTVSPropertyOp9
 70
     1
102
RTVSPropertyOp10
 70
     1
102
RTVSPropertyOp11
 70
     1
102
RTVSPropertyOp12
 70
     1
102
RTVSPropertyOp13
 70
     1
102
RTVSPropertyOp14
 70
     1
102
RTVSPropertyOp15
 70
     1
102
RTVSPropertyOp16
 70
     1
102
RTVSPropertyOp17
 70
     1
102
RTVSPropertyOp18
 70
     1
102
RTVSPropertyOp19
 70
     1
102
RTVSPropertyOp20
 70
     1
102
RTVSPropertyOp21
 70
     1
102
RTVSPropertyOp22
 70
     1
102
RTVSPropertyOp23
 70
     1
102
RTVSPropertyOp24
 70
     1
102
RTVSPropertyOp25
 70
     1
102
RTVSPropertyOp26
 70
     1
102
RTVSPropertyOp27
 70
     1
102
RTVSPropertyOp28
 70
     1
102
RTVSPropertyOp29
 70
     1
102
RTVSPropertyOp30
 70
     1
102
RTVSPropertyOp31
 70
     1
102
RTVSPropertyOp32
 70
     1
102
RTVSPropertyOp33
 70
     1
102
RTVSPropertyOp34
 70
     1
102
RTVSPropertyOp35
 70
     1
102
RTVSPropertyOp36
 70
     1
102
RTVSPropertyOp37
 70
     1
102
RTVSPropertyOp38
 70
     1
102
RTVSPropertyOp39
 70
     1
102
RTVSPropertyOp40
 70
     1
102
RTVSPropertyOp41
 70
     1
102
RTVSPropertyOp42
 70
     1
102
RTVSPropertyOp43
 70
     1
102
RTVSPropertyOp44
 70
     1
102
RTVSPropertyOp45
 70
     1
102
RTVSPropertyOp46
 70
     1
102
RTVSPropertyOp47
 70
     1
102
RTVSPropertyOp48
 70
     1
102
RTVSPropertyOp49
 70
     1
102
RTVSPropertyOp50
 70
     1
102
RTVSPropertyOp51
 70
     0
102
RTVSPropertyOp52
 70
     0
102
RTVSPropertyOp53
 70
     1
102
RTVSPropertyOp54
 70
     1
102
RTVSPropertyOp55
 70
     1
102
RTVSPropertyOp56
 70
     1
102
RTVSPropertyOp57
 70
     1
102
RTVSPropertyOp58
 70
     1
102
RTVSPropertyOp59
 70
     1
102
RTVSPropertyOp60
 70
     1
102
RTVSPropertyOp61
 70
     1
102
RTVSPropertyOp62
 70
     1
  0
XRECORD
  5
AEAA
102
{ACAD_REACTORS
330
AEA9
102
}
330
AEA9
100
AcDbXrecord
280
     1
102
RTVSPost2010Prop28
280
     0
102
RTVSPost2010PropOp28
 70
     1
102
RTVSPost2010Prop29
280
     1
102
RTVSPost2010PropOp29
 70
     1
102
RTVSPost2010Prop30
280
     1
102
RTVSPost2010PropOp30
 70
     1
102
RTVSPost2010Prop31
280
     0
102
RTVSPost2010PropOp31
 70
     1
102
RTVSPost2010Prop32
280
     0
102
RTVSPost2010PropOp32
 70
     1
102
RTVSPost2010Prop33
280
     0
102
RTVSPost2010PropOp33
 70
     1
102
RTVSPost2010Prop34
280
     0
102
RTVSPost2010PropOp34
 70
     1
102
RTVSPost2010Prop35
280
     0
102
RTVSPost2010PropOp35
 70
     1
102
RTVSPost2010Prop36
280
     0
102
RTVSPost2010PropOp36
 70
     1
102
RTVSPost2010Prop37
 90
       50
102
RTVSPost2010PropOp37
 70
     1
102
RTVSPost2010Prop38
140
0.0
102
RTVSPost2010PropOp38
 70
     1
102
RTVSPost2010Prop39
140
1.0
102
RTVSPost2010PropOp39
 70
     1
102
RTVSPost2010Prop40
 90
        0
102
RTVSPost2010PropOp40
 70
     1
102
RTVSPost2010Prop41ColorIndex
 90
       18
102
RTVSPost2010Prop41ColorRGB
 90
        0
102
RTVSPost2010PropOp41
 70
     1
102
RTVSPost2010Prop42
 90
       50
102
RTVSPost2010PropOp42
 70
     1
102
RTVSPost2010Prop43
 90
        3
102
RTVSPost2010PropOp43
 70
     1
102
RTVSPost2010Prop44ColorIndex
 90
        5
102
RTVSPost2010Prop44ColorRGB
 90
      255
102
RTVSPost2010PropOp44
 70
     1
102
RTVSPost2010Prop45
280
     0
102
RTVSPost2010PropOp45
 70
     1
102
RTVSPost2010Prop46
 90
       50
102
RTVSPost2010PropOp46
 70
     1
102
RTVSPost2010Prop47
 90
       50
102
RTVSPost2010PropOp47
 70
     1
102
RTVSPost2010Prop48
 90
       50
102
RTVSPost2010PropOp48
 70
     1
102
RTVSPost2010Prop49
280
     0
102
RTVSPost2010PropOp49
 70
     1
102
RTVSPost2010Prop50
 90
       50
102
RTVSPost2010PropOp50
 70
     1
102
RTVSPost2010Prop51ColorIndex
 90
      256
102
RTVSPost2010Prop51ColorRGB
 90
-16777216
102
RTVSPost2010PropOp51
 70
     0
102
RTVSPost2010Prop52
140
1.0
102
RTVSPost2010PropOp52
 70
     0
102
RTVSPost2010Prop53
 90
        2
102
RTVSPost2010PropOp53
 70
     1
102
RTVSPost2010Prop54
  1
strokes_ogs.tif
102
RTVSPost2010PropOp54
 70
     1
102
RTVSPost2010Prop55
280
     0
102
RTVSPost2010PropOp55
 70
     1
102
RTVSPost2010Prop56
140
1.0
102
RTVSPost2010PropOp56
 70
     1
102
RTVSPost2010Prop57
140
1.0
102
RTVSPost2010PropOp57
 70
     1
102
RTVSPropertyOp0
 70
     1
102
RTVSPropertyOp1
 70
     1
102
RTVSPropertyOp2
 70
     1
102
RTVSPropertyOp3
 70
     1
102
RTVSPropertyOp4
 70
     1
102
RTVSPropertyOp5
 70
     1
102
RTVSPropertyOp6
 70
     1
102
RTVSPropertyOp7
 70
     1
102
RTVSPropertyOp8
 70
     1
102
RTVSPropertyOp9
 70
     1
102
RTVSPropertyOp10
 70
     1
102
RTVSPropertyOp11
 70
     1
102
RTVSPropertyOp12
 70
     1
102
RTVSPropertyOp13
 70
     1
102
RTVSPropertyOp14
 70
     1
102
RTVSPropertyOp15
 70
     1
102
RTVSPropertyOp16
 70
     1
102
RTVSPropertyOp17
 70
     1
102
RTVSPropertyOp18
 70
     1
102
RTVSPropertyOp19
 70
     1
102
RTVSPropertyOp20
 70
     1
102
RTVSPropertyOp21
 70
     1
102
RTVSPropertyOp22
 70
     1
102
RTVSPropertyOp23
 70
     1
102
RTVSPropertyOp24
 70
     1
102
RTVSPropertyOp25
 70
     1
102
RTVSPropertyOp26
 70
     1
102
RTVSPropertyOp27
 70
     1
102
RTVSPropertyOp28
 70
     1
102
RTVSPropertyOp29
 70
     1
102
RTVSPropertyOp30
 70
     1
102
RTVSPropertyOp31
 70
     1
102
RTVSPropertyOp32
 70
     1
102
RTVSPropertyOp33
 70
     1
102
RTVSPropertyOp34
 70
     1
102
RTVSPropertyOp35
 70
     1
102
RTVSPropertyOp36
 70
     1
102
RTVSPropertyOp37
 70
     1
102
RTVSPropertyOp38
 70
     1
102
RTVSPropertyOp39
 70
     1
102
RTVSPropertyOp40
 70
     1
102
RTVSPropertyOp41
 70
     1
102
RTVSPropertyOp42
 70
     1
102
RTVSPropertyOp43
 70
     1
102
RTVSPropertyOp44
 70
     1
102
RTVSPropertyOp45
 70
     1
102
RTVSPropertyOp46
 70
     1
102
RTVSPropertyOp47
 70
     1
102
RTVSPropertyOp48
 70
     1
102
RTVSPropertyOp49
 70
     1
102
RTVSPropertyOp50
 70
     1
102
RTVSPropertyOp51
 70
     0
102
RTVSPropertyOp52
 70
     0
102
RTVSPropertyOp53
 70
     1
102
RTVSPropertyOp54
 70
     1
102
RTVSPropertyOp55
 70
     1
102
RTVSPropertyOp56
 70
     1
102
RTVSPropertyOp57
 70
     1
102
RTVSPropertyOp58
 70
     1
102
RTVSPropertyOp59
 70
     1
102
RTVSPropertyOp60
 70
     1
102
RTVSPropertyOp61
 70
     1
102
RTVSPropertyOp62
 70
     1
  0
ENDSEC
  0
EOF
