  0
SECTION
  2
HEADER
  9
$ACADVER
  1
AC1015
  9
$ACADMAINTVER
 70
    20
  9
$DWGCODEPAGE
  3
ANSI_932
  9
$INSBASE
 10
0.0
 20
0.0
 30
0.0
  9
$EXTMIN
 10
10.0
 20
9.999999999999998
 30
0.0
  9
$EXTMAX
 10
445.45
 20
286.911449
 30
0.0
  9
$LIMMIN
 10
0.0
 20
0.0
  9
$LIMMAX
 10
495.0
 20
341.25
  9
$ORTHOMODE
 70
     1
  9
$REGENMODE
 70
     1
  9
$FILLMODE
 70
     1
  9
$QTEXTMODE
 70
     0
  9
$MIRRTEXT
 70
     1
  9
$LTSCALE
 40
20.0
  9
$ATTMODE
 70
     1
  9
$TEXTSIZE
 40
5.0
  9
$TRACEWID
 40
1.0
  9
$TEXTSTYLE
  7
STANDARD
  9
$CLAYER
  8
0
  9
$CELTYPE
  6
BYLAYER
  9
$CECOLOR
 62
   256
  9
$CELTSCALE
 40
1.0
  9
$DISPSILH
 70
     0
  9
$DIMSCALE
 40
1.0
  9
$DIMASZ
 40
3.0
  9
$DIMEXO
 40
1.0
  9
$DIMDLI
 40
10.0
  9
$DIMRND
 40
0.0
  9
$DIMDLE
 40
0.0
  9
$DIMEXE
 40
1.0
  9
$DIMTP
 40
0.0
  9
$DIMTM
 40
0.0
  9
$DIMTXT
 40
2.5
  9
$DIMCEN
 40
0.0
  9
$DIMTSZ
 40
0.0
  9
$DIMTOL
 70
     0
  9
$DIMLIM
 70
     0
  9
$DIMTIH
 70
     0
  9
$DIMTOH
 70
     0
  9
$DIMSE1
 70
     1
  9
$DIMSE2
 70
     1
  9
$DIMTAD
 70
     3
  9
$DIMZIN
 70
     8
  9
$DIMBLK
  1

  9
$DIMASO
 70
     1
  9
$DIMSHO
 70
     1
  9
$DIMPOST
  1

  9
$DIMAPOST
  1

  9
$DIMALT
 70
     0
  9
$DIMALTD
 70
     2
  9
$DIMALTF
 40
25.4
  9
$DIMLFAC
 40
1.0
  9
$DIMTOFL
 70
     1
  9
$DIMTVP
 40
0.0
  9
$DIMTIX
 70
     0
  9
$DIMSOXD
 70
     0
  9
$DIMSAH
 70
     1
  9
$DIMBLK1
  1
OPEN
  9
$DIMBLK2
  1
OPEN
  9
$DIMSTYLE
  2
STANDARD
  9
$DIMCLRD
 70
     0
  9
$DIMCLRE
 70
     0
  9
$DIMCLRT
 70
     0
  9
$DIMTFAC
 40
1.0
  9
$DIMGAP
 40
1.0
  9
$DIMJUST
 70
     0
  9
$DIMSD1
 70
     0
  9
$DIMSD2
 70
     0
  9
$DIMTOLJ
 70
     1
  9
$DIMTZIN
 70
     0
  9
$DIMALTZ
 70
     0
  9
$DIMALTTZ
 70
     0
  9
$DIMUPT
 70
     0
  9
$DIMDEC
 70
     4
  9
$DIMTDEC
 70
     4
  9
$DIMALTU
 70
     2
  9
$DIMALTTD
 70
     2
  9
$DIMTXSTY
  7
STANDARD
  9
$DIMAUNIT
 70
     0
  9
$DIMADEC
 70
     0
  9
$DIMALTRND
 40
0.0
  9
$DIMAZIN
 70
     0
  9
$DIMDSEP
 70
    46
  9
$DIMATFIT
 70
     3
  9
$DIMFRAC
 70
     0
  9
$DIMLDRBLK
  1
OPEN
  9
$DIMLUNIT
 70
     2
  9
$DIMLWD
 70
    -2
  9
$DIMLWE
 70
    -2
  9
$DIMTMOVE
 70
     0
  9
$LUNITS
 70
     2
  9
$LUPREC
 70
     4
  9
$SKETCHINC
 40
1.0
  9
$FILLETRAD
 40
0.0
  9
$AUNITS
 70
     0
  9
$AUPREC
 70
     2
  9
$MENU
  1
.
  9
$ELEVATION
 40
0.0
  9
$PELEVATION
 40
0.0
  9
$THICKNESS
 40
0.0
  9
$LIMCHECK
 70
     0
  9
$CHAMFERA
 40
0.6
  9
$CHAMFERB
 40
0.6
  9
$CHAMFERC
 40
0.0
  9
$CHAMFERD
 40
0.0
  9
$SKPOLY
 70
     0
  9
$TDCREATE
 40
2451301.420908449
  9
$TDUCREATE
 40
2451301.045908449
  9
$TDUPDATE
 40
2457192.688234930
  9
$TDUUPDATE
 40
2457192.313234930
  9
$TDINDWG
 40
0.0000110069
  9
$TDUSRTIMER
 40
0.0000106944
  9
$USRTIMER
 70
     1
  9
$ANGBASE
 50
0.0
  9
$ANGDIR
 70
     0
  9
$PDMODE
 70
     0
  9
$PDSIZE
 40
0.0
  9
$PLINEWID
 40
0.0
  9
$SPLFRAME
 70
     0
  9
$SPLINETYPE
 70
     6
  9
$SPLINESEGS
 70
     8
  9
$HANDSEED
  5
AFEA
  9
$SURFTAB1
 70
     6
  9
$SURFTAB2
 70
     6
  9
$SURFTYPE
 70
     6
  9
$SURFU
 70
     6
  9
$SURFV
 70
     6
  9
$UCSBASE
  2

  9
$UCSNAME
  2

  9
$UCSORG
 10
0.0
 20
0.0
 30
0.0
  9
$UCSXDIR
 10
1.0
 20
0.0
 30
0.0
  9
$UCSYDIR
 10
0.0
 20
1.0
 30
0.0
  9
$UCSORTHOREF
  2

  9
$UCSORTHOVIEW
 70
     0
  9
$UCSORGTOP
 10
0.0
 20
0.0
 30
0.0
  9
$UCSORGBOTTOM
 10
0.0
 20
0.0
 30
0.0
  9
$UCSORGLEFT
 10
0.0
 20
0.0
 30
0.0
  9
$UCSORGRIGHT
 10
0.0
 20
0.0
 30
0.0
  9
$UCSORGFRONT
 10
0.0
 20
0.0
 30
0.0
  9
$UCSORGBACK
 10
0.0
 20
0.0
 30
0.0
  9
$PUCSBASE
  2

  9
$PUCSNAME
  2

  9
$PUCSORG
 10
0.0
 20
0.0
 30
0.0
  9
$PUCSXDIR
 10
1.0
 20
0.0
 30
0.0
  9
$PUCSYDIR
 10
0.0
 20
1.0
 30
0.0
  9
$PUCSORTHOREF
  2

  9
$PUCSORTHOVIEW
 70
     0
  9
$PUCSORGTOP
 10
0.0
 20
0.0
 30
0.0
  9
$PUCSORGBOTTOM
 10
0.0
 20
0.0
 30
0.0
  9
$PUCSORGLEFT
 10
0.0
 20
0.0
 30
0.0
  9
$PUCSORGRIGHT
 10
0.0
 20
0.0
 30
0.0
  9
$PUCSORGFRONT
 10
0.0
 20
0.0
 30
0.0
  9
$PUCSORGBACK
 10
0.0
 20
0.0
 30
0.0
  9
$USERI1
 70
     0
  9
$USERI2
 70
     0
  9
$USERI3
 70
     0
  9
$USERI4
 70
     0
  9
$USERI5
 70
     0
  9
$USERR1
 40
0.0
  9
$USERR2
 40
0.0
  9
$USERR3
 40
0.0
  9
$USERR4
 40
0.0
  9
$USERR5
 40
0.0
  9
$WORLDVIEW
 70
     1
  9
$SHADEDGE
 70
     3
  9
$SHADEDIF
 70
    70
  9
$TILEMODE
 70
     1
  9
$MAXACTVP
 70
    16
  9
$PINSBASE
 10
0.0
 20
0.0
 30
0.0
  9
$PLIMCHECK
 70
     0
  9
$PEXTMIN
 10
1.000000000000000E+20
 20
1.000000000000000E+20
 30
1.000000000000000E+20
  9
$PEXTMAX
 10
-1.000000000000000E+20
 20
-1.000000000000000E+20
 30
-1.000000000000000E+20
  9
$PLIMMIN
 10
0.0
 20
0.0
  9
$PLIMMAX
 10
420.0
 20
297.0
  9
$UNITMODE
 70
     0
  9
$VISRETAIN
 70
     0
  9
$PLINEGEN
 70
     0
  9
$PSLTSCALE
 70
     0
  9
$TREEDEPTH
 70
  3020
  9
$CMLSTYLE
  2
STANDARD
  9
$CMLJUST
 70
     0
  9
$CMLSCALE
 40
1.0
  9
$PROXYGRAPHICS
 70
     1
  9
$MEASUREMENT
 70
     0
  9
$CELWEIGHT
370
    -1
  9
$ENDCAPS
280
     0
  9
$JOINSTYLE
280
     0
  9
$LWDISPLAY
290
     0
  9
$INSUNITS
 70
     0
  9
$HYPERLINKBASE
  1

  9
$STYLESHEET
  1

  9
$XEDIT
290
     1
  9
$CEPSNTYPE
380
     0
  9
$PSTYLEMODE
290
     1
  9
$FINGERPRINTGUID
  2
{999C3726-7492-4E90-AAF6-252CEC99E3AB}
  9
$VERSIONGUID
  2
{B26B94CA-1C10-44A6-8362-3FE560A3A9C6}
  9
$EXTNAMES
290
     1
  9
$PSVPSCALE
 40
0.0
  9
$OLESTARTUP
290
     0
  0
ENDSEC
  0
SECTION
  2
CLASSES
  0
CLASS
  1
ACDBDICTIONARYWDFLT
  2
AcDbDictionaryWithDefault
  3
ObjectDBX Classes
 90
        0
280
     0
281
     0
  0
CLASS
  1
ACDBPLACEHOLDER
  2
AcDbPlaceHolder
  3
ObjectDBX Classes
 90
        0
280
     0
281
     0
  0
CLASS
  1
LAYOUT
  2
AcDbLayout
  3
ObjectDBX Classes
 90
        0
280
     0
281
     0
  0
CLASS
  1
DICTIONARYVAR
  2
AcDbDictionaryVar
  3
ObjectDBX Classes
 90
        0
280
     0
281
     0
  0
CLASS
  1
MATERIAL
  2
AcDbMaterial
  3
ObjectDBX Classes
 90
     1153
280
     0
281
     0
  0
CLASS
  1
VISUALSTYLE
  2
AcDbVisualStyle
  3
ObjectDBX Classes
 90
     4095
280
     0
281
     0
  0
CLASS
  1
TABLESTYLE
  2
AcDbTableStyle
  3
ObjectDBX Classes
 90
     4095
280
     0
281
     0
  0
CLASS
  1
SCALE
  2
AcDbScale
  3
ObjectDBX Classes
 90
     1153
280
     0
281
     0
  0
CLASS
  1
MLEADERSTYLE
  2
AcDbMLeaderStyle
  3
ACDB_MLEADERSTYLE_CLASS
 90
     4095
280
     0
281
     0
  0
CLASS
  1
ACDBSECTIONVIEWSTYLE
  2
AcDbSectionViewStyle
  3
ObjectDBX Classes
 90
     1025
280
     0
281
     0
  0
CLASS
  1
ACDBDETAILVIEWSTYLE
  2
AcDbDetailViewStyle
  3
ObjectDBX Classes
 90
     1025
280
     0
281
     0
  0
CLASS
  1
CELLSTYLEMAP
  2
AcDbCellStyleMap
  3
ObjectDBX Classes
 90
     1152
280
     0
281
     0
  0
ENDSEC
  0
SECTION
  2
TABLES
  0
TABLE
  2
VPORT
  5
AD31
330
0
100
AcDbSymbolTable
 70
     1
  0
VPORT
  5
AF33
330
AD31
100
AcDbSymbolTableRecord
100
AcDbViewportTableRecord
  2
*ACTIVE
 70
     0
 10
0.0
 20
0.0
 11
1.0
 21
1.0
 12
311.6091562197821
 22
148.4559352932624
 13
0.0
 23
0.0
 14
10.0
 24
10.0
 15
10.0
 25
10.0
 16
0.0
 26
0.0
 36
1.0
 17
0.0
 27
0.0
 37
0.0
 40
279.9976637910523
 41
2.35006605019815
 42
50.0
 43
0.0
 44
0.0
 50
0.0
 51
0.0
 71
     0
 72
   100
 73
     1
 74
     0
 75
     0
 76
     0
 77
     0
 78
     0
281
     0
 65
     1
110
0.0
120
0.0
130
0.0
111
1.0
121
0.0
131
0.0
112
0.0
122
1.0
132
0.0
 79
     0
146
0.0
1001
ACAD_NAV_VCDISPLAY
1070
     3
  0
ENDTAB
  0
TABLE
  2
LTYPE
  5
AD2E
330
0
100
AcDbSymbolTable
 70
     4
  0
LTYPE
  5
AD3C
330
AD2E
100
AcDbSymbolTableRecord
100
AcDbLinetypeTableRecord
  2
BYBLOCK
 70
     0
  3

 72
    65
 73
     0
 40
0.0
  0
LTYPE
  5
AD3D
330
AD2E
100
AcDbSymbolTableRecord
100
AcDbLinetypeTableRecord
  2
BYLAYER
 70
     0
  3

 72
    65
 73
     0
 40
0.0
  0
LTYPE
  5
AD3E
330
AD2E
100
AcDbSymbolTableRecord
100
AcDbLinetypeTableRecord
  2
CONTINUOUS
 70
     0
  3
Solid line
 72
    65
 73
     0
 40
0.0
  0
LTYPE
  5
AD4C
330
AD2E
100
AcDbSymbolTableRecord
100
AcDbLinetypeTableRecord
  2
DASHED
 70
     0
  3
__ __ __ __ __ __ __ __ __ __ __ __ __ __ __ __
 72
    65
 73
     2
 40
0.75
 49
0.5
 74
     0
 49
-0.25
 74
     0
  0
LTYPE
  5
AD4D
330
AD2E
100
AcDbSymbolTableRecord
100
AcDbLinetypeTableRecord
  2
CENTER
 70
     0
  3
____ _ ____ _ ____ _ ____ _ ____ _ ____ _ ____ 
 72
    65
 73
     4
 40
2.0
 49
1.25
 74
     0
 49
-0.25
 74
     0
 49
0.25
 74
     0
 49
-0.25
 74
     0
  0
LTYPE
  5
AD4E
330
AD2E
100
AcDbSymbolTableRecord
100
AcDbLinetypeTableRecord
  2
PHANTOM
 70
     0
  3
______  __  __  ______  __  __  ______  __  __ 
 72
    65
 73
     6
 40
2.5
 49
1.25
 74
     0
 49
-0.25
 74
     0
 49
0.25
 74
     0
 49
-0.25
 74
     0
 49
0.25
 74
     0
 49
-0.25
 74
     0
  0
ENDTAB
  0
TABLE
  2
LAYER
  5
AD2B
330
0
100
AcDbSymbolTable
 70
     8
  0
LAYER
  5
AD39
102
{ACAD_XDICTIONARY
360
AF8E
102
}
330
AD2B
100
AcDbSymbolTableRecord
100
AcDbLayerTableRecord
  2
0
 70
     0
 62
     7
  6
CONTINUOUS
370
    -3
390
AF3C
  0
LAYER
  5
AD4F
102
{ACAD_XDICTIONARY
360
AF90
102
}
330
AD2B
100
AcDbSymbolTableRecord
100
AcDbLayerTableRecord
  2
4
 70
     0
 62
     1
  6
CENTER
370
    -3
390
AF3C
  0
LAYER
  5
AD50
102
{ACAD_XDICTIONARY
360
AF92
102
}
330
AD2B
100
AcDbSymbolTableRecord
100
AcDbLayerTableRecord
  2
5
 70
     0
 62
     6
  6
PHANTOM
370
    -3
390
AF3C
  0
LAYER
  5
AD51
102
{ACAD_XDICTIONARY
360
AF94
102
}
330
AD2B
100
AcDbSymbolTableRecord
100
AcDbLayerTableRecord
  2
1
 70
     0
 62
     7
  6
CONTINUOUS
370
    -3
390
AF3C
  0
LAYER
  5
AD52
102
{ACAD_XDICTIONARY
360
AF96
102
}
330
AD2B
100
AcDbSymbolTableRecord
100
AcDbLayerTableRecord
  2
2
 70
     0
 62
     4
  6
CONTINUOUS
370
    -3
390
AF3C
  0
LAYER
  5
AD53
102
{ACAD_XDICTIONARY
360
AF98
102
}
330
AD2B
100
AcDbSymbolTableRecord
100
AcDbLayerTableRecord
  2
3
 70
     0
 62
     2
  6
DASHED
370
    -3
390
AF3C
  0
LAYER
  5
AD54
102
{ACAD_XDICTIONARY
360
AF9A
102
}
330
AD2B
100
AcDbSymbolTableRecord
100
AcDbLayerTableRecord
  2
6
 70
     0
 62
     5
  6
CONTINUOUS
370
    -3
390
AF3C
  0
LAYER
  5
AD55
102
{ACAD_XDICTIONARY
360
AF9C
102
}
330
AD2B
100
AcDbSymbolTableRecord
100
AcDbLayerTableRecord
  2
7
 70
     0
 62
     3
  6
CONTINUOUS
370
    -3
390
AF3C
  0
ENDTAB
  0
TABLE
  2
STYLE
  5
AD2C
330
0
100
AcDbSymbolTable
 70
     1
  0
STYLE
  5
AD3A
330
AD2C
100
AcDbSymbolTableRecord
100
AcDbTextStyleTableRecord
  2
STANDARD
 70
     0
 40
0.0
 41
1.0
 50
0.0
 71
     0
 42
5.0
  3
txt
  4

  0
ENDTAB
  0
TABLE
  2
VIEW
  5
AD2F
330
0
100
AcDbSymbolTable
 70
     0
  0
ENDTAB
  0
TABLE
  2
UCS
  5
AD30
330
0
100
AcDbSymbolTable
 70
     0
  0
ENDTAB
  0
TABLE
  2
APPID
  5
AD32
330
0
100
AcDbSymbolTable
 70
     3
  0
APPID
  5
AD3B
330
AD32
100
AcDbSymbolTableRecord
100
AcDbRegAppTableRecord
  2
ACAD
 70
     0
  0
APPID
  5
AFA8
330
AD32
100
AcDbSymbolTableRecord
100
AcDbRegAppTableRecord
  2
ACAD_NAV_VCDISPLAY
 70
     0
  0
APPID
  5
AFE1
330
AD32
100
AcDbSymbolTableRecord
100
AcDbRegAppTableRecord
  2
ACAD_MLEADERVER
 70
     0
  0
ENDTAB
  0
TABLE
  2
DIMSTYLE
  5
AD33
330
0
100
AcDbSymbolTable
 70
     1
100
AcDbDimStyleTable
 71
     0
  0
DIMSTYLE
105
AD57
330
AD33
100
AcDbSymbolTableRecord
100
AcDbDimStyleTableRecord
  2
STANDARD
 70
     0
 41
3.0
 42
1.0
 43
10.0
 44
1.0
 73
     0
 74
     0
 77
     3
 78
     8
140
2.5
141
0.0
147
1.0
172
     1
173
     1
284
     8
285
     8
286
     8
340
AD3A
  0
ENDTAB
  0
TABLE
  2
BLOCK_RECORD
  5
AD2A
330
0
100
AcDbSymbolTable
 70
     1
  0
BLOCK_RECORD
  5
AD47
102
{ACAD_XDICTIONARY
360
AF36
102
}
330
AD2A
100
AcDbSymbolTableRecord
100
AcDbBlockTableRecord
  2
*MODEL_SPACE
340
AF8A
  0
BLOCK_RECORD
  5
AD43
102
{ACAD_XDICTIONARY
360
AF34
102
}
330
AD2A
100
AcDbSymbolTableRecord
100
AcDbBlockTableRecord
  2
*PAPER_SPACE
340
AF8B
  0
BLOCK_RECORD
  5
AD5F
330
AD2A
100
AcDbSymbolTableRecord
100
AcDbBlockTableRecord
  2
_OPEN
340
0
  0
ENDTAB
  0
ENDSEC
  0
SECTION
  2
BLOCKS
  0
BLOCK
  5
AD48
330
AD47
100
AcDbEntity
  8
0
100
AcDbBlockBegin
  2
*MODEL_SPACE
 70
     0
 10
0.0
 20
0.0
 30
0.0
  3
*MODEL_SPACE
  1

  0
ENDBLK
  5
AD49
330
AD47
100
AcDbEntity
  8
0
100
AcDbBlockEnd
  0
BLOCK
  5
AD44
330
AD43
100
AcDbEntity
 67
     1
  8
0
100
AcDbBlockBegin
  2
*PAPER_SPACE
 70
     0
 10
0.0
 20
0.0
 30
0.0
  3
*PAPER_SPACE
  1

  0
ENDBLK
  5
AD45
330
AD43
100
AcDbEntity
 67
     1
  8
0
100
AcDbBlockEnd
  0
BLOCK
  5
AD60
330
AD5F
100
AcDbEntity
  8
0
100
AcDbBlockBegin
  2
_OPEN
 70
     0
 10
0.0
 20
0.0
 30
0.0
  3
_OPEN
  1

  0
LINE
  5
AD61
330
AD5F
100
AcDbEntity
  8
0
  6
ByBlock
 62
     0
100
AcDbLine
 10
-1.0
 20
0.166667
 30
0.0
 11
0.0
 21
0.0
 31
0.0
  0
LINE
  5
AD62
330
AD5F
100
AcDbEntity
  8
0
  6
ByBlock
 62
     0
100
AcDbLine
 10
0.0
 20
0.0
 30
0.0
 11
-1.0
 21
-0.166667
 31
0.0
  0
LINE
  5
AD63
330
AD5F
100
AcDbEntity
  8
0
  6
ByBlock
 62
     0
100
AcDbLine
 10
0.0
 20
0.0
 30
0.0
 11
-1.0
 21
0.0
 31
0.0
  0
ENDBLK
  5
AD64
330
AD5F
100
AcDbEntity
  8
0
100
AcDbBlockEnd
  0
ENDSEC
  0
SECTION
  2
ENTITIES
  0
TEXT
  5
AD65
330
AD47
100
AcDbEntity
  8
7
  6
Continuous
100
AcDbText
 10
10.0
 20
18.0
 30
0.0
 40
3.0
  1
TYPE No.602HB2-PA
100
AcDbText
  0
TEXT
  5
AD66
330
AD47
100
AcDbEntity
  8
7
  6
Continuous
100
AcDbText
 10
10.0
 20
26.0
 30
0.0
 40
3.0
  1
CODE No.19078
100
AcDbText
  0
TEXT
  5
AD67
330
AD47
100
AcDbEntity
  8
1
  6
Continuous
100
AcDbText
 10
10.0
 20
10.0
 30
0.0
 40
1.399999999999999
  1
LAYER
100
AcDbText
  0
TEXT
  5
AD68
330
AD47
100
AcDbEntity
  8
1
  6
Continuous
100
AcDbText
 10
17.97951099999998
 20
10.04873699999998
 30
0.0
 40
1.399999999999999
  1
1
100
AcDbText
  0
TEXT
  5
AD69
330
AD47
100
AcDbEntity
  8
7
  6
Continuous
100
AcDbText
 10
29.97951099999999
 20
10.04873699999998
 30
0.0
 40
1.399999999999999
  1
7
100
AcDbText
  0
TEXT
  5
AD6A
330
AD47
100
AcDbEntity
  8
4
  6
CENTER
100
AcDbText
 10
23.97951099999999
 20
10.04873699999998
 30
0.0
 40
1.399999999999999
  1
4
100
AcDbText
  0
TEXT
  5
AD6B
330
AD47
100
AcDbEntity
  8
3
  6
DASHED
100
AcDbText
 10
21.979511
 20
10.04873699999998
 30
0.0
 40
1.399999999999999
  1
3
100
AcDbText
  0
TEXT
  5
AD6C
330
AD47
100
AcDbEntity
  8
2
  6
Continuous
100
AcDbText
 10
19.97951099999999
 20
10.04873699999998
 30
0.0
 40
1.399999999999999
  1
2
100
AcDbText
  0
TEXT
  5
AD6D
330
AD47
100
AcDbEntity
  8
6
  6
Continuous
100
AcDbText
 10
27.979511
 20
10.04873699999998
 30
0.0
 40
1.399999999999999
  1
6
100
AcDbText
  0
TEXT
  5
AD6E
330
AD47
100
AcDbEntity
  8
5
  6
PHANTOM
100
AcDbText
 10
25.97951099999999
 20
10.04873699999998
 30
0.0
 40
1.399999999999999
  1
5
100
AcDbText
  0
LINE
  5
AD6F
330
AD47
100
AcDbEntity
  8
1
  6
Continuous
100
AcDbLine
 10
162.9499999999999
 20
277.4999999999999
 30
0.0
 11
177.9499999999999
 21
277.4999999999999
 31
0.0
  0
LINE
  5
AD70
330
AD47
100
AcDbEntity
  8
1
  6
Continuous
100
AcDbLine
 10
162.9499999999999
 20
275.4999999999999
 30
0.0
 11
162.9499999999999
 21
277.4999999999999
 31
0.0
  0
LINE
  5
AD71
330
AD47
100
AcDbEntity
  8
1
  6
Continuous
100
AcDbLine
 10
177.9499999999999
 20
275.4999999999999
 30
0.0
 11
177.9499999999999
 21
277.4999999999999
 31
0.0
  0
LINE
  5
AD72
330
AD47
100
AcDbEntity
  8
1
  6
Continuous
100
AcDbLine
 10
133.45
 20
192.4499999999999
 30
0.0
 11
207.45
 21
192.4499999999999
 31
0.0
  0
ARC
  5
AD73
330
AD47
100
AcDbEntity
  8
1
  6
Continuous
100
AcDbCircle
 10
170.4499999999999
 20
152.4499999999999
 30
0.0
 40
10.34999999999999
100
AcDbArc
 50
196.5495329999999
 51
343.4504669999999
  0
LINE
  5
AD74
330
AD47
100
AcDbEntity
  8
1
  6
Continuous
100
AcDbLine
 10
148.4499999999998
 20
190.15
 30
0.0
 11
133.45
 21
190.15
 31
0.0
  0
LINE
  5
AD75
330
AD47
100
AcDbEntity
  8
1
  6
Continuous
100
AcDbLine
 10
192.4499999999999
 20
190.15
 30
0.0
 11
207.45
 21
190.15
 31
0.0
  0
CIRCLE
  5
AD76
330
AD47
100
AcDbEntity
  8
1
  6
Continuous
100
AcDbCircle
 10
170.4499999999999
 20
152.4499999999999
 30
0.0
 40
7.0
  0
LINE
  5
AD77
330
AD47
100
AcDbEntity
  8
1
  6
Continuous
100
AcDbLine
 10
162.848264
 20
275.4999999999999
 30
0.0
 11
178.051736
 21
275.4999999999999
 31
0.0
  0
CIRCLE
  5
AD78
330
AD47
100
AcDbEntity
  8
1
  6
Continuous
100
AcDbCircle
 10
140.4499999999998
 20
242.45
 30
0.0
 40
3.25
  0
CIRCLE
  5
AD79
330
AD47
100
AcDbEntity
  8
1
  6
Continuous
100
AcDbCircle
 10
140.4499999999998
 20
272.4499999999998
 30
0.0
 40
3.25
  0
CIRCLE
  5
AD7A
330
AD47
100
AcDbEntity
  8
1
  6
Continuous
100
AcDbCircle
 10
200.4499999999999
 20
242.45
 30
0.0
 40
3.25
  0
CIRCLE
  5
AD7B
330
AD47
100
AcDbEntity
  8
1
  6
Continuous
100
AcDbCircle
 10
200.4499999999999
 20
272.4499999999998
 30
0.0
 40
3.25
  0
LINE
  5
AD7C
330
AD47
100
AcDbEntity
  8
1
  6
Continuous
100
AcDbLine
 10
133.45
 20
242.45
 30
0.0
 11
133.45
 21
272.4499999999998
 31
0.0
  0
LINE
  5
AD7D
330
AD47
100
AcDbEntity
  8
1
  6
Continuous
100
AcDbLine
 10
207.45
 20
242.45
 30
0.0
 11
207.45
 21
272.4499999999998
 31
0.0
  0
ARC
  5
AD7E
330
AD47
100
AcDbEntity
  8
1
  6
Continuous
100
AcDbCircle
 10
140.4499999999998
 20
242.45
 30
0.0
 40
7.0
100
AcDbArc
 50
180.0
 51
321.286308
  0
ARC
  5
AD7F
330
AD47
100
AcDbEntity
  8
1
  6
Continuous
100
AcDbCircle
 10
140.4499999999998
 20
272.4499999999998
 30
0.0
 40
7.0
100
AcDbArc
 50
38.713692
 51
180.0
  0
ARC
  5
AD80
330
AD47
100
AcDbEntity
  8
1
  6
Continuous
100
AcDbCircle
 10
200.4499999999999
 20
272.4499999999998
 30
0.0
 40
7.0
100
AcDbArc
 50
0.0
 51
141.2863079999999
  0
ARC
  5
AD81
330
AD47
100
AcDbEntity
  8
1
  6
Continuous
100
AcDbCircle
 10
200.4499999999999
 20
242.45
 30
0.0
 40
7.0
100
AcDbArc
 50
218.7136919999999
 51
0.0
  0
LINE
  5
AD82
330
AD47
100
AcDbEntity
  8
1
  6
Continuous
100
AcDbLine
 10
133.45
 20
190.15
 30
0.0
 11
133.45
 21
192.4499999999999
 31
0.0
  0
LINE
  5
AD83
330
AD47
100
AcDbEntity
  8
1
  6
Continuous
100
AcDbLine
 10
207.45
 20
190.15
 30
0.0
 11
207.45
 21
192.4499999999999
 31
0.0
  0
ARC
  5
AD84
330
AD47
100
AcDbEntity
  8
1
  6
Continuous
100
AcDbCircle
 10
162.848264
 20
282.3999999999998
 30
0.0
 40
6.9
100
AcDbArc
 50
239.317968
 51
270.0
  0
LINE
  5
AD85
330
AD47
100
AcDbEntity
  8
1
  6
Continuous
100
AcDbLine
 10
148.4499999999998
 20
277.1499999999999
 30
0.0
 11
148.4499999999998
 21
279.4499999999998
 31
0.0
  0
ARC
  5
AD86
330
AD47
100
AcDbEntity
  8
1
  6
Continuous
100
AcDbCircle
 10
147.0823879999999
 20
277.7661479999998
 30
0.0
 40
1.5
100
AcDbArc
 50
218.7136919999999
 51
335.7470909999999
  0
ARC
  5
AD87
330
AD47
100
AcDbEntity
  8
1
  6
Continuous
100
AcDbCircle
 10
178.051736
 20
282.3999999999998
 30
0.0
 40
6.9
100
AcDbArc
 50
270.0
 51
300.682032
  0
LINE
  5
AD88
330
AD47
100
AcDbEntity
  8
1
  6
Continuous
100
AcDbLine
 10
192.4499999999999
 20
277.1499999999999
 30
0.0
 11
192.4499999999999
 21
279.4499999999998
 31
0.0
  0
ARC
  5
AD89
330
AD47
100
AcDbEntity
  8
1
  6
Continuous
100
AcDbCircle
 10
193.817612
 20
277.7661479999998
 30
0.0
 40
1.5
100
AcDbArc
 50
204.2529089999999
 51
321.286308
  0
LINE
  5
AD8A
330
AD47
100
AcDbEntity
  8
1
  6
Continuous
100
AcDbLine
 10
162.848264
 20
239.4
 30
0.0
 11
178.051736
 21
239.4
 31
0.0
  0
ARC
  5
AD8B
330
AD47
100
AcDbEntity
  8
1
  6
Continuous
100
AcDbCircle
 10
162.848264
 20
232.5
 30
0.0
 40
6.9
100
AcDbArc
 50
90.0
 51
120.682032
  0
LINE
  5
AD8C
330
AD47
100
AcDbEntity
  8
1
  6
Continuous
100
AcDbLine
 10
148.4499999999998
 20
237.7499999999999
 30
0.0
 11
148.4499999999998
 21
235.4499999999999
 31
0.0
  0
ARC
  5
AD8D
330
AD47
100
AcDbEntity
  8
1
  6
Continuous
100
AcDbCircle
 10
147.0823879999999
 20
237.133853
 30
0.0
 40
1.5
100
AcDbArc
 50
24.252909
 51
141.2863079999999
  0
ARC
  5
AD8E
330
AD47
100
AcDbEntity
  8
1
  6
Continuous
100
AcDbCircle
 10
178.051736
 20
232.5
 30
0.0
 40
6.9
100
AcDbArc
 50
59.317968
 51
90.0
  0
LINE
  5
AD8F
330
AD47
100
AcDbEntity
  8
1
  6
Continuous
100
AcDbLine
 10
192.4499999999999
 20
237.7499999999999
 30
0.0
 11
192.4499999999999
 21
235.4499999999999
 31
0.0
  0
ARC
  5
AD90
330
AD47
100
AcDbEntity
  8
1
  6
Continuous
100
AcDbCircle
 10
193.817612
 20
237.133853
 30
0.0
 40
1.5
100
AcDbArc
 50
38.713692
 51
155.7470909999999
  0
LINE
  5
AD91
330
AD47
100
AcDbEntity
  8
1
  6
Continuous
100
AcDbLine
 10
160.5287609999998
 20
149.5018629999998
 30
0.0
 11
147.766546
 21
192.4499999999999
 31
0.0
  0
LINE
  5
AD92
330
AD47
100
AcDbEntity
  8
1
  6
Continuous
100
AcDbLine
 10
180.371239
 20
149.5018629999998
 30
0.0
 11
193.133455
 21
192.4499999999999
 31
0.0
  0
ARC
  5
AD93
330
AD47
100
AcDbEntity
  8
1
  6
Continuous
100
AcDbCircle
 10
170.4499999999999
 20
152.4499999999999
 30
0.0
 40
20.0
100
AcDbArc
 50
137.7142379999999
 51
42.285762
  0
LINE
  5
AD94
330
AD47
100
AcDbEntity
  8
1
  6
Continuous
100
AcDbLine
 10
163.4499999999999
 20
237.0737619999999
 30
0.0
 11
163.4499999999999
 21
239.4
 31
0.0
  0
LINE
  5
AD95
330
AD47
100
AcDbEntity
  8
1
  6
Continuous
100
AcDbLine
 10
177.4499999999999
 20
237.0737619999999
 30
0.0
 11
177.4499999999999
 21
239.4
 31
0.0
  0
ARC
  5
AD96
330
AD47
100
AcDbEntity
  8
1
  6
Continuous
100
AcDbCircle
 10
170.4499999999999
 20
244.9
 30
0.0
 40
10.5
100
AcDbArc
 50
228.1896849999998
 51
311.810315
  0
LINE
  5
AD97
330
AD47
100
AcDbEntity
  8
1
  6
Continuous
100
AcDbLine
 10
163.4499999999999
 20
237.0737619999999
 30
0.0
 11
177.4499999999999
 21
237.0737619999999
 31
0.0
  0
ARC
  5
AD98
330
AD47
100
AcDbEntity
  8
1
  6
Continuous
100
AcDbCircle
 10
151.503116
 20
245.6089229999999
 30
0.0
 40
2.5
100
AcDbArc
 50
222.5810889999999
 51
42.58108899999998
  0
ARC
  5
AD99
330
AD47
100
AcDbEntity
  8
1
  6
Continuous
100
AcDbCircle
 10
164.3887239999999
 20
257.45
 30
0.0
 40
15.0
100
AcDbArc
 50
137.417045
 51
222.5810889999999
  0
ARC
  5
AD9A
330
AD47
100
AcDbEntity
  8
1
  6
Continuous
100
AcDbCircle
 10
189.396884
 20
245.6089229999999
 30
0.0
 40
2.5
100
AcDbArc
 50
137.418911
 51
317.4189109999999
  0
ARC
  5
AD9B
330
AD47
100
AcDbEntity
  8
1
  6
Continuous
100
AcDbCircle
 10
176.511276
 20
257.45
 30
0.0
 40
15.0
100
AcDbArc
 50
317.4189109999999
 51
42.582955
  0
ARC
  5
AD9C
330
AD47
100
AcDbEntity
  8
1
  6
Continuous
100
AcDbCircle
 10
151.503116
 20
269.2910769999999
 30
0.0
 40
2.5
100
AcDbArc
 50
317.4189109999999
 51
137.418911
  0
ARC
  5
AD9D
330
AD47
100
AcDbEntity
  8
1
  6
Continuous
100
AcDbCircle
 10
189.396884
 20
269.2910769999999
 30
0.0
 40
2.5
100
AcDbArc
 50
42.58108899999998
 51
222.5810889999999
  0
LINE
  5
AD9E
330
AD47
100
AcDbEntity
  8
1
  6
Continuous
100
AcDbLine
 10
143.8887239999999
 20
190.15
 30
0.0
 11
143.8887239999999
 21
189.6499999999998
 31
0.0
  0
LINE
  5
AD9F
330
AD47
100
AcDbEntity
  8
1
  6
Continuous
100
AcDbLine
 10
267.45
 20
192.4499999999999
 30
0.0
 11
267.45
 21
190.15
 31
0.0
  0
LINE
  5
ADA0
330
AD47
100
AcDbEntity
  8
1
  6
Continuous
100
AcDbLine
 10
311.45
 20
192.4499999999999
 30
0.0
 11
311.45
 21
190.15
 31
0.0
  0
LINE
  5
ADA1
330
AD47
100
AcDbEntity
  8
1
  6
Continuous
100
AcDbLine
 10
267.45
 20
192.4499999999999
 30
0.0
 11
311.45
 21
192.4499999999999
 31
0.0
  0
LINE
  5
ADA2
330
AD47
100
AcDbEntity
  8
1
  6
Continuous
100
AcDbLine
 10
267.45
 20
190.15
 30
0.0
 11
311.45
 21
190.15
 31
0.0
  0
LINE
  5
ADA3
330
AD47
100
AcDbEntity
  8
1
  6
Continuous
100
AcDbLine
 10
273.95
 20
145.95
 30
0.0
 11
273.95
 21
158.9499999999999
 31
0.0
  0
LINE
  5
ADA4
330
AD47
100
AcDbEntity
  8
1
  6
Continuous
100
AcDbLine
 10
304.95
 20
145.95
 30
0.0
 11
304.95
 21
158.9499999999999
 31
0.0
  0
LINE
  5
ADA5
330
AD47
100
AcDbEntity
  8
1
  6
Continuous
100
AcDbLine
 10
277.6089
 20
189.15
 30
0.0
 11
301.2910999999999
 21
189.15
 31
0.0
  0
LINE
  5
ADA6
330
AD47
100
AcDbEntity
  8
1
  6
Continuous
100
AcDbLine
 10
274.6089
 20
189.6499999999998
 30
0.0
 11
274.6089
 21
190.15
 31
0.0
  0
LINE
  5
ADA7
330
AD47
100
AcDbEntity
  8
1
  6
Continuous
100
AcDbLine
 10
304.2910999999999
 20
189.6499999999998
 30
0.0
 11
304.2910999999999
 21
190.15
 31
0.0
  0
ARC
  5
ADA8
330
AD47
100
AcDbEntity
  8
1
  6
Continuous
100
AcDbCircle
 10
148.4499999999998
 20
258.1332279999999
 30
0.0
 40
21.31677199999999
100
AcDbArc
 50
59.317968
 51
90.0
  0
ARC
  5
ADA9
330
AD47
100
AcDbEntity
  8
1
  6
Continuous
100
AcDbCircle
 10
192.4499999999999
 20
258.1332279999999
 30
0.0
 40
21.31677199999999
100
AcDbArc
 50
90.0
 51
120.682032
  0
ARC
  5
ADAA
330
AD47
100
AcDbEntity
  8
1
  6
Continuous
100
AcDbCircle
 10
148.4499999999998
 20
256.766773
 30
0.0
 40
21.31677199999999
100
AcDbArc
 50
270.0
 51
300.682032
  0
ARC
  5
ADAB
330
AD47
100
AcDbEntity
  8
1
  6
Continuous
100
AcDbCircle
 10
192.4499999999999
 20
256.766773
 30
0.0
 40
21.31677199999999
100
AcDbArc
 50
239.317968
 51
270.0
  0
LINE
  5
ADAC
330
AD47
100
AcDbEntity
  8
1
  6
Continuous
100
AcDbLine
 10
307.5
 20
142.1
 30
0.0
 11
305.2
 21
142.1
 31
0.0
  0
LINE
  5
ADAD
330
AD47
100
AcDbEntity
  8
1
  6
Continuous
100
AcDbLine
 10
304.95
 20
156.4499999999999
 30
0.0
 11
305.2
 21
156.4499999999999
 31
0.0
  0
LINE
  5
ADAE
330
AD47
100
AcDbEntity
  8
1
  6
Continuous
100
AcDbLine
 10
304.95
 20
148.4499999999998
 30
0.0
 11
305.2
 21
148.4499999999998
 31
0.0
  0
LINE
  5
ADAF
330
AD47
100
AcDbEntity
  8
1
  6
Continuous
100
AcDbLine
 10
167.05
 20
283.9
 30
0.0
 11
173.8499999999999
 21
283.9
 31
0.0
  0
LINE
  5
ADB0
330
AD47
100
AcDbEntity
  8
1
  6
Continuous
100
AcDbLine
 10
166.4499999999998
 20
283.3
 30
0.0
 11
166.4499999999998
 21
282.5
 31
0.0
  0
LINE
  5
ADB1
330
AD47
100
AcDbEntity
  8
1
  6
Continuous
100
AcDbLine
 10
174.4499999999999
 20
283.3
 30
0.0
 11
174.4499999999999
 21
282.5
 31
0.0
  0
LINE
  5
ADB2
330
AD47
100
AcDbEntity
  8
1
  6
Continuous
100
AcDbLine
 10
146.8887239999999
 20
189.15
 30
0.0
 11
148.747154
 21
189.15
 31
0.0
  0
ARC
  5
ADB3
330
AD47
100
AcDbEntity
  8
1
  6
Continuous
100
AcDbCircle
 10
146.8887239999999
 20
198.4
 30
0.0
 40
9.25
100
AcDbArc
 50
251.075356
 51
270.0
  0
LINE
  5
ADB4
330
AD47
100
AcDbEntity
  8
1
  6
Continuous
100
AcDbLine
 10
197.011276
 20
190.15
 30
0.0
 11
197.011276
 21
189.6499999999998
 31
0.0
  0
LINE
  5
ADB5
330
AD47
100
AcDbEntity
  8
1
  6
Continuous
100
AcDbLine
 10
194.011276
 20
189.15
 30
0.0
 11
192.1528459999999
 21
189.15
 31
0.0
  0
ARC
  5
ADB6
330
AD47
100
AcDbEntity
  8
1
  6
Continuous
100
AcDbCircle
 10
194.011276
 20
198.4
 30
0.0
 40
9.25
100
AcDbArc
 50
270.0
 51
288.9246439999999
  0
ARC
  5
ADB7
330
AD47
100
AcDbEntity
  8
1
  6
Continuous
100
AcDbCircle
 10
277.6089
 20
198.4
 30
0.0
 40
9.25
100
AcDbArc
 50
251.075356
 51
270.0
  0
ARC
  5
ADB8
330
AD47
100
AcDbEntity
  8
1
  6
Continuous
100
AcDbCircle
 10
301.2910999999999
 20
198.4
 30
0.0
 40
9.25
100
AcDbArc
 50
270.0
 51
288.9246439999999
  0
LINE
  5
ADB9
330
AD47
100
AcDbEntity
  8
1
  6
Continuous
100
AcDbLine
 10
166.4499999999998
 20
283.3
 30
0.0
 11
174.4499999999999
 21
283.3
 31
0.0
  0
LINE
  5
ADBA
330
AD47
100
AcDbEntity
  8
1
  6
Continuous
100
AcDbLine
 10
143.8887239999999
 20
189.6499999999998
 30
0.0
 11
148.598577
 21
189.6499999999998
 31
0.0
  0
LINE
  5
ADBB
330
AD47
100
AcDbEntity
  8
1
  6
Continuous
100
AcDbLine
 10
197.011276
 20
189.6499999999998
 30
0.0
 11
192.3014229999998
 21
189.6499999999998
 31
0.0
  0
LINE
  5
ADBC
330
AD47
100
AcDbEntity
  8
1
  6
Continuous
100
AcDbLine
 10
274.6089
 20
189.6499999999998
 30
0.0
 11
304.2910999999999
 21
189.6499999999998
 31
0.0
  0
ARC
  5
ADBD
330
AD47
100
AcDbEntity
  8
1
  6
Continuous
100
AcDbCircle
 10
306.950043
 20
187.9499999999999
 30
0.0
 40
4.5
100
AcDbArc
 50
359.7470819999998
 51
29.267578
  0
ARC
  5
ADBE
330
AD47
100
AcDbEntity
  8
1
  6
Continuous
100
AcDbCircle
 10
143.475203
 20
187.949601
 30
0.0
 40
167.974797
100
AcDbArc
 50
348.233432
 51
0.006919
  0
LINE
  5
ADBF
330
AD47
100
AcDbEntity
  8
1
  6
Continuous
100
AcDbLine
 10
162.848264
 20
148.995133
 30
0.0
 11
162.848264
 21
187.9499999999999
 31
0.0
  0
LINE
  5
ADC0
330
AD47
100
AcDbEntity
  8
1
  6
Continuous
100
AcDbLine
 10
178.051736
 20
148.995133
 30
0.0
 11
178.051736
 21
187.9499999999999
 31
0.0
  0
LINE
  5
ADC1
330
AD47
100
AcDbEntity
  8
4
  6
CENTER
100
AcDbLine
 10
130.4499999999999
 20
257.45
 30
0.0
 11
210.4499999999999
 21
257.45
 31
0.0
  0
LINE
  5
ADC2
330
AD47
100
AcDbEntity
  8
4
  6
CENTER
100
AcDbLine
 10
170.4499999999999
 20
129.4499999999999
 30
0.0
 11
170.4499999999999
 21
195.4499999999999
 31
0.0
  0
LINE
  5
ADC3
330
AD47
100
AcDbEntity
  8
4
  6
CENTER
100
AcDbLine
 10
147.4499999999999
 20
152.4499999999999
 30
0.0
 11
193.4499999999999
 21
152.4499999999999
 31
0.0
  0
LINE
  5
ADC4
330
AD47
100
AcDbEntity
  8
4
  6
CENTER
100
AcDbLine
 10
134.1999999999998
 20
242.45
 30
0.0
 11
146.6999999999998
 21
242.45
 31
0.0
  0
LINE
  5
ADC5
330
AD47
100
AcDbEntity
  8
4
  6
CENTER
100
AcDbLine
 10
140.4499999999998
 20
248.7
 30
0.0
 11
140.4499999999998
 21
236.2
 31
0.0
  0
LINE
  5
ADC6
330
AD47
100
AcDbEntity
  8
4
  6
CENTER
100
AcDbLine
 10
134.1999999999998
 20
272.4499999999998
 30
0.0
 11
146.6999999999998
 21
272.4499999999998
 31
0.0
  0
LINE
  5
ADC7
330
AD47
100
AcDbEntity
  8
4
  6
CENTER
100
AcDbLine
 10
140.4499999999998
 20
278.6999999999998
 30
0.0
 11
140.4499999999998
 21
266.1999999999998
 31
0.0
  0
LINE
  5
ADC8
330
AD47
100
AcDbEntity
  8
4
  6
CENTER
100
AcDbLine
 10
194.1999999999999
 20
272.4499999999998
 30
0.0
 11
206.6999999999999
 21
272.4499999999998
 31
0.0
  0
LINE
  5
ADC9
330
AD47
100
AcDbEntity
  8
4
  6
CENTER
100
AcDbLine
 10
200.4499999999999
 20
278.6999999999998
 30
0.0
 11
200.4499999999999
 21
266.1999999999998
 31
0.0
  0
LINE
  5
ADCA
330
AD47
100
AcDbEntity
  8
4
  6
CENTER
100
AcDbLine
 10
194.1999999999999
 20
242.45
 30
0.0
 11
206.6999999999999
 21
242.45
 31
0.0
  0
LINE
  5
ADCB
330
AD47
100
AcDbEntity
  8
4
  6
CENTER
100
AcDbLine
 10
200.4499999999999
 20
248.7
 30
0.0
 11
200.4499999999999
 21
236.2
 31
0.0
  0
LINE
  5
ADCC
330
AD47
100
AcDbEntity
  8
4
  6
CENTER
100
AcDbLine
 10
289.4499999999998
 20
129.4499999999999
 30
0.0
 11
289.4499999999998
 21
195.4499999999999
 31
0.0
  0
LINE
  5
ADCD
330
AD47
100
AcDbEntity
  8
4
  6
CENTER
100
AcDbLine
 10
263.6499509999998
 20
152.4499999999999
 30
0.0
 11
319.1499509999998
 21
152.4499999999999
 31
0.0
  0
LINE
  5
ADCE
330
AD47
100
AcDbEntity
  8
4
  6
CENTER
100
AcDbLine
 10
170.4499999999999
 20
231.65
 30
0.0
 11
170.4499999999999
 21
286.911449
 31
0.0
  0
LINE
  5
ADCF
330
AD47
100
AcDbEntity
  8
4
  6
CENTER
100
AcDbLine
 10
140.4499999999998
 20
194.9365069999998
 30
0.0
 11
140.4499999999998
 21
187.7902169999999
 31
0.0
  0
LINE
  5
ADD0
330
AD47
100
AcDbEntity
  8
4
  6
CENTER
100
AcDbLine
 10
200.4499999999999
 20
194.9365069999998
 30
0.0
 11
200.4499999999999
 21
187.7902169999999
 31
0.0
  0
LINE
  5
ADD1
330
AD47
100
AcDbEntity
  8
4
  6
CENTER
100
AcDbLine
 10
274.4499999999998
 20
194.2619579999999
 30
0.0
 11
274.4499999999998
 21
187.654122
 31
0.0
  0
LINE
  5
ADD2
330
AD47
100
AcDbEntity
  8
4
  6
CENTER
100
AcDbLine
 10
304.4499999999998
 20
194.2619579999999
 30
0.0
 11
304.4499999999998
 21
187.654122
 31
0.0
  0
ARC
  5
ADD3
330
AD47
100
AcDbEntity
  8
1
  6
Continuous
100
AcDbCircle
 10
164.3887239999999
 20
257.45
 30
0.0
 40
20.0
100
AcDbArc
 50
137.417045
 51
222.5810889999999
  0
ARC
  5
ADD4
330
AD47
100
AcDbEntity
  8
1
  6
Continuous
100
AcDbCircle
 10
176.511276
 20
257.45
 30
0.0
 40
20.0
100
AcDbArc
 50
317.4189109999999
 51
42.582955
  0
LINE
  5
ADD5
330
AD47
100
AcDbEntity
  8
1
  6
Continuous
100
AcDbLine
 10
168.4499999999998
 20
277.4999999999999
 30
0.0
 11
170.4499999999999
 21
275.4999999999999
 31
0.0
  0
LINE
  5
ADD6
330
AD47
100
AcDbEntity
  8
1
  6
Continuous
100
AcDbLine
 10
170.4499999999999
 20
277.4999999999999
 30
0.0
 11
172.4499999999999
 21
275.4999999999999
 31
0.0
  0
ARC
  5
ADD7
330
AD47
100
AcDbEntity
  8
1
  6
Continuous
100
AcDbCircle
 10
167.4499999999999
 20
273.8349359999999
 30
0.0
 40
8.665063999999999
100
AcDbArc
 50
69.743842
 51
110.256158
  0
ARC
  5
ADD8
330
AD47
100
AcDbEntity
  8
1
  6
Continuous
100
AcDbCircle
 10
167.4499999999999
 20
286.1650639999999
 30
0.0
 40
8.665063999999999
100
AcDbArc
 50
249.7438419999999
 51
290.256158
  0
LINE
  5
ADD9
330
AD47
100
AcDbEntity
  8
1
  6
Continuous
100
AcDbLine
 10
176.4499999999999
 20
282.5
 30
0.0
 11
164.4499999999998
 21
282.5
 31
0.0
  0
LINE
  5
ADDA
330
AD47
100
AcDbEntity
  8
1
  6
Continuous
100
AcDbLine
 10
164.4499999999998
 20
277.4999999999999
 30
0.0
 11
164.4499999999998
 21
282.5
 31
0.0
  0
ARC
  5
ADDB
330
AD47
100
AcDbEntity
  8
1
  6
Continuous
100
AcDbCircle
 10
173.4499999999999
 20
273.8349359999999
 30
0.0
 40
8.665063999999999
100
AcDbArc
 50
69.743842
 51
110.256158
  0
ARC
  5
ADDC
330
AD47
100
AcDbEntity
  8
1
  6
Continuous
100
AcDbCircle
 10
173.4499999999999
 20
286.1650639999999
 30
0.0
 40
8.665063999999999
100
AcDbArc
 50
249.7438419999999
 51
290.256158
  0
LINE
  5
ADDD
330
AD47
100
AcDbEntity
  8
1
  6
Continuous
100
AcDbLine
 10
170.4499999999999
 20
281.964102
 30
0.0
 11
170.4499999999999
 21
278.0358979999999
 31
0.0
  0
LINE
  5
ADDE
330
AD47
100
AcDbEntity
  8
1
  6
Continuous
100
AcDbLine
 10
176.4499999999999
 20
277.4999999999999
 30
0.0
 11
176.4499999999999
 21
282.5
 31
0.0
  0
LINE
  5
ADDF
330
AD47
100
AcDbEntity
  8
2
  6
Continuous
100
AcDbLine
 10
173.7735
 20
282.5
 30
0.0
 11
173.7735
 21
283.9
 31
0.0
  0
LINE
  5
ADE0
330
AD47
100
AcDbEntity
  8
2
  6
Continuous
100
AcDbLine
 10
167.1265
 20
282.5
 30
0.0
 11
167.1265
 21
283.9
 31
0.0
  0
LINE
  5
ADE1
330
AD47
100
AcDbEntity
  8
1
  6
Continuous
100
AcDbLine
 10
307.5
 20
142.1
 30
0.0
 11
307.5
 21
149.6168679999998
 31
0.0
  0
LINE
  5
ADE2
330
AD47
100
AcDbEntity
  8
1
  6
Continuous
100
AcDbLine
 10
305.2
 20
142.1
 30
0.0
 11
305.2
 21
190.15
 31
0.0
  0
ARC
  5
ADE3
330
AD47
100
AcDbEntity
  8
1
  6
Continuous
100
AcDbCircle
 10
327.4999999999999
 20
149.6168679999998
 30
0.0
 40
20.0
100
AcDbArc
 50
168.233432
 51
180.0
  0
ARC
  5
ADE4
330
AD47
100
AcDbEntity
  8
1
  6
Continuous
100
AcDbCircle
 10
143.475203
 20
187.949601
 30
0.0
 40
165.6747969999998
100
AcDbArc
 50
348.233432
 51
0.006919
  0
ARC
  5
ADE5
330
AD47
100
AcDbEntity
  8
1
  6
Continuous
100
AcDbCircle
 10
306.950043
 20
187.9499999999999
 30
0.0
 40
2.2
100
AcDbArc
 50
359.7470819999998
 51
90.0
  0
ARC
  5
ADE6
330
AD47
100
AcDbEntity
  8
1
  6
Continuous
100
AcDbCircle
 10
327.4999999999999
 20
149.6168679999998
 30
0.0
 40
22.29999999999999
100
AcDbArc
 50
168.233432
 51
180.0
  0
ARC
  5
ADE7
330
AD47
100
AcDbEntity
  8
1
  6
Continuous
100
AcDbCircle
 10
271.9499569999999
 20
187.9499999999999
 30
0.0
 40
2.2
100
AcDbArc
 50
90.0
 51
180.252918
  0
ARC
  5
ADE8
330
AD47
100
AcDbEntity
  8
1
  6
Continuous
100
AcDbCircle
 10
271.9499569999999
 20
187.9499999999999
 30
0.0
 40
4.5
100
AcDbArc
 50
150.7324219999999
 51
180.252918
  0
ARC
  5
ADE9
330
AD47
100
AcDbEntity
  8
1
  6
Continuous
100
AcDbCircle
 10
435.4247969999998
 20
187.949601
 30
0.0
 40
165.6747969999998
100
AcDbArc
 50
179.993081
 51
191.766568
  0
ARC
  5
ADEA
330
AD47
100
AcDbEntity
  8
1
  6
Continuous
100
AcDbCircle
 10
435.4247969999998
 20
187.949601
 30
0.0
 40
167.974797
100
AcDbArc
 50
179.993081
 51
191.766568
  0
ARC
  5
ADEB
330
AD47
100
AcDbEntity
  8
1
  6
Continuous
100
AcDbCircle
 10
251.4
 20
149.6168679999998
 30
0.0
 40
20.0
100
AcDbArc
 50
0.0
 51
11.76656799999999
  0
ARC
  5
ADEC
330
AD47
100
AcDbEntity
  8
1
  6
Continuous
100
AcDbCircle
 10
251.4
 20
149.6168679999998
 30
0.0
 40
22.29999999999999
100
AcDbArc
 50
0.0
 51
11.76656799999999
  0
LINE
  5
ADED
330
AD47
100
AcDbEntity
  8
1
  6
Continuous
100
AcDbLine
 10
273.7
 20
142.1
 30
0.0
 11
273.7
 21
190.15
 31
0.0
  0
LINE
  5
ADEE
330
AD47
100
AcDbEntity
  8
1
  6
Continuous
100
AcDbLine
 10
271.3999999999999
 20
142.1
 30
0.0
 11
273.7
 21
142.1
 31
0.0
  0
LINE
  5
ADEF
330
AD47
100
AcDbEntity
  8
1
  6
Continuous
100
AcDbLine
 10
271.3999999999999
 20
142.1
 30
0.0
 11
271.3999999999999
 21
149.6168679999998
 31
0.0
  0
LINE
  5
ADF0
330
AD47
100
AcDbEntity
  8
1
  6
Continuous
100
AcDbLine
 10
273.95
 20
148.4499999999998
 30
0.0
 11
273.7
 21
148.4499999999998
 31
0.0
  0
LINE
  5
ADF1
330
AD47
100
AcDbEntity
  8
1
  6
Continuous
100
AcDbLine
 10
273.95
 20
156.4499999999999
 30
0.0
 11
273.7
 21
156.4499999999999
 31
0.0
  0
LINE
  5
ADF2
330
AD47
100
AcDbEntity
  8
1
  6
Continuous
100
AcDbLine
 10
269.0737619999998
 20
159.45
 30
0.0
 11
269.0737619999998
 21
145.4499999999999
 31
0.0
  0
ARC
  5
ADF3
330
AD47
100
AcDbEntity
  8
1
  6
Continuous
100
AcDbCircle
 10
276.8999999999999
 20
152.4499999999999
 30
0.0
 40
10.5
100
AcDbArc
 50
138.1896849999999
 51
221.810315
  0
LINE
  5
ADF4
330
AD47
100
AcDbEntity
  8
1
  6
Continuous
100
AcDbLine
 10
269.0737619999998
 20
159.45
 30
0.0
 11
269.88536
 21
159.45
 31
0.0
  0
LINE
  5
ADF5
330
AD47
100
AcDbEntity
  8
1
  6
Continuous
100
AcDbLine
 10
269.0737619999998
 20
145.4499999999999
 30
0.0
 11
271.3999999999999
 21
145.4499999999999
 31
0.0
  0
LINE
  5
ADF6
330
AD47
100
AcDbEntity
  8
1
  6
Continuous
100
AcDbLine
 10
309.5
 20
159.9499999999999
 30
0.0
 11
309.5
 21
144.95
 31
0.0
  0
LINE
  5
ADF7
330
AD47
100
AcDbEntity
  8
1
  6
Continuous
100
AcDbLine
 10
309.099944
 20
159.9499999999999
 30
0.0
 11
309.5
 21
159.9499999999999
 31
0.0
  0
LINE
  5
ADF8
330
AD47
100
AcDbEntity
  8
1
  6
Continuous
100
AcDbLine
 10
315.3
 20
156.4499999999999
 30
0.0
 11
314.5
 21
156.4499999999999
 31
0.0
  0
LINE
  5
ADF9
330
AD47
100
AcDbEntity
  8
2
  6
Continuous
100
AcDbLine
 10
314.5
 20
155.7735
 30
0.0
 11
315.8999999999999
 21
155.7735
 31
0.0
  0
LINE
  5
ADFA
330
AD47
100
AcDbEntity
  8
2
  6
Continuous
100
AcDbLine
 10
314.5
 20
149.1265
 30
0.0
 11
315.8999999999999
 21
149.1265
 31
0.0
  0
LINE
  5
ADFB
330
AD47
100
AcDbEntity
  8
1
  6
Continuous
100
AcDbLine
 10
315.3
 20
148.4499999999998
 30
0.0
 11
314.5
 21
148.4499999999998
 31
0.0
  0
LINE
  5
ADFC
330
AD47
100
AcDbEntity
  8
1
  6
Continuous
100
AcDbLine
 10
309.5
 20
152.4499999999999
 30
0.0
 11
307.518124
 21
150.468124
 31
0.0
  0
LINE
  5
ADFD
330
AD47
100
AcDbEntity
  8
1
  6
Continuous
100
AcDbLine
 10
309.5
 20
154.45
 30
0.0
 11
307.7370559999998
 21
152.687056
 31
0.0
  0
LINE
  5
ADFE
330
AD47
100
AcDbEntity
  8
1
  6
Continuous
100
AcDbLine
 10
307.5
 20
144.95
 30
0.0
 11
309.5
 21
144.95
 31
0.0
  0
LINE
  5
ADFF
330
AD47
100
AcDbEntity
  8
1
  6
Continuous
100
AcDbLine
 10
315.8999999999999
 20
155.8499999999999
 30
0.0
 11
315.8999999999999
 21
149.05
 31
0.0
  0
LINE
  5
AE00
330
AD47
100
AcDbEntity
  8
1
  6
Continuous
100
AcDbLine
 10
315.3
 20
156.4499999999999
 30
0.0
 11
315.3
 21
148.4499999999998
 31
0.0
  0
ARC
  5
AE01
330
AD47
100
AcDbEntity
  8
1
  6
Continuous
100
AcDbCircle
 10
320.964102
 20
152.4499999999999
 30
0.0
 40
11.464102
100
AcDbArc
 50
162.412046
 51
197.5879539999999
  0
ARC
  5
AE02
330
AD47
100
AcDbEntity
  8
1
  6
Continuous
100
AcDbCircle
 10
303.0358979999999
 20
152.4499999999999
 30
0.0
 40
11.464102
100
AcDbArc
 50
342.4120459999999
 51
17.587954
  0
LINE
  5
AE03
330
AD47
100
AcDbEntity
  8
1
  6
Continuous
100
AcDbLine
 10
314.5
 20
146.4499999999999
 30
0.0
 11
314.5
 21
158.45
 31
0.0
  0
LINE
  5
AE04
330
AD47
100
AcDbEntity
  8
1
  6
Continuous
100
AcDbLine
 10
310.0358979999999
 20
159.378203
 30
0.0
 11
309.5
 21
158.45
 31
0.0
  0
LINE
  5
AE05
330
AD47
100
AcDbEntity
  8
1
  6
Continuous
100
AcDbLine
 10
313.964102
 20
159.378203
 30
0.0
 11
314.5
 21
158.45
 31
0.0
  0
LINE
  5
AE06
330
AD47
100
AcDbEntity
  8
1
  6
Continuous
100
AcDbLine
 10
313.964102
 20
159.378203
 30
0.0
 11
310.0358979999999
 21
159.378203
 31
0.0
  0
LINE
  5
AE07
330
AD47
100
AcDbEntity
  8
1
  6
Continuous
100
AcDbLine
 10
313.964102
 20
155.914102
 30
0.0
 11
310.0358979999999
 21
155.914102
 31
0.0
  0
ARC
  5
AE08
330
AD47
100
AcDbEntity
  8
1
  6
Continuous
100
AcDbCircle
 10
311.433013
 20
157.646152
 30
0.0
 40
3.066986999999998
100
AcDbArc
 50
325.6157529999999
 51
25.615753
  0
ARC
  5
AE09
330
AD47
100
AcDbEntity
  8
1
  6
Continuous
100
AcDbCircle
 10
312.5669869999999
 20
157.646152
 30
0.0
 40
3.066986999999998
100
AcDbArc
 50
154.3842469999999
 51
214.384247
  0
ARC
  5
AE0A
330
AD47
100
AcDbEntity
  8
1
  6
Continuous
100
AcDbCircle
 10
312.5669869999999
 20
147.253848
 30
0.0
 40
3.066986999999998
100
AcDbArc
 50
145.615753
 51
205.615753
  0
ARC
  5
AE0B
330
AD47
100
AcDbEntity
  8
1
  6
Continuous
100
AcDbCircle
 10
311.433013
 20
147.253848
 30
0.0
 40
3.066986999999998
100
AcDbArc
 50
334.384247
 51
34.38424699999998
  0
LINE
  5
AE0C
330
AD47
100
AcDbEntity
  8
1
  6
Continuous
100
AcDbLine
 10
313.964102
 20
148.9858979999999
 30
0.0
 11
310.0358979999999
 21
148.9858979999999
 31
0.0
  0
LINE
  5
AE0D
330
AD47
100
AcDbEntity
  8
1
  6
Continuous
100
AcDbLine
 10
313.964102
 20
145.5217969999999
 30
0.0
 11
310.0358979999999
 21
145.5217969999999
 31
0.0
  0
LINE
  5
AE0E
330
AD47
100
AcDbEntity
  8
1
  6
Continuous
100
AcDbLine
 10
313.964102
 20
145.5217969999999
 30
0.0
 11
314.5
 21
146.4499999999999
 31
0.0
  0
LINE
  5
AE0F
330
AD47
100
AcDbEntity
  8
1
  6
Continuous
100
AcDbLine
 10
310.0358979999999
 20
145.5217969999999
 30
0.0
 11
309.5
 21
146.4499999999999
 31
0.0
  0
LINE
  5
AE10
330
AD47
100
AcDbEntity
  8
4
  6
CENTER
100
AcDbLine
 10
51.45
 20
129.4499999999999
 30
0.0
 11
51.45
 21
195.4499999999999
 31
0.0
  0
LINE
  5
AE11
330
AD47
100
AcDbEntity
  8
1
  6
Continuous
100
AcDbLine
 10
35.70000000000001
 20
142.1
 30
0.0
 11
35.70000000000001
 21
190.15
 31
0.0
  0
ARC
  5
AE12
330
AD47
100
AcDbEntity
  8
1
  6
Continuous
100
AcDbCircle
 10
197.424797
 20
187.949601
 30
0.0
 40
167.974797
100
AcDbArc
 50
179.993081
 51
191.766568
  0
ARC
  5
AE13
330
AD47
100
AcDbEntity
  8
1
  6
Continuous
100
AcDbCircle
 10
197.424797
 20
187.949601
 30
0.0
 40
165.6747969999998
100
AcDbArc
 50
179.993081
 51
191.766568
  0
ARC
  5
AE14
330
AD47
100
AcDbEntity
  8
1
  6
Continuous
100
AcDbCircle
 10
-94.52479700000001
 20
187.949601
 30
0.0
 40
165.6747969999998
100
AcDbArc
 50
348.233432
 51
0.006919
  0
ARC
  5
AE15
330
AD47
100
AcDbEntity
  8
1
  6
Continuous
100
AcDbCircle
 10
-94.52479700000001
 20
187.949601
 30
0.0
 40
167.974797
100
AcDbArc
 50
348.233432
 51
0.006919
  0
LINE
  5
AE16
330
AD47
100
AcDbEntity
  8
1
  6
Continuous
100
AcDbLine
 10
67.2
 20
142.1
 30
0.0
 11
67.2
 21
190.15
 31
0.0
  0
LINE
  5
AE17
330
AD47
100
AcDbEntity
  8
1
  6
Continuous
100
AcDbLine
 10
31.4
 20
159.9499999999999
 30
0.0
 11
31.4
 21
144.95
 31
0.0
  0
LINE
  5
AE18
330
AD47
100
AcDbEntity
  8
1
  6
Continuous
100
AcDbLine
 10
71.826238
 20
159.45
 30
0.0
 11
71.826238
 21
145.4499999999999
 31
0.0
  0
ARC
  5
AE19
330
AD47
100
AcDbEntity
  8
1
  6
Continuous
100
AcDbCircle
 10
64.0
 20
152.4499999999999
 30
0.0
 40
10.5
100
AcDbArc
 50
318.189685
 51
41.810315
  0
ARC
  5
AE1A
330
AD47
100
AcDbEntity
  8
1
  6
Continuous
100
AcDbCircle
 10
28.333013
 20
157.646152
 30
0.0
 40
3.066986999999998
100
AcDbArc
 50
325.6157529999999
 51
25.615753
  0
ARC
  5
AE1B
330
AD47
100
AcDbEntity
  8
1
  6
Continuous
100
AcDbCircle
 10
29.466987
 20
157.646152
 30
0.0
 40
3.066986999999998
100
AcDbArc
 50
154.3842469999999
 51
214.384247
  0
LINE
  5
AE1C
330
AD47
100
AcDbEntity
  8
1
  6
Continuous
100
AcDbLine
 10
26.4
 20
146.4499999999999
 30
0.0
 11
26.4
 21
158.45
 31
0.0
  0
LINE
  5
AE1D
330
AD47
100
AcDbEntity
  8
4
  6
CENTER
100
AcDbLine
 10
77.250049
 20
152.4499999999999
 30
0.0
 11
21.750049
 21
152.4499999999999
 31
0.0
  0
ARC
  5
AE1E
330
AD47
100
AcDbEntity
  8
1
  6
Continuous
100
AcDbCircle
 10
89.50000000000001
 20
149.6168679999998
 30
0.0
 40
20.0
100
AcDbArc
 50
168.233432
 51
180.0
  0
ARC
  5
AE1F
330
AD47
100
AcDbEntity
  8
1
  6
Continuous
100
AcDbCircle
 10
89.50000000000001
 20
149.6168679999998
 30
0.0
 40
22.29999999999999
100
AcDbArc
 50
168.233432
 51
180.0
  0
LINE
  5
AE20
330
AD47
100
AcDbEntity
  8
1
  6
Continuous
100
AcDbLine
 10
69.5
 20
142.1
 30
0.0
 11
67.2
 21
142.1
 31
0.0
  0
LINE
  5
AE21
330
AD47
100
AcDbEntity
  8
1
  6
Continuous
100
AcDbLine
 10
69.5
 20
142.1
 30
0.0
 11
69.5
 21
149.6168679999998
 31
0.0
  0
LINE
  5
AE22
330
AD47
100
AcDbEntity
  8
1
  6
Continuous
100
AcDbLine
 10
66.95
 20
148.4499999999998
 30
0.0
 11
67.2
 21
148.4499999999998
 31
0.0
  0
LINE
  5
AE23
330
AD47
100
AcDbEntity
  8
1
  6
Continuous
100
AcDbLine
 10
66.95
 20
156.4499999999999
 30
0.0
 11
67.2
 21
156.4499999999999
 31
0.0
  0
LINE
  5
AE24
330
AD47
100
AcDbEntity
  8
1
  6
Continuous
100
AcDbLine
 10
71.826238
 20
145.4499999999999
 30
0.0
 11
69.5
 21
145.4499999999999
 31
0.0
  0
LINE
  5
AE25
330
AD47
100
AcDbEntity
  8
1
  6
Continuous
100
AcDbLine
 10
26.93589799999999
 20
145.5217969999999
 30
0.0
 11
30.86410199999999
 21
145.5217969999999
 31
0.0
  0
LINE
  5
AE26
330
AD47
100
AcDbEntity
  8
1
  6
Continuous
100
AcDbLine
 10
26.93589799999999
 20
148.9858979999999
 30
0.0
 11
30.86410199999999
 21
148.9858979999999
 31
0.0
  0
LINE
  5
AE27
330
AD47
100
AcDbEntity
  8
1
  6
Continuous
100
AcDbLine
 10
26.93589799999999
 20
155.914102
 30
0.0
 11
30.86410199999999
 21
155.914102
 31
0.0
  0
LINE
  5
AE28
330
AD47
100
AcDbEntity
  8
1
  6
Continuous
100
AcDbLine
 10
30.86410199999999
 20
145.5217969999999
 30
0.0
 11
31.4
 21
146.4499999999999
 31
0.0
  0
ARC
  5
AE29
330
AD47
100
AcDbEntity
  8
1
  6
Continuous
100
AcDbCircle
 10
28.333013
 20
147.253848
 30
0.0
 40
3.066986999999998
100
AcDbArc
 50
334.384247
 51
34.38424699999998
  0
ARC
  5
AE2A
330
AD47
100
AcDbEntity
  8
1
  6
Continuous
100
AcDbCircle
 10
19.935898
 20
152.4499999999999
 30
0.0
 40
11.464102
100
AcDbArc
 50
342.4120459999999
 51
17.587954
  0
LINE
  5
AE2B
330
AD47
100
AcDbEntity
  8
1
  6
Continuous
100
AcDbLine
 10
33.39999999999999
 20
142.1
 30
0.0
 11
35.70000000000001
 21
142.1
 31
0.0
  0
LINE
  5
AE2C
330
AD47
100
AcDbEntity
  8
1
  6
Continuous
100
AcDbLine
 10
35.95000000000001
 20
156.4499999999999
 30
0.0
 11
35.70000000000001
 21
156.4499999999999
 31
0.0
  0
LINE
  5
AE2D
330
AD47
100
AcDbEntity
  8
1
  6
Continuous
100
AcDbLine
 10
35.95000000000001
 20
148.4499999999998
 30
0.0
 11
35.70000000000001
 21
148.4499999999998
 31
0.0
  0
ARC
  5
AE2E
330
AD47
100
AcDbEntity
  8
1
  6
Continuous
100
AcDbCircle
 10
13.4
 20
149.6168679999998
 30
0.0
 40
20.0
100
AcDbArc
 50
0.0
 51
11.76656799999999
  0
LINE
  5
AE2F
330
AD47
100
AcDbEntity
  8
1
  6
Continuous
100
AcDbLine
 10
33.39999999999999
 20
142.1
 30
0.0
 11
33.39999999999999
 21
149.6168679999998
 31
0.0
  0
ARC
  5
AE30
330
AD47
100
AcDbEntity
  8
1
  6
Continuous
100
AcDbCircle
 10
13.4
 20
149.6168679999998
 30
0.0
 40
22.29999999999999
100
AcDbArc
 50
0.0
 51
11.76656799999999
  0
LINE
  5
AE31
330
AD47
100
AcDbEntity
  8
1
  6
Continuous
100
AcDbLine
 10
33.39999999999999
 20
144.95
 30
0.0
 11
31.4
 21
144.95
 31
0.0
  0
LINE
  5
AE32
330
AD47
100
AcDbEntity
  8
1
  6
Continuous
100
AcDbLine
 10
31.4
 20
150.4499999999999
 30
0.0
 11
33.222858
 21
152.272858
 31
0.0
  0
LINE
  5
AE33
330
AD47
100
AcDbEntity
  8
1
  6
Continuous
100
AcDbLine
 10
31.4
 20
152.4499999999999
 30
0.0
 11
32.92228999999999
 21
153.9722899999999
 31
0.0
  0
LINE
  5
AE34
330
AD47
100
AcDbEntity
  8
2
  6
Continuous
100
AcDbLine
 10
26.4
 20
149.1265
 30
0.0
 11
25.0
 21
149.1265
 31
0.0
  0
LINE
  5
AE35
330
AD47
100
AcDbEntity
  8
1
  6
Continuous
100
AcDbLine
 10
25.6
 20
148.4499999999998
 30
0.0
 11
26.4
 21
148.4499999999998
 31
0.0
  0
LINE
  5
AE36
330
AD47
100
AcDbEntity
  8
1
  6
Continuous
100
AcDbLine
 10
25.6
 20
156.4499999999999
 30
0.0
 11
26.4
 21
156.4499999999999
 31
0.0
  0
LINE
  5
AE37
330
AD47
100
AcDbEntity
  8
2
  6
Continuous
100
AcDbLine
 10
26.4
 20
155.7735
 30
0.0
 11
25.0
 21
155.7735
 31
0.0
  0
LINE
  5
AE38
330
AD47
100
AcDbEntity
  8
1
  6
Continuous
100
AcDbLine
 10
25.0
 20
155.8499999999999
 30
0.0
 11
25.0
 21
149.05
 31
0.0
  0
LINE
  5
AE39
330
AD47
100
AcDbEntity
  8
1
  6
Continuous
100
AcDbLine
 10
25.6
 20
156.4499999999999
 30
0.0
 11
25.6
 21
148.4499999999998
 31
0.0
  0
ARC
  5
AE3A
330
AD47
100
AcDbEntity
  8
1
  6
Continuous
100
AcDbCircle
 10
29.466987
 20
147.253848
 30
0.0
 40
3.066986999999998
100
AcDbArc
 50
145.615753
 51
205.615753
  0
LINE
  5
AE3B
330
AD47
100
AcDbEntity
  8
1
  6
Continuous
100
AcDbLine
 10
26.93589799999999
 20
145.5217969999999
 30
0.0
 11
26.4
 21
146.4499999999999
 31
0.0
  0
ARC
  5
AE3C
330
AD47
100
AcDbEntity
  8
1
  6
Continuous
100
AcDbCircle
 10
37.86410200000001
 20
152.4499999999999
 30
0.0
 40
11.464102
100
AcDbArc
 50
162.412046
 51
197.5879539999999
  0
LINE
  5
AE3D
330
AD47
100
AcDbEntity
  8
1
  6
Continuous
100
AcDbLine
 10
63.2911
 20
189.15
 30
0.0
 11
39.6089
 21
189.15
 31
0.0
  0
LINE
  5
AE3E
330
AD47
100
AcDbEntity
  8
1
  6
Continuous
100
AcDbLine
 10
73.45
 20
192.4499999999999
 30
0.0
 11
29.45
 21
192.4499999999999
 31
0.0
  0
LINE
  5
AE3F
330
AD47
100
AcDbEntity
  8
1
  6
Continuous
100
AcDbLine
 10
73.45
 20
190.15
 30
0.0
 11
29.45
 21
190.15
 31
0.0
  0
LINE
  5
AE40
330
AD47
100
AcDbEntity
  8
1
  6
Continuous
100
AcDbLine
 10
66.2911
 20
189.6499999999998
 30
0.0
 11
36.6089
 21
189.6499999999998
 31
0.0
  0
LINE
  5
AE41
330
AD47
100
AcDbEntity
  8
1
  6
Continuous
100
AcDbLine
 10
71.826238
 20
159.45
 30
0.0
 11
71.01463999999999
 21
159.45
 31
0.0
  0
LINE
  5
AE42
330
AD47
100
AcDbEntity
  8
1
  6
Continuous
100
AcDbLine
 10
73.45
 20
192.4499999999999
 30
0.0
 11
73.45
 21
190.15
 31
0.0
  0
LINE
  5
AE43
330
AD47
100
AcDbEntity
  8
1
  6
Continuous
100
AcDbLine
 10
66.2911
 20
189.6499999999998
 30
0.0
 11
66.2911
 21
190.15
 31
0.0
  0
LINE
  5
AE44
330
AD47
100
AcDbEntity
  8
4
  6
CENTER
100
AcDbLine
 10
66.45
 20
194.2619579999999
 30
0.0
 11
66.45
 21
187.654122
 31
0.0
  0
ARC
  5
AE45
330
AD47
100
AcDbEntity
  8
1
  6
Continuous
100
AcDbCircle
 10
68.950043
 20
187.9499999999999
 30
0.0
 40
2.2
100
AcDbArc
 50
359.7470819999998
 51
90.0
  0
ARC
  5
AE46
330
AD47
100
AcDbEntity
  8
1
  6
Continuous
100
AcDbCircle
 10
68.950043
 20
187.9499999999999
 30
0.0
 40
4.5
100
AcDbArc
 50
359.7470819999998
 51
29.267578
  0
ARC
  5
AE47
330
AD47
100
AcDbEntity
  8
1
  6
Continuous
100
AcDbCircle
 10
63.2911
 20
198.4
 30
0.0
 40
9.25
100
AcDbArc
 50
270.0
 51
288.9246439999999
  0
LINE
  5
AE48
330
AD47
100
AcDbEntity
  8
1
  6
Continuous
100
AcDbLine
 10
26.93589799999999
 20
159.378203
 30
0.0
 11
30.86410199999999
 21
159.378203
 31
0.0
  0
LINE
  5
AE49
330
AD47
100
AcDbEntity
  8
1
  6
Continuous
100
AcDbLine
 10
31.800056
 20
159.9499999999999
 30
0.0
 11
31.4
 21
159.9499999999999
 31
0.0
  0
LINE
  5
AE4A
330
AD47
100
AcDbEntity
  8
1
  6
Continuous
100
AcDbLine
 10
30.86410199999999
 20
159.378203
 30
0.0
 11
31.4
 21
158.45
 31
0.0
  0
LINE
  5
AE4B
330
AD47
100
AcDbEntity
  8
1
  6
Continuous
100
AcDbLine
 10
36.6089
 20
189.6499999999998
 30
0.0
 11
36.6089
 21
190.15
 31
0.0
  0
ARC
  5
AE4C
330
AD47
100
AcDbEntity
  8
1
  6
Continuous
100
AcDbCircle
 10
39.6089
 20
198.4
 30
0.0
 40
9.25
100
AcDbArc
 50
251.075356
 51
270.0
  0
LINE
  5
AE4D
330
AD47
100
AcDbEntity
  8
4
  6
CENTER
100
AcDbLine
 10
36.45
 20
194.2619579999999
 30
0.0
 11
36.45
 21
187.654122
 31
0.0
  0
ARC
  5
AE4E
330
AD47
100
AcDbEntity
  8
1
  6
Continuous
100
AcDbCircle
 10
33.94995699999999
 20
187.9499999999999
 30
0.0
 40
2.2
100
AcDbArc
 50
90.0
 51
180.252918
  0
LINE
  5
AE4F
330
AD47
100
AcDbEntity
  8
1
  6
Continuous
100
AcDbLine
 10
26.93589799999999
 20
159.378203
 30
0.0
 11
26.4
 21
158.45
 31
0.0
  0
LINE
  5
AE50
330
AD47
100
AcDbEntity
  8
1
  6
Continuous
100
AcDbLine
 10
29.45
 20
192.4499999999999
 30
0.0
 11
29.45
 21
190.15
 31
0.0
  0
ARC
  5
AE51
330
AD47
100
AcDbEntity
  8
1
  6
Continuous
100
AcDbCircle
 10
33.94995699999999
 20
187.9499999999999
 30
0.0
 40
4.5
100
AcDbArc
 50
150.7324219999999
 51
180.252918
  0
LINE
  5
AE52
330
AD47
100
AcDbEntity
  8
1
  6
Continuous
100
AcDbLine
 10
418.371239
 20
149.5018629999998
 30
0.0
 11
431.1334539999998
 21
192.4499999999999
 31
0.0
  0
LINE
  5
AE53
330
AD47
100
AcDbEntity
  8
1
  6
Continuous
100
AcDbLine
 10
398.5287609999998
 20
149.5018629999998
 30
0.0
 11
385.766545
 21
192.4499999999999
 31
0.0
  0
ARC
  5
AE54
330
AD47
100
AcDbEntity
  8
1
  6
Continuous
100
AcDbCircle
 10
408.45
 20
152.4499999999999
 30
0.0
 40
20.0
100
AcDbArc
 50
137.7142379999999
 51
42.285762
  0
LINE
  5
AE55
330
AD47
100
AcDbEntity
  8
1
  6
Continuous
100
AcDbLine
 10
416.051736
 20
148.995133
 30
0.0
 11
416.051736
 21
187.9499999999999
 31
0.0
  0
LINE
  5
AE56
330
AD47
100
AcDbEntity
  8
1
  6
Continuous
100
AcDbLine
 10
400.8482639999998
 20
148.995133
 30
0.0
 11
400.8482639999998
 21
187.9499999999999
 31
0.0
  0
LINE
  5
AE57
330
AD47
100
AcDbEntity
  8
4
  6
CENTER
100
AcDbLine
 10
408.45
 20
129.4499999999999
 30
0.0
 11
408.45
 21
195.4499999999999
 31
0.0
  0
LINE
  5
AE58
330
AD47
100
AcDbEntity
  8
4
  6
CENTER
100
AcDbLine
 10
431.4499999999998
 20
152.4499999999999
 30
0.0
 11
385.4499999999999
 21
152.4499999999999
 31
0.0
  0
ARC
  5
AE59
330
AD47
100
AcDbEntity
  8
1
  6
Continuous
100
AcDbCircle
 10
408.45
 20
152.4499999999999
 30
0.0
 40
10.34999999999999
100
AcDbArc
 50
196.5495329999999
 51
343.4504669999999
  0
LINE
  5
AE5A
330
AD47
100
AcDbEntity
  8
1
  6
Continuous
100
AcDbLine
 10
445.45
 20
192.4499999999999
 30
0.0
 11
371.45
 21
192.4499999999999
 31
0.0
  0
LINE
  5
AE5B
330
AD47
100
AcDbEntity
  8
1
  6
Continuous
100
AcDbLine
 10
430.4499999999999
 20
190.15
 30
0.0
 11
445.45
 21
190.15
 31
0.0
  0
LINE
  5
AE5C
330
AD47
100
AcDbEntity
  8
1
  6
Continuous
100
AcDbLine
 10
445.45
 20
190.15
 30
0.0
 11
445.45
 21
192.4499999999999
 31
0.0
  0
LINE
  5
AE5D
330
AD47
100
AcDbEntity
  8
1
  6
Continuous
100
AcDbLine
 10
435.011276
 20
190.15
 30
0.0
 11
435.011276
 21
189.6499999999998
 31
0.0
  0
LINE
  5
AE5E
330
AD47
100
AcDbEntity
  8
1
  6
Continuous
100
AcDbLine
 10
432.0112759999998
 20
189.15
 30
0.0
 11
430.152846
 21
189.15
 31
0.0
  0
ARC
  5
AE5F
330
AD47
100
AcDbEntity
  8
1
  6
Continuous
100
AcDbCircle
 10
432.0112759999998
 20
198.4
 30
0.0
 40
9.25
100
AcDbArc
 50
270.0
 51
288.9246439999999
  0
LINE
  5
AE60
330
AD47
100
AcDbEntity
  8
1
  6
Continuous
100
AcDbLine
 10
435.011276
 20
189.6499999999998
 30
0.0
 11
430.301423
 21
189.6499999999998
 31
0.0
  0
LINE
  5
AE61
330
AD47
100
AcDbEntity
  8
4
  6
CENTER
100
AcDbLine
 10
438.45
 20
194.9365069999998
 30
0.0
 11
438.45
 21
187.7902169999999
 31
0.0
  0
LINE
  5
AE62
330
AD47
100
AcDbEntity
  8
1
  6
Continuous
100
AcDbLine
 10
386.4499999999999
 20
190.15
 30
0.0
 11
371.45
 21
190.15
 31
0.0
  0
LINE
  5
AE63
330
AD47
100
AcDbEntity
  8
1
  6
Continuous
100
AcDbLine
 10
381.888724
 20
190.15
 30
0.0
 11
381.888724
 21
189.6499999999998
 31
0.0
  0
LINE
  5
AE64
330
AD47
100
AcDbEntity
  8
1
  6
Continuous
100
AcDbLine
 10
384.888724
 20
189.15
 30
0.0
 11
386.747154
 21
189.15
 31
0.0
  0
ARC
  5
AE65
330
AD47
100
AcDbEntity
  8
1
  6
Continuous
100
AcDbCircle
 10
384.888724
 20
198.4
 30
0.0
 40
9.25
100
AcDbArc
 50
251.075356
 51
270.0
  0
LINE
  5
AE66
330
AD47
100
AcDbEntity
  8
1
  6
Continuous
100
AcDbLine
 10
381.888724
 20
189.6499999999998
 30
0.0
 11
386.5985769999999
 21
189.6499999999998
 31
0.0
  0
LINE
  5
AE67
330
AD47
100
AcDbEntity
  8
1
  6
Continuous
100
AcDbLine
 10
371.45
 20
190.15
 30
0.0
 11
371.45
 21
192.4499999999999
 31
0.0
  0
LINE
  5
AE68
330
AD47
100
AcDbEntity
  8
4
  6
CENTER
100
AcDbLine
 10
378.4499999999999
 20
194.9365069999998
 30
0.0
 11
378.4499999999999
 21
187.7902169999999
 31
0.0
  0
CIRCLE
  5
AE69
330
AD47
100
AcDbEntity
  8
1
  6
Continuous
100
AcDbCircle
 10
140.4499999999998
 20
82.45
 30
0.0
 40
3.25
  0
CIRCLE
  5
AE6A
330
AD47
100
AcDbEntity
  8
1
  6
Continuous
100
AcDbCircle
 10
200.4499999999999
 20
82.45
 30
0.0
 40
3.25
  0
LINE
  5
AE6B
330
AD47
100
AcDbEntity
  8
1
  6
Continuous
100
AcDbLine
 10
133.45
 20
82.45
 30
0.0
 11
133.45
 21
52.45
 31
0.0
  0
LINE
  5
AE6C
330
AD47
100
AcDbEntity
  8
1
  6
Continuous
100
AcDbLine
 10
207.45
 20
82.45
 30
0.0
 11
207.45
 21
52.45
 31
0.0
  0
LINE
  5
AE6D
330
AD47
100
AcDbEntity
  8
4
  6
CENTER
100
AcDbLine
 10
140.4499999999998
 20
76.2
 30
0.0
 11
140.4499999999998
 21
88.7
 31
0.0
  0
LINE
  5
AE6E
330
AD47
100
AcDbEntity
  8
4
  6
CENTER
100
AcDbLine
 10
200.4499999999999
 20
76.2
 30
0.0
 11
200.4499999999999
 21
88.7
 31
0.0
  0
LINE
  5
AE6F
330
AD47
100
AcDbEntity
  8
4
  6
CENTER
100
AcDbLine
 10
170.4499999999999
 20
93.25000000000001
 30
0.0
 11
170.4499999999999
 21
37.988551
 31
0.0
  0
ARC
  5
AE70
330
AD47
100
AcDbEntity
  8
1
  6
Continuous
100
AcDbCircle
 10
148.4499999999998
 20
68.133227
 30
0.0
 40
21.31677199999999
100
AcDbArc
 50
59.317968
 51
90.0
  0
LINE
  5
AE71
330
AD47
100
AcDbEntity
  8
4
  6
CENTER
100
AcDbLine
 10
134.1999999999998
 20
82.45
 30
0.0
 11
146.6999999999998
 21
82.45
 31
0.0
  0
ARC
  5
AE72
330
AD47
100
AcDbEntity
  8
1
  6
Continuous
100
AcDbCircle
 10
140.4499999999998
 20
82.45
 30
0.0
 40
7.0
100
AcDbArc
 50
38.713692
 51
180.0
  0
LINE
  5
AE73
330
AD47
100
AcDbEntity
  8
1
  6
Continuous
100
AcDbLine
 10
148.4499999999998
 20
87.15000000000001
 30
0.0
 11
148.4499999999998
 21
89.45
 31
0.0
  0
ARC
  5
AE74
330
AD47
100
AcDbEntity
  8
1
  6
Continuous
100
AcDbCircle
 10
147.0823879999999
 20
87.76614700000001
 30
0.0
 40
1.5
100
AcDbArc
 50
218.7136919999999
 51
335.7470909999999
  0
ARC
  5
AE75
330
AD47
100
AcDbEntity
  8
1
  6
Continuous
100
AcDbCircle
 10
192.4499999999999
 20
68.133227
 30
0.0
 40
21.31677199999999
100
AcDbArc
 50
90.0
 51
120.682032
  0
LINE
  5
AE76
330
AD47
100
AcDbEntity
  8
1
  6
Continuous
100
AcDbLine
 10
162.848264
 20
85.5
 30
0.0
 11
178.051736
 21
85.5
 31
0.0
  0
ARC
  5
AE77
330
AD47
100
AcDbEntity
  8
1
  6
Continuous
100
AcDbCircle
 10
170.4499999999999
 20
80.0
 30
0.0
 40
10.5
100
AcDbArc
 50
48.189685
 51
131.810315
  0
LINE
  5
AE78
330
AD47
100
AcDbEntity
  8
1
  6
Continuous
100
AcDbLine
 10
163.4499999999999
 20
87.82623800000001
 30
0.0
 11
177.4499999999999
 21
87.82623800000001
 31
0.0
  0
ARC
  5
AE79
330
AD47
100
AcDbEntity
  8
1
  6
Continuous
100
AcDbCircle
 10
162.848264
 20
92.4
 30
0.0
 40
6.9
100
AcDbArc
 50
239.317968
 51
270.0
  0
LINE
  5
AE7A
330
AD47
100
AcDbEntity
  8
1
  6
Continuous
100
AcDbLine
 10
163.4499999999999
 20
87.82623800000001
 30
0.0
 11
163.4499999999999
 21
85.5
 31
0.0
  0
LINE
  5
AE7B
330
AD47
100
AcDbEntity
  8
1
  6
Continuous
100
AcDbLine
 10
177.4499999999999
 20
87.82623800000001
 30
0.0
 11
177.4499999999999
 21
85.5
 31
0.0
  0
ARC
  5
AE7C
330
AD47
100
AcDbEntity
  8
1
  6
Continuous
100
AcDbCircle
 10
178.051736
 20
92.4
 30
0.0
 40
6.9
100
AcDbArc
 50
270.0
 51
300.682032
  0
ARC
  5
AE7D
330
AD47
100
AcDbEntity
  8
1
  6
Continuous
100
AcDbCircle
 10
200.4499999999999
 20
82.45
 30
0.0
 40
7.0
100
AcDbArc
 50
0.0
 51
141.2863079999999
  0
LINE
  5
AE7E
330
AD47
100
AcDbEntity
  8
4
  6
CENTER
100
AcDbLine
 10
194.1999999999999
 20
82.45
 30
0.0
 11
206.6999999999999
 21
82.45
 31
0.0
  0
LINE
  5
AE7F
330
AD47
100
AcDbEntity
  8
1
  6
Continuous
100
AcDbLine
 10
192.4499999999999
 20
87.15000000000001
 30
0.0
 11
192.4499999999999
 21
89.45
 31
0.0
  0
ARC
  5
AE80
330
AD47
100
AcDbEntity
  8
1
  6
Continuous
100
AcDbCircle
 10
193.817612
 20
87.76614700000001
 30
0.0
 40
1.5
100
AcDbArc
 50
204.2529089999999
 51
321.286308
  0
ARC
  5
AE81
330
AD47
100
AcDbEntity
  8
1
  6
Continuous
100
AcDbCircle
 10
148.4499999999998
 20
66.766772
 30
0.0
 40
21.31677199999999
100
AcDbArc
 50
270.0
 51
300.682032
  0
LINE
  5
AE82
330
AD47
100
AcDbEntity
  8
4
  6
CENTER
100
AcDbLine
 10
130.4499999999999
 20
67.45
 30
0.0
 11
210.4499999999999
 21
67.45
 31
0.0
  0
LINE
  5
AE83
330
AD47
100
AcDbEntity
  8
4
  6
CENTER
100
AcDbLine
 10
140.4499999999998
 20
46.2
 30
0.0
 11
140.4499999999998
 21
58.7
 31
0.0
  0
LINE
  5
AE84
330
AD47
100
AcDbEntity
  8
4
  6
CENTER
100
AcDbLine
 10
134.1999999999998
 20
52.45
 30
0.0
 11
146.6999999999998
 21
52.45
 31
0.0
  0
ARC
  5
AE85
330
AD47
100
AcDbEntity
  8
1
  6
Continuous
100
AcDbCircle
 10
140.4499999999998
 20
52.45
 30
0.0
 40
7.0
100
AcDbArc
 50
180.0
 51
321.286308
  0
CIRCLE
  5
AE86
330
AD47
100
AcDbEntity
  8
1
  6
Continuous
100
AcDbCircle
 10
140.4499999999998
 20
52.45
 30
0.0
 40
3.25
  0
LINE
  5
AE87
330
AD47
100
AcDbEntity
  8
1
  6
Continuous
100
AcDbLine
 10
148.4499999999998
 20
47.75
 30
0.0
 11
148.4499999999998
 21
45.45
 31
0.0
  0
ARC
  5
AE88
330
AD47
100
AcDbEntity
  8
1
  6
Continuous
100
AcDbCircle
 10
147.0823879999999
 20
47.133852
 30
0.0
 40
1.5
100
AcDbArc
 50
24.252909
 51
141.2863079999999
  0
ARC
  5
AE89
330
AD47
100
AcDbEntity
  8
1
  6
Continuous
100
AcDbCircle
 10
192.4499999999999
 20
66.766772
 30
0.0
 40
21.31677199999999
100
AcDbArc
 50
239.317968
 51
270.0
  0
LINE
  5
AE8A
330
AD47
100
AcDbEntity
  8
1
  6
Continuous
100
AcDbLine
 10
166.4499999999998
 20
41.6
 30
0.0
 11
174.4499999999999
 21
41.6
 31
0.0
  0
LINE
  5
AE8B
330
AD47
100
AcDbEntity
  8
1
  6
Continuous
100
AcDbLine
 10
162.848264
 20
49.4
 30
0.0
 11
178.051736
 21
49.4
 31
0.0
  0
LINE
  5
AE8C
330
AD47
100
AcDbEntity
  8
1
  6
Continuous
100
AcDbLine
 10
176.4499999999999
 20
42.4
 30
0.0
 11
164.4499999999998
 21
42.4
 31
0.0
  0
ARC
  5
AE8D
330
AD47
100
AcDbEntity
  8
1
  6
Continuous
100
AcDbCircle
 10
167.4499999999999
 20
38.73493599999999
 30
0.0
 40
8.665063999999999
100
AcDbArc
 50
69.743842
 51
110.256158
  0
ARC
  5
AE8E
330
AD47
100
AcDbEntity
  8
1
  6
Continuous
100
AcDbCircle
 10
167.4499999999999
 20
51.065064
 30
0.0
 40
8.665063999999999
100
AcDbArc
 50
249.7438419999999
 51
290.256158
  0
LINE
  5
AE8F
330
AD47
100
AcDbEntity
  8
1
  6
Continuous
100
AcDbLine
 10
162.9499999999999
 20
47.4
 30
0.0
 11
177.9499999999999
 21
47.4
 31
0.0
  0
LINE
  5
AE90
330
AD47
100
AcDbEntity
  8
2
  6
Continuous
100
AcDbLine
 10
167.1265
 20
42.4
 30
0.0
 11
167.1265
 21
41.0
 31
0.0
  0
LINE
  5
AE91
330
AD47
100
AcDbEntity
  8
1
  6
Continuous
100
AcDbLine
 10
166.4499999999998
 20
41.6
 30
0.0
 11
166.4499999999998
 21
42.4
 31
0.0
  0
ARC
  5
AE92
330
AD47
100
AcDbEntity
  8
1
  6
Continuous
100
AcDbCircle
 10
162.848264
 20
42.5
 30
0.0
 40
6.9
100
AcDbArc
 50
90.0
 51
120.682032
  0
LINE
  5
AE93
330
AD47
100
AcDbEntity
  8
1
  6
Continuous
100
AcDbLine
 10
164.4499999999998
 20
47.4
 30
0.0
 11
164.4499999999998
 21
42.4
 31
0.0
  0
LINE
  5
AE94
330
AD47
100
AcDbEntity
  8
1
  6
Continuous
100
AcDbLine
 10
162.9499999999999
 20
49.4
 30
0.0
 11
162.9499999999999
 21
47.4
 31
0.0
  0
LINE
  5
AE95
330
AD47
100
AcDbEntity
  8
1
  6
Continuous
100
AcDbLine
 10
167.05
 20
41.0
 30
0.0
 11
173.8499999999999
 21
41.0
 31
0.0
  0
LINE
  5
AE96
330
AD47
100
AcDbEntity
  8
1
  6
Continuous
100
AcDbLine
 10
176.4499999999999
 20
47.4
 30
0.0
 11
176.4499999999999
 21
42.4
 31
0.0
  0
ARC
  5
AE97
330
AD47
100
AcDbEntity
  8
1
  6
Continuous
100
AcDbCircle
 10
173.4499999999999
 20
38.73493599999999
 30
0.0
 40
8.665063999999999
100
AcDbArc
 50
69.743842
 51
110.256158
  0
ARC
  5
AE98
330
AD47
100
AcDbEntity
  8
1
  6
Continuous
100
AcDbCircle
 10
173.4499999999999
 20
51.065064
 30
0.0
 40
8.665063999999999
100
AcDbArc
 50
249.7438419999999
 51
290.256158
  0
LINE
  5
AE99
330
AD47
100
AcDbEntity
  8
1
  6
Continuous
100
AcDbLine
 10
170.4499999999999
 20
42.935898
 30
0.0
 11
170.4499999999999
 21
46.864102
 31
0.0
  0
LINE
  5
AE9A
330
AD47
100
AcDbEntity
  8
1
  6
Continuous
100
AcDbLine
 10
177.9499999999999
 20
49.4
 30
0.0
 11
177.9499999999999
 21
47.4
 31
0.0
  0
LINE
  5
AE9B
330
AD47
100
AcDbEntity
  8
1
  6
Continuous
100
AcDbLine
 10
172.4499999999999
 20
47.4
 30
0.0
 11
170.4499999999999
 21
49.4
 31
0.0
  0
LINE
  5
AE9C
330
AD47
100
AcDbEntity
  8
1
  6
Continuous
100
AcDbLine
 10
170.4499999999999
 20
47.4
 30
0.0
 11
168.4499999999998
 21
49.4
 31
0.0
  0
LINE
  5
AE9D
330
AD47
100
AcDbEntity
  8
1
  6
Continuous
100
AcDbLine
 10
174.4499999999999
 20
41.6
 30
0.0
 11
174.4499999999999
 21
42.4
 31
0.0
  0
LINE
  5
AE9E
330
AD47
100
AcDbEntity
  8
2
  6
Continuous
100
AcDbLine
 10
173.7735
 20
42.4
 30
0.0
 11
173.7735
 21
41.0
 31
0.0
  0
ARC
  5
AE9F
330
AD47
100
AcDbEntity
  8
1
  6
Continuous
100
AcDbCircle
 10
178.051736
 20
42.5
 30
0.0
 40
6.9
100
AcDbArc
 50
59.317968
 51
90.0
  0
LINE
  5
AEA0
330
AD47
100
AcDbEntity
  8
4
  6
CENTER
100
AcDbLine
 10
200.4499999999999
 20
46.2
 30
0.0
 11
200.4499999999999
 21
58.7
 31
0.0
  0
CIRCLE
  5
AEA1
330
AD47
100
AcDbEntity
  8
1
  6
Continuous
100
AcDbCircle
 10
200.4499999999999
 20
52.45
 30
0.0
 40
3.25
  0
ARC
  5
AEA2
330
AD47
100
AcDbEntity
  8
1
  6
Continuous
100
AcDbCircle
 10
200.4499999999999
 20
52.45
 30
0.0
 40
7.0
100
AcDbArc
 50
218.7136919999999
 51
0.0
  0
LINE
  5
AEA3
330
AD47
100
AcDbEntity
  8
4
  6
CENTER
100
AcDbLine
 10
194.1999999999999
 20
52.45
 30
0.0
 11
206.6999999999999
 21
52.45
 31
0.0
  0
LINE
  5
AEA4
330
AD47
100
AcDbEntity
  8
1
  6
Continuous
100
AcDbLine
 10
192.4499999999999
 20
47.75
 30
0.0
 11
192.4499999999999
 21
45.45
 31
0.0
  0
ARC
  5
AEA5
330
AD47
100
AcDbEntity
  8
1
  6
Continuous
100
AcDbCircle
 10
193.817612
 20
47.133852
 30
0.0
 40
1.5
100
AcDbArc
 50
38.713692
 51
155.7470909999999
  0
LINE
  5
AEA6
330
AD47
100
AcDbEntity
  8
1
  6
Continuous
100
AcDbLine
 10
166.4499999999998
 20
82.94999999999998
 30
0.0
 11
166.4499999999998
 21
83.2
 31
0.0
  0
LINE
  5
AEA7
330
AD47
100
AcDbEntity
  8
1
  6
Continuous
100
AcDbLine
 10
174.4499999999999
 20
82.94999999999998
 30
0.0
 11
174.4499999999999
 21
83.2
 31
0.0
  0
LINE
  5
AEA8
330
AD47
100
AcDbEntity
  8
1
  6
Continuous
100
AcDbLine
 10
166.4499999999998
 20
51.95
 30
0.0
 11
166.4499999999998
 21
51.7
 31
0.0
  0
LINE
  5
AEA9
330
AD47
100
AcDbEntity
  8
1
  6
Continuous
100
AcDbLine
 10
174.4499999999999
 20
51.95
 30
0.0
 11
174.4499999999999
 21
51.7
 31
0.0
  0
LINE
  5
AEAA
330
AD47
100
AcDbEntity
  8
1
  6
Continuous
100
AcDbLine
 10
162.848264
 20
83.2
 30
0.0
 11
178.051736
 21
83.2
 31
0.0
  0
ARC
  5
AEAB
330
AD47
100
AcDbEntity
  8
1
  6
Continuous
100
AcDbCircle
 10
162.848264
 20
92.4
 30
0.0
 40
9.199999999999999
100
AcDbArc
 50
239.317968
 51
270.0
  0
ARC
  5
AEAC
330
AD47
100
AcDbEntity
  8
1
  6
Continuous
100
AcDbCircle
 10
178.051736
 20
92.4
 30
0.0
 40
9.199999999999999
100
AcDbArc
 50
270.0
 51
300.682032
  0
ARC
  5
AEAD
330
AD47
100
AcDbEntity
  8
1
  6
Continuous
100
AcDbCircle
 10
192.4499999999999
 20
68.133227
 30
0.0
 40
19.01677199999999
100
AcDbArc
 50
90.0
 51
120.682032
  0
ARC
  5
AEAE
330
AD47
100
AcDbEntity
  8
1
  6
Continuous
100
AcDbCircle
 10
148.4499999999998
 20
68.133227
 30
0.0
 40
19.01677199999999
100
AcDbArc
 50
59.317968
 51
90.0
  0
ARC
  5
AEAF
330
AD47
100
AcDbEntity
  8
1
  6
Continuous
100
AcDbCircle
 10
192.4499999999999
 20
66.766772
 30
0.0
 40
19.01677199999999
100
AcDbArc
 50
239.317968
 51
270.0
  0
ARC
  5
AEB0
330
AD47
100
AcDbEntity
  8
1
  6
Continuous
100
AcDbCircle
 10
178.051736
 20
42.5
 30
0.0
 40
9.199999999999999
100
AcDbArc
 50
59.317968
 51
90.0
  0
LINE
  5
AEB1
330
AD47
100
AcDbEntity
  8
1
  6
Continuous
100
AcDbLine
 10
162.848264
 20
51.7
 30
0.0
 11
178.051736
 21
51.7
 31
0.0
  0
ARC
  5
AEB2
330
AD47
100
AcDbEntity
  8
1
  6
Continuous
100
AcDbCircle
 10
162.848264
 20
42.5
 30
0.0
 40
9.199999999999999
100
AcDbArc
 50
90.0
 51
120.682032
  0
ARC
  5
AEB3
330
AD47
100
AcDbEntity
  8
1
  6
Continuous
100
AcDbCircle
 10
148.4499999999998
 20
66.766772
 30
0.0
 40
19.01677199999999
100
AcDbArc
 50
270.0
 51
300.682032
  0
ARC
  5
AEB4
330
AD47
100
AcDbEntity
  8
1
  6
Continuous
100
AcDbCircle
 10
164.3887239999999
 20
67.45
 30
0.0
 40
14.5
100
AcDbArc
 50
162.7260139999999
 51
197.273986
  0
ARC
  5
AEB5
330
AD47
100
AcDbEntity
  8
1
  6
Continuous
100
AcDbCircle
 10
151.503116
 20
79.291077
 30
0.0
 40
3.0
100
AcDbArc
 50
12.529373
 51
137.418911
  0
ARC
  5
AEB6
330
AD47
100
AcDbEntity
  8
1
  6
Continuous
100
AcDbCircle
 10
164.3887239999999
 20
67.45
 30
0.0
 40
20.5
100
AcDbArc
 50
137.418911
 51
222.5829549999999
  0
ARC
  5
AEB7
330
AD47
100
AcDbEntity
  8
1
  6
Continuous
100
AcDbCircle
 10
151.503116
 20
55.60892299999999
 30
0.0
 40
3.0
100
AcDbArc
 50
222.5810889999999
 51
347.4706269999999
  0
CIRCLE
  5
AEB8
330
AD47
100
AcDbEntity
  8
1
  6
Continuous
100
AcDbCircle
 10
408.45
 20
152.4499999999999
 30
0.0
 40
7.5
  0
CIRCLE
  5
AEB9
330
AD47
100
AcDbEntity
  8
1
  6
Continuous
100
AcDbCircle
 10
408.45
 20
152.4499999999999
 30
0.0
 40
4.0
  0
CIRCLE
  5
AEBA
330
AD47
100
AcDbEntity
  8
2
  6
Continuous
100
AcDbCircle
 10
408.45
 20
152.4499999999999
 30
0.0
 40
3.3235
  0
LINE
  5
AEBB
330
AD47
100
AcDbEntity
  8
1
  6
Continuous
100
AcDbLine
 10
402.4499999999998
 20
155.914102
 30
0.0
 11
402.4499999999998
 21
148.9858979999999
 31
0.0
  0
LINE
  5
AEBC
330
AD47
100
AcDbEntity
  8
1
  6
Continuous
100
AcDbLine
 10
414.4499999999998
 20
155.914102
 30
0.0
 11
414.4499999999998
 21
148.9858979999999
 31
0.0
  0
CIRCLE
  5
AEBD
330
AD47
100
AcDbEntity
  8
1
  6
Continuous
100
AcDbCircle
 10
408.45
 20
152.4499999999999
 30
0.0
 40
6.0
  0
LINE
  5
AEBE
330
AD47
100
AcDbEntity
  8
1
  6
Continuous
100
AcDbLine
 10
408.45
 20
145.5217969999999
 30
0.0
 11
414.4499999999998
 21
148.9858979999999
 31
0.0
  0
LINE
  5
AEBF
330
AD47
100
AcDbEntity
  8
1
  6
Continuous
100
AcDbLine
 10
408.45
 20
145.5217969999999
 30
0.0
 11
402.4499999999998
 21
148.9858979999999
 31
0.0
  0
LINE
  5
AEC0
330
AD47
100
AcDbEntity
  8
1
  6
Continuous
100
AcDbLine
 10
414.4499999999998
 20
155.914102
 30
0.0
 11
408.45
 21
159.378203
 31
0.0
  0
LINE
  5
AEC1
330
AD47
100
AcDbEntity
  8
1
  6
Continuous
100
AcDbLine
 10
402.4499999999998
 20
155.914102
 30
0.0
 11
408.45
 21
159.378203
 31
0.0
  0
LINE
  5
AEC2
330
AD47
100
AcDbEntity
  8
1
  6
Continuous
100
AcDbLine
 10
25.6
 20
156.4499999999999
 30
0.0
 11
25.0
 21
155.8499999999999
 31
0.0
  0
LINE
  5
AEC3
330
AD47
100
AcDbEntity
  8
1
  6
Continuous
100
AcDbLine
 10
25.0
 20
149.05
 30
0.0
 11
25.6
 21
148.4499999999998
 31
0.0
  0
LINE
  5
AEC4
330
AD47
100
AcDbEntity
  8
1
  6
Continuous
100
AcDbLine
 10
315.3
 20
156.4499999999999
 30
0.0
 11
315.8999999999999
 21
155.8499999999999
 31
0.0
  0
LINE
  5
AEC5
330
AD47
100
AcDbEntity
  8
1
  6
Continuous
100
AcDbLine
 10
315.8999999999999
 20
149.05
 30
0.0
 11
315.3
 21
148.4499999999998
 31
0.0
  0
LINE
  5
AEC6
330
AD47
100
AcDbEntity
  8
1
  6
Continuous
100
AcDbLine
 10
166.4499999999998
 20
283.3
 30
0.0
 11
167.05
 21
283.9
 31
0.0
  0
LINE
  5
AEC7
330
AD47
100
AcDbEntity
  8
1
  6
Continuous
100
AcDbLine
 10
173.8499999999999
 20
283.9
 30
0.0
 11
174.4499999999999
 21
283.3
 31
0.0
  0
LINE
  5
AEC8
330
AD47
100
AcDbEntity
  8
1
  6
Continuous
100
AcDbLine
 10
166.4499999999998
 20
41.6
 30
0.0
 11
167.05
 21
41.0
 31
0.0
  0
LINE
  5
AEC9
330
AD47
100
AcDbEntity
  8
1
  6
Continuous
100
AcDbLine
 10
173.8499999999999
 20
41.0
 30
0.0
 11
174.4499999999999
 21
41.6
 31
0.0
  0
ARC
  5
AECA
330
AD47
100
AcDbEntity
  8
1
  6
Continuous
100
AcDbCircle
 10
90.44999999999999
 20
67.45
 30
0.0
 40
100.0
100
AcDbArc
 50
354.3552869999999
 51
5.644713000000001
  0
LINE
  5
AECB
330
AD47
100
AcDbEntity
  8
1
  6
Continuous
100
AcDbLine
 10
162.9499999999999
 20
52.95
 30
0.0
 11
177.9499999999999
 21
52.95
 31
0.0
  0
LINE
  5
AECC
330
AD47
100
AcDbEntity
  8
1
  6
Continuous
100
AcDbLine
 10
154.45
 20
54.95
 30
0.0
 11
186.4499999999999
 21
54.95
 31
0.0
  0
LINE
  5
AECD
330
AD47
100
AcDbEntity
  8
1
  6
Continuous
100
AcDbLine
 10
186.4499999999999
 20
54.95
 30
0.0
 11
188.783435
 21
55.98153199999998
 31
0.0
  0
ARC
  5
AECE
330
AD47
100
AcDbEntity
  8
1
  6
Continuous
100
AcDbCircle
 10
187.974793
 20
57.810766
 30
0.0
 40
2.0
100
AcDbArc
 50
293.848591
 51
299.1831879999999
  0
ARC
  5
AECF
330
AD47
100
AcDbEntity
  8
1
  6
Continuous
100
AcDbCircle
 10
187.974793
 20
57.810766
 30
0.0
 40
2.0
100
AcDbArc
 50
293.848591
 51
354.3552869999999
  0
ARC
  5
AED0
330
AD47
100
AcDbEntity
  8
1
  6
Continuous
100
AcDbCircle
 10
176.9499999999999
 20
52.95
 30
0.0
 40
1.0
100
AcDbArc
 50
270.0
 51
0.0
  0
ARC
  5
AED1
330
AD47
100
AcDbEntity
  8
1
  6
Continuous
100
AcDbCircle
 10
182.9499999999999
 20
55.15975499999999
 30
0.0
 40
1.0
100
AcDbArc
 50
288.5739270000001
 51
347.891985
  0
ARC
  5
AED2
330
AD47
100
AcDbEntity
  8
1
  6
Continuous
100
AcDbCircle
 10
173.7126889999999
 20
82.64924599999998
 30
0.0
 40
30.0
100
AcDbArc
 50
278.1198209999999
 51
288.5739270000001
  0
ARC
  5
AED3
330
AD47
100
AcDbEntity
  8
1
  6
Continuous
100
AcDbCircle
 10
163.9499999999999
 20
52.95
 30
0.0
 40
1.0
100
AcDbArc
 50
180.0
 51
270.0
  0
ARC
  5
AED4
330
AD47
100
AcDbEntity
  8
1
  6
Continuous
100
AcDbCircle
 10
157.9499999999999
 20
55.15975499999999
 30
0.0
 40
1.0
100
AcDbArc
 50
192.108015
 51
251.426073
  0
ARC
  5
AED5
330
AD47
100
AcDbEntity
  8
1
  6
Continuous
100
AcDbCircle
 10
167.1873119999999
 20
82.64924599999998
 30
0.0
 40
30.0
100
AcDbArc
 50
251.426073
 51
261.880179
  0
LINE
  5
AED6
330
AD47
100
AcDbEntity
  8
1
  6
Continuous
100
AcDbLine
 10
162.9499999999999
 20
81.95
 30
0.0
 11
177.9499999999999
 21
81.95
 31
0.0
  0
LINE
  5
AED7
330
AD47
100
AcDbEntity
  8
1
  6
Continuous
100
AcDbLine
 10
154.45
 20
79.95
 30
0.0
 11
186.4499999999999
 21
79.95
 31
0.0
  0
LINE
  5
AED8
330
AD47
100
AcDbEntity
  8
1
  6
Continuous
100
AcDbLine
 10
186.4499999999999
 20
79.95
 30
0.0
 11
188.783435
 21
78.918468
 31
0.0
  0
ARC
  5
AED9
330
AD47
100
AcDbEntity
  8
1
  6
Continuous
100
AcDbCircle
 10
187.974793
 20
77.08923399999997
 30
0.0
 40
2.0
100
AcDbArc
 50
5.644713000000001
 51
66.151409
  0
ARC
  5
AEDA
330
AD47
100
AcDbEntity
  8
1
  6
Continuous
100
AcDbCircle
 10
176.9499999999999
 20
81.95
 30
0.0
 40
1.0
100
AcDbArc
 50
0.0
 51
90.0
  0
ARC
  5
AEDB
330
AD47
100
AcDbEntity
  8
1
  6
Continuous
100
AcDbCircle
 10
182.9499999999999
 20
79.740245
 30
0.0
 40
1.0
100
AcDbArc
 50
12.108015
 51
71.426073
  0
ARC
  5
AEDC
330
AD47
100
AcDbEntity
  8
1
  6
Continuous
100
AcDbCircle
 10
173.7126889999999
 20
52.250754
 30
0.0
 40
30.0
100
AcDbArc
 50
71.426073
 51
81.880179
  0
ARC
  5
AEDD
330
AD47
100
AcDbEntity
  8
1
  6
Continuous
100
AcDbCircle
 10
157.9499999999999
 20
79.740245
 30
0.0
 40
1.0
100
AcDbArc
 50
108.5739269999999
 51
167.8919849999998
  0
ARC
  5
AEDE
330
AD47
100
AcDbEntity
  8
1
  6
Continuous
100
AcDbCircle
 10
163.9499999999999
 20
81.95
 30
0.0
 40
1.0
100
AcDbArc
 50
90.0
 51
180.0
  0
ARC
  5
AEDF
330
AD47
100
AcDbEntity
  8
1
  6
Continuous
100
AcDbCircle
 10
167.1873119999999
 20
52.250754
 30
0.0
 40
30.0
100
AcDbArc
 50
98.11982100000001
 51
108.5739269999999
  0
ARC
  5
AEE0
330
AD47
100
AcDbEntity
  8
1
  6
Continuous
100
AcDbCircle
 10
408.45
 20
152.4499999999999
 30
0.0
 40
14.0
100
AcDbArc
 50
154.2201369999999
 51
25.779864
  0
ARC
  5
AEE1
330
AD47
100
AcDbEntity
  8
1
  6
Continuous
100
AcDbCircle
 10
408.45
 20
152.4499999999999
 30
0.0
 40
13.5
100
AcDbArc
 50
156.605027
 51
23.39497399999999
  0
ARC
  5
AEE2
330
AD47
100
AcDbEntity
  8
1
  6
Continuous
100
AcDbCircle
 10
408.45
 20
152.4499999999999
 30
0.0
 40
16.0
100
AcDbArc
 50
146.8559349999999
 51
33.14406599999998
  0
ARC
  5
AEE3
330
AD47
100
AcDbEntity
  8
1
  6
Continuous
100
AcDbCircle
 10
170.4499999999999
 20
152.4499999999999
 30
0.0
 40
16.0
100
AcDbArc
 50
146.8559349999999
 51
33.14406599999998
  0
ARC
  5
AEE4
330
AD47
100
AcDbEntity
  8
1
  6
Continuous
100
AcDbCircle
 10
170.4499999999999
 20
152.4499999999999
 30
0.0
 40
14.0
100
AcDbArc
 50
154.2201369999999
 51
25.779864
  0
ARC
  5
AEE5
330
AD47
100
AcDbEntity
  8
1
  6
Continuous
100
AcDbCircle
 10
170.4499999999999
 20
152.4499999999999
 30
0.0
 40
13.5
100
AcDbArc
 50
156.605027
 51
23.39497399999999
  0
LINE
  5
AEE6
330
AD47
100
AcDbEntity
  8
1
  6
Continuous
100
AcDbLine
 10
301.9499999999998
 20
168.4499999999998
 30
0.0
 11
301.9499999999998
 21
136.4499999999999
 31
0.0
  0
LINE
  5
AEE7
330
AD47
100
AcDbEntity
  8
1
  6
Continuous
100
AcDbLine
 10
303.9499999999998
 20
159.9499999999999
 30
0.0
 11
303.9499999999998
 21
144.95
 31
0.0
  0
LINE
  5
AEE8
330
AD47
100
AcDbEntity
  8
1
  6
Continuous
100
AcDbLine
 10
276.9499999999998
 20
168.4499999999998
 30
0.0
 11
276.9499999999998
 21
136.4499999999999
 31
0.0
  0
LINE
  5
AEE9
330
AD47
100
AcDbEntity
  8
1
  6
Continuous
100
AcDbLine
 10
274.9499999999998
 20
159.9499999999999
 30
0.0
 11
274.9499999999998
 21
144.95
 31
0.0
  0
ARC
  5
AEEA
330
AD47
100
AcDbEntity
  8
1
  6
Continuous
100
AcDbCircle
 10
289.4499999999998
 20
232.45
 30
0.0
 40
100.0
100
AcDbArc
 50
264.3552869999999
 51
275.6447129999999
  0
ARC
  5
AEEB
330
AD47
100
AcDbEntity
  8
1
  6
Continuous
100
AcDbCircle
 10
304.649246
 20
149.187311
 30
0.0
 40
30.0
100
AcDbArc
 50
188.1198209999999
 51
198.573927
  0
ARC
  5
AEEC
330
AD47
100
AcDbEntity
  8
1
  6
Continuous
100
AcDbCircle
 10
277.1597549999999
 20
139.9499999999999
 30
0.0
 40
1.0
100
AcDbArc
 50
198.573927
 51
257.8919849999999
  0
ARC
  5
AEED
330
AD47
100
AcDbEntity
  8
1
  6
Continuous
100
AcDbCircle
 10
274.9499999999998
 20
145.95
 30
0.0
 40
1.0
100
AcDbArc
 50
180.0
 51
270.0
  0
ARC
  5
AEEE
330
AD47
100
AcDbEntity
  8
1
  6
Continuous
100
AcDbCircle
 10
279.8107659999998
 20
134.925207
 30
0.0
 40
2.0
100
AcDbArc
 50
203.8485909999999
 51
264.3552869999999
  0
ARC
  5
AEEF
330
AD47
100
AcDbEntity
  8
1
  6
Continuous
100
AcDbCircle
 10
279.8107659999998
 20
134.925207
 30
0.0
 40
2.0
100
AcDbArc
 50
203.8485909999999
 51
209.1831879999999
  0
LINE
  5
AEF0
330
AD47
100
AcDbEntity
  8
1
  6
Continuous
100
AcDbLine
 10
276.9499999999998
 20
136.4499999999999
 30
0.0
 11
277.9815319999999
 21
134.1165649999997
 31
0.0
  0
ARC
  5
AEF1
330
AD47
100
AcDbEntity
  8
1
  6
Continuous
100
AcDbCircle
 10
274.2507539999999
 20
149.187311
 30
0.0
 40
30.0
100
AcDbArc
 50
341.4260729999999
 51
351.8801789999998
  0
ARC
  5
AEF2
330
AD47
100
AcDbEntity
  8
1
  6
Continuous
100
AcDbCircle
 10
301.740245
 20
139.9499999999999
 30
0.0
 40
1.0
100
AcDbArc
 50
282.1080149999999
 51
341.4260729999999
  0
ARC
  5
AEF3
330
AD47
100
AcDbEntity
  8
1
  6
Continuous
100
AcDbCircle
 10
303.9499999999998
 20
145.95
 30
0.0
 40
1.0
100
AcDbArc
 50
270.0
 51
0.0
  0
ARC
  5
AEF4
330
AD47
100
AcDbEntity
  8
1
  6
Continuous
100
AcDbCircle
 10
299.0892339999998
 20
134.925207
 30
0.0
 40
2.0
100
AcDbArc
 50
275.6447129999999
 51
336.151409
  0
LINE
  5
AEF5
330
AD47
100
AcDbEntity
  8
1
  6
Continuous
100
AcDbLine
 10
301.9499999999998
 20
136.4499999999999
 30
0.0
 11
300.918468
 21
134.1165649999997
 31
0.0
  0
ARC
  5
AEF6
330
AD47
100
AcDbEntity
  8
1
  6
Continuous
100
AcDbCircle
 10
304.649246
 20
155.712688
 30
0.0
 40
30.0
100
AcDbArc
 50
161.4260729999998
 51
171.880179
  0
ARC
  5
AEF7
330
AD47
100
AcDbEntity
  8
1
  6
Continuous
100
AcDbCircle
 10
277.1597549999999
 20
164.9499999999999
 30
0.0
 40
1.0
100
AcDbArc
 50
102.108015
 51
161.4260729999998
  0
ARC
  5
AEF8
330
AD47
100
AcDbEntity
  8
1
  6
Continuous
100
AcDbCircle
 10
274.9499999999998
 20
158.9499999999999
 30
0.0
 40
1.0
100
AcDbArc
 50
90.0
 51
180.0
  0
ARC
  5
AEF9
330
AD47
100
AcDbEntity
  8
1
  6
Continuous
100
AcDbCircle
 10
274.2507539999999
 20
155.712688
 30
0.0
 40
30.0
100
AcDbArc
 50
8.119820999999998
 51
18.57392699999999
  0
ARC
  5
AEFA
330
AD47
100
AcDbEntity
  8
1
  6
Continuous
100
AcDbCircle
 10
303.9499999999998
 20
158.9499999999999
 30
0.0
 40
1.0
100
AcDbArc
 50
0.0
 51
90.0
  0
ARC
  5
AEFB
330
AD47
100
AcDbEntity
  8
1
  6
Continuous
100
AcDbCircle
 10
301.740245
 20
164.9499999999999
 30
0.0
 40
1.0
100
AcDbArc
 50
18.57392699999999
 51
77.89198499999997
  0
ARC
  5
AEFC
330
AD47
100
AcDbEntity
  8
1
  6
Continuous
100
AcDbCircle
 10
289.4499999999998
 20
72.45
 30
0.0
 40
100.0
100
AcDbArc
 50
84.355287
 51
95.64471299999999
  0
LINE
  5
AEFD
330
AD47
100
AcDbEntity
  8
1
  6
Continuous
100
AcDbLine
 10
301.9499999999998
 20
168.4499999999998
 30
0.0
 11
300.918468
 21
170.7834349999999
 31
0.0
  0
ARC
  5
AEFE
330
AD47
100
AcDbEntity
  8
1
  6
Continuous
100
AcDbCircle
 10
299.0892339999998
 20
169.974793
 30
0.0
 40
2.0
100
AcDbArc
 50
23.848591
 51
84.355287
  0
LINE
  5
AEFF
330
AD47
100
AcDbEntity
  8
1
  6
Continuous
100
AcDbLine
 10
276.9499999999998
 20
168.4499999999998
 30
0.0
 11
277.9815319999999
 21
170.7834349999999
 31
0.0
  0
ARC
  5
AF00
330
AD47
100
AcDbEntity
  8
1
  6
Continuous
100
AcDbCircle
 10
279.8107659999998
 20
169.974793
 30
0.0
 40
2.0
100
AcDbArc
 50
150.816812
 51
156.151409
  0
ARC
  5
AF01
330
AD47
100
AcDbEntity
  8
1
  6
Continuous
100
AcDbCircle
 10
279.8107659999998
 20
169.974793
 30
0.0
 40
2.0
100
AcDbArc
 50
95.64471299999999
 51
156.151409
  0
ARC
  5
AF02
330
AD47
100
AcDbEntity
  8
1
  6
Continuous
100
AcDbCircle
 10
51.45
 20
72.45
 30
0.0
 40
100.0
100
AcDbArc
 50
84.355287
 51
95.64471299999999
  0
LINE
  5
AF03
330
AD47
100
AcDbEntity
  8
1
  6
Continuous
100
AcDbLine
 10
63.95
 20
168.4499999999998
 30
0.0
 11
63.95
 21
136.4499999999999
 31
0.0
  0
ARC
  5
AF04
330
AD47
100
AcDbEntity
  8
1
  6
Continuous
100
AcDbCircle
 10
61.089234
 20
169.974793
 30
0.0
 40
2.0
100
AcDbArc
 50
23.848591
 51
84.355287
  0
ARC
  5
AF05
330
AD47
100
AcDbEntity
  8
1
  6
Continuous
100
AcDbCircle
 10
61.089234
 20
169.974793
 30
0.0
 40
2.0
100
AcDbArc
 50
23.848591
 51
29.183188
  0
LINE
  5
AF06
330
AD47
100
AcDbEntity
  8
1
  6
Continuous
100
AcDbLine
 10
63.95
 20
168.4499999999998
 30
0.0
 11
62.918468
 21
170.7834349999999
 31
0.0
  0
ARC
  5
AF07
330
AD47
100
AcDbEntity
  8
1
  6
Continuous
100
AcDbCircle
 10
63.74024499999999
 20
164.9499999999999
 30
0.0
 40
1.0
100
AcDbArc
 50
18.57392699999999
 51
77.89198499999997
  0
ARC
  5
AF08
330
AD47
100
AcDbEntity
  8
1
  6
Continuous
100
AcDbCircle
 10
36.250754
 20
155.712688
 30
0.0
 40
30.0
100
AcDbArc
 50
8.119820999999998
 51
18.57392699999999
  0
LINE
  5
AF09
330
AD47
100
AcDbEntity
  8
1
  6
Continuous
100
AcDbLine
 10
38.95
 20
168.4499999999998
 30
0.0
 11
38.95
 21
136.4499999999999
 31
0.0
  0
ARC
  5
AF0A
330
AD47
100
AcDbEntity
  8
1
  6
Continuous
100
AcDbCircle
 10
66.64924599999999
 20
155.712688
 30
0.0
 40
30.0
100
AcDbArc
 50
161.4260729999998
 51
171.880179
  0
ARC
  5
AF0B
330
AD47
100
AcDbEntity
  8
1
  6
Continuous
100
AcDbCircle
 10
41.81076599999999
 20
169.974793
 30
0.0
 40
2.0
100
AcDbArc
 50
95.64471299999999
 51
156.151409
  0
LINE
  5
AF0C
330
AD47
100
AcDbEntity
  8
1
  6
Continuous
100
AcDbLine
 10
38.95
 20
168.4499999999998
 30
0.0
 11
39.981532
 21
170.7834349999999
 31
0.0
  0
ARC
  5
AF0D
330
AD47
100
AcDbEntity
  8
1
  6
Continuous
100
AcDbCircle
 10
39.159755
 20
164.9499999999999
 30
0.0
 40
1.0
100
AcDbArc
 50
102.108015
 51
161.4260729999998
  0
ARC
  5
AF0E
330
AD47
100
AcDbEntity
  8
1
  6
Continuous
100
AcDbCircle
 10
36.95
 20
158.9499999999999
 30
0.0
 40
1.0
100
AcDbArc
 50
90.0
 51
180.0
  0
LINE
  5
AF0F
330
AD47
100
AcDbEntity
  8
1
  6
Continuous
100
AcDbLine
 10
36.95
 20
159.9499999999999
 30
0.0
 11
36.95
 21
144.95
 31
0.0
  0
ARC
  5
AF10
330
AD47
100
AcDbEntity
  8
1
  6
Continuous
100
AcDbCircle
 10
36.95
 20
145.95
 30
0.0
 40
1.0
100
AcDbArc
 50
180.0
 51
270.0
  0
ARC
  5
AF11
330
AD47
100
AcDbEntity
  8
1
  6
Continuous
100
AcDbCircle
 10
66.64924599999999
 20
149.187311
 30
0.0
 40
30.0
100
AcDbArc
 50
188.1198209999999
 51
198.573927
  0
ARC
  5
AF12
330
AD47
100
AcDbEntity
  8
1
  6
Continuous
100
AcDbCircle
 10
51.45
 20
232.45
 30
0.0
 40
100.0
100
AcDbArc
 50
264.3552869999999
 51
275.6447129999999
  0
LINE
  5
AF13
330
AD47
100
AcDbEntity
  8
1
  6
Continuous
100
AcDbLine
 10
38.95
 20
136.4499999999999
 30
0.0
 11
39.981532
 21
134.1165649999997
 31
0.0
  0
ARC
  5
AF14
330
AD47
100
AcDbEntity
  8
1
  6
Continuous
100
AcDbCircle
 10
41.81076599999999
 20
134.925207
 30
0.0
 40
2.0
100
AcDbArc
 50
203.8485909999999
 51
264.3552869999999
  0
ARC
  5
AF15
330
AD47
100
AcDbEntity
  8
1
  6
Continuous
100
AcDbCircle
 10
39.159755
 20
139.9499999999999
 30
0.0
 40
1.0
100
AcDbArc
 50
198.573927
 51
257.8919849999999
  0
LINE
  5
AF16
330
AD47
100
AcDbEntity
  8
1
  6
Continuous
100
AcDbLine
 10
63.95
 20
136.4499999999999
 30
0.0
 11
62.918468
 21
134.1165649999997
 31
0.0
  0
ARC
  5
AF17
330
AD47
100
AcDbEntity
  8
1
  6
Continuous
100
AcDbCircle
 10
61.089234
 20
134.925207
 30
0.0
 40
2.0
100
AcDbArc
 50
330.816812
 51
336.151409
  0
ARC
  5
AF18
330
AD47
100
AcDbEntity
  8
1
  6
Continuous
100
AcDbCircle
 10
61.089234
 20
134.925207
 30
0.0
 40
2.0
100
AcDbArc
 50
275.6447129999999
 51
336.151409
  0
ARC
  5
AF19
330
AD47
100
AcDbEntity
  8
1
  6
Continuous
100
AcDbCircle
 10
63.74024499999999
 20
139.9499999999999
 30
0.0
 40
1.0
100
AcDbArc
 50
282.1080149999999
 51
341.4260729999999
  0
ARC
  5
AF1A
330
AD47
100
AcDbEntity
  8
1
  6
Continuous
100
AcDbCircle
 10
36.250754
 20
149.187311
 30
0.0
 40
30.0
100
AcDbArc
 50
341.4260729999999
 51
351.8801789999998
  0
LINE
  5
AF1B
330
AD47
100
AcDbEntity
  8
1
  6
Continuous
100
AcDbLine
 10
65.95
 20
159.9499999999999
 30
0.0
 11
65.95
 21
144.95
 31
0.0
  0
ARC
  5
AF1C
330
AD47
100
AcDbEntity
  8
1
  6
Continuous
100
AcDbCircle
 10
65.95
 20
145.95
 30
0.0
 40
1.0
100
AcDbArc
 50
270.0
 51
0.0
  0
ARC
  5
AF1D
330
AD47
100
AcDbEntity
  8
1
  6
Continuous
100
AcDbCircle
 10
65.95
 20
158.9499999999999
 30
0.0
 40
1.0
100
AcDbArc
 50
0.0
 51
90.0
  0
LINE
  5
AF1E
330
AD47
100
AcDbEntity
  8
1
  6
Continuous
100
AcDbLine
 10
66.95
 20
145.95
 30
0.0
 11
66.95
 21
158.9499999999999
 31
0.0
  0
LINE
  5
AF1F
330
AD47
100
AcDbEntity
  8
1
  6
Continuous
100
AcDbLine
 10
35.95000000000001
 20
145.95
 30
0.0
 11
35.95000000000001
 21
158.9499999999999
 31
0.0
  0
LINE
  5
AF20
330
AD47
100
AcDbEntity
  8
1
  6
Continuous
100
AcDbLine
 10
163.9499999999999
 20
82.94999999999998
 30
0.0
 11
176.9499999999999
 21
82.94999999999998
 31
0.0
  0
LINE
  5
AF21
330
AD47
100
AcDbEntity
  8
1
  6
Continuous
100
AcDbLine
 10
163.9499999999999
 20
51.95
 30
0.0
 11
176.9499999999999
 21
51.95
 31
0.0
  0
ARC
  5
AF22
330
AD47
100
AcDbEntity
  8
1
  6
Continuous
100
AcDbCircle
 10
250.4499999999999
 20
67.45
 30
0.0
 40
100.0
100
AcDbArc
 50
174.355287
 51
185.644713
  0
ARC
  5
AF23
330
AD47
100
AcDbEntity
  8
1
  6
Continuous
100
AcDbCircle
 10
152.925207
 20
57.810766
 30
0.0
 40
2.0
100
AcDbArc
 50
185.644713
 51
246.1514089999999
  0
ARC
  5
AF24
330
AD47
100
AcDbEntity
  8
1
  6
Continuous
100
AcDbCircle
 10
152.925207
 20
57.810766
 30
0.0
 40
2.0
100
AcDbArc
 50
240.816812
 51
246.1514089999999
  0
LINE
  5
AF25
330
AD47
100
AcDbEntity
  8
1
  6
Continuous
100
AcDbLine
 10
154.45
 20
54.95
 30
0.0
 11
152.1165649999998
 21
55.98153199999998
 31
0.0
  0
ARC
  5
AF26
330
AD47
100
AcDbEntity
  8
1
  6
Continuous
100
AcDbCircle
 10
152.925207
 20
77.08923399999997
 30
0.0
 40
2.0
100
AcDbArc
 50
113.8485909999998
 51
174.355287
  0
LINE
  5
AF27
330
AD47
100
AcDbEntity
  8
1
  6
Continuous
100
AcDbLine
 10
154.45
 20
79.95
 30
0.0
 11
152.1165649999998
 21
78.918468
 31
0.0
  0
ARC
  5
AF28
330
AD47
100
AcDbEntity
  8
1
  6
Continuous
100
AcDbCircle
 10
189.396884
 20
79.291077
 30
0.0
 40
3.0
100
AcDbArc
 50
42.58108899999998
 51
167.470627
  0
ARC
  5
AF29
330
AD47
100
AcDbEntity
  8
1
  6
Continuous
100
AcDbCircle
 10
176.511276
 20
67.45
 30
0.0
 40
20.5
100
AcDbArc
 50
317.4170449999999
 51
42.58108899999998
  0
ARC
  5
AF2A
330
AD47
100
AcDbEntity
  8
1
  6
Continuous
100
AcDbCircle
 10
176.511276
 20
67.45
 30
0.0
 40
14.5
100
AcDbArc
 50
342.726014
 51
17.27398599999999
  0
ARC
  5
AF2B
330
AD47
100
AcDbEntity
  8
1
  6
Continuous
100
AcDbCircle
 10
189.396884
 20
55.60892299999999
 30
0.0
 40
3.0
100
AcDbArc
 50
192.5293729999999
 51
317.4189109999999
  0
ENDSEC
  0
SECTION
  2
OBJECTS
  0
DICTIONARY
  5
AD35
330
0
100
AcDbDictionary
281
     1
  3
ACAD_CIP_PREVIOUS_PRODUCT_INFO
350
AF8D
  3
ACAD_COLOR
350
AF6F
  3
ACAD_DETAILVIEWSTYLE
350
AF88
  3
ACAD_GROUP
350
AD36
  3
ACAD_LAYOUT
350
AD42
  3
ACAD_MATERIAL
350
AF3D
  3
ACAD_MLEADERSTYLE
350
AF84
  3
ACAD_MLINESTYLE
350
AD3F
  3
ACAD_PLOTSETTINGS
350
AD41
  3
ACAD_PLOTSTYLENAME
350
AF3B
  3
ACAD_SCALELIST
350
AF72
  3
ACAD_SECTIONVIEWSTYLE
350
AF86
  3
ACAD_TABLESTYLE
350
AF70
  3
ACAD_VISUALSTYLE
350
AF56
  3
ACDB_RECOMPOSE_DATA
350
AFAB
  3
AcDbVariableDictionary
350
AF9E
  3
DWGPROPS
350
AFAC
  0
DICTIONARY
  5
AF8E
330
AD39
100
AcDbDictionary
280
     1
281
     1
  3
ADSK_XREC_LAYER_RECONCILED
360
AF8F
  0
DICTIONARY
  5
AF90
330
AD4F
100
AcDbDictionary
280
     1
281
     1
  3
ADSK_XREC_LAYER_RECONCILED
360
AF91
  0
DICTIONARY
  5
AF92
330
AD50
100
AcDbDictionary
280
     1
281
     1
  3
ADSK_XREC_LAYER_RECONCILED
360
AF93
  0
DICTIONARY
  5
AF94
330
AD51
100
AcDbDictionary
280
     1
281
     1
  3
ADSK_XREC_LAYER_RECONCILED
360
AF95
  0
DICTIONARY
  5
AF96
330
AD52
100
AcDbDictionary
280
     1
281
     1
  3
ADSK_XREC_LAYER_RECONCILED
360
AF97
  0
DICTIONARY
  5
AF98
330
AD53
100
AcDbDictionary
280
     1
281
     1
  3
ADSK_XREC_LAYER_RECONCILED
360
AF99
  0
DICTIONARY
  5
AF9A
330
AD54
100
AcDbDictionary
280
     1
281
     1
  3
ADSK_XREC_LAYER_RECONCILED
360
AF9B
  0
DICTIONARY
  5
AF9C
330
AD55
100
AcDbDictionary
280
     1
281
     1
  3
ADSK_XREC_LAYER_RECONCILED
360
AF9D
  0
DICTIONARY
  5
AF36
330
AD47
100
AcDbDictionary
281
     1
  3
ACAD_LAYOUTSELFREF
350
AF37
  0
DICTIONARY
  5
AF34
330
AD43
100
AcDbDictionary
281
     1
  3
ACAD_LAYOUTSELFREF
350
AF35
  0
XRECORD
  5
AF8D
102
{ACAD_REACTORS
330
AD35
102
}
330
AD35
100
AcDbXrecord
280
     1
300
ACDLT
300
2014
300
ACDLT_F_S
  0
DICTIONARY
  5
AF6F
102
{ACAD_REACTORS
330
AD35
102
}
330
AD35
100
AcDbDictionary
281
     1
  0
DICTIONARY
  5
AF88
102
{ACAD_REACTORS
330
AD35
102
}
330
AD35
100
AcDbDictionary
281
     1
  3
Imperial24
350
AF89
  0
DICTIONARY
  5
AD36
102
{ACAD_REACTORS
330
AD35
102
}
330
AD35
100
AcDbDictionary
281
     1
  0
DICTIONARY
  5
AD42
102
{ACAD_REACTORS
330
AD35
102
}
330
AD35
100
AcDbDictionary
281
     1
  3
Model
350
AF8A
  3
レイアウト1
350
AF8B
  0
DICTIONARY
  5
AF3D
102
{ACAD_REACTORS
330
AD35
102
}
330
AD35
100
AcDbDictionary
281
     1
  3
ByBlock
350
AF46
  3
ByLayer
350
AF3E
  3
Global
350
AF4E
  0
DICTIONARY
  5
AF84
102
{ACAD_REACTORS
330
AD35
102
}
330
AD35
100
AcDbDictionary
281
     1
  3
Standard
350
AF85
  0
DICTIONARY
  5
AD3F
102
{ACAD_REACTORS
330
AD35
102
}
330
AD35
100
AcDbDictionary
281
     1
  3
STANDARD
350
AD40
  0
DICTIONARY
  5
AD41
102
{ACAD_REACTORS
330
AD35
102
}
330
AD35
100
AcDbDictionary
281
     1
  0
ACDBDICTIONARYWDFLT
  5
AF3B
102
{ACAD_REACTORS
330
AD35
102
}
330
AD35
100
AcDbDictionary
281
     1
  3
Normal
350
AF3C
100
AcDbDictionaryWithDefault
340
AF3C
  0
DICTIONARY
  5
AF72
102
{ACAD_REACTORS
330
AD35
102
}
330
AD35
100
AcDbDictionary
281
     1
  3
A0
350
AF73
  3
A1
350
AF74
  3
A2
350
AF75
  3
A3
350
AF76
  3
A4
350
AF77
  3
A5
350
AF78
  3
A6
350
AF79
  3
A7
350
AF7A
  3
A8
350
AF7B
  3
A9
350
AF7C
  3
B0
350
AF7D
  3
B1
350
AF7E
  3
B2
350
AF7F
  3
B3
350
AF80
  3
B4
350
AF81
  3
B5
350
AF82
  3
B6
350
AF83
  0
DICTIONARY
  5
AF86
102
{ACAD_REACTORS
330
AD35
102
}
330
AD35
100
AcDbDictionary
281
     1
  3
Imperial24
350
AF87
  0
DICTIONARY
  5
AF70
102
{ACAD_REACTORS
330
AD35
102
}
330
AD35
100
AcDbDictionary
281
     1
  3
Standard
350
AF71
  0
DICTIONARY
  5
AF56
102
{ACAD_REACTORS
330
AD35
102
}
330
AD35
100
AcDbDictionary
281
     1
  3
2dWireframe
350
AF5C
  3
Basic
350
AF5B
  3
Brighten
350
AF62
  3
ColorChange
350
AF66
  3
Conceptual
350
AF5F
  3
Dim
350
AF61
  3
EdgeColorOff
350
AF6E
  3
Facepattern
350
AF65
  3
Flat
350
AF57
  3
FlatWithEdges
350
AF58
  3
Gouraud
350
AF59
  3
GouraudWithEdges
350
AF5A
  3
Hidden
350
AF5E
  3
JitterOff
350
AF6C
  3
Linepattern
350
AF64
  3
OverhangOff
350
AF6D
  3
Realistic
350
AF60
  3
Shaded
350
AF6B
  3
Shaded with edges
350
AF6A
  3
Shades of Gray
350
AF67
  3
Sketchy
350
AF68
  3
Thicken
350
AF63
  3
Wireframe
350
AF5D
  3
X-Ray
350
AF69
  0
XRECORD
  5
AFAB
102
{ACAD_REACTORS
330
AD35
102
}
330
AD35
100
AcDbXrecord
280
     1
 90
        1
330
AF71
  0
DICTIONARY
  5
AF9E
102
{ACAD_REACTORS
330
AD35
102
}
330
AD35
100
AcDbDictionary
281
     1
  3
CANNOSCALE
350
AFA3
  3
CMLEADERSTYLE
350
AFA0
  3
CTABLESTYLE
350
AF9F
  3
CVIEWDETAILSTYLE
350
AFA1
  3
CVIEWSECTIONSTYLE
350
AFA2
  3
DIMASSOC
350
AFA6
  3
INDEXCTL
350
AFA5
  3
SORTENTS
350
AFA4
  3
XCLIPFRAME
350
AFA7
  0
XRECORD
  5
AFAC
102
{ACAD_REACTORS
330
AD35
102
}
330
AD35
100
AcDbXrecord
280
     1
  1
DWGPROPS COOKIE
  2

  3

  4

  6

  7

  8
Yoshitsune
  9

300
=
301
=
302
=
303
=
304
=
305
=
306
=
307
=
308
=
309
=
 40
0.0000103472222222
 41
2451301.420908449
 42
2457192.68823493
  1

 90
        0
  0
XRECORD
  5
AF8F
102
{ACAD_REACTORS
330
AF8E
102
}
330
AF8E
100
AcDbXrecord
280
     1
290
     1
  0
XRECORD
  5
AF91
102
{ACAD_REACTORS
330
AF90
102
}
330
AF90
100
AcDbXrecord
280
     1
290
     1
  0
XRECORD
  5
AF93
102
{ACAD_REACTORS
330
AF92
102
}
330
AF92
100
AcDbXrecord
280
     1
290
     1
  0
XRECORD
  5
AF95
102
{ACAD_REACTORS
330
AF94
102
}
330
AF94
100
AcDbXrecord
280
     1
290
     1
  0
XRECORD
  5
AF97
102
{ACAD_REACTORS
330
AF96
102
}
330
AF96
100
AcDbXrecord
280
     1
290
     1
  0
XRECORD
  5
AF99
102
{ACAD_REACTORS
330
AF98
102
}
330
AF98
100
AcDbXrecord
280
     1
290
     1
  0
XRECORD
  5
AF9B
102
{ACAD_REACTORS
330
AF9A
102
}
330
AF9A
100
AcDbXrecord
280
     1
290
     1
  0
XRECORD
  5
AF9D
102
{ACAD_REACTORS
330
AF9C
102
}
330
AF9C
100
AcDbXrecord
280
     1
290
     1
  0
XRECORD
  5
AF37
102
{ACAD_REACTORS
330
AF36
102
}
330
AF36
100
AcDbXrecord
280
     1
340
AD47
  0
XRECORD
  5
AF35
102
{ACAD_REACTORS
330
AF34
102
}
330
AF34
100
AcDbXrecord
280
     1
340
AD43
  0
ACDBDETAILVIEWSTYLE
  5
AF89
102
{ACAD_XDICTIONARY
360
AFE4
102
}
102
{ACAD_REACTORS
330
AF88
102
}
330
AF88
100
AcDbModelDocViewStyle
 70
     0
  3
Imperial24
290
     0
100
AcDbDetailViewStyle
 70
     0
 71
     0
 90
        3
 71
     1
340
AD3A
 40
0.24
340
0
 40
0.24
300

 40
0.36
280
     3
 71
     2
340
AD3E
 90
       25
 71
     3
340
AD3A
 40
0.24
 90
        1
 40
0.75
 90
        1
300
%<\AcVar ViewType \f "%tc1">% %<\AcVar ViewDetailId>%\PSCALE %<\AcVar ViewScale \f "%sn">%
 71
     4
340
AD3E
 90
       25
340
AD3E
 90
       25
280
     0
  0
LAYOUT
  5
AF8A
102
{ACAD_XDICTIONARY
360
AFE6
102
}
102
{ACAD_REACTORS
330
AD42
102
}
330
AD42
100
AcDbPlotSettings
  1

  2
Canon LBP9100C
  4

  6

 40
0.0
 41
0.0
 42
0.0
 43
0.0
 44
0.0
 45
0.0
 46
0.0
 47
0.0
 48
0.0
 49
0.0
140
0.0
141
0.0
142
1.0
143
1.0
 70
  1712
 72
     0
 73
     0
 74
     0
  7

 75
     0
147
1.0
148
0.0
149
0.0
100
AcDbLayout
  1
Model
 70
     1
 71
     0
 10
0.0
 20
0.0
 11
12.0
 21
9.0
 12
0.0
 22
0.0
 32
0.0
 14
0.0
 24
0.0
 34
0.0
 15
0.0
 25
0.0
 35
0.0
146
0.0
 13
0.0
 23
0.0
 33
0.0
 16
1.0
 26
0.0
 36
0.0
 17
0.0
 27
1.0
 37
0.0
 76
     0
330
AD47
331
AF33
  0
LAYOUT
  5
AF8B
102
{ACAD_XDICTIONARY
360
AFE8
102
}
102
{ACAD_REACTORS
330
AD42
102
}
330
AD42
100
AcDbPlotSettings
  1

  2
Canon LBP9100C
  4

  6

 40
0.0
 41
0.0
 42
0.0
 43
0.0
 44
0.0
 45
0.0
 46
0.0
 47
0.0
 48
0.0
 49
0.0
140
0.0
141
0.0
142
1.0
143
1.0
 70
   688
 72
     0
 73
     0
 74
     5
  7

 75
    16
147
1.0
148
0.0
149
0.0
100
AcDbLayout
  1
レイアウト1
 70
     0
 71
     1
 10
0.0
 20
0.0
 11
420.0
 21
297.0
 12
0.0
 22
0.0
 32
0.0
 14
1.000000000000000E+20
 24
1.000000000000000E+20
 34
1.000000000000000E+20
 15
-1.000000000000000E+20
 25
-1.000000000000000E+20
 35
-1.000000000000000E+20
146
0.0
 13
0.0
 23
0.0
 33
0.0
 16
1.0
 26
0.0
 36
0.0
 17
0.0
 27
1.0
 37
0.0
 76
     0
330
AD43
  0
MATERIAL
  5
AF46
102
{ACAD_XDICTIONARY
360
AF47
102
}
102
{ACAD_REACTORS
330
AF3D
102
}
330
AF3D
100
AcDbMaterial
  1
ByBlock
 72
     0
 43
0.0208333333333333
 43
0.0
 43
0.0
 43
0.0
 43
0.0
 43
0.0208333333333333
 43
0.0
 43
0.0
 43
0.0
 43
0.0
 43
1.0
 43
0.0
 43
0.0
 43
0.0
 43
0.0
 43
1.0
 77
     0
 47
0.0208333333333333
 47
0.0
 47
0.0
 47
0.0
 47
0.0
 47
0.0208333333333333
 47
0.0
 47
0.0
 47
0.0
 47
0.0
 47
1.0
 47
0.0
 47
0.0
 47
0.0
 47
0.0
 47
1.0
171
     0
 49
0.0208333333333333
 49
0.0
 49
0.0
 49
0.0
 49
0.0
 49
0.0208333333333333
 49
0.0
 49
0.0
 49
0.0
 49
0.0
 49
1.0
 49
0.0
 49
0.0
 49
0.0
 49
0.0
 49
1.0
175
     0
142
0.0208333333333333
142
0.0
142
0.0
142
0.0
142
0.0
142
0.0208333333333333
142
0.0
142
0.0
142
0.0
142
0.0
142
1.0
142
0.0
142
0.0
142
0.0
142
0.0
142
1.0
179
     0
144
0.0208333333333333
144
0.0
144
0.0
144
0.0
144
0.0
144
0.0208333333333333
144
0.0
144
0.0
144
0.0
144
0.0
144
1.0
144
0.0
144
0.0
144
0.0
144
0.0
144
1.0
147
0.0208333333333333
147
0.0
147
0.0
147
0.0
147
0.0
147
0.0208333333333333
147
0.0
147
0.0
147
0.0
147
0.0
147
1.0
147
0.0
147
0.0
147
0.0
147
0.0
147
1.0
  0
MATERIAL
  5
AF3E
102
{ACAD_XDICTIONARY
360
AF3F
102
}
102
{ACAD_REACTORS
330
AF3D
102
}
330
AF3D
100
AcDbMaterial
  1
ByLayer
 72
     0
 43
0.0208333333333333
 43
0.0
 43
0.0
 43
0.0
 43
0.0
 43
0.0208333333333333
 43
0.0
 43
0.0
 43
0.0
 43
0.0
 43
1.0
 43
0.0
 43
0.0
 43
0.0
 43
0.0
 43
1.0
 77
     0
 47
0.0208333333333333
 47
0.0
 47
0.0
 47
0.0
 47
0.0
 47
0.0208333333333333
 47
0.0
 47
0.0
 47
0.0
 47
0.0
 47
1.0
 47
0.0
 47
0.0
 47
0.0
 47
0.0
 47
1.0
171
     0
 49
0.0208333333333333
 49
0.0
 49
0.0
 49
0.0
 49
0.0
 49
0.0208333333333333
 49
0.0
 49
0.0
 49
0.0
 49
0.0
 49
1.0
 49
0.0
 49
0.0
 49
0.0
 49
0.0
 49
1.0
175
     0
142
0.0208333333333333
142
0.0
142
0.0
142
0.0
142
0.0
142
0.0208333333333333
142
0.0
142
0.0
142
0.0
142
0.0
142
1.0
142
0.0
142
0.0
142
0.0
142
0.0
142
1.0
179
     0
144
0.0208333333333333
144
0.0
144
0.0
144
0.0
144
0.0
144
0.0208333333333333
144
0.0
144
0.0
144
0.0
144
0.0
144
1.0
144
0.0
144
0.0
144
0.0
144
0.0
144
1.0
147
0.0208333333333333
147
0.0
147
0.0
147
0.0
147
0.0
147
0.0208333333333333
147
0.0
147
0.0
147
0.0
147
0.0
147
1.0
147
0.0
147
0.0
147
0.0
147
0.0
147
1.0
  0
MATERIAL
  5
AF4E
102
{ACAD_XDICTIONARY
360
AF4F
102
}
102
{ACAD_REACTORS
330
AF3D
102
}
330
AF3D
100
AcDbMaterial
  1
Global
 72
     0
 43
0.0208333333333333
 43
0.0
 43
0.0
 43
0.0
 43
0.0
 43
0.0208333333333333
 43
0.0
 43
0.0
 43
0.0
 43
0.0
 43
1.0
 43
0.0
 43
0.0
 43
0.0
 43
0.0
 43
1.0
 77
     0
 47
0.0208333333333333
 47
0.0
 47
0.0
 47
0.0
 47
0.0
 47
0.0208333333333333
 47
0.0
 47
0.0
 47
0.0
 47
0.0
 47
1.0
 47
0.0
 47
0.0
 47
0.0
 47
0.0
 47
1.0
171
     0
 49
0.0208333333333333
 49
0.0
 49
0.0
 49
0.0
 49
0.0
 49
0.0208333333333333
 49
0.0
 49
0.0
 49
0.0
 49
0.0
 49
1.0
 49
0.0
 49
0.0
 49
0.0
 49
0.0
 49
1.0
175
     0
142
0.0208333333333333
142
0.0
142
0.0
142
0.0
142
0.0
142
0.0208333333333333
142
0.0
142
0.0
142
0.0
142
0.0
142
1.0
142
0.0
142
0.0
142
0.0
142
0.0
142
1.0
179
     0
144
0.0208333333333333
144
0.0
144
0.0
144
0.0
144
0.0
144
0.0208333333333333
144
0.0
144
0.0
144
0.0
144
0.0
144
1.0
144
0.0
144
0.0
144
0.0
144
0.0
144
1.0
147
0.0208333333333333
147
0.0
147
0.0
147
0.0
147
0.0
147
0.0208333333333333
147
0.0
147
0.0
147
0.0
147
0.0
147
1.0
147
0.0
147
0.0
147
0.0
147
0.0
147
1.0
  0
MLEADERSTYLE
  5
AF85
102
{ACAD_REACTORS
330
AF84
102
}
330
AF84
100
AcDbMLeaderStyle
170
     2
171
     1
172
     0
 90
        2
 40
0.0
 41
0.0
173
     1
 91
-1056964608
340
AD3C
 92
       -2
290
     1
 42
0.09
291
     1
 43
0.36
  3
Standard
 44
0.18
300

342
AD3A
174
     1
178
     6
175
     1
176
     0
 93
-1056964608
 45
0.18
292
     0
297
     0
 46
0.18
 94
-1056964608
 47
1.0
 49
1.0
140
1.0
293
     1
141
0.0
294
     1
177
     0
142
1.0
295
     0
296
     0
143
0.125
1001
ACAD_MLEADERVER
1070
     2
  0
MLINESTYLE
  5
AD40
102
{ACAD_REACTORS
330
AD3F
102
}
330
AD3F
100
AcDbMlineStyle
  2
STANDARD
 70
     0
  3

 62
   256
 51
90.0
 52
90.0
 71
     2
 49
0.5
 62
   256
  6
BYLAYER
 49
-0.5
 62
   256
  6
BYLAYER
  0
ACDBPLACEHOLDER
  5
AF3C
102
{ACAD_REACTORS
330
AF3B
102
}
330
AF3B
  0
SCALE
  5
AF73
102
{ACAD_REACTORS
330
AF72
102
}
330
AF72
100
AcDbScale
 70
     0
300
1:1
140
1.0
141
1.0
290
     1
  0
SCALE
  5
AF74
102
{ACAD_REACTORS
330
AF72
102
}
330
AF72
100
AcDbScale
 70
     0
300
1/128" = 1'-0"
140
0.0078125
141
12.0
290
     0
  0
SCALE
  5
AF75
102
{ACAD_REACTORS
330
AF72
102
}
330
AF72
100
AcDbScale
 70
     0
300
1/64" = 1'-0"
140
0.015625
141
12.0
290
     0
  0
SCALE
  5
AF76
102
{ACAD_REACTORS
330
AF72
102
}
330
AF72
100
AcDbScale
 70
     0
300
1/32" = 1'-0"
140
0.03125
141
12.0
290
     0
  0
SCALE
  5
AF77
102
{ACAD_REACTORS
330
AF72
102
}
330
AF72
100
AcDbScale
 70
     0
300
1/16" = 1'-0"
140
0.0625
141
12.0
290
     0
  0
SCALE
  5
AF78
102
{ACAD_REACTORS
330
AF72
102
}
330
AF72
100
AcDbScale
 70
     0
300
3/32" = 1'-0"
140
0.09375
141
12.0
290
     0
  0
SCALE
  5
AF79
102
{ACAD_REACTORS
330
AF72
102
}
330
AF72
100
AcDbScale
 70
     0
300
1/8" = 1'-0"
140
0.125
141
12.0
290
     0
  0
SCALE
  5
AF7A
102
{ACAD_REACTORS
330
AF72
102
}
330
AF72
100
AcDbScale
 70
     0
300
3/16" = 1'-0"
140
0.1875
141
12.0
290
     0
  0
SCALE
  5
AF7B
102
{ACAD_REACTORS
330
AF72
102
}
330
AF72
100
AcDbScale
 70
     0
300
1/4" = 1'-0"
140
0.25
141
12.0
290
     0
  0
SCALE
  5
AF7C
102
{ACAD_REACTORS
330
AF72
102
}
330
AF72
100
AcDbScale
 70
     0
300
3/8" = 1'-0"
140
0.375
141
12.0
290
     0
  0
SCALE
  5
AF7D
102
{ACAD_REACTORS
330
AF72
102
}
330
AF72
100
AcDbScale
 70
     0
300
1/2" = 1'-0"
140
0.5
141
12.0
290
     0
  0
SCALE
  5
AF7E
102
{ACAD_REACTORS
330
AF72
102
}
330
AF72
100
AcDbScale
 70
     0
300
3/4" = 1'-0"
140
0.75
141
12.0
290
     0
  0
SCALE
  5
AF7F
102
{ACAD_REACTORS
330
AF72
102
}
330
AF72
100
AcDbScale
 70
     0
300
1" = 1'-0"
140
1.0
141
12.0
290
     0
  0
SCALE
  5
AF80
102
{ACAD_REACTORS
330
AF72
102
}
330
AF72
100
AcDbScale
 70
     0
300
1-1/2" = 1'-0"
140
1.5
141
12.0
290
     0
  0
SCALE
  5
AF81
102
{ACAD_REACTORS
330
AF72
102
}
330
AF72
100
AcDbScale
 70
     0
300
3" = 1'-0"
140
3.0
141
12.0
290
     0
  0
SCALE
  5
AF82
102
{ACAD_REACTORS
330
AF72
102
}
330
AF72
100
AcDbScale
 70
     0
300
6" = 1'-0"
140
6.0
141
12.0
290
     0
  0
SCALE
  5
AF83
102
{ACAD_REACTORS
330
AF72
102
}
330
AF72
100
AcDbScale
 70
     0
300
1'-0" = 1'-0"
140
12.0
141
12.0
290
     0
  0
ACDBSECTIONVIEWSTYLE
  5
AF87
102
{ACAD_XDICTIONARY
360
AFE2
102
}
102
{ACAD_REACTORS
330
AF86
102
}
330
AF86
100
AcDbModelDocViewStyle
 70
     0
  3
Imperial24
290
     0
100
AcDbSectionViewStyle
 70
     0
 71
     0
 90
       78
 71
     1
340
AD3A
 40
0.24
340
0
340
0
 40
0.24
300
I, O, Q, S, X, Z
 40
0.48
 90
        3
 40
0.18
 90
        1
 71
     2
340
AD3E
 90
       25
340
AD3E
 90
       50
 40
0.24
 40
0.0
 40
0.24
 71
     3
340
AD3A
 40
0.24
 90
        1
 40
0.75
 90
        1
300
%<\AcVar ViewType \f "%tc1">% %<\AcVar ViewSectionStartId>%-%<\AcVar ViewSectionEndId>%\PSCALE %<\AcVar ViewScale \f "%sn">%
 71
     4
300
ANSI31
 40
1.0
 90
        0
290
     0
290
     0
 90
        6
 40
0.0
 40
1.570796326794896
 40
0.2617993877991494
 40
1.308996938995747
 40
-0.2617993877991494
 40
1.832595714594046
  0
TABLESTYLE
  5
AF71
102
{ACAD_XDICTIONARY
360
AFA9
102
}
102
{ACAD_REACTORS
330
AF70
102
}
330
AF70
100
AcDbTableStyle
  3
Standard
 70
     0
 71
     0
 40
0.06
 41
0.06
280
     0
281
     0
  7
STANDARD
140
0.18
170
     2
 62
     0
 63
     7
283
     0
274
    -2
284
     1
 64
     0
275
    -2
285
     1
 65
     0
276
    -2
286
     1
 66
     0
277
    -2
287
     1
 67
     0
278
    -2
288
     1
 68
     0
279
    -2
289
     1
 69
     0
  7
STANDARD
140
0.25
170
     5
 62
     0
 63
     7
283
     0
274
    -2
284
     1
 64
     0
275
    -2
285
     1
 65
     0
276
    -2
286
     1
 66
     0
277
    -2
287
     1
 67
     0
278
    -2
288
     1
 68
     0
279
    -2
289
     1
 69
     0
  7
STANDARD
140
0.18
170
     5
 62
     0
 63
     7
283
     0
274
    -2
284
     1
 64
     0
275
    -2
285
     1
 65
     0
276
    -2
286
     1
 66
     0
277
    -2
287
     1
 67
     0
278
    -2
288
     1
 68
     0
279
    -2
289
     1
 69
     0
  0
VISUALSTYLE
  5
AF5C
102
{ACAD_XDICTIONARY
360
AFBA
102
}
102
{ACAD_REACTORS
330
AF56
102
}
330
AF56
100
AcDbVisualStyle
  2
2dWireframe
 70
     4
 71
     0
 72
     2
 73
     0
 90
        0
 40
-0.6
 41
-30.0
 62
     5
 63
     7
 74
     1
 91
        4
 64
     7
 65
   257
 75
     1
175
     1
 42
1.0
 92
        0
 66
   257
 43
1.0
 76
     1
 77
     6
 78
     2
 67
     7
 79
     5
170
     0
171
     0
290
     0
174
     0
 93
        1
 44
0.0
173
     0
291
     0
 45
0.0
1001
ACAD
1000
AcDbSavedByObjectVersion
1070
     0
  0
VISUALSTYLE
  5
AF5B
102
{ACAD_XDICTIONARY
360
AFB8
102
}
102
{ACAD_REACTORS
330
AF56
102
}
330
AF56
100
AcDbVisualStyle
  2
Basic
 70
     7
 71
     1
 72
     0
 73
     1
 90
        0
 40
-0.6
 41
-30.0
 62
     5
 63
     7
 74
     0
 91
        4
 64
     7
 65
   257
 75
     1
175
     1
 42
1.0
 92
        8
 66
     7
 43
1.0
 76
     1
 77
     6
 78
     2
 67
     7
 79
     5
170
     0
171
     0
290
     0
174
     0
 93
        1
 44
0.0
173
     0
291
     1
 45
0.0
1001
ACAD
1000
AcDbSavedByObjectVersion
1070
     0
  0
VISUALSTYLE
  5
AF62
102
{ACAD_XDICTIONARY
360
AFC6
102
}
102
{ACAD_REACTORS
330
AF56
102
}
330
AF56
100
AcDbVisualStyle
  2
Brighten
 70
    12
 71
     2
 72
     2
 73
     0
 90
        0
 40
-0.6
 41
-30.0
 62
     5
 63
     7
 74
     1
 91
        4
 64
     7
 65
   257
 75
     1
175
     1
 42
1.0
 92
        8
 66
     7
 43
1.0
 76
     1
 77
     6
 78
     2
 67
     7
 79
     5
170
     0
171
     0
290
     0
174
     0
 93
        1
 44
50.0
173
     0
291
     1
 45
0.0
1001
ACAD
1000
AcDbSavedByObjectVersion
1070
     0
  0
VISUALSTYLE
  5
AF66
102
{ACAD_XDICTIONARY
360
AFCE
102
}
102
{ACAD_REACTORS
330
AF56
102
}
330
AF56
100
AcDbVisualStyle
  2
ColorChange
 70
    16
 71
     2
 72
     2
 73
     3
 90
        0
 40
-0.6
 41
-30.0
 62
     5
 63
     8
 74
     1
 91
        4
 64
     7
 65
   257
 75
     1
175
     1
 42
1.0
 92
        8
 66
     8
 43
1.0
 76
     1
 77
     6
 78
     2
 67
     7
 79
     5
170
     0
171
     0
290
     0
174
     0
 93
        1
 44
0.0
173
     0
291
     1
 45
0.0
1001
ACAD
1000
AcDbSavedByObjectVersion
1070
     0
  0
VISUALSTYLE
  5
AF5F
102
{ACAD_XDICTIONARY
360
AFC0
102
}
102
{ACAD_REACTORS
330
AF56
102
}
330
AF56
100
AcDbVisualStyle
  2
Conceptual
 70
     9
 71
     3
 72
     2
 73
     0
 90
        0
 40
-0.6
 41
-30.0
 62
     5
 63
     7
 74
     2
 91
        2
 64
     7
 65
   257
 75
     1
175
     1
 42
179.0
 92
        8
 66
     7
 43
1.0
 76
     1
 77
     6
 78
     2
 67
     7
 79
     3
170
     0
171
     0
290
     0
174
     0
 93
        1
 44
0.0
173
     0
291
     0
 45
0.0
1001
ACAD
1000
AcDbSavedByObjectVersion
1070
     0
  0
VISUALSTYLE
  5
AF61
102
{ACAD_XDICTIONARY
360
AFC4
102
}
102
{ACAD_REACTORS
330
AF56
102
}
330
AF56
100
AcDbVisualStyle
  2
Dim
 70
    11
 71
     2
 72
     2
 73
     0
 90
        0
 40
-0.6
 41
-30.0
 62
     5
 63
     7
 74
     1
 91
        4
 64
     7
 65
   257
 75
     1
175
     1
 42
1.0
 92
        8
 66
     7
 43
1.0
 76
     1
 77
     6
 78
     2
 67
     7
 79
     5
170
     0
171
     0
290
     0
174
     0
 93
        1
 44
-50.0
173
     0
291
     1
 45
0.0
1001
ACAD
1000
AcDbSavedByObjectVersion
1070
     0
  0
VISUALSTYLE
  5
AF6E
102
{ACAD_XDICTIONARY
360
AFDE
102
}
102
{ACAD_REACTORS
330
AF56
102
}
330
AF56
100
AcDbVisualStyle
  2
EdgeColorOff
 70
    22
 71
     2
 72
     2
 73
     0
 90
        0
 40
-0.6
 41
-30.0
 62
     5
 63
     7
 74
     1
 91
        4
 64
     7
 65
   257
 75
     1
175
     1
 42
1.0
 92
        8
 66
     7
 43
1.0
 76
     1
 77
     6
 78
     2
 67
     7
 79
     5
170
     0
171
     0
290
     0
174
     0
 93
        1
 44
0.0
173
     0
291
     1
 45
0.0
1001
ACAD
1000
AcDbSavedByObjectVersion
1070
     0
  0
VISUALSTYLE
  5
AF65
102
{ACAD_XDICTIONARY
360
AFCC
102
}
102
{ACAD_REACTORS
330
AF56
102
}
330
AF56
100
AcDbVisualStyle
  2
Facepattern
 70
    15
 71
     2
 72
     2
 73
     0
 90
        0
 40
-0.6
 41
-30.0
 62
     5
 63
     7
 74
     1
 91
        4
 64
     7
 65
   257
 75
     1
175
     1
 42
1.0
 92
        8
 66
     7
 43
1.0
 76
     1
 77
     6
 78
     2
 67
     7
 79
     5
170
     0
171
     0
290
     0
174
     0
 93
        1
 44
0.0
173
     0
291
     1
 45
0.0
1001
ACAD
1000
AcDbSavedByObjectVersion
1070
     0
  0
VISUALSTYLE
  5
AF57
102
{ACAD_XDICTIONARY
360
AFB0
102
}
102
{ACAD_REACTORS
330
AF56
102
}
330
AF56
100
AcDbVisualStyle
  2
Flat
 70
     0
 71
     2
 72
     1
 73
     1
 90
        2
 40
-0.6
 41
30.0
 62
     5
 63
     7
 74
     0
 91
        0
 64
     7
 65
   257
 75
     1
175
     1
 42
1.0
 92
        8
 66
     7
 43
1.0
 76
     1
 77
     6
 78
     2
 67
     7
 79
     5
170
     0
171
     0
290
     0
174
     0
 93
       13
 44
0.0
173
     0
291
     1
 45
0.0
1001
ACAD
1000
AcDbSavedByObjectVersion
1070
     0
  0
VISUALSTYLE
  5
AF58
102
{ACAD_XDICTIONARY
360
AFB2
102
}
102
{ACAD_REACTORS
330
AF56
102
}
330
AF56
100
AcDbVisualStyle
  2
FlatWithEdges
 70
     1
 71
     2
 72
     1
 73
     1
 90
        2
 40
-0.6
 41
30.0
 62
     5
 63
     7
 74
     1
 91
        0
 64
     7
 65
   257
 75
     1
175
     1
 42
1.0
 92
        0
 66
   257
 43
1.0
 76
     1
 77
     6
 78
     2
 67
     7
 79
     5
170
     0
171
     0
290
     0
174
     0
 93
       13
 44
0.0
173
     0
291
     1
 45
0.0
1001
ACAD
1000
AcDbSavedByObjectVersion
1070
     0
  0
VISUALSTYLE
  5
AF59
102
{ACAD_XDICTIONARY
360
AFB4
102
}
102
{ACAD_REACTORS
330
AF56
102
}
330
AF56
100
AcDbVisualStyle
  2
Gouraud
 70
     2
 71
     2
 72
     2
 73
     1
 90
        2
 40
-0.6
 41
30.0
 62
     5
 63
     7
 74
     0
 91
        0
 64
     7
 65
   257
 75
     1
175
     1
 42
1.0
 92
        0
 66
     7
 43
1.0
 76
     1
 77
     6
 78
     2
 67
     7
 79
     5
170
     0
171
     0
290
     0
174
     0
 93
       13
 44
0.0
173
     0
291
     1
 45
0.0
1001
ACAD
1000
AcDbSavedByObjectVersion
1070
     0
  0
VISUALSTYLE
  5
AF5A
102
{ACAD_XDICTIONARY
360
AFB6
102
}
102
{ACAD_REACTORS
330
AF56
102
}
330
AF56
100
AcDbVisualStyle
  2
GouraudWithEdges
 70
     3
 71
     2
 72
     2
 73
     1
 90
        2
 40
-0.6
 41
30.0
 62
     5
 63
     7
 74
     1
 91
        0
 64
     7
 65
   257
 75
     1
175
     1
 42
1.0
 92
        0
 66
   257
 43
1.0
 76
     1
 77
     6
 78
     2
 67
     7
 79
     5
170
     0
171
     0
290
     0
174
     0
 93
       13
 44
0.0
173
     0
291
     1
 45
0.0
1001
ACAD
1000
AcDbSavedByObjectVersion
1070
     0
  0
VISUALSTYLE
  5
AF5E
102
{ACAD_XDICTIONARY
360
AFBE
102
}
102
{ACAD_REACTORS
330
AF56
102
}
330
AF56
100
AcDbVisualStyle
  2
Hidden
 70
     6
 71
     1
 72
     2
 73
     2
 90
        0
 40
-0.6
 41
-30.0
 62
     5
 63
     7
 74
     2
 91
        2
 64
     7
 65
   257
 75
     2
175
     1
 42
40.0
 92
        0
 66
   257
 43
1.0
 76
     1
 77
     6
 78
     2
 67
     7
 79
     3
170
     0
171
     0
290
     0
174
     0
 93
        1
 44
0.0
173
     0
291
     0
 45
0.0
1001
ACAD
1000
AcDbSavedByObjectVersion
1070
     0
  0
VISUALSTYLE
  5
AF6C
102
{ACAD_XDICTIONARY
360
AFDA
102
}
102
{ACAD_REACTORS
330
AF56
102
}
330
AF56
100
AcDbVisualStyle
  2
JitterOff
 70
    20
 71
     2
 72
     2
 73
     0
 90
        0
 40
-0.6
 41
-30.0
 62
     5
 63
     7
 74
     1
 91
        4
 64
     7
 65
   257
 75
     1
175
     1
 42
1.0
 92
       10
 66
     7
 43
1.0
 76
     1
 77
     6
 78
     2
 67
     7
 79
     5
170
     0
171
     0
290
     0
174
     0
 93
        1
 44
0.0
173
     0
291
     1
 45
0.0
1001
ACAD
1000
AcDbSavedByObjectVersion
1070
     0
  0
VISUALSTYLE
  5
AF64
102
{ACAD_XDICTIONARY
360
AFCA
102
}
102
{ACAD_REACTORS
330
AF56
102
}
330
AF56
100
AcDbVisualStyle
  2
Linepattern
 70
    14
 71
     2
 72
     2
 73
     0
 90
        0
 40
-0.6
 41
-30.0
 62
     5
 63
     7
 74
     1
 91
        4
 64
     7
 65
   257
 75
     7
175
     7
 42
1.0
 92
        8
 66
     7
 43
1.0
 76
     1
 77
     6
 78
     2
 67
     7
 79
     5
170
     0
171
     0
290
     0
174
     0
 93
        1
 44
0.0
173
     0
291
     1
 45
0.0
1001
ACAD
1000
AcDbSavedByObjectVersion
1070
     0
  0
VISUALSTYLE
  5
AF6D
102
{ACAD_XDICTIONARY
360
AFDC
102
}
102
{ACAD_REACTORS
330
AF56
102
}
330
AF56
100
AcDbVisualStyle
  2
OverhangOff
 70
    21
 71
     2
 72
     2
 73
     0
 90
        0
 40
-0.6
 41
-30.0
 62
     5
 63
     7
 74
     1
 91
        4
 64
     7
 65
   257
 75
     1
175
     1
 42
1.0
 92
        9
 66
     7
 43
1.0
 76
     1
 77
     6
 78
     2
 67
     7
 79
     5
170
     0
171
     0
290
     0
174
     0
 93
        1
 44
0.0
173
     0
291
     1
 45
0.0
1001
ACAD
1000
AcDbSavedByObjectVersion
1070
     0
  0
VISUALSTYLE
  5
AF60
102
{ACAD_XDICTIONARY
360
AFC2
102
}
102
{ACAD_REACTORS
330
AF56
102
}
330
AF56
100
AcDbVisualStyle
  2
Realistic
 70
     8
 71
     2
 72
     3
 73
     0
 90
        2
 40
-0.6
 41
30.0
 62
     5
 63
     7
 74
     0
 91
        0
 64
     7
 65
   257
 75
     1
175
     1
 42
1.0
 92
        8
 66
   257
 43
1.0
 76
     1
 77
     6
 78
     2
 67
     7
 79
     3
170
     0
171
     0
290
     0
174
     0
 93
       13
 44
0.0
173
     0
291
     0
 45
0.0
1001
ACAD
1000
AcDbSavedByObjectVersion
1070
     0
  0
VISUALSTYLE
  5
AF6B
102
{ACAD_XDICTIONARY
360
AFD8
102
}
102
{ACAD_REACTORS
330
AF56
102
}
330
AF56
100
AcDbVisualStyle
  2
Shaded
 70
    27
 71
     2
 72
     2
 73
     1
 90
        2
 40
-0.6
 41
30.0
 62
     5
 63
     7
 74
     0
 91
        4
 64
     7
 65
   257
 75
     1
175
     1
 42
1.0
 92
        8
 66
   257
 43
1.0
 76
     1
 77
     6
 78
     2
 67
     8
 79
     3
170
     0
171
     0
290
     0
174
     0
 93
        5
 44
0.0
173
     0
291
     0
 45
0.0
1001
ACAD
1000
AcDbSavedByObjectVersion
1070
     0
  0
VISUALSTYLE
  5
AF6A
102
{ACAD_XDICTIONARY
360
AFD6
102
}
102
{ACAD_REACTORS
330
AF56
102
}
330
AF56
100
AcDbVisualStyle
  2
Shaded with edges
 70
    26
 71
     2
 72
     2
 73
     1
 90
        2
 40
-0.6
 41
30.0
 62
     5
 63
     7
 74
     1
 91
       10
 64
     7
 65
   257
 75
     2
175
     1
 42
1.0
 92
        8
 66
   257
 43
1.0
 76
     1
 77
     6
 78
     2
 67
     7
 79
     3
170
     0
171
     0
290
     0
174
     0
 93
        5
 44
0.0
173
     0
291
     0
 45
0.0
1001
ACAD
1000
AcDbSavedByObjectVersion
1070
     0
  0
VISUALSTYLE
  5
AF67
102
{ACAD_XDICTIONARY
360
AFD0
102
}
102
{ACAD_REACTORS
330
AF56
102
}
330
AF56
100
AcDbVisualStyle
  2
Shades of Gray
 70
    23
 71
     2
 72
     2
 73
     3
 90
        0
 40
-0.6
 41
-30.0
 62
     5
 63
     7
 74
     2
 91
        2
 64
     7
 65
     7
 75
     1
175
     1
 42
40.0
 92
        8
 66
     7
 43
1.0
 76
     1
 77
     6
 78
     2
 67
     7
 79
     3
170
     0
171
     0
290
     0
174
     0
 93
        1
 44
0.0
173
     0
291
     0
 45
0.0
1001
ACAD
1000
AcDbSavedByObjectVersion
1070
     0
  0
VISUALSTYLE
  5
AF68
102
{ACAD_XDICTIONARY
360
AFD2
102
}
102
{ACAD_REACTORS
330
AF56
102
}
330
AF56
100
AcDbVisualStyle
  2
Sketchy
 70
    24
 71
     1
 72
     2
 73
     2
 90
        0
 40
-0.6
 41
-30.0
 62
     5
 63
     7
 74
     2
 91
        2
 64
     7
 65
     7
 75
     1
175
     1
 42
40.0
 92
       11
 66
     7
 43
1.0
 76
     1
 77
     6
 78
     2
 67
     7
 79
     6
170
     0
171
     0
290
     0
174
     0
 93
        1
 44
0.0
173
     0
291
     0
 45
0.0
1001
ACAD
1000
AcDbSavedByObjectVersion
1070
     0
  0
VISUALSTYLE
  5
AF63
102
{ACAD_XDICTIONARY
360
AFC8
102
}
102
{ACAD_REACTORS
330
AF56
102
}
330
AF56
100
AcDbVisualStyle
  2
Thicken
 70
    13
 71
     2
 72
     2
 73
     0
 90
        0
 40
-0.6
 41
-30.0
 62
     5
 63
     7
 74
     1
 91
        4
 64
     7
 65
   257
 75
     1
175
     1
 42
1.0
 92
       12
 66
     7
 43
1.0
 76
     1
 77
     6
 78
     2
 67
     7
 79
     5
170
     0
171
     0
290
     0
174
     0
 93
        1
 44
0.0
173
     0
291
     1
 45
0.0
1001
ACAD
1000
AcDbSavedByObjectVersion
1070
     0
  0
VISUALSTYLE
  5
AF5D
102
{ACAD_XDICTIONARY
360
AFBC
102
}
102
{ACAD_REACTORS
330
AF56
102
}
330
AF56
100
AcDbVisualStyle
  2
Wireframe
 70
     5
 71
     0
 72
     2
 73
     0
 90
        0
 40
-0.6
 41
-30.0
 62
     5
 63
     7
 74
     1
 91
        4
 64
     7
 65
   257
 75
     1
175
     1
 42
1.0
 92
        0
 66
   257
 43
1.0
 76
     1
 77
     6
 78
     2
 67
     7
 79
     3
170
     0
171
     0
290
     0
174
     0
 93
        1
 44
0.0
173
     0
291
     0
 45
0.0
1001
ACAD
1000
AcDbSavedByObjectVersion
1070
     0
  0
VISUALSTYLE
  5
AF69
102
{ACAD_XDICTIONARY
360
AFD4
102
}
102
{ACAD_REACTORS
330
AF56
102
}
330
AF56
100
AcDbVisualStyle
  2
X-Ray
 70
    25
 71
     2
 72
     2
 73
     1
 90
        1
 40
0.5
 41
-30.0
 62
     5
 63
     7
 74
     1
 91
        0
 64
     7
 65
   257
 75
     1
175
     1
 42
1.0
 92
        8
 66
     7
 43
1.0
 76
     1
 77
     6
 78
     2
 67
     7
 79
     3
170
     0
171
     0
290
     0
174
     0
 93
       13
 44
0.0
173
     0
291
     0
 45
0.0
1001
ACAD
1000
AcDbSavedByObjectVersion
1070
     0
  0
DICTIONARYVAR
  5
AFA3
102
{ACAD_REACTORS
330
AF9E
102
}
330
AF9E
100
DictionaryVariables
280
     0
  1
1:1
  0
DICTIONARYVAR
  5
AFA0
102
{ACAD_REACTORS
330
AF9E
102
}
330
AF9E
100
DictionaryVariables
280
     0
  1
STANDARD
  0
DICTIONARYVAR
  5
AF9F
102
{ACAD_REACTORS
330
AF9E
102
}
330
AF9E
100
DictionaryVariables
280
     0
  1
STANDARD
  0
DICTIONARYVAR
  5
AFA1
102
{ACAD_REACTORS
330
AF9E
102
}
330
AF9E
100
DictionaryVariables
280
     0
  1
Imperial24
  0
DICTIONARYVAR
  5
AFA2
102
{ACAD_REACTORS
330
AF9E
102
}
330
AF9E
100
DictionaryVariables
280
     0
  1
Imperial24
  0
DICTIONARYVAR
  5
AFA6
102
{ACAD_REACTORS
330
AF9E
102
}
330
AF9E
100
DictionaryVariables
280
     0
  1
1
  0
DICTIONARYVAR
  5
AFA5
102
{ACAD_REACTORS
330
AF9E
102
}
330
AF9E
100
DictionaryVariables
280
     0
  1
0
  0
DICTIONARYVAR
  5
AFA4
102
{ACAD_REACTORS
330
AF9E
102
}
330
AF9E
100
DictionaryVariables
280
     0
  1
127
  0
DICTIONARYVAR
  5
AFA7
102
{ACAD_REACTORS
330
AF9E
102
}
330
AF9E
100
DictionaryVariables
280
     0
  1
2
  0
DICTIONARY
  5
AFE4
330
AF89
100
AcDbDictionary
280
     1
281
     1
  3
ACAD_XREC_ROUNDTRIP
360
AFE5
  0
DICTIONARY
  5
AFE6
330
AF8A
100
AcDbDictionary
280
     1
281
     1
  3
ACAD_XREC_ROUNDTRIP
360
AFE7
  0
DICTIONARY
  5
AFE8
330
AF8B
100
AcDbDictionary
280
     1
281
     1
  3
ACAD_XREC_ROUNDTRIP
360
AFE9
  0
DICTIONARY
  5
AF47
330
AF46
100
AcDbDictionary
280
     1
281
     1
  3
ACAD_XREC_ROUNDTRIP
360
AFAE
  3
BUMPTILE
360
AF49
  3
DIFFUSETILE
360
AF48
  3
OPACITYTILE
360
AF4C
  3
REFLECTIONTILE
360
AF4B
  3
REFRACTIONTILE
360
AF4D
  3
SPECULARTILE
360
AF4A
  0
DICTIONARY
  5
AF3F
330
AF3E
100
AcDbDictionary
280
     1
281
     1
  3
ACAD_XREC_ROUNDTRIP
360
AFAD
  3
BUMPTILE
360
AF41
  3
DIFFUSETILE
360
AF40
  3
OPACITYTILE
360
AF44
  3
REFLECTIONTILE
360
AF43
  3
REFRACTIONTILE
360
AF45
  3
SPECULARTILE
360
AF42
  0
DICTIONARY
  5
AF4F
330
AF4E
100
AcDbDictionary
280
     1
281
     1
  3
ACAD_XREC_ROUNDTRIP
360
AFAF
  3
BUMPTILE
360
AF51
  3
DIFFUSETILE
360
AF50
  3
OPACITYTILE
360
AF54
  3
REFLECTIONTILE
360
AF53
  3
REFRACTIONTILE
360
AF55
  3
SPECULARTILE
360
AF52
  0
DICTIONARY
  5
AFE2
330
AF87
100
AcDbDictionary
280
     1
281
     1
  3
ACAD_XREC_ROUNDTRIP
360
AFE3
  0
DICTIONARY
  5
AFA9
330
AF71
100
AcDbDictionary
280
     1
281
     1
  3
ACAD_ROUNDTRIP_2008_TABLESTYLE_CELLSTYLEMAP
360
AFAA
  3
ACAD_XREC_ROUNDTRIP
360
AFE0
  0
DICTIONARY
  5
AFBA
330
AF5C
100
AcDbDictionary
280
     1
281
     1
  3
ACAD_XREC_ROUNDTRIP
360
AFBB
  0
DICTIONARY
  5
AFB8
330
AF5B
100
AcDbDictionary
280
     1
281
     1
  3
ACAD_XREC_ROUNDTRIP
360
AFB9
  0
DICTIONARY
  5
AFC6
330
AF62
100
AcDbDictionary
280
     1
281
     1
  3
ACAD_XREC_ROUNDTRIP
360
AFC7
  0
DICTIONARY
  5
AFCE
330
AF66
100
AcDbDictionary
280
     1
281
     1
  3
ACAD_XREC_ROUNDTRIP
360
AFCF
  0
DICTIONARY
  5
AFC0
330
AF5F
100
AcDbDictionary
280
     1
281
     1
  3
ACAD_XREC_ROUNDTRIP
360
AFC1
  0
DICTIONARY
  5
AFC4
330
AF61
100
AcDbDictionary
280
     1
281
     1
  3
ACAD_XREC_ROUNDTRIP
360
AFC5
  0
DICTIONARY
  5
AFDE
330
AF6E
100
AcDbDictionary
280
     1
281
     1
  3
ACAD_XREC_ROUNDTRIP
360
AFDF
  0
DICTIONARY
  5
AFCC
330
AF65
100
AcDbDictionary
280
     1
281
     1
  3
ACAD_XREC_ROUNDTRIP
360
AFCD
  0
DICTIONARY
  5
AFB0
330
AF57
100
AcDbDictionary
280
     1
281
     1
  3
ACAD_XREC_ROUNDTRIP
360
AFB1
  0
DICTIONARY
  5
AFB2
330
AF58
100
AcDbDictionary
280
     1
281
     1
  3
ACAD_XREC_ROUNDTRIP
360
AFB3
  0
DICTIONARY
  5
AFB4
330
AF59
100
AcDbDictionary
280
     1
281
     1
  3
ACAD_XREC_ROUNDTRIP
360
AFB5
  0
DICTIONARY
  5
AFB6
330
AF5A
100
AcDbDictionary
280
     1
281
     1
  3
ACAD_XREC_ROUNDTRIP
360
AFB7
  0
DICTIONARY
  5
AFBE
330
AF5E
100
AcDbDictionary
280
     1
281
     1
  3
ACAD_XREC_ROUNDTRIP
360
AFBF
  0
DICTIONARY
  5
AFDA
330
AF6C
100
AcDbDictionary
280
     1
281
     1
  3
ACAD_XREC_ROUNDTRIP
360
AFDB
  0
DICTIONARY
  5
AFCA
330
AF64
100
AcDbDictionary
280
     1
281
     1
  3
ACAD_XREC_ROUNDTRIP
360
AFCB
  0
DICTIONARY
  5
AFDC
330
AF6D
100
AcDbDictionary
280
     1
281
     1
  3
ACAD_XREC_ROUNDTRIP
360
AFDD
  0
DICTIONARY
  5
AFC2
330
AF60
100
AcDbDictionary
280
     1
281
     1
  3
ACAD_XREC_ROUNDTRIP
360
AFC3
  0
DICTIONARY
  5
AFD8
330
AF6B
100
AcDbDictionary
280
     1
281
     1
  3
ACAD_XREC_ROUNDTRIP
360
AFD9
  0
DICTIONARY
  5
AFD6
330
AF6A
100
AcDbDictionary
280
     1
281
     1
  3
ACAD_XREC_ROUNDTRIP
360
AFD7
  0
DICTIONARY
  5
AFD0
330
AF67
100
AcDbDictionary
280
     1
281
     1
  3
ACAD_XREC_ROUNDTRIP
360
AFD1
  0
DICTIONARY
  5
AFD2
330
AF68
100
AcDbDictionary
280
     1
281
     1
  3
ACAD_XREC_ROUNDTRIP
360
AFD3
  0
DICTIONARY
  5
AFC8
330
AF63
100
AcDbDictionary
280
     1
281
     1
  3
ACAD_XREC_ROUNDTRIP
360
AFC9
  0
DICTIONARY
  5
AFBC
330
AF5D
100
AcDbDictionary
280
     1
281
     1
  3
ACAD_XREC_ROUNDTRIP
360
AFBD
  0
DICTIONARY
  5
AFD4
330
AF69
100
AcDbDictionary
280
     1
281
     1
  3
ACAD_XREC_ROUNDTRIP
360
AFD5
  0
XRECORD
  5
AFE5
102
{ACAD_REACTORS
330
AFE4
102
}
330
AFE4
100
AcDbXrecord
280
     1
102
DISPLAYNAME
  1
Imperial24
102
FLAGS
 90
        0
  0
XRECORD
  5
AFE7
102
{ACAD_REACTORS
330
AFE6
102
}
330
AFE6
100
AcDbXrecord
280
     1
102
SHADEPLOT
 70
     0
102
SHADEPLOTRESLEVEL
 70
     2
102
SHADEPLOTCUSTOMDPI
 70
   300
  0
XRECORD
  5
AFE9
102
{ACAD_REACTORS
330
AFE8
102
}
330
AFE8
100
AcDbXrecord
280
     1
102
SHADEPLOT
 70
     0
102
SHADEPLOTRESLEVEL
 70
     2
102
SHADEPLOTCUSTOMDPI
 70
   300
  0
XRECORD
  5
AFAE
102
{ACAD_REACTORS
330
AF47
102
}
330
AF47
100
AcDbXrecord
280
     1
102
MATERIAL
148
0.0
149
0.0
149
0.0
 93
        0
 94
      127
282
     0
 72
     0
 77
     0
171
     0
175
     0
179
     0
273
     0
  0
XRECORD
  5
AF49
102
{ACAD_REACTORS
330
AF47
102
}
330
AF47
100
AcDbXrecord
280
     1
270
     1
271
     1
  0
XRECORD
  5
AF48
102
{ACAD_REACTORS
330
AF47
102
}
330
AF47
100
AcDbXrecord
280
     1
270
     1
271
     1
  0
XRECORD
  5
AF4C
102
{ACAD_REACTORS
330
AF47
102
}
330
AF47
100
AcDbXrecord
280
     1
270
     1
271
     1
  0
XRECORD
  5
AF4B
102
{ACAD_REACTORS
330
AF47
102
}
330
AF47
100
AcDbXrecord
280
     1
270
     1
271
     1
  0
XRECORD
  5
AF4D
102
{ACAD_REACTORS
330
AF47
102
}
330
AF47
100
AcDbXrecord
280
     1
270
     1
271
     1
  0
XRECORD
  5
AF4A
102
{ACAD_REACTORS
330
AF47
102
}
330
AF47
100
AcDbXrecord
280
     1
270
     1
271
     1
  0
XRECORD
  5
AFAD
102
{ACAD_REACTORS
330
AF3F
102
}
330
AF3F
100
AcDbXrecord
280
     1
102
MATERIAL
148
0.0
149
0.0
149
0.0
 93
        0
 94
      127
282
     0
 72
     0
 77
     0
171
     0
175
     0
179
     0
273
     0
  0
XRECORD
  5
AF41
102
{ACAD_REACTORS
330
AF3F
102
}
330
AF3F
100
AcDbXrecord
280
     1
270
     1
271
     1
  0
XRECORD
  5
AF40
102
{ACAD_REACTORS
330
AF3F
102
}
330
AF3F
100
AcDbXrecord
280
     1
270
     1
271
     1
  0
XRECORD
  5
AF44
102
{ACAD_REACTORS
330
AF3F
102
}
330
AF3F
100
AcDbXrecord
280
     1
270
     1
271
     1
  0
XRECORD
  5
AF43
102
{ACAD_REACTORS
330
AF3F
102
}
330
AF3F
100
AcDbXrecord
280
     1
270
     1
271
     1
  0
XRECORD
  5
AF45
102
{ACAD_REACTORS
330
AF3F
102
}
330
AF3F
100
AcDbXrecord
280
     1
270
     1
271
     1
  0
XRECORD
  5
AF42
102
{ACAD_REACTORS
330
AF3F
102
}
330
AF3F
100
AcDbXrecord
280
     1
270
     1
271
     1
  0
XRECORD
  5
AFAF
102
{ACAD_REACTORS
330
AF4F
102
}
330
AF4F
100
AcDbXrecord
280
     1
102
MATERIAL
148
0.0
149
0.0
149
0.0
 93
        0
 94
      127
282
     0
 72
     0
 77
     0
171
     0
175
     0
179
     0
273
     0
  0
XRECORD
  5
AF51
102
{ACAD_REACTORS
330
AF4F
102
}
330
AF4F
100
AcDbXrecord
280
     1
270
     1
271
     1
  0
XRECORD
  5
AF50
102
{ACAD_REACTORS
330
AF4F
102
}
330
AF4F
100
AcDbXrecord
280
     1
270
     1
271
     1
  0
XRECORD
  5
AF54
102
{ACAD_REACTORS
330
AF4F
102
}
330
AF4F
100
AcDbXrecord
280
     1
270
     1
271
     1
  0
XRECORD
  5
AF53
102
{ACAD_REACTORS
330
AF4F
102
}
330
AF4F
100
AcDbXrecord
280
     1
270
     1
271
     1
  0
XRECORD
  5
AF55
102
{ACAD_REACTORS
330
AF4F
102
}
330
AF4F
100
AcDbXrecord
280
     1
270
     1
271
     1
  0
XRECORD
  5
AF52
102
{ACAD_REACTORS
330
AF4F
102
}
330
AF4F
100
AcDbXrecord
280
     1
270
     1
271
     1
  0
XRECORD
  5
AFE3
102
{ACAD_REACTORS
330
AFE2
102
}
330
AFE2
100
AcDbXrecord
280
     1
102
DISPLAYNAME
  1
Imperial24
102
FLAGS
 90
        0
  0
CELLSTYLEMAP
  5
AFAA
102
{ACAD_REACTORS
330
AFA9
102
}
330
AFA9
100
AcDbCellStyleMap
 90
        3
300
CELLSTYLE
  1
TABLEFORMAT_BEGIN
 90
        5
170
     1
 91
        0
 92
    32768
 62
   257
 93
        1
300
CONTENTFORMAT
  1
CONTENTFORMAT_BEGIN
 90
        0
 91
        0
 92
      512
 93
        0
300

 40
0.0
140
1.0
 94
        5
 62
     0
340
AD3A
144
0.25
309
CONTENTFORMAT_END
171
     0
 94
        0
309
TABLEFORMAT_END
  1
CELLSTYLE_BEGIN
 90
        1
 91
        1
300
_TITLE
309
CELLSTYLE_END
300
CELLSTYLE
  1
TABLEFORMAT_BEGIN
 90
        5
170
     1
 91
        0
 92
        0
 62
   257
 93
        1
300
CONTENTFORMAT
  1
CONTENTFORMAT_BEGIN
 90
        0
 91
        0
 92
      512
 93
        0
300

 40
0.0
140
1.0
 94
        5
 62
     0
340
AD3A
144
0.18
309
CONTENTFORMAT_END
171
     0
 94
        0
309
TABLEFORMAT_END
  1
CELLSTYLE_BEGIN
 90
        2
 91
        1
300
_HEADER
309
CELLSTYLE_END
300
CELLSTYLE
  1
TABLEFORMAT_BEGIN
 90
        5
170
     1
 91
        0
 92
        0
 62
   257
 93
        1
300
CONTENTFORMAT
  1
CONTENTFORMAT_BEGIN
 90
        0
 91
        0
 92
      512
 93
        0
300

 40
0.0
140
1.0
 94
        2
 62
     0
340
AD3A
144
0.18
309
CONTENTFORMAT_END
171
     0
 94
        0
309
TABLEFORMAT_END
  1
CELLSTYLE_BEGIN
 90
        3
 91
        2
300
_DATA
309
CELLSTYLE_END
  0
XRECORD
  5
AFE0
102
{ACAD_REACTORS
330
AFA9
102
}
330
AFA9
100
AcDbXrecord
280
     1
102
ACAD_ROUNDTRIP_PRE2007_TABLESTYLE
 90
      512
 91
        0
  1

 92
      512
 93
        0
  2

 94
      512
 95
        0
  3

  0
XRECORD
  5
AFBB
102
{ACAD_REACTORS
330
AFBA
102
}
330
AFBA
100
AcDbXrecord
280
     1
102
RTVSPost2010Prop28
280
     1
102
RTVSPost2010PropOp28
 70
     1
102
RTVSPost2010Prop29
280
     1
102
RTVSPost2010PropOp29
 70
     1
102
RTVSPost2010Prop30
280
     0
102
RTVSPost2010PropOp30
 70
     1
102
RTVSPost2010Prop31
280
     0
102
RTVSPost2010PropOp31
 70
     1
102
RTVSPost2010Prop32
280
     0
102
RTVSPost2010PropOp32
 70
     1
102
RTVSPost2010Prop33
280
     0
102
RTVSPost2010PropOp33
 70
     1
102
RTVSPost2010Prop34
280
     0
102
RTVSPost2010PropOp34
 70
     1
102
RTVSPost2010Prop35
280
     0
102
RTVSPost2010PropOp35
 70
     1
102
RTVSPost2010Prop36
280
     0
102
RTVSPost2010PropOp36
 70
     1
102
RTVSPost2010Prop37
 90
       50
102
RTVSPost2010PropOp37
 70
     1
102
RTVSPost2010Prop38
140
0.0
102
RTVSPost2010PropOp38
 70
     1
102
RTVSPost2010Prop39
140
1.0
102
RTVSPost2010PropOp39
 70
     1
102
RTVSPost2010Prop40
 90
        0
102
RTVSPost2010PropOp40
 70
     1
102
RTVSPost2010Prop41ColorIndex
 90
       18
102
RTVSPost2010Prop41ColorRGB
 90
        0
102
RTVSPost2010PropOp41
 70
     1
102
RTVSPost2010Prop42
 90
       50
102
RTVSPost2010PropOp42
 70
     1
102
RTVSPost2010Prop43
 90
        3
102
RTVSPost2010PropOp43
 70
     1
102
RTVSPost2010Prop44ColorIndex
 90
        5
102
RTVSPost2010Prop44ColorRGB
 90
      255
102
RTVSPost2010PropOp44
 70
     1
102
RTVSPost2010Prop45
280
     0
102
RTVSPost2010PropOp45
 70
     1
102
RTVSPost2010Prop46
 90
       50
102
RTVSPost2010PropOp46
 70
     1
102
RTVSPost2010Prop47
 90
       50
102
RTVSPost2010PropOp47
 70
     1
102
RTVSPost2010Prop48
 90
       50
102
RTVSPost2010PropOp48
 70
     1
102
RTVSPost2010Prop49
280
     0
102
RTVSPost2010PropOp49
 70
     1
102
RTVSPost2010Prop50
 90
       50
102
RTVSPost2010PropOp50
 70
     1
102
RTVSPost2010Prop51ColorIndex
 90
      256
102
RTVSPost2010Prop51ColorRGB
 90
-16777216
102
RTVSPost2010PropOp51
 70
     0
102
RTVSPost2010Prop52
140
1.0
102
RTVSPost2010PropOp52
 70
     0
102
RTVSPost2010Prop53
 90
        2
102
RTVSPost2010PropOp53
 70
     1
102
RTVSPost2010Prop54
  1
strokes_ogs.tif
102
RTVSPost2010PropOp54
 70
     1
102
RTVSPost2010Prop55
280
     0
102
RTVSPost2010PropOp55
 70
     1
102
RTVSPost2010Prop56
140
1.0
102
RTVSPost2010PropOp56
 70
     1
102
RTVSPost2010Prop57
140
1.0
102
RTVSPost2010PropOp57
 70
     1
102
RTVSPropertyOp0
 70
     1
102
RTVSPropertyOp1
 70
     1
102
RTVSPropertyOp2
 70
     1
102
RTVSPropertyOp3
 70
     1
102
RTVSPropertyOp4
 70
     1
102
RTVSPropertyOp5
 70
     1
102
RTVSPropertyOp6
 70
     1
102
RTVSPropertyOp7
 70
     1
102
RTVSPropertyOp8
 70
     1
102
RTVSPropertyOp9
 70
     1
102
RTVSPropertyOp10
 70
     1
102
RTVSPropertyOp11
 70
     1
102
RTVSPropertyOp12
 70
     1
102
RTVSPropertyOp13
 70
     1
102
RTVSPropertyOp14
 70
     1
102
RTVSPropertyOp15
 70
     1
102
RTVSPropertyOp16
 70
     1
102
RTVSPropertyOp17
 70
     1
102
RTVSPropertyOp18
 70
     1
102
RTVSPropertyOp19
 70
     1
102
RTVSPropertyOp20
 70
     1
102
RTVSPropertyOp21
 70
     1
102
RTVSPropertyOp22
 70
     1
102
RTVSPropertyOp23
 70
     1
102
RTVSPropertyOp24
 70
     1
102
RTVSPropertyOp25
 70
     1
102
RTVSPropertyOp26
 70
     1
102
RTVSPropertyOp27
 70
     1
102
RTVSPropertyOp28
 70
     1
102
RTVSPropertyOp29
 70
     1
102
RTVSPropertyOp30
 70
     1
102
RTVSPropertyOp31
 70
     1
102
RTVSPropertyOp32
 70
     1
102
RTVSPropertyOp33
 70
     1
102
RTVSPropertyOp34
 70
     1
102
RTVSPropertyOp35
 70
     1
102
RTVSPropertyOp36
 70
     1
102
RTVSPropertyOp37
 70
     1
102
RTVSPropertyOp38
 70
     1
102
RTVSPropertyOp39
 70
     1
102
RTVSPropertyOp40
 70
     1
102
RTVSPropertyOp41
 70
     1
102
RTVSPropertyOp42
 70
     1
102
RTVSPropertyOp43
 70
     1
102
RTVSPropertyOp44
 70
     1
102
RTVSPropertyOp45
 70
     1
102
RTVSPropertyOp46
 70
     1
102
RTVSPropertyOp47
 70
     1
102
RTVSPropertyOp48
 70
     1
102
RTVSPropertyOp49
 70
     1
102
RTVSPropertyOp50
 70
     1
102
RTVSPropertyOp51
 70
     0
102
RTVSPropertyOp52
 70
     0
102
RTVSPropertyOp53
 70
     1
102
RTVSPropertyOp54
 70
     1
102
RTVSPropertyOp55
 70
     1
102
RTVSPropertyOp56
 70
     1
102
RTVSPropertyOp57
 70
     1
102
RTVSPropertyOp58
 70
     1
102
RTVSPropertyOp59
 70
     1
102
RTVSPropertyOp60
 70
     1
102
RTVSPropertyOp61
 70
     1
102
RTVSPropertyOp62
 70
     1
  0
XRECORD
  5
AFB9
102
{ACAD_REACTORS
330
AFB8
102
}
330
AFB8
100
AcDbXrecord
280
     1
102
RTVSPost2010Prop28
280
     0
102
RTVSPost2010PropOp28
 70
     1
102
RTVSPost2010Prop29
280
     1
102
RTVSPost2010PropOp29
 70
     1
102
RTVSPost2010Prop30
280
     1
102
RTVSPost2010PropOp30
 70
     1
102
RTVSPost2010Prop31
280
     0
102
RTVSPost2010PropOp31
 70
     1
102
RTVSPost2010Prop32
280
     0
102
RTVSPost2010PropOp32
 70
     1
102
RTVSPost2010Prop33
280
     0
102
RTVSPost2010PropOp33
 70
     1
102
RTVSPost2010Prop34
280
     0
102
RTVSPost2010PropOp34
 70
     1
102
RTVSPost2010Prop35
280
     0
102
RTVSPost2010PropOp35
 70
     1
102
RTVSPost2010Prop36
280
     0
102
RTVSPost2010PropOp36
 70
     1
102
RTVSPost2010Prop37
 90
       50
102
RTVSPost2010PropOp37
 70
     1
102
RTVSPost2010Prop38
140
0.0
102
RTVSPost2010PropOp38
 70
     1
102
RTVSPost2010Prop39
140
1.0
102
RTVSPost2010PropOp39
 70
     1
102
RTVSPost2010Prop40
 90
        0
102
RTVSPost2010PropOp40
 70
     1
102
RTVSPost2010Prop41ColorIndex
 90
       18
102
RTVSPost2010Prop41ColorRGB
 90
        0
102
RTVSPost2010PropOp41
 70
     1
102
RTVSPost2010Prop42
 90
       50
102
RTVSPost2010PropOp42
 70
     1
102
RTVSPost2010Prop43
 90
        3
102
RTVSPost2010PropOp43
 70
     1
102
RTVSPost2010Prop44ColorIndex
 90
        5
102
RTVSPost2010Prop44ColorRGB
 90
      255
102
RTVSPost2010PropOp44
 70
     1
102
RTVSPost2010Prop45
280
     0
102
RTVSPost2010PropOp45
 70
     1
102
RTVSPost2010Prop46
 90
       50
102
RTVSPost2010PropOp46
 70
     1
102
RTVSPost2010Prop47
 90
       50
102
RTVSPost2010PropOp47
 70
     1
102
RTVSPost2010Prop48
 90
       50
102
RTVSPost2010PropOp48
 70
     1
102
RTVSPost2010Prop49
280
     0
102
RTVSPost2010PropOp49
 70
     1
102
RTVSPost2010Prop50
 90
       50
102
RTVSPost2010PropOp50
 70
     1
102
RTVSPost2010Prop51ColorIndex
 90
      256
102
RTVSPost2010Prop51ColorRGB
 90
-16777216
102
RTVSPost2010PropOp51
 70
     0
102
RTVSPost2010Prop52
140
1.0
102
RTVSPost2010PropOp52
 70
     0
102
RTVSPost2010Prop53
 90
        2
102
RTVSPost2010PropOp53
 70
     1
102
RTVSPost2010Prop54
  1
strokes_ogs.tif
102
RTVSPost2010PropOp54
 70
     1
102
RTVSPost2010Prop55
280
     0
102
RTVSPost2010PropOp55
 70
     1
102
RTVSPost2010Prop56
140
1.0
102
RTVSPost2010PropOp56
 70
     1
102
RTVSPost2010Prop57
140
1.0
102
RTVSPost2010PropOp57
 70
     1
102
RTVSPropertyOp0
 70
     1
102
RTVSPropertyOp1
 70
     1
102
RTVSPropertyOp2
 70
     1
102
RTVSPropertyOp3
 70
     1
102
RTVSPropertyOp4
 70
     1
102
RTVSPropertyOp5
 70
     1
102
RTVSPropertyOp6
 70
     1
102
RTVSPropertyOp7
 70
     1
102
RTVSPropertyOp8
 70
     1
102
RTVSPropertyOp9
 70
     1
102
RTVSPropertyOp10
 70
     1
102
RTVSPropertyOp11
 70
     1
102
RTVSPropertyOp12
 70
     1
102
RTVSPropertyOp13
 70
     1
102
RTVSPropertyOp14
 70
     1
102
RTVSPropertyOp15
 70
     1
102
RTVSPropertyOp16
 70
     1
102
RTVSPropertyOp17
 70
     1
102
RTVSPropertyOp18
 70
     1
102
RTVSPropertyOp19
 70
     1
102
RTVSPropertyOp20
 70
     1
102
RTVSPropertyOp21
 70
     1
102
RTVSPropertyOp22
 70
     1
102
RTVSPropertyOp23
 70
     1
102
RTVSPropertyOp24
 70
     1
102
RTVSPropertyOp25
 70
     1
102
RTVSPropertyOp26
 70
     1
102
RTVSPropertyOp27
 70
     1
102
RTVSPropertyOp28
 70
     1
102
RTVSPropertyOp29
 70
     1
102
RTVSPropertyOp30
 70
     1
102
RTVSPropertyOp31
 70
     1
102
RTVSPropertyOp32
 70
     1
102
RTVSPropertyOp33
 70
     1
102
RTVSPropertyOp34
 70
     1
102
RTVSPropertyOp35
 70
     1
102
RTVSPropertyOp36
 70
     1
102
RTVSPropertyOp37
 70
     1
102
RTVSPropertyOp38
 70
     1
102
RTVSPropertyOp39
 70
     1
102
RTVSPropertyOp40
 70
     1
102
RTVSPropertyOp41
 70
     1
102
RTVSPropertyOp42
 70
     1
102
RTVSPropertyOp43
 70
     1
102
RTVSPropertyOp44
 70
     1
102
RTVSPropertyOp45
 70
     1
102
RTVSPropertyOp46
 70
     1
102
RTVSPropertyOp47
 70
     1
102
RTVSPropertyOp48
 70
     1
102
RTVSPropertyOp49
 70
     1
102
RTVSPropertyOp50
 70
     1
102
RTVSPropertyOp51
 70
     0
102
RTVSPropertyOp52
 70
     0
102
RTVSPropertyOp53
 70
     1
102
RTVSPropertyOp54
 70
     1
102
RTVSPropertyOp55
 70
     1
102
RTVSPropertyOp56
 70
     1
102
RTVSPropertyOp57
 70
     1
102
RTVSPropertyOp58
 70
     1
102
RTVSPropertyOp59
 70
     1
102
RTVSPropertyOp60
 70
     1
102
RTVSPropertyOp61
 70
     1
102
RTVSPropertyOp62
 70
     1
  0
XRECORD
  5
AFC7
102
{ACAD_REACTORS
330
AFC6
102
}
330
AFC6
100
AcDbXrecord
280
     1
102
RTVSPost2010Prop28
280
     0
102
RTVSPost2010PropOp28
 70
     1
102
RTVSPost2010Prop29
280
     1
102
RTVSPost2010PropOp29
 70
     1
102
RTVSPost2010Prop30
280
     1
102
RTVSPost2010PropOp30
 70
     1
102
RTVSPost2010Prop31
280
     0
102
RTVSPost2010PropOp31
 70
     1
102
RTVSPost2010Prop32
280
     0
102
RTVSPost2010PropOp32
 70
     1
102
RTVSPost2010Prop33
280
     0
102
RTVSPost2010PropOp33
 70
     1
102
RTVSPost2010Prop34
280
     0
102
RTVSPost2010PropOp34
 70
     1
102
RTVSPost2010Prop35
280
     0
102
RTVSPost2010PropOp35
 70
     1
102
RTVSPost2010Prop36
280
     0
102
RTVSPost2010PropOp36
 70
     1
102
RTVSPost2010Prop37
 90
       50
102
RTVSPost2010PropOp37
 70
     1
102
RTVSPost2010Prop38
140
0.0
102
RTVSPost2010PropOp38
 70
     1
102
RTVSPost2010Prop39
140
1.0
102
RTVSPost2010PropOp39
 70
     1
102
RTVSPost2010Prop40
 90
        0
102
RTVSPost2010PropOp40
 70
     1
102
RTVSPost2010Prop41ColorIndex
 90
       18
102
RTVSPost2010Prop41ColorRGB
 90
        0
102
RTVSPost2010PropOp41
 70
     1
102
RTVSPost2010Prop42
 90
       50
102
RTVSPost2010PropOp42
 70
     1
102
RTVSPost2010Prop43
 90
        3
102
RTVSPost2010PropOp43
 70
     1
102
RTVSPost2010Prop44ColorIndex
 90
        5
102
RTVSPost2010Prop44ColorRGB
 90
      255
102
RTVSPost2010PropOp44
 70
     1
102
RTVSPost2010Prop45
280
     0
102
RTVSPost2010PropOp45
 70
     1
102
RTVSPost2010Prop46
 90
       50
102
RTVSPost2010PropOp46
 70
     1
102
RTVSPost2010Prop47
 90
       50
102
RTVSPost2010PropOp47
 70
     1
102
RTVSPost2010Prop48
 90
       50
102
RTVSPost2010PropOp48
 70
     1
102
RTVSPost2010Prop49
280
     0
102
RTVSPost2010PropOp49
 70
     1
102
RTVSPost2010Prop50
 90
       50
102
RTVSPost2010PropOp50
 70
     1
102
RTVSPost2010Prop51ColorIndex
 90
      256
102
RTVSPost2010Prop51ColorRGB
 90
-16777216
102
RTVSPost2010PropOp51
 70
     0
102
RTVSPost2010Prop52
140
1.0
102
RTVSPost2010PropOp52
 70
     0
102
RTVSPost2010Prop53
 90
        2
102
RTVSPost2010PropOp53
 70
     1
102
RTVSPost2010Prop54
  1
strokes_ogs.tif
102
RTVSPost2010PropOp54
 70
     1
102
RTVSPost2010Prop55
280
     0
102
RTVSPost2010PropOp55
 70
     1
102
RTVSPost2010Prop56
140
1.0
102
RTVSPost2010PropOp56
 70
     1
102
RTVSPost2010Prop57
140
1.0
102
RTVSPost2010PropOp57
 70
     1
102
RTVSPropertyOp0
 70
     1
102
RTVSPropertyOp1
 70
     1
102
RTVSPropertyOp2
 70
     1
102
RTVSPropertyOp3
 70
     1
102
RTVSPropertyOp4
 70
     1
102
RTVSPropertyOp5
 70
     1
102
RTVSPropertyOp6
 70
     1
102
RTVSPropertyOp7
 70
     1
102
RTVSPropertyOp8
 70
     1
102
RTVSPropertyOp9
 70
     1
102
RTVSPropertyOp10
 70
     1
102
RTVSPropertyOp11
 70
     1
102
RTVSPropertyOp12
 70
     1
102
RTVSPropertyOp13
 70
     1
102
RTVSPropertyOp14
 70
     1
102
RTVSPropertyOp15
 70
     1
102
RTVSPropertyOp16
 70
     1
102
RTVSPropertyOp17
 70
     1
102
RTVSPropertyOp18
 70
     1
102
RTVSPropertyOp19
 70
     1
102
RTVSPropertyOp20
 70
     1
102
RTVSPropertyOp21
 70
     1
102
RTVSPropertyOp22
 70
     1
102
RTVSPropertyOp23
 70
     1
102
RTVSPropertyOp24
 70
     1
102
RTVSPropertyOp25
 70
     1
102
RTVSPropertyOp26
 70
     1
102
RTVSPropertyOp27
 70
     1
102
RTVSPropertyOp28
 70
     1
102
RTVSPropertyOp29
 70
     1
102
RTVSPropertyOp30
 70
     1
102
RTVSPropertyOp31
 70
     1
102
RTVSPropertyOp32
 70
     1
102
RTVSPropertyOp33
 70
     1
102
RTVSPropertyOp34
 70
     1
102
RTVSPropertyOp35
 70
     1
102
RTVSPropertyOp36
 70
     1
102
RTVSPropertyOp37
 70
     1
102
RTVSPropertyOp38
 70
     1
102
RTVSPropertyOp39
 70
     1
102
RTVSPropertyOp40
 70
     1
102
RTVSPropertyOp41
 70
     1
102
RTVSPropertyOp42
 70
     1
102
RTVSPropertyOp43
 70
     1
102
RTVSPropertyOp44
 70
     1
102
RTVSPropertyOp45
 70
     1
102
RTVSPropertyOp46
 70
     1
102
RTVSPropertyOp47
 70
     1
102
RTVSPropertyOp48
 70
     1
102
RTVSPropertyOp49
 70
     1
102
RTVSPropertyOp50
 70
     1
102
RTVSPropertyOp51
 70
     0
102
RTVSPropertyOp52
 70
     0
102
RTVSPropertyOp53
 70
     1
102
RTVSPropertyOp54
 70
     1
102
RTVSPropertyOp55
 70
     1
102
RTVSPropertyOp56
 70
     1
102
RTVSPropertyOp57
 70
     1
102
RTVSPropertyOp58
 70
     1
102
RTVSPropertyOp59
 70
     1
102
RTVSPropertyOp60
 70
     1
102
RTVSPropertyOp61
 70
     1
102
RTVSPropertyOp62
 70
     1
  0
XRECORD
  5
AFCF
102
{ACAD_REACTORS
330
AFCE
102
}
330
AFCE
100
AcDbXrecord
280
     1
102
RTVSPost2010Prop28
280
     0
102
RTVSPost2010PropOp28
 70
     1
102
RTVSPost2010Prop29
280
     1
102
RTVSPost2010PropOp29
 70
     1
102
RTVSPost2010Prop30
280
     1
102
RTVSPost2010PropOp30
 70
     1
102
RTVSPost2010Prop31
280
     0
102
RTVSPost2010PropOp31
 70
     1
102
RTVSPost2010Prop32
280
     0
102
RTVSPost2010PropOp32
 70
     1
102
RTVSPost2010Prop33
280
     0
102
RTVSPost2010PropOp33
 70
     1
102
RTVSPost2010Prop34
280
     0
102
RTVSPost2010PropOp34
 70
     1
102
RTVSPost2010Prop35
280
     0
102
RTVSPost2010PropOp35
 70
     1
102
RTVSPost2010Prop36
280
     0
102
RTVSPost2010PropOp36
 70
     1
102
RTVSPost2010Prop37
 90
       50
102
RTVSPost2010PropOp37
 70
     1
102
RTVSPost2010Prop38
140
0.0
102
RTVSPost2010PropOp38
 70
     1
102
RTVSPost2010Prop39
140
1.0
102
RTVSPost2010PropOp39
 70
     1
102
RTVSPost2010Prop40
 90
        0
102
RTVSPost2010PropOp40
 70
     1
102
RTVSPost2010Prop41ColorIndex
 90
       18
102
RTVSPost2010Prop41ColorRGB
 90
        0
102
RTVSPost2010PropOp41
 70
     1
102
RTVSPost2010Prop42
 90
       50
102
RTVSPost2010PropOp42
 70
     1
102
RTVSPost2010Prop43
 90
        3
102
RTVSPost2010PropOp43
 70
     1
102
RTVSPost2010Prop44ColorIndex
 90
        5
102
RTVSPost2010Prop44ColorRGB
 90
      255
102
RTVSPost2010PropOp44
 70
     1
102
RTVSPost2010Prop45
280
     0
102
RTVSPost2010PropOp45
 70
     1
102
RTVSPost2010Prop46
 90
       50
102
RTVSPost2010PropOp46
 70
     1
102
RTVSPost2010Prop47
 90
       50
102
RTVSPost2010PropOp47
 70
     1
102
RTVSPost2010Prop48
 90
       50
102
RTVSPost2010PropOp48
 70
     1
102
RTVSPost2010Prop49
280
     0
102
RTVSPost2010PropOp49
 70
     1
102
RTVSPost2010Prop50
 90
       50
102
RTVSPost2010PropOp50
 70
     1
102
RTVSPost2010Prop51ColorIndex
 90
      256
102
RTVSPost2010Prop51ColorRGB
 90
-16777216
102
RTVSPost2010PropOp51
 70
     0
102
RTVSPost2010Prop52
140
1.0
102
RTVSPost2010PropOp52
 70
     0
102
RTVSPost2010Prop53
 90
        2
102
RTVSPost2010PropOp53
 70
     1
102
RTVSPost2010Prop54
  1
strokes_ogs.tif
102
RTVSPost2010PropOp54
 70
     1
102
RTVSPost2010Prop55
280
     0
102
RTVSPost2010PropOp55
 70
     1
102
RTVSPost2010Prop56
140
1.0
102
RTVSPost2010PropOp56
 70
     1
102
RTVSPost2010Prop57
140
1.0
102
RTVSPost2010PropOp57
 70
     1
102
RTVSPropertyOp0
 70
     1
102
RTVSPropertyOp1
 70
     1
102
RTVSPropertyOp2
 70
     1
102
RTVSPropertyOp3
 70
     1
102
RTVSPropertyOp4
 70
     1
102
RTVSPropertyOp5
 70
     1
102
RTVSPropertyOp6
 70
     1
102
RTVSPropertyOp7
 70
     1
102
RTVSPropertyOp8
 70
     1
102
RTVSPropertyOp9
 70
     1
102
RTVSPropertyOp10
 70
     1
102
RTVSPropertyOp11
 70
     1
102
RTVSPropertyOp12
 70
     1
102
RTVSPropertyOp13
 70
     1
102
RTVSPropertyOp14
 70
     1
102
RTVSPropertyOp15
 70
     1
102
RTVSPropertyOp16
 70
     1
102
RTVSPropertyOp17
 70
     1
102
RTVSPropertyOp18
 70
     1
102
RTVSPropertyOp19
 70
     1
102
RTVSPropertyOp20
 70
     1
102
RTVSPropertyOp21
 70
     1
102
RTVSPropertyOp22
 70
     1
102
RTVSPropertyOp23
 70
     1
102
RTVSPropertyOp24
 70
     1
102
RTVSPropertyOp25
 70
     1
102
RTVSPropertyOp26
 70
     1
102
RTVSPropertyOp27
 70
     1
102
RTVSPropertyOp28
 70
     1
102
RTVSPropertyOp29
 70
     1
102
RTVSPropertyOp30
 70
     1
102
RTVSPropertyOp31
 70
     1
102
RTVSPropertyOp32
 70
     1
102
RTVSPropertyOp33
 70
     1
102
RTVSPropertyOp34
 70
     1
102
RTVSPropertyOp35
 70
     1
102
RTVSPropertyOp36
 70
     1
102
RTVSPropertyOp37
 70
     1
102
RTVSPropertyOp38
 70
     1
102
RTVSPropertyOp39
 70
     1
102
RTVSPropertyOp40
 70
     1
102
RTVSPropertyOp41
 70
     1
102
RTVSPropertyOp42
 70
     1
102
RTVSPropertyOp43
 70
     1
102
RTVSPropertyOp44
 70
     1
102
RTVSPropertyOp45
 70
     1
102
RTVSPropertyOp46
 70
     1
102
RTVSPropertyOp47
 70
     1
102
RTVSPropertyOp48
 70
     1
102
RTVSPropertyOp49
 70
     1
102
RTVSPropertyOp50
 70
     1
102
RTVSPropertyOp51
 70
     0
102
RTVSPropertyOp52
 70
     0
102
RTVSPropertyOp53
 70
     1
102
RTVSPropertyOp54
 70
     1
102
RTVSPropertyOp55
 70
     1
102
RTVSPropertyOp56
 70
     1
102
RTVSPropertyOp57
 70
     1
102
RTVSPropertyOp58
 70
     1
102
RTVSPropertyOp59
 70
     1
102
RTVSPropertyOp60
 70
     1
102
RTVSPropertyOp61
 70
     1
102
RTVSPropertyOp62
 70
     1
  0
XRECORD
  5
AFC1
102
{ACAD_REACTORS
330
AFC0
102
}
330
AFC0
100
AcDbXrecord
280
     1
102
RTVSPost2010Prop28
280
     0
102
RTVSPost2010PropOp28
 70
     1
102
RTVSPost2010Prop29
280
     1
102
RTVSPost2010PropOp29
 70
     1
102
RTVSPost2010Prop30
280
     1
102
RTVSPost2010PropOp30
 70
     1
102
RTVSPost2010Prop31
280
     0
102
RTVSPost2010PropOp31
 70
     1
102
RTVSPost2010Prop32
280
     0
102
RTVSPost2010PropOp32
 70
     1
102
RTVSPost2010Prop33
280
     0
102
RTVSPost2010PropOp33
 70
     1
102
RTVSPost2010Prop34
280
     0
102
RTVSPost2010PropOp34
 70
     1
102
RTVSPost2010Prop35
280
     0
102
RTVSPost2010PropOp35
 70
     1
102
RTVSPost2010Prop36
280
     0
102
RTVSPost2010PropOp36
 70
     1
102
RTVSPost2010Prop37
 90
       50
102
RTVSPost2010PropOp37
 70
     1
102
RTVSPost2010Prop38
140
0.0
102
RTVSPost2010PropOp38
 70
     1
102
RTVSPost2010Prop39
140
1.0
102
RTVSPost2010PropOp39
 70
     1
102
RTVSPost2010Prop40
 90
        0
102
RTVSPost2010PropOp40
 70
     1
102
RTVSPost2010Prop41ColorIndex
 90
       18
102
RTVSPost2010Prop41ColorRGB
 90
        0
102
RTVSPost2010PropOp41
 70
     1
102
RTVSPost2010Prop42
 90
       50
102
RTVSPost2010PropOp42
 70
     1
102
RTVSPost2010Prop43
 90
        3
102
RTVSPost2010PropOp43
 70
     1
102
RTVSPost2010Prop44ColorIndex
 90
        5
102
RTVSPost2010Prop44ColorRGB
 90
      255
102
RTVSPost2010PropOp44
 70
     1
102
RTVSPost2010Prop45
280
     0
102
RTVSPost2010PropOp45
 70
     1
102
RTVSPost2010Prop46
 90
       50
102
RTVSPost2010PropOp46
 70
     1
102
RTVSPost2010Prop47
 90
       50
102
RTVSPost2010PropOp47
 70
     1
102
RTVSPost2010Prop48
 90
       50
102
RTVSPost2010PropOp48
 70
     1
102
RTVSPost2010Prop49
280
     0
102
RTVSPost2010PropOp49
 70
     1
102
RTVSPost2010Prop50
 90
       50
102
RTVSPost2010PropOp50
 70
     1
102
RTVSPost2010Prop51ColorIndex
 90
      256
102
RTVSPost2010Prop51ColorRGB
 90
-16777216
102
RTVSPost2010PropOp51
 70
     0
102
RTVSPost2010Prop52
140
1.0
102
RTVSPost2010PropOp52
 70
     0
102
RTVSPost2010Prop53
 90
        2
102
RTVSPost2010PropOp53
 70
     1
102
RTVSPost2010Prop54
  1
strokes_ogs.tif
102
RTVSPost2010PropOp54
 70
     1
102
RTVSPost2010Prop55
280
     0
102
RTVSPost2010PropOp55
 70
     1
102
RTVSPost2010Prop56
140
1.0
102
RTVSPost2010PropOp56
 70
     1
102
RTVSPost2010Prop57
140
1.0
102
RTVSPost2010PropOp57
 70
     1
102
RTVSPropertyOp0
 70
     1
102
RTVSPropertyOp1
 70
     1
102
RTVSPropertyOp2
 70
     1
102
RTVSPropertyOp3
 70
     1
102
RTVSPropertyOp4
 70
     1
102
RTVSPropertyOp5
 70
     1
102
RTVSPropertyOp6
 70
     1
102
RTVSPropertyOp7
 70
     1
102
RTVSPropertyOp8
 70
     1
102
RTVSPropertyOp9
 70
     1
102
RTVSPropertyOp10
 70
     1
102
RTVSPropertyOp11
 70
     1
102
RTVSPropertyOp12
 70
     1
102
RTVSPropertyOp13
 70
     1
102
RTVSPropertyOp14
 70
     1
102
RTVSPropertyOp15
 70
     1
102
RTVSPropertyOp16
 70
     1
102
RTVSPropertyOp17
 70
     1
102
RTVSPropertyOp18
 70
     1
102
RTVSPropertyOp19
 70
     1
102
RTVSPropertyOp20
 70
     1
102
RTVSPropertyOp21
 70
     1
102
RTVSPropertyOp22
 70
     1
102
RTVSPropertyOp23
 70
     1
102
RTVSPropertyOp24
 70
     1
102
RTVSPropertyOp25
 70
     1
102
RTVSPropertyOp26
 70
     1
102
RTVSPropertyOp27
 70
     1
102
RTVSPropertyOp28
 70
     1
102
RTVSPropertyOp29
 70
     1
102
RTVSPropertyOp30
 70
     1
102
RTVSPropertyOp31
 70
     1
102
RTVSPropertyOp32
 70
     1
102
RTVSPropertyOp33
 70
     1
102
RTVSPropertyOp34
 70
     1
102
RTVSPropertyOp35
 70
     1
102
RTVSPropertyOp36
 70
     1
102
RTVSPropertyOp37
 70
     1
102
RTVSPropertyOp38
 70
     1
102
RTVSPropertyOp39
 70
     1
102
RTVSPropertyOp40
 70
     1
102
RTVSPropertyOp41
 70
     1
102
RTVSPropertyOp42
 70
     1
102
RTVSPropertyOp43
 70
     1
102
RTVSPropertyOp44
 70
     1
102
RTVSPropertyOp45
 70
     1
102
RTVSPropertyOp46
 70
     1
102
RTVSPropertyOp47
 70
     1
102
RTVSPropertyOp48
 70
     1
102
RTVSPropertyOp49
 70
     1
102
RTVSPropertyOp50
 70
     1
102
RTVSPropertyOp51
 70
     0
102
RTVSPropertyOp52
 70
     0
102
RTVSPropertyOp53
 70
     1
102
RTVSPropertyOp54
 70
     1
102
RTVSPropertyOp55
 70
     1
102
RTVSPropertyOp56
 70
     1
102
RTVSPropertyOp57
 70
     1
102
RTVSPropertyOp58
 70
     1
102
RTVSPropertyOp59
 70
     1
102
RTVSPropertyOp60
 70
     1
102
RTVSPropertyOp61
 70
     1
102
RTVSPropertyOp62
 70
     1
  0
XRECORD
  5
AFC5
102
{ACAD_REACTORS
330
AFC4
102
}
330
AFC4
100
AcDbXrecord
280
     1
102
RTVSPost2010Prop28
280
     0
102
RTVSPost2010PropOp28
 70
     1
102
RTVSPost2010Prop29
280
     1
102
RTVSPost2010PropOp29
 70
     1
102
RTVSPost2010Prop30
280
     1
102
RTVSPost2010PropOp30
 70
     1
102
RTVSPost2010Prop31
280
     0
102
RTVSPost2010PropOp31
 70
     1
102
RTVSPost2010Prop32
280
     0
102
RTVSPost2010PropOp32
 70
     1
102
RTVSPost2010Prop33
280
     0
102
RTVSPost2010PropOp33
 70
     1
102
RTVSPost2010Prop34
280
     0
102
RTVSPost2010PropOp34
 70
     1
102
RTVSPost2010Prop35
280
     0
102
RTVSPost2010PropOp35
 70
     1
102
RTVSPost2010Prop36
280
     0
102
RTVSPost2010PropOp36
 70
     1
102
RTVSPost2010Prop37
 90
       50
102
RTVSPost2010PropOp37
 70
     1
102
RTVSPost2010Prop38
140
0.0
102
RTVSPost2010PropOp38
 70
     1
102
RTVSPost2010Prop39
140
1.0
102
RTVSPost2010PropOp39
 70
     1
102
RTVSPost2010Prop40
 90
        0
102
RTVSPost2010PropOp40
 70
     1
102
RTVSPost2010Prop41ColorIndex
 90
       18
102
RTVSPost2010Prop41ColorRGB
 90
        0
102
RTVSPost2010PropOp41
 70
     1
102
RTVSPost2010Prop42
 90
       50
102
RTVSPost2010PropOp42
 70
     1
102
RTVSPost2010Prop43
 90
        3
102
RTVSPost2010PropOp43
 70
     1
102
RTVSPost2010Prop44ColorIndex
 90
        5
102
RTVSPost2010Prop44ColorRGB
 90
      255
102
RTVSPost2010PropOp44
 70
     1
102
RTVSPost2010Prop45
280
     0
102
RTVSPost2010PropOp45
 70
     1
102
RTVSPost2010Prop46
 90
       50
102
RTVSPost2010PropOp46
 70
     1
102
RTVSPost2010Prop47
 90
       50
102
RTVSPost2010PropOp47
 70
     1
102
RTVSPost2010Prop48
 90
       50
102
RTVSPost2010PropOp48
 70
     1
102
RTVSPost2010Prop49
280
     0
102
RTVSPost2010PropOp49
 70
     1
102
RTVSPost2010Prop50
 90
       50
102
RTVSPost2010PropOp50
 70
     1
102
RTVSPost2010Prop51ColorIndex
 90
      256
102
RTVSPost2010Prop51ColorRGB
 90
-16777216
102
RTVSPost2010PropOp51
 70
     0
102
RTVSPost2010Prop52
140
1.0
102
RTVSPost2010PropOp52
 70
     0
102
RTVSPost2010Prop53
 90
        2
102
RTVSPost2010PropOp53
 70
     1
102
RTVSPost2010Prop54
  1
strokes_ogs.tif
102
RTVSPost2010PropOp54
 70
     1
102
RTVSPost2010Prop55
280
     0
102
RTVSPost2010PropOp55
 70
     1
102
RTVSPost2010Prop56
140
1.0
102
RTVSPost2010PropOp56
 70
     1
102
RTVSPost2010Prop57
140
1.0
102
RTVSPost2010PropOp57
 70
     1
102
RTVSPropertyOp0
 70
     1
102
RTVSPropertyOp1
 70
     1
102
RTVSPropertyOp2
 70
     1
102
RTVSPropertyOp3
 70
     1
102
RTVSPropertyOp4
 70
     1
102
RTVSPropertyOp5
 70
     1
102
RTVSPropertyOp6
 70
     1
102
RTVSPropertyOp7
 70
     1
102
RTVSPropertyOp8
 70
     1
102
RTVSPropertyOp9
 70
     1
102
RTVSPropertyOp10
 70
     1
102
RTVSPropertyOp11
 70
     1
102
RTVSPropertyOp12
 70
     1
102
RTVSPropertyOp13
 70
     1
102
RTVSPropertyOp14
 70
     1
102
RTVSPropertyOp15
 70
     1
102
RTVSPropertyOp16
 70
     1
102
RTVSPropertyOp17
 70
     1
102
RTVSPropertyOp18
 70
     1
102
RTVSPropertyOp19
 70
     1
102
RTVSPropertyOp20
 70
     1
102
RTVSPropertyOp21
 70
     1
102
RTVSPropertyOp22
 70
     1
102
RTVSPropertyOp23
 70
     1
102
RTVSPropertyOp24
 70
     1
102
RTVSPropertyOp25
 70
     1
102
RTVSPropertyOp26
 70
     1
102
RTVSPropertyOp27
 70
     1
102
RTVSPropertyOp28
 70
     1
102
RTVSPropertyOp29
 70
     1
102
RTVSPropertyOp30
 70
     1
102
RTVSPropertyOp31
 70
     1
102
RTVSPropertyOp32
 70
     1
102
RTVSPropertyOp33
 70
     1
102
RTVSPropertyOp34
 70
     1
102
RTVSPropertyOp35
 70
     1
102
RTVSPropertyOp36
 70
     1
102
RTVSPropertyOp37
 70
     1
102
RTVSPropertyOp38
 70
     1
102
RTVSPropertyOp39
 70
     1
102
RTVSPropertyOp40
 70
     1
102
RTVSPropertyOp41
 70
     1
102
RTVSPropertyOp42
 70
     1
102
RTVSPropertyOp43
 70
     1
102
RTVSPropertyOp44
 70
     1
102
RTVSPropertyOp45
 70
     1
102
RTVSPropertyOp46
 70
     1
102
RTVSPropertyOp47
 70
     1
102
RTVSPropertyOp48
 70
     1
102
RTVSPropertyOp49
 70
     1
102
RTVSPropertyOp50
 70
     1
102
RTVSPropertyOp51
 70
     0
102
RTVSPropertyOp52
 70
     0
102
RTVSPropertyOp53
 70
     1
102
RTVSPropertyOp54
 70
     1
102
RTVSPropertyOp55
 70
     1
102
RTVSPropertyOp56
 70
     1
102
RTVSPropertyOp57
 70
     1
102
RTVSPropertyOp58
 70
     1
102
RTVSPropertyOp59
 70
     1
102
RTVSPropertyOp60
 70
     1
102
RTVSPropertyOp61
 70
     1
102
RTVSPropertyOp62
 70
     1
  0
XRECORD
  5
AFDF
102
{ACAD_REACTORS
330
AFDE
102
}
330
AFDE
100
AcDbXrecord
280
     1
102
RTVSPost2010Prop28
280
     0
102
RTVSPost2010PropOp28
 70
     1
102
RTVSPost2010Prop29
280
     1
102
RTVSPost2010PropOp29
 70
     1
102
RTVSPost2010Prop30
280
     1
102
RTVSPost2010PropOp30
 70
     1
102
RTVSPost2010Prop31
280
     0
102
RTVSPost2010PropOp31
 70
     1
102
RTVSPost2010Prop32
280
     0
102
RTVSPost2010PropOp32
 70
     1
102
RTVSPost2010Prop33
280
     0
102
RTVSPost2010PropOp33
 70
     1
102
RTVSPost2010Prop34
280
     0
102
RTVSPost2010PropOp34
 70
     1
102
RTVSPost2010Prop35
280
     0
102
RTVSPost2010PropOp35
 70
     1
102
RTVSPost2010Prop36
280
     0
102
RTVSPost2010PropOp36
 70
     1
102
RTVSPost2010Prop37
 90
       50
102
RTVSPost2010PropOp37
 70
     0
102
RTVSPost2010Prop38
140
0.0
102
RTVSPost2010PropOp38
 70
     0
102
RTVSPost2010Prop39
140
1.0
102
RTVSPost2010PropOp39
 70
     0
102
RTVSPost2010Prop40
 90
        0
102
RTVSPost2010PropOp40
 70
     0
102
RTVSPost2010Prop41ColorIndex
 90
       18
102
RTVSPost2010Prop41ColorRGB
 90
        0
102
RTVSPost2010PropOp41
 70
     0
102
RTVSPost2010Prop42
 90
       50
102
RTVSPost2010PropOp42
 70
     0
102
RTVSPost2010Prop43
 90
        3
102
RTVSPost2010PropOp43
 70
     0
102
RTVSPost2010Prop44ColorIndex
 90
        5
102
RTVSPost2010Prop44ColorRGB
 90
      255
102
RTVSPost2010PropOp44
 70
     0
102
RTVSPost2010Prop45
280
     0
102
RTVSPost2010PropOp45
 70
     1
102
RTVSPost2010Prop46
 90
       50
102
RTVSPost2010PropOp46
 70
     0
102
RTVSPost2010Prop47
 90
       50
102
RTVSPost2010PropOp47
 70
     0
102
RTVSPost2010Prop48
 90
       50
102
RTVSPost2010PropOp48
 70
     0
102
RTVSPost2010Prop49
280
     0
102
RTVSPost2010PropOp49
 70
     1
102
RTVSPost2010Prop50
 90
       50
102
RTVSPost2010PropOp50
 70
     0
102
RTVSPost2010Prop51ColorIndex
 90
      256
102
RTVSPost2010Prop51ColorRGB
 90
-16777216
102
RTVSPost2010PropOp51
 70
     0
102
RTVSPost2010Prop52
140
1.0
102
RTVSPost2010PropOp52
 70
     0
102
RTVSPost2010Prop53
 90
        2
102
RTVSPost2010PropOp53
 70
     0
102
RTVSPost2010Prop54
  1
strokes_ogs.tif
102
RTVSPost2010PropOp54
 70
     0
102
RTVSPost2010Prop55
280
     0
102
RTVSPost2010PropOp55
 70
     1
102
RTVSPost2010Prop56
140
1.0
102
RTVSPost2010PropOp56
 70
     0
102
RTVSPost2010Prop57
140
1.0
102
RTVSPost2010PropOp57
 70
     0
102
RTVSPropertyOp0
 70
     0
102
RTVSPropertyOp1
 70
     0
102
RTVSPropertyOp2
 70
     0
102
RTVSPropertyOp3
 70
     0
102
RTVSPropertyOp4
 70
     0
102
RTVSPropertyOp5
 70
     0
102
RTVSPropertyOp6
 70
     0
102
RTVSPropertyOp7
 70
     0
102
RTVSPropertyOp8
 70
     0
102
RTVSPropertyOp9
 70
     0
102
RTVSPropertyOp10
 70
     0
102
RTVSPropertyOp11
 70
     0
102
RTVSPropertyOp12
 70
     0
102
RTVSPropertyOp13
 70
     0
102
RTVSPropertyOp14
 70
     2
102
RTVSPropertyOp15
 70
     0
102
RTVSPropertyOp16
 70
     0
102
RTVSPropertyOp17
 70
     0
102
RTVSPropertyOp18
 70
     0
102
RTVSPropertyOp19
 70
     0
102
RTVSPropertyOp20
 70
     0
102
RTVSPropertyOp21
 70
     0
102
RTVSPropertyOp22
 70
     0
102
RTVSPropertyOp23
 70
     0
102
RTVSPropertyOp24
 70
     0
102
RTVSPropertyOp25
 70
     0
102
RTVSPropertyOp26
 70
     0
102
RTVSPropertyOp27
 70
     0
102
RTVSPropertyOp28
 70
     1
102
RTVSPropertyOp29
 70
     1
102
RTVSPropertyOp30
 70
     1
102
RTVSPropertyOp31
 70
     1
102
RTVSPropertyOp32
 70
     1
102
RTVSPropertyOp33
 70
     1
102
RTVSPropertyOp34
 70
     1
102
RTVSPropertyOp35
 70
     1
102
RTVSPropertyOp36
 70
     1
102
RTVSPropertyOp37
 70
     0
102
RTVSPropertyOp38
 70
     0
102
RTVSPropertyOp39
 70
     0
102
RTVSPropertyOp40
 70
     0
102
RTVSPropertyOp41
 70
     0
102
RTVSPropertyOp42
 70
     0
102
RTVSPropertyOp43
 70
     0
102
RTVSPropertyOp44
 70
     0
102
RTVSPropertyOp45
 70
     1
102
RTVSPropertyOp46
 70
     0
102
RTVSPropertyOp47
 70
     0
102
RTVSPropertyOp48
 70
     0
102
RTVSPropertyOp49
 70
     1
102
RTVSPropertyOp50
 70
     0
102
RTVSPropertyOp51
 70
     0
102
RTVSPropertyOp52
 70
     0
102
RTVSPropertyOp53
 70
     0
102
RTVSPropertyOp54
 70
     0
102
RTVSPropertyOp55
 70
     1
102
RTVSPropertyOp56
 70
     0
102
RTVSPropertyOp57
 70
     0
102
RTVSPropertyOp58
 70
     0
102
RTVSPropertyOp59
 70
     0
102
RTVSPropertyOp60
 70
     0
102
RTVSPropertyOp61
 70
     0
102
RTVSPropertyOp62
 70
     0
  0
XRECORD
  5
AFCD
102
{ACAD_REACTORS
330
AFCC
102
}
330
AFCC
100
AcDbXrecord
280
     1
102
RTVSPost2010Prop28
280
     0
102
RTVSPost2010PropOp28
 70
     1
102
RTVSPost2010Prop29
280
     1
102
RTVSPost2010PropOp29
 70
     1
102
RTVSPost2010Prop30
280
     1
102
RTVSPost2010PropOp30
 70
     1
102
RTVSPost2010Prop31
280
     0
102
RTVSPost2010PropOp31
 70
     1
102
RTVSPost2010Prop32
280
     0
102
RTVSPost2010PropOp32
 70
     1
102
RTVSPost2010Prop33
280
     0
102
RTVSPost2010PropOp33
 70
     1
102
RTVSPost2010Prop34
280
     0
102
RTVSPost2010PropOp34
 70
     1
102
RTVSPost2010Prop35
280
     0
102
RTVSPost2010PropOp35
 70
     1
102
RTVSPost2010Prop36
280
     0
102
RTVSPost2010PropOp36
 70
     1
102
RTVSPost2010Prop37
 90
       50
102
RTVSPost2010PropOp37
 70
     1
102
RTVSPost2010Prop38
140
0.0
102
RTVSPost2010PropOp38
 70
     1
102
RTVSPost2010Prop39
140
1.0
102
RTVSPost2010PropOp39
 70
     1
102
RTVSPost2010Prop40
 90
        0
102
RTVSPost2010PropOp40
 70
     1
102
RTVSPost2010Prop41ColorIndex
 90
       18
102
RTVSPost2010Prop41ColorRGB
 90
        0
102
RTVSPost2010PropOp41
 70
     1
102
RTVSPost2010Prop42
 90
       50
102
RTVSPost2010PropOp42
 70
     1
102
RTVSPost2010Prop43
 90
        3
102
RTVSPost2010PropOp43
 70
     1
102
RTVSPost2010Prop44ColorIndex
 90
        5
102
RTVSPost2010Prop44ColorRGB
 90
      255
102
RTVSPost2010PropOp44
 70
     1
102
RTVSPost2010Prop45
280
     0
102
RTVSPost2010PropOp45
 70
     1
102
RTVSPost2010Prop46
 90
       50
102
RTVSPost2010PropOp46
 70
     1
102
RTVSPost2010Prop47
 90
       50
102
RTVSPost2010PropOp47
 70
     1
102
RTVSPost2010Prop48
 90
       50
102
RTVSPost2010PropOp48
 70
     1
102
RTVSPost2010Prop49
280
     0
102
RTVSPost2010PropOp49
 70
     1
102
RTVSPost2010Prop50
 90
       50
102
RTVSPost2010PropOp50
 70
     1
102
RTVSPost2010Prop51ColorIndex
 90
      256
102
RTVSPost2010Prop51ColorRGB
 90
-16777216
102
RTVSPost2010PropOp51
 70
     0
102
RTVSPost2010Prop52
140
1.0
102
RTVSPost2010PropOp52
 70
     0
102
RTVSPost2010Prop53
 90
        2
102
RTVSPost2010PropOp53
 70
     1
102
RTVSPost2010Prop54
  1
strokes_ogs.tif
102
RTVSPost2010PropOp54
 70
     1
102
RTVSPost2010Prop55
280
     0
102
RTVSPost2010PropOp55
 70
     1
102
RTVSPost2010Prop56
140
1.0
102
RTVSPost2010PropOp56
 70
     1
102
RTVSPost2010Prop57
140
1.0
102
RTVSPost2010PropOp57
 70
     1
102
RTVSPropertyOp0
 70
     1
102
RTVSPropertyOp1
 70
     1
102
RTVSPropertyOp2
 70
     1
102
RTVSPropertyOp3
 70
     1
102
RTVSPropertyOp4
 70
     1
102
RTVSPropertyOp5
 70
     1
102
RTVSPropertyOp6
 70
     1
102
RTVSPropertyOp7
 70
     1
102
RTVSPropertyOp8
 70
     1
102
RTVSPropertyOp9
 70
     1
102
RTVSPropertyOp10
 70
     1
102
RTVSPropertyOp11
 70
     1
102
RTVSPropertyOp12
 70
     1
102
RTVSPropertyOp13
 70
     1
102
RTVSPropertyOp14
 70
     1
102
RTVSPropertyOp15
 70
     1
102
RTVSPropertyOp16
 70
     1
102
RTVSPropertyOp17
 70
     1
102
RTVSPropertyOp18
 70
     1
102
RTVSPropertyOp19
 70
     1
102
RTVSPropertyOp20
 70
     1
102
RTVSPropertyOp21
 70
     1
102
RTVSPropertyOp22
 70
     1
102
RTVSPropertyOp23
 70
     1
102
RTVSPropertyOp24
 70
     1
102
RTVSPropertyOp25
 70
     1
102
RTVSPropertyOp26
 70
     1
102
RTVSPropertyOp27
 70
     1
102
RTVSPropertyOp28
 70
     1
102
RTVSPropertyOp29
 70
     1
102
RTVSPropertyOp30
 70
     1
102
RTVSPropertyOp31
 70
     1
102
RTVSPropertyOp32
 70
     1
102
RTVSPropertyOp33
 70
     1
102
RTVSPropertyOp34
 70
     1
102
RTVSPropertyOp35
 70
     1
102
RTVSPropertyOp36
 70
     1
102
RTVSPropertyOp37
 70
     1
102
RTVSPropertyOp38
 70
     1
102
RTVSPropertyOp39
 70
     1
102
RTVSPropertyOp40
 70
     1
102
RTVSPropertyOp41
 70
     1
102
RTVSPropertyOp42
 70
     1
102
RTVSPropertyOp43
 70
     1
102
RTVSPropertyOp44
 70
     1
102
RTVSPropertyOp45
 70
     1
102
RTVSPropertyOp46
 70
     1
102
RTVSPropertyOp47
 70
     1
102
RTVSPropertyOp48
 70
     1
102
RTVSPropertyOp49
 70
     1
102
RTVSPropertyOp50
 70
     1
102
RTVSPropertyOp51
 70
     0
102
RTVSPropertyOp52
 70
     0
102
RTVSPropertyOp53
 70
     1
102
RTVSPropertyOp54
 70
     1
102
RTVSPropertyOp55
 70
     1
102
RTVSPropertyOp56
 70
     1
102
RTVSPropertyOp57
 70
     1
102
RTVSPropertyOp58
 70
     1
102
RTVSPropertyOp59
 70
     1
102
RTVSPropertyOp60
 70
     1
102
RTVSPropertyOp61
 70
     1
102
RTVSPropertyOp62
 70
     1
  0
XRECORD
  5
AFB1
102
{ACAD_REACTORS
330
AFB0
102
}
330
AFB0
100
AcDbXrecord
280
     1
102
RTVSPost2010Prop28
280
     0
102
RTVSPost2010PropOp28
 70
     1
102
RTVSPost2010Prop29
280
     1
102
RTVSPost2010PropOp29
 70
     1
102
RTVSPost2010Prop30
280
     1
102
RTVSPost2010PropOp30
 70
     1
102
RTVSPost2010Prop31
280
     0
102
RTVSPost2010PropOp31
 70
     1
102
RTVSPost2010Prop32
280
     0
102
RTVSPost2010PropOp32
 70
     1
102
RTVSPost2010Prop33
280
     0
102
RTVSPost2010PropOp33
 70
     1
102
RTVSPost2010Prop34
280
     0
102
RTVSPost2010PropOp34
 70
     1
102
RTVSPost2010Prop35
280
     0
102
RTVSPost2010PropOp35
 70
     1
102
RTVSPost2010Prop36
280
     0
102
RTVSPost2010PropOp36
 70
     1
102
RTVSPost2010Prop37
 90
       50
102
RTVSPost2010PropOp37
 70
     1
102
RTVSPost2010Prop38
140
0.0
102
RTVSPost2010PropOp38
 70
     1
102
RTVSPost2010Prop39
140
1.0
102
RTVSPost2010PropOp39
 70
     1
102
RTVSPost2010Prop40
 90
        0
102
RTVSPost2010PropOp40
 70
     1
102
RTVSPost2010Prop41ColorIndex
 90
       18
102
RTVSPost2010Prop41ColorRGB
 90
        0
102
RTVSPost2010PropOp41
 70
     1
102
RTVSPost2010Prop42
 90
       50
102
RTVSPost2010PropOp42
 70
     1
102
RTVSPost2010Prop43
 90
        3
102
RTVSPost2010PropOp43
 70
     1
102
RTVSPost2010Prop44ColorIndex
 90
        5
102
RTVSPost2010Prop44ColorRGB
 90
      255
102
RTVSPost2010PropOp44
 70
     1
102
RTVSPost2010Prop45
280
     0
102
RTVSPost2010PropOp45
 70
     1
102
RTVSPost2010Prop46
 90
       50
102
RTVSPost2010PropOp46
 70
     1
102
RTVSPost2010Prop47
 90
       50
102
RTVSPost2010PropOp47
 70
     1
102
RTVSPost2010Prop48
 90
       50
102
RTVSPost2010PropOp48
 70
     1
102
RTVSPost2010Prop49
280
     0
102
RTVSPost2010PropOp49
 70
     1
102
RTVSPost2010Prop50
 90
       50
102
RTVSPost2010PropOp50
 70
     1
102
RTVSPost2010Prop51ColorIndex
 90
      256
102
RTVSPost2010Prop51ColorRGB
 90
-16777216
102
RTVSPost2010PropOp51
 70
     0
102
RTVSPost2010Prop52
140
1.0
102
RTVSPost2010PropOp52
 70
     0
102
RTVSPost2010Prop53
 90
        2
102
RTVSPost2010PropOp53
 70
     1
102
RTVSPost2010Prop54
  1
strokes_ogs.tif
102
RTVSPost2010PropOp54
 70
     1
102
RTVSPost2010Prop55
280
     0
102
RTVSPost2010PropOp55
 70
     1
102
RTVSPost2010Prop56
140
1.0
102
RTVSPost2010PropOp56
 70
     1
102
RTVSPost2010Prop57
140
1.0
102
RTVSPost2010PropOp57
 70
     1
102
RTVSPropertyOp0
 70
     1
102
RTVSPropertyOp1
 70
     1
102
RTVSPropertyOp2
 70
     1
102
RTVSPropertyOp3
 70
     1
102
RTVSPropertyOp4
 70
     1
102
RTVSPropertyOp5
 70
     1
102
RTVSPropertyOp6
 70
     1
102
RTVSPropertyOp7
 70
     1
102
RTVSPropertyOp8
 70
     1
102
RTVSPropertyOp9
 70
     1
102
RTVSPropertyOp10
 70
     1
102
RTVSPropertyOp11
 70
     1
102
RTVSPropertyOp12
 70
     1
102
RTVSPropertyOp13
 70
     1
102
RTVSPropertyOp14
 70
     1
102
RTVSPropertyOp15
 70
     1
102
RTVSPropertyOp16
 70
     1
102
RTVSPropertyOp17
 70
     1
102
RTVSPropertyOp18
 70
     1
102
RTVSPropertyOp19
 70
     1
102
RTVSPropertyOp20
 70
     1
102
RTVSPropertyOp21
 70
     1
102
RTVSPropertyOp22
 70
     1
102
RTVSPropertyOp23
 70
     1
102
RTVSPropertyOp24
 70
     1
102
RTVSPropertyOp25
 70
     1
102
RTVSPropertyOp26
 70
     1
102
RTVSPropertyOp27
 70
     1
102
RTVSPropertyOp28
 70
     1
102
RTVSPropertyOp29
 70
     1
102
RTVSPropertyOp30
 70
     1
102
RTVSPropertyOp31
 70
     1
102
RTVSPropertyOp32
 70
     1
102
RTVSPropertyOp33
 70
     1
102
RTVSPropertyOp34
 70
     1
102
RTVSPropertyOp35
 70
     1
102
RTVSPropertyOp36
 70
     1
102
RTVSPropertyOp37
 70
     1
102
RTVSPropertyOp38
 70
     1
102
RTVSPropertyOp39
 70
     1
102
RTVSPropertyOp40
 70
     1
102
RTVSPropertyOp41
 70
     1
102
RTVSPropertyOp42
 70
     1
102
RTVSPropertyOp43
 70
     1
102
RTVSPropertyOp44
 70
     1
102
RTVSPropertyOp45
 70
     1
102
RTVSPropertyOp46
 70
     1
102
RTVSPropertyOp47
 70
     1
102
RTVSPropertyOp48
 70
     1
102
RTVSPropertyOp49
 70
     1
102
RTVSPropertyOp50
 70
     1
102
RTVSPropertyOp51
 70
     0
102
RTVSPropertyOp52
 70
     0
102
RTVSPropertyOp53
 70
     1
102
RTVSPropertyOp54
 70
     1
102
RTVSPropertyOp55
 70
     1
102
RTVSPropertyOp56
 70
     1
102
RTVSPropertyOp57
 70
     1
102
RTVSPropertyOp58
 70
     1
102
RTVSPropertyOp59
 70
     1
102
RTVSPropertyOp60
 70
     1
102
RTVSPropertyOp61
 70
     1
102
RTVSPropertyOp62
 70
     1
  0
XRECORD
  5
AFB3
102
{ACAD_REACTORS
330
AFB2
102
}
330
AFB2
100
AcDbXrecord
280
     1
102
RTVSPost2010Prop28
280
     0
102
RTVSPost2010PropOp28
 70
     1
102
RTVSPost2010Prop29
280
     1
102
RTVSPost2010PropOp29
 70
     1
102
RTVSPost2010Prop30
280
     1
102
RTVSPost2010PropOp30
 70
     1
102
RTVSPost2010Prop31
280
     0
102
RTVSPost2010PropOp31
 70
     1
102
RTVSPost2010Prop32
280
     0
102
RTVSPost2010PropOp32
 70
     1
102
RTVSPost2010Prop33
280
     0
102
RTVSPost2010PropOp33
 70
     1
102
RTVSPost2010Prop34
280
     0
102
RTVSPost2010PropOp34
 70
     1
102
RTVSPost2010Prop35
280
     0
102
RTVSPost2010PropOp35
 70
     1
102
RTVSPost2010Prop36
280
     0
102
RTVSPost2010PropOp36
 70
     1
102
RTVSPost2010Prop37
 90
       50
102
RTVSPost2010PropOp37
 70
     1
102
RTVSPost2010Prop38
140
0.0
102
RTVSPost2010PropOp38
 70
     1
102
RTVSPost2010Prop39
140
1.0
102
RTVSPost2010PropOp39
 70
     1
102
RTVSPost2010Prop40
 90
        0
102
RTVSPost2010PropOp40
 70
     1
102
RTVSPost2010Prop41ColorIndex
 90
       18
102
RTVSPost2010Prop41ColorRGB
 90
        0
102
RTVSPost2010PropOp41
 70
     1
102
RTVSPost2010Prop42
 90
       50
102
RTVSPost2010PropOp42
 70
     1
102
RTVSPost2010Prop43
 90
        3
102
RTVSPost2010PropOp43
 70
     1
102
RTVSPost2010Prop44ColorIndex
 90
        5
102
RTVSPost2010Prop44ColorRGB
 90
      255
102
RTVSPost2010PropOp44
 70
     1
102
RTVSPost2010Prop45
280
     0
102
RTVSPost2010PropOp45
 70
     1
102
RTVSPost2010Prop46
 90
       50
102
RTVSPost2010PropOp46
 70
     1
102
RTVSPost2010Prop47
 90
       50
102
RTVSPost2010PropOp47
 70
     1
102
RTVSPost2010Prop48
 90
       50
102
RTVSPost2010PropOp48
 70
     1
102
RTVSPost2010Prop49
280
     0
102
RTVSPost2010PropOp49
 70
     1
102
RTVSPost2010Prop50
 90
       50
102
RTVSPost2010PropOp50
 70
     1
102
RTVSPost2010Prop51ColorIndex
 90
      256
102
RTVSPost2010Prop51ColorRGB
 90
-16777216
102
RTVSPost2010PropOp51
 70
     0
102
RTVSPost2010Prop52
140
1.0
102
RTVSPost2010PropOp52
 70
     0
102
RTVSPost2010Prop53
 90
        2
102
RTVSPost2010PropOp53
 70
     1
102
RTVSPost2010Prop54
  1
strokes_ogs.tif
102
RTVSPost2010PropOp54
 70
     1
102
RTVSPost2010Prop55
280
     0
102
RTVSPost2010PropOp55
 70
     1
102
RTVSPost2010Prop56
140
1.0
102
RTVSPost2010PropOp56
 70
     1
102
RTVSPost2010Prop57
140
1.0
102
RTVSPost2010PropOp57
 70
     1
102
RTVSPropertyOp0
 70
     1
102
RTVSPropertyOp1
 70
     1
102
RTVSPropertyOp2
 70
     1
102
RTVSPropertyOp3
 70
     1
102
RTVSPropertyOp4
 70
     1
102
RTVSPropertyOp5
 70
     1
102
RTVSPropertyOp6
 70
     1
102
RTVSPropertyOp7
 70
     1
102
RTVSPropertyOp8
 70
     1
102
RTVSPropertyOp9
 70
     1
102
RTVSPropertyOp10
 70
     1
102
RTVSPropertyOp11
 70
     1
102
RTVSPropertyOp12
 70
     1
102
RTVSPropertyOp13
 70
     1
102
RTVSPropertyOp14
 70
     1
102
RTVSPropertyOp15
 70
     1
102
RTVSPropertyOp16
 70
     1
102
RTVSPropertyOp17
 70
     1
102
RTVSPropertyOp18
 70
     1
102
RTVSPropertyOp19
 70
     1
102
RTVSPropertyOp20
 70
     1
102
RTVSPropertyOp21
 70
     1
102
RTVSPropertyOp22
 70
     1
102
RTVSPropertyOp23
 70
     1
102
RTVSPropertyOp24
 70
     1
102
RTVSPropertyOp25
 70
     1
102
RTVSPropertyOp26
 70
     1
102
RTVSPropertyOp27
 70
     1
102
RTVSPropertyOp28
 70
     1
102
RTVSPropertyOp29
 70
     1
102
RTVSPropertyOp30
 70
     1
102
RTVSPropertyOp31
 70
     1
102
RTVSPropertyOp32
 70
     1
102
RTVSPropertyOp33
 70
     1
102
RTVSPropertyOp34
 70
     1
102
RTVSPropertyOp35
 70
     1
102
RTVSPropertyOp36
 70
     1
102
RTVSPropertyOp37
 70
     1
102
RTVSPropertyOp38
 70
     1
102
RTVSPropertyOp39
 70
     1
102
RTVSPropertyOp40
 70
     1
102
RTVSPropertyOp41
 70
     1
102
RTVSPropertyOp42
 70
     1
102
RTVSPropertyOp43
 70
     1
102
RTVSPropertyOp44
 70
     1
102
RTVSPropertyOp45
 70
     1
102
RTVSPropertyOp46
 70
     1
102
RTVSPropertyOp47
 70
     1
102
RTVSPropertyOp48
 70
     1
102
RTVSPropertyOp49
 70
     1
102
RTVSPropertyOp50
 70
     1
102
RTVSPropertyOp51
 70
     0
102
RTVSPropertyOp52
 70
     0
102
RTVSPropertyOp53
 70
     1
102
RTVSPropertyOp54
 70
     1
102
RTVSPropertyOp55
 70
     1
102
RTVSPropertyOp56
 70
     1
102
RTVSPropertyOp57
 70
     1
102
RTVSPropertyOp58
 70
     1
102
RTVSPropertyOp59
 70
     1
102
RTVSPropertyOp60
 70
     1
102
RTVSPropertyOp61
 70
     1
102
RTVSPropertyOp62
 70
     1
  0
XRECORD
  5
AFB5
102
{ACAD_REACTORS
330
AFB4
102
}
330
AFB4
100
AcDbXrecord
280
     1
102
RTVSPost2010Prop28
280
     0
102
RTVSPost2010PropOp28
 70
     1
102
RTVSPost2010Prop29
280
     1
102
RTVSPost2010PropOp29
 70
     1
102
RTVSPost2010Prop30
280
     1
102
RTVSPost2010PropOp30
 70
     1
102
RTVSPost2010Prop31
280
     0
102
RTVSPost2010PropOp31
 70
     1
102
RTVSPost2010Prop32
280
     0
102
RTVSPost2010PropOp32
 70
     1
102
RTVSPost2010Prop33
280
     0
102
RTVSPost2010PropOp33
 70
     1
102
RTVSPost2010Prop34
280
     0
102
RTVSPost2010PropOp34
 70
     1
102
RTVSPost2010Prop35
280
     0
102
RTVSPost2010PropOp35
 70
     1
102
RTVSPost2010Prop36
280
     0
102
RTVSPost2010PropOp36
 70
     1
102
RTVSPost2010Prop37
 90
       50
102
RTVSPost2010PropOp37
 70
     1
102
RTVSPost2010Prop38
140
0.0
102
RTVSPost2010PropOp38
 70
     1
102
RTVSPost2010Prop39
140
1.0
102
RTVSPost2010PropOp39
 70
     1
102
RTVSPost2010Prop40
 90
        0
102
RTVSPost2010PropOp40
 70
     1
102
RTVSPost2010Prop41ColorIndex
 90
       18
102
RTVSPost2010Prop41ColorRGB
 90
        0
102
RTVSPost2010PropOp41
 70
     1
102
RTVSPost2010Prop42
 90
       50
102
RTVSPost2010PropOp42
 70
     1
102
RTVSPost2010Prop43
 90
        3
102
RTVSPost2010PropOp43
 70
     1
102
RTVSPost2010Prop44ColorIndex
 90
        5
102
RTVSPost2010Prop44ColorRGB
 90
      255
102
RTVSPost2010PropOp44
 70
     1
102
RTVSPost2010Prop45
280
     0
102
RTVSPost2010PropOp45
 70
     1
102
RTVSPost2010Prop46
 90
       50
102
RTVSPost2010PropOp46
 70
     1
102
RTVSPost2010Prop47
 90
       50
102
RTVSPost2010PropOp47
 70
     1
102
RTVSPost2010Prop48
 90
       50
102
RTVSPost2010PropOp48
 70
     1
102
RTVSPost2010Prop49
280
     0
102
RTVSPost2010PropOp49
 70
     1
102
RTVSPost2010Prop50
 90
       50
102
RTVSPost2010PropOp50
 70
     1
102
RTVSPost2010Prop51ColorIndex
 90
      256
102
RTVSPost2010Prop51ColorRGB
 90
-16777216
102
RTVSPost2010PropOp51
 70
     0
102
RTVSPost2010Prop52
140
1.0
102
RTVSPost2010PropOp52
 70
     0
102
RTVSPost2010Prop53
 90
        2
102
RTVSPost2010PropOp53
 70
     1
102
RTVSPost2010Prop54
  1
strokes_ogs.tif
102
RTVSPost2010PropOp54
 70
     1
102
RTVSPost2010Prop55
280
     0
102
RTVSPost2010PropOp55
 70
     1
102
RTVSPost2010Prop56
140
1.0
102
RTVSPost2010PropOp56
 70
     1
102
RTVSPost2010Prop57
140
1.0
102
RTVSPost2010PropOp57
 70
     1
102
RTVSPropertyOp0
 70
     1
102
RTVSPropertyOp1
 70
     1
102
RTVSPropertyOp2
 70
     1
102
RTVSPropertyOp3
 70
     1
102
RTVSPropertyOp4
 70
     1
102
RTVSPropertyOp5
 70
     1
102
RTVSPropertyOp6
 70
     1
102
RTVSPropertyOp7
 70
     1
102
RTVSPropertyOp8
 70
     1
102
RTVSPropertyOp9
 70
     1
102
RTVSPropertyOp10
 70
     1
102
RTVSPropertyOp11
 70
     1
102
RTVSPropertyOp12
 70
     1
102
RTVSPropertyOp13
 70
     1
102
RTVSPropertyOp14
 70
     1
102
RTVSPropertyOp15
 70
     1
102
RTVSPropertyOp16
 70
     1
102
RTVSPropertyOp17
 70
     1
102
RTVSPropertyOp18
 70
     1
102
RTVSPropertyOp19
 70
     1
102
RTVSPropertyOp20
 70
     1
102
RTVSPropertyOp21
 70
     1
102
RTVSPropertyOp22
 70
     1
102
RTVSPropertyOp23
 70
     1
102
RTVSPropertyOp24
 70
     1
102
RTVSPropertyOp25
 70
     1
102
RTVSPropertyOp26
 70
     1
102
RTVSPropertyOp27
 70
     1
102
RTVSPropertyOp28
 70
     1
102
RTVSPropertyOp29
 70
     1
102
RTVSPropertyOp30
 70
     1
102
RTVSPropertyOp31
 70
     1
102
RTVSPropertyOp32
 70
     1
102
RTVSPropertyOp33
 70
     1
102
RTVSPropertyOp34
 70
     1
102
RTVSPropertyOp35
 70
     1
102
RTVSPropertyOp36
 70
     1
102
RTVSPropertyOp37
 70
     1
102
RTVSPropertyOp38
 70
     1
102
RTVSPropertyOp39
 70
     1
102
RTVSPropertyOp40
 70
     1
102
RTVSPropertyOp41
 70
     1
102
RTVSPropertyOp42
 70
     1
102
RTVSPropertyOp43
 70
     1
102
RTVSPropertyOp44
 70
     1
102
RTVSPropertyOp45
 70
     1
102
RTVSPropertyOp46
 70
     1
102
RTVSPropertyOp47
 70
     1
102
RTVSPropertyOp48
 70
     1
102
RTVSPropertyOp49
 70
     1
102
RTVSPropertyOp50
 70
     1
102
RTVSPropertyOp51
 70
     0
102
RTVSPropertyOp52
 70
     0
102
RTVSPropertyOp53
 70
     1
102
RTVSPropertyOp54
 70
     1
102
RTVSPropertyOp55
 70
     1
102
RTVSPropertyOp56
 70
     1
102
RTVSPropertyOp57
 70
     1
102
RTVSPropertyOp58
 70
     1
102
RTVSPropertyOp59
 70
     1
102
RTVSPropertyOp60
 70
     1
102
RTVSPropertyOp61
 70
     1
102
RTVSPropertyOp62
 70
     1
  0
XRECORD
  5
AFB7
102
{ACAD_REACTORS
330
AFB6
102
}
330
AFB6
100
AcDbXrecord
280
     1
102
RTVSPost2010Prop28
280
     0
102
RTVSPost2010PropOp28
 70
     1
102
RTVSPost2010Prop29
280
     1
102
RTVSPost2010PropOp29
 70
     1
102
RTVSPost2010Prop30
280
     1
102
RTVSPost2010PropOp30
 70
     1
102
RTVSPost2010Prop31
280
     0
102
RTVSPost2010PropOp31
 70
     1
102
RTVSPost2010Prop32
280
     0
102
RTVSPost2010PropOp32
 70
     1
102
RTVSPost2010Prop33
280
     0
102
RTVSPost2010PropOp33
 70
     1
102
RTVSPost2010Prop34
280
     0
102
RTVSPost2010PropOp34
 70
     1
102
RTVSPost2010Prop35
280
     0
102
RTVSPost2010PropOp35
 70
     1
102
RTVSPost2010Prop36
280
     0
102
RTVSPost2010PropOp36
 70
     1
102
RTVSPost2010Prop37
 90
       50
102
RTVSPost2010PropOp37
 70
     1
102
RTVSPost2010Prop38
140
0.0
102
RTVSPost2010PropOp38
 70
     1
102
RTVSPost2010Prop39
140
1.0
102
RTVSPost2010PropOp39
 70
     1
102
RTVSPost2010Prop40
 90
        0
102
RTVSPost2010PropOp40
 70
     1
102
RTVSPost2010Prop41ColorIndex
 90
       18
102
RTVSPost2010Prop41ColorRGB
 90
        0
102
RTVSPost2010PropOp41
 70
     1
102
RTVSPost2010Prop42
 90
       50
102
RTVSPost2010PropOp42
 70
     1
102
RTVSPost2010Prop43
 90
        3
102
RTVSPost2010PropOp43
 70
     1
102
RTVSPost2010Prop44ColorIndex
 90
        5
102
RTVSPost2010Prop44ColorRGB
 90
      255
102
RTVSPost2010PropOp44
 70
     1
102
RTVSPost2010Prop45
280
     0
102
RTVSPost2010PropOp45
 70
     1
102
RTVSPost2010Prop46
 90
       50
102
RTVSPost2010PropOp46
 70
     1
102
RTVSPost2010Prop47
 90
       50
102
RTVSPost2010PropOp47
 70
     1
102
RTVSPost2010Prop48
 90
       50
102
RTVSPost2010PropOp48
 70
     1
102
RTVSPost2010Prop49
280
     0
102
RTVSPost2010PropOp49
 70
     1
102
RTVSPost2010Prop50
 90
       50
102
RTVSPost2010PropOp50
 70
     1
102
RTVSPost2010Prop51ColorIndex
 90
      256
102
RTVSPost2010Prop51ColorRGB
 90
-16777216
102
RTVSPost2010PropOp51
 70
     0
102
RTVSPost2010Prop52
140
1.0
102
RTVSPost2010PropOp52
 70
     0
102
RTVSPost2010Prop53
 90
        2
102
RTVSPost2010PropOp53
 70
     1
102
RTVSPost2010Prop54
  1
strokes_ogs.tif
102
RTVSPost2010PropOp54
 70
     1
102
RTVSPost2010Prop55
280
     0
102
RTVSPost2010PropOp55
 70
     1
102
RTVSPost2010Prop56
140
1.0
102
RTVSPost2010PropOp56
 70
     1
102
RTVSPost2010Prop57
140
1.0
102
RTVSPost2010PropOp57
 70
     1
102
RTVSPropertyOp0
 70
     1
102
RTVSPropertyOp1
 70
     1
102
RTVSPropertyOp2
 70
     1
102
RTVSPropertyOp3
 70
     1
102
RTVSPropertyOp4
 70
     1
102
RTVSPropertyOp5
 70
     1
102
RTVSPropertyOp6
 70
     1
102
RTVSPropertyOp7
 70
     1
102
RTVSPropertyOp8
 70
     1
102
RTVSPropertyOp9
 70
     1
102
RTVSPropertyOp10
 70
     1
102
RTVSPropertyOp11
 70
     1
102
RTVSPropertyOp12
 70
     1
102
RTVSPropertyOp13
 70
     1
102
RTVSPropertyOp14
 70
     1
102
RTVSPropertyOp15
 70
     1
102
RTVSPropertyOp16
 70
     1
102
RTVSPropertyOp17
 70
     1
102
RTVSPropertyOp18
 70
     1
102
RTVSPropertyOp19
 70
     1
102
RTVSPropertyOp20
 70
     1
102
RTVSPropertyOp21
 70
     1
102
RTVSPropertyOp22
 70
     1
102
RTVSPropertyOp23
 70
     1
102
RTVSPropertyOp24
 70
     1
102
RTVSPropertyOp25
 70
     1
102
RTVSPropertyOp26
 70
     1
102
RTVSPropertyOp27
 70
     1
102
RTVSPropertyOp28
 70
     1
102
RTVSPropertyOp29
 70
     1
102
RTVSPropertyOp30
 70
     1
102
RTVSPropertyOp31
 70
     1
102
RTVSPropertyOp32
 70
     1
102
RTVSPropertyOp33
 70
     1
102
RTVSPropertyOp34
 70
     1
102
RTVSPropertyOp35
 70
     1
102
RTVSPropertyOp36
 70
     1
102
RTVSPropertyOp37
 70
     1
102
RTVSPropertyOp38
 70
     1
102
RTVSPropertyOp39
 70
     1
102
RTVSPropertyOp40
 70
     1
102
RTVSPropertyOp41
 70
     1
102
RTVSPropertyOp42
 70
     1
102
RTVSPropertyOp43
 70
     1
102
RTVSPropertyOp44
 70
     1
102
RTVSPropertyOp45
 70
     1
102
RTVSPropertyOp46
 70
     1
102
RTVSPropertyOp47
 70
     1
102
RTVSPropertyOp48
 70
     1
102
RTVSPropertyOp49
 70
     1
102
RTVSPropertyOp50
 70
     1
102
RTVSPropertyOp51
 70
     0
102
RTVSPropertyOp52
 70
     0
102
RTVSPropertyOp53
 70
     1
102
RTVSPropertyOp54
 70
     1
102
RTVSPropertyOp55
 70
     1
102
RTVSPropertyOp56
 70
     1
102
RTVSPropertyOp57
 70
     1
102
RTVSPropertyOp58
 70
     1
102
RTVSPropertyOp59
 70
     1
102
RTVSPropertyOp60
 70
     1
102
RTVSPropertyOp61
 70
     1
102
RTVSPropertyOp62
 70
     1
  0
XRECORD
  5
AFBF
102
{ACAD_REACTORS
330
AFBE
102
}
330
AFBE
100
AcDbXrecord
280
     1
102
RTVSPost2010Prop28
280
     0
102
RTVSPost2010PropOp28
 70
     1
102
RTVSPost2010Prop29
280
     1
102
RTVSPost2010PropOp29
 70
     1
102
RTVSPost2010Prop30
280
     1
102
RTVSPost2010PropOp30
 70
     1
102
RTVSPost2010Prop31
280
     0
102
RTVSPost2010PropOp31
 70
     1
102
RTVSPost2010Prop32
280
     0
102
RTVSPost2010PropOp32
 70
     1
102
RTVSPost2010Prop33
280
     0
102
RTVSPost2010PropOp33
 70
     1
102
RTVSPost2010Prop34
280
     0
102
RTVSPost2010PropOp34
 70
     1
102
RTVSPost2010Prop35
280
     0
102
RTVSPost2010PropOp35
 70
     1
102
RTVSPost2010Prop36
280
     0
102
RTVSPost2010PropOp36
 70
     1
102
RTVSPost2010Prop37
 90
       50
102
RTVSPost2010PropOp37
 70
     1
102
RTVSPost2010Prop38
140
0.0
102
RTVSPost2010PropOp38
 70
     1
102
RTVSPost2010Prop39
140
1.0
102
RTVSPost2010PropOp39
 70
     1
102
RTVSPost2010Prop40
 90
        0
102
RTVSPost2010PropOp40
 70
     1
102
RTVSPost2010Prop41ColorIndex
 90
       18
102
RTVSPost2010Prop41ColorRGB
 90
        0
102
RTVSPost2010PropOp41
 70
     1
102
RTVSPost2010Prop42
 90
       50
102
RTVSPost2010PropOp42
 70
     1
102
RTVSPost2010Prop43
 90
        3
102
RTVSPost2010PropOp43
 70
     1
102
RTVSPost2010Prop44ColorIndex
 90
        5
102
RTVSPost2010Prop44ColorRGB
 90
      255
102
RTVSPost2010PropOp44
 70
     1
102
RTVSPost2010Prop45
280
     0
102
RTVSPost2010PropOp45
 70
     1
102
RTVSPost2010Prop46
 90
       50
102
RTVSPost2010PropOp46
 70
     1
102
RTVSPost2010Prop47
 90
       50
102
RTVSPost2010PropOp47
 70
     1
102
RTVSPost2010Prop48
 90
       50
102
RTVSPost2010PropOp48
 70
     1
102
RTVSPost2010Prop49
280
     0
102
RTVSPost2010PropOp49
 70
     1
102
RTVSPost2010Prop50
 90
       50
102
RTVSPost2010PropOp50
 70
     1
102
RTVSPost2010Prop51ColorIndex
 90
      256
102
RTVSPost2010Prop51ColorRGB
 90
-16777216
102
RTVSPost2010PropOp51
 70
     0
102
RTVSPost2010Prop52
140
1.0
102
RTVSPost2010PropOp52
 70
     0
102
RTVSPost2010Prop53
 90
        2
102
RTVSPost2010PropOp53
 70
     1
102
RTVSPost2010Prop54
  1
strokes_ogs.tif
102
RTVSPost2010PropOp54
 70
     1
102
RTVSPost2010Prop55
280
     0
102
RTVSPost2010PropOp55
 70
     1
102
RTVSPost2010Prop56
140
1.0
102
RTVSPost2010PropOp56
 70
     1
102
RTVSPost2010Prop57
140
1.0
102
RTVSPost2010PropOp57
 70
     1
102
RTVSPropertyOp0
 70
     1
102
RTVSPropertyOp1
 70
     1
102
RTVSPropertyOp2
 70
     1
102
RTVSPropertyOp3
 70
     1
102
RTVSPropertyOp4
 70
     1
102
RTVSPropertyOp5
 70
     1
102
RTVSPropertyOp6
 70
     1
102
RTVSPropertyOp7
 70
     1
102
RTVSPropertyOp8
 70
     1
102
RTVSPropertyOp9
 70
     1
102
RTVSPropertyOp10
 70
     1
102
RTVSPropertyOp11
 70
     1
102
RTVSPropertyOp12
 70
     1
102
RTVSPropertyOp13
 70
     1
102
RTVSPropertyOp14
 70
     1
102
RTVSPropertyOp15
 70
     1
102
RTVSPropertyOp16
 70
     1
102
RTVSPropertyOp17
 70
     1
102
RTVSPropertyOp18
 70
     1
102
RTVSPropertyOp19
 70
     1
102
RTVSPropertyOp20
 70
     1
102
RTVSPropertyOp21
 70
     1
102
RTVSPropertyOp22
 70
     1
102
RTVSPropertyOp23
 70
     1
102
RTVSPropertyOp24
 70
     1
102
RTVSPropertyOp25
 70
     1
102
RTVSPropertyOp26
 70
     1
102
RTVSPropertyOp27
 70
     1
102
RTVSPropertyOp28
 70
     1
102
RTVSPropertyOp29
 70
     1
102
RTVSPropertyOp30
 70
     1
102
RTVSPropertyOp31
 70
     1
102
RTVSPropertyOp32
 70
     1
102
RTVSPropertyOp33
 70
     1
102
RTVSPropertyOp34
 70
     1
102
RTVSPropertyOp35
 70
     1
102
RTVSPropertyOp36
 70
     1
102
RTVSPropertyOp37
 70
     1
102
RTVSPropertyOp38
 70
     1
102
RTVSPropertyOp39
 70
     1
102
RTVSPropertyOp40
 70
     1
102
RTVSPropertyOp41
 70
     1
102
RTVSPropertyOp42
 70
     1
102
RTVSPropertyOp43
 70
     1
102
RTVSPropertyOp44
 70
     1
102
RTVSPropertyOp45
 70
     1
102
RTVSPropertyOp46
 70
     1
102
RTVSPropertyOp47
 70
     1
102
RTVSPropertyOp48
 70
     1
102
RTVSPropertyOp49
 70
     1
102
RTVSPropertyOp50
 70
     1
102
RTVSPropertyOp51
 70
     0
102
RTVSPropertyOp52
 70
     0
102
RTVSPropertyOp53
 70
     1
102
RTVSPropertyOp54
 70
     1
102
RTVSPropertyOp55
 70
     1
102
RTVSPropertyOp56
 70
     1
102
RTVSPropertyOp57
 70
     1
102
RTVSPropertyOp58
 70
     1
102
RTVSPropertyOp59
 70
     1
102
RTVSPropertyOp60
 70
     1
102
RTVSPropertyOp61
 70
     1
102
RTVSPropertyOp62
 70
     1
  0
XRECORD
  5
AFDB
102
{ACAD_REACTORS
330
AFDA
102
}
330
AFDA
100
AcDbXrecord
280
     1
102
RTVSPost2010Prop28
280
     0
102
RTVSPost2010PropOp28
 70
     1
102
RTVSPost2010Prop29
280
     1
102
RTVSPost2010PropOp29
 70
     1
102
RTVSPost2010Prop30
280
     1
102
RTVSPost2010PropOp30
 70
     1
102
RTVSPost2010Prop31
280
     0
102
RTVSPost2010PropOp31
 70
     1
102
RTVSPost2010Prop32
280
     0
102
RTVSPost2010PropOp32
 70
     1
102
RTVSPost2010Prop33
280
     0
102
RTVSPost2010PropOp33
 70
     1
102
RTVSPost2010Prop34
280
     0
102
RTVSPost2010PropOp34
 70
     1
102
RTVSPost2010Prop35
280
     0
102
RTVSPost2010PropOp35
 70
     1
102
RTVSPost2010Prop36
280
     0
102
RTVSPost2010PropOp36
 70
     1
102
RTVSPost2010Prop37
 90
       50
102
RTVSPost2010PropOp37
 70
     0
102
RTVSPost2010Prop38
140
0.0
102
RTVSPost2010PropOp38
 70
     0
102
RTVSPost2010Prop39
140
1.0
102
RTVSPost2010PropOp39
 70
     0
102
RTVSPost2010Prop40
 90
        0
102
RTVSPost2010PropOp40
 70
     0
102
RTVSPost2010Prop41ColorIndex
 90
       18
102
RTVSPost2010Prop41ColorRGB
 90
        0
102
RTVSPost2010PropOp41
 70
     0
102
RTVSPost2010Prop42
 90
       50
102
RTVSPost2010PropOp42
 70
     0
102
RTVSPost2010Prop43
 90
        3
102
RTVSPost2010PropOp43
 70
     0
102
RTVSPost2010Prop44ColorIndex
 90
        5
102
RTVSPost2010Prop44ColorRGB
 90
      255
102
RTVSPost2010PropOp44
 70
     0
102
RTVSPost2010Prop45
280
     0
102
RTVSPost2010PropOp45
 70
     1
102
RTVSPost2010Prop46
 90
       50
102
RTVSPost2010PropOp46
 70
     0
102
RTVSPost2010Prop47
 90
       50
102
RTVSPost2010PropOp47
 70
     0
102
RTVSPost2010Prop48
 90
       50
102
RTVSPost2010PropOp48
 70
     0
102
RTVSPost2010Prop49
280
     0
102
RTVSPost2010PropOp49
 70
     1
102
RTVSPost2010Prop50
 90
       50
102
RTVSPost2010PropOp50
 70
     0
102
RTVSPost2010Prop51ColorIndex
 90
      256
102
RTVSPost2010Prop51ColorRGB
 90
-16777216
102
RTVSPost2010PropOp51
 70
     0
102
RTVSPost2010Prop52
140
1.0
102
RTVSPost2010PropOp52
 70
     0
102
RTVSPost2010Prop53
 90
        2
102
RTVSPost2010PropOp53
 70
     0
102
RTVSPost2010Prop54
  1
strokes_ogs.tif
102
RTVSPost2010PropOp54
 70
     0
102
RTVSPost2010Prop55
280
     0
102
RTVSPost2010PropOp55
 70
     1
102
RTVSPost2010Prop56
140
1.0
102
RTVSPost2010PropOp56
 70
     0
102
RTVSPost2010Prop57
140
1.0
102
RTVSPost2010PropOp57
 70
     0
102
RTVSPropertyOp0
 70
     0
102
RTVSPropertyOp1
 70
     0
102
RTVSPropertyOp2
 70
     0
102
RTVSPropertyOp3
 70
     0
102
RTVSPropertyOp4
 70
     0
102
RTVSPropertyOp5
 70
     0
102
RTVSPropertyOp6
 70
     0
102
RTVSPropertyOp7
 70
     0
102
RTVSPropertyOp8
 70
     0
102
RTVSPropertyOp9
 70
     0
102
RTVSPropertyOp10
 70
     0
102
RTVSPropertyOp11
 70
     0
102
RTVSPropertyOp12
 70
     0
102
RTVSPropertyOp13
 70
     0
102
RTVSPropertyOp14
 70
     2
102
RTVSPropertyOp15
 70
     0
102
RTVSPropertyOp16
 70
     0
102
RTVSPropertyOp17
 70
     0
102
RTVSPropertyOp18
 70
     0
102
RTVSPropertyOp19
 70
     0
102
RTVSPropertyOp20
 70
     0
102
RTVSPropertyOp21
 70
     0
102
RTVSPropertyOp22
 70
     0
102
RTVSPropertyOp23
 70
     0
102
RTVSPropertyOp24
 70
     0
102
RTVSPropertyOp25
 70
     0
102
RTVSPropertyOp26
 70
     0
102
RTVSPropertyOp27
 70
     0
102
RTVSPropertyOp28
 70
     1
102
RTVSPropertyOp29
 70
     1
102
RTVSPropertyOp30
 70
     1
102
RTVSPropertyOp31
 70
     1
102
RTVSPropertyOp32
 70
     1
102
RTVSPropertyOp33
 70
     1
102
RTVSPropertyOp34
 70
     1
102
RTVSPropertyOp35
 70
     1
102
RTVSPropertyOp36
 70
     1
102
RTVSPropertyOp37
 70
     0
102
RTVSPropertyOp38
 70
     0
102
RTVSPropertyOp39
 70
     0
102
RTVSPropertyOp40
 70
     0
102
RTVSPropertyOp41
 70
     0
102
RTVSPropertyOp42
 70
     0
102
RTVSPropertyOp43
 70
     0
102
RTVSPropertyOp44
 70
     0
102
RTVSPropertyOp45
 70
     1
102
RTVSPropertyOp46
 70
     0
102
RTVSPropertyOp47
 70
     0
102
RTVSPropertyOp48
 70
     0
102
RTVSPropertyOp49
 70
     1
102
RTVSPropertyOp50
 70
     0
102
RTVSPropertyOp51
 70
     0
102
RTVSPropertyOp52
 70
     0
102
RTVSPropertyOp53
 70
     0
102
RTVSPropertyOp54
 70
     0
102
RTVSPropertyOp55
 70
     1
102
RTVSPropertyOp56
 70
     0
102
RTVSPropertyOp57
 70
     0
102
RTVSPropertyOp58
 70
     0
102
RTVSPropertyOp59
 70
     0
102
RTVSPropertyOp60
 70
     0
102
RTVSPropertyOp61
 70
     0
102
RTVSPropertyOp62
 70
     0
  0
XRECORD
  5
AFCB
102
{ACAD_REACTORS
330
AFCA
102
}
330
AFCA
100
AcDbXrecord
280
     1
102
RTVSPost2010Prop28
280
     0
102
RTVSPost2010PropOp28
 70
     1
102
RTVSPost2010Prop29
280
     1
102
RTVSPost2010PropOp29
 70
     1
102
RTVSPost2010Prop30
280
     1
102
RTVSPost2010PropOp30
 70
     1
102
RTVSPost2010Prop31
280
     0
102
RTVSPost2010PropOp31
 70
     1
102
RTVSPost2010Prop32
280
     0
102
RTVSPost2010PropOp32
 70
     1
102
RTVSPost2010Prop33
280
     0
102
RTVSPost2010PropOp33
 70
     1
102
RTVSPost2010Prop34
280
     0
102
RTVSPost2010PropOp34
 70
     1
102
RTVSPost2010Prop35
280
     0
102
RTVSPost2010PropOp35
 70
     1
102
RTVSPost2010Prop36
280
     0
102
RTVSPost2010PropOp36
 70
     1
102
RTVSPost2010Prop37
 90
       50
102
RTVSPost2010PropOp37
 70
     1
102
RTVSPost2010Prop38
140
0.0
102
RTVSPost2010PropOp38
 70
     1
102
RTVSPost2010Prop39
140
1.0
102
RTVSPost2010PropOp39
 70
     1
102
RTVSPost2010Prop40
 90
        0
102
RTVSPost2010PropOp40
 70
     1
102
RTVSPost2010Prop41ColorIndex
 90
       18
102
RTVSPost2010Prop41ColorRGB
 90
        0
102
RTVSPost2010PropOp41
 70
     1
102
RTVSPost2010Prop42
 90
       50
102
RTVSPost2010PropOp42
 70
     1
102
RTVSPost2010Prop43
 90
        3
102
RTVSPost2010PropOp43
 70
     1
102
RTVSPost2010Prop44ColorIndex
 90
        5
102
RTVSPost2010Prop44ColorRGB
 90
      255
102
RTVSPost2010PropOp44
 70
     1
102
RTVSPost2010Prop45
280
     0
102
RTVSPost2010PropOp45
 70
     1
102
RTVSPost2010Prop46
 90
       50
102
RTVSPost2010PropOp46
 70
     1
102
RTVSPost2010Prop47
 90
       50
102
RTVSPost2010PropOp47
 70
     1
102
RTVSPost2010Prop48
 90
       50
102
RTVSPost2010PropOp48
 70
     1
102
RTVSPost2010Prop49
280
     0
102
RTVSPost2010PropOp49
 70
     1
102
RTVSPost2010Prop50
 90
       50
102
RTVSPost2010PropOp50
 70
     1
102
RTVSPost2010Prop51ColorIndex
 90
      256
102
RTVSPost2010Prop51ColorRGB
 90
-16777216
102
RTVSPost2010PropOp51
 70
     0
102
RTVSPost2010Prop52
140
1.0
102
RTVSPost2010PropOp52
 70
     0
102
RTVSPost2010Prop53
 90
        2
102
RTVSPost2010PropOp53
 70
     1
102
RTVSPost2010Prop54
  1
strokes_ogs.tif
102
RTVSPost2010PropOp54
 70
     1
102
RTVSPost2010Prop55
280
     0
102
RTVSPost2010PropOp55
 70
     1
102
RTVSPost2010Prop56
140
1.0
102
RTVSPost2010PropOp56
 70
     1
102
RTVSPost2010Prop57
140
1.0
102
RTVSPost2010PropOp57
 70
     1
102
RTVSPropertyOp0
 70
     1
102
RTVSPropertyOp1
 70
     1
102
RTVSPropertyOp2
 70
     1
102
RTVSPropertyOp3
 70
     1
102
RTVSPropertyOp4
 70
     1
102
RTVSPropertyOp5
 70
     1
102
RTVSPropertyOp6
 70
     1
102
RTVSPropertyOp7
 70
     1
102
RTVSPropertyOp8
 70
     1
102
RTVSPropertyOp9
 70
     1
102
RTVSPropertyOp10
 70
     1
102
RTVSPropertyOp11
 70
     1
102
RTVSPropertyOp12
 70
     1
102
RTVSPropertyOp13
 70
     1
102
RTVSPropertyOp14
 70
     1
102
RTVSPropertyOp15
 70
     1
102
RTVSPropertyOp16
 70
     1
102
RTVSPropertyOp17
 70
     1
102
RTVSPropertyOp18
 70
     1
102
RTVSPropertyOp19
 70
     1
102
RTVSPropertyOp20
 70
     1
102
RTVSPropertyOp21
 70
     1
102
RTVSPropertyOp22
 70
     1
102
RTVSPropertyOp23
 70
     1
102
RTVSPropertyOp24
 70
     1
102
RTVSPropertyOp25
 70
     1
102
RTVSPropertyOp26
 70
     1
102
RTVSPropertyOp27
 70
     1
102
RTVSPropertyOp28
 70
     1
102
RTVSPropertyOp29
 70
     1
102
RTVSPropertyOp30
 70
     1
102
RTVSPropertyOp31
 70
     1
102
RTVSPropertyOp32
 70
     1
102
RTVSPropertyOp33
 70
     1
102
RTVSPropertyOp34
 70
     1
102
RTVSPropertyOp35
 70
     1
102
RTVSPropertyOp36
 70
     1
102
RTVSPropertyOp37
 70
     1
102
RTVSPropertyOp38
 70
     1
102
RTVSPropertyOp39
 70
     1
102
RTVSPropertyOp40
 70
     1
102
RTVSPropertyOp41
 70
     1
102
RTVSPropertyOp42
 70
     1
102
RTVSPropertyOp43
 70
     1
102
RTVSPropertyOp44
 70
     1
102
RTVSPropertyOp45
 70
     1
102
RTVSPropertyOp46
 70
     1
102
RTVSPropertyOp47
 70
     1
102
RTVSPropertyOp48
 70
     1
102
RTVSPropertyOp49
 70
     1
102
RTVSPropertyOp50
 70
     1
102
RTVSPropertyOp51
 70
     0
102
RTVSPropertyOp52
 70
     0
102
RTVSPropertyOp53
 70
     1
102
RTVSPropertyOp54
 70
     1
102
RTVSPropertyOp55
 70
     1
102
RTVSPropertyOp56
 70
     1
102
RTVSPropertyOp57
 70
     1
102
RTVSPropertyOp58
 70
     1
102
RTVSPropertyOp59
 70
     1
102
RTVSPropertyOp60
 70
     1
102
RTVSPropertyOp61
 70
     1
102
RTVSPropertyOp62
 70
     1
  0
XRECORD
  5
AFDD
102
{ACAD_REACTORS
330
AFDC
102
}
330
AFDC
100
AcDbXrecord
280
     1
102
RTVSPost2010Prop28
280
     0
102
RTVSPost2010PropOp28
 70
     1
102
RTVSPost2010Prop29
280
     1
102
RTVSPost2010PropOp29
 70
     1
102
RTVSPost2010Prop30
280
     1
102
RTVSPost2010PropOp30
 70
     1
102
RTVSPost2010Prop31
280
     0
102
RTVSPost2010PropOp31
 70
     1
102
RTVSPost2010Prop32
280
     0
102
RTVSPost2010PropOp32
 70
     1
102
RTVSPost2010Prop33
280
     0
102
RTVSPost2010PropOp33
 70
     1
102
RTVSPost2010Prop34
280
     0
102
RTVSPost2010PropOp34
 70
     1
102
RTVSPost2010Prop35
280
     0
102
RTVSPost2010PropOp35
 70
     1
102
RTVSPost2010Prop36
280
     0
102
RTVSPost2010PropOp36
 70
     1
102
RTVSPost2010Prop37
 90
       50
102
RTVSPost2010PropOp37
 70
     0
102
RTVSPost2010Prop38
140
0.0
102
RTVSPost2010PropOp38
 70
     0
102
RTVSPost2010Prop39
140
1.0
102
RTVSPost2010PropOp39
 70
     0
102
RTVSPost2010Prop40
 90
        0
102
RTVSPost2010PropOp40
 70
     0
102
RTVSPost2010Prop41ColorIndex
 90
       18
102
RTVSPost2010Prop41ColorRGB
 90
        0
102
RTVSPost2010PropOp41
 70
     0
102
RTVSPost2010Prop42
 90
       50
102
RTVSPost2010PropOp42
 70
     0
102
RTVSPost2010Prop43
 90
        3
102
RTVSPost2010PropOp43
 70
     0
102
RTVSPost2010Prop44ColorIndex
 90
        5
102
RTVSPost2010Prop44ColorRGB
 90
      255
102
RTVSPost2010PropOp44
 70
     0
102
RTVSPost2010Prop45
280
     0
102
RTVSPost2010PropOp45
 70
     1
102
RTVSPost2010Prop46
 90
       50
102
RTVSPost2010PropOp46
 70
     0
102
RTVSPost2010Prop47
 90
       50
102
RTVSPost2010PropOp47
 70
     0
102
RTVSPost2010Prop48
 90
       50
102
RTVSPost2010PropOp48
 70
     0
102
RTVSPost2010Prop49
280
     0
102
RTVSPost2010PropOp49
 70
     1
102
RTVSPost2010Prop50
 90
       50
102
RTVSPost2010PropOp50
 70
     0
102
RTVSPost2010Prop51ColorIndex
 90
      256
102
RTVSPost2010Prop51ColorRGB
 90
-16777216
102
RTVSPost2010PropOp51
 70
     0
102
RTVSPost2010Prop52
140
1.0
102
RTVSPost2010PropOp52
 70
     0
102
RTVSPost2010Prop53
 90
        2
102
RTVSPost2010PropOp53
 70
     0
102
RTVSPost2010Prop54
  1
strokes_ogs.tif
102
RTVSPost2010PropOp54
 70
     0
102
RTVSPost2010Prop55
280
     0
102
RTVSPost2010PropOp55
 70
     1
102
RTVSPost2010Prop56
140
1.0
102
RTVSPost2010PropOp56
 70
     0
102
RTVSPost2010Prop57
140
1.0
102
RTVSPost2010PropOp57
 70
     0
102
RTVSPropertyOp0
 70
     0
102
RTVSPropertyOp1
 70
     0
102
RTVSPropertyOp2
 70
     0
102
RTVSPropertyOp3
 70
     0
102
RTVSPropertyOp4
 70
     0
102
RTVSPropertyOp5
 70
     0
102
RTVSPropertyOp6
 70
     0
102
RTVSPropertyOp7
 70
     0
102
RTVSPropertyOp8
 70
     0
102
RTVSPropertyOp9
 70
     0
102
RTVSPropertyOp10
 70
     0
102
RTVSPropertyOp11
 70
     0
102
RTVSPropertyOp12
 70
     0
102
RTVSPropertyOp13
 70
     0
102
RTVSPropertyOp14
 70
     2
102
RTVSPropertyOp15
 70
     0
102
RTVSPropertyOp16
 70
     0
102
RTVSPropertyOp17
 70
     0
102
RTVSPropertyOp18
 70
     0
102
RTVSPropertyOp19
 70
     0
102
RTVSPropertyOp20
 70
     0
102
RTVSPropertyOp21
 70
     0
102
RTVSPropertyOp22
 70
     0
102
RTVSPropertyOp23
 70
     0
102
RTVSPropertyOp24
 70
     0
102
RTVSPropertyOp25
 70
     0
102
RTVSPropertyOp26
 70
     0
102
RTVSPropertyOp27
 70
     0
102
RTVSPropertyOp28
 70
     1
102
RTVSPropertyOp29
 70
     1
102
RTVSPropertyOp30
 70
     1
102
RTVSPropertyOp31
 70
     1
102
RTVSPropertyOp32
 70
     1
102
RTVSPropertyOp33
 70
     1
102
RTVSPropertyOp34
 70
     1
102
RTVSPropertyOp35
 70
     1
102
RTVSPropertyOp36
 70
     1
102
RTVSPropertyOp37
 70
     0
102
RTVSPropertyOp38
 70
     0
102
RTVSPropertyOp39
 70
     0
102
RTVSPropertyOp40
 70
     0
102
RTVSPropertyOp41
 70
     0
102
RTVSPropertyOp42
 70
     0
102
RTVSPropertyOp43
 70
     0
102
RTVSPropertyOp44
 70
     0
102
RTVSPropertyOp45
 70
     1
102
RTVSPropertyOp46
 70
     0
102
RTVSPropertyOp47
 70
     0
102
RTVSPropertyOp48
 70
     0
102
RTVSPropertyOp49
 70
     1
102
RTVSPropertyOp50
 70
     0
102
RTVSPropertyOp51
 70
     0
102
RTVSPropertyOp52
 70
     0
102
RTVSPropertyOp53
 70
     0
102
RTVSPropertyOp54
 70
     0
102
RTVSPropertyOp55
 70
     1
102
RTVSPropertyOp56
 70
     0
102
RTVSPropertyOp57
 70
     0
102
RTVSPropertyOp58
 70
     0
102
RTVSPropertyOp59
 70
     0
102
RTVSPropertyOp60
 70
     0
102
RTVSPropertyOp61
 70
     0
102
RTVSPropertyOp62
 70
     0
  0
XRECORD
  5
AFC3
102
{ACAD_REACTORS
330
AFC2
102
}
330
AFC2
100
AcDbXrecord
280
     1
102
RTVSPost2010Prop28
280
     0
102
RTVSPost2010PropOp28
 70
     1
102
RTVSPost2010Prop29
280
     1
102
RTVSPost2010PropOp29
 70
     1
102
RTVSPost2010Prop30
280
     1
102
RTVSPost2010PropOp30
 70
     1
102
RTVSPost2010Prop31
280
     0
102
RTVSPost2010PropOp31
 70
     1
102
RTVSPost2010Prop32
280
     0
102
RTVSPost2010PropOp32
 70
     1
102
RTVSPost2010Prop33
280
     0
102
RTVSPost2010PropOp33
 70
     1
102
RTVSPost2010Prop34
280
     0
102
RTVSPost2010PropOp34
 70
     1
102
RTVSPost2010Prop35
280
     0
102
RTVSPost2010PropOp35
 70
     1
102
RTVSPost2010Prop36
280
     0
102
RTVSPost2010PropOp36
 70
     1
102
RTVSPost2010Prop37
 90
       50
102
RTVSPost2010PropOp37
 70
     1
102
RTVSPost2010Prop38
140
0.0
102
RTVSPost2010PropOp38
 70
     1
102
RTVSPost2010Prop39
140
1.0
102
RTVSPost2010PropOp39
 70
     1
102
RTVSPost2010Prop40
 90
        0
102
RTVSPost2010PropOp40
 70
     1
102
RTVSPost2010Prop41ColorIndex
 90
       18
102
RTVSPost2010Prop41ColorRGB
 90
        0
102
RTVSPost2010PropOp41
 70
     1
102
RTVSPost2010Prop42
 90
       50
102
RTVSPost2010PropOp42
 70
     1
102
RTVSPost2010Prop43
 90
        3
102
RTVSPost2010PropOp43
 70
     1
102
RTVSPost2010Prop44ColorIndex
 90
        5
102
RTVSPost2010Prop44ColorRGB
 90
      255
102
RTVSPost2010PropOp44
 70
     1
102
RTVSPost2010Prop45
280
     0
102
RTVSPost2010PropOp45
 70
     1
102
RTVSPost2010Prop46
 90
       50
102
RTVSPost2010PropOp46
 70
     1
102
RTVSPost2010Prop47
 90
       50
102
RTVSPost2010PropOp47
 70
     1
102
RTVSPost2010Prop48
 90
       50
102
RTVSPost2010PropOp48
 70
     1
102
RTVSPost2010Prop49
280
     0
102
RTVSPost2010PropOp49
 70
     1
102
RTVSPost2010Prop50
 90
       50
102
RTVSPost2010PropOp50
 70
     1
102
RTVSPost2010Prop51ColorIndex
 90
      256
102
RTVSPost2010Prop51ColorRGB
 90
-16777216
102
RTVSPost2010PropOp51
 70
     0
102
RTVSPost2010Prop52
140
1.0
102
RTVSPost2010PropOp52
 70
     0
102
RTVSPost2010Prop53
 90
        2
102
RTVSPost2010PropOp53
 70
     1
102
RTVSPost2010Prop54
  1
strokes_ogs.tif
102
RTVSPost2010PropOp54
 70
     1
102
RTVSPost2010Prop55
280
     0
102
RTVSPost2010PropOp55
 70
     1
102
RTVSPost2010Prop56
140
1.0
102
RTVSPost2010PropOp56
 70
     1
102
RTVSPost2010Prop57
140
1.0
102
RTVSPost2010PropOp57
 70
     1
102
RTVSPropertyOp0
 70
     1
102
RTVSPropertyOp1
 70
     1
102
RTVSPropertyOp2
 70
     1
102
RTVSPropertyOp3
 70
     1
102
RTVSPropertyOp4
 70
     1
102
RTVSPropertyOp5
 70
     1
102
RTVSPropertyOp6
 70
     1
102
RTVSPropertyOp7
 70
     1
102
RTVSPropertyOp8
 70
     1
102
RTVSPropertyOp9
 70
     1
102
RTVSPropertyOp10
 70
     1
102
RTVSPropertyOp11
 70
     1
102
RTVSPropertyOp12
 70
     1
102
RTVSPropertyOp13
 70
     1
102
RTVSPropertyOp14
 70
     1
102
RTVSPropertyOp15
 70
     1
102
RTVSPropertyOp16
 70
     1
102
RTVSPropertyOp17
 70
     1
102
RTVSPropertyOp18
 70
     1
102
RTVSPropertyOp19
 70
     1
102
RTVSPropertyOp20
 70
     1
102
RTVSPropertyOp21
 70
     1
102
RTVSPropertyOp22
 70
     1
102
RTVSPropertyOp23
 70
     1
102
RTVSPropertyOp24
 70
     1
102
RTVSPropertyOp25
 70
     1
102
RTVSPropertyOp26
 70
     1
102
RTVSPropertyOp27
 70
     1
102
RTVSPropertyOp28
 70
     1
102
RTVSPropertyOp29
 70
     1
102
RTVSPropertyOp30
 70
     1
102
RTVSPropertyOp31
 70
     1
102
RTVSPropertyOp32
 70
     1
102
RTVSPropertyOp33
 70
     1
102
RTVSPropertyOp34
 70
     1
102
RTVSPropertyOp35
 70
     1
102
RTVSPropertyOp36
 70
     1
102
RTVSPropertyOp37
 70
     1
102
RTVSPropertyOp38
 70
     1
102
RTVSPropertyOp39
 70
     1
102
RTVSPropertyOp40
 70
     1
102
RTVSPropertyOp41
 70
     1
102
RTVSPropertyOp42
 70
     1
102
RTVSPropertyOp43
 70
     1
102
RTVSPropertyOp44
 70
     1
102
RTVSPropertyOp45
 70
     1
102
RTVSPropertyOp46
 70
     1
102
RTVSPropertyOp47
 70
     1
102
RTVSPropertyOp48
 70
     1
102
RTVSPropertyOp49
 70
     1
102
RTVSPropertyOp50
 70
     1
102
RTVSPropertyOp51
 70
     0
102
RTVSPropertyOp52
 70
     0
102
RTVSPropertyOp53
 70
     1
102
RTVSPropertyOp54
 70
     1
102
RTVSPropertyOp55
 70
     1
102
RTVSPropertyOp56
 70
     1
102
RTVSPropertyOp57
 70
     1
102
RTVSPropertyOp58
 70
     1
102
RTVSPropertyOp59
 70
     1
102
RTVSPropertyOp60
 70
     1
102
RTVSPropertyOp61
 70
     1
102
RTVSPropertyOp62
 70
     1
  0
XRECORD
  5
AFD9
102
{ACAD_REACTORS
330
AFD8
102
}
330
AFD8
100
AcDbXrecord
280
     1
102
RTVSPost2010Prop28
280
     0
102
RTVSPost2010PropOp28
 70
     1
102
RTVSPost2010Prop29
280
     1
102
RTVSPost2010PropOp29
 70
     1
102
RTVSPost2010Prop30
280
     1
102
RTVSPost2010PropOp30
 70
     1
102
RTVSPost2010Prop31
280
     0
102
RTVSPost2010PropOp31
 70
     1
102
RTVSPost2010Prop32
280
     0
102
RTVSPost2010PropOp32
 70
     1
102
RTVSPost2010Prop33
280
     0
102
RTVSPost2010PropOp33
 70
     1
102
RTVSPost2010Prop34
280
     0
102
RTVSPost2010PropOp34
 70
     1
102
RTVSPost2010Prop35
280
     0
102
RTVSPost2010PropOp35
 70
     1
102
RTVSPost2010Prop36
280
     0
102
RTVSPost2010PropOp36
 70
     1
102
RTVSPost2010Prop37
 90
       50
102
RTVSPost2010PropOp37
 70
     1
102
RTVSPost2010Prop38
140
0.0
102
RTVSPost2010PropOp38
 70
     1
102
RTVSPost2010Prop39
140
1.0
102
RTVSPost2010PropOp39
 70
     1
102
RTVSPost2010Prop40
 90
        0
102
RTVSPost2010PropOp40
 70
     1
102
RTVSPost2010Prop41ColorIndex
 90
       18
102
RTVSPost2010Prop41ColorRGB
 90
        0
102
RTVSPost2010PropOp41
 70
     1
102
RTVSPost2010Prop42
 90
       50
102
RTVSPost2010PropOp42
 70
     1
102
RTVSPost2010Prop43
 90
        3
102
RTVSPost2010PropOp43
 70
     1
102
RTVSPost2010Prop44ColorIndex
 90
        5
102
RTVSPost2010Prop44ColorRGB
 90
      255
102
RTVSPost2010PropOp44
 70
     1
102
RTVSPost2010Prop45
280
     0
102
RTVSPost2010PropOp45
 70
     1
102
RTVSPost2010Prop46
 90
       50
102
RTVSPost2010PropOp46
 70
     1
102
RTVSPost2010Prop47
 90
       50
102
RTVSPost2010PropOp47
 70
     1
102
RTVSPost2010Prop48
 90
       50
102
RTVSPost2010PropOp48
 70
     1
102
RTVSPost2010Prop49
280
     0
102
RTVSPost2010PropOp49
 70
     1
102
RTVSPost2010Prop50
 90
       50
102
RTVSPost2010PropOp50
 70
     1
102
RTVSPost2010Prop51ColorIndex
 90
      256
102
RTVSPost2010Prop51ColorRGB
 90
-16777216
102
RTVSPost2010PropOp51
 70
     0
102
RTVSPost2010Prop52
140
1.0
102
RTVSPost2010PropOp52
 70
     0
102
RTVSPost2010Prop53
 90
        2
102
RTVSPost2010PropOp53
 70
     1
102
RTVSPost2010Prop54
  1
strokes_ogs.tif
102
RTVSPost2010PropOp54
 70
     1
102
RTVSPost2010Prop55
280
     0
102
RTVSPost2010PropOp55
 70
     1
102
RTVSPost2010Prop56
140
1.0
102
RTVSPost2010PropOp56
 70
     1
102
RTVSPost2010Prop57
140
1.0
102
RTVSPost2010PropOp57
 70
     1
102
RTVSPropertyOp0
 70
     1
102
RTVSPropertyOp1
 70
     1
102
RTVSPropertyOp2
 70
     1
102
RTVSPropertyOp3
 70
     1
102
RTVSPropertyOp4
 70
     1
102
RTVSPropertyOp5
 70
     1
102
RTVSPropertyOp6
 70
     1
102
RTVSPropertyOp7
 70
     1
102
RTVSPropertyOp8
 70
     1
102
RTVSPropertyOp9
 70
     1
102
RTVSPropertyOp10
 70
     1
102
RTVSPropertyOp11
 70
     1
102
RTVSPropertyOp12
 70
     1
102
RTVSPropertyOp13
 70
     1
102
RTVSPropertyOp14
 70
     1
102
RTVSPropertyOp15
 70
     1
102
RTVSPropertyOp16
 70
     1
102
RTVSPropertyOp17
 70
     1
102
RTVSPropertyOp18
 70
     1
102
RTVSPropertyOp19
 70
     1
102
RTVSPropertyOp20
 70
     1
102
RTVSPropertyOp21
 70
     1
102
RTVSPropertyOp22
 70
     1
102
RTVSPropertyOp23
 70
     1
102
RTVSPropertyOp24
 70
     1
102
RTVSPropertyOp25
 70
     1
102
RTVSPropertyOp26
 70
     1
102
RTVSPropertyOp27
 70
     1
102
RTVSPropertyOp28
 70
     1
102
RTVSPropertyOp29
 70
     1
102
RTVSPropertyOp30
 70
     1
102
RTVSPropertyOp31
 70
     1
102
RTVSPropertyOp32
 70
     1
102
RTVSPropertyOp33
 70
     1
102
RTVSPropertyOp34
 70
     1
102
RTVSPropertyOp35
 70
     1
102
RTVSPropertyOp36
 70
     1
102
RTVSPropertyOp37
 70
     1
102
RTVSPropertyOp38
 70
     1
102
RTVSPropertyOp39
 70
     1
102
RTVSPropertyOp40
 70
     1
102
RTVSPropertyOp41
 70
     1
102
RTVSPropertyOp42
 70
     1
102
RTVSPropertyOp43
 70
     1
102
RTVSPropertyOp44
 70
     1
102
RTVSPropertyOp45
 70
     1
102
RTVSPropertyOp46
 70
     1
102
RTVSPropertyOp47
 70
     1
102
RTVSPropertyOp48
 70
     1
102
RTVSPropertyOp49
 70
     1
102
RTVSPropertyOp50
 70
     1
102
RTVSPropertyOp51
 70
     0
102
RTVSPropertyOp52
 70
     0
102
RTVSPropertyOp53
 70
     1
102
RTVSPropertyOp54
 70
     1
102
RTVSPropertyOp55
 70
     1
102
RTVSPropertyOp56
 70
     1
102
RTVSPropertyOp57
 70
     1
102
RTVSPropertyOp58
 70
     1
102
RTVSPropertyOp59
 70
     1
102
RTVSPropertyOp60
 70
     1
102
RTVSPropertyOp61
 70
     1
102
RTVSPropertyOp62
 70
     1
  0
XRECORD
  5
AFD7
102
{ACAD_REACTORS
330
AFD6
102
}
330
AFD6
100
AcDbXrecord
280
     1
102
RTVSPost2010Prop28
280
     0
102
RTVSPost2010PropOp28
 70
     1
102
RTVSPost2010Prop29
280
     1
102
RTVSPost2010PropOp29
 70
     1
102
RTVSPost2010Prop30
280
     1
102
RTVSPost2010PropOp30
 70
     1
102
RTVSPost2010Prop31
280
     0
102
RTVSPost2010PropOp31
 70
     1
102
RTVSPost2010Prop32
280
     0
102
RTVSPost2010PropOp32
 70
     1
102
RTVSPost2010Prop33
280
     0
102
RTVSPost2010PropOp33
 70
     1
102
RTVSPost2010Prop34
280
     0
102
RTVSPost2010PropOp34
 70
     1
102
RTVSPost2010Prop35
280
     0
102
RTVSPost2010PropOp35
 70
     1
102
RTVSPost2010Prop36
280
     0
102
RTVSPost2010PropOp36
 70
     1
102
RTVSPost2010Prop37
 90
       50
102
RTVSPost2010PropOp37
 70
     1
102
RTVSPost2010Prop38
140
0.0
102
RTVSPost2010PropOp38
 70
     1
102
RTVSPost2010Prop39
140
1.0
102
RTVSPost2010PropOp39
 70
     1
102
RTVSPost2010Prop40
 90
        0
102
RTVSPost2010PropOp40
 70
     1
102
RTVSPost2010Prop41ColorIndex
 90
       18
102
RTVSPost2010Prop41ColorRGB
 90
        0
102
RTVSPost2010PropOp41
 70
     1
102
RTVSPost2010Prop42
 90
       50
102
RTVSPost2010PropOp42
 70
     1
102
RTVSPost2010Prop43
 90
        3
102
RTVSPost2010PropOp43
 70
     1
102
RTVSPost2010Prop44ColorIndex
 90
        5
102
RTVSPost2010Prop44ColorRGB
 90
      255
102
RTVSPost2010PropOp44
 70
     1
102
RTVSPost2010Prop45
280
     0
102
RTVSPost2010PropOp45
 70
     1
102
RTVSPost2010Prop46
 90
       50
102
RTVSPost2010PropOp46
 70
     1
102
RTVSPost2010Prop47
 90
       50
102
RTVSPost2010PropOp47
 70
     1
102
RTVSPost2010Prop48
 90
       50
102
RTVSPost2010PropOp48
 70
     1
102
RTVSPost2010Prop49
280
     0
102
RTVSPost2010PropOp49
 70
     1
102
RTVSPost2010Prop50
 90
       50
102
RTVSPost2010PropOp50
 70
     1
102
RTVSPost2010Prop51ColorIndex
 90
      256
102
RTVSPost2010Prop51ColorRGB
 90
-16777216
102
RTVSPost2010PropOp51
 70
     0
102
RTVSPost2010Prop52
140
1.0
102
RTVSPost2010PropOp52
 70
     0
102
RTVSPost2010Prop53
 90
        2
102
RTVSPost2010PropOp53
 70
     1
102
RTVSPost2010Prop54
  1
strokes_ogs.tif
102
RTVSPost2010PropOp54
 70
     1
102
RTVSPost2010Prop55
280
     0
102
RTVSPost2010PropOp55
 70
     1
102
RTVSPost2010Prop56
140
1.0
102
RTVSPost2010PropOp56
 70
     1
102
RTVSPost2010Prop57
140
1.0
102
RTVSPost2010PropOp57
 70
     1
102
RTVSPropertyOp0
 70
     1
102
RTVSPropertyOp1
 70
     1
102
RTVSPropertyOp2
 70
     1
102
RTVSPropertyOp3
 70
     1
102
RTVSPropertyOp4
 70
     1
102
RTVSPropertyOp5
 70
     1
102
RTVSPropertyOp6
 70
     1
102
RTVSPropertyOp7
 70
     1
102
RTVSPropertyOp8
 70
     1
102
RTVSPropertyOp9
 70
     1
102
RTVSPropertyOp10
 70
     1
102
RTVSPropertyOp11
 70
     1
102
RTVSPropertyOp12
 70
     1
102
RTVSPropertyOp13
 70
     1
102
RTVSPropertyOp14
 70
     1
102
RTVSPropertyOp15
 70
     1
102
RTVSPropertyOp16
 70
     1
102
RTVSPropertyOp17
 70
     1
102
RTVSPropertyOp18
 70
     1
102
RTVSPropertyOp19
 70
     1
102
RTVSPropertyOp20
 70
     1
102
RTVSPropertyOp21
 70
     1
102
RTVSPropertyOp22
 70
     1
102
RTVSPropertyOp23
 70
     1
102
RTVSPropertyOp24
 70
     1
102
RTVSPropertyOp25
 70
     1
102
RTVSPropertyOp26
 70
     1
102
RTVSPropertyOp27
 70
     1
102
RTVSPropertyOp28
 70
     1
102
RTVSPropertyOp29
 70
     1
102
RTVSPropertyOp30
 70
     1
102
RTVSPropertyOp31
 70
     1
102
RTVSPropertyOp32
 70
     1
102
RTVSPropertyOp33
 70
     1
102
RTVSPropertyOp34
 70
     1
102
RTVSPropertyOp35
 70
     1
102
RTVSPropertyOp36
 70
     1
102
RTVSPropertyOp37
 70
     1
102
RTVSPropertyOp38
 70
     1
102
RTVSPropertyOp39
 70
     1
102
RTVSPropertyOp40
 70
     1
102
RTVSPropertyOp41
 70
     1
102
RTVSPropertyOp42
 70
     1
102
RTVSPropertyOp43
 70
     1
102
RTVSPropertyOp44
 70
     1
102
RTVSPropertyOp45
 70
     1
102
RTVSPropertyOp46
 70
     1
102
RTVSPropertyOp47
 70
     1
102
RTVSPropertyOp48
 70
     1
102
RTVSPropertyOp49
 70
     1
102
RTVSPropertyOp50
 70
     1
102
RTVSPropertyOp51
 70
     0
102
RTVSPropertyOp52
 70
     0
102
RTVSPropertyOp53
 70
     1
102
RTVSPropertyOp54
 70
     1
102
RTVSPropertyOp55
 70
     1
102
RTVSPropertyOp56
 70
     1
102
RTVSPropertyOp57
 70
     1
102
RTVSPropertyOp58
 70
     1
102
RTVSPropertyOp59
 70
     1
102
RTVSPropertyOp60
 70
     1
102
RTVSPropertyOp61
 70
     1
102
RTVSPropertyOp62
 70
     1
  0
XRECORD
  5
AFD1
102
{ACAD_REACTORS
330
AFD0
102
}
330
AFD0
100
AcDbXrecord
280
     1
102
RTVSPost2010Prop28
280
     0
102
RTVSPost2010PropOp28
 70
     1
102
RTVSPost2010Prop29
280
     1
102
RTVSPost2010PropOp29
 70
     1
102
RTVSPost2010Prop30
280
     1
102
RTVSPost2010PropOp30
 70
     1
102
RTVSPost2010Prop31
280
     0
102
RTVSPost2010PropOp31
 70
     1
102
RTVSPost2010Prop32
280
     0
102
RTVSPost2010PropOp32
 70
     1
102
RTVSPost2010Prop33
280
     0
102
RTVSPost2010PropOp33
 70
     1
102
RTVSPost2010Prop34
280
     0
102
RTVSPost2010PropOp34
 70
     1
102
RTVSPost2010Prop35
280
     0
102
RTVSPost2010PropOp35
 70
     1
102
RTVSPost2010Prop36
280
     0
102
RTVSPost2010PropOp36
 70
     1
102
RTVSPost2010Prop37
 90
       50
102
RTVSPost2010PropOp37
 70
     1
102
RTVSPost2010Prop38
140
0.0
102
RTVSPost2010PropOp38
 70
     1
102
RTVSPost2010Prop39
140
1.0
102
RTVSPost2010PropOp39
 70
     1
102
RTVSPost2010Prop40
 90
        0
102
RTVSPost2010PropOp40
 70
     1
102
RTVSPost2010Prop41ColorIndex
 90
       18
102
RTVSPost2010Prop41ColorRGB
 90
        0
102
RTVSPost2010PropOp41
 70
     1
102
RTVSPost2010Prop42
 90
       50
102
RTVSPost2010PropOp42
 70
     1
102
RTVSPost2010Prop43
 90
        3
102
RTVSPost2010PropOp43
 70
     1
102
RTVSPost2010Prop44ColorIndex
 90
        5
102
RTVSPost2010Prop44ColorRGB
 90
      255
102
RTVSPost2010PropOp44
 70
     1
102
RTVSPost2010Prop45
280
     0
102
RTVSPost2010PropOp45
 70
     1
102
RTVSPost2010Prop46
 90
       50
102
RTVSPost2010PropOp46
 70
     1
102
RTVSPost2010Prop47
 90
       50
102
RTVSPost2010PropOp47
 70
     1
102
RTVSPost2010Prop48
 90
       50
102
RTVSPost2010PropOp48
 70
     1
102
RTVSPost2010Prop49
280
     0
102
RTVSPost2010PropOp49
 70
     1
102
RTVSPost2010Prop50
 90
       50
102
RTVSPost2010PropOp50
 70
     1
102
RTVSPost2010Prop51ColorIndex
 90
      256
102
RTVSPost2010Prop51ColorRGB
 90
-16777216
102
RTVSPost2010PropOp51
 70
     0
102
RTVSPost2010Prop52
140
1.0
102
RTVSPost2010PropOp52
 70
     0
102
RTVSPost2010Prop53
 90
        2
102
RTVSPost2010PropOp53
 70
     1
102
RTVSPost2010Prop54
  1
strokes_ogs.tif
102
RTVSPost2010PropOp54
 70
     1
102
RTVSPost2010Prop55
280
     0
102
RTVSPost2010PropOp55
 70
     1
102
RTVSPost2010Prop56
140
1.0
102
RTVSPost2010PropOp56
 70
     1
102
RTVSPost2010Prop57
140
1.0
102
RTVSPost2010PropOp57
 70
     1
102
RTVSPropertyOp0
 70
     1
102
RTVSPropertyOp1
 70
     1
102
RTVSPropertyOp2
 70
     1
102
RTVSPropertyOp3
 70
     1
102
RTVSPropertyOp4
 70
     1
102
RTVSPropertyOp5
 70
     1
102
RTVSPropertyOp6
 70
     1
102
RTVSPropertyOp7
 70
     1
102
RTVSPropertyOp8
 70
     1
102
RTVSPropertyOp9
 70
     1
102
RTVSPropertyOp10
 70
     1
102
RTVSPropertyOp11
 70
     1
102
RTVSPropertyOp12
 70
     1
102
RTVSPropertyOp13
 70
     1
102
RTVSPropertyOp14
 70
     1
102
RTVSPropertyOp15
 70
     1
102
RTVSPropertyOp16
 70
     1
102
RTVSPropertyOp17
 70
     1
102
RTVSPropertyOp18
 70
     1
102
RTVSPropertyOp19
 70
     1
102
RTVSPropertyOp20
 70
     1
102
RTVSPropertyOp21
 70
     1
102
RTVSPropertyOp22
 70
     1
102
RTVSPropertyOp23
 70
     1
102
RTVSPropertyOp24
 70
     1
102
RTVSPropertyOp25
 70
     1
102
RTVSPropertyOp26
 70
     1
102
RTVSPropertyOp27
 70
     1
102
RTVSPropertyOp28
 70
     1
102
RTVSPropertyOp29
 70
     1
102
RTVSPropertyOp30
 70
     1
102
RTVSPropertyOp31
 70
     1
102
RTVSPropertyOp32
 70
     1
102
RTVSPropertyOp33
 70
     1
102
RTVSPropertyOp34
 70
     1
102
RTVSPropertyOp35
 70
     1
102
RTVSPropertyOp36
 70
     1
102
RTVSPropertyOp37
 70
     1
102
RTVSPropertyOp38
 70
     1
102
RTVSPropertyOp39
 70
     1
102
RTVSPropertyOp40
 70
     1
102
RTVSPropertyOp41
 70
     1
102
RTVSPropertyOp42
 70
     1
102
RTVSPropertyOp43
 70
     1
102
RTVSPropertyOp44
 70
     1
102
RTVSPropertyOp45
 70
     1
102
RTVSPropertyOp46
 70
     1
102
RTVSPropertyOp47
 70
     1
102
RTVSPropertyOp48
 70
     1
102
RTVSPropertyOp49
 70
     1
102
RTVSPropertyOp50
 70
     1
102
RTVSPropertyOp51
 70
     0
102
RTVSPropertyOp52
 70
     0
102
RTVSPropertyOp53
 70
     1
102
RTVSPropertyOp54
 70
     1
102
RTVSPropertyOp55
 70
     1
102
RTVSPropertyOp56
 70
     1
102
RTVSPropertyOp57
 70
     1
102
RTVSPropertyOp58
 70
     1
102
RTVSPropertyOp59
 70
     1
102
RTVSPropertyOp60
 70
     1
102
RTVSPropertyOp61
 70
     1
102
RTVSPropertyOp62
 70
     1
  0
XRECORD
  5
AFD3
102
{ACAD_REACTORS
330
AFD2
102
}
330
AFD2
100
AcDbXrecord
280
     1
102
RTVSPost2010Prop28
280
     0
102
RTVSPost2010PropOp28
 70
     1
102
RTVSPost2010Prop29
280
     1
102
RTVSPost2010PropOp29
 70
     1
102
RTVSPost2010Prop30
280
     1
102
RTVSPost2010PropOp30
 70
     1
102
RTVSPost2010Prop31
280
     0
102
RTVSPost2010PropOp31
 70
     1
102
RTVSPost2010Prop32
280
     0
102
RTVSPost2010PropOp32
 70
     1
102
RTVSPost2010Prop33
280
     0
102
RTVSPost2010PropOp33
 70
     1
102
RTVSPost2010Prop34
280
     0
102
RTVSPost2010PropOp34
 70
     1
102
RTVSPost2010Prop35
280
     0
102
RTVSPost2010PropOp35
 70
     1
102
RTVSPost2010Prop36
280
     0
102
RTVSPost2010PropOp36
 70
     1
102
RTVSPost2010Prop37
 90
       50
102
RTVSPost2010PropOp37
 70
     1
102
RTVSPost2010Prop38
140
0.0
102
RTVSPost2010PropOp38
 70
     1
102
RTVSPost2010Prop39
140
1.0
102
RTVSPost2010PropOp39
 70
     1
102
RTVSPost2010Prop40
 90
        0
102
RTVSPost2010PropOp40
 70
     1
102
RTVSPost2010Prop41ColorIndex
 90
       18
102
RTVSPost2010Prop41ColorRGB
 90
        0
102
RTVSPost2010PropOp41
 70
     1
102
RTVSPost2010Prop42
 90
       50
102
RTVSPost2010PropOp42
 70
     1
102
RTVSPost2010Prop43
 90
        3
102
RTVSPost2010PropOp43
 70
     1
102
RTVSPost2010Prop44ColorIndex
 90
        5
102
RTVSPost2010Prop44ColorRGB
 90
      255
102
RTVSPost2010PropOp44
 70
     1
102
RTVSPost2010Prop45
280
     0
102
RTVSPost2010PropOp45
 70
     1
102
RTVSPost2010Prop46
 90
       50
102
RTVSPost2010PropOp46
 70
     1
102
RTVSPost2010Prop47
 90
       50
102
RTVSPost2010PropOp47
 70
     1
102
RTVSPost2010Prop48
 90
       50
102
RTVSPost2010PropOp48
 70
     1
102
RTVSPost2010Prop49
280
     0
102
RTVSPost2010PropOp49
 70
     1
102
RTVSPost2010Prop50
 90
       50
102
RTVSPost2010PropOp50
 70
     1
102
RTVSPost2010Prop51ColorIndex
 90
      256
102
RTVSPost2010Prop51ColorRGB
 90
-16777216
102
RTVSPost2010PropOp51
 70
     0
102
RTVSPost2010Prop52
140
1.0
102
RTVSPost2010PropOp52
 70
     0
102
RTVSPost2010Prop53
 90
        2
102
RTVSPost2010PropOp53
 70
     1
102
RTVSPost2010Prop54
  1
strokes_ogs.tif
102
RTVSPost2010PropOp54
 70
     1
102
RTVSPost2010Prop55
280
     0
102
RTVSPost2010PropOp55
 70
     1
102
RTVSPost2010Prop56
140
1.0
102
RTVSPost2010PropOp56
 70
     1
102
RTVSPost2010Prop57
140
1.0
102
RTVSPost2010PropOp57
 70
     1
102
RTVSPropertyOp0
 70
     1
102
RTVSPropertyOp1
 70
     1
102
RTVSPropertyOp2
 70
     1
102
RTVSPropertyOp3
 70
     1
102
RTVSPropertyOp4
 70
     1
102
RTVSPropertyOp5
 70
     1
102
RTVSPropertyOp6
 70
     1
102
RTVSPropertyOp7
 70
     1
102
RTVSPropertyOp8
 70
     1
102
RTVSPropertyOp9
 70
     1
102
RTVSPropertyOp10
 70
     1
102
RTVSPropertyOp11
 70
     1
102
RTVSPropertyOp12
 70
     1
102
RTVSPropertyOp13
 70
     1
102
RTVSPropertyOp14
 70
     1
102
RTVSPropertyOp15
 70
     1
102
RTVSPropertyOp16
 70
     1
102
RTVSPropertyOp17
 70
     1
102
RTVSPropertyOp18
 70
     1
102
RTVSPropertyOp19
 70
     1
102
RTVSPropertyOp20
 70
     1
102
RTVSPropertyOp21
 70
     1
102
RTVSPropertyOp22
 70
     1
102
RTVSPropertyOp23
 70
     1
102
RTVSPropertyOp24
 70
     1
102
RTVSPropertyOp25
 70
     1
102
RTVSPropertyOp26
 70
     1
102
RTVSPropertyOp27
 70
     1
102
RTVSPropertyOp28
 70
     1
102
RTVSPropertyOp29
 70
     1
102
RTVSPropertyOp30
 70
     1
102
RTVSPropertyOp31
 70
     1
102
RTVSPropertyOp32
 70
     1
102
RTVSPropertyOp33
 70
     1
102
RTVSPropertyOp34
 70
     1
102
RTVSPropertyOp35
 70
     1
102
RTVSPropertyOp36
 70
     1
102
RTVSPropertyOp37
 70
     1
102
RTVSPropertyOp38
 70
     1
102
RTVSPropertyOp39
 70
     1
102
RTVSPropertyOp40
 70
     1
102
RTVSPropertyOp41
 70
     1
102
RTVSPropertyOp42
 70
     1
102
RTVSPropertyOp43
 70
     1
102
RTVSPropertyOp44
 70
     1
102
RTVSPropertyOp45
 70
     1
102
RTVSPropertyOp46
 70
     1
102
RTVSPropertyOp47
 70
     1
102
RTVSPropertyOp48
 70
     1
102
RTVSPropertyOp49
 70
     1
102
RTVSPropertyOp50
 70
     1
102
RTVSPropertyOp51
 70
     0
102
RTVSPropertyOp52
 70
     0
102
RTVSPropertyOp53
 70
     1
102
RTVSPropertyOp54
 70
     1
102
RTVSPropertyOp55
 70
     1
102
RTVSPropertyOp56
 70
     1
102
RTVSPropertyOp57
 70
     1
102
RTVSPropertyOp58
 70
     1
102
RTVSPropertyOp59
 70
     1
102
RTVSPropertyOp60
 70
     1
102
RTVSPropertyOp61
 70
     1
102
RTVSPropertyOp62
 70
     1
  0
XRECORD
  5
AFC9
102
{ACAD_REACTORS
330
AFC8
102
}
330
AFC8
100
AcDbXrecord
280
     1
102
RTVSPost2010Prop28
280
     0
102
RTVSPost2010PropOp28
 70
     1
102
RTVSPost2010Prop29
280
     1
102
RTVSPost2010PropOp29
 70
     1
102
RTVSPost2010Prop30
280
     1
102
RTVSPost2010PropOp30
 70
     1
102
RTVSPost2010Prop31
280
     0
102
RTVSPost2010PropOp31
 70
     1
102
RTVSPost2010Prop32
280
     0
102
RTVSPost2010PropOp32
 70
     1
102
RTVSPost2010Prop33
280
     0
102
RTVSPost2010PropOp33
 70
     1
102
RTVSPost2010Prop34
280
     0
102
RTVSPost2010PropOp34
 70
     1
102
RTVSPost2010Prop35
280
     0
102
RTVSPost2010PropOp35
 70
     1
102
RTVSPost2010Prop36
280
     0
102
RTVSPost2010PropOp36
 70
     1
102
RTVSPost2010Prop37
 90
       50
102
RTVSPost2010PropOp37
 70
     1
102
RTVSPost2010Prop38
140
0.0
102
RTVSPost2010PropOp38
 70
     1
102
RTVSPost2010Prop39
140
1.0
102
RTVSPost2010PropOp39
 70
     1
102
RTVSPost2010Prop40
 90
        0
102
RTVSPost2010PropOp40
 70
     1
102
RTVSPost2010Prop41ColorIndex
 90
       18
102
RTVSPost2010Prop41ColorRGB
 90
        0
102
RTVSPost2010PropOp41
 70
     1
102
RTVSPost2010Prop42
 90
       50
102
RTVSPost2010PropOp42
 70
     1
102
RTVSPost2010Prop43
 90
        3
102
RTVSPost2010PropOp43
 70
     1
102
RTVSPost2010Prop44ColorIndex
 90
        5
102
RTVSPost2010Prop44ColorRGB
 90
      255
102
RTVSPost2010PropOp44
 70
     1
102
RTVSPost2010Prop45
280
     0
102
RTVSPost2010PropOp45
 70
     1
102
RTVSPost2010Prop46
 90
       50
102
RTVSPost2010PropOp46
 70
     1
102
RTVSPost2010Prop47
 90
       50
102
RTVSPost2010PropOp47
 70
     1
102
RTVSPost2010Prop48
 90
       50
102
RTVSPost2010PropOp48
 70
     1
102
RTVSPost2010Prop49
280
     0
102
RTVSPost2010PropOp49
 70
     1
102
RTVSPost2010Prop50
 90
       50
102
RTVSPost2010PropOp50
 70
     1
102
RTVSPost2010Prop51ColorIndex
 90
      256
102
RTVSPost2010Prop51ColorRGB
 90
-16777216
102
RTVSPost2010PropOp51
 70
     0
102
RTVSPost2010Prop52
140
1.0
102
RTVSPost2010PropOp52
 70
     0
102
RTVSPost2010Prop53
 90
        2
102
RTVSPost2010PropOp53
 70
     1
102
RTVSPost2010Prop54
  1
strokes_ogs.tif
102
RTVSPost2010PropOp54
 70
     1
102
RTVSPost2010Prop55
280
     0
102
RTVSPost2010PropOp55
 70
     1
102
RTVSPost2010Prop56
140
1.0
102
RTVSPost2010PropOp56
 70
     1
102
RTVSPost2010Prop57
140
1.0
102
RTVSPost2010PropOp57
 70
     1
102
RTVSPropertyOp0
 70
     1
102
RTVSPropertyOp1
 70
     1
102
RTVSPropertyOp2
 70
     1
102
RTVSPropertyOp3
 70
     1
102
RTVSPropertyOp4
 70
     1
102
RTVSPropertyOp5
 70
     1
102
RTVSPropertyOp6
 70
     1
102
RTVSPropertyOp7
 70
     1
102
RTVSPropertyOp8
 70
     1
102
RTVSPropertyOp9
 70
     1
102
RTVSPropertyOp10
 70
     1
102
RTVSPropertyOp11
 70
     1
102
RTVSPropertyOp12
 70
     1
102
RTVSPropertyOp13
 70
     1
102
RTVSPropertyOp14
 70
     1
102
RTVSPropertyOp15
 70
     1
102
RTVSPropertyOp16
 70
     1
102
RTVSPropertyOp17
 70
     1
102
RTVSPropertyOp18
 70
     1
102
RTVSPropertyOp19
 70
     1
102
RTVSPropertyOp20
 70
     1
102
RTVSPropertyOp21
 70
     1
102
RTVSPropertyOp22
 70
     1
102
RTVSPropertyOp23
 70
     1
102
RTVSPropertyOp24
 70
     1
102
RTVSPropertyOp25
 70
     1
102
RTVSPropertyOp26
 70
     1
102
RTVSPropertyOp27
 70
     1
102
RTVSPropertyOp28
 70
     1
102
RTVSPropertyOp29
 70
     1
102
RTVSPropertyOp30
 70
     1
102
RTVSPropertyOp31
 70
     1
102
RTVSPropertyOp32
 70
     1
102
RTVSPropertyOp33
 70
     1
102
RTVSPropertyOp34
 70
     1
102
RTVSPropertyOp35
 70
     1
102
RTVSPropertyOp36
 70
     1
102
RTVSPropertyOp37
 70
     1
102
RTVSPropertyOp38
 70
     1
102
RTVSPropertyOp39
 70
     1
102
RTVSPropertyOp40
 70
     1
102
RTVSPropertyOp41
 70
     1
102
RTVSPropertyOp42
 70
     1
102
RTVSPropertyOp43
 70
     1
102
RTVSPropertyOp44
 70
     1
102
RTVSPropertyOp45
 70
     1
102
RTVSPropertyOp46
 70
     1
102
RTVSPropertyOp47
 70
     1
102
RTVSPropertyOp48
 70
     1
102
RTVSPropertyOp49
 70
     1
102
RTVSPropertyOp50
 70
     1
102
RTVSPropertyOp51
 70
     0
102
RTVSPropertyOp52
 70
     0
102
RTVSPropertyOp53
 70
     1
102
RTVSPropertyOp54
 70
     1
102
RTVSPropertyOp55
 70
     1
102
RTVSPropertyOp56
 70
     1
102
RTVSPropertyOp57
 70
     1
102
RTVSPropertyOp58
 70
     1
102
RTVSPropertyOp59
 70
     1
102
RTVSPropertyOp60
 70
     1
102
RTVSPropertyOp61
 70
     1
102
RTVSPropertyOp62
 70
     1
  0
XRECORD
  5
AFBD
102
{ACAD_REACTORS
330
AFBC
102
}
330
AFBC
100
AcDbXrecord
280
     1
102
RTVSPost2010Prop28
280
     0
102
RTVSPost2010PropOp28
 70
     1
102
RTVSPost2010Prop29
280
     1
102
RTVSPost2010PropOp29
 70
     1
102
RTVSPost2010Prop30
280
     1
102
RTVSPost2010PropOp30
 70
     1
102
RTVSPost2010Prop31
280
     0
102
RTVSPost2010PropOp31
 70
     1
102
RTVSPost2010Prop32
280
     0
102
RTVSPost2010PropOp32
 70
     1
102
RTVSPost2010Prop33
280
     0
102
RTVSPost2010PropOp33
 70
     1
102
RTVSPost2010Prop34
280
     0
102
RTVSPost2010PropOp34
 70
     1
102
RTVSPost2010Prop35
280
     0
102
RTVSPost2010PropOp35
 70
     1
102
RTVSPost2010Prop36
280
     0
102
RTVSPost2010PropOp36
 70
     1
102
RTVSPost2010Prop37
 90
       50
102
RTVSPost2010PropOp37
 70
     1
102
RTVSPost2010Prop38
140
0.0
102
RTVSPost2010PropOp38
 70
     1
102
RTVSPost2010Prop39
140
1.0
102
RTVSPost2010PropOp39
 70
     1
102
RTVSPost2010Prop40
 90
        0
102
RTVSPost2010PropOp40
 70
     1
102
RTVSPost2010Prop41ColorIndex
 90
       18
102
RTVSPost2010Prop41ColorRGB
 90
        0
102
RTVSPost2010PropOp41
 70
     1
102
RTVSPost2010Prop42
 90
       50
102
RTVSPost2010PropOp42
 70
     1
102
RTVSPost2010Prop43
 90
        3
102
RTVSPost2010PropOp43
 70
     1
102
RTVSPost2010Prop44ColorIndex
 90
        5
102
RTVSPost2010Prop44ColorRGB
 90
      255
102
RTVSPost2010PropOp44
 70
     1
102
RTVSPost2010Prop45
280
     0
102
RTVSPost2010PropOp45
 70
     1
102
RTVSPost2010Prop46
 90
       50
102
RTVSPost2010PropOp46
 70
     1
102
RTVSPost2010Prop47
 90
       50
102
RTVSPost2010PropOp47
 70
     1
102
RTVSPost2010Prop48
 90
       50
102
RTVSPost2010PropOp48
 70
     1
102
RTVSPost2010Prop49
280
     0
102
RTVSPost2010PropOp49
 70
     1
102
RTVSPost2010Prop50
 90
       50
102
RTVSPost2010PropOp50
 70
     1
102
RTVSPost2010Prop51ColorIndex
 90
      256
102
RTVSPost2010Prop51ColorRGB
 90
-16777216
102
RTVSPost2010PropOp51
 70
     0
102
RTVSPost2010Prop52
140
1.0
102
RTVSPost2010PropOp52
 70
     0
102
RTVSPost2010Prop53
 90
        2
102
RTVSPost2010PropOp53
 70
     1
102
RTVSPost2010Prop54
  1
strokes_ogs.tif
102
RTVSPost2010PropOp54
 70
     1
102
RTVSPost2010Prop55
280
     0
102
RTVSPost2010PropOp55
 70
     1
102
RTVSPost2010Prop56
140
1.0
102
RTVSPost2010PropOp56
 70
     1
102
RTVSPost2010Prop57
140
1.0
102
RTVSPost2010PropOp57
 70
     1
102
RTVSPropertyOp0
 70
     1
102
RTVSPropertyOp1
 70
     1
102
RTVSPropertyOp2
 70
     1
102
RTVSPropertyOp3
 70
     1
102
RTVSPropertyOp4
 70
     1
102
RTVSPropertyOp5
 70
     1
102
RTVSPropertyOp6
 70
     1
102
RTVSPropertyOp7
 70
     1
102
RTVSPropertyOp8
 70
     1
102
RTVSPropertyOp9
 70
     1
102
RTVSPropertyOp10
 70
     1
102
RTVSPropertyOp11
 70
     1
102
RTVSPropertyOp12
 70
     1
102
RTVSPropertyOp13
 70
     1
102
RTVSPropertyOp14
 70
     1
102
RTVSPropertyOp15
 70
     1
102
RTVSPropertyOp16
 70
     1
102
RTVSPropertyOp17
 70
     1
102
RTVSPropertyOp18
 70
     1
102
RTVSPropertyOp19
 70
     1
102
RTVSPropertyOp20
 70
     1
102
RTVSPropertyOp21
 70
     1
102
RTVSPropertyOp22
 70
     1
102
RTVSPropertyOp23
 70
     1
102
RTVSPropertyOp24
 70
     1
102
RTVSPropertyOp25
 70
     1
102
RTVSPropertyOp26
 70
     1
102
RTVSPropertyOp27
 70
     1
102
RTVSPropertyOp28
 70
     1
102
RTVSPropertyOp29
 70
     1
102
RTVSPropertyOp30
 70
     1
102
RTVSPropertyOp31
 70
     1
102
RTVSPropertyOp32
 70
     1
102
RTVSPropertyOp33
 70
     1
102
RTVSPropertyOp34
 70
     1
102
RTVSPropertyOp35
 70
     1
102
RTVSPropertyOp36
 70
     1
102
RTVSPropertyOp37
 70
     1
102
RTVSPropertyOp38
 70
     1
102
RTVSPropertyOp39
 70
     1
102
RTVSPropertyOp40
 70
     1
102
RTVSPropertyOp41
 70
     1
102
RTVSPropertyOp42
 70
     1
102
RTVSPropertyOp43
 70
     1
102
RTVSPropertyOp44
 70
     1
102
RTVSPropertyOp45
 70
     1
102
RTVSPropertyOp46
 70
     1
102
RTVSPropertyOp47
 70
     1
102
RTVSPropertyOp48
 70
     1
102
RTVSPropertyOp49
 70
     1
102
RTVSPropertyOp50
 70
     1
102
RTVSPropertyOp51
 70
     0
102
RTVSPropertyOp52
 70
     0
102
RTVSPropertyOp53
 70
     1
102
RTVSPropertyOp54
 70
     1
102
RTVSPropertyOp55
 70
     1
102
RTVSPropertyOp56
 70
     1
102
RTVSPropertyOp57
 70
     1
102
RTVSPropertyOp58
 70
     1
102
RTVSPropertyOp59
 70
     1
102
RTVSPropertyOp60
 70
     1
102
RTVSPropertyOp61
 70
     1
102
RTVSPropertyOp62
 70
     1
  0
XRECORD
  5
AFD5
102
{ACAD_REACTORS
330
AFD4
102
}
330
AFD4
100
AcDbXrecord
280
     1
102
RTVSPost2010Prop28
280
     0
102
RTVSPost2010PropOp28
 70
     1
102
RTVSPost2010Prop29
280
     1
102
RTVSPost2010PropOp29
 70
     1
102
RTVSPost2010Prop30
280
     1
102
RTVSPost2010PropOp30
 70
     1
102
RTVSPost2010Prop31
280
     0
102
RTVSPost2010PropOp31
 70
     1
102
RTVSPost2010Prop32
280
     0
102
RTVSPost2010PropOp32
 70
     1
102
RTVSPost2010Prop33
280
     0
102
RTVSPost2010PropOp33
 70
     1
102
RTVSPost2010Prop34
280
     0
102
RTVSPost2010PropOp34
 70
     1
102
RTVSPost2010Prop35
280
     0
102
RTVSPost2010PropOp35
 70
     1
102
RTVSPost2010Prop36
280
     0
102
RTVSPost2010PropOp36
 70
     1
102
RTVSPost2010Prop37
 90
       50
102
RTVSPost2010PropOp37
 70
     1
102
RTVSPost2010Prop38
140
0.0
102
RTVSPost2010PropOp38
 70
     1
102
RTVSPost2010Prop39
140
1.0
102
RTVSPost2010PropOp39
 70
     1
102
RTVSPost2010Prop40
 90
        0
102
RTVSPost2010PropOp40
 70
     1
102
RTVSPost2010Prop41ColorIndex
 90
       18
102
RTVSPost2010Prop41ColorRGB
 90
        0
102
RTVSPost2010PropOp41
 70
     1
102
RTVSPost2010Prop42
 90
       50
102
RTVSPost2010PropOp42
 70
     1
102
RTVSPost2010Prop43
 90
        3
102
RTVSPost2010PropOp43
 70
     1
102
RTVSPost2010Prop44ColorIndex
 90
        5
102
RTVSPost2010Prop44ColorRGB
 90
      255
102
RTVSPost2010PropOp44
 70
     1
102
RTVSPost2010Prop45
280
     0
102
RTVSPost2010PropOp45
 70
     1
102
RTVSPost2010Prop46
 90
       50
102
RTVSPost2010PropOp46
 70
     1
102
RTVSPost2010Prop47
 90
       50
102
RTVSPost2010PropOp47
 70
     1
102
RTVSPost2010Prop48
 90
       50
102
RTVSPost2010PropOp48
 70
     1
102
RTVSPost2010Prop49
280
     0
102
RTVSPost2010PropOp49
 70
     1
102
RTVSPost2010Prop50
 90
       50
102
RTVSPost2010PropOp50
 70
     1
102
RTVSPost2010Prop51ColorIndex
 90
      256
102
RTVSPost2010Prop51ColorRGB
 90
-16777216
102
RTVSPost2010PropOp51
 70
     0
102
RTVSPost2010Prop52
140
1.0
102
RTVSPost2010PropOp52
 70
     0
102
RTVSPost2010Prop53
 90
        2
102
RTVSPost2010PropOp53
 70
     1
102
RTVSPost2010Prop54
  1
strokes_ogs.tif
102
RTVSPost2010PropOp54
 70
     1
102
RTVSPost2010Prop55
280
     0
102
RTVSPost2010PropOp55
 70
     1
102
RTVSPost2010Prop56
140
1.0
102
RTVSPost2010PropOp56
 70
     1
102
RTVSPost2010Prop57
140
1.0
102
RTVSPost2010PropOp57
 70
     1
102
RTVSPropertyOp0
 70
     1
102
RTVSPropertyOp1
 70
     1
102
RTVSPropertyOp2
 70
     1
102
RTVSPropertyOp3
 70
     1
102
RTVSPropertyOp4
 70
     1
102
RTVSPropertyOp5
 70
     1
102
RTVSPropertyOp6
 70
     1
102
RTVSPropertyOp7
 70
     1
102
RTVSPropertyOp8
 70
     1
102
RTVSPropertyOp9
 70
     1
102
RTVSPropertyOp10
 70
     1
102
RTVSPropertyOp11
 70
     1
102
RTVSPropertyOp12
 70
     1
102
RTVSPropertyOp13
 70
     1
102
RTVSPropertyOp14
 70
     1
102
RTVSPropertyOp15
 70
     1
102
RTVSPropertyOp16
 70
     1
102
RTVSPropertyOp17
 70
     1
102
RTVSPropertyOp18
 70
     1
102
RTVSPropertyOp19
 70
     1
102
RTVSPropertyOp20
 70
     1
102
RTVSPropertyOp21
 70
     1
102
RTVSPropertyOp22
 70
     1
102
RTVSPropertyOp23
 70
     1
102
RTVSPropertyOp24
 70
     1
102
RTVSPropertyOp25
 70
     1
102
RTVSPropertyOp26
 70
     1
102
RTVSPropertyOp27
 70
     1
102
RTVSPropertyOp28
 70
     1
102
RTVSPropertyOp29
 70
     1
102
RTVSPropertyOp30
 70
     1
102
RTVSPropertyOp31
 70
     1
102
RTVSPropertyOp32
 70
     1
102
RTVSPropertyOp33
 70
     1
102
RTVSPropertyOp34
 70
     1
102
RTVSPropertyOp35
 70
     1
102
RTVSPropertyOp36
 70
     1
102
RTVSPropertyOp37
 70
     1
102
RTVSPropertyOp38
 70
     1
102
RTVSPropertyOp39
 70
     1
102
RTVSPropertyOp40
 70
     1
102
RTVSPropertyOp41
 70
     1
102
RTVSPropertyOp42
 70
     1
102
RTVSPropertyOp43
 70
     1
102
RTVSPropertyOp44
 70
     1
102
RTVSPropertyOp45
 70
     1
102
RTVSPropertyOp46
 70
     1
102
RTVSPropertyOp47
 70
     1
102
RTVSPropertyOp48
 70
     1
102
RTVSPropertyOp49
 70
     1
102
RTVSPropertyOp50
 70
     1
102
RTVSPropertyOp51
 70
     0
102
RTVSPropertyOp52
 70
     0
102
RTVSPropertyOp53
 70
     1
102
RTVSPropertyOp54
 70
     1
102
RTVSPropertyOp55
 70
     1
102
RTVSPropertyOp56
 70
     1
102
RTVSPropertyOp57
 70
     1
102
RTVSPropertyOp58
 70
     1
102
RTVSPropertyOp59
 70
     1
102
RTVSPropertyOp60
 70
     1
102
RTVSPropertyOp61
 70
     1
102
RTVSPropertyOp62
 70
     1
  0
ENDSEC
  0
EOF
