  0
SECTION
  2
HEADER
  9
$ACADVER
  1
AC1015
  9
$ACADMAINTVER
 70
    20
  9
$DWGCODEPAGE
  3
ANSI_932
  9
$INSBASE
 10
0.0
 20
0.0
 30
0.0
  9
$EXTMIN
 10
10.0
 20
9.999999999999998
 30
0.0
  9
$EXTMAX
 10
475.806619
 20
319.143827
 30
0.0
  9
$LIMMIN
 10
0.0
 20
0.0
  9
$LIMMAX
 10
495.0
 20
341.25
  9
$ORTHOMODE
 70
     0
  9
$REGENMODE
 70
     1
  9
$FILLMODE
 70
     1
  9
$QTEXTMODE
 70
     0
  9
$MIRRTEXT
 70
     1
  9
$LTSCALE
 40
20.0
  9
$ATTMODE
 70
     1
  9
$TEXTSIZE
 40
5.0
  9
$TRACEWID
 40
1.0
  9
$TEXTSTYLE
  7
STANDARD
  9
$CLAYER
  8
0
  9
$CELTYPE
  6
BYLAYER
  9
$CECOLOR
 62
   256
  9
$CELTSCALE
 40
1.0
  9
$DISPSILH
 70
     0
  9
$DIMSCALE
 40
1.0
  9
$DIMASZ
 40
3.0
  9
$DIMEXO
 40
1.0
  9
$DIMDLI
 40
10.0
  9
$DIMRND
 40
0.0
  9
$DIMDLE
 40
0.0
  9
$DIMEXE
 40
1.0
  9
$DIMTP
 40
0.0
  9
$DIMTM
 40
0.0
  9
$DIMTXT
 40
3.2
  9
$DIMCEN
 40
0.0
  9
$DIMTSZ
 40
0.0
  9
$DIMTOL
 70
     0
  9
$DIMLIM
 70
     0
  9
$DIMTIH
 70
     0
  9
$DIMTOH
 70
     0
  9
$DIMSE1
 70
     1
  9
$DIMSE2
 70
     1
  9
$DIMTAD
 70
     3
  9
$DIMZIN
 70
     8
  9
$DIMBLK
  1

  9
$DIMASO
 70
     1
  9
$DIMSHO
 70
     1
  9
$DIMPOST
  1

  9
$DIMAPOST
  1

  9
$DIMALT
 70
     0
  9
$DIMALTD
 70
     2
  9
$DIMALTF
 40
25.4
  9
$DIMLFAC
 40
1.0
  9
$DIMTOFL
 70
     1
  9
$DIMTVP
 40
0.0
  9
$DIMTIX
 70
     0
  9
$DIMSOXD
 70
     0
  9
$DIMSAH
 70
     1
  9
$DIMBLK1
  1
OPEN
  9
$DIMBLK2
  1
OPEN
  9
$DIMSTYLE
  2
STANDARD
  9
$DIMCLRD
 70
     0
  9
$DIMCLRE
 70
     0
  9
$DIMCLRT
 70
     0
  9
$DIMTFAC
 40
1.0
  9
$DIMGAP
 40
1.0
  9
$DIMJUST
 70
     0
  9
$DIMSD1
 70
     0
  9
$DIMSD2
 70
     0
  9
$DIMTOLJ
 70
     1
  9
$DIMTZIN
 70
     0
  9
$DIMALTZ
 70
     0
  9
$DIMALTTZ
 70
     0
  9
$DIMUPT
 70
     0
  9
$DIMDEC
 70
     4
  9
$DIMTDEC
 70
     4
  9
$DIMALTU
 70
     2
  9
$DIMALTTD
 70
     2
  9
$DIMTXSTY
  7
STANDARD
  9
$DIMAUNIT
 70
     0
  9
$DIMADEC
 70
     0
  9
$DIMALTRND
 40
0.0
  9
$DIMAZIN
 70
     0
  9
$DIMDSEP
 70
    46
  9
$DIMATFIT
 70
     3
  9
$DIMFRAC
 70
     0
  9
$DIMLDRBLK
  1
OPEN
  9
$DIMLUNIT
 70
     2
  9
$DIMLWD
 70
    -2
  9
$DIMLWE
 70
    -2
  9
$DIMTMOVE
 70
     0
  9
$LUNITS
 70
     2
  9
$LUPREC
 70
     4
  9
$SKETCHINC
 40
1.0
  9
$FILLETRAD
 40
0.0
  9
$AUNITS
 70
     0
  9
$AUPREC
 70
     2
  9
$MENU
  1
.
  9
$ELEVATION
 40
0.0
  9
$PELEVATION
 40
0.0
  9
$THICKNESS
 40
0.0
  9
$LIMCHECK
 70
     0
  9
$CHAMFERA
 40
10.0
  9
$CHAMFERB
 40
10.0
  9
$CHAMFERC
 40
0.0
  9
$CHAMFERD
 40
0.0
  9
$SKPOLY
 70
     0
  9
$TDCREATE
 40
2451301.601326620
  9
$TDUCREATE
 40
2451301.226326620
  9
$TDUPDATE
 40
2457192.688260799
  9
$TDUUPDATE
 40
2457192.313260799
  9
$TDINDWG
 40
0.0000094444
  9
$TDUSRTIMER
 40
0.0000091435
  9
$USRTIMER
 70
     1
  9
$ANGBASE
 50
0.0
  9
$ANGDIR
 70
     0
  9
$PDMODE
 70
     0
  9
$PDSIZE
 40
0.0
  9
$PLINEWID
 40
0.0
  9
$SPLFRAME
 70
     0
  9
$SPLINETYPE
 70
     6
  9
$SPLINESEGS
 70
     8
  9
$HANDSEED
  5
BF4B
  9
$SURFTAB1
 70
     6
  9
$SURFTAB2
 70
     6
  9
$SURFTYPE
 70
     6
  9
$SURFU
 70
     6
  9
$SURFV
 70
     6
  9
$UCSBASE
  2

  9
$UCSNAME
  2

  9
$UCSORG
 10
0.0
 20
0.0
 30
0.0
  9
$UCSXDIR
 10
1.0
 20
0.0
 30
0.0
  9
$UCSYDIR
 10
0.0
 20
1.0
 30
0.0
  9
$UCSORTHOREF
  2

  9
$UCSORTHOVIEW
 70
     0
  9
$UCSORGTOP
 10
0.0
 20
0.0
 30
0.0
  9
$UCSORGBOTTOM
 10
0.0
 20
0.0
 30
0.0
  9
$UCSORGLEFT
 10
0.0
 20
0.0
 30
0.0
  9
$UCSORGRIGHT
 10
0.0
 20
0.0
 30
0.0
  9
$UCSORGFRONT
 10
0.0
 20
0.0
 30
0.0
  9
$UCSORGBACK
 10
0.0
 20
0.0
 30
0.0
  9
$PUCSBASE
  2

  9
$PUCSNAME
  2

  9
$PUCSORG
 10
0.0
 20
0.0
 30
0.0
  9
$PUCSXDIR
 10
1.0
 20
0.0
 30
0.0
  9
$PUCSYDIR
 10
0.0
 20
1.0
 30
0.0
  9
$PUCSORTHOREF
  2

  9
$PUCSORTHOVIEW
 70
     0
  9
$PUCSORGTOP
 10
0.0
 20
0.0
 30
0.0
  9
$PUCSORGBOTTOM
 10
0.0
 20
0.0
 30
0.0
  9
$PUCSORGLEFT
 10
0.0
 20
0.0
 30
0.0
  9
$PUCSORGRIGHT
 10
0.0
 20
0.0
 30
0.0
  9
$PUCSORGFRONT
 10
0.0
 20
0.0
 30
0.0
  9
$PUCSORGBACK
 10
0.0
 20
0.0
 30
0.0
  9
$USERI1
 70
     0
  9
$USERI2
 70
     0
  9
$USERI3
 70
     0
  9
$USERI4
 70
     0
  9
$USERI5
 70
     0
  9
$USERR1
 40
0.0
  9
$USERR2
 40
0.0
  9
$USERR3
 40
0.0
  9
$USERR4
 40
0.0
  9
$USERR5
 40
0.0
  9
$WORLDVIEW
 70
     1
  9
$SHADEDGE
 70
     3
  9
$SHADEDIF
 70
    70
  9
$TILEMODE
 70
     1
  9
$MAXACTVP
 70
    16
  9
$PINSBASE
 10
0.0
 20
0.0
 30
0.0
  9
$PLIMCHECK
 70
     0
  9
$PEXTMIN
 10
1.000000000000000E+20
 20
1.000000000000000E+20
 30
1.000000000000000E+20
  9
$PEXTMAX
 10
-1.000000000000000E+20
 20
-1.000000000000000E+20
 30
-1.000000000000000E+20
  9
$PLIMMIN
 10
0.0
 20
0.0
  9
$PLIMMAX
 10
420.0
 20
297.0
  9
$UNITMODE
 70
     0
  9
$VISRETAIN
 70
     0
  9
$PLINEGEN
 70
     0
  9
$PSLTSCALE
 70
     0
  9
$TREEDEPTH
 70
  3020
  9
$CMLSTYLE
  2
STANDARD
  9
$CMLJUST
 70
     0
  9
$CMLSCALE
 40
1.0
  9
$PROXYGRAPHICS
 70
     1
  9
$MEASUREMENT
 70
     0
  9
$CELWEIGHT
370
    -1
  9
$ENDCAPS
280
     0
  9
$JOINSTYLE
280
     0
  9
$LWDISPLAY
290
     0
  9
$INSUNITS
 70
     0
  9
$HYPERLINKBASE
  1

  9
$STYLESHEET
  1

  9
$XEDIT
290
     1
  9
$CEPSNTYPE
380
     0
  9
$PSTYLEMODE
290
     1
  9
$FINGERPRINTGUID
  2
{4D9BFBF5-24B6-45CE-A700-0000ECD1A3CF}
  9
$VERSIONGUID
  2
{D0FF15A0-0107-4C1D-9ABA-079CB4B87698}
  9
$EXTNAMES
290
     1
  9
$PSVPSCALE
 40
0.0
  9
$OLESTARTUP
290
     0
  0
ENDSEC
  0
SECTION
  2
CLASSES
  0
CLASS
  1
ACDBDICTIONARYWDFLT
  2
AcDbDictionaryWithDefault
  3
ObjectDBX Classes
 90
        0
280
     0
281
     0
  0
CLASS
  1
ACDBPLACEHOLDER
  2
AcDbPlaceHolder
  3
ObjectDBX Classes
 90
        0
280
     0
281
     0
  0
CLASS
  1
LAYOUT
  2
AcDbLayout
  3
ObjectDBX Classes
 90
        0
280
     0
281
     0
  0
CLASS
  1
DICTIONARYVAR
  2
AcDbDictionaryVar
  3
ObjectDBX Classes
 90
        0
280
     0
281
     0
  0
CLASS
  1
MATERIAL
  2
AcDbMaterial
  3
ObjectDBX Classes
 90
     1153
280
     0
281
     0
  0
CLASS
  1
VISUALSTYLE
  2
AcDbVisualStyle
  3
ObjectDBX Classes
 90
     4095
280
     0
281
     0
  0
CLASS
  1
TABLESTYLE
  2
AcDbTableStyle
  3
ObjectDBX Classes
 90
     4095
280
     0
281
     0
  0
CLASS
  1
SCALE
  2
AcDbScale
  3
ObjectDBX Classes
 90
     1153
280
     0
281
     0
  0
CLASS
  1
MLEADERSTYLE
  2
AcDbMLeaderStyle
  3
ACDB_MLEADERSTYLE_CLASS
 90
     4095
280
     0
281
     0
  0
CLASS
  1
ACDBSECTIONVIEWSTYLE
  2
AcDbSectionViewStyle
  3
ObjectDBX Classes
 90
     1025
280
     0
281
     0
  0
CLASS
  1
ACDBDETAILVIEWSTYLE
  2
AcDbDetailViewStyle
  3
ObjectDBX Classes
 90
     1025
280
     0
281
     0
  0
CLASS
  1
CELLSTYLEMAP
  2
AcDbCellStyleMap
  3
ObjectDBX Classes
 90
     1152
280
     0
281
     0
  0
ENDSEC
  0
SECTION
  2
TABLES
  0
TABLE
  2
VPORT
  5
BC66
330
0
100
AcDbSymbolTable
 70
     1
  0
VPORT
  5
BE94
330
BC66
100
AcDbSymbolTableRecord
100
AcDbViewportTableRecord
  2
*ACTIVE
 70
     0
 10
0.0
 20
0.0
 11
1.0
 21
1.0
 12
336.5532924991376
 22
164.5717914826779
 13
0.0
 23
0.0
 14
10.0
 24
10.0
 15
10.0
 25
10.0
 16
0.0
 26
0.0
 36
1.0
 17
0.0
 27
0.0
 37
0.0
 40
312.5855276878816
 41
2.35006605019815
 42
50.0
 43
0.0
 44
0.0
 50
0.0
 51
0.0
 71
     0
 72
   100
 73
     1
 74
     0
 75
     0
 76
     0
 77
     0
 78
     0
281
     0
 65
     1
110
0.0
120
0.0
130
0.0
111
1.0
121
0.0
131
0.0
112
0.0
122
1.0
132
0.0
 79
     0
146
0.0
1001
ACAD_NAV_VCDISPLAY
1070
     3
  0
ENDTAB
  0
TABLE
  2
LTYPE
  5
BC63
330
0
100
AcDbSymbolTable
 70
     4
  0
LTYPE
  5
BC71
330
BC63
100
AcDbSymbolTableRecord
100
AcDbLinetypeTableRecord
  2
BYBLOCK
 70
     0
  3

 72
    65
 73
     0
 40
0.0
  0
LTYPE
  5
BC72
330
BC63
100
AcDbSymbolTableRecord
100
AcDbLinetypeTableRecord
  2
BYLAYER
 70
     0
  3

 72
    65
 73
     0
 40
0.0
  0
LTYPE
  5
BC73
330
BC63
100
AcDbSymbolTableRecord
100
AcDbLinetypeTableRecord
  2
CONTINUOUS
 70
     0
  3
Solid line
 72
    65
 73
     0
 40
0.0
  0
LTYPE
  5
BC81
330
BC63
100
AcDbSymbolTableRecord
100
AcDbLinetypeTableRecord
  2
DASHED
 70
     0
  3
__ __ __ __ __ __ __ __ __ __ __ __ __ __ __ __
 72
    65
 73
     2
 40
0.75
 49
0.5
 74
     0
 49
-0.25
 74
     0
  0
LTYPE
  5
BC82
330
BC63
100
AcDbSymbolTableRecord
100
AcDbLinetypeTableRecord
  2
CENTER
 70
     0
  3
____ _ ____ _ ____ _ ____ _ ____ _ ____ _ ____ 
 72
    65
 73
     4
 40
2.0
 49
1.25
 74
     0
 49
-0.25
 74
     0
 49
0.25
 74
     0
 49
-0.25
 74
     0
  0
LTYPE
  5
BC83
330
BC63
100
AcDbSymbolTableRecord
100
AcDbLinetypeTableRecord
  2
PHANTOM
 70
     0
  3
______  __  __  ______  __  __  ______  __  __ 
 72
    65
 73
     6
 40
2.5
 49
1.25
 74
     0
 49
-0.25
 74
     0
 49
0.25
 74
     0
 49
-0.25
 74
     0
 49
0.25
 74
     0
 49
-0.25
 74
     0
  0
ENDTAB
  0
TABLE
  2
LAYER
  5
BC60
330
0
100
AcDbSymbolTable
 70
     8
  0
LAYER
  5
BC6E
102
{ACAD_XDICTIONARY
360
BEEF
102
}
330
BC60
100
AcDbSymbolTableRecord
100
AcDbLayerTableRecord
  2
0
 70
     0
 62
     7
  6
CONTINUOUS
370
    -3
390
BE9D
  0
LAYER
  5
BC84
102
{ACAD_XDICTIONARY
360
BEF1
102
}
330
BC60
100
AcDbSymbolTableRecord
100
AcDbLayerTableRecord
  2
4
 70
     0
 62
     1
  6
CENTER
370
    -3
390
BE9D
  0
LAYER
  5
BC85
102
{ACAD_XDICTIONARY
360
BEF3
102
}
330
BC60
100
AcDbSymbolTableRecord
100
AcDbLayerTableRecord
  2
5
 70
     0
 62
     6
  6
PHANTOM
370
    -3
390
BE9D
  0
LAYER
  5
BC86
102
{ACAD_XDICTIONARY
360
BEF5
102
}
330
BC60
100
AcDbSymbolTableRecord
100
AcDbLayerTableRecord
  2
1
 70
     0
 62
     7
  6
CONTINUOUS
370
    -3
390
BE9D
  0
LAYER
  5
BC87
102
{ACAD_XDICTIONARY
360
BEF7
102
}
330
BC60
100
AcDbSymbolTableRecord
100
AcDbLayerTableRecord
  2
2
 70
     0
 62
     4
  6
CONTINUOUS
370
    -3
390
BE9D
  0
LAYER
  5
BC88
102
{ACAD_XDICTIONARY
360
BEF9
102
}
330
BC60
100
AcDbSymbolTableRecord
100
AcDbLayerTableRecord
  2
3
 70
     0
 62
     2
  6
DASHED
370
    -3
390
BE9D
  0
LAYER
  5
BC89
102
{ACAD_XDICTIONARY
360
BEFB
102
}
330
BC60
100
AcDbSymbolTableRecord
100
AcDbLayerTableRecord
  2
6
 70
     0
 62
     5
  6
CONTINUOUS
370
    -3
390
BE9D
  0
LAYER
  5
BC8A
102
{ACAD_XDICTIONARY
360
BEFD
102
}
330
BC60
100
AcDbSymbolTableRecord
100
AcDbLayerTableRecord
  2
7
 70
     0
 62
     3
  6
CONTINUOUS
370
    -3
390
BE9D
  0
ENDTAB
  0
TABLE
  2
STYLE
  5
BC61
330
0
100
AcDbSymbolTable
 70
     1
  0
STYLE
  5
BC6F
330
BC61
100
AcDbSymbolTableRecord
100
AcDbTextStyleTableRecord
  2
STANDARD
 70
     0
 40
0.0
 41
1.0
 50
0.0
 71
     0
 42
5.0
  3
txt
  4

  0
ENDTAB
  0
TABLE
  2
VIEW
  5
BC64
330
0
100
AcDbSymbolTable
 70
     0
  0
ENDTAB
  0
TABLE
  2
UCS
  5
BC65
330
0
100
AcDbSymbolTable
 70
     0
  0
ENDTAB
  0
TABLE
  2
APPID
  5
BC67
330
0
100
AcDbSymbolTable
 70
     3
  0
APPID
  5
BC70
330
BC67
100
AcDbSymbolTableRecord
100
AcDbRegAppTableRecord
  2
ACAD
 70
     0
  0
APPID
  5
BF09
330
BC67
100
AcDbSymbolTableRecord
100
AcDbRegAppTableRecord
  2
ACAD_NAV_VCDISPLAY
 70
     0
  0
APPID
  5
BF42
330
BC67
100
AcDbSymbolTableRecord
100
AcDbRegAppTableRecord
  2
ACAD_MLEADERVER
 70
     0
  0
ENDTAB
  0
TABLE
  2
DIMSTYLE
  5
BC68
330
0
100
AcDbSymbolTable
 70
     1
100
AcDbDimStyleTable
 71
     0
  0
DIMSTYLE
105
BC8C
330
BC68
100
AcDbSymbolTableRecord
100
AcDbDimStyleTableRecord
  2
STANDARD
 70
     0
 41
3.0
 42
1.0
 43
10.0
 44
1.0
 73
     0
 74
     0
 77
     3
 78
     8
140
3.2
141
0.0
147
1.0
172
     1
173
     1
284
     8
285
     8
286
     8
340
BC6F
  0
ENDTAB
  0
TABLE
  2
BLOCK_RECORD
  5
BC5F
330
0
100
AcDbSymbolTable
 70
     1
  0
BLOCK_RECORD
  5
BC7C
102
{ACAD_XDICTIONARY
360
BE97
102
}
330
BC5F
100
AcDbSymbolTableRecord
100
AcDbBlockTableRecord
  2
*MODEL_SPACE
340
BEEB
  0
BLOCK_RECORD
  5
BC78
102
{ACAD_XDICTIONARY
360
BE95
102
}
330
BC5F
100
AcDbSymbolTableRecord
100
AcDbBlockTableRecord
  2
*PAPER_SPACE
340
BEEC
  0
BLOCK_RECORD
  5
BC94
330
BC5F
100
AcDbSymbolTableRecord
100
AcDbBlockTableRecord
  2
_OPEN
340
0
  0
ENDTAB
  0
ENDSEC
  0
SECTION
  2
BLOCKS
  0
BLOCK
  5
BC7D
330
BC7C
100
AcDbEntity
  8
0
100
AcDbBlockBegin
  2
*MODEL_SPACE
 70
     0
 10
0.0
 20
0.0
 30
0.0
  3
*MODEL_SPACE
  1

  0
ENDBLK
  5
BC7E
330
BC7C
100
AcDbEntity
  8
0
100
AcDbBlockEnd
  0
BLOCK
  5
BC79
330
BC78
100
AcDbEntity
 67
     1
  8
0
100
AcDbBlockBegin
  2
*PAPER_SPACE
 70
     0
 10
0.0
 20
0.0
 30
0.0
  3
*PAPER_SPACE
  1

  0
ENDBLK
  5
BC7A
330
BC78
100
AcDbEntity
 67
     1
  8
0
100
AcDbBlockEnd
  0
BLOCK
  5
BC95
330
BC94
100
AcDbEntity
  8
0
100
AcDbBlockBegin
  2
_OPEN
 70
     0
 10
0.0
 20
0.0
 30
0.0
  3
_OPEN
  1

  0
LINE
  5
BC96
330
BC94
100
AcDbEntity
  8
0
  6
ByBlock
 62
     0
100
AcDbLine
 10
-1.0
 20
0.166667
 30
0.0
 11
0.0
 21
0.0
 31
0.0
  0
LINE
  5
BC97
330
BC94
100
AcDbEntity
  8
0
  6
ByBlock
 62
     0
100
AcDbLine
 10
0.0
 20
0.0
 30
0.0
 11
-1.0
 21
-0.166667
 31
0.0
  0
LINE
  5
BC98
330
BC94
100
AcDbEntity
  8
0
  6
ByBlock
 62
     0
100
AcDbLine
 10
0.0
 20
0.0
 30
0.0
 11
-1.0
 21
0.0
 31
0.0
  0
ENDBLK
  5
BC99
330
BC94
100
AcDbEntity
  8
0
100
AcDbBlockEnd
  0
ENDSEC
  0
SECTION
  2
ENTITIES
  0
TEXT
  5
BC9A
330
BC7C
100
AcDbEntity
  8
7
  6
Continuous
100
AcDbText
 10
10.0
 20
18.0
 30
0.0
 40
3.0
  1
TYPE No.603A.F
100
AcDbText
  0
TEXT
  5
BC9B
330
BC7C
100
AcDbEntity
  8
7
  6
Continuous
100
AcDbText
 10
10.0
 20
26.0
 30
0.0
 40
3.0
  1
CODE No.9470
100
AcDbText
  0
TEXT
  5
BC9C
330
BC7C
100
AcDbEntity
  8
1
  6
Continuous
100
AcDbText
 10
10.0
 20
10.0
 30
0.0
 40
1.399999999999999
  1
LAYER
100
AcDbText
  0
TEXT
  5
BC9D
330
BC7C
100
AcDbEntity
  8
1
  6
Continuous
100
AcDbText
 10
17.97951099999998
 20
10.04873699999998
 30
0.0
 40
1.399999999999999
  1
1
100
AcDbText
  0
TEXT
  5
BC9E
330
BC7C
100
AcDbEntity
  8
7
  6
Continuous
100
AcDbText
 10
29.97951099999999
 20
10.04873699999998
 30
0.0
 40
1.399999999999999
  1
7
100
AcDbText
  0
TEXT
  5
BC9F
330
BC7C
100
AcDbEntity
  8
4
  6
CENTER
100
AcDbText
 10
23.97951099999999
 20
10.04873699999998
 30
0.0
 40
1.399999999999999
  1
4
100
AcDbText
  0
TEXT
  5
BCA0
330
BC7C
100
AcDbEntity
  8
3
  6
DASHED
100
AcDbText
 10
21.979511
 20
10.04873699999998
 30
0.0
 40
1.399999999999999
  1
3
100
AcDbText
  0
TEXT
  5
BCA1
330
BC7C
100
AcDbEntity
  8
2
  6
Continuous
100
AcDbText
 10
19.97951099999999
 20
10.04873699999998
 30
0.0
 40
1.399999999999999
  1
2
100
AcDbText
  0
TEXT
  5
BCA2
330
BC7C
100
AcDbEntity
  8
6
  6
Continuous
100
AcDbText
 10
27.979511
 20
10.04873699999998
 30
0.0
 40
1.399999999999999
  1
6
100
AcDbText
  0
TEXT
  5
BCA3
330
BC7C
100
AcDbEntity
  8
5
  6
PHANTOM
100
AcDbText
 10
25.97951099999999
 20
10.04873699999998
 30
0.0
 40
1.399999999999999
  1
5
100
AcDbText
  0
LINE
  5
BCA4
330
BC7C
100
AcDbEntity
  8
4
  6
CENTER
100
AcDbLine
 10
140.518929
 20
312.143827
 30
0.0
 11
128.018929
 21
312.143827
 31
0.0
  0
LINE
  5
BCA5
330
BC7C
100
AcDbEntity
  8
4
  6
CENTER
100
AcDbLine
 10
140.518929
 20
272.1438229999999
 30
0.0
 11
128.018929
 21
272.1438229999999
 31
0.0
  0
LINE
  5
BCA6
330
BC7C
100
AcDbEntity
  8
4
  6
CENTER
100
AcDbLine
 10
229.268929
 20
292.143823
 30
0.0
 11
124.2689289999999
 21
292.143823
 31
0.0
  0
LINE
  5
BCA7
330
BC7C
100
AcDbEntity
  8
1
  6
Continuous
100
AcDbLine
 10
127.268761
 20
212.872567
 30
0.0
 11
226.268929
 21
212.872567
 31
0.0
  0
LINE
  5
BCA8
330
BC7C
100
AcDbEntity
  8
1
  6
Continuous
100
AcDbLine
 10
143.095078
 20
210.872567
 30
0.0
 11
127.268761
 21
210.872567
 31
0.0
  0
ARC
  5
BCA9
330
BC7C
100
AcDbEntity
  8
1
  6
Continuous
100
AcDbCircle
 10
134.268929
 20
312.143827
 30
0.0
 40
7.0
100
AcDbArc
 50
8.525496999999997
 51
180.0
  0
ARC
  5
BCAA
330
BC7C
100
AcDbEntity
  8
1
  6
Continuous
100
AcDbCircle
 10
134.268929
 20
272.1438309999999
 30
0.0
 40
7.0
100
AcDbArc
 50
180.0
 51
351.474487
  0
LINE
  5
BCAB
330
BC7C
100
AcDbEntity
  8
4
  6
CENTER
100
AcDbLine
 10
161.768929
 20
144.8725669999998
 30
0.0
 11
161.768929
 21
200.872567
 31
0.0
  0
LINE
  5
BCAC
330
BC7C
100
AcDbEntity
  8
4
  6
CENTER
100
AcDbLine
 10
207.768929
 20
136.2132419999998
 30
0.0
 11
207.768929
 21
216.2355849999999
 31
0.0
  0
ARC
  5
BCAD
330
BC7C
100
AcDbEntity
  8
1
  6
Continuous
100
AcDbCircle
 10
191.4189289999999
 20
157.872659
 30
0.0
 40
2.5
100
AcDbArc
 50
90.0
 51
180.0
  0
LINE
  5
BCAE
330
BC7C
100
AcDbEntity
  8
1
  6
Continuous
100
AcDbLine
 10
197.268929
 20
160.3726589999999
 30
0.0
 11
197.268929
 21
161.3726589999999
 31
0.0
  0
LINE
  5
BCAF
330
BC7C
100
AcDbEntity
  8
1
  6
Continuous
100
AcDbLine
 10
218.268929
 20
160.3726589999999
 30
0.0
 11
218.268929
 21
161.3726589999999
 31
0.0
  0
ARC
  5
BCB0
330
BC7C
100
AcDbEntity
  8
1
  6
Continuous
100
AcDbCircle
 10
161.768929
 20
172.872567
 30
0.0
 40
25.0
100
AcDbArc
 50
120.8480259999999
 51
31.50970500000001
  0
LINE
  5
BCB1
330
BC7C
100
AcDbEntity
  8
1
  6
Continuous
100
AcDbLine
 10
226.618929
 20
151.8726589999999
 30
0.0
 11
188.918929
 21
151.8726589999999
 31
0.0
  0
LINE
  5
BCB2
330
BC7C
100
AcDbEntity
  8
1
  6
Continuous
100
AcDbLine
 10
225.018923
 20
147.8726589999999
 30
0.0
 11
190.51892
 21
147.8726589999999
 31
0.0
  0
LINE
  5
BCB3
330
BC7C
100
AcDbEntity
  8
1
  6
Continuous
100
AcDbLine
 10
224.1187609999998
 20
160.3726589999999
 30
0.0
 11
191.4189289999999
 21
160.3726589999999
 31
0.0
  0
LINE
  5
BCB4
330
BC7C
100
AcDbEntity
  8
1
  6
Continuous
100
AcDbLine
 10
225.018923
 20
151.8726589999999
 30
0.0
 11
225.018923
 21
147.8726589999999
 31
0.0
  0
LINE
  5
BCB5
330
BC7C
100
AcDbEntity
  8
1
  6
Continuous
100
AcDbLine
 10
190.51892
 20
151.8726589999999
 30
0.0
 11
190.51892
 21
147.8726589999999
 31
0.0
  0
LINE
  5
BCB6
330
BC7C
100
AcDbEntity
  8
1
  6
Continuous
100
AcDbLine
 10
188.918929
 20
151.8726589999999
 30
0.0
 11
188.918929
 21
157.872659
 31
0.0
  0
ARC
  5
BCB7
330
BC7C
100
AcDbEntity
  8
1
  6
Continuous
100
AcDbCircle
 10
196.6419149999999
 20
211.8725669999999
 30
0.0
 40
4.0
100
AcDbArc
 50
217.365448
 51
270.0
  0
ARC
  5
BCB8
330
BC7C
100
AcDbEntity
  8
1
  6
Continuous
100
AcDbCircle
 10
196.52591
 20
206.872567
 30
0.0
 40
4.0
100
AcDbArc
 50
90.0
 51
156.5447409999999
  0
ARC
  5
BCB9
330
BC7C
100
AcDbEntity
  8
1
  6
Continuous
100
AcDbCircle
 10
197.393677
 20
208.872567
 30
0.0
 40
4.0
100
AcDbArc
 50
90.0
 51
156.5447389999999
  0
LINE
  5
BCBA
330
BC7C
100
AcDbEntity
  8
1
  6
Continuous
100
AcDbLine
 10
197.768929
 20
206.872567
 30
0.0
 11
197.768929
 21
189.872567
 31
0.0
  0
LINE
  5
BCBB
330
BC7C
100
AcDbEntity
  8
1
  6
Continuous
100
AcDbLine
 10
217.7689289999999
 20
206.872567
 30
0.0
 11
217.7689289999999
 21
189.872567
 31
0.0
  0
LINE
  5
BCBC
330
BC7C
100
AcDbEntity
  8
1
  6
Continuous
100
AcDbLine
 10
202.768929
 20
179.872567
 30
0.0
 11
202.768929
 21
168.372659
 31
0.0
  0
LINE
  5
BCBD
330
BC7C
100
AcDbEntity
  8
1
  6
Continuous
100
AcDbLine
 10
212.768929
 20
179.872567
 30
0.0
 11
212.768929
 21
168.372659
 31
0.0
  0
ARC
  5
BCBE
330
BC7C
100
AcDbEntity
  8
1
  6
Continuous
100
AcDbCircle
 10
207.7686469999999
 20
174.6503999999999
 30
0.0
 40
13.277742
100
AcDbArc
 50
248.3089689999999
 51
291.6910659999999
  0
LINE
  5
BCBF
330
BC7C
100
AcDbEntity
  8
1
  6
Continuous
100
AcDbLine
 10
218.268929
 20
161.3726589999999
 30
0.0
 11
197.268929
 21
161.3726589999999
 31
0.0
  0
LINE
  5
BCC0
330
BC7C
100
AcDbEntity
  8
1
  6
Continuous
100
AcDbLine
 10
212.676125
 20
162.3128439999999
 30
0.0
 11
212.676125
 21
168.372659
 31
0.0
  0
LINE
  5
BCC1
330
BC7C
100
AcDbEntity
  8
1
  6
Continuous
100
AcDbLine
 10
217.583611
 20
168.372659
 30
0.0
 11
217.583611
 21
162.3128439999999
 31
0.0
  0
ARC
  5
BCC2
330
BC7C
100
AcDbEntity
  8
1
  6
Continuous
100
AcDbCircle
 10
215.12986
 20
165.044473
 30
0.0
 40
3.671864999999998
100
AcDbArc
 50
228.0675349999999
 51
311.9324649999999
  0
LINE
  5
BCC3
330
BC7C
100
AcDbEntity
  8
1
  6
Continuous
100
AcDbLine
 10
202.8611759999999
 20
162.3128439999999
 30
0.0
 11
202.8611759999999
 21
168.372659
 31
0.0
  0
LINE
  5
BCC4
330
BC7C
100
AcDbEntity
  8
1
  6
Continuous
100
AcDbLine
 10
197.9536979999998
 20
168.372659
 30
0.0
 11
197.9536979999998
 21
162.3128439999999
 31
0.0
  0
ARC
  5
BCC5
330
BC7C
100
AcDbEntity
  8
1
  6
Continuous
100
AcDbCircle
 10
200.4074329999999
 20
165.044473
 30
0.0
 40
3.671864999999998
100
AcDbArc
 50
228.0675349999999
 51
311.9324649999999
  0
LINE
  5
BCC6
330
BC7C
100
AcDbEntity
  8
1
  6
Continuous
100
AcDbLine
 10
214.768929
 20
179.872567
 30
0.0
 11
200.768929
 21
179.872567
 31
0.0
  0
LINE
  5
BCC7
330
BC7C
100
AcDbEntity
  8
1
  6
Continuous
100
AcDbLine
 10
217.7689289999999
 20
189.872567
 30
0.0
 11
197.768929
 21
189.872567
 31
0.0
  0
LINE
  5
BCC8
330
BC7C
100
AcDbEntity
  8
1
  6
Continuous
100
AcDbLine
 10
217.7689289999999
 20
189.872567
 30
0.0
 11
214.768929
 21
179.872567
 31
0.0
  0
LINE
  5
BCC9
330
BC7C
100
AcDbEntity
  8
1
  6
Continuous
100
AcDbLine
 10
197.768929
 20
189.872567
 30
0.0
 11
200.768929
 21
179.872567
 31
0.0
  0
LINE
  5
BCCA
330
BC7C
100
AcDbEntity
  8
1
  6
Continuous
100
AcDbLine
 10
218.895943
 20
207.8725669999998
 30
0.0
 11
196.6419149999999
 21
207.8725669999998
 31
0.0
  0
LINE
  5
BCCB
330
BC7C
100
AcDbEntity
  8
1
  6
Continuous
100
AcDbLine
 10
217.7689289999999
 20
206.872567
 30
0.0
 11
197.768929
 21
206.872567
 31
0.0
  0
LINE
  5
BCCC
330
BC7C
100
AcDbEntity
  8
1
  6
Continuous
100
AcDbLine
 10
226.268929
 20
210.872567
 30
0.0
 11
196.52591
 21
210.872567
 31
0.0
  0
LINE
  5
BCCD
330
BC7C
100
AcDbEntity
  8
4
  6
CENTER
100
AcDbLine
 10
219.2687609999999
 20
208.390683
 30
0.0
 11
219.2687609999999
 21
215.493495
 31
0.0
  0
ARC
  5
BCCE
330
BC7C
100
AcDbEntity
  8
1
  6
Continuous
100
AcDbCircle
 10
218.895943
 20
211.8725669999999
 30
0.0
 40
4.0
100
AcDbArc
 50
270.0
 51
345.522491
  0
LINE
  5
BCCF
330
BC7C
100
AcDbEntity
  8
1
  6
Continuous
100
AcDbLine
 10
214.268929
 20
207.8725669999998
 30
0.0
 11
214.268929
 21
206.872567
 31
0.0
  0
LINE
  5
BCD0
330
BC7C
100
AcDbEntity
  8
1
  6
Continuous
100
AcDbLine
 10
226.268929
 20
210.872567
 30
0.0
 11
226.268929
 21
212.872567
 31
0.0
  0
LINE
  5
BCD1
330
BC7C
100
AcDbEntity
  8
1
  6
Continuous
100
AcDbLine
 10
201.2689289999999
 20
207.8725669999998
 30
0.0
 11
201.2689289999999
 21
206.872567
 31
0.0
  0
LINE
  5
BCD2
330
BC7C
100
AcDbEntity
  8
1
  6
Continuous
100
AcDbLine
 10
156.268929
 20
169.262193
 30
0.0
 11
156.268929
 21
207.2576949999999
 31
0.0
  0
LINE
  5
BCD3
330
BC7C
100
AcDbEntity
  8
1
  6
Continuous
100
AcDbLine
 10
169.268929
 20
207.1711819999999
 30
0.0
 11
169.268929
 21
171.6531459999998
 31
0.0
  0
LINE
  5
BCD4
330
BC7C
100
AcDbEntity
  8
1
  6
Continuous
100
AcDbLine
 10
193.72419
 20
210.4646999999999
 30
0.0
 11
174.8136679999998
 21
166.880433
 31
0.0
  0
LINE
  5
BCD5
330
BC7C
100
AcDbEntity
  8
1
  6
Continuous
100
AcDbLine
 10
146.7646339999998
 20
209.4451229999999
 30
0.0
 11
152.7732239999999
 21
167.90001
 31
0.0
  0
LINE
  5
BCD6
330
BC7C
100
AcDbEntity
  8
4
  6
CENTER
100
AcDbLine
 10
189.768929
 20
172.872567
 30
0.0
 11
133.768929
 21
172.872567
 31
0.0
  0
ARC
  5
BCD7
330
BC7C
100
AcDbEntity
  8
1
  6
Continuous
100
AcDbCircle
 10
161.768929
 20
172.872567
 30
0.0
 40
17.5
100
AcDbArc
 50
131.5567029999999
 51
11.448888
  0
LINE
  5
BCD8
330
BC7C
100
AcDbEntity
  8
1
  6
Continuous
100
AcDbLine
 10
156.732033
 20
164.4725659999998
 30
0.0
 11
171.144181
 21
164.4725659999998
 31
0.0
  0
ARC
  5
BCD9
330
BC7C
100
AcDbEntity
  8
1
  6
Continuous
100
AcDbCircle
 10
171.144181
 20
168.4725659999998
 30
0.0
 40
4.0
100
AcDbArc
 50
270.0
 51
336.5447389999999
  0
ARC
  5
BCDA
330
BC7C
100
AcDbEntity
  8
1
  6
Continuous
100
AcDbCircle
 10
156.732033
 20
168.4725659999998
 30
0.0
 40
4.0
100
AcDbArc
 50
188.2295229999998
 51
270.0
  0
ARC
  5
BCDB
330
BC7C
100
AcDbEntity
  8
1
  6
Continuous
100
AcDbCircle
 10
143.095078
 20
206.872567
 30
0.0
 40
4.0
100
AcDbArc
 50
8.229523
 51
90.0
  0
ARC
  5
BCDC
330
BC7C
100
AcDbEntity
  8
1
  6
Continuous
100
AcDbCircle
 10
142.805825
 20
208.872567
 30
0.0
 40
4.0
100
AcDbArc
 50
8.229523
 51
90.0
  0
LINE
  5
BCDD
330
BC7C
100
AcDbEntity
  8
4
  6
CENTER
100
AcDbLine
 10
134.268761
 20
208.259301
 30
0.0
 11
134.268761
 21
215.7302539999998
 31
0.0
  0
ARC
  5
BCDE
330
BC7C
100
AcDbEntity
  8
1
  6
Continuous
100
AcDbCircle
 10
195.984581
 20
320.043825
 30
0.0
 40
3.0
100
AcDbArc
 50
219.296444
 51
317.396317
  0
ARC
  5
BCDF
330
BC7C
100
AcDbEntity
  8
1
  6
Continuous
100
AcDbCircle
 10
195.984581
 20
264.24383
 30
0.0
 40
3.0
100
AcDbArc
 50
42.60368299999998
 51
140.7036439999999
  0
LINE
  5
BCE0
330
BC7C
100
AcDbEntity
  8
4
  6
CENTER
100
AcDbLine
 10
207.768929
 20
308.967394
 30
0.0
 11
207.768929
 21
275.643823
 31
0.0
  0
LINE
  5
BCE1
330
BC7C
100
AcDbEntity
  8
4
  6
CENTER
100
AcDbLine
 10
219.268929
 20
318.393827
 30
0.0
 11
219.268929
 21
305.893827
 31
0.0
  0
LINE
  5
BCE2
330
BC7C
100
AcDbEntity
  8
1
  6
Continuous
100
AcDbLine
 10
226.268929
 20
272.1438309999999
 30
0.0
 11
226.268929
 21
312.143827
 31
0.0
  0
LINE
  5
BCE3
330
BC7C
100
AcDbEntity
  8
1
  6
Continuous
100
AcDbLine
 10
219.268929
 20
319.1438269999999
 30
0.0
 11
200.768929
 21
319.1438269999999
 31
0.0
  0
LINE
  5
BCE4
330
BC7C
100
AcDbEntity
  8
4
  6
CENTER
100
AcDbLine
 10
225.518929
 20
312.143827
 30
0.0
 11
213.018929
 21
312.143827
 31
0.0
  0
ARC
  5
BCE5
330
BC7C
100
AcDbEntity
  8
1
  6
Continuous
100
AcDbCircle
 10
219.268929
 20
312.143827
 30
0.0
 40
7.0
100
AcDbArc
 50
0.0
 51
90.0
  0
CIRCLE
  5
BCE6
330
BC7C
100
AcDbEntity
  8
1
  6
Continuous
100
AcDbCircle
 10
219.268929
 20
312.143827
 30
0.0
 40
3.25
  0
ARC
  5
BCE7
330
BC7C
100
AcDbEntity
  8
1
  6
Continuous
100
AcDbCircle
 10
200.768929
 20
315.6438269999998
 30
0.0
 40
3.5
100
AcDbArc
 50
90.0
 51
137.396332
  0
CIRCLE
  5
BCE8
330
BC7C
100
AcDbEntity
  8
1
  6
Continuous
100
AcDbCircle
 10
207.768929
 20
292.143823
 30
0.0
 40
8.8
  0
CIRCLE
  5
BCE9
330
BC7C
100
AcDbEntity
  8
1
  6
Continuous
100
AcDbCircle
 10
207.768929
 20
292.143823
 30
0.0
 40
12.5
  0
LINE
  5
BCEA
330
BC7C
100
AcDbEntity
  8
1
  6
Continuous
100
AcDbLine
 10
212.0601049999999
 20
297.3542269999999
 30
0.0
 11
210.8148499999999
 21
296.108972
 31
0.0
  0
LINE
  5
BCEB
330
BC7C
100
AcDbEntity
  8
1
  6
Continuous
100
AcDbLine
 10
212.0600889999999
 20
286.9334119999999
 30
0.0
 11
210.814835
 21
288.1786749999998
 31
0.0
  0
CIRCLE
  5
BCEC
330
BC7C
100
AcDbEntity
  8
1
  6
Continuous
100
AcDbCircle
 10
207.768929
 20
292.143823
 30
0.0
 40
4.4
  0
CIRCLE
  5
BCED
330
BC7C
100
AcDbEntity
  8
1
  6
Continuous
100
AcDbCircle
 10
207.768929
 20
292.143823
 30
0.0
 40
5.0
  0
LINE
  5
BCEE
330
BC7C
100
AcDbEntity
  8
1
  6
Continuous
100
AcDbLine
 10
212.979348
 20
296.434984
 30
0.0
 11
212.0601049999999
 21
297.3542269999999
 31
0.0
  0
LINE
  5
BCEF
330
BC7C
100
AcDbEntity
  8
1
  6
Continuous
100
AcDbLine
 10
212.979348
 20
296.434984
 30
0.0
 11
211.734085
 21
295.18973
 31
0.0
  0
LINE
  5
BCF0
330
BC7C
100
AcDbEntity
  8
1
  6
Continuous
100
AcDbLine
 10
212.979325
 20
287.852648
 30
0.0
 11
212.0600889999999
 21
286.9334119999999
 31
0.0
  0
LINE
  5
BCF1
330
BC7C
100
AcDbEntity
  8
1
  6
Continuous
100
AcDbLine
 10
212.979325
 20
287.852648
 30
0.0
 11
211.73407
 21
289.09791
 31
0.0
  0
LINE
  5
BCF2
330
BC7C
100
AcDbEntity
  8
1
  6
Continuous
100
AcDbLine
 10
203.4777679999999
 20
297.354242
 30
0.0
 11
202.558533
 21
296.435007
 31
0.0
  0
LINE
  5
BCF3
330
BC7C
100
AcDbEntity
  8
1
  6
Continuous
100
AcDbLine
 10
204.723023
 20
296.108988
 30
0.0
 11
203.4777679999999
 21
297.354242
 31
0.0
  0
LINE
  5
BCF4
330
BC7C
100
AcDbEntity
  8
1
  6
Continuous
100
AcDbLine
 10
203.4777529999999
 20
286.9334279999998
 30
0.0
 11
202.55851
 21
287.852671
 31
0.0
  0
LINE
  5
BCF5
330
BC7C
100
AcDbEntity
  8
1
  6
Continuous
100
AcDbLine
 10
203.803772
 20
289.097925
 30
0.0
 11
202.55851
 21
287.852671
 31
0.0
  0
LINE
  5
BCF6
330
BC7C
100
AcDbEntity
  8
1
  6
Continuous
100
AcDbLine
 10
203.803788
 20
295.189752
 30
0.0
 11
202.558533
 21
296.435007
 31
0.0
  0
LINE
  5
BCF7
330
BC7C
100
AcDbEntity
  8
1
  6
Continuous
100
AcDbLine
 10
204.7230079999999
 20
288.1786819999998
 30
0.0
 11
203.4777529999999
 21
286.9334279999998
 31
0.0
  0
LINE
  5
BCF8
330
BC7C
100
AcDbEntity
  8
1
  6
Continuous
100
AcDbLine
 10
200.768929
 20
265.1438309999999
 30
0.0
 11
219.268929
 21
265.1438309999999
 31
0.0
  0
LINE
  5
BCF9
330
BC7C
100
AcDbEntity
  8
4
  6
CENTER
100
AcDbLine
 10
219.268929
 20
278.3938229999999
 30
0.0
 11
219.268929
 21
265.8938229999999
 31
0.0
  0
CIRCLE
  5
BCFA
330
BC7C
100
AcDbEntity
  8
1
  6
Continuous
100
AcDbCircle
 10
219.268929
 20
272.1438229999999
 30
0.0
 40
3.25
  0
LINE
  5
BCFB
330
BC7C
100
AcDbEntity
  8
4
  6
CENTER
100
AcDbLine
 10
225.518929
 20
272.1438229999999
 30
0.0
 11
213.018929
 21
272.1438229999999
 31
0.0
  0
ARC
  5
BCFC
330
BC7C
100
AcDbEntity
  8
1
  6
Continuous
100
AcDbCircle
 10
219.268929
 20
272.1438309999999
 30
0.0
 40
7.0
100
AcDbArc
 50
270.0
 51
0.0
  0
ARC
  5
BCFD
330
BC7C
100
AcDbEntity
  8
1
  6
Continuous
100
AcDbCircle
 10
200.768929
 20
268.6438309999999
 30
0.0
 40
3.5
100
AcDbArc
 50
222.603687
 51
270.0
  0
LINE
  5
BCFE
330
BC7C
100
AcDbEntity
  8
4
  6
CENTER
100
AcDbLine
 10
134.268929
 20
318.393827
 30
0.0
 11
134.268929
 21
305.893827
 31
0.0
  0
LINE
  5
BCFF
330
BC7C
100
AcDbEntity
  8
1
  6
Continuous
100
AcDbLine
 10
141.1915779999999
 20
313.181578
 30
0.0
 11
142.291027
 21
305.8473259999999
 31
0.0
  0
ARC
  5
BD00
330
BC7C
100
AcDbEntity
  8
1
  6
Continuous
100
AcDbCircle
 10
161.173767
 20
304.347574
 30
0.0
 40
15.0
100
AcDbArc
 50
149.3527829999999
 51
173.934692
  0
ARC
  5
BD01
330
BC7C
100
AcDbEntity
  8
1
  6
Continuous
100
AcDbCircle
 10
144.356156
 20
300.122003
 30
0.0
 40
12.5
100
AcDbArc
 50
38.50148
 51
71.75856
  0
ARC
  5
BD02
330
BC7C
100
AcDbEntity
  8
1
  6
Continuous
100
AcDbCircle
 10
177.897782
 20
300.919134
 30
0.0
 40
11.0
100
AcDbArc
 50
109.428223
 51
140.8283079999999
  0
LINE
  5
BD03
330
BC7C
100
AcDbEntity
  8
1
  6
Continuous
100
AcDbLine
 10
193.6629409999999
 20
318.143827
 30
0.0
 11
174.2389
 21
311.2927839999999
 31
0.0
  0
CIRCLE
  5
BD04
330
BC7C
100
AcDbEntity
  8
1
  6
Continuous
100
AcDbCircle
 10
134.268929
 20
312.143827
 30
0.0
 40
3.25
  0
LINE
  5
BD05
330
BC7C
100
AcDbEntity
  8
1
  6
Continuous
100
AcDbLine
 10
166.268929
 20
277.893823
 30
0.0
 11
157.268929
 21
277.893823
 31
0.0
  0
LINE
  5
BD06
330
BC7C
100
AcDbEntity
  8
1
  6
Continuous
100
AcDbLine
 10
166.268929
 20
306.3938269999998
 30
0.0
 11
157.268929
 21
306.3938269999998
 31
0.0
  0
ARC
  5
BD07
330
BC7C
100
AcDbEntity
  8
1
  6
Continuous
100
AcDbCircle
 10
166.268929
 20
310.3938269999998
 30
0.0
 40
4.0
100
AcDbArc
 50
270.0
 51
320.828323
  0
LINE
  5
BD08
330
BC7C
100
AcDbEntity
  8
1
  6
Continuous
100
AcDbLine
 10
193.6629409999999
 20
266.1438229999999
 30
0.0
 11
174.2388919999999
 21
272.994867
 31
0.0
  0
ARC
  5
BD09
330
BC7C
100
AcDbEntity
  8
1
  6
Continuous
100
AcDbCircle
 10
177.897782
 20
283.3685239999999
 30
0.0
 40
11.0
100
AcDbArc
 50
219.1716839999998
 51
250.571747
  0
ARC
  5
BD0A
330
BC7C
100
AcDbEntity
  8
1
  6
Continuous
100
AcDbCircle
 10
166.268929
 20
273.893823
 30
0.0
 40
4.0
100
AcDbArc
 50
39.171677
 51
90.0
  0
LINE
  5
BD0B
330
BC7C
100
AcDbEntity
  8
4
  6
CENTER
100
AcDbLine
 10
161.768929
 20
274.4382949999999
 30
0.0
 11
161.768929
 21
310.7241359999998
 31
0.0
  0
ARC
  5
BD0C
330
BC7C
100
AcDbEntity
  8
1
  6
Continuous
100
AcDbCircle
 10
144.268929
 20
306.143827
 30
0.0
 40
2.0
100
AcDbArc
 50
188.525505
 51
353.9346919999999
  0
ARC
  5
BD0D
330
BC7C
100
AcDbEntity
  8
1
  6
Continuous
100
AcDbCircle
 10
157.268929
 20
310.3938269999998
 30
0.0
 40
4.0
100
AcDbArc
 50
218.501469
 51
270.0
  0
ARC
  5
BD0E
330
BC7C
100
AcDbEntity
  8
1
  6
Continuous
100
AcDbCircle
 10
144.268929
 20
278.143823
 30
0.0
 40
2.0
100
AcDbArc
 50
6.065291999999998
 51
171.474487
  0
ARC
  5
BD0F
330
BC7C
100
AcDbEntity
  8
1
  6
Continuous
100
AcDbCircle
 10
161.173767
 20
279.9400729999999
 30
0.0
 40
15.0
100
AcDbArc
 50
186.0652809999999
 51
210.647165
  0
ARC
  5
BD10
330
BC7C
100
AcDbEntity
  8
1
  6
Continuous
100
AcDbCircle
 10
144.356156
 20
284.1656509999999
 30
0.0
 40
12.5
100
AcDbArc
 50
288.24144
 51
321.49852
  0
ARC
  5
BD11
330
BC7C
100
AcDbEntity
  8
1
  6
Continuous
100
AcDbCircle
 10
157.268929
 20
273.893823
 30
0.0
 40
4.0
100
AcDbArc
 50
90.0
 51
141.498535
  0
LINE
  5
BD12
330
BC7C
100
AcDbEntity
  8
4
  6
CENTER
100
AcDbLine
 10
134.268929
 20
278.3938229999999
 30
0.0
 11
134.268929
 21
265.8938229999999
 31
0.0
  0
LINE
  5
BD13
330
BC7C
100
AcDbEntity
  8
1
  6
Continuous
100
AcDbLine
 10
141.1915779999999
 20
271.106081
 30
0.0
 11
142.291027
 21
278.4403249999999
 31
0.0
  0
CIRCLE
  5
BD14
330
BC7C
100
AcDbEntity
  8
1
  6
Continuous
100
AcDbCircle
 10
134.268929
 20
272.1438229999999
 30
0.0
 40
3.25
  0
LINE
  5
BD15
330
BC7C
100
AcDbEntity
  8
4
  6
CENTER
100
AcDbLine
 10
52.0
 20
215.356679
 30
0.0
 11
52.0
 21
144.787148
 31
0.0
  0
LINE
  5
BD16
330
BC7C
100
AcDbEntity
  8
1
  6
Continuous
100
AcDbLine
 10
42.0
 20
206.872567
 30
0.0
 11
42.0
 21
150.468865
 31
0.0
  0
LINE
  5
BD17
330
BC7C
100
AcDbEntity
  8
1
  6
Continuous
100
AcDbLine
 10
62.0
 20
206.872567
 30
0.0
 11
62.0
 21
150.468865
 31
0.0
  0
ARC
  5
BD18
330
BC7C
100
AcDbEntity
  8
1
  6
Continuous
100
AcDbCircle
 10
52.0
 20
182.872567
 30
0.0
 40
35.0
100
AcDbArc
 50
255.301575
 51
284.6984249999998
  0
ARC
  5
BD19
330
BC7C
100
AcDbEntity
  8
1
  6
Continuous
100
AcDbCircle
 10
60.5
 20
150.468865
 30
0.0
 40
1.5
100
AcDbArc
 50
284.6984249999998
 51
0.0
  0
ARC
  5
BD1A
330
BC7C
100
AcDbEntity
  8
1
  6
Continuous
100
AcDbCircle
 10
43.5
 20
150.468865
 30
0.0
 40
1.5
100
AcDbArc
 50
180.0
 51
255.301575
  0
LINE
  5
BD1B
330
BC7C
100
AcDbEntity
  8
4
  6
CENTER
100
AcDbLine
 10
73.47280000000002
 20
172.872567
 30
0.0
 11
30.646424
 21
172.872567
 31
0.0
  0
LINE
  5
BD1C
330
BC7C
100
AcDbEntity
  8
1
  6
Continuous
100
AcDbLine
 10
64.25
 20
169.8725669999998
 30
0.0
 11
63.5
 21
169.8725669999998
 31
0.0
  0
LINE
  5
BD1D
330
BC7C
100
AcDbEntity
  8
1
  6
Continuous
100
AcDbLine
 10
64.25
 20
175.872567
 30
0.0
 11
63.5
 21
175.872567
 31
0.0
  0
LINE
  5
BD1E
330
BC7C
100
AcDbEntity
  8
1
  6
Continuous
100
AcDbLine
 10
79.00000099999998
 20
212.872567
 30
0.0
 11
25.0
 21
212.872567
 31
0.0
  0
ARC
  5
BD1F
330
BC7C
100
AcDbEntity
  8
1
  6
Continuous
100
AcDbCircle
 10
63.126946
 20
211.8725669999999
 30
0.0
 40
4.0
100
AcDbArc
 50
270.0
 51
286.3057779999999
  0
LINE
  5
BD20
330
BC7C
100
AcDbEntity
  8
1
  6
Continuous
100
AcDbLine
 10
79.00000099999998
 20
210.872567
 30
0.0
 11
25.0
 21
210.872567
 31
0.0
  0
LINE
  5
BD21
330
BC7C
100
AcDbEntity
  8
1
  6
Continuous
100
AcDbLine
 10
64.25
 20
164.4725659999998
 30
0.0
 11
64.25
 21
210.872567
 31
0.0
  0
ARC
  5
BD22
330
BC7C
100
AcDbEntity
  8
1
  6
Continuous
100
AcDbCircle
 10
66.37664100000001
 20
169.472566
 30
0.0
 40
5.0
100
AcDbArc
 50
270.0
 51
350.4772439999999
  0
LINE
  5
BD23
330
BC7C
100
AcDbEntity
  8
1
  6
Continuous
100
AcDbLine
 10
66.37664100000001
 20
164.4725659999998
 30
0.0
 11
64.25
 21
164.4725659999998
 31
0.0
  0
LINE
  5
BD24
330
BC7C
100
AcDbEntity
  8
1
  6
Continuous
100
AcDbLine
 10
127.268761
 20
210.872567
 30
0.0
 11
127.268761
 21
212.872567
 31
0.0
  0
LINE
  5
BD25
330
BC7C
100
AcDbEntity
  8
4
  6
CENTER
100
AcDbLine
 10
72.0
 20
215.1829269999999
 30
0.0
 11
72.0
 21
208.439143
 31
0.0
  0
LINE
  5
BD26
330
BC7C
100
AcDbEntity
  8
1
  6
Continuous
100
AcDbLine
 10
79.00000099999998
 20
210.872567
 30
0.0
 11
79.00000099999998
 21
212.872567
 31
0.0
  0
ARC
  5
BD27
330
BC7C
100
AcDbEntity
  8
1
  6
Continuous
100
AcDbCircle
 10
52.0
 20
162.872567
 30
0.0
 40
35.0
100
AcDbArc
 50
75.301575
 51
104.6984249999998
  0
LINE
  5
BD28
330
BC7C
100
AcDbEntity
  8
1
  6
Continuous
100
AcDbLine
 10
39.75
 20
164.4725659999998
 30
0.0
 11
39.75
 21
210.872567
 31
0.0
  0
ARC
  5
BD29
330
BC7C
100
AcDbEntity
  8
1
  6
Continuous
100
AcDbCircle
 10
54.15
 20
197.535802
 30
0.0
 40
22.0
100
AcDbArc
 50
142.683563
 51
184.2200389999999
  0
ARC
  5
BD2A
330
BC7C
100
AcDbEntity
  8
1
  6
Continuous
100
AcDbCircle
 10
54.15
 20
197.535802
 30
0.0
 40
20.0
100
AcDbArc
 50
138.176498
 51
184.2007289999999
  0
LINE
  5
BD2B
330
BC7C
100
AcDbEntity
  8
1
  6
Continuous
100
AcDbLine
 10
40.49999999999999
 20
181.372567
 30
0.0
 11
40.49999999999999
 21
164.372567
 31
0.0
  0
LINE
  5
BD2C
330
BC7C
100
AcDbEntity
  8
1
  6
Continuous
100
AcDbLine
 10
63.5
 20
181.372567
 30
0.0
 11
63.5
 21
164.372567
 31
0.0
  0
LINE
  5
BD2D
330
BC7C
100
AcDbEntity
  8
1
  6
Continuous
100
AcDbLine
 10
63.5
 20
164.372567
 30
0.0
 11
62.0
 21
164.372567
 31
0.0
  0
LINE
  5
BD2E
330
BC7C
100
AcDbEntity
  8
1
  6
Continuous
100
AcDbLine
 10
37.62335999999999
 20
164.4725659999998
 30
0.0
 11
39.75
 21
164.4725659999998
 31
0.0
  0
ARC
  5
BD2F
330
BC7C
100
AcDbEntity
  8
1
  6
Continuous
100
AcDbCircle
 10
39.312298
 20
167.472566
 30
0.0
 40
3.0
100
AcDbArc
 50
184.2007289999999
 51
270.0
  0
LINE
  5
BD30
330
BC7C
100
AcDbEntity
  8
1
  6
Continuous
100
AcDbLine
 10
42.0
 20
164.372567
 30
0.0
 11
40.49999999999999
 21
164.372567
 31
0.0
  0
LINE
  5
BD31
330
BC7C
100
AcDbEntity
  8
1
  6
Continuous
100
AcDbLine
 10
39.75
 20
169.8725669999998
 30
0.0
 11
40.49999999999999
 21
169.8725669999998
 31
0.0
  0
ARC
  5
BD32
330
BC7C
100
AcDbEntity
  8
1
  6
Continuous
100
AcDbCircle
 10
38.245556
 20
168.4725659999998
 30
0.0
 40
4.0
100
AcDbArc
 50
184.2200389999999
 51
270.0
  0
LINE
  5
BD33
330
BC7C
100
AcDbEntity
  8
1
  6
Continuous
100
AcDbLine
 10
63.5
 20
181.372567
 30
0.0
 11
62.0
 21
181.372567
 31
0.0
  0
ARC
  5
BD34
330
BC7C
100
AcDbEntity
  8
1
  6
Continuous
100
AcDbCircle
 10
60.5
 20
195.2762689999999
 30
0.0
 40
1.5
100
AcDbArc
 50
0.0
 51
75.301575
  0
LINE
  5
BD35
330
BC7C
100
AcDbEntity
  8
1
  6
Continuous
100
AcDbLine
 10
39.75
 20
175.872567
 30
0.0
 11
40.49999999999999
 21
175.872567
 31
0.0
  0
LINE
  5
BD36
330
BC7C
100
AcDbEntity
  8
1
  6
Continuous
100
AcDbLine
 10
42.0
 20
181.372567
 30
0.0
 11
40.49999999999999
 21
181.372567
 31
0.0
  0
ARC
  5
BD37
330
BC7C
100
AcDbEntity
  8
1
  6
Continuous
100
AcDbCircle
 10
43.5
 20
195.2762689999999
 30
0.0
 40
1.5
100
AcDbArc
 50
104.6984249999998
 51
180.0
  0
LINE
  5
BD38
330
BC7C
100
AcDbEntity
  8
1
  6
Continuous
100
AcDbLine
 10
63.126946
 20
207.8725669999998
 30
0.0
 11
40.872918
 21
207.8725669999998
 31
0.0
  0
LINE
  5
BD39
330
BC7C
100
AcDbEntity
  8
1
  6
Continuous
100
AcDbLine
 10
62.0
 20
206.872567
 30
0.0
 11
42.0
 21
206.872567
 31
0.0
  0
LINE
  5
BD3A
330
BC7C
100
AcDbEntity
  8
1
  6
Continuous
100
AcDbLine
 10
58.5
 20
207.8725669999998
 30
0.0
 11
58.5
 21
206.872567
 31
0.0
  0
LINE
  5
BD3B
330
BC7C
100
AcDbEntity
  8
4
  6
CENTER
100
AcDbLine
 10
32.0
 20
215.1829269999999
 30
0.0
 11
32.0
 21
208.439143
 31
0.0
  0
LINE
  5
BD3C
330
BC7C
100
AcDbEntity
  8
1
  6
Continuous
100
AcDbLine
 10
45.49999999999999
 20
207.8725669999998
 30
0.0
 11
45.49999999999999
 21
206.872567
 31
0.0
  0
ARC
  5
BD3D
330
BC7C
100
AcDbEntity
  8
1
  6
Continuous
100
AcDbCircle
 10
40.872918
 20
211.8725669999999
 30
0.0
 40
4.0
100
AcDbArc
 50
253.6962519999999
 51
270.0
  0
LINE
  5
BD3E
330
BC7C
100
AcDbEntity
  8
1
  6
Continuous
100
AcDbLine
 10
25.0
 20
210.872567
 30
0.0
 11
25.0
 21
212.872567
 31
0.0
  0
LINE
  5
BD3F
330
BC7C
100
AcDbEntity
  8
1
  6
Continuous
100
AcDbLine
 10
127.2689289999999
 20
312.143827
 30
0.0
 11
127.2689289999999
 21
272.1438309999999
 31
0.0
  0
LINE
  5
BD40
330
BC7C
100
AcDbEntity
  8
1
  6
Continuous
100
AcDbLine
 10
212.768929
 20
171.372659
 30
0.0
 11
202.768929
 21
171.372659
 31
0.0
  0
ARC
  5
BD41
330
BC7C
100
AcDbEntity
  8
1
  6
Continuous
100
AcDbCircle
 10
224.118929
 20
157.872659
 30
0.0
 40
2.5
100
AcDbArc
 50
0.0
 51
90.0
  0
LINE
  5
BD42
330
BC7C
100
AcDbEntity
  8
1
  6
Continuous
100
AcDbLine
 10
226.618929
 20
151.8726589999999
 30
0.0
 11
226.618929
 21
157.872659
 31
0.0
  0
ARC
  5
BD43
330
BC7C
100
AcDbEntity
  8
1
  6
Continuous
100
AcDbCircle
 10
207.768929
 20
292.143823
 30
0.0
 40
18.85
100
AcDbArc
 50
348.9416519999999
 51
11.058348
  0
ARC
  5
BD44
330
BC7C
100
AcDbEntity
  8
1
  6
Continuous
100
AcDbCircle
 10
74.0
 20
208.872567
 30
0.0
 40
4.0
100
AcDbArc
 50
350.4772439999999
 51
30.0
  0
LINE
  5
BD45
330
BC7C
100
AcDbEntity
  8
1
  6
Continuous
100
AcDbLine
 10
217.583611
 20
168.372659
 30
0.0
 11
197.9536979999998
 21
168.372659
 31
0.0
  0
LINE
  5
BD46
330
BC7C
100
AcDbEntity
  8
2
  6
Continuous
100
AcDbLine
 10
212.768929
 20
169.9662339999999
 30
0.0
 11
211.956929
 21
171.372659
 31
0.0
  0
LINE
  5
BD47
330
BC7C
100
AcDbEntity
  8
2
  6
Continuous
100
AcDbLine
 10
202.768929
 20
169.9662339999999
 30
0.0
 11
203.5809289999999
 21
171.372659
 31
0.0
  0
LINE
  5
BD48
330
BC7C
100
AcDbEntity
  8
2
  6
Continuous
100
AcDbLine
 10
211.956929
 20
171.372659
 30
0.0
 11
211.956929
 21
179.872567
 31
0.0
  0
LINE
  5
BD49
330
BC7C
100
AcDbEntity
  8
2
  6
Continuous
100
AcDbLine
 10
203.5809289999999
 20
171.372659
 30
0.0
 11
203.5809289999999
 21
179.872567
 31
0.0
  0
ARC
  5
BD4A
330
BC7C
100
AcDbEntity
  8
1
  6
Continuous
100
AcDbCircle
 10
68.34999999999999
 20
157.872567
 30
0.0
 40
2.5
100
AcDbArc
 50
0.0
 51
90.0
  0
LINE
  5
BD4B
330
BC7C
100
AcDbEntity
  8
1
  6
Continuous
100
AcDbLine
 10
68.34983199999999
 20
160.372567
 30
0.0
 11
62.0
 21
160.372567
 31
0.0
  0
LINE
  5
BD4C
330
BC7C
100
AcDbEntity
  8
1
  6
Continuous
100
AcDbLine
 10
70.84999999999998
 20
151.872567
 30
0.0
 11
70.84999999999998
 21
157.872567
 31
0.0
  0
LINE
  5
BD4D
330
BC7C
100
AcDbEntity
  8
1
  6
Continuous
100
AcDbLine
 10
41.5
 20
160.372567
 30
0.0
 11
41.5
 21
161.372567
 31
0.0
  0
ARC
  5
BD4E
330
BC7C
100
AcDbEntity
  8
1
  6
Continuous
100
AcDbCircle
 10
35.64999999999999
 20
157.872567
 30
0.0
 40
2.5
100
AcDbArc
 50
90.0
 51
180.0
  0
LINE
  5
BD4F
330
BC7C
100
AcDbEntity
  8
1
  6
Continuous
100
AcDbLine
 10
33.14999999999999
 20
151.872567
 30
0.0
 11
33.14999999999999
 21
157.872567
 31
0.0
  0
LINE
  5
BD50
330
BC7C
100
AcDbEntity
  8
1
  6
Continuous
100
AcDbLine
 10
34.74999099999998
 20
151.872567
 30
0.0
 11
34.74999099999998
 21
147.872567
 31
0.0
  0
LINE
  5
BD51
330
BC7C
100
AcDbEntity
  8
1
  6
Continuous
100
AcDbLine
 10
69.249994
 20
147.872567
 30
0.0
 11
34.74999099999998
 21
147.872567
 31
0.0
  0
LINE
  5
BD52
330
BC7C
100
AcDbEntity
  8
1
  6
Continuous
100
AcDbLine
 10
70.84999999999998
 20
151.872567
 30
0.0
 11
62.0
 21
151.872567
 31
0.0
  0
LINE
  5
BD53
330
BC7C
100
AcDbEntity
  8
1
  6
Continuous
100
AcDbLine
 10
69.249994
 20
151.872567
 30
0.0
 11
69.249994
 21
147.872567
 31
0.0
  0
LINE
  5
BD54
330
BC7C
100
AcDbEntity
  8
1
  6
Continuous
100
AcDbLine
 10
42.0
 20
151.872567
 30
0.0
 11
33.14999999999999
 21
151.872567
 31
0.0
  0
LINE
  5
BD55
330
BC7C
100
AcDbEntity
  8
1
  6
Continuous
100
AcDbLine
 10
42.0
 20
160.372567
 30
0.0
 11
35.64999999999999
 21
160.372567
 31
0.0
  0
LINE
  5
BD56
330
BC7C
100
AcDbEntity
  8
1
  6
Continuous
100
AcDbLine
 10
41.5
 20
161.372567
 30
0.0
 11
42.0
 21
161.372567
 31
0.0
  0
LINE
  5
BD57
330
BC7C
100
AcDbEntity
  8
1
  6
Continuous
100
AcDbLine
 10
62.5
 20
161.372567
 30
0.0
 11
62.0
 21
161.372567
 31
0.0
  0
LINE
  5
BD58
330
BC7C
100
AcDbEntity
  8
1
  6
Continuous
100
AcDbLine
 10
62.5
 20
160.372567
 30
0.0
 11
62.5
 21
161.372567
 31
0.0
  0
LINE
  5
BD59
330
BC7C
100
AcDbEntity
  8
5
  6
PHANTOM
100
AcDbLine
 10
225.018923
 20
141.872659
 30
0.0
 11
225.018923
 21
137.872659
 31
0.0
  0
LINE
  5
BD5A
330
BC7C
100
AcDbEntity
  8
5
  6
PHANTOM
100
AcDbLine
 10
225.018923
 20
137.872659
 30
0.0
 11
190.51892
 21
137.872659
 31
0.0
  0
ARC
  5
BD5B
330
BC7C
100
AcDbEntity
  8
5
  6
PHANTOM
100
AcDbCircle
 10
224.118929
 20
147.8726589999999
 30
0.0
 40
2.5
100
AcDbArc
 50
0.0
 51
90.0
  0
LINE
  5
BD5C
330
BC7C
100
AcDbEntity
  8
5
  6
PHANTOM
100
AcDbLine
 10
224.1187609999998
 20
150.372659
 30
0.0
 11
191.4189289999999
 21
150.372659
 31
0.0
  0
LINE
  5
BD5D
330
BC7C
100
AcDbEntity
  8
5
  6
PHANTOM
100
AcDbLine
 10
226.618929
 20
141.872659
 30
0.0
 11
188.918929
 21
141.872659
 31
0.0
  0
LINE
  5
BD5E
330
BC7C
100
AcDbEntity
  8
5
  6
PHANTOM
100
AcDbLine
 10
226.618929
 20
141.872659
 30
0.0
 11
226.618929
 21
147.8726589999999
 31
0.0
  0
LINE
  5
BD5F
330
BC7C
100
AcDbEntity
  8
5
  6
PHANTOM
100
AcDbLine
 10
190.51892
 20
141.872659
 30
0.0
 11
190.51892
 21
137.872659
 31
0.0
  0
LINE
  5
BD60
330
BC7C
100
AcDbEntity
  8
5
  6
PHANTOM
100
AcDbLine
 10
188.918929
 20
141.872659
 30
0.0
 11
188.918929
 21
147.8726589999999
 31
0.0
  0
ARC
  5
BD61
330
BC7C
100
AcDbEntity
  8
5
  6
PHANTOM
100
AcDbCircle
 10
191.4189289999999
 20
147.8726589999999
 30
0.0
 40
2.5
100
AcDbArc
 50
90.0
 51
180.0
  0
ARC
  5
BD62
330
BC7C
100
AcDbEntity
  8
5
  6
PHANTOM
100
AcDbCircle
 10
224.118929
 20
167.872659
 30
0.0
 40
2.5
100
AcDbArc
 50
0.0
 51
90.0
  0
LINE
  5
BD63
330
BC7C
100
AcDbEntity
  8
5
  6
PHANTOM
100
AcDbLine
 10
226.618929
 20
161.872659
 30
0.0
 11
188.918929
 21
161.872659
 31
0.0
  0
LINE
  5
BD64
330
BC7C
100
AcDbEntity
  8
5
  6
PHANTOM
100
AcDbLine
 10
226.618929
 20
161.872659
 30
0.0
 11
226.618929
 21
167.872659
 31
0.0
  0
LINE
  5
BD65
330
BC7C
100
AcDbEntity
  8
5
  6
PHANTOM
100
AcDbLine
 10
225.018923
 20
157.872659
 30
0.0
 11
190.51892
 21
157.872659
 31
0.0
  0
LINE
  5
BD66
330
BC7C
100
AcDbEntity
  8
5
  6
PHANTOM
100
AcDbLine
 10
225.018923
 20
161.872659
 30
0.0
 11
225.018923
 21
157.872659
 31
0.0
  0
LINE
  5
BD67
330
BC7C
100
AcDbEntity
  8
5
  6
PHANTOM
100
AcDbLine
 10
224.1187609999998
 20
170.372659
 30
0.0
 11
191.4189289999999
 21
170.372659
 31
0.0
  0
ARC
  5
BD68
330
BC7C
100
AcDbEntity
  8
5
  6
PHANTOM
100
AcDbCircle
 10
191.4189289999999
 20
167.872659
 30
0.0
 40
2.5
100
AcDbArc
 50
90.0
 51
180.0
  0
LINE
  5
BD69
330
BC7C
100
AcDbEntity
  8
5
  6
PHANTOM
100
AcDbLine
 10
190.51892
 20
161.872659
 30
0.0
 11
190.51892
 21
157.872659
 31
0.0
  0
LINE
  5
BD6A
330
BC7C
100
AcDbEntity
  8
5
  6
PHANTOM
100
AcDbLine
 10
188.918929
 20
161.872659
 30
0.0
 11
188.918929
 21
167.872659
 31
0.0
  0
LINE
  5
BD6B
330
BC7C
100
AcDbEntity
  8
1
  6
Continuous
100
AcDbLine
 10
318.7876989999999
 20
151.872567
 30
0.0
 11
318.7876989999999
 21
147.872567
 31
0.0
  0
LINE
  5
BD6C
330
BC7C
100
AcDbEntity
  8
1
  6
Continuous
100
AcDbLine
 10
284.2876959999999
 20
151.872567
 30
0.0
 11
284.2876959999999
 21
147.872567
 31
0.0
  0
LINE
  5
BD6D
330
BC7C
100
AcDbEntity
  8
4
  6
CENTER
100
AcDbLine
 10
301.53769
 20
215.356679
 30
0.0
 11
301.53769
 21
144.787148
 31
0.0
  0
LINE
  5
BD6E
330
BC7C
100
AcDbEntity
  8
1
  6
Continuous
100
AcDbLine
 10
284.2876959999999
 20
147.872567
 30
0.0
 11
318.7876989999999
 21
147.872567
 31
0.0
  0
ARC
  5
BD6F
330
BC7C
100
AcDbEntity
  8
1
  6
Continuous
100
AcDbCircle
 10
317.8876899999999
 20
157.872567
 30
0.0
 40
2.5
100
AcDbArc
 50
0.0
 51
90.0
  0
LINE
  5
BD70
330
BC7C
100
AcDbEntity
  8
1
  6
Continuous
100
AcDbLine
 10
274.537689
 20
210.872567
 30
0.0
 11
328.53769
 21
210.872567
 31
0.0
  0
LINE
  5
BD71
330
BC7C
100
AcDbEntity
  8
1
  6
Continuous
100
AcDbLine
 10
274.537689
 20
212.872567
 30
0.0
 11
328.53769
 21
212.872567
 31
0.0
  0
LINE
  5
BD72
330
BC7C
100
AcDbEntity
  8
4
  6
CENTER
100
AcDbLine
 10
280.06489
 20
172.872567
 30
0.0
 11
322.8912659999999
 21
172.872567
 31
0.0
  0
LINE
  5
BD73
330
BC7C
100
AcDbEntity
  8
1
  6
Continuous
100
AcDbLine
 10
320.3876899999999
 20
151.872567
 30
0.0
 11
320.3876899999999
 21
157.872567
 31
0.0
  0
LINE
  5
BD74
330
BC7C
100
AcDbEntity
  8
1
  6
Continuous
100
AcDbLine
 10
328.53769
 20
210.872567
 30
0.0
 11
328.53769
 21
212.872567
 31
0.0
  0
LINE
  5
BD75
330
BC7C
100
AcDbEntity
  8
4
  6
CENTER
100
AcDbLine
 10
321.5376899999998
 20
215.1829269999999
 30
0.0
 11
321.5376899999998
 21
208.439143
 31
0.0
  0
LINE
  5
BD76
330
BC7C
100
AcDbEntity
  8
1
  6
Continuous
100
AcDbLine
 10
313.78769
 20
164.4725659999998
 30
0.0
 11
313.78769
 21
208.0334189999999
 31
0.0
  0
LINE
  5
BD77
330
BC7C
100
AcDbEntity
  8
1
  6
Continuous
100
AcDbLine
 10
289.28769
 20
164.4725659999998
 30
0.0
 11
289.28769
 21
208.033459
 31
0.0
  0
LINE
  5
BD78
330
BC7C
100
AcDbEntity
  8
1
  6
Continuous
100
AcDbLine
 10
291.53769
 20
206.872567
 30
0.0
 11
291.53769
 21
161.372567
 31
0.0
  0
LINE
  5
BD79
330
BC7C
100
AcDbEntity
  8
1
  6
Continuous
100
AcDbLine
 10
311.53769
 20
206.872567
 30
0.0
 11
311.53769
 21
161.372567
 31
0.0
  0
LINE
  5
BD7A
330
BC7C
100
AcDbEntity
  8
1
  6
Continuous
100
AcDbLine
 10
285.187858
 20
160.372567
 30
0.0
 11
317.8876899999999
 21
160.372567
 31
0.0
  0
LINE
  5
BD7B
330
BC7C
100
AcDbEntity
  8
1
  6
Continuous
100
AcDbLine
 10
282.6876899999998
 20
151.872567
 30
0.0
 11
320.3876899999999
 21
151.872567
 31
0.0
  0
LINE
  5
BD7C
330
BC7C
100
AcDbEntity
  8
1
  6
Continuous
100
AcDbLine
 10
290.0376899999999
 20
181.372567
 30
0.0
 11
290.0376899999999
 21
164.372567
 31
0.0
  0
LINE
  5
BD7D
330
BC7C
100
AcDbEntity
  8
1
  6
Continuous
100
AcDbLine
 10
313.0376899999999
 20
181.372567
 30
0.0
 11
313.0376899999999
 21
164.372567
 31
0.0
  0
LINE
  5
BD7E
330
BC7C
100
AcDbEntity
  8
1
  6
Continuous
100
AcDbLine
 10
312.03769
 20
160.372567
 30
0.0
 11
312.03769
 21
161.372567
 31
0.0
  0
LINE
  5
BD7F
330
BC7C
100
AcDbEntity
  8
1
  6
Continuous
100
AcDbLine
 10
313.78769
 20
169.8725669999998
 30
0.0
 11
313.0376899999999
 21
169.8725669999998
 31
0.0
  0
LINE
  5
BD80
330
BC7C
100
AcDbEntity
  8
1
  6
Continuous
100
AcDbLine
 10
311.53769
 20
164.372567
 30
0.0
 11
313.0376899999999
 21
164.372567
 31
0.0
  0
LINE
  5
BD81
330
BC7C
100
AcDbEntity
  8
1
  6
Continuous
100
AcDbLine
 10
315.914331
 20
164.4725659999998
 30
0.0
 11
313.78769
 21
164.4725659999998
 31
0.0
  0
LINE
  5
BD82
330
BC7C
100
AcDbEntity
  8
1
  6
Continuous
100
AcDbLine
 10
291.03769
 20
160.372567
 30
0.0
 11
291.03769
 21
161.372567
 31
0.0
  0
LINE
  5
BD83
330
BC7C
100
AcDbEntity
  8
1
  6
Continuous
100
AcDbLine
 10
291.03769
 20
161.372567
 30
0.0
 11
312.03769
 21
161.372567
 31
0.0
  0
LINE
  5
BD84
330
BC7C
100
AcDbEntity
  8
1
  6
Continuous
100
AcDbLine
 10
290.0376899999999
 20
164.372567
 30
0.0
 11
291.53769
 21
164.372567
 31
0.0
  0
LINE
  5
BD85
330
BC7C
100
AcDbEntity
  8
1
  6
Continuous
100
AcDbLine
 10
289.28769
 20
169.8725669999998
 30
0.0
 11
290.0376899999999
 21
169.8725669999998
 31
0.0
  0
LINE
  5
BD86
330
BC7C
100
AcDbEntity
  8
1
  6
Continuous
100
AcDbLine
 10
311.53769
 20
181.372567
 30
0.0
 11
313.0376899999999
 21
181.372567
 31
0.0
  0
LINE
  5
BD87
330
BC7C
100
AcDbEntity
  8
1
  6
Continuous
100
AcDbLine
 10
313.78769
 20
175.872567
 30
0.0
 11
313.0376899999999
 21
175.872567
 31
0.0
  0
LINE
  5
BD88
330
BC7C
100
AcDbEntity
  8
1
  6
Continuous
100
AcDbLine
 10
290.0376899999999
 20
181.372567
 30
0.0
 11
291.53769
 21
181.372567
 31
0.0
  0
LINE
  5
BD89
330
BC7C
100
AcDbEntity
  8
1
  6
Continuous
100
AcDbLine
 10
289.28769
 20
175.872567
 30
0.0
 11
290.0376899999999
 21
175.872567
 31
0.0
  0
LINE
  5
BD8A
330
BC7C
100
AcDbEntity
  8
1
  6
Continuous
100
AcDbLine
 10
282.6876899999998
 20
151.872567
 30
0.0
 11
282.6876899999998
 21
157.872567
 31
0.0
  0
ARC
  5
BD8B
330
BC7C
100
AcDbEntity
  8
1
  6
Continuous
100
AcDbCircle
 10
285.1876899999999
 20
157.872567
 30
0.0
 40
2.5
100
AcDbArc
 50
90.0
 51
180.0
  0
LINE
  5
BD8C
330
BC7C
100
AcDbEntity
  8
1
  6
Continuous
100
AcDbLine
 10
291.53769
 20
206.872567
 30
0.0
 11
311.53769
 21
206.872567
 31
0.0
  0
LINE
  5
BD8D
330
BC7C
100
AcDbEntity
  8
1
  6
Continuous
100
AcDbLine
 10
290.410744
 20
207.8725669999998
 30
0.0
 11
312.6647720000002
 21
207.8725669999998
 31
0.0
  0
ARC
  5
BD8E
330
BC7C
100
AcDbEntity
  8
1
  6
Continuous
100
AcDbCircle
 10
312.6647720000002
 20
211.8725669999999
 30
0.0
 40
4.0
100
AcDbArc
 50
270.0
 51
345.522488
  0
LINE
  5
BD8F
330
BC7C
100
AcDbEntity
  8
1
  6
Continuous
100
AcDbLine
 10
308.03769
 20
207.8725669999998
 30
0.0
 11
308.03769
 21
206.872567
 31
0.0
  0
LINE
  5
BD90
330
BC7C
100
AcDbEntity
  8
1
  6
Continuous
100
AcDbLine
 10
295.03769
 20
207.8725669999998
 30
0.0
 11
295.03769
 21
206.872567
 31
0.0
  0
ARC
  5
BD91
330
BC7C
100
AcDbEntity
  8
1
  6
Continuous
100
AcDbCircle
 10
290.410744
 20
211.8725669999999
 30
0.0
 40
4.0
100
AcDbArc
 50
194.4775119999999
 51
270.0
  0
LINE
  5
BD92
330
BC7C
100
AcDbEntity
  8
1
  6
Continuous
100
AcDbLine
 10
274.537689
 20
210.872567
 30
0.0
 11
274.537689
 21
212.872567
 31
0.0
  0
LINE
  5
BD93
330
BC7C
100
AcDbEntity
  8
4
  6
CENTER
100
AcDbLine
 10
281.53769
 20
215.1829269999999
 30
0.0
 11
281.53769
 21
208.439143
 31
0.0
  0
LINE
  5
BD94
330
BC7C
100
AcDbEntity
  8
1
  6
Continuous
100
AcDbLine
 10
311.537758
 20
189.872567
 30
0.0
 11
291.5377579999999
 21
189.872567
 31
0.0
  0
LINE
  5
BD95
330
BC7C
100
AcDbEntity
  8
1
  6
Continuous
100
AcDbLine
 10
311.537758
 20
189.872567
 30
0.0
 11
308.5377579999998
 21
179.872567
 31
0.0
  0
LINE
  5
BD96
330
BC7C
100
AcDbEntity
  8
1
  6
Continuous
100
AcDbLine
 10
308.5377579999998
 20
179.872567
 30
0.0
 11
294.537758
 21
179.872567
 31
0.0
  0
LINE
  5
BD97
330
BC7C
100
AcDbEntity
  8
1
  6
Continuous
100
AcDbLine
 10
291.5377579999999
 20
189.872567
 30
0.0
 11
294.537758
 21
179.872567
 31
0.0
  0
LINE
  5
BD98
330
BC7C
100
AcDbEntity
  8
2
  6
Continuous
100
AcDbLine
 10
306.5377579999998
 20
169.9662339999999
 30
0.0
 11
305.7257579999999
 21
171.372659
 31
0.0
  0
LINE
  5
BD99
330
BC7C
100
AcDbEntity
  8
1
  6
Continuous
100
AcDbLine
 10
306.5377579999998
 20
179.872567
 30
0.0
 11
306.5377579999998
 21
168.372659
 31
0.0
  0
LINE
  5
BD9A
330
BC7C
100
AcDbEntity
  8
1
  6
Continuous
100
AcDbLine
 10
310.03769
 20
168.372659
 30
0.0
 11
293.03769
 21
168.372659
 31
0.0
  0
LINE
  5
BD9B
330
BC7C
100
AcDbEntity
  8
1
  6
Continuous
100
AcDbLine
 10
301.53769
 20
162.3128439999999
 30
0.0
 11
301.53769
 21
168.372659
 31
0.0
  0
LINE
  5
BD9C
330
BC7C
100
AcDbEntity
  8
1
  6
Continuous
100
AcDbLine
 10
306.5377579999998
 20
171.372659
 30
0.0
 11
296.537758
 21
171.372659
 31
0.0
  0
LINE
  5
BD9D
330
BC7C
100
AcDbEntity
  8
2
  6
Continuous
100
AcDbLine
 10
305.7257579999999
 20
171.372659
 30
0.0
 11
305.7257579999999
 21
179.872567
 31
0.0
  0
LINE
  5
BD9E
330
BC7C
100
AcDbEntity
  8
2
  6
Continuous
100
AcDbLine
 10
296.537758
 20
169.9662339999999
 30
0.0
 11
297.349758
 21
171.372659
 31
0.0
  0
LINE
  5
BD9F
330
BC7C
100
AcDbEntity
  8
1
  6
Continuous
100
AcDbLine
 10
296.537758
 20
179.872567
 30
0.0
 11
296.537758
 21
168.372659
 31
0.0
  0
LINE
  5
BDA0
330
BC7C
100
AcDbEntity
  8
2
  6
Continuous
100
AcDbLine
 10
297.349758
 20
171.372659
 30
0.0
 11
297.349758
 21
179.872567
 31
0.0
  0
LINE
  5
BDA1
330
BC7C
100
AcDbEntity
  8
1
  6
Continuous
100
AcDbLine
 10
446.343347
 20
164.4725659999998
 30
0.0
 11
431.931199
 21
164.4725659999998
 31
0.0
  0
ARC
  5
BDA2
330
BC7C
100
AcDbEntity
  8
1
  6
Continuous
100
AcDbCircle
 10
441.3064509999998
 20
172.872567
 30
0.0
 40
17.5
100
AcDbArc
 50
168.5511119999999
 51
48.44329699999999
  0
LINE
  5
BDA3
330
BC7C
100
AcDbEntity
  8
4
  6
CENTER
100
AcDbLine
 10
413.3064509999998
 20
172.872567
 30
0.0
 11
469.306451
 21
172.872567
 31
0.0
  0
ARC
  5
BDA4
330
BC7C
100
AcDbEntity
  8
1
  6
Continuous
100
AcDbCircle
 10
441.3064509999998
 20
172.872567
 30
0.0
 40
25.0
100
AcDbArc
 50
148.490295
 51
59.15197399999999
  0
LINE
  5
BDA5
330
BC7C
100
AcDbEntity
  8
1
  6
Continuous
100
AcDbLine
 10
475.806619
 20
212.872567
 30
0.0
 11
376.8064509999998
 21
212.872567
 31
0.0
  0
LINE
  5
BDA6
330
BC7C
100
AcDbEntity
  8
4
  6
CENTER
100
AcDbLine
 10
441.3064509999998
 20
144.8725669999998
 30
0.0
 11
441.3064509999998
 21
200.872567
 31
0.0
  0
LINE
  5
BDA7
330
BC7C
100
AcDbEntity
  8
1
  6
Continuous
100
AcDbLine
 10
456.310746
 20
209.4451229999999
 30
0.0
 11
450.3021559999998
 21
167.90001
 31
0.0
  0
LINE
  5
BDA8
330
BC7C
100
AcDbEntity
  8
1
  6
Continuous
100
AcDbLine
 10
446.8064509999998
 20
169.262193
 30
0.0
 11
446.8064509999998
 21
207.2576949999999
 31
0.0
  0
ARC
  5
BDA9
330
BC7C
100
AcDbEntity
  8
1
  6
Continuous
100
AcDbCircle
 10
446.343347
 20
168.4725659999998
 30
0.0
 40
4.0
100
AcDbArc
 50
270.0
 51
351.770477
  0
LINE
  5
BDAA
330
BC7C
100
AcDbEntity
  8
1
  6
Continuous
100
AcDbLine
 10
459.9803019999998
 20
210.872567
 30
0.0
 11
475.806619
 21
210.872567
 31
0.0
  0
LINE
  5
BDAB
330
BC7C
100
AcDbEntity
  8
1
  6
Continuous
100
AcDbLine
 10
475.806619
 20
210.872567
 30
0.0
 11
475.806619
 21
212.872567
 31
0.0
  0
LINE
  5
BDAC
330
BC7C
100
AcDbEntity
  8
4
  6
CENTER
100
AcDbLine
 10
468.8066189999998
 20
208.259301
 30
0.0
 11
468.8066189999998
 21
215.7302539999998
 31
0.0
  0
ARC
  5
BDAD
330
BC7C
100
AcDbEntity
  8
1
  6
Continuous
100
AcDbCircle
 10
460.2695549999999
 20
208.872567
 30
0.0
 40
4.0
100
AcDbArc
 50
90.0
 51
171.770477
  0
ARC
  5
BDAE
330
BC7C
100
AcDbEntity
  8
1
  6
Continuous
100
AcDbCircle
 10
459.9803019999998
 20
206.872567
 30
0.0
 40
4.0
100
AcDbArc
 50
90.0
 51
171.770477
  0
ARC
  5
BDAF
330
BC7C
100
AcDbEntity
  8
5
  6
PHANTOM
100
AcDbCircle
 10
411.6564509999998
 20
147.8726589999999
 30
0.0
 40
2.5
100
AcDbArc
 50
0.0
 51
90.0
  0
ARC
  5
BDB0
330
BC7C
100
AcDbEntity
  8
5
  6
PHANTOM
100
AcDbCircle
 10
378.9564509999999
 20
147.8726589999999
 30
0.0
 40
2.5
100
AcDbArc
 50
90.0
 51
180.0
  0
LINE
  5
BDB1
330
BC7C
100
AcDbEntity
  8
4
  6
CENTER
100
AcDbLine
 10
395.3064509999999
 20
136.2132419999998
 30
0.0
 11
395.3064509999999
 21
216.2355849999999
 31
0.0
  0
LINE
  5
BDB2
330
BC7C
100
AcDbEntity
  8
1
  6
Continuous
100
AcDbLine
 10
378.0564569999999
 20
151.8726589999999
 30
0.0
 11
378.0564569999999
 21
147.8726589999999
 31
0.0
  0
LINE
  5
BDB3
330
BC7C
100
AcDbEntity
  8
1
  6
Continuous
100
AcDbLine
 10
412.55646
 20
151.8726589999999
 30
0.0
 11
412.55646
 21
147.8726589999999
 31
0.0
  0
LINE
  5
BDB4
330
BC7C
100
AcDbEntity
  8
5
  6
PHANTOM
100
AcDbLine
 10
378.0564569999999
 20
137.872659
 30
0.0
 11
412.55646
 21
137.872659
 31
0.0
  0
LINE
  5
BDB5
330
BC7C
100
AcDbEntity
  8
5
  6
PHANTOM
100
AcDbLine
 10
376.4564509999999
 20
141.872659
 30
0.0
 11
414.156451
 21
141.872659
 31
0.0
  0
LINE
  5
BDB6
330
BC7C
100
AcDbEntity
  8
1
  6
Continuous
100
AcDbLine
 10
378.0564569999999
 20
147.8726589999999
 30
0.0
 11
412.55646
 21
147.8726589999999
 31
0.0
  0
LINE
  5
BDB7
330
BC7C
100
AcDbEntity
  8
5
  6
PHANTOM
100
AcDbLine
 10
412.55646
 20
141.872659
 30
0.0
 11
412.55646
 21
137.872659
 31
0.0
  0
LINE
  5
BDB8
330
BC7C
100
AcDbEntity
  8
5
  6
PHANTOM
100
AcDbLine
 10
414.156451
 20
141.872659
 30
0.0
 11
414.156451
 21
147.8726589999999
 31
0.0
  0
LINE
  5
BDB9
330
BC7C
100
AcDbEntity
  8
5
  6
PHANTOM
100
AcDbLine
 10
378.0564569999999
 20
141.872659
 30
0.0
 11
378.0564569999999
 21
137.872659
 31
0.0
  0
LINE
  5
BDBA
330
BC7C
100
AcDbEntity
  8
5
  6
PHANTOM
100
AcDbLine
 10
376.4564509999999
 20
141.872659
 30
0.0
 11
376.4564509999999
 21
147.8726589999999
 31
0.0
  0
ARC
  5
BDBB
330
BC7C
100
AcDbEntity
  8
5
  6
PHANTOM
100
AcDbCircle
 10
378.9564509999999
 20
167.872659
 30
0.0
 40
2.5
100
AcDbArc
 50
90.0
 51
180.0
  0
ARC
  5
BDBC
330
BC7C
100
AcDbEntity
  8
1
  6
Continuous
100
AcDbCircle
 10
378.9564509999999
 20
157.872659
 30
0.0
 40
2.5
100
AcDbArc
 50
90.0
 51
180.0
  0
LINE
  5
BDBD
330
BC7C
100
AcDbEntity
  8
1
  6
Continuous
100
AcDbLine
 10
409.35119
 20
210.4646999999999
 30
0.0
 11
428.261712
 21
166.880433
 31
0.0
  0
LINE
  5
BDBE
330
BC7C
100
AcDbEntity
  8
1
  6
Continuous
100
AcDbLine
 10
433.8064509999998
 20
207.1711819999999
 30
0.0
 11
433.8064509999998
 21
171.6531459999998
 31
0.0
  0
LINE
  5
BDBF
330
BC7C
100
AcDbEntity
  8
1
  6
Continuous
100
AcDbLine
 10
385.3064509999999
 20
206.872567
 30
0.0
 11
385.3064509999999
 21
189.872567
 31
0.0
  0
LINE
  5
BDC0
330
BC7C
100
AcDbEntity
  8
1
  6
Continuous
100
AcDbLine
 10
405.3064509999998
 20
206.872567
 30
0.0
 11
405.3064509999998
 21
189.872567
 31
0.0
  0
LINE
  5
BDC1
330
BC7C
100
AcDbEntity
  8
5
  6
PHANTOM
100
AcDbLine
 10
378.9566189999999
 20
170.372659
 30
0.0
 11
411.6564509999998
 21
170.372659
 31
0.0
  0
LINE
  5
BDC2
330
BC7C
100
AcDbEntity
  8
5
  6
PHANTOM
100
AcDbLine
 10
378.0564569999999
 20
157.872659
 30
0.0
 11
412.55646
 21
157.872659
 31
0.0
  0
LINE
  5
BDC3
330
BC7C
100
AcDbEntity
  8
5
  6
PHANTOM
100
AcDbLine
 10
376.4564509999999
 20
161.872659
 30
0.0
 11
414.156451
 21
161.872659
 31
0.0
  0
LINE
  5
BDC4
330
BC7C
100
AcDbEntity
  8
5
  6
PHANTOM
100
AcDbLine
 10
378.9566189999999
 20
150.372659
 30
0.0
 11
411.6564509999998
 21
150.372659
 31
0.0
  0
LINE
  5
BDC5
330
BC7C
100
AcDbEntity
  8
1
  6
Continuous
100
AcDbLine
 10
378.9566189999999
 20
160.3726589999999
 30
0.0
 11
411.6564509999998
 21
160.3726589999999
 31
0.0
  0
LINE
  5
BDC6
330
BC7C
100
AcDbEntity
  8
1
  6
Continuous
100
AcDbLine
 10
376.4564509999999
 20
151.8726589999999
 30
0.0
 11
414.156451
 21
151.8726589999999
 31
0.0
  0
ARC
  5
BDC7
330
BC7C
100
AcDbEntity
  8
1
  6
Continuous
100
AcDbCircle
 10
431.931199
 20
168.4725659999998
 30
0.0
 40
4.0
100
AcDbArc
 50
203.4552609999999
 51
270.0
  0
LINE
  5
BDC8
330
BC7C
100
AcDbEntity
  8
5
  6
PHANTOM
100
AcDbLine
 10
414.156451
 20
161.872659
 30
0.0
 11
414.156451
 21
167.872659
 31
0.0
  0
LINE
  5
BDC9
330
BC7C
100
AcDbEntity
  8
5
  6
PHANTOM
100
AcDbLine
 10
412.55646
 20
161.872659
 30
0.0
 11
412.55646
 21
157.872659
 31
0.0
  0
ARC
  5
BDCA
330
BC7C
100
AcDbEntity
  8
5
  6
PHANTOM
100
AcDbCircle
 10
411.6564509999998
 20
167.872659
 30
0.0
 40
2.5
100
AcDbArc
 50
0.0
 51
90.0
  0
LINE
  5
BDCB
330
BC7C
100
AcDbEntity
  8
1
  6
Continuous
100
AcDbLine
 10
414.156451
 20
151.8726589999999
 30
0.0
 11
414.156451
 21
157.872659
 31
0.0
  0
ARC
  5
BDCC
330
BC7C
100
AcDbEntity
  8
1
  6
Continuous
100
AcDbCircle
 10
411.6564509999998
 20
157.872659
 30
0.0
 40
2.5
100
AcDbArc
 50
0.0
 51
90.0
  0
LINE
  5
BDCD
330
BC7C
100
AcDbEntity
  8
2
  6
Continuous
100
AcDbLine
 10
400.3064509999998
 20
169.9662339999999
 30
0.0
 11
399.4944509999998
 21
171.372659
 31
0.0
  0
LINE
  5
BDCE
330
BC7C
100
AcDbEntity
  8
2
  6
Continuous
100
AcDbLine
 10
390.306451
 20
169.9662339999999
 30
0.0
 11
391.118451
 21
171.372659
 31
0.0
  0
LINE
  5
BDCF
330
BC7C
100
AcDbEntity
  8
1
  6
Continuous
100
AcDbLine
 10
400.3064509999998
 20
179.872567
 30
0.0
 11
400.3064509999998
 21
168.372659
 31
0.0
  0
LINE
  5
BDD0
330
BC7C
100
AcDbEntity
  8
1
  6
Continuous
100
AcDbLine
 10
390.306451
 20
179.872567
 30
0.0
 11
390.306451
 21
168.372659
 31
0.0
  0
LINE
  5
BDD1
330
BC7C
100
AcDbEntity
  8
1
  6
Continuous
100
AcDbLine
 10
384.806451
 20
161.3726589999999
 30
0.0
 11
405.8064509999998
 21
161.3726589999999
 31
0.0
  0
LINE
  5
BDD2
330
BC7C
100
AcDbEntity
  8
1
  6
Continuous
100
AcDbLine
 10
385.4917689999999
 20
168.372659
 30
0.0
 11
405.1216819999998
 21
168.372659
 31
0.0
  0
ARC
  5
BDD3
330
BC7C
100
AcDbEntity
  8
1
  6
Continuous
100
AcDbCircle
 10
395.306733
 20
174.6503999999999
 30
0.0
 40
13.277742
100
AcDbArc
 50
248.3089339999999
 51
291.691031
  0
LINE
  5
BDD4
330
BC7C
100
AcDbEntity
  8
1
  6
Continuous
100
AcDbLine
 10
405.8064509999998
 20
160.3726589999999
 30
0.0
 11
405.8064509999998
 21
161.3726589999999
 31
0.0
  0
LINE
  5
BDD5
330
BC7C
100
AcDbEntity
  8
1
  6
Continuous
100
AcDbLine
 10
400.2142039999998
 20
162.3128439999999
 30
0.0
 11
400.2142039999998
 21
168.372659
 31
0.0
  0
LINE
  5
BDD6
330
BC7C
100
AcDbEntity
  8
1
  6
Continuous
100
AcDbLine
 10
405.1216819999998
 20
168.372659
 30
0.0
 11
405.1216819999998
 21
162.3128439999999
 31
0.0
  0
ARC
  5
BDD7
330
BC7C
100
AcDbEntity
  8
1
  6
Continuous
100
AcDbCircle
 10
402.667947
 20
165.044473
 30
0.0
 40
3.671864999999998
100
AcDbArc
 50
228.0675349999999
 51
311.9324649999999
  0
LINE
  5
BDD8
330
BC7C
100
AcDbEntity
  8
5
  6
PHANTOM
100
AcDbLine
 10
378.0564569999999
 20
161.872659
 30
0.0
 11
378.0564569999999
 21
157.872659
 31
0.0
  0
LINE
  5
BDD9
330
BC7C
100
AcDbEntity
  8
5
  6
PHANTOM
100
AcDbLine
 10
376.4564509999999
 20
161.872659
 30
0.0
 11
376.4564509999999
 21
167.872659
 31
0.0
  0
LINE
  5
BDDA
330
BC7C
100
AcDbEntity
  8
1
  6
Continuous
100
AcDbLine
 10
376.4564509999999
 20
151.8726589999999
 30
0.0
 11
376.4564509999999
 21
157.872659
 31
0.0
  0
LINE
  5
BDDB
330
BC7C
100
AcDbEntity
  8
1
  6
Continuous
100
AcDbLine
 10
390.3992549999999
 20
162.3128439999999
 30
0.0
 11
390.3992549999999
 21
168.372659
 31
0.0
  0
LINE
  5
BDDC
330
BC7C
100
AcDbEntity
  8
1
  6
Continuous
100
AcDbLine
 10
385.4917689999999
 20
168.372659
 30
0.0
 11
385.4917689999999
 21
162.3128439999999
 31
0.0
  0
LINE
  5
BDDD
330
BC7C
100
AcDbEntity
  8
1
  6
Continuous
100
AcDbLine
 10
384.806451
 20
160.3726589999999
 30
0.0
 11
384.806451
 21
161.3726589999999
 31
0.0
  0
ARC
  5
BDDE
330
BC7C
100
AcDbEntity
  8
1
  6
Continuous
100
AcDbCircle
 10
387.9455199999999
 20
165.044473
 30
0.0
 40
3.671864999999998
100
AcDbArc
 50
228.0675349999999
 51
311.9324649999999
  0
LINE
  5
BDDF
330
BC7C
100
AcDbEntity
  8
1
  6
Continuous
100
AcDbLine
 10
390.306451
 20
171.372659
 30
0.0
 11
400.3064509999998
 21
171.372659
 31
0.0
  0
LINE
  5
BDE0
330
BC7C
100
AcDbEntity
  8
1
  6
Continuous
100
AcDbLine
 10
385.3064509999999
 20
189.872567
 30
0.0
 11
405.3064509999998
 21
189.872567
 31
0.0
  0
LINE
  5
BDE1
330
BC7C
100
AcDbEntity
  8
1
  6
Continuous
100
AcDbLine
 10
388.306451
 20
179.872567
 30
0.0
 11
402.306451
 21
179.872567
 31
0.0
  0
LINE
  5
BDE2
330
BC7C
100
AcDbEntity
  8
2
  6
Continuous
100
AcDbLine
 10
399.4944509999998
 20
171.372659
 30
0.0
 11
399.4944509999998
 21
179.872567
 31
0.0
  0
LINE
  5
BDE3
330
BC7C
100
AcDbEntity
  8
1
  6
Continuous
100
AcDbLine
 10
405.3064509999998
 20
189.872567
 30
0.0
 11
402.306451
 21
179.872567
 31
0.0
  0
LINE
  5
BDE4
330
BC7C
100
AcDbEntity
  8
2
  6
Continuous
100
AcDbLine
 10
391.118451
 20
171.372659
 30
0.0
 11
391.118451
 21
179.872567
 31
0.0
  0
LINE
  5
BDE5
330
BC7C
100
AcDbEntity
  8
1
  6
Continuous
100
AcDbLine
 10
385.3064509999999
 20
189.872567
 30
0.0
 11
388.306451
 21
179.872567
 31
0.0
  0
ARC
  5
BDE6
330
BC7C
100
AcDbEntity
  8
1
  6
Continuous
100
AcDbCircle
 10
405.6817029999998
 20
208.872567
 30
0.0
 40
4.0
100
AcDbArc
 50
23.455261
 51
90.0
  0
ARC
  5
BDE7
330
BC7C
100
AcDbEntity
  8
1
  6
Continuous
100
AcDbCircle
 10
406.54947
 20
206.872567
 30
0.0
 40
4.0
100
AcDbArc
 50
23.45525899999999
 51
90.0
  0
ARC
  5
BDE8
330
BC7C
100
AcDbEntity
  8
1
  6
Continuous
100
AcDbCircle
 10
406.433465
 20
211.8725669999999
 30
0.0
 40
4.0
100
AcDbArc
 50
270.0
 51
322.6345519999999
  0
LINE
  5
BDE9
330
BC7C
100
AcDbEntity
  8
4
  6
CENTER
100
AcDbLine
 10
383.806619
 20
208.390683
 30
0.0
 11
383.806619
 21
215.493495
 31
0.0
  0
LINE
  5
BDEA
330
BC7C
100
AcDbEntity
  8
1
  6
Continuous
100
AcDbLine
 10
376.8064509999998
 20
210.872567
 30
0.0
 11
406.54947
 21
210.872567
 31
0.0
  0
LINE
  5
BDEB
330
BC7C
100
AcDbEntity
  8
1
  6
Continuous
100
AcDbLine
 10
385.3064509999999
 20
206.872567
 30
0.0
 11
405.3064509999998
 21
206.872567
 31
0.0
  0
LINE
  5
BDEC
330
BC7C
100
AcDbEntity
  8
1
  6
Continuous
100
AcDbLine
 10
384.179437
 20
207.8725669999998
 30
0.0
 11
406.433465
 21
207.8725669999998
 31
0.0
  0
LINE
  5
BDED
330
BC7C
100
AcDbEntity
  8
1
  6
Continuous
100
AcDbLine
 10
401.806451
 20
207.8725669999998
 30
0.0
 11
401.806451
 21
206.872567
 31
0.0
  0
LINE
  5
BDEE
330
BC7C
100
AcDbEntity
  8
1
  6
Continuous
100
AcDbLine
 10
376.8064509999998
 20
210.872567
 30
0.0
 11
376.8064509999998
 21
212.872567
 31
0.0
  0
LINE
  5
BDEF
330
BC7C
100
AcDbEntity
  8
1
  6
Continuous
100
AcDbLine
 10
388.8064509999999
 20
207.8725669999998
 30
0.0
 11
388.8064509999999
 21
206.872567
 31
0.0
  0
ARC
  5
BDF0
330
BC7C
100
AcDbEntity
  8
1
  6
Continuous
100
AcDbCircle
 10
384.179437
 20
211.8725669999999
 30
0.0
 40
4.0
100
AcDbArc
 50
194.477509
 51
270.0
  0
CIRCLE
  5
BDF1
330
BC7C
100
AcDbEntity
  8
1
  6
Continuous
100
AcDbCircle
 10
441.3064509999998
 20
172.872567
 30
0.0
 40
4.25
  0
LINE
  5
BDF2
330
BC7C
100
AcDbEntity
  8
1
  6
Continuous
100
AcDbLine
 10
166.268929
 20
53.75
 30
0.0
 11
157.268929
 21
53.75
 31
0.0
  0
LINE
  5
BDF3
330
BC7C
100
AcDbEntity
  8
1
  6
Continuous
100
AcDbLine
 10
166.268929
 20
82.250004
 30
0.0
 11
157.268929
 21
82.250004
 31
0.0
  0
ARC
  5
BDF4
330
BC7C
100
AcDbEntity
  8
1
  6
Continuous
100
AcDbCircle
 10
161.768929
 20
60.750004
 30
0.0
 40
9.0
100
AcDbArc
 50
241.82135
 51
298.17865
  0
LINE
  5
BDF5
330
BC7C
100
AcDbEntity
  8
1
  6
Continuous
100
AcDbLine
 10
166.018929
 20
52.816684
 30
0.0
 11
157.518929
 21
52.816684
 31
0.0
  0
LINE
  5
BDF6
330
BC7C
100
AcDbEntity
  8
4
  6
CENTER
100
AcDbLine
 10
229.268929
 20
68.000004
 30
0.0
 11
124.2689289999999
 21
68.000004
 31
0.0
  0
LINE
  5
BDF7
330
BC7C
100
AcDbEntity
  8
1
  6
Continuous
100
AcDbLine
 10
127.2689289999999
 20
48.0
 30
0.0
 11
127.2689289999999
 21
87.99999599999997
 31
0.0
  0
LINE
  5
BDF8
330
BC7C
100
AcDbEntity
  8
4
  6
CENTER
100
AcDbLine
 10
161.768929
 20
85.70553199999997
 30
0.0
 11
161.768929
 21
59.99206899999999
 31
0.0
  0
ARC
  5
BDF9
330
BC7C
100
AcDbEntity
  8
1
  6
Continuous
100
AcDbCircle
 10
134.268929
 20
87.99999599999997
 30
0.0
 40
7.0
100
AcDbArc
 50
8.525513
 51
180.0
  0
CIRCLE
  5
BDFA
330
BC7C
100
AcDbEntity
  8
1
  6
Continuous
100
AcDbCircle
 10
134.268929
 20
88.000004
 30
0.0
 40
3.25
  0
LINE
  5
BDFB
330
BC7C
100
AcDbEntity
  8
4
  6
CENTER
100
AcDbLine
 10
140.518929
 20
88.000004
 30
0.0
 11
128.018929
 21
88.000004
 31
0.0
  0
ARC
  5
BDFC
330
BC7C
100
AcDbEntity
  8
1
  6
Continuous
100
AcDbCircle
 10
161.173767
 20
80.203754
 30
0.0
 40
15.0
100
AcDbArc
 50
149.352835
 51
173.934719
  0
ARC
  5
BDFD
330
BC7C
100
AcDbEntity
  8
1
  6
Continuous
100
AcDbCircle
 10
144.268929
 20
82.000004
 30
0.0
 40
2.0
100
AcDbArc
 50
188.525513
 51
353.934708
  0
LINE
  5
BDFE
330
BC7C
100
AcDbEntity
  8
4
  6
CENTER
100
AcDbLine
 10
134.268929
 20
81.750004
 30
0.0
 11
134.268929
 21
94.250004
 31
0.0
  0
LINE
  5
BDFF
330
BC7C
100
AcDbEntity
  8
1
  6
Continuous
100
AcDbLine
 10
141.1915779999999
 20
89.037746
 30
0.0
 11
142.291027
 21
81.70350199999999
 31
0.0
  0
ARC
  5
BE00
330
BC7C
100
AcDbEntity
  8
1
  6
Continuous
100
AcDbCircle
 10
157.268929
 20
86.25000400000002
 30
0.0
 40
4.0
100
AcDbArc
 50
218.5014649999998
 51
270.0
  0
ARC
  5
BE01
330
BC7C
100
AcDbEntity
  8
1
  6
Continuous
100
AcDbCircle
 10
144.356156
 20
75.978176
 30
0.0
 40
12.5
100
AcDbArc
 50
38.50148
 51
71.75856
  0
CIRCLE
  5
BE02
330
BC7C
100
AcDbEntity
  8
1
  6
Continuous
100
AcDbCircle
 10
134.268929
 20
48.0
 30
0.0
 40
3.25
  0
ARC
  5
BE03
330
BC7C
100
AcDbEntity
  8
1
  6
Continuous
100
AcDbCircle
 10
134.268929
 20
48.0
 30
0.0
 40
7.0
100
AcDbArc
 50
180.0
 51
351.4745029999998
  0
LINE
  5
BE04
330
BC7C
100
AcDbEntity
  8
4
  6
CENTER
100
AcDbLine
 10
140.518929
 20
48.0
 30
0.0
 11
128.018929
 21
48.0
 31
0.0
  0
LINE
  5
BE05
330
BC7C
100
AcDbEntity
  8
4
  6
CENTER
100
AcDbLine
 10
161.768929
 20
59.49206499999998
 30
0.0
 11
161.768929
 21
49.254764
 31
0.0
  0
ARC
  5
BE06
330
BC7C
100
AcDbEntity
  8
1
  6
Continuous
100
AcDbCircle
 10
161.173767
 20
55.796253
 30
0.0
 40
15.0
100
AcDbArc
 50
186.0653079999999
 51
210.6472169999999
  0
LINE
  5
BE07
330
BC7C
100
AcDbEntity
  8
1
  6
Continuous
100
AcDbLine
 10
141.1915779999999
 20
46.96224899999999
 30
0.0
 11
142.291027
 21
54.29650099999999
 31
0.0
  0
LINE
  5
BE08
330
BC7C
100
AcDbEntity
  8
4
  6
CENTER
100
AcDbLine
 10
134.268929
 20
41.74999999999999
 30
0.0
 11
134.268929
 21
54.25
 31
0.0
  0
ARC
  5
BE09
330
BC7C
100
AcDbEntity
  8
1
  6
Continuous
100
AcDbCircle
 10
144.268929
 20
54.0
 30
0.0
 40
2.0
100
AcDbArc
 50
6.065307999999999
 51
171.474495
  0
ARC
  5
BE0A
330
BC7C
100
AcDbEntity
  8
1
  6
Continuous
100
AcDbCircle
 10
144.356156
 20
60.021824
 30
0.0
 40
12.5
100
AcDbArc
 50
288.24144
 51
321.49852
  0
ARC
  5
BE0B
330
BC7C
100
AcDbEntity
  8
1
  6
Continuous
100
AcDbCircle
 10
157.268929
 20
49.75
 30
0.0
 40
4.0
100
AcDbArc
 50
90.0
 51
141.498531
  0
LINE
  5
BE0C
330
BC7C
100
AcDbEntity
  8
1
  6
Continuous
100
AcDbLine
 10
157.518929
 20
52.816684
 30
0.0
 11
157.518929
 21
53.75
 31
0.0
  0
ARC
  5
BE0D
330
BC7C
100
AcDbEntity
  8
1
  6
Continuous
100
AcDbCircle
 10
219.268929
 20
87.99999599999997
 30
0.0
 40
7.0
100
AcDbArc
 50
0.0
 51
90.0
  0
ARC
  5
BE0E
330
BC7C
100
AcDbEntity
  8
1
  6
Continuous
100
AcDbCircle
 10
219.268929
 20
48.0
 30
0.0
 40
7.0
100
AcDbArc
 50
270.0
 51
0.0
  0
LINE
  5
BE0F
330
BC7C
100
AcDbEntity
  8
4
  6
CENTER
100
AcDbLine
 10
207.768929
 20
46.50000399999998
 30
0.0
 11
207.768929
 21
89.500004
 31
0.0
  0
LINE
  5
BE10
330
BC7C
100
AcDbEntity
  8
1
  6
Continuous
100
AcDbLine
 10
226.268929
 20
87.99999599999997
 30
0.0
 11
226.268929
 21
71.615595
 31
0.0
  0
ARC
  5
BE11
330
BC7C
100
AcDbEntity
  8
1
  6
Continuous
100
AcDbCircle
 10
195.984581
 20
95.89999699999998
 30
0.0
 40
3.0
100
AcDbArc
 50
219.2963559999999
 51
317.396317
  0
LINE
  5
BE12
330
BC7C
100
AcDbEntity
  8
1
  6
Continuous
100
AcDbLine
 10
193.6629409999999
 20
94.00000400000001
 30
0.0
 11
174.2388919999999
 21
87.14896000000001
 31
0.0
  0
ARC
  5
BE13
330
BC7C
100
AcDbEntity
  8
1
  6
Continuous
100
AcDbCircle
 10
166.268929
 20
86.25000400000002
 30
0.0
 40
4.0
100
AcDbArc
 50
270.0
 51
320.828323
  0
ARC
  5
BE14
330
BC7C
100
AcDbEntity
  8
1
  6
Continuous
100
AcDbCircle
 10
177.897782
 20
76.77530299999998
 30
0.0
 40
11.0
100
AcDbArc
 50
109.428253
 51
140.828316
  0
LINE
  5
BE15
330
BC7C
100
AcDbEntity
  8
1
  6
Continuous
100
AcDbLine
 10
200.768929
 20
94.999996
 30
0.0
 11
219.268929
 21
94.999996
 31
0.0
  0
ARC
  5
BE16
330
BC7C
100
AcDbEntity
  8
1
  6
Continuous
100
AcDbCircle
 10
200.768929
 20
91.49999599999999
 30
0.0
 40
3.5
100
AcDbArc
 50
90.0
 51
137.3963129999999
  0
LINE
  5
BE17
330
BC7C
100
AcDbEntity
  8
4
  6
CENTER
100
AcDbLine
 10
225.518929
 20
88.000004
 30
0.0
 11
213.018929
 21
88.000004
 31
0.0
  0
CIRCLE
  5
BE18
330
BC7C
100
AcDbEntity
  8
1
  6
Continuous
100
AcDbCircle
 10
219.268929
 20
88.000004
 30
0.0
 40
3.25
  0
LINE
  5
BE19
330
BC7C
100
AcDbEntity
  8
4
  6
CENTER
100
AcDbLine
 10
219.268929
 20
81.750004
 30
0.0
 11
219.268929
 21
94.250004
 31
0.0
  0
ARC
  5
BE1A
330
BC7C
100
AcDbEntity
  8
1
  6
Continuous
100
AcDbCircle
 10
195.984581
 20
40.100002
 30
0.0
 40
3.0
100
AcDbArc
 50
42.60368299999998
 51
140.7035559999999
  0
LINE
  5
BE1B
330
BC7C
100
AcDbEntity
  8
1
  6
Continuous
100
AcDbLine
 10
193.6629409999999
 20
42.0
 30
0.0
 11
174.2389
 21
48.851043
 31
0.0
  0
ARC
  5
BE1C
330
BC7C
100
AcDbEntity
  8
1
  6
Continuous
100
AcDbCircle
 10
177.897782
 20
59.224693
 30
0.0
 40
11.0
100
AcDbArc
 50
219.1716919999998
 51
250.571777
  0
LINE
  5
BE1D
330
BC7C
100
AcDbEntity
  8
1
  6
Continuous
100
AcDbLine
 10
166.018929
 20
52.816684
 30
0.0
 11
166.018929
 21
53.75
 31
0.0
  0
ARC
  5
BE1E
330
BC7C
100
AcDbEntity
  8
1
  6
Continuous
100
AcDbCircle
 10
166.268929
 20
49.75
 30
0.0
 40
4.0
100
AcDbArc
 50
39.171677
 51
90.0
  0
LINE
  5
BE1F
330
BC7C
100
AcDbEntity
  8
1
  6
Continuous
100
AcDbLine
 10
219.268929
 20
41.0
 30
0.0
 11
200.768929
 21
41.0
 31
0.0
  0
ARC
  5
BE20
330
BC7C
100
AcDbEntity
  8
1
  6
Continuous
100
AcDbCircle
 10
200.768929
 20
44.5
 30
0.0
 40
3.5
100
AcDbArc
 50
222.603668
 51
270.0
  0
CIRCLE
  5
BE21
330
BC7C
100
AcDbEntity
  8
1
  6
Continuous
100
AcDbCircle
 10
219.268929
 20
48.0
 30
0.0
 40
3.25
  0
LINE
  5
BE22
330
BC7C
100
AcDbEntity
  8
4
  6
CENTER
100
AcDbLine
 10
219.268929
 20
41.74999999999999
 30
0.0
 11
219.268929
 21
54.25
 31
0.0
  0
LINE
  5
BE23
330
BC7C
100
AcDbEntity
  8
4
  6
CENTER
100
AcDbLine
 10
225.518929
 20
48.0
 30
0.0
 11
213.018929
 21
48.0
 31
0.0
  0
CIRCLE
  5
BE24
330
BC7C
100
AcDbEntity
  8
1
  6
Continuous
100
AcDbCircle
 10
207.768929
 20
68.000004
 30
0.0
 40
18.85
  0
CIRCLE
  5
BE25
330
BC7C
100
AcDbEntity
  8
1
  6
Continuous
100
AcDbCircle
 10
207.768929
 20
68.000004
 30
0.0
 40
17.249994
  0
LINE
  5
BE26
330
BC7C
100
AcDbEntity
  8
1
  6
Continuous
100
AcDbLine
 10
226.268929
 20
64.384413
 30
0.0
 11
226.268929
 21
48.0
 31
0.0
  0
ARC
  5
BE27
330
BC7C
100
AcDbEntity
  8
1
  6
Continuous
100
AcDbCircle
 10
171.768929
 20
68.000004
 30
0.0
 40
35.0
100
AcDbArc
 50
165.301575
 51
194.698425
  0
ARC
  5
BE28
330
BC7C
100
AcDbEntity
  8
1
  6
Continuous
100
AcDbCircle
 10
139.365227
 20
59.500004
 30
0.0
 40
1.5
100
AcDbArc
 50
194.698425
 51
270.0
  0
ARC
  5
BE29
330
BC7C
100
AcDbEntity
  8
1
  6
Continuous
100
AcDbCircle
 10
139.365227
 20
76.500004
 30
0.0
 40
1.5
100
AcDbArc
 50
90.0
 51
165.301575
  0
ARC
  5
BE2A
330
BC7C
100
AcDbEntity
  8
1
  6
Continuous
100
AcDbCircle
 10
151.768929
 20
68.000004
 30
0.0
 40
35.0
100
AcDbArc
 50
345.301575
 51
14.698425
  0
ARC
  5
BE2B
330
BC7C
100
AcDbEntity
  8
1
  6
Continuous
100
AcDbCircle
 10
184.172631
 20
59.500004
 30
0.0
 40
1.5
100
AcDbArc
 50
270.0
 51
345.301575
  0
ARC
  5
BE2C
330
BC7C
100
AcDbEntity
  8
1
  6
Continuous
100
AcDbCircle
 10
184.172631
 20
76.500004
 30
0.0
 40
1.5
100
AcDbArc
 50
14.698425
 51
90.0
  0
LINE
  5
BE2D
330
BC7C
100
AcDbEntity
  8
1
  6
Continuous
100
AcDbLine
 10
139.365227
 20
78.000004
 30
0.0
 11
184.172631
 21
78.000004
 31
0.0
  0
LINE
  5
BE2E
330
BC7C
100
AcDbEntity
  8
1
  6
Continuous
100
AcDbLine
 10
139.365227
 20
58.000004
 30
0.0
 11
184.172631
 21
58.000004
 31
0.0
  0
LINE
  5
BE2F
330
BC7C
100
AcDbEntity
  8
1
  6
Continuous
100
AcDbLine
 10
153.268929
 20
79.500004
 30
0.0
 11
170.268929
 21
79.500004
 31
0.0
  0
LINE
  5
BE30
330
BC7C
100
AcDbEntity
  8
1
  6
Continuous
100
AcDbLine
 10
158.768929
 20
80.25000400000001
 30
0.0
 11
158.768929
 21
79.500004
 31
0.0
  0
LINE
  5
BE31
330
BC7C
100
AcDbEntity
  8
1
  6
Continuous
100
AcDbLine
 10
164.768929
 20
80.25000400000001
 30
0.0
 11
164.768929
 21
79.500004
 31
0.0
  0
LINE
  5
BE32
330
BC7C
100
AcDbEntity
  8
1
  6
Continuous
100
AcDbLine
 10
170.268929
 20
79.500004
 30
0.0
 11
170.268929
 21
78.000004
 31
0.0
  0
LINE
  5
BE33
330
BC7C
100
AcDbEntity
  8
1
  6
Continuous
100
AcDbLine
 10
153.268929
 20
79.500004
 30
0.0
 11
153.268929
 21
78.000004
 31
0.0
  0
LINE
  5
BE34
330
BC7C
100
AcDbEntity
  8
1
  6
Continuous
100
AcDbLine
 10
153.268929
 20
56.50000399999999
 30
0.0
 11
170.268929
 21
56.50000399999999
 31
0.0
  0
LINE
  5
BE35
330
BC7C
100
AcDbEntity
  8
1
  6
Continuous
100
AcDbLine
 10
158.768929
 20
55.75
 30
0.0
 11
158.768929
 21
56.50000399999999
 31
0.0
  0
LINE
  5
BE36
330
BC7C
100
AcDbEntity
  8
1
  6
Continuous
100
AcDbLine
 10
170.268929
 20
58.000004
 30
0.0
 11
170.268929
 21
56.50000399999999
 31
0.0
  0
LINE
  5
BE37
330
BC7C
100
AcDbEntity
  8
1
  6
Continuous
100
AcDbLine
 10
164.768929
 20
55.75
 30
0.0
 11
164.768929
 21
56.50000399999999
 31
0.0
  0
LINE
  5
BE38
330
BC7C
100
AcDbEntity
  8
1
  6
Continuous
100
AcDbLine
 10
153.268929
 20
58.000004
 30
0.0
 11
153.268929
 21
56.50000399999999
 31
0.0
  0
LINE
  5
BE39
330
BC7C
100
AcDbEntity
  8
1
  6
Continuous
100
AcDbLine
 10
166.268929
 20
55.75
 30
0.0
 11
157.268929
 21
55.75
 31
0.0
  0
LINE
  5
BE3A
330
BC7C
100
AcDbEntity
  8
1
  6
Continuous
100
AcDbLine
 10
166.268929
 20
80.25000400000001
 30
0.0
 11
157.268929
 21
80.25000400000001
 31
0.0
  0
LINE
  5
BE3B
330
BC7C
100
AcDbEntity
  8
1
  6
Continuous
100
AcDbLine
 10
206.6605899999999
 20
68.49279
 30
0.0
 11
206.0531239999999
 21
69.12183900000001
 31
0.0
  0
LINE
  5
BE3C
330
BC7C
100
AcDbEntity
  8
1
  6
Continuous
100
AcDbLine
 10
208.8772679999999
 20
68.49279
 30
0.0
 11
209.484734
 21
69.12183900000001
 31
0.0
  0
LINE
  5
BE3D
330
BC7C
100
AcDbEntity
  8
1
  6
Continuous
100
AcDbLine
 10
207.768929
 20
68.92898399999999
 30
0.0
 11
208.2617149999999
 21
69.10834300000001
 31
0.0
  0
LINE
  5
BE3E
330
BC7C
100
AcDbEntity
  8
1
  6
Continuous
100
AcDbLine
 10
207.768929
 20
68.92898399999999
 30
0.0
 11
207.2761429999999
 21
69.10834300000001
 31
0.0
  0
ARC
  5
BE3F
330
BC7C
100
AcDbEntity
  8
1
  6
Continuous
100
AcDbCircle
 10
207.768929
 20
68.000004
 30
0.0
 40
4.5
100
AcDbArc
 50
320.433944
 51
219.565993
  0
CIRCLE
  5
BE40
330
BC7C
100
AcDbEntity
  8
1
  6
Continuous
100
AcDbCircle
 10
207.768929
 20
68.000004
 30
0.0
 40
3.5
  0
LINE
  5
BE41
330
BC7C
100
AcDbEntity
  8
1
  6
Continuous
100
AcDbLine
 10
201.768929
 20
74.000004
 30
0.0
 11
201.768929
 21
68.000004
 31
0.0
  0
LINE
  5
BE42
330
BC7C
100
AcDbEntity
  8
1
  6
Continuous
100
AcDbLine
 10
213.768929
 20
74.000004
 30
0.0
 11
213.768929
 21
68.000004
 31
0.0
  0
LINE
  5
BE43
330
BC7C
100
AcDbEntity
  8
1
  6
Continuous
100
AcDbLine
 10
207.768929
 20
67.071024
 30
0.0
 11
207.2761429999999
 21
66.891665
 31
0.0
  0
ARC
  5
BE44
330
BC7C
100
AcDbEntity
  8
1
  6
Continuous
100
AcDbCircle
 10
207.768929
 20
68.000004
 30
0.0
 40
6.0
100
AcDbArc
 50
180.0
 51
0.0
  0
LINE
  5
BE45
330
BC7C
100
AcDbEntity
  8
1
  6
Continuous
100
AcDbLine
 10
207.2761429999999
 20
66.891665
 30
0.0
 11
206.6470939999999
 21
66.284199
 31
0.0
  0
LINE
  5
BE46
330
BC7C
100
AcDbEntity
  8
1
  6
Continuous
100
AcDbLine
 10
206.839949
 20
68.000004
 30
0.0
 11
206.6605899999999
 21
68.49279
 31
0.0
  0
LINE
  5
BE47
330
BC7C
100
AcDbEntity
  8
1
  6
Continuous
100
AcDbLine
 10
206.839949
 20
68.000004
 30
0.0
 11
206.6605899999999
 21
67.50721799999999
 31
0.0
  0
LINE
  5
BE48
330
BC7C
100
AcDbEntity
  8
1
  6
Continuous
100
AcDbLine
 10
206.6605899999999
 20
67.50721799999999
 30
0.0
 11
206.0531239999999
 21
66.878169
 31
0.0
  0
ARC
  5
BE49
330
BC7C
100
AcDbEntity
  8
1
  6
Continuous
100
AcDbCircle
 10
207.768929
 20
68.000004
 30
0.0
 40
2.049999999999998
100
AcDbArc
 50
213.17764
 51
236.8223599999998
  0
LINE
  5
BE4A
330
BC7C
100
AcDbEntity
  8
1
  6
Continuous
100
AcDbLine
 10
204.954689
 20
65.188435
 30
0.0
 11
205.2034069999999
 21
65.619227
 31
0.0
  0
ARC
  5
BE4B
330
BC7C
100
AcDbEntity
  8
1
  6
Continuous
100
AcDbCircle
 10
204.608275
 20
65.388439
 30
0.0
 40
0.4
100
AcDbArc
 50
219.5661739999999
 51
330.0000849999999
  0
LINE
  5
BE4C
330
BC7C
100
AcDbEntity
  8
1
  6
Continuous
100
AcDbLine
 10
208.2617149999999
 20
66.891665
 30
0.0
 11
208.8907639999999
 21
66.284199
 31
0.0
  0
LINE
  5
BE4D
330
BC7C
100
AcDbEntity
  8
1
  6
Continuous
100
AcDbLine
 10
207.768929
 20
67.071024
 30
0.0
 11
208.2617149999999
 21
66.891665
 31
0.0
  0
LINE
  5
BE4E
330
BC7C
100
AcDbEntity
  8
1
  6
Continuous
100
AcDbLine
 10
208.697909
 20
68.000004
 30
0.0
 11
208.8772679999999
 21
67.50721799999999
 31
0.0
  0
LINE
  5
BE4F
330
BC7C
100
AcDbEntity
  8
1
  6
Continuous
100
AcDbLine
 10
208.8772679999999
 20
67.50721799999999
 30
0.0
 11
209.484734
 21
66.878169
 31
0.0
  0
LINE
  5
BE50
330
BC7C
100
AcDbEntity
  8
1
  6
Continuous
100
AcDbLine
 10
208.697909
 20
68.000004
 30
0.0
 11
208.8772679999999
 21
68.49279
 31
0.0
  0
ARC
  5
BE51
330
BC7C
100
AcDbEntity
  8
1
  6
Continuous
100
AcDbCircle
 10
207.768929
 20
68.000004
 30
0.0
 40
2.049999999999998
100
AcDbArc
 50
303.17764
 51
326.82236
  0
LINE
  5
BE52
330
BC7C
100
AcDbEntity
  8
1
  6
Continuous
100
AcDbLine
 10
210.3344529999999
 20
65.61923
 30
0.0
 11
210.5831719999999
 21
65.188435
 31
0.0
  0
ARC
  5
BE53
330
BC7C
100
AcDbEntity
  8
1
  6
Continuous
100
AcDbCircle
 10
210.929581
 20
65.388439
 30
0.0
 40
0.4
100
AcDbArc
 50
210.0001669999998
 51
320.4339739999999
  0
ARC
  5
BE54
330
BC7C
100
AcDbEntity
  8
1
  6
Continuous
100
AcDbCircle
 10
207.768929
 20
74.000004
 30
0.0
 40
6.0
100
AcDbArc
 50
0.0
 51
180.0
  0
LINE
  5
BE55
330
BC7C
100
AcDbEntity
  8
1
  6
Continuous
100
AcDbLine
 10
207.2761429999999
 20
69.10834300000001
 30
0.0
 11
206.6470939999999
 21
69.71580899999999
 31
0.0
  0
ARC
  5
BE56
330
BC7C
100
AcDbEntity
  8
1
  6
Continuous
100
AcDbCircle
 10
207.768929
 20
68.000004
 30
0.0
 40
2.049999999999998
100
AcDbArc
 50
123.1776399999999
 51
146.8223599999998
  0
LINE
  5
BE57
330
BC7C
100
AcDbEntity
  8
1
  6
Continuous
100
AcDbLine
 10
208.2617149999999
 20
69.10834300000001
 30
0.0
 11
208.8907639999999
 21
69.71580899999999
 31
0.0
  0
ARC
  5
BE58
330
BC7C
100
AcDbEntity
  8
1
  6
Continuous
100
AcDbCircle
 10
207.768929
 20
68.000004
 30
0.0
 40
2.049999999999998
100
AcDbArc
 50
33.17763999999999
 51
56.82235999999999
  0
ARC
  5
BE59
330
BC7C
100
AcDbEntity
  8
1
  6
Continuous
100
AcDbCircle
 10
166.268929
 20
49.75
 30
0.0
 40
6.0
100
AcDbArc
 50
39.171677
 51
90.0
  0
ARC
  5
BE5A
330
BC7C
100
AcDbEntity
  8
1
  6
Continuous
100
AcDbCircle
 10
177.897782
 20
59.224693
 30
0.0
 40
9.0
100
AcDbArc
 50
219.1716919999998
 51
250.571777
  0
ARC
  5
BE5B
330
BC7C
100
AcDbEntity
  8
1
  6
Continuous
100
AcDbCircle
 10
157.268929
 20
49.75
 30
0.0
 40
6.0
100
AcDbArc
 50
90.0
 51
141.498531
  0
ARC
  5
BE5C
330
BC7C
100
AcDbEntity
  8
1
  6
Continuous
100
AcDbCircle
 10
144.356156
 20
60.021824
 30
0.0
 40
10.5
100
AcDbArc
 50
286.6004239999999
 51
321.49852
  0
LINE
  5
BE5D
330
BC7C
100
AcDbEntity
  8
1
  6
Continuous
100
AcDbLine
 10
197.0019889999999
 20
42.92221399999998
 30
0.0
 11
174.904152
 21
50.737161
 31
0.0
  0
LINE
  5
BE5E
330
BC7C
100
AcDbEntity
  8
1
  6
Continuous
100
AcDbLine
 10
197.0019889999999
 20
93.07779399999999
 30
0.0
 11
174.904152
 21
85.26284699999996
 31
0.0
  0
ARC
  5
BE5F
330
BC7C
100
AcDbEntity
  8
1
  6
Continuous
100
AcDbCircle
 10
177.897782
 20
76.775315
 30
0.0
 40
9.0
100
AcDbArc
 50
109.428223
 51
140.8283079999999
  0
ARC
  5
BE60
330
BC7C
100
AcDbEntity
  8
1
  6
Continuous
100
AcDbCircle
 10
166.268929
 20
86.25000799999998
 30
0.0
 40
6.0
100
AcDbArc
 50
270.0
 51
320.828323
  0
ARC
  5
BE61
330
BC7C
100
AcDbEntity
  8
1
  6
Continuous
100
AcDbCircle
 10
157.268929
 20
86.25000799999998
 30
0.0
 40
6.0
100
AcDbArc
 50
218.501469
 51
270.0
  0
ARC
  5
BE62
330
BC7C
100
AcDbEntity
  8
1
  6
Continuous
100
AcDbCircle
 10
144.356156
 20
75.978184
 30
0.0
 40
10.5
100
AcDbArc
 50
38.50148
 51
73.39957599999998
  0
LINE
  5
BE63
330
BC7C
100
AcDbEntity
  8
1
  6
Continuous
100
AcDbLine
 10
310.03769
 20
168.372659
 30
0.0
 11
310.03769
 21
161.372567
 31
0.0
  0
LINE
  5
BE64
330
BC7C
100
AcDbEntity
  8
1
  6
Continuous
100
AcDbLine
 10
293.03769
 20
168.372659
 30
0.0
 11
293.03769
 21
161.372567
 31
0.0
  0
ARC
  5
BE65
330
BC7C
100
AcDbEntity
  8
1
  6
Continuous
100
AcDbCircle
 10
305.78769
 20
171.4475879999999
 30
0.0
 40
10.075021
100
AcDbArc
 50
245.049485
 51
294.9505149999998
  0
ARC
  5
BE66
330
BC7C
100
AcDbEntity
  8
1
  6
Continuous
100
AcDbCircle
 10
297.28769
 20
171.4475879999999
 30
0.0
 40
10.075021
100
AcDbArc
 50
245.049485
 51
294.9505149999998
  0
LINE
  5
BE67
330
BC7C
100
AcDbEntity
  8
1
  6
Continuous
100
AcDbLine
 10
165.768929
 20
277.893823
 30
0.0
 11
165.768929
 21
277.501818
 31
0.0
  0
LINE
  5
BE68
330
BC7C
100
AcDbEntity
  8
1
  6
Continuous
100
AcDbLine
 10
157.768929
 20
277.501818
 30
0.0
 11
157.768929
 21
277.893823
 31
0.0
  0
ARC
  5
BE69
330
BC7C
100
AcDbEntity
  8
1
  6
Continuous
100
AcDbCircle
 10
161.768929
 20
283.846106
 30
0.0
 40
7.5
100
AcDbArc
 50
237.769047
 51
302.230953
  0
LINE
  5
BE6A
330
BC7C
100
AcDbEntity
  8
1
  6
Continuous
100
AcDbLine
 10
165.768929
 20
277.501818
 30
0.0
 11
157.768929
 21
277.501818
 31
0.0
  0
ARC
  5
BE6B
330
BC7C
100
AcDbEntity
  8
1
  6
Continuous
100
AcDbCircle
 10
161.7689639999998
 20
299.393827
 30
0.0
 40
9.0
100
AcDbArc
 50
61.82135699999999
 51
118.178643
  0
LINE
  5
BE6C
330
BC7C
100
AcDbEntity
  8
1
  6
Continuous
100
AcDbLine
 10
166.0189639999998
 20
307.3271429999999
 30
0.0
 11
157.5189639999998
 21
307.3271429999999
 31
0.0
  0
LINE
  5
BE6D
330
BC7C
100
AcDbEntity
  8
1
  6
Continuous
100
AcDbLine
 10
157.5189639999998
 20
306.3938269999998
 30
0.0
 11
157.5189639999998
 21
307.3271429999999
 31
0.0
  0
LINE
  5
BE6E
330
BC7C
100
AcDbEntity
  8
1
  6
Continuous
100
AcDbLine
 10
166.0189639999998
 20
306.3938269999998
 30
0.0
 11
166.0189639999998
 21
307.3271429999999
 31
0.0
  0
CIRCLE
  5
BE6F
330
BC7C
100
AcDbEntity
  8
1
  6
Continuous
100
AcDbCircle
 10
161.768929
 20
172.872567
 30
0.0
 40
4.0
  0
ARC
  5
BE70
330
BC7C
100
AcDbEntity
  8
1
  6
Continuous
100
AcDbCircle
 10
161.768929
 20
76.29772099999998
 30
0.0
 40
7.5
100
AcDbArc
 50
57.76904700000001
 51
122.230953
  0
LINE
  5
BE71
330
BC7C
100
AcDbEntity
  8
1
  6
Continuous
100
AcDbLine
 10
165.768929
 20
82.642009
 30
0.0
 11
157.768929
 21
82.642009
 31
0.0
  0
LINE
  5
BE72
330
BC7C
100
AcDbEntity
  8
1
  6
Continuous
100
AcDbLine
 10
165.768929
 20
82.250004
 30
0.0
 11
165.768929
 21
82.642009
 31
0.0
  0
LINE
  5
BE73
330
BC7C
100
AcDbEntity
  8
1
  6
Continuous
100
AcDbLine
 10
157.768929
 20
82.642009
 30
0.0
 11
157.768929
 21
82.250004
 31
0.0
  0
LINE
  5
BE74
330
BC7C
100
AcDbEntity
  8
1
  6
Continuous
100
AcDbLine
 10
77.94488
 20
208.21081
 30
0.0
 11
71.30774099999998
 21
168.645369
 31
0.0
  0
LINE
  5
BE75
330
BC7C
100
AcDbEntity
  8
1
  6
Continuous
100
AcDbLine
 10
32.209646
 20
195.916888
 30
0.0
 11
34.25640099999999
 21
168.1782179999999
 31
0.0
  0
LINE
  5
BE76
330
BC7C
100
AcDbEntity
  8
1
  6
Continuous
100
AcDbLine
 10
34.20372899999998
 20
196.0707839999998
 30
0.0
 11
36.320357
 21
167.2528129999998
 31
0.0
  0
LINE
  5
BE77
330
BC7C
100
AcDbEntity
  8
1
  6
Continuous
100
AcDbLine
 10
26.05512
 20
208.21081
 30
0.0
 11
32.692259
 21
168.645369
 31
0.0
  0
ARC
  5
BE78
330
BC7C
100
AcDbEntity
  8
1
  6
Continuous
100
AcDbCircle
 10
30.0
 20
208.872567
 30
0.0
 40
4.0
100
AcDbArc
 50
150.0
 51
189.522756
  0
ARC
  5
BE79
330
BC7C
100
AcDbEntity
  8
1
  6
Continuous
100
AcDbCircle
 10
37.623359
 20
169.472566
 30
0.0
 40
5.0
100
AcDbArc
 50
189.522756
 51
270.0
  0
ARC
  5
BE7A
330
BC7C
100
AcDbEntity
  8
1
  6
Continuous
100
AcDbCircle
 10
49.85
 20
197.535802
 30
0.0
 40
22.0
100
AcDbArc
 50
355.779961
 51
37.316437
  0
ARC
  5
BE7B
330
BC7C
100
AcDbEntity
  8
1
  6
Continuous
100
AcDbCircle
 10
49.85
 20
197.535802
 30
0.0
 40
20.0
100
AcDbArc
 50
355.7992709999999
 51
41.82350200000001
  0
LINE
  5
BE7C
330
BC7C
100
AcDbEntity
  8
1
  6
Continuous
100
AcDbLine
 10
69.79627099999999
 20
196.0707839999998
 30
0.0
 11
67.679643
 21
167.2528129999998
 31
0.0
  0
LINE
  5
BE7D
330
BC7C
100
AcDbEntity
  8
1
  6
Continuous
100
AcDbLine
 10
71.790354
 20
195.916888
 30
0.0
 11
69.743599
 21
168.1782179999999
 31
0.0
  0
ARC
  5
BE7E
330
BC7C
100
AcDbEntity
  8
1
  6
Continuous
100
AcDbCircle
 10
64.687702
 20
167.472566
 30
0.0
 40
3.0
100
AcDbArc
 50
270.0
 51
355.7992709999999
  0
ARC
  5
BE7F
330
BC7C
100
AcDbEntity
  8
1
  6
Continuous
100
AcDbCircle
 10
65.75444399999999
 20
168.4725659999998
 30
0.0
 40
4.0
100
AcDbArc
 50
270.0
 51
355.779961
  0
LINE
  5
BE80
330
BC7C
100
AcDbEntity
  8
1
  6
Continuous
100
AcDbLine
 10
327.48257
 20
208.21081
 30
0.0
 11
320.845431
 21
168.645369
 31
0.0
  0
ARC
  5
BE81
330
BC7C
100
AcDbEntity
  8
1
  6
Continuous
100
AcDbCircle
 10
323.5376899999999
 20
208.872567
 30
0.0
 40
4.0
100
AcDbArc
 50
350.4772439999999
 51
30.0
  0
ARC
  5
BE82
330
BC7C
100
AcDbEntity
  8
1
  6
Continuous
100
AcDbCircle
 10
315.914331
 20
169.472566
 30
0.0
 40
5.0
100
AcDbArc
 50
270.0
 51
350.4772439999999
  0
ARC
  5
BE83
330
BC7C
100
AcDbEntity
  8
1
  6
Continuous
100
AcDbCircle
 10
323.5376899999999
 20
208.872567
 30
0.0
 40
2.0
100
AcDbArc
 50
350.4772439999999
 51
90.0
  0
LINE
  5
BE84
330
BC7C
100
AcDbEntity
  8
1
  6
Continuous
100
AcDbLine
 10
325.51013
 20
208.5416879999999
 30
0.0
 11
318.5374889999998
 21
166.9762479999999
 31
0.0
  0
ARC
  5
BE85
330
BC7C
100
AcDbEntity
  8
1
  6
Continuous
100
AcDbCircle
 10
315.5788289999999
 20
167.472566
 30
0.0
 40
3.0
100
AcDbArc
 50
270.0
 51
350.4772439999999
  0
LINE
  5
BE86
330
BC7C
100
AcDbEntity
  8
1
  6
Continuous
100
AcDbLine
 10
277.56525
 20
208.5416879999999
 30
0.0
 11
284.5378909999999
 21
166.9762479999999
 31
0.0
  0
LINE
  5
BE87
330
BC7C
100
AcDbEntity
  8
1
  6
Continuous
100
AcDbLine
 10
275.5928099999998
 20
208.21081
 30
0.0
 11
282.2299489999998
 21
168.645369
 31
0.0
  0
ARC
  5
BE88
330
BC7C
100
AcDbEntity
  8
1
  6
Continuous
100
AcDbCircle
 10
279.5376899999999
 20
208.872567
 30
0.0
 40
4.0
100
AcDbArc
 50
150.0
 51
189.522756
  0
ARC
  5
BE89
330
BC7C
100
AcDbEntity
  8
1
  6
Continuous
100
AcDbCircle
 10
279.5376899999999
 20
208.872567
 30
0.0
 40
2.0
100
AcDbArc
 50
90.0
 51
189.522756
  0
ARC
  5
BE8A
330
BC7C
100
AcDbEntity
  8
1
  6
Continuous
100
AcDbCircle
 10
287.1610490000001
 20
169.472566
 30
0.0
 40
5.0
100
AcDbArc
 50
189.522756
 51
270.0
  0
LINE
  5
BE8B
330
BC7C
100
AcDbEntity
  8
1
  6
Continuous
100
AcDbLine
 10
287.1610490000001
 20
164.4725659999998
 30
0.0
 11
289.28769
 21
164.4725659999998
 31
0.0
  0
ARC
  5
BE8C
330
BC7C
100
AcDbEntity
  8
1
  6
Continuous
100
AcDbCircle
 10
287.4965509999999
 20
167.472566
 30
0.0
 40
3.0
100
AcDbArc
 50
189.522756
 51
270.0
  0
ENDSEC
  0
SECTION
  2
OBJECTS
  0
DICTIONARY
  5
BC6A
330
0
100
AcDbDictionary
281
     1
  3
ACAD_CIP_PREVIOUS_PRODUCT_INFO
350
BEEE
  3
ACAD_COLOR
350
BED0
  3
ACAD_DETAILVIEWSTYLE
350
BEE9
  3
ACAD_GROUP
350
BC6B
  3
ACAD_LAYOUT
350
BC77
  3
ACAD_MATERIAL
350
BE9E
  3
ACAD_MLEADERSTYLE
350
BEE5
  3
ACAD_MLINESTYLE
350
BC74
  3
ACAD_PLOTSETTINGS
350
BC76
  3
ACAD_PLOTSTYLENAME
350
BE9C
  3
ACAD_SCALELIST
350
BED3
  3
ACAD_SECTIONVIEWSTYLE
350
BEE7
  3
ACAD_TABLESTYLE
350
BED1
  3
ACAD_VISUALSTYLE
350
BEB7
  3
ACDB_RECOMPOSE_DATA
350
BF0C
  3
AcDbVariableDictionary
350
BEFF
  3
DWGPROPS
350
BF0D
  0
DICTIONARY
  5
BEEF
330
BC6E
100
AcDbDictionary
280
     1
281
     1
  3
ADSK_XREC_LAYER_RECONCILED
360
BEF0
  0
DICTIONARY
  5
BEF1
330
BC84
100
AcDbDictionary
280
     1
281
     1
  3
ADSK_XREC_LAYER_RECONCILED
360
BEF2
  0
DICTIONARY
  5
BEF3
330
BC85
100
AcDbDictionary
280
     1
281
     1
  3
ADSK_XREC_LAYER_RECONCILED
360
BEF4
  0
DICTIONARY
  5
BEF5
330
BC86
100
AcDbDictionary
280
     1
281
     1
  3
ADSK_XREC_LAYER_RECONCILED
360
BEF6
  0
DICTIONARY
  5
BEF7
330
BC87
100
AcDbDictionary
280
     1
281
     1
  3
ADSK_XREC_LAYER_RECONCILED
360
BEF8
  0
DICTIONARY
  5
BEF9
330
BC88
100
AcDbDictionary
280
     1
281
     1
  3
ADSK_XREC_LAYER_RECONCILED
360
BEFA
  0
DICTIONARY
  5
BEFB
330
BC89
100
AcDbDictionary
280
     1
281
     1
  3
ADSK_XREC_LAYER_RECONCILED
360
BEFC
  0
DICTIONARY
  5
BEFD
330
BC8A
100
AcDbDictionary
280
     1
281
     1
  3
ADSK_XREC_LAYER_RECONCILED
360
BEFE
  0
DICTIONARY
  5
BE97
330
BC7C
100
AcDbDictionary
281
     1
  3
ACAD_LAYOUTSELFREF
350
BE98
  0
DICTIONARY
  5
BE95
330
BC78
100
AcDbDictionary
281
     1
  3
ACAD_LAYOUTSELFREF
350
BE96
  0
XRECORD
  5
BEEE
102
{ACAD_REACTORS
330
BC6A
102
}
330
BC6A
100
AcDbXrecord
280
     1
300
ACDLT
300
2014
300
ACDLT_F_S
  0
DICTIONARY
  5
BED0
102
{ACAD_REACTORS
330
BC6A
102
}
330
BC6A
100
AcDbDictionary
281
     1
  0
DICTIONARY
  5
BEE9
102
{ACAD_REACTORS
330
BC6A
102
}
330
BC6A
100
AcDbDictionary
281
     1
  3
Imperial24
350
BEEA
  0
DICTIONARY
  5
BC6B
102
{ACAD_REACTORS
330
BC6A
102
}
330
BC6A
100
AcDbDictionary
281
     1
  0
DICTIONARY
  5
BC77
102
{ACAD_REACTORS
330
BC6A
102
}
330
BC6A
100
AcDbDictionary
281
     1
  3
Model
350
BEEB
  3
レイアウト1
350
BEEC
  0
DICTIONARY
  5
BE9E
102
{ACAD_REACTORS
330
BC6A
102
}
330
BC6A
100
AcDbDictionary
281
     1
  3
ByBlock
350
BEA7
  3
ByLayer
350
BE9F
  3
Global
350
BEAF
  0
DICTIONARY
  5
BEE5
102
{ACAD_REACTORS
330
BC6A
102
}
330
BC6A
100
AcDbDictionary
281
     1
  3
Standard
350
BEE6
  0
DICTIONARY
  5
BC74
102
{ACAD_REACTORS
330
BC6A
102
}
330
BC6A
100
AcDbDictionary
281
     1
  3
STANDARD
350
BC75
  0
DICTIONARY
  5
BC76
102
{ACAD_REACTORS
330
BC6A
102
}
330
BC6A
100
AcDbDictionary
281
     1
  0
ACDBDICTIONARYWDFLT
  5
BE9C
102
{ACAD_REACTORS
330
BC6A
102
}
330
BC6A
100
AcDbDictionary
281
     1
  3
Normal
350
BE9D
100
AcDbDictionaryWithDefault
340
BE9D
  0
DICTIONARY
  5
BED3
102
{ACAD_REACTORS
330
BC6A
102
}
330
BC6A
100
AcDbDictionary
281
     1
  3
A0
350
BED4
  3
A1
350
BED5
  3
A2
350
BED6
  3
A3
350
BED7
  3
A4
350
BED8
  3
A5
350
BED9
  3
A6
350
BEDA
  3
A7
350
BEDB
  3
A8
350
BEDC
  3
A9
350
BEDD
  3
B0
350
BEDE
  3
B1
350
BEDF
  3
B2
350
BEE0
  3
B3
350
BEE1
  3
B4
350
BEE2
  3
B5
350
BEE3
  3
B6
350
BEE4
  0
DICTIONARY
  5
BEE7
102
{ACAD_REACTORS
330
BC6A
102
}
330
BC6A
100
AcDbDictionary
281
     1
  3
Imperial24
350
BEE8
  0
DICTIONARY
  5
BED1
102
{ACAD_REACTORS
330
BC6A
102
}
330
BC6A
100
AcDbDictionary
281
     1
  3
Standard
350
BED2
  0
DICTIONARY
  5
BEB7
102
{ACAD_REACTORS
330
BC6A
102
}
330
BC6A
100
AcDbDictionary
281
     1
  3
2dWireframe
350
BEBD
  3
Basic
350
BEBC
  3
Brighten
350
BEC3
  3
ColorChange
350
BEC7
  3
Conceptual
350
BEC0
  3
Dim
350
BEC2
  3
EdgeColorOff
350
BECF
  3
Facepattern
350
BEC6
  3
Flat
350
BEB8
  3
FlatWithEdges
350
BEB9
  3
Gouraud
350
BEBA
  3
GouraudWithEdges
350
BEBB
  3
Hidden
350
BEBF
  3
JitterOff
350
BECD
  3
Linepattern
350
BEC5
  3
OverhangOff
350
BECE
  3
Realistic
350
BEC1
  3
Shaded
350
BECC
  3
Shaded with edges
350
BECB
  3
Shades of Gray
350
BEC8
  3
Sketchy
350
BEC9
  3
Thicken
350
BEC4
  3
Wireframe
350
BEBE
  3
X-Ray
350
BECA
  0
XRECORD
  5
BF0C
102
{ACAD_REACTORS
330
BC6A
102
}
330
BC6A
100
AcDbXrecord
280
     1
 90
        1
330
BED2
  0
DICTIONARY
  5
BEFF
102
{ACAD_REACTORS
330
BC6A
102
}
330
BC6A
100
AcDbDictionary
281
     1
  3
CANNOSCALE
350
BF04
  3
CMLEADERSTYLE
350
BF01
  3
CTABLESTYLE
350
BF00
  3
CVIEWDETAILSTYLE
350
BF02
  3
CVIEWSECTIONSTYLE
350
BF03
  3
DIMASSOC
350
BF07
  3
INDEXCTL
350
BF06
  3
SORTENTS
350
BF05
  3
XCLIPFRAME
350
BF08
  0
XRECORD
  5
BF0D
102
{ACAD_REACTORS
330
BC6A
102
}
330
BC6A
100
AcDbXrecord
280
     1
  1
DWGPROPS COOKIE
  2

  3

  4

  6

  7

  8
Yoshitsune
  9

300
=
301
=
302
=
303
=
304
=
305
=
306
=
307
=
308
=
309
=
 40
0.0000087847222222
 41
2451301.60132662
 42
2457192.688260799
  1

 90
        0
  0
XRECORD
  5
BEF0
102
{ACAD_REACTORS
330
BEEF
102
}
330
BEEF
100
AcDbXrecord
280
     1
290
     1
  0
XRECORD
  5
BEF2
102
{ACAD_REACTORS
330
BEF1
102
}
330
BEF1
100
AcDbXrecord
280
     1
290
     1
  0
XRECORD
  5
BEF4
102
{ACAD_REACTORS
330
BEF3
102
}
330
BEF3
100
AcDbXrecord
280
     1
290
     1
  0
XRECORD
  5
BEF6
102
{ACAD_REACTORS
330
BEF5
102
}
330
BEF5
100
AcDbXrecord
280
     1
290
     1
  0
XRECORD
  5
BEF8
102
{ACAD_REACTORS
330
BEF7
102
}
330
BEF7
100
AcDbXrecord
280
     1
290
     1
  0
XRECORD
  5
BEFA
102
{ACAD_REACTORS
330
BEF9
102
}
330
BEF9
100
AcDbXrecord
280
     1
290
     1
  0
XRECORD
  5
BEFC
102
{ACAD_REACTORS
330
BEFB
102
}
330
BEFB
100
AcDbXrecord
280
     1
290
     1
  0
XRECORD
  5
BEFE
102
{ACAD_REACTORS
330
BEFD
102
}
330
BEFD
100
AcDbXrecord
280
     1
290
     1
  0
XRECORD
  5
BE98
102
{ACAD_REACTORS
330
BE97
102
}
330
BE97
100
AcDbXrecord
280
     1
340
BC7C
  0
XRECORD
  5
BE96
102
{ACAD_REACTORS
330
BE95
102
}
330
BE95
100
AcDbXrecord
280
     1
340
BC78
  0
ACDBDETAILVIEWSTYLE
  5
BEEA
102
{ACAD_XDICTIONARY
360
BF45
102
}
102
{ACAD_REACTORS
330
BEE9
102
}
330
BEE9
100
AcDbModelDocViewStyle
 70
     0
  3
Imperial24
290
     0
100
AcDbDetailViewStyle
 70
     0
 71
     0
 90
        3
 71
     1
340
BC6F
 40
0.24
340
0
 40
0.24
300

 40
0.36
280
     3
 71
     2
340
BC73
 90
       25
 71
     3
340
BC6F
 40
0.24
 90
        1
 40
0.75
 90
        1
300
%<\AcVar ViewType \f "%tc1">% %<\AcVar ViewDetailId>%\PSCALE %<\AcVar ViewScale \f "%sn">%
 71
     4
340
BC73
 90
       25
340
BC73
 90
       25
280
     0
  0
LAYOUT
  5
BEEB
102
{ACAD_XDICTIONARY
360
BF47
102
}
102
{ACAD_REACTORS
330
BC77
102
}
330
BC77
100
AcDbPlotSettings
  1

  2
Canon LBP9100C
  4

  6

 40
0.0
 41
0.0
 42
0.0
 43
0.0
 44
0.0
 45
0.0
 46
0.0
 47
0.0
 48
0.0
 49
0.0
140
0.0
141
0.0
142
1.0
143
1.0
 70
  1712
 72
     0
 73
     0
 74
     0
  7

 75
     0
147
1.0
148
0.0
149
0.0
100
AcDbLayout
  1
Model
 70
     1
 71
     0
 10
0.0
 20
0.0
 11
12.0
 21
9.0
 12
0.0
 22
0.0
 32
0.0
 14
0.0
 24
0.0
 34
0.0
 15
0.0
 25
0.0
 35
0.0
146
0.0
 13
0.0
 23
0.0
 33
0.0
 16
1.0
 26
0.0
 36
0.0
 17
0.0
 27
1.0
 37
0.0
 76
     0
330
BC7C
331
BE94
  0
LAYOUT
  5
BEEC
102
{ACAD_XDICTIONARY
360
BF49
102
}
102
{ACAD_REACTORS
330
BC77
102
}
330
BC77
100
AcDbPlotSettings
  1

  2
Canon LBP9100C
  4

  6

 40
0.0
 41
0.0
 42
0.0
 43
0.0
 44
0.0
 45
0.0
 46
0.0
 47
0.0
 48
0.0
 49
0.0
140
0.0
141
0.0
142
1.0
143
1.0
 70
   688
 72
     0
 73
     0
 74
     5
  7

 75
    16
147
1.0
148
0.0
149
0.0
100
AcDbLayout
  1
レイアウト1
 70
     0
 71
     1
 10
0.0
 20
0.0
 11
420.0
 21
297.0
 12
0.0
 22
0.0
 32
0.0
 14
1.000000000000000E+20
 24
1.000000000000000E+20
 34
1.000000000000000E+20
 15
-1.000000000000000E+20
 25
-1.000000000000000E+20
 35
-1.000000000000000E+20
146
0.0
 13
0.0
 23
0.0
 33
0.0
 16
1.0
 26
0.0
 36
0.0
 17
0.0
 27
1.0
 37
0.0
 76
     0
330
BC78
  0
MATERIAL
  5
BEA7
102
{ACAD_XDICTIONARY
360
BEA8
102
}
102
{ACAD_REACTORS
330
BE9E
102
}
330
BE9E
100
AcDbMaterial
  1
ByBlock
 72
     0
 43
0.0208333333333333
 43
0.0
 43
0.0
 43
0.0
 43
0.0
 43
0.0208333333333333
 43
0.0
 43
0.0
 43
0.0
 43
0.0
 43
1.0
 43
0.0
 43
0.0
 43
0.0
 43
0.0
 43
1.0
 77
     0
 47
0.0208333333333333
 47
0.0
 47
0.0
 47
0.0
 47
0.0
 47
0.0208333333333333
 47
0.0
 47
0.0
 47
0.0
 47
0.0
 47
1.0
 47
0.0
 47
0.0
 47
0.0
 47
0.0
 47
1.0
171
     0
 49
0.0208333333333333
 49
0.0
 49
0.0
 49
0.0
 49
0.0
 49
0.0208333333333333
 49
0.0
 49
0.0
 49
0.0
 49
0.0
 49
1.0
 49
0.0
 49
0.0
 49
0.0
 49
0.0
 49
1.0
175
     0
142
0.0208333333333333
142
0.0
142
0.0
142
0.0
142
0.0
142
0.0208333333333333
142
0.0
142
0.0
142
0.0
142
0.0
142
1.0
142
0.0
142
0.0
142
0.0
142
0.0
142
1.0
179
     0
144
0.0208333333333333
144
0.0
144
0.0
144
0.0
144
0.0
144
0.0208333333333333
144
0.0
144
0.0
144
0.0
144
0.0
144
1.0
144
0.0
144
0.0
144
0.0
144
0.0
144
1.0
147
0.0208333333333333
147
0.0
147
0.0
147
0.0
147
0.0
147
0.0208333333333333
147
0.0
147
0.0
147
0.0
147
0.0
147
1.0
147
0.0
147
0.0
147
0.0
147
0.0
147
1.0
  0
MATERIAL
  5
BE9F
102
{ACAD_XDICTIONARY
360
BEA0
102
}
102
{ACAD_REACTORS
330
BE9E
102
}
330
BE9E
100
AcDbMaterial
  1
ByLayer
 72
     0
 43
0.0208333333333333
 43
0.0
 43
0.0
 43
0.0
 43
0.0
 43
0.0208333333333333
 43
0.0
 43
0.0
 43
0.0
 43
0.0
 43
1.0
 43
0.0
 43
0.0
 43
0.0
 43
0.0
 43
1.0
 77
     0
 47
0.0208333333333333
 47
0.0
 47
0.0
 47
0.0
 47
0.0
 47
0.0208333333333333
 47
0.0
 47
0.0
 47
0.0
 47
0.0
 47
1.0
 47
0.0
 47
0.0
 47
0.0
 47
0.0
 47
1.0
171
     0
 49
0.0208333333333333
 49
0.0
 49
0.0
 49
0.0
 49
0.0
 49
0.0208333333333333
 49
0.0
 49
0.0
 49
0.0
 49
0.0
 49
1.0
 49
0.0
 49
0.0
 49
0.0
 49
0.0
 49
1.0
175
     0
142
0.0208333333333333
142
0.0
142
0.0
142
0.0
142
0.0
142
0.0208333333333333
142
0.0
142
0.0
142
0.0
142
0.0
142
1.0
142
0.0
142
0.0
142
0.0
142
0.0
142
1.0
179
     0
144
0.0208333333333333
144
0.0
144
0.0
144
0.0
144
0.0
144
0.0208333333333333
144
0.0
144
0.0
144
0.0
144
0.0
144
1.0
144
0.0
144
0.0
144
0.0
144
0.0
144
1.0
147
0.0208333333333333
147
0.0
147
0.0
147
0.0
147
0.0
147
0.0208333333333333
147
0.0
147
0.0
147
0.0
147
0.0
147
1.0
147
0.0
147
0.0
147
0.0
147
0.0
147
1.0
  0
MATERIAL
  5
BEAF
102
{ACAD_XDICTIONARY
360
BEB0
102
}
102
{ACAD_REACTORS
330
BE9E
102
}
330
BE9E
100
AcDbMaterial
  1
Global
 72
     0
 43
0.0208333333333333
 43
0.0
 43
0.0
 43
0.0
 43
0.0
 43
0.0208333333333333
 43
0.0
 43
0.0
 43
0.0
 43
0.0
 43
1.0
 43
0.0
 43
0.0
 43
0.0
 43
0.0
 43
1.0
 77
     0
 47
0.0208333333333333
 47
0.0
 47
0.0
 47
0.0
 47
0.0
 47
0.0208333333333333
 47
0.0
 47
0.0
 47
0.0
 47
0.0
 47
1.0
 47
0.0
 47
0.0
 47
0.0
 47
0.0
 47
1.0
171
     0
 49
0.0208333333333333
 49
0.0
 49
0.0
 49
0.0
 49
0.0
 49
0.0208333333333333
 49
0.0
 49
0.0
 49
0.0
 49
0.0
 49
1.0
 49
0.0
 49
0.0
 49
0.0
 49
0.0
 49
1.0
175
     0
142
0.0208333333333333
142
0.0
142
0.0
142
0.0
142
0.0
142
0.0208333333333333
142
0.0
142
0.0
142
0.0
142
0.0
142
1.0
142
0.0
142
0.0
142
0.0
142
0.0
142
1.0
179
     0
144
0.0208333333333333
144
0.0
144
0.0
144
0.0
144
0.0
144
0.0208333333333333
144
0.0
144
0.0
144
0.0
144
0.0
144
1.0
144
0.0
144
0.0
144
0.0
144
0.0
144
1.0
147
0.0208333333333333
147
0.0
147
0.0
147
0.0
147
0.0
147
0.0208333333333333
147
0.0
147
0.0
147
0.0
147
0.0
147
1.0
147
0.0
147
0.0
147
0.0
147
0.0
147
1.0
  0
MLEADERSTYLE
  5
BEE6
102
{ACAD_REACTORS
330
BEE5
102
}
330
BEE5
100
AcDbMLeaderStyle
170
     2
171
     1
172
     0
 90
        2
 40
0.0
 41
0.0
173
     1
 91
-1056964608
340
BC71
 92
       -2
290
     1
 42
0.09
291
     1
 43
0.36
  3
Standard
 44
0.18
300

342
BC6F
174
     1
178
     6
175
     1
176
     0
 93
-1056964608
 45
0.18
292
     0
297
     0
 46
0.18
 94
-1056964608
 47
1.0
 49
1.0
140
1.0
293
     1
141
0.0
294
     1
177
     0
142
1.0
295
     0
296
     0
143
0.125
1001
ACAD_MLEADERVER
1070
     2
  0
MLINESTYLE
  5
BC75
102
{ACAD_REACTORS
330
BC74
102
}
330
BC74
100
AcDbMlineStyle
  2
STANDARD
 70
     0
  3

 62
   256
 51
90.0
 52
90.0
 71
     2
 49
0.5
 62
   256
  6
BYLAYER
 49
-0.5
 62
   256
  6
BYLAYER
  0
ACDBPLACEHOLDER
  5
BE9D
102
{ACAD_REACTORS
330
BE9C
102
}
330
BE9C
  0
SCALE
  5
BED4
102
{ACAD_REACTORS
330
BED3
102
}
330
BED3
100
AcDbScale
 70
     0
300
1:1
140
1.0
141
1.0
290
     1
  0
SCALE
  5
BED5
102
{ACAD_REACTORS
330
BED3
102
}
330
BED3
100
AcDbScale
 70
     0
300
1/128" = 1'-0"
140
0.0078125
141
12.0
290
     0
  0
SCALE
  5
BED6
102
{ACAD_REACTORS
330
BED3
102
}
330
BED3
100
AcDbScale
 70
     0
300
1/64" = 1'-0"
140
0.015625
141
12.0
290
     0
  0
SCALE
  5
BED7
102
{ACAD_REACTORS
330
BED3
102
}
330
BED3
100
AcDbScale
 70
     0
300
1/32" = 1'-0"
140
0.03125
141
12.0
290
     0
  0
SCALE
  5
BED8
102
{ACAD_REACTORS
330
BED3
102
}
330
BED3
100
AcDbScale
 70
     0
300
1/16" = 1'-0"
140
0.0625
141
12.0
290
     0
  0
SCALE
  5
BED9
102
{ACAD_REACTORS
330
BED3
102
}
330
BED3
100
AcDbScale
 70
     0
300
3/32" = 1'-0"
140
0.09375
141
12.0
290
     0
  0
SCALE
  5
BEDA
102
{ACAD_REACTORS
330
BED3
102
}
330
BED3
100
AcDbScale
 70
     0
300
1/8" = 1'-0"
140
0.125
141
12.0
290
     0
  0
SCALE
  5
BEDB
102
{ACAD_REACTORS
330
BED3
102
}
330
BED3
100
AcDbScale
 70
     0
300
3/16" = 1'-0"
140
0.1875
141
12.0
290
     0
  0
SCALE
  5
BEDC
102
{ACAD_REACTORS
330
BED3
102
}
330
BED3
100
AcDbScale
 70
     0
300
1/4" = 1'-0"
140
0.25
141
12.0
290
     0
  0
SCALE
  5
BEDD
102
{ACAD_REACTORS
330
BED3
102
}
330
BED3
100
AcDbScale
 70
     0
300
3/8" = 1'-0"
140
0.375
141
12.0
290
     0
  0
SCALE
  5
BEDE
102
{ACAD_REACTORS
330
BED3
102
}
330
BED3
100
AcDbScale
 70
     0
300
1/2" = 1'-0"
140
0.5
141
12.0
290
     0
  0
SCALE
  5
BEDF
102
{ACAD_REACTORS
330
BED3
102
}
330
BED3
100
AcDbScale
 70
     0
300
3/4" = 1'-0"
140
0.75
141
12.0
290
     0
  0
SCALE
  5
BEE0
102
{ACAD_REACTORS
330
BED3
102
}
330
BED3
100
AcDbScale
 70
     0
300
1" = 1'-0"
140
1.0
141
12.0
290
     0
  0
SCALE
  5
BEE1
102
{ACAD_REACTORS
330
BED3
102
}
330
BED3
100
AcDbScale
 70
     0
300
1-1/2" = 1'-0"
140
1.5
141
12.0
290
     0
  0
SCALE
  5
BEE2
102
{ACAD_REACTORS
330
BED3
102
}
330
BED3
100
AcDbScale
 70
     0
300
3" = 1'-0"
140
3.0
141
12.0
290
     0
  0
SCALE
  5
BEE3
102
{ACAD_REACTORS
330
BED3
102
}
330
BED3
100
AcDbScale
 70
     0
300
6" = 1'-0"
140
6.0
141
12.0
290
     0
  0
SCALE
  5
BEE4
102
{ACAD_REACTORS
330
BED3
102
}
330
BED3
100
AcDbScale
 70
     0
300
1'-0" = 1'-0"
140
12.0
141
12.0
290
     0
  0
ACDBSECTIONVIEWSTYLE
  5
BEE8
102
{ACAD_XDICTIONARY
360
BF43
102
}
102
{ACAD_REACTORS
330
BEE7
102
}
330
BEE7
100
AcDbModelDocViewStyle
 70
     0
  3
Imperial24
290
     0
100
AcDbSectionViewStyle
 70
     0
 71
     0
 90
       78
 71
     1
340
BC6F
 40
0.24
340
0
340
0
 40
0.24
300
I, O, Q, S, X, Z
 40
0.48
 90
        3
 40
0.18
 90
        1
 71
     2
340
BC73
 90
       25
340
BC73
 90
       50
 40
0.24
 40
0.0
 40
0.24
 71
     3
340
BC6F
 40
0.24
 90
        1
 40
0.75
 90
        1
300
%<\AcVar ViewType \f "%tc1">% %<\AcVar ViewSectionStartId>%-%<\AcVar ViewSectionEndId>%\PSCALE %<\AcVar ViewScale \f "%sn">%
 71
     4
300
ANSI31
 40
1.0
 90
        0
290
     0
290
     0
 90
        6
 40
0.0
 40
1.570796326794896
 40
0.2617993877991494
 40
1.308996938995747
 40
-0.2617993877991494
 40
1.832595714594046
  0
TABLESTYLE
  5
BED2
102
{ACAD_XDICTIONARY
360
BF0A
102
}
102
{ACAD_REACTORS
330
BED1
102
}
330
BED1
100
AcDbTableStyle
  3
Standard
 70
     0
 71
     0
 40
0.06
 41
0.06
280
     0
281
     0
  7
STANDARD
140
0.18
170
     2
 62
     0
 63
     7
283
     0
274
    -2
284
     1
 64
     0
275
    -2
285
     1
 65
     0
276
    -2
286
     1
 66
     0
277
    -2
287
     1
 67
     0
278
    -2
288
     1
 68
     0
279
    -2
289
     1
 69
     0
  7
STANDARD
140
0.25
170
     5
 62
     0
 63
     7
283
     0
274
    -2
284
     1
 64
     0
275
    -2
285
     1
 65
     0
276
    -2
286
     1
 66
     0
277
    -2
287
     1
 67
     0
278
    -2
288
     1
 68
     0
279
    -2
289
     1
 69
     0
  7
STANDARD
140
0.18
170
     5
 62
     0
 63
     7
283
     0
274
    -2
284
     1
 64
     0
275
    -2
285
     1
 65
     0
276
    -2
286
     1
 66
     0
277
    -2
287
     1
 67
     0
278
    -2
288
     1
 68
     0
279
    -2
289
     1
 69
     0
  0
VISUALSTYLE
  5
BEBD
102
{ACAD_XDICTIONARY
360
BF1B
102
}
102
{ACAD_REACTORS
330
BEB7
102
}
330
BEB7
100
AcDbVisualStyle
  2
2dWireframe
 70
     4
 71
     0
 72
     2
 73
     0
 90
        0
 40
-0.6
 41
-30.0
 62
     5
 63
     7
 74
     1
 91
        4
 64
     7
 65
   257
 75
     1
175
     1
 42
1.0
 92
        0
 66
   257
 43
1.0
 76
     1
 77
     6
 78
     2
 67
     7
 79
     5
170
     0
171
     0
290
     0
174
     0
 93
        1
 44
0.0
173
     0
291
     0
 45
0.0
1001
ACAD
1000
AcDbSavedByObjectVersion
1070
     0
  0
VISUALSTYLE
  5
BEBC
102
{ACAD_XDICTIONARY
360
BF19
102
}
102
{ACAD_REACTORS
330
BEB7
102
}
330
BEB7
100
AcDbVisualStyle
  2
Basic
 70
     7
 71
     1
 72
     0
 73
     1
 90
        0
 40
-0.6
 41
-30.0
 62
     5
 63
     7
 74
     0
 91
        4
 64
     7
 65
   257
 75
     1
175
     1
 42
1.0
 92
        8
 66
     7
 43
1.0
 76
     1
 77
     6
 78
     2
 67
     7
 79
     5
170
     0
171
     0
290
     0
174
     0
 93
        1
 44
0.0
173
     0
291
     1
 45
0.0
1001
ACAD
1000
AcDbSavedByObjectVersion
1070
     0
  0
VISUALSTYLE
  5
BEC3
102
{ACAD_XDICTIONARY
360
BF27
102
}
102
{ACAD_REACTORS
330
BEB7
102
}
330
BEB7
100
AcDbVisualStyle
  2
Brighten
 70
    12
 71
     2
 72
     2
 73
     0
 90
        0
 40
-0.6
 41
-30.0
 62
     5
 63
     7
 74
     1
 91
        4
 64
     7
 65
   257
 75
     1
175
     1
 42
1.0
 92
        8
 66
     7
 43
1.0
 76
     1
 77
     6
 78
     2
 67
     7
 79
     5
170
     0
171
     0
290
     0
174
     0
 93
        1
 44
50.0
173
     0
291
     1
 45
0.0
1001
ACAD
1000
AcDbSavedByObjectVersion
1070
     0
  0
VISUALSTYLE
  5
BEC7
102
{ACAD_XDICTIONARY
360
BF2F
102
}
102
{ACAD_REACTORS
330
BEB7
102
}
330
BEB7
100
AcDbVisualStyle
  2
ColorChange
 70
    16
 71
     2
 72
     2
 73
     3
 90
        0
 40
-0.6
 41
-30.0
 62
     5
 63
     8
 74
     1
 91
        4
 64
     7
 65
   257
 75
     1
175
     1
 42
1.0
 92
        8
 66
     8
 43
1.0
 76
     1
 77
     6
 78
     2
 67
     7
 79
     5
170
     0
171
     0
290
     0
174
     0
 93
        1
 44
0.0
173
     0
291
     1
 45
0.0
1001
ACAD
1000
AcDbSavedByObjectVersion
1070
     0
  0
VISUALSTYLE
  5
BEC0
102
{ACAD_XDICTIONARY
360
BF21
102
}
102
{ACAD_REACTORS
330
BEB7
102
}
330
BEB7
100
AcDbVisualStyle
  2
Conceptual
 70
     9
 71
     3
 72
     2
 73
     0
 90
        0
 40
-0.6
 41
-30.0
 62
     5
 63
     7
 74
     2
 91
        2
 64
     7
 65
   257
 75
     1
175
     1
 42
179.0
 92
        8
 66
     7
 43
1.0
 76
     1
 77
     6
 78
     2
 67
     7
 79
     3
170
     0
171
     0
290
     0
174
     0
 93
        1
 44
0.0
173
     0
291
     0
 45
0.0
1001
ACAD
1000
AcDbSavedByObjectVersion
1070
     0
  0
VISUALSTYLE
  5
BEC2
102
{ACAD_XDICTIONARY
360
BF25
102
}
102
{ACAD_REACTORS
330
BEB7
102
}
330
BEB7
100
AcDbVisualStyle
  2
Dim
 70
    11
 71
     2
 72
     2
 73
     0
 90
        0
 40
-0.6
 41
-30.0
 62
     5
 63
     7
 74
     1
 91
        4
 64
     7
 65
   257
 75
     1
175
     1
 42
1.0
 92
        8
 66
     7
 43
1.0
 76
     1
 77
     6
 78
     2
 67
     7
 79
     5
170
     0
171
     0
290
     0
174
     0
 93
        1
 44
-50.0
173
     0
291
     1
 45
0.0
1001
ACAD
1000
AcDbSavedByObjectVersion
1070
     0
  0
VISUALSTYLE
  5
BECF
102
{ACAD_XDICTIONARY
360
BF3F
102
}
102
{ACAD_REACTORS
330
BEB7
102
}
330
BEB7
100
AcDbVisualStyle
  2
EdgeColorOff
 70
    22
 71
     2
 72
     2
 73
     0
 90
        0
 40
-0.6
 41
-30.0
 62
     5
 63
     7
 74
     1
 91
        4
 64
     7
 65
   257
 75
     1
175
     1
 42
1.0
 92
        8
 66
     7
 43
1.0
 76
     1
 77
     6
 78
     2
 67
     7
 79
     5
170
     0
171
     0
290
     0
174
     0
 93
        1
 44
0.0
173
     0
291
     1
 45
0.0
1001
ACAD
1000
AcDbSavedByObjectVersion
1070
     0
  0
VISUALSTYLE
  5
BEC6
102
{ACAD_XDICTIONARY
360
BF2D
102
}
102
{ACAD_REACTORS
330
BEB7
102
}
330
BEB7
100
AcDbVisualStyle
  2
Facepattern
 70
    15
 71
     2
 72
     2
 73
     0
 90
        0
 40
-0.6
 41
-30.0
 62
     5
 63
     7
 74
     1
 91
        4
 64
     7
 65
   257
 75
     1
175
     1
 42
1.0
 92
        8
 66
     7
 43
1.0
 76
     1
 77
     6
 78
     2
 67
     7
 79
     5
170
     0
171
     0
290
     0
174
     0
 93
        1
 44
0.0
173
     0
291
     1
 45
0.0
1001
ACAD
1000
AcDbSavedByObjectVersion
1070
     0
  0
VISUALSTYLE
  5
BEB8
102
{ACAD_XDICTIONARY
360
BF11
102
}
102
{ACAD_REACTORS
330
BEB7
102
}
330
BEB7
100
AcDbVisualStyle
  2
Flat
 70
     0
 71
     2
 72
     1
 73
     1
 90
        2
 40
-0.6
 41
30.0
 62
     5
 63
     7
 74
     0
 91
        0
 64
     7
 65
   257
 75
     1
175
     1
 42
1.0
 92
        8
 66
     7
 43
1.0
 76
     1
 77
     6
 78
     2
 67
     7
 79
     5
170
     0
171
     0
290
     0
174
     0
 93
       13
 44
0.0
173
     0
291
     1
 45
0.0
1001
ACAD
1000
AcDbSavedByObjectVersion
1070
     0
  0
VISUALSTYLE
  5
BEB9
102
{ACAD_XDICTIONARY
360
BF13
102
}
102
{ACAD_REACTORS
330
BEB7
102
}
330
BEB7
100
AcDbVisualStyle
  2
FlatWithEdges
 70
     1
 71
     2
 72
     1
 73
     1
 90
        2
 40
-0.6
 41
30.0
 62
     5
 63
     7
 74
     1
 91
        0
 64
     7
 65
   257
 75
     1
175
     1
 42
1.0
 92
        0
 66
   257
 43
1.0
 76
     1
 77
     6
 78
     2
 67
     7
 79
     5
170
     0
171
     0
290
     0
174
     0
 93
       13
 44
0.0
173
     0
291
     1
 45
0.0
1001
ACAD
1000
AcDbSavedByObjectVersion
1070
     0
  0
VISUALSTYLE
  5
BEBA
102
{ACAD_XDICTIONARY
360
BF15
102
}
102
{ACAD_REACTORS
330
BEB7
102
}
330
BEB7
100
AcDbVisualStyle
  2
Gouraud
 70
     2
 71
     2
 72
     2
 73
     1
 90
        2
 40
-0.6
 41
30.0
 62
     5
 63
     7
 74
     0
 91
        0
 64
     7
 65
   257
 75
     1
175
     1
 42
1.0
 92
        0
 66
     7
 43
1.0
 76
     1
 77
     6
 78
     2
 67
     7
 79
     5
170
     0
171
     0
290
     0
174
     0
 93
       13
 44
0.0
173
     0
291
     1
 45
0.0
1001
ACAD
1000
AcDbSavedByObjectVersion
1070
     0
  0
VISUALSTYLE
  5
BEBB
102
{ACAD_XDICTIONARY
360
BF17
102
}
102
{ACAD_REACTORS
330
BEB7
102
}
330
BEB7
100
AcDbVisualStyle
  2
GouraudWithEdges
 70
     3
 71
     2
 72
     2
 73
     1
 90
        2
 40
-0.6
 41
30.0
 62
     5
 63
     7
 74
     1
 91
        0
 64
     7
 65
   257
 75
     1
175
     1
 42
1.0
 92
        0
 66
   257
 43
1.0
 76
     1
 77
     6
 78
     2
 67
     7
 79
     5
170
     0
171
     0
290
     0
174
     0
 93
       13
 44
0.0
173
     0
291
     1
 45
0.0
1001
ACAD
1000
AcDbSavedByObjectVersion
1070
     0
  0
VISUALSTYLE
  5
BEBF
102
{ACAD_XDICTIONARY
360
BF1F
102
}
102
{ACAD_REACTORS
330
BEB7
102
}
330
BEB7
100
AcDbVisualStyle
  2
Hidden
 70
     6
 71
     1
 72
     2
 73
     2
 90
        0
 40
-0.6
 41
-30.0
 62
     5
 63
     7
 74
     2
 91
        2
 64
     7
 65
   257
 75
     2
175
     1
 42
40.0
 92
        0
 66
   257
 43
1.0
 76
     1
 77
     6
 78
     2
 67
     7
 79
     3
170
     0
171
     0
290
     0
174
     0
 93
        1
 44
0.0
173
     0
291
     0
 45
0.0
1001
ACAD
1000
AcDbSavedByObjectVersion
1070
     0
  0
VISUALSTYLE
  5
BECD
102
{ACAD_XDICTIONARY
360
BF3B
102
}
102
{ACAD_REACTORS
330
BEB7
102
}
330
BEB7
100
AcDbVisualStyle
  2
JitterOff
 70
    20
 71
     2
 72
     2
 73
     0
 90
        0
 40
-0.6
 41
-30.0
 62
     5
 63
     7
 74
     1
 91
        4
 64
     7
 65
   257
 75
     1
175
     1
 42
1.0
 92
       10
 66
     7
 43
1.0
 76
     1
 77
     6
 78
     2
 67
     7
 79
     5
170
     0
171
     0
290
     0
174
     0
 93
        1
 44
0.0
173
     0
291
     1
 45
0.0
1001
ACAD
1000
AcDbSavedByObjectVersion
1070
     0
  0
VISUALSTYLE
  5
BEC5
102
{ACAD_XDICTIONARY
360
BF2B
102
}
102
{ACAD_REACTORS
330
BEB7
102
}
330
BEB7
100
AcDbVisualStyle
  2
Linepattern
 70
    14
 71
     2
 72
     2
 73
     0
 90
        0
 40
-0.6
 41
-30.0
 62
     5
 63
     7
 74
     1
 91
        4
 64
     7
 65
   257
 75
     7
175
     7
 42
1.0
 92
        8
 66
     7
 43
1.0
 76
     1
 77
     6
 78
     2
 67
     7
 79
     5
170
     0
171
     0
290
     0
174
     0
 93
        1
 44
0.0
173
     0
291
     1
 45
0.0
1001
ACAD
1000
AcDbSavedByObjectVersion
1070
     0
  0
VISUALSTYLE
  5
BECE
102
{ACAD_XDICTIONARY
360
BF3D
102
}
102
{ACAD_REACTORS
330
BEB7
102
}
330
BEB7
100
AcDbVisualStyle
  2
OverhangOff
 70
    21
 71
     2
 72
     2
 73
     0
 90
        0
 40
-0.6
 41
-30.0
 62
     5
 63
     7
 74
     1
 91
        4
 64
     7
 65
   257
 75
     1
175
     1
 42
1.0
 92
        9
 66
     7
 43
1.0
 76
     1
 77
     6
 78
     2
 67
     7
 79
     5
170
     0
171
     0
290
     0
174
     0
 93
        1
 44
0.0
173
     0
291
     1
 45
0.0
1001
ACAD
1000
AcDbSavedByObjectVersion
1070
     0
  0
VISUALSTYLE
  5
BEC1
102
{ACAD_XDICTIONARY
360
BF23
102
}
102
{ACAD_REACTORS
330
BEB7
102
}
330
BEB7
100
AcDbVisualStyle
  2
Realistic
 70
     8
 71
     2
 72
     3
 73
     0
 90
        2
 40
-0.6
 41
30.0
 62
     5
 63
     7
 74
     0
 91
        0
 64
     7
 65
   257
 75
     1
175
     1
 42
1.0
 92
        8
 66
   257
 43
1.0
 76
     1
 77
     6
 78
     2
 67
     7
 79
     3
170
     0
171
     0
290
     0
174
     0
 93
       13
 44
0.0
173
     0
291
     0
 45
0.0
1001
ACAD
1000
AcDbSavedByObjectVersion
1070
     0
  0
VISUALSTYLE
  5
BECC
102
{ACAD_XDICTIONARY
360
BF39
102
}
102
{ACAD_REACTORS
330
BEB7
102
}
330
BEB7
100
AcDbVisualStyle
  2
Shaded
 70
    27
 71
     2
 72
     2
 73
     1
 90
        2
 40
-0.6
 41
30.0
 62
     5
 63
     7
 74
     0
 91
        4
 64
     7
 65
   257
 75
     1
175
     1
 42
1.0
 92
        8
 66
   257
 43
1.0
 76
     1
 77
     6
 78
     2
 67
     8
 79
     3
170
     0
171
     0
290
     0
174
     0
 93
        5
 44
0.0
173
     0
291
     0
 45
0.0
1001
ACAD
1000
AcDbSavedByObjectVersion
1070
     0
  0
VISUALSTYLE
  5
BECB
102
{ACAD_XDICTIONARY
360
BF37
102
}
102
{ACAD_REACTORS
330
BEB7
102
}
330
BEB7
100
AcDbVisualStyle
  2
Shaded with edges
 70
    26
 71
     2
 72
     2
 73
     1
 90
        2
 40
-0.6
 41
30.0
 62
     5
 63
     7
 74
     1
 91
       10
 64
     7
 65
   257
 75
     2
175
     1
 42
1.0
 92
        8
 66
   257
 43
1.0
 76
     1
 77
     6
 78
     2
 67
     7
 79
     3
170
     0
171
     0
290
     0
174
     0
 93
        5
 44
0.0
173
     0
291
     0
 45
0.0
1001
ACAD
1000
AcDbSavedByObjectVersion
1070
     0
  0
VISUALSTYLE
  5
BEC8
102
{ACAD_XDICTIONARY
360
BF31
102
}
102
{ACAD_REACTORS
330
BEB7
102
}
330
BEB7
100
AcDbVisualStyle
  2
Shades of Gray
 70
    23
 71
     2
 72
     2
 73
     3
 90
        0
 40
-0.6
 41
-30.0
 62
     5
 63
     7
 74
     2
 91
        2
 64
     7
 65
     7
 75
     1
175
     1
 42
40.0
 92
        8
 66
     7
 43
1.0
 76
     1
 77
     6
 78
     2
 67
     7
 79
     3
170
     0
171
     0
290
     0
174
     0
 93
        1
 44
0.0
173
     0
291
     0
 45
0.0
1001
ACAD
1000
AcDbSavedByObjectVersion
1070
     0
  0
VISUALSTYLE
  5
BEC9
102
{ACAD_XDICTIONARY
360
BF33
102
}
102
{ACAD_REACTORS
330
BEB7
102
}
330
BEB7
100
AcDbVisualStyle
  2
Sketchy
 70
    24
 71
     1
 72
     2
 73
     2
 90
        0
 40
-0.6
 41
-30.0
 62
     5
 63
     7
 74
     2
 91
        2
 64
     7
 65
     7
 75
     1
175
     1
 42
40.0
 92
       11
 66
     7
 43
1.0
 76
     1
 77
     6
 78
     2
 67
     7
 79
     6
170
     0
171
     0
290
     0
174
     0
 93
        1
 44
0.0
173
     0
291
     0
 45
0.0
1001
ACAD
1000
AcDbSavedByObjectVersion
1070
     0
  0
VISUALSTYLE
  5
BEC4
102
{ACAD_XDICTIONARY
360
BF29
102
}
102
{ACAD_REACTORS
330
BEB7
102
}
330
BEB7
100
AcDbVisualStyle
  2
Thicken
 70
    13
 71
     2
 72
     2
 73
     0
 90
        0
 40
-0.6
 41
-30.0
 62
     5
 63
     7
 74
     1
 91
        4
 64
     7
 65
   257
 75
     1
175
     1
 42
1.0
 92
       12
 66
     7
 43
1.0
 76
     1
 77
     6
 78
     2
 67
     7
 79
     5
170
     0
171
     0
290
     0
174
     0
 93
        1
 44
0.0
173
     0
291
     1
 45
0.0
1001
ACAD
1000
AcDbSavedByObjectVersion
1070
     0
  0
VISUALSTYLE
  5
BEBE
102
{ACAD_XDICTIONARY
360
BF1D
102
}
102
{ACAD_REACTORS
330
BEB7
102
}
330
BEB7
100
AcDbVisualStyle
  2
Wireframe
 70
     5
 71
     0
 72
     2
 73
     0
 90
        0
 40
-0.6
 41
-30.0
 62
     5
 63
     7
 74
     1
 91
        4
 64
     7
 65
   257
 75
     1
175
     1
 42
1.0
 92
        0
 66
   257
 43
1.0
 76
     1
 77
     6
 78
     2
 67
     7
 79
     3
170
     0
171
     0
290
     0
174
     0
 93
        1
 44
0.0
173
     0
291
     0
 45
0.0
1001
ACAD
1000
AcDbSavedByObjectVersion
1070
     0
  0
VISUALSTYLE
  5
BECA
102
{ACAD_XDICTIONARY
360
BF35
102
}
102
{ACAD_REACTORS
330
BEB7
102
}
330
BEB7
100
AcDbVisualStyle
  2
X-Ray
 70
    25
 71
     2
 72
     2
 73
     1
 90
        1
 40
0.5
 41
-30.0
 62
     5
 63
     7
 74
     1
 91
        0
 64
     7
 65
   257
 75
     1
175
     1
 42
1.0
 92
        8
 66
     7
 43
1.0
 76
     1
 77
     6
 78
     2
 67
     7
 79
     3
170
     0
171
     0
290
     0
174
     0
 93
       13
 44
0.0
173
     0
291
     0
 45
0.0
1001
ACAD
1000
AcDbSavedByObjectVersion
1070
     0
  0
DICTIONARYVAR
  5
BF04
102
{ACAD_REACTORS
330
BEFF
102
}
330
BEFF
100
DictionaryVariables
280
     0
  1
1:1
  0
DICTIONARYVAR
  5
BF01
102
{ACAD_REACTORS
330
BEFF
102
}
330
BEFF
100
DictionaryVariables
280
     0
  1
STANDARD
  0
DICTIONARYVAR
  5
BF00
102
{ACAD_REACTORS
330
BEFF
102
}
330
BEFF
100
DictionaryVariables
280
     0
  1
STANDARD
  0
DICTIONARYVAR
  5
BF02
102
{ACAD_REACTORS
330
BEFF
102
}
330
BEFF
100
DictionaryVariables
280
     0
  1
Imperial24
  0
DICTIONARYVAR
  5
BF03
102
{ACAD_REACTORS
330
BEFF
102
}
330
BEFF
100
DictionaryVariables
280
     0
  1
Imperial24
  0
DICTIONARYVAR
  5
BF07
102
{ACAD_REACTORS
330
BEFF
102
}
330
BEFF
100
DictionaryVariables
280
     0
  1
1
  0
DICTIONARYVAR
  5
BF06
102
{ACAD_REACTORS
330
BEFF
102
}
330
BEFF
100
DictionaryVariables
280
     0
  1
0
  0
DICTIONARYVAR
  5
BF05
102
{ACAD_REACTORS
330
BEFF
102
}
330
BEFF
100
DictionaryVariables
280
     0
  1
127
  0
DICTIONARYVAR
  5
BF08
102
{ACAD_REACTORS
330
BEFF
102
}
330
BEFF
100
DictionaryVariables
280
     0
  1
2
  0
DICTIONARY
  5
BF45
330
BEEA
100
AcDbDictionary
280
     1
281
     1
  3
ACAD_XREC_ROUNDTRIP
360
BF46
  0
DICTIONARY
  5
BF47
330
BEEB
100
AcDbDictionary
280
     1
281
     1
  3
ACAD_XREC_ROUNDTRIP
360
BF48
  0
DICTIONARY
  5
BF49
330
BEEC
100
AcDbDictionary
280
     1
281
     1
  3
ACAD_XREC_ROUNDTRIP
360
BF4A
  0
DICTIONARY
  5
BEA8
330
BEA7
100
AcDbDictionary
280
     1
281
     1
  3
ACAD_XREC_ROUNDTRIP
360
BF0F
  3
BUMPTILE
360
BEAA
  3
DIFFUSETILE
360
BEA9
  3
OPACITYTILE
360
BEAD
  3
REFLECTIONTILE
360
BEAC
  3
REFRACTIONTILE
360
BEAE
  3
SPECULARTILE
360
BEAB
  0
DICTIONARY
  5
BEA0
330
BE9F
100
AcDbDictionary
280
     1
281
     1
  3
ACAD_XREC_ROUNDTRIP
360
BF0E
  3
BUMPTILE
360
BEA2
  3
DIFFUSETILE
360
BEA1
  3
OPACITYTILE
360
BEA5
  3
REFLECTIONTILE
360
BEA4
  3
REFRACTIONTILE
360
BEA6
  3
SPECULARTILE
360
BEA3
  0
DICTIONARY
  5
BEB0
330
BEAF
100
AcDbDictionary
280
     1
281
     1
  3
ACAD_XREC_ROUNDTRIP
360
BF10
  3
BUMPTILE
360
BEB2
  3
DIFFUSETILE
360
BEB1
  3
OPACITYTILE
360
BEB5
  3
REFLECTIONTILE
360
BEB4
  3
REFRACTIONTILE
360
BEB6
  3
SPECULARTILE
360
BEB3
  0
DICTIONARY
  5
BF43
330
BEE8
100
AcDbDictionary
280
     1
281
     1
  3
ACAD_XREC_ROUNDTRIP
360
BF44
  0
DICTIONARY
  5
BF0A
330
BED2
100
AcDbDictionary
280
     1
281
     1
  3
ACAD_ROUNDTRIP_2008_TABLESTYLE_CELLSTYLEMAP
360
BF0B
  3
ACAD_XREC_ROUNDTRIP
360
BF41
  0
DICTIONARY
  5
BF1B
330
BEBD
100
AcDbDictionary
280
     1
281
     1
  3
ACAD_XREC_ROUNDTRIP
360
BF1C
  0
DICTIONARY
  5
BF19
330
BEBC
100
AcDbDictionary
280
     1
281
     1
  3
ACAD_XREC_ROUNDTRIP
360
BF1A
  0
DICTIONARY
  5
BF27
330
BEC3
100
AcDbDictionary
280
     1
281
     1
  3
ACAD_XREC_ROUNDTRIP
360
BF28
  0
DICTIONARY
  5
BF2F
330
BEC7
100
AcDbDictionary
280
     1
281
     1
  3
ACAD_XREC_ROUNDTRIP
360
BF30
  0
DICTIONARY
  5
BF21
330
BEC0
100
AcDbDictionary
280
     1
281
     1
  3
ACAD_XREC_ROUNDTRIP
360
BF22
  0
DICTIONARY
  5
BF25
330
BEC2
100
AcDbDictionary
280
     1
281
     1
  3
ACAD_XREC_ROUNDTRIP
360
BF26
  0
DICTIONARY
  5
BF3F
330
BECF
100
AcDbDictionary
280
     1
281
     1
  3
ACAD_XREC_ROUNDTRIP
360
BF40
  0
DICTIONARY
  5
BF2D
330
BEC6
100
AcDbDictionary
280
     1
281
     1
  3
ACAD_XREC_ROUNDTRIP
360
BF2E
  0
DICTIONARY
  5
BF11
330
BEB8
100
AcDbDictionary
280
     1
281
     1
  3
ACAD_XREC_ROUNDTRIP
360
BF12
  0
DICTIONARY
  5
BF13
330
BEB9
100
AcDbDictionary
280
     1
281
     1
  3
ACAD_XREC_ROUNDTRIP
360
BF14
  0
DICTIONARY
  5
BF15
330
BEBA
100
AcDbDictionary
280
     1
281
     1
  3
ACAD_XREC_ROUNDTRIP
360
BF16
  0
DICTIONARY
  5
BF17
330
BEBB
100
AcDbDictionary
280
     1
281
     1
  3
ACAD_XREC_ROUNDTRIP
360
BF18
  0
DICTIONARY
  5
BF1F
330
BEBF
100
AcDbDictionary
280
     1
281
     1
  3
ACAD_XREC_ROUNDTRIP
360
BF20
  0
DICTIONARY
  5
BF3B
330
BECD
100
AcDbDictionary
280
     1
281
     1
  3
ACAD_XREC_ROUNDTRIP
360
BF3C
  0
DICTIONARY
  5
BF2B
330
BEC5
100
AcDbDictionary
280
     1
281
     1
  3
ACAD_XREC_ROUNDTRIP
360
BF2C
  0
DICTIONARY
  5
BF3D
330
BECE
100
AcDbDictionary
280
     1
281
     1
  3
ACAD_XREC_ROUNDTRIP
360
BF3E
  0
DICTIONARY
  5
BF23
330
BEC1
100
AcDbDictionary
280
     1
281
     1
  3
ACAD_XREC_ROUNDTRIP
360
BF24
  0
DICTIONARY
  5
BF39
330
BECC
100
AcDbDictionary
280
     1
281
     1
  3
ACAD_XREC_ROUNDTRIP
360
BF3A
  0
DICTIONARY
  5
BF37
330
BECB
100
AcDbDictionary
280
     1
281
     1
  3
ACAD_XREC_ROUNDTRIP
360
BF38
  0
DICTIONARY
  5
BF31
330
BEC8
100
AcDbDictionary
280
     1
281
     1
  3
ACAD_XREC_ROUNDTRIP
360
BF32
  0
DICTIONARY
  5
BF33
330
BEC9
100
AcDbDictionary
280
     1
281
     1
  3
ACAD_XREC_ROUNDTRIP
360
BF34
  0
DICTIONARY
  5
BF29
330
BEC4
100
AcDbDictionary
280
     1
281
     1
  3
ACAD_XREC_ROUNDTRIP
360
BF2A
  0
DICTIONARY
  5
BF1D
330
BEBE
100
AcDbDictionary
280
     1
281
     1
  3
ACAD_XREC_ROUNDTRIP
360
BF1E
  0
DICTIONARY
  5
BF35
330
BECA
100
AcDbDictionary
280
     1
281
     1
  3
ACAD_XREC_ROUNDTRIP
360
BF36
  0
XRECORD
  5
BF46
102
{ACAD_REACTORS
330
BF45
102
}
330
BF45
100
AcDbXrecord
280
     1
102
DISPLAYNAME
  1
Imperial24
102
FLAGS
 90
        0
  0
XRECORD
  5
BF48
102
{ACAD_REACTORS
330
BF47
102
}
330
BF47
100
AcDbXrecord
280
     1
102
SHADEPLOT
 70
     0
102
SHADEPLOTRESLEVEL
 70
     2
102
SHADEPLOTCUSTOMDPI
 70
   300
  0
XRECORD
  5
BF4A
102
{ACAD_REACTORS
330
BF49
102
}
330
BF49
100
AcDbXrecord
280
     1
102
SHADEPLOT
 70
     0
102
SHADEPLOTRESLEVEL
 70
     2
102
SHADEPLOTCUSTOMDPI
 70
   300
  0
XRECORD
  5
BF0F
102
{ACAD_REACTORS
330
BEA8
102
}
330
BEA8
100
AcDbXrecord
280
     1
102
MATERIAL
148
0.0
149
0.0
149
0.0
 93
        0
 94
      127
282
     0
 72
     0
 77
     0
171
     0
175
     0
179
     0
273
     0
  0
XRECORD
  5
BEAA
102
{ACAD_REACTORS
330
BEA8
102
}
330
BEA8
100
AcDbXrecord
280
     1
270
     1
271
     1
  0
XRECORD
  5
BEA9
102
{ACAD_REACTORS
330
BEA8
102
}
330
BEA8
100
AcDbXrecord
280
     1
270
     1
271
     1
  0
XRECORD
  5
BEAD
102
{ACAD_REACTORS
330
BEA8
102
}
330
BEA8
100
AcDbXrecord
280
     1
270
     1
271
     1
  0
XRECORD
  5
BEAC
102
{ACAD_REACTORS
330
BEA8
102
}
330
BEA8
100
AcDbXrecord
280
     1
270
     1
271
     1
  0
XRECORD
  5
BEAE
102
{ACAD_REACTORS
330
BEA8
102
}
330
BEA8
100
AcDbXrecord
280
     1
270
     1
271
     1
  0
XRECORD
  5
BEAB
102
{ACAD_REACTORS
330
BEA8
102
}
330
BEA8
100
AcDbXrecord
280
     1
270
     1
271
     1
  0
XRECORD
  5
BF0E
102
{ACAD_REACTORS
330
BEA0
102
}
330
BEA0
100
AcDbXrecord
280
     1
102
MATERIAL
148
0.0
149
0.0
149
0.0
 93
        0
 94
      127
282
     0
 72
     0
 77
     0
171
     0
175
     0
179
     0
273
     0
  0
XRECORD
  5
BEA2
102
{ACAD_REACTORS
330
BEA0
102
}
330
BEA0
100
AcDbXrecord
280
     1
270
     1
271
     1
  0
XRECORD
  5
BEA1
102
{ACAD_REACTORS
330
BEA0
102
}
330
BEA0
100
AcDbXrecord
280
     1
270
     1
271
     1
  0
XRECORD
  5
BEA5
102
{ACAD_REACTORS
330
BEA0
102
}
330
BEA0
100
AcDbXrecord
280
     1
270
     1
271
     1
  0
XRECORD
  5
BEA4
102
{ACAD_REACTORS
330
BEA0
102
}
330
BEA0
100
AcDbXrecord
280
     1
270
     1
271
     1
  0
XRECORD
  5
BEA6
102
{ACAD_REACTORS
330
BEA0
102
}
330
BEA0
100
AcDbXrecord
280
     1
270
     1
271
     1
  0
XRECORD
  5
BEA3
102
{ACAD_REACTORS
330
BEA0
102
}
330
BEA0
100
AcDbXrecord
280
     1
270
     1
271
     1
  0
XRECORD
  5
BF10
102
{ACAD_REACTORS
330
BEB0
102
}
330
BEB0
100
AcDbXrecord
280
     1
102
MATERIAL
148
0.0
149
0.0
149
0.0
 93
        0
 94
      127
282
     0
 72
     0
 77
     0
171
     0
175
     0
179
     0
273
     0
  0
XRECORD
  5
BEB2
102
{ACAD_REACTORS
330
BEB0
102
}
330
BEB0
100
AcDbXrecord
280
     1
270
     1
271
     1
  0
XRECORD
  5
BEB1
102
{ACAD_REACTORS
330
BEB0
102
}
330
BEB0
100
AcDbXrecord
280
     1
270
     1
271
     1
  0
XRECORD
  5
BEB5
102
{ACAD_REACTORS
330
BEB0
102
}
330
BEB0
100
AcDbXrecord
280
     1
270
     1
271
     1
  0
XRECORD
  5
BEB4
102
{ACAD_REACTORS
330
BEB0
102
}
330
BEB0
100
AcDbXrecord
280
     1
270
     1
271
     1
  0
XRECORD
  5
BEB6
102
{ACAD_REACTORS
330
BEB0
102
}
330
BEB0
100
AcDbXrecord
280
     1
270
     1
271
     1
  0
XRECORD
  5
BEB3
102
{ACAD_REACTORS
330
BEB0
102
}
330
BEB0
100
AcDbXrecord
280
     1
270
     1
271
     1
  0
XRECORD
  5
BF44
102
{ACAD_REACTORS
330
BF43
102
}
330
BF43
100
AcDbXrecord
280
     1
102
DISPLAYNAME
  1
Imperial24
102
FLAGS
 90
        0
  0
CELLSTYLEMAP
  5
BF0B
102
{ACAD_REACTORS
330
BF0A
102
}
330
BF0A
100
AcDbCellStyleMap
 90
        3
300
CELLSTYLE
  1
TABLEFORMAT_BEGIN
 90
        5
170
     1
 91
        0
 92
    32768
 62
   257
 93
        1
300
CONTENTFORMAT
  1
CONTENTFORMAT_BEGIN
 90
        0
 91
        0
 92
      512
 93
        0
300

 40
0.0
140
1.0
 94
        5
 62
     0
340
BC6F
144
0.25
309
CONTENTFORMAT_END
171
     0
 94
        0
309
TABLEFORMAT_END
  1
CELLSTYLE_BEGIN
 90
        1
 91
        1
300
_TITLE
309
CELLSTYLE_END
300
CELLSTYLE
  1
TABLEFORMAT_BEGIN
 90
        5
170
     1
 91
        0
 92
        0
 62
   257
 93
        1
300
CONTENTFORMAT
  1
CONTENTFORMAT_BEGIN
 90
        0
 91
        0
 92
      512
 93
        0
300

 40
0.0
140
1.0
 94
        5
 62
     0
340
BC6F
144
0.18
309
CONTENTFORMAT_END
171
     0
 94
        0
309
TABLEFORMAT_END
  1
CELLSTYLE_BEGIN
 90
        2
 91
        1
300
_HEADER
309
CELLSTYLE_END
300
CELLSTYLE
  1
TABLEFORMAT_BEGIN
 90
        5
170
     1
 91
        0
 92
        0
 62
   257
 93
        1
300
CONTENTFORMAT
  1
CONTENTFORMAT_BEGIN
 90
        0
 91
        0
 92
      512
 93
        0
300

 40
0.0
140
1.0
 94
        2
 62
     0
340
BC6F
144
0.18
309
CONTENTFORMAT_END
171
     0
 94
        0
309
TABLEFORMAT_END
  1
CELLSTYLE_BEGIN
 90
        3
 91
        2
300
_DATA
309
CELLSTYLE_END
  0
XRECORD
  5
BF41
102
{ACAD_REACTORS
330
BF0A
102
}
330
BF0A
100
AcDbXrecord
280
     1
102
ACAD_ROUNDTRIP_PRE2007_TABLESTYLE
 90
      512
 91
        0
  1

 92
      512
 93
        0
  2

 94
      512
 95
        0
  3

  0
XRECORD
  5
BF1C
102
{ACAD_REACTORS
330
BF1B
102
}
330
BF1B
100
AcDbXrecord
280
     1
102
RTVSPost2010Prop28
280
     1
102
RTVSPost2010PropOp28
 70
     1
102
RTVSPost2010Prop29
280
     1
102
RTVSPost2010PropOp29
 70
     1
102
RTVSPost2010Prop30
280
     0
102
RTVSPost2010PropOp30
 70
     1
102
RTVSPost2010Prop31
280
     0
102
RTVSPost2010PropOp31
 70
     1
102
RTVSPost2010Prop32
280
     0
102
RTVSPost2010PropOp32
 70
     1
102
RTVSPost2010Prop33
280
     0
102
RTVSPost2010PropOp33
 70
     1
102
RTVSPost2010Prop34
280
     0
102
RTVSPost2010PropOp34
 70
     1
102
RTVSPost2010Prop35
280
     0
102
RTVSPost2010PropOp35
 70
     1
102
RTVSPost2010Prop36
280
     0
102
RTVSPost2010PropOp36
 70
     1
102
RTVSPost2010Prop37
 90
       50
102
RTVSPost2010PropOp37
 70
     1
102
RTVSPost2010Prop38
140
0.0
102
RTVSPost2010PropOp38
 70
     1
102
RTVSPost2010Prop39
140
1.0
102
RTVSPost2010PropOp39
 70
     1
102
RTVSPost2010Prop40
 90
        0
102
RTVSPost2010PropOp40
 70
     1
102
RTVSPost2010Prop41ColorIndex
 90
       18
102
RTVSPost2010Prop41ColorRGB
 90
        0
102
RTVSPost2010PropOp41
 70
     1
102
RTVSPost2010Prop42
 90
       50
102
RTVSPost2010PropOp42
 70
     1
102
RTVSPost2010Prop43
 90
        3
102
RTVSPost2010PropOp43
 70
     1
102
RTVSPost2010Prop44ColorIndex
 90
        5
102
RTVSPost2010Prop44ColorRGB
 90
      255
102
RTVSPost2010PropOp44
 70
     1
102
RTVSPost2010Prop45
280
     0
102
RTVSPost2010PropOp45
 70
     1
102
RTVSPost2010Prop46
 90
       50
102
RTVSPost2010PropOp46
 70
     1
102
RTVSPost2010Prop47
 90
       50
102
RTVSPost2010PropOp47
 70
     1
102
RTVSPost2010Prop48
 90
       50
102
RTVSPost2010PropOp48
 70
     1
102
RTVSPost2010Prop49
280
     0
102
RTVSPost2010PropOp49
 70
     1
102
RTVSPost2010Prop50
 90
       50
102
RTVSPost2010PropOp50
 70
     1
102
RTVSPost2010Prop51ColorIndex
 90
      256
102
RTVSPost2010Prop51ColorRGB
 90
-16777216
102
RTVSPost2010PropOp51
 70
     0
102
RTVSPost2010Prop52
140
1.0
102
RTVSPost2010PropOp52
 70
     0
102
RTVSPost2010Prop53
 90
        2
102
RTVSPost2010PropOp53
 70
     1
102
RTVSPost2010Prop54
  1
strokes_ogs.tif
102
RTVSPost2010PropOp54
 70
     1
102
RTVSPost2010Prop55
280
     0
102
RTVSPost2010PropOp55
 70
     1
102
RTVSPost2010Prop56
140
1.0
102
RTVSPost2010PropOp56
 70
     1
102
RTVSPost2010Prop57
140
1.0
102
RTVSPost2010PropOp57
 70
     1
102
RTVSPropertyOp0
 70
     1
102
RTVSPropertyOp1
 70
     1
102
RTVSPropertyOp2
 70
     1
102
RTVSPropertyOp3
 70
     1
102
RTVSPropertyOp4
 70
     1
102
RTVSPropertyOp5
 70
     1
102
RTVSPropertyOp6
 70
     1
102
RTVSPropertyOp7
 70
     1
102
RTVSPropertyOp8
 70
     1
102
RTVSPropertyOp9
 70
     1
102
RTVSPropertyOp10
 70
     1
102
RTVSPropertyOp11
 70
     1
102
RTVSPropertyOp12
 70
     1
102
RTVSPropertyOp13
 70
     1
102
RTVSPropertyOp14
 70
     1
102
RTVSPropertyOp15
 70
     1
102
RTVSPropertyOp16
 70
     1
102
RTVSPropertyOp17
 70
     1
102
RTVSPropertyOp18
 70
     1
102
RTVSPropertyOp19
 70
     1
102
RTVSPropertyOp20
 70
     1
102
RTVSPropertyOp21
 70
     1
102
RTVSPropertyOp22
 70
     1
102
RTVSPropertyOp23
 70
     1
102
RTVSPropertyOp24
 70
     1
102
RTVSPropertyOp25
 70
     1
102
RTVSPropertyOp26
 70
     1
102
RTVSPropertyOp27
 70
     1
102
RTVSPropertyOp28
 70
     1
102
RTVSPropertyOp29
 70
     1
102
RTVSPropertyOp30
 70
     1
102
RTVSPropertyOp31
 70
     1
102
RTVSPropertyOp32
 70
     1
102
RTVSPropertyOp33
 70
     1
102
RTVSPropertyOp34
 70
     1
102
RTVSPropertyOp35
 70
     1
102
RTVSPropertyOp36
 70
     1
102
RTVSPropertyOp37
 70
     1
102
RTVSPropertyOp38
 70
     1
102
RTVSPropertyOp39
 70
     1
102
RTVSPropertyOp40
 70
     1
102
RTVSPropertyOp41
 70
     1
102
RTVSPropertyOp42
 70
     1
102
RTVSPropertyOp43
 70
     1
102
RTVSPropertyOp44
 70
     1
102
RTVSPropertyOp45
 70
     1
102
RTVSPropertyOp46
 70
     1
102
RTVSPropertyOp47
 70
     1
102
RTVSPropertyOp48
 70
     1
102
RTVSPropertyOp49
 70
     1
102
RTVSPropertyOp50
 70
     1
102
RTVSPropertyOp51
 70
     0
102
RTVSPropertyOp52
 70
     0
102
RTVSPropertyOp53
 70
     1
102
RTVSPropertyOp54
 70
     1
102
RTVSPropertyOp55
 70
     1
102
RTVSPropertyOp56
 70
     1
102
RTVSPropertyOp57
 70
     1
102
RTVSPropertyOp58
 70
     1
102
RTVSPropertyOp59
 70
     1
102
RTVSPropertyOp60
 70
     1
102
RTVSPropertyOp61
 70
     1
102
RTVSPropertyOp62
 70
     1
  0
XRECORD
  5
BF1A
102
{ACAD_REACTORS
330
BF19
102
}
330
BF19
100
AcDbXrecord
280
     1
102
RTVSPost2010Prop28
280
     0
102
RTVSPost2010PropOp28
 70
     1
102
RTVSPost2010Prop29
280
     1
102
RTVSPost2010PropOp29
 70
     1
102
RTVSPost2010Prop30
280
     1
102
RTVSPost2010PropOp30
 70
     1
102
RTVSPost2010Prop31
280
     0
102
RTVSPost2010PropOp31
 70
     1
102
RTVSPost2010Prop32
280
     0
102
RTVSPost2010PropOp32
 70
     1
102
RTVSPost2010Prop33
280
     0
102
RTVSPost2010PropOp33
 70
     1
102
RTVSPost2010Prop34
280
     0
102
RTVSPost2010PropOp34
 70
     1
102
RTVSPost2010Prop35
280
     0
102
RTVSPost2010PropOp35
 70
     1
102
RTVSPost2010Prop36
280
     0
102
RTVSPost2010PropOp36
 70
     1
102
RTVSPost2010Prop37
 90
       50
102
RTVSPost2010PropOp37
 70
     1
102
RTVSPost2010Prop38
140
0.0
102
RTVSPost2010PropOp38
 70
     1
102
RTVSPost2010Prop39
140
1.0
102
RTVSPost2010PropOp39
 70
     1
102
RTVSPost2010Prop40
 90
        0
102
RTVSPost2010PropOp40
 70
     1
102
RTVSPost2010Prop41ColorIndex
 90
       18
102
RTVSPost2010Prop41ColorRGB
 90
        0
102
RTVSPost2010PropOp41
 70
     1
102
RTVSPost2010Prop42
 90
       50
102
RTVSPost2010PropOp42
 70
     1
102
RTVSPost2010Prop43
 90
        3
102
RTVSPost2010PropOp43
 70
     1
102
RTVSPost2010Prop44ColorIndex
 90
        5
102
RTVSPost2010Prop44ColorRGB
 90
      255
102
RTVSPost2010PropOp44
 70
     1
102
RTVSPost2010Prop45
280
     0
102
RTVSPost2010PropOp45
 70
     1
102
RTVSPost2010Prop46
 90
       50
102
RTVSPost2010PropOp46
 70
     1
102
RTVSPost2010Prop47
 90
       50
102
RTVSPost2010PropOp47
 70
     1
102
RTVSPost2010Prop48
 90
       50
102
RTVSPost2010PropOp48
 70
     1
102
RTVSPost2010Prop49
280
     0
102
RTVSPost2010PropOp49
 70
     1
102
RTVSPost2010Prop50
 90
       50
102
RTVSPost2010PropOp50
 70
     1
102
RTVSPost2010Prop51ColorIndex
 90
      256
102
RTVSPost2010Prop51ColorRGB
 90
-16777216
102
RTVSPost2010PropOp51
 70
     0
102
RTVSPost2010Prop52
140
1.0
102
RTVSPost2010PropOp52
 70
     0
102
RTVSPost2010Prop53
 90
        2
102
RTVSPost2010PropOp53
 70
     1
102
RTVSPost2010Prop54
  1
strokes_ogs.tif
102
RTVSPost2010PropOp54
 70
     1
102
RTVSPost2010Prop55
280
     0
102
RTVSPost2010PropOp55
 70
     1
102
RTVSPost2010Prop56
140
1.0
102
RTVSPost2010PropOp56
 70
     1
102
RTVSPost2010Prop57
140
1.0
102
RTVSPost2010PropOp57
 70
     1
102
RTVSPropertyOp0
 70
     1
102
RTVSPropertyOp1
 70
     1
102
RTVSPropertyOp2
 70
     1
102
RTVSPropertyOp3
 70
     1
102
RTVSPropertyOp4
 70
     1
102
RTVSPropertyOp5
 70
     1
102
RTVSPropertyOp6
 70
     1
102
RTVSPropertyOp7
 70
     1
102
RTVSPropertyOp8
 70
     1
102
RTVSPropertyOp9
 70
     1
102
RTVSPropertyOp10
 70
     1
102
RTVSPropertyOp11
 70
     1
102
RTVSPropertyOp12
 70
     1
102
RTVSPropertyOp13
 70
     1
102
RTVSPropertyOp14
 70
     1
102
RTVSPropertyOp15
 70
     1
102
RTVSPropertyOp16
 70
     1
102
RTVSPropertyOp17
 70
     1
102
RTVSPropertyOp18
 70
     1
102
RTVSPropertyOp19
 70
     1
102
RTVSPropertyOp20
 70
     1
102
RTVSPropertyOp21
 70
     1
102
RTVSPropertyOp22
 70
     1
102
RTVSPropertyOp23
 70
     1
102
RTVSPropertyOp24
 70
     1
102
RTVSPropertyOp25
 70
     1
102
RTVSPropertyOp26
 70
     1
102
RTVSPropertyOp27
 70
     1
102
RTVSPropertyOp28
 70
     1
102
RTVSPropertyOp29
 70
     1
102
RTVSPropertyOp30
 70
     1
102
RTVSPropertyOp31
 70
     1
102
RTVSPropertyOp32
 70
     1
102
RTVSPropertyOp33
 70
     1
102
RTVSPropertyOp34
 70
     1
102
RTVSPropertyOp35
 70
     1
102
RTVSPropertyOp36
 70
     1
102
RTVSPropertyOp37
 70
     1
102
RTVSPropertyOp38
 70
     1
102
RTVSPropertyOp39
 70
     1
102
RTVSPropertyOp40
 70
     1
102
RTVSPropertyOp41
 70
     1
102
RTVSPropertyOp42
 70
     1
102
RTVSPropertyOp43
 70
     1
102
RTVSPropertyOp44
 70
     1
102
RTVSPropertyOp45
 70
     1
102
RTVSPropertyOp46
 70
     1
102
RTVSPropertyOp47
 70
     1
102
RTVSPropertyOp48
 70
     1
102
RTVSPropertyOp49
 70
     1
102
RTVSPropertyOp50
 70
     1
102
RTVSPropertyOp51
 70
     0
102
RTVSPropertyOp52
 70
     0
102
RTVSPropertyOp53
 70
     1
102
RTVSPropertyOp54
 70
     1
102
RTVSPropertyOp55
 70
     1
102
RTVSPropertyOp56
 70
     1
102
RTVSPropertyOp57
 70
     1
102
RTVSPropertyOp58
 70
     1
102
RTVSPropertyOp59
 70
     1
102
RTVSPropertyOp60
 70
     1
102
RTVSPropertyOp61
 70
     1
102
RTVSPropertyOp62
 70
     1
  0
XRECORD
  5
BF28
102
{ACAD_REACTORS
330
BF27
102
}
330
BF27
100
AcDbXrecord
280
     1
102
RTVSPost2010Prop28
280
     0
102
RTVSPost2010PropOp28
 70
     1
102
RTVSPost2010Prop29
280
     1
102
RTVSPost2010PropOp29
 70
     1
102
RTVSPost2010Prop30
280
     1
102
RTVSPost2010PropOp30
 70
     1
102
RTVSPost2010Prop31
280
     0
102
RTVSPost2010PropOp31
 70
     1
102
RTVSPost2010Prop32
280
     0
102
RTVSPost2010PropOp32
 70
     1
102
RTVSPost2010Prop33
280
     0
102
RTVSPost2010PropOp33
 70
     1
102
RTVSPost2010Prop34
280
     0
102
RTVSPost2010PropOp34
 70
     1
102
RTVSPost2010Prop35
280
     0
102
RTVSPost2010PropOp35
 70
     1
102
RTVSPost2010Prop36
280
     0
102
RTVSPost2010PropOp36
 70
     1
102
RTVSPost2010Prop37
 90
       50
102
RTVSPost2010PropOp37
 70
     1
102
RTVSPost2010Prop38
140
0.0
102
RTVSPost2010PropOp38
 70
     1
102
RTVSPost2010Prop39
140
1.0
102
RTVSPost2010PropOp39
 70
     1
102
RTVSPost2010Prop40
 90
        0
102
RTVSPost2010PropOp40
 70
     1
102
RTVSPost2010Prop41ColorIndex
 90
       18
102
RTVSPost2010Prop41ColorRGB
 90
        0
102
RTVSPost2010PropOp41
 70
     1
102
RTVSPost2010Prop42
 90
       50
102
RTVSPost2010PropOp42
 70
     1
102
RTVSPost2010Prop43
 90
        3
102
RTVSPost2010PropOp43
 70
     1
102
RTVSPost2010Prop44ColorIndex
 90
        5
102
RTVSPost2010Prop44ColorRGB
 90
      255
102
RTVSPost2010PropOp44
 70
     1
102
RTVSPost2010Prop45
280
     0
102
RTVSPost2010PropOp45
 70
     1
102
RTVSPost2010Prop46
 90
       50
102
RTVSPost2010PropOp46
 70
     1
102
RTVSPost2010Prop47
 90
       50
102
RTVSPost2010PropOp47
 70
     1
102
RTVSPost2010Prop48
 90
       50
102
RTVSPost2010PropOp48
 70
     1
102
RTVSPost2010Prop49
280
     0
102
RTVSPost2010PropOp49
 70
     1
102
RTVSPost2010Prop50
 90
       50
102
RTVSPost2010PropOp50
 70
     1
102
RTVSPost2010Prop51ColorIndex
 90
      256
102
RTVSPost2010Prop51ColorRGB
 90
-16777216
102
RTVSPost2010PropOp51
 70
     0
102
RTVSPost2010Prop52
140
1.0
102
RTVSPost2010PropOp52
 70
     0
102
RTVSPost2010Prop53
 90
        2
102
RTVSPost2010PropOp53
 70
     1
102
RTVSPost2010Prop54
  1
strokes_ogs.tif
102
RTVSPost2010PropOp54
 70
     1
102
RTVSPost2010Prop55
280
     0
102
RTVSPost2010PropOp55
 70
     1
102
RTVSPost2010Prop56
140
1.0
102
RTVSPost2010PropOp56
 70
     1
102
RTVSPost2010Prop57
140
1.0
102
RTVSPost2010PropOp57
 70
     1
102
RTVSPropertyOp0
 70
     1
102
RTVSPropertyOp1
 70
     1
102
RTVSPropertyOp2
 70
     1
102
RTVSPropertyOp3
 70
     1
102
RTVSPropertyOp4
 70
     1
102
RTVSPropertyOp5
 70
     1
102
RTVSPropertyOp6
 70
     1
102
RTVSPropertyOp7
 70
     1
102
RTVSPropertyOp8
 70
     1
102
RTVSPropertyOp9
 70
     1
102
RTVSPropertyOp10
 70
     1
102
RTVSPropertyOp11
 70
     1
102
RTVSPropertyOp12
 70
     1
102
RTVSPropertyOp13
 70
     1
102
RTVSPropertyOp14
 70
     1
102
RTVSPropertyOp15
 70
     1
102
RTVSPropertyOp16
 70
     1
102
RTVSPropertyOp17
 70
     1
102
RTVSPropertyOp18
 70
     1
102
RTVSPropertyOp19
 70
     1
102
RTVSPropertyOp20
 70
     1
102
RTVSPropertyOp21
 70
     1
102
RTVSPropertyOp22
 70
     1
102
RTVSPropertyOp23
 70
     1
102
RTVSPropertyOp24
 70
     1
102
RTVSPropertyOp25
 70
     1
102
RTVSPropertyOp26
 70
     1
102
RTVSPropertyOp27
 70
     1
102
RTVSPropertyOp28
 70
     1
102
RTVSPropertyOp29
 70
     1
102
RTVSPropertyOp30
 70
     1
102
RTVSPropertyOp31
 70
     1
102
RTVSPropertyOp32
 70
     1
102
RTVSPropertyOp33
 70
     1
102
RTVSPropertyOp34
 70
     1
102
RTVSPropertyOp35
 70
     1
102
RTVSPropertyOp36
 70
     1
102
RTVSPropertyOp37
 70
     1
102
RTVSPropertyOp38
 70
     1
102
RTVSPropertyOp39
 70
     1
102
RTVSPropertyOp40
 70
     1
102
RTVSPropertyOp41
 70
     1
102
RTVSPropertyOp42
 70
     1
102
RTVSPropertyOp43
 70
     1
102
RTVSPropertyOp44
 70
     1
102
RTVSPropertyOp45
 70
     1
102
RTVSPropertyOp46
 70
     1
102
RTVSPropertyOp47
 70
     1
102
RTVSPropertyOp48
 70
     1
102
RTVSPropertyOp49
 70
     1
102
RTVSPropertyOp50
 70
     1
102
RTVSPropertyOp51
 70
     0
102
RTVSPropertyOp52
 70
     0
102
RTVSPropertyOp53
 70
     1
102
RTVSPropertyOp54
 70
     1
102
RTVSPropertyOp55
 70
     1
102
RTVSPropertyOp56
 70
     1
102
RTVSPropertyOp57
 70
     1
102
RTVSPropertyOp58
 70
     1
102
RTVSPropertyOp59
 70
     1
102
RTVSPropertyOp60
 70
     1
102
RTVSPropertyOp61
 70
     1
102
RTVSPropertyOp62
 70
     1
  0
XRECORD
  5
BF30
102
{ACAD_REACTORS
330
BF2F
102
}
330
BF2F
100
AcDbXrecord
280
     1
102
RTVSPost2010Prop28
280
     0
102
RTVSPost2010PropOp28
 70
     1
102
RTVSPost2010Prop29
280
     1
102
RTVSPost2010PropOp29
 70
     1
102
RTVSPost2010Prop30
280
     1
102
RTVSPost2010PropOp30
 70
     1
102
RTVSPost2010Prop31
280
     0
102
RTVSPost2010PropOp31
 70
     1
102
RTVSPost2010Prop32
280
     0
102
RTVSPost2010PropOp32
 70
     1
102
RTVSPost2010Prop33
280
     0
102
RTVSPost2010PropOp33
 70
     1
102
RTVSPost2010Prop34
280
     0
102
RTVSPost2010PropOp34
 70
     1
102
RTVSPost2010Prop35
280
     0
102
RTVSPost2010PropOp35
 70
     1
102
RTVSPost2010Prop36
280
     0
102
RTVSPost2010PropOp36
 70
     1
102
RTVSPost2010Prop37
 90
       50
102
RTVSPost2010PropOp37
 70
     1
102
RTVSPost2010Prop38
140
0.0
102
RTVSPost2010PropOp38
 70
     1
102
RTVSPost2010Prop39
140
1.0
102
RTVSPost2010PropOp39
 70
     1
102
RTVSPost2010Prop40
 90
        0
102
RTVSPost2010PropOp40
 70
     1
102
RTVSPost2010Prop41ColorIndex
 90
       18
102
RTVSPost2010Prop41ColorRGB
 90
        0
102
RTVSPost2010PropOp41
 70
     1
102
RTVSPost2010Prop42
 90
       50
102
RTVSPost2010PropOp42
 70
     1
102
RTVSPost2010Prop43
 90
        3
102
RTVSPost2010PropOp43
 70
     1
102
RTVSPost2010Prop44ColorIndex
 90
        5
102
RTVSPost2010Prop44ColorRGB
 90
      255
102
RTVSPost2010PropOp44
 70
     1
102
RTVSPost2010Prop45
280
     0
102
RTVSPost2010PropOp45
 70
     1
102
RTVSPost2010Prop46
 90
       50
102
RTVSPost2010PropOp46
 70
     1
102
RTVSPost2010Prop47
 90
       50
102
RTVSPost2010PropOp47
 70
     1
102
RTVSPost2010Prop48
 90
       50
102
RTVSPost2010PropOp48
 70
     1
102
RTVSPost2010Prop49
280
     0
102
RTVSPost2010PropOp49
 70
     1
102
RTVSPost2010Prop50
 90
       50
102
RTVSPost2010PropOp50
 70
     1
102
RTVSPost2010Prop51ColorIndex
 90
      256
102
RTVSPost2010Prop51ColorRGB
 90
-16777216
102
RTVSPost2010PropOp51
 70
     0
102
RTVSPost2010Prop52
140
1.0
102
RTVSPost2010PropOp52
 70
     0
102
RTVSPost2010Prop53
 90
        2
102
RTVSPost2010PropOp53
 70
     1
102
RTVSPost2010Prop54
  1
strokes_ogs.tif
102
RTVSPost2010PropOp54
 70
     1
102
RTVSPost2010Prop55
280
     0
102
RTVSPost2010PropOp55
 70
     1
102
RTVSPost2010Prop56
140
1.0
102
RTVSPost2010PropOp56
 70
     1
102
RTVSPost2010Prop57
140
1.0
102
RTVSPost2010PropOp57
 70
     1
102
RTVSPropertyOp0
 70
     1
102
RTVSPropertyOp1
 70
     1
102
RTVSPropertyOp2
 70
     1
102
RTVSPropertyOp3
 70
     1
102
RTVSPropertyOp4
 70
     1
102
RTVSPropertyOp5
 70
     1
102
RTVSPropertyOp6
 70
     1
102
RTVSPropertyOp7
 70
     1
102
RTVSPropertyOp8
 70
     1
102
RTVSPropertyOp9
 70
     1
102
RTVSPropertyOp10
 70
     1
102
RTVSPropertyOp11
 70
     1
102
RTVSPropertyOp12
 70
     1
102
RTVSPropertyOp13
 70
     1
102
RTVSPropertyOp14
 70
     1
102
RTVSPropertyOp15
 70
     1
102
RTVSPropertyOp16
 70
     1
102
RTVSPropertyOp17
 70
     1
102
RTVSPropertyOp18
 70
     1
102
RTVSPropertyOp19
 70
     1
102
RTVSPropertyOp20
 70
     1
102
RTVSPropertyOp21
 70
     1
102
RTVSPropertyOp22
 70
     1
102
RTVSPropertyOp23
 70
     1
102
RTVSPropertyOp24
 70
     1
102
RTVSPropertyOp25
 70
     1
102
RTVSPropertyOp26
 70
     1
102
RTVSPropertyOp27
 70
     1
102
RTVSPropertyOp28
 70
     1
102
RTVSPropertyOp29
 70
     1
102
RTVSPropertyOp30
 70
     1
102
RTVSPropertyOp31
 70
     1
102
RTVSPropertyOp32
 70
     1
102
RTVSPropertyOp33
 70
     1
102
RTVSPropertyOp34
 70
     1
102
RTVSPropertyOp35
 70
     1
102
RTVSPropertyOp36
 70
     1
102
RTVSPropertyOp37
 70
     1
102
RTVSPropertyOp38
 70
     1
102
RTVSPropertyOp39
 70
     1
102
RTVSPropertyOp40
 70
     1
102
RTVSPropertyOp41
 70
     1
102
RTVSPropertyOp42
 70
     1
102
RTVSPropertyOp43
 70
     1
102
RTVSPropertyOp44
 70
     1
102
RTVSPropertyOp45
 70
     1
102
RTVSPropertyOp46
 70
     1
102
RTVSPropertyOp47
 70
     1
102
RTVSPropertyOp48
 70
     1
102
RTVSPropertyOp49
 70
     1
102
RTVSPropertyOp50
 70
     1
102
RTVSPropertyOp51
 70
     0
102
RTVSPropertyOp52
 70
     0
102
RTVSPropertyOp53
 70
     1
102
RTVSPropertyOp54
 70
     1
102
RTVSPropertyOp55
 70
     1
102
RTVSPropertyOp56
 70
     1
102
RTVSPropertyOp57
 70
     1
102
RTVSPropertyOp58
 70
     1
102
RTVSPropertyOp59
 70
     1
102
RTVSPropertyOp60
 70
     1
102
RTVSPropertyOp61
 70
     1
102
RTVSPropertyOp62
 70
     1
  0
XRECORD
  5
BF22
102
{ACAD_REACTORS
330
BF21
102
}
330
BF21
100
AcDbXrecord
280
     1
102
RTVSPost2010Prop28
280
     0
102
RTVSPost2010PropOp28
 70
     1
102
RTVSPost2010Prop29
280
     1
102
RTVSPost2010PropOp29
 70
     1
102
RTVSPost2010Prop30
280
     1
102
RTVSPost2010PropOp30
 70
     1
102
RTVSPost2010Prop31
280
     0
102
RTVSPost2010PropOp31
 70
     1
102
RTVSPost2010Prop32
280
     0
102
RTVSPost2010PropOp32
 70
     1
102
RTVSPost2010Prop33
280
     0
102
RTVSPost2010PropOp33
 70
     1
102
RTVSPost2010Prop34
280
     0
102
RTVSPost2010PropOp34
 70
     1
102
RTVSPost2010Prop35
280
     0
102
RTVSPost2010PropOp35
 70
     1
102
RTVSPost2010Prop36
280
     0
102
RTVSPost2010PropOp36
 70
     1
102
RTVSPost2010Prop37
 90
       50
102
RTVSPost2010PropOp37
 70
     1
102
RTVSPost2010Prop38
140
0.0
102
RTVSPost2010PropOp38
 70
     1
102
RTVSPost2010Prop39
140
1.0
102
RTVSPost2010PropOp39
 70
     1
102
RTVSPost2010Prop40
 90
        0
102
RTVSPost2010PropOp40
 70
     1
102
RTVSPost2010Prop41ColorIndex
 90
       18
102
RTVSPost2010Prop41ColorRGB
 90
        0
102
RTVSPost2010PropOp41
 70
     1
102
RTVSPost2010Prop42
 90
       50
102
RTVSPost2010PropOp42
 70
     1
102
RTVSPost2010Prop43
 90
        3
102
RTVSPost2010PropOp43
 70
     1
102
RTVSPost2010Prop44ColorIndex
 90
        5
102
RTVSPost2010Prop44ColorRGB
 90
      255
102
RTVSPost2010PropOp44
 70
     1
102
RTVSPost2010Prop45
280
     0
102
RTVSPost2010PropOp45
 70
     1
102
RTVSPost2010Prop46
 90
       50
102
RTVSPost2010PropOp46
 70
     1
102
RTVSPost2010Prop47
 90
       50
102
RTVSPost2010PropOp47
 70
     1
102
RTVSPost2010Prop48
 90
       50
102
RTVSPost2010PropOp48
 70
     1
102
RTVSPost2010Prop49
280
     0
102
RTVSPost2010PropOp49
 70
     1
102
RTVSPost2010Prop50
 90
       50
102
RTVSPost2010PropOp50
 70
     1
102
RTVSPost2010Prop51ColorIndex
 90
      256
102
RTVSPost2010Prop51ColorRGB
 90
-16777216
102
RTVSPost2010PropOp51
 70
     0
102
RTVSPost2010Prop52
140
1.0
102
RTVSPost2010PropOp52
 70
     0
102
RTVSPost2010Prop53
 90
        2
102
RTVSPost2010PropOp53
 70
     1
102
RTVSPost2010Prop54
  1
strokes_ogs.tif
102
RTVSPost2010PropOp54
 70
     1
102
RTVSPost2010Prop55
280
     0
102
RTVSPost2010PropOp55
 70
     1
102
RTVSPost2010Prop56
140
1.0
102
RTVSPost2010PropOp56
 70
     1
102
RTVSPost2010Prop57
140
1.0
102
RTVSPost2010PropOp57
 70
     1
102
RTVSPropertyOp0
 70
     1
102
RTVSPropertyOp1
 70
     1
102
RTVSPropertyOp2
 70
     1
102
RTVSPropertyOp3
 70
     1
102
RTVSPropertyOp4
 70
     1
102
RTVSPropertyOp5
 70
     1
102
RTVSPropertyOp6
 70
     1
102
RTVSPropertyOp7
 70
     1
102
RTVSPropertyOp8
 70
     1
102
RTVSPropertyOp9
 70
     1
102
RTVSPropertyOp10
 70
     1
102
RTVSPropertyOp11
 70
     1
102
RTVSPropertyOp12
 70
     1
102
RTVSPropertyOp13
 70
     1
102
RTVSPropertyOp14
 70
     1
102
RTVSPropertyOp15
 70
     1
102
RTVSPropertyOp16
 70
     1
102
RTVSPropertyOp17
 70
     1
102
RTVSPropertyOp18
 70
     1
102
RTVSPropertyOp19
 70
     1
102
RTVSPropertyOp20
 70
     1
102
RTVSPropertyOp21
 70
     1
102
RTVSPropertyOp22
 70
     1
102
RTVSPropertyOp23
 70
     1
102
RTVSPropertyOp24
 70
     1
102
RTVSPropertyOp25
 70
     1
102
RTVSPropertyOp26
 70
     1
102
RTVSPropertyOp27
 70
     1
102
RTVSPropertyOp28
 70
     1
102
RTVSPropertyOp29
 70
     1
102
RTVSPropertyOp30
 70
     1
102
RTVSPropertyOp31
 70
     1
102
RTVSPropertyOp32
 70
     1
102
RTVSPropertyOp33
 70
     1
102
RTVSPropertyOp34
 70
     1
102
RTVSPropertyOp35
 70
     1
102
RTVSPropertyOp36
 70
     1
102
RTVSPropertyOp37
 70
     1
102
RTVSPropertyOp38
 70
     1
102
RTVSPropertyOp39
 70
     1
102
RTVSPropertyOp40
 70
     1
102
RTVSPropertyOp41
 70
     1
102
RTVSPropertyOp42
 70
     1
102
RTVSPropertyOp43
 70
     1
102
RTVSPropertyOp44
 70
     1
102
RTVSPropertyOp45
 70
     1
102
RTVSPropertyOp46
 70
     1
102
RTVSPropertyOp47
 70
     1
102
RTVSPropertyOp48
 70
     1
102
RTVSPropertyOp49
 70
     1
102
RTVSPropertyOp50
 70
     1
102
RTVSPropertyOp51
 70
     0
102
RTVSPropertyOp52
 70
     0
102
RTVSPropertyOp53
 70
     1
102
RTVSPropertyOp54
 70
     1
102
RTVSPropertyOp55
 70
     1
102
RTVSPropertyOp56
 70
     1
102
RTVSPropertyOp57
 70
     1
102
RTVSPropertyOp58
 70
     1
102
RTVSPropertyOp59
 70
     1
102
RTVSPropertyOp60
 70
     1
102
RTVSPropertyOp61
 70
     1
102
RTVSPropertyOp62
 70
     1
  0
XRECORD
  5
BF26
102
{ACAD_REACTORS
330
BF25
102
}
330
BF25
100
AcDbXrecord
280
     1
102
RTVSPost2010Prop28
280
     0
102
RTVSPost2010PropOp28
 70
     1
102
RTVSPost2010Prop29
280
     1
102
RTVSPost2010PropOp29
 70
     1
102
RTVSPost2010Prop30
280
     1
102
RTVSPost2010PropOp30
 70
     1
102
RTVSPost2010Prop31
280
     0
102
RTVSPost2010PropOp31
 70
     1
102
RTVSPost2010Prop32
280
     0
102
RTVSPost2010PropOp32
 70
     1
102
RTVSPost2010Prop33
280
     0
102
RTVSPost2010PropOp33
 70
     1
102
RTVSPost2010Prop34
280
     0
102
RTVSPost2010PropOp34
 70
     1
102
RTVSPost2010Prop35
280
     0
102
RTVSPost2010PropOp35
 70
     1
102
RTVSPost2010Prop36
280
     0
102
RTVSPost2010PropOp36
 70
     1
102
RTVSPost2010Prop37
 90
       50
102
RTVSPost2010PropOp37
 70
     1
102
RTVSPost2010Prop38
140
0.0
102
RTVSPost2010PropOp38
 70
     1
102
RTVSPost2010Prop39
140
1.0
102
RTVSPost2010PropOp39
 70
     1
102
RTVSPost2010Prop40
 90
        0
102
RTVSPost2010PropOp40
 70
     1
102
RTVSPost2010Prop41ColorIndex
 90
       18
102
RTVSPost2010Prop41ColorRGB
 90
        0
102
RTVSPost2010PropOp41
 70
     1
102
RTVSPost2010Prop42
 90
       50
102
RTVSPost2010PropOp42
 70
     1
102
RTVSPost2010Prop43
 90
        3
102
RTVSPost2010PropOp43
 70
     1
102
RTVSPost2010Prop44ColorIndex
 90
        5
102
RTVSPost2010Prop44ColorRGB
 90
      255
102
RTVSPost2010PropOp44
 70
     1
102
RTVSPost2010Prop45
280
     0
102
RTVSPost2010PropOp45
 70
     1
102
RTVSPost2010Prop46
 90
       50
102
RTVSPost2010PropOp46
 70
     1
102
RTVSPost2010Prop47
 90
       50
102
RTVSPost2010PropOp47
 70
     1
102
RTVSPost2010Prop48
 90
       50
102
RTVSPost2010PropOp48
 70
     1
102
RTVSPost2010Prop49
280
     0
102
RTVSPost2010PropOp49
 70
     1
102
RTVSPost2010Prop50
 90
       50
102
RTVSPost2010PropOp50
 70
     1
102
RTVSPost2010Prop51ColorIndex
 90
      256
102
RTVSPost2010Prop51ColorRGB
 90
-16777216
102
RTVSPost2010PropOp51
 70
     0
102
RTVSPost2010Prop52
140
1.0
102
RTVSPost2010PropOp52
 70
     0
102
RTVSPost2010Prop53
 90
        2
102
RTVSPost2010PropOp53
 70
     1
102
RTVSPost2010Prop54
  1
strokes_ogs.tif
102
RTVSPost2010PropOp54
 70
     1
102
RTVSPost2010Prop55
280
     0
102
RTVSPost2010PropOp55
 70
     1
102
RTVSPost2010Prop56
140
1.0
102
RTVSPost2010PropOp56
 70
     1
102
RTVSPost2010Prop57
140
1.0
102
RTVSPost2010PropOp57
 70
     1
102
RTVSPropertyOp0
 70
     1
102
RTVSPropertyOp1
 70
     1
102
RTVSPropertyOp2
 70
     1
102
RTVSPropertyOp3
 70
     1
102
RTVSPropertyOp4
 70
     1
102
RTVSPropertyOp5
 70
     1
102
RTVSPropertyOp6
 70
     1
102
RTVSPropertyOp7
 70
     1
102
RTVSPropertyOp8
 70
     1
102
RTVSPropertyOp9
 70
     1
102
RTVSPropertyOp10
 70
     1
102
RTVSPropertyOp11
 70
     1
102
RTVSPropertyOp12
 70
     1
102
RTVSPropertyOp13
 70
     1
102
RTVSPropertyOp14
 70
     1
102
RTVSPropertyOp15
 70
     1
102
RTVSPropertyOp16
 70
     1
102
RTVSPropertyOp17
 70
     1
102
RTVSPropertyOp18
 70
     1
102
RTVSPropertyOp19
 70
     1
102
RTVSPropertyOp20
 70
     1
102
RTVSPropertyOp21
 70
     1
102
RTVSPropertyOp22
 70
     1
102
RTVSPropertyOp23
 70
     1
102
RTVSPropertyOp24
 70
     1
102
RTVSPropertyOp25
 70
     1
102
RTVSPropertyOp26
 70
     1
102
RTVSPropertyOp27
 70
     1
102
RTVSPropertyOp28
 70
     1
102
RTVSPropertyOp29
 70
     1
102
RTVSPropertyOp30
 70
     1
102
RTVSPropertyOp31
 70
     1
102
RTVSPropertyOp32
 70
     1
102
RTVSPropertyOp33
 70
     1
102
RTVSPropertyOp34
 70
     1
102
RTVSPropertyOp35
 70
     1
102
RTVSPropertyOp36
 70
     1
102
RTVSPropertyOp37
 70
     1
102
RTVSPropertyOp38
 70
     1
102
RTVSPropertyOp39
 70
     1
102
RTVSPropertyOp40
 70
     1
102
RTVSPropertyOp41
 70
     1
102
RTVSPropertyOp42
 70
     1
102
RTVSPropertyOp43
 70
     1
102
RTVSPropertyOp44
 70
     1
102
RTVSPropertyOp45
 70
     1
102
RTVSPropertyOp46
 70
     1
102
RTVSPropertyOp47
 70
     1
102
RTVSPropertyOp48
 70
     1
102
RTVSPropertyOp49
 70
     1
102
RTVSPropertyOp50
 70
     1
102
RTVSPropertyOp51
 70
     0
102
RTVSPropertyOp52
 70
     0
102
RTVSPropertyOp53
 70
     1
102
RTVSPropertyOp54
 70
     1
102
RTVSPropertyOp55
 70
     1
102
RTVSPropertyOp56
 70
     1
102
RTVSPropertyOp57
 70
     1
102
RTVSPropertyOp58
 70
     1
102
RTVSPropertyOp59
 70
     1
102
RTVSPropertyOp60
 70
     1
102
RTVSPropertyOp61
 70
     1
102
RTVSPropertyOp62
 70
     1
  0
XRECORD
  5
BF40
102
{ACAD_REACTORS
330
BF3F
102
}
330
BF3F
100
AcDbXrecord
280
     1
102
RTVSPost2010Prop28
280
     0
102
RTVSPost2010PropOp28
 70
     1
102
RTVSPost2010Prop29
280
     1
102
RTVSPost2010PropOp29
 70
     1
102
RTVSPost2010Prop30
280
     1
102
RTVSPost2010PropOp30
 70
     1
102
RTVSPost2010Prop31
280
     0
102
RTVSPost2010PropOp31
 70
     1
102
RTVSPost2010Prop32
280
     0
102
RTVSPost2010PropOp32
 70
     1
102
RTVSPost2010Prop33
280
     0
102
RTVSPost2010PropOp33
 70
     1
102
RTVSPost2010Prop34
280
     0
102
RTVSPost2010PropOp34
 70
     1
102
RTVSPost2010Prop35
280
     0
102
RTVSPost2010PropOp35
 70
     1
102
RTVSPost2010Prop36
280
     0
102
RTVSPost2010PropOp36
 70
     1
102
RTVSPost2010Prop37
 90
       50
102
RTVSPost2010PropOp37
 70
     0
102
RTVSPost2010Prop38
140
0.0
102
RTVSPost2010PropOp38
 70
     0
102
RTVSPost2010Prop39
140
1.0
102
RTVSPost2010PropOp39
 70
     0
102
RTVSPost2010Prop40
 90
        0
102
RTVSPost2010PropOp40
 70
     0
102
RTVSPost2010Prop41ColorIndex
 90
       18
102
RTVSPost2010Prop41ColorRGB
 90
        0
102
RTVSPost2010PropOp41
 70
     0
102
RTVSPost2010Prop42
 90
       50
102
RTVSPost2010PropOp42
 70
     0
102
RTVSPost2010Prop43
 90
        3
102
RTVSPost2010PropOp43
 70
     0
102
RTVSPost2010Prop44ColorIndex
 90
        5
102
RTVSPost2010Prop44ColorRGB
 90
      255
102
RTVSPost2010PropOp44
 70
     0
102
RTVSPost2010Prop45
280
     0
102
RTVSPost2010PropOp45
 70
     1
102
RTVSPost2010Prop46
 90
       50
102
RTVSPost2010PropOp46
 70
     0
102
RTVSPost2010Prop47
 90
       50
102
RTVSPost2010PropOp47
 70
     0
102
RTVSPost2010Prop48
 90
       50
102
RTVSPost2010PropOp48
 70
     0
102
RTVSPost2010Prop49
280
     0
102
RTVSPost2010PropOp49
 70
     1
102
RTVSPost2010Prop50
 90
       50
102
RTVSPost2010PropOp50
 70
     0
102
RTVSPost2010Prop51ColorIndex
 90
      256
102
RTVSPost2010Prop51ColorRGB
 90
-16777216
102
RTVSPost2010PropOp51
 70
     0
102
RTVSPost2010Prop52
140
1.0
102
RTVSPost2010PropOp52
 70
     0
102
RTVSPost2010Prop53
 90
        2
102
RTVSPost2010PropOp53
 70
     0
102
RTVSPost2010Prop54
  1
strokes_ogs.tif
102
RTVSPost2010PropOp54
 70
     0
102
RTVSPost2010Prop55
280
     0
102
RTVSPost2010PropOp55
 70
     1
102
RTVSPost2010Prop56
140
1.0
102
RTVSPost2010PropOp56
 70
     0
102
RTVSPost2010Prop57
140
1.0
102
RTVSPost2010PropOp57
 70
     0
102
RTVSPropertyOp0
 70
     0
102
RTVSPropertyOp1
 70
     0
102
RTVSPropertyOp2
 70
     0
102
RTVSPropertyOp3
 70
     0
102
RTVSPropertyOp4
 70
     0
102
RTVSPropertyOp5
 70
     0
102
RTVSPropertyOp6
 70
     0
102
RTVSPropertyOp7
 70
     0
102
RTVSPropertyOp8
 70
     0
102
RTVSPropertyOp9
 70
     0
102
RTVSPropertyOp10
 70
     0
102
RTVSPropertyOp11
 70
     0
102
RTVSPropertyOp12
 70
     0
102
RTVSPropertyOp13
 70
     0
102
RTVSPropertyOp14
 70
     2
102
RTVSPropertyOp15
 70
     0
102
RTVSPropertyOp16
 70
     0
102
RTVSPropertyOp17
 70
     0
102
RTVSPropertyOp18
 70
     0
102
RTVSPropertyOp19
 70
     0
102
RTVSPropertyOp20
 70
     0
102
RTVSPropertyOp21
 70
     0
102
RTVSPropertyOp22
 70
     0
102
RTVSPropertyOp23
 70
     0
102
RTVSPropertyOp24
 70
     0
102
RTVSPropertyOp25
 70
     0
102
RTVSPropertyOp26
 70
     0
102
RTVSPropertyOp27
 70
     0
102
RTVSPropertyOp28
 70
     1
102
RTVSPropertyOp29
 70
     1
102
RTVSPropertyOp30
 70
     1
102
RTVSPropertyOp31
 70
     1
102
RTVSPropertyOp32
 70
     1
102
RTVSPropertyOp33
 70
     1
102
RTVSPropertyOp34
 70
     1
102
RTVSPropertyOp35
 70
     1
102
RTVSPropertyOp36
 70
     1
102
RTVSPropertyOp37
 70
     0
102
RTVSPropertyOp38
 70
     0
102
RTVSPropertyOp39
 70
     0
102
RTVSPropertyOp40
 70
     0
102
RTVSPropertyOp41
 70
     0
102
RTVSPropertyOp42
 70
     0
102
RTVSPropertyOp43
 70
     0
102
RTVSPropertyOp44
 70
     0
102
RTVSPropertyOp45
 70
     1
102
RTVSPropertyOp46
 70
     0
102
RTVSPropertyOp47
 70
     0
102
RTVSPropertyOp48
 70
     0
102
RTVSPropertyOp49
 70
     1
102
RTVSPropertyOp50
 70
     0
102
RTVSPropertyOp51
 70
     0
102
RTVSPropertyOp52
 70
     0
102
RTVSPropertyOp53
 70
     0
102
RTVSPropertyOp54
 70
     0
102
RTVSPropertyOp55
 70
     1
102
RTVSPropertyOp56
 70
     0
102
RTVSPropertyOp57
 70
     0
102
RTVSPropertyOp58
 70
     0
102
RTVSPropertyOp59
 70
     0
102
RTVSPropertyOp60
 70
     0
102
RTVSPropertyOp61
 70
     0
102
RTVSPropertyOp62
 70
     0
  0
XRECORD
  5
BF2E
102
{ACAD_REACTORS
330
BF2D
102
}
330
BF2D
100
AcDbXrecord
280
     1
102
RTVSPost2010Prop28
280
     0
102
RTVSPost2010PropOp28
 70
     1
102
RTVSPost2010Prop29
280
     1
102
RTVSPost2010PropOp29
 70
     1
102
RTVSPost2010Prop30
280
     1
102
RTVSPost2010PropOp30
 70
     1
102
RTVSPost2010Prop31
280
     0
102
RTVSPost2010PropOp31
 70
     1
102
RTVSPost2010Prop32
280
     0
102
RTVSPost2010PropOp32
 70
     1
102
RTVSPost2010Prop33
280
     0
102
RTVSPost2010PropOp33
 70
     1
102
RTVSPost2010Prop34
280
     0
102
RTVSPost2010PropOp34
 70
     1
102
RTVSPost2010Prop35
280
     0
102
RTVSPost2010PropOp35
 70
     1
102
RTVSPost2010Prop36
280
     0
102
RTVSPost2010PropOp36
 70
     1
102
RTVSPost2010Prop37
 90
       50
102
RTVSPost2010PropOp37
 70
     1
102
RTVSPost2010Prop38
140
0.0
102
RTVSPost2010PropOp38
 70
     1
102
RTVSPost2010Prop39
140
1.0
102
RTVSPost2010PropOp39
 70
     1
102
RTVSPost2010Prop40
 90
        0
102
RTVSPost2010PropOp40
 70
     1
102
RTVSPost2010Prop41ColorIndex
 90
       18
102
RTVSPost2010Prop41ColorRGB
 90
        0
102
RTVSPost2010PropOp41
 70
     1
102
RTVSPost2010Prop42
 90
       50
102
RTVSPost2010PropOp42
 70
     1
102
RTVSPost2010Prop43
 90
        3
102
RTVSPost2010PropOp43
 70
     1
102
RTVSPost2010Prop44ColorIndex
 90
        5
102
RTVSPost2010Prop44ColorRGB
 90
      255
102
RTVSPost2010PropOp44
 70
     1
102
RTVSPost2010Prop45
280
     0
102
RTVSPost2010PropOp45
 70
     1
102
RTVSPost2010Prop46
 90
       50
102
RTVSPost2010PropOp46
 70
     1
102
RTVSPost2010Prop47
 90
       50
102
RTVSPost2010PropOp47
 70
     1
102
RTVSPost2010Prop48
 90
       50
102
RTVSPost2010PropOp48
 70
     1
102
RTVSPost2010Prop49
280
     0
102
RTVSPost2010PropOp49
 70
     1
102
RTVSPost2010Prop50
 90
       50
102
RTVSPost2010PropOp50
 70
     1
102
RTVSPost2010Prop51ColorIndex
 90
      256
102
RTVSPost2010Prop51ColorRGB
 90
-16777216
102
RTVSPost2010PropOp51
 70
     0
102
RTVSPost2010Prop52
140
1.0
102
RTVSPost2010PropOp52
 70
     0
102
RTVSPost2010Prop53
 90
        2
102
RTVSPost2010PropOp53
 70
     1
102
RTVSPost2010Prop54
  1
strokes_ogs.tif
102
RTVSPost2010PropOp54
 70
     1
102
RTVSPost2010Prop55
280
     0
102
RTVSPost2010PropOp55
 70
     1
102
RTVSPost2010Prop56
140
1.0
102
RTVSPost2010PropOp56
 70
     1
102
RTVSPost2010Prop57
140
1.0
102
RTVSPost2010PropOp57
 70
     1
102
RTVSPropertyOp0
 70
     1
102
RTVSPropertyOp1
 70
     1
102
RTVSPropertyOp2
 70
     1
102
RTVSPropertyOp3
 70
     1
102
RTVSPropertyOp4
 70
     1
102
RTVSPropertyOp5
 70
     1
102
RTVSPropertyOp6
 70
     1
102
RTVSPropertyOp7
 70
     1
102
RTVSPropertyOp8
 70
     1
102
RTVSPropertyOp9
 70
     1
102
RTVSPropertyOp10
 70
     1
102
RTVSPropertyOp11
 70
     1
102
RTVSPropertyOp12
 70
     1
102
RTVSPropertyOp13
 70
     1
102
RTVSPropertyOp14
 70
     1
102
RTVSPropertyOp15
 70
     1
102
RTVSPropertyOp16
 70
     1
102
RTVSPropertyOp17
 70
     1
102
RTVSPropertyOp18
 70
     1
102
RTVSPropertyOp19
 70
     1
102
RTVSPropertyOp20
 70
     1
102
RTVSPropertyOp21
 70
     1
102
RTVSPropertyOp22
 70
     1
102
RTVSPropertyOp23
 70
     1
102
RTVSPropertyOp24
 70
     1
102
RTVSPropertyOp25
 70
     1
102
RTVSPropertyOp26
 70
     1
102
RTVSPropertyOp27
 70
     1
102
RTVSPropertyOp28
 70
     1
102
RTVSPropertyOp29
 70
     1
102
RTVSPropertyOp30
 70
     1
102
RTVSPropertyOp31
 70
     1
102
RTVSPropertyOp32
 70
     1
102
RTVSPropertyOp33
 70
     1
102
RTVSPropertyOp34
 70
     1
102
RTVSPropertyOp35
 70
     1
102
RTVSPropertyOp36
 70
     1
102
RTVSPropertyOp37
 70
     1
102
RTVSPropertyOp38
 70
     1
102
RTVSPropertyOp39
 70
     1
102
RTVSPropertyOp40
 70
     1
102
RTVSPropertyOp41
 70
     1
102
RTVSPropertyOp42
 70
     1
102
RTVSPropertyOp43
 70
     1
102
RTVSPropertyOp44
 70
     1
102
RTVSPropertyOp45
 70
     1
102
RTVSPropertyOp46
 70
     1
102
RTVSPropertyOp47
 70
     1
102
RTVSPropertyOp48
 70
     1
102
RTVSPropertyOp49
 70
     1
102
RTVSPropertyOp50
 70
     1
102
RTVSPropertyOp51
 70
     0
102
RTVSPropertyOp52
 70
     0
102
RTVSPropertyOp53
 70
     1
102
RTVSPropertyOp54
 70
     1
102
RTVSPropertyOp55
 70
     1
102
RTVSPropertyOp56
 70
     1
102
RTVSPropertyOp57
 70
     1
102
RTVSPropertyOp58
 70
     1
102
RTVSPropertyOp59
 70
     1
102
RTVSPropertyOp60
 70
     1
102
RTVSPropertyOp61
 70
     1
102
RTVSPropertyOp62
 70
     1
  0
XRECORD
  5
BF12
102
{ACAD_REACTORS
330
BF11
102
}
330
BF11
100
AcDbXrecord
280
     1
102
RTVSPost2010Prop28
280
     0
102
RTVSPost2010PropOp28
 70
     1
102
RTVSPost2010Prop29
280
     1
102
RTVSPost2010PropOp29
 70
     1
102
RTVSPost2010Prop30
280
     1
102
RTVSPost2010PropOp30
 70
     1
102
RTVSPost2010Prop31
280
     0
102
RTVSPost2010PropOp31
 70
     1
102
RTVSPost2010Prop32
280
     0
102
RTVSPost2010PropOp32
 70
     1
102
RTVSPost2010Prop33
280
     0
102
RTVSPost2010PropOp33
 70
     1
102
RTVSPost2010Prop34
280
     0
102
RTVSPost2010PropOp34
 70
     1
102
RTVSPost2010Prop35
280
     0
102
RTVSPost2010PropOp35
 70
     1
102
RTVSPost2010Prop36
280
     0
102
RTVSPost2010PropOp36
 70
     1
102
RTVSPost2010Prop37
 90
       50
102
RTVSPost2010PropOp37
 70
     1
102
RTVSPost2010Prop38
140
0.0
102
RTVSPost2010PropOp38
 70
     1
102
RTVSPost2010Prop39
140
1.0
102
RTVSPost2010PropOp39
 70
     1
102
RTVSPost2010Prop40
 90
        0
102
RTVSPost2010PropOp40
 70
     1
102
RTVSPost2010Prop41ColorIndex
 90
       18
102
RTVSPost2010Prop41ColorRGB
 90
        0
102
RTVSPost2010PropOp41
 70
     1
102
RTVSPost2010Prop42
 90
       50
102
RTVSPost2010PropOp42
 70
     1
102
RTVSPost2010Prop43
 90
        3
102
RTVSPost2010PropOp43
 70
     1
102
RTVSPost2010Prop44ColorIndex
 90
        5
102
RTVSPost2010Prop44ColorRGB
 90
      255
102
RTVSPost2010PropOp44
 70
     1
102
RTVSPost2010Prop45
280
     0
102
RTVSPost2010PropOp45
 70
     1
102
RTVSPost2010Prop46
 90
       50
102
RTVSPost2010PropOp46
 70
     1
102
RTVSPost2010Prop47
 90
       50
102
RTVSPost2010PropOp47
 70
     1
102
RTVSPost2010Prop48
 90
       50
102
RTVSPost2010PropOp48
 70
     1
102
RTVSPost2010Prop49
280
     0
102
RTVSPost2010PropOp49
 70
     1
102
RTVSPost2010Prop50
 90
       50
102
RTVSPost2010PropOp50
 70
     1
102
RTVSPost2010Prop51ColorIndex
 90
      256
102
RTVSPost2010Prop51ColorRGB
 90
-16777216
102
RTVSPost2010PropOp51
 70
     0
102
RTVSPost2010Prop52
140
1.0
102
RTVSPost2010PropOp52
 70
     0
102
RTVSPost2010Prop53
 90
        2
102
RTVSPost2010PropOp53
 70
     1
102
RTVSPost2010Prop54
  1
strokes_ogs.tif
102
RTVSPost2010PropOp54
 70
     1
102
RTVSPost2010Prop55
280
     0
102
RTVSPost2010PropOp55
 70
     1
102
RTVSPost2010Prop56
140
1.0
102
RTVSPost2010PropOp56
 70
     1
102
RTVSPost2010Prop57
140
1.0
102
RTVSPost2010PropOp57
 70
     1
102
RTVSPropertyOp0
 70
     1
102
RTVSPropertyOp1
 70
     1
102
RTVSPropertyOp2
 70
     1
102
RTVSPropertyOp3
 70
     1
102
RTVSPropertyOp4
 70
     1
102
RTVSPropertyOp5
 70
     1
102
RTVSPropertyOp6
 70
     1
102
RTVSPropertyOp7
 70
     1
102
RTVSPropertyOp8
 70
     1
102
RTVSPropertyOp9
 70
     1
102
RTVSPropertyOp10
 70
     1
102
RTVSPropertyOp11
 70
     1
102
RTVSPropertyOp12
 70
     1
102
RTVSPropertyOp13
 70
     1
102
RTVSPropertyOp14
 70
     1
102
RTVSPropertyOp15
 70
     1
102
RTVSPropertyOp16
 70
     1
102
RTVSPropertyOp17
 70
     1
102
RTVSPropertyOp18
 70
     1
102
RTVSPropertyOp19
 70
     1
102
RTVSPropertyOp20
 70
     1
102
RTVSPropertyOp21
 70
     1
102
RTVSPropertyOp22
 70
     1
102
RTVSPropertyOp23
 70
     1
102
RTVSPropertyOp24
 70
     1
102
RTVSPropertyOp25
 70
     1
102
RTVSPropertyOp26
 70
     1
102
RTVSPropertyOp27
 70
     1
102
RTVSPropertyOp28
 70
     1
102
RTVSPropertyOp29
 70
     1
102
RTVSPropertyOp30
 70
     1
102
RTVSPropertyOp31
 70
     1
102
RTVSPropertyOp32
 70
     1
102
RTVSPropertyOp33
 70
     1
102
RTVSPropertyOp34
 70
     1
102
RTVSPropertyOp35
 70
     1
102
RTVSPropertyOp36
 70
     1
102
RTVSPropertyOp37
 70
     1
102
RTVSPropertyOp38
 70
     1
102
RTVSPropertyOp39
 70
     1
102
RTVSPropertyOp40
 70
     1
102
RTVSPropertyOp41
 70
     1
102
RTVSPropertyOp42
 70
     1
102
RTVSPropertyOp43
 70
     1
102
RTVSPropertyOp44
 70
     1
102
RTVSPropertyOp45
 70
     1
102
RTVSPropertyOp46
 70
     1
102
RTVSPropertyOp47
 70
     1
102
RTVSPropertyOp48
 70
     1
102
RTVSPropertyOp49
 70
     1
102
RTVSPropertyOp50
 70
     1
102
RTVSPropertyOp51
 70
     0
102
RTVSPropertyOp52
 70
     0
102
RTVSPropertyOp53
 70
     1
102
RTVSPropertyOp54
 70
     1
102
RTVSPropertyOp55
 70
     1
102
RTVSPropertyOp56
 70
     1
102
RTVSPropertyOp57
 70
     1
102
RTVSPropertyOp58
 70
     1
102
RTVSPropertyOp59
 70
     1
102
RTVSPropertyOp60
 70
     1
102
RTVSPropertyOp61
 70
     1
102
RTVSPropertyOp62
 70
     1
  0
XRECORD
  5
BF14
102
{ACAD_REACTORS
330
BF13
102
}
330
BF13
100
AcDbXrecord
280
     1
102
RTVSPost2010Prop28
280
     0
102
RTVSPost2010PropOp28
 70
     1
102
RTVSPost2010Prop29
280
     1
102
RTVSPost2010PropOp29
 70
     1
102
RTVSPost2010Prop30
280
     1
102
RTVSPost2010PropOp30
 70
     1
102
RTVSPost2010Prop31
280
     0
102
RTVSPost2010PropOp31
 70
     1
102
RTVSPost2010Prop32
280
     0
102
RTVSPost2010PropOp32
 70
     1
102
RTVSPost2010Prop33
280
     0
102
RTVSPost2010PropOp33
 70
     1
102
RTVSPost2010Prop34
280
     0
102
RTVSPost2010PropOp34
 70
     1
102
RTVSPost2010Prop35
280
     0
102
RTVSPost2010PropOp35
 70
     1
102
RTVSPost2010Prop36
280
     0
102
RTVSPost2010PropOp36
 70
     1
102
RTVSPost2010Prop37
 90
       50
102
RTVSPost2010PropOp37
 70
     1
102
RTVSPost2010Prop38
140
0.0
102
RTVSPost2010PropOp38
 70
     1
102
RTVSPost2010Prop39
140
1.0
102
RTVSPost2010PropOp39
 70
     1
102
RTVSPost2010Prop40
 90
        0
102
RTVSPost2010PropOp40
 70
     1
102
RTVSPost2010Prop41ColorIndex
 90
       18
102
RTVSPost2010Prop41ColorRGB
 90
        0
102
RTVSPost2010PropOp41
 70
     1
102
RTVSPost2010Prop42
 90
       50
102
RTVSPost2010PropOp42
 70
     1
102
RTVSPost2010Prop43
 90
        3
102
RTVSPost2010PropOp43
 70
     1
102
RTVSPost2010Prop44ColorIndex
 90
        5
102
RTVSPost2010Prop44ColorRGB
 90
      255
102
RTVSPost2010PropOp44
 70
     1
102
RTVSPost2010Prop45
280
     0
102
RTVSPost2010PropOp45
 70
     1
102
RTVSPost2010Prop46
 90
       50
102
RTVSPost2010PropOp46
 70
     1
102
RTVSPost2010Prop47
 90
       50
102
RTVSPost2010PropOp47
 70
     1
102
RTVSPost2010Prop48
 90
       50
102
RTVSPost2010PropOp48
 70
     1
102
RTVSPost2010Prop49
280
     0
102
RTVSPost2010PropOp49
 70
     1
102
RTVSPost2010Prop50
 90
       50
102
RTVSPost2010PropOp50
 70
     1
102
RTVSPost2010Prop51ColorIndex
 90
      256
102
RTVSPost2010Prop51ColorRGB
 90
-16777216
102
RTVSPost2010PropOp51
 70
     0
102
RTVSPost2010Prop52
140
1.0
102
RTVSPost2010PropOp52
 70
     0
102
RTVSPost2010Prop53
 90
        2
102
RTVSPost2010PropOp53
 70
     1
102
RTVSPost2010Prop54
  1
strokes_ogs.tif
102
RTVSPost2010PropOp54
 70
     1
102
RTVSPost2010Prop55
280
     0
102
RTVSPost2010PropOp55
 70
     1
102
RTVSPost2010Prop56
140
1.0
102
RTVSPost2010PropOp56
 70
     1
102
RTVSPost2010Prop57
140
1.0
102
RTVSPost2010PropOp57
 70
     1
102
RTVSPropertyOp0
 70
     1
102
RTVSPropertyOp1
 70
     1
102
RTVSPropertyOp2
 70
     1
102
RTVSPropertyOp3
 70
     1
102
RTVSPropertyOp4
 70
     1
102
RTVSPropertyOp5
 70
     1
102
RTVSPropertyOp6
 70
     1
102
RTVSPropertyOp7
 70
     1
102
RTVSPropertyOp8
 70
     1
102
RTVSPropertyOp9
 70
     1
102
RTVSPropertyOp10
 70
     1
102
RTVSPropertyOp11
 70
     1
102
RTVSPropertyOp12
 70
     1
102
RTVSPropertyOp13
 70
     1
102
RTVSPropertyOp14
 70
     1
102
RTVSPropertyOp15
 70
     1
102
RTVSPropertyOp16
 70
     1
102
RTVSPropertyOp17
 70
     1
102
RTVSPropertyOp18
 70
     1
102
RTVSPropertyOp19
 70
     1
102
RTVSPropertyOp20
 70
     1
102
RTVSPropertyOp21
 70
     1
102
RTVSPropertyOp22
 70
     1
102
RTVSPropertyOp23
 70
     1
102
RTVSPropertyOp24
 70
     1
102
RTVSPropertyOp25
 70
     1
102
RTVSPropertyOp26
 70
     1
102
RTVSPropertyOp27
 70
     1
102
RTVSPropertyOp28
 70
     1
102
RTVSPropertyOp29
 70
     1
102
RTVSPropertyOp30
 70
     1
102
RTVSPropertyOp31
 70
     1
102
RTVSPropertyOp32
 70
     1
102
RTVSPropertyOp33
 70
     1
102
RTVSPropertyOp34
 70
     1
102
RTVSPropertyOp35
 70
     1
102
RTVSPropertyOp36
 70
     1
102
RTVSPropertyOp37
 70
     1
102
RTVSPropertyOp38
 70
     1
102
RTVSPropertyOp39
 70
     1
102
RTVSPropertyOp40
 70
     1
102
RTVSPropertyOp41
 70
     1
102
RTVSPropertyOp42
 70
     1
102
RTVSPropertyOp43
 70
     1
102
RTVSPropertyOp44
 70
     1
102
RTVSPropertyOp45
 70
     1
102
RTVSPropertyOp46
 70
     1
102
RTVSPropertyOp47
 70
     1
102
RTVSPropertyOp48
 70
     1
102
RTVSPropertyOp49
 70
     1
102
RTVSPropertyOp50
 70
     1
102
RTVSPropertyOp51
 70
     0
102
RTVSPropertyOp52
 70
     0
102
RTVSPropertyOp53
 70
     1
102
RTVSPropertyOp54
 70
     1
102
RTVSPropertyOp55
 70
     1
102
RTVSPropertyOp56
 70
     1
102
RTVSPropertyOp57
 70
     1
102
RTVSPropertyOp58
 70
     1
102
RTVSPropertyOp59
 70
     1
102
RTVSPropertyOp60
 70
     1
102
RTVSPropertyOp61
 70
     1
102
RTVSPropertyOp62
 70
     1
  0
XRECORD
  5
BF16
102
{ACAD_REACTORS
330
BF15
102
}
330
BF15
100
AcDbXrecord
280
     1
102
RTVSPost2010Prop28
280
     0
102
RTVSPost2010PropOp28
 70
     1
102
RTVSPost2010Prop29
280
     1
102
RTVSPost2010PropOp29
 70
     1
102
RTVSPost2010Prop30
280
     1
102
RTVSPost2010PropOp30
 70
     1
102
RTVSPost2010Prop31
280
     0
102
RTVSPost2010PropOp31
 70
     1
102
RTVSPost2010Prop32
280
     0
102
RTVSPost2010PropOp32
 70
     1
102
RTVSPost2010Prop33
280
     0
102
RTVSPost2010PropOp33
 70
     1
102
RTVSPost2010Prop34
280
     0
102
RTVSPost2010PropOp34
 70
     1
102
RTVSPost2010Prop35
280
     0
102
RTVSPost2010PropOp35
 70
     1
102
RTVSPost2010Prop36
280
     0
102
RTVSPost2010PropOp36
 70
     1
102
RTVSPost2010Prop37
 90
       50
102
RTVSPost2010PropOp37
 70
     1
102
RTVSPost2010Prop38
140
0.0
102
RTVSPost2010PropOp38
 70
     1
102
RTVSPost2010Prop39
140
1.0
102
RTVSPost2010PropOp39
 70
     1
102
RTVSPost2010Prop40
 90
        0
102
RTVSPost2010PropOp40
 70
     1
102
RTVSPost2010Prop41ColorIndex
 90
       18
102
RTVSPost2010Prop41ColorRGB
 90
        0
102
RTVSPost2010PropOp41
 70
     1
102
RTVSPost2010Prop42
 90
       50
102
RTVSPost2010PropOp42
 70
     1
102
RTVSPost2010Prop43
 90
        3
102
RTVSPost2010PropOp43
 70
     1
102
RTVSPost2010Prop44ColorIndex
 90
        5
102
RTVSPost2010Prop44ColorRGB
 90
      255
102
RTVSPost2010PropOp44
 70
     1
102
RTVSPost2010Prop45
280
     0
102
RTVSPost2010PropOp45
 70
     1
102
RTVSPost2010Prop46
 90
       50
102
RTVSPost2010PropOp46
 70
     1
102
RTVSPost2010Prop47
 90
       50
102
RTVSPost2010PropOp47
 70
     1
102
RTVSPost2010Prop48
 90
       50
102
RTVSPost2010PropOp48
 70
     1
102
RTVSPost2010Prop49
280
     0
102
RTVSPost2010PropOp49
 70
     1
102
RTVSPost2010Prop50
 90
       50
102
RTVSPost2010PropOp50
 70
     1
102
RTVSPost2010Prop51ColorIndex
 90
      256
102
RTVSPost2010Prop51ColorRGB
 90
-16777216
102
RTVSPost2010PropOp51
 70
     0
102
RTVSPost2010Prop52
140
1.0
102
RTVSPost2010PropOp52
 70
     0
102
RTVSPost2010Prop53
 90
        2
102
RTVSPost2010PropOp53
 70
     1
102
RTVSPost2010Prop54
  1
strokes_ogs.tif
102
RTVSPost2010PropOp54
 70
     1
102
RTVSPost2010Prop55
280
     0
102
RTVSPost2010PropOp55
 70
     1
102
RTVSPost2010Prop56
140
1.0
102
RTVSPost2010PropOp56
 70
     1
102
RTVSPost2010Prop57
140
1.0
102
RTVSPost2010PropOp57
 70
     1
102
RTVSPropertyOp0
 70
     1
102
RTVSPropertyOp1
 70
     1
102
RTVSPropertyOp2
 70
     1
102
RTVSPropertyOp3
 70
     1
102
RTVSPropertyOp4
 70
     1
102
RTVSPropertyOp5
 70
     1
102
RTVSPropertyOp6
 70
     1
102
RTVSPropertyOp7
 70
     1
102
RTVSPropertyOp8
 70
     1
102
RTVSPropertyOp9
 70
     1
102
RTVSPropertyOp10
 70
     1
102
RTVSPropertyOp11
 70
     1
102
RTVSPropertyOp12
 70
     1
102
RTVSPropertyOp13
 70
     1
102
RTVSPropertyOp14
 70
     1
102
RTVSPropertyOp15
 70
     1
102
RTVSPropertyOp16
 70
     1
102
RTVSPropertyOp17
 70
     1
102
RTVSPropertyOp18
 70
     1
102
RTVSPropertyOp19
 70
     1
102
RTVSPropertyOp20
 70
     1
102
RTVSPropertyOp21
 70
     1
102
RTVSPropertyOp22
 70
     1
102
RTVSPropertyOp23
 70
     1
102
RTVSPropertyOp24
 70
     1
102
RTVSPropertyOp25
 70
     1
102
RTVSPropertyOp26
 70
     1
102
RTVSPropertyOp27
 70
     1
102
RTVSPropertyOp28
 70
     1
102
RTVSPropertyOp29
 70
     1
102
RTVSPropertyOp30
 70
     1
102
RTVSPropertyOp31
 70
     1
102
RTVSPropertyOp32
 70
     1
102
RTVSPropertyOp33
 70
     1
102
RTVSPropertyOp34
 70
     1
102
RTVSPropertyOp35
 70
     1
102
RTVSPropertyOp36
 70
     1
102
RTVSPropertyOp37
 70
     1
102
RTVSPropertyOp38
 70
     1
102
RTVSPropertyOp39
 70
     1
102
RTVSPropertyOp40
 70
     1
102
RTVSPropertyOp41
 70
     1
102
RTVSPropertyOp42
 70
     1
102
RTVSPropertyOp43
 70
     1
102
RTVSPropertyOp44
 70
     1
102
RTVSPropertyOp45
 70
     1
102
RTVSPropertyOp46
 70
     1
102
RTVSPropertyOp47
 70
     1
102
RTVSPropertyOp48
 70
     1
102
RTVSPropertyOp49
 70
     1
102
RTVSPropertyOp50
 70
     1
102
RTVSPropertyOp51
 70
     0
102
RTVSPropertyOp52
 70
     0
102
RTVSPropertyOp53
 70
     1
102
RTVSPropertyOp54
 70
     1
102
RTVSPropertyOp55
 70
     1
102
RTVSPropertyOp56
 70
     1
102
RTVSPropertyOp57
 70
     1
102
RTVSPropertyOp58
 70
     1
102
RTVSPropertyOp59
 70
     1
102
RTVSPropertyOp60
 70
     1
102
RTVSPropertyOp61
 70
     1
102
RTVSPropertyOp62
 70
     1
  0
XRECORD
  5
BF18
102
{ACAD_REACTORS
330
BF17
102
}
330
BF17
100
AcDbXrecord
280
     1
102
RTVSPost2010Prop28
280
     0
102
RTVSPost2010PropOp28
 70
     1
102
RTVSPost2010Prop29
280
     1
102
RTVSPost2010PropOp29
 70
     1
102
RTVSPost2010Prop30
280
     1
102
RTVSPost2010PropOp30
 70
     1
102
RTVSPost2010Prop31
280
     0
102
RTVSPost2010PropOp31
 70
     1
102
RTVSPost2010Prop32
280
     0
102
RTVSPost2010PropOp32
 70
     1
102
RTVSPost2010Prop33
280
     0
102
RTVSPost2010PropOp33
 70
     1
102
RTVSPost2010Prop34
280
     0
102
RTVSPost2010PropOp34
 70
     1
102
RTVSPost2010Prop35
280
     0
102
RTVSPost2010PropOp35
 70
     1
102
RTVSPost2010Prop36
280
     0
102
RTVSPost2010PropOp36
 70
     1
102
RTVSPost2010Prop37
 90
       50
102
RTVSPost2010PropOp37
 70
     1
102
RTVSPost2010Prop38
140
0.0
102
RTVSPost2010PropOp38
 70
     1
102
RTVSPost2010Prop39
140
1.0
102
RTVSPost2010PropOp39
 70
     1
102
RTVSPost2010Prop40
 90
        0
102
RTVSPost2010PropOp40
 70
     1
102
RTVSPost2010Prop41ColorIndex
 90
       18
102
RTVSPost2010Prop41ColorRGB
 90
        0
102
RTVSPost2010PropOp41
 70
     1
102
RTVSPost2010Prop42
 90
       50
102
RTVSPost2010PropOp42
 70
     1
102
RTVSPost2010Prop43
 90
        3
102
RTVSPost2010PropOp43
 70
     1
102
RTVSPost2010Prop44ColorIndex
 90
        5
102
RTVSPost2010Prop44ColorRGB
 90
      255
102
RTVSPost2010PropOp44
 70
     1
102
RTVSPost2010Prop45
280
     0
102
RTVSPost2010PropOp45
 70
     1
102
RTVSPost2010Prop46
 90
       50
102
RTVSPost2010PropOp46
 70
     1
102
RTVSPost2010Prop47
 90
       50
102
RTVSPost2010PropOp47
 70
     1
102
RTVSPost2010Prop48
 90
       50
102
RTVSPost2010PropOp48
 70
     1
102
RTVSPost2010Prop49
280
     0
102
RTVSPost2010PropOp49
 70
     1
102
RTVSPost2010Prop50
 90
       50
102
RTVSPost2010PropOp50
 70
     1
102
RTVSPost2010Prop51ColorIndex
 90
      256
102
RTVSPost2010Prop51ColorRGB
 90
-16777216
102
RTVSPost2010PropOp51
 70
     0
102
RTVSPost2010Prop52
140
1.0
102
RTVSPost2010PropOp52
 70
     0
102
RTVSPost2010Prop53
 90
        2
102
RTVSPost2010PropOp53
 70
     1
102
RTVSPost2010Prop54
  1
strokes_ogs.tif
102
RTVSPost2010PropOp54
 70
     1
102
RTVSPost2010Prop55
280
     0
102
RTVSPost2010PropOp55
 70
     1
102
RTVSPost2010Prop56
140
1.0
102
RTVSPost2010PropOp56
 70
     1
102
RTVSPost2010Prop57
140
1.0
102
RTVSPost2010PropOp57
 70
     1
102
RTVSPropertyOp0
 70
     1
102
RTVSPropertyOp1
 70
     1
102
RTVSPropertyOp2
 70
     1
102
RTVSPropertyOp3
 70
     1
102
RTVSPropertyOp4
 70
     1
102
RTVSPropertyOp5
 70
     1
102
RTVSPropertyOp6
 70
     1
102
RTVSPropertyOp7
 70
     1
102
RTVSPropertyOp8
 70
     1
102
RTVSPropertyOp9
 70
     1
102
RTVSPropertyOp10
 70
     1
102
RTVSPropertyOp11
 70
     1
102
RTVSPropertyOp12
 70
     1
102
RTVSPropertyOp13
 70
     1
102
RTVSPropertyOp14
 70
     1
102
RTVSPropertyOp15
 70
     1
102
RTVSPropertyOp16
 70
     1
102
RTVSPropertyOp17
 70
     1
102
RTVSPropertyOp18
 70
     1
102
RTVSPropertyOp19
 70
     1
102
RTVSPropertyOp20
 70
     1
102
RTVSPropertyOp21
 70
     1
102
RTVSPropertyOp22
 70
     1
102
RTVSPropertyOp23
 70
     1
102
RTVSPropertyOp24
 70
     1
102
RTVSPropertyOp25
 70
     1
102
RTVSPropertyOp26
 70
     1
102
RTVSPropertyOp27
 70
     1
102
RTVSPropertyOp28
 70
     1
102
RTVSPropertyOp29
 70
     1
102
RTVSPropertyOp30
 70
     1
102
RTVSPropertyOp31
 70
     1
102
RTVSPropertyOp32
 70
     1
102
RTVSPropertyOp33
 70
     1
102
RTVSPropertyOp34
 70
     1
102
RTVSPropertyOp35
 70
     1
102
RTVSPropertyOp36
 70
     1
102
RTVSPropertyOp37
 70
     1
102
RTVSPropertyOp38
 70
     1
102
RTVSPropertyOp39
 70
     1
102
RTVSPropertyOp40
 70
     1
102
RTVSPropertyOp41
 70
     1
102
RTVSPropertyOp42
 70
     1
102
RTVSPropertyOp43
 70
     1
102
RTVSPropertyOp44
 70
     1
102
RTVSPropertyOp45
 70
     1
102
RTVSPropertyOp46
 70
     1
102
RTVSPropertyOp47
 70
     1
102
RTVSPropertyOp48
 70
     1
102
RTVSPropertyOp49
 70
     1
102
RTVSPropertyOp50
 70
     1
102
RTVSPropertyOp51
 70
     0
102
RTVSPropertyOp52
 70
     0
102
RTVSPropertyOp53
 70
     1
102
RTVSPropertyOp54
 70
     1
102
RTVSPropertyOp55
 70
     1
102
RTVSPropertyOp56
 70
     1
102
RTVSPropertyOp57
 70
     1
102
RTVSPropertyOp58
 70
     1
102
RTVSPropertyOp59
 70
     1
102
RTVSPropertyOp60
 70
     1
102
RTVSPropertyOp61
 70
     1
102
RTVSPropertyOp62
 70
     1
  0
XRECORD
  5
BF20
102
{ACAD_REACTORS
330
BF1F
102
}
330
BF1F
100
AcDbXrecord
280
     1
102
RTVSPost2010Prop28
280
     0
102
RTVSPost2010PropOp28
 70
     1
102
RTVSPost2010Prop29
280
     1
102
RTVSPost2010PropOp29
 70
     1
102
RTVSPost2010Prop30
280
     1
102
RTVSPost2010PropOp30
 70
     1
102
RTVSPost2010Prop31
280
     0
102
RTVSPost2010PropOp31
 70
     1
102
RTVSPost2010Prop32
280
     0
102
RTVSPost2010PropOp32
 70
     1
102
RTVSPost2010Prop33
280
     0
102
RTVSPost2010PropOp33
 70
     1
102
RTVSPost2010Prop34
280
     0
102
RTVSPost2010PropOp34
 70
     1
102
RTVSPost2010Prop35
280
     0
102
RTVSPost2010PropOp35
 70
     1
102
RTVSPost2010Prop36
280
     0
102
RTVSPost2010PropOp36
 70
     1
102
RTVSPost2010Prop37
 90
       50
102
RTVSPost2010PropOp37
 70
     1
102
RTVSPost2010Prop38
140
0.0
102
RTVSPost2010PropOp38
 70
     1
102
RTVSPost2010Prop39
140
1.0
102
RTVSPost2010PropOp39
 70
     1
102
RTVSPost2010Prop40
 90
        0
102
RTVSPost2010PropOp40
 70
     1
102
RTVSPost2010Prop41ColorIndex
 90
       18
102
RTVSPost2010Prop41ColorRGB
 90
        0
102
RTVSPost2010PropOp41
 70
     1
102
RTVSPost2010Prop42
 90
       50
102
RTVSPost2010PropOp42
 70
     1
102
RTVSPost2010Prop43
 90
        3
102
RTVSPost2010PropOp43
 70
     1
102
RTVSPost2010Prop44ColorIndex
 90
        5
102
RTVSPost2010Prop44ColorRGB
 90
      255
102
RTVSPost2010PropOp44
 70
     1
102
RTVSPost2010Prop45
280
     0
102
RTVSPost2010PropOp45
 70
     1
102
RTVSPost2010Prop46
 90
       50
102
RTVSPost2010PropOp46
 70
     1
102
RTVSPost2010Prop47
 90
       50
102
RTVSPost2010PropOp47
 70
     1
102
RTVSPost2010Prop48
 90
       50
102
RTVSPost2010PropOp48
 70
     1
102
RTVSPost2010Prop49
280
     0
102
RTVSPost2010PropOp49
 70
     1
102
RTVSPost2010Prop50
 90
       50
102
RTVSPost2010PropOp50
 70
     1
102
RTVSPost2010Prop51ColorIndex
 90
      256
102
RTVSPost2010Prop51ColorRGB
 90
-16777216
102
RTVSPost2010PropOp51
 70
     0
102
RTVSPost2010Prop52
140
1.0
102
RTVSPost2010PropOp52
 70
     0
102
RTVSPost2010Prop53
 90
        2
102
RTVSPost2010PropOp53
 70
     1
102
RTVSPost2010Prop54
  1
strokes_ogs.tif
102
RTVSPost2010PropOp54
 70
     1
102
RTVSPost2010Prop55
280
     0
102
RTVSPost2010PropOp55
 70
     1
102
RTVSPost2010Prop56
140
1.0
102
RTVSPost2010PropOp56
 70
     1
102
RTVSPost2010Prop57
140
1.0
102
RTVSPost2010PropOp57
 70
     1
102
RTVSPropertyOp0
 70
     1
102
RTVSPropertyOp1
 70
     1
102
RTVSPropertyOp2
 70
     1
102
RTVSPropertyOp3
 70
     1
102
RTVSPropertyOp4
 70
     1
102
RTVSPropertyOp5
 70
     1
102
RTVSPropertyOp6
 70
     1
102
RTVSPropertyOp7
 70
     1
102
RTVSPropertyOp8
 70
     1
102
RTVSPropertyOp9
 70
     1
102
RTVSPropertyOp10
 70
     1
102
RTVSPropertyOp11
 70
     1
102
RTVSPropertyOp12
 70
     1
102
RTVSPropertyOp13
 70
     1
102
RTVSPropertyOp14
 70
     1
102
RTVSPropertyOp15
 70
     1
102
RTVSPropertyOp16
 70
     1
102
RTVSPropertyOp17
 70
     1
102
RTVSPropertyOp18
 70
     1
102
RTVSPropertyOp19
 70
     1
102
RTVSPropertyOp20
 70
     1
102
RTVSPropertyOp21
 70
     1
102
RTVSPropertyOp22
 70
     1
102
RTVSPropertyOp23
 70
     1
102
RTVSPropertyOp24
 70
     1
102
RTVSPropertyOp25
 70
     1
102
RTVSPropertyOp26
 70
     1
102
RTVSPropertyOp27
 70
     1
102
RTVSPropertyOp28
 70
     1
102
RTVSPropertyOp29
 70
     1
102
RTVSPropertyOp30
 70
     1
102
RTVSPropertyOp31
 70
     1
102
RTVSPropertyOp32
 70
     1
102
RTVSPropertyOp33
 70
     1
102
RTVSPropertyOp34
 70
     1
102
RTVSPropertyOp35
 70
     1
102
RTVSPropertyOp36
 70
     1
102
RTVSPropertyOp37
 70
     1
102
RTVSPropertyOp38
 70
     1
102
RTVSPropertyOp39
 70
     1
102
RTVSPropertyOp40
 70
     1
102
RTVSPropertyOp41
 70
     1
102
RTVSPropertyOp42
 70
     1
102
RTVSPropertyOp43
 70
     1
102
RTVSPropertyOp44
 70
     1
102
RTVSPropertyOp45
 70
     1
102
RTVSPropertyOp46
 70
     1
102
RTVSPropertyOp47
 70
     1
102
RTVSPropertyOp48
 70
     1
102
RTVSPropertyOp49
 70
     1
102
RTVSPropertyOp50
 70
     1
102
RTVSPropertyOp51
 70
     0
102
RTVSPropertyOp52
 70
     0
102
RTVSPropertyOp53
 70
     1
102
RTVSPropertyOp54
 70
     1
102
RTVSPropertyOp55
 70
     1
102
RTVSPropertyOp56
 70
     1
102
RTVSPropertyOp57
 70
     1
102
RTVSPropertyOp58
 70
     1
102
RTVSPropertyOp59
 70
     1
102
RTVSPropertyOp60
 70
     1
102
RTVSPropertyOp61
 70
     1
102
RTVSPropertyOp62
 70
     1
  0
XRECORD
  5
BF3C
102
{ACAD_REACTORS
330
BF3B
102
}
330
BF3B
100
AcDbXrecord
280
     1
102
RTVSPost2010Prop28
280
     0
102
RTVSPost2010PropOp28
 70
     1
102
RTVSPost2010Prop29
280
     1
102
RTVSPost2010PropOp29
 70
     1
102
RTVSPost2010Prop30
280
     1
102
RTVSPost2010PropOp30
 70
     1
102
RTVSPost2010Prop31
280
     0
102
RTVSPost2010PropOp31
 70
     1
102
RTVSPost2010Prop32
280
     0
102
RTVSPost2010PropOp32
 70
     1
102
RTVSPost2010Prop33
280
     0
102
RTVSPost2010PropOp33
 70
     1
102
RTVSPost2010Prop34
280
     0
102
RTVSPost2010PropOp34
 70
     1
102
RTVSPost2010Prop35
280
     0
102
RTVSPost2010PropOp35
 70
     1
102
RTVSPost2010Prop36
280
     0
102
RTVSPost2010PropOp36
 70
     1
102
RTVSPost2010Prop37
 90
       50
102
RTVSPost2010PropOp37
 70
     0
102
RTVSPost2010Prop38
140
0.0
102
RTVSPost2010PropOp38
 70
     0
102
RTVSPost2010Prop39
140
1.0
102
RTVSPost2010PropOp39
 70
     0
102
RTVSPost2010Prop40
 90
        0
102
RTVSPost2010PropOp40
 70
     0
102
RTVSPost2010Prop41ColorIndex
 90
       18
102
RTVSPost2010Prop41ColorRGB
 90
        0
102
RTVSPost2010PropOp41
 70
     0
102
RTVSPost2010Prop42
 90
       50
102
RTVSPost2010PropOp42
 70
     0
102
RTVSPost2010Prop43
 90
        3
102
RTVSPost2010PropOp43
 70
     0
102
RTVSPost2010Prop44ColorIndex
 90
        5
102
RTVSPost2010Prop44ColorRGB
 90
      255
102
RTVSPost2010PropOp44
 70
     0
102
RTVSPost2010Prop45
280
     0
102
RTVSPost2010PropOp45
 70
     1
102
RTVSPost2010Prop46
 90
       50
102
RTVSPost2010PropOp46
 70
     0
102
RTVSPost2010Prop47
 90
       50
102
RTVSPost2010PropOp47
 70
     0
102
RTVSPost2010Prop48
 90
       50
102
RTVSPost2010PropOp48
 70
     0
102
RTVSPost2010Prop49
280
     0
102
RTVSPost2010PropOp49
 70
     1
102
RTVSPost2010Prop50
 90
       50
102
RTVSPost2010PropOp50
 70
     0
102
RTVSPost2010Prop51ColorIndex
 90
      256
102
RTVSPost2010Prop51ColorRGB
 90
-16777216
102
RTVSPost2010PropOp51
 70
     0
102
RTVSPost2010Prop52
140
1.0
102
RTVSPost2010PropOp52
 70
     0
102
RTVSPost2010Prop53
 90
        2
102
RTVSPost2010PropOp53
 70
     0
102
RTVSPost2010Prop54
  1
strokes_ogs.tif
102
RTVSPost2010PropOp54
 70
     0
102
RTVSPost2010Prop55
280
     0
102
RTVSPost2010PropOp55
 70
     1
102
RTVSPost2010Prop56
140
1.0
102
RTVSPost2010PropOp56
 70
     0
102
RTVSPost2010Prop57
140
1.0
102
RTVSPost2010PropOp57
 70
     0
102
RTVSPropertyOp0
 70
     0
102
RTVSPropertyOp1
 70
     0
102
RTVSPropertyOp2
 70
     0
102
RTVSPropertyOp3
 70
     0
102
RTVSPropertyOp4
 70
     0
102
RTVSPropertyOp5
 70
     0
102
RTVSPropertyOp6
 70
     0
102
RTVSPropertyOp7
 70
     0
102
RTVSPropertyOp8
 70
     0
102
RTVSPropertyOp9
 70
     0
102
RTVSPropertyOp10
 70
     0
102
RTVSPropertyOp11
 70
     0
102
RTVSPropertyOp12
 70
     0
102
RTVSPropertyOp13
 70
     0
102
RTVSPropertyOp14
 70
     2
102
RTVSPropertyOp15
 70
     0
102
RTVSPropertyOp16
 70
     0
102
RTVSPropertyOp17
 70
     0
102
RTVSPropertyOp18
 70
     0
102
RTVSPropertyOp19
 70
     0
102
RTVSPropertyOp20
 70
     0
102
RTVSPropertyOp21
 70
     0
102
RTVSPropertyOp22
 70
     0
102
RTVSPropertyOp23
 70
     0
102
RTVSPropertyOp24
 70
     0
102
RTVSPropertyOp25
 70
     0
102
RTVSPropertyOp26
 70
     0
102
RTVSPropertyOp27
 70
     0
102
RTVSPropertyOp28
 70
     1
102
RTVSPropertyOp29
 70
     1
102
RTVSPropertyOp30
 70
     1
102
RTVSPropertyOp31
 70
     1
102
RTVSPropertyOp32
 70
     1
102
RTVSPropertyOp33
 70
     1
102
RTVSPropertyOp34
 70
     1
102
RTVSPropertyOp35
 70
     1
102
RTVSPropertyOp36
 70
     1
102
RTVSPropertyOp37
 70
     0
102
RTVSPropertyOp38
 70
     0
102
RTVSPropertyOp39
 70
     0
102
RTVSPropertyOp40
 70
     0
102
RTVSPropertyOp41
 70
     0
102
RTVSPropertyOp42
 70
     0
102
RTVSPropertyOp43
 70
     0
102
RTVSPropertyOp44
 70
     0
102
RTVSPropertyOp45
 70
     1
102
RTVSPropertyOp46
 70
     0
102
RTVSPropertyOp47
 70
     0
102
RTVSPropertyOp48
 70
     0
102
RTVSPropertyOp49
 70
     1
102
RTVSPropertyOp50
 70
     0
102
RTVSPropertyOp51
 70
     0
102
RTVSPropertyOp52
 70
     0
102
RTVSPropertyOp53
 70
     0
102
RTVSPropertyOp54
 70
     0
102
RTVSPropertyOp55
 70
     1
102
RTVSPropertyOp56
 70
     0
102
RTVSPropertyOp57
 70
     0
102
RTVSPropertyOp58
 70
     0
102
RTVSPropertyOp59
 70
     0
102
RTVSPropertyOp60
 70
     0
102
RTVSPropertyOp61
 70
     0
102
RTVSPropertyOp62
 70
     0
  0
XRECORD
  5
BF2C
102
{ACAD_REACTORS
330
BF2B
102
}
330
BF2B
100
AcDbXrecord
280
     1
102
RTVSPost2010Prop28
280
     0
102
RTVSPost2010PropOp28
 70
     1
102
RTVSPost2010Prop29
280
     1
102
RTVSPost2010PropOp29
 70
     1
102
RTVSPost2010Prop30
280
     1
102
RTVSPost2010PropOp30
 70
     1
102
RTVSPost2010Prop31
280
     0
102
RTVSPost2010PropOp31
 70
     1
102
RTVSPost2010Prop32
280
     0
102
RTVSPost2010PropOp32
 70
     1
102
RTVSPost2010Prop33
280
     0
102
RTVSPost2010PropOp33
 70
     1
102
RTVSPost2010Prop34
280
     0
102
RTVSPost2010PropOp34
 70
     1
102
RTVSPost2010Prop35
280
     0
102
RTVSPost2010PropOp35
 70
     1
102
RTVSPost2010Prop36
280
     0
102
RTVSPost2010PropOp36
 70
     1
102
RTVSPost2010Prop37
 90
       50
102
RTVSPost2010PropOp37
 70
     1
102
RTVSPost2010Prop38
140
0.0
102
RTVSPost2010PropOp38
 70
     1
102
RTVSPost2010Prop39
140
1.0
102
RTVSPost2010PropOp39
 70
     1
102
RTVSPost2010Prop40
 90
        0
102
RTVSPost2010PropOp40
 70
     1
102
RTVSPost2010Prop41ColorIndex
 90
       18
102
RTVSPost2010Prop41ColorRGB
 90
        0
102
RTVSPost2010PropOp41
 70
     1
102
RTVSPost2010Prop42
 90
       50
102
RTVSPost2010PropOp42
 70
     1
102
RTVSPost2010Prop43
 90
        3
102
RTVSPost2010PropOp43
 70
     1
102
RTVSPost2010Prop44ColorIndex
 90
        5
102
RTVSPost2010Prop44ColorRGB
 90
      255
102
RTVSPost2010PropOp44
 70
     1
102
RTVSPost2010Prop45
280
     0
102
RTVSPost2010PropOp45
 70
     1
102
RTVSPost2010Prop46
 90
       50
102
RTVSPost2010PropOp46
 70
     1
102
RTVSPost2010Prop47
 90
       50
102
RTVSPost2010PropOp47
 70
     1
102
RTVSPost2010Prop48
 90
       50
102
RTVSPost2010PropOp48
 70
     1
102
RTVSPost2010Prop49
280
     0
102
RTVSPost2010PropOp49
 70
     1
102
RTVSPost2010Prop50
 90
       50
102
RTVSPost2010PropOp50
 70
     1
102
RTVSPost2010Prop51ColorIndex
 90
      256
102
RTVSPost2010Prop51ColorRGB
 90
-16777216
102
RTVSPost2010PropOp51
 70
     0
102
RTVSPost2010Prop52
140
1.0
102
RTVSPost2010PropOp52
 70
     0
102
RTVSPost2010Prop53
 90
        2
102
RTVSPost2010PropOp53
 70
     1
102
RTVSPost2010Prop54
  1
strokes_ogs.tif
102
RTVSPost2010PropOp54
 70
     1
102
RTVSPost2010Prop55
280
     0
102
RTVSPost2010PropOp55
 70
     1
102
RTVSPost2010Prop56
140
1.0
102
RTVSPost2010PropOp56
 70
     1
102
RTVSPost2010Prop57
140
1.0
102
RTVSPost2010PropOp57
 70
     1
102
RTVSPropertyOp0
 70
     1
102
RTVSPropertyOp1
 70
     1
102
RTVSPropertyOp2
 70
     1
102
RTVSPropertyOp3
 70
     1
102
RTVSPropertyOp4
 70
     1
102
RTVSPropertyOp5
 70
     1
102
RTVSPropertyOp6
 70
     1
102
RTVSPropertyOp7
 70
     1
102
RTVSPropertyOp8
 70
     1
102
RTVSPropertyOp9
 70
     1
102
RTVSPropertyOp10
 70
     1
102
RTVSPropertyOp11
 70
     1
102
RTVSPropertyOp12
 70
     1
102
RTVSPropertyOp13
 70
     1
102
RTVSPropertyOp14
 70
     1
102
RTVSPropertyOp15
 70
     1
102
RTVSPropertyOp16
 70
     1
102
RTVSPropertyOp17
 70
     1
102
RTVSPropertyOp18
 70
     1
102
RTVSPropertyOp19
 70
     1
102
RTVSPropertyOp20
 70
     1
102
RTVSPropertyOp21
 70
     1
102
RTVSPropertyOp22
 70
     1
102
RTVSPropertyOp23
 70
     1
102
RTVSPropertyOp24
 70
     1
102
RTVSPropertyOp25
 70
     1
102
RTVSPropertyOp26
 70
     1
102
RTVSPropertyOp27
 70
     1
102
RTVSPropertyOp28
 70
     1
102
RTVSPropertyOp29
 70
     1
102
RTVSPropertyOp30
 70
     1
102
RTVSPropertyOp31
 70
     1
102
RTVSPropertyOp32
 70
     1
102
RTVSPropertyOp33
 70
     1
102
RTVSPropertyOp34
 70
     1
102
RTVSPropertyOp35
 70
     1
102
RTVSPropertyOp36
 70
     1
102
RTVSPropertyOp37
 70
     1
102
RTVSPropertyOp38
 70
     1
102
RTVSPropertyOp39
 70
     1
102
RTVSPropertyOp40
 70
     1
102
RTVSPropertyOp41
 70
     1
102
RTVSPropertyOp42
 70
     1
102
RTVSPropertyOp43
 70
     1
102
RTVSPropertyOp44
 70
     1
102
RTVSPropertyOp45
 70
     1
102
RTVSPropertyOp46
 70
     1
102
RTVSPropertyOp47
 70
     1
102
RTVSPropertyOp48
 70
     1
102
RTVSPropertyOp49
 70
     1
102
RTVSPropertyOp50
 70
     1
102
RTVSPropertyOp51
 70
     0
102
RTVSPropertyOp52
 70
     0
102
RTVSPropertyOp53
 70
     1
102
RTVSPropertyOp54
 70
     1
102
RTVSPropertyOp55
 70
     1
102
RTVSPropertyOp56
 70
     1
102
RTVSPropertyOp57
 70
     1
102
RTVSPropertyOp58
 70
     1
102
RTVSPropertyOp59
 70
     1
102
RTVSPropertyOp60
 70
     1
102
RTVSPropertyOp61
 70
     1
102
RTVSPropertyOp62
 70
     1
  0
XRECORD
  5
BF3E
102
{ACAD_REACTORS
330
BF3D
102
}
330
BF3D
100
AcDbXrecord
280
     1
102
RTVSPost2010Prop28
280
     0
102
RTVSPost2010PropOp28
 70
     1
102
RTVSPost2010Prop29
280
     1
102
RTVSPost2010PropOp29
 70
     1
102
RTVSPost2010Prop30
280
     1
102
RTVSPost2010PropOp30
 70
     1
102
RTVSPost2010Prop31
280
     0
102
RTVSPost2010PropOp31
 70
     1
102
RTVSPost2010Prop32
280
     0
102
RTVSPost2010PropOp32
 70
     1
102
RTVSPost2010Prop33
280
     0
102
RTVSPost2010PropOp33
 70
     1
102
RTVSPost2010Prop34
280
     0
102
RTVSPost2010PropOp34
 70
     1
102
RTVSPost2010Prop35
280
     0
102
RTVSPost2010PropOp35
 70
     1
102
RTVSPost2010Prop36
280
     0
102
RTVSPost2010PropOp36
 70
     1
102
RTVSPost2010Prop37
 90
       50
102
RTVSPost2010PropOp37
 70
     0
102
RTVSPost2010Prop38
140
0.0
102
RTVSPost2010PropOp38
 70
     0
102
RTVSPost2010Prop39
140
1.0
102
RTVSPost2010PropOp39
 70
     0
102
RTVSPost2010Prop40
 90
        0
102
RTVSPost2010PropOp40
 70
     0
102
RTVSPost2010Prop41ColorIndex
 90
       18
102
RTVSPost2010Prop41ColorRGB
 90
        0
102
RTVSPost2010PropOp41
 70
     0
102
RTVSPost2010Prop42
 90
       50
102
RTVSPost2010PropOp42
 70
     0
102
RTVSPost2010Prop43
 90
        3
102
RTVSPost2010PropOp43
 70
     0
102
RTVSPost2010Prop44ColorIndex
 90
        5
102
RTVSPost2010Prop44ColorRGB
 90
      255
102
RTVSPost2010PropOp44
 70
     0
102
RTVSPost2010Prop45
280
     0
102
RTVSPost2010PropOp45
 70
     1
102
RTVSPost2010Prop46
 90
       50
102
RTVSPost2010PropOp46
 70
     0
102
RTVSPost2010Prop47
 90
       50
102
RTVSPost2010PropOp47
 70
     0
102
RTVSPost2010Prop48
 90
       50
102
RTVSPost2010PropOp48
 70
     0
102
RTVSPost2010Prop49
280
     0
102
RTVSPost2010PropOp49
 70
     1
102
RTVSPost2010Prop50
 90
       50
102
RTVSPost2010PropOp50
 70
     0
102
RTVSPost2010Prop51ColorIndex
 90
      256
102
RTVSPost2010Prop51ColorRGB
 90
-16777216
102
RTVSPost2010PropOp51
 70
     0
102
RTVSPost2010Prop52
140
1.0
102
RTVSPost2010PropOp52
 70
     0
102
RTVSPost2010Prop53
 90
        2
102
RTVSPost2010PropOp53
 70
     0
102
RTVSPost2010Prop54
  1
strokes_ogs.tif
102
RTVSPost2010PropOp54
 70
     0
102
RTVSPost2010Prop55
280
     0
102
RTVSPost2010PropOp55
 70
     1
102
RTVSPost2010Prop56
140
1.0
102
RTVSPost2010PropOp56
 70
     0
102
RTVSPost2010Prop57
140
1.0
102
RTVSPost2010PropOp57
 70
     0
102
RTVSPropertyOp0
 70
     0
102
RTVSPropertyOp1
 70
     0
102
RTVSPropertyOp2
 70
     0
102
RTVSPropertyOp3
 70
     0
102
RTVSPropertyOp4
 70
     0
102
RTVSPropertyOp5
 70
     0
102
RTVSPropertyOp6
 70
     0
102
RTVSPropertyOp7
 70
     0
102
RTVSPropertyOp8
 70
     0
102
RTVSPropertyOp9
 70
     0
102
RTVSPropertyOp10
 70
     0
102
RTVSPropertyOp11
 70
     0
102
RTVSPropertyOp12
 70
     0
102
RTVSPropertyOp13
 70
     0
102
RTVSPropertyOp14
 70
     2
102
RTVSPropertyOp15
 70
     0
102
RTVSPropertyOp16
 70
     0
102
RTVSPropertyOp17
 70
     0
102
RTVSPropertyOp18
 70
     0
102
RTVSPropertyOp19
 70
     0
102
RTVSPropertyOp20
 70
     0
102
RTVSPropertyOp21
 70
     0
102
RTVSPropertyOp22
 70
     0
102
RTVSPropertyOp23
 70
     0
102
RTVSPropertyOp24
 70
     0
102
RTVSPropertyOp25
 70
     0
102
RTVSPropertyOp26
 70
     0
102
RTVSPropertyOp27
 70
     0
102
RTVSPropertyOp28
 70
     1
102
RTVSPropertyOp29
 70
     1
102
RTVSPropertyOp30
 70
     1
102
RTVSPropertyOp31
 70
     1
102
RTVSPropertyOp32
 70
     1
102
RTVSPropertyOp33
 70
     1
102
RTVSPropertyOp34
 70
     1
102
RTVSPropertyOp35
 70
     1
102
RTVSPropertyOp36
 70
     1
102
RTVSPropertyOp37
 70
     0
102
RTVSPropertyOp38
 70
     0
102
RTVSPropertyOp39
 70
     0
102
RTVSPropertyOp40
 70
     0
102
RTVSPropertyOp41
 70
     0
102
RTVSPropertyOp42
 70
     0
102
RTVSPropertyOp43
 70
     0
102
RTVSPropertyOp44
 70
     0
102
RTVSPropertyOp45
 70
     1
102
RTVSPropertyOp46
 70
     0
102
RTVSPropertyOp47
 70
     0
102
RTVSPropertyOp48
 70
     0
102
RTVSPropertyOp49
 70
     1
102
RTVSPropertyOp50
 70
     0
102
RTVSPropertyOp51
 70
     0
102
RTVSPropertyOp52
 70
     0
102
RTVSPropertyOp53
 70
     0
102
RTVSPropertyOp54
 70
     0
102
RTVSPropertyOp55
 70
     1
102
RTVSPropertyOp56
 70
     0
102
RTVSPropertyOp57
 70
     0
102
RTVSPropertyOp58
 70
     0
102
RTVSPropertyOp59
 70
     0
102
RTVSPropertyOp60
 70
     0
102
RTVSPropertyOp61
 70
     0
102
RTVSPropertyOp62
 70
     0
  0
XRECORD
  5
BF24
102
{ACAD_REACTORS
330
BF23
102
}
330
BF23
100
AcDbXrecord
280
     1
102
RTVSPost2010Prop28
280
     0
102
RTVSPost2010PropOp28
 70
     1
102
RTVSPost2010Prop29
280
     1
102
RTVSPost2010PropOp29
 70
     1
102
RTVSPost2010Prop30
280
     1
102
RTVSPost2010PropOp30
 70
     1
102
RTVSPost2010Prop31
280
     0
102
RTVSPost2010PropOp31
 70
     1
102
RTVSPost2010Prop32
280
     0
102
RTVSPost2010PropOp32
 70
     1
102
RTVSPost2010Prop33
280
     0
102
RTVSPost2010PropOp33
 70
     1
102
RTVSPost2010Prop34
280
     0
102
RTVSPost2010PropOp34
 70
     1
102
RTVSPost2010Prop35
280
     0
102
RTVSPost2010PropOp35
 70
     1
102
RTVSPost2010Prop36
280
     0
102
RTVSPost2010PropOp36
 70
     1
102
RTVSPost2010Prop37
 90
       50
102
RTVSPost2010PropOp37
 70
     1
102
RTVSPost2010Prop38
140
0.0
102
RTVSPost2010PropOp38
 70
     1
102
RTVSPost2010Prop39
140
1.0
102
RTVSPost2010PropOp39
 70
     1
102
RTVSPost2010Prop40
 90
        0
102
RTVSPost2010PropOp40
 70
     1
102
RTVSPost2010Prop41ColorIndex
 90
       18
102
RTVSPost2010Prop41ColorRGB
 90
        0
102
RTVSPost2010PropOp41
 70
     1
102
RTVSPost2010Prop42
 90
       50
102
RTVSPost2010PropOp42
 70
     1
102
RTVSPost2010Prop43
 90
        3
102
RTVSPost2010PropOp43
 70
     1
102
RTVSPost2010Prop44ColorIndex
 90
        5
102
RTVSPost2010Prop44ColorRGB
 90
      255
102
RTVSPost2010PropOp44
 70
     1
102
RTVSPost2010Prop45
280
     0
102
RTVSPost2010PropOp45
 70
     1
102
RTVSPost2010Prop46
 90
       50
102
RTVSPost2010PropOp46
 70
     1
102
RTVSPost2010Prop47
 90
       50
102
RTVSPost2010PropOp47
 70
     1
102
RTVSPost2010Prop48
 90
       50
102
RTVSPost2010PropOp48
 70
     1
102
RTVSPost2010Prop49
280
     0
102
RTVSPost2010PropOp49
 70
     1
102
RTVSPost2010Prop50
 90
       50
102
RTVSPost2010PropOp50
 70
     1
102
RTVSPost2010Prop51ColorIndex
 90
      256
102
RTVSPost2010Prop51ColorRGB
 90
-16777216
102
RTVSPost2010PropOp51
 70
     0
102
RTVSPost2010Prop52
140
1.0
102
RTVSPost2010PropOp52
 70
     0
102
RTVSPost2010Prop53
 90
        2
102
RTVSPost2010PropOp53
 70
     1
102
RTVSPost2010Prop54
  1
strokes_ogs.tif
102
RTVSPost2010PropOp54
 70
     1
102
RTVSPost2010Prop55
280
     0
102
RTVSPost2010PropOp55
 70
     1
102
RTVSPost2010Prop56
140
1.0
102
RTVSPost2010PropOp56
 70
     1
102
RTVSPost2010Prop57
140
1.0
102
RTVSPost2010PropOp57
 70
     1
102
RTVSPropertyOp0
 70
     1
102
RTVSPropertyOp1
 70
     1
102
RTVSPropertyOp2
 70
     1
102
RTVSPropertyOp3
 70
     1
102
RTVSPropertyOp4
 70
     1
102
RTVSPropertyOp5
 70
     1
102
RTVSPropertyOp6
 70
     1
102
RTVSPropertyOp7
 70
     1
102
RTVSPropertyOp8
 70
     1
102
RTVSPropertyOp9
 70
     1
102
RTVSPropertyOp10
 70
     1
102
RTVSPropertyOp11
 70
     1
102
RTVSPropertyOp12
 70
     1
102
RTVSPropertyOp13
 70
     1
102
RTVSPropertyOp14
 70
     1
102
RTVSPropertyOp15
 70
     1
102
RTVSPropertyOp16
 70
     1
102
RTVSPropertyOp17
 70
     1
102
RTVSPropertyOp18
 70
     1
102
RTVSPropertyOp19
 70
     1
102
RTVSPropertyOp20
 70
     1
102
RTVSPropertyOp21
 70
     1
102
RTVSPropertyOp22
 70
     1
102
RTVSPropertyOp23
 70
     1
102
RTVSPropertyOp24
 70
     1
102
RTVSPropertyOp25
 70
     1
102
RTVSPropertyOp26
 70
     1
102
RTVSPropertyOp27
 70
     1
102
RTVSPropertyOp28
 70
     1
102
RTVSPropertyOp29
 70
     1
102
RTVSPropertyOp30
 70
     1
102
RTVSPropertyOp31
 70
     1
102
RTVSPropertyOp32
 70
     1
102
RTVSPropertyOp33
 70
     1
102
RTVSPropertyOp34
 70
     1
102
RTVSPropertyOp35
 70
     1
102
RTVSPropertyOp36
 70
     1
102
RTVSPropertyOp37
 70
     1
102
RTVSPropertyOp38
 70
     1
102
RTVSPropertyOp39
 70
     1
102
RTVSPropertyOp40
 70
     1
102
RTVSPropertyOp41
 70
     1
102
RTVSPropertyOp42
 70
     1
102
RTVSPropertyOp43
 70
     1
102
RTVSPropertyOp44
 70
     1
102
RTVSPropertyOp45
 70
     1
102
RTVSPropertyOp46
 70
     1
102
RTVSPropertyOp47
 70
     1
102
RTVSPropertyOp48
 70
     1
102
RTVSPropertyOp49
 70
     1
102
RTVSPropertyOp50
 70
     1
102
RTVSPropertyOp51
 70
     0
102
RTVSPropertyOp52
 70
     0
102
RTVSPropertyOp53
 70
     1
102
RTVSPropertyOp54
 70
     1
102
RTVSPropertyOp55
 70
     1
102
RTVSPropertyOp56
 70
     1
102
RTVSPropertyOp57
 70
     1
102
RTVSPropertyOp58
 70
     1
102
RTVSPropertyOp59
 70
     1
102
RTVSPropertyOp60
 70
     1
102
RTVSPropertyOp61
 70
     1
102
RTVSPropertyOp62
 70
     1
  0
XRECORD
  5
BF3A
102
{ACAD_REACTORS
330
BF39
102
}
330
BF39
100
AcDbXrecord
280
     1
102
RTVSPost2010Prop28
280
     0
102
RTVSPost2010PropOp28
 70
     1
102
RTVSPost2010Prop29
280
     1
102
RTVSPost2010PropOp29
 70
     1
102
RTVSPost2010Prop30
280
     1
102
RTVSPost2010PropOp30
 70
     1
102
RTVSPost2010Prop31
280
     0
102
RTVSPost2010PropOp31
 70
     1
102
RTVSPost2010Prop32
280
     0
102
RTVSPost2010PropOp32
 70
     1
102
RTVSPost2010Prop33
280
     0
102
RTVSPost2010PropOp33
 70
     1
102
RTVSPost2010Prop34
280
     0
102
RTVSPost2010PropOp34
 70
     1
102
RTVSPost2010Prop35
280
     0
102
RTVSPost2010PropOp35
 70
     1
102
RTVSPost2010Prop36
280
     0
102
RTVSPost2010PropOp36
 70
     1
102
RTVSPost2010Prop37
 90
       50
102
RTVSPost2010PropOp37
 70
     1
102
RTVSPost2010Prop38
140
0.0
102
RTVSPost2010PropOp38
 70
     1
102
RTVSPost2010Prop39
140
1.0
102
RTVSPost2010PropOp39
 70
     1
102
RTVSPost2010Prop40
 90
        0
102
RTVSPost2010PropOp40
 70
     1
102
RTVSPost2010Prop41ColorIndex
 90
       18
102
RTVSPost2010Prop41ColorRGB
 90
        0
102
RTVSPost2010PropOp41
 70
     1
102
RTVSPost2010Prop42
 90
       50
102
RTVSPost2010PropOp42
 70
     1
102
RTVSPost2010Prop43
 90
        3
102
RTVSPost2010PropOp43
 70
     1
102
RTVSPost2010Prop44ColorIndex
 90
        5
102
RTVSPost2010Prop44ColorRGB
 90
      255
102
RTVSPost2010PropOp44
 70
     1
102
RTVSPost2010Prop45
280
     0
102
RTVSPost2010PropOp45
 70
     1
102
RTVSPost2010Prop46
 90
       50
102
RTVSPost2010PropOp46
 70
     1
102
RTVSPost2010Prop47
 90
       50
102
RTVSPost2010PropOp47
 70
     1
102
RTVSPost2010Prop48
 90
       50
102
RTVSPost2010PropOp48
 70
     1
102
RTVSPost2010Prop49
280
     0
102
RTVSPost2010PropOp49
 70
     1
102
RTVSPost2010Prop50
 90
       50
102
RTVSPost2010PropOp50
 70
     1
102
RTVSPost2010Prop51ColorIndex
 90
      256
102
RTVSPost2010Prop51ColorRGB
 90
-16777216
102
RTVSPost2010PropOp51
 70
     0
102
RTVSPost2010Prop52
140
1.0
102
RTVSPost2010PropOp52
 70
     0
102
RTVSPost2010Prop53
 90
        2
102
RTVSPost2010PropOp53
 70
     1
102
RTVSPost2010Prop54
  1
strokes_ogs.tif
102
RTVSPost2010PropOp54
 70
     1
102
RTVSPost2010Prop55
280
     0
102
RTVSPost2010PropOp55
 70
     1
102
RTVSPost2010Prop56
140
1.0
102
RTVSPost2010PropOp56
 70
     1
102
RTVSPost2010Prop57
140
1.0
102
RTVSPost2010PropOp57
 70
     1
102
RTVSPropertyOp0
 70
     1
102
RTVSPropertyOp1
 70
     1
102
RTVSPropertyOp2
 70
     1
102
RTVSPropertyOp3
 70
     1
102
RTVSPropertyOp4
 70
     1
102
RTVSPropertyOp5
 70
     1
102
RTVSPropertyOp6
 70
     1
102
RTVSPropertyOp7
 70
     1
102
RTVSPropertyOp8
 70
     1
102
RTVSPropertyOp9
 70
     1
102
RTVSPropertyOp10
 70
     1
102
RTVSPropertyOp11
 70
     1
102
RTVSPropertyOp12
 70
     1
102
RTVSPropertyOp13
 70
     1
102
RTVSPropertyOp14
 70
     1
102
RTVSPropertyOp15
 70
     1
102
RTVSPropertyOp16
 70
     1
102
RTVSPropertyOp17
 70
     1
102
RTVSPropertyOp18
 70
     1
102
RTVSPropertyOp19
 70
     1
102
RTVSPropertyOp20
 70
     1
102
RTVSPropertyOp21
 70
     1
102
RTVSPropertyOp22
 70
     1
102
RTVSPropertyOp23
 70
     1
102
RTVSPropertyOp24
 70
     1
102
RTVSPropertyOp25
 70
     1
102
RTVSPropertyOp26
 70
     1
102
RTVSPropertyOp27
 70
     1
102
RTVSPropertyOp28
 70
     1
102
RTVSPropertyOp29
 70
     1
102
RTVSPropertyOp30
 70
     1
102
RTVSPropertyOp31
 70
     1
102
RTVSPropertyOp32
 70
     1
102
RTVSPropertyOp33
 70
     1
102
RTVSPropertyOp34
 70
     1
102
RTVSPropertyOp35
 70
     1
102
RTVSPropertyOp36
 70
     1
102
RTVSPropertyOp37
 70
     1
102
RTVSPropertyOp38
 70
     1
102
RTVSPropertyOp39
 70
     1
102
RTVSPropertyOp40
 70
     1
102
RTVSPropertyOp41
 70
     1
102
RTVSPropertyOp42
 70
     1
102
RTVSPropertyOp43
 70
     1
102
RTVSPropertyOp44
 70
     1
102
RTVSPropertyOp45
 70
     1
102
RTVSPropertyOp46
 70
     1
102
RTVSPropertyOp47
 70
     1
102
RTVSPropertyOp48
 70
     1
102
RTVSPropertyOp49
 70
     1
102
RTVSPropertyOp50
 70
     1
102
RTVSPropertyOp51
 70
     0
102
RTVSPropertyOp52
 70
     0
102
RTVSPropertyOp53
 70
     1
102
RTVSPropertyOp54
 70
     1
102
RTVSPropertyOp55
 70
     1
102
RTVSPropertyOp56
 70
     1
102
RTVSPropertyOp57
 70
     1
102
RTVSPropertyOp58
 70
     1
102
RTVSPropertyOp59
 70
     1
102
RTVSPropertyOp60
 70
     1
102
RTVSPropertyOp61
 70
     1
102
RTVSPropertyOp62
 70
     1
  0
XRECORD
  5
BF38
102
{ACAD_REACTORS
330
BF37
102
}
330
BF37
100
AcDbXrecord
280
     1
102
RTVSPost2010Prop28
280
     0
102
RTVSPost2010PropOp28
 70
     1
102
RTVSPost2010Prop29
280
     1
102
RTVSPost2010PropOp29
 70
     1
102
RTVSPost2010Prop30
280
     1
102
RTVSPost2010PropOp30
 70
     1
102
RTVSPost2010Prop31
280
     0
102
RTVSPost2010PropOp31
 70
     1
102
RTVSPost2010Prop32
280
     0
102
RTVSPost2010PropOp32
 70
     1
102
RTVSPost2010Prop33
280
     0
102
RTVSPost2010PropOp33
 70
     1
102
RTVSPost2010Prop34
280
     0
102
RTVSPost2010PropOp34
 70
     1
102
RTVSPost2010Prop35
280
     0
102
RTVSPost2010PropOp35
 70
     1
102
RTVSPost2010Prop36
280
     0
102
RTVSPost2010PropOp36
 70
     1
102
RTVSPost2010Prop37
 90
       50
102
RTVSPost2010PropOp37
 70
     1
102
RTVSPost2010Prop38
140
0.0
102
RTVSPost2010PropOp38
 70
     1
102
RTVSPost2010Prop39
140
1.0
102
RTVSPost2010PropOp39
 70
     1
102
RTVSPost2010Prop40
 90
        0
102
RTVSPost2010PropOp40
 70
     1
102
RTVSPost2010Prop41ColorIndex
 90
       18
102
RTVSPost2010Prop41ColorRGB
 90
        0
102
RTVSPost2010PropOp41
 70
     1
102
RTVSPost2010Prop42
 90
       50
102
RTVSPost2010PropOp42
 70
     1
102
RTVSPost2010Prop43
 90
        3
102
RTVSPost2010PropOp43
 70
     1
102
RTVSPost2010Prop44ColorIndex
 90
        5
102
RTVSPost2010Prop44ColorRGB
 90
      255
102
RTVSPost2010PropOp44
 70
     1
102
RTVSPost2010Prop45
280
     0
102
RTVSPost2010PropOp45
 70
     1
102
RTVSPost2010Prop46
 90
       50
102
RTVSPost2010PropOp46
 70
     1
102
RTVSPost2010Prop47
 90
       50
102
RTVSPost2010PropOp47
 70
     1
102
RTVSPost2010Prop48
 90
       50
102
RTVSPost2010PropOp48
 70
     1
102
RTVSPost2010Prop49
280
     0
102
RTVSPost2010PropOp49
 70
     1
102
RTVSPost2010Prop50
 90
       50
102
RTVSPost2010PropOp50
 70
     1
102
RTVSPost2010Prop51ColorIndex
 90
      256
102
RTVSPost2010Prop51ColorRGB
 90
-16777216
102
RTVSPost2010PropOp51
 70
     0
102
RTVSPost2010Prop52
140
1.0
102
RTVSPost2010PropOp52
 70
     0
102
RTVSPost2010Prop53
 90
        2
102
RTVSPost2010PropOp53
 70
     1
102
RTVSPost2010Prop54
  1
strokes_ogs.tif
102
RTVSPost2010PropOp54
 70
     1
102
RTVSPost2010Prop55
280
     0
102
RTVSPost2010PropOp55
 70
     1
102
RTVSPost2010Prop56
140
1.0
102
RTVSPost2010PropOp56
 70
     1
102
RTVSPost2010Prop57
140
1.0
102
RTVSPost2010PropOp57
 70
     1
102
RTVSPropertyOp0
 70
     1
102
RTVSPropertyOp1
 70
     1
102
RTVSPropertyOp2
 70
     1
102
RTVSPropertyOp3
 70
     1
102
RTVSPropertyOp4
 70
     1
102
RTVSPropertyOp5
 70
     1
102
RTVSPropertyOp6
 70
     1
102
RTVSPropertyOp7
 70
     1
102
RTVSPropertyOp8
 70
     1
102
RTVSPropertyOp9
 70
     1
102
RTVSPropertyOp10
 70
     1
102
RTVSPropertyOp11
 70
     1
102
RTVSPropertyOp12
 70
     1
102
RTVSPropertyOp13
 70
     1
102
RTVSPropertyOp14
 70
     1
102
RTVSPropertyOp15
 70
     1
102
RTVSPropertyOp16
 70
     1
102
RTVSPropertyOp17
 70
     1
102
RTVSPropertyOp18
 70
     1
102
RTVSPropertyOp19
 70
     1
102
RTVSPropertyOp20
 70
     1
102
RTVSPropertyOp21
 70
     1
102
RTVSPropertyOp22
 70
     1
102
RTVSPropertyOp23
 70
     1
102
RTVSPropertyOp24
 70
     1
102
RTVSPropertyOp25
 70
     1
102
RTVSPropertyOp26
 70
     1
102
RTVSPropertyOp27
 70
     1
102
RTVSPropertyOp28
 70
     1
102
RTVSPropertyOp29
 70
     1
102
RTVSPropertyOp30
 70
     1
102
RTVSPropertyOp31
 70
     1
102
RTVSPropertyOp32
 70
     1
102
RTVSPropertyOp33
 70
     1
102
RTVSPropertyOp34
 70
     1
102
RTVSPropertyOp35
 70
     1
102
RTVSPropertyOp36
 70
     1
102
RTVSPropertyOp37
 70
     1
102
RTVSPropertyOp38
 70
     1
102
RTVSPropertyOp39
 70
     1
102
RTVSPropertyOp40
 70
     1
102
RTVSPropertyOp41
 70
     1
102
RTVSPropertyOp42
 70
     1
102
RTVSPropertyOp43
 70
     1
102
RTVSPropertyOp44
 70
     1
102
RTVSPropertyOp45
 70
     1
102
RTVSPropertyOp46
 70
     1
102
RTVSPropertyOp47
 70
     1
102
RTVSPropertyOp48
 70
     1
102
RTVSPropertyOp49
 70
     1
102
RTVSPropertyOp50
 70
     1
102
RTVSPropertyOp51
 70
     0
102
RTVSPropertyOp52
 70
     0
102
RTVSPropertyOp53
 70
     1
102
RTVSPropertyOp54
 70
     1
102
RTVSPropertyOp55
 70
     1
102
RTVSPropertyOp56
 70
     1
102
RTVSPropertyOp57
 70
     1
102
RTVSPropertyOp58
 70
     1
102
RTVSPropertyOp59
 70
     1
102
RTVSPropertyOp60
 70
     1
102
RTVSPropertyOp61
 70
     1
102
RTVSPropertyOp62
 70
     1
  0
XRECORD
  5
BF32
102
{ACAD_REACTORS
330
BF31
102
}
330
BF31
100
AcDbXrecord
280
     1
102
RTVSPost2010Prop28
280
     0
102
RTVSPost2010PropOp28
 70
     1
102
RTVSPost2010Prop29
280
     1
102
RTVSPost2010PropOp29
 70
     1
102
RTVSPost2010Prop30
280
     1
102
RTVSPost2010PropOp30
 70
     1
102
RTVSPost2010Prop31
280
     0
102
RTVSPost2010PropOp31
 70
     1
102
RTVSPost2010Prop32
280
     0
102
RTVSPost2010PropOp32
 70
     1
102
RTVSPost2010Prop33
280
     0
102
RTVSPost2010PropOp33
 70
     1
102
RTVSPost2010Prop34
280
     0
102
RTVSPost2010PropOp34
 70
     1
102
RTVSPost2010Prop35
280
     0
102
RTVSPost2010PropOp35
 70
     1
102
RTVSPost2010Prop36
280
     0
102
RTVSPost2010PropOp36
 70
     1
102
RTVSPost2010Prop37
 90
       50
102
RTVSPost2010PropOp37
 70
     1
102
RTVSPost2010Prop38
140
0.0
102
RTVSPost2010PropOp38
 70
     1
102
RTVSPost2010Prop39
140
1.0
102
RTVSPost2010PropOp39
 70
     1
102
RTVSPost2010Prop40
 90
        0
102
RTVSPost2010PropOp40
 70
     1
102
RTVSPost2010Prop41ColorIndex
 90
       18
102
RTVSPost2010Prop41ColorRGB
 90
        0
102
RTVSPost2010PropOp41
 70
     1
102
RTVSPost2010Prop42
 90
       50
102
RTVSPost2010PropOp42
 70
     1
102
RTVSPost2010Prop43
 90
        3
102
RTVSPost2010PropOp43
 70
     1
102
RTVSPost2010Prop44ColorIndex
 90
        5
102
RTVSPost2010Prop44ColorRGB
 90
      255
102
RTVSPost2010PropOp44
 70
     1
102
RTVSPost2010Prop45
280
     0
102
RTVSPost2010PropOp45
 70
     1
102
RTVSPost2010Prop46
 90
       50
102
RTVSPost2010PropOp46
 70
     1
102
RTVSPost2010Prop47
 90
       50
102
RTVSPost2010PropOp47
 70
     1
102
RTVSPost2010Prop48
 90
       50
102
RTVSPost2010PropOp48
 70
     1
102
RTVSPost2010Prop49
280
     0
102
RTVSPost2010PropOp49
 70
     1
102
RTVSPost2010Prop50
 90
       50
102
RTVSPost2010PropOp50
 70
     1
102
RTVSPost2010Prop51ColorIndex
 90
      256
102
RTVSPost2010Prop51ColorRGB
 90
-16777216
102
RTVSPost2010PropOp51
 70
     0
102
RTVSPost2010Prop52
140
1.0
102
RTVSPost2010PropOp52
 70
     0
102
RTVSPost2010Prop53
 90
        2
102
RTVSPost2010PropOp53
 70
     1
102
RTVSPost2010Prop54
  1
strokes_ogs.tif
102
RTVSPost2010PropOp54
 70
     1
102
RTVSPost2010Prop55
280
     0
102
RTVSPost2010PropOp55
 70
     1
102
RTVSPost2010Prop56
140
1.0
102
RTVSPost2010PropOp56
 70
     1
102
RTVSPost2010Prop57
140
1.0
102
RTVSPost2010PropOp57
 70
     1
102
RTVSPropertyOp0
 70
     1
102
RTVSPropertyOp1
 70
     1
102
RTVSPropertyOp2
 70
     1
102
RTVSPropertyOp3
 70
     1
102
RTVSPropertyOp4
 70
     1
102
RTVSPropertyOp5
 70
     1
102
RTVSPropertyOp6
 70
     1
102
RTVSPropertyOp7
 70
     1
102
RTVSPropertyOp8
 70
     1
102
RTVSPropertyOp9
 70
     1
102
RTVSPropertyOp10
 70
     1
102
RTVSPropertyOp11
 70
     1
102
RTVSPropertyOp12
 70
     1
102
RTVSPropertyOp13
 70
     1
102
RTVSPropertyOp14
 70
     1
102
RTVSPropertyOp15
 70
     1
102
RTVSPropertyOp16
 70
     1
102
RTVSPropertyOp17
 70
     1
102
RTVSPropertyOp18
 70
     1
102
RTVSPropertyOp19
 70
     1
102
RTVSPropertyOp20
 70
     1
102
RTVSPropertyOp21
 70
     1
102
RTVSPropertyOp22
 70
     1
102
RTVSPropertyOp23
 70
     1
102
RTVSPropertyOp24
 70
     1
102
RTVSPropertyOp25
 70
     1
102
RTVSPropertyOp26
 70
     1
102
RTVSPropertyOp27
 70
     1
102
RTVSPropertyOp28
 70
     1
102
RTVSPropertyOp29
 70
     1
102
RTVSPropertyOp30
 70
     1
102
RTVSPropertyOp31
 70
     1
102
RTVSPropertyOp32
 70
     1
102
RTVSPropertyOp33
 70
     1
102
RTVSPropertyOp34
 70
     1
102
RTVSPropertyOp35
 70
     1
102
RTVSPropertyOp36
 70
     1
102
RTVSPropertyOp37
 70
     1
102
RTVSPropertyOp38
 70
     1
102
RTVSPropertyOp39
 70
     1
102
RTVSPropertyOp40
 70
     1
102
RTVSPropertyOp41
 70
     1
102
RTVSPropertyOp42
 70
     1
102
RTVSPropertyOp43
 70
     1
102
RTVSPropertyOp44
 70
     1
102
RTVSPropertyOp45
 70
     1
102
RTVSPropertyOp46
 70
     1
102
RTVSPropertyOp47
 70
     1
102
RTVSPropertyOp48
 70
     1
102
RTVSPropertyOp49
 70
     1
102
RTVSPropertyOp50
 70
     1
102
RTVSPropertyOp51
 70
     0
102
RTVSPropertyOp52
 70
     0
102
RTVSPropertyOp53
 70
     1
102
RTVSPropertyOp54
 70
     1
102
RTVSPropertyOp55
 70
     1
102
RTVSPropertyOp56
 70
     1
102
RTVSPropertyOp57
 70
     1
102
RTVSPropertyOp58
 70
     1
102
RTVSPropertyOp59
 70
     1
102
RTVSPropertyOp60
 70
     1
102
RTVSPropertyOp61
 70
     1
102
RTVSPropertyOp62
 70
     1
  0
XRECORD
  5
BF34
102
{ACAD_REACTORS
330
BF33
102
}
330
BF33
100
AcDbXrecord
280
     1
102
RTVSPost2010Prop28
280
     0
102
RTVSPost2010PropOp28
 70
     1
102
RTVSPost2010Prop29
280
     1
102
RTVSPost2010PropOp29
 70
     1
102
RTVSPost2010Prop30
280
     1
102
RTVSPost2010PropOp30
 70
     1
102
RTVSPost2010Prop31
280
     0
102
RTVSPost2010PropOp31
 70
     1
102
RTVSPost2010Prop32
280
     0
102
RTVSPost2010PropOp32
 70
     1
102
RTVSPost2010Prop33
280
     0
102
RTVSPost2010PropOp33
 70
     1
102
RTVSPost2010Prop34
280
     0
102
RTVSPost2010PropOp34
 70
     1
102
RTVSPost2010Prop35
280
     0
102
RTVSPost2010PropOp35
 70
     1
102
RTVSPost2010Prop36
280
     0
102
RTVSPost2010PropOp36
 70
     1
102
RTVSPost2010Prop37
 90
       50
102
RTVSPost2010PropOp37
 70
     1
102
RTVSPost2010Prop38
140
0.0
102
RTVSPost2010PropOp38
 70
     1
102
RTVSPost2010Prop39
140
1.0
102
RTVSPost2010PropOp39
 70
     1
102
RTVSPost2010Prop40
 90
        0
102
RTVSPost2010PropOp40
 70
     1
102
RTVSPost2010Prop41ColorIndex
 90
       18
102
RTVSPost2010Prop41ColorRGB
 90
        0
102
RTVSPost2010PropOp41
 70
     1
102
RTVSPost2010Prop42
 90
       50
102
RTVSPost2010PropOp42
 70
     1
102
RTVSPost2010Prop43
 90
        3
102
RTVSPost2010PropOp43
 70
     1
102
RTVSPost2010Prop44ColorIndex
 90
        5
102
RTVSPost2010Prop44ColorRGB
 90
      255
102
RTVSPost2010PropOp44
 70
     1
102
RTVSPost2010Prop45
280
     0
102
RTVSPost2010PropOp45
 70
     1
102
RTVSPost2010Prop46
 90
       50
102
RTVSPost2010PropOp46
 70
     1
102
RTVSPost2010Prop47
 90
       50
102
RTVSPost2010PropOp47
 70
     1
102
RTVSPost2010Prop48
 90
       50
102
RTVSPost2010PropOp48
 70
     1
102
RTVSPost2010Prop49
280
     0
102
RTVSPost2010PropOp49
 70
     1
102
RTVSPost2010Prop50
 90
       50
102
RTVSPost2010PropOp50
 70
     1
102
RTVSPost2010Prop51ColorIndex
 90
      256
102
RTVSPost2010Prop51ColorRGB
 90
-16777216
102
RTVSPost2010PropOp51
 70
     0
102
RTVSPost2010Prop52
140
1.0
102
RTVSPost2010PropOp52
 70
     0
102
RTVSPost2010Prop53
 90
        2
102
RTVSPost2010PropOp53
 70
     1
102
RTVSPost2010Prop54
  1
strokes_ogs.tif
102
RTVSPost2010PropOp54
 70
     1
102
RTVSPost2010Prop55
280
     0
102
RTVSPost2010PropOp55
 70
     1
102
RTVSPost2010Prop56
140
1.0
102
RTVSPost2010PropOp56
 70
     1
102
RTVSPost2010Prop57
140
1.0
102
RTVSPost2010PropOp57
 70
     1
102
RTVSPropertyOp0
 70
     1
102
RTVSPropertyOp1
 70
     1
102
RTVSPropertyOp2
 70
     1
102
RTVSPropertyOp3
 70
     1
102
RTVSPropertyOp4
 70
     1
102
RTVSPropertyOp5
 70
     1
102
RTVSPropertyOp6
 70
     1
102
RTVSPropertyOp7
 70
     1
102
RTVSPropertyOp8
 70
     1
102
RTVSPropertyOp9
 70
     1
102
RTVSPropertyOp10
 70
     1
102
RTVSPropertyOp11
 70
     1
102
RTVSPropertyOp12
 70
     1
102
RTVSPropertyOp13
 70
     1
102
RTVSPropertyOp14
 70
     1
102
RTVSPropertyOp15
 70
     1
102
RTVSPropertyOp16
 70
     1
102
RTVSPropertyOp17
 70
     1
102
RTVSPropertyOp18
 70
     1
102
RTVSPropertyOp19
 70
     1
102
RTVSPropertyOp20
 70
     1
102
RTVSPropertyOp21
 70
     1
102
RTVSPropertyOp22
 70
     1
102
RTVSPropertyOp23
 70
     1
102
RTVSPropertyOp24
 70
     1
102
RTVSPropertyOp25
 70
     1
102
RTVSPropertyOp26
 70
     1
102
RTVSPropertyOp27
 70
     1
102
RTVSPropertyOp28
 70
     1
102
RTVSPropertyOp29
 70
     1
102
RTVSPropertyOp30
 70
     1
102
RTVSPropertyOp31
 70
     1
102
RTVSPropertyOp32
 70
     1
102
RTVSPropertyOp33
 70
     1
102
RTVSPropertyOp34
 70
     1
102
RTVSPropertyOp35
 70
     1
102
RTVSPropertyOp36
 70
     1
102
RTVSPropertyOp37
 70
     1
102
RTVSPropertyOp38
 70
     1
102
RTVSPropertyOp39
 70
     1
102
RTVSPropertyOp40
 70
     1
102
RTVSPropertyOp41
 70
     1
102
RTVSPropertyOp42
 70
     1
102
RTVSPropertyOp43
 70
     1
102
RTVSPropertyOp44
 70
     1
102
RTVSPropertyOp45
 70
     1
102
RTVSPropertyOp46
 70
     1
102
RTVSPropertyOp47
 70
     1
102
RTVSPropertyOp48
 70
     1
102
RTVSPropertyOp49
 70
     1
102
RTVSPropertyOp50
 70
     1
102
RTVSPropertyOp51
 70
     0
102
RTVSPropertyOp52
 70
     0
102
RTVSPropertyOp53
 70
     1
102
RTVSPropertyOp54
 70
     1
102
RTVSPropertyOp55
 70
     1
102
RTVSPropertyOp56
 70
     1
102
RTVSPropertyOp57
 70
     1
102
RTVSPropertyOp58
 70
     1
102
RTVSPropertyOp59
 70
     1
102
RTVSPropertyOp60
 70
     1
102
RTVSPropertyOp61
 70
     1
102
RTVSPropertyOp62
 70
     1
  0
XRECORD
  5
BF2A
102
{ACAD_REACTORS
330
BF29
102
}
330
BF29
100
AcDbXrecord
280
     1
102
RTVSPost2010Prop28
280
     0
102
RTVSPost2010PropOp28
 70
     1
102
RTVSPost2010Prop29
280
     1
102
RTVSPost2010PropOp29
 70
     1
102
RTVSPost2010Prop30
280
     1
102
RTVSPost2010PropOp30
 70
     1
102
RTVSPost2010Prop31
280
     0
102
RTVSPost2010PropOp31
 70
     1
102
RTVSPost2010Prop32
280
     0
102
RTVSPost2010PropOp32
 70
     1
102
RTVSPost2010Prop33
280
     0
102
RTVSPost2010PropOp33
 70
     1
102
RTVSPost2010Prop34
280
     0
102
RTVSPost2010PropOp34
 70
     1
102
RTVSPost2010Prop35
280
     0
102
RTVSPost2010PropOp35
 70
     1
102
RTVSPost2010Prop36
280
     0
102
RTVSPost2010PropOp36
 70
     1
102
RTVSPost2010Prop37
 90
       50
102
RTVSPost2010PropOp37
 70
     1
102
RTVSPost2010Prop38
140
0.0
102
RTVSPost2010PropOp38
 70
     1
102
RTVSPost2010Prop39
140
1.0
102
RTVSPost2010PropOp39
 70
     1
102
RTVSPost2010Prop40
 90
        0
102
RTVSPost2010PropOp40
 70
     1
102
RTVSPost2010Prop41ColorIndex
 90
       18
102
RTVSPost2010Prop41ColorRGB
 90
        0
102
RTVSPost2010PropOp41
 70
     1
102
RTVSPost2010Prop42
 90
       50
102
RTVSPost2010PropOp42
 70
     1
102
RTVSPost2010Prop43
 90
        3
102
RTVSPost2010PropOp43
 70
     1
102
RTVSPost2010Prop44ColorIndex
 90
        5
102
RTVSPost2010Prop44ColorRGB
 90
      255
102
RTVSPost2010PropOp44
 70
     1
102
RTVSPost2010Prop45
280
     0
102
RTVSPost2010PropOp45
 70
     1
102
RTVSPost2010Prop46
 90
       50
102
RTVSPost2010PropOp46
 70
     1
102
RTVSPost2010Prop47
 90
       50
102
RTVSPost2010PropOp47
 70
     1
102
RTVSPost2010Prop48
 90
       50
102
RTVSPost2010PropOp48
 70
     1
102
RTVSPost2010Prop49
280
     0
102
RTVSPost2010PropOp49
 70
     1
102
RTVSPost2010Prop50
 90
       50
102
RTVSPost2010PropOp50
 70
     1
102
RTVSPost2010Prop51ColorIndex
 90
      256
102
RTVSPost2010Prop51ColorRGB
 90
-16777216
102
RTVSPost2010PropOp51
 70
     0
102
RTVSPost2010Prop52
140
1.0
102
RTVSPost2010PropOp52
 70
     0
102
RTVSPost2010Prop53
 90
        2
102
RTVSPost2010PropOp53
 70
     1
102
RTVSPost2010Prop54
  1
strokes_ogs.tif
102
RTVSPost2010PropOp54
 70
     1
102
RTVSPost2010Prop55
280
     0
102
RTVSPost2010PropOp55
 70
     1
102
RTVSPost2010Prop56
140
1.0
102
RTVSPost2010PropOp56
 70
     1
102
RTVSPost2010Prop57
140
1.0
102
RTVSPost2010PropOp57
 70
     1
102
RTVSPropertyOp0
 70
     1
102
RTVSPropertyOp1
 70
     1
102
RTVSPropertyOp2
 70
     1
102
RTVSPropertyOp3
 70
     1
102
RTVSPropertyOp4
 70
     1
102
RTVSPropertyOp5
 70
     1
102
RTVSPropertyOp6
 70
     1
102
RTVSPropertyOp7
 70
     1
102
RTVSPropertyOp8
 70
     1
102
RTVSPropertyOp9
 70
     1
102
RTVSPropertyOp10
 70
     1
102
RTVSPropertyOp11
 70
     1
102
RTVSPropertyOp12
 70
     1
102
RTVSPropertyOp13
 70
     1
102
RTVSPropertyOp14
 70
     1
102
RTVSPropertyOp15
 70
     1
102
RTVSPropertyOp16
 70
     1
102
RTVSPropertyOp17
 70
     1
102
RTVSPropertyOp18
 70
     1
102
RTVSPropertyOp19
 70
     1
102
RTVSPropertyOp20
 70
     1
102
RTVSPropertyOp21
 70
     1
102
RTVSPropertyOp22
 70
     1
102
RTVSPropertyOp23
 70
     1
102
RTVSPropertyOp24
 70
     1
102
RTVSPropertyOp25
 70
     1
102
RTVSPropertyOp26
 70
     1
102
RTVSPropertyOp27
 70
     1
102
RTVSPropertyOp28
 70
     1
102
RTVSPropertyOp29
 70
     1
102
RTVSPropertyOp30
 70
     1
102
RTVSPropertyOp31
 70
     1
102
RTVSPropertyOp32
 70
     1
102
RTVSPropertyOp33
 70
     1
102
RTVSPropertyOp34
 70
     1
102
RTVSPropertyOp35
 70
     1
102
RTVSPropertyOp36
 70
     1
102
RTVSPropertyOp37
 70
     1
102
RTVSPropertyOp38
 70
     1
102
RTVSPropertyOp39
 70
     1
102
RTVSPropertyOp40
 70
     1
102
RTVSPropertyOp41
 70
     1
102
RTVSPropertyOp42
 70
     1
102
RTVSPropertyOp43
 70
     1
102
RTVSPropertyOp44
 70
     1
102
RTVSPropertyOp45
 70
     1
102
RTVSPropertyOp46
 70
     1
102
RTVSPropertyOp47
 70
     1
102
RTVSPropertyOp48
 70
     1
102
RTVSPropertyOp49
 70
     1
102
RTVSPropertyOp50
 70
     1
102
RTVSPropertyOp51
 70
     0
102
RTVSPropertyOp52
 70
     0
102
RTVSPropertyOp53
 70
     1
102
RTVSPropertyOp54
 70
     1
102
RTVSPropertyOp55
 70
     1
102
RTVSPropertyOp56
 70
     1
102
RTVSPropertyOp57
 70
     1
102
RTVSPropertyOp58
 70
     1
102
RTVSPropertyOp59
 70
     1
102
RTVSPropertyOp60
 70
     1
102
RTVSPropertyOp61
 70
     1
102
RTVSPropertyOp62
 70
     1
  0
XRECORD
  5
BF1E
102
{ACAD_REACTORS
330
BF1D
102
}
330
BF1D
100
AcDbXrecord
280
     1
102
RTVSPost2010Prop28
280
     0
102
RTVSPost2010PropOp28
 70
     1
102
RTVSPost2010Prop29
280
     1
102
RTVSPost2010PropOp29
 70
     1
102
RTVSPost2010Prop30
280
     1
102
RTVSPost2010PropOp30
 70
     1
102
RTVSPost2010Prop31
280
     0
102
RTVSPost2010PropOp31
 70
     1
102
RTVSPost2010Prop32
280
     0
102
RTVSPost2010PropOp32
 70
     1
102
RTVSPost2010Prop33
280
     0
102
RTVSPost2010PropOp33
 70
     1
102
RTVSPost2010Prop34
280
     0
102
RTVSPost2010PropOp34
 70
     1
102
RTVSPost2010Prop35
280
     0
102
RTVSPost2010PropOp35
 70
     1
102
RTVSPost2010Prop36
280
     0
102
RTVSPost2010PropOp36
 70
     1
102
RTVSPost2010Prop37
 90
       50
102
RTVSPost2010PropOp37
 70
     1
102
RTVSPost2010Prop38
140
0.0
102
RTVSPost2010PropOp38
 70
     1
102
RTVSPost2010Prop39
140
1.0
102
RTVSPost2010PropOp39
 70
     1
102
RTVSPost2010Prop40
 90
        0
102
RTVSPost2010PropOp40
 70
     1
102
RTVSPost2010Prop41ColorIndex
 90
       18
102
RTVSPost2010Prop41ColorRGB
 90
        0
102
RTVSPost2010PropOp41
 70
     1
102
RTVSPost2010Prop42
 90
       50
102
RTVSPost2010PropOp42
 70
     1
102
RTVSPost2010Prop43
 90
        3
102
RTVSPost2010PropOp43
 70
     1
102
RTVSPost2010Prop44ColorIndex
 90
        5
102
RTVSPost2010Prop44ColorRGB
 90
      255
102
RTVSPost2010PropOp44
 70
     1
102
RTVSPost2010Prop45
280
     0
102
RTVSPost2010PropOp45
 70
     1
102
RTVSPost2010Prop46
 90
       50
102
RTVSPost2010PropOp46
 70
     1
102
RTVSPost2010Prop47
 90
       50
102
RTVSPost2010PropOp47
 70
     1
102
RTVSPost2010Prop48
 90
       50
102
RTVSPost2010PropOp48
 70
     1
102
RTVSPost2010Prop49
280
     0
102
RTVSPost2010PropOp49
 70
     1
102
RTVSPost2010Prop50
 90
       50
102
RTVSPost2010PropOp50
 70
     1
102
RTVSPost2010Prop51ColorIndex
 90
      256
102
RTVSPost2010Prop51ColorRGB
 90
-16777216
102
RTVSPost2010PropOp51
 70
     0
102
RTVSPost2010Prop52
140
1.0
102
RTVSPost2010PropOp52
 70
     0
102
RTVSPost2010Prop53
 90
        2
102
RTVSPost2010PropOp53
 70
     1
102
RTVSPost2010Prop54
  1
strokes_ogs.tif
102
RTVSPost2010PropOp54
 70
     1
102
RTVSPost2010Prop55
280
     0
102
RTVSPost2010PropOp55
 70
     1
102
RTVSPost2010Prop56
140
1.0
102
RTVSPost2010PropOp56
 70
     1
102
RTVSPost2010Prop57
140
1.0
102
RTVSPost2010PropOp57
 70
     1
102
RTVSPropertyOp0
 70
     1
102
RTVSPropertyOp1
 70
     1
102
RTVSPropertyOp2
 70
     1
102
RTVSPropertyOp3
 70
     1
102
RTVSPropertyOp4
 70
     1
102
RTVSPropertyOp5
 70
     1
102
RTVSPropertyOp6
 70
     1
102
RTVSPropertyOp7
 70
     1
102
RTVSPropertyOp8
 70
     1
102
RTVSPropertyOp9
 70
     1
102
RTVSPropertyOp10
 70
     1
102
RTVSPropertyOp11
 70
     1
102
RTVSPropertyOp12
 70
     1
102
RTVSPropertyOp13
 70
     1
102
RTVSPropertyOp14
 70
     1
102
RTVSPropertyOp15
 70
     1
102
RTVSPropertyOp16
 70
     1
102
RTVSPropertyOp17
 70
     1
102
RTVSPropertyOp18
 70
     1
102
RTVSPropertyOp19
 70
     1
102
RTVSPropertyOp20
 70
     1
102
RTVSPropertyOp21
 70
     1
102
RTVSPropertyOp22
 70
     1
102
RTVSPropertyOp23
 70
     1
102
RTVSPropertyOp24
 70
     1
102
RTVSPropertyOp25
 70
     1
102
RTVSPropertyOp26
 70
     1
102
RTVSPropertyOp27
 70
     1
102
RTVSPropertyOp28
 70
     1
102
RTVSPropertyOp29
 70
     1
102
RTVSPropertyOp30
 70
     1
102
RTVSPropertyOp31
 70
     1
102
RTVSPropertyOp32
 70
     1
102
RTVSPropertyOp33
 70
     1
102
RTVSPropertyOp34
 70
     1
102
RTVSPropertyOp35
 70
     1
102
RTVSPropertyOp36
 70
     1
102
RTVSPropertyOp37
 70
     1
102
RTVSPropertyOp38
 70
     1
102
RTVSPropertyOp39
 70
     1
102
RTVSPropertyOp40
 70
     1
102
RTVSPropertyOp41
 70
     1
102
RTVSPropertyOp42
 70
     1
102
RTVSPropertyOp43
 70
     1
102
RTVSPropertyOp44
 70
     1
102
RTVSPropertyOp45
 70
     1
102
RTVSPropertyOp46
 70
     1
102
RTVSPropertyOp47
 70
     1
102
RTVSPropertyOp48
 70
     1
102
RTVSPropertyOp49
 70
     1
102
RTVSPropertyOp50
 70
     1
102
RTVSPropertyOp51
 70
     0
102
RTVSPropertyOp52
 70
     0
102
RTVSPropertyOp53
 70
     1
102
RTVSPropertyOp54
 70
     1
102
RTVSPropertyOp55
 70
     1
102
RTVSPropertyOp56
 70
     1
102
RTVSPropertyOp57
 70
     1
102
RTVSPropertyOp58
 70
     1
102
RTVSPropertyOp59
 70
     1
102
RTVSPropertyOp60
 70
     1
102
RTVSPropertyOp61
 70
     1
102
RTVSPropertyOp62
 70
     1
  0
XRECORD
  5
BF36
102
{ACAD_REACTORS
330
BF35
102
}
330
BF35
100
AcDbXrecord
280
     1
102
RTVSPost2010Prop28
280
     0
102
RTVSPost2010PropOp28
 70
     1
102
RTVSPost2010Prop29
280
     1
102
RTVSPost2010PropOp29
 70
     1
102
RTVSPost2010Prop30
280
     1
102
RTVSPost2010PropOp30
 70
     1
102
RTVSPost2010Prop31
280
     0
102
RTVSPost2010PropOp31
 70
     1
102
RTVSPost2010Prop32
280
     0
102
RTVSPost2010PropOp32
 70
     1
102
RTVSPost2010Prop33
280
     0
102
RTVSPost2010PropOp33
 70
     1
102
RTVSPost2010Prop34
280
     0
102
RTVSPost2010PropOp34
 70
     1
102
RTVSPost2010Prop35
280
     0
102
RTVSPost2010PropOp35
 70
     1
102
RTVSPost2010Prop36
280
     0
102
RTVSPost2010PropOp36
 70
     1
102
RTVSPost2010Prop37
 90
       50
102
RTVSPost2010PropOp37
 70
     1
102
RTVSPost2010Prop38
140
0.0
102
RTVSPost2010PropOp38
 70
     1
102
RTVSPost2010Prop39
140
1.0
102
RTVSPost2010PropOp39
 70
     1
102
RTVSPost2010Prop40
 90
        0
102
RTVSPost2010PropOp40
 70
     1
102
RTVSPost2010Prop41ColorIndex
 90
       18
102
RTVSPost2010Prop41ColorRGB
 90
        0
102
RTVSPost2010PropOp41
 70
     1
102
RTVSPost2010Prop42
 90
       50
102
RTVSPost2010PropOp42
 70
     1
102
RTVSPost2010Prop43
 90
        3
102
RTVSPost2010PropOp43
 70
     1
102
RTVSPost2010Prop44ColorIndex
 90
        5
102
RTVSPost2010Prop44ColorRGB
 90
      255
102
RTVSPost2010PropOp44
 70
     1
102
RTVSPost2010Prop45
280
     0
102
RTVSPost2010PropOp45
 70
     1
102
RTVSPost2010Prop46
 90
       50
102
RTVSPost2010PropOp46
 70
     1
102
RTVSPost2010Prop47
 90
       50
102
RTVSPost2010PropOp47
 70
     1
102
RTVSPost2010Prop48
 90
       50
102
RTVSPost2010PropOp48
 70
     1
102
RTVSPost2010Prop49
280
     0
102
RTVSPost2010PropOp49
 70
     1
102
RTVSPost2010Prop50
 90
       50
102
RTVSPost2010PropOp50
 70
     1
102
RTVSPost2010Prop51ColorIndex
 90
      256
102
RTVSPost2010Prop51ColorRGB
 90
-16777216
102
RTVSPost2010PropOp51
 70
     0
102
RTVSPost2010Prop52
140
1.0
102
RTVSPost2010PropOp52
 70
     0
102
RTVSPost2010Prop53
 90
        2
102
RTVSPost2010PropOp53
 70
     1
102
RTVSPost2010Prop54
  1
strokes_ogs.tif
102
RTVSPost2010PropOp54
 70
     1
102
RTVSPost2010Prop55
280
     0
102
RTVSPost2010PropOp55
 70
     1
102
RTVSPost2010Prop56
140
1.0
102
RTVSPost2010PropOp56
 70
     1
102
RTVSPost2010Prop57
140
1.0
102
RTVSPost2010PropOp57
 70
     1
102
RTVSPropertyOp0
 70
     1
102
RTVSPropertyOp1
 70
     1
102
RTVSPropertyOp2
 70
     1
102
RTVSPropertyOp3
 70
     1
102
RTVSPropertyOp4
 70
     1
102
RTVSPropertyOp5
 70
     1
102
RTVSPropertyOp6
 70
     1
102
RTVSPropertyOp7
 70
     1
102
RTVSPropertyOp8
 70
     1
102
RTVSPropertyOp9
 70
     1
102
RTVSPropertyOp10
 70
     1
102
RTVSPropertyOp11
 70
     1
102
RTVSPropertyOp12
 70
     1
102
RTVSPropertyOp13
 70
     1
102
RTVSPropertyOp14
 70
     1
102
RTVSPropertyOp15
 70
     1
102
RTVSPropertyOp16
 70
     1
102
RTVSPropertyOp17
 70
     1
102
RTVSPropertyOp18
 70
     1
102
RTVSPropertyOp19
 70
     1
102
RTVSPropertyOp20
 70
     1
102
RTVSPropertyOp21
 70
     1
102
RTVSPropertyOp22
 70
     1
102
RTVSPropertyOp23
 70
     1
102
RTVSPropertyOp24
 70
     1
102
RTVSPropertyOp25
 70
     1
102
RTVSPropertyOp26
 70
     1
102
RTVSPropertyOp27
 70
     1
102
RTVSPropertyOp28
 70
     1
102
RTVSPropertyOp29
 70
     1
102
RTVSPropertyOp30
 70
     1
102
RTVSPropertyOp31
 70
     1
102
RTVSPropertyOp32
 70
     1
102
RTVSPropertyOp33
 70
     1
102
RTVSPropertyOp34
 70
     1
102
RTVSPropertyOp35
 70
     1
102
RTVSPropertyOp36
 70
     1
102
RTVSPropertyOp37
 70
     1
102
RTVSPropertyOp38
 70
     1
102
RTVSPropertyOp39
 70
     1
102
RTVSPropertyOp40
 70
     1
102
RTVSPropertyOp41
 70
     1
102
RTVSPropertyOp42
 70
     1
102
RTVSPropertyOp43
 70
     1
102
RTVSPropertyOp44
 70
     1
102
RTVSPropertyOp45
 70
     1
102
RTVSPropertyOp46
 70
     1
102
RTVSPropertyOp47
 70
     1
102
RTVSPropertyOp48
 70
     1
102
RTVSPropertyOp49
 70
     1
102
RTVSPropertyOp50
 70
     1
102
RTVSPropertyOp51
 70
     0
102
RTVSPropertyOp52
 70
     0
102
RTVSPropertyOp53
 70
     1
102
RTVSPropertyOp54
 70
     1
102
RTVSPropertyOp55
 70
     1
102
RTVSPropertyOp56
 70
     1
102
RTVSPropertyOp57
 70
     1
102
RTVSPropertyOp58
 70
     1
102
RTVSPropertyOp59
 70
     1
102
RTVSPropertyOp60
 70
     1
102
RTVSPropertyOp61
 70
     1
102
RTVSPropertyOp62
 70
     1
  0
ENDSEC
  0
EOF
