  0
SECTION
  2
HEADER
  9
$ACADVER
  1
AC1015
  9
$ACADMAINTVER
 70
    20
  9
$DWGCODEPAGE
  3
ANSI_932
  9
$INSBASE
 10
0.0
 20
0.0
 30
0.0
  9
$EXTMIN
 10
10.0
 20
9.999999999999998
 30
0.0
  9
$EXTMAX
 10
460.1499999999998
 20
317.7867439999999
 30
0.0
  9
$LIMMIN
 10
0.0
 20
0.0
  9
$LIMMAX
 10
495.0
 20
341.25
  9
$ORTHOMODE
 70
     1
  9
$REGENMODE
 70
     1
  9
$FILLMODE
 70
     1
  9
$QTEXTMODE
 70
     0
  9
$MIRRTEXT
 70
     1
  9
$LTSCALE
 40
20.0
  9
$ATTMODE
 70
     1
  9
$TEXTSIZE
 40
5.0
  9
$TRACEWID
 40
1.0
  9
$TEXTSTYLE
  7
STANDARD
  9
$CLAYER
  8
0
  9
$CELTYPE
  6
BYLAYER
  9
$CECOLOR
 62
   256
  9
$CELTSCALE
 40
1.0
  9
$DISPSILH
 70
     0
  9
$DIMSCALE
 40
1.0
  9
$DIMASZ
 40
3.0
  9
$DIMEXO
 40
1.0
  9
$DIMDLI
 40
10.0
  9
$DIMRND
 40
0.0
  9
$DIMDLE
 40
0.0
  9
$DIMEXE
 40
1.0
  9
$DIMTP
 40
0.0
  9
$DIMTM
 40
0.0
  9
$DIMTXT
 40
3.2
  9
$DIMCEN
 40
0.0
  9
$DIMTSZ
 40
0.0
  9
$DIMTOL
 70
     0
  9
$DIMLIM
 70
     0
  9
$DIMTIH
 70
     0
  9
$DIMTOH
 70
     0
  9
$DIMSE1
 70
     0
  9
$DIMSE2
 70
     0
  9
$DIMTAD
 70
     3
  9
$DIMZIN
 70
     8
  9
$DIMBLK
  1

  9
$DIMASO
 70
     1
  9
$DIMSHO
 70
     1
  9
$DIMPOST
  1

  9
$DIMAPOST
  1

  9
$DIMALT
 70
     0
  9
$DIMALTD
 70
     2
  9
$DIMALTF
 40
25.4
  9
$DIMLFAC
 40
1.0
  9
$DIMTOFL
 70
     1
  9
$DIMTVP
 40
0.0
  9
$DIMTIX
 70
     0
  9
$DIMSOXD
 70
     0
  9
$DIMSAH
 70
     1
  9
$DIMBLK1
  1
OPEN
  9
$DIMBLK2
  1
OPEN
  9
$DIMSTYLE
  2
STANDARD
  9
$DIMCLRD
 70
     0
  9
$DIMCLRE
 70
     0
  9
$DIMCLRT
 70
     0
  9
$DIMTFAC
 40
1.0
  9
$DIMGAP
 40
1.0
  9
$DIMJUST
 70
     0
  9
$DIMSD1
 70
     0
  9
$DIMSD2
 70
     0
  9
$DIMTOLJ
 70
     1
  9
$DIMTZIN
 70
     0
  9
$DIMALTZ
 70
     0
  9
$DIMALTTZ
 70
     0
  9
$DIMUPT
 70
     0
  9
$DIMDEC
 70
     4
  9
$DIMTDEC
 70
     4
  9
$DIMALTU
 70
     2
  9
$DIMALTTD
 70
     2
  9
$DIMTXSTY
  7
STANDARD
  9
$DIMAUNIT
 70
     0
  9
$DIMADEC
 70
     0
  9
$DIMALTRND
 40
0.0
  9
$DIMAZIN
 70
     0
  9
$DIMDSEP
 70
    46
  9
$DIMATFIT
 70
     3
  9
$DIMFRAC
 70
     0
  9
$DIMLDRBLK
  1
OPEN
  9
$DIMLUNIT
 70
     2
  9
$DIMLWD
 70
    -2
  9
$DIMLWE
 70
    -2
  9
$DIMTMOVE
 70
     0
  9
$LUNITS
 70
     2
  9
$LUPREC
 70
     4
  9
$SKETCHINC
 40
1.0
  9
$FILLETRAD
 40
0.0
  9
$AUNITS
 70
     0
  9
$AUPREC
 70
     2
  9
$MENU
  1
.
  9
$ELEVATION
 40
0.0
  9
$PELEVATION
 40
0.0
  9
$THICKNESS
 40
0.0
  9
$LIMCHECK
 70
     0
  9
$CHAMFERA
 40
0.6
  9
$CHAMFERB
 40
0.6
  9
$CHAMFERC
 40
0.0
  9
$CHAMFERD
 40
0.0
  9
$SKPOLY
 70
     0
  9
$TDCREATE
 40
2451301.421445718
  9
$TDUCREATE
 40
2451301.046445717
  9
$TDUPDATE
 40
2457192.688299236
  9
$TDUUPDATE
 40
2457192.313299236
  9
$TDINDWG
 40
0.0000096528
  9
$TDUSRTIMER
 40
0.0000093519
  9
$USRTIMER
 70
     1
  9
$ANGBASE
 50
0.0
  9
$ANGDIR
 70
     0
  9
$PDMODE
 70
     0
  9
$PDSIZE
 40
0.0
  9
$PLINEWID
 40
0.0
  9
$SPLFRAME
 70
     0
  9
$SPLINETYPE
 70
     6
  9
$SPLINESEGS
 70
     8
  9
$HANDSEED
  5
BF15
  9
$SURFTAB1
 70
     6
  9
$SURFTAB2
 70
     6
  9
$SURFTYPE
 70
     6
  9
$SURFU
 70
     6
  9
$SURFV
 70
     6
  9
$UCSBASE
  2

  9
$UCSNAME
  2

  9
$UCSORG
 10
0.0
 20
0.0
 30
0.0
  9
$UCSXDIR
 10
1.0
 20
0.0
 30
0.0
  9
$UCSYDIR
 10
0.0
 20
1.0
 30
0.0
  9
$UCSORTHOREF
  2

  9
$UCSORTHOVIEW
 70
     0
  9
$UCSORGTOP
 10
0.0
 20
0.0
 30
0.0
  9
$UCSORGBOTTOM
 10
0.0
 20
0.0
 30
0.0
  9
$UCSORGLEFT
 10
0.0
 20
0.0
 30
0.0
  9
$UCSORGRIGHT
 10
0.0
 20
0.0
 30
0.0
  9
$UCSORGFRONT
 10
0.0
 20
0.0
 30
0.0
  9
$UCSORGBACK
 10
0.0
 20
0.0
 30
0.0
  9
$PUCSBASE
  2

  9
$PUCSNAME
  2

  9
$PUCSORG
 10
0.0
 20
0.0
 30
0.0
  9
$PUCSXDIR
 10
1.0
 20
0.0
 30
0.0
  9
$PUCSYDIR
 10
0.0
 20
1.0
 30
0.0
  9
$PUCSORTHOREF
  2

  9
$PUCSORTHOVIEW
 70
     0
  9
$PUCSORGTOP
 10
0.0
 20
0.0
 30
0.0
  9
$PUCSORGBOTTOM
 10
0.0
 20
0.0
 30
0.0
  9
$PUCSORGLEFT
 10
0.0
 20
0.0
 30
0.0
  9
$PUCSORGRIGHT
 10
0.0
 20
0.0
 30
0.0
  9
$PUCSORGFRONT
 10
0.0
 20
0.0
 30
0.0
  9
$PUCSORGBACK
 10
0.0
 20
0.0
 30
0.0
  9
$USERI1
 70
     0
  9
$USERI2
 70
     0
  9
$USERI3
 70
     0
  9
$USERI4
 70
     0
  9
$USERI5
 70
     0
  9
$USERR1
 40
0.0
  9
$USERR2
 40
0.0
  9
$USERR3
 40
0.0
  9
$USERR4
 40
0.0
  9
$USERR5
 40
0.0
  9
$WORLDVIEW
 70
     1
  9
$SHADEDGE
 70
     3
  9
$SHADEDIF
 70
    70
  9
$TILEMODE
 70
     1
  9
$MAXACTVP
 70
    16
  9
$PINSBASE
 10
0.0
 20
0.0
 30
0.0
  9
$PLIMCHECK
 70
     0
  9
$PEXTMIN
 10
1.000000000000000E+20
 20
1.000000000000000E+20
 30
1.000000000000000E+20
  9
$PEXTMAX
 10
-1.000000000000000E+20
 20
-1.000000000000000E+20
 30
-1.000000000000000E+20
  9
$PLIMMIN
 10
0.0
 20
0.0
  9
$PLIMMAX
 10
420.0
 20
297.0
  9
$UNITMODE
 70
     0
  9
$VISRETAIN
 70
     0
  9
$PLINEGEN
 70
     0
  9
$PSLTSCALE
 70
     0
  9
$TREEDEPTH
 70
  3020
  9
$CMLSTYLE
  2
STANDARD
  9
$CMLJUST
 70
     0
  9
$CMLSCALE
 40
1.0
  9
$PROXYGRAPHICS
 70
     1
  9
$MEASUREMENT
 70
     0
  9
$CELWEIGHT
370
    -1
  9
$ENDCAPS
280
     0
  9
$JOINSTYLE
280
     0
  9
$LWDISPLAY
290
     0
  9
$INSUNITS
 70
     0
  9
$HYPERLINKBASE
  1

  9
$STYLESHEET
  1

  9
$XEDIT
290
     1
  9
$CEPSNTYPE
380
     0
  9
$PSTYLEMODE
290
     1
  9
$FINGERPRINTGUID
  2
{A7810630-1287-4375-9D77-A1109E37EE00}
  9
$VERSIONGUID
  2
{CE6CD6A1-A121-4375-8205-3CFC53A5BEDC}
  9
$EXTNAMES
290
     1
  9
$PSVPSCALE
 40
0.0
  9
$OLESTARTUP
290
     0
  0
ENDSEC
  0
SECTION
  2
CLASSES
  0
CLASS
  1
ACDBDICTIONARYWDFLT
  2
AcDbDictionaryWithDefault
  3
ObjectDBX Classes
 90
        0
280
     0
281
     0
  0
CLASS
  1
ACDBPLACEHOLDER
  2
AcDbPlaceHolder
  3
ObjectDBX Classes
 90
        0
280
     0
281
     0
  0
CLASS
  1
LAYOUT
  2
AcDbLayout
  3
ObjectDBX Classes
 90
        0
280
     0
281
     0
  0
CLASS
  1
DICTIONARYVAR
  2
AcDbDictionaryVar
  3
ObjectDBX Classes
 90
        0
280
     0
281
     0
  0
CLASS
  1
MATERIAL
  2
AcDbMaterial
  3
ObjectDBX Classes
 90
     1153
280
     0
281
     0
  0
CLASS
  1
VISUALSTYLE
  2
AcDbVisualStyle
  3
ObjectDBX Classes
 90
     4095
280
     0
281
     0
  0
CLASS
  1
TABLESTYLE
  2
AcDbTableStyle
  3
ObjectDBX Classes
 90
     4095
280
     0
281
     0
  0
CLASS
  1
SCALE
  2
AcDbScale
  3
ObjectDBX Classes
 90
     1153
280
     0
281
     0
  0
CLASS
  1
MLEADERSTYLE
  2
AcDbMLeaderStyle
  3
ACDB_MLEADERSTYLE_CLASS
 90
     4095
280
     0
281
     0
  0
CLASS
  1
ACDBSECTIONVIEWSTYLE
  2
AcDbSectionViewStyle
  3
ObjectDBX Classes
 90
     1025
280
     0
281
     0
  0
CLASS
  1
ACDBDETAILVIEWSTYLE
  2
AcDbDetailViewStyle
  3
ObjectDBX Classes
 90
     1025
280
     0
281
     0
  0
CLASS
  1
CELLSTYLEMAP
  2
AcDbCellStyleMap
  3
ObjectDBX Classes
 90
     1152
280
     0
281
     0
  0
ENDSEC
  0
SECTION
  2
TABLES
  0
TABLE
  2
VPORT
  5
BC7C
330
0
100
AcDbSymbolTable
 70
     1
  0
VPORT
  5
BE5E
330
BC7C
100
AcDbSymbolTableRecord
100
AcDbViewportTableRecord
  2
*ACTIVE
 70
     0
 10
0.0
 20
0.0
 11
1.0
 21
1.0
 12
328.3068981180779
 22
163.8948734521049
 13
0.0
 23
0.0
 14
10.0
 24
10.0
 15
10.0
 25
10.0
 16
0.0
 26
0.0
 36
1.0
 17
0.0
 27
0.0
 37
0.0
 40
311.2167321122475
 41
2.35006605019815
 42
50.0
 43
0.0
 44
0.0
 50
0.0
 51
0.0
 71
     0
 72
   100
 73
     1
 74
     0
 75
     0
 76
     0
 77
     0
 78
     0
281
     0
 65
     1
110
0.0
120
0.0
130
0.0
111
1.0
121
0.0
131
0.0
112
0.0
122
1.0
132
0.0
 79
     0
146
0.0
1001
ACAD_NAV_VCDISPLAY
1070
     3
  0
ENDTAB
  0
TABLE
  2
LTYPE
  5
BC79
330
0
100
AcDbSymbolTable
 70
     4
  0
LTYPE
  5
BC87
330
BC79
100
AcDbSymbolTableRecord
100
AcDbLinetypeTableRecord
  2
BYBLOCK
 70
     0
  3

 72
    65
 73
     0
 40
0.0
  0
LTYPE
  5
BC88
330
BC79
100
AcDbSymbolTableRecord
100
AcDbLinetypeTableRecord
  2
BYLAYER
 70
     0
  3

 72
    65
 73
     0
 40
0.0
  0
LTYPE
  5
BC89
330
BC79
100
AcDbSymbolTableRecord
100
AcDbLinetypeTableRecord
  2
CONTINUOUS
 70
     0
  3
Solid line
 72
    65
 73
     0
 40
0.0
  0
LTYPE
  5
BC97
330
BC79
100
AcDbSymbolTableRecord
100
AcDbLinetypeTableRecord
  2
DASHED
 70
     0
  3
__ __ __ __ __ __ __ __ __ __ __ __ __ __ __ __
 72
    65
 73
     2
 40
0.75
 49
0.5
 74
     0
 49
-0.25
 74
     0
  0
LTYPE
  5
BC98
330
BC79
100
AcDbSymbolTableRecord
100
AcDbLinetypeTableRecord
  2
CENTER
 70
     0
  3
____ _ ____ _ ____ _ ____ _ ____ _ ____ _ ____ 
 72
    65
 73
     4
 40
2.0
 49
1.25
 74
     0
 49
-0.25
 74
     0
 49
0.25
 74
     0
 49
-0.25
 74
     0
  0
LTYPE
  5
BC99
330
BC79
100
AcDbSymbolTableRecord
100
AcDbLinetypeTableRecord
  2
PHANTOM
 70
     0
  3
______  __  __  ______  __  __  ______  __  __ 
 72
    65
 73
     6
 40
2.5
 49
1.25
 74
     0
 49
-0.25
 74
     0
 49
0.25
 74
     0
 49
-0.25
 74
     0
 49
0.25
 74
     0
 49
-0.25
 74
     0
  0
ENDTAB
  0
TABLE
  2
LAYER
  5
BC76
330
0
100
AcDbSymbolTable
 70
     8
  0
LAYER
  5
BC84
102
{ACAD_XDICTIONARY
360
BEB9
102
}
330
BC76
100
AcDbSymbolTableRecord
100
AcDbLayerTableRecord
  2
0
 70
     0
 62
     7
  6
CONTINUOUS
370
    -3
390
BE67
  0
LAYER
  5
BC9A
102
{ACAD_XDICTIONARY
360
BEBB
102
}
330
BC76
100
AcDbSymbolTableRecord
100
AcDbLayerTableRecord
  2
4
 70
     0
 62
     1
  6
CENTER
370
    -3
390
BE67
  0
LAYER
  5
BC9B
102
{ACAD_XDICTIONARY
360
BEBD
102
}
330
BC76
100
AcDbSymbolTableRecord
100
AcDbLayerTableRecord
  2
5
 70
     0
 62
     6
  6
PHANTOM
370
    -3
390
BE67
  0
LAYER
  5
BC9C
102
{ACAD_XDICTIONARY
360
BEBF
102
}
330
BC76
100
AcDbSymbolTableRecord
100
AcDbLayerTableRecord
  2
1
 70
     0
 62
     7
  6
CONTINUOUS
370
    -3
390
BE67
  0
LAYER
  5
BC9D
102
{ACAD_XDICTIONARY
360
BEC1
102
}
330
BC76
100
AcDbSymbolTableRecord
100
AcDbLayerTableRecord
  2
2
 70
     0
 62
     4
  6
CONTINUOUS
370
    -3
390
BE67
  0
LAYER
  5
BC9E
102
{ACAD_XDICTIONARY
360
BEC3
102
}
330
BC76
100
AcDbSymbolTableRecord
100
AcDbLayerTableRecord
  2
3
 70
     0
 62
     2
  6
DASHED
370
    -3
390
BE67
  0
LAYER
  5
BC9F
102
{ACAD_XDICTIONARY
360
BEC5
102
}
330
BC76
100
AcDbSymbolTableRecord
100
AcDbLayerTableRecord
  2
6
 70
     0
 62
     5
  6
CONTINUOUS
370
    -3
390
BE67
  0
LAYER
  5
BCA0
102
{ACAD_XDICTIONARY
360
BEC7
102
}
330
BC76
100
AcDbSymbolTableRecord
100
AcDbLayerTableRecord
  2
7
 70
     0
 62
     3
  6
CONTINUOUS
370
    -3
390
BE67
  0
ENDTAB
  0
TABLE
  2
STYLE
  5
BC77
330
0
100
AcDbSymbolTable
 70
     1
  0
STYLE
  5
BC85
330
BC77
100
AcDbSymbolTableRecord
100
AcDbTextStyleTableRecord
  2
STANDARD
 70
     0
 40
0.0
 41
1.0
 50
0.0
 71
     0
 42
5.0
  3
txt
  4

  0
ENDTAB
  0
TABLE
  2
VIEW
  5
BC7A
330
0
100
AcDbSymbolTable
 70
     0
  0
ENDTAB
  0
TABLE
  2
UCS
  5
BC7B
330
0
100
AcDbSymbolTable
 70
     0
  0
ENDTAB
  0
TABLE
  2
APPID
  5
BC7D
330
0
100
AcDbSymbolTable
 70
     3
  0
APPID
  5
BC86
330
BC7D
100
AcDbSymbolTableRecord
100
AcDbRegAppTableRecord
  2
ACAD
 70
     0
  0
APPID
  5
BED3
330
BC7D
100
AcDbSymbolTableRecord
100
AcDbRegAppTableRecord
  2
ACAD_NAV_VCDISPLAY
 70
     0
  0
APPID
  5
BF0C
330
BC7D
100
AcDbSymbolTableRecord
100
AcDbRegAppTableRecord
  2
ACAD_MLEADERVER
 70
     0
  0
ENDTAB
  0
TABLE
  2
DIMSTYLE
  5
BC7E
330
0
100
AcDbSymbolTable
 70
     1
100
AcDbDimStyleTable
 71
     0
  0
DIMSTYLE
105
BCA2
330
BC7E
100
AcDbSymbolTableRecord
100
AcDbDimStyleTableRecord
  2
STANDARD
 70
     0
 41
3.0
 42
1.0
 43
10.0
 44
1.0
 73
     0
 74
     0
 77
     3
 78
     8
140
3.2
141
0.0
147
1.0
172
     1
173
     1
284
     8
285
     8
286
     8
340
BC85
  0
ENDTAB
  0
TABLE
  2
BLOCK_RECORD
  5
BC75
330
0
100
AcDbSymbolTable
 70
     1
  0
BLOCK_RECORD
  5
BC92
102
{ACAD_XDICTIONARY
360
BE61
102
}
330
BC75
100
AcDbSymbolTableRecord
100
AcDbBlockTableRecord
  2
*MODEL_SPACE
340
BEB5
  0
BLOCK_RECORD
  5
BC8E
102
{ACAD_XDICTIONARY
360
BE5F
102
}
330
BC75
100
AcDbSymbolTableRecord
100
AcDbBlockTableRecord
  2
*PAPER_SPACE
340
BEB6
  0
BLOCK_RECORD
  5
BCAA
330
BC75
100
AcDbSymbolTableRecord
100
AcDbBlockTableRecord
  2
_OPEN
340
0
  0
ENDTAB
  0
ENDSEC
  0
SECTION
  2
BLOCKS
  0
BLOCK
  5
BC93
330
BC92
100
AcDbEntity
  8
0
100
AcDbBlockBegin
  2
*MODEL_SPACE
 70
     0
 10
0.0
 20
0.0
 30
0.0
  3
*MODEL_SPACE
  1

  0
ENDBLK
  5
BC94
330
BC92
100
AcDbEntity
  8
0
100
AcDbBlockEnd
  0
BLOCK
  5
BC8F
330
BC8E
100
AcDbEntity
 67
     1
  8
0
100
AcDbBlockBegin
  2
*PAPER_SPACE
 70
     0
 10
0.0
 20
0.0
 30
0.0
  3
*PAPER_SPACE
  1

  0
ENDBLK
  5
BC90
330
BC8E
100
AcDbEntity
 67
     1
  8
0
100
AcDbBlockEnd
  0
BLOCK
  5
BCAB
330
BCAA
100
AcDbEntity
  8
0
100
AcDbBlockBegin
  2
_OPEN
 70
     0
 10
0.0
 20
0.0
 30
0.0
  3
_OPEN
  1

  0
LINE
  5
BCAC
330
BCAA
100
AcDbEntity
  8
0
  6
ByBlock
 62
     0
100
AcDbLine
 10
-1.0
 20
0.166667
 30
0.0
 11
0.0
 21
0.0
 31
0.0
  0
LINE
  5
BCAD
330
BCAA
100
AcDbEntity
  8
0
  6
ByBlock
 62
     0
100
AcDbLine
 10
0.0
 20
0.0
 30
0.0
 11
-1.0
 21
-0.166667
 31
0.0
  0
LINE
  5
BCAE
330
BCAA
100
AcDbEntity
  8
0
  6
ByBlock
 62
     0
100
AcDbLine
 10
0.0
 20
0.0
 30
0.0
 11
-1.0
 21
0.0
 31
0.0
  0
ENDBLK
  5
BCAF
330
BCAA
100
AcDbEntity
  8
0
100
AcDbBlockEnd
  0
ENDSEC
  0
SECTION
  2
ENTITIES
  0
TEXT
  5
BCB0
330
BC92
100
AcDbEntity
  8
7
  6
Continuous
100
AcDbText
 10
10.0
 20
18.0
 30
0.0
 40
3.0
  1
TYPE No.604HB2-EP
100
AcDbText
  0
TEXT
  5
BCB1
330
BC92
100
AcDbEntity
  8
7
  6
Continuous
100
AcDbText
 10
10.0
 20
26.0
 30
0.0
 40
3.0
  1
CODE No.19087
100
AcDbText
  0
TEXT
  5
BCB2
330
BC92
100
AcDbEntity
  8
1
  6
Continuous
100
AcDbText
 10
10.0
 20
10.0
 30
0.0
 40
1.399999999999999
  1
LAYER
100
AcDbText
  0
TEXT
  5
BCB3
330
BC92
100
AcDbEntity
  8
1
  6
Continuous
100
AcDbText
 10
17.97951099999998
 20
10.04873699999998
 30
0.0
 40
1.399999999999999
  1
1
100
AcDbText
  0
TEXT
  5
BCB4
330
BC92
100
AcDbEntity
  8
7
  6
Continuous
100
AcDbText
 10
29.97951099999999
 20
10.04873699999998
 30
0.0
 40
1.399999999999999
  1
7
100
AcDbText
  0
TEXT
  5
BCB5
330
BC92
100
AcDbEntity
  8
4
  6
CENTER
100
AcDbText
 10
23.97951099999999
 20
10.04873699999998
 30
0.0
 40
1.399999999999999
  1
4
100
AcDbText
  0
TEXT
  5
BCB6
330
BC92
100
AcDbEntity
  8
3
  6
DASHED
100
AcDbText
 10
21.979511
 20
10.04873699999998
 30
0.0
 40
1.399999999999999
  1
3
100
AcDbText
  0
TEXT
  5
BCB7
330
BC92
100
AcDbEntity
  8
2
  6
Continuous
100
AcDbText
 10
19.97951099999999
 20
10.04873699999998
 30
0.0
 40
1.399999999999999
  1
2
100
AcDbText
  0
TEXT
  5
BCB8
330
BC92
100
AcDbEntity
  8
6
  6
Continuous
100
AcDbText
 10
27.979511
 20
10.04873699999998
 30
0.0
 40
1.399999999999999
  1
6
100
AcDbText
  0
TEXT
  5
BCB9
330
BC92
100
AcDbEntity
  8
5
  6
PHANTOM
100
AcDbText
 10
25.97951099999999
 20
10.04873699999998
 30
0.0
 40
1.399999999999999
  1
5
100
AcDbText
  0
ARC
  5
BCBA
330
BC92
100
AcDbEntity
  8
1
  6
Continuous
100
AcDbCircle
 10
174.15
 20
167.1499999999998
 30
0.0
 40
10.34999999999999
100
AcDbArc
 50
197.113317
 51
342.886683
  0
LINE
  5
BCBB
330
BC92
100
AcDbEntity
  8
1
  6
Continuous
100
AcDbLine
 10
134.15
 20
214.15
 30
0.0
 11
214.15
 21
214.15
 31
0.0
  0
CIRCLE
  5
BCBC
330
BC92
100
AcDbEntity
  8
1
  6
Continuous
100
AcDbCircle
 10
174.15
 20
167.1499999999998
 30
0.0
 40
7.0
  0
LINE
  5
BCBD
330
BC92
100
AcDbEntity
  8
1
  6
Continuous
100
AcDbLine
 10
134.15
 20
211.5499999999999
 30
0.0
 11
149.65
 21
211.5499999999999
 31
0.0
  0
LINE
  5
BCBE
330
BC92
100
AcDbEntity
  8
1
  6
Continuous
100
AcDbLine
 10
198.65
 20
211.5499999999999
 30
0.0
 11
214.15
 21
211.5499999999999
 31
0.0
  0
LINE
  5
BCBF
330
BC92
100
AcDbEntity
  8
1
  6
Continuous
100
AcDbLine
 10
181.774871
 20
270.8
 30
0.0
 11
166.5251299999999
 21
270.8
 31
0.0
  0
LINE
  5
BCC0
330
BC92
100
AcDbEntity
  8
1
  6
Continuous
100
AcDbLine
 10
214.15
 20
307.1499999999999
 30
0.0
 11
214.15
 21
271.15
 31
0.0
  0
LINE
  5
BCC1
330
BC92
100
AcDbEntity
  8
1
  6
Continuous
100
AcDbLine
 10
134.15
 20
307.1499999999999
 30
0.0
 11
134.15
 21
271.15
 31
0.0
  0
ARC
  5
BCC2
330
BC92
100
AcDbEntity
  8
1
  6
Continuous
100
AcDbCircle
 10
181.774871
 20
263.8999999999999
 30
0.0
 40
6.9
100
AcDbArc
 50
52.977647
 51
90.0
  0
LINE
  5
BCC3
330
BC92
100
AcDbEntity
  8
1
  6
Continuous
100
AcDbLine
 10
198.65
 20
265.1499999999999
 30
0.0
 11
198.65
 21
267.75
 31
0.0
  0
ARC
  5
BCC4
330
BC92
100
AcDbEntity
  8
1
  6
Continuous
100
AcDbCircle
 10
166.5251299999999
 20
263.8999999999999
 30
0.0
 40
6.9
100
AcDbArc
 50
90.0
 51
127.022353
  0
LINE
  5
BCC5
330
BC92
100
AcDbEntity
  8
1
  6
Continuous
100
AcDbLine
 10
149.65
 20
265.1499999999999
 30
0.0
 11
149.65
 21
267.75
 31
0.0
  0
LINE
  5
BCC6
330
BC92
100
AcDbEntity
  8
1
  6
Continuous
100
AcDbLine
 10
181.774871
 20
307.5
 30
0.0
 11
166.5251299999999
 21
307.5
 31
0.0
  0
ARC
  5
BCC7
330
BC92
100
AcDbEntity
  8
1
  6
Continuous
100
AcDbCircle
 10
181.774871
 20
314.3999999999999
 30
0.0
 40
6.9
100
AcDbArc
 50
270.0
 51
307.0223529999998
  0
LINE
  5
BCC8
330
BC92
100
AcDbEntity
  8
1
  6
Continuous
100
AcDbLine
 10
198.65
 20
313.1499999999999
 30
0.0
 11
198.65
 21
310.55
 31
0.0
  0
ARC
  5
BCC9
330
BC92
100
AcDbEntity
  8
1
  6
Continuous
100
AcDbCircle
 10
166.5251299999999
 20
314.3999999999999
 30
0.0
 40
6.9
100
AcDbArc
 50
232.977647
 51
270.0
  0
LINE
  5
BCCA
330
BC92
100
AcDbEntity
  8
1
  6
Continuous
100
AcDbLine
 10
149.65
 20
313.1499999999999
 30
0.0
 11
149.65
 21
310.55
 31
0.0
  0
ARC
  5
BCCB
330
BC92
100
AcDbEntity
  8
1
  6
Continuous
100
AcDbCircle
 10
207.1499999999999
 20
271.15
 30
0.0
 40
7.0
100
AcDbArc
 50
210.5754569999998
 51
0.0
  0
ARC
  5
BCCC
330
BC92
100
AcDbEntity
  8
1
  6
Continuous
100
AcDbCircle
 10
207.1499999999999
 20
307.1499999999999
 30
0.0
 40
7.0
100
AcDbArc
 50
0.0
 51
149.424543
  0
ARC
  5
BCCD
330
BC92
100
AcDbEntity
  8
1
  6
Continuous
100
AcDbCircle
 10
141.15
 20
271.15
 30
0.0
 40
7.0
100
AcDbArc
 50
180.0
 51
329.4245430000001
  0
ARC
  5
BCCE
330
BC92
100
AcDbEntity
  8
1
  6
Continuous
100
AcDbCircle
 10
141.15
 20
307.1499999999999
 30
0.0
 40
7.0
100
AcDbArc
 50
30.575457
 51
180.0
  0
ARC
  5
BCCF
330
BC92
100
AcDbEntity
  8
1
  6
Continuous
100
AcDbCircle
 10
199.83184
 20
266.8262829999998
 30
0.0
 40
1.5
100
AcDbArc
 50
30.575457
 51
141.9890729999999
  0
ARC
  5
BCD0
330
BC92
100
AcDbEntity
  8
1
  6
Continuous
100
AcDbCircle
 10
199.83184
 20
311.473718
 30
0.0
 40
1.5
100
AcDbArc
 50
218.0109269999999
 51
329.4245430000001
  0
ARC
  5
BCD1
330
BC92
100
AcDbEntity
  8
1
  6
Continuous
100
AcDbCircle
 10
148.46816
 20
311.473718
 30
0.0
 40
1.5
100
AcDbArc
 50
210.5754569999998
 51
321.989073
  0
ARC
  5
BCD2
330
BC92
100
AcDbEntity
  8
1
  6
Continuous
100
AcDbCircle
 10
148.46816
 20
266.8262829999998
 30
0.0
 40
1.5
100
AcDbArc
 50
38.010927
 51
149.424543
  0
LINE
  5
BCD3
330
BC92
100
AcDbEntity
  8
1
  6
Continuous
100
AcDbLine
 10
164.25825
 20
164.104384
 30
0.0
 11
148.8494739999999
 21
214.15
 31
0.0
  0
LINE
  5
BCD4
330
BC92
100
AcDbEntity
  8
1
  6
Continuous
100
AcDbLine
 10
184.04175
 20
164.104384
 30
0.0
 11
199.450526
 21
214.15
 31
0.0
  0
LINE
  5
BCD5
330
BC92
100
AcDbEntity
  8
1
  6
Continuous
100
AcDbLine
 10
272.1499999999999
 20
214.15
 30
0.0
 11
272.1499999999999
 21
211.5499999999999
 31
0.0
  0
LINE
  5
BCD6
330
BC92
100
AcDbEntity
  8
1
  6
Continuous
100
AcDbLine
 10
322.1499999999999
 20
214.15
 30
0.0
 11
322.1499999999999
 21
211.5499999999999
 31
0.0
  0
LINE
  5
BCD7
330
BC92
100
AcDbEntity
  8
1
  6
Continuous
100
AcDbLine
 10
272.1499999999999
 20
214.15
 30
0.0
 11
322.1499999999999
 21
214.15
 31
0.0
  0
LINE
  5
BCD8
330
BC92
100
AcDbEntity
  8
1
  6
Continuous
100
AcDbLine
 10
272.1499999999999
 20
211.5499999999999
 30
0.0
 11
322.1499999999999
 21
211.5499999999999
 31
0.0
  0
LINE
  5
BCD9
330
BC92
100
AcDbEntity
  8
1
  6
Continuous
100
AcDbLine
 10
321.15
 20
200.15
 30
0.0
 11
321.15
 21
210.55
 31
0.0
  0
LINE
  5
BCDA
330
BC92
100
AcDbEntity
  8
1
  6
Continuous
100
AcDbLine
 10
318.55
 20
200.15
 30
0.0
 11
318.55
 21
210.55
 31
0.0
  0
ARC
  5
BCDB
330
BC92
100
AcDbEntity
  8
1
  6
Continuous
100
AcDbCircle
 10
174.15
 20
167.1499999999998
 30
0.0
 40
25.0
100
AcDbArc
 50
131.5696749999998
 51
48.430325
  0
CIRCLE
  5
BCDC
330
BC92
100
AcDbEntity
  8
1
  6
Continuous
100
AcDbCircle
 10
207.1499999999999
 20
271.15
 30
0.0
 40
3.25
  0
CIRCLE
  5
BCDD
330
BC92
100
AcDbEntity
  8
1
  6
Continuous
100
AcDbCircle
 10
207.1499999999999
 20
307.1499999999999
 30
0.0
 40
3.25
  0
CIRCLE
  5
BCDE
330
BC92
100
AcDbEntity
  8
1
  6
Continuous
100
AcDbCircle
 10
141.15
 20
307.1499999999999
 30
0.0
 40
3.25
  0
CIRCLE
  5
BCDF
330
BC92
100
AcDbEntity
  8
1
  6
Continuous
100
AcDbCircle
 10
141.15
 20
271.15
 30
0.0
 40
3.25
  0
ARC
  5
BCE0
330
BC92
100
AcDbEntity
  8
1
  6
Continuous
100
AcDbCircle
 10
309.1499999999999
 20
189.412532
 30
0.0
 40
2.0
100
AcDbArc
 50
0.0
 51
82.96653899999999
  0
ARC
  5
BCE1
330
BC92
100
AcDbEntity
  8
1
  6
Continuous
100
AcDbCircle
 10
285.1499999999999
 20
189.412532
 30
0.0
 40
2.0
100
AcDbArc
 50
97.033461
 51
180.0
  0
ARC
  5
BCE2
330
BC92
100
AcDbEntity
  8
1
  6
Continuous
100
AcDbCircle
 10
297.1499999999998
 20
92.15000000000001
 30
0.0
 40
100.0
100
AcDbArc
 50
82.965592
 51
97.033461
  0
LINE
  5
BCE3
330
BC92
100
AcDbEntity
  8
1
  6
Continuous
100
AcDbLine
 10
311.1499999999999
 20
144.8874689999998
 30
0.0
 11
311.1499999999999
 21
189.412532
 31
0.0
  0
LINE
  5
BCE4
330
BC92
100
AcDbEntity
  8
1
  6
Continuous
100
AcDbLine
 10
283.1499999999999
 20
144.8874689999998
 30
0.0
 11
283.1499999999999
 21
189.412532
 31
0.0
  0
ARC
  5
BCE5
330
BC92
100
AcDbEntity
  8
1
  6
Continuous
100
AcDbCircle
 10
292.057314
 20
177.006697
 30
0.0
 40
20.0
100
AcDbArc
 50
0.6801140000000001
 51
17.32435299999999
  0
ARC
  5
BCE6
330
BC92
100
AcDbEntity
  8
1
  6
Continuous
100
AcDbCircle
 10
292.057314
 20
157.293304
 30
0.0
 40
20.0
100
AcDbArc
 50
342.675647
 51
359.319886
  0
ARC
  5
BCE7
330
BC92
100
AcDbEntity
  8
1
  6
Continuous
100
AcDbCircle
 10
302.2426869999998
 20
177.006697
 30
0.0
 40
20.0
100
AcDbArc
 50
162.675647
 51
179.3198859999999
  0
LINE
  5
BCE8
330
BC92
100
AcDbEntity
  8
1
  6
Continuous
100
AcDbLine
 10
281.6499999999999
 20
157.65
 30
0.0
 11
282.244096
 21
157.0559049999999
 31
0.0
  0
ARC
  5
BCE9
330
BC92
100
AcDbEntity
  8
1
  6
Continuous
100
AcDbCircle
 10
302.2426869999998
 20
157.293304
 30
0.0
 40
20.0
100
AcDbArc
 50
180.680114
 51
197.3243529999998
  0
LINE
  5
BCEA
330
BC92
100
AcDbEntity
  8
1
  6
Continuous
100
AcDbLine
 10
281.6499999999999
 20
176.65
 30
0.0
 11
282.244096
 21
177.2440959999999
 31
0.0
  0
LINE
  5
BCEB
330
BC92
100
AcDbEntity
  8
1
  6
Continuous
100
AcDbLine
 10
312.055905
 20
177.2440959999999
 30
0.0
 11
312.055905
 21
157.0559049999999
 31
0.0
  0
LINE
  5
BCEC
330
BC92
100
AcDbEntity
  8
1
  6
Continuous
100
AcDbLine
 10
282.244096
 20
177.2440959999999
 30
0.0
 11
282.244096
 21
157.0559049999999
 31
0.0
  0
ARC
  5
BCED
330
BC92
100
AcDbEntity
  8
1
  6
Continuous
100
AcDbCircle
 10
174.15
 20
167.1499999999998
 30
0.0
 40
17.0
100
AcDbArc
 50
144.617802
 51
35.38219799999998
  0
ARC
  5
BCEE
330
BC92
100
AcDbEntity
  8
1
  6
Continuous
100
AcDbCircle
 10
174.15
 20
167.1499999999998
 30
0.0
 40
17.5
100
AcDbArc
 50
143.371767
 51
36.628233
  0
LINE
  5
BCEF
330
BC92
100
AcDbEntity
  8
1
  6
Continuous
100
AcDbLine
 10
315.5
 20
156.8
 30
0.0
 11
312.9
 21
156.8
 31
0.0
  0
ARC
  5
BCF0
330
BC92
100
AcDbEntity
  8
1
  6
Continuous
100
AcDbCircle
 10
183.2124999999998
 20
289.1499999999999
 30
0.0
 40
20.6875
100
AcDbArc
 50
312.0750220000001
 51
47.924978
  0
ARC
  5
BCF1
330
BC92
100
AcDbEntity
  8
1
  6
Continuous
100
AcDbCircle
 10
195.4
 20
275.6499999999999
 30
0.0
 40
2.5
100
AcDbArc
 50
132.0750219999998
 51
312.0750220000001
  0
ARC
  5
BCF2
330
BC92
100
AcDbEntity
  8
1
  6
Continuous
100
AcDbCircle
 10
183.2124999999998
 20
289.1499999999999
 30
0.0
 40
15.6875
100
AcDbArc
 50
312.0750220000001
 51
47.924978
  0
ARC
  5
BCF3
330
BC92
100
AcDbEntity
  8
1
  6
Continuous
100
AcDbCircle
 10
195.4
 20
302.6499999999999
 30
0.0
 40
2.5
100
AcDbArc
 50
47.924978
 51
227.9249779999998
  0
ARC
  5
BCF4
330
BC92
100
AcDbEntity
  8
1
  6
Continuous
100
AcDbCircle
 10
152.9
 20
302.6499999999999
 30
0.0
 40
2.5
100
AcDbArc
 50
312.0750220000001
 51
132.0750219999998
  0
ARC
  5
BCF5
330
BC92
100
AcDbEntity
  8
1
  6
Continuous
100
AcDbCircle
 10
165.0875
 20
289.1499999999999
 30
0.0
 40
15.6875
100
AcDbArc
 50
132.0750219999998
 51
227.9249779999998
  0
ARC
  5
BCF6
330
BC92
100
AcDbEntity
  8
1
  6
Continuous
100
AcDbCircle
 10
152.9
 20
275.6499999999999
 30
0.0
 40
2.5
100
AcDbArc
 50
227.9249779999998
 51
47.924978
  0
ARC
  5
BCF7
330
BC92
100
AcDbEntity
  8
1
  6
Continuous
100
AcDbCircle
 10
165.0875
 20
289.1499999999999
 30
0.0
 40
20.6875
100
AcDbArc
 50
132.0750219999998
 51
227.9249779999998
  0
LINE
  5
BCF8
330
BC92
100
AcDbEntity
  8
1
  6
Continuous
100
AcDbLine
 10
143.9
 20
211.05
 30
0.0
 11
143.9
 21
211.5499999999999
 31
0.0
  0
ARC
  5
BCF9
330
BC92
100
AcDbEntity
  8
1
  6
Continuous
100
AcDbCircle
 10
198.65
 20
292.0241149999998
 30
0.0
 40
21.125885
100
AcDbArc
 50
90.0
 51
127.022353
  0
ARC
  5
BCFA
330
BC92
100
AcDbEntity
  8
1
  6
Continuous
100
AcDbCircle
 10
149.65
 20
292.0241149999998
 30
0.0
 40
21.125885
100
AcDbArc
 50
52.977647
 51
90.0
  0
ARC
  5
BCFB
330
BC92
100
AcDbEntity
  8
1
  6
Continuous
100
AcDbCircle
 10
198.65
 20
286.275885
 30
0.0
 40
21.125885
100
AcDbArc
 50
232.977647
 51
270.0
  0
ARC
  5
BCFC
330
BC92
100
AcDbEntity
  8
1
  6
Continuous
100
AcDbCircle
 10
149.65
 20
286.275885
 30
0.0
 40
21.125885
100
AcDbArc
 50
270.0
 51
307.0223529999998
  0
LINE
  5
BCFD
330
BC92
100
AcDbEntity
  8
1
  6
Continuous
100
AcDbLine
 10
280.6499999999999
 20
211.05
 30
0.0
 11
280.6499999999999
 21
211.5499999999999
 31
0.0
  0
LINE
  5
BCFE
330
BC92
100
AcDbEntity
  8
1
  6
Continuous
100
AcDbLine
 10
313.6499999999998
 20
211.05
 30
0.0
 11
313.6499999999998
 21
211.5499999999999
 31
0.0
  0
LINE
  5
BCFF
330
BC92
100
AcDbEntity
  8
1
  6
Continuous
100
AcDbLine
 10
283.65
 20
210.55
 30
0.0
 11
310.65
 21
210.55
 31
0.0
  0
LINE
  5
BD00
330
BC92
100
AcDbEntity
  8
1
  6
Continuous
100
AcDbLine
 10
146.9
 20
210.55
 30
0.0
 11
149.957895
 21
210.55
 31
0.0
  0
LINE
  5
BD01
330
BC92
100
AcDbEntity
  8
1
  6
Continuous
100
AcDbLine
 10
143.9
 20
211.05
 30
0.0
 11
149.8347369999999
 21
211.05
 31
0.0
  0
ARC
  5
BD02
330
BC92
100
AcDbEntity
  8
1
  6
Continuous
100
AcDbCircle
 10
146.9
 20
219.7999999999999
 30
0.0
 40
9.25
100
AcDbArc
 50
251.075356
 51
270.0
  0
LINE
  5
BD03
330
BC92
100
AcDbEntity
  8
1
  6
Continuous
100
AcDbLine
 10
204.4
 20
211.05
 30
0.0
 11
204.4
 21
211.5499999999999
 31
0.0
  0
LINE
  5
BD04
330
BC92
100
AcDbEntity
  8
1
  6
Continuous
100
AcDbLine
 10
201.4
 20
210.55
 30
0.0
 11
198.3421059999998
 21
210.55
 31
0.0
  0
LINE
  5
BD05
330
BC92
100
AcDbEntity
  8
1
  6
Continuous
100
AcDbLine
 10
204.4
 20
211.05
 30
0.0
 11
198.465263
 21
211.05
 31
0.0
  0
ARC
  5
BD06
330
BC92
100
AcDbEntity
  8
1
  6
Continuous
100
AcDbCircle
 10
201.4
 20
219.7999999999999
 30
0.0
 40
9.25
100
AcDbArc
 50
270.0
 51
288.9246439999999
  0
LINE
  5
BD07
330
BC92
100
AcDbEntity
  8
1
  6
Continuous
100
AcDbLine
 10
280.6499999999999
 20
211.05
 30
0.0
 11
313.6499999999998
 21
211.05
 31
0.0
  0
ARC
  5
BD08
330
BC92
100
AcDbEntity
  8
1
  6
Continuous
100
AcDbCircle
 10
283.65
 20
219.7999999999999
 30
0.0
 40
9.25
100
AcDbArc
 50
251.075356
 51
270.0
  0
ARC
  5
BD09
330
BC92
100
AcDbEntity
  8
1
  6
Continuous
100
AcDbCircle
 10
310.65
 20
219.7999999999999
 30
0.0
 40
9.25
100
AcDbArc
 50
270.0
 51
288.9246439999999
  0
LINE
  5
BD0A
330
BC92
100
AcDbEntity
  8
1
  6
Continuous
100
AcDbLine
 10
166.544206
 20
163.7040749999999
 30
0.0
 11
166.544206
 21
209.65
 31
0.0
  0
LINE
  5
BD0B
330
BC92
100
AcDbEntity
  8
1
  6
Continuous
100
AcDbLine
 10
181.755794
 20
163.7040749999999
 30
0.0
 11
181.755794
 21
209.65
 31
0.0
  0
LINE
  5
BD0C
330
BC92
100
AcDbEntity
  8
4
  6
CENTER
100
AcDbLine
 10
217.1499999999999
 20
289.1499999999999
 30
0.0
 11
131.15
 21
289.1499999999999
 31
0.0
  0
LINE
  5
BD0D
330
BC92
100
AcDbEntity
  8
4
  6
CENTER
100
AcDbLine
 10
297.1499999999998
 20
139.15
 30
0.0
 11
297.1499999999998
 21
217.1499999999999
 31
0.0
  0
LINE
  5
BD0E
330
BC92
100
AcDbEntity
  8
4
  6
CENTER
100
AcDbLine
 10
271.038377
 20
167.1499999999998
 30
0.0
 11
326.5383770000001
 21
167.1499999999998
 31
0.0
  0
LINE
  5
BD0F
330
BC92
100
AcDbEntity
  8
4
  6
CENTER
100
AcDbLine
 10
213.3999999999999
 20
271.15
 30
0.0
 11
200.8999999999999
 21
271.15
 31
0.0
  0
LINE
  5
BD10
330
BC92
100
AcDbEntity
  8
4
  6
CENTER
100
AcDbLine
 10
207.1499999999999
 20
277.4
 30
0.0
 11
207.1499999999999
 21
264.9
 31
0.0
  0
LINE
  5
BD11
330
BC92
100
AcDbEntity
  8
4
  6
CENTER
100
AcDbLine
 10
213.3999999999999
 20
307.1499999999999
 30
0.0
 11
200.8999999999999
 21
307.1499999999999
 31
0.0
  0
LINE
  5
BD12
330
BC92
100
AcDbEntity
  8
4
  6
CENTER
100
AcDbLine
 10
207.1499999999999
 20
313.3999999999999
 30
0.0
 11
207.1499999999999
 21
300.8999999999999
 31
0.0
  0
LINE
  5
BD13
330
BC92
100
AcDbEntity
  8
4
  6
CENTER
100
AcDbLine
 10
147.4
 20
307.1499999999999
 30
0.0
 11
134.8999999999997
 21
307.1499999999999
 31
0.0
  0
LINE
  5
BD14
330
BC92
100
AcDbEntity
  8
4
  6
CENTER
100
AcDbLine
 10
141.15
 20
313.3999999999999
 30
0.0
 11
141.15
 21
300.8999999999999
 31
0.0
  0
LINE
  5
BD15
330
BC92
100
AcDbEntity
  8
4
  6
CENTER
100
AcDbLine
 10
147.4
 20
271.15
 30
0.0
 11
134.8999999999997
 21
271.15
 31
0.0
  0
LINE
  5
BD16
330
BC92
100
AcDbEntity
  8
4
  6
CENTER
100
AcDbLine
 10
141.15
 20
277.4
 30
0.0
 11
141.15
 21
264.9
 31
0.0
  0
LINE
  5
BD17
330
BC92
100
AcDbEntity
  8
4
  6
CENTER
100
AcDbLine
 10
174.15
 20
263.038338
 30
0.0
 11
174.15
 21
317.7867439999999
 31
0.0
  0
LINE
  5
BD18
330
BC92
100
AcDbEntity
  8
4
  6
CENTER
100
AcDbLine
 10
141.15
 20
216.355136
 30
0.0
 11
141.15
 21
209.228359
 31
0.0
  0
LINE
  5
BD19
330
BC92
100
AcDbEntity
  8
4
  6
CENTER
100
AcDbLine
 10
207.1499999999999
 20
216.355136
 30
0.0
 11
207.1499999999999
 21
209.228359
 31
0.0
  0
LINE
  5
BD1A
330
BC92
100
AcDbEntity
  8
4
  6
CENTER
100
AcDbLine
 10
279.1499999999999
 20
216.348162
 30
0.0
 11
279.1499999999999
 21
209.4426129999999
 31
0.0
  0
LINE
  5
BD1B
330
BC92
100
AcDbEntity
  8
4
  6
CENTER
100
AcDbLine
 10
315.1499999999999
 20
216.348162
 30
0.0
 11
315.1499999999999
 21
209.4426129999999
 31
0.0
  0
LINE
  5
BD1C
330
BC92
100
AcDbEntity
  8
4
  6
CENTER
100
AcDbLine
 10
146.15
 20
167.1499999999998
 30
0.0
 11
202.15
 21
167.1499999999998
 31
0.0
  0
LINE
  5
BD1D
330
BC92
100
AcDbEntity
  8
4
  6
CENTER
100
AcDbLine
 10
174.15
 20
139.15
 30
0.0
 11
174.15
 21
218.134341
 31
0.0
  0
LINE
  5
BD1E
330
BC92
100
AcDbEntity
  8
1
  6
Continuous
100
AcDbLine
 10
166.65
 20
309.5
 30
0.0
 11
181.6499999999998
 21
309.5
 31
0.0
  0
LINE
  5
BD1F
330
BC92
100
AcDbEntity
  8
1
  6
Continuous
100
AcDbLine
 10
166.65
 20
307.5
 30
0.0
 11
166.65
 21
309.5
 31
0.0
  0
LINE
  5
BD20
330
BC92
100
AcDbEntity
  8
1
  6
Continuous
100
AcDbLine
 10
181.6499999999998
 20
307.5
 30
0.0
 11
181.6499999999998
 21
309.5
 31
0.0
  0
LINE
  5
BD21
330
BC92
100
AcDbEntity
  8
1
  6
Continuous
100
AcDbLine
 10
167.1499999999998
 20
268.473762
 30
0.0
 11
167.1499999999998
 21
270.8
 31
0.0
  0
LINE
  5
BD22
330
BC92
100
AcDbEntity
  8
1
  6
Continuous
100
AcDbLine
 10
181.15
 20
268.473762
 30
0.0
 11
181.15
 21
270.8
 31
0.0
  0
ARC
  5
BD23
330
BC92
100
AcDbEntity
  8
1
  6
Continuous
100
AcDbCircle
 10
174.15
 20
276.3
 30
0.0
 40
10.5
100
AcDbArc
 50
228.1896849999998
 51
311.810315
  0
LINE
  5
BD24
330
BC92
100
AcDbEntity
  8
1
  6
Continuous
100
AcDbLine
 10
167.1499999999998
 20
268.473762
 30
0.0
 11
181.15
 21
268.473762
 31
0.0
  0
LINE
  5
BD25
330
BC92
100
AcDbEntity
  8
1
  6
Continuous
100
AcDbLine
 10
170.75
 20
315.3
 30
0.0
 11
177.55
 21
315.3
 31
0.0
  0
LINE
  5
BD26
330
BC92
100
AcDbEntity
  8
1
  6
Continuous
100
AcDbLine
 10
170.15
 20
314.6999999999998
 30
0.0
 11
170.15
 21
314.5
 31
0.0
  0
LINE
  5
BD27
330
BC92
100
AcDbEntity
  8
1
  6
Continuous
100
AcDbLine
 10
178.15
 20
314.6999999999998
 30
0.0
 11
178.15
 21
314.5
 31
0.0
  0
LINE
  5
BD28
330
BC92
100
AcDbEntity
  8
1
  6
Continuous
100
AcDbLine
 10
170.15
 20
314.6999999999998
 30
0.0
 11
178.15
 21
314.6999999999998
 31
0.0
  0
LINE
  5
BD29
330
BC92
100
AcDbEntity
  8
1
  6
Continuous
100
AcDbLine
 10
172.1499999999998
 20
309.5
 30
0.0
 11
174.15
 21
307.5
 31
0.0
  0
LINE
  5
BD2A
330
BC92
100
AcDbEntity
  8
1
  6
Continuous
100
AcDbLine
 10
174.15
 20
309.5
 30
0.0
 11
176.15
 21
307.5
 31
0.0
  0
ARC
  5
BD2B
330
BC92
100
AcDbEntity
  8
1
  6
Continuous
100
AcDbCircle
 10
171.15
 20
305.8349359999999
 30
0.0
 40
8.665063999999999
100
AcDbArc
 50
69.743842
 51
110.256158
  0
ARC
  5
BD2C
330
BC92
100
AcDbEntity
  8
1
  6
Continuous
100
AcDbCircle
 10
171.15
 20
318.1650639999999
 30
0.0
 40
8.665063999999999
100
AcDbArc
 50
249.7438419999999
 51
290.256158
  0
LINE
  5
BD2D
330
BC92
100
AcDbEntity
  8
1
  6
Continuous
100
AcDbLine
 10
180.15
 20
314.5
 30
0.0
 11
168.1499999999998
 21
314.5
 31
0.0
  0
LINE
  5
BD2E
330
BC92
100
AcDbEntity
  8
1
  6
Continuous
100
AcDbLine
 10
168.1499999999998
 20
309.5
 30
0.0
 11
168.1499999999998
 21
314.5
 31
0.0
  0
ARC
  5
BD2F
330
BC92
100
AcDbEntity
  8
1
  6
Continuous
100
AcDbCircle
 10
177.15
 20
305.8349359999999
 30
0.0
 40
8.665063999999999
100
AcDbArc
 50
69.743842
 51
110.256158
  0
ARC
  5
BD30
330
BC92
100
AcDbEntity
  8
1
  6
Continuous
100
AcDbCircle
 10
177.15
 20
318.1650639999999
 30
0.0
 40
8.665063999999999
100
AcDbArc
 50
249.7438419999999
 51
290.256158
  0
LINE
  5
BD31
330
BC92
100
AcDbEntity
  8
1
  6
Continuous
100
AcDbLine
 10
174.15
 20
313.964102
 30
0.0
 11
174.15
 21
310.0358979999999
 31
0.0
  0
LINE
  5
BD32
330
BC92
100
AcDbEntity
  8
1
  6
Continuous
100
AcDbLine
 10
180.15
 20
309.5
 30
0.0
 11
180.15
 21
314.5
 31
0.0
  0
LINE
  5
BD33
330
BC92
100
AcDbEntity
  8
2
  6
Continuous
100
AcDbLine
 10
177.4734999999998
 20
314.5
 30
0.0
 11
177.4734999999998
 21
315.3
 31
0.0
  0
LINE
  5
BD34
330
BC92
100
AcDbEntity
  8
2
  6
Continuous
100
AcDbLine
 10
170.8265
 20
314.5
 30
0.0
 11
170.8265
 21
315.3
 31
0.0
  0
ARC
  5
BD35
330
BC92
100
AcDbEntity
  8
1
  6
Continuous
100
AcDbCircle
 10
328.964102
 20
167.1499999999998
 30
0.0
 40
11.464102
100
AcDbArc
 50
162.412046
 51
197.5879539999999
  0
ARC
  5
BD36
330
BC92
100
AcDbEntity
  8
1
  6
Continuous
100
AcDbCircle
 10
311.0358979999999
 20
167.1499999999998
 30
0.0
 40
11.464102
100
AcDbArc
 50
342.4120459999999
 51
17.587954
  0
LINE
  5
BD37
330
BC92
100
AcDbEntity
  8
1
  6
Continuous
100
AcDbLine
 10
322.5
 20
161.15
 30
0.0
 11
322.5
 21
173.15
 31
0.0
  0
LINE
  5
BD38
330
BC92
100
AcDbEntity
  8
1
  6
Continuous
100
AcDbLine
 10
321.964102
 20
174.078203
 30
0.0
 11
322.5
 21
173.15
 31
0.0
  0
LINE
  5
BD39
330
BC92
100
AcDbEntity
  8
1
  6
Continuous
100
AcDbLine
 10
321.964102
 20
174.078203
 30
0.0
 11
318.2362470000001
 21
174.078203
 31
0.0
  0
LINE
  5
BD3A
330
BC92
100
AcDbEntity
  8
1
  6
Continuous
100
AcDbLine
 10
321.964102
 20
170.614102
 30
0.0
 11
318.0358979999998
 21
170.614102
 31
0.0
  0
ARC
  5
BD3B
330
BC92
100
AcDbEntity
  8
1
  6
Continuous
100
AcDbCircle
 10
319.433013
 20
172.3461519999999
 30
0.0
 40
3.066986999999998
100
AcDbArc
 50
325.6157529999999
 51
25.615753
  0
ARC
  5
BD3C
330
BC92
100
AcDbEntity
  8
1
  6
Continuous
100
AcDbCircle
 10
320.5669869999999
 20
172.3461519999999
 30
0.0
 40
3.066986999999998
100
AcDbArc
 50
196.1292639999998
 51
214.384247
  0
ARC
  5
BD3D
330
BC92
100
AcDbEntity
  8
1
  6
Continuous
100
AcDbCircle
 10
320.5669869999999
 20
161.9538479999999
 30
0.0
 40
3.066986999999998
100
AcDbArc
 50
145.615753
 51
205.615753
  0
ARC
  5
BD3E
330
BC92
100
AcDbEntity
  8
1
  6
Continuous
100
AcDbCircle
 10
319.433013
 20
161.9538479999999
 30
0.0
 40
3.066986999999998
100
AcDbArc
 50
334.384247
 51
34.38424699999998
  0
LINE
  5
BD3F
330
BC92
100
AcDbEntity
  8
1
  6
Continuous
100
AcDbLine
 10
321.964102
 20
163.685898
 30
0.0
 11
318.0358979999998
 21
163.685898
 31
0.0
  0
LINE
  5
BD40
330
BC92
100
AcDbEntity
  8
1
  6
Continuous
100
AcDbLine
 10
321.964102
 20
160.221797
 30
0.0
 11
318.0358979999998
 21
160.221797
 31
0.0
  0
LINE
  5
BD41
330
BC92
100
AcDbEntity
  8
1
  6
Continuous
100
AcDbLine
 10
321.964102
 20
160.221797
 30
0.0
 11
322.5
 21
161.15
 31
0.0
  0
LINE
  5
BD42
330
BC92
100
AcDbEntity
  8
1
  6
Continuous
100
AcDbLine
 10
318.0358979999998
 20
160.221797
 30
0.0
 11
317.5
 21
161.15
 31
0.0
  0
CIRCLE
  5
BD43
330
BC92
100
AcDbEntity
  8
1
  6
Continuous
100
AcDbCircle
 10
420.15
 20
167.1499999999998
 30
0.0
 40
7.5
  0
CIRCLE
  5
BD44
330
BC92
100
AcDbEntity
  8
1
  6
Continuous
100
AcDbCircle
 10
420.15
 20
167.1499999999998
 30
0.0
 40
4.0
  0
CIRCLE
  5
BD45
330
BC92
100
AcDbEntity
  8
2
  6
Continuous
100
AcDbCircle
 10
420.15
 20
167.1499999999998
 30
0.0
 40
3.3235
  0
LINE
  5
BD46
330
BC92
100
AcDbEntity
  8
1
  6
Continuous
100
AcDbLine
 10
414.1499999999998
 20
170.614102
 30
0.0
 11
414.1499999999998
 21
163.685898
 31
0.0
  0
LINE
  5
BD47
330
BC92
100
AcDbEntity
  8
1
  6
Continuous
100
AcDbLine
 10
426.1499999999998
 20
170.614102
 30
0.0
 11
426.1499999999998
 21
163.685898
 31
0.0
  0
CIRCLE
  5
BD48
330
BC92
100
AcDbEntity
  8
1
  6
Continuous
100
AcDbCircle
 10
420.15
 20
167.1499999999998
 30
0.0
 40
6.0
  0
LINE
  5
BD49
330
BC92
100
AcDbEntity
  8
1
  6
Continuous
100
AcDbLine
 10
420.15
 20
160.221797
 30
0.0
 11
426.1499999999998
 21
163.685898
 31
0.0
  0
LINE
  5
BD4A
330
BC92
100
AcDbEntity
  8
1
  6
Continuous
100
AcDbLine
 10
420.15
 20
160.221797
 30
0.0
 11
414.1499999999998
 21
163.685898
 31
0.0
  0
LINE
  5
BD4B
330
BC92
100
AcDbEntity
  8
1
  6
Continuous
100
AcDbLine
 10
426.1499999999998
 20
170.614102
 30
0.0
 11
420.15
 21
174.078203
 31
0.0
  0
LINE
  5
BD4C
330
BC92
100
AcDbEntity
  8
1
  6
Continuous
100
AcDbLine
 10
414.1499999999998
 20
170.614102
 30
0.0
 11
420.15
 21
174.078203
 31
0.0
  0
LINE
  5
BD4D
330
BC92
100
AcDbEntity
  8
1
  6
Continuous
100
AcDbLine
 10
170.15
 20
314.6999999999998
 30
0.0
 11
170.75
 21
315.3
 31
0.0
  0
LINE
  5
BD4E
330
BC92
100
AcDbEntity
  8
1
  6
Continuous
100
AcDbLine
 10
177.55
 20
315.3
 30
0.0
 11
178.15
 21
314.6999999999998
 31
0.0
  0
LINE
  5
BD4F
330
BC92
100
AcDbEntity
  8
1
  6
Continuous
100
AcDbLine
 10
214.15
 20
214.15
 30
0.0
 11
214.15
 21
211.5499999999999
 31
0.0
  0
LINE
  5
BD50
330
BC92
100
AcDbEntity
  8
1
  6
Continuous
100
AcDbLine
 10
134.15
 20
214.15
 30
0.0
 11
134.15
 21
211.5499999999999
 31
0.0
  0
LINE
  5
BD51
330
BC92
100
AcDbEntity
  8
1
  6
Continuous
100
AcDbLine
 10
412.544206
 20
163.7040749999999
 30
0.0
 11
412.544206
 21
209.65
 31
0.0
  0
LINE
  5
BD52
330
BC92
100
AcDbEntity
  8
1
  6
Continuous
100
AcDbLine
 10
410.2582499999998
 20
164.104384
 30
0.0
 11
394.8494740000001
 21
214.15
 31
0.0
  0
LINE
  5
BD53
330
BC92
100
AcDbEntity
  8
1
  6
Continuous
100
AcDbLine
 10
427.755794
 20
163.7040749999999
 30
0.0
 11
427.755794
 21
209.65
 31
0.0
  0
LINE
  5
BD54
330
BC92
100
AcDbEntity
  8
1
  6
Continuous
100
AcDbLine
 10
430.04175
 20
164.104384
 30
0.0
 11
445.4505259999998
 21
214.15
 31
0.0
  0
LINE
  5
BD55
330
BC92
100
AcDbEntity
  8
4
  6
CENTER
100
AcDbLine
 10
420.15
 20
139.15
 30
0.0
 11
420.15
 21
218.134341
 31
0.0
  0
LINE
  5
BD56
330
BC92
100
AcDbEntity
  8
4
  6
CENTER
100
AcDbLine
 10
448.1499999999998
 20
167.1499999999998
 30
0.0
 11
392.1499999999999
 21
167.1499999999998
 31
0.0
  0
ARC
  5
BD57
330
BC92
100
AcDbEntity
  8
1
  6
Continuous
100
AcDbCircle
 10
420.15
 20
167.1499999999998
 30
0.0
 40
17.5
100
AcDbArc
 50
143.371767
 51
36.628233
  0
ARC
  5
BD58
330
BC92
100
AcDbEntity
  8
1
  6
Continuous
100
AcDbCircle
 10
420.15
 20
167.1499999999998
 30
0.0
 40
17.0
100
AcDbArc
 50
144.617802
 51
35.38219799999998
  0
ARC
  5
BD59
330
BC92
100
AcDbEntity
  8
1
  6
Continuous
100
AcDbCircle
 10
420.15
 20
167.1499999999998
 30
0.0
 40
25.0
100
AcDbArc
 50
131.5696749999998
 51
48.430325
  0
ARC
  5
BD5A
330
BC92
100
AcDbEntity
  8
1
  6
Continuous
100
AcDbCircle
 10
420.15
 20
167.1499999999998
 30
0.0
 40
10.34999999999999
100
AcDbArc
 50
197.113317
 51
342.886683
  0
LINE
  5
BD5B
330
BC92
100
AcDbEntity
  8
1
  6
Continuous
100
AcDbLine
 10
460.1499999999998
 20
214.15
 30
0.0
 11
380.1499999999998
 21
214.15
 31
0.0
  0
LINE
  5
BD5C
330
BC92
100
AcDbEntity
  8
1
  6
Continuous
100
AcDbLine
 10
460.1499999999998
 20
211.5499999999999
 30
0.0
 11
444.6499999999998
 21
211.5499999999999
 31
0.0
  0
LINE
  5
BD5D
330
BC92
100
AcDbEntity
  8
1
  6
Continuous
100
AcDbLine
 10
460.1499999999998
 20
214.15
 30
0.0
 11
460.1499999999998
 21
211.5499999999999
 31
0.0
  0
LINE
  5
BD5E
330
BC92
100
AcDbEntity
  8
1
  6
Continuous
100
AcDbLine
 10
447.4
 20
210.55
 30
0.0
 11
444.342105
 21
210.55
 31
0.0
  0
LINE
  5
BD5F
330
BC92
100
AcDbEntity
  8
4
  6
CENTER
100
AcDbLine
 10
453.15
 20
216.355136
 30
0.0
 11
453.15
 21
209.228359
 31
0.0
  0
LINE
  5
BD60
330
BC92
100
AcDbEntity
  8
1
  6
Continuous
100
AcDbLine
 10
450.3999999999998
 20
211.05
 30
0.0
 11
450.3999999999998
 21
211.5499999999999
 31
0.0
  0
ARC
  5
BD61
330
BC92
100
AcDbEntity
  8
1
  6
Continuous
100
AcDbCircle
 10
447.4
 20
219.7999999999999
 30
0.0
 40
9.25
100
AcDbArc
 50
270.0
 51
288.9246439999999
  0
LINE
  5
BD62
330
BC92
100
AcDbEntity
  8
1
  6
Continuous
100
AcDbLine
 10
450.3999999999998
 20
211.05
 30
0.0
 11
444.465263
 21
211.05
 31
0.0
  0
LINE
  5
BD63
330
BC92
100
AcDbEntity
  8
1
  6
Continuous
100
AcDbLine
 10
395.6499999999999
 20
211.5499999999999
 30
0.0
 11
380.1499999999998
 21
211.5499999999999
 31
0.0
  0
LINE
  5
BD64
330
BC92
100
AcDbEntity
  8
1
  6
Continuous
100
AcDbLine
 10
389.9
 20
211.05
 30
0.0
 11
395.834737
 21
211.05
 31
0.0
  0
LINE
  5
BD65
330
BC92
100
AcDbEntity
  8
1
  6
Continuous
100
AcDbLine
 10
392.8999999999999
 20
210.55
 30
0.0
 11
395.957894
 21
210.55
 31
0.0
  0
LINE
  5
BD66
330
BC92
100
AcDbEntity
  8
1
  6
Continuous
100
AcDbLine
 10
380.1499999999998
 20
214.15
 30
0.0
 11
380.1499999999998
 21
211.5499999999999
 31
0.0
  0
LINE
  5
BD67
330
BC92
100
AcDbEntity
  8
4
  6
CENTER
100
AcDbLine
 10
387.1499999999999
 20
216.355136
 30
0.0
 11
387.1499999999999
 21
209.228359
 31
0.0
  0
ARC
  5
BD68
330
BC92
100
AcDbEntity
  8
1
  6
Continuous
100
AcDbCircle
 10
392.8999999999999
 20
219.7999999999999
 30
0.0
 40
9.25
100
AcDbArc
 50
251.075356
 51
270.0
  0
LINE
  5
BD69
330
BC92
100
AcDbEntity
  8
1
  6
Continuous
100
AcDbLine
 10
389.9
 20
211.05
 30
0.0
 11
389.9
 21
211.5499999999999
 31
0.0
  0
ARC
  5
BD6A
330
BC92
100
AcDbEntity
  8
1
  6
Continuous
100
AcDbCircle
 10
285.1499999999999
 20
144.8874679999998
 30
0.0
 40
2.0
100
AcDbArc
 50
180.0
 51
262.9665389999999
  0
ARC
  5
BD6B
330
BC92
100
AcDbEntity
  8
1
  6
Continuous
100
AcDbCircle
 10
297.1499999999998
 20
242.1499999999999
 30
0.0
 40
100.0
100
AcDbArc
 50
262.9665389999999
 51
277.034408
  0
ARC
  5
BD6C
330
BC92
100
AcDbEntity
  8
1
  6
Continuous
100
AcDbCircle
 10
309.1499999999999
 20
144.8874679999998
 30
0.0
 40
2.0
100
AcDbArc
 50
277.0334609999998
 51
0.0
  0
LINE
  5
BD6D
330
BC92
100
AcDbEntity
  8
1
  6
Continuous
100
AcDbLine
 10
312.9
 20
156.8
 30
0.0
 11
312.9
 21
210.8278209999999
 31
0.0
  0
LINE
  5
BD6E
330
BC92
100
AcDbEntity
  8
1
  6
Continuous
100
AcDbLine
 10
312.65
 20
176.65
 30
0.0
 11
312.0559039999998
 21
177.2440959999999
 31
0.0
  0
LINE
  5
BD6F
330
BC92
100
AcDbEntity
  8
1
  6
Continuous
100
AcDbLine
 10
312.65
 20
157.65
 30
0.0
 11
312.0559039999998
 21
157.0559049999999
 31
0.0
  0
LINE
  5
BD70
330
BC92
100
AcDbEntity
  8
1
  6
Continuous
100
AcDbLine
 10
312.65
 20
176.65
 30
0.0
 11
312.65
 21
157.65
 31
0.0
  0
LINE
  5
BD71
330
BC92
100
AcDbEntity
  8
1
  6
Continuous
100
AcDbLine
 10
315.5
 20
156.8
 30
0.0
 11
315.5
 21
160.279867
 31
0.0
  0
LINE
  5
BD72
330
BC92
100
AcDbEntity
  8
1
  6
Continuous
100
AcDbLine
 10
312.65
 20
171.15
 30
0.0
 11
312.9
 21
171.15
 31
0.0
  0
LINE
  5
BD73
330
BC92
100
AcDbEntity
  8
1
  6
Continuous
100
AcDbLine
 10
312.65
 20
163.15
 30
0.0
 11
312.9
 21
163.15
 31
0.0
  0
ARC
  5
BD74
330
BC92
100
AcDbEntity
  8
1
  6
Continuous
100
AcDbCircle
 10
317.5499999999999
 20
210.55
 30
0.0
 40
1.0
100
AcDbArc
 50
0.0
 51
90.0
  0
ARC
  5
BD75
330
BC92
100
AcDbEntity
  8
1
  6
Continuous
100
AcDbCircle
 10
317.5499999999999
 20
210.55
 30
0.0
 40
3.6
100
AcDbArc
 50
0.0
 51
16.12762
  0
ARC
  5
BD76
330
BC92
100
AcDbEntity
  8
1
  6
Continuous
100
AcDbCircle
 10
203.0499999999999
 20
200.15
 30
0.0
 40
115.5
100
AcDbArc
 50
343.86863
 51
0.0
  0
ARC
  5
BD77
330
BC92
100
AcDbEntity
  8
1
  6
Continuous
100
AcDbCircle
 10
340.8999999999999
 20
160.279867
 30
0.0
 40
28.0
100
AcDbArc
 50
163.8686299999999
 51
180.0
  0
ARC
  5
BD78
330
BC92
100
AcDbEntity
  8
1
  6
Continuous
100
AcDbCircle
 10
203.0499999999999
 20
200.15
 30
0.0
 40
118.1
100
AcDbArc
 50
343.86863
 51
0.0
  0
ARC
  5
BD79
330
BC92
100
AcDbEntity
  8
1
  6
Continuous
100
AcDbCircle
 10
340.8999999999999
 20
160.279867
 30
0.0
 40
25.4
100
AcDbArc
 50
163.8686299999999
 51
180.0
  0
ARC
  5
BD7A
330
BC92
100
AcDbEntity
  8
1
  6
Continuous
100
AcDbCircle
 10
276.75
 20
210.55
 30
0.0
 40
3.6
100
AcDbArc
 50
163.8723799999999
 51
180.0
  0
ARC
  5
BD7B
330
BC92
100
AcDbEntity
  8
1
  6
Continuous
100
AcDbCircle
 10
276.75
 20
210.55
 30
0.0
 40
1.0
100
AcDbArc
 50
90.0
 51
180.0
  0
LINE
  5
BD7C
330
BC92
100
AcDbEntity
  8
1
  6
Continuous
100
AcDbLine
 10
273.15
 20
200.15
 30
0.0
 11
273.15
 21
210.55
 31
0.0
  0
LINE
  5
BD7D
330
BC92
100
AcDbEntity
  8
1
  6
Continuous
100
AcDbLine
 10
275.7499999999998
 20
200.15
 30
0.0
 11
275.7499999999998
 21
210.55
 31
0.0
  0
LINE
  5
BD7E
330
BC92
100
AcDbEntity
  8
1
  6
Continuous
100
AcDbLine
 10
281.3999999999999
 20
156.8
 30
0.0
 11
281.3999999999999
 21
210.8278209999999
 31
0.0
  0
ARC
  5
BD7F
330
BC92
100
AcDbEntity
  8
1
  6
Continuous
100
AcDbCircle
 10
391.25
 20
200.15
 30
0.0
 40
118.1
100
AcDbArc
 50
180.0
 51
196.13137
  0
ARC
  5
BD80
330
BC92
100
AcDbEntity
  8
1
  6
Continuous
100
AcDbCircle
 10
391.25
 20
200.15
 30
0.0
 40
115.5
100
AcDbArc
 50
180.0
 51
196.13137
  0
ARC
  5
BD81
330
BC92
100
AcDbEntity
  8
1
  6
Continuous
100
AcDbCircle
 10
253.4
 20
160.279867
 30
0.0
 40
25.4
100
AcDbArc
 50
0.0
 51
16.13137
  0
ARC
  5
BD82
330
BC92
100
AcDbEntity
  8
1
  6
Continuous
100
AcDbCircle
 10
253.4
 20
160.279867
 30
0.0
 40
28.0
100
AcDbArc
 50
0.0
 51
16.13137
  0
LINE
  5
BD83
330
BC92
100
AcDbEntity
  8
1
  6
Continuous
100
AcDbLine
 10
278.8
 20
156.8
 30
0.0
 11
278.8
 21
160.279867
 31
0.0
  0
LINE
  5
BD84
330
BC92
100
AcDbEntity
  8
1
  6
Continuous
100
AcDbLine
 10
278.8
 20
156.8
 30
0.0
 11
281.3999999999999
 21
156.8
 31
0.0
  0
LINE
  5
BD85
330
BC92
100
AcDbEntity
  8
1
  6
Continuous
100
AcDbLine
 10
281.6499999999999
 20
171.15
 30
0.0
 11
281.3999999999999
 21
171.15
 31
0.0
  0
LINE
  5
BD86
330
BC92
100
AcDbEntity
  8
1
  6
Continuous
100
AcDbLine
 10
281.6499999999999
 20
163.15
 30
0.0
 11
281.3999999999999
 21
163.15
 31
0.0
  0
LINE
  5
BD87
330
BC92
100
AcDbEntity
  8
1
  6
Continuous
100
AcDbLine
 10
281.6499999999999
 20
176.65
 30
0.0
 11
281.6499999999999
 21
157.65
 31
0.0
  0
LINE
  5
BD88
330
BC92
100
AcDbEntity
  8
1
  6
Continuous
100
AcDbLine
 10
317.5
 20
171.015699
 30
0.0
 11
317.5
 21
159.6499999999998
 31
0.0
  0
LINE
  5
BD89
330
BC92
100
AcDbEntity
  8
1
  6
Continuous
100
AcDbLine
 10
323.3
 20
163.75
 30
0.0
 11
322.6999999999998
 21
163.15
 31
0.0
  0
LINE
  5
BD8A
330
BC92
100
AcDbEntity
  8
1
  6
Continuous
100
AcDbLine
 10
322.6999999999998
 20
171.15
 30
0.0
 11
323.3
 21
170.55
 31
0.0
  0
LINE
  5
BD8B
330
BC92
100
AcDbEntity
  8
2
  6
Continuous
100
AcDbLine
 10
322.5
 20
170.4735
 30
0.0
 11
323.3
 21
170.4735
 31
0.0
  0
LINE
  5
BD8C
330
BC92
100
AcDbEntity
  8
2
  6
Continuous
100
AcDbLine
 10
322.5
 20
163.8265
 30
0.0
 11
323.3
 21
163.8265
 31
0.0
  0
LINE
  5
BD8D
330
BC92
100
AcDbEntity
  8
1
  6
Continuous
100
AcDbLine
 10
317.5
 20
167.1499999999998
 30
0.0
 11
316.094889
 21
165.7448889999998
 31
0.0
  0
LINE
  5
BD8E
330
BC92
100
AcDbEntity
  8
1
  6
Continuous
100
AcDbLine
 10
317.5
 20
169.15
 30
0.0
 11
316.8222819999999
 21
168.472282
 31
0.0
  0
LINE
  5
BD8F
330
BC92
100
AcDbEntity
  8
1
  6
Continuous
100
AcDbLine
 10
322.6999999999998
 20
171.15
 30
0.0
 11
322.6999999999998
 21
163.15
 31
0.0
  0
LINE
  5
BD90
330
BC92
100
AcDbEntity
  8
1
  6
Continuous
100
AcDbLine
 10
322.6999999999998
 20
163.15
 30
0.0
 11
322.5
 21
163.15
 31
0.0
  0
LINE
  5
BD91
330
BC92
100
AcDbEntity
  8
1
  6
Continuous
100
AcDbLine
 10
322.6999999999998
 20
171.15
 30
0.0
 11
322.5
 21
171.15
 31
0.0
  0
LINE
  5
BD92
330
BC92
100
AcDbEntity
  8
1
  6
Continuous
100
AcDbLine
 10
323.3
 20
170.55
 30
0.0
 11
323.3
 21
163.75
 31
0.0
  0
LINE
  5
BD93
330
BC92
100
AcDbEntity
  8
1
  6
Continuous
100
AcDbLine
 10
315.5
 20
159.6499999999998
 30
0.0
 11
317.5
 21
159.6499999999998
 31
0.0
  0
LINE
  5
BD94
330
BC92
100
AcDbEntity
  8
1
  6
Continuous
100
AcDbLine
 10
276.473762
 20
172.3286919999999
 30
0.0
 11
276.473762
 21
160.15
 31
0.0
  0
ARC
  5
BD95
330
BC92
100
AcDbEntity
  8
1
  6
Continuous
100
AcDbCircle
 10
284.2999999999999
 20
167.1499999999998
 30
0.0
 40
10.5
100
AcDbArc
 50
141.021887
 51
221.810315
  0
LINE
  5
BD96
330
BC92
100
AcDbEntity
  8
1
  6
Continuous
100
AcDbLine
 10
276.473762
 20
160.15
 30
0.0
 11
278.8
 21
160.15
 31
0.0
  0
ARC
  5
BD97
330
BC92
100
AcDbEntity
  8
1
  6
Continuous
100
AcDbCircle
 10
-42.95
 20
200.15
 30
0.0
 40
115.5
100
AcDbArc
 50
343.86863
 51
0.0
  0
ARC
  5
BD98
330
BC92
100
AcDbEntity
  8
1
  6
Continuous
100
AcDbCircle
 10
-42.95
 20
200.15
 30
0.0
 40
118.1
100
AcDbArc
 50
343.86863
 51
0.0
  0
LINE
  5
BD99
330
BC92
100
AcDbEntity
  8
1
  6
Continuous
100
AcDbLine
 10
66.90000000000001
 20
156.8
 30
0.0
 11
66.90000000000001
 21
210.8278209999999
 31
0.0
  0
ARC
  5
BD9A
330
BC92
100
AcDbEntity
  8
1
  6
Continuous
100
AcDbCircle
 10
145.25
 20
200.15
 30
0.0
 40
118.1
100
AcDbArc
 50
180.0
 51
196.13137
  0
ARC
  5
BD9B
330
BC92
100
AcDbEntity
  8
1
  6
Continuous
100
AcDbCircle
 10
145.25
 20
200.15
 30
0.0
 40
115.5
100
AcDbArc
 50
180.0
 51
196.13137
  0
LINE
  5
BD9C
330
BC92
100
AcDbEntity
  8
1
  6
Continuous
100
AcDbLine
 10
35.4
 20
156.8
 30
0.0
 11
35.4
 21
210.8278209999999
 31
0.0
  0
LINE
  5
BD9D
330
BC92
100
AcDbEntity
  8
4
  6
CENTER
100
AcDbLine
 10
51.15
 20
139.15
 30
0.0
 11
51.15
 21
217.1499999999999
 31
0.0
  0
ARC
  5
BD9E
330
BC92
100
AcDbEntity
  8
1
  6
Continuous
100
AcDbCircle
 10
63.15
 20
144.8874679999998
 30
0.0
 40
2.0
100
AcDbArc
 50
277.0334609999998
 51
0.0
  0
LINE
  5
BD9F
330
BC92
100
AcDbEntity
  8
4
  6
CENTER
100
AcDbLine
 10
77.261623
 20
167.1499999999998
 30
0.0
 11
21.761623
 21
167.1499999999998
 31
0.0
  0
ARC
  5
BDA0
330
BC92
100
AcDbEntity
  8
1
  6
Continuous
100
AcDbCircle
 10
63.15
 20
189.412532
 30
0.0
 40
2.0
100
AcDbArc
 50
0.0
 51
82.96653899999999
  0
ARC
  5
BDA1
330
BC92
100
AcDbEntity
  8
1
  6
Continuous
100
AcDbCircle
 10
46.057313
 20
157.293304
 30
0.0
 40
20.0
100
AcDbArc
 50
342.675647
 51
359.319886
  0
LINE
  5
BDA2
330
BC92
100
AcDbEntity
  8
1
  6
Continuous
100
AcDbLine
 10
65.15
 20
144.8874689999998
 30
0.0
 11
65.15
 21
189.412532
 31
0.0
  0
LINE
  5
BDA3
330
BC92
100
AcDbEntity
  8
1
  6
Continuous
100
AcDbLine
 10
66.65
 20
176.65
 30
0.0
 11
66.65
 21
157.65
 31
0.0
  0
LINE
  5
BDA4
330
BC92
100
AcDbEntity
  8
1
  6
Continuous
100
AcDbLine
 10
66.055904
 20
177.2440959999999
 30
0.0
 11
66.055904
 21
157.0559049999999
 31
0.0
  0
LINE
  5
BDA5
330
BC92
100
AcDbEntity
  8
1
  6
Continuous
100
AcDbLine
 10
71.826238
 20
172.3286919999999
 30
0.0
 11
71.826238
 21
160.15
 31
0.0
  0
ARC
  5
BDA6
330
BC92
100
AcDbEntity
  8
1
  6
Continuous
100
AcDbCircle
 10
64.0
 20
167.1499999999998
 30
0.0
 40
10.5
100
AcDbArc
 50
318.189685
 51
38.978113
  0
LINE
  5
BDA7
330
BC92
100
AcDbEntity
  8
1
  6
Continuous
100
AcDbLine
 10
71.826238
 20
160.15
 30
0.0
 11
69.5
 21
160.15
 31
0.0
  0
LINE
  5
BDA8
330
BC92
100
AcDbEntity
  8
1
  6
Continuous
100
AcDbLine
 10
66.65
 20
163.15
 30
0.0
 11
66.90000000000001
 21
163.15
 31
0.0
  0
LINE
  5
BDA9
330
BC92
100
AcDbEntity
  8
1
  6
Continuous
100
AcDbLine
 10
66.65
 20
171.15
 30
0.0
 11
66.90000000000001
 21
171.15
 31
0.0
  0
LINE
  5
BDAA
330
BC92
100
AcDbEntity
  8
1
  6
Continuous
100
AcDbLine
 10
69.5
 20
156.8
 30
0.0
 11
66.90000000000001
 21
156.8
 31
0.0
  0
LINE
  5
BDAB
330
BC92
100
AcDbEntity
  8
1
  6
Continuous
100
AcDbLine
 10
69.5
 20
156.8
 30
0.0
 11
69.5
 21
160.279867
 31
0.0
  0
ARC
  5
BDAC
330
BC92
100
AcDbEntity
  8
1
  6
Continuous
100
AcDbCircle
 10
94.9
 20
160.279867
 30
0.0
 40
28.0
100
AcDbArc
 50
163.8686299999999
 51
180.0
  0
ARC
  5
BDAD
330
BC92
100
AcDbEntity
  8
1
  6
Continuous
100
AcDbCircle
 10
94.9
 20
160.279867
 30
0.0
 40
25.4
100
AcDbArc
 50
163.8686299999999
 51
180.0
  0
LINE
  5
BDAE
330
BC92
100
AcDbEntity
  8
1
  6
Continuous
100
AcDbLine
 10
66.65
 20
157.65
 30
0.0
 11
66.055904
 21
157.0559049999999
 31
0.0
  0
LINE
  5
BDAF
330
BC92
100
AcDbEntity
  8
1
  6
Continuous
100
AcDbLine
 10
66.65
 20
176.65
 30
0.0
 11
66.055904
 21
177.2440959999999
 31
0.0
  0
ARC
  5
BDB0
330
BC92
100
AcDbEntity
  8
1
  6
Continuous
100
AcDbCircle
 10
46.057313
 20
177.006697
 30
0.0
 40
20.0
100
AcDbArc
 50
0.6801140000000001
 51
17.32435299999999
  0
ARC
  5
BDB1
330
BC92
100
AcDbEntity
  8
1
  6
Continuous
100
AcDbCircle
 10
56.242686
 20
157.293304
 30
0.0
 40
20.0
100
AcDbArc
 50
180.680114
 51
197.3243529999998
  0
LINE
  5
BDB2
330
BC92
100
AcDbEntity
  8
1
  6
Continuous
100
AcDbLine
 10
37.14999999999999
 20
144.8874689999998
 30
0.0
 11
37.14999999999999
 21
189.412532
 31
0.0
  0
ARC
  5
BDB3
330
BC92
100
AcDbEntity
  8
1
  6
Continuous
100
AcDbCircle
 10
51.15
 20
242.1499999999999
 30
0.0
 40
100.0
100
AcDbArc
 50
262.965592
 51
277.0334609999998
  0
ARC
  5
BDB4
330
BC92
100
AcDbEntity
  8
1
  6
Continuous
100
AcDbCircle
 10
39.15
 20
144.8874679999998
 30
0.0
 40
2.0
100
AcDbArc
 50
180.0
 51
262.9665389999999
  0
LINE
  5
BDB5
330
BC92
100
AcDbEntity
  8
1
  6
Continuous
100
AcDbLine
 10
30.8
 20
167.1499999999998
 30
0.0
 11
31.61903699999999
 21
167.9690369999999
 31
0.0
  0
LINE
  5
BDB6
330
BC92
100
AcDbEntity
  8
1
  6
Continuous
100
AcDbLine
 10
32.79999999999999
 20
159.6499999999998
 30
0.0
 11
30.8
 21
159.6499999999998
 31
0.0
  0
ARC
  5
BDB7
330
BC92
100
AcDbEntity
  8
1
  6
Continuous
100
AcDbCircle
 10
7.4
 20
160.279867
 30
0.0
 40
25.4
100
AcDbArc
 50
0.0
 51
16.13137
  0
LINE
  5
BDB8
330
BC92
100
AcDbEntity
  8
1
  6
Continuous
100
AcDbLine
 10
35.64999999999999
 20
176.65
 30
0.0
 11
35.64999999999999
 21
157.65
 31
0.0
  0
LINE
  5
BDB9
330
BC92
100
AcDbEntity
  8
1
  6
Continuous
100
AcDbLine
 10
36.244095
 20
177.2440959999999
 30
0.0
 11
36.244095
 21
157.0559049999999
 31
0.0
  0
LINE
  5
BDBA
330
BC92
100
AcDbEntity
  8
1
  6
Continuous
100
AcDbLine
 10
32.79999999999999
 20
156.8
 30
0.0
 11
32.79999999999999
 21
160.279867
 31
0.0
  0
ARC
  5
BDBB
330
BC92
100
AcDbEntity
  8
1
  6
Continuous
100
AcDbCircle
 10
7.4
 20
160.279867
 30
0.0
 40
28.0
100
AcDbArc
 50
0.0
 51
16.13137
  0
LINE
  5
BDBC
330
BC92
100
AcDbEntity
  8
1
  6
Continuous
100
AcDbLine
 10
35.64999999999999
 20
171.15
 30
0.0
 11
35.4
 21
171.15
 31
0.0
  0
LINE
  5
BDBD
330
BC92
100
AcDbEntity
  8
1
  6
Continuous
100
AcDbLine
 10
35.64999999999999
 20
163.15
 30
0.0
 11
35.4
 21
163.15
 31
0.0
  0
LINE
  5
BDBE
330
BC92
100
AcDbEntity
  8
1
  6
Continuous
100
AcDbLine
 10
32.79999999999999
 20
156.8
 30
0.0
 11
35.4
 21
156.8
 31
0.0
  0
LINE
  5
BDBF
330
BC92
100
AcDbEntity
  8
1
  6
Continuous
100
AcDbLine
 10
35.64999999999999
 20
157.65
 30
0.0
 11
36.24409599999999
 21
157.0559049999999
 31
0.0
  0
ARC
  5
BDC0
330
BC92
100
AcDbEntity
  8
1
  6
Continuous
100
AcDbCircle
 10
51.15
 20
92.15000000000001
 30
0.0
 40
100.0
100
AcDbArc
 50
82.96653899999999
 51
97.03440800000002
  0
LINE
  5
BDC1
330
BC92
100
AcDbEntity
  8
1
  6
Continuous
100
AcDbLine
 10
35.64999999999999
 20
176.65
 30
0.0
 11
36.24409599999999
 21
177.2440959999999
 31
0.0
  0
ARC
  5
BDC2
330
BC92
100
AcDbEntity
  8
1
  6
Continuous
100
AcDbCircle
 10
56.242686
 20
177.006697
 30
0.0
 40
20.0
100
AcDbArc
 50
162.675647
 51
179.3198859999999
  0
ARC
  5
BDC3
330
BC92
100
AcDbEntity
  8
1
  6
Continuous
100
AcDbCircle
 10
39.15
 20
189.412532
 30
0.0
 40
2.0
100
AcDbArc
 50
97.033461
 51
180.0
  0
ARC
  5
BDC4
330
BC92
100
AcDbEntity
  8
1
  6
Continuous
100
AcDbCircle
 10
27.73301299999999
 20
172.3461519999999
 30
0.0
 40
3.066986999999998
100
AcDbArc
 50
325.6157529999999
 51
343.8707359999999
  0
LINE
  5
BDC5
330
BC92
100
AcDbEntity
  8
1
  6
Continuous
100
AcDbLine
 10
26.33589799999999
 20
174.078203
 30
0.0
 11
30.063753
 21
174.078203
 31
0.0
  0
LINE
  5
BDC6
330
BC92
100
AcDbEntity
  8
1
  6
Continuous
100
AcDbLine
 10
26.33589799999999
 20
174.078203
 30
0.0
 11
25.8
 21
173.15
 31
0.0
  0
ARC
  5
BDC7
330
BC92
100
AcDbEntity
  8
1
  6
Continuous
100
AcDbCircle
 10
37.264102
 20
167.1499999999998
 30
0.0
 40
11.464102
100
AcDbArc
 50
162.412046
 51
197.5879539999999
  0
LINE
  5
BDC8
330
BC92
100
AcDbEntity
  8
1
  6
Continuous
100
AcDbLine
 10
26.33589799999999
 20
170.614102
 30
0.0
 11
30.264102
 21
170.614102
 31
0.0
  0
ARC
  5
BDC9
330
BC92
100
AcDbEntity
  8
1
  6
Continuous
100
AcDbCircle
 10
28.866987
 20
172.3461519999999
 30
0.0
 40
3.066986999999998
100
AcDbArc
 50
154.3842469999999
 51
214.384247
  0
ARC
  5
BDCA
330
BC92
100
AcDbEntity
  8
1
  6
Continuous
100
AcDbCircle
 10
19.335898
 20
167.1499999999998
 30
0.0
 40
11.464102
100
AcDbArc
 50
342.4120459999999
 51
17.587954
  0
LINE
  5
BDCB
330
BC92
100
AcDbEntity
  8
1
  6
Continuous
100
AcDbLine
 10
26.33589799999999
 20
163.685898
 30
0.0
 11
30.264102
 21
163.685898
 31
0.0
  0
ARC
  5
BDCC
330
BC92
100
AcDbEntity
  8
1
  6
Continuous
100
AcDbCircle
 10
27.73301299999999
 20
161.9538479999999
 30
0.0
 40
3.066986999999998
100
AcDbArc
 50
334.384247
 51
34.38424699999998
  0
LINE
  5
BDCD
330
BC92
100
AcDbEntity
  8
1
  6
Continuous
100
AcDbLine
 10
30.264102
 20
160.221797
 30
0.0
 11
30.8
 21
161.15
 31
0.0
  0
LINE
  5
BDCE
330
BC92
100
AcDbEntity
  8
1
  6
Continuous
100
AcDbLine
 10
26.33589799999999
 20
160.221797
 30
0.0
 11
30.264102
 21
160.221797
 31
0.0
  0
LINE
  5
BDCF
330
BC92
100
AcDbEntity
  8
1
  6
Continuous
100
AcDbLine
 10
25.8
 20
161.15
 30
0.0
 11
25.8
 21
173.15
 31
0.0
  0
ARC
  5
BDD0
330
BC92
100
AcDbEntity
  8
1
  6
Continuous
100
AcDbCircle
 10
28.866987
 20
161.9538479999999
 30
0.0
 40
3.066986999999998
100
AcDbArc
 50
145.615753
 51
205.615753
  0
LINE
  5
BDD1
330
BC92
100
AcDbEntity
  8
1
  6
Continuous
100
AcDbLine
 10
26.33589799999999
 20
160.221797
 30
0.0
 11
25.8
 21
161.15
 31
0.0
  0
LINE
  5
BDD2
330
BC92
100
AcDbEntity
  8
1
  6
Continuous
100
AcDbLine
 10
30.8
 20
165.15
 30
0.0
 11
32.051324
 21
166.4013239999999
 31
0.0
  0
LINE
  5
BDD3
330
BC92
100
AcDbEntity
  8
1
  6
Continuous
100
AcDbLine
 10
30.8
 20
171.015699
 30
0.0
 11
30.8
 21
159.6499999999998
 31
0.0
  0
LINE
  5
BDD4
330
BC92
100
AcDbEntity
  8
1
  6
Continuous
100
AcDbLine
 10
25.6
 20
171.15
 30
0.0
 11
25.0
 21
170.55
 31
0.0
  0
LINE
  5
BDD5
330
BC92
100
AcDbEntity
  8
2
  6
Continuous
100
AcDbLine
 10
25.8
 20
170.4735
 30
0.0
 11
25.0
 21
170.4735
 31
0.0
  0
LINE
  5
BDD6
330
BC92
100
AcDbEntity
  8
1
  6
Continuous
100
AcDbLine
 10
25.6
 20
171.15
 30
0.0
 11
25.8
 21
171.15
 31
0.0
  0
LINE
  5
BDD7
330
BC92
100
AcDbEntity
  8
1
  6
Continuous
100
AcDbLine
 10
25.0
 20
163.75
 30
0.0
 11
25.6
 21
163.15
 31
0.0
  0
LINE
  5
BDD8
330
BC92
100
AcDbEntity
  8
2
  6
Continuous
100
AcDbLine
 10
25.8
 20
163.8265
 30
0.0
 11
25.0
 21
163.8265
 31
0.0
  0
LINE
  5
BDD9
330
BC92
100
AcDbEntity
  8
1
  6
Continuous
100
AcDbLine
 10
25.6
 20
163.15
 30
0.0
 11
25.8
 21
163.15
 31
0.0
  0
LINE
  5
BDDA
330
BC92
100
AcDbEntity
  8
1
  6
Continuous
100
AcDbLine
 10
25.6
 20
171.15
 30
0.0
 11
25.6
 21
163.15
 31
0.0
  0
LINE
  5
BDDB
330
BC92
100
AcDbEntity
  8
1
  6
Continuous
100
AcDbLine
 10
25.0
 20
170.55
 30
0.0
 11
25.0
 21
163.75
 31
0.0
  0
LINE
  5
BDDC
330
BC92
100
AcDbEntity
  8
1
  6
Continuous
100
AcDbLine
 10
76.15000000000001
 20
211.5499999999999
 30
0.0
 11
26.15
 21
211.5499999999999
 31
0.0
  0
LINE
  5
BDDD
330
BC92
100
AcDbEntity
  8
1
  6
Continuous
100
AcDbLine
 10
67.65
 20
211.05
 30
0.0
 11
34.64999999999999
 21
211.05
 31
0.0
  0
LINE
  5
BDDE
330
BC92
100
AcDbEntity
  8
1
  6
Continuous
100
AcDbLine
 10
64.65
 20
210.55
 30
0.0
 11
37.65
 21
210.55
 31
0.0
  0
LINE
  5
BDDF
330
BC92
100
AcDbEntity
  8
1
  6
Continuous
100
AcDbLine
 10
76.15000000000001
 20
214.15
 30
0.0
 11
26.15
 21
214.15
 31
0.0
  0
LINE
  5
BDE0
330
BC92
100
AcDbEntity
  8
1
  6
Continuous
100
AcDbLine
 10
72.54999999999999
 20
200.15
 30
0.0
 11
72.54999999999999
 21
210.55
 31
0.0
  0
LINE
  5
BDE1
330
BC92
100
AcDbEntity
  8
1
  6
Continuous
100
AcDbLine
 10
75.15
 20
200.15
 30
0.0
 11
75.15
 21
210.55
 31
0.0
  0
ARC
  5
BDE2
330
BC92
100
AcDbEntity
  8
1
  6
Continuous
100
AcDbCircle
 10
71.55
 20
210.55
 30
0.0
 40
1.0
100
AcDbArc
 50
0.0
 51
90.0
  0
ARC
  5
BDE3
330
BC92
100
AcDbEntity
  8
1
  6
Continuous
100
AcDbCircle
 10
71.55
 20
210.55
 30
0.0
 40
3.6
100
AcDbArc
 50
0.0
 51
16.12762
  0
LINE
  5
BDE4
330
BC92
100
AcDbEntity
  8
4
  6
CENTER
100
AcDbLine
 10
69.15
 20
216.348162
 30
0.0
 11
69.15
 21
209.4426129999999
 31
0.0
  0
ARC
  5
BDE5
330
BC92
100
AcDbEntity
  8
1
  6
Continuous
100
AcDbCircle
 10
64.65
 20
219.7999999999999
 30
0.0
 40
9.25
100
AcDbArc
 50
270.0
 51
288.9246439999999
  0
LINE
  5
BDE6
330
BC92
100
AcDbEntity
  8
1
  6
Continuous
100
AcDbLine
 10
67.65
 20
211.05
 30
0.0
 11
67.65
 21
211.5499999999999
 31
0.0
  0
LINE
  5
BDE7
330
BC92
100
AcDbEntity
  8
1
  6
Continuous
100
AcDbLine
 10
76.15000000000001
 20
214.15
 30
0.0
 11
76.15000000000001
 21
211.5499999999999
 31
0.0
  0
LINE
  5
BDE8
330
BC92
100
AcDbEntity
  8
4
  6
CENTER
100
AcDbLine
 10
33.14999999999999
 20
216.348162
 30
0.0
 11
33.14999999999999
 21
209.4426129999999
 31
0.0
  0
ARC
  5
BDE9
330
BC92
100
AcDbEntity
  8
1
  6
Continuous
100
AcDbCircle
 10
37.65
 20
219.7999999999999
 30
0.0
 40
9.25
100
AcDbArc
 50
251.075356
 51
270.0
  0
LINE
  5
BDEA
330
BC92
100
AcDbEntity
  8
1
  6
Continuous
100
AcDbLine
 10
34.64999999999999
 20
211.05
 30
0.0
 11
34.64999999999999
 21
211.5499999999999
 31
0.0
  0
LINE
  5
BDEB
330
BC92
100
AcDbEntity
  8
1
  6
Continuous
100
AcDbLine
 10
27.14999999999999
 20
200.15
 30
0.0
 11
27.14999999999999
 21
210.55
 31
0.0
  0
LINE
  5
BDEC
330
BC92
100
AcDbEntity
  8
1
  6
Continuous
100
AcDbLine
 10
29.75
 20
200.15
 30
0.0
 11
29.75
 21
210.55
 31
0.0
  0
ARC
  5
BDED
330
BC92
100
AcDbEntity
  8
1
  6
Continuous
100
AcDbCircle
 10
30.75
 20
210.55
 30
0.0
 40
3.6
100
AcDbArc
 50
163.8723799999999
 51
180.0
  0
LINE
  5
BDEE
330
BC92
100
AcDbEntity
  8
1
  6
Continuous
100
AcDbLine
 10
26.15
 20
214.15
 30
0.0
 11
26.15
 21
211.5499999999999
 31
0.0
  0
ARC
  5
BDEF
330
BC92
100
AcDbEntity
  8
1
  6
Continuous
100
AcDbCircle
 10
30.75
 20
210.55
 30
0.0
 40
1.0
100
AcDbArc
 50
90.0
 51
180.0
  0
LINE
  5
BDF0
330
BC92
100
AcDbEntity
  8
4
  6
CENTER
100
AcDbLine
 10
174.15
 20
93.26166200000001
 30
0.0
 11
174.15
 21
38.513256
 31
0.0
  0
LINE
  5
BDF1
330
BC92
100
AcDbEntity
  8
1
  6
Continuous
100
AcDbLine
 10
134.15
 20
49.15
 30
0.0
 11
134.15
 21
85.15
 31
0.0
  0
LINE
  5
BDF2
330
BC92
100
AcDbEntity
  8
1
  6
Continuous
100
AcDbLine
 10
214.15
 20
49.15
 30
0.0
 11
214.15
 21
85.15
 31
0.0
  0
LINE
  5
BDF3
330
BC92
100
AcDbEntity
  8
1
  6
Continuous
100
AcDbLine
 10
167.1499999999998
 20
87.82623800000001
 30
0.0
 11
181.15
 21
87.82623800000001
 31
0.0
  0
ARC
  5
BDF4
330
BC92
100
AcDbEntity
  8
1
  6
Continuous
100
AcDbCircle
 10
174.15
 20
80.0
 30
0.0
 40
10.5
100
AcDbArc
 50
48.189685
 51
131.810315
  0
LINE
  5
BDF5
330
BC92
100
AcDbEntity
  8
1
  6
Continuous
100
AcDbLine
 10
181.774871
 20
85.5
 30
0.0
 11
166.5251299999999
 21
85.5
 31
0.0
  0
LINE
  5
BDF6
330
BC92
100
AcDbEntity
  8
4
  6
CENTER
100
AcDbLine
 10
147.4
 20
85.15
 30
0.0
 11
134.8999999999997
 21
85.15
 31
0.0
  0
ARC
  5
BDF7
330
BC92
100
AcDbEntity
  8
1
  6
Continuous
100
AcDbCircle
 10
141.15
 20
85.15
 30
0.0
 40
7.0
100
AcDbArc
 50
30.575457
 51
180.0
  0
LINE
  5
BDF8
330
BC92
100
AcDbEntity
  8
4
  6
CENTER
100
AcDbLine
 10
141.15
 20
78.9
 30
0.0
 11
141.15
 21
91.4
 31
0.0
  0
CIRCLE
  5
BDF9
330
BC92
100
AcDbEntity
  8
1
  6
Continuous
100
AcDbCircle
 10
141.15
 20
85.15
 30
0.0
 40
3.25
  0
ARC
  5
BDFA
330
BC92
100
AcDbEntity
  8
1
  6
Continuous
100
AcDbCircle
 10
149.65
 20
70.024115
 30
0.0
 40
21.125885
100
AcDbArc
 50
52.977647
 51
90.0
  0
ARC
  5
BDFB
330
BC92
100
AcDbEntity
  8
1
  6
Continuous
100
AcDbCircle
 10
148.46816
 20
89.47371699999997
 30
0.0
 40
1.5
100
AcDbArc
 50
210.5754569999998
 51
321.989073
  0
LINE
  5
BDFC
330
BC92
100
AcDbEntity
  8
1
  6
Continuous
100
AcDbLine
 10
149.65
 20
91.15
 30
0.0
 11
149.65
 21
88.54999999999998
 31
0.0
  0
LINE
  5
BDFD
330
BC92
100
AcDbEntity
  8
1
  6
Continuous
100
AcDbLine
 10
167.1499999999998
 20
87.82623800000001
 30
0.0
 11
167.1499999999998
 21
85.5
 31
0.0
  0
ARC
  5
BDFE
330
BC92
100
AcDbEntity
  8
1
  6
Continuous
100
AcDbCircle
 10
166.5251299999999
 20
92.4
 30
0.0
 40
6.9
100
AcDbArc
 50
232.977647
 51
270.0
  0
LINE
  5
BDFF
330
BC92
100
AcDbEntity
  8
4
  6
CENTER
100
AcDbLine
 10
213.3999999999999
 20
85.15
 30
0.0
 11
200.8999999999999
 21
85.15
 31
0.0
  0
CIRCLE
  5
BE00
330
BC92
100
AcDbEntity
  8
1
  6
Continuous
100
AcDbCircle
 10
207.1499999999999
 20
85.15
 30
0.0
 40
3.25
  0
ARC
  5
BE01
330
BC92
100
AcDbEntity
  8
1
  6
Continuous
100
AcDbCircle
 10
207.1499999999999
 20
85.15
 30
0.0
 40
7.0
100
AcDbArc
 50
0.0
 51
149.424543
  0
ARC
  5
BE02
330
BC92
100
AcDbEntity
  8
1
  6
Continuous
100
AcDbCircle
 10
198.65
 20
70.024115
 30
0.0
 40
21.125885
100
AcDbArc
 50
90.0
 51
127.022353
  0
LINE
  5
BE03
330
BC92
100
AcDbEntity
  8
1
  6
Continuous
100
AcDbLine
 10
181.15
 20
87.82623800000001
 30
0.0
 11
181.15
 21
85.5
 31
0.0
  0
ARC
  5
BE04
330
BC92
100
AcDbEntity
  8
1
  6
Continuous
100
AcDbCircle
 10
181.774871
 20
92.4
 30
0.0
 40
6.9
100
AcDbArc
 50
270.0
 51
307.0223529999998
  0
LINE
  5
BE05
330
BC92
100
AcDbEntity
  8
4
  6
CENTER
100
AcDbLine
 10
207.1499999999999
 20
78.9
 30
0.0
 11
207.1499999999999
 21
91.4
 31
0.0
  0
LINE
  5
BE06
330
BC92
100
AcDbEntity
  8
1
  6
Continuous
100
AcDbLine
 10
198.65
 20
91.15
 30
0.0
 11
198.65
 21
88.54999999999998
 31
0.0
  0
ARC
  5
BE07
330
BC92
100
AcDbEntity
  8
1
  6
Continuous
100
AcDbCircle
 10
199.83184
 20
89.47371699999997
 30
0.0
 40
1.5
100
AcDbArc
 50
218.0109269999999
 51
329.4245430000001
  0
ARC
  5
BE08
330
BC92
100
AcDbEntity
  8
1
  6
Continuous
100
AcDbCircle
 10
177.15
 20
38.13493599999999
 30
0.0
 40
8.665063999999999
100
AcDbArc
 50
69.743842
 51
110.256158
  0
ARC
  5
BE09
330
BC92
100
AcDbEntity
  8
1
  6
Continuous
100
AcDbCircle
 10
177.15
 20
50.465064
 30
0.0
 40
8.665063999999999
100
AcDbArc
 50
249.7438419999999
 51
290.256158
  0
LINE
  5
BE0A
330
BC92
100
AcDbEntity
  8
1
  6
Continuous
100
AcDbLine
 10
180.15
 20
41.79999999999997
 30
0.0
 11
168.1499999999998
 21
41.79999999999997
 31
0.0
  0
LINE
  5
BE0B
330
BC92
100
AcDbEntity
  8
1
  6
Continuous
100
AcDbLine
 10
170.15
 20
41.6
 30
0.0
 11
178.15
 21
41.6
 31
0.0
  0
LINE
  5
BE0C
330
BC92
100
AcDbEntity
  8
1
  6
Continuous
100
AcDbLine
 10
170.75
 20
41.0
 30
0.0
 11
177.55
 21
41.0
 31
0.0
  0
LINE
  5
BE0D
330
BC92
100
AcDbEntity
  8
1
  6
Continuous
100
AcDbLine
 10
166.65
 20
46.79999999999998
 30
0.0
 11
181.6499999999998
 21
46.79999999999998
 31
0.0
  0
LINE
  5
BE0E
330
BC92
100
AcDbEntity
  8
4
  6
CENTER
100
AcDbLine
 10
217.1499999999999
 20
67.15
 30
0.0
 11
131.15
 21
67.15
 31
0.0
  0
LINE
  5
BE0F
330
BC92
100
AcDbEntity
  8
1
  6
Continuous
100
AcDbLine
 10
181.774871
 20
48.79999999999999
 30
0.0
 11
166.5251299999999
 21
48.79999999999999
 31
0.0
  0
LINE
  5
BE10
330
BC92
100
AcDbEntity
  8
4
  6
CENTER
100
AcDbLine
 10
147.4
 20
49.15
 30
0.0
 11
134.8999999999997
 21
49.15
 31
0.0
  0
ARC
  5
BE11
330
BC92
100
AcDbEntity
  8
1
  6
Continuous
100
AcDbCircle
 10
141.15
 20
49.15
 30
0.0
 40
7.0
100
AcDbArc
 50
180.0
 51
329.4245430000001
  0
LINE
  5
BE12
330
BC92
100
AcDbEntity
  8
4
  6
CENTER
100
AcDbLine
 10
141.15
 20
42.9
 30
0.0
 11
141.15
 21
55.4
 31
0.0
  0
CIRCLE
  5
BE13
330
BC92
100
AcDbEntity
  8
1
  6
Continuous
100
AcDbCircle
 10
141.15
 20
49.15
 30
0.0
 40
3.25
  0
ARC
  5
BE14
330
BC92
100
AcDbEntity
  8
1
  6
Continuous
100
AcDbCircle
 10
149.65
 20
64.275885
 30
0.0
 40
21.125885
100
AcDbArc
 50
270.0
 51
307.0223529999998
  0
ARC
  5
BE15
330
BC92
100
AcDbEntity
  8
1
  6
Continuous
100
AcDbCircle
 10
148.46816
 20
44.82628199999999
 30
0.0
 40
1.5
100
AcDbArc
 50
38.010927
 51
149.424543
  0
LINE
  5
BE16
330
BC92
100
AcDbEntity
  8
1
  6
Continuous
100
AcDbLine
 10
149.65
 20
43.15
 30
0.0
 11
149.65
 21
45.75
 31
0.0
  0
LINE
  5
BE17
330
BC92
100
AcDbEntity
  8
1
  6
Continuous
100
AcDbLine
 10
170.15
 20
41.6
 30
0.0
 11
170.75
 21
41.0
 31
0.0
  0
LINE
  5
BE18
330
BC92
100
AcDbEntity
  8
2
  6
Continuous
100
AcDbLine
 10
170.8265
 20
41.79999999999997
 30
0.0
 11
170.8265
 21
41.0
 31
0.0
  0
LINE
  5
BE19
330
BC92
100
AcDbEntity
  8
1
  6
Continuous
100
AcDbLine
 10
174.15
 20
42.33589799999999
 30
0.0
 11
174.15
 21
46.264102
 31
0.0
  0
LINE
  5
BE1A
330
BC92
100
AcDbEntity
  8
1
  6
Continuous
100
AcDbLine
 10
168.1499999999998
 20
46.79999999999998
 30
0.0
 11
168.1499999999998
 21
41.79999999999997
 31
0.0
  0
ARC
  5
BE1B
330
BC92
100
AcDbEntity
  8
1
  6
Continuous
100
AcDbCircle
 10
171.15
 20
38.13493599999999
 30
0.0
 40
8.665063999999999
100
AcDbArc
 50
69.743842
 51
110.256158
  0
ARC
  5
BE1C
330
BC92
100
AcDbEntity
  8
1
  6
Continuous
100
AcDbCircle
 10
171.15
 20
50.465064
 30
0.0
 40
8.665063999999999
100
AcDbArc
 50
249.7438419999999
 51
290.256158
  0
LINE
  5
BE1D
330
BC92
100
AcDbEntity
  8
1
  6
Continuous
100
AcDbLine
 10
174.15
 20
46.79999999999998
 30
0.0
 11
172.1499999999998
 21
48.79999999999999
 31
0.0
  0
LINE
  5
BE1E
330
BC92
100
AcDbEntity
  8
1
  6
Continuous
100
AcDbLine
 10
176.15
 20
46.79999999999998
 30
0.0
 11
174.15
 21
48.79999999999999
 31
0.0
  0
LINE
  5
BE1F
330
BC92
100
AcDbEntity
  8
1
  6
Continuous
100
AcDbLine
 10
170.15
 20
41.6
 30
0.0
 11
170.15
 21
41.79999999999997
 31
0.0
  0
LINE
  5
BE20
330
BC92
100
AcDbEntity
  8
1
  6
Continuous
100
AcDbLine
 10
166.65
 20
48.79999999999999
 30
0.0
 11
166.65
 21
46.79999999999998
 31
0.0
  0
ARC
  5
BE21
330
BC92
100
AcDbEntity
  8
1
  6
Continuous
100
AcDbCircle
 10
166.5251299999999
 20
41.9
 30
0.0
 40
6.9
100
AcDbArc
 50
90.0
 51
127.022353
  0
LINE
  5
BE22
330
BC92
100
AcDbEntity
  8
4
  6
CENTER
100
AcDbLine
 10
213.3999999999999
 20
49.15
 30
0.0
 11
200.8999999999999
 21
49.15
 31
0.0
  0
ARC
  5
BE23
330
BC92
100
AcDbEntity
  8
1
  6
Continuous
100
AcDbCircle
 10
207.1499999999999
 20
49.15
 30
0.0
 40
7.0
100
AcDbArc
 50
210.5754569999998
 51
0.0
  0
CIRCLE
  5
BE24
330
BC92
100
AcDbEntity
  8
1
  6
Continuous
100
AcDbCircle
 10
207.1499999999999
 20
49.15
 30
0.0
 40
3.25
  0
LINE
  5
BE25
330
BC92
100
AcDbEntity
  8
4
  6
CENTER
100
AcDbLine
 10
207.1499999999999
 20
42.9
 30
0.0
 11
207.1499999999999
 21
55.4
 31
0.0
  0
ARC
  5
BE26
330
BC92
100
AcDbEntity
  8
1
  6
Continuous
100
AcDbCircle
 10
198.65
 20
64.275885
 30
0.0
 40
21.125885
100
AcDbArc
 50
232.977647
 51
270.0
  0
LINE
  5
BE27
330
BC92
100
AcDbEntity
  8
1
  6
Continuous
100
AcDbLine
 10
177.55
 20
41.0
 30
0.0
 11
178.15
 21
41.6
 31
0.0
  0
LINE
  5
BE28
330
BC92
100
AcDbEntity
  8
2
  6
Continuous
100
AcDbLine
 10
177.4734999999998
 20
41.79999999999997
 30
0.0
 11
177.4734999999998
 21
41.0
 31
0.0
  0
LINE
  5
BE29
330
BC92
100
AcDbEntity
  8
1
  6
Continuous
100
AcDbLine
 10
180.15
 20
46.79999999999998
 30
0.0
 11
180.15
 21
41.79999999999997
 31
0.0
  0
LINE
  5
BE2A
330
BC92
100
AcDbEntity
  8
1
  6
Continuous
100
AcDbLine
 10
178.15
 20
41.6
 30
0.0
 11
178.15
 21
41.79999999999997
 31
0.0
  0
LINE
  5
BE2B
330
BC92
100
AcDbEntity
  8
1
  6
Continuous
100
AcDbLine
 10
181.6499999999998
 20
48.79999999999999
 30
0.0
 11
181.6499999999998
 21
46.79999999999998
 31
0.0
  0
ARC
  5
BE2C
330
BC92
100
AcDbEntity
  8
1
  6
Continuous
100
AcDbCircle
 10
181.774871
 20
41.9
 30
0.0
 40
6.9
100
AcDbArc
 50
52.977647
 51
90.0
  0
LINE
  5
BE2D
330
BC92
100
AcDbEntity
  8
1
  6
Continuous
100
AcDbLine
 10
198.65
 20
43.15
 30
0.0
 11
198.65
 21
45.75
 31
0.0
  0
ARC
  5
BE2E
330
BC92
100
AcDbEntity
  8
1
  6
Continuous
100
AcDbCircle
 10
199.83184
 20
44.82628199999999
 30
0.0
 40
1.5
100
AcDbArc
 50
30.575457
 51
141.9890729999999
  0
LINE
  5
BE2F
330
BC92
100
AcDbEntity
  8
1
  6
Continuous
100
AcDbLine
 10
164.055904
 20
82.055904
 30
0.0
 11
184.2440949999999
 21
82.055904
 31
0.0
  0
LINE
  5
BE30
330
BC92
100
AcDbEntity
  8
1
  6
Continuous
100
AcDbLine
 10
164.65
 20
82.65
 30
0.0
 11
183.65
 21
82.65
 31
0.0
  0
LINE
  5
BE31
330
BC92
100
AcDbEntity
  8
1
  6
Continuous
100
AcDbLine
 10
164.055904
 20
52.244095
 30
0.0
 11
184.2440949999999
 21
52.244095
 31
0.0
  0
LINE
  5
BE32
330
BC92
100
AcDbEntity
  8
1
  6
Continuous
100
AcDbLine
 10
164.65
 20
51.65
 30
0.0
 11
183.65
 21
51.65
 31
0.0
  0
LINE
  5
BE33
330
BC92
100
AcDbEntity
  8
1
  6
Continuous
100
AcDbLine
 10
196.412531
 20
53.15
 30
0.0
 11
151.8874679999998
 21
53.15
 31
0.0
  0
LINE
  5
BE34
330
BC92
100
AcDbEntity
  8
1
  6
Continuous
100
AcDbLine
 10
196.412531
 20
81.15
 30
0.0
 11
151.8874679999998
 21
81.15
 31
0.0
  0
ARC
  5
BE35
330
BC92
100
AcDbEntity
  8
1
  6
Continuous
100
AcDbCircle
 10
196.4125319999999
 20
79.15
 30
0.0
 40
2.0
100
AcDbArc
 50
7.033460999999999
 51
90.0
  0
ARC
  5
BE36
330
BC92
100
AcDbEntity
  8
1
  6
Continuous
100
AcDbCircle
 10
184.006696
 20
72.24268599999998
 30
0.0
 40
20.0
100
AcDbArc
 50
270.680114
 51
287.3243529999998
  0
ARC
  5
BE37
330
BC92
100
AcDbEntity
  8
1
  6
Continuous
100
AcDbCircle
 10
99.15
 20
67.15
 30
0.0
 40
100.0
100
AcDbArc
 50
352.965592
 51
7.033460999999999
  0
ARC
  5
BE38
330
BC92
100
AcDbEntity
  8
1
  6
Continuous
100
AcDbCircle
 10
196.4125319999999
 20
55.15
 30
0.0
 40
2.0
100
AcDbArc
 50
270.0
 51
352.966539
  0
LINE
  5
BE39
330
BC92
100
AcDbEntity
  8
1
  6
Continuous
100
AcDbLine
 10
170.15
 20
51.65
 30
0.0
 11
170.15
 21
51.4
 31
0.0
  0
LINE
  5
BE3A
330
BC92
100
AcDbEntity
  8
1
  6
Continuous
100
AcDbLine
 10
183.65
 20
51.65
 30
0.0
 11
184.2440949999999
 21
52.244096
 31
0.0
  0
LINE
  5
BE3B
330
BC92
100
AcDbEntity
  8
1
  6
Continuous
100
AcDbLine
 10
178.15
 20
51.65
 30
0.0
 11
178.15
 21
51.4
 31
0.0
  0
ARC
  5
BE3C
330
BC92
100
AcDbEntity
  8
1
  6
Continuous
100
AcDbCircle
 10
184.006696
 20
62.057313
 30
0.0
 40
20.0
100
AcDbArc
 50
72.675647
 51
89.31988599999998
  0
LINE
  5
BE3D
330
BC92
100
AcDbEntity
  8
1
  6
Continuous
100
AcDbLine
 10
170.15
 20
82.65
 30
0.0
 11
170.15
 21
82.9
 31
0.0
  0
LINE
  5
BE3E
330
BC92
100
AcDbEntity
  8
1
  6
Continuous
100
AcDbLine
 10
183.65
 20
82.65
 30
0.0
 11
184.2440949999999
 21
82.055904
 31
0.0
  0
LINE
  5
BE3F
330
BC92
100
AcDbEntity
  8
1
  6
Continuous
100
AcDbLine
 10
178.15
 20
82.65
 30
0.0
 11
178.15
 21
82.9
 31
0.0
  0
ARC
  5
BE40
330
BC92
100
AcDbEntity
  8
1
  6
Continuous
100
AcDbCircle
 10
151.8874679999998
 20
79.15
 30
0.0
 40
2.0
100
AcDbArc
 50
90.0
 51
172.9665389999999
  0
ARC
  5
BE41
330
BC92
100
AcDbEntity
  8
1
  6
Continuous
100
AcDbCircle
 10
249.15
 20
67.15
 30
0.0
 40
100.0
100
AcDbArc
 50
172.9665389999999
 51
187.034408
  0
ARC
  5
BE42
330
BC92
100
AcDbEntity
  8
1
  6
Continuous
100
AcDbCircle
 10
151.8874679999998
 20
55.15
 30
0.0
 40
2.0
100
AcDbArc
 50
187.033461
 51
270.0
  0
ARC
  5
BE43
330
BC92
100
AcDbEntity
  8
1
  6
Continuous
100
AcDbCircle
 10
164.293303
 20
72.24268599999998
 30
0.0
 40
20.0
100
AcDbArc
 50
252.675647
 51
269.3198859999998
  0
LINE
  5
BE44
330
BC92
100
AcDbEntity
  8
1
  6
Continuous
100
AcDbLine
 10
164.65
 20
51.65
 30
0.0
 11
164.055904
 21
52.244096
 31
0.0
  0
ARC
  5
BE45
330
BC92
100
AcDbEntity
  8
1
  6
Continuous
100
AcDbCircle
 10
164.293303
 20
62.057313
 30
0.0
 40
20.0
100
AcDbArc
 50
90.68011400000001
 51
107.3243529999998
  0
LINE
  5
BE46
330
BC92
100
AcDbEntity
  8
1
  6
Continuous
100
AcDbLine
 10
164.65
 20
82.65
 30
0.0
 11
164.055904
 21
82.055904
 31
0.0
  0
ARC
  5
BE47
330
BC92
100
AcDbEntity
  8
1
  6
Continuous
100
AcDbCircle
 10
183.2124999999998
 20
67.15
 30
0.0
 40
21.18749999999999
100
AcDbArc
 50
312.0750220000001
 51
47.924978
  0
ARC
  5
BE48
330
BC92
100
AcDbEntity
  8
1
  6
Continuous
100
AcDbCircle
 10
195.4
 20
80.65000000000003
 30
0.0
 40
3.0
100
AcDbArc
 50
47.924978
 51
170.4059319999998
  0
ARC
  5
BE49
330
BC92
100
AcDbEntity
  8
1
  6
Continuous
100
AcDbCircle
 10
195.4
 20
53.65
 30
0.0
 40
3.0
100
AcDbArc
 50
189.5940679999999
 51
312.0750220000001
  0
ARC
  5
BE4A
330
BC92
100
AcDbEntity
  8
1
  6
Continuous
100
AcDbCircle
 10
152.9
 20
53.65
 30
0.0
 40
3.0
100
AcDbArc
 50
227.9249779999998
 51
350.405932
  0
ARC
  5
BE4B
330
BC92
100
AcDbEntity
  8
1
  6
Continuous
100
AcDbCircle
 10
152.9
 20
80.65000000000003
 30
0.0
 40
3.0
100
AcDbArc
 50
9.594068
 51
132.0750219999998
  0
ARC
  5
BE4C
330
BC92
100
AcDbEntity
  8
1
  6
Continuous
100
AcDbCircle
 10
165.0875
 20
67.15
 30
0.0
 40
21.18749999999999
100
AcDbArc
 50
132.0750219999998
 51
227.9249779999998
  0
LINE
  5
BE4D
330
BC92
100
AcDbEntity
  8
1
  6
Continuous
100
AcDbLine
 10
181.774871
 20
82.9
 30
0.0
 11
166.5251299999999
 21
82.9
 31
0.0
  0
ARC
  5
BE4E
330
BC92
100
AcDbEntity
  8
1
  6
Continuous
100
AcDbCircle
 10
181.774871
 20
92.4
 30
0.0
 40
9.5
100
AcDbArc
 50
270.0
 51
307.0223529999998
  0
ARC
  5
BE4F
330
BC92
100
AcDbEntity
  8
1
  6
Continuous
100
AcDbCircle
 10
198.65
 20
70.024115
 30
0.0
 40
18.52588499999999
100
AcDbArc
 50
90.0
 51
127.022353
  0
ARC
  5
BE50
330
BC92
100
AcDbEntity
  8
1
  6
Continuous
100
AcDbCircle
 10
166.5251299999999
 20
92.4
 30
0.0
 40
9.5
100
AcDbArc
 50
232.977647
 51
270.0
  0
ARC
  5
BE51
330
BC92
100
AcDbEntity
  8
1
  6
Continuous
100
AcDbCircle
 10
149.65
 20
70.024115
 30
0.0
 40
18.52588499999999
100
AcDbArc
 50
52.977647
 51
90.0
  0
ARC
  5
BE52
330
BC92
100
AcDbEntity
  8
1
  6
Continuous
100
AcDbCircle
 10
166.5251299999999
 20
41.9
 30
0.0
 40
9.5
100
AcDbArc
 50
90.0
 51
127.022353
  0
ARC
  5
BE53
330
BC92
100
AcDbEntity
  8
1
  6
Continuous
100
AcDbCircle
 10
149.65
 20
64.275885
 30
0.0
 40
18.52588499999999
100
AcDbArc
 50
270.0
 51
307.0223529999998
  0
LINE
  5
BE54
330
BC92
100
AcDbEntity
  8
1
  6
Continuous
100
AcDbLine
 10
181.774871
 20
51.4
 30
0.0
 11
166.5251299999999
 21
51.4
 31
0.0
  0
ARC
  5
BE55
330
BC92
100
AcDbEntity
  8
1
  6
Continuous
100
AcDbCircle
 10
181.774871
 20
41.9
 30
0.0
 40
9.5
100
AcDbArc
 50
52.977647
 51
90.0
  0
ARC
  5
BE56
330
BC92
100
AcDbEntity
  8
1
  6
Continuous
100
AcDbCircle
 10
198.65
 20
64.275885
 30
0.0
 40
18.52588499999999
100
AcDbArc
 50
232.977647
 51
270.0
  0
ENDSEC
  0
SECTION
  2
OBJECTS
  0
DICTIONARY
  5
BC80
330
0
100
AcDbDictionary
281
     1
  3
ACAD_CIP_PREVIOUS_PRODUCT_INFO
350
BEB8
  3
ACAD_COLOR
350
BE9A
  3
ACAD_DETAILVIEWSTYLE
350
BEB3
  3
ACAD_GROUP
350
BC81
  3
ACAD_LAYOUT
350
BC8D
  3
ACAD_MATERIAL
350
BE68
  3
ACAD_MLEADERSTYLE
350
BEAF
  3
ACAD_MLINESTYLE
350
BC8A
  3
ACAD_PLOTSETTINGS
350
BC8C
  3
ACAD_PLOTSTYLENAME
350
BE66
  3
ACAD_SCALELIST
350
BE9D
  3
ACAD_SECTIONVIEWSTYLE
350
BEB1
  3
ACAD_TABLESTYLE
350
BE9B
  3
ACAD_VISUALSTYLE
350
BE81
  3
ACDB_RECOMPOSE_DATA
350
BED6
  3
AcDbVariableDictionary
350
BEC9
  3
DWGPROPS
350
BED7
  0
DICTIONARY
  5
BEB9
330
BC84
100
AcDbDictionary
280
     1
281
     1
  3
ADSK_XREC_LAYER_RECONCILED
360
BEBA
  0
DICTIONARY
  5
BEBB
330
BC9A
100
AcDbDictionary
280
     1
281
     1
  3
ADSK_XREC_LAYER_RECONCILED
360
BEBC
  0
DICTIONARY
  5
BEBD
330
BC9B
100
AcDbDictionary
280
     1
281
     1
  3
ADSK_XREC_LAYER_RECONCILED
360
BEBE
  0
DICTIONARY
  5
BEBF
330
BC9C
100
AcDbDictionary
280
     1
281
     1
  3
ADSK_XREC_LAYER_RECONCILED
360
BEC0
  0
DICTIONARY
  5
BEC1
330
BC9D
100
AcDbDictionary
280
     1
281
     1
  3
ADSK_XREC_LAYER_RECONCILED
360
BEC2
  0
DICTIONARY
  5
BEC3
330
BC9E
100
AcDbDictionary
280
     1
281
     1
  3
ADSK_XREC_LAYER_RECONCILED
360
BEC4
  0
DICTIONARY
  5
BEC5
330
BC9F
100
AcDbDictionary
280
     1
281
     1
  3
ADSK_XREC_LAYER_RECONCILED
360
BEC6
  0
DICTIONARY
  5
BEC7
330
BCA0
100
AcDbDictionary
280
     1
281
     1
  3
ADSK_XREC_LAYER_RECONCILED
360
BEC8
  0
DICTIONARY
  5
BE61
330
BC92
100
AcDbDictionary
281
     1
  3
ACAD_LAYOUTSELFREF
350
BE62
  0
DICTIONARY
  5
BE5F
330
BC8E
100
AcDbDictionary
281
     1
  3
ACAD_LAYOUTSELFREF
350
BE60
  0
XRECORD
  5
BEB8
102
{ACAD_REACTORS
330
BC80
102
}
330
BC80
100
AcDbXrecord
280
     1
300
ACDLT
300
2014
300
ACDLT_F_S
  0
DICTIONARY
  5
BE9A
102
{ACAD_REACTORS
330
BC80
102
}
330
BC80
100
AcDbDictionary
281
     1
  0
DICTIONARY
  5
BEB3
102
{ACAD_REACTORS
330
BC80
102
}
330
BC80
100
AcDbDictionary
281
     1
  3
Imperial24
350
BEB4
  0
DICTIONARY
  5
BC81
102
{ACAD_REACTORS
330
BC80
102
}
330
BC80
100
AcDbDictionary
281
     1
  0
DICTIONARY
  5
BC8D
102
{ACAD_REACTORS
330
BC80
102
}
330
BC80
100
AcDbDictionary
281
     1
  3
Model
350
BEB5
  3
レイアウト1
350
BEB6
  0
DICTIONARY
  5
BE68
102
{ACAD_REACTORS
330
BC80
102
}
330
BC80
100
AcDbDictionary
281
     1
  3
ByBlock
350
BE71
  3
ByLayer
350
BE69
  3
Global
350
BE79
  0
DICTIONARY
  5
BEAF
102
{ACAD_REACTORS
330
BC80
102
}
330
BC80
100
AcDbDictionary
281
     1
  3
Standard
350
BEB0
  0
DICTIONARY
  5
BC8A
102
{ACAD_REACTORS
330
BC80
102
}
330
BC80
100
AcDbDictionary
281
     1
  3
STANDARD
350
BC8B
  0
DICTIONARY
  5
BC8C
102
{ACAD_REACTORS
330
BC80
102
}
330
BC80
100
AcDbDictionary
281
     1
  0
ACDBDICTIONARYWDFLT
  5
BE66
102
{ACAD_REACTORS
330
BC80
102
}
330
BC80
100
AcDbDictionary
281
     1
  3
Normal
350
BE67
100
AcDbDictionaryWithDefault
340
BE67
  0
DICTIONARY
  5
BE9D
102
{ACAD_REACTORS
330
BC80
102
}
330
BC80
100
AcDbDictionary
281
     1
  3
A0
350
BE9E
  3
A1
350
BE9F
  3
A2
350
BEA0
  3
A3
350
BEA1
  3
A4
350
BEA2
  3
A5
350
BEA3
  3
A6
350
BEA4
  3
A7
350
BEA5
  3
A8
350
BEA6
  3
A9
350
BEA7
  3
B0
350
BEA8
  3
B1
350
BEA9
  3
B2
350
BEAA
  3
B3
350
BEAB
  3
B4
350
BEAC
  3
B5
350
BEAD
  3
B6
350
BEAE
  0
DICTIONARY
  5
BEB1
102
{ACAD_REACTORS
330
BC80
102
}
330
BC80
100
AcDbDictionary
281
     1
  3
Imperial24
350
BEB2
  0
DICTIONARY
  5
BE9B
102
{ACAD_REACTORS
330
BC80
102
}
330
BC80
100
AcDbDictionary
281
     1
  3
Standard
350
BE9C
  0
DICTIONARY
  5
BE81
102
{ACAD_REACTORS
330
BC80
102
}
330
BC80
100
AcDbDictionary
281
     1
  3
2dWireframe
350
BE87
  3
Basic
350
BE86
  3
Brighten
350
BE8D
  3
ColorChange
350
BE91
  3
Conceptual
350
BE8A
  3
Dim
350
BE8C
  3
EdgeColorOff
350
BE99
  3
Facepattern
350
BE90
  3
Flat
350
BE82
  3
FlatWithEdges
350
BE83
  3
Gouraud
350
BE84
  3
GouraudWithEdges
350
BE85
  3
Hidden
350
BE89
  3
JitterOff
350
BE97
  3
Linepattern
350
BE8F
  3
OverhangOff
350
BE98
  3
Realistic
350
BE8B
  3
Shaded
350
BE96
  3
Shaded with edges
350
BE95
  3
Shades of Gray
350
BE92
  3
Sketchy
350
BE93
  3
Thicken
350
BE8E
  3
Wireframe
350
BE88
  3
X-Ray
350
BE94
  0
XRECORD
  5
BED6
102
{ACAD_REACTORS
330
BC80
102
}
330
BC80
100
AcDbXrecord
280
     1
 90
        1
330
BE9C
  0
DICTIONARY
  5
BEC9
102
{ACAD_REACTORS
330
BC80
102
}
330
BC80
100
AcDbDictionary
281
     1
  3
CANNOSCALE
350
BECE
  3
CMLEADERSTYLE
350
BECB
  3
CTABLESTYLE
350
BECA
  3
CVIEWDETAILSTYLE
350
BECC
  3
CVIEWSECTIONSTYLE
350
BECD
  3
DIMASSOC
350
BED1
  3
INDEXCTL
350
BED0
  3
SORTENTS
350
BECF
  3
XCLIPFRAME
350
BED2
  0
XRECORD
  5
BED7
102
{ACAD_REACTORS
330
BC80
102
}
330
BC80
100
AcDbXrecord
280
     1
  1
DWGPROPS COOKIE
  2

  3

  4

  6

  7

  8
Yoshitsune
  9

300
=
301
=
302
=
303
=
304
=
305
=
306
=
307
=
308
=
309
=
 40
0.0000089930555556
 41
2451301.421445718
 42
2457192.688299236
  1

 90
        0
  0
XRECORD
  5
BEBA
102
{ACAD_REACTORS
330
BEB9
102
}
330
BEB9
100
AcDbXrecord
280
     1
290
     1
  0
XRECORD
  5
BEBC
102
{ACAD_REACTORS
330
BEBB
102
}
330
BEBB
100
AcDbXrecord
280
     1
290
     1
  0
XRECORD
  5
BEBE
102
{ACAD_REACTORS
330
BEBD
102
}
330
BEBD
100
AcDbXrecord
280
     1
290
     1
  0
XRECORD
  5
BEC0
102
{ACAD_REACTORS
330
BEBF
102
}
330
BEBF
100
AcDbXrecord
280
     1
290
     1
  0
XRECORD
  5
BEC2
102
{ACAD_REACTORS
330
BEC1
102
}
330
BEC1
100
AcDbXrecord
280
     1
290
     1
  0
XRECORD
  5
BEC4
102
{ACAD_REACTORS
330
BEC3
102
}
330
BEC3
100
AcDbXrecord
280
     1
290
     1
  0
XRECORD
  5
BEC6
102
{ACAD_REACTORS
330
BEC5
102
}
330
BEC5
100
AcDbXrecord
280
     1
290
     1
  0
XRECORD
  5
BEC8
102
{ACAD_REACTORS
330
BEC7
102
}
330
BEC7
100
AcDbXrecord
280
     1
290
     1
  0
XRECORD
  5
BE62
102
{ACAD_REACTORS
330
BE61
102
}
330
BE61
100
AcDbXrecord
280
     1
340
BC92
  0
XRECORD
  5
BE60
102
{ACAD_REACTORS
330
BE5F
102
}
330
BE5F
100
AcDbXrecord
280
     1
340
BC8E
  0
ACDBDETAILVIEWSTYLE
  5
BEB4
102
{ACAD_XDICTIONARY
360
BF0F
102
}
102
{ACAD_REACTORS
330
BEB3
102
}
330
BEB3
100
AcDbModelDocViewStyle
 70
     0
  3
Imperial24
290
     0
100
AcDbDetailViewStyle
 70
     0
 71
     0
 90
        3
 71
     1
340
BC85
 40
0.24
340
0
 40
0.24
300

 40
0.36
280
     3
 71
     2
340
BC89
 90
       25
 71
     3
340
BC85
 40
0.24
 90
        1
 40
0.75
 90
        1
300
%<\AcVar ViewType \f "%tc1">% %<\AcVar ViewDetailId>%\PSCALE %<\AcVar ViewScale \f "%sn">%
 71
     4
340
BC89
 90
       25
340
BC89
 90
       25
280
     0
  0
LAYOUT
  5
BEB5
102
{ACAD_XDICTIONARY
360
BF11
102
}
102
{ACAD_REACTORS
330
BC8D
102
}
330
BC8D
100
AcDbPlotSettings
  1

  2
Canon LBP9100C
  4

  6

 40
0.0
 41
0.0
 42
0.0
 43
0.0
 44
0.0
 45
0.0
 46
0.0
 47
0.0
 48
0.0
 49
0.0
140
0.0
141
0.0
142
1.0
143
1.0
 70
  1712
 72
     0
 73
     0
 74
     0
  7

 75
     0
147
1.0
148
0.0
149
0.0
100
AcDbLayout
  1
Model
 70
     1
 71
     0
 10
0.0
 20
0.0
 11
12.0
 21
9.0
 12
0.0
 22
0.0
 32
0.0
 14
0.0
 24
0.0
 34
0.0
 15
0.0
 25
0.0
 35
0.0
146
0.0
 13
0.0
 23
0.0
 33
0.0
 16
1.0
 26
0.0
 36
0.0
 17
0.0
 27
1.0
 37
0.0
 76
     0
330
BC92
331
BE5E
  0
LAYOUT
  5
BEB6
102
{ACAD_XDICTIONARY
360
BF13
102
}
102
{ACAD_REACTORS
330
BC8D
102
}
330
BC8D
100
AcDbPlotSettings
  1

  2
Canon LBP9100C
  4

  6

 40
0.0
 41
0.0
 42
0.0
 43
0.0
 44
0.0
 45
0.0
 46
0.0
 47
0.0
 48
0.0
 49
0.0
140
0.0
141
0.0
142
1.0
143
1.0
 70
   688
 72
     0
 73
     0
 74
     5
  7

 75
    16
147
1.0
148
0.0
149
0.0
100
AcDbLayout
  1
レイアウト1
 70
     0
 71
     1
 10
0.0
 20
0.0
 11
420.0
 21
297.0
 12
0.0
 22
0.0
 32
0.0
 14
1.000000000000000E+20
 24
1.000000000000000E+20
 34
1.000000000000000E+20
 15
-1.000000000000000E+20
 25
-1.000000000000000E+20
 35
-1.000000000000000E+20
146
0.0
 13
0.0
 23
0.0
 33
0.0
 16
1.0
 26
0.0
 36
0.0
 17
0.0
 27
1.0
 37
0.0
 76
     0
330
BC8E
  0
MATERIAL
  5
BE71
102
{ACAD_XDICTIONARY
360
BE72
102
}
102
{ACAD_REACTORS
330
BE68
102
}
330
BE68
100
AcDbMaterial
  1
ByBlock
 72
     0
 43
0.0208333333333333
 43
0.0
 43
0.0
 43
0.0
 43
0.0
 43
0.0208333333333333
 43
0.0
 43
0.0
 43
0.0
 43
0.0
 43
1.0
 43
0.0
 43
0.0
 43
0.0
 43
0.0
 43
1.0
 77
     0
 47
0.0208333333333333
 47
0.0
 47
0.0
 47
0.0
 47
0.0
 47
0.0208333333333333
 47
0.0
 47
0.0
 47
0.0
 47
0.0
 47
1.0
 47
0.0
 47
0.0
 47
0.0
 47
0.0
 47
1.0
171
     0
 49
0.0208333333333333
 49
0.0
 49
0.0
 49
0.0
 49
0.0
 49
0.0208333333333333
 49
0.0
 49
0.0
 49
0.0
 49
0.0
 49
1.0
 49
0.0
 49
0.0
 49
0.0
 49
0.0
 49
1.0
175
     0
142
0.0208333333333333
142
0.0
142
0.0
142
0.0
142
0.0
142
0.0208333333333333
142
0.0
142
0.0
142
0.0
142
0.0
142
1.0
142
0.0
142
0.0
142
0.0
142
0.0
142
1.0
179
     0
144
0.0208333333333333
144
0.0
144
0.0
144
0.0
144
0.0
144
0.0208333333333333
144
0.0
144
0.0
144
0.0
144
0.0
144
1.0
144
0.0
144
0.0
144
0.0
144
0.0
144
1.0
147
0.0208333333333333
147
0.0
147
0.0
147
0.0
147
0.0
147
0.0208333333333333
147
0.0
147
0.0
147
0.0
147
0.0
147
1.0
147
0.0
147
0.0
147
0.0
147
0.0
147
1.0
  0
MATERIAL
  5
BE69
102
{ACAD_XDICTIONARY
360
BE6A
102
}
102
{ACAD_REACTORS
330
BE68
102
}
330
BE68
100
AcDbMaterial
  1
ByLayer
 72
     0
 43
0.0208333333333333
 43
0.0
 43
0.0
 43
0.0
 43
0.0
 43
0.0208333333333333
 43
0.0
 43
0.0
 43
0.0
 43
0.0
 43
1.0
 43
0.0
 43
0.0
 43
0.0
 43
0.0
 43
1.0
 77
     0
 47
0.0208333333333333
 47
0.0
 47
0.0
 47
0.0
 47
0.0
 47
0.0208333333333333
 47
0.0
 47
0.0
 47
0.0
 47
0.0
 47
1.0
 47
0.0
 47
0.0
 47
0.0
 47
0.0
 47
1.0
171
     0
 49
0.0208333333333333
 49
0.0
 49
0.0
 49
0.0
 49
0.0
 49
0.0208333333333333
 49
0.0
 49
0.0
 49
0.0
 49
0.0
 49
1.0
 49
0.0
 49
0.0
 49
0.0
 49
0.0
 49
1.0
175
     0
142
0.0208333333333333
142
0.0
142
0.0
142
0.0
142
0.0
142
0.0208333333333333
142
0.0
142
0.0
142
0.0
142
0.0
142
1.0
142
0.0
142
0.0
142
0.0
142
0.0
142
1.0
179
     0
144
0.0208333333333333
144
0.0
144
0.0
144
0.0
144
0.0
144
0.0208333333333333
144
0.0
144
0.0
144
0.0
144
0.0
144
1.0
144
0.0
144
0.0
144
0.0
144
0.0
144
1.0
147
0.0208333333333333
147
0.0
147
0.0
147
0.0
147
0.0
147
0.0208333333333333
147
0.0
147
0.0
147
0.0
147
0.0
147
1.0
147
0.0
147
0.0
147
0.0
147
0.0
147
1.0
  0
MATERIAL
  5
BE79
102
{ACAD_XDICTIONARY
360
BE7A
102
}
102
{ACAD_REACTORS
330
BE68
102
}
330
BE68
100
AcDbMaterial
  1
Global
 72
     0
 43
0.0208333333333333
 43
0.0
 43
0.0
 43
0.0
 43
0.0
 43
0.0208333333333333
 43
0.0
 43
0.0
 43
0.0
 43
0.0
 43
1.0
 43
0.0
 43
0.0
 43
0.0
 43
0.0
 43
1.0
 77
     0
 47
0.0208333333333333
 47
0.0
 47
0.0
 47
0.0
 47
0.0
 47
0.0208333333333333
 47
0.0
 47
0.0
 47
0.0
 47
0.0
 47
1.0
 47
0.0
 47
0.0
 47
0.0
 47
0.0
 47
1.0
171
     0
 49
0.0208333333333333
 49
0.0
 49
0.0
 49
0.0
 49
0.0
 49
0.0208333333333333
 49
0.0
 49
0.0
 49
0.0
 49
0.0
 49
1.0
 49
0.0
 49
0.0
 49
0.0
 49
0.0
 49
1.0
175
     0
142
0.0208333333333333
142
0.0
142
0.0
142
0.0
142
0.0
142
0.0208333333333333
142
0.0
142
0.0
142
0.0
142
0.0
142
1.0
142
0.0
142
0.0
142
0.0
142
0.0
142
1.0
179
     0
144
0.0208333333333333
144
0.0
144
0.0
144
0.0
144
0.0
144
0.0208333333333333
144
0.0
144
0.0
144
0.0
144
0.0
144
1.0
144
0.0
144
0.0
144
0.0
144
0.0
144
1.0
147
0.0208333333333333
147
0.0
147
0.0
147
0.0
147
0.0
147
0.0208333333333333
147
0.0
147
0.0
147
0.0
147
0.0
147
1.0
147
0.0
147
0.0
147
0.0
147
0.0
147
1.0
  0
MLEADERSTYLE
  5
BEB0
102
{ACAD_REACTORS
330
BEAF
102
}
330
BEAF
100
AcDbMLeaderStyle
170
     2
171
     1
172
     0
 90
        2
 40
0.0
 41
0.0
173
     1
 91
-1056964608
340
BC87
 92
       -2
290
     1
 42
0.09
291
     1
 43
0.36
  3
Standard
 44
0.18
300

342
BC85
174
     1
178
     6
175
     1
176
     0
 93
-1056964608
 45
0.18
292
     0
297
     0
 46
0.18
 94
-1056964608
 47
1.0
 49
1.0
140
1.0
293
     1
141
0.0
294
     1
177
     0
142
1.0
295
     0
296
     0
143
0.125
1001
ACAD_MLEADERVER
1070
     2
  0
MLINESTYLE
  5
BC8B
102
{ACAD_REACTORS
330
BC8A
102
}
330
BC8A
100
AcDbMlineStyle
  2
STANDARD
 70
     0
  3

 62
   256
 51
90.0
 52
90.0
 71
     2
 49
0.5
 62
   256
  6
BYLAYER
 49
-0.5
 62
   256
  6
BYLAYER
  0
ACDBPLACEHOLDER
  5
BE67
102
{ACAD_REACTORS
330
BE66
102
}
330
BE66
  0
SCALE
  5
BE9E
102
{ACAD_REACTORS
330
BE9D
102
}
330
BE9D
100
AcDbScale
 70
     0
300
1:1
140
1.0
141
1.0
290
     1
  0
SCALE
  5
BE9F
102
{ACAD_REACTORS
330
BE9D
102
}
330
BE9D
100
AcDbScale
 70
     0
300
1/128" = 1'-0"
140
0.0078125
141
12.0
290
     0
  0
SCALE
  5
BEA0
102
{ACAD_REACTORS
330
BE9D
102
}
330
BE9D
100
AcDbScale
 70
     0
300
1/64" = 1'-0"
140
0.015625
141
12.0
290
     0
  0
SCALE
  5
BEA1
102
{ACAD_REACTORS
330
BE9D
102
}
330
BE9D
100
AcDbScale
 70
     0
300
1/32" = 1'-0"
140
0.03125
141
12.0
290
     0
  0
SCALE
  5
BEA2
102
{ACAD_REACTORS
330
BE9D
102
}
330
BE9D
100
AcDbScale
 70
     0
300
1/16" = 1'-0"
140
0.0625
141
12.0
290
     0
  0
SCALE
  5
BEA3
102
{ACAD_REACTORS
330
BE9D
102
}
330
BE9D
100
AcDbScale
 70
     0
300
3/32" = 1'-0"
140
0.09375
141
12.0
290
     0
  0
SCALE
  5
BEA4
102
{ACAD_REACTORS
330
BE9D
102
}
330
BE9D
100
AcDbScale
 70
     0
300
1/8" = 1'-0"
140
0.125
141
12.0
290
     0
  0
SCALE
  5
BEA5
102
{ACAD_REACTORS
330
BE9D
102
}
330
BE9D
100
AcDbScale
 70
     0
300
3/16" = 1'-0"
140
0.1875
141
12.0
290
     0
  0
SCALE
  5
BEA6
102
{ACAD_REACTORS
330
BE9D
102
}
330
BE9D
100
AcDbScale
 70
     0
300
1/4" = 1'-0"
140
0.25
141
12.0
290
     0
  0
SCALE
  5
BEA7
102
{ACAD_REACTORS
330
BE9D
102
}
330
BE9D
100
AcDbScale
 70
     0
300
3/8" = 1'-0"
140
0.375
141
12.0
290
     0
  0
SCALE
  5
BEA8
102
{ACAD_REACTORS
330
BE9D
102
}
330
BE9D
100
AcDbScale
 70
     0
300
1/2" = 1'-0"
140
0.5
141
12.0
290
     0
  0
SCALE
  5
BEA9
102
{ACAD_REACTORS
330
BE9D
102
}
330
BE9D
100
AcDbScale
 70
     0
300
3/4" = 1'-0"
140
0.75
141
12.0
290
     0
  0
SCALE
  5
BEAA
102
{ACAD_REACTORS
330
BE9D
102
}
330
BE9D
100
AcDbScale
 70
     0
300
1" = 1'-0"
140
1.0
141
12.0
290
     0
  0
SCALE
  5
BEAB
102
{ACAD_REACTORS
330
BE9D
102
}
330
BE9D
100
AcDbScale
 70
     0
300
1-1/2" = 1'-0"
140
1.5
141
12.0
290
     0
  0
SCALE
  5
BEAC
102
{ACAD_REACTORS
330
BE9D
102
}
330
BE9D
100
AcDbScale
 70
     0
300
3" = 1'-0"
140
3.0
141
12.0
290
     0
  0
SCALE
  5
BEAD
102
{ACAD_REACTORS
330
BE9D
102
}
330
BE9D
100
AcDbScale
 70
     0
300
6" = 1'-0"
140
6.0
141
12.0
290
     0
  0
SCALE
  5
BEAE
102
{ACAD_REACTORS
330
BE9D
102
}
330
BE9D
100
AcDbScale
 70
     0
300
1'-0" = 1'-0"
140
12.0
141
12.0
290
     0
  0
ACDBSECTIONVIEWSTYLE
  5
BEB2
102
{ACAD_XDICTIONARY
360
BF0D
102
}
102
{ACAD_REACTORS
330
BEB1
102
}
330
BEB1
100
AcDbModelDocViewStyle
 70
     0
  3
Imperial24
290
     0
100
AcDbSectionViewStyle
 70
     0
 71
     0
 90
       78
 71
     1
340
BC85
 40
0.24
340
0
340
0
 40
0.24
300
I, O, Q, S, X, Z
 40
0.48
 90
        3
 40
0.18
 90
        1
 71
     2
340
BC89
 90
       25
340
BC89
 90
       50
 40
0.24
 40
0.0
 40
0.24
 71
     3
340
BC85
 40
0.24
 90
        1
 40
0.75
 90
        1
300
%<\AcVar ViewType \f "%tc1">% %<\AcVar ViewSectionStartId>%-%<\AcVar ViewSectionEndId>%\PSCALE %<\AcVar ViewScale \f "%sn">%
 71
     4
300
ANSI31
 40
1.0
 90
        0
290
     0
290
     0
 90
        6
 40
0.0
 40
1.570796326794896
 40
0.2617993877991494
 40
1.308996938995747
 40
-0.2617993877991494
 40
1.832595714594046
  0
TABLESTYLE
  5
BE9C
102
{ACAD_XDICTIONARY
360
BED4
102
}
102
{ACAD_REACTORS
330
BE9B
102
}
330
BE9B
100
AcDbTableStyle
  3
Standard
 70
     0
 71
     0
 40
0.06
 41
0.06
280
     0
281
     0
  7
STANDARD
140
0.18
170
     2
 62
     0
 63
     7
283
     0
274
    -2
284
     1
 64
     0
275
    -2
285
     1
 65
     0
276
    -2
286
     1
 66
     0
277
    -2
287
     1
 67
     0
278
    -2
288
     1
 68
     0
279
    -2
289
     1
 69
     0
  7
STANDARD
140
0.25
170
     5
 62
     0
 63
     7
283
     0
274
    -2
284
     1
 64
     0
275
    -2
285
     1
 65
     0
276
    -2
286
     1
 66
     0
277
    -2
287
     1
 67
     0
278
    -2
288
     1
 68
     0
279
    -2
289
     1
 69
     0
  7
STANDARD
140
0.18
170
     5
 62
     0
 63
     7
283
     0
274
    -2
284
     1
 64
     0
275
    -2
285
     1
 65
     0
276
    -2
286
     1
 66
     0
277
    -2
287
     1
 67
     0
278
    -2
288
     1
 68
     0
279
    -2
289
     1
 69
     0
  0
VISUALSTYLE
  5
BE87
102
{ACAD_XDICTIONARY
360
BEE5
102
}
102
{ACAD_REACTORS
330
BE81
102
}
330
BE81
100
AcDbVisualStyle
  2
2dWireframe
 70
     4
 71
     0
 72
     2
 73
     0
 90
        0
 40
-0.6
 41
-30.0
 62
     5
 63
     7
 74
     1
 91
        4
 64
     7
 65
   257
 75
     1
175
     1
 42
1.0
 92
        0
 66
   257
 43
1.0
 76
     1
 77
     6
 78
     2
 67
     7
 79
     5
170
     0
171
     0
290
     0
174
     0
 93
        1
 44
0.0
173
     0
291
     0
 45
0.0
1001
ACAD
1000
AcDbSavedByObjectVersion
1070
     0
  0
VISUALSTYLE
  5
BE86
102
{ACAD_XDICTIONARY
360
BEE3
102
}
102
{ACAD_REACTORS
330
BE81
102
}
330
BE81
100
AcDbVisualStyle
  2
Basic
 70
     7
 71
     1
 72
     0
 73
     1
 90
        0
 40
-0.6
 41
-30.0
 62
     5
 63
     7
 74
     0
 91
        4
 64
     7
 65
   257
 75
     1
175
     1
 42
1.0
 92
        8
 66
     7
 43
1.0
 76
     1
 77
     6
 78
     2
 67
     7
 79
     5
170
     0
171
     0
290
     0
174
     0
 93
        1
 44
0.0
173
     0
291
     1
 45
0.0
1001
ACAD
1000
AcDbSavedByObjectVersion
1070
     0
  0
VISUALSTYLE
  5
BE8D
102
{ACAD_XDICTIONARY
360
BEF1
102
}
102
{ACAD_REACTORS
330
BE81
102
}
330
BE81
100
AcDbVisualStyle
  2
Brighten
 70
    12
 71
     2
 72
     2
 73
     0
 90
        0
 40
-0.6
 41
-30.0
 62
     5
 63
     7
 74
     1
 91
        4
 64
     7
 65
   257
 75
     1
175
     1
 42
1.0
 92
        8
 66
     7
 43
1.0
 76
     1
 77
     6
 78
     2
 67
     7
 79
     5
170
     0
171
     0
290
     0
174
     0
 93
        1
 44
50.0
173
     0
291
     1
 45
0.0
1001
ACAD
1000
AcDbSavedByObjectVersion
1070
     0
  0
VISUALSTYLE
  5
BE91
102
{ACAD_XDICTIONARY
360
BEF9
102
}
102
{ACAD_REACTORS
330
BE81
102
}
330
BE81
100
AcDbVisualStyle
  2
ColorChange
 70
    16
 71
     2
 72
     2
 73
     3
 90
        0
 40
-0.6
 41
-30.0
 62
     5
 63
     8
 74
     1
 91
        4
 64
     7
 65
   257
 75
     1
175
     1
 42
1.0
 92
        8
 66
     8
 43
1.0
 76
     1
 77
     6
 78
     2
 67
     7
 79
     5
170
     0
171
     0
290
     0
174
     0
 93
        1
 44
0.0
173
     0
291
     1
 45
0.0
1001
ACAD
1000
AcDbSavedByObjectVersion
1070
     0
  0
VISUALSTYLE
  5
BE8A
102
{ACAD_XDICTIONARY
360
BEEB
102
}
102
{ACAD_REACTORS
330
BE81
102
}
330
BE81
100
AcDbVisualStyle
  2
Conceptual
 70
     9
 71
     3
 72
     2
 73
     0
 90
        0
 40
-0.6
 41
-30.0
 62
     5
 63
     7
 74
     2
 91
        2
 64
     7
 65
   257
 75
     1
175
     1
 42
179.0
 92
        8
 66
     7
 43
1.0
 76
     1
 77
     6
 78
     2
 67
     7
 79
     3
170
     0
171
     0
290
     0
174
     0
 93
        1
 44
0.0
173
     0
291
     0
 45
0.0
1001
ACAD
1000
AcDbSavedByObjectVersion
1070
     0
  0
VISUALSTYLE
  5
BE8C
102
{ACAD_XDICTIONARY
360
BEEF
102
}
102
{ACAD_REACTORS
330
BE81
102
}
330
BE81
100
AcDbVisualStyle
  2
Dim
 70
    11
 71
     2
 72
     2
 73
     0
 90
        0
 40
-0.6
 41
-30.0
 62
     5
 63
     7
 74
     1
 91
        4
 64
     7
 65
   257
 75
     1
175
     1
 42
1.0
 92
        8
 66
     7
 43
1.0
 76
     1
 77
     6
 78
     2
 67
     7
 79
     5
170
     0
171
     0
290
     0
174
     0
 93
        1
 44
-50.0
173
     0
291
     1
 45
0.0
1001
ACAD
1000
AcDbSavedByObjectVersion
1070
     0
  0
VISUALSTYLE
  5
BE99
102
{ACAD_XDICTIONARY
360
BF09
102
}
102
{ACAD_REACTORS
330
BE81
102
}
330
BE81
100
AcDbVisualStyle
  2
EdgeColorOff
 70
    22
 71
     2
 72
     2
 73
     0
 90
        0
 40
-0.6
 41
-30.0
 62
     5
 63
     7
 74
     1
 91
        4
 64
     7
 65
   257
 75
     1
175
     1
 42
1.0
 92
        8
 66
     7
 43
1.0
 76
     1
 77
     6
 78
     2
 67
     7
 79
     5
170
     0
171
     0
290
     0
174
     0
 93
        1
 44
0.0
173
     0
291
     1
 45
0.0
1001
ACAD
1000
AcDbSavedByObjectVersion
1070
     0
  0
VISUALSTYLE
  5
BE90
102
{ACAD_XDICTIONARY
360
BEF7
102
}
102
{ACAD_REACTORS
330
BE81
102
}
330
BE81
100
AcDbVisualStyle
  2
Facepattern
 70
    15
 71
     2
 72
     2
 73
     0
 90
        0
 40
-0.6
 41
-30.0
 62
     5
 63
     7
 74
     1
 91
        4
 64
     7
 65
   257
 75
     1
175
     1
 42
1.0
 92
        8
 66
     7
 43
1.0
 76
     1
 77
     6
 78
     2
 67
     7
 79
     5
170
     0
171
     0
290
     0
174
     0
 93
        1
 44
0.0
173
     0
291
     1
 45
0.0
1001
ACAD
1000
AcDbSavedByObjectVersion
1070
     0
  0
VISUALSTYLE
  5
BE82
102
{ACAD_XDICTIONARY
360
BEDB
102
}
102
{ACAD_REACTORS
330
BE81
102
}
330
BE81
100
AcDbVisualStyle
  2
Flat
 70
     0
 71
     2
 72
     1
 73
     1
 90
        2
 40
-0.6
 41
30.0
 62
     5
 63
     7
 74
     0
 91
        0
 64
     7
 65
   257
 75
     1
175
     1
 42
1.0
 92
        8
 66
     7
 43
1.0
 76
     1
 77
     6
 78
     2
 67
     7
 79
     5
170
     0
171
     0
290
     0
174
     0
 93
       13
 44
0.0
173
     0
291
     1
 45
0.0
1001
ACAD
1000
AcDbSavedByObjectVersion
1070
     0
  0
VISUALSTYLE
  5
BE83
102
{ACAD_XDICTIONARY
360
BEDD
102
}
102
{ACAD_REACTORS
330
BE81
102
}
330
BE81
100
AcDbVisualStyle
  2
FlatWithEdges
 70
     1
 71
     2
 72
     1
 73
     1
 90
        2
 40
-0.6
 41
30.0
 62
     5
 63
     7
 74
     1
 91
        0
 64
     7
 65
   257
 75
     1
175
     1
 42
1.0
 92
        0
 66
   257
 43
1.0
 76
     1
 77
     6
 78
     2
 67
     7
 79
     5
170
     0
171
     0
290
     0
174
     0
 93
       13
 44
0.0
173
     0
291
     1
 45
0.0
1001
ACAD
1000
AcDbSavedByObjectVersion
1070
     0
  0
VISUALSTYLE
  5
BE84
102
{ACAD_XDICTIONARY
360
BEDF
102
}
102
{ACAD_REACTORS
330
BE81
102
}
330
BE81
100
AcDbVisualStyle
  2
Gouraud
 70
     2
 71
     2
 72
     2
 73
     1
 90
        2
 40
-0.6
 41
30.0
 62
     5
 63
     7
 74
     0
 91
        0
 64
     7
 65
   257
 75
     1
175
     1
 42
1.0
 92
        0
 66
     7
 43
1.0
 76
     1
 77
     6
 78
     2
 67
     7
 79
     5
170
     0
171
     0
290
     0
174
     0
 93
       13
 44
0.0
173
     0
291
     1
 45
0.0
1001
ACAD
1000
AcDbSavedByObjectVersion
1070
     0
  0
VISUALSTYLE
  5
BE85
102
{ACAD_XDICTIONARY
360
BEE1
102
}
102
{ACAD_REACTORS
330
BE81
102
}
330
BE81
100
AcDbVisualStyle
  2
GouraudWithEdges
 70
     3
 71
     2
 72
     2
 73
     1
 90
        2
 40
-0.6
 41
30.0
 62
     5
 63
     7
 74
     1
 91
        0
 64
     7
 65
   257
 75
     1
175
     1
 42
1.0
 92
        0
 66
   257
 43
1.0
 76
     1
 77
     6
 78
     2
 67
     7
 79
     5
170
     0
171
     0
290
     0
174
     0
 93
       13
 44
0.0
173
     0
291
     1
 45
0.0
1001
ACAD
1000
AcDbSavedByObjectVersion
1070
     0
  0
VISUALSTYLE
  5
BE89
102
{ACAD_XDICTIONARY
360
BEE9
102
}
102
{ACAD_REACTORS
330
BE81
102
}
330
BE81
100
AcDbVisualStyle
  2
Hidden
 70
     6
 71
     1
 72
     2
 73
     2
 90
        0
 40
-0.6
 41
-30.0
 62
     5
 63
     7
 74
     2
 91
        2
 64
     7
 65
   257
 75
     2
175
     1
 42
40.0
 92
        0
 66
   257
 43
1.0
 76
     1
 77
     6
 78
     2
 67
     7
 79
     3
170
     0
171
     0
290
     0
174
     0
 93
        1
 44
0.0
173
     0
291
     0
 45
0.0
1001
ACAD
1000
AcDbSavedByObjectVersion
1070
     0
  0
VISUALSTYLE
  5
BE97
102
{ACAD_XDICTIONARY
360
BF05
102
}
102
{ACAD_REACTORS
330
BE81
102
}
330
BE81
100
AcDbVisualStyle
  2
JitterOff
 70
    20
 71
     2
 72
     2
 73
     0
 90
        0
 40
-0.6
 41
-30.0
 62
     5
 63
     7
 74
     1
 91
        4
 64
     7
 65
   257
 75
     1
175
     1
 42
1.0
 92
       10
 66
     7
 43
1.0
 76
     1
 77
     6
 78
     2
 67
     7
 79
     5
170
     0
171
     0
290
     0
174
     0
 93
        1
 44
0.0
173
     0
291
     1
 45
0.0
1001
ACAD
1000
AcDbSavedByObjectVersion
1070
     0
  0
VISUALSTYLE
  5
BE8F
102
{ACAD_XDICTIONARY
360
BEF5
102
}
102
{ACAD_REACTORS
330
BE81
102
}
330
BE81
100
AcDbVisualStyle
  2
Linepattern
 70
    14
 71
     2
 72
     2
 73
     0
 90
        0
 40
-0.6
 41
-30.0
 62
     5
 63
     7
 74
     1
 91
        4
 64
     7
 65
   257
 75
     7
175
     7
 42
1.0
 92
        8
 66
     7
 43
1.0
 76
     1
 77
     6
 78
     2
 67
     7
 79
     5
170
     0
171
     0
290
     0
174
     0
 93
        1
 44
0.0
173
     0
291
     1
 45
0.0
1001
ACAD
1000
AcDbSavedByObjectVersion
1070
     0
  0
VISUALSTYLE
  5
BE98
102
{ACAD_XDICTIONARY
360
BF07
102
}
102
{ACAD_REACTORS
330
BE81
102
}
330
BE81
100
AcDbVisualStyle
  2
OverhangOff
 70
    21
 71
     2
 72
     2
 73
     0
 90
        0
 40
-0.6
 41
-30.0
 62
     5
 63
     7
 74
     1
 91
        4
 64
     7
 65
   257
 75
     1
175
     1
 42
1.0
 92
        9
 66
     7
 43
1.0
 76
     1
 77
     6
 78
     2
 67
     7
 79
     5
170
     0
171
     0
290
     0
174
     0
 93
        1
 44
0.0
173
     0
291
     1
 45
0.0
1001
ACAD
1000
AcDbSavedByObjectVersion
1070
     0
  0
VISUALSTYLE
  5
BE8B
102
{ACAD_XDICTIONARY
360
BEED
102
}
102
{ACAD_REACTORS
330
BE81
102
}
330
BE81
100
AcDbVisualStyle
  2
Realistic
 70
     8
 71
     2
 72
     3
 73
     0
 90
        2
 40
-0.6
 41
30.0
 62
     5
 63
     7
 74
     0
 91
        0
 64
     7
 65
   257
 75
     1
175
     1
 42
1.0
 92
        8
 66
   257
 43
1.0
 76
     1
 77
     6
 78
     2
 67
     7
 79
     3
170
     0
171
     0
290
     0
174
     0
 93
       13
 44
0.0
173
     0
291
     0
 45
0.0
1001
ACAD
1000
AcDbSavedByObjectVersion
1070
     0
  0
VISUALSTYLE
  5
BE96
102
{ACAD_XDICTIONARY
360
BF03
102
}
102
{ACAD_REACTORS
330
BE81
102
}
330
BE81
100
AcDbVisualStyle
  2
Shaded
 70
    27
 71
     2
 72
     2
 73
     1
 90
        2
 40
-0.6
 41
30.0
 62
     5
 63
     7
 74
     0
 91
        4
 64
     7
 65
   257
 75
     1
175
     1
 42
1.0
 92
        8
 66
   257
 43
1.0
 76
     1
 77
     6
 78
     2
 67
     8
 79
     3
170
     0
171
     0
290
     0
174
     0
 93
        5
 44
0.0
173
     0
291
     0
 45
0.0
1001
ACAD
1000
AcDbSavedByObjectVersion
1070
     0
  0
VISUALSTYLE
  5
BE95
102
{ACAD_XDICTIONARY
360
BF01
102
}
102
{ACAD_REACTORS
330
BE81
102
}
330
BE81
100
AcDbVisualStyle
  2
Shaded with edges
 70
    26
 71
     2
 72
     2
 73
     1
 90
        2
 40
-0.6
 41
30.0
 62
     5
 63
     7
 74
     1
 91
       10
 64
     7
 65
   257
 75
     2
175
     1
 42
1.0
 92
        8
 66
   257
 43
1.0
 76
     1
 77
     6
 78
     2
 67
     7
 79
     3
170
     0
171
     0
290
     0
174
     0
 93
        5
 44
0.0
173
     0
291
     0
 45
0.0
1001
ACAD
1000
AcDbSavedByObjectVersion
1070
     0
  0
VISUALSTYLE
  5
BE92
102
{ACAD_XDICTIONARY
360
BEFB
102
}
102
{ACAD_REACTORS
330
BE81
102
}
330
BE81
100
AcDbVisualStyle
  2
Shades of Gray
 70
    23
 71
     2
 72
     2
 73
     3
 90
        0
 40
-0.6
 41
-30.0
 62
     5
 63
     7
 74
     2
 91
        2
 64
     7
 65
     7
 75
     1
175
     1
 42
40.0
 92
        8
 66
     7
 43
1.0
 76
     1
 77
     6
 78
     2
 67
     7
 79
     3
170
     0
171
     0
290
     0
174
     0
 93
        1
 44
0.0
173
     0
291
     0
 45
0.0
1001
ACAD
1000
AcDbSavedByObjectVersion
1070
     0
  0
VISUALSTYLE
  5
BE93
102
{ACAD_XDICTIONARY
360
BEFD
102
}
102
{ACAD_REACTORS
330
BE81
102
}
330
BE81
100
AcDbVisualStyle
  2
Sketchy
 70
    24
 71
     1
 72
     2
 73
     2
 90
        0
 40
-0.6
 41
-30.0
 62
     5
 63
     7
 74
     2
 91
        2
 64
     7
 65
     7
 75
     1
175
     1
 42
40.0
 92
       11
 66
     7
 43
1.0
 76
     1
 77
     6
 78
     2
 67
     7
 79
     6
170
     0
171
     0
290
     0
174
     0
 93
        1
 44
0.0
173
     0
291
     0
 45
0.0
1001
ACAD
1000
AcDbSavedByObjectVersion
1070
     0
  0
VISUALSTYLE
  5
BE8E
102
{ACAD_XDICTIONARY
360
BEF3
102
}
102
{ACAD_REACTORS
330
BE81
102
}
330
BE81
100
AcDbVisualStyle
  2
Thicken
 70
    13
 71
     2
 72
     2
 73
     0
 90
        0
 40
-0.6
 41
-30.0
 62
     5
 63
     7
 74
     1
 91
        4
 64
     7
 65
   257
 75
     1
175
     1
 42
1.0
 92
       12
 66
     7
 43
1.0
 76
     1
 77
     6
 78
     2
 67
     7
 79
     5
170
     0
171
     0
290
     0
174
     0
 93
        1
 44
0.0
173
     0
291
     1
 45
0.0
1001
ACAD
1000
AcDbSavedByObjectVersion
1070
     0
  0
VISUALSTYLE
  5
BE88
102
{ACAD_XDICTIONARY
360
BEE7
102
}
102
{ACAD_REACTORS
330
BE81
102
}
330
BE81
100
AcDbVisualStyle
  2
Wireframe
 70
     5
 71
     0
 72
     2
 73
     0
 90
        0
 40
-0.6
 41
-30.0
 62
     5
 63
     7
 74
     1
 91
        4
 64
     7
 65
   257
 75
     1
175
     1
 42
1.0
 92
        0
 66
   257
 43
1.0
 76
     1
 77
     6
 78
     2
 67
     7
 79
     3
170
     0
171
     0
290
     0
174
     0
 93
        1
 44
0.0
173
     0
291
     0
 45
0.0
1001
ACAD
1000
AcDbSavedByObjectVersion
1070
     0
  0
VISUALSTYLE
  5
BE94
102
{ACAD_XDICTIONARY
360
BEFF
102
}
102
{ACAD_REACTORS
330
BE81
102
}
330
BE81
100
AcDbVisualStyle
  2
X-Ray
 70
    25
 71
     2
 72
     2
 73
     1
 90
        1
 40
0.5
 41
-30.0
 62
     5
 63
     7
 74
     1
 91
        0
 64
     7
 65
   257
 75
     1
175
     1
 42
1.0
 92
        8
 66
     7
 43
1.0
 76
     1
 77
     6
 78
     2
 67
     7
 79
     3
170
     0
171
     0
290
     0
174
     0
 93
       13
 44
0.0
173
     0
291
     0
 45
0.0
1001
ACAD
1000
AcDbSavedByObjectVersion
1070
     0
  0
DICTIONARYVAR
  5
BECE
102
{ACAD_REACTORS
330
BEC9
102
}
330
BEC9
100
DictionaryVariables
280
     0
  1
1:1
  0
DICTIONARYVAR
  5
BECB
102
{ACAD_REACTORS
330
BEC9
102
}
330
BEC9
100
DictionaryVariables
280
     0
  1
STANDARD
  0
DICTIONARYVAR
  5
BECA
102
{ACAD_REACTORS
330
BEC9
102
}
330
BEC9
100
DictionaryVariables
280
     0
  1
STANDARD
  0
DICTIONARYVAR
  5
BECC
102
{ACAD_REACTORS
330
BEC9
102
}
330
BEC9
100
DictionaryVariables
280
     0
  1
Imperial24
  0
DICTIONARYVAR
  5
BECD
102
{ACAD_REACTORS
330
BEC9
102
}
330
BEC9
100
DictionaryVariables
280
     0
  1
Imperial24
  0
DICTIONARYVAR
  5
BED1
102
{ACAD_REACTORS
330
BEC9
102
}
330
BEC9
100
DictionaryVariables
280
     0
  1
1
  0
DICTIONARYVAR
  5
BED0
102
{ACAD_REACTORS
330
BEC9
102
}
330
BEC9
100
DictionaryVariables
280
     0
  1
0
  0
DICTIONARYVAR
  5
BECF
102
{ACAD_REACTORS
330
BEC9
102
}
330
BEC9
100
DictionaryVariables
280
     0
  1
127
  0
DICTIONARYVAR
  5
BED2
102
{ACAD_REACTORS
330
BEC9
102
}
330
BEC9
100
DictionaryVariables
280
     0
  1
2
  0
DICTIONARY
  5
BF0F
330
BEB4
100
AcDbDictionary
280
     1
281
     1
  3
ACAD_XREC_ROUNDTRIP
360
BF10
  0
DICTIONARY
  5
BF11
330
BEB5
100
AcDbDictionary
280
     1
281
     1
  3
ACAD_XREC_ROUNDTRIP
360
BF12
  0
DICTIONARY
  5
BF13
330
BEB6
100
AcDbDictionary
280
     1
281
     1
  3
ACAD_XREC_ROUNDTRIP
360
BF14
  0
DICTIONARY
  5
BE72
330
BE71
100
AcDbDictionary
280
     1
281
     1
  3
ACAD_XREC_ROUNDTRIP
360
BED9
  3
BUMPTILE
360
BE74
  3
DIFFUSETILE
360
BE73
  3
OPACITYTILE
360
BE77
  3
REFLECTIONTILE
360
BE76
  3
REFRACTIONTILE
360
BE78
  3
SPECULARTILE
360
BE75
  0
DICTIONARY
  5
BE6A
330
BE69
100
AcDbDictionary
280
     1
281
     1
  3
ACAD_XREC_ROUNDTRIP
360
BED8
  3
BUMPTILE
360
BE6C
  3
DIFFUSETILE
360
BE6B
  3
OPACITYTILE
360
BE6F
  3
REFLECTIONTILE
360
BE6E
  3
REFRACTIONTILE
360
BE70
  3
SPECULARTILE
360
BE6D
  0
DICTIONARY
  5
BE7A
330
BE79
100
AcDbDictionary
280
     1
281
     1
  3
ACAD_XREC_ROUNDTRIP
360
BEDA
  3
BUMPTILE
360
BE7C
  3
DIFFUSETILE
360
BE7B
  3
OPACITYTILE
360
BE7F
  3
REFLECTIONTILE
360
BE7E
  3
REFRACTIONTILE
360
BE80
  3
SPECULARTILE
360
BE7D
  0
DICTIONARY
  5
BF0D
330
BEB2
100
AcDbDictionary
280
     1
281
     1
  3
ACAD_XREC_ROUNDTRIP
360
BF0E
  0
DICTIONARY
  5
BED4
330
BE9C
100
AcDbDictionary
280
     1
281
     1
  3
ACAD_ROUNDTRIP_2008_TABLESTYLE_CELLSTYLEMAP
360
BED5
  3
ACAD_XREC_ROUNDTRIP
360
BF0B
  0
DICTIONARY
  5
BEE5
330
BE87
100
AcDbDictionary
280
     1
281
     1
  3
ACAD_XREC_ROUNDTRIP
360
BEE6
  0
DICTIONARY
  5
BEE3
330
BE86
100
AcDbDictionary
280
     1
281
     1
  3
ACAD_XREC_ROUNDTRIP
360
BEE4
  0
DICTIONARY
  5
BEF1
330
BE8D
100
AcDbDictionary
280
     1
281
     1
  3
ACAD_XREC_ROUNDTRIP
360
BEF2
  0
DICTIONARY
  5
BEF9
330
BE91
100
AcDbDictionary
280
     1
281
     1
  3
ACAD_XREC_ROUNDTRIP
360
BEFA
  0
DICTIONARY
  5
BEEB
330
BE8A
100
AcDbDictionary
280
     1
281
     1
  3
ACAD_XREC_ROUNDTRIP
360
BEEC
  0
DICTIONARY
  5
BEEF
330
BE8C
100
AcDbDictionary
280
     1
281
     1
  3
ACAD_XREC_ROUNDTRIP
360
BEF0
  0
DICTIONARY
  5
BF09
330
BE99
100
AcDbDictionary
280
     1
281
     1
  3
ACAD_XREC_ROUNDTRIP
360
BF0A
  0
DICTIONARY
  5
BEF7
330
BE90
100
AcDbDictionary
280
     1
281
     1
  3
ACAD_XREC_ROUNDTRIP
360
BEF8
  0
DICTIONARY
  5
BEDB
330
BE82
100
AcDbDictionary
280
     1
281
     1
  3
ACAD_XREC_ROUNDTRIP
360
BEDC
  0
DICTIONARY
  5
BEDD
330
BE83
100
AcDbDictionary
280
     1
281
     1
  3
ACAD_XREC_ROUNDTRIP
360
BEDE
  0
DICTIONARY
  5
BEDF
330
BE84
100
AcDbDictionary
280
     1
281
     1
  3
ACAD_XREC_ROUNDTRIP
360
BEE0
  0
DICTIONARY
  5
BEE1
330
BE85
100
AcDbDictionary
280
     1
281
     1
  3
ACAD_XREC_ROUNDTRIP
360
BEE2
  0
DICTIONARY
  5
BEE9
330
BE89
100
AcDbDictionary
280
     1
281
     1
  3
ACAD_XREC_ROUNDTRIP
360
BEEA
  0
DICTIONARY
  5
BF05
330
BE97
100
AcDbDictionary
280
     1
281
     1
  3
ACAD_XREC_ROUNDTRIP
360
BF06
  0
DICTIONARY
  5
BEF5
330
BE8F
100
AcDbDictionary
280
     1
281
     1
  3
ACAD_XREC_ROUNDTRIP
360
BEF6
  0
DICTIONARY
  5
BF07
330
BE98
100
AcDbDictionary
280
     1
281
     1
  3
ACAD_XREC_ROUNDTRIP
360
BF08
  0
DICTIONARY
  5
BEED
330
BE8B
100
AcDbDictionary
280
     1
281
     1
  3
ACAD_XREC_ROUNDTRIP
360
BEEE
  0
DICTIONARY
  5
BF03
330
BE96
100
AcDbDictionary
280
     1
281
     1
  3
ACAD_XREC_ROUNDTRIP
360
BF04
  0
DICTIONARY
  5
BF01
330
BE95
100
AcDbDictionary
280
     1
281
     1
  3
ACAD_XREC_ROUNDTRIP
360
BF02
  0
DICTIONARY
  5
BEFB
330
BE92
100
AcDbDictionary
280
     1
281
     1
  3
ACAD_XREC_ROUNDTRIP
360
BEFC
  0
DICTIONARY
  5
BEFD
330
BE93
100
AcDbDictionary
280
     1
281
     1
  3
ACAD_XREC_ROUNDTRIP
360
BEFE
  0
DICTIONARY
  5
BEF3
330
BE8E
100
AcDbDictionary
280
     1
281
     1
  3
ACAD_XREC_ROUNDTRIP
360
BEF4
  0
DICTIONARY
  5
BEE7
330
BE88
100
AcDbDictionary
280
     1
281
     1
  3
ACAD_XREC_ROUNDTRIP
360
BEE8
  0
DICTIONARY
  5
BEFF
330
BE94
100
AcDbDictionary
280
     1
281
     1
  3
ACAD_XREC_ROUNDTRIP
360
BF00
  0
XRECORD
  5
BF10
102
{ACAD_REACTORS
330
BF0F
102
}
330
BF0F
100
AcDbXrecord
280
     1
102
DISPLAYNAME
  1
Imperial24
102
FLAGS
 90
        0
  0
XRECORD
  5
BF12
102
{ACAD_REACTORS
330
BF11
102
}
330
BF11
100
AcDbXrecord
280
     1
102
SHADEPLOT
 70
     0
102
SHADEPLOTRESLEVEL
 70
     2
102
SHADEPLOTCUSTOMDPI
 70
   300
  0
XRECORD
  5
BF14
102
{ACAD_REACTORS
330
BF13
102
}
330
BF13
100
AcDbXrecord
280
     1
102
SHADEPLOT
 70
     0
102
SHADEPLOTRESLEVEL
 70
     2
102
SHADEPLOTCUSTOMDPI
 70
   300
  0
XRECORD
  5
BED9
102
{ACAD_REACTORS
330
BE72
102
}
330
BE72
100
AcDbXrecord
280
     1
102
MATERIAL
148
0.0
149
0.0
149
0.0
 93
        0
 94
      127
282
     0
 72
     0
 77
     0
171
     0
175
     0
179
     0
273
     0
  0
XRECORD
  5
BE74
102
{ACAD_REACTORS
330
BE72
102
}
330
BE72
100
AcDbXrecord
280
     1
270
     1
271
     1
  0
XRECORD
  5
BE73
102
{ACAD_REACTORS
330
BE72
102
}
330
BE72
100
AcDbXrecord
280
     1
270
     1
271
     1
  0
XRECORD
  5
BE77
102
{ACAD_REACTORS
330
BE72
102
}
330
BE72
100
AcDbXrecord
280
     1
270
     1
271
     1
  0
XRECORD
  5
BE76
102
{ACAD_REACTORS
330
BE72
102
}
330
BE72
100
AcDbXrecord
280
     1
270
     1
271
     1
  0
XRECORD
  5
BE78
102
{ACAD_REACTORS
330
BE72
102
}
330
BE72
100
AcDbXrecord
280
     1
270
     1
271
     1
  0
XRECORD
  5
BE75
102
{ACAD_REACTORS
330
BE72
102
}
330
BE72
100
AcDbXrecord
280
     1
270
     1
271
     1
  0
XRECORD
  5
BED8
102
{ACAD_REACTORS
330
BE6A
102
}
330
BE6A
100
AcDbXrecord
280
     1
102
MATERIAL
148
0.0
149
0.0
149
0.0
 93
        0
 94
      127
282
     0
 72
     0
 77
     0
171
     0
175
     0
179
     0
273
     0
  0
XRECORD
  5
BE6C
102
{ACAD_REACTORS
330
BE6A
102
}
330
BE6A
100
AcDbXrecord
280
     1
270
     1
271
     1
  0
XRECORD
  5
BE6B
102
{ACAD_REACTORS
330
BE6A
102
}
330
BE6A
100
AcDbXrecord
280
     1
270
     1
271
     1
  0
XRECORD
  5
BE6F
102
{ACAD_REACTORS
330
BE6A
102
}
330
BE6A
100
AcDbXrecord
280
     1
270
     1
271
     1
  0
XRECORD
  5
BE6E
102
{ACAD_REACTORS
330
BE6A
102
}
330
BE6A
100
AcDbXrecord
280
     1
270
     1
271
     1
  0
XRECORD
  5
BE70
102
{ACAD_REACTORS
330
BE6A
102
}
330
BE6A
100
AcDbXrecord
280
     1
270
     1
271
     1
  0
XRECORD
  5
BE6D
102
{ACAD_REACTORS
330
BE6A
102
}
330
BE6A
100
AcDbXrecord
280
     1
270
     1
271
     1
  0
XRECORD
  5
BEDA
102
{ACAD_REACTORS
330
BE7A
102
}
330
BE7A
100
AcDbXrecord
280
     1
102
MATERIAL
148
0.0
149
0.0
149
0.0
 93
        0
 94
      127
282
     0
 72
     0
 77
     0
171
     0
175
     0
179
     0
273
     0
  0
XRECORD
  5
BE7C
102
{ACAD_REACTORS
330
BE7A
102
}
330
BE7A
100
AcDbXrecord
280
     1
270
     1
271
     1
  0
XRECORD
  5
BE7B
102
{ACAD_REACTORS
330
BE7A
102
}
330
BE7A
100
AcDbXrecord
280
     1
270
     1
271
     1
  0
XRECORD
  5
BE7F
102
{ACAD_REACTORS
330
BE7A
102
}
330
BE7A
100
AcDbXrecord
280
     1
270
     1
271
     1
  0
XRECORD
  5
BE7E
102
{ACAD_REACTORS
330
BE7A
102
}
330
BE7A
100
AcDbXrecord
280
     1
270
     1
271
     1
  0
XRECORD
  5
BE80
102
{ACAD_REACTORS
330
BE7A
102
}
330
BE7A
100
AcDbXrecord
280
     1
270
     1
271
     1
  0
XRECORD
  5
BE7D
102
{ACAD_REACTORS
330
BE7A
102
}
330
BE7A
100
AcDbXrecord
280
     1
270
     1
271
     1
  0
XRECORD
  5
BF0E
102
{ACAD_REACTORS
330
BF0D
102
}
330
BF0D
100
AcDbXrecord
280
     1
102
DISPLAYNAME
  1
Imperial24
102
FLAGS
 90
        0
  0
CELLSTYLEMAP
  5
BED5
102
{ACAD_REACTORS
330
BED4
102
}
330
BED4
100
AcDbCellStyleMap
 90
        3
300
CELLSTYLE
  1
TABLEFORMAT_BEGIN
 90
        5
170
     1
 91
        0
 92
    32768
 62
   257
 93
        1
300
CONTENTFORMAT
  1
CONTENTFORMAT_BEGIN
 90
        0
 91
        0
 92
      512
 93
        0
300

 40
0.0
140
1.0
 94
        5
 62
     0
340
BC85
144
0.25
309
CONTENTFORMAT_END
171
     0
 94
        0
309
TABLEFORMAT_END
  1
CELLSTYLE_BEGIN
 90
        1
 91
        1
300
_TITLE
309
CELLSTYLE_END
300
CELLSTYLE
  1
TABLEFORMAT_BEGIN
 90
        5
170
     1
 91
        0
 92
        0
 62
   257
 93
        1
300
CONTENTFORMAT
  1
CONTENTFORMAT_BEGIN
 90
        0
 91
        0
 92
      512
 93
        0
300

 40
0.0
140
1.0
 94
        5
 62
     0
340
BC85
144
0.18
309
CONTENTFORMAT_END
171
     0
 94
        0
309
TABLEFORMAT_END
  1
CELLSTYLE_BEGIN
 90
        2
 91
        1
300
_HEADER
309
CELLSTYLE_END
300
CELLSTYLE
  1
TABLEFORMAT_BEGIN
 90
        5
170
     1
 91
        0
 92
        0
 62
   257
 93
        1
300
CONTENTFORMAT
  1
CONTENTFORMAT_BEGIN
 90
        0
 91
        0
 92
      512
 93
        0
300

 40
0.0
140
1.0
 94
        2
 62
     0
340
BC85
144
0.18
309
CONTENTFORMAT_END
171
     0
 94
        0
309
TABLEFORMAT_END
  1
CELLSTYLE_BEGIN
 90
        3
 91
        2
300
_DATA
309
CELLSTYLE_END
  0
XRECORD
  5
BF0B
102
{ACAD_REACTORS
330
BED4
102
}
330
BED4
100
AcDbXrecord
280
     1
102
ACAD_ROUNDTRIP_PRE2007_TABLESTYLE
 90
      512
 91
        0
  1

 92
      512
 93
        0
  2

 94
      512
 95
        0
  3

  0
XRECORD
  5
BEE6
102
{ACAD_REACTORS
330
BEE5
102
}
330
BEE5
100
AcDbXrecord
280
     1
102
RTVSPost2010Prop28
280
     1
102
RTVSPost2010PropOp28
 70
     1
102
RTVSPost2010Prop29
280
     1
102
RTVSPost2010PropOp29
 70
     1
102
RTVSPost2010Prop30
280
     0
102
RTVSPost2010PropOp30
 70
     1
102
RTVSPost2010Prop31
280
     0
102
RTVSPost2010PropOp31
 70
     1
102
RTVSPost2010Prop32
280
     0
102
RTVSPost2010PropOp32
 70
     1
102
RTVSPost2010Prop33
280
     0
102
RTVSPost2010PropOp33
 70
     1
102
RTVSPost2010Prop34
280
     0
102
RTVSPost2010PropOp34
 70
     1
102
RTVSPost2010Prop35
280
     0
102
RTVSPost2010PropOp35
 70
     1
102
RTVSPost2010Prop36
280
     0
102
RTVSPost2010PropOp36
 70
     1
102
RTVSPost2010Prop37
 90
       50
102
RTVSPost2010PropOp37
 70
     1
102
RTVSPost2010Prop38
140
0.0
102
RTVSPost2010PropOp38
 70
     1
102
RTVSPost2010Prop39
140
1.0
102
RTVSPost2010PropOp39
 70
     1
102
RTVSPost2010Prop40
 90
        0
102
RTVSPost2010PropOp40
 70
     1
102
RTVSPost2010Prop41ColorIndex
 90
       18
102
RTVSPost2010Prop41ColorRGB
 90
        0
102
RTVSPost2010PropOp41
 70
     1
102
RTVSPost2010Prop42
 90
       50
102
RTVSPost2010PropOp42
 70
     1
102
RTVSPost2010Prop43
 90
        3
102
RTVSPost2010PropOp43
 70
     1
102
RTVSPost2010Prop44ColorIndex
 90
        5
102
RTVSPost2010Prop44ColorRGB
 90
      255
102
RTVSPost2010PropOp44
 70
     1
102
RTVSPost2010Prop45
280
     0
102
RTVSPost2010PropOp45
 70
     1
102
RTVSPost2010Prop46
 90
       50
102
RTVSPost2010PropOp46
 70
     1
102
RTVSPost2010Prop47
 90
       50
102
RTVSPost2010PropOp47
 70
     1
102
RTVSPost2010Prop48
 90
       50
102
RTVSPost2010PropOp48
 70
     1
102
RTVSPost2010Prop49
280
     0
102
RTVSPost2010PropOp49
 70
     1
102
RTVSPost2010Prop50
 90
       50
102
RTVSPost2010PropOp50
 70
     1
102
RTVSPost2010Prop51ColorIndex
 90
      256
102
RTVSPost2010Prop51ColorRGB
 90
-16777216
102
RTVSPost2010PropOp51
 70
     0
102
RTVSPost2010Prop52
140
1.0
102
RTVSPost2010PropOp52
 70
     0
102
RTVSPost2010Prop53
 90
        2
102
RTVSPost2010PropOp53
 70
     1
102
RTVSPost2010Prop54
  1
strokes_ogs.tif
102
RTVSPost2010PropOp54
 70
     1
102
RTVSPost2010Prop55
280
     0
102
RTVSPost2010PropOp55
 70
     1
102
RTVSPost2010Prop56
140
1.0
102
RTVSPost2010PropOp56
 70
     1
102
RTVSPost2010Prop57
140
1.0
102
RTVSPost2010PropOp57
 70
     1
102
RTVSPropertyOp0
 70
     1
102
RTVSPropertyOp1
 70
     1
102
RTVSPropertyOp2
 70
     1
102
RTVSPropertyOp3
 70
     1
102
RTVSPropertyOp4
 70
     1
102
RTVSPropertyOp5
 70
     1
102
RTVSPropertyOp6
 70
     1
102
RTVSPropertyOp7
 70
     1
102
RTVSPropertyOp8
 70
     1
102
RTVSPropertyOp9
 70
     1
102
RTVSPropertyOp10
 70
     1
102
RTVSPropertyOp11
 70
     1
102
RTVSPropertyOp12
 70
     1
102
RTVSPropertyOp13
 70
     1
102
RTVSPropertyOp14
 70
     1
102
RTVSPropertyOp15
 70
     1
102
RTVSPropertyOp16
 70
     1
102
RTVSPropertyOp17
 70
     1
102
RTVSPropertyOp18
 70
     1
102
RTVSPropertyOp19
 70
     1
102
RTVSPropertyOp20
 70
     1
102
RTVSPropertyOp21
 70
     1
102
RTVSPropertyOp22
 70
     1
102
RTVSPropertyOp23
 70
     1
102
RTVSPropertyOp24
 70
     1
102
RTVSPropertyOp25
 70
     1
102
RTVSPropertyOp26
 70
     1
102
RTVSPropertyOp27
 70
     1
102
RTVSPropertyOp28
 70
     1
102
RTVSPropertyOp29
 70
     1
102
RTVSPropertyOp30
 70
     1
102
RTVSPropertyOp31
 70
     1
102
RTVSPropertyOp32
 70
     1
102
RTVSPropertyOp33
 70
     1
102
RTVSPropertyOp34
 70
     1
102
RTVSPropertyOp35
 70
     1
102
RTVSPropertyOp36
 70
     1
102
RTVSPropertyOp37
 70
     1
102
RTVSPropertyOp38
 70
     1
102
RTVSPropertyOp39
 70
     1
102
RTVSPropertyOp40
 70
     1
102
RTVSPropertyOp41
 70
     1
102
RTVSPropertyOp42
 70
     1
102
RTVSPropertyOp43
 70
     1
102
RTVSPropertyOp44
 70
     1
102
RTVSPropertyOp45
 70
     1
102
RTVSPropertyOp46
 70
     1
102
RTVSPropertyOp47
 70
     1
102
RTVSPropertyOp48
 70
     1
102
RTVSPropertyOp49
 70
     1
102
RTVSPropertyOp50
 70
     1
102
RTVSPropertyOp51
 70
     0
102
RTVSPropertyOp52
 70
     0
102
RTVSPropertyOp53
 70
     1
102
RTVSPropertyOp54
 70
     1
102
RTVSPropertyOp55
 70
     1
102
RTVSPropertyOp56
 70
     1
102
RTVSPropertyOp57
 70
     1
102
RTVSPropertyOp58
 70
     1
102
RTVSPropertyOp59
 70
     1
102
RTVSPropertyOp60
 70
     1
102
RTVSPropertyOp61
 70
     1
102
RTVSPropertyOp62
 70
     1
  0
XRECORD
  5
BEE4
102
{ACAD_REACTORS
330
BEE3
102
}
330
BEE3
100
AcDbXrecord
280
     1
102
RTVSPost2010Prop28
280
     0
102
RTVSPost2010PropOp28
 70
     1
102
RTVSPost2010Prop29
280
     1
102
RTVSPost2010PropOp29
 70
     1
102
RTVSPost2010Prop30
280
     1
102
RTVSPost2010PropOp30
 70
     1
102
RTVSPost2010Prop31
280
     0
102
RTVSPost2010PropOp31
 70
     1
102
RTVSPost2010Prop32
280
     0
102
RTVSPost2010PropOp32
 70
     1
102
RTVSPost2010Prop33
280
     0
102
RTVSPost2010PropOp33
 70
     1
102
RTVSPost2010Prop34
280
     0
102
RTVSPost2010PropOp34
 70
     1
102
RTVSPost2010Prop35
280
     0
102
RTVSPost2010PropOp35
 70
     1
102
RTVSPost2010Prop36
280
     0
102
RTVSPost2010PropOp36
 70
     1
102
RTVSPost2010Prop37
 90
       50
102
RTVSPost2010PropOp37
 70
     1
102
RTVSPost2010Prop38
140
0.0
102
RTVSPost2010PropOp38
 70
     1
102
RTVSPost2010Prop39
140
1.0
102
RTVSPost2010PropOp39
 70
     1
102
RTVSPost2010Prop40
 90
        0
102
RTVSPost2010PropOp40
 70
     1
102
RTVSPost2010Prop41ColorIndex
 90
       18
102
RTVSPost2010Prop41ColorRGB
 90
        0
102
RTVSPost2010PropOp41
 70
     1
102
RTVSPost2010Prop42
 90
       50
102
RTVSPost2010PropOp42
 70
     1
102
RTVSPost2010Prop43
 90
        3
102
RTVSPost2010PropOp43
 70
     1
102
RTVSPost2010Prop44ColorIndex
 90
        5
102
RTVSPost2010Prop44ColorRGB
 90
      255
102
RTVSPost2010PropOp44
 70
     1
102
RTVSPost2010Prop45
280
     0
102
RTVSPost2010PropOp45
 70
     1
102
RTVSPost2010Prop46
 90
       50
102
RTVSPost2010PropOp46
 70
     1
102
RTVSPost2010Prop47
 90
       50
102
RTVSPost2010PropOp47
 70
     1
102
RTVSPost2010Prop48
 90
       50
102
RTVSPost2010PropOp48
 70
     1
102
RTVSPost2010Prop49
280
     0
102
RTVSPost2010PropOp49
 70
     1
102
RTVSPost2010Prop50
 90
       50
102
RTVSPost2010PropOp50
 70
     1
102
RTVSPost2010Prop51ColorIndex
 90
      256
102
RTVSPost2010Prop51ColorRGB
 90
-16777216
102
RTVSPost2010PropOp51
 70
     0
102
RTVSPost2010Prop52
140
1.0
102
RTVSPost2010PropOp52
 70
     0
102
RTVSPost2010Prop53
 90
        2
102
RTVSPost2010PropOp53
 70
     1
102
RTVSPost2010Prop54
  1
strokes_ogs.tif
102
RTVSPost2010PropOp54
 70
     1
102
RTVSPost2010Prop55
280
     0
102
RTVSPost2010PropOp55
 70
     1
102
RTVSPost2010Prop56
140
1.0
102
RTVSPost2010PropOp56
 70
     1
102
RTVSPost2010Prop57
140
1.0
102
RTVSPost2010PropOp57
 70
     1
102
RTVSPropertyOp0
 70
     1
102
RTVSPropertyOp1
 70
     1
102
RTVSPropertyOp2
 70
     1
102
RTVSPropertyOp3
 70
     1
102
RTVSPropertyOp4
 70
     1
102
RTVSPropertyOp5
 70
     1
102
RTVSPropertyOp6
 70
     1
102
RTVSPropertyOp7
 70
     1
102
RTVSPropertyOp8
 70
     1
102
RTVSPropertyOp9
 70
     1
102
RTVSPropertyOp10
 70
     1
102
RTVSPropertyOp11
 70
     1
102
RTVSPropertyOp12
 70
     1
102
RTVSPropertyOp13
 70
     1
102
RTVSPropertyOp14
 70
     1
102
RTVSPropertyOp15
 70
     1
102
RTVSPropertyOp16
 70
     1
102
RTVSPropertyOp17
 70
     1
102
RTVSPropertyOp18
 70
     1
102
RTVSPropertyOp19
 70
     1
102
RTVSPropertyOp20
 70
     1
102
RTVSPropertyOp21
 70
     1
102
RTVSPropertyOp22
 70
     1
102
RTVSPropertyOp23
 70
     1
102
RTVSPropertyOp24
 70
     1
102
RTVSPropertyOp25
 70
     1
102
RTVSPropertyOp26
 70
     1
102
RTVSPropertyOp27
 70
     1
102
RTVSPropertyOp28
 70
     1
102
RTVSPropertyOp29
 70
     1
102
RTVSPropertyOp30
 70
     1
102
RTVSPropertyOp31
 70
     1
102
RTVSPropertyOp32
 70
     1
102
RTVSPropertyOp33
 70
     1
102
RTVSPropertyOp34
 70
     1
102
RTVSPropertyOp35
 70
     1
102
RTVSPropertyOp36
 70
     1
102
RTVSPropertyOp37
 70
     1
102
RTVSPropertyOp38
 70
     1
102
RTVSPropertyOp39
 70
     1
102
RTVSPropertyOp40
 70
     1
102
RTVSPropertyOp41
 70
     1
102
RTVSPropertyOp42
 70
     1
102
RTVSPropertyOp43
 70
     1
102
RTVSPropertyOp44
 70
     1
102
RTVSPropertyOp45
 70
     1
102
RTVSPropertyOp46
 70
     1
102
RTVSPropertyOp47
 70
     1
102
RTVSPropertyOp48
 70
     1
102
RTVSPropertyOp49
 70
     1
102
RTVSPropertyOp50
 70
     1
102
RTVSPropertyOp51
 70
     0
102
RTVSPropertyOp52
 70
     0
102
RTVSPropertyOp53
 70
     1
102
RTVSPropertyOp54
 70
     1
102
RTVSPropertyOp55
 70
     1
102
RTVSPropertyOp56
 70
     1
102
RTVSPropertyOp57
 70
     1
102
RTVSPropertyOp58
 70
     1
102
RTVSPropertyOp59
 70
     1
102
RTVSPropertyOp60
 70
     1
102
RTVSPropertyOp61
 70
     1
102
RTVSPropertyOp62
 70
     1
  0
XRECORD
  5
BEF2
102
{ACAD_REACTORS
330
BEF1
102
}
330
BEF1
100
AcDbXrecord
280
     1
102
RTVSPost2010Prop28
280
     0
102
RTVSPost2010PropOp28
 70
     1
102
RTVSPost2010Prop29
280
     1
102
RTVSPost2010PropOp29
 70
     1
102
RTVSPost2010Prop30
280
     1
102
RTVSPost2010PropOp30
 70
     1
102
RTVSPost2010Prop31
280
     0
102
RTVSPost2010PropOp31
 70
     1
102
RTVSPost2010Prop32
280
     0
102
RTVSPost2010PropOp32
 70
     1
102
RTVSPost2010Prop33
280
     0
102
RTVSPost2010PropOp33
 70
     1
102
RTVSPost2010Prop34
280
     0
102
RTVSPost2010PropOp34
 70
     1
102
RTVSPost2010Prop35
280
     0
102
RTVSPost2010PropOp35
 70
     1
102
RTVSPost2010Prop36
280
     0
102
RTVSPost2010PropOp36
 70
     1
102
RTVSPost2010Prop37
 90
       50
102
RTVSPost2010PropOp37
 70
     1
102
RTVSPost2010Prop38
140
0.0
102
RTVSPost2010PropOp38
 70
     1
102
RTVSPost2010Prop39
140
1.0
102
RTVSPost2010PropOp39
 70
     1
102
RTVSPost2010Prop40
 90
        0
102
RTVSPost2010PropOp40
 70
     1
102
RTVSPost2010Prop41ColorIndex
 90
       18
102
RTVSPost2010Prop41ColorRGB
 90
        0
102
RTVSPost2010PropOp41
 70
     1
102
RTVSPost2010Prop42
 90
       50
102
RTVSPost2010PropOp42
 70
     1
102
RTVSPost2010Prop43
 90
        3
102
RTVSPost2010PropOp43
 70
     1
102
RTVSPost2010Prop44ColorIndex
 90
        5
102
RTVSPost2010Prop44ColorRGB
 90
      255
102
RTVSPost2010PropOp44
 70
     1
102
RTVSPost2010Prop45
280
     0
102
RTVSPost2010PropOp45
 70
     1
102
RTVSPost2010Prop46
 90
       50
102
RTVSPost2010PropOp46
 70
     1
102
RTVSPost2010Prop47
 90
       50
102
RTVSPost2010PropOp47
 70
     1
102
RTVSPost2010Prop48
 90
       50
102
RTVSPost2010PropOp48
 70
     1
102
RTVSPost2010Prop49
280
     0
102
RTVSPost2010PropOp49
 70
     1
102
RTVSPost2010Prop50
 90
       50
102
RTVSPost2010PropOp50
 70
     1
102
RTVSPost2010Prop51ColorIndex
 90
      256
102
RTVSPost2010Prop51ColorRGB
 90
-16777216
102
RTVSPost2010PropOp51
 70
     0
102
RTVSPost2010Prop52
140
1.0
102
RTVSPost2010PropOp52
 70
     0
102
RTVSPost2010Prop53
 90
        2
102
RTVSPost2010PropOp53
 70
     1
102
RTVSPost2010Prop54
  1
strokes_ogs.tif
102
RTVSPost2010PropOp54
 70
     1
102
RTVSPost2010Prop55
280
     0
102
RTVSPost2010PropOp55
 70
     1
102
RTVSPost2010Prop56
140
1.0
102
RTVSPost2010PropOp56
 70
     1
102
RTVSPost2010Prop57
140
1.0
102
RTVSPost2010PropOp57
 70
     1
102
RTVSPropertyOp0
 70
     1
102
RTVSPropertyOp1
 70
     1
102
RTVSPropertyOp2
 70
     1
102
RTVSPropertyOp3
 70
     1
102
RTVSPropertyOp4
 70
     1
102
RTVSPropertyOp5
 70
     1
102
RTVSPropertyOp6
 70
     1
102
RTVSPropertyOp7
 70
     1
102
RTVSPropertyOp8
 70
     1
102
RTVSPropertyOp9
 70
     1
102
RTVSPropertyOp10
 70
     1
102
RTVSPropertyOp11
 70
     1
102
RTVSPropertyOp12
 70
     1
102
RTVSPropertyOp13
 70
     1
102
RTVSPropertyOp14
 70
     1
102
RTVSPropertyOp15
 70
     1
102
RTVSPropertyOp16
 70
     1
102
RTVSPropertyOp17
 70
     1
102
RTVSPropertyOp18
 70
     1
102
RTVSPropertyOp19
 70
     1
102
RTVSPropertyOp20
 70
     1
102
RTVSPropertyOp21
 70
     1
102
RTVSPropertyOp22
 70
     1
102
RTVSPropertyOp23
 70
     1
102
RTVSPropertyOp24
 70
     1
102
RTVSPropertyOp25
 70
     1
102
RTVSPropertyOp26
 70
     1
102
RTVSPropertyOp27
 70
     1
102
RTVSPropertyOp28
 70
     1
102
RTVSPropertyOp29
 70
     1
102
RTVSPropertyOp30
 70
     1
102
RTVSPropertyOp31
 70
     1
102
RTVSPropertyOp32
 70
     1
102
RTVSPropertyOp33
 70
     1
102
RTVSPropertyOp34
 70
     1
102
RTVSPropertyOp35
 70
     1
102
RTVSPropertyOp36
 70
     1
102
RTVSPropertyOp37
 70
     1
102
RTVSPropertyOp38
 70
     1
102
RTVSPropertyOp39
 70
     1
102
RTVSPropertyOp40
 70
     1
102
RTVSPropertyOp41
 70
     1
102
RTVSPropertyOp42
 70
     1
102
RTVSPropertyOp43
 70
     1
102
RTVSPropertyOp44
 70
     1
102
RTVSPropertyOp45
 70
     1
102
RTVSPropertyOp46
 70
     1
102
RTVSPropertyOp47
 70
     1
102
RTVSPropertyOp48
 70
     1
102
RTVSPropertyOp49
 70
     1
102
RTVSPropertyOp50
 70
     1
102
RTVSPropertyOp51
 70
     0
102
RTVSPropertyOp52
 70
     0
102
RTVSPropertyOp53
 70
     1
102
RTVSPropertyOp54
 70
     1
102
RTVSPropertyOp55
 70
     1
102
RTVSPropertyOp56
 70
     1
102
RTVSPropertyOp57
 70
     1
102
RTVSPropertyOp58
 70
     1
102
RTVSPropertyOp59
 70
     1
102
RTVSPropertyOp60
 70
     1
102
RTVSPropertyOp61
 70
     1
102
RTVSPropertyOp62
 70
     1
  0
XRECORD
  5
BEFA
102
{ACAD_REACTORS
330
BEF9
102
}
330
BEF9
100
AcDbXrecord
280
     1
102
RTVSPost2010Prop28
280
     0
102
RTVSPost2010PropOp28
 70
     1
102
RTVSPost2010Prop29
280
     1
102
RTVSPost2010PropOp29
 70
     1
102
RTVSPost2010Prop30
280
     1
102
RTVSPost2010PropOp30
 70
     1
102
RTVSPost2010Prop31
280
     0
102
RTVSPost2010PropOp31
 70
     1
102
RTVSPost2010Prop32
280
     0
102
RTVSPost2010PropOp32
 70
     1
102
RTVSPost2010Prop33
280
     0
102
RTVSPost2010PropOp33
 70
     1
102
RTVSPost2010Prop34
280
     0
102
RTVSPost2010PropOp34
 70
     1
102
RTVSPost2010Prop35
280
     0
102
RTVSPost2010PropOp35
 70
     1
102
RTVSPost2010Prop36
280
     0
102
RTVSPost2010PropOp36
 70
     1
102
RTVSPost2010Prop37
 90
       50
102
RTVSPost2010PropOp37
 70
     1
102
RTVSPost2010Prop38
140
0.0
102
RTVSPost2010PropOp38
 70
     1
102
RTVSPost2010Prop39
140
1.0
102
RTVSPost2010PropOp39
 70
     1
102
RTVSPost2010Prop40
 90
        0
102
RTVSPost2010PropOp40
 70
     1
102
RTVSPost2010Prop41ColorIndex
 90
       18
102
RTVSPost2010Prop41ColorRGB
 90
        0
102
RTVSPost2010PropOp41
 70
     1
102
RTVSPost2010Prop42
 90
       50
102
RTVSPost2010PropOp42
 70
     1
102
RTVSPost2010Prop43
 90
        3
102
RTVSPost2010PropOp43
 70
     1
102
RTVSPost2010Prop44ColorIndex
 90
        5
102
RTVSPost2010Prop44ColorRGB
 90
      255
102
RTVSPost2010PropOp44
 70
     1
102
RTVSPost2010Prop45
280
     0
102
RTVSPost2010PropOp45
 70
     1
102
RTVSPost2010Prop46
 90
       50
102
RTVSPost2010PropOp46
 70
     1
102
RTVSPost2010Prop47
 90
       50
102
RTVSPost2010PropOp47
 70
     1
102
RTVSPost2010Prop48
 90
       50
102
RTVSPost2010PropOp48
 70
     1
102
RTVSPost2010Prop49
280
     0
102
RTVSPost2010PropOp49
 70
     1
102
RTVSPost2010Prop50
 90
       50
102
RTVSPost2010PropOp50
 70
     1
102
RTVSPost2010Prop51ColorIndex
 90
      256
102
RTVSPost2010Prop51ColorRGB
 90
-16777216
102
RTVSPost2010PropOp51
 70
     0
102
RTVSPost2010Prop52
140
1.0
102
RTVSPost2010PropOp52
 70
     0
102
RTVSPost2010Prop53
 90
        2
102
RTVSPost2010PropOp53
 70
     1
102
RTVSPost2010Prop54
  1
strokes_ogs.tif
102
RTVSPost2010PropOp54
 70
     1
102
RTVSPost2010Prop55
280
     0
102
RTVSPost2010PropOp55
 70
     1
102
RTVSPost2010Prop56
140
1.0
102
RTVSPost2010PropOp56
 70
     1
102
RTVSPost2010Prop57
140
1.0
102
RTVSPost2010PropOp57
 70
     1
102
RTVSPropertyOp0
 70
     1
102
RTVSPropertyOp1
 70
     1
102
RTVSPropertyOp2
 70
     1
102
RTVSPropertyOp3
 70
     1
102
RTVSPropertyOp4
 70
     1
102
RTVSPropertyOp5
 70
     1
102
RTVSPropertyOp6
 70
     1
102
RTVSPropertyOp7
 70
     1
102
RTVSPropertyOp8
 70
     1
102
RTVSPropertyOp9
 70
     1
102
RTVSPropertyOp10
 70
     1
102
RTVSPropertyOp11
 70
     1
102
RTVSPropertyOp12
 70
     1
102
RTVSPropertyOp13
 70
     1
102
RTVSPropertyOp14
 70
     1
102
RTVSPropertyOp15
 70
     1
102
RTVSPropertyOp16
 70
     1
102
RTVSPropertyOp17
 70
     1
102
RTVSPropertyOp18
 70
     1
102
RTVSPropertyOp19
 70
     1
102
RTVSPropertyOp20
 70
     1
102
RTVSPropertyOp21
 70
     1
102
RTVSPropertyOp22
 70
     1
102
RTVSPropertyOp23
 70
     1
102
RTVSPropertyOp24
 70
     1
102
RTVSPropertyOp25
 70
     1
102
RTVSPropertyOp26
 70
     1
102
RTVSPropertyOp27
 70
     1
102
RTVSPropertyOp28
 70
     1
102
RTVSPropertyOp29
 70
     1
102
RTVSPropertyOp30
 70
     1
102
RTVSPropertyOp31
 70
     1
102
RTVSPropertyOp32
 70
     1
102
RTVSPropertyOp33
 70
     1
102
RTVSPropertyOp34
 70
     1
102
RTVSPropertyOp35
 70
     1
102
RTVSPropertyOp36
 70
     1
102
RTVSPropertyOp37
 70
     1
102
RTVSPropertyOp38
 70
     1
102
RTVSPropertyOp39
 70
     1
102
RTVSPropertyOp40
 70
     1
102
RTVSPropertyOp41
 70
     1
102
RTVSPropertyOp42
 70
     1
102
RTVSPropertyOp43
 70
     1
102
RTVSPropertyOp44
 70
     1
102
RTVSPropertyOp45
 70
     1
102
RTVSPropertyOp46
 70
     1
102
RTVSPropertyOp47
 70
     1
102
RTVSPropertyOp48
 70
     1
102
RTVSPropertyOp49
 70
     1
102
RTVSPropertyOp50
 70
     1
102
RTVSPropertyOp51
 70
     0
102
RTVSPropertyOp52
 70
     0
102
RTVSPropertyOp53
 70
     1
102
RTVSPropertyOp54
 70
     1
102
RTVSPropertyOp55
 70
     1
102
RTVSPropertyOp56
 70
     1
102
RTVSPropertyOp57
 70
     1
102
RTVSPropertyOp58
 70
     1
102
RTVSPropertyOp59
 70
     1
102
RTVSPropertyOp60
 70
     1
102
RTVSPropertyOp61
 70
     1
102
RTVSPropertyOp62
 70
     1
  0
XRECORD
  5
BEEC
102
{ACAD_REACTORS
330
BEEB
102
}
330
BEEB
100
AcDbXrecord
280
     1
102
RTVSPost2010Prop28
280
     0
102
RTVSPost2010PropOp28
 70
     1
102
RTVSPost2010Prop29
280
     1
102
RTVSPost2010PropOp29
 70
     1
102
RTVSPost2010Prop30
280
     1
102
RTVSPost2010PropOp30
 70
     1
102
RTVSPost2010Prop31
280
     0
102
RTVSPost2010PropOp31
 70
     1
102
RTVSPost2010Prop32
280
     0
102
RTVSPost2010PropOp32
 70
     1
102
RTVSPost2010Prop33
280
     0
102
RTVSPost2010PropOp33
 70
     1
102
RTVSPost2010Prop34
280
     0
102
RTVSPost2010PropOp34
 70
     1
102
RTVSPost2010Prop35
280
     0
102
RTVSPost2010PropOp35
 70
     1
102
RTVSPost2010Prop36
280
     0
102
RTVSPost2010PropOp36
 70
     1
102
RTVSPost2010Prop37
 90
       50
102
RTVSPost2010PropOp37
 70
     1
102
RTVSPost2010Prop38
140
0.0
102
RTVSPost2010PropOp38
 70
     1
102
RTVSPost2010Prop39
140
1.0
102
RTVSPost2010PropOp39
 70
     1
102
RTVSPost2010Prop40
 90
        0
102
RTVSPost2010PropOp40
 70
     1
102
RTVSPost2010Prop41ColorIndex
 90
       18
102
RTVSPost2010Prop41ColorRGB
 90
        0
102
RTVSPost2010PropOp41
 70
     1
102
RTVSPost2010Prop42
 90
       50
102
RTVSPost2010PropOp42
 70
     1
102
RTVSPost2010Prop43
 90
        3
102
RTVSPost2010PropOp43
 70
     1
102
RTVSPost2010Prop44ColorIndex
 90
        5
102
RTVSPost2010Prop44ColorRGB
 90
      255
102
RTVSPost2010PropOp44
 70
     1
102
RTVSPost2010Prop45
280
     0
102
RTVSPost2010PropOp45
 70
     1
102
RTVSPost2010Prop46
 90
       50
102
RTVSPost2010PropOp46
 70
     1
102
RTVSPost2010Prop47
 90
       50
102
RTVSPost2010PropOp47
 70
     1
102
RTVSPost2010Prop48
 90
       50
102
RTVSPost2010PropOp48
 70
     1
102
RTVSPost2010Prop49
280
     0
102
RTVSPost2010PropOp49
 70
     1
102
RTVSPost2010Prop50
 90
       50
102
RTVSPost2010PropOp50
 70
     1
102
RTVSPost2010Prop51ColorIndex
 90
      256
102
RTVSPost2010Prop51ColorRGB
 90
-16777216
102
RTVSPost2010PropOp51
 70
     0
102
RTVSPost2010Prop52
140
1.0
102
RTVSPost2010PropOp52
 70
     0
102
RTVSPost2010Prop53
 90
        2
102
RTVSPost2010PropOp53
 70
     1
102
RTVSPost2010Prop54
  1
strokes_ogs.tif
102
RTVSPost2010PropOp54
 70
     1
102
RTVSPost2010Prop55
280
     0
102
RTVSPost2010PropOp55
 70
     1
102
RTVSPost2010Prop56
140
1.0
102
RTVSPost2010PropOp56
 70
     1
102
RTVSPost2010Prop57
140
1.0
102
RTVSPost2010PropOp57
 70
     1
102
RTVSPropertyOp0
 70
     1
102
RTVSPropertyOp1
 70
     1
102
RTVSPropertyOp2
 70
     1
102
RTVSPropertyOp3
 70
     1
102
RTVSPropertyOp4
 70
     1
102
RTVSPropertyOp5
 70
     1
102
RTVSPropertyOp6
 70
     1
102
RTVSPropertyOp7
 70
     1
102
RTVSPropertyOp8
 70
     1
102
RTVSPropertyOp9
 70
     1
102
RTVSPropertyOp10
 70
     1
102
RTVSPropertyOp11
 70
     1
102
RTVSPropertyOp12
 70
     1
102
RTVSPropertyOp13
 70
     1
102
RTVSPropertyOp14
 70
     1
102
RTVSPropertyOp15
 70
     1
102
RTVSPropertyOp16
 70
     1
102
RTVSPropertyOp17
 70
     1
102
RTVSPropertyOp18
 70
     1
102
RTVSPropertyOp19
 70
     1
102
RTVSPropertyOp20
 70
     1
102
RTVSPropertyOp21
 70
     1
102
RTVSPropertyOp22
 70
     1
102
RTVSPropertyOp23
 70
     1
102
RTVSPropertyOp24
 70
     1
102
RTVSPropertyOp25
 70
     1
102
RTVSPropertyOp26
 70
     1
102
RTVSPropertyOp27
 70
     1
102
RTVSPropertyOp28
 70
     1
102
RTVSPropertyOp29
 70
     1
102
RTVSPropertyOp30
 70
     1
102
RTVSPropertyOp31
 70
     1
102
RTVSPropertyOp32
 70
     1
102
RTVSPropertyOp33
 70
     1
102
RTVSPropertyOp34
 70
     1
102
RTVSPropertyOp35
 70
     1
102
RTVSPropertyOp36
 70
     1
102
RTVSPropertyOp37
 70
     1
102
RTVSPropertyOp38
 70
     1
102
RTVSPropertyOp39
 70
     1
102
RTVSPropertyOp40
 70
     1
102
RTVSPropertyOp41
 70
     1
102
RTVSPropertyOp42
 70
     1
102
RTVSPropertyOp43
 70
     1
102
RTVSPropertyOp44
 70
     1
102
RTVSPropertyOp45
 70
     1
102
RTVSPropertyOp46
 70
     1
102
RTVSPropertyOp47
 70
     1
102
RTVSPropertyOp48
 70
     1
102
RTVSPropertyOp49
 70
     1
102
RTVSPropertyOp50
 70
     1
102
RTVSPropertyOp51
 70
     0
102
RTVSPropertyOp52
 70
     0
102
RTVSPropertyOp53
 70
     1
102
RTVSPropertyOp54
 70
     1
102
RTVSPropertyOp55
 70
     1
102
RTVSPropertyOp56
 70
     1
102
RTVSPropertyOp57
 70
     1
102
RTVSPropertyOp58
 70
     1
102
RTVSPropertyOp59
 70
     1
102
RTVSPropertyOp60
 70
     1
102
RTVSPropertyOp61
 70
     1
102
RTVSPropertyOp62
 70
     1
  0
XRECORD
  5
BEF0
102
{ACAD_REACTORS
330
BEEF
102
}
330
BEEF
100
AcDbXrecord
280
     1
102
RTVSPost2010Prop28
280
     0
102
RTVSPost2010PropOp28
 70
     1
102
RTVSPost2010Prop29
280
     1
102
RTVSPost2010PropOp29
 70
     1
102
RTVSPost2010Prop30
280
     1
102
RTVSPost2010PropOp30
 70
     1
102
RTVSPost2010Prop31
280
     0
102
RTVSPost2010PropOp31
 70
     1
102
RTVSPost2010Prop32
280
     0
102
RTVSPost2010PropOp32
 70
     1
102
RTVSPost2010Prop33
280
     0
102
RTVSPost2010PropOp33
 70
     1
102
RTVSPost2010Prop34
280
     0
102
RTVSPost2010PropOp34
 70
     1
102
RTVSPost2010Prop35
280
     0
102
RTVSPost2010PropOp35
 70
     1
102
RTVSPost2010Prop36
280
     0
102
RTVSPost2010PropOp36
 70
     1
102
RTVSPost2010Prop37
 90
       50
102
RTVSPost2010PropOp37
 70
     1
102
RTVSPost2010Prop38
140
0.0
102
RTVSPost2010PropOp38
 70
     1
102
RTVSPost2010Prop39
140
1.0
102
RTVSPost2010PropOp39
 70
     1
102
RTVSPost2010Prop40
 90
        0
102
RTVSPost2010PropOp40
 70
     1
102
RTVSPost2010Prop41ColorIndex
 90
       18
102
RTVSPost2010Prop41ColorRGB
 90
        0
102
RTVSPost2010PropOp41
 70
     1
102
RTVSPost2010Prop42
 90
       50
102
RTVSPost2010PropOp42
 70
     1
102
RTVSPost2010Prop43
 90
        3
102
RTVSPost2010PropOp43
 70
     1
102
RTVSPost2010Prop44ColorIndex
 90
        5
102
RTVSPost2010Prop44ColorRGB
 90
      255
102
RTVSPost2010PropOp44
 70
     1
102
RTVSPost2010Prop45
280
     0
102
RTVSPost2010PropOp45
 70
     1
102
RTVSPost2010Prop46
 90
       50
102
RTVSPost2010PropOp46
 70
     1
102
RTVSPost2010Prop47
 90
       50
102
RTVSPost2010PropOp47
 70
     1
102
RTVSPost2010Prop48
 90
       50
102
RTVSPost2010PropOp48
 70
     1
102
RTVSPost2010Prop49
280
     0
102
RTVSPost2010PropOp49
 70
     1
102
RTVSPost2010Prop50
 90
       50
102
RTVSPost2010PropOp50
 70
     1
102
RTVSPost2010Prop51ColorIndex
 90
      256
102
RTVSPost2010Prop51ColorRGB
 90
-16777216
102
RTVSPost2010PropOp51
 70
     0
102
RTVSPost2010Prop52
140
1.0
102
RTVSPost2010PropOp52
 70
     0
102
RTVSPost2010Prop53
 90
        2
102
RTVSPost2010PropOp53
 70
     1
102
RTVSPost2010Prop54
  1
strokes_ogs.tif
102
RTVSPost2010PropOp54
 70
     1
102
RTVSPost2010Prop55
280
     0
102
RTVSPost2010PropOp55
 70
     1
102
RTVSPost2010Prop56
140
1.0
102
RTVSPost2010PropOp56
 70
     1
102
RTVSPost2010Prop57
140
1.0
102
RTVSPost2010PropOp57
 70
     1
102
RTVSPropertyOp0
 70
     1
102
RTVSPropertyOp1
 70
     1
102
RTVSPropertyOp2
 70
     1
102
RTVSPropertyOp3
 70
     1
102
RTVSPropertyOp4
 70
     1
102
RTVSPropertyOp5
 70
     1
102
RTVSPropertyOp6
 70
     1
102
RTVSPropertyOp7
 70
     1
102
RTVSPropertyOp8
 70
     1
102
RTVSPropertyOp9
 70
     1
102
RTVSPropertyOp10
 70
     1
102
RTVSPropertyOp11
 70
     1
102
RTVSPropertyOp12
 70
     1
102
RTVSPropertyOp13
 70
     1
102
RTVSPropertyOp14
 70
     1
102
RTVSPropertyOp15
 70
     1
102
RTVSPropertyOp16
 70
     1
102
RTVSPropertyOp17
 70
     1
102
RTVSPropertyOp18
 70
     1
102
RTVSPropertyOp19
 70
     1
102
RTVSPropertyOp20
 70
     1
102
RTVSPropertyOp21
 70
     1
102
RTVSPropertyOp22
 70
     1
102
RTVSPropertyOp23
 70
     1
102
RTVSPropertyOp24
 70
     1
102
RTVSPropertyOp25
 70
     1
102
RTVSPropertyOp26
 70
     1
102
RTVSPropertyOp27
 70
     1
102
RTVSPropertyOp28
 70
     1
102
RTVSPropertyOp29
 70
     1
102
RTVSPropertyOp30
 70
     1
102
RTVSPropertyOp31
 70
     1
102
RTVSPropertyOp32
 70
     1
102
RTVSPropertyOp33
 70
     1
102
RTVSPropertyOp34
 70
     1
102
RTVSPropertyOp35
 70
     1
102
RTVSPropertyOp36
 70
     1
102
RTVSPropertyOp37
 70
     1
102
RTVSPropertyOp38
 70
     1
102
RTVSPropertyOp39
 70
     1
102
RTVSPropertyOp40
 70
     1
102
RTVSPropertyOp41
 70
     1
102
RTVSPropertyOp42
 70
     1
102
RTVSPropertyOp43
 70
     1
102
RTVSPropertyOp44
 70
     1
102
RTVSPropertyOp45
 70
     1
102
RTVSPropertyOp46
 70
     1
102
RTVSPropertyOp47
 70
     1
102
RTVSPropertyOp48
 70
     1
102
RTVSPropertyOp49
 70
     1
102
RTVSPropertyOp50
 70
     1
102
RTVSPropertyOp51
 70
     0
102
RTVSPropertyOp52
 70
     0
102
RTVSPropertyOp53
 70
     1
102
RTVSPropertyOp54
 70
     1
102
RTVSPropertyOp55
 70
     1
102
RTVSPropertyOp56
 70
     1
102
RTVSPropertyOp57
 70
     1
102
RTVSPropertyOp58
 70
     1
102
RTVSPropertyOp59
 70
     1
102
RTVSPropertyOp60
 70
     1
102
RTVSPropertyOp61
 70
     1
102
RTVSPropertyOp62
 70
     1
  0
XRECORD
  5
BF0A
102
{ACAD_REACTORS
330
BF09
102
}
330
BF09
100
AcDbXrecord
280
     1
102
RTVSPost2010Prop28
280
     0
102
RTVSPost2010PropOp28
 70
     1
102
RTVSPost2010Prop29
280
     1
102
RTVSPost2010PropOp29
 70
     1
102
RTVSPost2010Prop30
280
     1
102
RTVSPost2010PropOp30
 70
     1
102
RTVSPost2010Prop31
280
     0
102
RTVSPost2010PropOp31
 70
     1
102
RTVSPost2010Prop32
280
     0
102
RTVSPost2010PropOp32
 70
     1
102
RTVSPost2010Prop33
280
     0
102
RTVSPost2010PropOp33
 70
     1
102
RTVSPost2010Prop34
280
     0
102
RTVSPost2010PropOp34
 70
     1
102
RTVSPost2010Prop35
280
     0
102
RTVSPost2010PropOp35
 70
     1
102
RTVSPost2010Prop36
280
     0
102
RTVSPost2010PropOp36
 70
     1
102
RTVSPost2010Prop37
 90
       50
102
RTVSPost2010PropOp37
 70
     0
102
RTVSPost2010Prop38
140
0.0
102
RTVSPost2010PropOp38
 70
     0
102
RTVSPost2010Prop39
140
1.0
102
RTVSPost2010PropOp39
 70
     0
102
RTVSPost2010Prop40
 90
        0
102
RTVSPost2010PropOp40
 70
     0
102
RTVSPost2010Prop41ColorIndex
 90
       18
102
RTVSPost2010Prop41ColorRGB
 90
        0
102
RTVSPost2010PropOp41
 70
     0
102
RTVSPost2010Prop42
 90
       50
102
RTVSPost2010PropOp42
 70
     0
102
RTVSPost2010Prop43
 90
        3
102
RTVSPost2010PropOp43
 70
     0
102
RTVSPost2010Prop44ColorIndex
 90
        5
102
RTVSPost2010Prop44ColorRGB
 90
      255
102
RTVSPost2010PropOp44
 70
     0
102
RTVSPost2010Prop45
280
     0
102
RTVSPost2010PropOp45
 70
     1
102
RTVSPost2010Prop46
 90
       50
102
RTVSPost2010PropOp46
 70
     0
102
RTVSPost2010Prop47
 90
       50
102
RTVSPost2010PropOp47
 70
     0
102
RTVSPost2010Prop48
 90
       50
102
RTVSPost2010PropOp48
 70
     0
102
RTVSPost2010Prop49
280
     0
102
RTVSPost2010PropOp49
 70
     1
102
RTVSPost2010Prop50
 90
       50
102
RTVSPost2010PropOp50
 70
     0
102
RTVSPost2010Prop51ColorIndex
 90
      256
102
RTVSPost2010Prop51ColorRGB
 90
-16777216
102
RTVSPost2010PropOp51
 70
     0
102
RTVSPost2010Prop52
140
1.0
102
RTVSPost2010PropOp52
 70
     0
102
RTVSPost2010Prop53
 90
        2
102
RTVSPost2010PropOp53
 70
     0
102
RTVSPost2010Prop54
  1
strokes_ogs.tif
102
RTVSPost2010PropOp54
 70
     0
102
RTVSPost2010Prop55
280
     0
102
RTVSPost2010PropOp55
 70
     1
102
RTVSPost2010Prop56
140
1.0
102
RTVSPost2010PropOp56
 70
     0
102
RTVSPost2010Prop57
140
1.0
102
RTVSPost2010PropOp57
 70
     0
102
RTVSPropertyOp0
 70
     0
102
RTVSPropertyOp1
 70
     0
102
RTVSPropertyOp2
 70
     0
102
RTVSPropertyOp3
 70
     0
102
RTVSPropertyOp4
 70
     0
102
RTVSPropertyOp5
 70
     0
102
RTVSPropertyOp6
 70
     0
102
RTVSPropertyOp7
 70
     0
102
RTVSPropertyOp8
 70
     0
102
RTVSPropertyOp9
 70
     0
102
RTVSPropertyOp10
 70
     0
102
RTVSPropertyOp11
 70
     0
102
RTVSPropertyOp12
 70
     0
102
RTVSPropertyOp13
 70
     0
102
RTVSPropertyOp14
 70
     2
102
RTVSPropertyOp15
 70
     0
102
RTVSPropertyOp16
 70
     0
102
RTVSPropertyOp17
 70
     0
102
RTVSPropertyOp18
 70
     0
102
RTVSPropertyOp19
 70
     0
102
RTVSPropertyOp20
 70
     0
102
RTVSPropertyOp21
 70
     0
102
RTVSPropertyOp22
 70
     0
102
RTVSPropertyOp23
 70
     0
102
RTVSPropertyOp24
 70
     0
102
RTVSPropertyOp25
 70
     0
102
RTVSPropertyOp26
 70
     0
102
RTVSPropertyOp27
 70
     0
102
RTVSPropertyOp28
 70
     1
102
RTVSPropertyOp29
 70
     1
102
RTVSPropertyOp30
 70
     1
102
RTVSPropertyOp31
 70
     1
102
RTVSPropertyOp32
 70
     1
102
RTVSPropertyOp33
 70
     1
102
RTVSPropertyOp34
 70
     1
102
RTVSPropertyOp35
 70
     1
102
RTVSPropertyOp36
 70
     1
102
RTVSPropertyOp37
 70
     0
102
RTVSPropertyOp38
 70
     0
102
RTVSPropertyOp39
 70
     0
102
RTVSPropertyOp40
 70
     0
102
RTVSPropertyOp41
 70
     0
102
RTVSPropertyOp42
 70
     0
102
RTVSPropertyOp43
 70
     0
102
RTVSPropertyOp44
 70
     0
102
RTVSPropertyOp45
 70
     1
102
RTVSPropertyOp46
 70
     0
102
RTVSPropertyOp47
 70
     0
102
RTVSPropertyOp48
 70
     0
102
RTVSPropertyOp49
 70
     1
102
RTVSPropertyOp50
 70
     0
102
RTVSPropertyOp51
 70
     0
102
RTVSPropertyOp52
 70
     0
102
RTVSPropertyOp53
 70
     0
102
RTVSPropertyOp54
 70
     0
102
RTVSPropertyOp55
 70
     1
102
RTVSPropertyOp56
 70
     0
102
RTVSPropertyOp57
 70
     0
102
RTVSPropertyOp58
 70
     0
102
RTVSPropertyOp59
 70
     0
102
RTVSPropertyOp60
 70
     0
102
RTVSPropertyOp61
 70
     0
102
RTVSPropertyOp62
 70
     0
  0
XRECORD
  5
BEF8
102
{ACAD_REACTORS
330
BEF7
102
}
330
BEF7
100
AcDbXrecord
280
     1
102
RTVSPost2010Prop28
280
     0
102
RTVSPost2010PropOp28
 70
     1
102
RTVSPost2010Prop29
280
     1
102
RTVSPost2010PropOp29
 70
     1
102
RTVSPost2010Prop30
280
     1
102
RTVSPost2010PropOp30
 70
     1
102
RTVSPost2010Prop31
280
     0
102
RTVSPost2010PropOp31
 70
     1
102
RTVSPost2010Prop32
280
     0
102
RTVSPost2010PropOp32
 70
     1
102
RTVSPost2010Prop33
280
     0
102
RTVSPost2010PropOp33
 70
     1
102
RTVSPost2010Prop34
280
     0
102
RTVSPost2010PropOp34
 70
     1
102
RTVSPost2010Prop35
280
     0
102
RTVSPost2010PropOp35
 70
     1
102
RTVSPost2010Prop36
280
     0
102
RTVSPost2010PropOp36
 70
     1
102
RTVSPost2010Prop37
 90
       50
102
RTVSPost2010PropOp37
 70
     1
102
RTVSPost2010Prop38
140
0.0
102
RTVSPost2010PropOp38
 70
     1
102
RTVSPost2010Prop39
140
1.0
102
RTVSPost2010PropOp39
 70
     1
102
RTVSPost2010Prop40
 90
        0
102
RTVSPost2010PropOp40
 70
     1
102
RTVSPost2010Prop41ColorIndex
 90
       18
102
RTVSPost2010Prop41ColorRGB
 90
        0
102
RTVSPost2010PropOp41
 70
     1
102
RTVSPost2010Prop42
 90
       50
102
RTVSPost2010PropOp42
 70
     1
102
RTVSPost2010Prop43
 90
        3
102
RTVSPost2010PropOp43
 70
     1
102
RTVSPost2010Prop44ColorIndex
 90
        5
102
RTVSPost2010Prop44ColorRGB
 90
      255
102
RTVSPost2010PropOp44
 70
     1
102
RTVSPost2010Prop45
280
     0
102
RTVSPost2010PropOp45
 70
     1
102
RTVSPost2010Prop46
 90
       50
102
RTVSPost2010PropOp46
 70
     1
102
RTVSPost2010Prop47
 90
       50
102
RTVSPost2010PropOp47
 70
     1
102
RTVSPost2010Prop48
 90
       50
102
RTVSPost2010PropOp48
 70
     1
102
RTVSPost2010Prop49
280
     0
102
RTVSPost2010PropOp49
 70
     1
102
RTVSPost2010Prop50
 90
       50
102
RTVSPost2010PropOp50
 70
     1
102
RTVSPost2010Prop51ColorIndex
 90
      256
102
RTVSPost2010Prop51ColorRGB
 90
-16777216
102
RTVSPost2010PropOp51
 70
     0
102
RTVSPost2010Prop52
140
1.0
102
RTVSPost2010PropOp52
 70
     0
102
RTVSPost2010Prop53
 90
        2
102
RTVSPost2010PropOp53
 70
     1
102
RTVSPost2010Prop54
  1
strokes_ogs.tif
102
RTVSPost2010PropOp54
 70
     1
102
RTVSPost2010Prop55
280
     0
102
RTVSPost2010PropOp55
 70
     1
102
RTVSPost2010Prop56
140
1.0
102
RTVSPost2010PropOp56
 70
     1
102
RTVSPost2010Prop57
140
1.0
102
RTVSPost2010PropOp57
 70
     1
102
RTVSPropertyOp0
 70
     1
102
RTVSPropertyOp1
 70
     1
102
RTVSPropertyOp2
 70
     1
102
RTVSPropertyOp3
 70
     1
102
RTVSPropertyOp4
 70
     1
102
RTVSPropertyOp5
 70
     1
102
RTVSPropertyOp6
 70
     1
102
RTVSPropertyOp7
 70
     1
102
RTVSPropertyOp8
 70
     1
102
RTVSPropertyOp9
 70
     1
102
RTVSPropertyOp10
 70
     1
102
RTVSPropertyOp11
 70
     1
102
RTVSPropertyOp12
 70
     1
102
RTVSPropertyOp13
 70
     1
102
RTVSPropertyOp14
 70
     1
102
RTVSPropertyOp15
 70
     1
102
RTVSPropertyOp16
 70
     1
102
RTVSPropertyOp17
 70
     1
102
RTVSPropertyOp18
 70
     1
102
RTVSPropertyOp19
 70
     1
102
RTVSPropertyOp20
 70
     1
102
RTVSPropertyOp21
 70
     1
102
RTVSPropertyOp22
 70
     1
102
RTVSPropertyOp23
 70
     1
102
RTVSPropertyOp24
 70
     1
102
RTVSPropertyOp25
 70
     1
102
RTVSPropertyOp26
 70
     1
102
RTVSPropertyOp27
 70
     1
102
RTVSPropertyOp28
 70
     1
102
RTVSPropertyOp29
 70
     1
102
RTVSPropertyOp30
 70
     1
102
RTVSPropertyOp31
 70
     1
102
RTVSPropertyOp32
 70
     1
102
RTVSPropertyOp33
 70
     1
102
RTVSPropertyOp34
 70
     1
102
RTVSPropertyOp35
 70
     1
102
RTVSPropertyOp36
 70
     1
102
RTVSPropertyOp37
 70
     1
102
RTVSPropertyOp38
 70
     1
102
RTVSPropertyOp39
 70
     1
102
RTVSPropertyOp40
 70
     1
102
RTVSPropertyOp41
 70
     1
102
RTVSPropertyOp42
 70
     1
102
RTVSPropertyOp43
 70
     1
102
RTVSPropertyOp44
 70
     1
102
RTVSPropertyOp45
 70
     1
102
RTVSPropertyOp46
 70
     1
102
RTVSPropertyOp47
 70
     1
102
RTVSPropertyOp48
 70
     1
102
RTVSPropertyOp49
 70
     1
102
RTVSPropertyOp50
 70
     1
102
RTVSPropertyOp51
 70
     0
102
RTVSPropertyOp52
 70
     0
102
RTVSPropertyOp53
 70
     1
102
RTVSPropertyOp54
 70
     1
102
RTVSPropertyOp55
 70
     1
102
RTVSPropertyOp56
 70
     1
102
RTVSPropertyOp57
 70
     1
102
RTVSPropertyOp58
 70
     1
102
RTVSPropertyOp59
 70
     1
102
RTVSPropertyOp60
 70
     1
102
RTVSPropertyOp61
 70
     1
102
RTVSPropertyOp62
 70
     1
  0
XRECORD
  5
BEDC
102
{ACAD_REACTORS
330
BEDB
102
}
330
BEDB
100
AcDbXrecord
280
     1
102
RTVSPost2010Prop28
280
     0
102
RTVSPost2010PropOp28
 70
     1
102
RTVSPost2010Prop29
280
     1
102
RTVSPost2010PropOp29
 70
     1
102
RTVSPost2010Prop30
280
     1
102
RTVSPost2010PropOp30
 70
     1
102
RTVSPost2010Prop31
280
     0
102
RTVSPost2010PropOp31
 70
     1
102
RTVSPost2010Prop32
280
     0
102
RTVSPost2010PropOp32
 70
     1
102
RTVSPost2010Prop33
280
     0
102
RTVSPost2010PropOp33
 70
     1
102
RTVSPost2010Prop34
280
     0
102
RTVSPost2010PropOp34
 70
     1
102
RTVSPost2010Prop35
280
     0
102
RTVSPost2010PropOp35
 70
     1
102
RTVSPost2010Prop36
280
     0
102
RTVSPost2010PropOp36
 70
     1
102
RTVSPost2010Prop37
 90
       50
102
RTVSPost2010PropOp37
 70
     1
102
RTVSPost2010Prop38
140
0.0
102
RTVSPost2010PropOp38
 70
     1
102
RTVSPost2010Prop39
140
1.0
102
RTVSPost2010PropOp39
 70
     1
102
RTVSPost2010Prop40
 90
        0
102
RTVSPost2010PropOp40
 70
     1
102
RTVSPost2010Prop41ColorIndex
 90
       18
102
RTVSPost2010Prop41ColorRGB
 90
        0
102
RTVSPost2010PropOp41
 70
     1
102
RTVSPost2010Prop42
 90
       50
102
RTVSPost2010PropOp42
 70
     1
102
RTVSPost2010Prop43
 90
        3
102
RTVSPost2010PropOp43
 70
     1
102
RTVSPost2010Prop44ColorIndex
 90
        5
102
RTVSPost2010Prop44ColorRGB
 90
      255
102
RTVSPost2010PropOp44
 70
     1
102
RTVSPost2010Prop45
280
     0
102
RTVSPost2010PropOp45
 70
     1
102
RTVSPost2010Prop46
 90
       50
102
RTVSPost2010PropOp46
 70
     1
102
RTVSPost2010Prop47
 90
       50
102
RTVSPost2010PropOp47
 70
     1
102
RTVSPost2010Prop48
 90
       50
102
RTVSPost2010PropOp48
 70
     1
102
RTVSPost2010Prop49
280
     0
102
RTVSPost2010PropOp49
 70
     1
102
RTVSPost2010Prop50
 90
       50
102
RTVSPost2010PropOp50
 70
     1
102
RTVSPost2010Prop51ColorIndex
 90
      256
102
RTVSPost2010Prop51ColorRGB
 90
-16777216
102
RTVSPost2010PropOp51
 70
     0
102
RTVSPost2010Prop52
140
1.0
102
RTVSPost2010PropOp52
 70
     0
102
RTVSPost2010Prop53
 90
        2
102
RTVSPost2010PropOp53
 70
     1
102
RTVSPost2010Prop54
  1
strokes_ogs.tif
102
RTVSPost2010PropOp54
 70
     1
102
RTVSPost2010Prop55
280
     0
102
RTVSPost2010PropOp55
 70
     1
102
RTVSPost2010Prop56
140
1.0
102
RTVSPost2010PropOp56
 70
     1
102
RTVSPost2010Prop57
140
1.0
102
RTVSPost2010PropOp57
 70
     1
102
RTVSPropertyOp0
 70
     1
102
RTVSPropertyOp1
 70
     1
102
RTVSPropertyOp2
 70
     1
102
RTVSPropertyOp3
 70
     1
102
RTVSPropertyOp4
 70
     1
102
RTVSPropertyOp5
 70
     1
102
RTVSPropertyOp6
 70
     1
102
RTVSPropertyOp7
 70
     1
102
RTVSPropertyOp8
 70
     1
102
RTVSPropertyOp9
 70
     1
102
RTVSPropertyOp10
 70
     1
102
RTVSPropertyOp11
 70
     1
102
RTVSPropertyOp12
 70
     1
102
RTVSPropertyOp13
 70
     1
102
RTVSPropertyOp14
 70
     1
102
RTVSPropertyOp15
 70
     1
102
RTVSPropertyOp16
 70
     1
102
RTVSPropertyOp17
 70
     1
102
RTVSPropertyOp18
 70
     1
102
RTVSPropertyOp19
 70
     1
102
RTVSPropertyOp20
 70
     1
102
RTVSPropertyOp21
 70
     1
102
RTVSPropertyOp22
 70
     1
102
RTVSPropertyOp23
 70
     1
102
RTVSPropertyOp24
 70
     1
102
RTVSPropertyOp25
 70
     1
102
RTVSPropertyOp26
 70
     1
102
RTVSPropertyOp27
 70
     1
102
RTVSPropertyOp28
 70
     1
102
RTVSPropertyOp29
 70
     1
102
RTVSPropertyOp30
 70
     1
102
RTVSPropertyOp31
 70
     1
102
RTVSPropertyOp32
 70
     1
102
RTVSPropertyOp33
 70
     1
102
RTVSPropertyOp34
 70
     1
102
RTVSPropertyOp35
 70
     1
102
RTVSPropertyOp36
 70
     1
102
RTVSPropertyOp37
 70
     1
102
RTVSPropertyOp38
 70
     1
102
RTVSPropertyOp39
 70
     1
102
RTVSPropertyOp40
 70
     1
102
RTVSPropertyOp41
 70
     1
102
RTVSPropertyOp42
 70
     1
102
RTVSPropertyOp43
 70
     1
102
RTVSPropertyOp44
 70
     1
102
RTVSPropertyOp45
 70
     1
102
RTVSPropertyOp46
 70
     1
102
RTVSPropertyOp47
 70
     1
102
RTVSPropertyOp48
 70
     1
102
RTVSPropertyOp49
 70
     1
102
RTVSPropertyOp50
 70
     1
102
RTVSPropertyOp51
 70
     0
102
RTVSPropertyOp52
 70
     0
102
RTVSPropertyOp53
 70
     1
102
RTVSPropertyOp54
 70
     1
102
RTVSPropertyOp55
 70
     1
102
RTVSPropertyOp56
 70
     1
102
RTVSPropertyOp57
 70
     1
102
RTVSPropertyOp58
 70
     1
102
RTVSPropertyOp59
 70
     1
102
RTVSPropertyOp60
 70
     1
102
RTVSPropertyOp61
 70
     1
102
RTVSPropertyOp62
 70
     1
  0
XRECORD
  5
BEDE
102
{ACAD_REACTORS
330
BEDD
102
}
330
BEDD
100
AcDbXrecord
280
     1
102
RTVSPost2010Prop28
280
     0
102
RTVSPost2010PropOp28
 70
     1
102
RTVSPost2010Prop29
280
     1
102
RTVSPost2010PropOp29
 70
     1
102
RTVSPost2010Prop30
280
     1
102
RTVSPost2010PropOp30
 70
     1
102
RTVSPost2010Prop31
280
     0
102
RTVSPost2010PropOp31
 70
     1
102
RTVSPost2010Prop32
280
     0
102
RTVSPost2010PropOp32
 70
     1
102
RTVSPost2010Prop33
280
     0
102
RTVSPost2010PropOp33
 70
     1
102
RTVSPost2010Prop34
280
     0
102
RTVSPost2010PropOp34
 70
     1
102
RTVSPost2010Prop35
280
     0
102
RTVSPost2010PropOp35
 70
     1
102
RTVSPost2010Prop36
280
     0
102
RTVSPost2010PropOp36
 70
     1
102
RTVSPost2010Prop37
 90
       50
102
RTVSPost2010PropOp37
 70
     1
102
RTVSPost2010Prop38
140
0.0
102
RTVSPost2010PropOp38
 70
     1
102
RTVSPost2010Prop39
140
1.0
102
RTVSPost2010PropOp39
 70
     1
102
RTVSPost2010Prop40
 90
        0
102
RTVSPost2010PropOp40
 70
     1
102
RTVSPost2010Prop41ColorIndex
 90
       18
102
RTVSPost2010Prop41ColorRGB
 90
        0
102
RTVSPost2010PropOp41
 70
     1
102
RTVSPost2010Prop42
 90
       50
102
RTVSPost2010PropOp42
 70
     1
102
RTVSPost2010Prop43
 90
        3
102
RTVSPost2010PropOp43
 70
     1
102
RTVSPost2010Prop44ColorIndex
 90
        5
102
RTVSPost2010Prop44ColorRGB
 90
      255
102
RTVSPost2010PropOp44
 70
     1
102
RTVSPost2010Prop45
280
     0
102
RTVSPost2010PropOp45
 70
     1
102
RTVSPost2010Prop46
 90
       50
102
RTVSPost2010PropOp46
 70
     1
102
RTVSPost2010Prop47
 90
       50
102
RTVSPost2010PropOp47
 70
     1
102
RTVSPost2010Prop48
 90
       50
102
RTVSPost2010PropOp48
 70
     1
102
RTVSPost2010Prop49
280
     0
102
RTVSPost2010PropOp49
 70
     1
102
RTVSPost2010Prop50
 90
       50
102
RTVSPost2010PropOp50
 70
     1
102
RTVSPost2010Prop51ColorIndex
 90
      256
102
RTVSPost2010Prop51ColorRGB
 90
-16777216
102
RTVSPost2010PropOp51
 70
     0
102
RTVSPost2010Prop52
140
1.0
102
RTVSPost2010PropOp52
 70
     0
102
RTVSPost2010Prop53
 90
        2
102
RTVSPost2010PropOp53
 70
     1
102
RTVSPost2010Prop54
  1
strokes_ogs.tif
102
RTVSPost2010PropOp54
 70
     1
102
RTVSPost2010Prop55
280
     0
102
RTVSPost2010PropOp55
 70
     1
102
RTVSPost2010Prop56
140
1.0
102
RTVSPost2010PropOp56
 70
     1
102
RTVSPost2010Prop57
140
1.0
102
RTVSPost2010PropOp57
 70
     1
102
RTVSPropertyOp0
 70
     1
102
RTVSPropertyOp1
 70
     1
102
RTVSPropertyOp2
 70
     1
102
RTVSPropertyOp3
 70
     1
102
RTVSPropertyOp4
 70
     1
102
RTVSPropertyOp5
 70
     1
102
RTVSPropertyOp6
 70
     1
102
RTVSPropertyOp7
 70
     1
102
RTVSPropertyOp8
 70
     1
102
RTVSPropertyOp9
 70
     1
102
RTVSPropertyOp10
 70
     1
102
RTVSPropertyOp11
 70
     1
102
RTVSPropertyOp12
 70
     1
102
RTVSPropertyOp13
 70
     1
102
RTVSPropertyOp14
 70
     1
102
RTVSPropertyOp15
 70
     1
102
RTVSPropertyOp16
 70
     1
102
RTVSPropertyOp17
 70
     1
102
RTVSPropertyOp18
 70
     1
102
RTVSPropertyOp19
 70
     1
102
RTVSPropertyOp20
 70
     1
102
RTVSPropertyOp21
 70
     1
102
RTVSPropertyOp22
 70
     1
102
RTVSPropertyOp23
 70
     1
102
RTVSPropertyOp24
 70
     1
102
RTVSPropertyOp25
 70
     1
102
RTVSPropertyOp26
 70
     1
102
RTVSPropertyOp27
 70
     1
102
RTVSPropertyOp28
 70
     1
102
RTVSPropertyOp29
 70
     1
102
RTVSPropertyOp30
 70
     1
102
RTVSPropertyOp31
 70
     1
102
RTVSPropertyOp32
 70
     1
102
RTVSPropertyOp33
 70
     1
102
RTVSPropertyOp34
 70
     1
102
RTVSPropertyOp35
 70
     1
102
RTVSPropertyOp36
 70
     1
102
RTVSPropertyOp37
 70
     1
102
RTVSPropertyOp38
 70
     1
102
RTVSPropertyOp39
 70
     1
102
RTVSPropertyOp40
 70
     1
102
RTVSPropertyOp41
 70
     1
102
RTVSPropertyOp42
 70
     1
102
RTVSPropertyOp43
 70
     1
102
RTVSPropertyOp44
 70
     1
102
RTVSPropertyOp45
 70
     1
102
RTVSPropertyOp46
 70
     1
102
RTVSPropertyOp47
 70
     1
102
RTVSPropertyOp48
 70
     1
102
RTVSPropertyOp49
 70
     1
102
RTVSPropertyOp50
 70
     1
102
RTVSPropertyOp51
 70
     0
102
RTVSPropertyOp52
 70
     0
102
RTVSPropertyOp53
 70
     1
102
RTVSPropertyOp54
 70
     1
102
RTVSPropertyOp55
 70
     1
102
RTVSPropertyOp56
 70
     1
102
RTVSPropertyOp57
 70
     1
102
RTVSPropertyOp58
 70
     1
102
RTVSPropertyOp59
 70
     1
102
RTVSPropertyOp60
 70
     1
102
RTVSPropertyOp61
 70
     1
102
RTVSPropertyOp62
 70
     1
  0
XRECORD
  5
BEE0
102
{ACAD_REACTORS
330
BEDF
102
}
330
BEDF
100
AcDbXrecord
280
     1
102
RTVSPost2010Prop28
280
     0
102
RTVSPost2010PropOp28
 70
     1
102
RTVSPost2010Prop29
280
     1
102
RTVSPost2010PropOp29
 70
     1
102
RTVSPost2010Prop30
280
     1
102
RTVSPost2010PropOp30
 70
     1
102
RTVSPost2010Prop31
280
     0
102
RTVSPost2010PropOp31
 70
     1
102
RTVSPost2010Prop32
280
     0
102
RTVSPost2010PropOp32
 70
     1
102
RTVSPost2010Prop33
280
     0
102
RTVSPost2010PropOp33
 70
     1
102
RTVSPost2010Prop34
280
     0
102
RTVSPost2010PropOp34
 70
     1
102
RTVSPost2010Prop35
280
     0
102
RTVSPost2010PropOp35
 70
     1
102
RTVSPost2010Prop36
280
     0
102
RTVSPost2010PropOp36
 70
     1
102
RTVSPost2010Prop37
 90
       50
102
RTVSPost2010PropOp37
 70
     1
102
RTVSPost2010Prop38
140
0.0
102
RTVSPost2010PropOp38
 70
     1
102
RTVSPost2010Prop39
140
1.0
102
RTVSPost2010PropOp39
 70
     1
102
RTVSPost2010Prop40
 90
        0
102
RTVSPost2010PropOp40
 70
     1
102
RTVSPost2010Prop41ColorIndex
 90
       18
102
RTVSPost2010Prop41ColorRGB
 90
        0
102
RTVSPost2010PropOp41
 70
     1
102
RTVSPost2010Prop42
 90
       50
102
RTVSPost2010PropOp42
 70
     1
102
RTVSPost2010Prop43
 90
        3
102
RTVSPost2010PropOp43
 70
     1
102
RTVSPost2010Prop44ColorIndex
 90
        5
102
RTVSPost2010Prop44ColorRGB
 90
      255
102
RTVSPost2010PropOp44
 70
     1
102
RTVSPost2010Prop45
280
     0
102
RTVSPost2010PropOp45
 70
     1
102
RTVSPost2010Prop46
 90
       50
102
RTVSPost2010PropOp46
 70
     1
102
RTVSPost2010Prop47
 90
       50
102
RTVSPost2010PropOp47
 70
     1
102
RTVSPost2010Prop48
 90
       50
102
RTVSPost2010PropOp48
 70
     1
102
RTVSPost2010Prop49
280
     0
102
RTVSPost2010PropOp49
 70
     1
102
RTVSPost2010Prop50
 90
       50
102
RTVSPost2010PropOp50
 70
     1
102
RTVSPost2010Prop51ColorIndex
 90
      256
102
RTVSPost2010Prop51ColorRGB
 90
-16777216
102
RTVSPost2010PropOp51
 70
     0
102
RTVSPost2010Prop52
140
1.0
102
RTVSPost2010PropOp52
 70
     0
102
RTVSPost2010Prop53
 90
        2
102
RTVSPost2010PropOp53
 70
     1
102
RTVSPost2010Prop54
  1
strokes_ogs.tif
102
RTVSPost2010PropOp54
 70
     1
102
RTVSPost2010Prop55
280
     0
102
RTVSPost2010PropOp55
 70
     1
102
RTVSPost2010Prop56
140
1.0
102
RTVSPost2010PropOp56
 70
     1
102
RTVSPost2010Prop57
140
1.0
102
RTVSPost2010PropOp57
 70
     1
102
RTVSPropertyOp0
 70
     1
102
RTVSPropertyOp1
 70
     1
102
RTVSPropertyOp2
 70
     1
102
RTVSPropertyOp3
 70
     1
102
RTVSPropertyOp4
 70
     1
102
RTVSPropertyOp5
 70
     1
102
RTVSPropertyOp6
 70
     1
102
RTVSPropertyOp7
 70
     1
102
RTVSPropertyOp8
 70
     1
102
RTVSPropertyOp9
 70
     1
102
RTVSPropertyOp10
 70
     1
102
RTVSPropertyOp11
 70
     1
102
RTVSPropertyOp12
 70
     1
102
RTVSPropertyOp13
 70
     1
102
RTVSPropertyOp14
 70
     1
102
RTVSPropertyOp15
 70
     1
102
RTVSPropertyOp16
 70
     1
102
RTVSPropertyOp17
 70
     1
102
RTVSPropertyOp18
 70
     1
102
RTVSPropertyOp19
 70
     1
102
RTVSPropertyOp20
 70
     1
102
RTVSPropertyOp21
 70
     1
102
RTVSPropertyOp22
 70
     1
102
RTVSPropertyOp23
 70
     1
102
RTVSPropertyOp24
 70
     1
102
RTVSPropertyOp25
 70
     1
102
RTVSPropertyOp26
 70
     1
102
RTVSPropertyOp27
 70
     1
102
RTVSPropertyOp28
 70
     1
102
RTVSPropertyOp29
 70
     1
102
RTVSPropertyOp30
 70
     1
102
RTVSPropertyOp31
 70
     1
102
RTVSPropertyOp32
 70
     1
102
RTVSPropertyOp33
 70
     1
102
RTVSPropertyOp34
 70
     1
102
RTVSPropertyOp35
 70
     1
102
RTVSPropertyOp36
 70
     1
102
RTVSPropertyOp37
 70
     1
102
RTVSPropertyOp38
 70
     1
102
RTVSPropertyOp39
 70
     1
102
RTVSPropertyOp40
 70
     1
102
RTVSPropertyOp41
 70
     1
102
RTVSPropertyOp42
 70
     1
102
RTVSPropertyOp43
 70
     1
102
RTVSPropertyOp44
 70
     1
102
RTVSPropertyOp45
 70
     1
102
RTVSPropertyOp46
 70
     1
102
RTVSPropertyOp47
 70
     1
102
RTVSPropertyOp48
 70
     1
102
RTVSPropertyOp49
 70
     1
102
RTVSPropertyOp50
 70
     1
102
RTVSPropertyOp51
 70
     0
102
RTVSPropertyOp52
 70
     0
102
RTVSPropertyOp53
 70
     1
102
RTVSPropertyOp54
 70
     1
102
RTVSPropertyOp55
 70
     1
102
RTVSPropertyOp56
 70
     1
102
RTVSPropertyOp57
 70
     1
102
RTVSPropertyOp58
 70
     1
102
RTVSPropertyOp59
 70
     1
102
RTVSPropertyOp60
 70
     1
102
RTVSPropertyOp61
 70
     1
102
RTVSPropertyOp62
 70
     1
  0
XRECORD
  5
BEE2
102
{ACAD_REACTORS
330
BEE1
102
}
330
BEE1
100
AcDbXrecord
280
     1
102
RTVSPost2010Prop28
280
     0
102
RTVSPost2010PropOp28
 70
     1
102
RTVSPost2010Prop29
280
     1
102
RTVSPost2010PropOp29
 70
     1
102
RTVSPost2010Prop30
280
     1
102
RTVSPost2010PropOp30
 70
     1
102
RTVSPost2010Prop31
280
     0
102
RTVSPost2010PropOp31
 70
     1
102
RTVSPost2010Prop32
280
     0
102
RTVSPost2010PropOp32
 70
     1
102
RTVSPost2010Prop33
280
     0
102
RTVSPost2010PropOp33
 70
     1
102
RTVSPost2010Prop34
280
     0
102
RTVSPost2010PropOp34
 70
     1
102
RTVSPost2010Prop35
280
     0
102
RTVSPost2010PropOp35
 70
     1
102
RTVSPost2010Prop36
280
     0
102
RTVSPost2010PropOp36
 70
     1
102
RTVSPost2010Prop37
 90
       50
102
RTVSPost2010PropOp37
 70
     1
102
RTVSPost2010Prop38
140
0.0
102
RTVSPost2010PropOp38
 70
     1
102
RTVSPost2010Prop39
140
1.0
102
RTVSPost2010PropOp39
 70
     1
102
RTVSPost2010Prop40
 90
        0
102
RTVSPost2010PropOp40
 70
     1
102
RTVSPost2010Prop41ColorIndex
 90
       18
102
RTVSPost2010Prop41ColorRGB
 90
        0
102
RTVSPost2010PropOp41
 70
     1
102
RTVSPost2010Prop42
 90
       50
102
RTVSPost2010PropOp42
 70
     1
102
RTVSPost2010Prop43
 90
        3
102
RTVSPost2010PropOp43
 70
     1
102
RTVSPost2010Prop44ColorIndex
 90
        5
102
RTVSPost2010Prop44ColorRGB
 90
      255
102
RTVSPost2010PropOp44
 70
     1
102
RTVSPost2010Prop45
280
     0
102
RTVSPost2010PropOp45
 70
     1
102
RTVSPost2010Prop46
 90
       50
102
RTVSPost2010PropOp46
 70
     1
102
RTVSPost2010Prop47
 90
       50
102
RTVSPost2010PropOp47
 70
     1
102
RTVSPost2010Prop48
 90
       50
102
RTVSPost2010PropOp48
 70
     1
102
RTVSPost2010Prop49
280
     0
102
RTVSPost2010PropOp49
 70
     1
102
RTVSPost2010Prop50
 90
       50
102
RTVSPost2010PropOp50
 70
     1
102
RTVSPost2010Prop51ColorIndex
 90
      256
102
RTVSPost2010Prop51ColorRGB
 90
-16777216
102
RTVSPost2010PropOp51
 70
     0
102
RTVSPost2010Prop52
140
1.0
102
RTVSPost2010PropOp52
 70
     0
102
RTVSPost2010Prop53
 90
        2
102
RTVSPost2010PropOp53
 70
     1
102
RTVSPost2010Prop54
  1
strokes_ogs.tif
102
RTVSPost2010PropOp54
 70
     1
102
RTVSPost2010Prop55
280
     0
102
RTVSPost2010PropOp55
 70
     1
102
RTVSPost2010Prop56
140
1.0
102
RTVSPost2010PropOp56
 70
     1
102
RTVSPost2010Prop57
140
1.0
102
RTVSPost2010PropOp57
 70
     1
102
RTVSPropertyOp0
 70
     1
102
RTVSPropertyOp1
 70
     1
102
RTVSPropertyOp2
 70
     1
102
RTVSPropertyOp3
 70
     1
102
RTVSPropertyOp4
 70
     1
102
RTVSPropertyOp5
 70
     1
102
RTVSPropertyOp6
 70
     1
102
RTVSPropertyOp7
 70
     1
102
RTVSPropertyOp8
 70
     1
102
RTVSPropertyOp9
 70
     1
102
RTVSPropertyOp10
 70
     1
102
RTVSPropertyOp11
 70
     1
102
RTVSPropertyOp12
 70
     1
102
RTVSPropertyOp13
 70
     1
102
RTVSPropertyOp14
 70
     1
102
RTVSPropertyOp15
 70
     1
102
RTVSPropertyOp16
 70
     1
102
RTVSPropertyOp17
 70
     1
102
RTVSPropertyOp18
 70
     1
102
RTVSPropertyOp19
 70
     1
102
RTVSPropertyOp20
 70
     1
102
RTVSPropertyOp21
 70
     1
102
RTVSPropertyOp22
 70
     1
102
RTVSPropertyOp23
 70
     1
102
RTVSPropertyOp24
 70
     1
102
RTVSPropertyOp25
 70
     1
102
RTVSPropertyOp26
 70
     1
102
RTVSPropertyOp27
 70
     1
102
RTVSPropertyOp28
 70
     1
102
RTVSPropertyOp29
 70
     1
102
RTVSPropertyOp30
 70
     1
102
RTVSPropertyOp31
 70
     1
102
RTVSPropertyOp32
 70
     1
102
RTVSPropertyOp33
 70
     1
102
RTVSPropertyOp34
 70
     1
102
RTVSPropertyOp35
 70
     1
102
RTVSPropertyOp36
 70
     1
102
RTVSPropertyOp37
 70
     1
102
RTVSPropertyOp38
 70
     1
102
RTVSPropertyOp39
 70
     1
102
RTVSPropertyOp40
 70
     1
102
RTVSPropertyOp41
 70
     1
102
RTVSPropertyOp42
 70
     1
102
RTVSPropertyOp43
 70
     1
102
RTVSPropertyOp44
 70
     1
102
RTVSPropertyOp45
 70
     1
102
RTVSPropertyOp46
 70
     1
102
RTVSPropertyOp47
 70
     1
102
RTVSPropertyOp48
 70
     1
102
RTVSPropertyOp49
 70
     1
102
RTVSPropertyOp50
 70
     1
102
RTVSPropertyOp51
 70
     0
102
RTVSPropertyOp52
 70
     0
102
RTVSPropertyOp53
 70
     1
102
RTVSPropertyOp54
 70
     1
102
RTVSPropertyOp55
 70
     1
102
RTVSPropertyOp56
 70
     1
102
RTVSPropertyOp57
 70
     1
102
RTVSPropertyOp58
 70
     1
102
RTVSPropertyOp59
 70
     1
102
RTVSPropertyOp60
 70
     1
102
RTVSPropertyOp61
 70
     1
102
RTVSPropertyOp62
 70
     1
  0
XRECORD
  5
BEEA
102
{ACAD_REACTORS
330
BEE9
102
}
330
BEE9
100
AcDbXrecord
280
     1
102
RTVSPost2010Prop28
280
     0
102
RTVSPost2010PropOp28
 70
     1
102
RTVSPost2010Prop29
280
     1
102
RTVSPost2010PropOp29
 70
     1
102
RTVSPost2010Prop30
280
     1
102
RTVSPost2010PropOp30
 70
     1
102
RTVSPost2010Prop31
280
     0
102
RTVSPost2010PropOp31
 70
     1
102
RTVSPost2010Prop32
280
     0
102
RTVSPost2010PropOp32
 70
     1
102
RTVSPost2010Prop33
280
     0
102
RTVSPost2010PropOp33
 70
     1
102
RTVSPost2010Prop34
280
     0
102
RTVSPost2010PropOp34
 70
     1
102
RTVSPost2010Prop35
280
     0
102
RTVSPost2010PropOp35
 70
     1
102
RTVSPost2010Prop36
280
     0
102
RTVSPost2010PropOp36
 70
     1
102
RTVSPost2010Prop37
 90
       50
102
RTVSPost2010PropOp37
 70
     1
102
RTVSPost2010Prop38
140
0.0
102
RTVSPost2010PropOp38
 70
     1
102
RTVSPost2010Prop39
140
1.0
102
RTVSPost2010PropOp39
 70
     1
102
RTVSPost2010Prop40
 90
        0
102
RTVSPost2010PropOp40
 70
     1
102
RTVSPost2010Prop41ColorIndex
 90
       18
102
RTVSPost2010Prop41ColorRGB
 90
        0
102
RTVSPost2010PropOp41
 70
     1
102
RTVSPost2010Prop42
 90
       50
102
RTVSPost2010PropOp42
 70
     1
102
RTVSPost2010Prop43
 90
        3
102
RTVSPost2010PropOp43
 70
     1
102
RTVSPost2010Prop44ColorIndex
 90
        5
102
RTVSPost2010Prop44ColorRGB
 90
      255
102
RTVSPost2010PropOp44
 70
     1
102
RTVSPost2010Prop45
280
     0
102
RTVSPost2010PropOp45
 70
     1
102
RTVSPost2010Prop46
 90
       50
102
RTVSPost2010PropOp46
 70
     1
102
RTVSPost2010Prop47
 90
       50
102
RTVSPost2010PropOp47
 70
     1
102
RTVSPost2010Prop48
 90
       50
102
RTVSPost2010PropOp48
 70
     1
102
RTVSPost2010Prop49
280
     0
102
RTVSPost2010PropOp49
 70
     1
102
RTVSPost2010Prop50
 90
       50
102
RTVSPost2010PropOp50
 70
     1
102
RTVSPost2010Prop51ColorIndex
 90
      256
102
RTVSPost2010Prop51ColorRGB
 90
-16777216
102
RTVSPost2010PropOp51
 70
     0
102
RTVSPost2010Prop52
140
1.0
102
RTVSPost2010PropOp52
 70
     0
102
RTVSPost2010Prop53
 90
        2
102
RTVSPost2010PropOp53
 70
     1
102
RTVSPost2010Prop54
  1
strokes_ogs.tif
102
RTVSPost2010PropOp54
 70
     1
102
RTVSPost2010Prop55
280
     0
102
RTVSPost2010PropOp55
 70
     1
102
RTVSPost2010Prop56
140
1.0
102
RTVSPost2010PropOp56
 70
     1
102
RTVSPost2010Prop57
140
1.0
102
RTVSPost2010PropOp57
 70
     1
102
RTVSPropertyOp0
 70
     1
102
RTVSPropertyOp1
 70
     1
102
RTVSPropertyOp2
 70
     1
102
RTVSPropertyOp3
 70
     1
102
RTVSPropertyOp4
 70
     1
102
RTVSPropertyOp5
 70
     1
102
RTVSPropertyOp6
 70
     1
102
RTVSPropertyOp7
 70
     1
102
RTVSPropertyOp8
 70
     1
102
RTVSPropertyOp9
 70
     1
102
RTVSPropertyOp10
 70
     1
102
RTVSPropertyOp11
 70
     1
102
RTVSPropertyOp12
 70
     1
102
RTVSPropertyOp13
 70
     1
102
RTVSPropertyOp14
 70
     1
102
RTVSPropertyOp15
 70
     1
102
RTVSPropertyOp16
 70
     1
102
RTVSPropertyOp17
 70
     1
102
RTVSPropertyOp18
 70
     1
102
RTVSPropertyOp19
 70
     1
102
RTVSPropertyOp20
 70
     1
102
RTVSPropertyOp21
 70
     1
102
RTVSPropertyOp22
 70
     1
102
RTVSPropertyOp23
 70
     1
102
RTVSPropertyOp24
 70
     1
102
RTVSPropertyOp25
 70
     1
102
RTVSPropertyOp26
 70
     1
102
RTVSPropertyOp27
 70
     1
102
RTVSPropertyOp28
 70
     1
102
RTVSPropertyOp29
 70
     1
102
RTVSPropertyOp30
 70
     1
102
RTVSPropertyOp31
 70
     1
102
RTVSPropertyOp32
 70
     1
102
RTVSPropertyOp33
 70
     1
102
RTVSPropertyOp34
 70
     1
102
RTVSPropertyOp35
 70
     1
102
RTVSPropertyOp36
 70
     1
102
RTVSPropertyOp37
 70
     1
102
RTVSPropertyOp38
 70
     1
102
RTVSPropertyOp39
 70
     1
102
RTVSPropertyOp40
 70
     1
102
RTVSPropertyOp41
 70
     1
102
RTVSPropertyOp42
 70
     1
102
RTVSPropertyOp43
 70
     1
102
RTVSPropertyOp44
 70
     1
102
RTVSPropertyOp45
 70
     1
102
RTVSPropertyOp46
 70
     1
102
RTVSPropertyOp47
 70
     1
102
RTVSPropertyOp48
 70
     1
102
RTVSPropertyOp49
 70
     1
102
RTVSPropertyOp50
 70
     1
102
RTVSPropertyOp51
 70
     0
102
RTVSPropertyOp52
 70
     0
102
RTVSPropertyOp53
 70
     1
102
RTVSPropertyOp54
 70
     1
102
RTVSPropertyOp55
 70
     1
102
RTVSPropertyOp56
 70
     1
102
RTVSPropertyOp57
 70
     1
102
RTVSPropertyOp58
 70
     1
102
RTVSPropertyOp59
 70
     1
102
RTVSPropertyOp60
 70
     1
102
RTVSPropertyOp61
 70
     1
102
RTVSPropertyOp62
 70
     1
  0
XRECORD
  5
BF06
102
{ACAD_REACTORS
330
BF05
102
}
330
BF05
100
AcDbXrecord
280
     1
102
RTVSPost2010Prop28
280
     0
102
RTVSPost2010PropOp28
 70
     1
102
RTVSPost2010Prop29
280
     1
102
RTVSPost2010PropOp29
 70
     1
102
RTVSPost2010Prop30
280
     1
102
RTVSPost2010PropOp30
 70
     1
102
RTVSPost2010Prop31
280
     0
102
RTVSPost2010PropOp31
 70
     1
102
RTVSPost2010Prop32
280
     0
102
RTVSPost2010PropOp32
 70
     1
102
RTVSPost2010Prop33
280
     0
102
RTVSPost2010PropOp33
 70
     1
102
RTVSPost2010Prop34
280
     0
102
RTVSPost2010PropOp34
 70
     1
102
RTVSPost2010Prop35
280
     0
102
RTVSPost2010PropOp35
 70
     1
102
RTVSPost2010Prop36
280
     0
102
RTVSPost2010PropOp36
 70
     1
102
RTVSPost2010Prop37
 90
       50
102
RTVSPost2010PropOp37
 70
     0
102
RTVSPost2010Prop38
140
0.0
102
RTVSPost2010PropOp38
 70
     0
102
RTVSPost2010Prop39
140
1.0
102
RTVSPost2010PropOp39
 70
     0
102
RTVSPost2010Prop40
 90
        0
102
RTVSPost2010PropOp40
 70
     0
102
RTVSPost2010Prop41ColorIndex
 90
       18
102
RTVSPost2010Prop41ColorRGB
 90
        0
102
RTVSPost2010PropOp41
 70
     0
102
RTVSPost2010Prop42
 90
       50
102
RTVSPost2010PropOp42
 70
     0
102
RTVSPost2010Prop43
 90
        3
102
RTVSPost2010PropOp43
 70
     0
102
RTVSPost2010Prop44ColorIndex
 90
        5
102
RTVSPost2010Prop44ColorRGB
 90
      255
102
RTVSPost2010PropOp44
 70
     0
102
RTVSPost2010Prop45
280
     0
102
RTVSPost2010PropOp45
 70
     1
102
RTVSPost2010Prop46
 90
       50
102
RTVSPost2010PropOp46
 70
     0
102
RTVSPost2010Prop47
 90
       50
102
RTVSPost2010PropOp47
 70
     0
102
RTVSPost2010Prop48
 90
       50
102
RTVSPost2010PropOp48
 70
     0
102
RTVSPost2010Prop49
280
     0
102
RTVSPost2010PropOp49
 70
     1
102
RTVSPost2010Prop50
 90
       50
102
RTVSPost2010PropOp50
 70
     0
102
RTVSPost2010Prop51ColorIndex
 90
      256
102
RTVSPost2010Prop51ColorRGB
 90
-16777216
102
RTVSPost2010PropOp51
 70
     0
102
RTVSPost2010Prop52
140
1.0
102
RTVSPost2010PropOp52
 70
     0
102
RTVSPost2010Prop53
 90
        2
102
RTVSPost2010PropOp53
 70
     0
102
RTVSPost2010Prop54
  1
strokes_ogs.tif
102
RTVSPost2010PropOp54
 70
     0
102
RTVSPost2010Prop55
280
     0
102
RTVSPost2010PropOp55
 70
     1
102
RTVSPost2010Prop56
140
1.0
102
RTVSPost2010PropOp56
 70
     0
102
RTVSPost2010Prop57
140
1.0
102
RTVSPost2010PropOp57
 70
     0
102
RTVSPropertyOp0
 70
     0
102
RTVSPropertyOp1
 70
     0
102
RTVSPropertyOp2
 70
     0
102
RTVSPropertyOp3
 70
     0
102
RTVSPropertyOp4
 70
     0
102
RTVSPropertyOp5
 70
     0
102
RTVSPropertyOp6
 70
     0
102
RTVSPropertyOp7
 70
     0
102
RTVSPropertyOp8
 70
     0
102
RTVSPropertyOp9
 70
     0
102
RTVSPropertyOp10
 70
     0
102
RTVSPropertyOp11
 70
     0
102
RTVSPropertyOp12
 70
     0
102
RTVSPropertyOp13
 70
     0
102
RTVSPropertyOp14
 70
     2
102
RTVSPropertyOp15
 70
     0
102
RTVSPropertyOp16
 70
     0
102
RTVSPropertyOp17
 70
     0
102
RTVSPropertyOp18
 70
     0
102
RTVSPropertyOp19
 70
     0
102
RTVSPropertyOp20
 70
     0
102
RTVSPropertyOp21
 70
     0
102
RTVSPropertyOp22
 70
     0
102
RTVSPropertyOp23
 70
     0
102
RTVSPropertyOp24
 70
     0
102
RTVSPropertyOp25
 70
     0
102
RTVSPropertyOp26
 70
     0
102
RTVSPropertyOp27
 70
     0
102
RTVSPropertyOp28
 70
     1
102
RTVSPropertyOp29
 70
     1
102
RTVSPropertyOp30
 70
     1
102
RTVSPropertyOp31
 70
     1
102
RTVSPropertyOp32
 70
     1
102
RTVSPropertyOp33
 70
     1
102
RTVSPropertyOp34
 70
     1
102
RTVSPropertyOp35
 70
     1
102
RTVSPropertyOp36
 70
     1
102
RTVSPropertyOp37
 70
     0
102
RTVSPropertyOp38
 70
     0
102
RTVSPropertyOp39
 70
     0
102
RTVSPropertyOp40
 70
     0
102
RTVSPropertyOp41
 70
     0
102
RTVSPropertyOp42
 70
     0
102
RTVSPropertyOp43
 70
     0
102
RTVSPropertyOp44
 70
     0
102
RTVSPropertyOp45
 70
     1
102
RTVSPropertyOp46
 70
     0
102
RTVSPropertyOp47
 70
     0
102
RTVSPropertyOp48
 70
     0
102
RTVSPropertyOp49
 70
     1
102
RTVSPropertyOp50
 70
     0
102
RTVSPropertyOp51
 70
     0
102
RTVSPropertyOp52
 70
     0
102
RTVSPropertyOp53
 70
     0
102
RTVSPropertyOp54
 70
     0
102
RTVSPropertyOp55
 70
     1
102
RTVSPropertyOp56
 70
     0
102
RTVSPropertyOp57
 70
     0
102
RTVSPropertyOp58
 70
     0
102
RTVSPropertyOp59
 70
     0
102
RTVSPropertyOp60
 70
     0
102
RTVSPropertyOp61
 70
     0
102
RTVSPropertyOp62
 70
     0
  0
XRECORD
  5
BEF6
102
{ACAD_REACTORS
330
BEF5
102
}
330
BEF5
100
AcDbXrecord
280
     1
102
RTVSPost2010Prop28
280
     0
102
RTVSPost2010PropOp28
 70
     1
102
RTVSPost2010Prop29
280
     1
102
RTVSPost2010PropOp29
 70
     1
102
RTVSPost2010Prop30
280
     1
102
RTVSPost2010PropOp30
 70
     1
102
RTVSPost2010Prop31
280
     0
102
RTVSPost2010PropOp31
 70
     1
102
RTVSPost2010Prop32
280
     0
102
RTVSPost2010PropOp32
 70
     1
102
RTVSPost2010Prop33
280
     0
102
RTVSPost2010PropOp33
 70
     1
102
RTVSPost2010Prop34
280
     0
102
RTVSPost2010PropOp34
 70
     1
102
RTVSPost2010Prop35
280
     0
102
RTVSPost2010PropOp35
 70
     1
102
RTVSPost2010Prop36
280
     0
102
RTVSPost2010PropOp36
 70
     1
102
RTVSPost2010Prop37
 90
       50
102
RTVSPost2010PropOp37
 70
     1
102
RTVSPost2010Prop38
140
0.0
102
RTVSPost2010PropOp38
 70
     1
102
RTVSPost2010Prop39
140
1.0
102
RTVSPost2010PropOp39
 70
     1
102
RTVSPost2010Prop40
 90
        0
102
RTVSPost2010PropOp40
 70
     1
102
RTVSPost2010Prop41ColorIndex
 90
       18
102
RTVSPost2010Prop41ColorRGB
 90
        0
102
RTVSPost2010PropOp41
 70
     1
102
RTVSPost2010Prop42
 90
       50
102
RTVSPost2010PropOp42
 70
     1
102
RTVSPost2010Prop43
 90
        3
102
RTVSPost2010PropOp43
 70
     1
102
RTVSPost2010Prop44ColorIndex
 90
        5
102
RTVSPost2010Prop44ColorRGB
 90
      255
102
RTVSPost2010PropOp44
 70
     1
102
RTVSPost2010Prop45
280
     0
102
RTVSPost2010PropOp45
 70
     1
102
RTVSPost2010Prop46
 90
       50
102
RTVSPost2010PropOp46
 70
     1
102
RTVSPost2010Prop47
 90
       50
102
RTVSPost2010PropOp47
 70
     1
102
RTVSPost2010Prop48
 90
       50
102
RTVSPost2010PropOp48
 70
     1
102
RTVSPost2010Prop49
280
     0
102
RTVSPost2010PropOp49
 70
     1
102
RTVSPost2010Prop50
 90
       50
102
RTVSPost2010PropOp50
 70
     1
102
RTVSPost2010Prop51ColorIndex
 90
      256
102
RTVSPost2010Prop51ColorRGB
 90
-16777216
102
RTVSPost2010PropOp51
 70
     0
102
RTVSPost2010Prop52
140
1.0
102
RTVSPost2010PropOp52
 70
     0
102
RTVSPost2010Prop53
 90
        2
102
RTVSPost2010PropOp53
 70
     1
102
RTVSPost2010Prop54
  1
strokes_ogs.tif
102
RTVSPost2010PropOp54
 70
     1
102
RTVSPost2010Prop55
280
     0
102
RTVSPost2010PropOp55
 70
     1
102
RTVSPost2010Prop56
140
1.0
102
RTVSPost2010PropOp56
 70
     1
102
RTVSPost2010Prop57
140
1.0
102
RTVSPost2010PropOp57
 70
     1
102
RTVSPropertyOp0
 70
     1
102
RTVSPropertyOp1
 70
     1
102
RTVSPropertyOp2
 70
     1
102
RTVSPropertyOp3
 70
     1
102
RTVSPropertyOp4
 70
     1
102
RTVSPropertyOp5
 70
     1
102
RTVSPropertyOp6
 70
     1
102
RTVSPropertyOp7
 70
     1
102
RTVSPropertyOp8
 70
     1
102
RTVSPropertyOp9
 70
     1
102
RTVSPropertyOp10
 70
     1
102
RTVSPropertyOp11
 70
     1
102
RTVSPropertyOp12
 70
     1
102
RTVSPropertyOp13
 70
     1
102
RTVSPropertyOp14
 70
     1
102
RTVSPropertyOp15
 70
     1
102
RTVSPropertyOp16
 70
     1
102
RTVSPropertyOp17
 70
     1
102
RTVSPropertyOp18
 70
     1
102
RTVSPropertyOp19
 70
     1
102
RTVSPropertyOp20
 70
     1
102
RTVSPropertyOp21
 70
     1
102
RTVSPropertyOp22
 70
     1
102
RTVSPropertyOp23
 70
     1
102
RTVSPropertyOp24
 70
     1
102
RTVSPropertyOp25
 70
     1
102
RTVSPropertyOp26
 70
     1
102
RTVSPropertyOp27
 70
     1
102
RTVSPropertyOp28
 70
     1
102
RTVSPropertyOp29
 70
     1
102
RTVSPropertyOp30
 70
     1
102
RTVSPropertyOp31
 70
     1
102
RTVSPropertyOp32
 70
     1
102
RTVSPropertyOp33
 70
     1
102
RTVSPropertyOp34
 70
     1
102
RTVSPropertyOp35
 70
     1
102
RTVSPropertyOp36
 70
     1
102
RTVSPropertyOp37
 70
     1
102
RTVSPropertyOp38
 70
     1
102
RTVSPropertyOp39
 70
     1
102
RTVSPropertyOp40
 70
     1
102
RTVSPropertyOp41
 70
     1
102
RTVSPropertyOp42
 70
     1
102
RTVSPropertyOp43
 70
     1
102
RTVSPropertyOp44
 70
     1
102
RTVSPropertyOp45
 70
     1
102
RTVSPropertyOp46
 70
     1
102
RTVSPropertyOp47
 70
     1
102
RTVSPropertyOp48
 70
     1
102
RTVSPropertyOp49
 70
     1
102
RTVSPropertyOp50
 70
     1
102
RTVSPropertyOp51
 70
     0
102
RTVSPropertyOp52
 70
     0
102
RTVSPropertyOp53
 70
     1
102
RTVSPropertyOp54
 70
     1
102
RTVSPropertyOp55
 70
     1
102
RTVSPropertyOp56
 70
     1
102
RTVSPropertyOp57
 70
     1
102
RTVSPropertyOp58
 70
     1
102
RTVSPropertyOp59
 70
     1
102
RTVSPropertyOp60
 70
     1
102
RTVSPropertyOp61
 70
     1
102
RTVSPropertyOp62
 70
     1
  0
XRECORD
  5
BF08
102
{ACAD_REACTORS
330
BF07
102
}
330
BF07
100
AcDbXrecord
280
     1
102
RTVSPost2010Prop28
280
     0
102
RTVSPost2010PropOp28
 70
     1
102
RTVSPost2010Prop29
280
     1
102
RTVSPost2010PropOp29
 70
     1
102
RTVSPost2010Prop30
280
     1
102
RTVSPost2010PropOp30
 70
     1
102
RTVSPost2010Prop31
280
     0
102
RTVSPost2010PropOp31
 70
     1
102
RTVSPost2010Prop32
280
     0
102
RTVSPost2010PropOp32
 70
     1
102
RTVSPost2010Prop33
280
     0
102
RTVSPost2010PropOp33
 70
     1
102
RTVSPost2010Prop34
280
     0
102
RTVSPost2010PropOp34
 70
     1
102
RTVSPost2010Prop35
280
     0
102
RTVSPost2010PropOp35
 70
     1
102
RTVSPost2010Prop36
280
     0
102
RTVSPost2010PropOp36
 70
     1
102
RTVSPost2010Prop37
 90
       50
102
RTVSPost2010PropOp37
 70
     0
102
RTVSPost2010Prop38
140
0.0
102
RTVSPost2010PropOp38
 70
     0
102
RTVSPost2010Prop39
140
1.0
102
RTVSPost2010PropOp39
 70
     0
102
RTVSPost2010Prop40
 90
        0
102
RTVSPost2010PropOp40
 70
     0
102
RTVSPost2010Prop41ColorIndex
 90
       18
102
RTVSPost2010Prop41ColorRGB
 90
        0
102
RTVSPost2010PropOp41
 70
     0
102
RTVSPost2010Prop42
 90
       50
102
RTVSPost2010PropOp42
 70
     0
102
RTVSPost2010Prop43
 90
        3
102
RTVSPost2010PropOp43
 70
     0
102
RTVSPost2010Prop44ColorIndex
 90
        5
102
RTVSPost2010Prop44ColorRGB
 90
      255
102
RTVSPost2010PropOp44
 70
     0
102
RTVSPost2010Prop45
280
     0
102
RTVSPost2010PropOp45
 70
     1
102
RTVSPost2010Prop46
 90
       50
102
RTVSPost2010PropOp46
 70
     0
102
RTVSPost2010Prop47
 90
       50
102
RTVSPost2010PropOp47
 70
     0
102
RTVSPost2010Prop48
 90
       50
102
RTVSPost2010PropOp48
 70
     0
102
RTVSPost2010Prop49
280
     0
102
RTVSPost2010PropOp49
 70
     1
102
RTVSPost2010Prop50
 90
       50
102
RTVSPost2010PropOp50
 70
     0
102
RTVSPost2010Prop51ColorIndex
 90
      256
102
RTVSPost2010Prop51ColorRGB
 90
-16777216
102
RTVSPost2010PropOp51
 70
     0
102
RTVSPost2010Prop52
140
1.0
102
RTVSPost2010PropOp52
 70
     0
102
RTVSPost2010Prop53
 90
        2
102
RTVSPost2010PropOp53
 70
     0
102
RTVSPost2010Prop54
  1
strokes_ogs.tif
102
RTVSPost2010PropOp54
 70
     0
102
RTVSPost2010Prop55
280
     0
102
RTVSPost2010PropOp55
 70
     1
102
RTVSPost2010Prop56
140
1.0
102
RTVSPost2010PropOp56
 70
     0
102
RTVSPost2010Prop57
140
1.0
102
RTVSPost2010PropOp57
 70
     0
102
RTVSPropertyOp0
 70
     0
102
RTVSPropertyOp1
 70
     0
102
RTVSPropertyOp2
 70
     0
102
RTVSPropertyOp3
 70
     0
102
RTVSPropertyOp4
 70
     0
102
RTVSPropertyOp5
 70
     0
102
RTVSPropertyOp6
 70
     0
102
RTVSPropertyOp7
 70
     0
102
RTVSPropertyOp8
 70
     0
102
RTVSPropertyOp9
 70
     0
102
RTVSPropertyOp10
 70
     0
102
RTVSPropertyOp11
 70
     0
102
RTVSPropertyOp12
 70
     0
102
RTVSPropertyOp13
 70
     0
102
RTVSPropertyOp14
 70
     2
102
RTVSPropertyOp15
 70
     0
102
RTVSPropertyOp16
 70
     0
102
RTVSPropertyOp17
 70
     0
102
RTVSPropertyOp18
 70
     0
102
RTVSPropertyOp19
 70
     0
102
RTVSPropertyOp20
 70
     0
102
RTVSPropertyOp21
 70
     0
102
RTVSPropertyOp22
 70
     0
102
RTVSPropertyOp23
 70
     0
102
RTVSPropertyOp24
 70
     0
102
RTVSPropertyOp25
 70
     0
102
RTVSPropertyOp26
 70
     0
102
RTVSPropertyOp27
 70
     0
102
RTVSPropertyOp28
 70
     1
102
RTVSPropertyOp29
 70
     1
102
RTVSPropertyOp30
 70
     1
102
RTVSPropertyOp31
 70
     1
102
RTVSPropertyOp32
 70
     1
102
RTVSPropertyOp33
 70
     1
102
RTVSPropertyOp34
 70
     1
102
RTVSPropertyOp35
 70
     1
102
RTVSPropertyOp36
 70
     1
102
RTVSPropertyOp37
 70
     0
102
RTVSPropertyOp38
 70
     0
102
RTVSPropertyOp39
 70
     0
102
RTVSPropertyOp40
 70
     0
102
RTVSPropertyOp41
 70
     0
102
RTVSPropertyOp42
 70
     0
102
RTVSPropertyOp43
 70
     0
102
RTVSPropertyOp44
 70
     0
102
RTVSPropertyOp45
 70
     1
102
RTVSPropertyOp46
 70
     0
102
RTVSPropertyOp47
 70
     0
102
RTVSPropertyOp48
 70
     0
102
RTVSPropertyOp49
 70
     1
102
RTVSPropertyOp50
 70
     0
102
RTVSPropertyOp51
 70
     0
102
RTVSPropertyOp52
 70
     0
102
RTVSPropertyOp53
 70
     0
102
RTVSPropertyOp54
 70
     0
102
RTVSPropertyOp55
 70
     1
102
RTVSPropertyOp56
 70
     0
102
RTVSPropertyOp57
 70
     0
102
RTVSPropertyOp58
 70
     0
102
RTVSPropertyOp59
 70
     0
102
RTVSPropertyOp60
 70
     0
102
RTVSPropertyOp61
 70
     0
102
RTVSPropertyOp62
 70
     0
  0
XRECORD
  5
BEEE
102
{ACAD_REACTORS
330
BEED
102
}
330
BEED
100
AcDbXrecord
280
     1
102
RTVSPost2010Prop28
280
     0
102
RTVSPost2010PropOp28
 70
     1
102
RTVSPost2010Prop29
280
     1
102
RTVSPost2010PropOp29
 70
     1
102
RTVSPost2010Prop30
280
     1
102
RTVSPost2010PropOp30
 70
     1
102
RTVSPost2010Prop31
280
     0
102
RTVSPost2010PropOp31
 70
     1
102
RTVSPost2010Prop32
280
     0
102
RTVSPost2010PropOp32
 70
     1
102
RTVSPost2010Prop33
280
     0
102
RTVSPost2010PropOp33
 70
     1
102
RTVSPost2010Prop34
280
     0
102
RTVSPost2010PropOp34
 70
     1
102
RTVSPost2010Prop35
280
     0
102
RTVSPost2010PropOp35
 70
     1
102
RTVSPost2010Prop36
280
     0
102
RTVSPost2010PropOp36
 70
     1
102
RTVSPost2010Prop37
 90
       50
102
RTVSPost2010PropOp37
 70
     1
102
RTVSPost2010Prop38
140
0.0
102
RTVSPost2010PropOp38
 70
     1
102
RTVSPost2010Prop39
140
1.0
102
RTVSPost2010PropOp39
 70
     1
102
RTVSPost2010Prop40
 90
        0
102
RTVSPost2010PropOp40
 70
     1
102
RTVSPost2010Prop41ColorIndex
 90
       18
102
RTVSPost2010Prop41ColorRGB
 90
        0
102
RTVSPost2010PropOp41
 70
     1
102
RTVSPost2010Prop42
 90
       50
102
RTVSPost2010PropOp42
 70
     1
102
RTVSPost2010Prop43
 90
        3
102
RTVSPost2010PropOp43
 70
     1
102
RTVSPost2010Prop44ColorIndex
 90
        5
102
RTVSPost2010Prop44ColorRGB
 90
      255
102
RTVSPost2010PropOp44
 70
     1
102
RTVSPost2010Prop45
280
     0
102
RTVSPost2010PropOp45
 70
     1
102
RTVSPost2010Prop46
 90
       50
102
RTVSPost2010PropOp46
 70
     1
102
RTVSPost2010Prop47
 90
       50
102
RTVSPost2010PropOp47
 70
     1
102
RTVSPost2010Prop48
 90
       50
102
RTVSPost2010PropOp48
 70
     1
102
RTVSPost2010Prop49
280
     0
102
RTVSPost2010PropOp49
 70
     1
102
RTVSPost2010Prop50
 90
       50
102
RTVSPost2010PropOp50
 70
     1
102
RTVSPost2010Prop51ColorIndex
 90
      256
102
RTVSPost2010Prop51ColorRGB
 90
-16777216
102
RTVSPost2010PropOp51
 70
     0
102
RTVSPost2010Prop52
140
1.0
102
RTVSPost2010PropOp52
 70
     0
102
RTVSPost2010Prop53
 90
        2
102
RTVSPost2010PropOp53
 70
     1
102
RTVSPost2010Prop54
  1
strokes_ogs.tif
102
RTVSPost2010PropOp54
 70
     1
102
RTVSPost2010Prop55
280
     0
102
RTVSPost2010PropOp55
 70
     1
102
RTVSPost2010Prop56
140
1.0
102
RTVSPost2010PropOp56
 70
     1
102
RTVSPost2010Prop57
140
1.0
102
RTVSPost2010PropOp57
 70
     1
102
RTVSPropertyOp0
 70
     1
102
RTVSPropertyOp1
 70
     1
102
RTVSPropertyOp2
 70
     1
102
RTVSPropertyOp3
 70
     1
102
RTVSPropertyOp4
 70
     1
102
RTVSPropertyOp5
 70
     1
102
RTVSPropertyOp6
 70
     1
102
RTVSPropertyOp7
 70
     1
102
RTVSPropertyOp8
 70
     1
102
RTVSPropertyOp9
 70
     1
102
RTVSPropertyOp10
 70
     1
102
RTVSPropertyOp11
 70
     1
102
RTVSPropertyOp12
 70
     1
102
RTVSPropertyOp13
 70
     1
102
RTVSPropertyOp14
 70
     1
102
RTVSPropertyOp15
 70
     1
102
RTVSPropertyOp16
 70
     1
102
RTVSPropertyOp17
 70
     1
102
RTVSPropertyOp18
 70
     1
102
RTVSPropertyOp19
 70
     1
102
RTVSPropertyOp20
 70
     1
102
RTVSPropertyOp21
 70
     1
102
RTVSPropertyOp22
 70
     1
102
RTVSPropertyOp23
 70
     1
102
RTVSPropertyOp24
 70
     1
102
RTVSPropertyOp25
 70
     1
102
RTVSPropertyOp26
 70
     1
102
RTVSPropertyOp27
 70
     1
102
RTVSPropertyOp28
 70
     1
102
RTVSPropertyOp29
 70
     1
102
RTVSPropertyOp30
 70
     1
102
RTVSPropertyOp31
 70
     1
102
RTVSPropertyOp32
 70
     1
102
RTVSPropertyOp33
 70
     1
102
RTVSPropertyOp34
 70
     1
102
RTVSPropertyOp35
 70
     1
102
RTVSPropertyOp36
 70
     1
102
RTVSPropertyOp37
 70
     1
102
RTVSPropertyOp38
 70
     1
102
RTVSPropertyOp39
 70
     1
102
RTVSPropertyOp40
 70
     1
102
RTVSPropertyOp41
 70
     1
102
RTVSPropertyOp42
 70
     1
102
RTVSPropertyOp43
 70
     1
102
RTVSPropertyOp44
 70
     1
102
RTVSPropertyOp45
 70
     1
102
RTVSPropertyOp46
 70
     1
102
RTVSPropertyOp47
 70
     1
102
RTVSPropertyOp48
 70
     1
102
RTVSPropertyOp49
 70
     1
102
RTVSPropertyOp50
 70
     1
102
RTVSPropertyOp51
 70
     0
102
RTVSPropertyOp52
 70
     0
102
RTVSPropertyOp53
 70
     1
102
RTVSPropertyOp54
 70
     1
102
RTVSPropertyOp55
 70
     1
102
RTVSPropertyOp56
 70
     1
102
RTVSPropertyOp57
 70
     1
102
RTVSPropertyOp58
 70
     1
102
RTVSPropertyOp59
 70
     1
102
RTVSPropertyOp60
 70
     1
102
RTVSPropertyOp61
 70
     1
102
RTVSPropertyOp62
 70
     1
  0
XRECORD
  5
BF04
102
{ACAD_REACTORS
330
BF03
102
}
330
BF03
100
AcDbXrecord
280
     1
102
RTVSPost2010Prop28
280
     0
102
RTVSPost2010PropOp28
 70
     1
102
RTVSPost2010Prop29
280
     1
102
RTVSPost2010PropOp29
 70
     1
102
RTVSPost2010Prop30
280
     1
102
RTVSPost2010PropOp30
 70
     1
102
RTVSPost2010Prop31
280
     0
102
RTVSPost2010PropOp31
 70
     1
102
RTVSPost2010Prop32
280
     0
102
RTVSPost2010PropOp32
 70
     1
102
RTVSPost2010Prop33
280
     0
102
RTVSPost2010PropOp33
 70
     1
102
RTVSPost2010Prop34
280
     0
102
RTVSPost2010PropOp34
 70
     1
102
RTVSPost2010Prop35
280
     0
102
RTVSPost2010PropOp35
 70
     1
102
RTVSPost2010Prop36
280
     0
102
RTVSPost2010PropOp36
 70
     1
102
RTVSPost2010Prop37
 90
       50
102
RTVSPost2010PropOp37
 70
     1
102
RTVSPost2010Prop38
140
0.0
102
RTVSPost2010PropOp38
 70
     1
102
RTVSPost2010Prop39
140
1.0
102
RTVSPost2010PropOp39
 70
     1
102
RTVSPost2010Prop40
 90
        0
102
RTVSPost2010PropOp40
 70
     1
102
RTVSPost2010Prop41ColorIndex
 90
       18
102
RTVSPost2010Prop41ColorRGB
 90
        0
102
RTVSPost2010PropOp41
 70
     1
102
RTVSPost2010Prop42
 90
       50
102
RTVSPost2010PropOp42
 70
     1
102
RTVSPost2010Prop43
 90
        3
102
RTVSPost2010PropOp43
 70
     1
102
RTVSPost2010Prop44ColorIndex
 90
        5
102
RTVSPost2010Prop44ColorRGB
 90
      255
102
RTVSPost2010PropOp44
 70
     1
102
RTVSPost2010Prop45
280
     0
102
RTVSPost2010PropOp45
 70
     1
102
RTVSPost2010Prop46
 90
       50
102
RTVSPost2010PropOp46
 70
     1
102
RTVSPost2010Prop47
 90
       50
102
RTVSPost2010PropOp47
 70
     1
102
RTVSPost2010Prop48
 90
       50
102
RTVSPost2010PropOp48
 70
     1
102
RTVSPost2010Prop49
280
     0
102
RTVSPost2010PropOp49
 70
     1
102
RTVSPost2010Prop50
 90
       50
102
RTVSPost2010PropOp50
 70
     1
102
RTVSPost2010Prop51ColorIndex
 90
      256
102
RTVSPost2010Prop51ColorRGB
 90
-16777216
102
RTVSPost2010PropOp51
 70
     0
102
RTVSPost2010Prop52
140
1.0
102
RTVSPost2010PropOp52
 70
     0
102
RTVSPost2010Prop53
 90
        2
102
RTVSPost2010PropOp53
 70
     1
102
RTVSPost2010Prop54
  1
strokes_ogs.tif
102
RTVSPost2010PropOp54
 70
     1
102
RTVSPost2010Prop55
280
     0
102
RTVSPost2010PropOp55
 70
     1
102
RTVSPost2010Prop56
140
1.0
102
RTVSPost2010PropOp56
 70
     1
102
RTVSPost2010Prop57
140
1.0
102
RTVSPost2010PropOp57
 70
     1
102
RTVSPropertyOp0
 70
     1
102
RTVSPropertyOp1
 70
     1
102
RTVSPropertyOp2
 70
     1
102
RTVSPropertyOp3
 70
     1
102
RTVSPropertyOp4
 70
     1
102
RTVSPropertyOp5
 70
     1
102
RTVSPropertyOp6
 70
     1
102
RTVSPropertyOp7
 70
     1
102
RTVSPropertyOp8
 70
     1
102
RTVSPropertyOp9
 70
     1
102
RTVSPropertyOp10
 70
     1
102
RTVSPropertyOp11
 70
     1
102
RTVSPropertyOp12
 70
     1
102
RTVSPropertyOp13
 70
     1
102
RTVSPropertyOp14
 70
     1
102
RTVSPropertyOp15
 70
     1
102
RTVSPropertyOp16
 70
     1
102
RTVSPropertyOp17
 70
     1
102
RTVSPropertyOp18
 70
     1
102
RTVSPropertyOp19
 70
     1
102
RTVSPropertyOp20
 70
     1
102
RTVSPropertyOp21
 70
     1
102
RTVSPropertyOp22
 70
     1
102
RTVSPropertyOp23
 70
     1
102
RTVSPropertyOp24
 70
     1
102
RTVSPropertyOp25
 70
     1
102
RTVSPropertyOp26
 70
     1
102
RTVSPropertyOp27
 70
     1
102
RTVSPropertyOp28
 70
     1
102
RTVSPropertyOp29
 70
     1
102
RTVSPropertyOp30
 70
     1
102
RTVSPropertyOp31
 70
     1
102
RTVSPropertyOp32
 70
     1
102
RTVSPropertyOp33
 70
     1
102
RTVSPropertyOp34
 70
     1
102
RTVSPropertyOp35
 70
     1
102
RTVSPropertyOp36
 70
     1
102
RTVSPropertyOp37
 70
     1
102
RTVSPropertyOp38
 70
     1
102
RTVSPropertyOp39
 70
     1
102
RTVSPropertyOp40
 70
     1
102
RTVSPropertyOp41
 70
     1
102
RTVSPropertyOp42
 70
     1
102
RTVSPropertyOp43
 70
     1
102
RTVSPropertyOp44
 70
     1
102
RTVSPropertyOp45
 70
     1
102
RTVSPropertyOp46
 70
     1
102
RTVSPropertyOp47
 70
     1
102
RTVSPropertyOp48
 70
     1
102
RTVSPropertyOp49
 70
     1
102
RTVSPropertyOp50
 70
     1
102
RTVSPropertyOp51
 70
     0
102
RTVSPropertyOp52
 70
     0
102
RTVSPropertyOp53
 70
     1
102
RTVSPropertyOp54
 70
     1
102
RTVSPropertyOp55
 70
     1
102
RTVSPropertyOp56
 70
     1
102
RTVSPropertyOp57
 70
     1
102
RTVSPropertyOp58
 70
     1
102
RTVSPropertyOp59
 70
     1
102
RTVSPropertyOp60
 70
     1
102
RTVSPropertyOp61
 70
     1
102
RTVSPropertyOp62
 70
     1
  0
XRECORD
  5
BF02
102
{ACAD_REACTORS
330
BF01
102
}
330
BF01
100
AcDbXrecord
280
     1
102
RTVSPost2010Prop28
280
     0
102
RTVSPost2010PropOp28
 70
     1
102
RTVSPost2010Prop29
280
     1
102
RTVSPost2010PropOp29
 70
     1
102
RTVSPost2010Prop30
280
     1
102
RTVSPost2010PropOp30
 70
     1
102
RTVSPost2010Prop31
280
     0
102
RTVSPost2010PropOp31
 70
     1
102
RTVSPost2010Prop32
280
     0
102
RTVSPost2010PropOp32
 70
     1
102
RTVSPost2010Prop33
280
     0
102
RTVSPost2010PropOp33
 70
     1
102
RTVSPost2010Prop34
280
     0
102
RTVSPost2010PropOp34
 70
     1
102
RTVSPost2010Prop35
280
     0
102
RTVSPost2010PropOp35
 70
     1
102
RTVSPost2010Prop36
280
     0
102
RTVSPost2010PropOp36
 70
     1
102
RTVSPost2010Prop37
 90
       50
102
RTVSPost2010PropOp37
 70
     1
102
RTVSPost2010Prop38
140
0.0
102
RTVSPost2010PropOp38
 70
     1
102
RTVSPost2010Prop39
140
1.0
102
RTVSPost2010PropOp39
 70
     1
102
RTVSPost2010Prop40
 90
        0
102
RTVSPost2010PropOp40
 70
     1
102
RTVSPost2010Prop41ColorIndex
 90
       18
102
RTVSPost2010Prop41ColorRGB
 90
        0
102
RTVSPost2010PropOp41
 70
     1
102
RTVSPost2010Prop42
 90
       50
102
RTVSPost2010PropOp42
 70
     1
102
RTVSPost2010Prop43
 90
        3
102
RTVSPost2010PropOp43
 70
     1
102
RTVSPost2010Prop44ColorIndex
 90
        5
102
RTVSPost2010Prop44ColorRGB
 90
      255
102
RTVSPost2010PropOp44
 70
     1
102
RTVSPost2010Prop45
280
     0
102
RTVSPost2010PropOp45
 70
     1
102
RTVSPost2010Prop46
 90
       50
102
RTVSPost2010PropOp46
 70
     1
102
RTVSPost2010Prop47
 90
       50
102
RTVSPost2010PropOp47
 70
     1
102
RTVSPost2010Prop48
 90
       50
102
RTVSPost2010PropOp48
 70
     1
102
RTVSPost2010Prop49
280
     0
102
RTVSPost2010PropOp49
 70
     1
102
RTVSPost2010Prop50
 90
       50
102
RTVSPost2010PropOp50
 70
     1
102
RTVSPost2010Prop51ColorIndex
 90
      256
102
RTVSPost2010Prop51ColorRGB
 90
-16777216
102
RTVSPost2010PropOp51
 70
     0
102
RTVSPost2010Prop52
140
1.0
102
RTVSPost2010PropOp52
 70
     0
102
RTVSPost2010Prop53
 90
        2
102
RTVSPost2010PropOp53
 70
     1
102
RTVSPost2010Prop54
  1
strokes_ogs.tif
102
RTVSPost2010PropOp54
 70
     1
102
RTVSPost2010Prop55
280
     0
102
RTVSPost2010PropOp55
 70
     1
102
RTVSPost2010Prop56
140
1.0
102
RTVSPost2010PropOp56
 70
     1
102
RTVSPost2010Prop57
140
1.0
102
RTVSPost2010PropOp57
 70
     1
102
RTVSPropertyOp0
 70
     1
102
RTVSPropertyOp1
 70
     1
102
RTVSPropertyOp2
 70
     1
102
RTVSPropertyOp3
 70
     1
102
RTVSPropertyOp4
 70
     1
102
RTVSPropertyOp5
 70
     1
102
RTVSPropertyOp6
 70
     1
102
RTVSPropertyOp7
 70
     1
102
RTVSPropertyOp8
 70
     1
102
RTVSPropertyOp9
 70
     1
102
RTVSPropertyOp10
 70
     1
102
RTVSPropertyOp11
 70
     1
102
RTVSPropertyOp12
 70
     1
102
RTVSPropertyOp13
 70
     1
102
RTVSPropertyOp14
 70
     1
102
RTVSPropertyOp15
 70
     1
102
RTVSPropertyOp16
 70
     1
102
RTVSPropertyOp17
 70
     1
102
RTVSPropertyOp18
 70
     1
102
RTVSPropertyOp19
 70
     1
102
RTVSPropertyOp20
 70
     1
102
RTVSPropertyOp21
 70
     1
102
RTVSPropertyOp22
 70
     1
102
RTVSPropertyOp23
 70
     1
102
RTVSPropertyOp24
 70
     1
102
RTVSPropertyOp25
 70
     1
102
RTVSPropertyOp26
 70
     1
102
RTVSPropertyOp27
 70
     1
102
RTVSPropertyOp28
 70
     1
102
RTVSPropertyOp29
 70
     1
102
RTVSPropertyOp30
 70
     1
102
RTVSPropertyOp31
 70
     1
102
RTVSPropertyOp32
 70
     1
102
RTVSPropertyOp33
 70
     1
102
RTVSPropertyOp34
 70
     1
102
RTVSPropertyOp35
 70
     1
102
RTVSPropertyOp36
 70
     1
102
RTVSPropertyOp37
 70
     1
102
RTVSPropertyOp38
 70
     1
102
RTVSPropertyOp39
 70
     1
102
RTVSPropertyOp40
 70
     1
102
RTVSPropertyOp41
 70
     1
102
RTVSPropertyOp42
 70
     1
102
RTVSPropertyOp43
 70
     1
102
RTVSPropertyOp44
 70
     1
102
RTVSPropertyOp45
 70
     1
102
RTVSPropertyOp46
 70
     1
102
RTVSPropertyOp47
 70
     1
102
RTVSPropertyOp48
 70
     1
102
RTVSPropertyOp49
 70
     1
102
RTVSPropertyOp50
 70
     1
102
RTVSPropertyOp51
 70
     0
102
RTVSPropertyOp52
 70
     0
102
RTVSPropertyOp53
 70
     1
102
RTVSPropertyOp54
 70
     1
102
RTVSPropertyOp55
 70
     1
102
RTVSPropertyOp56
 70
     1
102
RTVSPropertyOp57
 70
     1
102
RTVSPropertyOp58
 70
     1
102
RTVSPropertyOp59
 70
     1
102
RTVSPropertyOp60
 70
     1
102
RTVSPropertyOp61
 70
     1
102
RTVSPropertyOp62
 70
     1
  0
XRECORD
  5
BEFC
102
{ACAD_REACTORS
330
BEFB
102
}
330
BEFB
100
AcDbXrecord
280
     1
102
RTVSPost2010Prop28
280
     0
102
RTVSPost2010PropOp28
 70
     1
102
RTVSPost2010Prop29
280
     1
102
RTVSPost2010PropOp29
 70
     1
102
RTVSPost2010Prop30
280
     1
102
RTVSPost2010PropOp30
 70
     1
102
RTVSPost2010Prop31
280
     0
102
RTVSPost2010PropOp31
 70
     1
102
RTVSPost2010Prop32
280
     0
102
RTVSPost2010PropOp32
 70
     1
102
RTVSPost2010Prop33
280
     0
102
RTVSPost2010PropOp33
 70
     1
102
RTVSPost2010Prop34
280
     0
102
RTVSPost2010PropOp34
 70
     1
102
RTVSPost2010Prop35
280
     0
102
RTVSPost2010PropOp35
 70
     1
102
RTVSPost2010Prop36
280
     0
102
RTVSPost2010PropOp36
 70
     1
102
RTVSPost2010Prop37
 90
       50
102
RTVSPost2010PropOp37
 70
     1
102
RTVSPost2010Prop38
140
0.0
102
RTVSPost2010PropOp38
 70
     1
102
RTVSPost2010Prop39
140
1.0
102
RTVSPost2010PropOp39
 70
     1
102
RTVSPost2010Prop40
 90
        0
102
RTVSPost2010PropOp40
 70
     1
102
RTVSPost2010Prop41ColorIndex
 90
       18
102
RTVSPost2010Prop41ColorRGB
 90
        0
102
RTVSPost2010PropOp41
 70
     1
102
RTVSPost2010Prop42
 90
       50
102
RTVSPost2010PropOp42
 70
     1
102
RTVSPost2010Prop43
 90
        3
102
RTVSPost2010PropOp43
 70
     1
102
RTVSPost2010Prop44ColorIndex
 90
        5
102
RTVSPost2010Prop44ColorRGB
 90
      255
102
RTVSPost2010PropOp44
 70
     1
102
RTVSPost2010Prop45
280
     0
102
RTVSPost2010PropOp45
 70
     1
102
RTVSPost2010Prop46
 90
       50
102
RTVSPost2010PropOp46
 70
     1
102
RTVSPost2010Prop47
 90
       50
102
RTVSPost2010PropOp47
 70
     1
102
RTVSPost2010Prop48
 90
       50
102
RTVSPost2010PropOp48
 70
     1
102
RTVSPost2010Prop49
280
     0
102
RTVSPost2010PropOp49
 70
     1
102
RTVSPost2010Prop50
 90
       50
102
RTVSPost2010PropOp50
 70
     1
102
RTVSPost2010Prop51ColorIndex
 90
      256
102
RTVSPost2010Prop51ColorRGB
 90
-16777216
102
RTVSPost2010PropOp51
 70
     0
102
RTVSPost2010Prop52
140
1.0
102
RTVSPost2010PropOp52
 70
     0
102
RTVSPost2010Prop53
 90
        2
102
RTVSPost2010PropOp53
 70
     1
102
RTVSPost2010Prop54
  1
strokes_ogs.tif
102
RTVSPost2010PropOp54
 70
     1
102
RTVSPost2010Prop55
280
     0
102
RTVSPost2010PropOp55
 70
     1
102
RTVSPost2010Prop56
140
1.0
102
RTVSPost2010PropOp56
 70
     1
102
RTVSPost2010Prop57
140
1.0
102
RTVSPost2010PropOp57
 70
     1
102
RTVSPropertyOp0
 70
     1
102
RTVSPropertyOp1
 70
     1
102
RTVSPropertyOp2
 70
     1
102
RTVSPropertyOp3
 70
     1
102
RTVSPropertyOp4
 70
     1
102
RTVSPropertyOp5
 70
     1
102
RTVSPropertyOp6
 70
     1
102
RTVSPropertyOp7
 70
     1
102
RTVSPropertyOp8
 70
     1
102
RTVSPropertyOp9
 70
     1
102
RTVSPropertyOp10
 70
     1
102
RTVSPropertyOp11
 70
     1
102
RTVSPropertyOp12
 70
     1
102
RTVSPropertyOp13
 70
     1
102
RTVSPropertyOp14
 70
     1
102
RTVSPropertyOp15
 70
     1
102
RTVSPropertyOp16
 70
     1
102
RTVSPropertyOp17
 70
     1
102
RTVSPropertyOp18
 70
     1
102
RTVSPropertyOp19
 70
     1
102
RTVSPropertyOp20
 70
     1
102
RTVSPropertyOp21
 70
     1
102
RTVSPropertyOp22
 70
     1
102
RTVSPropertyOp23
 70
     1
102
RTVSPropertyOp24
 70
     1
102
RTVSPropertyOp25
 70
     1
102
RTVSPropertyOp26
 70
     1
102
RTVSPropertyOp27
 70
     1
102
RTVSPropertyOp28
 70
     1
102
RTVSPropertyOp29
 70
     1
102
RTVSPropertyOp30
 70
     1
102
RTVSPropertyOp31
 70
     1
102
RTVSPropertyOp32
 70
     1
102
RTVSPropertyOp33
 70
     1
102
RTVSPropertyOp34
 70
     1
102
RTVSPropertyOp35
 70
     1
102
RTVSPropertyOp36
 70
     1
102
RTVSPropertyOp37
 70
     1
102
RTVSPropertyOp38
 70
     1
102
RTVSPropertyOp39
 70
     1
102
RTVSPropertyOp40
 70
     1
102
RTVSPropertyOp41
 70
     1
102
RTVSPropertyOp42
 70
     1
102
RTVSPropertyOp43
 70
     1
102
RTVSPropertyOp44
 70
     1
102
RTVSPropertyOp45
 70
     1
102
RTVSPropertyOp46
 70
     1
102
RTVSPropertyOp47
 70
     1
102
RTVSPropertyOp48
 70
     1
102
RTVSPropertyOp49
 70
     1
102
RTVSPropertyOp50
 70
     1
102
RTVSPropertyOp51
 70
     0
102
RTVSPropertyOp52
 70
     0
102
RTVSPropertyOp53
 70
     1
102
RTVSPropertyOp54
 70
     1
102
RTVSPropertyOp55
 70
     1
102
RTVSPropertyOp56
 70
     1
102
RTVSPropertyOp57
 70
     1
102
RTVSPropertyOp58
 70
     1
102
RTVSPropertyOp59
 70
     1
102
RTVSPropertyOp60
 70
     1
102
RTVSPropertyOp61
 70
     1
102
RTVSPropertyOp62
 70
     1
  0
XRECORD
  5
BEFE
102
{ACAD_REACTORS
330
BEFD
102
}
330
BEFD
100
AcDbXrecord
280
     1
102
RTVSPost2010Prop28
280
     0
102
RTVSPost2010PropOp28
 70
     1
102
RTVSPost2010Prop29
280
     1
102
RTVSPost2010PropOp29
 70
     1
102
RTVSPost2010Prop30
280
     1
102
RTVSPost2010PropOp30
 70
     1
102
RTVSPost2010Prop31
280
     0
102
RTVSPost2010PropOp31
 70
     1
102
RTVSPost2010Prop32
280
     0
102
RTVSPost2010PropOp32
 70
     1
102
RTVSPost2010Prop33
280
     0
102
RTVSPost2010PropOp33
 70
     1
102
RTVSPost2010Prop34
280
     0
102
RTVSPost2010PropOp34
 70
     1
102
RTVSPost2010Prop35
280
     0
102
RTVSPost2010PropOp35
 70
     1
102
RTVSPost2010Prop36
280
     0
102
RTVSPost2010PropOp36
 70
     1
102
RTVSPost2010Prop37
 90
       50
102
RTVSPost2010PropOp37
 70
     1
102
RTVSPost2010Prop38
140
0.0
102
RTVSPost2010PropOp38
 70
     1
102
RTVSPost2010Prop39
140
1.0
102
RTVSPost2010PropOp39
 70
     1
102
RTVSPost2010Prop40
 90
        0
102
RTVSPost2010PropOp40
 70
     1
102
RTVSPost2010Prop41ColorIndex
 90
       18
102
RTVSPost2010Prop41ColorRGB
 90
        0
102
RTVSPost2010PropOp41
 70
     1
102
RTVSPost2010Prop42
 90
       50
102
RTVSPost2010PropOp42
 70
     1
102
RTVSPost2010Prop43
 90
        3
102
RTVSPost2010PropOp43
 70
     1
102
RTVSPost2010Prop44ColorIndex
 90
        5
102
RTVSPost2010Prop44ColorRGB
 90
      255
102
RTVSPost2010PropOp44
 70
     1
102
RTVSPost2010Prop45
280
     0
102
RTVSPost2010PropOp45
 70
     1
102
RTVSPost2010Prop46
 90
       50
102
RTVSPost2010PropOp46
 70
     1
102
RTVSPost2010Prop47
 90
       50
102
RTVSPost2010PropOp47
 70
     1
102
RTVSPost2010Prop48
 90
       50
102
RTVSPost2010PropOp48
 70
     1
102
RTVSPost2010Prop49
280
     0
102
RTVSPost2010PropOp49
 70
     1
102
RTVSPost2010Prop50
 90
       50
102
RTVSPost2010PropOp50
 70
     1
102
RTVSPost2010Prop51ColorIndex
 90
      256
102
RTVSPost2010Prop51ColorRGB
 90
-16777216
102
RTVSPost2010PropOp51
 70
     0
102
RTVSPost2010Prop52
140
1.0
102
RTVSPost2010PropOp52
 70
     0
102
RTVSPost2010Prop53
 90
        2
102
RTVSPost2010PropOp53
 70
     1
102
RTVSPost2010Prop54
  1
strokes_ogs.tif
102
RTVSPost2010PropOp54
 70
     1
102
RTVSPost2010Prop55
280
     0
102
RTVSPost2010PropOp55
 70
     1
102
RTVSPost2010Prop56
140
1.0
102
RTVSPost2010PropOp56
 70
     1
102
RTVSPost2010Prop57
140
1.0
102
RTVSPost2010PropOp57
 70
     1
102
RTVSPropertyOp0
 70
     1
102
RTVSPropertyOp1
 70
     1
102
RTVSPropertyOp2
 70
     1
102
RTVSPropertyOp3
 70
     1
102
RTVSPropertyOp4
 70
     1
102
RTVSPropertyOp5
 70
     1
102
RTVSPropertyOp6
 70
     1
102
RTVSPropertyOp7
 70
     1
102
RTVSPropertyOp8
 70
     1
102
RTVSPropertyOp9
 70
     1
102
RTVSPropertyOp10
 70
     1
102
RTVSPropertyOp11
 70
     1
102
RTVSPropertyOp12
 70
     1
102
RTVSPropertyOp13
 70
     1
102
RTVSPropertyOp14
 70
     1
102
RTVSPropertyOp15
 70
     1
102
RTVSPropertyOp16
 70
     1
102
RTVSPropertyOp17
 70
     1
102
RTVSPropertyOp18
 70
     1
102
RTVSPropertyOp19
 70
     1
102
RTVSPropertyOp20
 70
     1
102
RTVSPropertyOp21
 70
     1
102
RTVSPropertyOp22
 70
     1
102
RTVSPropertyOp23
 70
     1
102
RTVSPropertyOp24
 70
     1
102
RTVSPropertyOp25
 70
     1
102
RTVSPropertyOp26
 70
     1
102
RTVSPropertyOp27
 70
     1
102
RTVSPropertyOp28
 70
     1
102
RTVSPropertyOp29
 70
     1
102
RTVSPropertyOp30
 70
     1
102
RTVSPropertyOp31
 70
     1
102
RTVSPropertyOp32
 70
     1
102
RTVSPropertyOp33
 70
     1
102
RTVSPropertyOp34
 70
     1
102
RTVSPropertyOp35
 70
     1
102
RTVSPropertyOp36
 70
     1
102
RTVSPropertyOp37
 70
     1
102
RTVSPropertyOp38
 70
     1
102
RTVSPropertyOp39
 70
     1
102
RTVSPropertyOp40
 70
     1
102
RTVSPropertyOp41
 70
     1
102
RTVSPropertyOp42
 70
     1
102
RTVSPropertyOp43
 70
     1
102
RTVSPropertyOp44
 70
     1
102
RTVSPropertyOp45
 70
     1
102
RTVSPropertyOp46
 70
     1
102
RTVSPropertyOp47
 70
     1
102
RTVSPropertyOp48
 70
     1
102
RTVSPropertyOp49
 70
     1
102
RTVSPropertyOp50
 70
     1
102
RTVSPropertyOp51
 70
     0
102
RTVSPropertyOp52
 70
     0
102
RTVSPropertyOp53
 70
     1
102
RTVSPropertyOp54
 70
     1
102
RTVSPropertyOp55
 70
     1
102
RTVSPropertyOp56
 70
     1
102
RTVSPropertyOp57
 70
     1
102
RTVSPropertyOp58
 70
     1
102
RTVSPropertyOp59
 70
     1
102
RTVSPropertyOp60
 70
     1
102
RTVSPropertyOp61
 70
     1
102
RTVSPropertyOp62
 70
     1
  0
XRECORD
  5
BEF4
102
{ACAD_REACTORS
330
BEF3
102
}
330
BEF3
100
AcDbXrecord
280
     1
102
RTVSPost2010Prop28
280
     0
102
RTVSPost2010PropOp28
 70
     1
102
RTVSPost2010Prop29
280
     1
102
RTVSPost2010PropOp29
 70
     1
102
RTVSPost2010Prop30
280
     1
102
RTVSPost2010PropOp30
 70
     1
102
RTVSPost2010Prop31
280
     0
102
RTVSPost2010PropOp31
 70
     1
102
RTVSPost2010Prop32
280
     0
102
RTVSPost2010PropOp32
 70
     1
102
RTVSPost2010Prop33
280
     0
102
RTVSPost2010PropOp33
 70
     1
102
RTVSPost2010Prop34
280
     0
102
RTVSPost2010PropOp34
 70
     1
102
RTVSPost2010Prop35
280
     0
102
RTVSPost2010PropOp35
 70
     1
102
RTVSPost2010Prop36
280
     0
102
RTVSPost2010PropOp36
 70
     1
102
RTVSPost2010Prop37
 90
       50
102
RTVSPost2010PropOp37
 70
     1
102
RTVSPost2010Prop38
140
0.0
102
RTVSPost2010PropOp38
 70
     1
102
RTVSPost2010Prop39
140
1.0
102
RTVSPost2010PropOp39
 70
     1
102
RTVSPost2010Prop40
 90
        0
102
RTVSPost2010PropOp40
 70
     1
102
RTVSPost2010Prop41ColorIndex
 90
       18
102
RTVSPost2010Prop41ColorRGB
 90
        0
102
RTVSPost2010PropOp41
 70
     1
102
RTVSPost2010Prop42
 90
       50
102
RTVSPost2010PropOp42
 70
     1
102
RTVSPost2010Prop43
 90
        3
102
RTVSPost2010PropOp43
 70
     1
102
RTVSPost2010Prop44ColorIndex
 90
        5
102
RTVSPost2010Prop44ColorRGB
 90
      255
102
RTVSPost2010PropOp44
 70
     1
102
RTVSPost2010Prop45
280
     0
102
RTVSPost2010PropOp45
 70
     1
102
RTVSPost2010Prop46
 90
       50
102
RTVSPost2010PropOp46
 70
     1
102
RTVSPost2010Prop47
 90
       50
102
RTVSPost2010PropOp47
 70
     1
102
RTVSPost2010Prop48
 90
       50
102
RTVSPost2010PropOp48
 70
     1
102
RTVSPost2010Prop49
280
     0
102
RTVSPost2010PropOp49
 70
     1
102
RTVSPost2010Prop50
 90
       50
102
RTVSPost2010PropOp50
 70
     1
102
RTVSPost2010Prop51ColorIndex
 90
      256
102
RTVSPost2010Prop51ColorRGB
 90
-16777216
102
RTVSPost2010PropOp51
 70
     0
102
RTVSPost2010Prop52
140
1.0
102
RTVSPost2010PropOp52
 70
     0
102
RTVSPost2010Prop53
 90
        2
102
RTVSPost2010PropOp53
 70
     1
102
RTVSPost2010Prop54
  1
strokes_ogs.tif
102
RTVSPost2010PropOp54
 70
     1
102
RTVSPost2010Prop55
280
     0
102
RTVSPost2010PropOp55
 70
     1
102
RTVSPost2010Prop56
140
1.0
102
RTVSPost2010PropOp56
 70
     1
102
RTVSPost2010Prop57
140
1.0
102
RTVSPost2010PropOp57
 70
     1
102
RTVSPropertyOp0
 70
     1
102
RTVSPropertyOp1
 70
     1
102
RTVSPropertyOp2
 70
     1
102
RTVSPropertyOp3
 70
     1
102
RTVSPropertyOp4
 70
     1
102
RTVSPropertyOp5
 70
     1
102
RTVSPropertyOp6
 70
     1
102
RTVSPropertyOp7
 70
     1
102
RTVSPropertyOp8
 70
     1
102
RTVSPropertyOp9
 70
     1
102
RTVSPropertyOp10
 70
     1
102
RTVSPropertyOp11
 70
     1
102
RTVSPropertyOp12
 70
     1
102
RTVSPropertyOp13
 70
     1
102
RTVSPropertyOp14
 70
     1
102
RTVSPropertyOp15
 70
     1
102
RTVSPropertyOp16
 70
     1
102
RTVSPropertyOp17
 70
     1
102
RTVSPropertyOp18
 70
     1
102
RTVSPropertyOp19
 70
     1
102
RTVSPropertyOp20
 70
     1
102
RTVSPropertyOp21
 70
     1
102
RTVSPropertyOp22
 70
     1
102
RTVSPropertyOp23
 70
     1
102
RTVSPropertyOp24
 70
     1
102
RTVSPropertyOp25
 70
     1
102
RTVSPropertyOp26
 70
     1
102
RTVSPropertyOp27
 70
     1
102
RTVSPropertyOp28
 70
     1
102
RTVSPropertyOp29
 70
     1
102
RTVSPropertyOp30
 70
     1
102
RTVSPropertyOp31
 70
     1
102
RTVSPropertyOp32
 70
     1
102
RTVSPropertyOp33
 70
     1
102
RTVSPropertyOp34
 70
     1
102
RTVSPropertyOp35
 70
     1
102
RTVSPropertyOp36
 70
     1
102
RTVSPropertyOp37
 70
     1
102
RTVSPropertyOp38
 70
     1
102
RTVSPropertyOp39
 70
     1
102
RTVSPropertyOp40
 70
     1
102
RTVSPropertyOp41
 70
     1
102
RTVSPropertyOp42
 70
     1
102
RTVSPropertyOp43
 70
     1
102
RTVSPropertyOp44
 70
     1
102
RTVSPropertyOp45
 70
     1
102
RTVSPropertyOp46
 70
     1
102
RTVSPropertyOp47
 70
     1
102
RTVSPropertyOp48
 70
     1
102
RTVSPropertyOp49
 70
     1
102
RTVSPropertyOp50
 70
     1
102
RTVSPropertyOp51
 70
     0
102
RTVSPropertyOp52
 70
     0
102
RTVSPropertyOp53
 70
     1
102
RTVSPropertyOp54
 70
     1
102
RTVSPropertyOp55
 70
     1
102
RTVSPropertyOp56
 70
     1
102
RTVSPropertyOp57
 70
     1
102
RTVSPropertyOp58
 70
     1
102
RTVSPropertyOp59
 70
     1
102
RTVSPropertyOp60
 70
     1
102
RTVSPropertyOp61
 70
     1
102
RTVSPropertyOp62
 70
     1
  0
XRECORD
  5
BEE8
102
{ACAD_REACTORS
330
BEE7
102
}
330
BEE7
100
AcDbXrecord
280
     1
102
RTVSPost2010Prop28
280
     0
102
RTVSPost2010PropOp28
 70
     1
102
RTVSPost2010Prop29
280
     1
102
RTVSPost2010PropOp29
 70
     1
102
RTVSPost2010Prop30
280
     1
102
RTVSPost2010PropOp30
 70
     1
102
RTVSPost2010Prop31
280
     0
102
RTVSPost2010PropOp31
 70
     1
102
RTVSPost2010Prop32
280
     0
102
RTVSPost2010PropOp32
 70
     1
102
RTVSPost2010Prop33
280
     0
102
RTVSPost2010PropOp33
 70
     1
102
RTVSPost2010Prop34
280
     0
102
RTVSPost2010PropOp34
 70
     1
102
RTVSPost2010Prop35
280
     0
102
RTVSPost2010PropOp35
 70
     1
102
RTVSPost2010Prop36
280
     0
102
RTVSPost2010PropOp36
 70
     1
102
RTVSPost2010Prop37
 90
       50
102
RTVSPost2010PropOp37
 70
     1
102
RTVSPost2010Prop38
140
0.0
102
RTVSPost2010PropOp38
 70
     1
102
RTVSPost2010Prop39
140
1.0
102
RTVSPost2010PropOp39
 70
     1
102
RTVSPost2010Prop40
 90
        0
102
RTVSPost2010PropOp40
 70
     1
102
RTVSPost2010Prop41ColorIndex
 90
       18
102
RTVSPost2010Prop41ColorRGB
 90
        0
102
RTVSPost2010PropOp41
 70
     1
102
RTVSPost2010Prop42
 90
       50
102
RTVSPost2010PropOp42
 70
     1
102
RTVSPost2010Prop43
 90
        3
102
RTVSPost2010PropOp43
 70
     1
102
RTVSPost2010Prop44ColorIndex
 90
        5
102
RTVSPost2010Prop44ColorRGB
 90
      255
102
RTVSPost2010PropOp44
 70
     1
102
RTVSPost2010Prop45
280
     0
102
RTVSPost2010PropOp45
 70
     1
102
RTVSPost2010Prop46
 90
       50
102
RTVSPost2010PropOp46
 70
     1
102
RTVSPost2010Prop47
 90
       50
102
RTVSPost2010PropOp47
 70
     1
102
RTVSPost2010Prop48
 90
       50
102
RTVSPost2010PropOp48
 70
     1
102
RTVSPost2010Prop49
280
     0
102
RTVSPost2010PropOp49
 70
     1
102
RTVSPost2010Prop50
 90
       50
102
RTVSPost2010PropOp50
 70
     1
102
RTVSPost2010Prop51ColorIndex
 90
      256
102
RTVSPost2010Prop51ColorRGB
 90
-16777216
102
RTVSPost2010PropOp51
 70
     0
102
RTVSPost2010Prop52
140
1.0
102
RTVSPost2010PropOp52
 70
     0
102
RTVSPost2010Prop53
 90
        2
102
RTVSPost2010PropOp53
 70
     1
102
RTVSPost2010Prop54
  1
strokes_ogs.tif
102
RTVSPost2010PropOp54
 70
     1
102
RTVSPost2010Prop55
280
     0
102
RTVSPost2010PropOp55
 70
     1
102
RTVSPost2010Prop56
140
1.0
102
RTVSPost2010PropOp56
 70
     1
102
RTVSPost2010Prop57
140
1.0
102
RTVSPost2010PropOp57
 70
     1
102
RTVSPropertyOp0
 70
     1
102
RTVSPropertyOp1
 70
     1
102
RTVSPropertyOp2
 70
     1
102
RTVSPropertyOp3
 70
     1
102
RTVSPropertyOp4
 70
     1
102
RTVSPropertyOp5
 70
     1
102
RTVSPropertyOp6
 70
     1
102
RTVSPropertyOp7
 70
     1
102
RTVSPropertyOp8
 70
     1
102
RTVSPropertyOp9
 70
     1
102
RTVSPropertyOp10
 70
     1
102
RTVSPropertyOp11
 70
     1
102
RTVSPropertyOp12
 70
     1
102
RTVSPropertyOp13
 70
     1
102
RTVSPropertyOp14
 70
     1
102
RTVSPropertyOp15
 70
     1
102
RTVSPropertyOp16
 70
     1
102
RTVSPropertyOp17
 70
     1
102
RTVSPropertyOp18
 70
     1
102
RTVSPropertyOp19
 70
     1
102
RTVSPropertyOp20
 70
     1
102
RTVSPropertyOp21
 70
     1
102
RTVSPropertyOp22
 70
     1
102
RTVSPropertyOp23
 70
     1
102
RTVSPropertyOp24
 70
     1
102
RTVSPropertyOp25
 70
     1
102
RTVSPropertyOp26
 70
     1
102
RTVSPropertyOp27
 70
     1
102
RTVSPropertyOp28
 70
     1
102
RTVSPropertyOp29
 70
     1
102
RTVSPropertyOp30
 70
     1
102
RTVSPropertyOp31
 70
     1
102
RTVSPropertyOp32
 70
     1
102
RTVSPropertyOp33
 70
     1
102
RTVSPropertyOp34
 70
     1
102
RTVSPropertyOp35
 70
     1
102
RTVSPropertyOp36
 70
     1
102
RTVSPropertyOp37
 70
     1
102
RTVSPropertyOp38
 70
     1
102
RTVSPropertyOp39
 70
     1
102
RTVSPropertyOp40
 70
     1
102
RTVSPropertyOp41
 70
     1
102
RTVSPropertyOp42
 70
     1
102
RTVSPropertyOp43
 70
     1
102
RTVSPropertyOp44
 70
     1
102
RTVSPropertyOp45
 70
     1
102
RTVSPropertyOp46
 70
     1
102
RTVSPropertyOp47
 70
     1
102
RTVSPropertyOp48
 70
     1
102
RTVSPropertyOp49
 70
     1
102
RTVSPropertyOp50
 70
     1
102
RTVSPropertyOp51
 70
     0
102
RTVSPropertyOp52
 70
     0
102
RTVSPropertyOp53
 70
     1
102
RTVSPropertyOp54
 70
     1
102
RTVSPropertyOp55
 70
     1
102
RTVSPropertyOp56
 70
     1
102
RTVSPropertyOp57
 70
     1
102
RTVSPropertyOp58
 70
     1
102
RTVSPropertyOp59
 70
     1
102
RTVSPropertyOp60
 70
     1
102
RTVSPropertyOp61
 70
     1
102
RTVSPropertyOp62
 70
     1
  0
XRECORD
  5
BF00
102
{ACAD_REACTORS
330
BEFF
102
}
330
BEFF
100
AcDbXrecord
280
     1
102
RTVSPost2010Prop28
280
     0
102
RTVSPost2010PropOp28
 70
     1
102
RTVSPost2010Prop29
280
     1
102
RTVSPost2010PropOp29
 70
     1
102
RTVSPost2010Prop30
280
     1
102
RTVSPost2010PropOp30
 70
     1
102
RTVSPost2010Prop31
280
     0
102
RTVSPost2010PropOp31
 70
     1
102
RTVSPost2010Prop32
280
     0
102
RTVSPost2010PropOp32
 70
     1
102
RTVSPost2010Prop33
280
     0
102
RTVSPost2010PropOp33
 70
     1
102
RTVSPost2010Prop34
280
     0
102
RTVSPost2010PropOp34
 70
     1
102
RTVSPost2010Prop35
280
     0
102
RTVSPost2010PropOp35
 70
     1
102
RTVSPost2010Prop36
280
     0
102
RTVSPost2010PropOp36
 70
     1
102
RTVSPost2010Prop37
 90
       50
102
RTVSPost2010PropOp37
 70
     1
102
RTVSPost2010Prop38
140
0.0
102
RTVSPost2010PropOp38
 70
     1
102
RTVSPost2010Prop39
140
1.0
102
RTVSPost2010PropOp39
 70
     1
102
RTVSPost2010Prop40
 90
        0
102
RTVSPost2010PropOp40
 70
     1
102
RTVSPost2010Prop41ColorIndex
 90
       18
102
RTVSPost2010Prop41ColorRGB
 90
        0
102
RTVSPost2010PropOp41
 70
     1
102
RTVSPost2010Prop42
 90
       50
102
RTVSPost2010PropOp42
 70
     1
102
RTVSPost2010Prop43
 90
        3
102
RTVSPost2010PropOp43
 70
     1
102
RTVSPost2010Prop44ColorIndex
 90
        5
102
RTVSPost2010Prop44ColorRGB
 90
      255
102
RTVSPost2010PropOp44
 70
     1
102
RTVSPost2010Prop45
280
     0
102
RTVSPost2010PropOp45
 70
     1
102
RTVSPost2010Prop46
 90
       50
102
RTVSPost2010PropOp46
 70
     1
102
RTVSPost2010Prop47
 90
       50
102
RTVSPost2010PropOp47
 70
     1
102
RTVSPost2010Prop48
 90
       50
102
RTVSPost2010PropOp48
 70
     1
102
RTVSPost2010Prop49
280
     0
102
RTVSPost2010PropOp49
 70
     1
102
RTVSPost2010Prop50
 90
       50
102
RTVSPost2010PropOp50
 70
     1
102
RTVSPost2010Prop51ColorIndex
 90
      256
102
RTVSPost2010Prop51ColorRGB
 90
-16777216
102
RTVSPost2010PropOp51
 70
     0
102
RTVSPost2010Prop52
140
1.0
102
RTVSPost2010PropOp52
 70
     0
102
RTVSPost2010Prop53
 90
        2
102
RTVSPost2010PropOp53
 70
     1
102
RTVSPost2010Prop54
  1
strokes_ogs.tif
102
RTVSPost2010PropOp54
 70
     1
102
RTVSPost2010Prop55
280
     0
102
RTVSPost2010PropOp55
 70
     1
102
RTVSPost2010Prop56
140
1.0
102
RTVSPost2010PropOp56
 70
     1
102
RTVSPost2010Prop57
140
1.0
102
RTVSPost2010PropOp57
 70
     1
102
RTVSPropertyOp0
 70
     1
102
RTVSPropertyOp1
 70
     1
102
RTVSPropertyOp2
 70
     1
102
RTVSPropertyOp3
 70
     1
102
RTVSPropertyOp4
 70
     1
102
RTVSPropertyOp5
 70
     1
102
RTVSPropertyOp6
 70
     1
102
RTVSPropertyOp7
 70
     1
102
RTVSPropertyOp8
 70
     1
102
RTVSPropertyOp9
 70
     1
102
RTVSPropertyOp10
 70
     1
102
RTVSPropertyOp11
 70
     1
102
RTVSPropertyOp12
 70
     1
102
RTVSPropertyOp13
 70
     1
102
RTVSPropertyOp14
 70
     1
102
RTVSPropertyOp15
 70
     1
102
RTVSPropertyOp16
 70
     1
102
RTVSPropertyOp17
 70
     1
102
RTVSPropertyOp18
 70
     1
102
RTVSPropertyOp19
 70
     1
102
RTVSPropertyOp20
 70
     1
102
RTVSPropertyOp21
 70
     1
102
RTVSPropertyOp22
 70
     1
102
RTVSPropertyOp23
 70
     1
102
RTVSPropertyOp24
 70
     1
102
RTVSPropertyOp25
 70
     1
102
RTVSPropertyOp26
 70
     1
102
RTVSPropertyOp27
 70
     1
102
RTVSPropertyOp28
 70
     1
102
RTVSPropertyOp29
 70
     1
102
RTVSPropertyOp30
 70
     1
102
RTVSPropertyOp31
 70
     1
102
RTVSPropertyOp32
 70
     1
102
RTVSPropertyOp33
 70
     1
102
RTVSPropertyOp34
 70
     1
102
RTVSPropertyOp35
 70
     1
102
RTVSPropertyOp36
 70
     1
102
RTVSPropertyOp37
 70
     1
102
RTVSPropertyOp38
 70
     1
102
RTVSPropertyOp39
 70
     1
102
RTVSPropertyOp40
 70
     1
102
RTVSPropertyOp41
 70
     1
102
RTVSPropertyOp42
 70
     1
102
RTVSPropertyOp43
 70
     1
102
RTVSPropertyOp44
 70
     1
102
RTVSPropertyOp45
 70
     1
102
RTVSPropertyOp46
 70
     1
102
RTVSPropertyOp47
 70
     1
102
RTVSPropertyOp48
 70
     1
102
RTVSPropertyOp49
 70
     1
102
RTVSPropertyOp50
 70
     1
102
RTVSPropertyOp51
 70
     0
102
RTVSPropertyOp52
 70
     0
102
RTVSPropertyOp53
 70
     1
102
RTVSPropertyOp54
 70
     1
102
RTVSPropertyOp55
 70
     1
102
RTVSPropertyOp56
 70
     1
102
RTVSPropertyOp57
 70
     1
102
RTVSPropertyOp58
 70
     1
102
RTVSPropertyOp59
 70
     1
102
RTVSPropertyOp60
 70
     1
102
RTVSPropertyOp61
 70
     1
102
RTVSPropertyOp62
 70
     1
  0
ENDSEC
  0
EOF
