  0
SECTION
  2
HEADER
  9
$ACADVER
  1
AC1015
  9
$ACADMAINTVER
 70
    20
  9
$DWGCODEPAGE
  3
ANSI_932
  9
$INSBASE
 10
0.0
 20
0.0
 30
0.0
  9
$EXTMIN
 10
10.0
 20
9.999999999999998
 30
0.0
  9
$EXTMAX
 10
559.175529
 20
387.345532
 30
0.0
  9
$LIMMIN
 10
0.0
 20
0.0
  9
$LIMMAX
 10
594.0
 20
409.4999999999997
  9
$ORTHOMODE
 70
     1
  9
$REGENMODE
 70
     1
  9
$FILLMODE
 70
     1
  9
$QTEXTMODE
 70
     0
  9
$MIRRTEXT
 70
     1
  9
$LTSCALE
 40
20.0
  9
$ATTMODE
 70
     1
  9
$TEXTSIZE
 40
5.0
  9
$TRACEWID
 40
1.0
  9
$TEXTSTYLE
  7
STANDARD
  9
$CLAYER
  8
0
  9
$CELTYPE
  6
BYLAYER
  9
$CECOLOR
 62
   256
  9
$CELTSCALE
 40
1.0
  9
$DISPSILH
 70
     0
  9
$DIMSCALE
 40
1.0
  9
$DIMASZ
 40
3.0
  9
$DIMEXO
 40
1.0
  9
$DIMDLI
 40
10.0
  9
$DIMRND
 40
0.0
  9
$DIMDLE
 40
0.0
  9
$DIMEXE
 40
1.0
  9
$DIMTP
 40
0.0
  9
$DIMTM
 40
0.0
  9
$DIMTXT
 40
3.2
  9
$DIMCEN
 40
0.0
  9
$DIMTSZ
 40
0.0
  9
$DIMTOL
 70
     0
  9
$DIMLIM
 70
     0
  9
$DIMTIH
 70
     0
  9
$DIMTOH
 70
     0
  9
$DIMSE1
 70
     0
  9
$DIMSE2
 70
     0
  9
$DIMTAD
 70
     3
  9
$DIMZIN
 70
     8
  9
$DIMBLK
  1

  9
$DIMASO
 70
     1
  9
$DIMSHO
 70
     1
  9
$DIMPOST
  1

  9
$DIMAPOST
  1

  9
$DIMALT
 70
     0
  9
$DIMALTD
 70
     2
  9
$DIMALTF
 40
25.4
  9
$DIMLFAC
 40
1.0
  9
$DIMTOFL
 70
     1
  9
$DIMTVP
 40
0.0
  9
$DIMTIX
 70
     0
  9
$DIMSOXD
 70
     0
  9
$DIMSAH
 70
     1
  9
$DIMBLK1
  1
OPEN
  9
$DIMBLK2
  1
OPEN
  9
$DIMSTYLE
  2
STANDARD
  9
$DIMCLRD
 70
     0
  9
$DIMCLRE
 70
     0
  9
$DIMCLRT
 70
     0
  9
$DIMTFAC
 40
1.0
  9
$DIMGAP
 40
1.0
  9
$DIMJUST
 70
     0
  9
$DIMSD1
 70
     0
  9
$DIMSD2
 70
     0
  9
$DIMTOLJ
 70
     1
  9
$DIMTZIN
 70
     0
  9
$DIMALTZ
 70
     0
  9
$DIMALTTZ
 70
     0
  9
$DIMUPT
 70
     0
  9
$DIMDEC
 70
     4
  9
$DIMTDEC
 70
     4
  9
$DIMALTU
 70
     2
  9
$DIMALTTD
 70
     2
  9
$DIMTXSTY
  7
STANDARD
  9
$DIMAUNIT
 70
     0
  9
$DIMADEC
 70
     0
  9
$DIMALTRND
 40
0.0
  9
$DIMAZIN
 70
     0
  9
$DIMDSEP
 70
    46
  9
$DIMATFIT
 70
     3
  9
$DIMFRAC
 70
     0
  9
$DIMLDRBLK
  1
OPEN
  9
$DIMLUNIT
 70
     2
  9
$DIMLWD
 70
    -2
  9
$DIMLWE
 70
    -2
  9
$DIMTMOVE
 70
     0
  9
$LUNITS
 70
     2
  9
$LUPREC
 70
     4
  9
$SKETCHINC
 40
1.0
  9
$FILLETRAD
 40
0.0
  9
$AUNITS
 70
     0
  9
$AUPREC
 70
     2
  9
$MENU
  1
.
  9
$ELEVATION
 40
0.0
  9
$PELEVATION
 40
0.0
  9
$THICKNESS
 40
0.0
  9
$LIMCHECK
 70
     0
  9
$CHAMFERA
 40
10.0
  9
$CHAMFERB
 40
10.0
  9
$CHAMFERC
 40
0.0
  9
$CHAMFERD
 40
0.0
  9
$SKPOLY
 70
     0
  9
$TDCREATE
 40
2451301.622303819
  9
$TDUCREATE
 40
2451301.247303820
  9
$TDUPDATE
 40
2457192.688433287
  9
$TDUUPDATE
 40
2457192.313433287
  9
$TDINDWG
 40
0.0000101852
  9
$TDUSRTIMER
 40
0.0000098843
  9
$USRTIMER
 70
     1
  9
$ANGBASE
 50
0.0
  9
$ANGDIR
 70
     0
  9
$PDMODE
 70
     0
  9
$PDSIZE
 40
0.0
  9
$PLINEWID
 40
0.0
  9
$SPLFRAME
 70
     0
  9
$SPLINETYPE
 70
     6
  9
$SPLINESEGS
 70
     8
  9
$HANDSEED
  5
C7F4
  9
$SURFTAB1
 70
     6
  9
$SURFTAB2
 70
     6
  9
$SURFTYPE
 70
     6
  9
$SURFU
 70
     6
  9
$SURFV
 70
     6
  9
$UCSBASE
  2

  9
$UCSNAME
  2

  9
$UCSORG
 10
0.0
 20
0.0
 30
0.0
  9
$UCSXDIR
 10
1.0
 20
0.0
 30
0.0
  9
$UCSYDIR
 10
0.0
 20
1.0
 30
0.0
  9
$UCSORTHOREF
  2

  9
$UCSORTHOVIEW
 70
     0
  9
$UCSORGTOP
 10
0.0
 20
0.0
 30
0.0
  9
$UCSORGBOTTOM
 10
0.0
 20
0.0
 30
0.0
  9
$UCSORGLEFT
 10
0.0
 20
0.0
 30
0.0
  9
$UCSORGRIGHT
 10
0.0
 20
0.0
 30
0.0
  9
$UCSORGFRONT
 10
0.0
 20
0.0
 30
0.0
  9
$UCSORGBACK
 10
0.0
 20
0.0
 30
0.0
  9
$PUCSBASE
  2

  9
$PUCSNAME
  2

  9
$PUCSORG
 10
0.0
 20
0.0
 30
0.0
  9
$PUCSXDIR
 10
1.0
 20
0.0
 30
0.0
  9
$PUCSYDIR
 10
0.0
 20
1.0
 30
0.0
  9
$PUCSORTHOREF
  2

  9
$PUCSORTHOVIEW
 70
     0
  9
$PUCSORGTOP
 10
0.0
 20
0.0
 30
0.0
  9
$PUCSORGBOTTOM
 10
0.0
 20
0.0
 30
0.0
  9
$PUCSORGLEFT
 10
0.0
 20
0.0
 30
0.0
  9
$PUCSORGRIGHT
 10
0.0
 20
0.0
 30
0.0
  9
$PUCSORGFRONT
 10
0.0
 20
0.0
 30
0.0
  9
$PUCSORGBACK
 10
0.0
 20
0.0
 30
0.0
  9
$USERI1
 70
     0
  9
$USERI2
 70
     0
  9
$USERI3
 70
     0
  9
$USERI4
 70
     0
  9
$USERI5
 70
     0
  9
$USERR1
 40
0.0
  9
$USERR2
 40
0.0
  9
$USERR3
 40
0.0
  9
$USERR4
 40
0.0
  9
$USERR5
 40
0.0
  9
$WORLDVIEW
 70
     1
  9
$SHADEDGE
 70
     3
  9
$SHADEDIF
 70
    70
  9
$TILEMODE
 70
     1
  9
$MAXACTVP
 70
    16
  9
$PINSBASE
 10
0.0
 20
0.0
 30
0.0
  9
$PLIMCHECK
 70
     0
  9
$PEXTMIN
 10
1.000000000000000E+20
 20
1.000000000000000E+20
 30
1.000000000000000E+20
  9
$PEXTMAX
 10
-1.000000000000000E+20
 20
-1.000000000000000E+20
 30
-1.000000000000000E+20
  9
$PLIMMIN
 10
0.0
 20
0.0
  9
$PLIMMAX
 10
420.0
 20
297.0
  9
$UNITMODE
 70
     0
  9
$VISRETAIN
 70
     0
  9
$PLINEGEN
 70
     0
  9
$PSLTSCALE
 70
     0
  9
$TREEDEPTH
 70
  3020
  9
$CMLSTYLE
  2
STANDARD
  9
$CMLJUST
 70
     0
  9
$CMLSCALE
 40
1.0
  9
$PROXYGRAPHICS
 70
     1
  9
$MEASUREMENT
 70
     0
  9
$CELWEIGHT
370
    -1
  9
$ENDCAPS
280
     0
  9
$JOINSTYLE
280
     0
  9
$LWDISPLAY
290
     0
  9
$INSUNITS
 70
     0
  9
$HYPERLINKBASE
  1

  9
$STYLESHEET
  1

  9
$XEDIT
290
     1
  9
$CEPSNTYPE
380
     0
  9
$PSTYLEMODE
290
     1
  9
$FINGERPRINTGUID
  2
{A4026396-2B9E-43D2-98E6-E3C544EE2FCD}
  9
$VERSIONGUID
  2
{47049C58-4E11-4820-8243-8108F4FCAACD}
  9
$EXTNAMES
290
     1
  9
$PSVPSCALE
 40
0.0
  9
$OLESTARTUP
290
     0
  0
ENDSEC
  0
SECTION
  2
CLASSES
  0
CLASS
  1
ACDBDICTIONARYWDFLT
  2
AcDbDictionaryWithDefault
  3
ObjectDBX Classes
 90
        0
280
     0
281
     0
  0
CLASS
  1
ACDBPLACEHOLDER
  2
AcDbPlaceHolder
  3
ObjectDBX Classes
 90
        0
280
     0
281
     0
  0
CLASS
  1
LAYOUT
  2
AcDbLayout
  3
ObjectDBX Classes
 90
        0
280
     0
281
     0
  0
CLASS
  1
DICTIONARYVAR
  2
AcDbDictionaryVar
  3
ObjectDBX Classes
 90
        0
280
     0
281
     0
  0
CLASS
  1
MATERIAL
  2
AcDbMaterial
  3
ObjectDBX Classes
 90
     1153
280
     0
281
     0
  0
CLASS
  1
VISUALSTYLE
  2
AcDbVisualStyle
  3
ObjectDBX Classes
 90
     4095
280
     0
281
     0
  0
CLASS
  1
TABLESTYLE
  2
AcDbTableStyle
  3
ObjectDBX Classes
 90
     4095
280
     0
281
     0
  0
CLASS
  1
SCALE
  2
AcDbScale
  3
ObjectDBX Classes
 90
     1153
280
     0
281
     0
  0
CLASS
  1
MLEADERSTYLE
  2
AcDbMLeaderStyle
  3
ACDB_MLEADERSTYLE_CLASS
 90
     4095
280
     0
281
     0
  0
CLASS
  1
ACDBSECTIONVIEWSTYLE
  2
AcDbSectionViewStyle
  3
ObjectDBX Classes
 90
     1025
280
     0
281
     0
  0
CLASS
  1
ACDBDETAILVIEWSTYLE
  2
AcDbDetailViewStyle
  3
ObjectDBX Classes
 90
     1025
280
     0
281
     0
  0
CLASS
  1
CELLSTYLEMAP
  2
AcDbCellStyleMap
  3
ObjectDBX Classes
 90
     1152
280
     0
281
     0
  0
ENDSEC
  0
SECTION
  2
TABLES
  0
TABLE
  2
VPORT
  5
C57C
330
0
100
AcDbSymbolTable
 70
     1
  0
VPORT
  5
C73D
330
C57C
100
AcDbSymbolTableRecord
100
AcDbViewportTableRecord
  2
*ACTIVE
 70
     0
 10
0.0
 20
0.0
 11
1.0
 21
1.0
 12
398.9059243226051
 22
198.6733598636037
 13
0.0
 23
0.0
 14
10.0
 24
10.0
 15
10.0
 25
10.0
 16
0.0
 26
0.0
 36
1.0
 17
0.0
 27
0.0
 37
0.0
 40
381.5465016276742
 41
2.35006605019815
 42
50.0
 43
0.0
 44
0.0
 50
0.0
 51
0.0
 71
     0
 72
   100
 73
     1
 74
     0
 75
     0
 76
     0
 77
     0
 78
     0
281
     0
 65
     1
110
0.0
120
0.0
130
0.0
111
1.0
121
0.0
131
0.0
112
0.0
122
1.0
132
0.0
 79
     0
146
0.0
1001
ACAD_NAV_VCDISPLAY
1070
     3
  0
ENDTAB
  0
TABLE
  2
LTYPE
  5
C579
330
0
100
AcDbSymbolTable
 70
     4
  0
LTYPE
  5
C587
330
C579
100
AcDbSymbolTableRecord
100
AcDbLinetypeTableRecord
  2
BYBLOCK
 70
     0
  3

 72
    65
 73
     0
 40
0.0
  0
LTYPE
  5
C588
330
C579
100
AcDbSymbolTableRecord
100
AcDbLinetypeTableRecord
  2
BYLAYER
 70
     0
  3

 72
    65
 73
     0
 40
0.0
  0
LTYPE
  5
C589
330
C579
100
AcDbSymbolTableRecord
100
AcDbLinetypeTableRecord
  2
CONTINUOUS
 70
     0
  3
Solid line
 72
    65
 73
     0
 40
0.0
  0
LTYPE
  5
C597
330
C579
100
AcDbSymbolTableRecord
100
AcDbLinetypeTableRecord
  2
DASHED
 70
     0
  3
__ __ __ __ __ __ __ __ __ __ __ __ __ __ __ __
 72
    65
 73
     2
 40
0.75
 49
0.5
 74
     0
 49
-0.25
 74
     0
  0
LTYPE
  5
C598
330
C579
100
AcDbSymbolTableRecord
100
AcDbLinetypeTableRecord
  2
CENTER
 70
     0
  3
____ _ ____ _ ____ _ ____ _ ____ _ ____ _ ____ 
 72
    65
 73
     4
 40
2.0
 49
1.25
 74
     0
 49
-0.25
 74
     0
 49
0.25
 74
     0
 49
-0.25
 74
     0
  0
LTYPE
  5
C599
330
C579
100
AcDbSymbolTableRecord
100
AcDbLinetypeTableRecord
  2
PHANTOM
 70
     0
  3
______  __  __  ______  __  __  ______  __  __ 
 72
    65
 73
     6
 40
2.5
 49
1.25
 74
     0
 49
-0.25
 74
     0
 49
0.25
 74
     0
 49
-0.25
 74
     0
 49
0.25
 74
     0
 49
-0.25
 74
     0
  0
ENDTAB
  0
TABLE
  2
LAYER
  5
C576
330
0
100
AcDbSymbolTable
 70
     8
  0
LAYER
  5
C584
102
{ACAD_XDICTIONARY
360
C798
102
}
330
C576
100
AcDbSymbolTableRecord
100
AcDbLayerTableRecord
  2
0
 70
     0
 62
     7
  6
CONTINUOUS
370
    -3
390
C746
  0
LAYER
  5
C59A
102
{ACAD_XDICTIONARY
360
C79A
102
}
330
C576
100
AcDbSymbolTableRecord
100
AcDbLayerTableRecord
  2
4
 70
     0
 62
     1
  6
CENTER
370
    -3
390
C746
  0
LAYER
  5
C59B
102
{ACAD_XDICTIONARY
360
C79C
102
}
330
C576
100
AcDbSymbolTableRecord
100
AcDbLayerTableRecord
  2
5
 70
     0
 62
     6
  6
PHANTOM
370
    -3
390
C746
  0
LAYER
  5
C59C
102
{ACAD_XDICTIONARY
360
C79E
102
}
330
C576
100
AcDbSymbolTableRecord
100
AcDbLayerTableRecord
  2
1
 70
     0
 62
     7
  6
CONTINUOUS
370
    -3
390
C746
  0
LAYER
  5
C59D
102
{ACAD_XDICTIONARY
360
C7A0
102
}
330
C576
100
AcDbSymbolTableRecord
100
AcDbLayerTableRecord
  2
2
 70
     0
 62
     4
  6
CONTINUOUS
370
    -3
390
C746
  0
LAYER
  5
C59E
102
{ACAD_XDICTIONARY
360
C7A2
102
}
330
C576
100
AcDbSymbolTableRecord
100
AcDbLayerTableRecord
  2
3
 70
     0
 62
     2
  6
DASHED
370
    -3
390
C746
  0
LAYER
  5
C59F
102
{ACAD_XDICTIONARY
360
C7A4
102
}
330
C576
100
AcDbSymbolTableRecord
100
AcDbLayerTableRecord
  2
6
 70
     0
 62
     5
  6
CONTINUOUS
370
    -3
390
C746
  0
LAYER
  5
C5A0
102
{ACAD_XDICTIONARY
360
C7A6
102
}
330
C576
100
AcDbSymbolTableRecord
100
AcDbLayerTableRecord
  2
7
 70
     0
 62
     3
  6
CONTINUOUS
370
    -3
390
C746
  0
ENDTAB
  0
TABLE
  2
STYLE
  5
C577
330
0
100
AcDbSymbolTable
 70
     1
  0
STYLE
  5
C585
330
C577
100
AcDbSymbolTableRecord
100
AcDbTextStyleTableRecord
  2
STANDARD
 70
     0
 40
0.0
 41
1.0
 50
0.0
 71
     0
 42
5.0
  3
txt
  4

  0
ENDTAB
  0
TABLE
  2
VIEW
  5
C57A
330
0
100
AcDbSymbolTable
 70
     0
  0
ENDTAB
  0
TABLE
  2
UCS
  5
C57B
330
0
100
AcDbSymbolTable
 70
     0
  0
ENDTAB
  0
TABLE
  2
APPID
  5
C57D
330
0
100
AcDbSymbolTable
 70
     3
  0
APPID
  5
C586
330
C57D
100
AcDbSymbolTableRecord
100
AcDbRegAppTableRecord
  2
ACAD
 70
     0
  0
APPID
  5
C7B2
330
C57D
100
AcDbSymbolTableRecord
100
AcDbRegAppTableRecord
  2
ACAD_NAV_VCDISPLAY
 70
     0
  0
APPID
  5
C7EB
330
C57D
100
AcDbSymbolTableRecord
100
AcDbRegAppTableRecord
  2
ACAD_MLEADERVER
 70
     0
  0
ENDTAB
  0
TABLE
  2
DIMSTYLE
  5
C57E
330
0
100
AcDbSymbolTable
 70
     1
100
AcDbDimStyleTable
 71
     0
  0
DIMSTYLE
105
C5A2
330
C57E
100
AcDbSymbolTableRecord
100
AcDbDimStyleTableRecord
  2
STANDARD
 70
     0
 41
3.0
 42
1.0
 43
10.0
 44
1.0
 73
     0
 74
     0
 77
     3
 78
     8
140
3.2
141
0.0
147
1.0
172
     1
173
     1
284
     8
285
     8
286
     8
340
C585
  0
ENDTAB
  0
TABLE
  2
BLOCK_RECORD
  5
C575
330
0
100
AcDbSymbolTable
 70
     1
  0
BLOCK_RECORD
  5
C592
102
{ACAD_XDICTIONARY
360
C740
102
}
330
C575
100
AcDbSymbolTableRecord
100
AcDbBlockTableRecord
  2
*MODEL_SPACE
340
C794
  0
BLOCK_RECORD
  5
C58E
102
{ACAD_XDICTIONARY
360
C73E
102
}
330
C575
100
AcDbSymbolTableRecord
100
AcDbBlockTableRecord
  2
*PAPER_SPACE
340
C795
  0
BLOCK_RECORD
  5
C5AA
330
C575
100
AcDbSymbolTableRecord
100
AcDbBlockTableRecord
  2
_OPEN
340
0
  0
ENDTAB
  0
ENDSEC
  0
SECTION
  2
BLOCKS
  0
BLOCK
  5
C593
330
C592
100
AcDbEntity
  8
0
100
AcDbBlockBegin
  2
*MODEL_SPACE
 70
     0
 10
0.0
 20
0.0
 30
0.0
  3
*MODEL_SPACE
  1

  0
ENDBLK
  5
C594
330
C592
100
AcDbEntity
  8
0
100
AcDbBlockEnd
  0
BLOCK
  5
C58F
330
C58E
100
AcDbEntity
 67
     1
  8
0
100
AcDbBlockBegin
  2
*PAPER_SPACE
 70
     0
 10
0.0
 20
0.0
 30
0.0
  3
*PAPER_SPACE
  1

  0
ENDBLK
  5
C590
330
C58E
100
AcDbEntity
 67
     1
  8
0
100
AcDbBlockEnd
  0
BLOCK
  5
C5AB
330
C5AA
100
AcDbEntity
  8
0
100
AcDbBlockBegin
  2
_OPEN
 70
     0
 10
0.0
 20
0.0
 30
0.0
  3
_OPEN
  1

  0
LINE
  5
C5AC
330
C5AA
100
AcDbEntity
  8
0
  6
ByBlock
 62
     0
100
AcDbLine
 10
-1.0
 20
0.166667
 30
0.0
 11
0.0
 21
0.0
 31
0.0
  0
LINE
  5
C5AD
330
C5AA
100
AcDbEntity
  8
0
  6
ByBlock
 62
     0
100
AcDbLine
 10
0.0
 20
0.0
 30
0.0
 11
-1.0
 21
-0.166667
 31
0.0
  0
LINE
  5
C5AE
330
C5AA
100
AcDbEntity
  8
0
  6
ByBlock
 62
     0
100
AcDbLine
 10
0.0
 20
0.0
 30
0.0
 11
-1.0
 21
0.0
 31
0.0
  0
ENDBLK
  5
C5AF
330
C5AA
100
AcDbEntity
  8
0
100
AcDbBlockEnd
  0
ENDSEC
  0
SECTION
  2
ENTITIES
  0
TEXT
  5
C5B0
330
C592
100
AcDbEntity
  8
7
  6
Continuous
100
AcDbText
 10
10.0
 20
18.0
 30
0.0
 40
3.0
  1
TYPE No.605HB2-EP
100
AcDbText
  0
TEXT
  5
C5B1
330
C592
100
AcDbEntity
  8
7
  6
Continuous
100
AcDbText
 10
10.0
 20
26.0
 30
0.0
 40
3.0
  1
CODE No.19088
100
AcDbText
  0
TEXT
  5
C5B2
330
C592
100
AcDbEntity
  8
1
  6
Continuous
100
AcDbText
 10
10.0
 20
10.0
 30
0.0
 40
1.399999999999999
  1
LAYER
100
AcDbText
  0
TEXT
  5
C5B3
330
C592
100
AcDbEntity
  8
1
  6
Continuous
100
AcDbText
 10
17.97951099999998
 20
10.04873699999998
 30
0.0
 40
1.399999999999999
  1
1
100
AcDbText
  0
TEXT
  5
C5B4
330
C592
100
AcDbEntity
  8
7
  6
Continuous
100
AcDbText
 10
29.97951099999999
 20
10.04873699999998
 30
0.0
 40
1.399999999999999
  1
7
100
AcDbText
  0
TEXT
  5
C5B5
330
C592
100
AcDbEntity
  8
4
  6
CENTER
100
AcDbText
 10
23.97951099999999
 20
10.04873699999998
 30
0.0
 40
1.399999999999999
  1
4
100
AcDbText
  0
TEXT
  5
C5B6
330
C592
100
AcDbEntity
  8
3
  6
DASHED
100
AcDbText
 10
21.979511
 20
10.04873699999998
 30
0.0
 40
1.399999999999999
  1
3
100
AcDbText
  0
TEXT
  5
C5B7
330
C592
100
AcDbEntity
  8
2
  6
Continuous
100
AcDbText
 10
19.97951099999999
 20
10.04873699999998
 30
0.0
 40
1.399999999999999
  1
2
100
AcDbText
  0
TEXT
  5
C5B8
330
C592
100
AcDbEntity
  8
6
  6
Continuous
100
AcDbText
 10
27.979511
 20
10.04873699999998
 30
0.0
 40
1.399999999999999
  1
6
100
AcDbText
  0
TEXT
  5
C5B9
330
C592
100
AcDbEntity
  8
5
  6
PHANTOM
100
AcDbText
 10
25.97951099999999
 20
10.04873699999998
 30
0.0
 40
1.399999999999999
  1
5
100
AcDbText
  0
ARC
  5
C5BA
330
C592
100
AcDbEntity
  8
1
  6
Continuous
100
AcDbCircle
 10
208.2251779999999
 20
199.171712
 30
0.0
 40
32.5
100
AcDbArc
 50
139.235422
 51
40.764578
  0
LINE
  5
C5BB
330
C592
100
AcDbEntity
  8
1
  6
Continuous
100
AcDbLine
 10
152.7252729999998
 20
258.671712
 30
0.0
 11
263.725273
 21
258.671712
 31
0.0
  0
LINE
  5
C5BC
330
C592
100
AcDbEntity
  8
1
  6
Continuous
100
AcDbLine
 10
192.448844
 20
191.238775
 30
0.0
 11
172.895779
 21
255.6665589999998
 31
0.0
  0
LINE
  5
C5BD
330
C592
100
AcDbEntity
  8
1
  6
Continuous
100
AcDbLine
 10
224.0015119999999
 20
191.238775
 30
0.0
 11
243.554577
 21
255.6665589999998
 31
0.0
  0
ARC
  5
C5BE
330
C592
100
AcDbEntity
  8
1
  6
Continuous
100
AcDbCircle
 10
208.2251779999999
 20
196.0717119999999
 30
0.0
 40
16.5
100
AcDbArc
 50
197.0319719999999
 51
342.9680279999999
  0
ARC
  5
C5BF
330
C592
100
AcDbEntity
  8
1
  6
Continuous
100
AcDbCircle
 10
170.2752139999998
 20
252.271712
 30
0.0
 40
3.5
100
AcDbArc
 50
17.03197199999999
 51
90.0
  0
ARC
  5
C5C0
330
C592
100
AcDbEntity
  8
1
  6
Continuous
100
AcDbCircle
 10
246.175142
 20
252.271712
 30
0.0
 40
3.5
100
AcDbArc
 50
90.0
 51
162.968028
  0
ARC
  5
C5C1
330
C592
100
AcDbEntity
  8
1
  6
Continuous
100
AcDbCircle
 10
168.832178
 20
254.421712
 30
0.0
 40
4.25
100
AcDbArc
 50
17.03197199999999
 51
90.0
  0
ARC
  5
C5C2
330
C592
100
AcDbEntity
  8
1
  6
Continuous
100
AcDbCircle
 10
247.6181779999998
 20
254.421712
 30
0.0
 40
4.25
100
AcDbArc
 50
90.0
 51
162.968028
  0
LINE
  5
C5C3
330
C592
100
AcDbEntity
  8
1
  6
Continuous
100
AcDbLine
 10
152.7252729999998
 20
255.7717119999999
 30
0.0
 11
170.2752139999998
 21
255.7717119999999
 31
0.0
  0
LINE
  5
C5C4
330
C592
100
AcDbEntity
  8
1
  6
Continuous
100
AcDbLine
 10
246.175142
 20
255.7717119999999
 30
0.0
 11
263.725273
 21
255.7717119999999
 31
0.0
  0
LINE
  5
C5C5
330
C592
100
AcDbEntity
  8
1
  6
Continuous
100
AcDbLine
 10
263.725273
 20
255.7717119999999
 30
0.0
 11
263.725273
 21
258.671712
 31
0.0
  0
LINE
  5
C5C6
330
C592
100
AcDbEntity
  8
1
  6
Continuous
100
AcDbLine
 10
152.7252729999998
 20
255.7717119999999
 30
0.0
 11
152.7252729999998
 21
258.671712
 31
0.0
  0
LINE
  5
C5C7
330
C592
100
AcDbEntity
  8
1
  6
Continuous
100
AcDbLine
 10
195.1128389999998
 20
372.5435319999998
 30
0.0
 11
221.3377069999999
 21
372.5435319999998
 31
0.0
  0
ARC
  5
C5C8
330
C592
100
AcDbEntity
  8
1
  6
Continuous
100
AcDbCircle
 10
221.3377069999999
 20
379.0435319999998
 30
0.0
 40
6.5
100
AcDbArc
 50
270.0
 51
327.953169
  0
ARC
  5
C5C9
330
C592
100
AcDbEntity
  8
1
  6
Continuous
100
AcDbCircle
 10
242.1042669999999
 20
366.0435319999999
 30
0.0
 40
18.0
100
AcDbArc
 50
83.98580200000003
 51
147.9531689999998
  0
CIRCLE
  5
C5CA
330
C592
100
AcDbEntity
  8
1
  6
Continuous
100
AcDbCircle
 10
253.725273
 20
372.0435319999999
 30
0.0
 40
5.25
  0
ARC
  5
C5CB
330
C592
100
AcDbEntity
  8
1
  6
Continuous
100
AcDbCircle
 10
248.382059
 20
385.8185009999999
 30
0.0
 40
4.774968999999998
100
AcDbArc
 50
203.1083989999999
 51
291.200925
  0
ARC
  5
C5CC
330
C592
100
AcDbEntity
  8
1
  6
Continuous
100
AcDbCircle
 10
253.725273
 20
372.0435319999999
 30
0.0
 40
10.0
100
AcDbArc
 50
0.0
 51
111.200925
  0
LINE
  5
C5CD
330
C592
100
AcDbEntity
  8
1
  6
Continuous
100
AcDbLine
 10
263.725273
 20
325.0435319999999
 30
0.0
 11
263.725273
 21
372.0435319999999
 31
0.0
  0
LINE
  5
C5CE
330
C592
100
AcDbEntity
  8
1
  6
Continuous
100
AcDbLine
 10
195.1128389999998
 20
324.5435319999999
 30
0.0
 11
221.3377069999999
 21
324.5435319999999
 31
0.0
  0
ARC
  5
C5CF
330
C592
100
AcDbEntity
  8
1
  6
Continuous
100
AcDbCircle
 10
221.3377069999999
 20
318.0435319999999
 30
0.0
 40
6.5
100
AcDbArc
 50
32.046831
 51
90.0
  0
ARC
  5
C5D0
330
C592
100
AcDbEntity
  8
1
  6
Continuous
100
AcDbCircle
 10
242.1042669999999
 20
331.0435319999999
 30
0.0
 40
18.0
100
AcDbArc
 50
212.046831
 51
276.014198
  0
CIRCLE
  5
C5D1
330
C592
100
AcDbEntity
  8
1
  6
Continuous
100
AcDbCircle
 10
253.725273
 20
325.0435319999999
 30
0.0
 40
5.25
  0
ARC
  5
C5D2
330
C592
100
AcDbEntity
  8
1
  6
Continuous
100
AcDbCircle
 10
248.382059
 20
311.268564
 30
0.0
 40
4.774968999999998
100
AcDbArc
 50
68.799075
 51
156.891601
  0
ARC
  5
C5D3
330
C592
100
AcDbEntity
  8
1
  6
Continuous
100
AcDbCircle
 10
253.725273
 20
325.0435319999999
 30
0.0
 40
10.0
100
AcDbArc
 50
248.7990749999999
 51
0.0
  0
LINE
  5
C5D4
330
C592
100
AcDbEntity
  8
1
  6
Continuous
100
AcDbLine
 10
152.7252729999998
 20
325.0435319999999
 30
0.0
 11
152.7252729999998
 21
372.0435319999999
 31
0.0
  0
ARC
  5
C5D5
330
C592
100
AcDbEntity
  8
1
  6
Continuous
100
AcDbCircle
 10
195.1128389999998
 20
318.0435319999999
 30
0.0
 40
6.5
100
AcDbArc
 50
90.0
 51
147.9531689999998
  0
ARC
  5
C5D6
330
C592
100
AcDbEntity
  8
1
  6
Continuous
100
AcDbCircle
 10
174.34628
 20
331.0435319999999
 30
0.0
 40
18.0
100
AcDbArc
 50
263.985802
 51
327.953169
  0
CIRCLE
  5
C5D7
330
C592
100
AcDbEntity
  8
1
  6
Continuous
100
AcDbCircle
 10
162.7252729999999
 20
325.0435319999999
 30
0.0
 40
5.25
  0
ARC
  5
C5D8
330
C592
100
AcDbEntity
  8
1
  6
Continuous
100
AcDbCircle
 10
168.068487
 20
311.268564
 30
0.0
 40
4.774968999999998
100
AcDbArc
 50
23.108399
 51
111.200925
  0
ARC
  5
C5D9
330
C592
100
AcDbEntity
  8
1
  6
Continuous
100
AcDbCircle
 10
162.7252729999999
 20
325.0435319999999
 30
0.0
 40
10.0
100
AcDbArc
 50
180.0
 51
291.200925
  0
ARC
  5
C5DA
330
C592
100
AcDbEntity
  8
1
  6
Continuous
100
AcDbCircle
 10
195.1128389999998
 20
379.0435319999998
 30
0.0
 40
6.5
100
AcDbArc
 50
212.046831
 51
270.0
  0
ARC
  5
C5DB
330
C592
100
AcDbEntity
  8
1
  6
Continuous
100
AcDbCircle
 10
174.34628
 20
366.0435319999999
 30
0.0
 40
18.0
100
AcDbArc
 50
32.046831
 51
96.014198
  0
CIRCLE
  5
C5DC
330
C592
100
AcDbEntity
  8
1
  6
Continuous
100
AcDbCircle
 10
162.7252729999999
 20
372.0435319999999
 30
0.0
 40
5.25
  0
ARC
  5
C5DD
330
C592
100
AcDbEntity
  8
1
  6
Continuous
100
AcDbCircle
 10
168.068487
 20
385.8185009999999
 30
0.0
 40
4.774968999999998
100
AcDbArc
 50
248.7990749999999
 51
336.8916009999999
  0
ARC
  5
C5DE
330
C592
100
AcDbEntity
  8
1
  6
Continuous
100
AcDbCircle
 10
162.7252729999999
 20
372.0435319999999
 30
0.0
 40
10.0
100
AcDbArc
 50
68.799075
 51
180.0
  0
LINE
  5
C5DF
330
C592
100
AcDbEntity
  8
1
  6
Continuous
100
AcDbLine
 10
198.225178
 20
258.671712
 30
0.0
 11
198.225178
 21
183.2473069999998
 31
0.0
  0
LINE
  5
C5E0
330
C592
100
AcDbEntity
  8
1
  6
Continuous
100
AcDbLine
 10
218.2251779999998
 20
258.671712
 30
0.0
 11
218.2251779999998
 21
183.2473069999998
 31
0.0
  0
LINE
  5
C5E1
330
C592
100
AcDbEntity
  8
4
  6
CENTER
100
AcDbLine
 10
162.7251779999998
 20
261.62337
 30
0.0
 11
162.7251779999998
 21
252.450927
 31
0.0
  0
LINE
  5
C5E2
330
C592
100
AcDbEntity
  8
4
  6
CENTER
100
AcDbLine
 10
253.7251779999998
 20
261.62337
 30
0.0
 11
253.7251779999998
 21
252.450927
 31
0.0
  0
LINE
  5
C5E3
330
C592
100
AcDbEntity
  8
4
  6
CENTER
100
AcDbLine
 10
172.725178
 20
199.171712
 30
0.0
 11
243.7251779999999
 21
199.171712
 31
0.0
  0
LINE
  5
C5E4
330
C592
100
AcDbEntity
  8
4
  6
CENTER
100
AcDbLine
 10
208.2251779999999
 20
163.671712
 30
0.0
 11
208.2251779999999
 21
263.0388389999998
 31
0.0
  0
LINE
  5
C5E5
330
C592
100
AcDbEntity
  8
4
  6
CENTER
100
AcDbLine
 10
208.2252729999999
 20
312.174052
 30
0.0
 11
208.2252729999999
 21
387.345532
 31
0.0
  0
LINE
  5
C5E6
330
C592
100
AcDbEntity
  8
4
  6
CENTER
100
AcDbLine
 10
154.304543
 20
372.0435319999999
 30
0.0
 11
172.3726429999999
 21
372.0435319999999
 31
0.0
  0
LINE
  5
C5E7
330
C592
100
AcDbEntity
  8
4
  6
CENTER
100
AcDbLine
 10
162.7252729999999
 20
362.9087249999998
 30
0.0
 11
162.7252729999999
 21
380.5606639999999
 31
0.0
  0
LINE
  5
C5E8
330
C592
100
AcDbEntity
  8
4
  6
CENTER
100
AcDbLine
 10
262.146004
 20
372.0435319999999
 30
0.0
 11
244.0779039999999
 21
372.0435319999999
 31
0.0
  0
LINE
  5
C5E9
330
C592
100
AcDbEntity
  8
4
  6
CENTER
100
AcDbLine
 10
253.725273
 20
362.9087249999998
 30
0.0
 11
253.725273
 21
380.5606639999999
 31
0.0
  0
LINE
  5
C5EA
330
C592
100
AcDbEntity
  8
4
  6
CENTER
100
AcDbLine
 10
154.304543
 20
325.0435319999999
 30
0.0
 11
172.3726429999999
 21
325.0435319999999
 31
0.0
  0
LINE
  5
C5EB
330
C592
100
AcDbEntity
  8
4
  6
CENTER
100
AcDbLine
 10
162.7252729999999
 20
334.17834
 30
0.0
 11
162.7252729999999
 21
316.5264
 31
0.0
  0
LINE
  5
C5EC
330
C592
100
AcDbEntity
  8
4
  6
CENTER
100
AcDbLine
 10
262.146004
 20
325.0435319999999
 30
0.0
 11
244.0779039999999
 21
325.0435319999999
 31
0.0
  0
LINE
  5
C5ED
330
C592
100
AcDbEntity
  8
4
  6
CENTER
100
AcDbLine
 10
253.725273
 20
334.17834
 30
0.0
 11
253.725273
 21
316.5264
 31
0.0
  0
LINE
  5
C5EE
330
C592
100
AcDbEntity
  8
4
  6
CENTER
100
AcDbLine
 10
149.7252729999999
 20
348.5435319999999
 30
0.0
 11
266.725273
 21
348.5435319999999
 31
0.0
  0
LINE
  5
C5EF
330
C592
100
AcDbEntity
  8
4
  6
CENTER
100
AcDbLine
 10
60.49995500000001
 20
263.0388389999998
 30
0.0
 11
60.49995500000001
 21
161.905621
 31
0.0
  0
LINE
  5
C5F0
330
C592
100
AcDbEntity
  8
1
  6
Continuous
100
AcDbLine
 10
81.59995499999999
 20
253.771746
 30
0.0
 11
81.59995499999999
 21
179.8717459999998
 31
0.0
  0
ARC
  5
C5F1
330
C592
100
AcDbEntity
  8
1
  6
Continuous
100
AcDbCircle
 10
-974.280899
 20
253.981798
 30
0.0
 40
1070.280853999999
100
AcDbArc
 50
358.180786
 51
359.9833240000001
  0
ARC
  5
C5F2
330
C592
100
AcDbEntity
  8
1
  6
Continuous
100
AcDbCircle
 10
-974.280899
 20
253.981798
 30
0.0
 40
1067.380854
100
AcDbArc
 50
358.180786
 51
359.9833240000001
  0
ARC
  5
C5F3
330
C592
100
AcDbEntity
  8
1
  6
Continuous
100
AcDbCircle
 10
1095.280809
 20
253.981798
 30
0.0
 40
1067.380854
100
AcDbArc
 50
180.016676
 51
181.8192139999999
  0
ARC
  5
C5F4
330
C592
100
AcDbEntity
  8
1
  6
Continuous
100
AcDbCircle
 10
1095.280809
 20
253.981798
 30
0.0
 40
1070.280853999999
100
AcDbArc
 50
180.016676
 51
181.8192139999999
  0
LINE
  5
C5F5
330
C592
100
AcDbEntity
  8
1
  6
Continuous
100
AcDbLine
 10
39.399955
 20
253.771746
 30
0.0
 11
39.399955
 21
179.8717459999998
 31
0.0
  0
LINE
  5
C5F6
330
C592
100
AcDbEntity
  8
4
  6
CENTER
100
AcDbLine
 10
98.69995500000001
 20
199.1717459999999
 30
0.0
 11
21.997955
 21
199.1717459999999
 31
0.0
  0
ARC
  5
C5F7
330
C592
100
AcDbEntity
  8
1
  6
Continuous
100
AcDbCircle
 10
6.06453
 20
222.8560939999999
 30
0.0
 40
89.44143399999999
100
AcDbArc
 50
331.2762839999999
 51
358.1731159999998
  0
ARC
  5
C5F8
330
C592
100
AcDbEntity
  8
1
  6
Continuous
100
AcDbCircle
 10
6.06453
 20
222.8560939999999
 30
0.0
 40
86.54143399999998
100
AcDbArc
 50
331.2762839999999
 51
358.1731159999998
  0
ARC
  5
C5F9
330
C592
100
AcDbEntity
  8
1
  6
Continuous
100
AcDbCircle
 10
84.49995499999998
 20
179.8717459999998
 30
0.0
 40
2.9
100
AcDbArc
 50
151.276284
 51
180.0
  0
LINE
  5
C5FA
330
C592
100
AcDbEntity
  8
1
  6
Continuous
100
AcDbLine
 10
84.49995499999998
 20
179.8717459999998
 30
0.0
 11
81.59995499999999
 21
179.8717459999998
 31
0.0
  0
ARC
  5
C5FB
330
C592
100
AcDbEntity
  8
1
  6
Continuous
100
AcDbCircle
 10
114.9353799999999
 20
222.8560939999999
 30
0.0
 40
86.54143399999998
100
AcDbArc
 50
181.8268839999998
 51
208.7237159999999
  0
ARC
  5
C5FC
330
C592
100
AcDbEntity
  8
1
  6
Continuous
100
AcDbCircle
 10
114.9353799999999
 20
222.8560939999999
 30
0.0
 40
89.44143399999999
100
AcDbArc
 50
181.8268839999998
 51
208.7237159999999
  0
ARC
  5
C5FD
330
C592
100
AcDbEntity
  8
1
  6
Continuous
100
AcDbCircle
 10
36.499955
 20
179.8717459999998
 30
0.0
 40
2.9
100
AcDbArc
 50
0.0
 51
28.72371599999999
  0
LINE
  5
C5FE
330
C592
100
AcDbEntity
  8
1
  6
Continuous
100
AcDbLine
 10
36.499955
 20
179.8717459999998
 30
0.0
 11
39.399955
 21
179.8717459999998
 31
0.0
  0
LINE
  5
C5FF
330
C592
100
AcDbEntity
  8
1
  6
Continuous
100
AcDbLine
 10
93.99995500000001
 20
258.671746
 30
0.0
 11
26.99995499999999
 21
258.671746
 31
0.0
  0
LINE
  5
C600
330
C592
100
AcDbEntity
  8
1
  6
Continuous
100
AcDbLine
 10
93.99995500000001
 20
255.771746
 30
0.0
 11
26.99995499999999
 21
255.771746
 31
0.0
  0
ARC
  5
C601
330
C592
100
AcDbEntity
  8
1
  6
Continuous
100
AcDbCircle
 10
90.99991000000001
 20
253.6717459999999
 30
0.0
 40
2.1
100
AcDbArc
 50
359.9833240000001
 51
90.0
  0
ARC
  5
C602
330
C592
100
AcDbEntity
  8
1
  6
Continuous
100
AcDbCircle
 10
90.99991000000001
 20
253.6717459999999
 30
0.0
 40
5.0
100
AcDbArc
 50
359.9833240000001
 51
53.12945600000001
  0
LINE
  5
C603
330
C592
100
AcDbEntity
  8
1
  6
Continuous
100
AcDbLine
 10
93.99995500000001
 20
258.671746
 30
0.0
 11
93.99995500000001
 21
255.771746
 31
0.0
  0
ARC
  5
C604
330
C592
100
AcDbEntity
  8
1
  6
Continuous
100
AcDbCircle
 10
79.59995499999998
 20
253.771746
 30
0.0
 40
2.0
100
AcDbArc
 50
0.0
 51
90.0
  0
LINE
  5
C605
330
C592
100
AcDbEntity
  8
4
  6
CENTER
100
AcDbLine
 10
83.99995500000001
 20
261.3724439999999
 30
0.0
 11
83.99995500000001
 21
253.051468
 31
0.0
  0
ARC
  5
C606
330
C592
100
AcDbEntity
  8
1
  6
Continuous
100
AcDbCircle
 10
30.0
 20
253.6717459999999
 30
0.0
 40
2.1
100
AcDbArc
 50
90.0
 51
180.016676
  0
ARC
  5
C607
330
C592
100
AcDbEntity
  8
1
  6
Continuous
100
AcDbCircle
 10
41.399955
 20
253.771746
 30
0.0
 40
2.0
100
AcDbArc
 50
90.0
 51
180.0
  0
LINE
  5
C608
330
C592
100
AcDbEntity
  8
4
  6
CENTER
100
AcDbLine
 10
36.99995499999999
 20
261.3724439999999
 30
0.0
 11
36.99995499999999
 21
253.051468
 31
0.0
  0
ARC
  5
C609
330
C592
100
AcDbEntity
  8
1
  6
Continuous
100
AcDbCircle
 10
30.0
 20
253.6717459999999
 30
0.0
 40
5.0
100
AcDbArc
 50
126.8705439999999
 51
180.016676
  0
LINE
  5
C60A
330
C592
100
AcDbEntity
  8
1
  6
Continuous
100
AcDbLine
 10
26.99995499999999
 20
258.671746
 30
0.0
 11
26.99995499999999
 21
255.771746
 31
0.0
  0
LINE
  5
C60B
330
C592
100
AcDbEntity
  8
4
  6
CENTER
100
AcDbLine
 10
539.1756239999998
 20
199.171712
 30
0.0
 11
468.175624
 21
199.171712
 31
0.0
  0
LINE
  5
C60C
330
C592
100
AcDbEntity
  8
1
  6
Continuous
100
AcDbLine
 10
519.4519579999998
 20
191.238775
 30
0.0
 11
539.005023
 21
255.6665589999998
 31
0.0
  0
LINE
  5
C60D
330
C592
100
AcDbEntity
  8
1
  6
Continuous
100
AcDbLine
 10
559.175529
 20
258.671712
 30
0.0
 11
448.1755289999998
 21
258.671712
 31
0.0
  0
LINE
  5
C60E
330
C592
100
AcDbEntity
  8
1
  6
Continuous
100
AcDbLine
 10
559.175529
 20
255.7717119999999
 30
0.0
 11
541.625588
 21
255.7717119999999
 31
0.0
  0
LINE
  5
C60F
330
C592
100
AcDbEntity
  8
4
  6
CENTER
100
AcDbLine
 10
549.1756239999999
 20
261.62337
 30
0.0
 11
549.1756239999999
 21
252.450927
 31
0.0
  0
LINE
  5
C610
330
C592
100
AcDbEntity
  8
1
  6
Continuous
100
AcDbLine
 10
559.175529
 20
255.7717119999999
 30
0.0
 11
559.175529
 21
258.671712
 31
0.0
  0
ARC
  5
C611
330
C592
100
AcDbEntity
  8
1
  6
Continuous
100
AcDbCircle
 10
543.0686239999999
 20
254.421712
 30
0.0
 40
4.25
100
AcDbArc
 50
90.0
 51
162.968028
  0
ARC
  5
C612
330
C592
100
AcDbEntity
  8
1
  6
Continuous
100
AcDbCircle
 10
541.625588
 20
252.271712
 30
0.0
 40
3.5
100
AcDbArc
 50
90.0
 51
162.968028
  0
LINE
  5
C613
330
C592
100
AcDbEntity
  8
4
  6
CENTER
100
AcDbLine
 10
503.675624
 20
163.671712
 30
0.0
 11
503.675624
 21
263.0388389999998
 31
0.0
  0
LINE
  5
C614
330
C592
100
AcDbEntity
  8
1
  6
Continuous
100
AcDbLine
 10
493.675624
 20
258.671712
 30
0.0
 11
493.675624
 21
202.373274
 31
0.0
  0
LINE
  5
C615
330
C592
100
AcDbEntity
  8
1
  6
Continuous
100
AcDbLine
 10
513.6756239999998
 20
258.671712
 30
0.0
 11
513.6756239999998
 21
202.373274
 31
0.0
  0
LINE
  5
C616
330
C592
100
AcDbEntity
  8
1
  6
Continuous
100
AcDbLine
 10
487.89929
 20
191.238775
 30
0.0
 11
468.3462249999998
 21
255.6665589999998
 31
0.0
  0
ARC
  5
C617
330
C592
100
AcDbEntity
  8
1
  6
Continuous
100
AcDbCircle
 10
503.675624
 20
196.0717119999999
 30
0.0
 40
16.5
100
AcDbArc
 50
197.0319719999999
 51
342.9680279999999
  0
ARC
  5
C618
330
C592
100
AcDbEntity
  8
1
  6
Continuous
100
AcDbCircle
 10
464.2826239999997
 20
254.421712
 30
0.0
 40
4.25
100
AcDbArc
 50
17.03197199999999
 51
90.0
  0
ARC
  5
C619
330
C592
100
AcDbEntity
  8
1
  6
Continuous
100
AcDbCircle
 10
465.7256599999998
 20
252.271712
 30
0.0
 40
3.5
100
AcDbArc
 50
17.03197199999999
 51
90.0
  0
LINE
  5
C61A
330
C592
100
AcDbEntity
  8
1
  6
Continuous
100
AcDbLine
 10
465.7256599999998
 20
255.7717119999999
 30
0.0
 11
448.1755289999998
 21
255.7717119999999
 31
0.0
  0
LINE
  5
C61B
330
C592
100
AcDbEntity
  8
4
  6
CENTER
100
AcDbLine
 10
458.175624
 20
261.62337
 30
0.0
 11
458.175624
 21
252.450927
 31
0.0
  0
LINE
  5
C61C
330
C592
100
AcDbEntity
  8
1
  6
Continuous
100
AcDbLine
 10
448.1755289999998
 20
255.7717119999999
 30
0.0
 11
448.1755289999998
 21
258.671712
 31
0.0
  0
LINE
  5
C61D
330
C592
100
AcDbEntity
  8
1
  6
Continuous
100
AcDbLine
 10
513.6756239999998
 20
195.9701499999999
 30
0.0
 11
513.6756239999998
 21
183.2473069999998
 31
0.0
  0
LINE
  5
C61E
330
C592
100
AcDbEntity
  8
1
  6
Continuous
100
AcDbLine
 10
493.675624
 20
195.9701499999999
 30
0.0
 11
493.675624
 21
183.2473069999998
 31
0.0
  0
LINE
  5
C61F
330
C592
100
AcDbEntity
  8
4
  6
CENTER
100
AcDbLine
 10
208.2252729999999
 20
113.394053
 30
0.0
 11
208.2252729999999
 21
37.598928
 31
0.0
  0
LINE
  5
C620
330
C592
100
AcDbEntity
  8
1
  6
Continuous
100
AcDbLine
 10
152.7252729999998
 20
99.90092799999999
 30
0.0
 11
152.7252729999998
 21
52.900928
 31
0.0
  0
LINE
  5
C621
330
C592
100
AcDbEntity
  8
1
  6
Continuous
100
AcDbLine
 10
263.725273
 20
99.90092799999999
 30
0.0
 11
263.725273
 21
52.900928
 31
0.0
  0
ARC
  5
C622
330
C592
100
AcDbEntity
  8
1
  6
Continuous
100
AcDbCircle
 10
174.34628
 20
93.90092799999999
 30
0.0
 40
18.0
100
AcDbArc
 50
32.046831
 51
96.014198
  0
LINE
  5
C623
330
C592
100
AcDbEntity
  8
4
  6
CENTER
100
AcDbLine
 10
162.7252729999999
 20
90.76612
 30
0.0
 11
162.7252729999999
 21
108.41806
 31
0.0
  0
ARC
  5
C624
330
C592
100
AcDbEntity
  8
1
  6
Continuous
100
AcDbCircle
 10
162.7252729999999
 20
99.90092799999999
 30
0.0
 40
10.0
100
AcDbArc
 50
68.799075
 51
180.0
  0
ARC
  5
C625
330
C592
100
AcDbEntity
  8
1
  6
Continuous
100
AcDbCircle
 10
168.068487
 20
113.6758959999999
 30
0.0
 40
4.774968999999998
100
AcDbArc
 50
248.7990749999999
 51
336.8916009999999
  0
LINE
  5
C626
330
C592
100
AcDbEntity
  8
4
  6
CENTER
100
AcDbLine
 10
154.304543
 20
99.90092799999999
 30
0.0
 11
172.3726429999999
 21
99.90092799999999
 31
0.0
  0
CIRCLE
  5
C627
330
C592
100
AcDbEntity
  8
1
  6
Continuous
100
AcDbCircle
 10
162.7252729999999
 20
99.90092799999999
 30
0.0
 40
5.25
  0
LINE
  5
C628
330
C592
100
AcDbEntity
  8
4
  6
CENTER
100
AcDbLine
 10
262.146004
 20
99.90092799999999
 30
0.0
 11
244.0779039999999
 21
99.90092799999999
 31
0.0
  0
ARC
  5
C629
330
C592
100
AcDbEntity
  8
1
  6
Continuous
100
AcDbCircle
 10
248.382059
 20
113.6758959999999
 30
0.0
 40
4.774968999999998
100
AcDbArc
 50
203.1083989999999
 51
291.200925
  0
LINE
  5
C62A
330
C592
100
AcDbEntity
  8
1
  6
Continuous
100
AcDbLine
 10
195.1128389999998
 20
100.400928
 30
0.0
 11
221.3377069999999
 21
100.400928
 31
0.0
  0
ARC
  5
C62B
330
C592
100
AcDbEntity
  8
1
  6
Continuous
100
AcDbCircle
 10
195.1128389999998
 20
106.9009279999999
 30
0.0
 40
6.5
100
AcDbArc
 50
212.046831
 51
270.0
  0
ARC
  5
C62C
330
C592
100
AcDbEntity
  8
1
  6
Continuous
100
AcDbCircle
 10
242.1042669999999
 20
93.90092799999999
 30
0.0
 40
18.0
100
AcDbArc
 50
83.98580200000003
 51
147.9531689999998
  0
ARC
  5
C62D
330
C592
100
AcDbEntity
  8
1
  6
Continuous
100
AcDbCircle
 10
221.3377069999999
 20
106.9009279999999
 30
0.0
 40
6.5
100
AcDbArc
 50
270.0
 51
327.953169
  0
LINE
  5
C62E
330
C592
100
AcDbEntity
  8
4
  6
CENTER
100
AcDbLine
 10
253.725273
 20
90.76612
 30
0.0
 11
253.725273
 21
108.41806
 31
0.0
  0
ARC
  5
C62F
330
C592
100
AcDbEntity
  8
1
  6
Continuous
100
AcDbCircle
 10
253.725273
 20
99.90092799999999
 30
0.0
 40
10.0
100
AcDbArc
 50
0.0
 51
111.200925
  0
CIRCLE
  5
C630
330
C592
100
AcDbEntity
  8
1
  6
Continuous
100
AcDbCircle
 10
253.725273
 20
99.90092799999999
 30
0.0
 40
5.25
  0
LINE
  5
C631
330
C592
100
AcDbEntity
  8
4
  6
CENTER
100
AcDbLine
 10
149.7252729999999
 20
76.40092799999997
 30
0.0
 11
266.725273
 21
76.40092799999997
 31
0.0
  0
ARC
  5
C632
330
C592
100
AcDbEntity
  8
1
  6
Continuous
100
AcDbCircle
 10
174.34628
 20
58.900928
 30
0.0
 40
18.0
100
AcDbArc
 50
263.985802
 51
327.953169
  0
ARC
  5
C633
330
C592
100
AcDbEntity
  8
1
  6
Continuous
100
AcDbCircle
 10
162.7252729999999
 20
52.900928
 30
0.0
 40
10.0
100
AcDbArc
 50
180.0
 51
291.200925
  0
ARC
  5
C634
330
C592
100
AcDbEntity
  8
1
  6
Continuous
100
AcDbCircle
 10
168.068487
 20
39.125959
 30
0.0
 40
4.774968999999998
100
AcDbArc
 50
23.108399
 51
111.200925
  0
LINE
  5
C635
330
C592
100
AcDbEntity
  8
4
  6
CENTER
100
AcDbLine
 10
154.304543
 20
52.900928
 30
0.0
 11
172.3726429999999
 21
52.900928
 31
0.0
  0
CIRCLE
  5
C636
330
C592
100
AcDbEntity
  8
1
  6
Continuous
100
AcDbCircle
 10
162.7252729999999
 20
52.900928
 30
0.0
 40
5.25
  0
LINE
  5
C637
330
C592
100
AcDbEntity
  8
4
  6
CENTER
100
AcDbLine
 10
162.7252729999999
 20
62.035735
 30
0.0
 11
162.7252729999999
 21
44.383796
 31
0.0
  0
LINE
  5
C638
330
C592
100
AcDbEntity
  8
4
  6
CENTER
100
AcDbLine
 10
262.146004
 20
52.900928
 30
0.0
 11
244.0779039999999
 21
52.900928
 31
0.0
  0
ARC
  5
C639
330
C592
100
AcDbEntity
  8
1
  6
Continuous
100
AcDbCircle
 10
248.382059
 20
39.125959
 30
0.0
 40
4.774968999999998
100
AcDbArc
 50
68.799075
 51
156.891601
  0
ARC
  5
C63A
330
C592
100
AcDbEntity
  8
1
  6
Continuous
100
AcDbCircle
 10
242.1042669999999
 20
58.900928
 30
0.0
 40
18.0
100
AcDbArc
 50
212.046831
 51
276.014198
  0
LINE
  5
C63B
330
C592
100
AcDbEntity
  8
1
  6
Continuous
100
AcDbLine
 10
195.1128389999998
 20
52.400928
 30
0.0
 11
221.3377069999999
 21
52.400928
 31
0.0
  0
ARC
  5
C63C
330
C592
100
AcDbEntity
  8
1
  6
Continuous
100
AcDbCircle
 10
195.1128389999998
 20
45.90092799999999
 30
0.0
 40
6.5
100
AcDbArc
 50
90.0
 51
147.9531689999998
  0
ARC
  5
C63D
330
C592
100
AcDbEntity
  8
1
  6
Continuous
100
AcDbCircle
 10
221.3377069999999
 20
45.90092799999999
 30
0.0
 40
6.5
100
AcDbArc
 50
32.046831
 51
90.0
  0
ARC
  5
C63E
330
C592
100
AcDbEntity
  8
1
  6
Continuous
100
AcDbCircle
 10
253.725273
 20
52.900928
 30
0.0
 40
10.0
100
AcDbArc
 50
248.7990749999999
 51
0.0
  0
LINE
  5
C63F
330
C592
100
AcDbEntity
  8
4
  6
CENTER
100
AcDbLine
 10
253.725273
 20
62.035735
 30
0.0
 11
253.725273
 21
44.383796
 31
0.0
  0
CIRCLE
  5
C640
330
C592
100
AcDbEntity
  8
1
  6
Continuous
100
AcDbCircle
 10
253.725273
 20
52.900928
 30
0.0
 40
5.25
  0
LINE
  5
C641
330
C592
100
AcDbEntity
  8
1
  6
Continuous
100
AcDbLine
 10
195.1128389999998
 20
97.500928
 30
0.0
 11
221.3377069999999
 21
97.500928
 31
0.0
  0
ARC
  5
C642
330
C592
100
AcDbEntity
  8
1
  6
Continuous
100
AcDbCircle
 10
221.3377069999999
 20
106.9009279999999
 30
0.0
 40
9.4
100
AcDbArc
 50
270.0
 51
327.953169
  0
ARC
  5
C643
330
C592
100
AcDbEntity
  8
1
  6
Continuous
100
AcDbCircle
 10
242.1042669999999
 20
93.90092799999999
 30
0.0
 40
15.09999999999999
100
AcDbArc
 50
89.06314900000003
 51
147.9531689999998
  0
ARC
  5
C644
330
C592
100
AcDbEntity
  8
1
  6
Continuous
100
AcDbCircle
 10
195.1128389999998
 20
106.9009279999999
 30
0.0
 40
9.4
100
AcDbArc
 50
212.046831
 51
270.0
  0
ARC
  5
C645
330
C592
100
AcDbEntity
  8
1
  6
Continuous
100
AcDbCircle
 10
174.34628
 20
93.90092799999999
 30
0.0
 40
15.09999999999999
100
AcDbArc
 50
32.046831
 51
90.936851
  0
LINE
  5
C646
330
C592
100
AcDbEntity
  8
1
  6
Continuous
100
AcDbLine
 10
168.1465589999999
 20
108.9015649999999
 30
0.0
 11
174.099389
 21
108.998909
 31
0.0
  0
LINE
  5
C647
330
C592
100
AcDbEntity
  8
1
  6
Continuous
100
AcDbLine
 10
242.3511579999999
 20
108.998909
 30
0.0
 11
248.3039859999999
 21
108.9015649999999
 31
0.0
  0
LINE
  5
C648
330
C592
100
AcDbEntity
  8
1
  6
Continuous
100
AcDbLine
 10
242.3511579999999
 20
43.802946
 30
0.0
 11
248.3039859999999
 21
43.90029000000001
 31
0.0
  0
ARC
  5
C649
330
C592
100
AcDbEntity
  8
1
  6
Continuous
100
AcDbCircle
 10
242.1042669999999
 20
58.900928
 30
0.0
 40
15.09999999999999
100
AcDbArc
 50
212.046831
 51
270.936851
  0
ARC
  5
C64A
330
C592
100
AcDbEntity
  8
1
  6
Continuous
100
AcDbCircle
 10
221.3377069999999
 20
45.90092799999999
 30
0.0
 40
9.4
100
AcDbArc
 50
32.046831
 51
90.0
  0
ARC
  5
C64B
330
C592
100
AcDbEntity
  8
1
  6
Continuous
100
AcDbCircle
 10
195.1128389999998
 20
45.90092799999999
 30
0.0
 40
9.4
100
AcDbArc
 50
90.0
 51
147.9531689999998
  0
ARC
  5
C64C
330
C592
100
AcDbEntity
  8
1
  6
Continuous
100
AcDbCircle
 10
174.34628
 20
58.900928
 30
0.0
 40
15.09999999999999
100
AcDbArc
 50
269.063149
 51
327.953169
  0
LINE
  5
C64D
330
C592
100
AcDbEntity
  8
1
  6
Continuous
100
AcDbLine
 10
168.1465589999999
 20
43.90029000000001
 30
0.0
 11
174.099389
 21
43.802946
 31
0.0
  0
LINE
  5
C64E
330
C592
100
AcDbEntity
  8
1
  6
Continuous
100
AcDbLine
 10
195.1128389999998
 20
55.30092800000001
 30
0.0
 11
221.3377069999999
 21
55.30092800000001
 31
0.0
  0
CIRCLE
  5
C64F
330
C592
100
AcDbEntity
  8
1
  6
Continuous
100
AcDbCircle
 10
503.675624
 20
199.171712
 30
0.0
 40
10.5
  0
CIRCLE
  5
C650
330
C592
100
AcDbEntity
  8
1
  6
Continuous
100
AcDbCircle
 10
503.675624
 20
199.171712
 30
0.0
 40
6.0
  0
LINE
  5
C651
330
C592
100
AcDbEntity
  8
1
  6
Continuous
100
AcDbLine
 10
216.7251779999999
 20
194.2642339999999
 30
0.0
 11
216.7251779999999
 21
204.0791889999999
 31
0.0
  0
LINE
  5
C652
330
C592
100
AcDbEntity
  8
1
  6
Continuous
100
AcDbLine
 10
199.725178
 20
194.2642339999999
 30
0.0
 11
199.725178
 21
204.0791889999999
 31
0.0
  0
CIRCLE
  5
C653
330
C592
100
AcDbEntity
  8
1
  6
Continuous
100
AcDbCircle
 10
208.2251779999999
 20
199.171712
 30
0.0
 40
8.5
  0
LINE
  5
C654
330
C592
100
AcDbEntity
  8
1
  6
Continuous
100
AcDbLine
 10
199.725178
 20
194.2642339999999
 30
0.0
 11
208.2251779999999
 21
189.3567569999999
 31
0.0
  0
LINE
  5
C655
330
C592
100
AcDbEntity
  8
1
  6
Continuous
100
AcDbLine
 10
216.7251779999999
 20
194.2642339999999
 30
0.0
 11
208.2251779999999
 21
189.3567569999999
 31
0.0
  0
LINE
  5
C656
330
C592
100
AcDbEntity
  8
1
  6
Continuous
100
AcDbLine
 10
208.2251779999999
 20
208.9866659999999
 30
0.0
 11
199.725178
 21
204.0791889999999
 31
0.0
  0
LINE
  5
C657
330
C592
100
AcDbEntity
  8
1
  6
Continuous
100
AcDbLine
 10
208.2251779999999
 20
208.9866659999999
 30
0.0
 11
216.7251779999999
 21
204.0791889999999
 31
0.0
  0
LINE
  5
C658
330
C592
100
AcDbEntity
  8
1
  6
Continuous
100
AcDbLine
 10
197.725273
 20
375.5435319999999
 30
0.0
 11
218.7252729999999
 21
375.5435319999999
 31
0.0
  0
ARC
  5
C659
330
C592
100
AcDbEntity
  8
1
  6
Continuous
100
AcDbCircle
 10
212.4752729999999
 20
387.8190379999999
 30
0.0
 40
12.275507
100
AcDbArc
 50
249.7438419999999
 51
290.256158
  0
LINE
  5
C65A
330
C592
100
AcDbEntity
  8
1
  6
Continuous
100
AcDbLine
 10
211.2252729999999
 20
372.5435319999998
 30
0.0
 11
208.2252729999999
 21
375.5435319999999
 31
0.0
  0
LINE
  5
C65B
330
C592
100
AcDbEntity
  8
1
  6
Continuous
100
AcDbLine
 10
199.7252729999999
 20
382.543532
 30
0.0
 11
216.7252729999999
 21
382.543532
 31
0.0
  0
LINE
  5
C65C
330
C592
100
AcDbEntity
  8
1
  6
Continuous
100
AcDbLine
 10
202.2252729999999
 20
382.7435319999998
 30
0.0
 11
214.225273
 21
382.7435319999998
 31
0.0
  0
LINE
  5
C65D
330
C592
100
AcDbEntity
  8
1
  6
Continuous
100
AcDbLine
 10
203.0252729999999
 20
383.5435319999998
 30
0.0
 11
213.425273
 21
383.5435319999998
 31
0.0
  0
ARC
  5
C65E
330
C592
100
AcDbEntity
  8
1
  6
Continuous
100
AcDbCircle
 10
212.4752729999999
 20
370.268025
 30
0.0
 40
12.275507
100
AcDbArc
 50
69.743842
 51
110.256158
  0
LINE
  5
C65F
330
C592
100
AcDbEntity
  8
1
  6
Continuous
100
AcDbLine
 10
208.2252729999999
 20
381.7843419999999
 30
0.0
 11
208.2252729999999
 21
376.302721
 31
0.0
  0
LINE
  5
C660
330
C592
100
AcDbEntity
  8
1
  6
Continuous
100
AcDbLine
 10
199.7252729999999
 20
382.543532
 30
0.0
 11
199.7252729999999
 21
375.5435319999999
 31
0.0
  0
ARC
  5
C661
330
C592
100
AcDbEntity
  8
1
  6
Continuous
100
AcDbCircle
 10
203.975273
 20
387.8190379999999
 30
0.0
 40
12.275507
100
AcDbArc
 50
249.7438419999999
 51
290.256158
  0
LINE
  5
C662
330
C592
100
AcDbEntity
  8
1
  6
Continuous
100
AcDbLine
 10
208.2252729999999
 20
372.5435319999998
 30
0.0
 11
205.2252729999999
 21
375.5435319999999
 31
0.0
  0
LINE
  5
C663
330
C592
100
AcDbEntity
  8
1
  6
Continuous
100
AcDbLine
 10
197.725273
 20
375.5435319999999
 30
0.0
 11
197.725273
 21
372.6450089999998
 31
0.0
  0
ARC
  5
C664
330
C592
100
AcDbEntity
  8
1
  6
Continuous
100
AcDbCircle
 10
203.975273
 20
370.268025
 30
0.0
 40
12.275507
100
AcDbArc
 50
69.743842
 51
110.256158
  0
LINE
  5
C665
330
C592
100
AcDbEntity
  8
2
  6
Continuous
100
AcDbLine
 10
202.901773
 20
382.543532
 30
0.0
 11
202.901773
 21
383.4200319999998
 31
0.0
  0
LINE
  5
C666
330
C592
100
AcDbEntity
  8
1
  6
Continuous
100
AcDbLine
 10
202.2252729999999
 20
382.7435319999998
 30
0.0
 11
202.2252729999999
 21
382.543532
 31
0.0
  0
LINE
  5
C667
330
C592
100
AcDbEntity
  8
1
  6
Continuous
100
AcDbLine
 10
216.7252729999999
 20
382.543532
 30
0.0
 11
216.7252729999999
 21
375.5435319999999
 31
0.0
  0
LINE
  5
C668
330
C592
100
AcDbEntity
  8
1
  6
Continuous
100
AcDbLine
 10
218.7252729999999
 20
375.5435319999999
 30
0.0
 11
218.7252729999999
 21
372.6450089999998
 31
0.0
  0
LINE
  5
C669
330
C592
100
AcDbEntity
  8
2
  6
Continuous
100
AcDbLine
 10
213.548773
 20
382.543532
 30
0.0
 11
213.548773
 21
383.4200319999998
 31
0.0
  0
LINE
  5
C66A
330
C592
100
AcDbEntity
  8
1
  6
Continuous
100
AcDbLine
 10
214.225273
 20
382.7435319999998
 30
0.0
 11
214.225273
 21
382.543532
 31
0.0
  0
LINE
  5
C66B
330
C592
100
AcDbEntity
  8
1
  6
Continuous
100
AcDbLine
 10
216.7252729999999
 20
318.0435319999999
 30
0.0
 11
199.7252729999999
 21
318.0435319999999
 31
0.0
  0
ARC
  5
C66C
330
C592
100
AcDbEntity
  8
1
  6
Continuous
100
AcDbCircle
 10
212.4752729999999
 20
330.3190379999999
 30
0.0
 40
12.275507
100
AcDbArc
 50
249.7438419999999
 51
290.256158
  0
ARC
  5
C66D
330
C592
100
AcDbEntity
  8
1
  6
Continuous
100
AcDbCircle
 10
203.975273
 20
330.3190379999999
 30
0.0
 40
12.275507
100
AcDbArc
 50
249.7438419999999
 51
290.256158
  0
LINE
  5
C66E
330
C592
100
AcDbEntity
  8
1
  6
Continuous
100
AcDbLine
 10
199.7252729999999
 20
318.0435319999999
 30
0.0
 11
199.7252729999999
 21
324.5435319999999
 31
0.0
  0
LINE
  5
C66F
330
C592
100
AcDbEntity
  8
1
  6
Continuous
100
AcDbLine
 10
208.2252729999999
 20
318.802721
 30
0.0
 11
208.2252729999999
 21
324.5435319999999
 31
0.0
  0
LINE
  5
C670
330
C592
100
AcDbEntity
  8
1
  6
Continuous
100
AcDbLine
 10
216.7252729999999
 20
318.0435319999999
 30
0.0
 11
216.7252729999999
 21
324.5435319999999
 31
0.0
  0
LINE
  5
C671
330
C592
100
AcDbEntity
  8
1
  6
Continuous
100
AcDbLine
 10
25.499955
 20
193.9717459999999
 30
0.0
 11
25.499955
 21
204.3717459999998
 31
0.0
  0
LINE
  5
C672
330
C592
100
AcDbEntity
  8
1
  6
Continuous
100
AcDbLine
 10
26.29995499999999
 20
193.1717459999999
 30
0.0
 11
26.29995499999999
 21
205.1717459999999
 31
0.0
  0
LINE
  5
C673
330
C592
100
AcDbEntity
  8
1
  6
Continuous
100
AcDbLine
 10
26.499955
 20
190.6717459999999
 30
0.0
 11
26.499955
 21
207.6717459999999
 31
0.0
  0
LINE
  5
C674
330
C592
100
AcDbEntity
  8
1
  6
Continuous
100
AcDbLine
 10
26.29995499999999
 20
193.1717459999999
 30
0.0
 11
26.499955
 21
193.1717459999999
 31
0.0
  0
LINE
  5
C675
330
C592
100
AcDbEntity
  8
2
  6
Continuous
100
AcDbLine
 10
26.499955
 20
193.8482459999999
 30
0.0
 11
25.623455
 21
193.8482459999999
 31
0.0
  0
LINE
  5
C676
330
C592
100
AcDbEntity
  8
1
  6
Continuous
100
AcDbLine
 10
26.29995499999999
 20
205.1717459999999
 30
0.0
 11
26.499955
 21
205.1717459999999
 31
0.0
  0
LINE
  5
C677
330
C592
100
AcDbEntity
  8
2
  6
Continuous
100
AcDbLine
 10
26.499955
 20
204.495246
 30
0.0
 11
25.623455
 21
204.495246
 31
0.0
  0
LINE
  5
C678
330
C592
100
AcDbEntity
  8
1
  6
Continuous
100
AcDbLine
 10
90.24076499999999
 20
189.3567909999999
 30
0.0
 11
88.99562600000001
 21
189.3567909999999
 31
0.0
  0
LINE
  5
C679
330
C592
100
AcDbEntity
  8
1
  6
Continuous
100
AcDbLine
 10
90.999955
 20
190.6717459999999
 30
0.0
 11
90.999955
 21
194.8249739999999
 31
0.0
  0
ARC
  5
C67A
330
C592
100
AcDbEntity
  8
1
  6
Continuous
100
AcDbCircle
 10
86.65505600000001
 20
191.81053
 30
0.0
 40
4.344898999999998
100
AcDbArc
 50
334.384247
 51
24.836036
  0
LINE
  5
C67B
330
C592
100
AcDbEntity
  8
1
  6
Continuous
100
AcDbLine
 10
90.24076499999999
 20
189.3567909999999
 30
0.0
 11
90.999955
 21
190.6717459999999
 31
0.0
  0
ARC
  5
C67C
330
C592
100
AcDbEntity
  8
1
  6
Continuous
100
AcDbCircle
 10
42.740765
 20
199.1717459999999
 30
0.0
 40
16.24081099999999
100
AcDbArc
 50
162.412046
 51
197.5879539999999
  0
ARC
  5
C67D
330
C592
100
AcDbEntity
  8
1
  6
Continuous
100
AcDbCircle
 10
30.84485300000001
 20
191.81053
 30
0.0
 40
4.344898999999998
100
AcDbArc
 50
145.615753
 51
205.615753
  0
LINE
  5
C67E
330
C592
100
AcDbEntity
  8
1
  6
Continuous
100
AcDbLine
 10
27.259144
 20
189.3567909999999
 30
0.0
 11
32.004283
 21
189.3567909999999
 31
0.0
  0
LINE
  5
C67F
330
C592
100
AcDbEntity
  8
1
  6
Continuous
100
AcDbLine
 10
27.259144
 20
189.3567909999999
 30
0.0
 11
26.499955
 21
190.6717459999999
 31
0.0
  0
LINE
  5
C680
330
C592
100
AcDbEntity
  8
1
  6
Continuous
100
AcDbLine
 10
27.259144
 20
194.2642679999999
 30
0.0
 11
30.18705999999999
 21
194.2642679999999
 31
0.0
  0
ARC
  5
C681
330
C592
100
AcDbEntity
  8
1
  6
Continuous
100
AcDbCircle
 10
30.84485300000001
 20
206.5329619999999
 30
0.0
 40
4.344898999999998
100
AcDbArc
 50
160.7686159999998
 51
214.384247
  0
LINE
  5
C682
330
C592
100
AcDbEntity
  8
1
  6
Continuous
100
AcDbLine
 10
27.259144
 20
204.079223
 30
0.0
 11
27.48711399999999
 21
204.079223
 31
0.0
  0
LINE
  5
C683
330
C592
100
AcDbEntity
  8
1
  6
Continuous
100
AcDbLine
 10
26.72579000000001
 20
208.062904
 30
0.0
 11
26.499955
 21
207.6717459999999
 31
0.0
  0
LINE
  5
C684
330
C592
100
AcDbEntity
  8
1
  6
Continuous
100
AcDbLine
 10
503.675624
 20
208.9866659999999
 30
0.0
 11
512.1756239999998
 21
204.0791889999999
 31
0.0
  0
CIRCLE
  5
C685
330
C592
100
AcDbEntity
  8
1
  6
Continuous
100
AcDbCircle
 10
503.675624
 20
199.171712
 30
0.0
 40
8.5
  0
LINE
  5
C686
330
C592
100
AcDbEntity
  8
1
  6
Continuous
100
AcDbLine
 10
503.675624
 20
208.9866659999999
 30
0.0
 11
495.175624
 21
204.0791889999999
 31
0.0
  0
LINE
  5
C687
330
C592
100
AcDbEntity
  8
1
  6
Continuous
100
AcDbLine
 10
512.1756239999998
 20
194.2642339999999
 30
0.0
 11
503.675624
 21
189.3567569999999
 31
0.0
  0
LINE
  5
C688
330
C592
100
AcDbEntity
  8
1
  6
Continuous
100
AcDbLine
 10
495.175624
 20
194.2642339999999
 30
0.0
 11
495.175624
 21
204.0791889999999
 31
0.0
  0
LINE
  5
C689
330
C592
100
AcDbEntity
  8
1
  6
Continuous
100
AcDbLine
 10
495.175624
 20
194.2642339999999
 30
0.0
 11
503.675624
 21
189.3567569999999
 31
0.0
  0
LINE
  5
C68A
330
C592
100
AcDbEntity
  8
1
  6
Continuous
100
AcDbLine
 10
512.1756239999998
 20
194.2642339999999
 30
0.0
 11
512.1756239999998
 21
204.0791889999999
 31
0.0
  0
CIRCLE
  5
C68B
330
C592
100
AcDbEntity
  8
2
  6
Continuous
100
AcDbCircle
 10
503.675624
 20
199.171712
 30
0.0
 40
5.3235
  0
LINE
  5
C68C
330
C592
100
AcDbEntity
  8
1
  6
Continuous
100
AcDbLine
 10
202.2252729999999
 20
382.7435319999998
 30
0.0
 11
203.0252729999999
 21
383.5435319999998
 31
0.0
  0
LINE
  5
C68D
330
C592
100
AcDbEntity
  8
1
  6
Continuous
100
AcDbLine
 10
213.425273
 20
383.5435319999998
 30
0.0
 11
214.225273
 21
382.7435319999998
 31
0.0
  0
LINE
  5
C68E
330
C592
100
AcDbEntity
  8
1
  6
Continuous
100
AcDbLine
 10
26.29995499999999
 20
205.1717459999999
 30
0.0
 11
25.499955
 21
204.3717459999998
 31
0.0
  0
LINE
  5
C68F
330
C592
100
AcDbEntity
  8
1
  6
Continuous
100
AcDbLine
 10
25.499955
 20
193.9717459999999
 30
0.0
 11
26.29995499999999
 21
193.1717459999999
 31
0.0
  0
ARC
  5
C690
330
C592
100
AcDbEntity
  8
1
  6
Continuous
100
AcDbCircle
 10
212.4752729999999
 20
94.625421
 30
0.0
 40
12.275507
100
AcDbArc
 50
69.743842
 51
110.256158
  0
LINE
  5
C691
330
C592
100
AcDbEntity
  8
1
  6
Continuous
100
AcDbLine
 10
216.7252729999999
 20
106.9009279999999
 30
0.0
 11
199.7252729999999
 21
106.9009279999999
 31
0.0
  0
LINE
  5
C692
330
C592
100
AcDbEntity
  8
1
  6
Continuous
100
AcDbLine
 10
208.2252729999999
 20
106.1417379999999
 30
0.0
 11
208.2252729999999
 21
100.400928
 31
0.0
  0
LINE
  5
C693
330
C592
100
AcDbEntity
  8
1
  6
Continuous
100
AcDbLine
 10
199.7252729999999
 20
106.9009279999999
 30
0.0
 11
199.7252729999999
 21
100.400928
 31
0.0
  0
ARC
  5
C694
330
C592
100
AcDbEntity
  8
1
  6
Continuous
100
AcDbCircle
 10
203.975273
 20
94.625421
 30
0.0
 40
12.275507
100
AcDbArc
 50
69.743842
 51
110.256158
  0
LINE
  5
C695
330
C592
100
AcDbEntity
  8
1
  6
Continuous
100
AcDbLine
 10
216.7252729999999
 20
106.9009279999999
 30
0.0
 11
216.7252729999999
 21
100.400928
 31
0.0
  0
ARC
  5
C696
330
C592
100
AcDbEntity
  8
1
  6
Continuous
100
AcDbCircle
 10
212.4752729999999
 20
54.676434
 30
0.0
 40
12.275507
100
AcDbArc
 50
249.7438419999999
 51
290.256158
  0
LINE
  5
C697
330
C592
100
AcDbEntity
  8
1
  6
Continuous
100
AcDbLine
 10
203.0252729999999
 20
41.400928
 30
0.0
 11
213.425273
 21
41.400928
 31
0.0
  0
LINE
  5
C698
330
C592
100
AcDbEntity
  8
1
  6
Continuous
100
AcDbLine
 10
202.2252729999999
 20
42.20092799999998
 30
0.0
 11
214.225273
 21
42.20092799999998
 31
0.0
  0
LINE
  5
C699
330
C592
100
AcDbEntity
  8
1
  6
Continuous
100
AcDbLine
 10
199.7252729999999
 20
42.400928
 30
0.0
 11
216.7252729999999
 21
42.400928
 31
0.0
  0
ARC
  5
C69A
330
C592
100
AcDbEntity
  8
1
  6
Continuous
100
AcDbCircle
 10
212.4752729999999
 20
37.125421
 30
0.0
 40
12.275507
100
AcDbArc
 50
69.743842
 51
110.256158
  0
LINE
  5
C69B
330
C592
100
AcDbEntity
  8
1
  6
Continuous
100
AcDbLine
 10
197.725273
 20
49.400928
 30
0.0
 11
218.7252729999999
 21
49.400928
 31
0.0
  0
LINE
  5
C69C
330
C592
100
AcDbEntity
  8
1
  6
Continuous
100
AcDbLine
 10
202.2252729999999
 20
42.20092799999998
 30
0.0
 11
203.0252729999999
 21
41.400928
 31
0.0
  0
LINE
  5
C69D
330
C592
100
AcDbEntity
  8
1
  6
Continuous
100
AcDbLine
 10
202.2252729999999
 20
42.20092799999998
 30
0.0
 11
202.2252729999999
 21
42.400928
 31
0.0
  0
LINE
  5
C69E
330
C592
100
AcDbEntity
  8
2
  6
Continuous
100
AcDbLine
 10
202.901773
 20
42.400928
 30
0.0
 11
202.901773
 21
41.524428
 31
0.0
  0
ARC
  5
C69F
330
C592
100
AcDbEntity
  8
1
  6
Continuous
100
AcDbCircle
 10
203.975273
 20
54.676434
 30
0.0
 40
12.275507
100
AcDbArc
 50
249.7438419999999
 51
290.256158
  0
LINE
  5
C6A0
330
C592
100
AcDbEntity
  8
1
  6
Continuous
100
AcDbLine
 10
197.725273
 20
49.400928
 30
0.0
 11
197.725273
 21
52.299451
 31
0.0
  0
LINE
  5
C6A1
330
C592
100
AcDbEntity
  8
1
  6
Continuous
100
AcDbLine
 10
208.225272
 20
52.400928
 30
0.0
 11
211.2252719999999
 21
49.400928
 31
0.0
  0
ARC
  5
C6A2
330
C592
100
AcDbEntity
  8
1
  6
Continuous
100
AcDbCircle
 10
203.975273
 20
37.125421
 30
0.0
 40
12.275507
100
AcDbArc
 50
69.743842
 51
110.256158
  0
LINE
  5
C6A3
330
C592
100
AcDbEntity
  8
1
  6
Continuous
100
AcDbLine
 10
199.7252729999999
 20
42.400928
 30
0.0
 11
199.7252729999999
 21
49.400928
 31
0.0
  0
LINE
  5
C6A4
330
C592
100
AcDbEntity
  8
1
  6
Continuous
100
AcDbLine
 10
208.2252729999999
 20
43.16011699999999
 30
0.0
 11
208.2252729999999
 21
48.64173799999999
 31
0.0
  0
LINE
  5
C6A5
330
C592
100
AcDbEntity
  8
1
  6
Continuous
100
AcDbLine
 10
205.2252719999999
 20
52.400928
 30
0.0
 11
208.225272
 21
49.400928
 31
0.0
  0
LINE
  5
C6A6
330
C592
100
AcDbEntity
  8
1
  6
Continuous
100
AcDbLine
 10
213.425273
 20
41.400928
 30
0.0
 11
214.225273
 21
42.20092799999998
 31
0.0
  0
LINE
  5
C6A7
330
C592
100
AcDbEntity
  8
1
  6
Continuous
100
AcDbLine
 10
214.225273
 20
42.20092799999998
 30
0.0
 11
214.225273
 21
42.400928
 31
0.0
  0
LINE
  5
C6A8
330
C592
100
AcDbEntity
  8
2
  6
Continuous
100
AcDbLine
 10
213.548773
 20
42.400928
 30
0.0
 11
213.548773
 21
41.524428
 31
0.0
  0
LINE
  5
C6A9
330
C592
100
AcDbEntity
  8
1
  6
Continuous
100
AcDbLine
 10
218.7252729999999
 20
49.400928
 30
0.0
 11
218.7252729999999
 21
52.299451
 31
0.0
  0
LINE
  5
C6AA
330
C592
100
AcDbEntity
  8
1
  6
Continuous
100
AcDbLine
 10
216.7252729999999
 20
42.400928
 30
0.0
 11
216.7252729999999
 21
49.400928
 31
0.0
  0
LINE
  5
C6AB
330
C592
100
AcDbEntity
  8
4
  6
CENTER
100
AcDbLine
 10
355.9504009999998
 20
263.0388389999998
 30
0.0
 11
355.9504009999998
 21
161.905621
 31
0.0
  0
LINE
  5
C6AC
330
C592
100
AcDbEntity
  8
1
  6
Continuous
100
AcDbLine
 10
322.4504009999999
 20
255.771746
 30
0.0
 11
389.4504009999998
 21
255.771746
 31
0.0
  0
LINE
  5
C6AD
330
C592
100
AcDbEntity
  8
1
  6
Continuous
100
AcDbLine
 10
322.4504009999999
 20
258.671746
 30
0.0
 11
389.4504009999998
 21
258.671746
 31
0.0
  0
LINE
  5
C6AE
330
C592
100
AcDbEntity
  8
4
  6
CENTER
100
AcDbLine
 10
317.7504009999998
 20
199.1717459999999
 30
0.0
 11
394.4524009999998
 21
199.1717459999999
 31
0.0
  0
ARC
  5
C6AF
330
C592
100
AcDbEntity
  8
1
  6
Continuous
100
AcDbCircle
 10
301.5149759999999
 20
222.8560939999999
 30
0.0
 40
89.44143399999999
100
AcDbArc
 50
331.2762839999999
 51
358.1731159999998
  0
ARC
  5
C6B0
330
C592
100
AcDbEntity
  8
1
  6
Continuous
100
AcDbCircle
 10
301.5149759999999
 20
222.8560939999999
 30
0.0
 40
86.54143399999998
100
AcDbArc
 50
331.2762839999999
 51
358.1731159999998
  0
LINE
  5
C6B1
330
C592
100
AcDbEntity
  8
1
  6
Continuous
100
AcDbLine
 10
377.0504009999998
 20
253.771746
 30
0.0
 11
377.0504009999998
 21
179.8717459999998
 31
0.0
  0
LINE
  5
C6B2
330
C592
100
AcDbEntity
  8
1
  6
Continuous
100
AcDbLine
 10
389.191211
 20
189.3567909999999
 30
0.0
 11
384.446072
 21
189.3567909999999
 31
0.0
  0
ARC
  5
C6B3
330
C592
100
AcDbEntity
  8
1
  6
Continuous
100
AcDbCircle
 10
373.7095899999998
 20
199.1717459999999
 30
0.0
 40
16.24081099999999
100
AcDbArc
 50
342.4120459999999
 51
17.587954
  0
LINE
  5
C6B4
330
C592
100
AcDbEntity
  8
1
  6
Continuous
100
AcDbLine
 10
390.150401
 20
193.1717459999999
 30
0.0
 11
390.150401
 21
205.1717459999999
 31
0.0
  0
LINE
  5
C6B5
330
C592
100
AcDbEntity
  8
1
  6
Continuous
100
AcDbLine
 10
390.950401
 20
193.9717459999999
 30
0.0
 11
390.950401
 21
204.3717459999998
 31
0.0
  0
LINE
  5
C6B6
330
C592
100
AcDbEntity
  8
1
  6
Continuous
100
AcDbLine
 10
389.950401
 20
190.6717459999999
 30
0.0
 11
389.950401
 21
207.6717459999999
 31
0.0
  0
LINE
  5
C6B7
330
C592
100
AcDbEntity
  8
1
  6
Continuous
100
AcDbLine
 10
389.191211
 20
194.2642679999999
 30
0.0
 11
386.263295
 21
194.2642679999999
 31
0.0
  0
LINE
  5
C6B8
330
C592
100
AcDbEntity
  8
1
  6
Continuous
100
AcDbLine
 10
390.950401
 20
193.9717459999999
 30
0.0
 11
390.150401
 21
193.1717459999999
 31
0.0
  0
LINE
  5
C6B9
330
C592
100
AcDbEntity
  8
1
  6
Continuous
100
AcDbLine
 10
389.191211
 20
189.3567909999999
 30
0.0
 11
389.950401
 21
190.6717459999999
 31
0.0
  0
ARC
  5
C6BA
330
C592
100
AcDbEntity
  8
1
  6
Continuous
100
AcDbCircle
 10
385.6055019999999
 20
191.81053
 30
0.0
 40
4.344898999999998
100
AcDbArc
 50
334.384247
 51
34.38424699999998
  0
LINE
  5
C6BB
330
C592
100
AcDbEntity
  8
2
  6
Continuous
100
AcDbLine
 10
389.950401
 20
193.8482459999999
 30
0.0
 11
390.8269009999998
 21
193.8482459999999
 31
0.0
  0
LINE
  5
C6BC
330
C592
100
AcDbEntity
  8
1
  6
Continuous
100
AcDbLine
 10
390.150401
 20
193.1717459999999
 30
0.0
 11
389.950401
 21
193.1717459999999
 31
0.0
  0
LINE
  5
C6BD
330
C592
100
AcDbEntity
  8
1
  6
Continuous
100
AcDbLine
 10
389.191211
 20
204.079223
 30
0.0
 11
388.9632419999998
 21
204.079223
 31
0.0
  0
ARC
  5
C6BE
330
C592
100
AcDbEntity
  8
1
  6
Continuous
100
AcDbCircle
 10
385.6055019999999
 20
206.5329619999999
 30
0.0
 40
4.344898999999998
100
AcDbArc
 50
325.6157529999999
 51
19.231384
  0
LINE
  5
C6BF
330
C592
100
AcDbEntity
  8
1
  6
Continuous
100
AcDbLine
 10
389.7245649999999
 20
208.062904
 30
0.0
 11
389.950401
 21
207.6717459999999
 31
0.0
  0
LINE
  5
C6C0
330
C592
100
AcDbEntity
  8
1
  6
Continuous
100
AcDbLine
 10
390.150401
 20
205.1717459999999
 30
0.0
 11
390.950401
 21
204.3717459999998
 31
0.0
  0
LINE
  5
C6C1
330
C592
100
AcDbEntity
  8
2
  6
Continuous
100
AcDbLine
 10
389.950401
 20
204.495246
 30
0.0
 11
390.8269009999998
 21
204.495246
 31
0.0
  0
LINE
  5
C6C2
330
C592
100
AcDbEntity
  8
1
  6
Continuous
100
AcDbLine
 10
390.150401
 20
205.1717459999999
 30
0.0
 11
389.950401
 21
205.1717459999999
 31
0.0
  0
LINE
  5
C6C3
330
C592
100
AcDbEntity
  8
1
  6
Continuous
100
AcDbLine
 10
379.950401
 20
179.8717459999998
 30
0.0
 11
377.0504009999998
 21
179.8717459999998
 31
0.0
  0
ARC
  5
C6C4
330
C592
100
AcDbEntity
  8
1
  6
Continuous
100
AcDbCircle
 10
379.950401
 20
179.8717459999998
 30
0.0
 40
2.9
100
AcDbArc
 50
151.276284
 51
180.0
  0
ARC
  5
C6C5
330
C592
100
AcDbEntity
  8
1
  6
Continuous
100
AcDbCircle
 10
-678.830453
 20
253.981798
 30
0.0
 40
1070.280853999999
100
AcDbArc
 50
358.180786
 51
359.9833240000001
  0
ARC
  5
C6C6
330
C592
100
AcDbEntity
  8
1
  6
Continuous
100
AcDbCircle
 10
-678.830453
 20
253.981798
 30
0.0
 40
1067.380854
100
AcDbArc
 50
358.180786
 51
359.9833240000001
  0
ARC
  5
C6C7
330
C592
100
AcDbEntity
  8
1
  6
Continuous
100
AcDbCircle
 10
386.450356
 20
253.6717459999999
 30
0.0
 40
5.0
100
AcDbArc
 50
359.9833240000001
 51
53.12945600000001
  0
LINE
  5
C6C8
330
C592
100
AcDbEntity
  8
1
  6
Continuous
100
AcDbLine
 10
389.4504009999998
 20
258.671746
 30
0.0
 11
389.4504009999998
 21
255.771746
 31
0.0
  0
ARC
  5
C6C9
330
C592
100
AcDbEntity
  8
1
  6
Continuous
100
AcDbCircle
 10
386.450356
 20
253.6717459999999
 30
0.0
 40
2.1
100
AcDbArc
 50
359.9833240000001
 51
90.0
  0
LINE
  5
C6CA
330
C592
100
AcDbEntity
  8
4
  6
CENTER
100
AcDbLine
 10
379.450401
 20
261.3724439999999
 30
0.0
 11
379.450401
 21
253.051468
 31
0.0
  0
ARC
  5
C6CB
330
C592
100
AcDbEntity
  8
1
  6
Continuous
100
AcDbCircle
 10
375.0504009999998
 20
253.771746
 30
0.0
 40
2.0
100
AcDbArc
 50
0.0
 51
90.0
  0
ARC
  5
C6CC
330
C592
100
AcDbEntity
  8
1
  6
Continuous
100
AcDbCircle
 10
410.3858259999998
 20
222.8560939999999
 30
0.0
 40
86.54143399999998
100
AcDbArc
 50
181.8268839999998
 51
208.7237159999999
  0
ARC
  5
C6CD
330
C592
100
AcDbEntity
  8
1
  6
Continuous
100
AcDbCircle
 10
410.3858259999998
 20
222.8560939999999
 30
0.0
 40
89.44143399999999
100
AcDbArc
 50
181.8268839999998
 51
208.7237159999999
  0
LINE
  5
C6CE
330
C592
100
AcDbEntity
  8
1
  6
Continuous
100
AcDbLine
 10
334.8504009999999
 20
253.771746
 30
0.0
 11
334.8504009999999
 21
179.8717459999998
 31
0.0
  0
LINE
  5
C6CF
330
C592
100
AcDbEntity
  8
1
  6
Continuous
100
AcDbLine
 10
326.2095899999998
 20
189.3567909999999
 30
0.0
 11
327.454729
 21
189.3567909999999
 31
0.0
  0
ARC
  5
C6D0
330
C592
100
AcDbEntity
  8
1
  6
Continuous
100
AcDbCircle
 10
329.795299
 20
191.81053
 30
0.0
 40
4.344898999999998
100
AcDbArc
 50
155.1639639999999
 51
205.615753
  0
LINE
  5
C6D1
330
C592
100
AcDbEntity
  8
1
  6
Continuous
100
AcDbLine
 10
325.450401
 20
190.6717459999999
 30
0.0
 11
325.450401
 21
194.8249739999999
 31
0.0
  0
LINE
  5
C6D2
330
C592
100
AcDbEntity
  8
1
  6
Continuous
100
AcDbLine
 10
326.2095899999998
 20
189.3567909999999
 30
0.0
 11
325.450401
 21
190.6717459999999
 31
0.0
  0
LINE
  5
C6D3
330
C592
100
AcDbEntity
  8
1
  6
Continuous
100
AcDbLine
 10
331.950401
 20
179.8717459999998
 30
0.0
 11
334.8504009999999
 21
179.8717459999998
 31
0.0
  0
ARC
  5
C6D4
330
C592
100
AcDbEntity
  8
1
  6
Continuous
100
AcDbCircle
 10
331.950401
 20
179.8717459999998
 30
0.0
 40
2.9
100
AcDbArc
 50
0.0
 51
28.72371599999999
  0
ARC
  5
C6D5
330
C592
100
AcDbEntity
  8
1
  6
Continuous
100
AcDbCircle
 10
325.450446
 20
253.6717459999999
 30
0.0
 40
5.0
100
AcDbArc
 50
126.8705439999999
 51
180.016676
  0
ARC
  5
C6D6
330
C592
100
AcDbEntity
  8
1
  6
Continuous
100
AcDbCircle
 10
1390.731255
 20
253.981798
 30
0.0
 40
1067.380854
100
AcDbArc
 50
180.016676
 51
181.8192139999999
  0
LINE
  5
C6D7
330
C592
100
AcDbEntity
  8
4
  6
CENTER
100
AcDbLine
 10
332.450401
 20
261.3724439999999
 30
0.0
 11
332.450401
 21
253.051468
 31
0.0
  0
ARC
  5
C6D8
330
C592
100
AcDbEntity
  8
1
  6
Continuous
100
AcDbCircle
 10
336.8504009999999
 20
253.771746
 30
0.0
 40
2.0
100
AcDbArc
 50
90.0
 51
180.0
  0
LINE
  5
C6D9
330
C592
100
AcDbEntity
  8
1
  6
Continuous
100
AcDbLine
 10
322.4504009999999
 20
258.671746
 30
0.0
 11
322.4504009999999
 21
255.771746
 31
0.0
  0
ARC
  5
C6DA
330
C592
100
AcDbEntity
  8
1
  6
Continuous
100
AcDbCircle
 10
325.450446
 20
253.6717459999999
 30
0.0
 40
2.1
100
AcDbArc
 50
90.0
 51
180.016676
  0
ARC
  5
C6DB
330
C592
100
AcDbEntity
  8
1
  6
Continuous
100
AcDbCircle
 10
1390.731255
 20
253.981798
 30
0.0
 40
1070.280853999999
100
AcDbArc
 50
180.016676
 51
181.8192139999999
  0
ARC
  5
C6DC
330
C592
100
AcDbEntity
  8
1
  6
Continuous
100
AcDbCircle
 10
180.49786
 20
61.400924
 30
0.0
 40
4.0
100
AcDbArc
 50
185.89694
 51
270.0
  0
ARC
  5
C6DD
330
C592
100
AcDbEntity
  8
1
  6
Continuous
100
AcDbCircle
 10
235.9526849999999
 20
61.400924
 30
0.0
 40
4.0
100
AcDbArc
 50
270.0
 51
354.10306
  0
ARC
  5
C6DE
330
C592
100
AcDbEntity
  8
1
  6
Continuous
100
AcDbCircle
 10
229.725285
 20
58.500924
 30
0.0
 40
1.5
100
AcDbArc
 50
277.5891669999999
 51
312.833428
  0
ARC
  5
C6DF
330
C592
100
AcDbEntity
  8
1
  6
Continuous
100
AcDbCircle
 10
186.72526
 20
58.500924
 30
0.0
 40
1.5
100
AcDbArc
 50
227.166572
 51
262.410833
  0
ARC
  5
C6E0
330
C592
100
AcDbEntity
  8
1
  6
Continuous
100
AcDbCircle
 10
503.675624
 20
199.171712
 30
0.0
 40
23.0
100
AcDbArc
 50
156.0417339999999
 51
23.95826599999999
  0
ARC
  5
C6E1
330
C592
100
AcDbEntity
  8
1
  6
Continuous
100
AcDbCircle
 10
503.675624
 20
199.171712
 30
0.0
 40
23.5
100
AcDbArc
 50
154.650858
 51
25.349142
  0
ARC
  5
C6E2
330
C592
100
AcDbEntity
  8
1
  6
Continuous
100
AcDbCircle
 10
503.675624
 20
199.171712
 30
0.0
 40
32.5
100
AcDbArc
 50
139.252857
 51
40.747143
  0
ARC
  5
C6E3
330
C592
100
AcDbEntity
  8
1
  6
Continuous
100
AcDbCircle
 10
220.678585
 20
26.40093499999998
 30
0.0
 40
70.0
100
AcDbArc
 50
82.41083299999997
 51
89.14416700000002
  0
LINE
  5
C6E4
330
C592
100
AcDbEntity
  8
1
  6
Continuous
100
AcDbLine
 10
180.49786
 20
95.40083499999999
 30
0.0
 11
235.9526849999999
 21
95.40083499999999
 31
0.0
  0
LINE
  5
C6E5
330
C592
100
AcDbEntity
  8
1
  6
Continuous
100
AcDbLine
 10
180.49786
 20
57.40092399999999
 30
0.0
 11
235.9526849999999
 21
57.40092399999999
 31
0.0
  0
ARC
  5
C6E6
330
C592
100
AcDbEntity
  8
1
  6
Continuous
100
AcDbCircle
 10
325.725273
 20
76.40088
 30
0.0
 40
150.0
100
AcDbArc
 50
174.10306
 51
185.89694
  0
ARC
  5
C6E7
330
C592
100
AcDbEntity
  8
1
  6
Continuous
100
AcDbCircle
 10
180.49786
 20
91.40083500000001
 30
0.0
 40
4.0
100
AcDbArc
 50
90.0
 51
174.10306
  0
LINE
  5
C6E8
330
C592
100
AcDbEntity
  8
1
  6
Continuous
100
AcDbLine
 10
194.726402
 20
96.393126
 30
0.0
 11
221.7241459999999
 21
96.393126
 31
0.0
  0
LINE
  5
C6E9
330
C592
100
AcDbEntity
  8
1
  6
Continuous
100
AcDbLine
 10
195.7262649999999
 20
97.40088
 30
0.0
 11
220.7242809999999
 21
97.40088
 31
0.0
  0
ARC
  5
C6EA
330
C592
100
AcDbEntity
  8
1
  6
Continuous
100
AcDbCircle
 10
186.72526
 20
94.300835
 30
0.0
 40
1.5
100
AcDbArc
 50
97.589167
 51
132.8334279999999
  0
ARC
  5
C6EB
330
C592
100
AcDbEntity
  8
1
  6
Continuous
100
AcDbCircle
 10
195.77196
 20
26.40093499999998
 30
0.0
 40
70.0
100
AcDbArc
 50
90.855881
 51
97.589167
  0
LINE
  5
C6EC
330
C592
100
AcDbEntity
  8
1
  6
Continuous
100
AcDbLine
 10
195.7262649999999
 20
97.40088
 30
0.0
 11
194.726344
 21
96.393126
 31
0.0
  0
LINE
  5
C6ED
330
C592
100
AcDbEntity
  8
1
  6
Continuous
100
AcDbLine
 10
220.7252729999999
 20
97.39988000000003
 30
0.0
 11
221.724242
 21
96.39308500000002
 31
0.0
  0
ARC
  5
C6EE
330
C592
100
AcDbEntity
  8
1
  6
Continuous
100
AcDbCircle
 10
90.725273
 20
76.40088
 30
0.0
 40
150.0
100
AcDbArc
 50
354.10306
 51
5.896939999999997
  0
ARC
  5
C6EF
330
C592
100
AcDbEntity
  8
1
  6
Continuous
100
AcDbCircle
 10
235.9526849999999
 20
91.40083500000001
 30
0.0
 40
4.0
100
AcDbArc
 50
5.896939999999997
 51
90.0
  0
ARC
  5
C6F0
330
C592
100
AcDbEntity
  8
1
  6
Continuous
100
AcDbCircle
 10
229.725285
 20
94.300835
 30
0.0
 40
1.5
100
AcDbArc
 50
47.16657199999999
 51
82.41083299999997
  0
ARC
  5
C6F1
330
C592
100
AcDbEntity
  8
1
  6
Continuous
100
AcDbCircle
 10
220.678585
 20
126.400824
 30
0.0
 40
70.0
100
AcDbArc
 50
270.855833
 51
277.5891669999999
  0
LINE
  5
C6F2
330
C592
100
AcDbEntity
  8
1
  6
Continuous
100
AcDbLine
 10
194.726402
 20
56.40863299999999
 30
0.0
 11
221.7241459999999
 21
56.40863299999999
 31
0.0
  0
LINE
  5
C6F3
330
C592
100
AcDbEntity
  8
1
  6
Continuous
100
AcDbLine
 10
195.7262649999999
 20
55.40088
 30
0.0
 11
220.7242809999999
 21
55.40088
 31
0.0
  0
ARC
  5
C6F4
330
C592
100
AcDbEntity
  8
1
  6
Continuous
100
AcDbCircle
 10
195.77196
 20
126.400824
 30
0.0
 40
70.0
100
AcDbArc
 50
262.410833
 51
269.1441669999999
  0
LINE
  5
C6F5
330
C592
100
AcDbEntity
  8
1
  6
Continuous
100
AcDbLine
 10
195.725273
 20
55.40188
 30
0.0
 11
194.726303
 21
56.408674
 31
0.0
  0
LINE
  5
C6F6
330
C592
100
AcDbEntity
  8
1
  6
Continuous
100
AcDbLine
 10
220.7252729999999
 20
55.40188
 30
0.0
 11
221.724242
 21
56.408674
 31
0.0
  0
ARC
  5
C6F7
330
C592
100
AcDbEntity
  8
1
  6
Continuous
100
AcDbCircle
 10
208.2251779999999
 20
199.171712
 30
0.0
 40
23.5
100
AcDbArc
 50
154.650858
 51
25.349142
  0
ARC
  5
C6F8
330
C592
100
AcDbEntity
  8
1
  6
Continuous
100
AcDbCircle
 10
208.2251779999999
 20
199.171712
 30
0.0
 40
23.0
100
AcDbArc
 50
156.0417339999999
 51
23.95826599999999
  0
LINE
  5
C6F9
330
C592
100
AcDbEntity
  8
1
  6
Continuous
100
AcDbLine
 10
374.950405
 20
171.4443329999998
 30
0.0
 11
374.950405
 21
226.899158
 31
0.0
  0
LINE
  5
C6FA
330
C592
100
AcDbEntity
  8
1
  6
Continuous
100
AcDbLine
 10
336.950494
 20
171.4443329999998
 30
0.0
 11
336.950494
 21
226.899158
 31
0.0
  0
ARC
  5
C6FB
330
C592
100
AcDbEntity
  8
1
  6
Continuous
100
AcDbCircle
 10
355.9504490000001
 20
316.671746
 30
0.0
 40
150.0
100
AcDbArc
 50
264.10306
 51
275.8969399999999
  0
ARC
  5
C6FC
330
C592
100
AcDbEntity
  8
1
  6
Continuous
100
AcDbCircle
 10
340.950494
 20
171.4443329999998
 30
0.0
 40
4.0
100
AcDbArc
 50
180.0
 51
264.10306
  0
ARC
  5
C6FD
330
C592
100
AcDbEntity
  8
1
  6
Continuous
100
AcDbCircle
 10
370.950405
 20
171.4443329999998
 30
0.0
 40
4.0
100
AcDbArc
 50
275.8969399999999
 51
0.0
  0
ARC
  5
C6FE
330
C592
100
AcDbEntity
  8
1
  6
Continuous
100
AcDbCircle
 10
355.9504490000001
 20
81.671746
 30
0.0
 40
150.0
100
AcDbArc
 50
84.10306
 51
95.89693999999999
  0
ARC
  5
C6FF
330
C592
100
AcDbEntity
  8
1
  6
Continuous
100
AcDbCircle
 10
405.9503939999998
 20
211.6250579999999
 30
0.0
 40
70.0
100
AcDbArc
 50
172.4108329999999
 51
179.1441669999999
  0
LINE
  5
C700
330
C592
100
AcDbEntity
  8
1
  6
Continuous
100
AcDbLine
 10
334.9504490000001
 20
186.672738
 30
0.0
 11
334.9504490000001
 21
211.6707539999999
 31
0.0
  0
LINE
  5
C701
330
C592
100
AcDbEntity
  8
1
  6
Continuous
100
AcDbLine
 10
335.9582029999998
 20
185.672875
 30
0.0
 11
335.9582029999998
 21
212.6706189999999
 31
0.0
  0
LINE
  5
C702
330
C592
100
AcDbEntity
  8
1
  6
Continuous
100
AcDbLine
 10
334.9504490000001
 20
186.672738
 30
0.0
 11
335.9582029999998
 21
185.6728169999999
 31
0.0
  0
ARC
  5
C703
330
C592
100
AcDbEntity
  8
1
  6
Continuous
100
AcDbCircle
 10
405.9503939999998
 20
186.718433
 30
0.0
 40
70.0
100
AcDbArc
 50
180.855881
 51
187.5891669999998
  0
ARC
  5
C704
330
C592
100
AcDbEntity
  8
1
  6
Continuous
100
AcDbCircle
 10
338.050494
 20
177.6717329999999
 30
0.0
 40
1.5
100
AcDbArc
 50
187.5891669999998
 51
222.8334279999999
  0
LINE
  5
C705
330
C592
100
AcDbEntity
  8
1
  6
Continuous
100
AcDbLine
 10
334.951449
 20
211.6717459999999
 30
0.0
 11
335.958244
 21
212.670715
 31
0.0
  0
ARC
  5
C706
330
C592
100
AcDbEntity
  8
1
  6
Continuous
100
AcDbCircle
 10
338.050494
 20
220.671758
 30
0.0
 40
1.5
100
AcDbArc
 50
137.1665719999998
 51
172.4108329999999
  0
ARC
  5
C707
330
C592
100
AcDbEntity
  8
1
  6
Continuous
100
AcDbCircle
 10
340.950494
 20
226.899158
 30
0.0
 40
4.0
100
AcDbArc
 50
95.89693999999999
 51
180.0
  0
ARC
  5
C708
330
C592
100
AcDbEntity
  8
1
  6
Continuous
100
AcDbCircle
 10
305.9505049999998
 20
211.6250579999999
 30
0.0
 40
70.0
100
AcDbArc
 50
0.8558330000000001
 51
7.589166999999997
  0
LINE
  5
C709
330
C592
100
AcDbEntity
  8
1
  6
Continuous
100
AcDbLine
 10
376.950449
 20
186.672738
 30
0.0
 11
376.950449
 21
211.6707539999999
 31
0.0
  0
LINE
  5
C70A
330
C592
100
AcDbEntity
  8
1
  6
Continuous
100
AcDbLine
 10
375.942696
 20
185.672875
 30
0.0
 11
375.942696
 21
212.6706189999999
 31
0.0
  0
LINE
  5
C70B
330
C592
100
AcDbEntity
  8
1
  6
Continuous
100
AcDbLine
 10
376.949449
 20
186.6717459999999
 30
0.0
 11
375.942655
 21
185.672776
 31
0.0
  0
ARC
  5
C70C
330
C592
100
AcDbEntity
  8
1
  6
Continuous
100
AcDbCircle
 10
305.9505049999998
 20
186.718433
 30
0.0
 40
70.0
100
AcDbArc
 50
352.410833
 51
359.144167
  0
ARC
  5
C70D
330
C592
100
AcDbEntity
  8
1
  6
Continuous
100
AcDbCircle
 10
373.8504049999999
 20
177.6717329999999
 30
0.0
 40
1.5
100
AcDbArc
 50
317.166572
 51
352.410833
  0
LINE
  5
C70E
330
C592
100
AcDbEntity
  8
1
  6
Continuous
100
AcDbLine
 10
376.949449
 20
211.6717459999999
 30
0.0
 11
375.942655
 21
212.670715
 31
0.0
  0
ARC
  5
C70F
330
C592
100
AcDbEntity
  8
1
  6
Continuous
100
AcDbCircle
 10
373.8504049999999
 20
220.671758
 30
0.0
 40
1.5
100
AcDbArc
 50
7.589166999999997
 51
42.83342799999998
  0
ARC
  5
C710
330
C592
100
AcDbEntity
  8
1
  6
Continuous
100
AcDbCircle
 10
370.950405
 20
226.899158
 30
0.0
 40
4.0
100
AcDbArc
 50
0.0
 51
84.10306
  0
LINE
  5
C711
330
C592
100
AcDbEntity
  8
1
  6
Continuous
100
AcDbLine
 10
376.950449
 20
207.1717459999999
 30
0.0
 11
377.0504009999998
 21
207.1717459999999
 31
0.0
  0
LINE
  5
C712
330
C592
100
AcDbEntity
  8
1
  6
Continuous
100
AcDbLine
 10
376.950449
 20
191.171746
 30
0.0
 11
377.0504009999998
 21
191.171746
 31
0.0
  0
LINE
  5
C713
330
C592
100
AcDbEntity
  8
1
  6
Continuous
100
AcDbLine
 10
334.950353
 20
207.1717459999999
 30
0.0
 11
334.8504009999999
 21
207.1717459999999
 31
0.0
  0
LINE
  5
C714
330
C592
100
AcDbEntity
  8
1
  6
Continuous
100
AcDbLine
 10
334.950353
 20
191.171746
 30
0.0
 11
334.8504009999999
 21
191.171746
 31
0.0
  0
ARC
  5
C715
330
C592
100
AcDbEntity
  8
1
  6
Continuous
100
AcDbCircle
 10
10.500059
 20
211.6250579999999
 30
0.0
 40
70.0
100
AcDbArc
 50
0.8558330000000001
 51
7.589166999999997
  0
ARC
  5
C716
330
C592
100
AcDbEntity
  8
1
  6
Continuous
100
AcDbCircle
 10
110.499948
 20
211.6250579999999
 30
0.0
 40
70.0
100
AcDbArc
 50
172.4108329999999
 51
179.1441669999999
  0
LINE
  5
C717
330
C592
100
AcDbEntity
  8
1
  6
Continuous
100
AcDbLine
 10
39.50100299999999
 20
211.6717459999999
 30
0.0
 11
40.50779799999999
 21
212.670715
 31
0.0
  0
LINE
  5
C718
330
C592
100
AcDbEntity
  8
1
  6
Continuous
100
AcDbLine
 10
39.499907
 20
207.1717459999999
 30
0.0
 11
39.399955
 21
207.1717459999999
 31
0.0
  0
LINE
  5
C719
330
C592
100
AcDbEntity
  8
1
  6
Continuous
100
AcDbLine
 10
81.500003
 20
207.1717459999999
 30
0.0
 11
81.59995499999999
 21
207.1717459999999
 31
0.0
  0
LINE
  5
C71A
330
C592
100
AcDbEntity
  8
1
  6
Continuous
100
AcDbLine
 10
81.499003
 20
211.6717459999999
 30
0.0
 11
80.49220899999998
 21
212.670715
 31
0.0
  0
ARC
  5
C71B
330
C592
100
AcDbEntity
  8
1
  6
Continuous
100
AcDbCircle
 10
60.500003
 20
81.671746
 30
0.0
 40
150.0
100
AcDbArc
 50
84.10306
 51
95.89693999999999
  0
ARC
  5
C71C
330
C592
100
AcDbEntity
  8
1
  6
Continuous
100
AcDbCircle
 10
45.50004799999999
 20
226.899158
 30
0.0
 40
4.0
100
AcDbArc
 50
95.89693999999999
 51
180.0
  0
ARC
  5
C71D
330
C592
100
AcDbEntity
  8
1
  6
Continuous
100
AcDbCircle
 10
42.60004799999999
 20
220.671758
 30
0.0
 40
1.5
100
AcDbArc
 50
137.1665719999998
 51
172.4108329999999
  0
ARC
  5
C71E
330
C592
100
AcDbEntity
  8
1
  6
Continuous
100
AcDbCircle
 10
75.49995899999998
 20
226.899158
 30
0.0
 40
4.0
100
AcDbArc
 50
0.0
 51
84.10306
  0
ARC
  5
C71F
330
C592
100
AcDbEntity
  8
1
  6
Continuous
100
AcDbCircle
 10
78.39995899999998
 20
220.671758
 30
0.0
 40
1.5
100
AcDbArc
 50
7.589166999999997
 51
42.83342799999998
  0
LINE
  5
C720
330
C592
100
AcDbEntity
  8
1
  6
Continuous
100
AcDbLine
 10
81.500003
 20
191.171746
 30
0.0
 11
81.59995499999999
 21
191.171746
 31
0.0
  0
LINE
  5
C721
330
C592
100
AcDbEntity
  8
1
  6
Continuous
100
AcDbLine
 10
81.499003
 20
186.6717459999999
 30
0.0
 11
80.49220899999998
 21
185.672776
 31
0.0
  0
ARC
  5
C722
330
C592
100
AcDbEntity
  8
1
  6
Continuous
100
AcDbCircle
 10
10.500059
 20
186.718433
 30
0.0
 40
70.0
100
AcDbArc
 50
352.410833
 51
359.144167
  0
ARC
  5
C723
330
C592
100
AcDbEntity
  8
1
  6
Continuous
100
AcDbCircle
 10
78.39995899999998
 20
177.6717329999999
 30
0.0
 40
1.5
100
AcDbArc
 50
317.166572
 51
352.410833
  0
ARC
  5
C724
330
C592
100
AcDbEntity
  8
1
  6
Continuous
100
AcDbCircle
 10
75.49995899999998
 20
171.4443329999998
 30
0.0
 40
4.0
100
AcDbArc
 50
275.8969399999999
 51
0.0
  0
LINE
  5
C725
330
C592
100
AcDbEntity
  8
1
  6
Continuous
100
AcDbLine
 10
79.49995899999997
 20
171.4443329999998
 30
0.0
 11
79.49995899999997
 21
226.899158
 31
0.0
  0
LINE
  5
C726
330
C592
100
AcDbEntity
  8
1
  6
Continuous
100
AcDbLine
 10
80.49224999999998
 20
185.672875
 30
0.0
 11
80.49224999999998
 21
212.6706189999999
 31
0.0
  0
ARC
  5
C727
330
C592
100
AcDbEntity
  8
1
  6
Continuous
100
AcDbCircle
 10
60.500003
 20
316.671746
 30
0.0
 40
150.0
100
AcDbArc
 50
264.10306
 51
275.8969399999999
  0
LINE
  5
C728
330
C592
100
AcDbEntity
  8
1
  6
Continuous
100
AcDbLine
 10
41.500048
 20
171.4443329999998
 30
0.0
 11
41.500048
 21
226.899158
 31
0.0
  0
ARC
  5
C729
330
C592
100
AcDbEntity
  8
1
  6
Continuous
100
AcDbCircle
 10
45.50004799999999
 20
171.4443329999998
 30
0.0
 40
4.0
100
AcDbArc
 50
180.0
 51
264.10306
  0
ARC
  5
C72A
330
C592
100
AcDbEntity
  8
1
  6
Continuous
100
AcDbCircle
 10
42.60004799999999
 20
177.6717329999999
 30
0.0
 40
1.5
100
AcDbArc
 50
187.5891669999998
 51
222.8334279999999
  0
ARC
  5
C72B
330
C592
100
AcDbEntity
  8
1
  6
Continuous
100
AcDbCircle
 10
110.499948
 20
186.718433
 30
0.0
 40
70.0
100
AcDbArc
 50
180.855881
 51
187.5891669999998
  0
LINE
  5
C72C
330
C592
100
AcDbEntity
  8
1
  6
Continuous
100
AcDbLine
 10
40.50775699999999
 20
185.672875
 30
0.0
 11
40.50775699999999
 21
212.6706189999999
 31
0.0
  0
LINE
  5
C72D
330
C592
100
AcDbEntity
  8
1
  6
Continuous
100
AcDbLine
 10
39.500003
 20
186.672738
 30
0.0
 11
39.500003
 21
211.6707539999999
 31
0.0
  0
LINE
  5
C72E
330
C592
100
AcDbEntity
  8
1
  6
Continuous
100
AcDbLine
 10
39.500003
 20
186.672738
 30
0.0
 11
40.50775699999999
 21
185.6728169999999
 31
0.0
  0
LINE
  5
C72F
330
C592
100
AcDbEntity
  8
1
  6
Continuous
100
AcDbLine
 10
39.499907
 20
191.171746
 30
0.0
 11
39.399955
 21
191.171746
 31
0.0
  0
LINE
  5
C730
330
C592
100
AcDbEntity
  8
1
  6
Continuous
100
AcDbLine
 10
81.500003
 20
186.672738
 30
0.0
 11
81.500003
 21
211.6707539999999
 31
0.0
  0
LINE
  5
C731
330
C592
100
AcDbEntity
  8
1
  6
Continuous
100
AcDbLine
 10
216.225273
 20
97.500928
 30
0.0
 11
216.225273
 21
97.40088
 31
0.0
  0
LINE
  5
C732
330
C592
100
AcDbEntity
  8
1
  6
Continuous
100
AcDbLine
 10
200.2252729999999
 20
97.500928
 30
0.0
 11
200.2252729999999
 21
97.40088
 31
0.0
  0
LINE
  5
C733
330
C592
100
AcDbEntity
  8
1
  6
Continuous
100
AcDbLine
 10
216.225273
 20
55.40088
 30
0.0
 11
216.225273
 21
55.30092800000001
 31
0.0
  0
LINE
  5
C734
330
C592
100
AcDbEntity
  8
1
  6
Continuous
100
AcDbLine
 10
200.2252729999999
 20
55.40088
 30
0.0
 11
200.2252729999999
 21
55.30092800000001
 31
0.0
  0
CIRCLE
  5
C735
330
C592
100
AcDbEntity
  8
1
  6
Continuous
100
AcDbCircle
 10
208.2251779999999
 20
199.171712
 30
0.0
 40
3.549999999999998
  0
ENDSEC
  0
SECTION
  2
OBJECTS
  0
DICTIONARY
  5
C580
330
0
100
AcDbDictionary
281
     1
  3
ACAD_CIP_PREVIOUS_PRODUCT_INFO
350
C797
  3
ACAD_COLOR
350
C779
  3
ACAD_DETAILVIEWSTYLE
350
C792
  3
ACAD_GROUP
350
C581
  3
ACAD_LAYOUT
350
C58D
  3
ACAD_MATERIAL
350
C747
  3
ACAD_MLEADERSTYLE
350
C78E
  3
ACAD_MLINESTYLE
350
C58A
  3
ACAD_PLOTSETTINGS
350
C58C
  3
ACAD_PLOTSTYLENAME
350
C745
  3
ACAD_SCALELIST
350
C77C
  3
ACAD_SECTIONVIEWSTYLE
350
C790
  3
ACAD_TABLESTYLE
350
C77A
  3
ACAD_VISUALSTYLE
350
C760
  3
ACDB_RECOMPOSE_DATA
350
C7B5
  3
AcDbVariableDictionary
350
C7A8
  3
DWGPROPS
350
C7B6
  0
DICTIONARY
  5
C798
330
C584
100
AcDbDictionary
280
     1
281
     1
  3
ADSK_XREC_LAYER_RECONCILED
360
C799
  0
DICTIONARY
  5
C79A
330
C59A
100
AcDbDictionary
280
     1
281
     1
  3
ADSK_XREC_LAYER_RECONCILED
360
C79B
  0
DICTIONARY
  5
C79C
330
C59B
100
AcDbDictionary
280
     1
281
     1
  3
ADSK_XREC_LAYER_RECONCILED
360
C79D
  0
DICTIONARY
  5
C79E
330
C59C
100
AcDbDictionary
280
     1
281
     1
  3
ADSK_XREC_LAYER_RECONCILED
360
C79F
  0
DICTIONARY
  5
C7A0
330
C59D
100
AcDbDictionary
280
     1
281
     1
  3
ADSK_XREC_LAYER_RECONCILED
360
C7A1
  0
DICTIONARY
  5
C7A2
330
C59E
100
AcDbDictionary
280
     1
281
     1
  3
ADSK_XREC_LAYER_RECONCILED
360
C7A3
  0
DICTIONARY
  5
C7A4
330
C59F
100
AcDbDictionary
280
     1
281
     1
  3
ADSK_XREC_LAYER_RECONCILED
360
C7A5
  0
DICTIONARY
  5
C7A6
330
C5A0
100
AcDbDictionary
280
     1
281
     1
  3
ADSK_XREC_LAYER_RECONCILED
360
C7A7
  0
DICTIONARY
  5
C740
330
C592
100
AcDbDictionary
281
     1
  3
ACAD_LAYOUTSELFREF
350
C741
  0
DICTIONARY
  5
C73E
330
C58E
100
AcDbDictionary
281
     1
  3
ACAD_LAYOUTSELFREF
350
C73F
  0
XRECORD
  5
C797
102
{ACAD_REACTORS
330
C580
102
}
330
C580
100
AcDbXrecord
280
     1
300
ACDLT
300
2014
300
ACDLT_F_S
  0
DICTIONARY
  5
C779
102
{ACAD_REACTORS
330
C580
102
}
330
C580
100
AcDbDictionary
281
     1
  0
DICTIONARY
  5
C792
102
{ACAD_REACTORS
330
C580
102
}
330
C580
100
AcDbDictionary
281
     1
  3
Imperial24
350
C793
  0
DICTIONARY
  5
C581
102
{ACAD_REACTORS
330
C580
102
}
330
C580
100
AcDbDictionary
281
     1
  0
DICTIONARY
  5
C58D
102
{ACAD_REACTORS
330
C580
102
}
330
C580
100
AcDbDictionary
281
     1
  3
Model
350
C794
  3
レイアウト1
350
C795
  0
DICTIONARY
  5
C747
102
{ACAD_REACTORS
330
C580
102
}
330
C580
100
AcDbDictionary
281
     1
  3
ByBlock
350
C750
  3
ByLayer
350
C748
  3
Global
350
C758
  0
DICTIONARY
  5
C78E
102
{ACAD_REACTORS
330
C580
102
}
330
C580
100
AcDbDictionary
281
     1
  3
Standard
350
C78F
  0
DICTIONARY
  5
C58A
102
{ACAD_REACTORS
330
C580
102
}
330
C580
100
AcDbDictionary
281
     1
  3
STANDARD
350
C58B
  0
DICTIONARY
  5
C58C
102
{ACAD_REACTORS
330
C580
102
}
330
C580
100
AcDbDictionary
281
     1
  0
ACDBDICTIONARYWDFLT
  5
C745
102
{ACAD_REACTORS
330
C580
102
}
330
C580
100
AcDbDictionary
281
     1
  3
Normal
350
C746
100
AcDbDictionaryWithDefault
340
C746
  0
DICTIONARY
  5
C77C
102
{ACAD_REACTORS
330
C580
102
}
330
C580
100
AcDbDictionary
281
     1
  3
A0
350
C77D
  3
A1
350
C77E
  3
A2
350
C77F
  3
A3
350
C780
  3
A4
350
C781
  3
A5
350
C782
  3
A6
350
C783
  3
A7
350
C784
  3
A8
350
C785
  3
A9
350
C786
  3
B0
350
C787
  3
B1
350
C788
  3
B2
350
C789
  3
B3
350
C78A
  3
B4
350
C78B
  3
B5
350
C78C
  3
B6
350
C78D
  0
DICTIONARY
  5
C790
102
{ACAD_REACTORS
330
C580
102
}
330
C580
100
AcDbDictionary
281
     1
  3
Imperial24
350
C791
  0
DICTIONARY
  5
C77A
102
{ACAD_REACTORS
330
C580
102
}
330
C580
100
AcDbDictionary
281
     1
  3
Standard
350
C77B
  0
DICTIONARY
  5
C760
102
{ACAD_REACTORS
330
C580
102
}
330
C580
100
AcDbDictionary
281
     1
  3
2dWireframe
350
C766
  3
Basic
350
C765
  3
Brighten
350
C76C
  3
ColorChange
350
C770
  3
Conceptual
350
C769
  3
Dim
350
C76B
  3
EdgeColorOff
350
C778
  3
Facepattern
350
C76F
  3
Flat
350
C761
  3
FlatWithEdges
350
C762
  3
Gouraud
350
C763
  3
GouraudWithEdges
350
C764
  3
Hidden
350
C768
  3
JitterOff
350
C776
  3
Linepattern
350
C76E
  3
OverhangOff
350
C777
  3
Realistic
350
C76A
  3
Shaded
350
C775
  3
Shaded with edges
350
C774
  3
Shades of Gray
350
C771
  3
Sketchy
350
C772
  3
Thicken
350
C76D
  3
Wireframe
350
C767
  3
X-Ray
350
C773
  0
XRECORD
  5
C7B5
102
{ACAD_REACTORS
330
C580
102
}
330
C580
100
AcDbXrecord
280
     1
 90
        1
330
C77B
  0
DICTIONARY
  5
C7A8
102
{ACAD_REACTORS
330
C580
102
}
330
C580
100
AcDbDictionary
281
     1
  3
CANNOSCALE
350
C7AD
  3
CMLEADERSTYLE
350
C7AA
  3
CTABLESTYLE
350
C7A9
  3
CVIEWDETAILSTYLE
350
C7AB
  3
CVIEWSECTIONSTYLE
350
C7AC
  3
DIMASSOC
350
C7B0
  3
INDEXCTL
350
C7AF
  3
SORTENTS
350
C7AE
  3
XCLIPFRAME
350
C7B1
  0
XRECORD
  5
C7B6
102
{ACAD_REACTORS
330
C580
102
}
330
C580
100
AcDbXrecord
280
     1
  1
DWGPROPS COOKIE
  2

  3

  4

  6

  7

  8
Yoshitsune
  9

300
=
301
=
302
=
303
=
304
=
305
=
306
=
307
=
308
=
309
=
 40
0.000009525462963
 41
2451301.622303819
 42
2457192.688433287
  1

 90
        0
  0
XRECORD
  5
C799
102
{ACAD_REACTORS
330
C798
102
}
330
C798
100
AcDbXrecord
280
     1
290
     1
  0
XRECORD
  5
C79B
102
{ACAD_REACTORS
330
C79A
102
}
330
C79A
100
AcDbXrecord
280
     1
290
     1
  0
XRECORD
  5
C79D
102
{ACAD_REACTORS
330
C79C
102
}
330
C79C
100
AcDbXrecord
280
     1
290
     1
  0
XRECORD
  5
C79F
102
{ACAD_REACTORS
330
C79E
102
}
330
C79E
100
AcDbXrecord
280
     1
290
     1
  0
XRECORD
  5
C7A1
102
{ACAD_REACTORS
330
C7A0
102
}
330
C7A0
100
AcDbXrecord
280
     1
290
     1
  0
XRECORD
  5
C7A3
102
{ACAD_REACTORS
330
C7A2
102
}
330
C7A2
100
AcDbXrecord
280
     1
290
     1
  0
XRECORD
  5
C7A5
102
{ACAD_REACTORS
330
C7A4
102
}
330
C7A4
100
AcDbXrecord
280
     1
290
     1
  0
XRECORD
  5
C7A7
102
{ACAD_REACTORS
330
C7A6
102
}
330
C7A6
100
AcDbXrecord
280
     1
290
     1
  0
XRECORD
  5
C741
102
{ACAD_REACTORS
330
C740
102
}
330
C740
100
AcDbXrecord
280
     1
340
C592
  0
XRECORD
  5
C73F
102
{ACAD_REACTORS
330
C73E
102
}
330
C73E
100
AcDbXrecord
280
     1
340
C58E
  0
ACDBDETAILVIEWSTYLE
  5
C793
102
{ACAD_XDICTIONARY
360
C7EE
102
}
102
{ACAD_REACTORS
330
C792
102
}
330
C792
100
AcDbModelDocViewStyle
 70
     0
  3
Imperial24
290
     0
100
AcDbDetailViewStyle
 70
     0
 71
     0
 90
        3
 71
     1
340
C585
 40
0.24
340
0
 40
0.24
300

 40
0.36
280
     3
 71
     2
340
C589
 90
       25
 71
     3
340
C585
 40
0.24
 90
        1
 40
0.75
 90
        1
300
%<\AcVar ViewType \f "%tc1">% %<\AcVar ViewDetailId>%\PSCALE %<\AcVar ViewScale \f "%sn">%
 71
     4
340
C589
 90
       25
340
C589
 90
       25
280
     0
  0
LAYOUT
  5
C794
102
{ACAD_XDICTIONARY
360
C7F0
102
}
102
{ACAD_REACTORS
330
C58D
102
}
330
C58D
100
AcDbPlotSettings
  1

  2
Canon LBP9100C
  4

  6

 40
0.0
 41
0.0
 42
0.0
 43
0.0
 44
0.0
 45
0.0
 46
0.0
 47
0.0
 48
0.0
 49
0.0
140
0.0
141
0.0
142
1.0
143
1.0
 70
  1712
 72
     0
 73
     0
 74
     0
  7

 75
     0
147
1.0
148
0.0
149
0.0
100
AcDbLayout
  1
Model
 70
     1
 71
     0
 10
0.0
 20
0.0
 11
12.0
 21
9.0
 12
0.0
 22
0.0
 32
0.0
 14
0.0
 24
0.0
 34
0.0
 15
0.0
 25
0.0
 35
0.0
146
0.0
 13
0.0
 23
0.0
 33
0.0
 16
1.0
 26
0.0
 36
0.0
 17
0.0
 27
1.0
 37
0.0
 76
     0
330
C592
331
C73D
  0
LAYOUT
  5
C795
102
{ACAD_XDICTIONARY
360
C7F2
102
}
102
{ACAD_REACTORS
330
C58D
102
}
330
C58D
100
AcDbPlotSettings
  1

  2
Canon LBP9100C
  4

  6

 40
0.0
 41
0.0
 42
0.0
 43
0.0
 44
0.0
 45
0.0
 46
0.0
 47
0.0
 48
0.0
 49
0.0
140
0.0
141
0.0
142
1.0
143
1.0
 70
   688
 72
     0
 73
     0
 74
     5
  7

 75
    16
147
1.0
148
0.0
149
0.0
100
AcDbLayout
  1
レイアウト1
 70
     0
 71
     1
 10
0.0
 20
0.0
 11
420.0
 21
297.0
 12
0.0
 22
0.0
 32
0.0
 14
1.000000000000000E+20
 24
1.000000000000000E+20
 34
1.000000000000000E+20
 15
-1.000000000000000E+20
 25
-1.000000000000000E+20
 35
-1.000000000000000E+20
146
0.0
 13
0.0
 23
0.0
 33
0.0
 16
1.0
 26
0.0
 36
0.0
 17
0.0
 27
1.0
 37
0.0
 76
     0
330
C58E
  0
MATERIAL
  5
C750
102
{ACAD_XDICTIONARY
360
C751
102
}
102
{ACAD_REACTORS
330
C747
102
}
330
C747
100
AcDbMaterial
  1
ByBlock
 72
     0
 43
0.0208333333333333
 43
0.0
 43
0.0
 43
0.0
 43
0.0
 43
0.0208333333333333
 43
0.0
 43
0.0
 43
0.0
 43
0.0
 43
1.0
 43
0.0
 43
0.0
 43
0.0
 43
0.0
 43
1.0
 77
     0
 47
0.0208333333333333
 47
0.0
 47
0.0
 47
0.0
 47
0.0
 47
0.0208333333333333
 47
0.0
 47
0.0
 47
0.0
 47
0.0
 47
1.0
 47
0.0
 47
0.0
 47
0.0
 47
0.0
 47
1.0
171
     0
 49
0.0208333333333333
 49
0.0
 49
0.0
 49
0.0
 49
0.0
 49
0.0208333333333333
 49
0.0
 49
0.0
 49
0.0
 49
0.0
 49
1.0
 49
0.0
 49
0.0
 49
0.0
 49
0.0
 49
1.0
175
     0
142
0.0208333333333333
142
0.0
142
0.0
142
0.0
142
0.0
142
0.0208333333333333
142
0.0
142
0.0
142
0.0
142
0.0
142
1.0
142
0.0
142
0.0
142
0.0
142
0.0
142
1.0
179
     0
144
0.0208333333333333
144
0.0
144
0.0
144
0.0
144
0.0
144
0.0208333333333333
144
0.0
144
0.0
144
0.0
144
0.0
144
1.0
144
0.0
144
0.0
144
0.0
144
0.0
144
1.0
147
0.0208333333333333
147
0.0
147
0.0
147
0.0
147
0.0
147
0.0208333333333333
147
0.0
147
0.0
147
0.0
147
0.0
147
1.0
147
0.0
147
0.0
147
0.0
147
0.0
147
1.0
  0
MATERIAL
  5
C748
102
{ACAD_XDICTIONARY
360
C749
102
}
102
{ACAD_REACTORS
330
C747
102
}
330
C747
100
AcDbMaterial
  1
ByLayer
 72
     0
 43
0.0208333333333333
 43
0.0
 43
0.0
 43
0.0
 43
0.0
 43
0.0208333333333333
 43
0.0
 43
0.0
 43
0.0
 43
0.0
 43
1.0
 43
0.0
 43
0.0
 43
0.0
 43
0.0
 43
1.0
 77
     0
 47
0.0208333333333333
 47
0.0
 47
0.0
 47
0.0
 47
0.0
 47
0.0208333333333333
 47
0.0
 47
0.0
 47
0.0
 47
0.0
 47
1.0
 47
0.0
 47
0.0
 47
0.0
 47
0.0
 47
1.0
171
     0
 49
0.0208333333333333
 49
0.0
 49
0.0
 49
0.0
 49
0.0
 49
0.0208333333333333
 49
0.0
 49
0.0
 49
0.0
 49
0.0
 49
1.0
 49
0.0
 49
0.0
 49
0.0
 49
0.0
 49
1.0
175
     0
142
0.0208333333333333
142
0.0
142
0.0
142
0.0
142
0.0
142
0.0208333333333333
142
0.0
142
0.0
142
0.0
142
0.0
142
1.0
142
0.0
142
0.0
142
0.0
142
0.0
142
1.0
179
     0
144
0.0208333333333333
144
0.0
144
0.0
144
0.0
144
0.0
144
0.0208333333333333
144
0.0
144
0.0
144
0.0
144
0.0
144
1.0
144
0.0
144
0.0
144
0.0
144
0.0
144
1.0
147
0.0208333333333333
147
0.0
147
0.0
147
0.0
147
0.0
147
0.0208333333333333
147
0.0
147
0.0
147
0.0
147
0.0
147
1.0
147
0.0
147
0.0
147
0.0
147
0.0
147
1.0
  0
MATERIAL
  5
C758
102
{ACAD_XDICTIONARY
360
C759
102
}
102
{ACAD_REACTORS
330
C747
102
}
330
C747
100
AcDbMaterial
  1
Global
 72
     0
 43
0.0208333333333333
 43
0.0
 43
0.0
 43
0.0
 43
0.0
 43
0.0208333333333333
 43
0.0
 43
0.0
 43
0.0
 43
0.0
 43
1.0
 43
0.0
 43
0.0
 43
0.0
 43
0.0
 43
1.0
 77
     0
 47
0.0208333333333333
 47
0.0
 47
0.0
 47
0.0
 47
0.0
 47
0.0208333333333333
 47
0.0
 47
0.0
 47
0.0
 47
0.0
 47
1.0
 47
0.0
 47
0.0
 47
0.0
 47
0.0
 47
1.0
171
     0
 49
0.0208333333333333
 49
0.0
 49
0.0
 49
0.0
 49
0.0
 49
0.0208333333333333
 49
0.0
 49
0.0
 49
0.0
 49
0.0
 49
1.0
 49
0.0
 49
0.0
 49
0.0
 49
0.0
 49
1.0
175
     0
142
0.0208333333333333
142
0.0
142
0.0
142
0.0
142
0.0
142
0.0208333333333333
142
0.0
142
0.0
142
0.0
142
0.0
142
1.0
142
0.0
142
0.0
142
0.0
142
0.0
142
1.0
179
     0
144
0.0208333333333333
144
0.0
144
0.0
144
0.0
144
0.0
144
0.0208333333333333
144
0.0
144
0.0
144
0.0
144
0.0
144
1.0
144
0.0
144
0.0
144
0.0
144
0.0
144
1.0
147
0.0208333333333333
147
0.0
147
0.0
147
0.0
147
0.0
147
0.0208333333333333
147
0.0
147
0.0
147
0.0
147
0.0
147
1.0
147
0.0
147
0.0
147
0.0
147
0.0
147
1.0
  0
MLEADERSTYLE
  5
C78F
102
{ACAD_REACTORS
330
C78E
102
}
330
C78E
100
AcDbMLeaderStyle
170
     2
171
     1
172
     0
 90
        2
 40
0.0
 41
0.0
173
     1
 91
-1056964608
340
C587
 92
       -2
290
     1
 42
0.09
291
     1
 43
0.36
  3
Standard
 44
0.18
300

342
C585
174
     1
178
     6
175
     1
176
     0
 93
-1056964608
 45
0.18
292
     0
297
     0
 46
0.18
 94
-1056964608
 47
1.0
 49
1.0
140
1.0
293
     1
141
0.0
294
     1
177
     0
142
1.0
295
     0
296
     0
143
0.125
1001
ACAD_MLEADERVER
1070
     2
  0
MLINESTYLE
  5
C58B
102
{ACAD_REACTORS
330
C58A
102
}
330
C58A
100
AcDbMlineStyle
  2
STANDARD
 70
     0
  3

 62
   256
 51
90.0
 52
90.0
 71
     2
 49
0.5
 62
   256
  6
BYLAYER
 49
-0.5
 62
   256
  6
BYLAYER
  0
ACDBPLACEHOLDER
  5
C746
102
{ACAD_REACTORS
330
C745
102
}
330
C745
  0
SCALE
  5
C77D
102
{ACAD_REACTORS
330
C77C
102
}
330
C77C
100
AcDbScale
 70
     0
300
1:1
140
1.0
141
1.0
290
     1
  0
SCALE
  5
C77E
102
{ACAD_REACTORS
330
C77C
102
}
330
C77C
100
AcDbScale
 70
     0
300
1/128" = 1'-0"
140
0.0078125
141
12.0
290
     0
  0
SCALE
  5
C77F
102
{ACAD_REACTORS
330
C77C
102
}
330
C77C
100
AcDbScale
 70
     0
300
1/64" = 1'-0"
140
0.015625
141
12.0
290
     0
  0
SCALE
  5
C780
102
{ACAD_REACTORS
330
C77C
102
}
330
C77C
100
AcDbScale
 70
     0
300
1/32" = 1'-0"
140
0.03125
141
12.0
290
     0
  0
SCALE
  5
C781
102
{ACAD_REACTORS
330
C77C
102
}
330
C77C
100
AcDbScale
 70
     0
300
1/16" = 1'-0"
140
0.0625
141
12.0
290
     0
  0
SCALE
  5
C782
102
{ACAD_REACTORS
330
C77C
102
}
330
C77C
100
AcDbScale
 70
     0
300
3/32" = 1'-0"
140
0.09375
141
12.0
290
     0
  0
SCALE
  5
C783
102
{ACAD_REACTORS
330
C77C
102
}
330
C77C
100
AcDbScale
 70
     0
300
1/8" = 1'-0"
140
0.125
141
12.0
290
     0
  0
SCALE
  5
C784
102
{ACAD_REACTORS
330
C77C
102
}
330
C77C
100
AcDbScale
 70
     0
300
3/16" = 1'-0"
140
0.1875
141
12.0
290
     0
  0
SCALE
  5
C785
102
{ACAD_REACTORS
330
C77C
102
}
330
C77C
100
AcDbScale
 70
     0
300
1/4" = 1'-0"
140
0.25
141
12.0
290
     0
  0
SCALE
  5
C786
102
{ACAD_REACTORS
330
C77C
102
}
330
C77C
100
AcDbScale
 70
     0
300
3/8" = 1'-0"
140
0.375
141
12.0
290
     0
  0
SCALE
  5
C787
102
{ACAD_REACTORS
330
C77C
102
}
330
C77C
100
AcDbScale
 70
     0
300
1/2" = 1'-0"
140
0.5
141
12.0
290
     0
  0
SCALE
  5
C788
102
{ACAD_REACTORS
330
C77C
102
}
330
C77C
100
AcDbScale
 70
     0
300
3/4" = 1'-0"
140
0.75
141
12.0
290
     0
  0
SCALE
  5
C789
102
{ACAD_REACTORS
330
C77C
102
}
330
C77C
100
AcDbScale
 70
     0
300
1" = 1'-0"
140
1.0
141
12.0
290
     0
  0
SCALE
  5
C78A
102
{ACAD_REACTORS
330
C77C
102
}
330
C77C
100
AcDbScale
 70
     0
300
1-1/2" = 1'-0"
140
1.5
141
12.0
290
     0
  0
SCALE
  5
C78B
102
{ACAD_REACTORS
330
C77C
102
}
330
C77C
100
AcDbScale
 70
     0
300
3" = 1'-0"
140
3.0
141
12.0
290
     0
  0
SCALE
  5
C78C
102
{ACAD_REACTORS
330
C77C
102
}
330
C77C
100
AcDbScale
 70
     0
300
6" = 1'-0"
140
6.0
141
12.0
290
     0
  0
SCALE
  5
C78D
102
{ACAD_REACTORS
330
C77C
102
}
330
C77C
100
AcDbScale
 70
     0
300
1'-0" = 1'-0"
140
12.0
141
12.0
290
     0
  0
ACDBSECTIONVIEWSTYLE
  5
C791
102
{ACAD_XDICTIONARY
360
C7EC
102
}
102
{ACAD_REACTORS
330
C790
102
}
330
C790
100
AcDbModelDocViewStyle
 70
     0
  3
Imperial24
290
     0
100
AcDbSectionViewStyle
 70
     0
 71
     0
 90
       78
 71
     1
340
C585
 40
0.24
340
0
340
0
 40
0.24
300
I, O, Q, S, X, Z
 40
0.48
 90
        3
 40
0.18
 90
        1
 71
     2
340
C589
 90
       25
340
C589
 90
       50
 40
0.24
 40
0.0
 40
0.24
 71
     3
340
C585
 40
0.24
 90
        1
 40
0.75
 90
        1
300
%<\AcVar ViewType \f "%tc1">% %<\AcVar ViewSectionStartId>%-%<\AcVar ViewSectionEndId>%\PSCALE %<\AcVar ViewScale \f "%sn">%
 71
     4
300
ANSI31
 40
1.0
 90
        0
290
     0
290
     0
 90
        6
 40
0.0
 40
1.570796326794896
 40
0.2617993877991494
 40
1.308996938995747
 40
-0.2617993877991494
 40
1.832595714594046
  0
TABLESTYLE
  5
C77B
102
{ACAD_XDICTIONARY
360
C7B3
102
}
102
{ACAD_REACTORS
330
C77A
102
}
330
C77A
100
AcDbTableStyle
  3
Standard
 70
     0
 71
     0
 40
0.06
 41
0.06
280
     0
281
     0
  7
STANDARD
140
0.18
170
     2
 62
     0
 63
     7
283
     0
274
    -2
284
     1
 64
     0
275
    -2
285
     1
 65
     0
276
    -2
286
     1
 66
     0
277
    -2
287
     1
 67
     0
278
    -2
288
     1
 68
     0
279
    -2
289
     1
 69
     0
  7
STANDARD
140
0.25
170
     5
 62
     0
 63
     7
283
     0
274
    -2
284
     1
 64
     0
275
    -2
285
     1
 65
     0
276
    -2
286
     1
 66
     0
277
    -2
287
     1
 67
     0
278
    -2
288
     1
 68
     0
279
    -2
289
     1
 69
     0
  7
STANDARD
140
0.18
170
     5
 62
     0
 63
     7
283
     0
274
    -2
284
     1
 64
     0
275
    -2
285
     1
 65
     0
276
    -2
286
     1
 66
     0
277
    -2
287
     1
 67
     0
278
    -2
288
     1
 68
     0
279
    -2
289
     1
 69
     0
  0
VISUALSTYLE
  5
C766
102
{ACAD_XDICTIONARY
360
C7C4
102
}
102
{ACAD_REACTORS
330
C760
102
}
330
C760
100
AcDbVisualStyle
  2
2dWireframe
 70
     4
 71
     0
 72
     2
 73
     0
 90
        0
 40
-0.6
 41
-30.0
 62
     5
 63
     7
 74
     1
 91
        4
 64
     7
 65
   257
 75
     1
175
     1
 42
1.0
 92
        0
 66
   257
 43
1.0
 76
     1
 77
     6
 78
     2
 67
     7
 79
     5
170
     0
171
     0
290
     0
174
     0
 93
        1
 44
0.0
173
     0
291
     0
 45
0.0
1001
ACAD
1000
AcDbSavedByObjectVersion
1070
     0
  0
VISUALSTYLE
  5
C765
102
{ACAD_XDICTIONARY
360
C7C2
102
}
102
{ACAD_REACTORS
330
C760
102
}
330
C760
100
AcDbVisualStyle
  2
Basic
 70
     7
 71
     1
 72
     0
 73
     1
 90
        0
 40
-0.6
 41
-30.0
 62
     5
 63
     7
 74
     0
 91
        4
 64
     7
 65
   257
 75
     1
175
     1
 42
1.0
 92
        8
 66
     7
 43
1.0
 76
     1
 77
     6
 78
     2
 67
     7
 79
     5
170
     0
171
     0
290
     0
174
     0
 93
        1
 44
0.0
173
     0
291
     1
 45
0.0
1001
ACAD
1000
AcDbSavedByObjectVersion
1070
     0
  0
VISUALSTYLE
  5
C76C
102
{ACAD_XDICTIONARY
360
C7D0
102
}
102
{ACAD_REACTORS
330
C760
102
}
330
C760
100
AcDbVisualStyle
  2
Brighten
 70
    12
 71
     2
 72
     2
 73
     0
 90
        0
 40
-0.6
 41
-30.0
 62
     5
 63
     7
 74
     1
 91
        4
 64
     7
 65
   257
 75
     1
175
     1
 42
1.0
 92
        8
 66
     7
 43
1.0
 76
     1
 77
     6
 78
     2
 67
     7
 79
     5
170
     0
171
     0
290
     0
174
     0
 93
        1
 44
50.0
173
     0
291
     1
 45
0.0
1001
ACAD
1000
AcDbSavedByObjectVersion
1070
     0
  0
VISUALSTYLE
  5
C770
102
{ACAD_XDICTIONARY
360
C7D8
102
}
102
{ACAD_REACTORS
330
C760
102
}
330
C760
100
AcDbVisualStyle
  2
ColorChange
 70
    16
 71
     2
 72
     2
 73
     3
 90
        0
 40
-0.6
 41
-30.0
 62
     5
 63
     8
 74
     1
 91
        4
 64
     7
 65
   257
 75
     1
175
     1
 42
1.0
 92
        8
 66
     8
 43
1.0
 76
     1
 77
     6
 78
     2
 67
     7
 79
     5
170
     0
171
     0
290
     0
174
     0
 93
        1
 44
0.0
173
     0
291
     1
 45
0.0
1001
ACAD
1000
AcDbSavedByObjectVersion
1070
     0
  0
VISUALSTYLE
  5
C769
102
{ACAD_XDICTIONARY
360
C7CA
102
}
102
{ACAD_REACTORS
330
C760
102
}
330
C760
100
AcDbVisualStyle
  2
Conceptual
 70
     9
 71
     3
 72
     2
 73
     0
 90
        0
 40
-0.6
 41
-30.0
 62
     5
 63
     7
 74
     2
 91
        2
 64
     7
 65
   257
 75
     1
175
     1
 42
179.0
 92
        8
 66
     7
 43
1.0
 76
     1
 77
     6
 78
     2
 67
     7
 79
     3
170
     0
171
     0
290
     0
174
     0
 93
        1
 44
0.0
173
     0
291
     0
 45
0.0
1001
ACAD
1000
AcDbSavedByObjectVersion
1070
     0
  0
VISUALSTYLE
  5
C76B
102
{ACAD_XDICTIONARY
360
C7CE
102
}
102
{ACAD_REACTORS
330
C760
102
}
330
C760
100
AcDbVisualStyle
  2
Dim
 70
    11
 71
     2
 72
     2
 73
     0
 90
        0
 40
-0.6
 41
-30.0
 62
     5
 63
     7
 74
     1
 91
        4
 64
     7
 65
   257
 75
     1
175
     1
 42
1.0
 92
        8
 66
     7
 43
1.0
 76
     1
 77
     6
 78
     2
 67
     7
 79
     5
170
     0
171
     0
290
     0
174
     0
 93
        1
 44
-50.0
173
     0
291
     1
 45
0.0
1001
ACAD
1000
AcDbSavedByObjectVersion
1070
     0
  0
VISUALSTYLE
  5
C778
102
{ACAD_XDICTIONARY
360
C7E8
102
}
102
{ACAD_REACTORS
330
C760
102
}
330
C760
100
AcDbVisualStyle
  2
EdgeColorOff
 70
    22
 71
     2
 72
     2
 73
     0
 90
        0
 40
-0.6
 41
-30.0
 62
     5
 63
     7
 74
     1
 91
        4
 64
     7
 65
   257
 75
     1
175
     1
 42
1.0
 92
        8
 66
     7
 43
1.0
 76
     1
 77
     6
 78
     2
 67
     7
 79
     5
170
     0
171
     0
290
     0
174
     0
 93
        1
 44
0.0
173
     0
291
     1
 45
0.0
1001
ACAD
1000
AcDbSavedByObjectVersion
1070
     0
  0
VISUALSTYLE
  5
C76F
102
{ACAD_XDICTIONARY
360
C7D6
102
}
102
{ACAD_REACTORS
330
C760
102
}
330
C760
100
AcDbVisualStyle
  2
Facepattern
 70
    15
 71
     2
 72
     2
 73
     0
 90
        0
 40
-0.6
 41
-30.0
 62
     5
 63
     7
 74
     1
 91
        4
 64
     7
 65
   257
 75
     1
175
     1
 42
1.0
 92
        8
 66
     7
 43
1.0
 76
     1
 77
     6
 78
     2
 67
     7
 79
     5
170
     0
171
     0
290
     0
174
     0
 93
        1
 44
0.0
173
     0
291
     1
 45
0.0
1001
ACAD
1000
AcDbSavedByObjectVersion
1070
     0
  0
VISUALSTYLE
  5
C761
102
{ACAD_XDICTIONARY
360
C7BA
102
}
102
{ACAD_REACTORS
330
C760
102
}
330
C760
100
AcDbVisualStyle
  2
Flat
 70
     0
 71
     2
 72
     1
 73
     1
 90
        2
 40
-0.6
 41
30.0
 62
     5
 63
     7
 74
     0
 91
        0
 64
     7
 65
   257
 75
     1
175
     1
 42
1.0
 92
        8
 66
     7
 43
1.0
 76
     1
 77
     6
 78
     2
 67
     7
 79
     5
170
     0
171
     0
290
     0
174
     0
 93
       13
 44
0.0
173
     0
291
     1
 45
0.0
1001
ACAD
1000
AcDbSavedByObjectVersion
1070
     0
  0
VISUALSTYLE
  5
C762
102
{ACAD_XDICTIONARY
360
C7BC
102
}
102
{ACAD_REACTORS
330
C760
102
}
330
C760
100
AcDbVisualStyle
  2
FlatWithEdges
 70
     1
 71
     2
 72
     1
 73
     1
 90
        2
 40
-0.6
 41
30.0
 62
     5
 63
     7
 74
     1
 91
        0
 64
     7
 65
   257
 75
     1
175
     1
 42
1.0
 92
        0
 66
   257
 43
1.0
 76
     1
 77
     6
 78
     2
 67
     7
 79
     5
170
     0
171
     0
290
     0
174
     0
 93
       13
 44
0.0
173
     0
291
     1
 45
0.0
1001
ACAD
1000
AcDbSavedByObjectVersion
1070
     0
  0
VISUALSTYLE
  5
C763
102
{ACAD_XDICTIONARY
360
C7BE
102
}
102
{ACAD_REACTORS
330
C760
102
}
330
C760
100
AcDbVisualStyle
  2
Gouraud
 70
     2
 71
     2
 72
     2
 73
     1
 90
        2
 40
-0.6
 41
30.0
 62
     5
 63
     7
 74
     0
 91
        0
 64
     7
 65
   257
 75
     1
175
     1
 42
1.0
 92
        0
 66
     7
 43
1.0
 76
     1
 77
     6
 78
     2
 67
     7
 79
     5
170
     0
171
     0
290
     0
174
     0
 93
       13
 44
0.0
173
     0
291
     1
 45
0.0
1001
ACAD
1000
AcDbSavedByObjectVersion
1070
     0
  0
VISUALSTYLE
  5
C764
102
{ACAD_XDICTIONARY
360
C7C0
102
}
102
{ACAD_REACTORS
330
C760
102
}
330
C760
100
AcDbVisualStyle
  2
GouraudWithEdges
 70
     3
 71
     2
 72
     2
 73
     1
 90
        2
 40
-0.6
 41
30.0
 62
     5
 63
     7
 74
     1
 91
        0
 64
     7
 65
   257
 75
     1
175
     1
 42
1.0
 92
        0
 66
   257
 43
1.0
 76
     1
 77
     6
 78
     2
 67
     7
 79
     5
170
     0
171
     0
290
     0
174
     0
 93
       13
 44
0.0
173
     0
291
     1
 45
0.0
1001
ACAD
1000
AcDbSavedByObjectVersion
1070
     0
  0
VISUALSTYLE
  5
C768
102
{ACAD_XDICTIONARY
360
C7C8
102
}
102
{ACAD_REACTORS
330
C760
102
}
330
C760
100
AcDbVisualStyle
  2
Hidden
 70
     6
 71
     1
 72
     2
 73
     2
 90
        0
 40
-0.6
 41
-30.0
 62
     5
 63
     7
 74
     2
 91
        2
 64
     7
 65
   257
 75
     2
175
     1
 42
40.0
 92
        0
 66
   257
 43
1.0
 76
     1
 77
     6
 78
     2
 67
     7
 79
     3
170
     0
171
     0
290
     0
174
     0
 93
        1
 44
0.0
173
     0
291
     0
 45
0.0
1001
ACAD
1000
AcDbSavedByObjectVersion
1070
     0
  0
VISUALSTYLE
  5
C776
102
{ACAD_XDICTIONARY
360
C7E4
102
}
102
{ACAD_REACTORS
330
C760
102
}
330
C760
100
AcDbVisualStyle
  2
JitterOff
 70
    20
 71
     2
 72
     2
 73
     0
 90
        0
 40
-0.6
 41
-30.0
 62
     5
 63
     7
 74
     1
 91
        4
 64
     7
 65
   257
 75
     1
175
     1
 42
1.0
 92
       10
 66
     7
 43
1.0
 76
     1
 77
     6
 78
     2
 67
     7
 79
     5
170
     0
171
     0
290
     0
174
     0
 93
        1
 44
0.0
173
     0
291
     1
 45
0.0
1001
ACAD
1000
AcDbSavedByObjectVersion
1070
     0
  0
VISUALSTYLE
  5
C76E
102
{ACAD_XDICTIONARY
360
C7D4
102
}
102
{ACAD_REACTORS
330
C760
102
}
330
C760
100
AcDbVisualStyle
  2
Linepattern
 70
    14
 71
     2
 72
     2
 73
     0
 90
        0
 40
-0.6
 41
-30.0
 62
     5
 63
     7
 74
     1
 91
        4
 64
     7
 65
   257
 75
     7
175
     7
 42
1.0
 92
        8
 66
     7
 43
1.0
 76
     1
 77
     6
 78
     2
 67
     7
 79
     5
170
     0
171
     0
290
     0
174
     0
 93
        1
 44
0.0
173
     0
291
     1
 45
0.0
1001
ACAD
1000
AcDbSavedByObjectVersion
1070
     0
  0
VISUALSTYLE
  5
C777
102
{ACAD_XDICTIONARY
360
C7E6
102
}
102
{ACAD_REACTORS
330
C760
102
}
330
C760
100
AcDbVisualStyle
  2
OverhangOff
 70
    21
 71
     2
 72
     2
 73
     0
 90
        0
 40
-0.6
 41
-30.0
 62
     5
 63
     7
 74
     1
 91
        4
 64
     7
 65
   257
 75
     1
175
     1
 42
1.0
 92
        9
 66
     7
 43
1.0
 76
     1
 77
     6
 78
     2
 67
     7
 79
     5
170
     0
171
     0
290
     0
174
     0
 93
        1
 44
0.0
173
     0
291
     1
 45
0.0
1001
ACAD
1000
AcDbSavedByObjectVersion
1070
     0
  0
VISUALSTYLE
  5
C76A
102
{ACAD_XDICTIONARY
360
C7CC
102
}
102
{ACAD_REACTORS
330
C760
102
}
330
C760
100
AcDbVisualStyle
  2
Realistic
 70
     8
 71
     2
 72
     3
 73
     0
 90
        2
 40
-0.6
 41
30.0
 62
     5
 63
     7
 74
     0
 91
        0
 64
     7
 65
   257
 75
     1
175
     1
 42
1.0
 92
        8
 66
   257
 43
1.0
 76
     1
 77
     6
 78
     2
 67
     7
 79
     3
170
     0
171
     0
290
     0
174
     0
 93
       13
 44
0.0
173
     0
291
     0
 45
0.0
1001
ACAD
1000
AcDbSavedByObjectVersion
1070
     0
  0
VISUALSTYLE
  5
C775
102
{ACAD_XDICTIONARY
360
C7E2
102
}
102
{ACAD_REACTORS
330
C760
102
}
330
C760
100
AcDbVisualStyle
  2
Shaded
 70
    27
 71
     2
 72
     2
 73
     1
 90
        2
 40
-0.6
 41
30.0
 62
     5
 63
     7
 74
     0
 91
        4
 64
     7
 65
   257
 75
     1
175
     1
 42
1.0
 92
        8
 66
   257
 43
1.0
 76
     1
 77
     6
 78
     2
 67
     8
 79
     3
170
     0
171
     0
290
     0
174
     0
 93
        5
 44
0.0
173
     0
291
     0
 45
0.0
1001
ACAD
1000
AcDbSavedByObjectVersion
1070
     0
  0
VISUALSTYLE
  5
C774
102
{ACAD_XDICTIONARY
360
C7E0
102
}
102
{ACAD_REACTORS
330
C760
102
}
330
C760
100
AcDbVisualStyle
  2
Shaded with edges
 70
    26
 71
     2
 72
     2
 73
     1
 90
        2
 40
-0.6
 41
30.0
 62
     5
 63
     7
 74
     1
 91
       10
 64
     7
 65
   257
 75
     2
175
     1
 42
1.0
 92
        8
 66
   257
 43
1.0
 76
     1
 77
     6
 78
     2
 67
     7
 79
     3
170
     0
171
     0
290
     0
174
     0
 93
        5
 44
0.0
173
     0
291
     0
 45
0.0
1001
ACAD
1000
AcDbSavedByObjectVersion
1070
     0
  0
VISUALSTYLE
  5
C771
102
{ACAD_XDICTIONARY
360
C7DA
102
}
102
{ACAD_REACTORS
330
C760
102
}
330
C760
100
AcDbVisualStyle
  2
Shades of Gray
 70
    23
 71
     2
 72
     2
 73
     3
 90
        0
 40
-0.6
 41
-30.0
 62
     5
 63
     7
 74
     2
 91
        2
 64
     7
 65
     7
 75
     1
175
     1
 42
40.0
 92
        8
 66
     7
 43
1.0
 76
     1
 77
     6
 78
     2
 67
     7
 79
     3
170
     0
171
     0
290
     0
174
     0
 93
        1
 44
0.0
173
     0
291
     0
 45
0.0
1001
ACAD
1000
AcDbSavedByObjectVersion
1070
     0
  0
VISUALSTYLE
  5
C772
102
{ACAD_XDICTIONARY
360
C7DC
102
}
102
{ACAD_REACTORS
330
C760
102
}
330
C760
100
AcDbVisualStyle
  2
Sketchy
 70
    24
 71
     1
 72
     2
 73
     2
 90
        0
 40
-0.6
 41
-30.0
 62
     5
 63
     7
 74
     2
 91
        2
 64
     7
 65
     7
 75
     1
175
     1
 42
40.0
 92
       11
 66
     7
 43
1.0
 76
     1
 77
     6
 78
     2
 67
     7
 79
     6
170
     0
171
     0
290
     0
174
     0
 93
        1
 44
0.0
173
     0
291
     0
 45
0.0
1001
ACAD
1000
AcDbSavedByObjectVersion
1070
     0
  0
VISUALSTYLE
  5
C76D
102
{ACAD_XDICTIONARY
360
C7D2
102
}
102
{ACAD_REACTORS
330
C760
102
}
330
C760
100
AcDbVisualStyle
  2
Thicken
 70
    13
 71
     2
 72
     2
 73
     0
 90
        0
 40
-0.6
 41
-30.0
 62
     5
 63
     7
 74
     1
 91
        4
 64
     7
 65
   257
 75
     1
175
     1
 42
1.0
 92
       12
 66
     7
 43
1.0
 76
     1
 77
     6
 78
     2
 67
     7
 79
     5
170
     0
171
     0
290
     0
174
     0
 93
        1
 44
0.0
173
     0
291
     1
 45
0.0
1001
ACAD
1000
AcDbSavedByObjectVersion
1070
     0
  0
VISUALSTYLE
  5
C767
102
{ACAD_XDICTIONARY
360
C7C6
102
}
102
{ACAD_REACTORS
330
C760
102
}
330
C760
100
AcDbVisualStyle
  2
Wireframe
 70
     5
 71
     0
 72
     2
 73
     0
 90
        0
 40
-0.6
 41
-30.0
 62
     5
 63
     7
 74
     1
 91
        4
 64
     7
 65
   257
 75
     1
175
     1
 42
1.0
 92
        0
 66
   257
 43
1.0
 76
     1
 77
     6
 78
     2
 67
     7
 79
     3
170
     0
171
     0
290
     0
174
     0
 93
        1
 44
0.0
173
     0
291
     0
 45
0.0
1001
ACAD
1000
AcDbSavedByObjectVersion
1070
     0
  0
VISUALSTYLE
  5
C773
102
{ACAD_XDICTIONARY
360
C7DE
102
}
102
{ACAD_REACTORS
330
C760
102
}
330
C760
100
AcDbVisualStyle
  2
X-Ray
 70
    25
 71
     2
 72
     2
 73
     1
 90
        1
 40
0.5
 41
-30.0
 62
     5
 63
     7
 74
     1
 91
        0
 64
     7
 65
   257
 75
     1
175
     1
 42
1.0
 92
        8
 66
     7
 43
1.0
 76
     1
 77
     6
 78
     2
 67
     7
 79
     3
170
     0
171
     0
290
     0
174
     0
 93
       13
 44
0.0
173
     0
291
     0
 45
0.0
1001
ACAD
1000
AcDbSavedByObjectVersion
1070
     0
  0
DICTIONARYVAR
  5
C7AD
102
{ACAD_REACTORS
330
C7A8
102
}
330
C7A8
100
DictionaryVariables
280
     0
  1
1:1
  0
DICTIONARYVAR
  5
C7AA
102
{ACAD_REACTORS
330
C7A8
102
}
330
C7A8
100
DictionaryVariables
280
     0
  1
STANDARD
  0
DICTIONARYVAR
  5
C7A9
102
{ACAD_REACTORS
330
C7A8
102
}
330
C7A8
100
DictionaryVariables
280
     0
  1
STANDARD
  0
DICTIONARYVAR
  5
C7AB
102
{ACAD_REACTORS
330
C7A8
102
}
330
C7A8
100
DictionaryVariables
280
     0
  1
Imperial24
  0
DICTIONARYVAR
  5
C7AC
102
{ACAD_REACTORS
330
C7A8
102
}
330
C7A8
100
DictionaryVariables
280
     0
  1
Imperial24
  0
DICTIONARYVAR
  5
C7B0
102
{ACAD_REACTORS
330
C7A8
102
}
330
C7A8
100
DictionaryVariables
280
     0
  1
1
  0
DICTIONARYVAR
  5
C7AF
102
{ACAD_REACTORS
330
C7A8
102
}
330
C7A8
100
DictionaryVariables
280
     0
  1
0
  0
DICTIONARYVAR
  5
C7AE
102
{ACAD_REACTORS
330
C7A8
102
}
330
C7A8
100
DictionaryVariables
280
     0
  1
127
  0
DICTIONARYVAR
  5
C7B1
102
{ACAD_REACTORS
330
C7A8
102
}
330
C7A8
100
DictionaryVariables
280
     0
  1
2
  0
DICTIONARY
  5
C7EE
330
C793
100
AcDbDictionary
280
     1
281
     1
  3
ACAD_XREC_ROUNDTRIP
360
C7EF
  0
DICTIONARY
  5
C7F0
330
C794
100
AcDbDictionary
280
     1
281
     1
  3
ACAD_XREC_ROUNDTRIP
360
C7F1
  0
DICTIONARY
  5
C7F2
330
C795
100
AcDbDictionary
280
     1
281
     1
  3
ACAD_XREC_ROUNDTRIP
360
C7F3
  0
DICTIONARY
  5
C751
330
C750
100
AcDbDictionary
280
     1
281
     1
  3
ACAD_XREC_ROUNDTRIP
360
C7B8
  3
BUMPTILE
360
C753
  3
DIFFUSETILE
360
C752
  3
OPACITYTILE
360
C756
  3
REFLECTIONTILE
360
C755
  3
REFRACTIONTILE
360
C757
  3
SPECULARTILE
360
C754
  0
DICTIONARY
  5
C749
330
C748
100
AcDbDictionary
280
     1
281
     1
  3
ACAD_XREC_ROUNDTRIP
360
C7B7
  3
BUMPTILE
360
C74B
  3
DIFFUSETILE
360
C74A
  3
OPACITYTILE
360
C74E
  3
REFLECTIONTILE
360
C74D
  3
REFRACTIONTILE
360
C74F
  3
SPECULARTILE
360
C74C
  0
DICTIONARY
  5
C759
330
C758
100
AcDbDictionary
280
     1
281
     1
  3
ACAD_XREC_ROUNDTRIP
360
C7B9
  3
BUMPTILE
360
C75B
  3
DIFFUSETILE
360
C75A
  3
OPACITYTILE
360
C75E
  3
REFLECTIONTILE
360
C75D
  3
REFRACTIONTILE
360
C75F
  3
SPECULARTILE
360
C75C
  0
DICTIONARY
  5
C7EC
330
C791
100
AcDbDictionary
280
     1
281
     1
  3
ACAD_XREC_ROUNDTRIP
360
C7ED
  0
DICTIONARY
  5
C7B3
330
C77B
100
AcDbDictionary
280
     1
281
     1
  3
ACAD_ROUNDTRIP_2008_TABLESTYLE_CELLSTYLEMAP
360
C7B4
  3
ACAD_XREC_ROUNDTRIP
360
C7EA
  0
DICTIONARY
  5
C7C4
330
C766
100
AcDbDictionary
280
     1
281
     1
  3
ACAD_XREC_ROUNDTRIP
360
C7C5
  0
DICTIONARY
  5
C7C2
330
C765
100
AcDbDictionary
280
     1
281
     1
  3
ACAD_XREC_ROUNDTRIP
360
C7C3
  0
DICTIONARY
  5
C7D0
330
C76C
100
AcDbDictionary
280
     1
281
     1
  3
ACAD_XREC_ROUNDTRIP
360
C7D1
  0
DICTIONARY
  5
C7D8
330
C770
100
AcDbDictionary
280
     1
281
     1
  3
ACAD_XREC_ROUNDTRIP
360
C7D9
  0
DICTIONARY
  5
C7CA
330
C769
100
AcDbDictionary
280
     1
281
     1
  3
ACAD_XREC_ROUNDTRIP
360
C7CB
  0
DICTIONARY
  5
C7CE
330
C76B
100
AcDbDictionary
280
     1
281
     1
  3
ACAD_XREC_ROUNDTRIP
360
C7CF
  0
DICTIONARY
  5
C7E8
330
C778
100
AcDbDictionary
280
     1
281
     1
  3
ACAD_XREC_ROUNDTRIP
360
C7E9
  0
DICTIONARY
  5
C7D6
330
C76F
100
AcDbDictionary
280
     1
281
     1
  3
ACAD_XREC_ROUNDTRIP
360
C7D7
  0
DICTIONARY
  5
C7BA
330
C761
100
AcDbDictionary
280
     1
281
     1
  3
ACAD_XREC_ROUNDTRIP
360
C7BB
  0
DICTIONARY
  5
C7BC
330
C762
100
AcDbDictionary
280
     1
281
     1
  3
ACAD_XREC_ROUNDTRIP
360
C7BD
  0
DICTIONARY
  5
C7BE
330
C763
100
AcDbDictionary
280
     1
281
     1
  3
ACAD_XREC_ROUNDTRIP
360
C7BF
  0
DICTIONARY
  5
C7C0
330
C764
100
AcDbDictionary
280
     1
281
     1
  3
ACAD_XREC_ROUNDTRIP
360
C7C1
  0
DICTIONARY
  5
C7C8
330
C768
100
AcDbDictionary
280
     1
281
     1
  3
ACAD_XREC_ROUNDTRIP
360
C7C9
  0
DICTIONARY
  5
C7E4
330
C776
100
AcDbDictionary
280
     1
281
     1
  3
ACAD_XREC_ROUNDTRIP
360
C7E5
  0
DICTIONARY
  5
C7D4
330
C76E
100
AcDbDictionary
280
     1
281
     1
  3
ACAD_XREC_ROUNDTRIP
360
C7D5
  0
DICTIONARY
  5
C7E6
330
C777
100
AcDbDictionary
280
     1
281
     1
  3
ACAD_XREC_ROUNDTRIP
360
C7E7
  0
DICTIONARY
  5
C7CC
330
C76A
100
AcDbDictionary
280
     1
281
     1
  3
ACAD_XREC_ROUNDTRIP
360
C7CD
  0
DICTIONARY
  5
C7E2
330
C775
100
AcDbDictionary
280
     1
281
     1
  3
ACAD_XREC_ROUNDTRIP
360
C7E3
  0
DICTIONARY
  5
C7E0
330
C774
100
AcDbDictionary
280
     1
281
     1
  3
ACAD_XREC_ROUNDTRIP
360
C7E1
  0
DICTIONARY
  5
C7DA
330
C771
100
AcDbDictionary
280
     1
281
     1
  3
ACAD_XREC_ROUNDTRIP
360
C7DB
  0
DICTIONARY
  5
C7DC
330
C772
100
AcDbDictionary
280
     1
281
     1
  3
ACAD_XREC_ROUNDTRIP
360
C7DD
  0
DICTIONARY
  5
C7D2
330
C76D
100
AcDbDictionary
280
     1
281
     1
  3
ACAD_XREC_ROUNDTRIP
360
C7D3
  0
DICTIONARY
  5
C7C6
330
C767
100
AcDbDictionary
280
     1
281
     1
  3
ACAD_XREC_ROUNDTRIP
360
C7C7
  0
DICTIONARY
  5
C7DE
330
C773
100
AcDbDictionary
280
     1
281
     1
  3
ACAD_XREC_ROUNDTRIP
360
C7DF
  0
XRECORD
  5
C7EF
102
{ACAD_REACTORS
330
C7EE
102
}
330
C7EE
100
AcDbXrecord
280
     1
102
DISPLAYNAME
  1
Imperial24
102
FLAGS
 90
        0
  0
XRECORD
  5
C7F1
102
{ACAD_REACTORS
330
C7F0
102
}
330
C7F0
100
AcDbXrecord
280
     1
102
SHADEPLOT
 70
     0
102
SHADEPLOTRESLEVEL
 70
     2
102
SHADEPLOTCUSTOMDPI
 70
   300
  0
XRECORD
  5
C7F3
102
{ACAD_REACTORS
330
C7F2
102
}
330
C7F2
100
AcDbXrecord
280
     1
102
SHADEPLOT
 70
     0
102
SHADEPLOTRESLEVEL
 70
     2
102
SHADEPLOTCUSTOMDPI
 70
   300
  0
XRECORD
  5
C7B8
102
{ACAD_REACTORS
330
C751
102
}
330
C751
100
AcDbXrecord
280
     1
102
MATERIAL
148
0.0
149
0.0
149
0.0
 93
        0
 94
      127
282
     0
 72
     0
 77
     0
171
     0
175
     0
179
     0
273
     0
  0
XRECORD
  5
C753
102
{ACAD_REACTORS
330
C751
102
}
330
C751
100
AcDbXrecord
280
     1
270
     1
271
     1
  0
XRECORD
  5
C752
102
{ACAD_REACTORS
330
C751
102
}
330
C751
100
AcDbXrecord
280
     1
270
     1
271
     1
  0
XRECORD
  5
C756
102
{ACAD_REACTORS
330
C751
102
}
330
C751
100
AcDbXrecord
280
     1
270
     1
271
     1
  0
XRECORD
  5
C755
102
{ACAD_REACTORS
330
C751
102
}
330
C751
100
AcDbXrecord
280
     1
270
     1
271
     1
  0
XRECORD
  5
C757
102
{ACAD_REACTORS
330
C751
102
}
330
C751
100
AcDbXrecord
280
     1
270
     1
271
     1
  0
XRECORD
  5
C754
102
{ACAD_REACTORS
330
C751
102
}
330
C751
100
AcDbXrecord
280
     1
270
     1
271
     1
  0
XRECORD
  5
C7B7
102
{ACAD_REACTORS
330
C749
102
}
330
C749
100
AcDbXrecord
280
     1
102
MATERIAL
148
0.0
149
0.0
149
0.0
 93
        0
 94
      127
282
     0
 72
     0
 77
     0
171
     0
175
     0
179
     0
273
     0
  0
XRECORD
  5
C74B
102
{ACAD_REACTORS
330
C749
102
}
330
C749
100
AcDbXrecord
280
     1
270
     1
271
     1
  0
XRECORD
  5
C74A
102
{ACAD_REACTORS
330
C749
102
}
330
C749
100
AcDbXrecord
280
     1
270
     1
271
     1
  0
XRECORD
  5
C74E
102
{ACAD_REACTORS
330
C749
102
}
330
C749
100
AcDbXrecord
280
     1
270
     1
271
     1
  0
XRECORD
  5
C74D
102
{ACAD_REACTORS
330
C749
102
}
330
C749
100
AcDbXrecord
280
     1
270
     1
271
     1
  0
XRECORD
  5
C74F
102
{ACAD_REACTORS
330
C749
102
}
330
C749
100
AcDbXrecord
280
     1
270
     1
271
     1
  0
XRECORD
  5
C74C
102
{ACAD_REACTORS
330
C749
102
}
330
C749
100
AcDbXrecord
280
     1
270
     1
271
     1
  0
XRECORD
  5
C7B9
102
{ACAD_REACTORS
330
C759
102
}
330
C759
100
AcDbXrecord
280
     1
102
MATERIAL
148
0.0
149
0.0
149
0.0
 93
        0
 94
      127
282
     0
 72
     0
 77
     0
171
     0
175
     0
179
     0
273
     0
  0
XRECORD
  5
C75B
102
{ACAD_REACTORS
330
C759
102
}
330
C759
100
AcDbXrecord
280
     1
270
     1
271
     1
  0
XRECORD
  5
C75A
102
{ACAD_REACTORS
330
C759
102
}
330
C759
100
AcDbXrecord
280
     1
270
     1
271
     1
  0
XRECORD
  5
C75E
102
{ACAD_REACTORS
330
C759
102
}
330
C759
100
AcDbXrecord
280
     1
270
     1
271
     1
  0
XRECORD
  5
C75D
102
{ACAD_REACTORS
330
C759
102
}
330
C759
100
AcDbXrecord
280
     1
270
     1
271
     1
  0
XRECORD
  5
C75F
102
{ACAD_REACTORS
330
C759
102
}
330
C759
100
AcDbXrecord
280
     1
270
     1
271
     1
  0
XRECORD
  5
C75C
102
{ACAD_REACTORS
330
C759
102
}
330
C759
100
AcDbXrecord
280
     1
270
     1
271
     1
  0
XRECORD
  5
C7ED
102
{ACAD_REACTORS
330
C7EC
102
}
330
C7EC
100
AcDbXrecord
280
     1
102
DISPLAYNAME
  1
Imperial24
102
FLAGS
 90
        0
  0
CELLSTYLEMAP
  5
C7B4
102
{ACAD_REACTORS
330
C7B3
102
}
330
C7B3
100
AcDbCellStyleMap
 90
        3
300
CELLSTYLE
  1
TABLEFORMAT_BEGIN
 90
        5
170
     1
 91
        0
 92
    32768
 62
   257
 93
        1
300
CONTENTFORMAT
  1
CONTENTFORMAT_BEGIN
 90
        0
 91
        0
 92
      512
 93
        0
300

 40
0.0
140
1.0
 94
        5
 62
     0
340
C585
144
0.25
309
CONTENTFORMAT_END
171
     0
 94
        0
309
TABLEFORMAT_END
  1
CELLSTYLE_BEGIN
 90
        1
 91
        1
300
_TITLE
309
CELLSTYLE_END
300
CELLSTYLE
  1
TABLEFORMAT_BEGIN
 90
        5
170
     1
 91
        0
 92
        0
 62
   257
 93
        1
300
CONTENTFORMAT
  1
CONTENTFORMAT_BEGIN
 90
        0
 91
        0
 92
      512
 93
        0
300

 40
0.0
140
1.0
 94
        5
 62
     0
340
C585
144
0.18
309
CONTENTFORMAT_END
171
     0
 94
        0
309
TABLEFORMAT_END
  1
CELLSTYLE_BEGIN
 90
        2
 91
        1
300
_HEADER
309
CELLSTYLE_END
300
CELLSTYLE
  1
TABLEFORMAT_BEGIN
 90
        5
170
     1
 91
        0
 92
        0
 62
   257
 93
        1
300
CONTENTFORMAT
  1
CONTENTFORMAT_BEGIN
 90
        0
 91
        0
 92
      512
 93
        0
300

 40
0.0
140
1.0
 94
        2
 62
     0
340
C585
144
0.18
309
CONTENTFORMAT_END
171
     0
 94
        0
309
TABLEFORMAT_END
  1
CELLSTYLE_BEGIN
 90
        3
 91
        2
300
_DATA
309
CELLSTYLE_END
  0
XRECORD
  5
C7EA
102
{ACAD_REACTORS
330
C7B3
102
}
330
C7B3
100
AcDbXrecord
280
     1
102
ACAD_ROUNDTRIP_PRE2007_TABLESTYLE
 90
      512
 91
        0
  1

 92
      512
 93
        0
  2

 94
      512
 95
        0
  3

  0
XRECORD
  5
C7C5
102
{ACAD_REACTORS
330
C7C4
102
}
330
C7C4
100
AcDbXrecord
280
     1
102
RTVSPost2010Prop28
280
     1
102
RTVSPost2010PropOp28
 70
     1
102
RTVSPost2010Prop29
280
     1
102
RTVSPost2010PropOp29
 70
     1
102
RTVSPost2010Prop30
280
     0
102
RTVSPost2010PropOp30
 70
     1
102
RTVSPost2010Prop31
280
     0
102
RTVSPost2010PropOp31
 70
     1
102
RTVSPost2010Prop32
280
     0
102
RTVSPost2010PropOp32
 70
     1
102
RTVSPost2010Prop33
280
     0
102
RTVSPost2010PropOp33
 70
     1
102
RTVSPost2010Prop34
280
     0
102
RTVSPost2010PropOp34
 70
     1
102
RTVSPost2010Prop35
280
     0
102
RTVSPost2010PropOp35
 70
     1
102
RTVSPost2010Prop36
280
     0
102
RTVSPost2010PropOp36
 70
     1
102
RTVSPost2010Prop37
 90
       50
102
RTVSPost2010PropOp37
 70
     1
102
RTVSPost2010Prop38
140
0.0
102
RTVSPost2010PropOp38
 70
     1
102
RTVSPost2010Prop39
140
1.0
102
RTVSPost2010PropOp39
 70
     1
102
RTVSPost2010Prop40
 90
        0
102
RTVSPost2010PropOp40
 70
     1
102
RTVSPost2010Prop41ColorIndex
 90
       18
102
RTVSPost2010Prop41ColorRGB
 90
        0
102
RTVSPost2010PropOp41
 70
     1
102
RTVSPost2010Prop42
 90
       50
102
RTVSPost2010PropOp42
 70
     1
102
RTVSPost2010Prop43
 90
        3
102
RTVSPost2010PropOp43
 70
     1
102
RTVSPost2010Prop44ColorIndex
 90
        5
102
RTVSPost2010Prop44ColorRGB
 90
      255
102
RTVSPost2010PropOp44
 70
     1
102
RTVSPost2010Prop45
280
     0
102
RTVSPost2010PropOp45
 70
     1
102
RTVSPost2010Prop46
 90
       50
102
RTVSPost2010PropOp46
 70
     1
102
RTVSPost2010Prop47
 90
       50
102
RTVSPost2010PropOp47
 70
     1
102
RTVSPost2010Prop48
 90
       50
102
RTVSPost2010PropOp48
 70
     1
102
RTVSPost2010Prop49
280
     0
102
RTVSPost2010PropOp49
 70
     1
102
RTVSPost2010Prop50
 90
       50
102
RTVSPost2010PropOp50
 70
     1
102
RTVSPost2010Prop51ColorIndex
 90
      256
102
RTVSPost2010Prop51ColorRGB
 90
-16777216
102
RTVSPost2010PropOp51
 70
     0
102
RTVSPost2010Prop52
140
1.0
102
RTVSPost2010PropOp52
 70
     0
102
RTVSPost2010Prop53
 90
        2
102
RTVSPost2010PropOp53
 70
     1
102
RTVSPost2010Prop54
  1
strokes_ogs.tif
102
RTVSPost2010PropOp54
 70
     1
102
RTVSPost2010Prop55
280
     0
102
RTVSPost2010PropOp55
 70
     1
102
RTVSPost2010Prop56
140
1.0
102
RTVSPost2010PropOp56
 70
     1
102
RTVSPost2010Prop57
140
1.0
102
RTVSPost2010PropOp57
 70
     1
102
RTVSPropertyOp0
 70
     1
102
RTVSPropertyOp1
 70
     1
102
RTVSPropertyOp2
 70
     1
102
RTVSPropertyOp3
 70
     1
102
RTVSPropertyOp4
 70
     1
102
RTVSPropertyOp5
 70
     1
102
RTVSPropertyOp6
 70
     1
102
RTVSPropertyOp7
 70
     1
102
RTVSPropertyOp8
 70
     1
102
RTVSPropertyOp9
 70
     1
102
RTVSPropertyOp10
 70
     1
102
RTVSPropertyOp11
 70
     1
102
RTVSPropertyOp12
 70
     1
102
RTVSPropertyOp13
 70
     1
102
RTVSPropertyOp14
 70
     1
102
RTVSPropertyOp15
 70
     1
102
RTVSPropertyOp16
 70
     1
102
RTVSPropertyOp17
 70
     1
102
RTVSPropertyOp18
 70
     1
102
RTVSPropertyOp19
 70
     1
102
RTVSPropertyOp20
 70
     1
102
RTVSPropertyOp21
 70
     1
102
RTVSPropertyOp22
 70
     1
102
RTVSPropertyOp23
 70
     1
102
RTVSPropertyOp24
 70
     1
102
RTVSPropertyOp25
 70
     1
102
RTVSPropertyOp26
 70
     1
102
RTVSPropertyOp27
 70
     1
102
RTVSPropertyOp28
 70
     1
102
RTVSPropertyOp29
 70
     1
102
RTVSPropertyOp30
 70
     1
102
RTVSPropertyOp31
 70
     1
102
RTVSPropertyOp32
 70
     1
102
RTVSPropertyOp33
 70
     1
102
RTVSPropertyOp34
 70
     1
102
RTVSPropertyOp35
 70
     1
102
RTVSPropertyOp36
 70
     1
102
RTVSPropertyOp37
 70
     1
102
RTVSPropertyOp38
 70
     1
102
RTVSPropertyOp39
 70
     1
102
RTVSPropertyOp40
 70
     1
102
RTVSPropertyOp41
 70
     1
102
RTVSPropertyOp42
 70
     1
102
RTVSPropertyOp43
 70
     1
102
RTVSPropertyOp44
 70
     1
102
RTVSPropertyOp45
 70
     1
102
RTVSPropertyOp46
 70
     1
102
RTVSPropertyOp47
 70
     1
102
RTVSPropertyOp48
 70
     1
102
RTVSPropertyOp49
 70
     1
102
RTVSPropertyOp50
 70
     1
102
RTVSPropertyOp51
 70
     0
102
RTVSPropertyOp52
 70
     0
102
RTVSPropertyOp53
 70
     1
102
RTVSPropertyOp54
 70
     1
102
RTVSPropertyOp55
 70
     1
102
RTVSPropertyOp56
 70
     1
102
RTVSPropertyOp57
 70
     1
102
RTVSPropertyOp58
 70
     1
102
RTVSPropertyOp59
 70
     1
102
RTVSPropertyOp60
 70
     1
102
RTVSPropertyOp61
 70
     1
102
RTVSPropertyOp62
 70
     1
  0
XRECORD
  5
C7C3
102
{ACAD_REACTORS
330
C7C2
102
}
330
C7C2
100
AcDbXrecord
280
     1
102
RTVSPost2010Prop28
280
     0
102
RTVSPost2010PropOp28
 70
     1
102
RTVSPost2010Prop29
280
     1
102
RTVSPost2010PropOp29
 70
     1
102
RTVSPost2010Prop30
280
     1
102
RTVSPost2010PropOp30
 70
     1
102
RTVSPost2010Prop31
280
     0
102
RTVSPost2010PropOp31
 70
     1
102
RTVSPost2010Prop32
280
     0
102
RTVSPost2010PropOp32
 70
     1
102
RTVSPost2010Prop33
280
     0
102
RTVSPost2010PropOp33
 70
     1
102
RTVSPost2010Prop34
280
     0
102
RTVSPost2010PropOp34
 70
     1
102
RTVSPost2010Prop35
280
     0
102
RTVSPost2010PropOp35
 70
     1
102
RTVSPost2010Prop36
280
     0
102
RTVSPost2010PropOp36
 70
     1
102
RTVSPost2010Prop37
 90
       50
102
RTVSPost2010PropOp37
 70
     1
102
RTVSPost2010Prop38
140
0.0
102
RTVSPost2010PropOp38
 70
     1
102
RTVSPost2010Prop39
140
1.0
102
RTVSPost2010PropOp39
 70
     1
102
RTVSPost2010Prop40
 90
        0
102
RTVSPost2010PropOp40
 70
     1
102
RTVSPost2010Prop41ColorIndex
 90
       18
102
RTVSPost2010Prop41ColorRGB
 90
        0
102
RTVSPost2010PropOp41
 70
     1
102
RTVSPost2010Prop42
 90
       50
102
RTVSPost2010PropOp42
 70
     1
102
RTVSPost2010Prop43
 90
        3
102
RTVSPost2010PropOp43
 70
     1
102
RTVSPost2010Prop44ColorIndex
 90
        5
102
RTVSPost2010Prop44ColorRGB
 90
      255
102
RTVSPost2010PropOp44
 70
     1
102
RTVSPost2010Prop45
280
     0
102
RTVSPost2010PropOp45
 70
     1
102
RTVSPost2010Prop46
 90
       50
102
RTVSPost2010PropOp46
 70
     1
102
RTVSPost2010Prop47
 90
       50
102
RTVSPost2010PropOp47
 70
     1
102
RTVSPost2010Prop48
 90
       50
102
RTVSPost2010PropOp48
 70
     1
102
RTVSPost2010Prop49
280
     0
102
RTVSPost2010PropOp49
 70
     1
102
RTVSPost2010Prop50
 90
       50
102
RTVSPost2010PropOp50
 70
     1
102
RTVSPost2010Prop51ColorIndex
 90
      256
102
RTVSPost2010Prop51ColorRGB
 90
-16777216
102
RTVSPost2010PropOp51
 70
     0
102
RTVSPost2010Prop52
140
1.0
102
RTVSPost2010PropOp52
 70
     0
102
RTVSPost2010Prop53
 90
        2
102
RTVSPost2010PropOp53
 70
     1
102
RTVSPost2010Prop54
  1
strokes_ogs.tif
102
RTVSPost2010PropOp54
 70
     1
102
RTVSPost2010Prop55
280
     0
102
RTVSPost2010PropOp55
 70
     1
102
RTVSPost2010Prop56
140
1.0
102
RTVSPost2010PropOp56
 70
     1
102
RTVSPost2010Prop57
140
1.0
102
RTVSPost2010PropOp57
 70
     1
102
RTVSPropertyOp0
 70
     1
102
RTVSPropertyOp1
 70
     1
102
RTVSPropertyOp2
 70
     1
102
RTVSPropertyOp3
 70
     1
102
RTVSPropertyOp4
 70
     1
102
RTVSPropertyOp5
 70
     1
102
RTVSPropertyOp6
 70
     1
102
RTVSPropertyOp7
 70
     1
102
RTVSPropertyOp8
 70
     1
102
RTVSPropertyOp9
 70
     1
102
RTVSPropertyOp10
 70
     1
102
RTVSPropertyOp11
 70
     1
102
RTVSPropertyOp12
 70
     1
102
RTVSPropertyOp13
 70
     1
102
RTVSPropertyOp14
 70
     1
102
RTVSPropertyOp15
 70
     1
102
RTVSPropertyOp16
 70
     1
102
RTVSPropertyOp17
 70
     1
102
RTVSPropertyOp18
 70
     1
102
RTVSPropertyOp19
 70
     1
102
RTVSPropertyOp20
 70
     1
102
RTVSPropertyOp21
 70
     1
102
RTVSPropertyOp22
 70
     1
102
RTVSPropertyOp23
 70
     1
102
RTVSPropertyOp24
 70
     1
102
RTVSPropertyOp25
 70
     1
102
RTVSPropertyOp26
 70
     1
102
RTVSPropertyOp27
 70
     1
102
RTVSPropertyOp28
 70
     1
102
RTVSPropertyOp29
 70
     1
102
RTVSPropertyOp30
 70
     1
102
RTVSPropertyOp31
 70
     1
102
RTVSPropertyOp32
 70
     1
102
RTVSPropertyOp33
 70
     1
102
RTVSPropertyOp34
 70
     1
102
RTVSPropertyOp35
 70
     1
102
RTVSPropertyOp36
 70
     1
102
RTVSPropertyOp37
 70
     1
102
RTVSPropertyOp38
 70
     1
102
RTVSPropertyOp39
 70
     1
102
RTVSPropertyOp40
 70
     1
102
RTVSPropertyOp41
 70
     1
102
RTVSPropertyOp42
 70
     1
102
RTVSPropertyOp43
 70
     1
102
RTVSPropertyOp44
 70
     1
102
RTVSPropertyOp45
 70
     1
102
RTVSPropertyOp46
 70
     1
102
RTVSPropertyOp47
 70
     1
102
RTVSPropertyOp48
 70
     1
102
RTVSPropertyOp49
 70
     1
102
RTVSPropertyOp50
 70
     1
102
RTVSPropertyOp51
 70
     0
102
RTVSPropertyOp52
 70
     0
102
RTVSPropertyOp53
 70
     1
102
RTVSPropertyOp54
 70
     1
102
RTVSPropertyOp55
 70
     1
102
RTVSPropertyOp56
 70
     1
102
RTVSPropertyOp57
 70
     1
102
RTVSPropertyOp58
 70
     1
102
RTVSPropertyOp59
 70
     1
102
RTVSPropertyOp60
 70
     1
102
RTVSPropertyOp61
 70
     1
102
RTVSPropertyOp62
 70
     1
  0
XRECORD
  5
C7D1
102
{ACAD_REACTORS
330
C7D0
102
}
330
C7D0
100
AcDbXrecord
280
     1
102
RTVSPost2010Prop28
280
     0
102
RTVSPost2010PropOp28
 70
     1
102
RTVSPost2010Prop29
280
     1
102
RTVSPost2010PropOp29
 70
     1
102
RTVSPost2010Prop30
280
     1
102
RTVSPost2010PropOp30
 70
     1
102
RTVSPost2010Prop31
280
     0
102
RTVSPost2010PropOp31
 70
     1
102
RTVSPost2010Prop32
280
     0
102
RTVSPost2010PropOp32
 70
     1
102
RTVSPost2010Prop33
280
     0
102
RTVSPost2010PropOp33
 70
     1
102
RTVSPost2010Prop34
280
     0
102
RTVSPost2010PropOp34
 70
     1
102
RTVSPost2010Prop35
280
     0
102
RTVSPost2010PropOp35
 70
     1
102
RTVSPost2010Prop36
280
     0
102
RTVSPost2010PropOp36
 70
     1
102
RTVSPost2010Prop37
 90
       50
102
RTVSPost2010PropOp37
 70
     1
102
RTVSPost2010Prop38
140
0.0
102
RTVSPost2010PropOp38
 70
     1
102
RTVSPost2010Prop39
140
1.0
102
RTVSPost2010PropOp39
 70
     1
102
RTVSPost2010Prop40
 90
        0
102
RTVSPost2010PropOp40
 70
     1
102
RTVSPost2010Prop41ColorIndex
 90
       18
102
RTVSPost2010Prop41ColorRGB
 90
        0
102
RTVSPost2010PropOp41
 70
     1
102
RTVSPost2010Prop42
 90
       50
102
RTVSPost2010PropOp42
 70
     1
102
RTVSPost2010Prop43
 90
        3
102
RTVSPost2010PropOp43
 70
     1
102
RTVSPost2010Prop44ColorIndex
 90
        5
102
RTVSPost2010Prop44ColorRGB
 90
      255
102
RTVSPost2010PropOp44
 70
     1
102
RTVSPost2010Prop45
280
     0
102
RTVSPost2010PropOp45
 70
     1
102
RTVSPost2010Prop46
 90
       50
102
RTVSPost2010PropOp46
 70
     1
102
RTVSPost2010Prop47
 90
       50
102
RTVSPost2010PropOp47
 70
     1
102
RTVSPost2010Prop48
 90
       50
102
RTVSPost2010PropOp48
 70
     1
102
RTVSPost2010Prop49
280
     0
102
RTVSPost2010PropOp49
 70
     1
102
RTVSPost2010Prop50
 90
       50
102
RTVSPost2010PropOp50
 70
     1
102
RTVSPost2010Prop51ColorIndex
 90
      256
102
RTVSPost2010Prop51ColorRGB
 90
-16777216
102
RTVSPost2010PropOp51
 70
     0
102
RTVSPost2010Prop52
140
1.0
102
RTVSPost2010PropOp52
 70
     0
102
RTVSPost2010Prop53
 90
        2
102
RTVSPost2010PropOp53
 70
     1
102
RTVSPost2010Prop54
  1
strokes_ogs.tif
102
RTVSPost2010PropOp54
 70
     1
102
RTVSPost2010Prop55
280
     0
102
RTVSPost2010PropOp55
 70
     1
102
RTVSPost2010Prop56
140
1.0
102
RTVSPost2010PropOp56
 70
     1
102
RTVSPost2010Prop57
140
1.0
102
RTVSPost2010PropOp57
 70
     1
102
RTVSPropertyOp0
 70
     1
102
RTVSPropertyOp1
 70
     1
102
RTVSPropertyOp2
 70
     1
102
RTVSPropertyOp3
 70
     1
102
RTVSPropertyOp4
 70
     1
102
RTVSPropertyOp5
 70
     1
102
RTVSPropertyOp6
 70
     1
102
RTVSPropertyOp7
 70
     1
102
RTVSPropertyOp8
 70
     1
102
RTVSPropertyOp9
 70
     1
102
RTVSPropertyOp10
 70
     1
102
RTVSPropertyOp11
 70
     1
102
RTVSPropertyOp12
 70
     1
102
RTVSPropertyOp13
 70
     1
102
RTVSPropertyOp14
 70
     1
102
RTVSPropertyOp15
 70
     1
102
RTVSPropertyOp16
 70
     1
102
RTVSPropertyOp17
 70
     1
102
RTVSPropertyOp18
 70
     1
102
RTVSPropertyOp19
 70
     1
102
RTVSPropertyOp20
 70
     1
102
RTVSPropertyOp21
 70
     1
102
RTVSPropertyOp22
 70
     1
102
RTVSPropertyOp23
 70
     1
102
RTVSPropertyOp24
 70
     1
102
RTVSPropertyOp25
 70
     1
102
RTVSPropertyOp26
 70
     1
102
RTVSPropertyOp27
 70
     1
102
RTVSPropertyOp28
 70
     1
102
RTVSPropertyOp29
 70
     1
102
RTVSPropertyOp30
 70
     1
102
RTVSPropertyOp31
 70
     1
102
RTVSPropertyOp32
 70
     1
102
RTVSPropertyOp33
 70
     1
102
RTVSPropertyOp34
 70
     1
102
RTVSPropertyOp35
 70
     1
102
RTVSPropertyOp36
 70
     1
102
RTVSPropertyOp37
 70
     1
102
RTVSPropertyOp38
 70
     1
102
RTVSPropertyOp39
 70
     1
102
RTVSPropertyOp40
 70
     1
102
RTVSPropertyOp41
 70
     1
102
RTVSPropertyOp42
 70
     1
102
RTVSPropertyOp43
 70
     1
102
RTVSPropertyOp44
 70
     1
102
RTVSPropertyOp45
 70
     1
102
RTVSPropertyOp46
 70
     1
102
RTVSPropertyOp47
 70
     1
102
RTVSPropertyOp48
 70
     1
102
RTVSPropertyOp49
 70
     1
102
RTVSPropertyOp50
 70
     1
102
RTVSPropertyOp51
 70
     0
102
RTVSPropertyOp52
 70
     0
102
RTVSPropertyOp53
 70
     1
102
RTVSPropertyOp54
 70
     1
102
RTVSPropertyOp55
 70
     1
102
RTVSPropertyOp56
 70
     1
102
RTVSPropertyOp57
 70
     1
102
RTVSPropertyOp58
 70
     1
102
RTVSPropertyOp59
 70
     1
102
RTVSPropertyOp60
 70
     1
102
RTVSPropertyOp61
 70
     1
102
RTVSPropertyOp62
 70
     1
  0
XRECORD
  5
C7D9
102
{ACAD_REACTORS
330
C7D8
102
}
330
C7D8
100
AcDbXrecord
280
     1
102
RTVSPost2010Prop28
280
     0
102
RTVSPost2010PropOp28
 70
     1
102
RTVSPost2010Prop29
280
     1
102
RTVSPost2010PropOp29
 70
     1
102
RTVSPost2010Prop30
280
     1
102
RTVSPost2010PropOp30
 70
     1
102
RTVSPost2010Prop31
280
     0
102
RTVSPost2010PropOp31
 70
     1
102
RTVSPost2010Prop32
280
     0
102
RTVSPost2010PropOp32
 70
     1
102
RTVSPost2010Prop33
280
     0
102
RTVSPost2010PropOp33
 70
     1
102
RTVSPost2010Prop34
280
     0
102
RTVSPost2010PropOp34
 70
     1
102
RTVSPost2010Prop35
280
     0
102
RTVSPost2010PropOp35
 70
     1
102
RTVSPost2010Prop36
280
     0
102
RTVSPost2010PropOp36
 70
     1
102
RTVSPost2010Prop37
 90
       50
102
RTVSPost2010PropOp37
 70
     1
102
RTVSPost2010Prop38
140
0.0
102
RTVSPost2010PropOp38
 70
     1
102
RTVSPost2010Prop39
140
1.0
102
RTVSPost2010PropOp39
 70
     1
102
RTVSPost2010Prop40
 90
        0
102
RTVSPost2010PropOp40
 70
     1
102
RTVSPost2010Prop41ColorIndex
 90
       18
102
RTVSPost2010Prop41ColorRGB
 90
        0
102
RTVSPost2010PropOp41
 70
     1
102
RTVSPost2010Prop42
 90
       50
102
RTVSPost2010PropOp42
 70
     1
102
RTVSPost2010Prop43
 90
        3
102
RTVSPost2010PropOp43
 70
     1
102
RTVSPost2010Prop44ColorIndex
 90
        5
102
RTVSPost2010Prop44ColorRGB
 90
      255
102
RTVSPost2010PropOp44
 70
     1
102
RTVSPost2010Prop45
280
     0
102
RTVSPost2010PropOp45
 70
     1
102
RTVSPost2010Prop46
 90
       50
102
RTVSPost2010PropOp46
 70
     1
102
RTVSPost2010Prop47
 90
       50
102
RTVSPost2010PropOp47
 70
     1
102
RTVSPost2010Prop48
 90
       50
102
RTVSPost2010PropOp48
 70
     1
102
RTVSPost2010Prop49
280
     0
102
RTVSPost2010PropOp49
 70
     1
102
RTVSPost2010Prop50
 90
       50
102
RTVSPost2010PropOp50
 70
     1
102
RTVSPost2010Prop51ColorIndex
 90
      256
102
RTVSPost2010Prop51ColorRGB
 90
-16777216
102
RTVSPost2010PropOp51
 70
     0
102
RTVSPost2010Prop52
140
1.0
102
RTVSPost2010PropOp52
 70
     0
102
RTVSPost2010Prop53
 90
        2
102
RTVSPost2010PropOp53
 70
     1
102
RTVSPost2010Prop54
  1
strokes_ogs.tif
102
RTVSPost2010PropOp54
 70
     1
102
RTVSPost2010Prop55
280
     0
102
RTVSPost2010PropOp55
 70
     1
102
RTVSPost2010Prop56
140
1.0
102
RTVSPost2010PropOp56
 70
     1
102
RTVSPost2010Prop57
140
1.0
102
RTVSPost2010PropOp57
 70
     1
102
RTVSPropertyOp0
 70
     1
102
RTVSPropertyOp1
 70
     1
102
RTVSPropertyOp2
 70
     1
102
RTVSPropertyOp3
 70
     1
102
RTVSPropertyOp4
 70
     1
102
RTVSPropertyOp5
 70
     1
102
RTVSPropertyOp6
 70
     1
102
RTVSPropertyOp7
 70
     1
102
RTVSPropertyOp8
 70
     1
102
RTVSPropertyOp9
 70
     1
102
RTVSPropertyOp10
 70
     1
102
RTVSPropertyOp11
 70
     1
102
RTVSPropertyOp12
 70
     1
102
RTVSPropertyOp13
 70
     1
102
RTVSPropertyOp14
 70
     1
102
RTVSPropertyOp15
 70
     1
102
RTVSPropertyOp16
 70
     1
102
RTVSPropertyOp17
 70
     1
102
RTVSPropertyOp18
 70
     1
102
RTVSPropertyOp19
 70
     1
102
RTVSPropertyOp20
 70
     1
102
RTVSPropertyOp21
 70
     1
102
RTVSPropertyOp22
 70
     1
102
RTVSPropertyOp23
 70
     1
102
RTVSPropertyOp24
 70
     1
102
RTVSPropertyOp25
 70
     1
102
RTVSPropertyOp26
 70
     1
102
RTVSPropertyOp27
 70
     1
102
RTVSPropertyOp28
 70
     1
102
RTVSPropertyOp29
 70
     1
102
RTVSPropertyOp30
 70
     1
102
RTVSPropertyOp31
 70
     1
102
RTVSPropertyOp32
 70
     1
102
RTVSPropertyOp33
 70
     1
102
RTVSPropertyOp34
 70
     1
102
RTVSPropertyOp35
 70
     1
102
RTVSPropertyOp36
 70
     1
102
RTVSPropertyOp37
 70
     1
102
RTVSPropertyOp38
 70
     1
102
RTVSPropertyOp39
 70
     1
102
RTVSPropertyOp40
 70
     1
102
RTVSPropertyOp41
 70
     1
102
RTVSPropertyOp42
 70
     1
102
RTVSPropertyOp43
 70
     1
102
RTVSPropertyOp44
 70
     1
102
RTVSPropertyOp45
 70
     1
102
RTVSPropertyOp46
 70
     1
102
RTVSPropertyOp47
 70
     1
102
RTVSPropertyOp48
 70
     1
102
RTVSPropertyOp49
 70
     1
102
RTVSPropertyOp50
 70
     1
102
RTVSPropertyOp51
 70
     0
102
RTVSPropertyOp52
 70
     0
102
RTVSPropertyOp53
 70
     1
102
RTVSPropertyOp54
 70
     1
102
RTVSPropertyOp55
 70
     1
102
RTVSPropertyOp56
 70
     1
102
RTVSPropertyOp57
 70
     1
102
RTVSPropertyOp58
 70
     1
102
RTVSPropertyOp59
 70
     1
102
RTVSPropertyOp60
 70
     1
102
RTVSPropertyOp61
 70
     1
102
RTVSPropertyOp62
 70
     1
  0
XRECORD
  5
C7CB
102
{ACAD_REACTORS
330
C7CA
102
}
330
C7CA
100
AcDbXrecord
280
     1
102
RTVSPost2010Prop28
280
     0
102
RTVSPost2010PropOp28
 70
     1
102
RTVSPost2010Prop29
280
     1
102
RTVSPost2010PropOp29
 70
     1
102
RTVSPost2010Prop30
280
     1
102
RTVSPost2010PropOp30
 70
     1
102
RTVSPost2010Prop31
280
     0
102
RTVSPost2010PropOp31
 70
     1
102
RTVSPost2010Prop32
280
     0
102
RTVSPost2010PropOp32
 70
     1
102
RTVSPost2010Prop33
280
     0
102
RTVSPost2010PropOp33
 70
     1
102
RTVSPost2010Prop34
280
     0
102
RTVSPost2010PropOp34
 70
     1
102
RTVSPost2010Prop35
280
     0
102
RTVSPost2010PropOp35
 70
     1
102
RTVSPost2010Prop36
280
     0
102
RTVSPost2010PropOp36
 70
     1
102
RTVSPost2010Prop37
 90
       50
102
RTVSPost2010PropOp37
 70
     1
102
RTVSPost2010Prop38
140
0.0
102
RTVSPost2010PropOp38
 70
     1
102
RTVSPost2010Prop39
140
1.0
102
RTVSPost2010PropOp39
 70
     1
102
RTVSPost2010Prop40
 90
        0
102
RTVSPost2010PropOp40
 70
     1
102
RTVSPost2010Prop41ColorIndex
 90
       18
102
RTVSPost2010Prop41ColorRGB
 90
        0
102
RTVSPost2010PropOp41
 70
     1
102
RTVSPost2010Prop42
 90
       50
102
RTVSPost2010PropOp42
 70
     1
102
RTVSPost2010Prop43
 90
        3
102
RTVSPost2010PropOp43
 70
     1
102
RTVSPost2010Prop44ColorIndex
 90
        5
102
RTVSPost2010Prop44ColorRGB
 90
      255
102
RTVSPost2010PropOp44
 70
     1
102
RTVSPost2010Prop45
280
     0
102
RTVSPost2010PropOp45
 70
     1
102
RTVSPost2010Prop46
 90
       50
102
RTVSPost2010PropOp46
 70
     1
102
RTVSPost2010Prop47
 90
       50
102
RTVSPost2010PropOp47
 70
     1
102
RTVSPost2010Prop48
 90
       50
102
RTVSPost2010PropOp48
 70
     1
102
RTVSPost2010Prop49
280
     0
102
RTVSPost2010PropOp49
 70
     1
102
RTVSPost2010Prop50
 90
       50
102
RTVSPost2010PropOp50
 70
     1
102
RTVSPost2010Prop51ColorIndex
 90
      256
102
RTVSPost2010Prop51ColorRGB
 90
-16777216
102
RTVSPost2010PropOp51
 70
     0
102
RTVSPost2010Prop52
140
1.0
102
RTVSPost2010PropOp52
 70
     0
102
RTVSPost2010Prop53
 90
        2
102
RTVSPost2010PropOp53
 70
     1
102
RTVSPost2010Prop54
  1
strokes_ogs.tif
102
RTVSPost2010PropOp54
 70
     1
102
RTVSPost2010Prop55
280
     0
102
RTVSPost2010PropOp55
 70
     1
102
RTVSPost2010Prop56
140
1.0
102
RTVSPost2010PropOp56
 70
     1
102
RTVSPost2010Prop57
140
1.0
102
RTVSPost2010PropOp57
 70
     1
102
RTVSPropertyOp0
 70
     1
102
RTVSPropertyOp1
 70
     1
102
RTVSPropertyOp2
 70
     1
102
RTVSPropertyOp3
 70
     1
102
RTVSPropertyOp4
 70
     1
102
RTVSPropertyOp5
 70
     1
102
RTVSPropertyOp6
 70
     1
102
RTVSPropertyOp7
 70
     1
102
RTVSPropertyOp8
 70
     1
102
RTVSPropertyOp9
 70
     1
102
RTVSPropertyOp10
 70
     1
102
RTVSPropertyOp11
 70
     1
102
RTVSPropertyOp12
 70
     1
102
RTVSPropertyOp13
 70
     1
102
RTVSPropertyOp14
 70
     1
102
RTVSPropertyOp15
 70
     1
102
RTVSPropertyOp16
 70
     1
102
RTVSPropertyOp17
 70
     1
102
RTVSPropertyOp18
 70
     1
102
RTVSPropertyOp19
 70
     1
102
RTVSPropertyOp20
 70
     1
102
RTVSPropertyOp21
 70
     1
102
RTVSPropertyOp22
 70
     1
102
RTVSPropertyOp23
 70
     1
102
RTVSPropertyOp24
 70
     1
102
RTVSPropertyOp25
 70
     1
102
RTVSPropertyOp26
 70
     1
102
RTVSPropertyOp27
 70
     1
102
RTVSPropertyOp28
 70
     1
102
RTVSPropertyOp29
 70
     1
102
RTVSPropertyOp30
 70
     1
102
RTVSPropertyOp31
 70
     1
102
RTVSPropertyOp32
 70
     1
102
RTVSPropertyOp33
 70
     1
102
RTVSPropertyOp34
 70
     1
102
RTVSPropertyOp35
 70
     1
102
RTVSPropertyOp36
 70
     1
102
RTVSPropertyOp37
 70
     1
102
RTVSPropertyOp38
 70
     1
102
RTVSPropertyOp39
 70
     1
102
RTVSPropertyOp40
 70
     1
102
RTVSPropertyOp41
 70
     1
102
RTVSPropertyOp42
 70
     1
102
RTVSPropertyOp43
 70
     1
102
RTVSPropertyOp44
 70
     1
102
RTVSPropertyOp45
 70
     1
102
RTVSPropertyOp46
 70
     1
102
RTVSPropertyOp47
 70
     1
102
RTVSPropertyOp48
 70
     1
102
RTVSPropertyOp49
 70
     1
102
RTVSPropertyOp50
 70
     1
102
RTVSPropertyOp51
 70
     0
102
RTVSPropertyOp52
 70
     0
102
RTVSPropertyOp53
 70
     1
102
RTVSPropertyOp54
 70
     1
102
RTVSPropertyOp55
 70
     1
102
RTVSPropertyOp56
 70
     1
102
RTVSPropertyOp57
 70
     1
102
RTVSPropertyOp58
 70
     1
102
RTVSPropertyOp59
 70
     1
102
RTVSPropertyOp60
 70
     1
102
RTVSPropertyOp61
 70
     1
102
RTVSPropertyOp62
 70
     1
  0
XRECORD
  5
C7CF
102
{ACAD_REACTORS
330
C7CE
102
}
330
C7CE
100
AcDbXrecord
280
     1
102
RTVSPost2010Prop28
280
     0
102
RTVSPost2010PropOp28
 70
     1
102
RTVSPost2010Prop29
280
     1
102
RTVSPost2010PropOp29
 70
     1
102
RTVSPost2010Prop30
280
     1
102
RTVSPost2010PropOp30
 70
     1
102
RTVSPost2010Prop31
280
     0
102
RTVSPost2010PropOp31
 70
     1
102
RTVSPost2010Prop32
280
     0
102
RTVSPost2010PropOp32
 70
     1
102
RTVSPost2010Prop33
280
     0
102
RTVSPost2010PropOp33
 70
     1
102
RTVSPost2010Prop34
280
     0
102
RTVSPost2010PropOp34
 70
     1
102
RTVSPost2010Prop35
280
     0
102
RTVSPost2010PropOp35
 70
     1
102
RTVSPost2010Prop36
280
     0
102
RTVSPost2010PropOp36
 70
     1
102
RTVSPost2010Prop37
 90
       50
102
RTVSPost2010PropOp37
 70
     1
102
RTVSPost2010Prop38
140
0.0
102
RTVSPost2010PropOp38
 70
     1
102
RTVSPost2010Prop39
140
1.0
102
RTVSPost2010PropOp39
 70
     1
102
RTVSPost2010Prop40
 90
        0
102
RTVSPost2010PropOp40
 70
     1
102
RTVSPost2010Prop41ColorIndex
 90
       18
102
RTVSPost2010Prop41ColorRGB
 90
        0
102
RTVSPost2010PropOp41
 70
     1
102
RTVSPost2010Prop42
 90
       50
102
RTVSPost2010PropOp42
 70
     1
102
RTVSPost2010Prop43
 90
        3
102
RTVSPost2010PropOp43
 70
     1
102
RTVSPost2010Prop44ColorIndex
 90
        5
102
RTVSPost2010Prop44ColorRGB
 90
      255
102
RTVSPost2010PropOp44
 70
     1
102
RTVSPost2010Prop45
280
     0
102
RTVSPost2010PropOp45
 70
     1
102
RTVSPost2010Prop46
 90
       50
102
RTVSPost2010PropOp46
 70
     1
102
RTVSPost2010Prop47
 90
       50
102
RTVSPost2010PropOp47
 70
     1
102
RTVSPost2010Prop48
 90
       50
102
RTVSPost2010PropOp48
 70
     1
102
RTVSPost2010Prop49
280
     0
102
RTVSPost2010PropOp49
 70
     1
102
RTVSPost2010Prop50
 90
       50
102
RTVSPost2010PropOp50
 70
     1
102
RTVSPost2010Prop51ColorIndex
 90
      256
102
RTVSPost2010Prop51ColorRGB
 90
-16777216
102
RTVSPost2010PropOp51
 70
     0
102
RTVSPost2010Prop52
140
1.0
102
RTVSPost2010PropOp52
 70
     0
102
RTVSPost2010Prop53
 90
        2
102
RTVSPost2010PropOp53
 70
     1
102
RTVSPost2010Prop54
  1
strokes_ogs.tif
102
RTVSPost2010PropOp54
 70
     1
102
RTVSPost2010Prop55
280
     0
102
RTVSPost2010PropOp55
 70
     1
102
RTVSPost2010Prop56
140
1.0
102
RTVSPost2010PropOp56
 70
     1
102
RTVSPost2010Prop57
140
1.0
102
RTVSPost2010PropOp57
 70
     1
102
RTVSPropertyOp0
 70
     1
102
RTVSPropertyOp1
 70
     1
102
RTVSPropertyOp2
 70
     1
102
RTVSPropertyOp3
 70
     1
102
RTVSPropertyOp4
 70
     1
102
RTVSPropertyOp5
 70
     1
102
RTVSPropertyOp6
 70
     1
102
RTVSPropertyOp7
 70
     1
102
RTVSPropertyOp8
 70
     1
102
RTVSPropertyOp9
 70
     1
102
RTVSPropertyOp10
 70
     1
102
RTVSPropertyOp11
 70
     1
102
RTVSPropertyOp12
 70
     1
102
RTVSPropertyOp13
 70
     1
102
RTVSPropertyOp14
 70
     1
102
RTVSPropertyOp15
 70
     1
102
RTVSPropertyOp16
 70
     1
102
RTVSPropertyOp17
 70
     1
102
RTVSPropertyOp18
 70
     1
102
RTVSPropertyOp19
 70
     1
102
RTVSPropertyOp20
 70
     1
102
RTVSPropertyOp21
 70
     1
102
RTVSPropertyOp22
 70
     1
102
RTVSPropertyOp23
 70
     1
102
RTVSPropertyOp24
 70
     1
102
RTVSPropertyOp25
 70
     1
102
RTVSPropertyOp26
 70
     1
102
RTVSPropertyOp27
 70
     1
102
RTVSPropertyOp28
 70
     1
102
RTVSPropertyOp29
 70
     1
102
RTVSPropertyOp30
 70
     1
102
RTVSPropertyOp31
 70
     1
102
RTVSPropertyOp32
 70
     1
102
RTVSPropertyOp33
 70
     1
102
RTVSPropertyOp34
 70
     1
102
RTVSPropertyOp35
 70
     1
102
RTVSPropertyOp36
 70
     1
102
RTVSPropertyOp37
 70
     1
102
RTVSPropertyOp38
 70
     1
102
RTVSPropertyOp39
 70
     1
102
RTVSPropertyOp40
 70
     1
102
RTVSPropertyOp41
 70
     1
102
RTVSPropertyOp42
 70
     1
102
RTVSPropertyOp43
 70
     1
102
RTVSPropertyOp44
 70
     1
102
RTVSPropertyOp45
 70
     1
102
RTVSPropertyOp46
 70
     1
102
RTVSPropertyOp47
 70
     1
102
RTVSPropertyOp48
 70
     1
102
RTVSPropertyOp49
 70
     1
102
RTVSPropertyOp50
 70
     1
102
RTVSPropertyOp51
 70
     0
102
RTVSPropertyOp52
 70
     0
102
RTVSPropertyOp53
 70
     1
102
RTVSPropertyOp54
 70
     1
102
RTVSPropertyOp55
 70
     1
102
RTVSPropertyOp56
 70
     1
102
RTVSPropertyOp57
 70
     1
102
RTVSPropertyOp58
 70
     1
102
RTVSPropertyOp59
 70
     1
102
RTVSPropertyOp60
 70
     1
102
RTVSPropertyOp61
 70
     1
102
RTVSPropertyOp62
 70
     1
  0
XRECORD
  5
C7E9
102
{ACAD_REACTORS
330
C7E8
102
}
330
C7E8
100
AcDbXrecord
280
     1
102
RTVSPost2010Prop28
280
     0
102
RTVSPost2010PropOp28
 70
     1
102
RTVSPost2010Prop29
280
     1
102
RTVSPost2010PropOp29
 70
     1
102
RTVSPost2010Prop30
280
     1
102
RTVSPost2010PropOp30
 70
     1
102
RTVSPost2010Prop31
280
     0
102
RTVSPost2010PropOp31
 70
     1
102
RTVSPost2010Prop32
280
     0
102
RTVSPost2010PropOp32
 70
     1
102
RTVSPost2010Prop33
280
     0
102
RTVSPost2010PropOp33
 70
     1
102
RTVSPost2010Prop34
280
     0
102
RTVSPost2010PropOp34
 70
     1
102
RTVSPost2010Prop35
280
     0
102
RTVSPost2010PropOp35
 70
     1
102
RTVSPost2010Prop36
280
     0
102
RTVSPost2010PropOp36
 70
     1
102
RTVSPost2010Prop37
 90
       50
102
RTVSPost2010PropOp37
 70
     0
102
RTVSPost2010Prop38
140
0.0
102
RTVSPost2010PropOp38
 70
     0
102
RTVSPost2010Prop39
140
1.0
102
RTVSPost2010PropOp39
 70
     0
102
RTVSPost2010Prop40
 90
        0
102
RTVSPost2010PropOp40
 70
     0
102
RTVSPost2010Prop41ColorIndex
 90
       18
102
RTVSPost2010Prop41ColorRGB
 90
        0
102
RTVSPost2010PropOp41
 70
     0
102
RTVSPost2010Prop42
 90
       50
102
RTVSPost2010PropOp42
 70
     0
102
RTVSPost2010Prop43
 90
        3
102
RTVSPost2010PropOp43
 70
     0
102
RTVSPost2010Prop44ColorIndex
 90
        5
102
RTVSPost2010Prop44ColorRGB
 90
      255
102
RTVSPost2010PropOp44
 70
     0
102
RTVSPost2010Prop45
280
     0
102
RTVSPost2010PropOp45
 70
     1
102
RTVSPost2010Prop46
 90
       50
102
RTVSPost2010PropOp46
 70
     0
102
RTVSPost2010Prop47
 90
       50
102
RTVSPost2010PropOp47
 70
     0
102
RTVSPost2010Prop48
 90
       50
102
RTVSPost2010PropOp48
 70
     0
102
RTVSPost2010Prop49
280
     0
102
RTVSPost2010PropOp49
 70
     1
102
RTVSPost2010Prop50
 90
       50
102
RTVSPost2010PropOp50
 70
     0
102
RTVSPost2010Prop51ColorIndex
 90
      256
102
RTVSPost2010Prop51ColorRGB
 90
-16777216
102
RTVSPost2010PropOp51
 70
     0
102
RTVSPost2010Prop52
140
1.0
102
RTVSPost2010PropOp52
 70
     0
102
RTVSPost2010Prop53
 90
        2
102
RTVSPost2010PropOp53
 70
     0
102
RTVSPost2010Prop54
  1
strokes_ogs.tif
102
RTVSPost2010PropOp54
 70
     0
102
RTVSPost2010Prop55
280
     0
102
RTVSPost2010PropOp55
 70
     1
102
RTVSPost2010Prop56
140
1.0
102
RTVSPost2010PropOp56
 70
     0
102
RTVSPost2010Prop57
140
1.0
102
RTVSPost2010PropOp57
 70
     0
102
RTVSPropertyOp0
 70
     0
102
RTVSPropertyOp1
 70
     0
102
RTVSPropertyOp2
 70
     0
102
RTVSPropertyOp3
 70
     0
102
RTVSPropertyOp4
 70
     0
102
RTVSPropertyOp5
 70
     0
102
RTVSPropertyOp6
 70
     0
102
RTVSPropertyOp7
 70
     0
102
RTVSPropertyOp8
 70
     0
102
RTVSPropertyOp9
 70
     0
102
RTVSPropertyOp10
 70
     0
102
RTVSPropertyOp11
 70
     0
102
RTVSPropertyOp12
 70
     0
102
RTVSPropertyOp13
 70
     0
102
RTVSPropertyOp14
 70
     2
102
RTVSPropertyOp15
 70
     0
102
RTVSPropertyOp16
 70
     0
102
RTVSPropertyOp17
 70
     0
102
RTVSPropertyOp18
 70
     0
102
RTVSPropertyOp19
 70
     0
102
RTVSPropertyOp20
 70
     0
102
RTVSPropertyOp21
 70
     0
102
RTVSPropertyOp22
 70
     0
102
RTVSPropertyOp23
 70
     0
102
RTVSPropertyOp24
 70
     0
102
RTVSPropertyOp25
 70
     0
102
RTVSPropertyOp26
 70
     0
102
RTVSPropertyOp27
 70
     0
102
RTVSPropertyOp28
 70
     1
102
RTVSPropertyOp29
 70
     1
102
RTVSPropertyOp30
 70
     1
102
RTVSPropertyOp31
 70
     1
102
RTVSPropertyOp32
 70
     1
102
RTVSPropertyOp33
 70
     1
102
RTVSPropertyOp34
 70
     1
102
RTVSPropertyOp35
 70
     1
102
RTVSPropertyOp36
 70
     1
102
RTVSPropertyOp37
 70
     0
102
RTVSPropertyOp38
 70
     0
102
RTVSPropertyOp39
 70
     0
102
RTVSPropertyOp40
 70
     0
102
RTVSPropertyOp41
 70
     0
102
RTVSPropertyOp42
 70
     0
102
RTVSPropertyOp43
 70
     0
102
RTVSPropertyOp44
 70
     0
102
RTVSPropertyOp45
 70
     1
102
RTVSPropertyOp46
 70
     0
102
RTVSPropertyOp47
 70
     0
102
RTVSPropertyOp48
 70
     0
102
RTVSPropertyOp49
 70
     1
102
RTVSPropertyOp50
 70
     0
102
RTVSPropertyOp51
 70
     0
102
RTVSPropertyOp52
 70
     0
102
RTVSPropertyOp53
 70
     0
102
RTVSPropertyOp54
 70
     0
102
RTVSPropertyOp55
 70
     1
102
RTVSPropertyOp56
 70
     0
102
RTVSPropertyOp57
 70
     0
102
RTVSPropertyOp58
 70
     0
102
RTVSPropertyOp59
 70
     0
102
RTVSPropertyOp60
 70
     0
102
RTVSPropertyOp61
 70
     0
102
RTVSPropertyOp62
 70
     0
  0
XRECORD
  5
C7D7
102
{ACAD_REACTORS
330
C7D6
102
}
330
C7D6
100
AcDbXrecord
280
     1
102
RTVSPost2010Prop28
280
     0
102
RTVSPost2010PropOp28
 70
     1
102
RTVSPost2010Prop29
280
     1
102
RTVSPost2010PropOp29
 70
     1
102
RTVSPost2010Prop30
280
     1
102
RTVSPost2010PropOp30
 70
     1
102
RTVSPost2010Prop31
280
     0
102
RTVSPost2010PropOp31
 70
     1
102
RTVSPost2010Prop32
280
     0
102
RTVSPost2010PropOp32
 70
     1
102
RTVSPost2010Prop33
280
     0
102
RTVSPost2010PropOp33
 70
     1
102
RTVSPost2010Prop34
280
     0
102
RTVSPost2010PropOp34
 70
     1
102
RTVSPost2010Prop35
280
     0
102
RTVSPost2010PropOp35
 70
     1
102
RTVSPost2010Prop36
280
     0
102
RTVSPost2010PropOp36
 70
     1
102
RTVSPost2010Prop37
 90
       50
102
RTVSPost2010PropOp37
 70
     1
102
RTVSPost2010Prop38
140
0.0
102
RTVSPost2010PropOp38
 70
     1
102
RTVSPost2010Prop39
140
1.0
102
RTVSPost2010PropOp39
 70
     1
102
RTVSPost2010Prop40
 90
        0
102
RTVSPost2010PropOp40
 70
     1
102
RTVSPost2010Prop41ColorIndex
 90
       18
102
RTVSPost2010Prop41ColorRGB
 90
        0
102
RTVSPost2010PropOp41
 70
     1
102
RTVSPost2010Prop42
 90
       50
102
RTVSPost2010PropOp42
 70
     1
102
RTVSPost2010Prop43
 90
        3
102
RTVSPost2010PropOp43
 70
     1
102
RTVSPost2010Prop44ColorIndex
 90
        5
102
RTVSPost2010Prop44ColorRGB
 90
      255
102
RTVSPost2010PropOp44
 70
     1
102
RTVSPost2010Prop45
280
     0
102
RTVSPost2010PropOp45
 70
     1
102
RTVSPost2010Prop46
 90
       50
102
RTVSPost2010PropOp46
 70
     1
102
RTVSPost2010Prop47
 90
       50
102
RTVSPost2010PropOp47
 70
     1
102
RTVSPost2010Prop48
 90
       50
102
RTVSPost2010PropOp48
 70
     1
102
RTVSPost2010Prop49
280
     0
102
RTVSPost2010PropOp49
 70
     1
102
RTVSPost2010Prop50
 90
       50
102
RTVSPost2010PropOp50
 70
     1
102
RTVSPost2010Prop51ColorIndex
 90
      256
102
RTVSPost2010Prop51ColorRGB
 90
-16777216
102
RTVSPost2010PropOp51
 70
     0
102
RTVSPost2010Prop52
140
1.0
102
RTVSPost2010PropOp52
 70
     0
102
RTVSPost2010Prop53
 90
        2
102
RTVSPost2010PropOp53
 70
     1
102
RTVSPost2010Prop54
  1
strokes_ogs.tif
102
RTVSPost2010PropOp54
 70
     1
102
RTVSPost2010Prop55
280
     0
102
RTVSPost2010PropOp55
 70
     1
102
RTVSPost2010Prop56
140
1.0
102
RTVSPost2010PropOp56
 70
     1
102
RTVSPost2010Prop57
140
1.0
102
RTVSPost2010PropOp57
 70
     1
102
RTVSPropertyOp0
 70
     1
102
RTVSPropertyOp1
 70
     1
102
RTVSPropertyOp2
 70
     1
102
RTVSPropertyOp3
 70
     1
102
RTVSPropertyOp4
 70
     1
102
RTVSPropertyOp5
 70
     1
102
RTVSPropertyOp6
 70
     1
102
RTVSPropertyOp7
 70
     1
102
RTVSPropertyOp8
 70
     1
102
RTVSPropertyOp9
 70
     1
102
RTVSPropertyOp10
 70
     1
102
RTVSPropertyOp11
 70
     1
102
RTVSPropertyOp12
 70
     1
102
RTVSPropertyOp13
 70
     1
102
RTVSPropertyOp14
 70
     1
102
RTVSPropertyOp15
 70
     1
102
RTVSPropertyOp16
 70
     1
102
RTVSPropertyOp17
 70
     1
102
RTVSPropertyOp18
 70
     1
102
RTVSPropertyOp19
 70
     1
102
RTVSPropertyOp20
 70
     1
102
RTVSPropertyOp21
 70
     1
102
RTVSPropertyOp22
 70
     1
102
RTVSPropertyOp23
 70
     1
102
RTVSPropertyOp24
 70
     1
102
RTVSPropertyOp25
 70
     1
102
RTVSPropertyOp26
 70
     1
102
RTVSPropertyOp27
 70
     1
102
RTVSPropertyOp28
 70
     1
102
RTVSPropertyOp29
 70
     1
102
RTVSPropertyOp30
 70
     1
102
RTVSPropertyOp31
 70
     1
102
RTVSPropertyOp32
 70
     1
102
RTVSPropertyOp33
 70
     1
102
RTVSPropertyOp34
 70
     1
102
RTVSPropertyOp35
 70
     1
102
RTVSPropertyOp36
 70
     1
102
RTVSPropertyOp37
 70
     1
102
RTVSPropertyOp38
 70
     1
102
RTVSPropertyOp39
 70
     1
102
RTVSPropertyOp40
 70
     1
102
RTVSPropertyOp41
 70
     1
102
RTVSPropertyOp42
 70
     1
102
RTVSPropertyOp43
 70
     1
102
RTVSPropertyOp44
 70
     1
102
RTVSPropertyOp45
 70
     1
102
RTVSPropertyOp46
 70
     1
102
RTVSPropertyOp47
 70
     1
102
RTVSPropertyOp48
 70
     1
102
RTVSPropertyOp49
 70
     1
102
RTVSPropertyOp50
 70
     1
102
RTVSPropertyOp51
 70
     0
102
RTVSPropertyOp52
 70
     0
102
RTVSPropertyOp53
 70
     1
102
RTVSPropertyOp54
 70
     1
102
RTVSPropertyOp55
 70
     1
102
RTVSPropertyOp56
 70
     1
102
RTVSPropertyOp57
 70
     1
102
RTVSPropertyOp58
 70
     1
102
RTVSPropertyOp59
 70
     1
102
RTVSPropertyOp60
 70
     1
102
RTVSPropertyOp61
 70
     1
102
RTVSPropertyOp62
 70
     1
  0
XRECORD
  5
C7BB
102
{ACAD_REACTORS
330
C7BA
102
}
330
C7BA
100
AcDbXrecord
280
     1
102
RTVSPost2010Prop28
280
     0
102
RTVSPost2010PropOp28
 70
     1
102
RTVSPost2010Prop29
280
     1
102
RTVSPost2010PropOp29
 70
     1
102
RTVSPost2010Prop30
280
     1
102
RTVSPost2010PropOp30
 70
     1
102
RTVSPost2010Prop31
280
     0
102
RTVSPost2010PropOp31
 70
     1
102
RTVSPost2010Prop32
280
     0
102
RTVSPost2010PropOp32
 70
     1
102
RTVSPost2010Prop33
280
     0
102
RTVSPost2010PropOp33
 70
     1
102
RTVSPost2010Prop34
280
     0
102
RTVSPost2010PropOp34
 70
     1
102
RTVSPost2010Prop35
280
     0
102
RTVSPost2010PropOp35
 70
     1
102
RTVSPost2010Prop36
280
     0
102
RTVSPost2010PropOp36
 70
     1
102
RTVSPost2010Prop37
 90
       50
102
RTVSPost2010PropOp37
 70
     1
102
RTVSPost2010Prop38
140
0.0
102
RTVSPost2010PropOp38
 70
     1
102
RTVSPost2010Prop39
140
1.0
102
RTVSPost2010PropOp39
 70
     1
102
RTVSPost2010Prop40
 90
        0
102
RTVSPost2010PropOp40
 70
     1
102
RTVSPost2010Prop41ColorIndex
 90
       18
102
RTVSPost2010Prop41ColorRGB
 90
        0
102
RTVSPost2010PropOp41
 70
     1
102
RTVSPost2010Prop42
 90
       50
102
RTVSPost2010PropOp42
 70
     1
102
RTVSPost2010Prop43
 90
        3
102
RTVSPost2010PropOp43
 70
     1
102
RTVSPost2010Prop44ColorIndex
 90
        5
102
RTVSPost2010Prop44ColorRGB
 90
      255
102
RTVSPost2010PropOp44
 70
     1
102
RTVSPost2010Prop45
280
     0
102
RTVSPost2010PropOp45
 70
     1
102
RTVSPost2010Prop46
 90
       50
102
RTVSPost2010PropOp46
 70
     1
102
RTVSPost2010Prop47
 90
       50
102
RTVSPost2010PropOp47
 70
     1
102
RTVSPost2010Prop48
 90
       50
102
RTVSPost2010PropOp48
 70
     1
102
RTVSPost2010Prop49
280
     0
102
RTVSPost2010PropOp49
 70
     1
102
RTVSPost2010Prop50
 90
       50
102
RTVSPost2010PropOp50
 70
     1
102
RTVSPost2010Prop51ColorIndex
 90
      256
102
RTVSPost2010Prop51ColorRGB
 90
-16777216
102
RTVSPost2010PropOp51
 70
     0
102
RTVSPost2010Prop52
140
1.0
102
RTVSPost2010PropOp52
 70
     0
102
RTVSPost2010Prop53
 90
        2
102
RTVSPost2010PropOp53
 70
     1
102
RTVSPost2010Prop54
  1
strokes_ogs.tif
102
RTVSPost2010PropOp54
 70
     1
102
RTVSPost2010Prop55
280
     0
102
RTVSPost2010PropOp55
 70
     1
102
RTVSPost2010Prop56
140
1.0
102
RTVSPost2010PropOp56
 70
     1
102
RTVSPost2010Prop57
140
1.0
102
RTVSPost2010PropOp57
 70
     1
102
RTVSPropertyOp0
 70
     1
102
RTVSPropertyOp1
 70
     1
102
RTVSPropertyOp2
 70
     1
102
RTVSPropertyOp3
 70
     1
102
RTVSPropertyOp4
 70
     1
102
RTVSPropertyOp5
 70
     1
102
RTVSPropertyOp6
 70
     1
102
RTVSPropertyOp7
 70
     1
102
RTVSPropertyOp8
 70
     1
102
RTVSPropertyOp9
 70
     1
102
RTVSPropertyOp10
 70
     1
102
RTVSPropertyOp11
 70
     1
102
RTVSPropertyOp12
 70
     1
102
RTVSPropertyOp13
 70
     1
102
RTVSPropertyOp14
 70
     1
102
RTVSPropertyOp15
 70
     1
102
RTVSPropertyOp16
 70
     1
102
RTVSPropertyOp17
 70
     1
102
RTVSPropertyOp18
 70
     1
102
RTVSPropertyOp19
 70
     1
102
RTVSPropertyOp20
 70
     1
102
RTVSPropertyOp21
 70
     1
102
RTVSPropertyOp22
 70
     1
102
RTVSPropertyOp23
 70
     1
102
RTVSPropertyOp24
 70
     1
102
RTVSPropertyOp25
 70
     1
102
RTVSPropertyOp26
 70
     1
102
RTVSPropertyOp27
 70
     1
102
RTVSPropertyOp28
 70
     1
102
RTVSPropertyOp29
 70
     1
102
RTVSPropertyOp30
 70
     1
102
RTVSPropertyOp31
 70
     1
102
RTVSPropertyOp32
 70
     1
102
RTVSPropertyOp33
 70
     1
102
RTVSPropertyOp34
 70
     1
102
RTVSPropertyOp35
 70
     1
102
RTVSPropertyOp36
 70
     1
102
RTVSPropertyOp37
 70
     1
102
RTVSPropertyOp38
 70
     1
102
RTVSPropertyOp39
 70
     1
102
RTVSPropertyOp40
 70
     1
102
RTVSPropertyOp41
 70
     1
102
RTVSPropertyOp42
 70
     1
102
RTVSPropertyOp43
 70
     1
102
RTVSPropertyOp44
 70
     1
102
RTVSPropertyOp45
 70
     1
102
RTVSPropertyOp46
 70
     1
102
RTVSPropertyOp47
 70
     1
102
RTVSPropertyOp48
 70
     1
102
RTVSPropertyOp49
 70
     1
102
RTVSPropertyOp50
 70
     1
102
RTVSPropertyOp51
 70
     0
102
RTVSPropertyOp52
 70
     0
102
RTVSPropertyOp53
 70
     1
102
RTVSPropertyOp54
 70
     1
102
RTVSPropertyOp55
 70
     1
102
RTVSPropertyOp56
 70
     1
102
RTVSPropertyOp57
 70
     1
102
RTVSPropertyOp58
 70
     1
102
RTVSPropertyOp59
 70
     1
102
RTVSPropertyOp60
 70
     1
102
RTVSPropertyOp61
 70
     1
102
RTVSPropertyOp62
 70
     1
  0
XRECORD
  5
C7BD
102
{ACAD_REACTORS
330
C7BC
102
}
330
C7BC
100
AcDbXrecord
280
     1
102
RTVSPost2010Prop28
280
     0
102
RTVSPost2010PropOp28
 70
     1
102
RTVSPost2010Prop29
280
     1
102
RTVSPost2010PropOp29
 70
     1
102
RTVSPost2010Prop30
280
     1
102
RTVSPost2010PropOp30
 70
     1
102
RTVSPost2010Prop31
280
     0
102
RTVSPost2010PropOp31
 70
     1
102
RTVSPost2010Prop32
280
     0
102
RTVSPost2010PropOp32
 70
     1
102
RTVSPost2010Prop33
280
     0
102
RTVSPost2010PropOp33
 70
     1
102
RTVSPost2010Prop34
280
     0
102
RTVSPost2010PropOp34
 70
     1
102
RTVSPost2010Prop35
280
     0
102
RTVSPost2010PropOp35
 70
     1
102
RTVSPost2010Prop36
280
     0
102
RTVSPost2010PropOp36
 70
     1
102
RTVSPost2010Prop37
 90
       50
102
RTVSPost2010PropOp37
 70
     1
102
RTVSPost2010Prop38
140
0.0
102
RTVSPost2010PropOp38
 70
     1
102
RTVSPost2010Prop39
140
1.0
102
RTVSPost2010PropOp39
 70
     1
102
RTVSPost2010Prop40
 90
        0
102
RTVSPost2010PropOp40
 70
     1
102
RTVSPost2010Prop41ColorIndex
 90
       18
102
RTVSPost2010Prop41ColorRGB
 90
        0
102
RTVSPost2010PropOp41
 70
     1
102
RTVSPost2010Prop42
 90
       50
102
RTVSPost2010PropOp42
 70
     1
102
RTVSPost2010Prop43
 90
        3
102
RTVSPost2010PropOp43
 70
     1
102
RTVSPost2010Prop44ColorIndex
 90
        5
102
RTVSPost2010Prop44ColorRGB
 90
      255
102
RTVSPost2010PropOp44
 70
     1
102
RTVSPost2010Prop45
280
     0
102
RTVSPost2010PropOp45
 70
     1
102
RTVSPost2010Prop46
 90
       50
102
RTVSPost2010PropOp46
 70
     1
102
RTVSPost2010Prop47
 90
       50
102
RTVSPost2010PropOp47
 70
     1
102
RTVSPost2010Prop48
 90
       50
102
RTVSPost2010PropOp48
 70
     1
102
RTVSPost2010Prop49
280
     0
102
RTVSPost2010PropOp49
 70
     1
102
RTVSPost2010Prop50
 90
       50
102
RTVSPost2010PropOp50
 70
     1
102
RTVSPost2010Prop51ColorIndex
 90
      256
102
RTVSPost2010Prop51ColorRGB
 90
-16777216
102
RTVSPost2010PropOp51
 70
     0
102
RTVSPost2010Prop52
140
1.0
102
RTVSPost2010PropOp52
 70
     0
102
RTVSPost2010Prop53
 90
        2
102
RTVSPost2010PropOp53
 70
     1
102
RTVSPost2010Prop54
  1
strokes_ogs.tif
102
RTVSPost2010PropOp54
 70
     1
102
RTVSPost2010Prop55
280
     0
102
RTVSPost2010PropOp55
 70
     1
102
RTVSPost2010Prop56
140
1.0
102
RTVSPost2010PropOp56
 70
     1
102
RTVSPost2010Prop57
140
1.0
102
RTVSPost2010PropOp57
 70
     1
102
RTVSPropertyOp0
 70
     1
102
RTVSPropertyOp1
 70
     1
102
RTVSPropertyOp2
 70
     1
102
RTVSPropertyOp3
 70
     1
102
RTVSPropertyOp4
 70
     1
102
RTVSPropertyOp5
 70
     1
102
RTVSPropertyOp6
 70
     1
102
RTVSPropertyOp7
 70
     1
102
RTVSPropertyOp8
 70
     1
102
RTVSPropertyOp9
 70
     1
102
RTVSPropertyOp10
 70
     1
102
RTVSPropertyOp11
 70
     1
102
RTVSPropertyOp12
 70
     1
102
RTVSPropertyOp13
 70
     1
102
RTVSPropertyOp14
 70
     1
102
RTVSPropertyOp15
 70
     1
102
RTVSPropertyOp16
 70
     1
102
RTVSPropertyOp17
 70
     1
102
RTVSPropertyOp18
 70
     1
102
RTVSPropertyOp19
 70
     1
102
RTVSPropertyOp20
 70
     1
102
RTVSPropertyOp21
 70
     1
102
RTVSPropertyOp22
 70
     1
102
RTVSPropertyOp23
 70
     1
102
RTVSPropertyOp24
 70
     1
102
RTVSPropertyOp25
 70
     1
102
RTVSPropertyOp26
 70
     1
102
RTVSPropertyOp27
 70
     1
102
RTVSPropertyOp28
 70
     1
102
RTVSPropertyOp29
 70
     1
102
RTVSPropertyOp30
 70
     1
102
RTVSPropertyOp31
 70
     1
102
RTVSPropertyOp32
 70
     1
102
RTVSPropertyOp33
 70
     1
102
RTVSPropertyOp34
 70
     1
102
RTVSPropertyOp35
 70
     1
102
RTVSPropertyOp36
 70
     1
102
RTVSPropertyOp37
 70
     1
102
RTVSPropertyOp38
 70
     1
102
RTVSPropertyOp39
 70
     1
102
RTVSPropertyOp40
 70
     1
102
RTVSPropertyOp41
 70
     1
102
RTVSPropertyOp42
 70
     1
102
RTVSPropertyOp43
 70
     1
102
RTVSPropertyOp44
 70
     1
102
RTVSPropertyOp45
 70
     1
102
RTVSPropertyOp46
 70
     1
102
RTVSPropertyOp47
 70
     1
102
RTVSPropertyOp48
 70
     1
102
RTVSPropertyOp49
 70
     1
102
RTVSPropertyOp50
 70
     1
102
RTVSPropertyOp51
 70
     0
102
RTVSPropertyOp52
 70
     0
102
RTVSPropertyOp53
 70
     1
102
RTVSPropertyOp54
 70
     1
102
RTVSPropertyOp55
 70
     1
102
RTVSPropertyOp56
 70
     1
102
RTVSPropertyOp57
 70
     1
102
RTVSPropertyOp58
 70
     1
102
RTVSPropertyOp59
 70
     1
102
RTVSPropertyOp60
 70
     1
102
RTVSPropertyOp61
 70
     1
102
RTVSPropertyOp62
 70
     1
  0
XRECORD
  5
C7BF
102
{ACAD_REACTORS
330
C7BE
102
}
330
C7BE
100
AcDbXrecord
280
     1
102
RTVSPost2010Prop28
280
     0
102
RTVSPost2010PropOp28
 70
     1
102
RTVSPost2010Prop29
280
     1
102
RTVSPost2010PropOp29
 70
     1
102
RTVSPost2010Prop30
280
     1
102
RTVSPost2010PropOp30
 70
     1
102
RTVSPost2010Prop31
280
     0
102
RTVSPost2010PropOp31
 70
     1
102
RTVSPost2010Prop32
280
     0
102
RTVSPost2010PropOp32
 70
     1
102
RTVSPost2010Prop33
280
     0
102
RTVSPost2010PropOp33
 70
     1
102
RTVSPost2010Prop34
280
     0
102
RTVSPost2010PropOp34
 70
     1
102
RTVSPost2010Prop35
280
     0
102
RTVSPost2010PropOp35
 70
     1
102
RTVSPost2010Prop36
280
     0
102
RTVSPost2010PropOp36
 70
     1
102
RTVSPost2010Prop37
 90
       50
102
RTVSPost2010PropOp37
 70
     1
102
RTVSPost2010Prop38
140
0.0
102
RTVSPost2010PropOp38
 70
     1
102
RTVSPost2010Prop39
140
1.0
102
RTVSPost2010PropOp39
 70
     1
102
RTVSPost2010Prop40
 90
        0
102
RTVSPost2010PropOp40
 70
     1
102
RTVSPost2010Prop41ColorIndex
 90
       18
102
RTVSPost2010Prop41ColorRGB
 90
        0
102
RTVSPost2010PropOp41
 70
     1
102
RTVSPost2010Prop42
 90
       50
102
RTVSPost2010PropOp42
 70
     1
102
RTVSPost2010Prop43
 90
        3
102
RTVSPost2010PropOp43
 70
     1
102
RTVSPost2010Prop44ColorIndex
 90
        5
102
RTVSPost2010Prop44ColorRGB
 90
      255
102
RTVSPost2010PropOp44
 70
     1
102
RTVSPost2010Prop45
280
     0
102
RTVSPost2010PropOp45
 70
     1
102
RTVSPost2010Prop46
 90
       50
102
RTVSPost2010PropOp46
 70
     1
102
RTVSPost2010Prop47
 90
       50
102
RTVSPost2010PropOp47
 70
     1
102
RTVSPost2010Prop48
 90
       50
102
RTVSPost2010PropOp48
 70
     1
102
RTVSPost2010Prop49
280
     0
102
RTVSPost2010PropOp49
 70
     1
102
RTVSPost2010Prop50
 90
       50
102
RTVSPost2010PropOp50
 70
     1
102
RTVSPost2010Prop51ColorIndex
 90
      256
102
RTVSPost2010Prop51ColorRGB
 90
-16777216
102
RTVSPost2010PropOp51
 70
     0
102
RTVSPost2010Prop52
140
1.0
102
RTVSPost2010PropOp52
 70
     0
102
RTVSPost2010Prop53
 90
        2
102
RTVSPost2010PropOp53
 70
     1
102
RTVSPost2010Prop54
  1
strokes_ogs.tif
102
RTVSPost2010PropOp54
 70
     1
102
RTVSPost2010Prop55
280
     0
102
RTVSPost2010PropOp55
 70
     1
102
RTVSPost2010Prop56
140
1.0
102
RTVSPost2010PropOp56
 70
     1
102
RTVSPost2010Prop57
140
1.0
102
RTVSPost2010PropOp57
 70
     1
102
RTVSPropertyOp0
 70
     1
102
RTVSPropertyOp1
 70
     1
102
RTVSPropertyOp2
 70
     1
102
RTVSPropertyOp3
 70
     1
102
RTVSPropertyOp4
 70
     1
102
RTVSPropertyOp5
 70
     1
102
RTVSPropertyOp6
 70
     1
102
RTVSPropertyOp7
 70
     1
102
RTVSPropertyOp8
 70
     1
102
RTVSPropertyOp9
 70
     1
102
RTVSPropertyOp10
 70
     1
102
RTVSPropertyOp11
 70
     1
102
RTVSPropertyOp12
 70
     1
102
RTVSPropertyOp13
 70
     1
102
RTVSPropertyOp14
 70
     1
102
RTVSPropertyOp15
 70
     1
102
RTVSPropertyOp16
 70
     1
102
RTVSPropertyOp17
 70
     1
102
RTVSPropertyOp18
 70
     1
102
RTVSPropertyOp19
 70
     1
102
RTVSPropertyOp20
 70
     1
102
RTVSPropertyOp21
 70
     1
102
RTVSPropertyOp22
 70
     1
102
RTVSPropertyOp23
 70
     1
102
RTVSPropertyOp24
 70
     1
102
RTVSPropertyOp25
 70
     1
102
RTVSPropertyOp26
 70
     1
102
RTVSPropertyOp27
 70
     1
102
RTVSPropertyOp28
 70
     1
102
RTVSPropertyOp29
 70
     1
102
RTVSPropertyOp30
 70
     1
102
RTVSPropertyOp31
 70
     1
102
RTVSPropertyOp32
 70
     1
102
RTVSPropertyOp33
 70
     1
102
RTVSPropertyOp34
 70
     1
102
RTVSPropertyOp35
 70
     1
102
RTVSPropertyOp36
 70
     1
102
RTVSPropertyOp37
 70
     1
102
RTVSPropertyOp38
 70
     1
102
RTVSPropertyOp39
 70
     1
102
RTVSPropertyOp40
 70
     1
102
RTVSPropertyOp41
 70
     1
102
RTVSPropertyOp42
 70
     1
102
RTVSPropertyOp43
 70
     1
102
RTVSPropertyOp44
 70
     1
102
RTVSPropertyOp45
 70
     1
102
RTVSPropertyOp46
 70
     1
102
RTVSPropertyOp47
 70
     1
102
RTVSPropertyOp48
 70
     1
102
RTVSPropertyOp49
 70
     1
102
RTVSPropertyOp50
 70
     1
102
RTVSPropertyOp51
 70
     0
102
RTVSPropertyOp52
 70
     0
102
RTVSPropertyOp53
 70
     1
102
RTVSPropertyOp54
 70
     1
102
RTVSPropertyOp55
 70
     1
102
RTVSPropertyOp56
 70
     1
102
RTVSPropertyOp57
 70
     1
102
RTVSPropertyOp58
 70
     1
102
RTVSPropertyOp59
 70
     1
102
RTVSPropertyOp60
 70
     1
102
RTVSPropertyOp61
 70
     1
102
RTVSPropertyOp62
 70
     1
  0
XRECORD
  5
C7C1
102
{ACAD_REACTORS
330
C7C0
102
}
330
C7C0
100
AcDbXrecord
280
     1
102
RTVSPost2010Prop28
280
     0
102
RTVSPost2010PropOp28
 70
     1
102
RTVSPost2010Prop29
280
     1
102
RTVSPost2010PropOp29
 70
     1
102
RTVSPost2010Prop30
280
     1
102
RTVSPost2010PropOp30
 70
     1
102
RTVSPost2010Prop31
280
     0
102
RTVSPost2010PropOp31
 70
     1
102
RTVSPost2010Prop32
280
     0
102
RTVSPost2010PropOp32
 70
     1
102
RTVSPost2010Prop33
280
     0
102
RTVSPost2010PropOp33
 70
     1
102
RTVSPost2010Prop34
280
     0
102
RTVSPost2010PropOp34
 70
     1
102
RTVSPost2010Prop35
280
     0
102
RTVSPost2010PropOp35
 70
     1
102
RTVSPost2010Prop36
280
     0
102
RTVSPost2010PropOp36
 70
     1
102
RTVSPost2010Prop37
 90
       50
102
RTVSPost2010PropOp37
 70
     1
102
RTVSPost2010Prop38
140
0.0
102
RTVSPost2010PropOp38
 70
     1
102
RTVSPost2010Prop39
140
1.0
102
RTVSPost2010PropOp39
 70
     1
102
RTVSPost2010Prop40
 90
        0
102
RTVSPost2010PropOp40
 70
     1
102
RTVSPost2010Prop41ColorIndex
 90
       18
102
RTVSPost2010Prop41ColorRGB
 90
        0
102
RTVSPost2010PropOp41
 70
     1
102
RTVSPost2010Prop42
 90
       50
102
RTVSPost2010PropOp42
 70
     1
102
RTVSPost2010Prop43
 90
        3
102
RTVSPost2010PropOp43
 70
     1
102
RTVSPost2010Prop44ColorIndex
 90
        5
102
RTVSPost2010Prop44ColorRGB
 90
      255
102
RTVSPost2010PropOp44
 70
     1
102
RTVSPost2010Prop45
280
     0
102
RTVSPost2010PropOp45
 70
     1
102
RTVSPost2010Prop46
 90
       50
102
RTVSPost2010PropOp46
 70
     1
102
RTVSPost2010Prop47
 90
       50
102
RTVSPost2010PropOp47
 70
     1
102
RTVSPost2010Prop48
 90
       50
102
RTVSPost2010PropOp48
 70
     1
102
RTVSPost2010Prop49
280
     0
102
RTVSPost2010PropOp49
 70
     1
102
RTVSPost2010Prop50
 90
       50
102
RTVSPost2010PropOp50
 70
     1
102
RTVSPost2010Prop51ColorIndex
 90
      256
102
RTVSPost2010Prop51ColorRGB
 90
-16777216
102
RTVSPost2010PropOp51
 70
     0
102
RTVSPost2010Prop52
140
1.0
102
RTVSPost2010PropOp52
 70
     0
102
RTVSPost2010Prop53
 90
        2
102
RTVSPost2010PropOp53
 70
     1
102
RTVSPost2010Prop54
  1
strokes_ogs.tif
102
RTVSPost2010PropOp54
 70
     1
102
RTVSPost2010Prop55
280
     0
102
RTVSPost2010PropOp55
 70
     1
102
RTVSPost2010Prop56
140
1.0
102
RTVSPost2010PropOp56
 70
     1
102
RTVSPost2010Prop57
140
1.0
102
RTVSPost2010PropOp57
 70
     1
102
RTVSPropertyOp0
 70
     1
102
RTVSPropertyOp1
 70
     1
102
RTVSPropertyOp2
 70
     1
102
RTVSPropertyOp3
 70
     1
102
RTVSPropertyOp4
 70
     1
102
RTVSPropertyOp5
 70
     1
102
RTVSPropertyOp6
 70
     1
102
RTVSPropertyOp7
 70
     1
102
RTVSPropertyOp8
 70
     1
102
RTVSPropertyOp9
 70
     1
102
RTVSPropertyOp10
 70
     1
102
RTVSPropertyOp11
 70
     1
102
RTVSPropertyOp12
 70
     1
102
RTVSPropertyOp13
 70
     1
102
RTVSPropertyOp14
 70
     1
102
RTVSPropertyOp15
 70
     1
102
RTVSPropertyOp16
 70
     1
102
RTVSPropertyOp17
 70
     1
102
RTVSPropertyOp18
 70
     1
102
RTVSPropertyOp19
 70
     1
102
RTVSPropertyOp20
 70
     1
102
RTVSPropertyOp21
 70
     1
102
RTVSPropertyOp22
 70
     1
102
RTVSPropertyOp23
 70
     1
102
RTVSPropertyOp24
 70
     1
102
RTVSPropertyOp25
 70
     1
102
RTVSPropertyOp26
 70
     1
102
RTVSPropertyOp27
 70
     1
102
RTVSPropertyOp28
 70
     1
102
RTVSPropertyOp29
 70
     1
102
RTVSPropertyOp30
 70
     1
102
RTVSPropertyOp31
 70
     1
102
RTVSPropertyOp32
 70
     1
102
RTVSPropertyOp33
 70
     1
102
RTVSPropertyOp34
 70
     1
102
RTVSPropertyOp35
 70
     1
102
RTVSPropertyOp36
 70
     1
102
RTVSPropertyOp37
 70
     1
102
RTVSPropertyOp38
 70
     1
102
RTVSPropertyOp39
 70
     1
102
RTVSPropertyOp40
 70
     1
102
RTVSPropertyOp41
 70
     1
102
RTVSPropertyOp42
 70
     1
102
RTVSPropertyOp43
 70
     1
102
RTVSPropertyOp44
 70
     1
102
RTVSPropertyOp45
 70
     1
102
RTVSPropertyOp46
 70
     1
102
RTVSPropertyOp47
 70
     1
102
RTVSPropertyOp48
 70
     1
102
RTVSPropertyOp49
 70
     1
102
RTVSPropertyOp50
 70
     1
102
RTVSPropertyOp51
 70
     0
102
RTVSPropertyOp52
 70
     0
102
RTVSPropertyOp53
 70
     1
102
RTVSPropertyOp54
 70
     1
102
RTVSPropertyOp55
 70
     1
102
RTVSPropertyOp56
 70
     1
102
RTVSPropertyOp57
 70
     1
102
RTVSPropertyOp58
 70
     1
102
RTVSPropertyOp59
 70
     1
102
RTVSPropertyOp60
 70
     1
102
RTVSPropertyOp61
 70
     1
102
RTVSPropertyOp62
 70
     1
  0
XRECORD
  5
C7C9
102
{ACAD_REACTORS
330
C7C8
102
}
330
C7C8
100
AcDbXrecord
280
     1
102
RTVSPost2010Prop28
280
     0
102
RTVSPost2010PropOp28
 70
     1
102
RTVSPost2010Prop29
280
     1
102
RTVSPost2010PropOp29
 70
     1
102
RTVSPost2010Prop30
280
     1
102
RTVSPost2010PropOp30
 70
     1
102
RTVSPost2010Prop31
280
     0
102
RTVSPost2010PropOp31
 70
     1
102
RTVSPost2010Prop32
280
     0
102
RTVSPost2010PropOp32
 70
     1
102
RTVSPost2010Prop33
280
     0
102
RTVSPost2010PropOp33
 70
     1
102
RTVSPost2010Prop34
280
     0
102
RTVSPost2010PropOp34
 70
     1
102
RTVSPost2010Prop35
280
     0
102
RTVSPost2010PropOp35
 70
     1
102
RTVSPost2010Prop36
280
     0
102
RTVSPost2010PropOp36
 70
     1
102
RTVSPost2010Prop37
 90
       50
102
RTVSPost2010PropOp37
 70
     1
102
RTVSPost2010Prop38
140
0.0
102
RTVSPost2010PropOp38
 70
     1
102
RTVSPost2010Prop39
140
1.0
102
RTVSPost2010PropOp39
 70
     1
102
RTVSPost2010Prop40
 90
        0
102
RTVSPost2010PropOp40
 70
     1
102
RTVSPost2010Prop41ColorIndex
 90
       18
102
RTVSPost2010Prop41ColorRGB
 90
        0
102
RTVSPost2010PropOp41
 70
     1
102
RTVSPost2010Prop42
 90
       50
102
RTVSPost2010PropOp42
 70
     1
102
RTVSPost2010Prop43
 90
        3
102
RTVSPost2010PropOp43
 70
     1
102
RTVSPost2010Prop44ColorIndex
 90
        5
102
RTVSPost2010Prop44ColorRGB
 90
      255
102
RTVSPost2010PropOp44
 70
     1
102
RTVSPost2010Prop45
280
     0
102
RTVSPost2010PropOp45
 70
     1
102
RTVSPost2010Prop46
 90
       50
102
RTVSPost2010PropOp46
 70
     1
102
RTVSPost2010Prop47
 90
       50
102
RTVSPost2010PropOp47
 70
     1
102
RTVSPost2010Prop48
 90
       50
102
RTVSPost2010PropOp48
 70
     1
102
RTVSPost2010Prop49
280
     0
102
RTVSPost2010PropOp49
 70
     1
102
RTVSPost2010Prop50
 90
       50
102
RTVSPost2010PropOp50
 70
     1
102
RTVSPost2010Prop51ColorIndex
 90
      256
102
RTVSPost2010Prop51ColorRGB
 90
-16777216
102
RTVSPost2010PropOp51
 70
     0
102
RTVSPost2010Prop52
140
1.0
102
RTVSPost2010PropOp52
 70
     0
102
RTVSPost2010Prop53
 90
        2
102
RTVSPost2010PropOp53
 70
     1
102
RTVSPost2010Prop54
  1
strokes_ogs.tif
102
RTVSPost2010PropOp54
 70
     1
102
RTVSPost2010Prop55
280
     0
102
RTVSPost2010PropOp55
 70
     1
102
RTVSPost2010Prop56
140
1.0
102
RTVSPost2010PropOp56
 70
     1
102
RTVSPost2010Prop57
140
1.0
102
RTVSPost2010PropOp57
 70
     1
102
RTVSPropertyOp0
 70
     1
102
RTVSPropertyOp1
 70
     1
102
RTVSPropertyOp2
 70
     1
102
RTVSPropertyOp3
 70
     1
102
RTVSPropertyOp4
 70
     1
102
RTVSPropertyOp5
 70
     1
102
RTVSPropertyOp6
 70
     1
102
RTVSPropertyOp7
 70
     1
102
RTVSPropertyOp8
 70
     1
102
RTVSPropertyOp9
 70
     1
102
RTVSPropertyOp10
 70
     1
102
RTVSPropertyOp11
 70
     1
102
RTVSPropertyOp12
 70
     1
102
RTVSPropertyOp13
 70
     1
102
RTVSPropertyOp14
 70
     1
102
RTVSPropertyOp15
 70
     1
102
RTVSPropertyOp16
 70
     1
102
RTVSPropertyOp17
 70
     1
102
RTVSPropertyOp18
 70
     1
102
RTVSPropertyOp19
 70
     1
102
RTVSPropertyOp20
 70
     1
102
RTVSPropertyOp21
 70
     1
102
RTVSPropertyOp22
 70
     1
102
RTVSPropertyOp23
 70
     1
102
RTVSPropertyOp24
 70
     1
102
RTVSPropertyOp25
 70
     1
102
RTVSPropertyOp26
 70
     1
102
RTVSPropertyOp27
 70
     1
102
RTVSPropertyOp28
 70
     1
102
RTVSPropertyOp29
 70
     1
102
RTVSPropertyOp30
 70
     1
102
RTVSPropertyOp31
 70
     1
102
RTVSPropertyOp32
 70
     1
102
RTVSPropertyOp33
 70
     1
102
RTVSPropertyOp34
 70
     1
102
RTVSPropertyOp35
 70
     1
102
RTVSPropertyOp36
 70
     1
102
RTVSPropertyOp37
 70
     1
102
RTVSPropertyOp38
 70
     1
102
RTVSPropertyOp39
 70
     1
102
RTVSPropertyOp40
 70
     1
102
RTVSPropertyOp41
 70
     1
102
RTVSPropertyOp42
 70
     1
102
RTVSPropertyOp43
 70
     1
102
RTVSPropertyOp44
 70
     1
102
RTVSPropertyOp45
 70
     1
102
RTVSPropertyOp46
 70
     1
102
RTVSPropertyOp47
 70
     1
102
RTVSPropertyOp48
 70
     1
102
RTVSPropertyOp49
 70
     1
102
RTVSPropertyOp50
 70
     1
102
RTVSPropertyOp51
 70
     0
102
RTVSPropertyOp52
 70
     0
102
RTVSPropertyOp53
 70
     1
102
RTVSPropertyOp54
 70
     1
102
RTVSPropertyOp55
 70
     1
102
RTVSPropertyOp56
 70
     1
102
RTVSPropertyOp57
 70
     1
102
RTVSPropertyOp58
 70
     1
102
RTVSPropertyOp59
 70
     1
102
RTVSPropertyOp60
 70
     1
102
RTVSPropertyOp61
 70
     1
102
RTVSPropertyOp62
 70
     1
  0
XRECORD
  5
C7E5
102
{ACAD_REACTORS
330
C7E4
102
}
330
C7E4
100
AcDbXrecord
280
     1
102
RTVSPost2010Prop28
280
     0
102
RTVSPost2010PropOp28
 70
     1
102
RTVSPost2010Prop29
280
     1
102
RTVSPost2010PropOp29
 70
     1
102
RTVSPost2010Prop30
280
     1
102
RTVSPost2010PropOp30
 70
     1
102
RTVSPost2010Prop31
280
     0
102
RTVSPost2010PropOp31
 70
     1
102
RTVSPost2010Prop32
280
     0
102
RTVSPost2010PropOp32
 70
     1
102
RTVSPost2010Prop33
280
     0
102
RTVSPost2010PropOp33
 70
     1
102
RTVSPost2010Prop34
280
     0
102
RTVSPost2010PropOp34
 70
     1
102
RTVSPost2010Prop35
280
     0
102
RTVSPost2010PropOp35
 70
     1
102
RTVSPost2010Prop36
280
     0
102
RTVSPost2010PropOp36
 70
     1
102
RTVSPost2010Prop37
 90
       50
102
RTVSPost2010PropOp37
 70
     0
102
RTVSPost2010Prop38
140
0.0
102
RTVSPost2010PropOp38
 70
     0
102
RTVSPost2010Prop39
140
1.0
102
RTVSPost2010PropOp39
 70
     0
102
RTVSPost2010Prop40
 90
        0
102
RTVSPost2010PropOp40
 70
     0
102
RTVSPost2010Prop41ColorIndex
 90
       18
102
RTVSPost2010Prop41ColorRGB
 90
        0
102
RTVSPost2010PropOp41
 70
     0
102
RTVSPost2010Prop42
 90
       50
102
RTVSPost2010PropOp42
 70
     0
102
RTVSPost2010Prop43
 90
        3
102
RTVSPost2010PropOp43
 70
     0
102
RTVSPost2010Prop44ColorIndex
 90
        5
102
RTVSPost2010Prop44ColorRGB
 90
      255
102
RTVSPost2010PropOp44
 70
     0
102
RTVSPost2010Prop45
280
     0
102
RTVSPost2010PropOp45
 70
     1
102
RTVSPost2010Prop46
 90
       50
102
RTVSPost2010PropOp46
 70
     0
102
RTVSPost2010Prop47
 90
       50
102
RTVSPost2010PropOp47
 70
     0
102
RTVSPost2010Prop48
 90
       50
102
RTVSPost2010PropOp48
 70
     0
102
RTVSPost2010Prop49
280
     0
102
RTVSPost2010PropOp49
 70
     1
102
RTVSPost2010Prop50
 90
       50
102
RTVSPost2010PropOp50
 70
     0
102
RTVSPost2010Prop51ColorIndex
 90
      256
102
RTVSPost2010Prop51ColorRGB
 90
-16777216
102
RTVSPost2010PropOp51
 70
     0
102
RTVSPost2010Prop52
140
1.0
102
RTVSPost2010PropOp52
 70
     0
102
RTVSPost2010Prop53
 90
        2
102
RTVSPost2010PropOp53
 70
     0
102
RTVSPost2010Prop54
  1
strokes_ogs.tif
102
RTVSPost2010PropOp54
 70
     0
102
RTVSPost2010Prop55
280
     0
102
RTVSPost2010PropOp55
 70
     1
102
RTVSPost2010Prop56
140
1.0
102
RTVSPost2010PropOp56
 70
     0
102
RTVSPost2010Prop57
140
1.0
102
RTVSPost2010PropOp57
 70
     0
102
RTVSPropertyOp0
 70
     0
102
RTVSPropertyOp1
 70
     0
102
RTVSPropertyOp2
 70
     0
102
RTVSPropertyOp3
 70
     0
102
RTVSPropertyOp4
 70
     0
102
RTVSPropertyOp5
 70
     0
102
RTVSPropertyOp6
 70
     0
102
RTVSPropertyOp7
 70
     0
102
RTVSPropertyOp8
 70
     0
102
RTVSPropertyOp9
 70
     0
102
RTVSPropertyOp10
 70
     0
102
RTVSPropertyOp11
 70
     0
102
RTVSPropertyOp12
 70
     0
102
RTVSPropertyOp13
 70
     0
102
RTVSPropertyOp14
 70
     2
102
RTVSPropertyOp15
 70
     0
102
RTVSPropertyOp16
 70
     0
102
RTVSPropertyOp17
 70
     0
102
RTVSPropertyOp18
 70
     0
102
RTVSPropertyOp19
 70
     0
102
RTVSPropertyOp20
 70
     0
102
RTVSPropertyOp21
 70
     0
102
RTVSPropertyOp22
 70
     0
102
RTVSPropertyOp23
 70
     0
102
RTVSPropertyOp24
 70
     0
102
RTVSPropertyOp25
 70
     0
102
RTVSPropertyOp26
 70
     0
102
RTVSPropertyOp27
 70
     0
102
RTVSPropertyOp28
 70
     1
102
RTVSPropertyOp29
 70
     1
102
RTVSPropertyOp30
 70
     1
102
RTVSPropertyOp31
 70
     1
102
RTVSPropertyOp32
 70
     1
102
RTVSPropertyOp33
 70
     1
102
RTVSPropertyOp34
 70
     1
102
RTVSPropertyOp35
 70
     1
102
RTVSPropertyOp36
 70
     1
102
RTVSPropertyOp37
 70
     0
102
RTVSPropertyOp38
 70
     0
102
RTVSPropertyOp39
 70
     0
102
RTVSPropertyOp40
 70
     0
102
RTVSPropertyOp41
 70
     0
102
RTVSPropertyOp42
 70
     0
102
RTVSPropertyOp43
 70
     0
102
RTVSPropertyOp44
 70
     0
102
RTVSPropertyOp45
 70
     1
102
RTVSPropertyOp46
 70
     0
102
RTVSPropertyOp47
 70
     0
102
RTVSPropertyOp48
 70
     0
102
RTVSPropertyOp49
 70
     1
102
RTVSPropertyOp50
 70
     0
102
RTVSPropertyOp51
 70
     0
102
RTVSPropertyOp52
 70
     0
102
RTVSPropertyOp53
 70
     0
102
RTVSPropertyOp54
 70
     0
102
RTVSPropertyOp55
 70
     1
102
RTVSPropertyOp56
 70
     0
102
RTVSPropertyOp57
 70
     0
102
RTVSPropertyOp58
 70
     0
102
RTVSPropertyOp59
 70
     0
102
RTVSPropertyOp60
 70
     0
102
RTVSPropertyOp61
 70
     0
102
RTVSPropertyOp62
 70
     0
  0
XRECORD
  5
C7D5
102
{ACAD_REACTORS
330
C7D4
102
}
330
C7D4
100
AcDbXrecord
280
     1
102
RTVSPost2010Prop28
280
     0
102
RTVSPost2010PropOp28
 70
     1
102
RTVSPost2010Prop29
280
     1
102
RTVSPost2010PropOp29
 70
     1
102
RTVSPost2010Prop30
280
     1
102
RTVSPost2010PropOp30
 70
     1
102
RTVSPost2010Prop31
280
     0
102
RTVSPost2010PropOp31
 70
     1
102
RTVSPost2010Prop32
280
     0
102
RTVSPost2010PropOp32
 70
     1
102
RTVSPost2010Prop33
280
     0
102
RTVSPost2010PropOp33
 70
     1
102
RTVSPost2010Prop34
280
     0
102
RTVSPost2010PropOp34
 70
     1
102
RTVSPost2010Prop35
280
     0
102
RTVSPost2010PropOp35
 70
     1
102
RTVSPost2010Prop36
280
     0
102
RTVSPost2010PropOp36
 70
     1
102
RTVSPost2010Prop37
 90
       50
102
RTVSPost2010PropOp37
 70
     1
102
RTVSPost2010Prop38
140
0.0
102
RTVSPost2010PropOp38
 70
     1
102
RTVSPost2010Prop39
140
1.0
102
RTVSPost2010PropOp39
 70
     1
102
RTVSPost2010Prop40
 90
        0
102
RTVSPost2010PropOp40
 70
     1
102
RTVSPost2010Prop41ColorIndex
 90
       18
102
RTVSPost2010Prop41ColorRGB
 90
        0
102
RTVSPost2010PropOp41
 70
     1
102
RTVSPost2010Prop42
 90
       50
102
RTVSPost2010PropOp42
 70
     1
102
RTVSPost2010Prop43
 90
        3
102
RTVSPost2010PropOp43
 70
     1
102
RTVSPost2010Prop44ColorIndex
 90
        5
102
RTVSPost2010Prop44ColorRGB
 90
      255
102
RTVSPost2010PropOp44
 70
     1
102
RTVSPost2010Prop45
280
     0
102
RTVSPost2010PropOp45
 70
     1
102
RTVSPost2010Prop46
 90
       50
102
RTVSPost2010PropOp46
 70
     1
102
RTVSPost2010Prop47
 90
       50
102
RTVSPost2010PropOp47
 70
     1
102
RTVSPost2010Prop48
 90
       50
102
RTVSPost2010PropOp48
 70
     1
102
RTVSPost2010Prop49
280
     0
102
RTVSPost2010PropOp49
 70
     1
102
RTVSPost2010Prop50
 90
       50
102
RTVSPost2010PropOp50
 70
     1
102
RTVSPost2010Prop51ColorIndex
 90
      256
102
RTVSPost2010Prop51ColorRGB
 90
-16777216
102
RTVSPost2010PropOp51
 70
     0
102
RTVSPost2010Prop52
140
1.0
102
RTVSPost2010PropOp52
 70
     0
102
RTVSPost2010Prop53
 90
        2
102
RTVSPost2010PropOp53
 70
     1
102
RTVSPost2010Prop54
  1
strokes_ogs.tif
102
RTVSPost2010PropOp54
 70
     1
102
RTVSPost2010Prop55
280
     0
102
RTVSPost2010PropOp55
 70
     1
102
RTVSPost2010Prop56
140
1.0
102
RTVSPost2010PropOp56
 70
     1
102
RTVSPost2010Prop57
140
1.0
102
RTVSPost2010PropOp57
 70
     1
102
RTVSPropertyOp0
 70
     1
102
RTVSPropertyOp1
 70
     1
102
RTVSPropertyOp2
 70
     1
102
RTVSPropertyOp3
 70
     1
102
RTVSPropertyOp4
 70
     1
102
RTVSPropertyOp5
 70
     1
102
RTVSPropertyOp6
 70
     1
102
RTVSPropertyOp7
 70
     1
102
RTVSPropertyOp8
 70
     1
102
RTVSPropertyOp9
 70
     1
102
RTVSPropertyOp10
 70
     1
102
RTVSPropertyOp11
 70
     1
102
RTVSPropertyOp12
 70
     1
102
RTVSPropertyOp13
 70
     1
102
RTVSPropertyOp14
 70
     1
102
RTVSPropertyOp15
 70
     1
102
RTVSPropertyOp16
 70
     1
102
RTVSPropertyOp17
 70
     1
102
RTVSPropertyOp18
 70
     1
102
RTVSPropertyOp19
 70
     1
102
RTVSPropertyOp20
 70
     1
102
RTVSPropertyOp21
 70
     1
102
RTVSPropertyOp22
 70
     1
102
RTVSPropertyOp23
 70
     1
102
RTVSPropertyOp24
 70
     1
102
RTVSPropertyOp25
 70
     1
102
RTVSPropertyOp26
 70
     1
102
RTVSPropertyOp27
 70
     1
102
RTVSPropertyOp28
 70
     1
102
RTVSPropertyOp29
 70
     1
102
RTVSPropertyOp30
 70
     1
102
RTVSPropertyOp31
 70
     1
102
RTVSPropertyOp32
 70
     1
102
RTVSPropertyOp33
 70
     1
102
RTVSPropertyOp34
 70
     1
102
RTVSPropertyOp35
 70
     1
102
RTVSPropertyOp36
 70
     1
102
RTVSPropertyOp37
 70
     1
102
RTVSPropertyOp38
 70
     1
102
RTVSPropertyOp39
 70
     1
102
RTVSPropertyOp40
 70
     1
102
RTVSPropertyOp41
 70
     1
102
RTVSPropertyOp42
 70
     1
102
RTVSPropertyOp43
 70
     1
102
RTVSPropertyOp44
 70
     1
102
RTVSPropertyOp45
 70
     1
102
RTVSPropertyOp46
 70
     1
102
RTVSPropertyOp47
 70
     1
102
RTVSPropertyOp48
 70
     1
102
RTVSPropertyOp49
 70
     1
102
RTVSPropertyOp50
 70
     1
102
RTVSPropertyOp51
 70
     0
102
RTVSPropertyOp52
 70
     0
102
RTVSPropertyOp53
 70
     1
102
RTVSPropertyOp54
 70
     1
102
RTVSPropertyOp55
 70
     1
102
RTVSPropertyOp56
 70
     1
102
RTVSPropertyOp57
 70
     1
102
RTVSPropertyOp58
 70
     1
102
RTVSPropertyOp59
 70
     1
102
RTVSPropertyOp60
 70
     1
102
RTVSPropertyOp61
 70
     1
102
RTVSPropertyOp62
 70
     1
  0
XRECORD
  5
C7E7
102
{ACAD_REACTORS
330
C7E6
102
}
330
C7E6
100
AcDbXrecord
280
     1
102
RTVSPost2010Prop28
280
     0
102
RTVSPost2010PropOp28
 70
     1
102
RTVSPost2010Prop29
280
     1
102
RTVSPost2010PropOp29
 70
     1
102
RTVSPost2010Prop30
280
     1
102
RTVSPost2010PropOp30
 70
     1
102
RTVSPost2010Prop31
280
     0
102
RTVSPost2010PropOp31
 70
     1
102
RTVSPost2010Prop32
280
     0
102
RTVSPost2010PropOp32
 70
     1
102
RTVSPost2010Prop33
280
     0
102
RTVSPost2010PropOp33
 70
     1
102
RTVSPost2010Prop34
280
     0
102
RTVSPost2010PropOp34
 70
     1
102
RTVSPost2010Prop35
280
     0
102
RTVSPost2010PropOp35
 70
     1
102
RTVSPost2010Prop36
280
     0
102
RTVSPost2010PropOp36
 70
     1
102
RTVSPost2010Prop37
 90
       50
102
RTVSPost2010PropOp37
 70
     0
102
RTVSPost2010Prop38
140
0.0
102
RTVSPost2010PropOp38
 70
     0
102
RTVSPost2010Prop39
140
1.0
102
RTVSPost2010PropOp39
 70
     0
102
RTVSPost2010Prop40
 90
        0
102
RTVSPost2010PropOp40
 70
     0
102
RTVSPost2010Prop41ColorIndex
 90
       18
102
RTVSPost2010Prop41ColorRGB
 90
        0
102
RTVSPost2010PropOp41
 70
     0
102
RTVSPost2010Prop42
 90
       50
102
RTVSPost2010PropOp42
 70
     0
102
RTVSPost2010Prop43
 90
        3
102
RTVSPost2010PropOp43
 70
     0
102
RTVSPost2010Prop44ColorIndex
 90
        5
102
RTVSPost2010Prop44ColorRGB
 90
      255
102
RTVSPost2010PropOp44
 70
     0
102
RTVSPost2010Prop45
280
     0
102
RTVSPost2010PropOp45
 70
     1
102
RTVSPost2010Prop46
 90
       50
102
RTVSPost2010PropOp46
 70
     0
102
RTVSPost2010Prop47
 90
       50
102
RTVSPost2010PropOp47
 70
     0
102
RTVSPost2010Prop48
 90
       50
102
RTVSPost2010PropOp48
 70
     0
102
RTVSPost2010Prop49
280
     0
102
RTVSPost2010PropOp49
 70
     1
102
RTVSPost2010Prop50
 90
       50
102
RTVSPost2010PropOp50
 70
     0
102
RTVSPost2010Prop51ColorIndex
 90
      256
102
RTVSPost2010Prop51ColorRGB
 90
-16777216
102
RTVSPost2010PropOp51
 70
     0
102
RTVSPost2010Prop52
140
1.0
102
RTVSPost2010PropOp52
 70
     0
102
RTVSPost2010Prop53
 90
        2
102
RTVSPost2010PropOp53
 70
     0
102
RTVSPost2010Prop54
  1
strokes_ogs.tif
102
RTVSPost2010PropOp54
 70
     0
102
RTVSPost2010Prop55
280
     0
102
RTVSPost2010PropOp55
 70
     1
102
RTVSPost2010Prop56
140
1.0
102
RTVSPost2010PropOp56
 70
     0
102
RTVSPost2010Prop57
140
1.0
102
RTVSPost2010PropOp57
 70
     0
102
RTVSPropertyOp0
 70
     0
102
RTVSPropertyOp1
 70
     0
102
RTVSPropertyOp2
 70
     0
102
RTVSPropertyOp3
 70
     0
102
RTVSPropertyOp4
 70
     0
102
RTVSPropertyOp5
 70
     0
102
RTVSPropertyOp6
 70
     0
102
RTVSPropertyOp7
 70
     0
102
RTVSPropertyOp8
 70
     0
102
RTVSPropertyOp9
 70
     0
102
RTVSPropertyOp10
 70
     0
102
RTVSPropertyOp11
 70
     0
102
RTVSPropertyOp12
 70
     0
102
RTVSPropertyOp13
 70
     0
102
RTVSPropertyOp14
 70
     2
102
RTVSPropertyOp15
 70
     0
102
RTVSPropertyOp16
 70
     0
102
RTVSPropertyOp17
 70
     0
102
RTVSPropertyOp18
 70
     0
102
RTVSPropertyOp19
 70
     0
102
RTVSPropertyOp20
 70
     0
102
RTVSPropertyOp21
 70
     0
102
RTVSPropertyOp22
 70
     0
102
RTVSPropertyOp23
 70
     0
102
RTVSPropertyOp24
 70
     0
102
RTVSPropertyOp25
 70
     0
102
RTVSPropertyOp26
 70
     0
102
RTVSPropertyOp27
 70
     0
102
RTVSPropertyOp28
 70
     1
102
RTVSPropertyOp29
 70
     1
102
RTVSPropertyOp30
 70
     1
102
RTVSPropertyOp31
 70
     1
102
RTVSPropertyOp32
 70
     1
102
RTVSPropertyOp33
 70
     1
102
RTVSPropertyOp34
 70
     1
102
RTVSPropertyOp35
 70
     1
102
RTVSPropertyOp36
 70
     1
102
RTVSPropertyOp37
 70
     0
102
RTVSPropertyOp38
 70
     0
102
RTVSPropertyOp39
 70
     0
102
RTVSPropertyOp40
 70
     0
102
RTVSPropertyOp41
 70
     0
102
RTVSPropertyOp42
 70
     0
102
RTVSPropertyOp43
 70
     0
102
RTVSPropertyOp44
 70
     0
102
RTVSPropertyOp45
 70
     1
102
RTVSPropertyOp46
 70
     0
102
RTVSPropertyOp47
 70
     0
102
RTVSPropertyOp48
 70
     0
102
RTVSPropertyOp49
 70
     1
102
RTVSPropertyOp50
 70
     0
102
RTVSPropertyOp51
 70
     0
102
RTVSPropertyOp52
 70
     0
102
RTVSPropertyOp53
 70
     0
102
RTVSPropertyOp54
 70
     0
102
RTVSPropertyOp55
 70
     1
102
RTVSPropertyOp56
 70
     0
102
RTVSPropertyOp57
 70
     0
102
RTVSPropertyOp58
 70
     0
102
RTVSPropertyOp59
 70
     0
102
RTVSPropertyOp60
 70
     0
102
RTVSPropertyOp61
 70
     0
102
RTVSPropertyOp62
 70
     0
  0
XRECORD
  5
C7CD
102
{ACAD_REACTORS
330
C7CC
102
}
330
C7CC
100
AcDbXrecord
280
     1
102
RTVSPost2010Prop28
280
     0
102
RTVSPost2010PropOp28
 70
     1
102
RTVSPost2010Prop29
280
     1
102
RTVSPost2010PropOp29
 70
     1
102
RTVSPost2010Prop30
280
     1
102
RTVSPost2010PropOp30
 70
     1
102
RTVSPost2010Prop31
280
     0
102
RTVSPost2010PropOp31
 70
     1
102
RTVSPost2010Prop32
280
     0
102
RTVSPost2010PropOp32
 70
     1
102
RTVSPost2010Prop33
280
     0
102
RTVSPost2010PropOp33
 70
     1
102
RTVSPost2010Prop34
280
     0
102
RTVSPost2010PropOp34
 70
     1
102
RTVSPost2010Prop35
280
     0
102
RTVSPost2010PropOp35
 70
     1
102
RTVSPost2010Prop36
280
     0
102
RTVSPost2010PropOp36
 70
     1
102
RTVSPost2010Prop37
 90
       50
102
RTVSPost2010PropOp37
 70
     1
102
RTVSPost2010Prop38
140
0.0
102
RTVSPost2010PropOp38
 70
     1
102
RTVSPost2010Prop39
140
1.0
102
RTVSPost2010PropOp39
 70
     1
102
RTVSPost2010Prop40
 90
        0
102
RTVSPost2010PropOp40
 70
     1
102
RTVSPost2010Prop41ColorIndex
 90
       18
102
RTVSPost2010Prop41ColorRGB
 90
        0
102
RTVSPost2010PropOp41
 70
     1
102
RTVSPost2010Prop42
 90
       50
102
RTVSPost2010PropOp42
 70
     1
102
RTVSPost2010Prop43
 90
        3
102
RTVSPost2010PropOp43
 70
     1
102
RTVSPost2010Prop44ColorIndex
 90
        5
102
RTVSPost2010Prop44ColorRGB
 90
      255
102
RTVSPost2010PropOp44
 70
     1
102
RTVSPost2010Prop45
280
     0
102
RTVSPost2010PropOp45
 70
     1
102
RTVSPost2010Prop46
 90
       50
102
RTVSPost2010PropOp46
 70
     1
102
RTVSPost2010Prop47
 90
       50
102
RTVSPost2010PropOp47
 70
     1
102
RTVSPost2010Prop48
 90
       50
102
RTVSPost2010PropOp48
 70
     1
102
RTVSPost2010Prop49
280
     0
102
RTVSPost2010PropOp49
 70
     1
102
RTVSPost2010Prop50
 90
       50
102
RTVSPost2010PropOp50
 70
     1
102
RTVSPost2010Prop51ColorIndex
 90
      256
102
RTVSPost2010Prop51ColorRGB
 90
-16777216
102
RTVSPost2010PropOp51
 70
     0
102
RTVSPost2010Prop52
140
1.0
102
RTVSPost2010PropOp52
 70
     0
102
RTVSPost2010Prop53
 90
        2
102
RTVSPost2010PropOp53
 70
     1
102
RTVSPost2010Prop54
  1
strokes_ogs.tif
102
RTVSPost2010PropOp54
 70
     1
102
RTVSPost2010Prop55
280
     0
102
RTVSPost2010PropOp55
 70
     1
102
RTVSPost2010Prop56
140
1.0
102
RTVSPost2010PropOp56
 70
     1
102
RTVSPost2010Prop57
140
1.0
102
RTVSPost2010PropOp57
 70
     1
102
RTVSPropertyOp0
 70
     1
102
RTVSPropertyOp1
 70
     1
102
RTVSPropertyOp2
 70
     1
102
RTVSPropertyOp3
 70
     1
102
RTVSPropertyOp4
 70
     1
102
RTVSPropertyOp5
 70
     1
102
RTVSPropertyOp6
 70
     1
102
RTVSPropertyOp7
 70
     1
102
RTVSPropertyOp8
 70
     1
102
RTVSPropertyOp9
 70
     1
102
RTVSPropertyOp10
 70
     1
102
RTVSPropertyOp11
 70
     1
102
RTVSPropertyOp12
 70
     1
102
RTVSPropertyOp13
 70
     1
102
RTVSPropertyOp14
 70
     1
102
RTVSPropertyOp15
 70
     1
102
RTVSPropertyOp16
 70
     1
102
RTVSPropertyOp17
 70
     1
102
RTVSPropertyOp18
 70
     1
102
RTVSPropertyOp19
 70
     1
102
RTVSPropertyOp20
 70
     1
102
RTVSPropertyOp21
 70
     1
102
RTVSPropertyOp22
 70
     1
102
RTVSPropertyOp23
 70
     1
102
RTVSPropertyOp24
 70
     1
102
RTVSPropertyOp25
 70
     1
102
RTVSPropertyOp26
 70
     1
102
RTVSPropertyOp27
 70
     1
102
RTVSPropertyOp28
 70
     1
102
RTVSPropertyOp29
 70
     1
102
RTVSPropertyOp30
 70
     1
102
RTVSPropertyOp31
 70
     1
102
RTVSPropertyOp32
 70
     1
102
RTVSPropertyOp33
 70
     1
102
RTVSPropertyOp34
 70
     1
102
RTVSPropertyOp35
 70
     1
102
RTVSPropertyOp36
 70
     1
102
RTVSPropertyOp37
 70
     1
102
RTVSPropertyOp38
 70
     1
102
RTVSPropertyOp39
 70
     1
102
RTVSPropertyOp40
 70
     1
102
RTVSPropertyOp41
 70
     1
102
RTVSPropertyOp42
 70
     1
102
RTVSPropertyOp43
 70
     1
102
RTVSPropertyOp44
 70
     1
102
RTVSPropertyOp45
 70
     1
102
RTVSPropertyOp46
 70
     1
102
RTVSPropertyOp47
 70
     1
102
RTVSPropertyOp48
 70
     1
102
RTVSPropertyOp49
 70
     1
102
RTVSPropertyOp50
 70
     1
102
RTVSPropertyOp51
 70
     0
102
RTVSPropertyOp52
 70
     0
102
RTVSPropertyOp53
 70
     1
102
RTVSPropertyOp54
 70
     1
102
RTVSPropertyOp55
 70
     1
102
RTVSPropertyOp56
 70
     1
102
RTVSPropertyOp57
 70
     1
102
RTVSPropertyOp58
 70
     1
102
RTVSPropertyOp59
 70
     1
102
RTVSPropertyOp60
 70
     1
102
RTVSPropertyOp61
 70
     1
102
RTVSPropertyOp62
 70
     1
  0
XRECORD
  5
C7E3
102
{ACAD_REACTORS
330
C7E2
102
}
330
C7E2
100
AcDbXrecord
280
     1
102
RTVSPost2010Prop28
280
     0
102
RTVSPost2010PropOp28
 70
     1
102
RTVSPost2010Prop29
280
     1
102
RTVSPost2010PropOp29
 70
     1
102
RTVSPost2010Prop30
280
     1
102
RTVSPost2010PropOp30
 70
     1
102
RTVSPost2010Prop31
280
     0
102
RTVSPost2010PropOp31
 70
     1
102
RTVSPost2010Prop32
280
     0
102
RTVSPost2010PropOp32
 70
     1
102
RTVSPost2010Prop33
280
     0
102
RTVSPost2010PropOp33
 70
     1
102
RTVSPost2010Prop34
280
     0
102
RTVSPost2010PropOp34
 70
     1
102
RTVSPost2010Prop35
280
     0
102
RTVSPost2010PropOp35
 70
     1
102
RTVSPost2010Prop36
280
     0
102
RTVSPost2010PropOp36
 70
     1
102
RTVSPost2010Prop37
 90
       50
102
RTVSPost2010PropOp37
 70
     1
102
RTVSPost2010Prop38
140
0.0
102
RTVSPost2010PropOp38
 70
     1
102
RTVSPost2010Prop39
140
1.0
102
RTVSPost2010PropOp39
 70
     1
102
RTVSPost2010Prop40
 90
        0
102
RTVSPost2010PropOp40
 70
     1
102
RTVSPost2010Prop41ColorIndex
 90
       18
102
RTVSPost2010Prop41ColorRGB
 90
        0
102
RTVSPost2010PropOp41
 70
     1
102
RTVSPost2010Prop42
 90
       50
102
RTVSPost2010PropOp42
 70
     1
102
RTVSPost2010Prop43
 90
        3
102
RTVSPost2010PropOp43
 70
     1
102
RTVSPost2010Prop44ColorIndex
 90
        5
102
RTVSPost2010Prop44ColorRGB
 90
      255
102
RTVSPost2010PropOp44
 70
     1
102
RTVSPost2010Prop45
280
     0
102
RTVSPost2010PropOp45
 70
     1
102
RTVSPost2010Prop46
 90
       50
102
RTVSPost2010PropOp46
 70
     1
102
RTVSPost2010Prop47
 90
       50
102
RTVSPost2010PropOp47
 70
     1
102
RTVSPost2010Prop48
 90
       50
102
RTVSPost2010PropOp48
 70
     1
102
RTVSPost2010Prop49
280
     0
102
RTVSPost2010PropOp49
 70
     1
102
RTVSPost2010Prop50
 90
       50
102
RTVSPost2010PropOp50
 70
     1
102
RTVSPost2010Prop51ColorIndex
 90
      256
102
RTVSPost2010Prop51ColorRGB
 90
-16777216
102
RTVSPost2010PropOp51
 70
     0
102
RTVSPost2010Prop52
140
1.0
102
RTVSPost2010PropOp52
 70
     0
102
RTVSPost2010Prop53
 90
        2
102
RTVSPost2010PropOp53
 70
     1
102
RTVSPost2010Prop54
  1
strokes_ogs.tif
102
RTVSPost2010PropOp54
 70
     1
102
RTVSPost2010Prop55
280
     0
102
RTVSPost2010PropOp55
 70
     1
102
RTVSPost2010Prop56
140
1.0
102
RTVSPost2010PropOp56
 70
     1
102
RTVSPost2010Prop57
140
1.0
102
RTVSPost2010PropOp57
 70
     1
102
RTVSPropertyOp0
 70
     1
102
RTVSPropertyOp1
 70
     1
102
RTVSPropertyOp2
 70
     1
102
RTVSPropertyOp3
 70
     1
102
RTVSPropertyOp4
 70
     1
102
RTVSPropertyOp5
 70
     1
102
RTVSPropertyOp6
 70
     1
102
RTVSPropertyOp7
 70
     1
102
RTVSPropertyOp8
 70
     1
102
RTVSPropertyOp9
 70
     1
102
RTVSPropertyOp10
 70
     1
102
RTVSPropertyOp11
 70
     1
102
RTVSPropertyOp12
 70
     1
102
RTVSPropertyOp13
 70
     1
102
RTVSPropertyOp14
 70
     1
102
RTVSPropertyOp15
 70
     1
102
RTVSPropertyOp16
 70
     1
102
RTVSPropertyOp17
 70
     1
102
RTVSPropertyOp18
 70
     1
102
RTVSPropertyOp19
 70
     1
102
RTVSPropertyOp20
 70
     1
102
RTVSPropertyOp21
 70
     1
102
RTVSPropertyOp22
 70
     1
102
RTVSPropertyOp23
 70
     1
102
RTVSPropertyOp24
 70
     1
102
RTVSPropertyOp25
 70
     1
102
RTVSPropertyOp26
 70
     1
102
RTVSPropertyOp27
 70
     1
102
RTVSPropertyOp28
 70
     1
102
RTVSPropertyOp29
 70
     1
102
RTVSPropertyOp30
 70
     1
102
RTVSPropertyOp31
 70
     1
102
RTVSPropertyOp32
 70
     1
102
RTVSPropertyOp33
 70
     1
102
RTVSPropertyOp34
 70
     1
102
RTVSPropertyOp35
 70
     1
102
RTVSPropertyOp36
 70
     1
102
RTVSPropertyOp37
 70
     1
102
RTVSPropertyOp38
 70
     1
102
RTVSPropertyOp39
 70
     1
102
RTVSPropertyOp40
 70
     1
102
RTVSPropertyOp41
 70
     1
102
RTVSPropertyOp42
 70
     1
102
RTVSPropertyOp43
 70
     1
102
RTVSPropertyOp44
 70
     1
102
RTVSPropertyOp45
 70
     1
102
RTVSPropertyOp46
 70
     1
102
RTVSPropertyOp47
 70
     1
102
RTVSPropertyOp48
 70
     1
102
RTVSPropertyOp49
 70
     1
102
RTVSPropertyOp50
 70
     1
102
RTVSPropertyOp51
 70
     0
102
RTVSPropertyOp52
 70
     0
102
RTVSPropertyOp53
 70
     1
102
RTVSPropertyOp54
 70
     1
102
RTVSPropertyOp55
 70
     1
102
RTVSPropertyOp56
 70
     1
102
RTVSPropertyOp57
 70
     1
102
RTVSPropertyOp58
 70
     1
102
RTVSPropertyOp59
 70
     1
102
RTVSPropertyOp60
 70
     1
102
RTVSPropertyOp61
 70
     1
102
RTVSPropertyOp62
 70
     1
  0
XRECORD
  5
C7E1
102
{ACAD_REACTORS
330
C7E0
102
}
330
C7E0
100
AcDbXrecord
280
     1
102
RTVSPost2010Prop28
280
     0
102
RTVSPost2010PropOp28
 70
     1
102
RTVSPost2010Prop29
280
     1
102
RTVSPost2010PropOp29
 70
     1
102
RTVSPost2010Prop30
280
     1
102
RTVSPost2010PropOp30
 70
     1
102
RTVSPost2010Prop31
280
     0
102
RTVSPost2010PropOp31
 70
     1
102
RTVSPost2010Prop32
280
     0
102
RTVSPost2010PropOp32
 70
     1
102
RTVSPost2010Prop33
280
     0
102
RTVSPost2010PropOp33
 70
     1
102
RTVSPost2010Prop34
280
     0
102
RTVSPost2010PropOp34
 70
     1
102
RTVSPost2010Prop35
280
     0
102
RTVSPost2010PropOp35
 70
     1
102
RTVSPost2010Prop36
280
     0
102
RTVSPost2010PropOp36
 70
     1
102
RTVSPost2010Prop37
 90
       50
102
RTVSPost2010PropOp37
 70
     1
102
RTVSPost2010Prop38
140
0.0
102
RTVSPost2010PropOp38
 70
     1
102
RTVSPost2010Prop39
140
1.0
102
RTVSPost2010PropOp39
 70
     1
102
RTVSPost2010Prop40
 90
        0
102
RTVSPost2010PropOp40
 70
     1
102
RTVSPost2010Prop41ColorIndex
 90
       18
102
RTVSPost2010Prop41ColorRGB
 90
        0
102
RTVSPost2010PropOp41
 70
     1
102
RTVSPost2010Prop42
 90
       50
102
RTVSPost2010PropOp42
 70
     1
102
RTVSPost2010Prop43
 90
        3
102
RTVSPost2010PropOp43
 70
     1
102
RTVSPost2010Prop44ColorIndex
 90
        5
102
RTVSPost2010Prop44ColorRGB
 90
      255
102
RTVSPost2010PropOp44
 70
     1
102
RTVSPost2010Prop45
280
     0
102
RTVSPost2010PropOp45
 70
     1
102
RTVSPost2010Prop46
 90
       50
102
RTVSPost2010PropOp46
 70
     1
102
RTVSPost2010Prop47
 90
       50
102
RTVSPost2010PropOp47
 70
     1
102
RTVSPost2010Prop48
 90
       50
102
RTVSPost2010PropOp48
 70
     1
102
RTVSPost2010Prop49
280
     0
102
RTVSPost2010PropOp49
 70
     1
102
RTVSPost2010Prop50
 90
       50
102
RTVSPost2010PropOp50
 70
     1
102
RTVSPost2010Prop51ColorIndex
 90
      256
102
RTVSPost2010Prop51ColorRGB
 90
-16777216
102
RTVSPost2010PropOp51
 70
     0
102
RTVSPost2010Prop52
140
1.0
102
RTVSPost2010PropOp52
 70
     0
102
RTVSPost2010Prop53
 90
        2
102
RTVSPost2010PropOp53
 70
     1
102
RTVSPost2010Prop54
  1
strokes_ogs.tif
102
RTVSPost2010PropOp54
 70
     1
102
RTVSPost2010Prop55
280
     0
102
RTVSPost2010PropOp55
 70
     1
102
RTVSPost2010Prop56
140
1.0
102
RTVSPost2010PropOp56
 70
     1
102
RTVSPost2010Prop57
140
1.0
102
RTVSPost2010PropOp57
 70
     1
102
RTVSPropertyOp0
 70
     1
102
RTVSPropertyOp1
 70
     1
102
RTVSPropertyOp2
 70
     1
102
RTVSPropertyOp3
 70
     1
102
RTVSPropertyOp4
 70
     1
102
RTVSPropertyOp5
 70
     1
102
RTVSPropertyOp6
 70
     1
102
RTVSPropertyOp7
 70
     1
102
RTVSPropertyOp8
 70
     1
102
RTVSPropertyOp9
 70
     1
102
RTVSPropertyOp10
 70
     1
102
RTVSPropertyOp11
 70
     1
102
RTVSPropertyOp12
 70
     1
102
RTVSPropertyOp13
 70
     1
102
RTVSPropertyOp14
 70
     1
102
RTVSPropertyOp15
 70
     1
102
RTVSPropertyOp16
 70
     1
102
RTVSPropertyOp17
 70
     1
102
RTVSPropertyOp18
 70
     1
102
RTVSPropertyOp19
 70
     1
102
RTVSPropertyOp20
 70
     1
102
RTVSPropertyOp21
 70
     1
102
RTVSPropertyOp22
 70
     1
102
RTVSPropertyOp23
 70
     1
102
RTVSPropertyOp24
 70
     1
102
RTVSPropertyOp25
 70
     1
102
RTVSPropertyOp26
 70
     1
102
RTVSPropertyOp27
 70
     1
102
RTVSPropertyOp28
 70
     1
102
RTVSPropertyOp29
 70
     1
102
RTVSPropertyOp30
 70
     1
102
RTVSPropertyOp31
 70
     1
102
RTVSPropertyOp32
 70
     1
102
RTVSPropertyOp33
 70
     1
102
RTVSPropertyOp34
 70
     1
102
RTVSPropertyOp35
 70
     1
102
RTVSPropertyOp36
 70
     1
102
RTVSPropertyOp37
 70
     1
102
RTVSPropertyOp38
 70
     1
102
RTVSPropertyOp39
 70
     1
102
RTVSPropertyOp40
 70
     1
102
RTVSPropertyOp41
 70
     1
102
RTVSPropertyOp42
 70
     1
102
RTVSPropertyOp43
 70
     1
102
RTVSPropertyOp44
 70
     1
102
RTVSPropertyOp45
 70
     1
102
RTVSPropertyOp46
 70
     1
102
RTVSPropertyOp47
 70
     1
102
RTVSPropertyOp48
 70
     1
102
RTVSPropertyOp49
 70
     1
102
RTVSPropertyOp50
 70
     1
102
RTVSPropertyOp51
 70
     0
102
RTVSPropertyOp52
 70
     0
102
RTVSPropertyOp53
 70
     1
102
RTVSPropertyOp54
 70
     1
102
RTVSPropertyOp55
 70
     1
102
RTVSPropertyOp56
 70
     1
102
RTVSPropertyOp57
 70
     1
102
RTVSPropertyOp58
 70
     1
102
RTVSPropertyOp59
 70
     1
102
RTVSPropertyOp60
 70
     1
102
RTVSPropertyOp61
 70
     1
102
RTVSPropertyOp62
 70
     1
  0
XRECORD
  5
C7DB
102
{ACAD_REACTORS
330
C7DA
102
}
330
C7DA
100
AcDbXrecord
280
     1
102
RTVSPost2010Prop28
280
     0
102
RTVSPost2010PropOp28
 70
     1
102
RTVSPost2010Prop29
280
     1
102
RTVSPost2010PropOp29
 70
     1
102
RTVSPost2010Prop30
280
     1
102
RTVSPost2010PropOp30
 70
     1
102
RTVSPost2010Prop31
280
     0
102
RTVSPost2010PropOp31
 70
     1
102
RTVSPost2010Prop32
280
     0
102
RTVSPost2010PropOp32
 70
     1
102
RTVSPost2010Prop33
280
     0
102
RTVSPost2010PropOp33
 70
     1
102
RTVSPost2010Prop34
280
     0
102
RTVSPost2010PropOp34
 70
     1
102
RTVSPost2010Prop35
280
     0
102
RTVSPost2010PropOp35
 70
     1
102
RTVSPost2010Prop36
280
     0
102
RTVSPost2010PropOp36
 70
     1
102
RTVSPost2010Prop37
 90
       50
102
RTVSPost2010PropOp37
 70
     1
102
RTVSPost2010Prop38
140
0.0
102
RTVSPost2010PropOp38
 70
     1
102
RTVSPost2010Prop39
140
1.0
102
RTVSPost2010PropOp39
 70
     1
102
RTVSPost2010Prop40
 90
        0
102
RTVSPost2010PropOp40
 70
     1
102
RTVSPost2010Prop41ColorIndex
 90
       18
102
RTVSPost2010Prop41ColorRGB
 90
        0
102
RTVSPost2010PropOp41
 70
     1
102
RTVSPost2010Prop42
 90
       50
102
RTVSPost2010PropOp42
 70
     1
102
RTVSPost2010Prop43
 90
        3
102
RTVSPost2010PropOp43
 70
     1
102
RTVSPost2010Prop44ColorIndex
 90
        5
102
RTVSPost2010Prop44ColorRGB
 90
      255
102
RTVSPost2010PropOp44
 70
     1
102
RTVSPost2010Prop45
280
     0
102
RTVSPost2010PropOp45
 70
     1
102
RTVSPost2010Prop46
 90
       50
102
RTVSPost2010PropOp46
 70
     1
102
RTVSPost2010Prop47
 90
       50
102
RTVSPost2010PropOp47
 70
     1
102
RTVSPost2010Prop48
 90
       50
102
RTVSPost2010PropOp48
 70
     1
102
RTVSPost2010Prop49
280
     0
102
RTVSPost2010PropOp49
 70
     1
102
RTVSPost2010Prop50
 90
       50
102
RTVSPost2010PropOp50
 70
     1
102
RTVSPost2010Prop51ColorIndex
 90
      256
102
RTVSPost2010Prop51ColorRGB
 90
-16777216
102
RTVSPost2010PropOp51
 70
     0
102
RTVSPost2010Prop52
140
1.0
102
RTVSPost2010PropOp52
 70
     0
102
RTVSPost2010Prop53
 90
        2
102
RTVSPost2010PropOp53
 70
     1
102
RTVSPost2010Prop54
  1
strokes_ogs.tif
102
RTVSPost2010PropOp54
 70
     1
102
RTVSPost2010Prop55
280
     0
102
RTVSPost2010PropOp55
 70
     1
102
RTVSPost2010Prop56
140
1.0
102
RTVSPost2010PropOp56
 70
     1
102
RTVSPost2010Prop57
140
1.0
102
RTVSPost2010PropOp57
 70
     1
102
RTVSPropertyOp0
 70
     1
102
RTVSPropertyOp1
 70
     1
102
RTVSPropertyOp2
 70
     1
102
RTVSPropertyOp3
 70
     1
102
RTVSPropertyOp4
 70
     1
102
RTVSPropertyOp5
 70
     1
102
RTVSPropertyOp6
 70
     1
102
RTVSPropertyOp7
 70
     1
102
RTVSPropertyOp8
 70
     1
102
RTVSPropertyOp9
 70
     1
102
RTVSPropertyOp10
 70
     1
102
RTVSPropertyOp11
 70
     1
102
RTVSPropertyOp12
 70
     1
102
RTVSPropertyOp13
 70
     1
102
RTVSPropertyOp14
 70
     1
102
RTVSPropertyOp15
 70
     1
102
RTVSPropertyOp16
 70
     1
102
RTVSPropertyOp17
 70
     1
102
RTVSPropertyOp18
 70
     1
102
RTVSPropertyOp19
 70
     1
102
RTVSPropertyOp20
 70
     1
102
RTVSPropertyOp21
 70
     1
102
RTVSPropertyOp22
 70
     1
102
RTVSPropertyOp23
 70
     1
102
RTVSPropertyOp24
 70
     1
102
RTVSPropertyOp25
 70
     1
102
RTVSPropertyOp26
 70
     1
102
RTVSPropertyOp27
 70
     1
102
RTVSPropertyOp28
 70
     1
102
RTVSPropertyOp29
 70
     1
102
RTVSPropertyOp30
 70
     1
102
RTVSPropertyOp31
 70
     1
102
RTVSPropertyOp32
 70
     1
102
RTVSPropertyOp33
 70
     1
102
RTVSPropertyOp34
 70
     1
102
RTVSPropertyOp35
 70
     1
102
RTVSPropertyOp36
 70
     1
102
RTVSPropertyOp37
 70
     1
102
RTVSPropertyOp38
 70
     1
102
RTVSPropertyOp39
 70
     1
102
RTVSPropertyOp40
 70
     1
102
RTVSPropertyOp41
 70
     1
102
RTVSPropertyOp42
 70
     1
102
RTVSPropertyOp43
 70
     1
102
RTVSPropertyOp44
 70
     1
102
RTVSPropertyOp45
 70
     1
102
RTVSPropertyOp46
 70
     1
102
RTVSPropertyOp47
 70
     1
102
RTVSPropertyOp48
 70
     1
102
RTVSPropertyOp49
 70
     1
102
RTVSPropertyOp50
 70
     1
102
RTVSPropertyOp51
 70
     0
102
RTVSPropertyOp52
 70
     0
102
RTVSPropertyOp53
 70
     1
102
RTVSPropertyOp54
 70
     1
102
RTVSPropertyOp55
 70
     1
102
RTVSPropertyOp56
 70
     1
102
RTVSPropertyOp57
 70
     1
102
RTVSPropertyOp58
 70
     1
102
RTVSPropertyOp59
 70
     1
102
RTVSPropertyOp60
 70
     1
102
RTVSPropertyOp61
 70
     1
102
RTVSPropertyOp62
 70
     1
  0
XRECORD
  5
C7DD
102
{ACAD_REACTORS
330
C7DC
102
}
330
C7DC
100
AcDbXrecord
280
     1
102
RTVSPost2010Prop28
280
     0
102
RTVSPost2010PropOp28
 70
     1
102
RTVSPost2010Prop29
280
     1
102
RTVSPost2010PropOp29
 70
     1
102
RTVSPost2010Prop30
280
     1
102
RTVSPost2010PropOp30
 70
     1
102
RTVSPost2010Prop31
280
     0
102
RTVSPost2010PropOp31
 70
     1
102
RTVSPost2010Prop32
280
     0
102
RTVSPost2010PropOp32
 70
     1
102
RTVSPost2010Prop33
280
     0
102
RTVSPost2010PropOp33
 70
     1
102
RTVSPost2010Prop34
280
     0
102
RTVSPost2010PropOp34
 70
     1
102
RTVSPost2010Prop35
280
     0
102
RTVSPost2010PropOp35
 70
     1
102
RTVSPost2010Prop36
280
     0
102
RTVSPost2010PropOp36
 70
     1
102
RTVSPost2010Prop37
 90
       50
102
RTVSPost2010PropOp37
 70
     1
102
RTVSPost2010Prop38
140
0.0
102
RTVSPost2010PropOp38
 70
     1
102
RTVSPost2010Prop39
140
1.0
102
RTVSPost2010PropOp39
 70
     1
102
RTVSPost2010Prop40
 90
        0
102
RTVSPost2010PropOp40
 70
     1
102
RTVSPost2010Prop41ColorIndex
 90
       18
102
RTVSPost2010Prop41ColorRGB
 90
        0
102
RTVSPost2010PropOp41
 70
     1
102
RTVSPost2010Prop42
 90
       50
102
RTVSPost2010PropOp42
 70
     1
102
RTVSPost2010Prop43
 90
        3
102
RTVSPost2010PropOp43
 70
     1
102
RTVSPost2010Prop44ColorIndex
 90
        5
102
RTVSPost2010Prop44ColorRGB
 90
      255
102
RTVSPost2010PropOp44
 70
     1
102
RTVSPost2010Prop45
280
     0
102
RTVSPost2010PropOp45
 70
     1
102
RTVSPost2010Prop46
 90
       50
102
RTVSPost2010PropOp46
 70
     1
102
RTVSPost2010Prop47
 90
       50
102
RTVSPost2010PropOp47
 70
     1
102
RTVSPost2010Prop48
 90
       50
102
RTVSPost2010PropOp48
 70
     1
102
RTVSPost2010Prop49
280
     0
102
RTVSPost2010PropOp49
 70
     1
102
RTVSPost2010Prop50
 90
       50
102
RTVSPost2010PropOp50
 70
     1
102
RTVSPost2010Prop51ColorIndex
 90
      256
102
RTVSPost2010Prop51ColorRGB
 90
-16777216
102
RTVSPost2010PropOp51
 70
     0
102
RTVSPost2010Prop52
140
1.0
102
RTVSPost2010PropOp52
 70
     0
102
RTVSPost2010Prop53
 90
        2
102
RTVSPost2010PropOp53
 70
     1
102
RTVSPost2010Prop54
  1
strokes_ogs.tif
102
RTVSPost2010PropOp54
 70
     1
102
RTVSPost2010Prop55
280
     0
102
RTVSPost2010PropOp55
 70
     1
102
RTVSPost2010Prop56
140
1.0
102
RTVSPost2010PropOp56
 70
     1
102
RTVSPost2010Prop57
140
1.0
102
RTVSPost2010PropOp57
 70
     1
102
RTVSPropertyOp0
 70
     1
102
RTVSPropertyOp1
 70
     1
102
RTVSPropertyOp2
 70
     1
102
RTVSPropertyOp3
 70
     1
102
RTVSPropertyOp4
 70
     1
102
RTVSPropertyOp5
 70
     1
102
RTVSPropertyOp6
 70
     1
102
RTVSPropertyOp7
 70
     1
102
RTVSPropertyOp8
 70
     1
102
RTVSPropertyOp9
 70
     1
102
RTVSPropertyOp10
 70
     1
102
RTVSPropertyOp11
 70
     1
102
RTVSPropertyOp12
 70
     1
102
RTVSPropertyOp13
 70
     1
102
RTVSPropertyOp14
 70
     1
102
RTVSPropertyOp15
 70
     1
102
RTVSPropertyOp16
 70
     1
102
RTVSPropertyOp17
 70
     1
102
RTVSPropertyOp18
 70
     1
102
RTVSPropertyOp19
 70
     1
102
RTVSPropertyOp20
 70
     1
102
RTVSPropertyOp21
 70
     1
102
RTVSPropertyOp22
 70
     1
102
RTVSPropertyOp23
 70
     1
102
RTVSPropertyOp24
 70
     1
102
RTVSPropertyOp25
 70
     1
102
RTVSPropertyOp26
 70
     1
102
RTVSPropertyOp27
 70
     1
102
RTVSPropertyOp28
 70
     1
102
RTVSPropertyOp29
 70
     1
102
RTVSPropertyOp30
 70
     1
102
RTVSPropertyOp31
 70
     1
102
RTVSPropertyOp32
 70
     1
102
RTVSPropertyOp33
 70
     1
102
RTVSPropertyOp34
 70
     1
102
RTVSPropertyOp35
 70
     1
102
RTVSPropertyOp36
 70
     1
102
RTVSPropertyOp37
 70
     1
102
RTVSPropertyOp38
 70
     1
102
RTVSPropertyOp39
 70
     1
102
RTVSPropertyOp40
 70
     1
102
RTVSPropertyOp41
 70
     1
102
RTVSPropertyOp42
 70
     1
102
RTVSPropertyOp43
 70
     1
102
RTVSPropertyOp44
 70
     1
102
RTVSPropertyOp45
 70
     1
102
RTVSPropertyOp46
 70
     1
102
RTVSPropertyOp47
 70
     1
102
RTVSPropertyOp48
 70
     1
102
RTVSPropertyOp49
 70
     1
102
RTVSPropertyOp50
 70
     1
102
RTVSPropertyOp51
 70
     0
102
RTVSPropertyOp52
 70
     0
102
RTVSPropertyOp53
 70
     1
102
RTVSPropertyOp54
 70
     1
102
RTVSPropertyOp55
 70
     1
102
RTVSPropertyOp56
 70
     1
102
RTVSPropertyOp57
 70
     1
102
RTVSPropertyOp58
 70
     1
102
RTVSPropertyOp59
 70
     1
102
RTVSPropertyOp60
 70
     1
102
RTVSPropertyOp61
 70
     1
102
RTVSPropertyOp62
 70
     1
  0
XRECORD
  5
C7D3
102
{ACAD_REACTORS
330
C7D2
102
}
330
C7D2
100
AcDbXrecord
280
     1
102
RTVSPost2010Prop28
280
     0
102
RTVSPost2010PropOp28
 70
     1
102
RTVSPost2010Prop29
280
     1
102
RTVSPost2010PropOp29
 70
     1
102
RTVSPost2010Prop30
280
     1
102
RTVSPost2010PropOp30
 70
     1
102
RTVSPost2010Prop31
280
     0
102
RTVSPost2010PropOp31
 70
     1
102
RTVSPost2010Prop32
280
     0
102
RTVSPost2010PropOp32
 70
     1
102
RTVSPost2010Prop33
280
     0
102
RTVSPost2010PropOp33
 70
     1
102
RTVSPost2010Prop34
280
     0
102
RTVSPost2010PropOp34
 70
     1
102
RTVSPost2010Prop35
280
     0
102
RTVSPost2010PropOp35
 70
     1
102
RTVSPost2010Prop36
280
     0
102
RTVSPost2010PropOp36
 70
     1
102
RTVSPost2010Prop37
 90
       50
102
RTVSPost2010PropOp37
 70
     1
102
RTVSPost2010Prop38
140
0.0
102
RTVSPost2010PropOp38
 70
     1
102
RTVSPost2010Prop39
140
1.0
102
RTVSPost2010PropOp39
 70
     1
102
RTVSPost2010Prop40
 90
        0
102
RTVSPost2010PropOp40
 70
     1
102
RTVSPost2010Prop41ColorIndex
 90
       18
102
RTVSPost2010Prop41ColorRGB
 90
        0
102
RTVSPost2010PropOp41
 70
     1
102
RTVSPost2010Prop42
 90
       50
102
RTVSPost2010PropOp42
 70
     1
102
RTVSPost2010Prop43
 90
        3
102
RTVSPost2010PropOp43
 70
     1
102
RTVSPost2010Prop44ColorIndex
 90
        5
102
RTVSPost2010Prop44ColorRGB
 90
      255
102
RTVSPost2010PropOp44
 70
     1
102
RTVSPost2010Prop45
280
     0
102
RTVSPost2010PropOp45
 70
     1
102
RTVSPost2010Prop46
 90
       50
102
RTVSPost2010PropOp46
 70
     1
102
RTVSPost2010Prop47
 90
       50
102
RTVSPost2010PropOp47
 70
     1
102
RTVSPost2010Prop48
 90
       50
102
RTVSPost2010PropOp48
 70
     1
102
RTVSPost2010Prop49
280
     0
102
RTVSPost2010PropOp49
 70
     1
102
RTVSPost2010Prop50
 90
       50
102
RTVSPost2010PropOp50
 70
     1
102
RTVSPost2010Prop51ColorIndex
 90
      256
102
RTVSPost2010Prop51ColorRGB
 90
-16777216
102
RTVSPost2010PropOp51
 70
     0
102
RTVSPost2010Prop52
140
1.0
102
RTVSPost2010PropOp52
 70
     0
102
RTVSPost2010Prop53
 90
        2
102
RTVSPost2010PropOp53
 70
     1
102
RTVSPost2010Prop54
  1
strokes_ogs.tif
102
RTVSPost2010PropOp54
 70
     1
102
RTVSPost2010Prop55
280
     0
102
RTVSPost2010PropOp55
 70
     1
102
RTVSPost2010Prop56
140
1.0
102
RTVSPost2010PropOp56
 70
     1
102
RTVSPost2010Prop57
140
1.0
102
RTVSPost2010PropOp57
 70
     1
102
RTVSPropertyOp0
 70
     1
102
RTVSPropertyOp1
 70
     1
102
RTVSPropertyOp2
 70
     1
102
RTVSPropertyOp3
 70
     1
102
RTVSPropertyOp4
 70
     1
102
RTVSPropertyOp5
 70
     1
102
RTVSPropertyOp6
 70
     1
102
RTVSPropertyOp7
 70
     1
102
RTVSPropertyOp8
 70
     1
102
RTVSPropertyOp9
 70
     1
102
RTVSPropertyOp10
 70
     1
102
RTVSPropertyOp11
 70
     1
102
RTVSPropertyOp12
 70
     1
102
RTVSPropertyOp13
 70
     1
102
RTVSPropertyOp14
 70
     1
102
RTVSPropertyOp15
 70
     1
102
RTVSPropertyOp16
 70
     1
102
RTVSPropertyOp17
 70
     1
102
RTVSPropertyOp18
 70
     1
102
RTVSPropertyOp19
 70
     1
102
RTVSPropertyOp20
 70
     1
102
RTVSPropertyOp21
 70
     1
102
RTVSPropertyOp22
 70
     1
102
RTVSPropertyOp23
 70
     1
102
RTVSPropertyOp24
 70
     1
102
RTVSPropertyOp25
 70
     1
102
RTVSPropertyOp26
 70
     1
102
RTVSPropertyOp27
 70
     1
102
RTVSPropertyOp28
 70
     1
102
RTVSPropertyOp29
 70
     1
102
RTVSPropertyOp30
 70
     1
102
RTVSPropertyOp31
 70
     1
102
RTVSPropertyOp32
 70
     1
102
RTVSPropertyOp33
 70
     1
102
RTVSPropertyOp34
 70
     1
102
RTVSPropertyOp35
 70
     1
102
RTVSPropertyOp36
 70
     1
102
RTVSPropertyOp37
 70
     1
102
RTVSPropertyOp38
 70
     1
102
RTVSPropertyOp39
 70
     1
102
RTVSPropertyOp40
 70
     1
102
RTVSPropertyOp41
 70
     1
102
RTVSPropertyOp42
 70
     1
102
RTVSPropertyOp43
 70
     1
102
RTVSPropertyOp44
 70
     1
102
RTVSPropertyOp45
 70
     1
102
RTVSPropertyOp46
 70
     1
102
RTVSPropertyOp47
 70
     1
102
RTVSPropertyOp48
 70
     1
102
RTVSPropertyOp49
 70
     1
102
RTVSPropertyOp50
 70
     1
102
RTVSPropertyOp51
 70
     0
102
RTVSPropertyOp52
 70
     0
102
RTVSPropertyOp53
 70
     1
102
RTVSPropertyOp54
 70
     1
102
RTVSPropertyOp55
 70
     1
102
RTVSPropertyOp56
 70
     1
102
RTVSPropertyOp57
 70
     1
102
RTVSPropertyOp58
 70
     1
102
RTVSPropertyOp59
 70
     1
102
RTVSPropertyOp60
 70
     1
102
RTVSPropertyOp61
 70
     1
102
RTVSPropertyOp62
 70
     1
  0
XRECORD
  5
C7C7
102
{ACAD_REACTORS
330
C7C6
102
}
330
C7C6
100
AcDbXrecord
280
     1
102
RTVSPost2010Prop28
280
     0
102
RTVSPost2010PropOp28
 70
     1
102
RTVSPost2010Prop29
280
     1
102
RTVSPost2010PropOp29
 70
     1
102
RTVSPost2010Prop30
280
     1
102
RTVSPost2010PropOp30
 70
     1
102
RTVSPost2010Prop31
280
     0
102
RTVSPost2010PropOp31
 70
     1
102
RTVSPost2010Prop32
280
     0
102
RTVSPost2010PropOp32
 70
     1
102
RTVSPost2010Prop33
280
     0
102
RTVSPost2010PropOp33
 70
     1
102
RTVSPost2010Prop34
280
     0
102
RTVSPost2010PropOp34
 70
     1
102
RTVSPost2010Prop35
280
     0
102
RTVSPost2010PropOp35
 70
     1
102
RTVSPost2010Prop36
280
     0
102
RTVSPost2010PropOp36
 70
     1
102
RTVSPost2010Prop37
 90
       50
102
RTVSPost2010PropOp37
 70
     1
102
RTVSPost2010Prop38
140
0.0
102
RTVSPost2010PropOp38
 70
     1
102
RTVSPost2010Prop39
140
1.0
102
RTVSPost2010PropOp39
 70
     1
102
RTVSPost2010Prop40
 90
        0
102
RTVSPost2010PropOp40
 70
     1
102
RTVSPost2010Prop41ColorIndex
 90
       18
102
RTVSPost2010Prop41ColorRGB
 90
        0
102
RTVSPost2010PropOp41
 70
     1
102
RTVSPost2010Prop42
 90
       50
102
RTVSPost2010PropOp42
 70
     1
102
RTVSPost2010Prop43
 90
        3
102
RTVSPost2010PropOp43
 70
     1
102
RTVSPost2010Prop44ColorIndex
 90
        5
102
RTVSPost2010Prop44ColorRGB
 90
      255
102
RTVSPost2010PropOp44
 70
     1
102
RTVSPost2010Prop45
280
     0
102
RTVSPost2010PropOp45
 70
     1
102
RTVSPost2010Prop46
 90
       50
102
RTVSPost2010PropOp46
 70
     1
102
RTVSPost2010Prop47
 90
       50
102
RTVSPost2010PropOp47
 70
     1
102
RTVSPost2010Prop48
 90
       50
102
RTVSPost2010PropOp48
 70
     1
102
RTVSPost2010Prop49
280
     0
102
RTVSPost2010PropOp49
 70
     1
102
RTVSPost2010Prop50
 90
       50
102
RTVSPost2010PropOp50
 70
     1
102
RTVSPost2010Prop51ColorIndex
 90
      256
102
RTVSPost2010Prop51ColorRGB
 90
-16777216
102
RTVSPost2010PropOp51
 70
     0
102
RTVSPost2010Prop52
140
1.0
102
RTVSPost2010PropOp52
 70
     0
102
RTVSPost2010Prop53
 90
        2
102
RTVSPost2010PropOp53
 70
     1
102
RTVSPost2010Prop54
  1
strokes_ogs.tif
102
RTVSPost2010PropOp54
 70
     1
102
RTVSPost2010Prop55
280
     0
102
RTVSPost2010PropOp55
 70
     1
102
RTVSPost2010Prop56
140
1.0
102
RTVSPost2010PropOp56
 70
     1
102
RTVSPost2010Prop57
140
1.0
102
RTVSPost2010PropOp57
 70
     1
102
RTVSPropertyOp0
 70
     1
102
RTVSPropertyOp1
 70
     1
102
RTVSPropertyOp2
 70
     1
102
RTVSPropertyOp3
 70
     1
102
RTVSPropertyOp4
 70
     1
102
RTVSPropertyOp5
 70
     1
102
RTVSPropertyOp6
 70
     1
102
RTVSPropertyOp7
 70
     1
102
RTVSPropertyOp8
 70
     1
102
RTVSPropertyOp9
 70
     1
102
RTVSPropertyOp10
 70
     1
102
RTVSPropertyOp11
 70
     1
102
RTVSPropertyOp12
 70
     1
102
RTVSPropertyOp13
 70
     1
102
RTVSPropertyOp14
 70
     1
102
RTVSPropertyOp15
 70
     1
102
RTVSPropertyOp16
 70
     1
102
RTVSPropertyOp17
 70
     1
102
RTVSPropertyOp18
 70
     1
102
RTVSPropertyOp19
 70
     1
102
RTVSPropertyOp20
 70
     1
102
RTVSPropertyOp21
 70
     1
102
RTVSPropertyOp22
 70
     1
102
RTVSPropertyOp23
 70
     1
102
RTVSPropertyOp24
 70
     1
102
RTVSPropertyOp25
 70
     1
102
RTVSPropertyOp26
 70
     1
102
RTVSPropertyOp27
 70
     1
102
RTVSPropertyOp28
 70
     1
102
RTVSPropertyOp29
 70
     1
102
RTVSPropertyOp30
 70
     1
102
RTVSPropertyOp31
 70
     1
102
RTVSPropertyOp32
 70
     1
102
RTVSPropertyOp33
 70
     1
102
RTVSPropertyOp34
 70
     1
102
RTVSPropertyOp35
 70
     1
102
RTVSPropertyOp36
 70
     1
102
RTVSPropertyOp37
 70
     1
102
RTVSPropertyOp38
 70
     1
102
RTVSPropertyOp39
 70
     1
102
RTVSPropertyOp40
 70
     1
102
RTVSPropertyOp41
 70
     1
102
RTVSPropertyOp42
 70
     1
102
RTVSPropertyOp43
 70
     1
102
RTVSPropertyOp44
 70
     1
102
RTVSPropertyOp45
 70
     1
102
RTVSPropertyOp46
 70
     1
102
RTVSPropertyOp47
 70
     1
102
RTVSPropertyOp48
 70
     1
102
RTVSPropertyOp49
 70
     1
102
RTVSPropertyOp50
 70
     1
102
RTVSPropertyOp51
 70
     0
102
RTVSPropertyOp52
 70
     0
102
RTVSPropertyOp53
 70
     1
102
RTVSPropertyOp54
 70
     1
102
RTVSPropertyOp55
 70
     1
102
RTVSPropertyOp56
 70
     1
102
RTVSPropertyOp57
 70
     1
102
RTVSPropertyOp58
 70
     1
102
RTVSPropertyOp59
 70
     1
102
RTVSPropertyOp60
 70
     1
102
RTVSPropertyOp61
 70
     1
102
RTVSPropertyOp62
 70
     1
  0
XRECORD
  5
C7DF
102
{ACAD_REACTORS
330
C7DE
102
}
330
C7DE
100
AcDbXrecord
280
     1
102
RTVSPost2010Prop28
280
     0
102
RTVSPost2010PropOp28
 70
     1
102
RTVSPost2010Prop29
280
     1
102
RTVSPost2010PropOp29
 70
     1
102
RTVSPost2010Prop30
280
     1
102
RTVSPost2010PropOp30
 70
     1
102
RTVSPost2010Prop31
280
     0
102
RTVSPost2010PropOp31
 70
     1
102
RTVSPost2010Prop32
280
     0
102
RTVSPost2010PropOp32
 70
     1
102
RTVSPost2010Prop33
280
     0
102
RTVSPost2010PropOp33
 70
     1
102
RTVSPost2010Prop34
280
     0
102
RTVSPost2010PropOp34
 70
     1
102
RTVSPost2010Prop35
280
     0
102
RTVSPost2010PropOp35
 70
     1
102
RTVSPost2010Prop36
280
     0
102
RTVSPost2010PropOp36
 70
     1
102
RTVSPost2010Prop37
 90
       50
102
RTVSPost2010PropOp37
 70
     1
102
RTVSPost2010Prop38
140
0.0
102
RTVSPost2010PropOp38
 70
     1
102
RTVSPost2010Prop39
140
1.0
102
RTVSPost2010PropOp39
 70
     1
102
RTVSPost2010Prop40
 90
        0
102
RTVSPost2010PropOp40
 70
     1
102
RTVSPost2010Prop41ColorIndex
 90
       18
102
RTVSPost2010Prop41ColorRGB
 90
        0
102
RTVSPost2010PropOp41
 70
     1
102
RTVSPost2010Prop42
 90
       50
102
RTVSPost2010PropOp42
 70
     1
102
RTVSPost2010Prop43
 90
        3
102
RTVSPost2010PropOp43
 70
     1
102
RTVSPost2010Prop44ColorIndex
 90
        5
102
RTVSPost2010Prop44ColorRGB
 90
      255
102
RTVSPost2010PropOp44
 70
     1
102
RTVSPost2010Prop45
280
     0
102
RTVSPost2010PropOp45
 70
     1
102
RTVSPost2010Prop46
 90
       50
102
RTVSPost2010PropOp46
 70
     1
102
RTVSPost2010Prop47
 90
       50
102
RTVSPost2010PropOp47
 70
     1
102
RTVSPost2010Prop48
 90
       50
102
RTVSPost2010PropOp48
 70
     1
102
RTVSPost2010Prop49
280
     0
102
RTVSPost2010PropOp49
 70
     1
102
RTVSPost2010Prop50
 90
       50
102
RTVSPost2010PropOp50
 70
     1
102
RTVSPost2010Prop51ColorIndex
 90
      256
102
RTVSPost2010Prop51ColorRGB
 90
-16777216
102
RTVSPost2010PropOp51
 70
     0
102
RTVSPost2010Prop52
140
1.0
102
RTVSPost2010PropOp52
 70
     0
102
RTVSPost2010Prop53
 90
        2
102
RTVSPost2010PropOp53
 70
     1
102
RTVSPost2010Prop54
  1
strokes_ogs.tif
102
RTVSPost2010PropOp54
 70
     1
102
RTVSPost2010Prop55
280
     0
102
RTVSPost2010PropOp55
 70
     1
102
RTVSPost2010Prop56
140
1.0
102
RTVSPost2010PropOp56
 70
     1
102
RTVSPost2010Prop57
140
1.0
102
RTVSPost2010PropOp57
 70
     1
102
RTVSPropertyOp0
 70
     1
102
RTVSPropertyOp1
 70
     1
102
RTVSPropertyOp2
 70
     1
102
RTVSPropertyOp3
 70
     1
102
RTVSPropertyOp4
 70
     1
102
RTVSPropertyOp5
 70
     1
102
RTVSPropertyOp6
 70
     1
102
RTVSPropertyOp7
 70
     1
102
RTVSPropertyOp8
 70
     1
102
RTVSPropertyOp9
 70
     1
102
RTVSPropertyOp10
 70
     1
102
RTVSPropertyOp11
 70
     1
102
RTVSPropertyOp12
 70
     1
102
RTVSPropertyOp13
 70
     1
102
RTVSPropertyOp14
 70
     1
102
RTVSPropertyOp15
 70
     1
102
RTVSPropertyOp16
 70
     1
102
RTVSPropertyOp17
 70
     1
102
RTVSPropertyOp18
 70
     1
102
RTVSPropertyOp19
 70
     1
102
RTVSPropertyOp20
 70
     1
102
RTVSPropertyOp21
 70
     1
102
RTVSPropertyOp22
 70
     1
102
RTVSPropertyOp23
 70
     1
102
RTVSPropertyOp24
 70
     1
102
RTVSPropertyOp25
 70
     1
102
RTVSPropertyOp26
 70
     1
102
RTVSPropertyOp27
 70
     1
102
RTVSPropertyOp28
 70
     1
102
RTVSPropertyOp29
 70
     1
102
RTVSPropertyOp30
 70
     1
102
RTVSPropertyOp31
 70
     1
102
RTVSPropertyOp32
 70
     1
102
RTVSPropertyOp33
 70
     1
102
RTVSPropertyOp34
 70
     1
102
RTVSPropertyOp35
 70
     1
102
RTVSPropertyOp36
 70
     1
102
RTVSPropertyOp37
 70
     1
102
RTVSPropertyOp38
 70
     1
102
RTVSPropertyOp39
 70
     1
102
RTVSPropertyOp40
 70
     1
102
RTVSPropertyOp41
 70
     1
102
RTVSPropertyOp42
 70
     1
102
RTVSPropertyOp43
 70
     1
102
RTVSPropertyOp44
 70
     1
102
RTVSPropertyOp45
 70
     1
102
RTVSPropertyOp46
 70
     1
102
RTVSPropertyOp47
 70
     1
102
RTVSPropertyOp48
 70
     1
102
RTVSPropertyOp49
 70
     1
102
RTVSPropertyOp50
 70
     1
102
RTVSPropertyOp51
 70
     0
102
RTVSPropertyOp52
 70
     0
102
RTVSPropertyOp53
 70
     1
102
RTVSPropertyOp54
 70
     1
102
RTVSPropertyOp55
 70
     1
102
RTVSPropertyOp56
 70
     1
102
RTVSPropertyOp57
 70
     1
102
RTVSPropertyOp58
 70
     1
102
RTVSPropertyOp59
 70
     1
102
RTVSPropertyOp60
 70
     1
102
RTVSPropertyOp61
 70
     1
102
RTVSPropertyOp62
 70
     1
  0
ENDSEC
  0
EOF
