  0
SECTION
  2
HEADER
  9
$ACADVER
  1
AC1015
  9
$ACADMAINTVER
 70
    20
  9
$DWGCODEPAGE
  3
ANSI_932
  9
$INSBASE
 10
0.0
 20
0.0
 30
0.0
  9
$EXTMIN
 10
10.0
 20
9.999999999999998
 30
0.0
  9
$EXTMAX
 10
509.7
 20
365.8752779999999
 30
0.0
  9
$LIMMIN
 10
0.0
 20
0.0
  9
$LIMMAX
 10
565.7000000000001
 20
389.990152
  9
$ORTHOMODE
 70
     1
  9
$REGENMODE
 70
     1
  9
$FILLMODE
 70
     1
  9
$QTEXTMODE
 70
     0
  9
$MIRRTEXT
 70
     1
  9
$LTSCALE
 40
20.0
  9
$ATTMODE
 70
     1
  9
$TEXTSIZE
 40
5.0
  9
$TRACEWID
 40
1.0
  9
$TEXTSTYLE
  7
STANDARD
  9
$CLAYER
  8
0
  9
$CELTYPE
  6
BYLAYER
  9
$CECOLOR
 62
   256
  9
$CELTSCALE
 40
1.0
  9
$DISPSILH
 70
     0
  9
$DIMSCALE
 40
1.0
  9
$DIMASZ
 40
3.0
  9
$DIMEXO
 40
1.0
  9
$DIMDLI
 40
10.0
  9
$DIMRND
 40
0.0
  9
$DIMDLE
 40
0.0
  9
$DIMEXE
 40
1.0
  9
$DIMTP
 40
0.0
  9
$DIMTM
 40
0.0
  9
$DIMTXT
 40
3.2
  9
$DIMCEN
 40
0.0
  9
$DIMTSZ
 40
0.0
  9
$DIMTOL
 70
     0
  9
$DIMLIM
 70
     0
  9
$DIMTIH
 70
     0
  9
$DIMTOH
 70
     0
  9
$DIMSE1
 70
     0
  9
$DIMSE2
 70
     0
  9
$DIMTAD
 70
     3
  9
$DIMZIN
 70
     8
  9
$DIMBLK
  1

  9
$DIMASO
 70
     1
  9
$DIMSHO
 70
     1
  9
$DIMPOST
  1

  9
$DIMAPOST
  1

  9
$DIMALT
 70
     0
  9
$DIMALTD
 70
     2
  9
$DIMALTF
 40
25.4
  9
$DIMLFAC
 40
1.0
  9
$DIMTOFL
 70
     1
  9
$DIMTVP
 40
0.0
  9
$DIMTIX
 70
     0
  9
$DIMSOXD
 70
     0
  9
$DIMSAH
 70
     1
  9
$DIMBLK1
  1
OPEN
  9
$DIMBLK2
  1
OPEN
  9
$DIMSTYLE
  2
STANDARD
  9
$DIMCLRD
 70
     0
  9
$DIMCLRE
 70
     0
  9
$DIMCLRT
 70
     0
  9
$DIMTFAC
 40
1.0
  9
$DIMGAP
 40
1.0
  9
$DIMJUST
 70
     0
  9
$DIMSD1
 70
     0
  9
$DIMSD2
 70
     0
  9
$DIMTOLJ
 70
     1
  9
$DIMTZIN
 70
     0
  9
$DIMALTZ
 70
     0
  9
$DIMALTTZ
 70
     0
  9
$DIMUPT
 70
     0
  9
$DIMDEC
 70
     4
  9
$DIMTDEC
 70
     4
  9
$DIMALTU
 70
     2
  9
$DIMALTTD
 70
     2
  9
$DIMTXSTY
  7
STANDARD
  9
$DIMAUNIT
 70
     0
  9
$DIMADEC
 70
     0
  9
$DIMALTRND
 40
0.0
  9
$DIMAZIN
 70
     0
  9
$DIMDSEP
 70
    46
  9
$DIMATFIT
 70
     3
  9
$DIMFRAC
 70
     0
  9
$DIMLDRBLK
  1
OPEN
  9
$DIMLUNIT
 70
     2
  9
$DIMLWD
 70
    -2
  9
$DIMLWE
 70
    -2
  9
$DIMTMOVE
 70
     0
  9
$LUNITS
 70
     2
  9
$LUPREC
 70
     4
  9
$SKETCHINC
 40
1.0
  9
$FILLETRAD
 40
5.0
  9
$AUNITS
 70
     0
  9
$AUPREC
 70
     2
  9
$MENU
  1
.
  9
$ELEVATION
 40
0.0
  9
$PELEVATION
 40
0.0
  9
$THICKNESS
 40
0.0
  9
$LIMCHECK
 70
     0
  9
$CHAMFERA
 40
10.0
  9
$CHAMFERB
 40
10.0
  9
$CHAMFERC
 40
0.0
  9
$CHAMFERD
 40
0.0
  9
$SKPOLY
 70
     0
  9
$TDCREATE
 40
2451301.629332292
  9
$TDUCREATE
 40
2451301.254332292
  9
$TDUPDATE
 40
2457192.688629074
  9
$TDUUPDATE
 40
2457192.313629074
  9
$TDINDWG
 40
0.0000098727
  9
$TDUSRTIMER
 40
0.0000095718
  9
$USRTIMER
 70
     1
  9
$ANGBASE
 50
0.0
  9
$ANGDIR
 70
     0
  9
$PDMODE
 70
     0
  9
$PDSIZE
 40
0.0
  9
$PLINEWID
 40
0.0
  9
$SPLFRAME
 70
     0
  9
$SPLINETYPE
 70
     6
  9
$SPLINESEGS
 70
     8
  9
$HANDSEED
  5
BD00
  9
$SURFTAB1
 70
     6
  9
$SURFTAB2
 70
     6
  9
$SURFTYPE
 70
     6
  9
$SURFU
 70
     6
  9
$SURFV
 70
     6
  9
$UCSBASE
  2

  9
$UCSNAME
  2

  9
$UCSORG
 10
0.0
 20
0.0
 30
0.0
  9
$UCSXDIR
 10
1.0
 20
0.0
 30
0.0
  9
$UCSYDIR
 10
0.0
 20
1.0
 30
0.0
  9
$UCSORTHOREF
  2

  9
$UCSORTHOVIEW
 70
     0
  9
$UCSORGTOP
 10
0.0
 20
0.0
 30
0.0
  9
$UCSORGBOTTOM
 10
0.0
 20
0.0
 30
0.0
  9
$UCSORGLEFT
 10
0.0
 20
0.0
 30
0.0
  9
$UCSORGRIGHT
 10
0.0
 20
0.0
 30
0.0
  9
$UCSORGFRONT
 10
0.0
 20
0.0
 30
0.0
  9
$UCSORGBACK
 10
0.0
 20
0.0
 30
0.0
  9
$PUCSBASE
  2

  9
$PUCSNAME
  2

  9
$PUCSORG
 10
0.0
 20
0.0
 30
0.0
  9
$PUCSXDIR
 10
1.0
 20
0.0
 30
0.0
  9
$PUCSYDIR
 10
0.0
 20
1.0
 30
0.0
  9
$PUCSORTHOREF
  2

  9
$PUCSORTHOVIEW
 70
     0
  9
$PUCSORGTOP
 10
0.0
 20
0.0
 30
0.0
  9
$PUCSORGBOTTOM
 10
0.0
 20
0.0
 30
0.0
  9
$PUCSORGLEFT
 10
0.0
 20
0.0
 30
0.0
  9
$PUCSORGRIGHT
 10
0.0
 20
0.0
 30
0.0
  9
$PUCSORGFRONT
 10
0.0
 20
0.0
 30
0.0
  9
$PUCSORGBACK
 10
0.0
 20
0.0
 30
0.0
  9
$USERI1
 70
     0
  9
$USERI2
 70
     0
  9
$USERI3
 70
     0
  9
$USERI4
 70
     0
  9
$USERI5
 70
     0
  9
$USERR1
 40
0.0
  9
$USERR2
 40
0.0
  9
$USERR3
 40
0.0
  9
$USERR4
 40
0.0
  9
$USERR5
 40
0.0
  9
$WORLDVIEW
 70
     1
  9
$SHADEDGE
 70
     3
  9
$SHADEDIF
 70
    70
  9
$TILEMODE
 70
     1
  9
$MAXACTVP
 70
    16
  9
$PINSBASE
 10
0.0
 20
0.0
 30
0.0
  9
$PLIMCHECK
 70
     0
  9
$PEXTMIN
 10
1.000000000000000E+20
 20
1.000000000000000E+20
 30
1.000000000000000E+20
  9
$PEXTMAX
 10
-1.000000000000000E+20
 20
-1.000000000000000E+20
 30
-1.000000000000000E+20
  9
$PLIMMIN
 10
0.0
 20
0.0
  9
$PLIMMAX
 10
420.0
 20
297.0
  9
$UNITMODE
 70
     0
  9
$VISRETAIN
 70
     0
  9
$PLINEGEN
 70
     0
  9
$PSLTSCALE
 70
     0
  9
$TREEDEPTH
 70
  3020
  9
$CMLSTYLE
  2
STANDARD
  9
$CMLJUST
 70
     0
  9
$CMLSCALE
 40
1.0
  9
$PROXYGRAPHICS
 70
     1
  9
$MEASUREMENT
 70
     0
  9
$CELWEIGHT
370
    -1
  9
$ENDCAPS
280
     0
  9
$JOINSTYLE
280
     0
  9
$LWDISPLAY
290
     0
  9
$INSUNITS
 70
     0
  9
$HYPERLINKBASE
  1

  9
$STYLESHEET
  1

  9
$XEDIT
290
     1
  9
$CEPSNTYPE
380
     0
  9
$PSTYLEMODE
290
     1
  9
$FINGERPRINTGUID
  2
{D85840AC-CB39-458E-816E-B7C00AA1E9A9}
  9
$VERSIONGUID
  2
{44E68765-07E6-44FF-AEAE-4042F34AE412}
  9
$EXTNAMES
290
     1
  9
$PSVPSCALE
 40
0.0
  9
$OLESTARTUP
290
     0
  0
ENDSEC
  0
SECTION
  2
CLASSES
  0
CLASS
  1
ACDBDICTIONARYWDFLT
  2
AcDbDictionaryWithDefault
  3
ObjectDBX Classes
 90
        0
280
     0
281
     0
  0
CLASS
  1
ACDBPLACEHOLDER
  2
AcDbPlaceHolder
  3
ObjectDBX Classes
 90
        0
280
     0
281
     0
  0
CLASS
  1
LAYOUT
  2
AcDbLayout
  3
ObjectDBX Classes
 90
        0
280
     0
281
     0
  0
CLASS
  1
DICTIONARYVAR
  2
AcDbDictionaryVar
  3
ObjectDBX Classes
 90
        0
280
     0
281
     0
  0
CLASS
  1
MATERIAL
  2
AcDbMaterial
  3
ObjectDBX Classes
 90
     1153
280
     0
281
     0
  0
CLASS
  1
VISUALSTYLE
  2
AcDbVisualStyle
  3
ObjectDBX Classes
 90
     4095
280
     0
281
     0
  0
CLASS
  1
TABLESTYLE
  2
AcDbTableStyle
  3
ObjectDBX Classes
 90
     4095
280
     0
281
     0
  0
CLASS
  1
SCALE
  2
AcDbScale
  3
ObjectDBX Classes
 90
     1153
280
     0
281
     0
  0
CLASS
  1
MLEADERSTYLE
  2
AcDbMLeaderStyle
  3
ACDB_MLEADERSTYLE_CLASS
 90
     4095
280
     0
281
     0
  0
CLASS
  1
ACDBSECTIONVIEWSTYLE
  2
AcDbSectionViewStyle
  3
ObjectDBX Classes
 90
     1025
280
     0
281
     0
  0
CLASS
  1
ACDBDETAILVIEWSTYLE
  2
AcDbDetailViewStyle
  3
ObjectDBX Classes
 90
     1025
280
     0
281
     0
  0
CLASS
  1
CELLSTYLEMAP
  2
AcDbCellStyleMap
  3
ObjectDBX Classes
 90
     1152
280
     0
281
     0
  0
ENDSEC
  0
SECTION
  2
TABLES
  0
TABLE
  2
VPORT
  5
BA4D
330
0
100
AcDbSymbolTable
 70
     1
  0
VPORT
  5
BC49
330
BA4D
100
AcDbSymbolTableRecord
100
AcDbViewportTableRecord
  2
*ACTIVE
 70
     0
 10
0.0
 20
0.0
 11
1.0
 21
1.0
 12
367.6681098375431
 22
187.9434056028101
 13
0.0
 23
0.0
 14
10.0
 24
10.0
 15
10.0
 25
10.0
 16
0.0
 26
0.0
 36
1.0
 17
0.0
 27
0.0
 37
0.0
 40
359.8487736738193
 41
2.35006605019815
 42
50.0
 43
0.0
 44
0.0
 50
0.0
 51
0.0
 71
     0
 72
   100
 73
     1
 74
     0
 75
     0
 76
     0
 77
     0
 78
     0
281
     0
 65
     1
110
0.0
120
0.0
130
0.0
111
1.0
121
0.0
131
0.0
112
0.0
122
1.0
132
0.0
 79
     0
146
0.0
1001
ACAD_NAV_VCDISPLAY
1070
     3
  0
ENDTAB
  0
TABLE
  2
LTYPE
  5
BA4A
330
0
100
AcDbSymbolTable
 70
     4
  0
LTYPE
  5
BA58
330
BA4A
100
AcDbSymbolTableRecord
100
AcDbLinetypeTableRecord
  2
BYBLOCK
 70
     0
  3

 72
    65
 73
     0
 40
0.0
  0
LTYPE
  5
BA59
330
BA4A
100
AcDbSymbolTableRecord
100
AcDbLinetypeTableRecord
  2
BYLAYER
 70
     0
  3

 72
    65
 73
     0
 40
0.0
  0
LTYPE
  5
BA5A
330
BA4A
100
AcDbSymbolTableRecord
100
AcDbLinetypeTableRecord
  2
CONTINUOUS
 70
     0
  3
Solid line
 72
    65
 73
     0
 40
0.0
  0
LTYPE
  5
BA68
330
BA4A
100
AcDbSymbolTableRecord
100
AcDbLinetypeTableRecord
  2
DASHED
 70
     0
  3
__ __ __ __ __ __ __ __ __ __ __ __ __ __ __ __
 72
    65
 73
     2
 40
0.75
 49
0.5
 74
     0
 49
-0.25
 74
     0
  0
LTYPE
  5
BA69
330
BA4A
100
AcDbSymbolTableRecord
100
AcDbLinetypeTableRecord
  2
CENTER
 70
     0
  3
____ _ ____ _ ____ _ ____ _ ____ _ ____ _ ____ 
 72
    65
 73
     4
 40
2.0
 49
1.25
 74
     0
 49
-0.25
 74
     0
 49
0.25
 74
     0
 49
-0.25
 74
     0
  0
LTYPE
  5
BA6A
330
BA4A
100
AcDbSymbolTableRecord
100
AcDbLinetypeTableRecord
  2
PHANTOM
 70
     0
  3
______  __  __  ______  __  __  ______  __  __ 
 72
    65
 73
     6
 40
2.5
 49
1.25
 74
     0
 49
-0.25
 74
     0
 49
0.25
 74
     0
 49
-0.25
 74
     0
 49
0.25
 74
     0
 49
-0.25
 74
     0
  0
ENDTAB
  0
TABLE
  2
LAYER
  5
BA47
330
0
100
AcDbSymbolTable
 70
     8
  0
LAYER
  5
BA55
102
{ACAD_XDICTIONARY
360
BCA4
102
}
330
BA47
100
AcDbSymbolTableRecord
100
AcDbLayerTableRecord
  2
0
 70
     0
 62
     7
  6
CONTINUOUS
370
    -3
390
BC52
  0
LAYER
  5
BA6B
102
{ACAD_XDICTIONARY
360
BCA6
102
}
330
BA47
100
AcDbSymbolTableRecord
100
AcDbLayerTableRecord
  2
4
 70
     0
 62
     1
  6
CENTER
370
    -3
390
BC52
  0
LAYER
  5
BA6C
102
{ACAD_XDICTIONARY
360
BCA8
102
}
330
BA47
100
AcDbSymbolTableRecord
100
AcDbLayerTableRecord
  2
5
 70
     0
 62
     6
  6
PHANTOM
370
    -3
390
BC52
  0
LAYER
  5
BA6D
102
{ACAD_XDICTIONARY
360
BCAA
102
}
330
BA47
100
AcDbSymbolTableRecord
100
AcDbLayerTableRecord
  2
1
 70
     0
 62
     7
  6
CONTINUOUS
370
    -3
390
BC52
  0
LAYER
  5
BA6E
102
{ACAD_XDICTIONARY
360
BCAC
102
}
330
BA47
100
AcDbSymbolTableRecord
100
AcDbLayerTableRecord
  2
2
 70
     0
 62
     4
  6
CONTINUOUS
370
    -3
390
BC52
  0
LAYER
  5
BA6F
102
{ACAD_XDICTIONARY
360
BCAE
102
}
330
BA47
100
AcDbSymbolTableRecord
100
AcDbLayerTableRecord
  2
3
 70
     0
 62
     2
  6
DASHED
370
    -3
390
BC52
  0
LAYER
  5
BA70
102
{ACAD_XDICTIONARY
360
BCB0
102
}
330
BA47
100
AcDbSymbolTableRecord
100
AcDbLayerTableRecord
  2
6
 70
     0
 62
     5
  6
CONTINUOUS
370
    -3
390
BC52
  0
LAYER
  5
BA71
102
{ACAD_XDICTIONARY
360
BCB2
102
}
330
BA47
100
AcDbSymbolTableRecord
100
AcDbLayerTableRecord
  2
7
 70
     0
 62
     3
  6
CONTINUOUS
370
    -3
390
BC52
  0
ENDTAB
  0
TABLE
  2
STYLE
  5
BA48
330
0
100
AcDbSymbolTable
 70
     1
  0
STYLE
  5
BA56
330
BA48
100
AcDbSymbolTableRecord
100
AcDbTextStyleTableRecord
  2
STANDARD
 70
     0
 40
0.0
 41
1.0
 50
0.0
 71
     0
 42
5.0
  3
txt
  4

  0
ENDTAB
  0
TABLE
  2
VIEW
  5
BA4B
330
0
100
AcDbSymbolTable
 70
     0
  0
ENDTAB
  0
TABLE
  2
UCS
  5
BA4C
330
0
100
AcDbSymbolTable
 70
     0
  0
ENDTAB
  0
TABLE
  2
APPID
  5
BA4E
330
0
100
AcDbSymbolTable
 70
     3
  0
APPID
  5
BA57
330
BA4E
100
AcDbSymbolTableRecord
100
AcDbRegAppTableRecord
  2
ACAD
 70
     0
  0
APPID
  5
BCBE
330
BA4E
100
AcDbSymbolTableRecord
100
AcDbRegAppTableRecord
  2
ACAD_NAV_VCDISPLAY
 70
     0
  0
APPID
  5
BCF7
330
BA4E
100
AcDbSymbolTableRecord
100
AcDbRegAppTableRecord
  2
ACAD_MLEADERVER
 70
     0
  0
ENDTAB
  0
TABLE
  2
DIMSTYLE
  5
BA4F
330
0
100
AcDbSymbolTable
 70
     1
100
AcDbDimStyleTable
 71
     0
  0
DIMSTYLE
105
BA73
330
BA4F
100
AcDbSymbolTableRecord
100
AcDbDimStyleTableRecord
  2
STANDARD
 70
     0
 41
3.0
 42
1.0
 43
10.0
 44
1.0
 73
     0
 74
     0
 77
     3
 78
     8
140
3.2
141
0.0
147
1.0
172
     1
173
     1
284
     8
285
     8
286
     8
340
BA56
  0
ENDTAB
  0
TABLE
  2
BLOCK_RECORD
  5
BA46
330
0
100
AcDbSymbolTable
 70
     1
  0
BLOCK_RECORD
  5
BA63
102
{ACAD_XDICTIONARY
360
BC4C
102
}
330
BA46
100
AcDbSymbolTableRecord
100
AcDbBlockTableRecord
  2
*MODEL_SPACE
340
BCA0
  0
BLOCK_RECORD
  5
BA5F
102
{ACAD_XDICTIONARY
360
BC4A
102
}
330
BA46
100
AcDbSymbolTableRecord
100
AcDbBlockTableRecord
  2
*PAPER_SPACE
340
BCA1
  0
BLOCK_RECORD
  5
BA7B
330
BA46
100
AcDbSymbolTableRecord
100
AcDbBlockTableRecord
  2
_OPEN
340
0
  0
ENDTAB
  0
ENDSEC
  0
SECTION
  2
BLOCKS
  0
BLOCK
  5
BA64
330
BA63
100
AcDbEntity
  8
0
100
AcDbBlockBegin
  2
*MODEL_SPACE
 70
     0
 10
0.0
 20
0.0
 30
0.0
  3
*MODEL_SPACE
  1

  0
ENDBLK
  5
BA65
330
BA63
100
AcDbEntity
  8
0
100
AcDbBlockEnd
  0
BLOCK
  5
BA60
330
BA5F
100
AcDbEntity
 67
     1
  8
0
100
AcDbBlockBegin
  2
*PAPER_SPACE
 70
     0
 10
0.0
 20
0.0
 30
0.0
  3
*PAPER_SPACE
  1

  0
ENDBLK
  5
BA61
330
BA5F
100
AcDbEntity
 67
     1
  8
0
100
AcDbBlockEnd
  0
BLOCK
  5
BA7C
330
BA7B
100
AcDbEntity
  8
0
100
AcDbBlockBegin
  2
_OPEN
 70
     0
 10
0.0
 20
0.0
 30
0.0
  3
_OPEN
  1

  0
LINE
  5
BA7D
330
BA7B
100
AcDbEntity
  8
0
  6
ByBlock
 62
     0
100
AcDbLine
 10
-1.0
 20
0.166667
 30
0.0
 11
0.0
 21
0.0
 31
0.0
  0
LINE
  5
BA7E
330
BA7B
100
AcDbEntity
  8
0
  6
ByBlock
 62
     0
100
AcDbLine
 10
0.0
 20
0.0
 30
0.0
 11
-1.0
 21
-0.166667
 31
0.0
  0
LINE
  5
BA7F
330
BA7B
100
AcDbEntity
  8
0
  6
ByBlock
 62
     0
100
AcDbLine
 10
0.0
 20
0.0
 30
0.0
 11
-1.0
 21
0.0
 31
0.0
  0
ENDBLK
  5
BA80
330
BA7B
100
AcDbEntity
  8
0
100
AcDbBlockEnd
  0
ENDSEC
  0
SECTION
  2
ENTITIES
  0
TEXT
  5
BA81
330
BA63
100
AcDbEntity
  8
7
  6
Continuous
100
AcDbText
 10
10.0
 20
18.0
 30
0.0
 40
3.0
  1
TYPE No.607B
100
AcDbText
  0
TEXT
  5
BA82
330
BA63
100
AcDbEntity
  8
7
  6
Continuous
100
AcDbText
 10
10.0
 20
26.0
 30
0.0
 40
3.0
  1
CODE No.9416
100
AcDbText
  0
TEXT
  5
BA83
330
BA63
100
AcDbEntity
  8
1
  6
Continuous
100
AcDbText
 10
10.0
 20
10.0
 30
0.0
 40
1.399999999999999
  1
LAYER
100
AcDbText
  0
TEXT
  5
BA84
330
BA63
100
AcDbEntity
  8
1
  6
Continuous
100
AcDbText
 10
17.97951099999998
 20
10.04873699999998
 30
0.0
 40
1.399999999999999
  1
1
100
AcDbText
  0
TEXT
  5
BA85
330
BA63
100
AcDbEntity
  8
7
  6
Continuous
100
AcDbText
 10
29.97951099999999
 20
10.04873699999998
 30
0.0
 40
1.399999999999999
  1
7
100
AcDbText
  0
TEXT
  5
BA86
330
BA63
100
AcDbEntity
  8
4
  6
CENTER
100
AcDbText
 10
23.97951099999999
 20
10.04873699999998
 30
0.0
 40
1.399999999999999
  1
4
100
AcDbText
  0
TEXT
  5
BA87
330
BA63
100
AcDbEntity
  8
3
  6
DASHED
100
AcDbText
 10
21.979511
 20
10.04873699999998
 30
0.0
 40
1.399999999999999
  1
3
100
AcDbText
  0
TEXT
  5
BA88
330
BA63
100
AcDbEntity
  8
2
  6
Continuous
100
AcDbText
 10
19.97951099999999
 20
10.04873699999998
 30
0.0
 40
1.399999999999999
  1
2
100
AcDbText
  0
TEXT
  5
BA89
330
BA63
100
AcDbEntity
  8
6
  6
Continuous
100
AcDbText
 10
27.979511
 20
10.04873699999998
 30
0.0
 40
1.399999999999999
  1
6
100
AcDbText
  0
TEXT
  5
BA8A
330
BA63
100
AcDbEntity
  8
5
  6
PHANTOM
100
AcDbText
 10
25.97951099999999
 20
10.04873699999998
 30
0.0
 40
1.399999999999999
  1
5
100
AcDbText
  0
LINE
  5
BA8B
330
BA63
100
AcDbEntity
  8
1
  6
Continuous
100
AcDbLine
 10
219.005131
 20
360.768266
 30
0.0
 11
222.4029299999999
 21
362.759117
 31
0.0
  0
ARC
  5
BA8C
330
BA63
100
AcDbEntity
  8
1
  6
Continuous
100
AcDbCircle
 10
226.6999999999999
 20
355.425278
 30
0.0
 40
8.5
100
AcDbArc
 50
0.0
 51
120.3670439999998
  0
ARC
  5
BA8D
330
BA63
100
AcDbEntity
  8
1
  6
Continuous
100
AcDbCircle
 10
217.7412879999998
 20
362.9252779999998
 30
0.0
 40
2.5
100
AcDbArc
 50
197.6325919999999
 51
300.367044
  0
ARC
  5
BA8E
330
BA63
100
AcDbEntity
  8
1
  6
Continuous
100
AcDbCircle
 10
192.2204419999999
 20
362.975278
 30
0.0
 40
7.5
100
AcDbArc
 50
270.0
 51
302.264873
  0
LINE
  5
BA8F
330
BA63
100
AcDbEntity
  8
1
  6
Continuous
100
AcDbLine
 10
219.005131
 20
314.0822889999999
 30
0.0
 11
222.4029299999999
 21
312.0914389999999
 31
0.0
  0
ARC
  5
BA90
330
BA63
100
AcDbEntity
  8
1
  6
Continuous
100
AcDbCircle
 10
226.6999999999999
 20
319.4252779999998
 30
0.0
 40
8.5
100
AcDbArc
 50
239.6329559999998
 51
0.0
  0
ARC
  5
BA91
330
BA63
100
AcDbEntity
  8
1
  6
Continuous
100
AcDbCircle
 10
217.7412879999998
 20
311.925278
 30
0.0
 40
2.5
100
AcDbArc
 50
59.632956
 51
162.367408
  0
ARC
  5
BA92
330
BA63
100
AcDbEntity
  8
1
  6
Continuous
100
AcDbCircle
 10
192.2204419999999
 20
311.8752779999999
 30
0.0
 40
7.5
100
AcDbArc
 50
57.73512700000001
 51
90.0
  0
LINE
  5
BA93
330
BA63
100
AcDbEntity
  8
1
  6
Continuous
100
AcDbLine
 10
235.1999999999999
 20
355.425278
 30
0.0
 11
235.1999999999999
 21
319.4252779999998
 31
0.0
  0
LINE
  5
BA94
330
BA63
100
AcDbEntity
  8
1
  6
Continuous
100
AcDbLine
 10
154.3948679999998
 20
314.0822889999999
 30
0.0
 11
150.9970689999998
 21
312.0914389999999
 31
0.0
  0
ARC
  5
BA95
330
BA63
100
AcDbEntity
  8
1
  6
Continuous
100
AcDbCircle
 10
146.6999999999998
 20
319.4252779999998
 30
0.0
 40
8.5
100
AcDbArc
 50
180.0
 51
300.367044
  0
ARC
  5
BA96
330
BA63
100
AcDbEntity
  8
1
  6
Continuous
100
AcDbCircle
 10
155.658712
 20
311.925278
 30
0.0
 40
2.5
100
AcDbArc
 50
17.632592
 51
120.3670439999998
  0
LINE
  5
BA97
330
BA63
100
AcDbEntity
  8
1
  6
Continuous
100
AcDbLine
 10
192.2204419999999
 20
319.375278
 30
0.0
 11
181.1795579999999
 21
319.375278
 31
0.0
  0
ARC
  5
BA98
330
BA63
100
AcDbEntity
  8
1
  6
Continuous
100
AcDbCircle
 10
181.1795579999999
 20
311.8752779999999
 30
0.0
 40
7.5
100
AcDbArc
 50
90.0
 51
122.2648729999998
  0
LINE
  5
BA99
330
BA63
100
AcDbEntity
  8
1
  6
Continuous
100
AcDbLine
 10
138.1999999999998
 20
355.425278
 30
0.0
 11
138.1999999999998
 21
319.4252779999998
 31
0.0
  0
LINE
  5
BA9A
330
BA63
100
AcDbEntity
  8
1
  6
Continuous
100
AcDbLine
 10
154.3948679999998
 20
360.768266
 30
0.0
 11
150.9970689999998
 21
362.759117
 31
0.0
  0
ARC
  5
BA9B
330
BA63
100
AcDbEntity
  8
1
  6
Continuous
100
AcDbCircle
 10
146.6999999999998
 20
355.425278
 30
0.0
 40
8.5
100
AcDbArc
 50
59.632956
 51
180.0
  0
ARC
  5
BA9C
330
BA63
100
AcDbEntity
  8
1
  6
Continuous
100
AcDbCircle
 10
155.658712
 20
362.9252779999998
 30
0.0
 40
2.5
100
AcDbArc
 50
239.6329559999998
 51
342.367408
  0
LINE
  5
BA9D
330
BA63
100
AcDbEntity
  8
1
  6
Continuous
100
AcDbLine
 10
192.2204419999999
 20
355.475278
 30
0.0
 11
181.1795579999999
 21
355.475278
 31
0.0
  0
ARC
  5
BA9E
330
BA63
100
AcDbEntity
  8
1
  6
Continuous
100
AcDbCircle
 10
181.1795579999999
 20
362.975278
 30
0.0
 40
7.5
100
AcDbArc
 50
237.735127
 51
270.0
  0
CIRCLE
  5
BA9F
330
BA63
100
AcDbEntity
  8
1
  6
Continuous
100
AcDbCircle
 10
146.6999999999998
 20
355.425278
 30
0.0
 40
4.25
  0
CIRCLE
  5
BAA0
330
BA63
100
AcDbEntity
  8
1
  6
Continuous
100
AcDbCircle
 10
226.6999999999999
 20
355.425278
 30
0.0
 40
4.25
  0
CIRCLE
  5
BAA1
330
BA63
100
AcDbEntity
  8
1
  6
Continuous
100
AcDbCircle
 10
226.6999999999999
 20
319.4252779999998
 30
0.0
 40
4.25
  0
CIRCLE
  5
BAA2
330
BA63
100
AcDbEntity
  8
1
  6
Continuous
100
AcDbCircle
 10
146.6999999999998
 20
319.4252779999998
 30
0.0
 40
4.25
  0
LINE
  5
BAA3
330
BA63
100
AcDbEntity
  8
1
  6
Continuous
100
AcDbLine
 10
138.1999999999998
 20
264.0626389999998
 30
0.0
 11
235.1999999999999
 21
264.0626389999998
 31
0.0
  0
LINE
  5
BAA4
330
BA63
100
AcDbEntity
  8
1
  6
Continuous
100
AcDbLine
 10
138.1999999999998
 20
261.7626389999999
 30
0.0
 11
153.2
 21
261.7626389999999
 31
0.0
  0
LINE
  5
BAA5
330
BA63
100
AcDbEntity
  8
1
  6
Continuous
100
AcDbLine
 10
138.1999999999998
 20
264.0626389999998
 30
0.0
 11
138.1999999999998
 21
261.7626389999999
 31
0.0
  0
LINE
  5
BAA6
330
BA63
100
AcDbEntity
  8
1
  6
Continuous
100
AcDbLine
 10
157.0835909999999
 20
261.0206149999999
 30
0.0
 11
175.049225
 21
188.1887129999999
 31
0.0
  0
ARC
  5
BAA7
330
BA63
100
AcDbEntity
  8
1
  6
Continuous
100
AcDbCircle
 10
153.2
 20
260.0626389999998
 30
0.0
 40
4.0
100
AcDbArc
 50
13.856671
 51
90.0
  0
ARC
  5
BAA8
330
BA63
100
AcDbEntity
  8
1
  6
Continuous
100
AcDbCircle
 10
153.2
 20
257.0383379999999
 30
0.0
 40
4.724301999999998
100
AcDbArc
 50
13.856671
 51
90.0
  0
LINE
  5
BAA9
330
BA63
100
AcDbEntity
  8
1
  6
Continuous
100
AcDbLine
 10
235.1999999999999
 20
261.7626389999999
 30
0.0
 11
220.1999999999999
 21
261.7626389999999
 31
0.0
  0
LINE
  5
BAAA
330
BA63
100
AcDbEntity
  8
1
  6
Continuous
100
AcDbLine
 10
235.1999999999999
 20
264.0626389999998
 30
0.0
 11
235.1999999999999
 21
261.7626389999999
 31
0.0
  0
LINE
  5
BAAB
330
BA63
100
AcDbEntity
  8
1
  6
Continuous
100
AcDbLine
 10
216.316408
 20
261.0206149999999
 30
0.0
 11
198.350774
 21
188.1887129999999
 31
0.0
  0
ARC
  5
BAAC
330
BA63
100
AcDbEntity
  8
1
  6
Continuous
100
AcDbCircle
 10
220.1999999999999
 20
260.0626389999998
 30
0.0
 40
4.0
100
AcDbArc
 50
90.0
 51
166.1433289999999
  0
ARC
  5
BAAD
330
BA63
100
AcDbEntity
  8
1
  6
Continuous
100
AcDbCircle
 10
220.1999999999999
 20
257.0383379999999
 30
0.0
 40
4.724301999999998
100
AcDbArc
 50
90.0
 51
166.1433289999999
  0
ARC
  5
BAAE
330
BA63
100
AcDbEntity
  8
1
  6
Continuous
100
AcDbCircle
 10
186.6999999999999
 20
191.062639
 30
0.0
 40
12.0
100
AcDbArc
 50
193.856671
 51
346.1433289999998
  0
CIRCLE
  5
BAAF
330
BA63
100
AcDbEntity
  8
1
  6
Continuous
100
AcDbCircle
 10
186.6999999999999
 20
191.062639
 30
0.0
 40
7.0
  0
ARC
  5
BAB0
330
BA63
100
AcDbEntity
  8
1
  6
Continuous
100
AcDbCircle
 10
158.0412579999999
 20
348.5261779999998
 30
0.0
 40
35.84362
100
AcDbArc
 50
270.0
 51
302.264873
  0
ARC
  5
BAB1
330
BA63
100
AcDbEntity
  8
1
  6
Continuous
100
AcDbCircle
 10
215.358741
 20
348.5261779999998
 30
0.0
 40
35.84362
100
AcDbArc
 50
237.735127
 51
270.0
  0
ARC
  5
BAB2
330
BA63
100
AcDbEntity
  8
1
  6
Continuous
100
AcDbCircle
 10
158.0412579999999
 20
326.3243779999999
 30
0.0
 40
35.84362
100
AcDbArc
 50
57.73512700000001
 51
90.0
  0
ARC
  5
BAB3
330
BA63
100
AcDbEntity
  8
1
  6
Continuous
100
AcDbCircle
 10
215.358741
 20
326.3243779999999
 30
0.0
 40
35.84362
100
AcDbArc
 50
90.0
 51
122.2648729999998
  0
LINE
  5
BAB4
330
BA63
100
AcDbEntity
  8
1
  6
Continuous
100
AcDbLine
 10
179.0
 20
355.7989609999999
 30
0.0
 11
179.0
 21
357.475278
 31
0.0
  0
LINE
  5
BAB5
330
BA63
100
AcDbEntity
  8
1
  6
Continuous
100
AcDbLine
 10
194.4
 20
355.7989609999999
 30
0.0
 11
194.4
 21
357.475278
 31
0.0
  0
LINE
  5
BAB6
330
BA63
100
AcDbEntity
  8
1
  6
Continuous
100
AcDbLine
 10
182.6999999999999
 20
362.475278
 30
0.0
 11
182.6999999999999
 21
363.2752779999998
 31
0.0
  0
LINE
  5
BAB7
330
BA63
100
AcDbEntity
  8
1
  6
Continuous
100
AcDbLine
 10
183.3
 20
363.8752779999999
 30
0.0
 11
182.6999999999999
 21
363.2752779999998
 31
0.0
  0
LINE
  5
BAB8
330
BA63
100
AcDbEntity
  8
1
  6
Continuous
100
AcDbLine
 10
182.6999999999999
 20
363.2752779999998
 30
0.0
 11
190.7
 21
363.2752779999998
 31
0.0
  0
LINE
  5
BAB9
330
BA63
100
AcDbEntity
  8
1
  6
Continuous
100
AcDbLine
 10
190.0999999999999
 20
363.8752779999999
 30
0.0
 11
183.3
 21
363.8752779999999
 31
0.0
  0
LINE
  5
BABA
330
BA63
100
AcDbEntity
  8
1
  6
Continuous
100
AcDbLine
 10
190.7
 20
362.475278
 30
0.0
 11
190.7
 21
363.2752779999998
 31
0.0
  0
LINE
  5
BABB
330
BA63
100
AcDbEntity
  8
1
  6
Continuous
100
AcDbLine
 10
190.0999999999999
 20
363.8752779999999
 30
0.0
 11
190.7
 21
363.2752779999998
 31
0.0
  0
LINE
  5
BABC
330
BA63
100
AcDbEntity
  8
1
  6
Continuous
100
AcDbLine
 10
181.1795579999999
 20
201.2421709999999
 30
0.0
 11
181.1795579999999
 21
260.2626389999999
 31
0.0
  0
LINE
  5
BABD
330
BA63
100
AcDbEntity
  8
1
  6
Continuous
100
AcDbLine
 10
192.2204419999999
 20
201.2421709999999
 30
0.0
 11
192.2204419999999
 21
260.2626389999999
 31
0.0
  0
LINE
  5
BABE
330
BA63
100
AcDbEntity
  8
2
  6
Continuous
100
AcDbLine
 10
183.3764999999999
 20
362.475278
 30
0.0
 11
183.3764999999999
 21
363.8752779999999
 31
0.0
  0
LINE
  5
BABF
330
BA63
100
AcDbEntity
  8
2
  6
Continuous
100
AcDbLine
 10
190.0235
 20
362.475278
 30
0.0
 11
190.0235
 21
363.8752779999999
 31
0.0
  0
LINE
  5
BAC0
330
BA63
100
AcDbEntity
  8
4
  6
CENTER
100
AcDbLine
 10
133.6999999999999
 20
337.4252779999999
 30
0.0
 11
239.6999999999999
 21
337.4252779999999
 31
0.0
  0
LINE
  5
BAC1
330
BA63
100
AcDbEntity
  8
4
  6
CENTER
100
AcDbLine
 10
186.6999999999999
 20
365.8752779999999
 30
0.0
 11
186.6999999999999
 21
311.8163
 31
0.0
  0
LINE
  5
BAC2
330
BA63
100
AcDbEntity
  8
4
  6
CENTER
100
AcDbLine
 10
139.4499999999998
 20
355.425278
 30
0.0
 11
153.9499999999998
 21
355.425278
 31
0.0
  0
LINE
  5
BAC3
330
BA63
100
AcDbEntity
  8
4
  6
CENTER
100
AcDbLine
 10
146.6999999999998
 20
348.1752779999998
 30
0.0
 11
146.6999999999998
 21
362.6752779999998
 31
0.0
  0
LINE
  5
BAC4
330
BA63
100
AcDbEntity
  8
4
  6
CENTER
100
AcDbLine
 10
219.45
 20
355.425278
 30
0.0
 11
233.95
 21
355.425278
 31
0.0
  0
LINE
  5
BAC5
330
BA63
100
AcDbEntity
  8
4
  6
CENTER
100
AcDbLine
 10
226.6999999999999
 20
348.1752779999998
 30
0.0
 11
226.6999999999999
 21
362.6752779999998
 31
0.0
  0
LINE
  5
BAC6
330
BA63
100
AcDbEntity
  8
4
  6
CENTER
100
AcDbLine
 10
219.45
 20
319.4252779999998
 30
0.0
 11
233.95
 21
319.4252779999998
 31
0.0
  0
LINE
  5
BAC7
330
BA63
100
AcDbEntity
  8
4
  6
CENTER
100
AcDbLine
 10
226.6999999999999
 20
312.175278
 30
0.0
 11
226.6999999999999
 21
326.675278
 31
0.0
  0
LINE
  5
BAC8
330
BA63
100
AcDbEntity
  8
4
  6
CENTER
100
AcDbLine
 10
139.4499999999998
 20
319.4252779999998
 30
0.0
 11
153.9499999999998
 21
319.4252779999998
 31
0.0
  0
LINE
  5
BAC9
330
BA63
100
AcDbEntity
  8
4
  6
CENTER
100
AcDbLine
 10
146.6999999999998
 20
312.175278
 30
0.0
 11
146.6999999999998
 21
326.675278
 31
0.0
  0
LINE
  5
BACA
330
BA63
100
AcDbEntity
  8
4
  6
CENTER
100
AcDbLine
 10
133.6999999999999
 20
191.062639
 30
0.0
 11
239.6999999999999
 21
191.062639
 31
0.0
  0
LINE
  5
BACB
330
BA63
100
AcDbEntity
  8
4
  6
CENTER
100
AcDbLine
 10
186.6999999999999
 20
138.0626389999999
 30
0.0
 11
186.6999999999999
 21
266.78665
 31
0.0
  0
LINE
  5
BACC
330
BA63
100
AcDbEntity
  8
4
  6
CENTER
100
AcDbLine
 10
146.6999999999998
 20
267.342058
 30
0.0
 11
146.6999999999998
 21
258.4635449999999
 31
0.0
  0
LINE
  5
BACD
330
BA63
100
AcDbEntity
  8
4
  6
CENTER
100
AcDbLine
 10
226.6999999999999
 20
267.342058
 30
0.0
 11
226.6999999999999
 21
258.4635449999999
 31
0.0
  0
LINE
  5
BACE
330
BA63
100
AcDbEntity
  8
1
  6
Continuous
100
AcDbLine
 10
505.1999999999998
 20
264.0626389999998
 30
0.0
 11
408.1999999999998
 21
264.0626389999998
 31
0.0
  0
LINE
  5
BACF
330
BA63
100
AcDbEntity
  8
4
  6
CENTER
100
AcDbLine
 10
509.7
 20
191.062639
 30
0.0
 11
403.6999999999999
 21
191.062639
 31
0.0
  0
LINE
  5
BAD0
330
BA63
100
AcDbEntity
  8
1
  6
Continuous
100
AcDbLine
 10
486.3164089999998
 20
261.0206149999999
 30
0.0
 11
468.350775
 21
188.1887129999999
 31
0.0
  0
LINE
  5
BAD1
330
BA63
100
AcDbEntity
  8
1
  6
Continuous
100
AcDbLine
 10
505.1999999999998
 20
261.7626389999999
 30
0.0
 11
490.2
 21
261.7626389999999
 31
0.0
  0
LINE
  5
BAD2
330
BA63
100
AcDbEntity
  8
1
  6
Continuous
100
AcDbLine
 10
505.1999999999998
 20
264.0626389999998
 30
0.0
 11
505.1999999999998
 21
261.7626389999999
 31
0.0
  0
ARC
  5
BAD3
330
BA63
100
AcDbEntity
  8
1
  6
Continuous
100
AcDbCircle
 10
490.2
 20
257.0383379999999
 30
0.0
 40
4.724301999999998
100
AcDbArc
 50
90.0
 51
166.1433289999999
  0
LINE
  5
BAD4
330
BA63
100
AcDbEntity
  8
4
  6
CENTER
100
AcDbLine
 10
496.6999999999998
 20
267.342058
 30
0.0
 11
496.6999999999998
 21
258.4635449999999
 31
0.0
  0
ARC
  5
BAD5
330
BA63
100
AcDbEntity
  8
1
  6
Continuous
100
AcDbCircle
 10
490.2
 20
260.0626389999998
 30
0.0
 40
4.0
100
AcDbArc
 50
90.0
 51
166.1433289999999
  0
LINE
  5
BAD6
330
BA63
100
AcDbEntity
  8
1
  6
Continuous
100
AcDbLine
 10
427.083592
 20
261.0206149999999
 30
0.0
 11
445.0492259999998
 21
188.1887129999999
 31
0.0
  0
LINE
  5
BAD7
330
BA63
100
AcDbEntity
  8
1
  6
Continuous
100
AcDbLine
 10
451.179558
 20
201.2421709999999
 30
0.0
 11
451.179558
 21
260.2626389999999
 31
0.0
  0
LINE
  5
BAD8
330
BA63
100
AcDbEntity
  8
1
  6
Continuous
100
AcDbLine
 10
462.220442
 20
201.2421709999999
 30
0.0
 11
462.220442
 21
260.2626389999999
 31
0.0
  0
LINE
  5
BAD9
330
BA63
100
AcDbEntity
  8
4
  6
CENTER
100
AcDbLine
 10
456.7
 20
138.0626389999999
 30
0.0
 11
456.7
 21
266.78665
 31
0.0
  0
ARC
  5
BADA
330
BA63
100
AcDbEntity
  8
1
  6
Continuous
100
AcDbCircle
 10
456.7
 20
191.062639
 30
0.0
 40
12.0
100
AcDbArc
 50
193.856671
 51
346.1433289999998
  0
LINE
  5
BADB
330
BA63
100
AcDbEntity
  8
1
  6
Continuous
100
AcDbLine
 10
408.1999999999998
 20
261.7626389999999
 30
0.0
 11
423.2
 21
261.7626389999999
 31
0.0
  0
ARC
  5
BADC
330
BA63
100
AcDbEntity
  8
1
  6
Continuous
100
AcDbCircle
 10
423.2
 20
257.0383379999999
 30
0.0
 40
4.724301999999998
100
AcDbArc
 50
13.856671
 51
90.0
  0
ARC
  5
BADD
330
BA63
100
AcDbEntity
  8
1
  6
Continuous
100
AcDbCircle
 10
423.2
 20
260.0626389999998
 30
0.0
 40
4.0
100
AcDbArc
 50
13.856671
 51
90.0
  0
LINE
  5
BADE
330
BA63
100
AcDbEntity
  8
1
  6
Continuous
100
AcDbLine
 10
408.1999999999998
 20
264.0626389999998
 30
0.0
 11
408.1999999999998
 21
261.7626389999999
 31
0.0
  0
LINE
  5
BADF
330
BA63
100
AcDbEntity
  8
4
  6
CENTER
100
AcDbLine
 10
416.6999999999998
 20
267.342058
 30
0.0
 11
416.6999999999998
 21
258.4635449999999
 31
0.0
  0
ARC
  5
BAE0
330
BA63
100
AcDbEntity
  8
1
  6
Continuous
100
AcDbCircle
 10
124.948359
 20
214.0626389999999
 30
0.0
 40
97.99107800000001
100
AcDbArc
 50
180.0
 51
194.781008
  0
ARC
  5
BAE1
330
BA63
100
AcDbEntity
  8
1
  6
Continuous
100
AcDbCircle
 10
124.948359
 20
214.0626389999999
 30
0.0
 40
95.69107800000001
100
AcDbArc
 50
180.0
 51
194.781008
  0
LINE
  5
BAE2
330
BA63
100
AcDbEntity
  8
1
  6
Continuous
100
AcDbLine
 10
35.95000000000001
 20
179.0626389999999
 30
0.0
 11
35.95000000000001
 21
260.2626389999999
 31
0.0
  0
ARC
  5
BAE3
330
BA63
100
AcDbEntity
  8
1
  6
Continuous
100
AcDbCircle
 10
-21.548359
 20
214.0626389999999
 30
0.0
 40
97.99107800000001
100
AcDbArc
 50
345.218992
 51
0.0
  0
ARC
  5
BAE4
330
BA63
100
AcDbEntity
  8
1
  6
Continuous
100
AcDbCircle
 10
-21.548359
 20
214.0626389999999
 30
0.0
 40
95.69107800000001
100
AcDbArc
 50
345.218992
 51
0.0
  0
LINE
  5
BAE5
330
BA63
100
AcDbEntity
  8
1
  6
Continuous
100
AcDbLine
 10
67.45
 20
179.0626389999999
 30
0.0
 11
67.45
 21
260.2626389999999
 31
0.0
  0
LINE
  5
BAE6
330
BA63
100
AcDbEntity
  8
4
  6
CENTER
100
AcDbLine
 10
51.7
 20
267.0626389999998
 30
0.0
 11
51.7
 21
138.0626389999999
 31
0.0
  0
LINE
  5
BAE7
330
BA63
100
AcDbEntity
  8
4
  6
CENTER
100
AcDbLine
 10
77.30897799999998
 20
191.062639
 30
0.0
 11
22.01726499999999
 21
191.062639
 31
0.0
  0
ARC
  5
BAE8
330
BA63
100
AcDbEntity
  8
1
  6
Continuous
100
AcDbCircle
 10
43.66121999999999
 20
196.8566479999998
 30
0.0
 40
30.549731
100
AcDbArc
 50
331.8520689999999
 51
345.218992
  0
ARC
  5
BAE9
330
BA63
100
AcDbEntity
  8
1
  6
Continuous
100
AcDbCircle
 10
43.66121999999999
 20
196.8566479999998
 30
0.0
 40
28.249731
100
AcDbArc
 50
331.8520689999999
 51
345.218992
  0
ARC
  5
BAEA
330
BA63
100
AcDbEntity
  8
1
  6
Continuous
100
AcDbCircle
 10
76.919444
 20
179.0626389999999
 30
0.0
 40
7.169444
100
AcDbArc
 50
151.852069
 51
180.0
  0
LINE
  5
BAEB
330
BA63
100
AcDbEntity
  8
1
  6
Continuous
100
AcDbLine
 10
67.45
 20
179.0626389999999
 30
0.0
 11
69.75
 21
179.0626389999999
 31
0.0
  0
ARC
  5
BAEC
330
BA63
100
AcDbEntity
  8
1
  6
Continuous
100
AcDbCircle
 10
76.919444
 20
179.0626389999999
 30
0.0
 40
9.469443999999999
100
AcDbArc
 50
151.852069
 51
180.0
  0
ARC
  5
BAED
330
BA63
100
AcDbEntity
  8
1
  6
Continuous
100
AcDbCircle
 10
59.73878
 20
196.8566479999998
 30
0.0
 40
30.549731
100
AcDbArc
 50
194.781008
 51
208.147931
  0
ARC
  5
BAEE
330
BA63
100
AcDbEntity
  8
1
  6
Continuous
100
AcDbCircle
 10
59.73878
 20
196.8566479999998
 30
0.0
 40
28.249731
100
AcDbArc
 50
194.781008
 51
208.147931
  0
LINE
  5
BAEF
330
BA63
100
AcDbEntity
  8
1
  6
Continuous
100
AcDbLine
 10
35.95000000000001
 20
179.0626389999999
 30
0.0
 11
33.65
 21
179.0626389999999
 31
0.0
  0
ARC
  5
BAF0
330
BA63
100
AcDbEntity
  8
1
  6
Continuous
100
AcDbCircle
 10
26.480556
 20
179.0626389999999
 30
0.0
 40
7.169444
100
AcDbArc
 50
0.0
 51
28.147931
  0
ARC
  5
BAF1
330
BA63
100
AcDbEntity
  8
1
  6
Continuous
100
AcDbCircle
 10
26.480556
 20
179.0626389999999
 30
0.0
 40
9.469443999999999
100
AcDbArc
 50
0.0
 51
28.147931
  0
LINE
  5
BAF2
330
BA63
100
AcDbEntity
  8
1
  6
Continuous
100
AcDbLine
 10
26.95727999999999
 20
259.062639
 30
0.0
 11
26.95727999999999
 21
214.0626389999999
 31
0.0
  0
LINE
  5
BAF3
330
BA63
100
AcDbEntity
  8
1
  6
Continuous
100
AcDbLine
 10
29.25727999999999
 20
259.062639
 30
0.0
 11
29.25727999999999
 21
214.0626389999999
 31
0.0
  0
LINE
  5
BAF4
330
BA63
100
AcDbEntity
  8
1
  6
Continuous
100
AcDbLine
 10
76.44271999999998
 20
259.062639
 30
0.0
 11
76.44271999999998
 21
214.0626389999999
 31
0.0
  0
LINE
  5
BAF5
330
BA63
100
AcDbEntity
  8
1
  6
Continuous
100
AcDbLine
 10
74.14271999999998
 20
259.062639
 30
0.0
 11
74.14271999999998
 21
214.0626389999999
 31
0.0
  0
LINE
  5
BAF6
330
BA63
100
AcDbEntity
  8
1
  6
Continuous
100
AcDbLine
 10
78.2
 20
264.0626389999998
 30
0.0
 11
25.2
 21
264.0626389999998
 31
0.0
  0
LINE
  5
BAF7
330
BA63
100
AcDbEntity
  8
1
  6
Continuous
100
AcDbLine
 10
78.2
 20
261.7626389999999
 30
0.0
 11
25.2
 21
261.7626389999999
 31
0.0
  0
ARC
  5
BAF8
330
BA63
100
AcDbEntity
  8
1
  6
Continuous
100
AcDbCircle
 10
71.44271999999998
 20
259.062639
 30
0.0
 40
5.0
100
AcDbArc
 50
0.0
 51
32.683639
  0
ARC
  5
BAF9
330
BA63
100
AcDbEntity
  8
1
  6
Continuous
100
AcDbCircle
 10
71.44271999999998
 20
259.062639
 30
0.0
 40
2.7
100
AcDbArc
 50
0.0
 51
90.0
  0
LINE
  5
BAFA
330
BA63
100
AcDbEntity
  8
1
  6
Continuous
100
AcDbLine
 10
78.2
 20
264.0626389999998
 30
0.0
 11
78.2
 21
261.7626389999999
 31
0.0
  0
ARC
  5
BAFB
330
BA63
100
AcDbEntity
  8
1
  6
Continuous
100
AcDbCircle
 10
65.95
 20
260.2626389999999
 30
0.0
 40
1.5
100
AcDbArc
 50
0.0
 51
90.0
  0
LINE
  5
BAFC
330
BA63
100
AcDbEntity
  8
4
  6
CENTER
100
AcDbLine
 10
69.7
 20
266.5678119999999
 30
0.0
 11
69.7
 21
258.950446
 31
0.0
  0
ARC
  5
BAFD
330
BA63
100
AcDbEntity
  8
1
  6
Continuous
100
AcDbCircle
 10
31.95727999999999
 20
259.062639
 30
0.0
 40
5.0
100
AcDbArc
 50
147.316361
 51
180.0
  0
ARC
  5
BAFE
330
BA63
100
AcDbEntity
  8
1
  6
Continuous
100
AcDbCircle
 10
31.95727999999999
 20
259.062639
 30
0.0
 40
2.7
100
AcDbArc
 50
90.0
 51
180.0
  0
ARC
  5
BAFF
330
BA63
100
AcDbEntity
  8
1
  6
Continuous
100
AcDbCircle
 10
37.45
 20
260.2626389999999
 30
0.0
 40
1.5
100
AcDbArc
 50
90.0
 51
180.0
  0
LINE
  5
BB00
330
BA63
100
AcDbEntity
  8
1
  6
Continuous
100
AcDbLine
 10
25.2
 20
264.0626389999998
 30
0.0
 11
25.2
 21
261.7626389999999
 31
0.0
  0
LINE
  5
BB01
330
BA63
100
AcDbEntity
  8
4
  6
CENTER
100
AcDbLine
 10
33.7
 20
266.5678119999999
 30
0.0
 11
33.7
 21
258.950446
 31
0.0
  0
ARC
  5
BB02
330
BA63
100
AcDbEntity
  8
1
  6
Continuous
100
AcDbCircle
 10
158.0412579999999
 20
78.8009
 30
0.0
 40
35.84362
100
AcDbArc
 50
270.0
 51
302.264873
  0
ARC
  5
BB03
330
BA63
100
AcDbEntity
  8
1
  6
Continuous
100
AcDbCircle
 10
158.0412579999999
 20
56.59909999999999
 30
0.0
 40
35.84362
100
AcDbArc
 50
57.73512700000001
 51
90.0
  0
LINE
  5
BB04
330
BA63
100
AcDbEntity
  8
4
  6
CENTER
100
AcDbLine
 10
133.6999999999999
 20
67.7
 30
0.0
 11
239.6999999999999
 21
67.7
 31
0.0
  0
LINE
  5
BB05
330
BA63
100
AcDbEntity
  8
1
  6
Continuous
100
AcDbLine
 10
138.1999999999998
 20
49.7
 30
0.0
 11
138.1999999999998
 21
59.035161
 31
0.0
  0
LINE
  5
BB06
330
BA63
100
AcDbEntity
  8
4
  6
CENTER
100
AcDbLine
 10
146.6999999999998
 20
92.94999999999999
 30
0.0
 11
146.6999999999998
 21
78.45
 31
0.0
  0
ARC
  5
BB07
330
BA63
100
AcDbEntity
  8
1
  6
Continuous
100
AcDbCircle
 10
146.6999999999998
 20
85.7
 30
0.0
 40
8.5
100
AcDbArc
 50
59.632956
 51
180.0
  0
CIRCLE
  5
BB08
330
BA63
100
AcDbEntity
  8
1
  6
Continuous
100
AcDbCircle
 10
146.6999999999998
 20
85.7
 30
0.0
 40
4.25
  0
LINE
  5
BB09
330
BA63
100
AcDbEntity
  8
1
  6
Continuous
100
AcDbLine
 10
154.3948679999998
 20
91.04298900000001
 30
0.0
 11
150.9970689999998
 21
93.033839
 31
0.0
  0
ARC
  5
BB0A
330
BA63
100
AcDbEntity
  8
1
  6
Continuous
100
AcDbCircle
 10
155.658712
 20
93.2
 30
0.0
 40
2.5
100
AcDbArc
 50
239.6329559999998
 51
342.367408
  0
LINE
  5
BB0B
330
BA63
100
AcDbEntity
  8
4
  6
CENTER
100
AcDbLine
 10
139.4499999999998
 20
85.7
 30
0.0
 11
153.9499999999998
 21
85.7
 31
0.0
  0
ARC
  5
BB0C
330
BA63
100
AcDbEntity
  8
1
  6
Continuous
100
AcDbCircle
 10
155.658712
 20
42.2
 30
0.0
 40
2.5
100
AcDbArc
 50
17.632592
 51
120.3670439999998
  0
ARC
  5
BB0D
330
BA63
100
AcDbEntity
  8
1
  6
Continuous
100
AcDbCircle
 10
146.6999999999998
 20
49.7
 30
0.0
 40
8.5
100
AcDbArc
 50
180.0
 51
300.367044
  0
LINE
  5
BB0E
330
BA63
100
AcDbEntity
  8
4
  6
CENTER
100
AcDbLine
 10
146.6999999999998
 20
56.95
 30
0.0
 11
146.6999999999998
 21
42.45
 31
0.0
  0
LINE
  5
BB0F
330
BA63
100
AcDbEntity
  8
4
  6
CENTER
100
AcDbLine
 10
139.4499999999998
 20
49.7
 30
0.0
 11
153.9499999999998
 21
49.7
 31
0.0
  0
CIRCLE
  5
BB10
330
BA63
100
AcDbEntity
  8
1
  6
Continuous
100
AcDbCircle
 10
146.6999999999998
 20
49.7
 30
0.0
 40
4.25
  0
LINE
  5
BB11
330
BA63
100
AcDbEntity
  8
1
  6
Continuous
100
AcDbLine
 10
154.3948679999998
 20
44.35701199999999
 30
0.0
 11
150.9970689999998
 21
42.36616099999999
 31
0.0
  0
ARC
  5
BB12
330
BA63
100
AcDbEntity
  8
1
  6
Continuous
100
AcDbCircle
 10
226.6999999999999
 20
49.7
 30
0.0
 40
8.5
100
AcDbArc
 50
239.6329559999998
 51
0.0
  0
LINE
  5
BB13
330
BA63
100
AcDbEntity
  8
4
  6
CENTER
100
AcDbLine
 10
219.45
 20
49.7
 30
0.0
 11
233.95
 21
49.7
 31
0.0
  0
ARC
  5
BB14
330
BA63
100
AcDbEntity
  8
1
  6
Continuous
100
AcDbCircle
 10
226.6999999999999
 20
85.7
 30
0.0
 40
8.5
100
AcDbArc
 50
0.0
 51
120.3670439999998
  0
CIRCLE
  5
BB15
330
BA63
100
AcDbEntity
  8
1
  6
Continuous
100
AcDbCircle
 10
226.6999999999999
 20
85.7
 30
0.0
 40
4.25
  0
LINE
  5
BB16
330
BA63
100
AcDbEntity
  8
4
  6
CENTER
100
AcDbLine
 10
219.45
 20
85.7
 30
0.0
 11
233.95
 21
85.7
 31
0.0
  0
CIRCLE
  5
BB17
330
BA63
100
AcDbEntity
  8
1
  6
Continuous
100
AcDbCircle
 10
226.6999999999999
 20
49.7
 30
0.0
 40
4.25
  0
LINE
  5
BB18
330
BA63
100
AcDbEntity
  8
4
  6
CENTER
100
AcDbLine
 10
186.6999999999999
 20
39.25
 30
0.0
 11
186.6999999999999
 21
93.308978
 31
0.0
  0
LINE
  5
BB19
330
BA63
100
AcDbEntity
  8
1
  6
Continuous
100
AcDbLine
 10
192.2204419999999
 20
85.75000000000001
 30
0.0
 11
181.1795579999999
 21
85.75000000000001
 31
0.0
  0
ARC
  5
BB1A
330
BA63
100
AcDbEntity
  8
1
  6
Continuous
100
AcDbCircle
 10
181.1795579999999
 20
93.25000000000001
 30
0.0
 40
7.5
100
AcDbArc
 50
237.735127
 51
270.0
  0
ARC
  5
BB1B
330
BA63
100
AcDbEntity
  8
1
  6
Continuous
100
AcDbCircle
 10
215.358741
 20
56.59909999999999
 30
0.0
 40
35.84362
100
AcDbArc
 50
90.0
 51
122.2648729999998
  0
LINE
  5
BB1C
330
BA63
100
AcDbEntity
  8
1
  6
Continuous
100
AcDbLine
 10
219.005131
 20
91.04298900000001
 30
0.0
 11
222.4029299999999
 21
93.033839
 31
0.0
  0
ARC
  5
BB1D
330
BA63
100
AcDbEntity
  8
1
  6
Continuous
100
AcDbCircle
 10
217.7412879999998
 20
93.2
 30
0.0
 40
2.5
100
AcDbArc
 50
197.6325919999999
 51
300.367044
  0
ARC
  5
BB1E
330
BA63
100
AcDbEntity
  8
1
  6
Continuous
100
AcDbCircle
 10
192.2204419999999
 20
93.25000000000001
 30
0.0
 40
7.5
100
AcDbArc
 50
270.0
 51
302.264873
  0
LINE
  5
BB1F
330
BA63
100
AcDbEntity
  8
1
  6
Continuous
100
AcDbLine
 10
192.2204419999999
 20
49.64999999999999
 30
0.0
 11
181.1795579999999
 21
49.64999999999999
 31
0.0
  0
ARC
  5
BB20
330
BA63
100
AcDbEntity
  8
1
  6
Continuous
100
AcDbCircle
 10
181.1795579999999
 20
42.14999999999998
 30
0.0
 40
7.5
100
AcDbArc
 50
90.0
 51
122.2648729999998
  0
ARC
  5
BB21
330
BA63
100
AcDbEntity
  8
1
  6
Continuous
100
AcDbCircle
 10
217.7412879999998
 20
42.2
 30
0.0
 40
2.5
100
AcDbArc
 50
59.632956
 51
162.367408
  0
ARC
  5
BB22
330
BA63
100
AcDbEntity
  8
1
  6
Continuous
100
AcDbCircle
 10
215.358741
 20
78.8009
 30
0.0
 40
35.84362
100
AcDbArc
 50
237.735127
 51
270.0
  0
ARC
  5
BB23
330
BA63
100
AcDbEntity
  8
1
  6
Continuous
100
AcDbCircle
 10
192.2204419999999
 20
42.14999999999998
 30
0.0
 40
7.5
100
AcDbArc
 50
57.73512700000001
 51
90.0
  0
LINE
  5
BB24
330
BA63
100
AcDbEntity
  8
1
  6
Continuous
100
AcDbLine
 10
219.005131
 20
44.35701199999999
 30
0.0
 11
222.4029299999999
 21
42.36616099999999
 31
0.0
  0
LINE
  5
BB25
330
BA63
100
AcDbEntity
  8
1
  6
Continuous
100
AcDbLine
 10
235.1999999999999
 20
49.7
 30
0.0
 11
235.1999999999999
 21
59.035161
 31
0.0
  0
LINE
  5
BB26
330
BA63
100
AcDbEntity
  8
4
  6
CENTER
100
AcDbLine
 10
226.6999999999999
 20
92.94999999999999
 30
0.0
 11
226.6999999999999
 21
78.45
 31
0.0
  0
LINE
  5
BB27
330
BA63
100
AcDbEntity
  8
4
  6
CENTER
100
AcDbLine
 10
226.6999999999999
 20
56.95
 30
0.0
 11
226.6999999999999
 21
42.45
 31
0.0
  0
CIRCLE
  5
BB28
330
BA63
100
AcDbEntity
  8
1
  6
Continuous
100
AcDbCircle
 10
456.7
 20
191.062639
 30
0.0
 40
4.0
  0
CIRCLE
  5
BB29
330
BA63
100
AcDbEntity
  8
2
  6
Continuous
100
AcDbCircle
 10
456.7
 20
191.062639
 30
0.0
 40
3.3235
  0
CIRCLE
  5
BB2A
330
BA63
100
AcDbEntity
  8
1
  6
Continuous
100
AcDbCircle
 10
456.7
 20
191.062639
 30
0.0
 40
7.7
  0
LINE
  5
BB2B
330
BA63
100
AcDbEntity
  8
1
  6
Continuous
100
AcDbLine
 10
235.1999999999999
 20
76.364839
 30
0.0
 11
235.1999999999999
 21
85.7
 31
0.0
  0
LINE
  5
BB2C
330
BA63
100
AcDbEntity
  8
1
  6
Continuous
100
AcDbLine
 10
138.1999999999998
 20
76.364839
 30
0.0
 11
138.1999999999998
 21
85.7
 31
0.0
  0
LINE
  5
BB2D
330
BA63
100
AcDbEntity
  8
1
  6
Continuous
100
AcDbLine
 10
192.2204419999999
 20
83.45
 30
0.0
 11
181.1795579999999
 21
83.45
 31
0.0
  0
ARC
  5
BB2E
330
BA63
100
AcDbEntity
  8
1
  6
Continuous
100
AcDbCircle
 10
218.0450879999999
 20
50.878586
 30
0.0
 40
39.822573
100
AcDbArc
 50
90.43710500000001
 51
121.1393049999999
  0
ARC
  5
BB2F
330
BA63
100
AcDbEntity
  8
1
  6
Continuous
100
AcDbCircle
 10
192.2204419999999
 20
93.25000000000001
 30
0.0
 40
9.8
100
AcDbArc
 50
270.0
 51
302.264873
  0
ARC
  5
BB30
330
BA63
100
AcDbEntity
  8
1
  6
Continuous
100
AcDbCircle
 10
181.1795579999999
 20
93.25000000000001
 30
0.0
 40
9.8
100
AcDbArc
 50
237.735127
 51
270.0
  0
ARC
  5
BB31
330
BA63
100
AcDbEntity
  8
1
  6
Continuous
100
AcDbCircle
 10
155.1587519999999
 20
50.18482999999999
 30
0.0
 40
40.51825499999997
100
AcDbArc
 50
59.130587
 51
89.293002
  0
ARC
  5
BB32
330
BA63
100
AcDbEntity
  8
1
  6
Continuous
100
AcDbCircle
 10
218.0450879999999
 20
84.52141399999998
 30
0.0
 40
39.822573
100
AcDbArc
 50
238.8606949999999
 51
269.562895
  0
ARC
  5
BB33
330
BA63
100
AcDbEntity
  8
1
  6
Continuous
100
AcDbCircle
 10
192.2204419999999
 20
42.14999999999998
 30
0.0
 40
9.8
100
AcDbArc
 50
57.73512700000001
 51
90.0
  0
LINE
  5
BB34
330
BA63
100
AcDbEntity
  8
1
  6
Continuous
100
AcDbLine
 10
192.2204419999999
 20
51.95
 30
0.0
 11
181.1795579999999
 21
51.95
 31
0.0
  0
ARC
  5
BB35
330
BA63
100
AcDbEntity
  8
1
  6
Continuous
100
AcDbCircle
 10
181.1795579999999
 20
42.14999999999998
 30
0.0
 40
9.8
100
AcDbArc
 50
90.0
 51
122.2648729999998
  0
ARC
  5
BB36
330
BA63
100
AcDbEntity
  8
1
  6
Continuous
100
AcDbCircle
 10
155.1587519999999
 20
85.21517000000001
 30
0.0
 40
40.51825499999997
100
AcDbArc
 50
270.7069979999999
 51
300.869413
  0
LINE
  5
BB37
330
BA63
100
AcDbEntity
  8
1
  6
Continuous
100
AcDbLine
 10
450.6999999999998
 20
194.5267409999999
 30
0.0
 11
450.6999999999998
 21
187.598537
 31
0.0
  0
LINE
  5
BB38
330
BA63
100
AcDbEntity
  8
1
  6
Continuous
100
AcDbLine
 10
462.6999999999998
 20
194.5267409999999
 30
0.0
 11
462.6999999999998
 21
187.598537
 31
0.0
  0
CIRCLE
  5
BB39
330
BA63
100
AcDbEntity
  8
1
  6
Continuous
100
AcDbCircle
 10
456.7
 20
191.062639
 30
0.0
 40
6.0
  0
LINE
  5
BB3A
330
BA63
100
AcDbEntity
  8
1
  6
Continuous
100
AcDbLine
 10
456.7
 20
184.1344359999999
 30
0.0
 11
462.6999999999998
 21
187.598537
 31
0.0
  0
LINE
  5
BB3B
330
BA63
100
AcDbEntity
  8
1
  6
Continuous
100
AcDbLine
 10
456.7
 20
184.1344359999999
 30
0.0
 11
450.6999999999998
 21
187.598537
 31
0.0
  0
LINE
  5
BB3C
330
BA63
100
AcDbEntity
  8
1
  6
Continuous
100
AcDbLine
 10
462.6999999999998
 20
194.5267409999999
 30
0.0
 11
456.7
 21
197.9908419999999
 31
0.0
  0
LINE
  5
BB3D
330
BA63
100
AcDbEntity
  8
1
  6
Continuous
100
AcDbLine
 10
450.6999999999998
 20
194.5267409999999
 30
0.0
 11
456.7
 21
197.9908419999999
 31
0.0
  0
ARC
  5
BB3E
330
BA63
100
AcDbEntity
  8
1
  6
Continuous
100
AcDbCircle
 10
183.6999999999999
 20
353.8102139999999
 30
0.0
 40
8.665063999999999
100
AcDbArc
 50
69.743842
 51
110.256158
  0
ARC
  5
BB3F
330
BA63
100
AcDbEntity
  8
1
  6
Continuous
100
AcDbCircle
 10
183.6999999999999
 20
366.1403419999999
 30
0.0
 40
8.665063999999999
100
AcDbArc
 50
249.7438419999999
 51
290.256158
  0
LINE
  5
BB40
330
BA63
100
AcDbEntity
  8
1
  6
Continuous
100
AcDbLine
 10
192.6999999999999
 20
362.475278
 30
0.0
 11
180.7
 21
362.475278
 31
0.0
  0
LINE
  5
BB41
330
BA63
100
AcDbEntity
  8
1
  6
Continuous
100
AcDbLine
 10
194.4
 20
357.475278
 30
0.0
 11
179.0
 21
357.475278
 31
0.0
  0
LINE
  5
BB42
330
BA63
100
AcDbEntity
  8
1
  6
Continuous
100
AcDbLine
 10
180.7
 20
357.475278
 30
0.0
 11
180.7
 21
362.475278
 31
0.0
  0
ARC
  5
BB43
330
BA63
100
AcDbEntity
  8
1
  6
Continuous
100
AcDbCircle
 10
189.7
 20
353.8102139999999
 30
0.0
 40
8.665063999999999
100
AcDbArc
 50
69.743842
 51
110.256158
  0
ARC
  5
BB44
330
BA63
100
AcDbEntity
  8
1
  6
Continuous
100
AcDbCircle
 10
189.7
 20
366.1403419999999
 30
0.0
 40
8.665063999999999
100
AcDbArc
 50
249.7438419999999
 51
290.256158
  0
LINE
  5
BB45
330
BA63
100
AcDbEntity
  8
1
  6
Continuous
100
AcDbLine
 10
192.6999999999999
 20
357.475278
 30
0.0
 11
192.6999999999999
 21
362.475278
 31
0.0
  0
LINE
  5
BB46
330
BA63
100
AcDbEntity
  8
1
  6
Continuous
100
AcDbLine
 10
186.6999999999999
 20
361.9393799999999
 30
0.0
 11
186.6999999999999
 21
358.0111759999998
 31
0.0
  0
LINE
  5
BB47
330
BA63
100
AcDbEntity
  8
1
  6
Continuous
100
AcDbLine
 10
184.6999999999999
 20
357.475278
 30
0.0
 11
186.6999999999999
 21
355.475278
 31
0.0
  0
LINE
  5
BB48
330
BA63
100
AcDbEntity
  8
1
  6
Continuous
100
AcDbLine
 10
186.6999999999999
 20
357.475278
 30
0.0
 11
188.7
 21
355.475278
 31
0.0
  0
ARC
  5
BB49
330
BA63
100
AcDbEntity
  8
1
  6
Continuous
100
AcDbCircle
 10
186.6999999999999
 20
324.8752779999999
 30
0.0
 40
10.5
100
AcDbArc
 50
228.1896849999998
 51
311.810315
  0
LINE
  5
BB4A
330
BA63
100
AcDbEntity
  8
1
  6
Continuous
100
AcDbLine
 10
193.6999999999999
 20
317.0490399999998
 30
0.0
 11
179.6999999999999
 21
317.0490399999998
 31
0.0
  0
LINE
  5
BB4B
330
BA63
100
AcDbEntity
  8
1
  6
Continuous
100
AcDbLine
 10
179.6999999999999
 20
317.0490399999998
 30
0.0
 11
179.6999999999999
 21
319.22789
 31
0.0
  0
LINE
  5
BB4C
330
BA63
100
AcDbEntity
  8
1
  6
Continuous
100
AcDbLine
 10
193.6999999999999
 20
317.0490399999998
 30
0.0
 11
193.6999999999999
 21
319.22789
 31
0.0
  0
LINE
  5
BB4D
330
BA63
100
AcDbEntity
  8
1
  6
Continuous
100
AcDbLine
 10
72.076238
 20
185.6373419999999
 30
0.0
 11
72.076238
 21
184.0626389999999
 31
0.0
  0
ARC
  5
BB4E
330
BA63
100
AcDbEntity
  8
1
  6
Continuous
100
AcDbCircle
 10
64.25
 20
191.062639
 30
0.0
 40
10.5
100
AcDbArc
 50
318.189685
 51
15.832185
  0
LINE
  5
BB4F
330
BA63
100
AcDbEntity
  8
1
  6
Continuous
100
AcDbLine
 10
72.076238
 20
184.0626389999999
 30
0.0
 11
71.40287499999998
 21
184.0626389999999
 31
0.0
  0
LINE
  5
BB50
330
BA63
100
AcDbEntity
  8
1
  6
Continuous
100
AcDbLine
 10
31.65
 20
184.843884
 30
0.0
 11
31.65
 21
183.362639
 31
0.0
  0
LINE
  5
BB51
330
BA63
100
AcDbEntity
  8
1
  6
Continuous
100
AcDbLine
 10
26.65
 20
187.0626389999999
 30
0.0
 11
25.85
 21
187.0626389999999
 31
0.0
  0
LINE
  5
BB52
330
BA63
100
AcDbEntity
  8
2
  6
Continuous
100
AcDbLine
 10
26.65
 20
187.7391389999999
 30
0.0
 11
25.25
 21
187.7391389999999
 31
0.0
  0
LINE
  5
BB53
330
BA63
100
AcDbEntity
  8
2
  6
Continuous
100
AcDbLine
 10
26.65
 20
194.386139
 30
0.0
 11
25.25
 21
194.386139
 31
0.0
  0
LINE
  5
BB54
330
BA63
100
AcDbEntity
  8
1
  6
Continuous
100
AcDbLine
 10
26.65
 20
195.062639
 30
0.0
 11
25.85
 21
195.062639
 31
0.0
  0
LINE
  5
BB55
330
BA63
100
AcDbEntity
  8
1
  6
Continuous
100
AcDbLine
 10
25.25
 20
194.4626389999999
 30
0.0
 11
25.85
 21
195.062639
 31
0.0
  0
LINE
  5
BB56
330
BA63
100
AcDbEntity
  8
1
  6
Continuous
100
AcDbLine
 10
25.25
 20
187.662639
 30
0.0
 11
25.85
 21
187.0626389999999
 31
0.0
  0
LINE
  5
BB57
330
BA63
100
AcDbEntity
  8
1
  6
Continuous
100
AcDbLine
 10
25.85
 20
187.0626389999999
 30
0.0
 11
25.85
 21
195.062639
 31
0.0
  0
LINE
  5
BB58
330
BA63
100
AcDbEntity
  8
1
  6
Continuous
100
AcDbLine
 10
25.25
 20
194.4626389999999
 30
0.0
 11
25.25
 21
187.662639
 31
0.0
  0
LINE
  5
BB59
330
BA63
100
AcDbEntity
  8
1
  6
Continuous
100
AcDbLine
 10
32.33079199999998
 20
183.362639
 30
0.0
 11
31.65
 21
183.362639
 31
0.0
  0
LINE
  5
BB5A
330
BA63
100
AcDbEntity
  8
1
  6
Continuous
100
AcDbLine
 10
26.65
 20
185.062639
 30
0.0
 11
26.65
 21
197.0626389999999
 31
0.0
  0
ARC
  5
BB5B
330
BA63
100
AcDbEntity
  8
1
  6
Continuous
100
AcDbCircle
 10
38.114102
 20
191.062639
 30
0.0
 40
11.464102
100
AcDbArc
 50
162.412046
 51
197.5879539999999
  0
LINE
  5
BB5C
330
BA63
100
AcDbEntity
  8
1
  6
Continuous
100
AcDbLine
 10
27.185898
 20
197.9908419999999
 30
0.0
 11
26.65
 21
197.0626389999999
 31
0.0
  0
LINE
  5
BB5D
330
BA63
100
AcDbEntity
  8
1
  6
Continuous
100
AcDbLine
 10
28.284256
 20
197.9908419999999
 30
0.0
 11
27.185898
 21
197.9908419999999
 31
0.0
  0
LINE
  5
BB5E
330
BA63
100
AcDbEntity
  8
1
  6
Continuous
100
AcDbLine
 10
28.924403
 20
194.5267409999999
 30
0.0
 11
27.185898
 21
194.5267409999999
 31
0.0
  0
ARC
  5
BB5F
330
BA63
100
AcDbEntity
  8
1
  6
Continuous
100
AcDbCircle
 10
29.716987
 20
196.258791
 30
0.0
 40
3.066986999999998
100
AcDbArc
 50
154.3842469999999
 51
214.384247
  0
ARC
  5
BB60
330
BA63
100
AcDbEntity
  8
1
  6
Continuous
100
AcDbCircle
 10
29.716987
 20
185.866487
 30
0.0
 40
3.066986999999998
100
AcDbArc
 50
145.615753
 51
205.615753
  0
ARC
  5
BB61
330
BA63
100
AcDbEntity
  8
1
  6
Continuous
100
AcDbCircle
 10
28.583013
 20
185.866487
 30
0.0
 40
3.066986999999998
100
AcDbArc
 50
334.384247
 51
345.2190759999999
  0
LINE
  5
BB62
330
BA63
100
AcDbEntity
  8
1
  6
Continuous
100
AcDbLine
 10
30.625665
 20
187.598537
 30
0.0
 11
27.185898
 21
187.598537
 31
0.0
  0
LINE
  5
BB63
330
BA63
100
AcDbEntity
  8
1
  6
Continuous
100
AcDbLine
 10
31.11410199999999
 20
184.1344359999999
 30
0.0
 11
27.185898
 21
184.1344359999999
 31
0.0
  0
LINE
  5
BB64
330
BA63
100
AcDbEntity
  8
1
  6
Continuous
100
AcDbLine
 10
31.11410199999999
 20
184.1344359999999
 30
0.0
 11
31.65
 21
185.062639
 31
0.0
  0
LINE
  5
BB65
330
BA63
100
AcDbEntity
  8
1
  6
Continuous
100
AcDbLine
 10
27.185898
 20
184.1344359999999
 30
0.0
 11
26.65
 21
185.062639
 31
0.0
  0
LINE
  5
BB66
330
BA63
100
AcDbEntity
  8
4
  6
CENTER
100
AcDbLine
 10
321.7
 20
267.0626389999998
 30
0.0
 11
321.7
 21
138.0626389999999
 31
0.0
  0
LINE
  5
BB67
330
BA63
100
AcDbEntity
  8
4
  6
CENTER
100
AcDbLine
 10
339.6999999999998
 20
266.5678119999999
 30
0.0
 11
339.6999999999998
 21
258.950446
 31
0.0
  0
LINE
  5
BB68
330
BA63
100
AcDbEntity
  8
1
  6
Continuous
100
AcDbLine
 10
348.1999999999999
 20
264.0626389999998
 30
0.0
 11
348.1999999999999
 21
261.7626389999999
 31
0.0
  0
LINE
  5
BB69
330
BA63
100
AcDbEntity
  8
4
  6
CENTER
100
AcDbLine
 10
303.6999999999999
 20
266.5678119999999
 30
0.0
 11
303.6999999999999
 21
258.950446
 31
0.0
  0
LINE
  5
BB6A
330
BA63
100
AcDbEntity
  8
1
  6
Continuous
100
AcDbLine
 10
295.1999999999998
 20
264.0626389999998
 30
0.0
 11
295.1999999999998
 21
261.7626389999999
 31
0.0
  0
LINE
  5
BB6B
330
BA63
100
AcDbEntity
  8
4
  6
CENTER
100
AcDbLine
 10
296.091022
 20
191.062639
 30
0.0
 11
351.3827350000001
 21
191.062639
 31
0.0
  0
LINE
  5
BB6C
330
BA63
100
AcDbEntity
  8
1
  6
Continuous
100
AcDbLine
 10
295.1999999999998
 20
261.7626389999999
 30
0.0
 11
348.1999999999999
 21
261.7626389999999
 31
0.0
  0
LINE
  5
BB6D
330
BA63
100
AcDbEntity
  8
1
  6
Continuous
100
AcDbLine
 10
344.14272
 20
259.062639
 30
0.0
 11
344.14272
 21
214.0626389999999
 31
0.0
  0
LINE
  5
BB6E
330
BA63
100
AcDbEntity
  8
1
  6
Continuous
100
AcDbLine
 10
346.44272
 20
259.062639
 30
0.0
 11
346.44272
 21
214.0626389999999
 31
0.0
  0
LINE
  5
BB6F
330
BA63
100
AcDbEntity
  8
1
  6
Continuous
100
AcDbLine
 10
337.4499999999998
 20
179.0626389999999
 30
0.0
 11
337.4499999999998
 21
260.2626389999999
 31
0.0
  0
LINE
  5
BB70
330
BA63
100
AcDbEntity
  8
1
  6
Continuous
100
AcDbLine
 10
341.069208
 20
183.362639
 30
0.0
 11
341.7499999999999
 21
183.362639
 31
0.0
  0
ARC
  5
BB71
330
BA63
100
AcDbEntity
  8
1
  6
Continuous
100
AcDbCircle
 10
313.66122
 20
196.8566479999998
 30
0.0
 40
30.549731
100
AcDbArc
 50
331.8520689999999
 51
345.218992
  0
ARC
  5
BB72
330
BA63
100
AcDbEntity
  8
1
  6
Continuous
100
AcDbCircle
 10
248.451641
 20
214.0626389999999
 30
0.0
 40
95.69107800000001
100
AcDbArc
 50
345.218992
 51
0.0
  0
ARC
  5
BB73
330
BA63
100
AcDbEntity
  8
1
  6
Continuous
100
AcDbCircle
 10
248.451641
 20
214.0626389999999
 30
0.0
 40
97.99107800000001
100
AcDbArc
 50
345.218992
 51
0.0
  0
LINE
  5
BB74
330
BA63
100
AcDbEntity
  8
1
  6
Continuous
100
AcDbLine
 10
345.115744
 20
197.9908419999999
 30
0.0
 11
346.214102
 21
197.9908419999999
 31
0.0
  0
LINE
  5
BB75
330
BA63
100
AcDbEntity
  8
1
  6
Continuous
100
AcDbLine
 10
344.475597
 20
194.5267409999999
 30
0.0
 11
346.214102
 21
194.5267409999999
 31
0.0
  0
LINE
  5
BB76
330
BA63
100
AcDbEntity
  8
1
  6
Continuous
100
AcDbLine
 10
342.774335
 20
187.598537
 30
0.0
 11
346.214102
 21
187.598537
 31
0.0
  0
ARC
  5
BB77
330
BA63
100
AcDbEntity
  8
1
  6
Continuous
100
AcDbCircle
 10
344.816987
 20
185.866487
 30
0.0
 40
3.066986999999998
100
AcDbArc
 50
194.7809239999999
 51
205.615753
  0
LINE
  5
BB78
330
BA63
100
AcDbEntity
  8
1
  6
Continuous
100
AcDbLine
 10
346.214102
 20
184.1344359999999
 30
0.0
 11
346.75
 21
185.062639
 31
0.0
  0
LINE
  5
BB79
330
BA63
100
AcDbEntity
  8
1
  6
Continuous
100
AcDbLine
 10
342.2858979999999
 20
184.1344359999999
 30
0.0
 11
341.7499999999999
 21
185.062639
 31
0.0
  0
LINE
  5
BB7A
330
BA63
100
AcDbEntity
  8
1
  6
Continuous
100
AcDbLine
 10
342.2858979999999
 20
184.1344359999999
 30
0.0
 11
346.214102
 21
184.1344359999999
 31
0.0
  0
ARC
  5
BB7B
330
BA63
100
AcDbEntity
  8
1
  6
Continuous
100
AcDbCircle
 10
343.683013
 20
185.866487
 30
0.0
 40
3.066986999999998
100
AcDbArc
 50
334.384247
 51
34.38424699999998
  0
ARC
  5
BB7C
330
BA63
100
AcDbEntity
  8
1
  6
Continuous
100
AcDbCircle
 10
343.683013
 20
196.258791
 30
0.0
 40
3.066986999999998
100
AcDbArc
 50
325.6157529999999
 51
25.615753
  0
LINE
  5
BB7D
330
BA63
100
AcDbEntity
  8
1
  6
Continuous
100
AcDbLine
 10
346.214102
 20
197.9908419999999
 30
0.0
 11
346.75
 21
197.0626389999999
 31
0.0
  0
ARC
  5
BB7E
330
BA63
100
AcDbEntity
  8
1
  6
Continuous
100
AcDbCircle
 10
335.2858979999999
 20
191.062639
 30
0.0
 40
11.464102
100
AcDbArc
 50
342.4120459999999
 51
17.587954
  0
LINE
  5
BB7F
330
BA63
100
AcDbEntity
  8
1
  6
Continuous
100
AcDbLine
 10
346.75
 20
185.062639
 30
0.0
 11
346.75
 21
197.0626389999999
 31
0.0
  0
LINE
  5
BB80
330
BA63
100
AcDbEntity
  8
1
  6
Continuous
100
AcDbLine
 10
341.7499999999999
 20
184.843884
 30
0.0
 11
341.7499999999999
 21
183.362639
 31
0.0
  0
LINE
  5
BB81
330
BA63
100
AcDbEntity
  8
1
  6
Continuous
100
AcDbLine
 10
346.75
 20
187.0626389999999
 30
0.0
 11
347.55
 21
187.0626389999999
 31
0.0
  0
LINE
  5
BB82
330
BA63
100
AcDbEntity
  8
2
  6
Continuous
100
AcDbLine
 10
346.75
 20
187.7391389999999
 30
0.0
 11
348.15
 21
187.7391389999999
 31
0.0
  0
LINE
  5
BB83
330
BA63
100
AcDbEntity
  8
1
  6
Continuous
100
AcDbLine
 10
348.15
 20
187.662639
 30
0.0
 11
347.55
 21
187.0626389999999
 31
0.0
  0
LINE
  5
BB84
330
BA63
100
AcDbEntity
  8
2
  6
Continuous
100
AcDbLine
 10
346.75
 20
194.386139
 30
0.0
 11
348.15
 21
194.386139
 31
0.0
  0
LINE
  5
BB85
330
BA63
100
AcDbEntity
  8
1
  6
Continuous
100
AcDbLine
 10
346.75
 20
195.062639
 30
0.0
 11
347.55
 21
195.062639
 31
0.0
  0
LINE
  5
BB86
330
BA63
100
AcDbEntity
  8
1
  6
Continuous
100
AcDbLine
 10
348.15
 20
194.4626389999999
 30
0.0
 11
347.55
 21
195.062639
 31
0.0
  0
LINE
  5
BB87
330
BA63
100
AcDbEntity
  8
1
  6
Continuous
100
AcDbLine
 10
347.55
 20
187.0626389999999
 30
0.0
 11
347.55
 21
195.062639
 31
0.0
  0
LINE
  5
BB88
330
BA63
100
AcDbEntity
  8
1
  6
Continuous
100
AcDbLine
 10
348.15
 20
194.4626389999999
 30
0.0
 11
348.15
 21
187.662639
 31
0.0
  0
ARC
  5
BB89
330
BA63
100
AcDbEntity
  8
1
  6
Continuous
100
AcDbCircle
 10
346.9194439999998
 20
179.0626389999999
 30
0.0
 40
9.469443999999999
100
AcDbArc
 50
151.852069
 51
180.0
  0
ARC
  5
BB8A
330
BA63
100
AcDbEntity
  8
1
  6
Continuous
100
AcDbCircle
 10
346.9194439999998
 20
179.0626389999999
 30
0.0
 40
7.169444
100
AcDbArc
 50
151.852069
 51
180.0
  0
LINE
  5
BB8B
330
BA63
100
AcDbEntity
  8
1
  6
Continuous
100
AcDbLine
 10
337.4499999999998
 20
179.0626389999999
 30
0.0
 11
339.7499999999999
 21
179.0626389999999
 31
0.0
  0
ARC
  5
BB8C
330
BA63
100
AcDbEntity
  8
1
  6
Continuous
100
AcDbCircle
 10
313.66122
 20
196.8566479999998
 30
0.0
 40
28.249731
100
AcDbArc
 50
331.8520689999999
 51
345.218992
  0
ARC
  5
BB8D
330
BA63
100
AcDbEntity
  8
1
  6
Continuous
100
AcDbCircle
 10
341.4427199999999
 20
259.062639
 30
0.0
 40
2.7
100
AcDbArc
 50
0.0
 51
90.0
  0
ARC
  5
BB8E
330
BA63
100
AcDbEntity
  8
1
  6
Continuous
100
AcDbCircle
 10
341.4427199999999
 20
259.062639
 30
0.0
 40
5.0
100
AcDbArc
 50
0.0
 51
32.683639
  0
ARC
  5
BB8F
330
BA63
100
AcDbEntity
  8
1
  6
Continuous
100
AcDbCircle
 10
335.95
 20
260.2626389999999
 30
0.0
 40
1.5
100
AcDbArc
 50
0.0
 51
90.0
  0
LINE
  5
BB90
330
BA63
100
AcDbEntity
  8
1
  6
Continuous
100
AcDbLine
 10
299.2572799999999
 20
259.062639
 30
0.0
 11
299.2572799999999
 21
214.0626389999999
 31
0.0
  0
LINE
  5
BB91
330
BA63
100
AcDbEntity
  8
1
  6
Continuous
100
AcDbLine
 10
296.9572799999999
 20
259.062639
 30
0.0
 11
296.9572799999999
 21
214.0626389999999
 31
0.0
  0
LINE
  5
BB92
330
BA63
100
AcDbEntity
  8
1
  6
Continuous
100
AcDbLine
 10
305.9499999999998
 20
179.0626389999999
 30
0.0
 11
305.9499999999998
 21
260.2626389999999
 31
0.0
  0
ARC
  5
BB93
330
BA63
100
AcDbEntity
  8
1
  6
Continuous
100
AcDbCircle
 10
394.9483589999999
 20
214.0626389999999
 30
0.0
 40
95.69107800000001
100
AcDbArc
 50
180.0
 51
194.781008
  0
ARC
  5
BB94
330
BA63
100
AcDbEntity
  8
1
  6
Continuous
100
AcDbCircle
 10
394.9483589999999
 20
214.0626389999999
 30
0.0
 40
97.99107800000001
100
AcDbArc
 50
180.0
 51
194.781008
  0
LINE
  5
BB95
330
BA63
100
AcDbEntity
  8
1
  6
Continuous
100
AcDbLine
 10
301.3237619999998
 20
184.0626389999999
 30
0.0
 11
301.9971249999999
 21
184.0626389999999
 31
0.0
  0
LINE
  5
BB96
330
BA63
100
AcDbEntity
  8
1
  6
Continuous
100
AcDbLine
 10
301.3237619999998
 20
185.6373419999999
 30
0.0
 11
301.3237619999998
 21
184.0626389999999
 31
0.0
  0
ARC
  5
BB97
330
BA63
100
AcDbEntity
  8
1
  6
Continuous
100
AcDbCircle
 10
309.1499999999999
 20
191.062639
 30
0.0
 40
10.5
100
AcDbArc
 50
164.1678149999999
 51
221.810315
  0
ARC
  5
BB98
330
BA63
100
AcDbEntity
  8
1
  6
Continuous
100
AcDbCircle
 10
296.4805559999998
 20
179.0626389999999
 30
0.0
 40
9.469443999999999
100
AcDbArc
 50
0.0
 51
28.147931
  0
LINE
  5
BB99
330
BA63
100
AcDbEntity
  8
1
  6
Continuous
100
AcDbLine
 10
305.9499999999998
 20
179.0626389999999
 30
0.0
 11
303.6499999999999
 21
179.0626389999999
 31
0.0
  0
ARC
  5
BB9A
330
BA63
100
AcDbEntity
  8
1
  6
Continuous
100
AcDbCircle
 10
296.4805559999998
 20
179.0626389999999
 30
0.0
 40
7.169444
100
AcDbArc
 50
0.0
 51
28.147931
  0
ARC
  5
BB9B
330
BA63
100
AcDbEntity
  8
1
  6
Continuous
100
AcDbCircle
 10
329.7387799999999
 20
196.8566479999998
 30
0.0
 40
28.249731
100
AcDbArc
 50
194.781008
 51
208.147931
  0
ARC
  5
BB9C
330
BA63
100
AcDbEntity
  8
1
  6
Continuous
100
AcDbCircle
 10
329.7387799999999
 20
196.8566479999998
 30
0.0
 40
30.549731
100
AcDbArc
 50
194.781008
 51
208.147931
  0
ARC
  5
BB9D
330
BA63
100
AcDbEntity
  8
1
  6
Continuous
100
AcDbCircle
 10
307.45
 20
260.2626389999999
 30
0.0
 40
1.5
100
AcDbArc
 50
90.0
 51
180.0
  0
ARC
  5
BB9E
330
BA63
100
AcDbEntity
  8
1
  6
Continuous
100
AcDbCircle
 10
301.9572799999999
 20
259.062639
 30
0.0
 40
2.7
100
AcDbArc
 50
90.0
 51
180.0
  0
ARC
  5
BB9F
330
BA63
100
AcDbEntity
  8
1
  6
Continuous
100
AcDbCircle
 10
301.9572799999999
 20
259.062639
 30
0.0
 40
5.0
100
AcDbArc
 50
147.316361
 51
180.0
  0
LINE
  5
BBA0
330
BA63
100
AcDbEntity
  8
1
  6
Continuous
100
AcDbLine
 10
295.1999999999998
 20
264.0626389999998
 30
0.0
 11
348.1999999999999
 21
264.0626389999998
 31
0.0
  0
LINE
  5
BBA1
330
BA63
100
AcDbEntity
  8
1
  6
Continuous
100
AcDbLine
 10
193.6999999999999
 20
88.076238
 30
0.0
 11
179.6999999999999
 21
88.076238
 31
0.0
  0
ARC
  5
BBA2
330
BA63
100
AcDbEntity
  8
1
  6
Continuous
100
AcDbCircle
 10
186.6999999999999
 20
80.25
 30
0.0
 40
10.5
100
AcDbArc
 50
48.189685
 51
131.810315
  0
LINE
  5
BBA3
330
BA63
100
AcDbEntity
  8
1
  6
Continuous
100
AcDbLine
 10
179.6999999999999
 20
88.076238
 30
0.0
 11
179.6999999999999
 21
85.89738800000002
 31
0.0
  0
LINE
  5
BBA4
330
BA63
100
AcDbEntity
  8
1
  6
Continuous
100
AcDbLine
 10
193.6999999999999
 20
88.076238
 30
0.0
 11
193.6999999999999
 21
85.89738800000002
 31
0.0
  0
ARC
  5
BBA5
330
BA63
100
AcDbEntity
  8
1
  6
Continuous
100
AcDbCircle
 10
189.7
 20
38.984936
 30
0.0
 40
8.665063999999999
100
AcDbArc
 50
69.743842
 51
110.256158
  0
ARC
  5
BBA6
330
BA63
100
AcDbEntity
  8
1
  6
Continuous
100
AcDbCircle
 10
189.7
 20
51.315064
 30
0.0
 40
8.665063999999999
100
AcDbArc
 50
249.7438419999999
 51
290.256158
  0
LINE
  5
BBA7
330
BA63
100
AcDbEntity
  8
1
  6
Continuous
100
AcDbLine
 10
194.4
 20
47.64999999999999
 30
0.0
 11
179.0
 21
47.64999999999999
 31
0.0
  0
LINE
  5
BBA8
330
BA63
100
AcDbEntity
  8
1
  6
Continuous
100
AcDbLine
 10
192.6999999999999
 20
42.64999999999999
 30
0.0
 11
180.7
 21
42.64999999999999
 31
0.0
  0
LINE
  5
BBA9
330
BA63
100
AcDbEntity
  8
2
  6
Continuous
100
AcDbLine
 10
190.0235
 20
42.64999999999999
 30
0.0
 11
190.0235
 21
41.25
 31
0.0
  0
LINE
  5
BBAA
330
BA63
100
AcDbEntity
  8
1
  6
Continuous
100
AcDbLine
 10
190.7
 20
42.64999999999999
 30
0.0
 11
190.7
 21
41.85
 31
0.0
  0
LINE
  5
BBAB
330
BA63
100
AcDbEntity
  8
1
  6
Continuous
100
AcDbLine
 10
190.0999999999999
 20
41.25
 30
0.0
 11
190.7
 21
41.85
 31
0.0
  0
LINE
  5
BBAC
330
BA63
100
AcDbEntity
  8
1
  6
Continuous
100
AcDbLine
 10
182.6999999999999
 20
41.85
 30
0.0
 11
190.7
 21
41.85
 31
0.0
  0
LINE
  5
BBAD
330
BA63
100
AcDbEntity
  8
1
  6
Continuous
100
AcDbLine
 10
190.0999999999999
 20
41.25
 30
0.0
 11
183.3
 21
41.25
 31
0.0
  0
LINE
  5
BBAE
330
BA63
100
AcDbEntity
  8
1
  6
Continuous
100
AcDbLine
 10
186.6999999999999
 20
47.64999999999999
 30
0.0
 11
184.6999999999999
 21
49.64999999999999
 31
0.0
  0
LINE
  5
BBAF
330
BA63
100
AcDbEntity
  8
1
  6
Continuous
100
AcDbLine
 10
188.7
 20
47.64999999999999
 30
0.0
 11
186.6999999999999
 21
49.64999999999999
 31
0.0
  0
LINE
  5
BBB0
330
BA63
100
AcDbEntity
  8
1
  6
Continuous
100
AcDbLine
 10
186.6999999999999
 20
43.185898
 30
0.0
 11
186.6999999999999
 21
47.114102
 31
0.0
  0
LINE
  5
BBB1
330
BA63
100
AcDbEntity
  8
1
  6
Continuous
100
AcDbLine
 10
180.7
 20
47.64999999999999
 30
0.0
 11
180.7
 21
42.64999999999999
 31
0.0
  0
ARC
  5
BBB2
330
BA63
100
AcDbEntity
  8
1
  6
Continuous
100
AcDbCircle
 10
183.6999999999999
 20
38.984936
 30
0.0
 40
8.665063999999999
100
AcDbArc
 50
69.743842
 51
110.256158
  0
ARC
  5
BBB3
330
BA63
100
AcDbEntity
  8
1
  6
Continuous
100
AcDbCircle
 10
183.6999999999999
 20
51.315064
 30
0.0
 40
8.665063999999999
100
AcDbArc
 50
249.7438419999999
 51
290.256158
  0
LINE
  5
BBB4
330
BA63
100
AcDbEntity
  8
1
  6
Continuous
100
AcDbLine
 10
179.0
 20
49.32631699999999
 30
0.0
 11
179.0
 21
47.64999999999999
 31
0.0
  0
LINE
  5
BBB5
330
BA63
100
AcDbEntity
  8
1
  6
Continuous
100
AcDbLine
 10
192.6999999999999
 20
47.64999999999999
 30
0.0
 11
192.6999999999999
 21
42.64999999999999
 31
0.0
  0
LINE
  5
BBB6
330
BA63
100
AcDbEntity
  8
1
  6
Continuous
100
AcDbLine
 10
194.4
 20
49.32631699999999
 30
0.0
 11
194.4
 21
47.64999999999999
 31
0.0
  0
LINE
  5
BBB7
330
BA63
100
AcDbEntity
  8
2
  6
Continuous
100
AcDbLine
 10
183.3764999999999
 20
42.64999999999999
 30
0.0
 11
183.3764999999999
 21
41.25
 31
0.0
  0
LINE
  5
BBB8
330
BA63
100
AcDbEntity
  8
1
  6
Continuous
100
AcDbLine
 10
182.6999999999999
 20
42.64999999999999
 30
0.0
 11
182.6999999999999
 21
41.85
 31
0.0
  0
LINE
  5
BBB9
330
BA63
100
AcDbEntity
  8
1
  6
Continuous
100
AcDbLine
 10
183.3
 20
41.25
 30
0.0
 11
182.6999999999999
 21
41.85
 31
0.0
  0
CIRCLE
  5
BBBA
330
BA63
100
AcDbEntity
  8
1
  6
Continuous
100
AcDbCircle
 10
430.6
 20
191.062639
 30
0.0
 40
3.7
  0
CIRCLE
  5
BBBB
330
BA63
100
AcDbEntity
  8
1
  6
Continuous
100
AcDbCircle
 10
456.7
 20
164.9626389999999
 30
0.0
 40
3.7
  0
CIRCLE
  5
BBBC
330
BA63
100
AcDbEntity
  8
1
  6
Continuous
100
AcDbCircle
 10
482.8
 20
191.062639
 30
0.0
 40
3.7
  0
ARC
  5
BBBD
330
BA63
100
AcDbEntity
  8
1
  6
Continuous
100
AcDbCircle
 10
456.7
 20
191.062639
 30
0.0
 40
13.65
100
AcDbArc
 50
165.3931629999999
 51
14.606829
  0
ARC
  5
BBBE
330
BA63
100
AcDbEntity
  8
1
  6
Continuous
100
AcDbCircle
 10
456.7
 20
191.062639
 30
0.0
 40
41.125694
100
AcDbArc
 50
120.8217249999999
 51
59.17827299999999
  0
ARC
  5
BBBF
330
BA63
100
AcDbEntity
  8
1
  6
Continuous
100
AcDbCircle
 10
456.7
 20
191.062639
 30
0.0
 40
50.0
100
AcDbArc
 50
117.743211
 51
62.256788
  0
LINE
  5
BBC0
330
BA63
100
AcDbEntity
  8
1
  6
Continuous
100
AcDbLine
 10
142.430678
 20
78.7
 30
0.0
 11
230.969322
 21
78.7
 31
0.0
  0
ARC
  5
BBC1
330
BA63
100
AcDbEntity
  8
1
  6
Continuous
100
AcDbCircle
 10
178.1642139999999
 20
69.353447
 30
0.0
 40
11.502755
100
AcDbArc
 50
113.2518129999999
 51
125.654269
  0
ARC
  5
BBC2
330
BA63
100
AcDbEntity
  8
1
  6
Continuous
100
AcDbCircle
 10
174.9875
 20
80.51250000000001
 30
0.0
 40
1.9375
100
AcDbArc
 50
90.0
 51
180.0
  0
LINE
  5
BBC3
330
BA63
100
AcDbEntity
  8
1
  6
Continuous
100
AcDbLine
 10
173.05
 20
80.41725600000003
 30
0.0
 11
173.6232379999999
 21
79.92193399999997
 31
0.0
  0
LINE
  5
BBC4
330
BA63
100
AcDbEntity
  8
1
  6
Continuous
100
AcDbLine
 10
173.05
 20
80.41725600000003
 30
0.0
 11
173.05
 21
80.51250000000001
 31
0.0
  0
LINE
  5
BBC5
330
BA63
100
AcDbEntity
  8
1
  6
Continuous
100
AcDbLine
 10
178.925
 20
83.09999999999998
 30
0.0
 11
194.4749999999999
 21
83.09999999999998
 31
0.0
  0
ARC
  5
BBC6
330
BA63
100
AcDbEntity
  8
1
  6
Continuous
100
AcDbCircle
 10
178.925
 20
81.09999999999997
 30
0.0
 40
2.0
100
AcDbArc
 50
90.0
 51
137.54585
  0
LINE
  5
BBC7
330
BA63
100
AcDbEntity
  8
1
  6
Continuous
100
AcDbLine
 10
173.6232379999999
 20
79.92193399999997
 30
0.0
 11
199.7767599999999
 21
79.92193399999997
 31
0.0
  0
LINE
  5
BBC8
330
BA63
100
AcDbEntity
  8
1
  6
Continuous
100
AcDbLine
 10
174.9875
 20
82.45
 30
0.0
 11
198.4124999999999
 21
82.45
 31
0.0
  0
LINE
  5
BBC9
330
BA63
100
AcDbEntity
  8
1
  6
Continuous
100
AcDbLine
 10
181.1999999999999
 20
83.45
 30
0.0
 11
181.1999999999999
 21
83.09999999999998
 31
0.0
  0
ARC
  5
BBCA
330
BA63
100
AcDbEntity
  8
1
  6
Continuous
100
AcDbCircle
 10
166.6999999999999
 20
67.7
 30
0.0
 40
30.0
100
AcDbArc
 50
166.11346
 51
193.88654
  0
LINE
  5
BBCB
330
BA63
100
AcDbEntity
  8
1
  6
Continuous
100
AcDbLine
 10
142.430678
 20
56.7
 30
0.0
 11
230.969322
 21
56.7
 31
0.0
  0
ARC
  5
BBCC
330
BA63
100
AcDbEntity
  8
1
  6
Continuous
100
AcDbCircle
 10
178.1642139999999
 20
66.046552
 30
0.0
 40
11.502755
100
AcDbArc
 50
234.345731
 51
246.7481869999998
  0
ARC
  5
BBCD
330
BA63
100
AcDbEntity
  8
1
  6
Continuous
100
AcDbCircle
 10
174.9875
 20
54.8875
 30
0.0
 40
1.9375
100
AcDbArc
 50
180.0
 51
270.0
  0
LINE
  5
BBCE
330
BA63
100
AcDbEntity
  8
1
  6
Continuous
100
AcDbLine
 10
173.05
 20
54.98274399999999
 30
0.0
 11
173.6232379999999
 21
55.47806600000001
 31
0.0
  0
LINE
  5
BBCF
330
BA63
100
AcDbEntity
  8
1
  6
Continuous
100
AcDbLine
 10
173.05
 20
54.98274399999999
 30
0.0
 11
173.05
 21
54.8875
 31
0.0
  0
LINE
  5
BBD0
330
BA63
100
AcDbEntity
  8
1
  6
Continuous
100
AcDbLine
 10
178.925
 20
52.3
 30
0.0
 11
194.4749999999999
 21
52.3
 31
0.0
  0
ARC
  5
BBD1
330
BA63
100
AcDbEntity
  8
1
  6
Continuous
100
AcDbCircle
 10
178.925
 20
54.29999999999999
 30
0.0
 40
2.0
100
AcDbArc
 50
222.4541499999999
 51
270.0
  0
LINE
  5
BBD2
330
BA63
100
AcDbEntity
  8
1
  6
Continuous
100
AcDbLine
 10
173.6232379999999
 20
55.47806600000001
 30
0.0
 11
199.7767619999999
 21
55.47806600000001
 31
0.0
  0
LINE
  5
BBD3
330
BA63
100
AcDbEntity
  8
1
  6
Continuous
100
AcDbLine
 10
174.9875
 20
52.95
 30
0.0
 11
198.4124999999999
 21
52.95
 31
0.0
  0
ARC
  5
BBD4
330
BA63
100
AcDbEntity
  8
1
  6
Continuous
100
AcDbCircle
 10
195.235785
 20
69.353447
 30
0.0
 40
11.502755
100
AcDbArc
 50
54.34573100000001
 51
66.748187
  0
ARC
  5
BBD5
330
BA63
100
AcDbEntity
  8
1
  6
Continuous
100
AcDbCircle
 10
198.4124999999999
 20
80.51250000000001
 30
0.0
 40
1.9375
100
AcDbArc
 50
0.0
 51
90.0
  0
LINE
  5
BBD6
330
BA63
100
AcDbEntity
  8
1
  6
Continuous
100
AcDbLine
 10
200.3499999999999
 20
80.41725600000003
 30
0.0
 11
199.776761
 21
79.92193399999997
 31
0.0
  0
LINE
  5
BBD7
330
BA63
100
AcDbEntity
  8
1
  6
Continuous
100
AcDbLine
 10
200.3499999999999
 20
80.41725600000003
 30
0.0
 11
200.3499999999999
 21
80.51250000000001
 31
0.0
  0
ARC
  5
BBD8
330
BA63
100
AcDbEntity
  8
1
  6
Continuous
100
AcDbCircle
 10
194.4749999999999
 20
81.09999999999997
 30
0.0
 40
2.0
100
AcDbArc
 50
42.45415
 51
90.0
  0
LINE
  5
BBD9
330
BA63
100
AcDbEntity
  8
1
  6
Continuous
100
AcDbLine
 10
192.1999999999999
 20
83.45
 30
0.0
 11
192.1999999999999
 21
83.09999999999998
 31
0.0
  0
ARC
  5
BBDA
330
BA63
100
AcDbEntity
  8
1
  6
Continuous
100
AcDbCircle
 10
195.235785
 20
66.046552
 30
0.0
 40
11.502755
100
AcDbArc
 50
293.2518129999999
 51
305.654269
  0
ARC
  5
BBDB
330
BA63
100
AcDbEntity
  8
1
  6
Continuous
100
AcDbCircle
 10
198.4124999999999
 20
54.8875
 30
0.0
 40
1.9375
100
AcDbArc
 50
270.0
 51
0.0
  0
LINE
  5
BBDC
330
BA63
100
AcDbEntity
  8
1
  6
Continuous
100
AcDbLine
 10
200.3499999999999
 20
54.98274399999999
 30
0.0
 11
199.776761
 21
55.47806600000001
 31
0.0
  0
LINE
  5
BBDD
330
BA63
100
AcDbEntity
  8
1
  6
Continuous
100
AcDbLine
 10
200.3499999999999
 20
54.98274399999999
 30
0.0
 11
200.3499999999999
 21
54.8875
 31
0.0
  0
ARC
  5
BBDE
330
BA63
100
AcDbEntity
  8
1
  6
Continuous
100
AcDbCircle
 10
194.4749999999999
 20
54.29999999999999
 30
0.0
 40
2.0
100
AcDbArc
 50
270.0
 51
317.5458499999999
  0
ARC
  5
BBDF
330
BA63
100
AcDbEntity
  8
1
  6
Continuous
100
AcDbCircle
 10
456.7
 20
191.062639
 30
0.0
 40
22.153924
100
AcDbArc
 50
136.653708
 51
43.34628900000001
  0
ARC
  5
BBE0
330
BA63
100
AcDbEntity
  8
1
  6
Continuous
100
AcDbCircle
 10
456.7
 20
191.062639
 30
0.0
 40
29.91901799999999
100
AcDbArc
 50
127.5025499999999
 51
52.49744800000001
  0
ARC
  5
BBE1
330
BA63
100
AcDbEntity
  8
1
  6
Continuous
100
AcDbCircle
 10
186.6999999999999
 20
191.062639
 30
0.0
 40
50.0
100
AcDbArc
 50
117.743211
 51
62.256788
  0
ARC
  5
BBE2
330
BA63
100
AcDbEntity
  8
1
  6
Continuous
100
AcDbCircle
 10
186.6999999999999
 20
191.062639
 30
0.0
 40
41.125694
100
AcDbArc
 50
120.8217249999999
 51
59.17827299999999
  0
ARC
  5
BBE3
330
BA63
100
AcDbEntity
  8
1
  6
Continuous
100
AcDbCircle
 10
186.6999999999999
 20
191.062639
 30
0.0
 40
29.91901799999999
100
AcDbArc
 50
127.5025499999999
 51
52.49744800000001
  0
ARC
  5
BBE4
330
BA63
100
AcDbEntity
  8
1
  6
Continuous
100
AcDbCircle
 10
186.6999999999999
 20
191.062639
 30
0.0
 40
22.153924
100
AcDbArc
 50
136.653708
 51
43.34628900000001
  0
ARC
  5
BBE5
330
BA63
100
AcDbEntity
  8
1
  6
Continuous
100
AcDbCircle
 10
186.6999999999999
 20
191.062639
 30
0.0
 40
13.65
100
AcDbArc
 50
165.3931629999999
 51
14.606829
  0
CIRCLE
  5
BBE6
330
BA63
100
AcDbEntity
  8
1
  6
Continuous
100
AcDbCircle
 10
212.8
 20
191.062639
 30
0.0
 40
3.7
  0
CIRCLE
  5
BBE7
330
BA63
100
AcDbEntity
  8
1
  6
Continuous
100
AcDbCircle
 10
186.6999999999999
 20
164.9626389999999
 30
0.0
 40
3.7
  0
CIRCLE
  5
BBE8
330
BA63
100
AcDbEntity
  8
1
  6
Continuous
100
AcDbCircle
 10
160.5999999999999
 20
191.062639
 30
0.0
 40
3.7
  0
ARC
  5
BBE9
330
BA63
100
AcDbEntity
  8
1
  6
Continuous
100
AcDbCircle
 10
206.6999999999999
 20
67.7
 30
0.0
 40
30.0
100
AcDbArc
 50
346.1134599999998
 51
13.88654
  0
LINE
  5
BBEA
330
BA63
100
AcDbEntity
  8
1
  6
Continuous
100
AcDbLine
 10
332.6999999999998
 20
235.3319609999998
 30
0.0
 11
332.6999999999998
 21
146.793317
 31
0.0
  0
LINE
  5
BBEB
330
BA63
100
AcDbEntity
  8
1
  6
Continuous
100
AcDbLine
 10
310.6999999999998
 20
235.3319609999998
 30
0.0
 11
310.6999999999998
 21
146.793317
 31
0.0
  0
ARC
  5
BBEC
330
BA63
100
AcDbEntity
  8
1
  6
Continuous
100
AcDbCircle
 10
321.7
 20
171.0626389999999
 30
0.0
 40
30.0
100
AcDbArc
 50
256.1134599999999
 51
283.8865399999999
  0
ARC
  5
BBED
330
BA63
100
AcDbEntity
  8
1
  6
Continuous
100
AcDbCircle
 10
320.046552
 20
199.598425
 30
0.0
 40
11.502755
100
AcDbArc
 50
144.345731
 51
156.7481869999998
  0
ARC
  5
BBEE
330
BA63
100
AcDbEntity
  8
1
  6
Continuous
100
AcDbCircle
 10
323.353447
 20
199.598425
 30
0.0
 40
11.502755
100
AcDbArc
 50
23.25181299999999
 51
35.654269
  0
LINE
  5
BBEF
330
BA63
100
AcDbEntity
  8
1
  6
Continuous
100
AcDbLine
 10
308.9827439999999
 20
204.7126389999998
 30
0.0
 11
308.8874999999998
 21
204.7126389999998
 31
0.0
  0
LINE
  5
BBF0
330
BA63
100
AcDbEntity
  8
1
  6
Continuous
100
AcDbLine
 10
308.9827439999999
 20
204.7126389999998
 30
0.0
 11
309.478066
 21
204.1394009999999
 31
0.0
  0
ARC
  5
BBF1
330
BA63
100
AcDbEntity
  8
1
  6
Continuous
100
AcDbCircle
 10
308.8874999999998
 20
202.775139
 30
0.0
 40
1.9375
100
AcDbArc
 50
90.0
 51
180.0
  0
ARC
  5
BBF2
330
BA63
100
AcDbEntity
  8
1
  6
Continuous
100
AcDbCircle
 10
308.3
 20
198.8376389999999
 30
0.0
 40
2.0
100
AcDbArc
 50
132.45415
 51
180.0
  0
ARC
  5
BBF3
330
BA63
100
AcDbEntity
  8
1
  6
Continuous
100
AcDbCircle
 10
308.3
 20
183.2876389999999
 30
0.0
 40
2.0
100
AcDbArc
 50
180.0
 51
227.54585
  0
LINE
  5
BBF4
330
BA63
100
AcDbEntity
  8
1
  6
Continuous
100
AcDbLine
 10
308.9827439999999
 20
177.4126389999999
 30
0.0
 11
308.8874999999998
 21
177.4126389999999
 31
0.0
  0
LINE
  5
BBF5
330
BA63
100
AcDbEntity
  8
1
  6
Continuous
100
AcDbLine
 10
308.9827439999999
 20
177.4126389999999
 30
0.0
 11
309.478066
 21
177.985878
 31
0.0
  0
ARC
  5
BBF6
330
BA63
100
AcDbEntity
  8
1
  6
Continuous
100
AcDbCircle
 10
308.8874999999998
 20
179.3501389999999
 30
0.0
 40
1.9375
100
AcDbArc
 50
180.0
 51
270.0
  0
ARC
  5
BBF7
330
BA63
100
AcDbEntity
  8
1
  6
Continuous
100
AcDbCircle
 10
320.046552
 20
182.5268539999999
 30
0.0
 40
11.502755
100
AcDbArc
 50
203.251813
 51
215.654269
  0
LINE
  5
BBF8
330
BA63
100
AcDbEntity
  8
1
  6
Continuous
100
AcDbLine
 10
309.478066
 20
204.1394009999999
 30
0.0
 11
309.478066
 21
177.9858769999999
 31
0.0
  0
LINE
  5
BBF9
330
BA63
100
AcDbEntity
  8
1
  6
Continuous
100
AcDbLine
 10
306.95
 20
202.775139
 30
0.0
 11
306.95
 21
179.3501389999999
 31
0.0
  0
LINE
  5
BBFA
330
BA63
100
AcDbEntity
  8
1
  6
Continuous
100
AcDbLine
 10
306.3
 20
198.8376389999999
 30
0.0
 11
306.3
 21
183.2876389999999
 31
0.0
  0
LINE
  5
BBFB
330
BA63
100
AcDbEntity
  8
1
  6
Continuous
100
AcDbLine
 10
337.4499999999998
 20
196.5626389999999
 30
0.0
 11
337.1
 21
196.5626389999999
 31
0.0
  0
ARC
  5
BBFC
330
BA63
100
AcDbEntity
  8
1
  6
Continuous
100
AcDbCircle
 10
335.1
 20
198.8376389999999
 30
0.0
 40
2.0
100
AcDbArc
 50
0.0
 51
47.54585
  0
LINE
  5
BBFD
330
BA63
100
AcDbEntity
  8
1
  6
Continuous
100
AcDbLine
 10
337.4499999999998
 20
185.5626389999999
 30
0.0
 11
337.1
 21
185.5626389999999
 31
0.0
  0
ARC
  5
BBFE
330
BA63
100
AcDbEntity
  8
1
  6
Continuous
100
AcDbCircle
 10
335.1
 20
183.2876389999999
 30
0.0
 40
2.0
100
AcDbArc
 50
312.45415
 51
0.0
  0
LINE
  5
BBFF
330
BA63
100
AcDbEntity
  8
1
  6
Continuous
100
AcDbLine
 10
334.417256
 20
177.4126389999999
 30
0.0
 11
334.5124999999999
 21
177.4126389999999
 31
0.0
  0
LINE
  5
BC00
330
BA63
100
AcDbEntity
  8
1
  6
Continuous
100
AcDbLine
 10
334.417256
 20
177.4126389999999
 30
0.0
 11
333.9219339999999
 21
177.985878
 31
0.0
  0
ARC
  5
BC01
330
BA63
100
AcDbEntity
  8
1
  6
Continuous
100
AcDbCircle
 10
334.5124999999999
 20
179.3501389999999
 30
0.0
 40
1.9375
100
AcDbArc
 50
270.0
 51
0.0
  0
ARC
  5
BC02
330
BA63
100
AcDbEntity
  8
1
  6
Continuous
100
AcDbCircle
 10
323.353447
 20
182.5268539999999
 30
0.0
 40
11.502755
100
AcDbArc
 50
324.345731
 51
336.7481869999999
  0
LINE
  5
BC03
330
BA63
100
AcDbEntity
  8
1
  6
Continuous
100
AcDbLine
 10
334.417256
 20
204.7126389999998
 30
0.0
 11
334.5124999999999
 21
204.7126389999998
 31
0.0
  0
LINE
  5
BC04
330
BA63
100
AcDbEntity
  8
1
  6
Continuous
100
AcDbLine
 10
334.417256
 20
204.7126389999998
 30
0.0
 11
333.9219339999999
 21
204.1394009999999
 31
0.0
  0
ARC
  5
BC05
330
BA63
100
AcDbEntity
  8
1
  6
Continuous
100
AcDbCircle
 10
334.5124999999999
 20
202.775139
 30
0.0
 40
1.9375
100
AcDbArc
 50
0.0
 51
90.0
  0
LINE
  5
BC06
330
BA63
100
AcDbEntity
  8
1
  6
Continuous
100
AcDbLine
 10
333.9219339999999
 20
204.1394009999999
 30
0.0
 11
333.9219339999999
 21
177.985879
 31
0.0
  0
LINE
  5
BC07
330
BA63
100
AcDbEntity
  8
1
  6
Continuous
100
AcDbLine
 10
336.45
 20
202.775139
 30
0.0
 11
336.45
 21
179.3501389999999
 31
0.0
  0
LINE
  5
BC08
330
BA63
100
AcDbEntity
  8
1
  6
Continuous
100
AcDbLine
 10
337.1
 20
198.8376389999999
 30
0.0
 11
337.1
 21
183.2876389999999
 31
0.0
  0
ARC
  5
BC09
330
BA63
100
AcDbEntity
  8
1
  6
Continuous
100
AcDbCircle
 10
321.7
 20
211.0626389999999
 30
0.0
 40
30.0
100
AcDbArc
 50
76.11346000000001
 51
103.8865399999999
  0
LINE
  5
BC0A
330
BA63
100
AcDbEntity
  8
1
  6
Continuous
100
AcDbLine
 10
305.9499999999998
 20
185.5626389999999
 30
0.0
 11
306.3
 21
185.5626389999999
 31
0.0
  0
LINE
  5
BC0B
330
BA63
100
AcDbEntity
  8
1
  6
Continuous
100
AcDbLine
 10
305.9499999999998
 20
196.5626389999999
 30
0.0
 11
306.3
 21
196.5626389999999
 31
0.0
  0
LINE
  5
BC0C
330
BA63
100
AcDbEntity
  8
1
  6
Continuous
100
AcDbLine
 10
62.7
 20
235.3319609999998
 30
0.0
 11
62.7
 21
146.793317
 31
0.0
  0
LINE
  5
BC0D
330
BA63
100
AcDbEntity
  8
1
  6
Continuous
100
AcDbLine
 10
40.7
 20
235.3319609999998
 30
0.0
 11
40.7
 21
146.793317
 31
0.0
  0
ARC
  5
BC0E
330
BA63
100
AcDbEntity
  8
1
  6
Continuous
100
AcDbCircle
 10
51.7
 20
171.0626389999999
 30
0.0
 40
30.0
100
AcDbArc
 50
256.1134599999999
 51
283.8865399999999
  0
ARC
  5
BC0F
330
BA63
100
AcDbEntity
  8
1
  6
Continuous
100
AcDbCircle
 10
50.046552
 20
199.598425
 30
0.0
 40
11.502755
100
AcDbArc
 50
144.345731
 51
156.7481869999998
  0
ARC
  5
BC10
330
BA63
100
AcDbEntity
  8
1
  6
Continuous
100
AcDbCircle
 10
53.353447
 20
199.598425
 30
0.0
 40
11.502755
100
AcDbArc
 50
23.25181299999999
 51
35.654269
  0
LINE
  5
BC11
330
BA63
100
AcDbEntity
  8
1
  6
Continuous
100
AcDbLine
 10
38.982744
 20
204.7126389999998
 30
0.0
 11
38.8875
 21
204.7126389999998
 31
0.0
  0
LINE
  5
BC12
330
BA63
100
AcDbEntity
  8
1
  6
Continuous
100
AcDbLine
 10
38.982744
 20
204.7126389999998
 30
0.0
 11
39.47806599999999
 21
204.1394009999999
 31
0.0
  0
ARC
  5
BC13
330
BA63
100
AcDbEntity
  8
1
  6
Continuous
100
AcDbCircle
 10
38.8875
 20
202.775139
 30
0.0
 40
1.9375
100
AcDbArc
 50
90.0
 51
180.0
  0
ARC
  5
BC14
330
BA63
100
AcDbEntity
  8
1
  6
Continuous
100
AcDbCircle
 10
38.3
 20
198.8376389999999
 30
0.0
 40
2.0
100
AcDbArc
 50
132.45415
 51
180.0
  0
ARC
  5
BC15
330
BA63
100
AcDbEntity
  8
1
  6
Continuous
100
AcDbCircle
 10
38.3
 20
183.2876389999999
 30
0.0
 40
2.0
100
AcDbArc
 50
180.0
 51
227.54585
  0
LINE
  5
BC16
330
BA63
100
AcDbEntity
  8
1
  6
Continuous
100
AcDbLine
 10
38.982744
 20
177.4126389999999
 30
0.0
 11
38.8875
 21
177.4126389999999
 31
0.0
  0
LINE
  5
BC17
330
BA63
100
AcDbEntity
  8
1
  6
Continuous
100
AcDbLine
 10
38.982744
 20
177.4126389999999
 30
0.0
 11
39.47806599999999
 21
177.985878
 31
0.0
  0
ARC
  5
BC18
330
BA63
100
AcDbEntity
  8
1
  6
Continuous
100
AcDbCircle
 10
38.8875
 20
179.3501389999999
 30
0.0
 40
1.9375
100
AcDbArc
 50
180.0
 51
270.0
  0
ARC
  5
BC19
330
BA63
100
AcDbEntity
  8
1
  6
Continuous
100
AcDbCircle
 10
50.046552
 20
182.5268539999999
 30
0.0
 40
11.502755
100
AcDbArc
 50
203.251813
 51
215.654269
  0
LINE
  5
BC1A
330
BA63
100
AcDbEntity
  8
1
  6
Continuous
100
AcDbLine
 10
39.47806599999999
 20
204.1394009999999
 30
0.0
 11
39.47806599999999
 21
177.9858769999999
 31
0.0
  0
LINE
  5
BC1B
330
BA63
100
AcDbEntity
  8
1
  6
Continuous
100
AcDbLine
 10
36.95
 20
202.775139
 30
0.0
 11
36.95
 21
179.3501389999999
 31
0.0
  0
LINE
  5
BC1C
330
BA63
100
AcDbEntity
  8
1
  6
Continuous
100
AcDbLine
 10
36.29999999999999
 20
198.8376389999999
 30
0.0
 11
36.29999999999999
 21
183.2876389999999
 31
0.0
  0
LINE
  5
BC1D
330
BA63
100
AcDbEntity
  8
1
  6
Continuous
100
AcDbLine
 10
67.45
 20
196.5626389999999
 30
0.0
 11
67.09999999999999
 21
196.5626389999999
 31
0.0
  0
ARC
  5
BC1E
330
BA63
100
AcDbEntity
  8
1
  6
Continuous
100
AcDbCircle
 10
65.09999999999999
 20
198.8376389999999
 30
0.0
 40
2.0
100
AcDbArc
 50
0.0
 51
47.54585
  0
LINE
  5
BC1F
330
BA63
100
AcDbEntity
  8
1
  6
Continuous
100
AcDbLine
 10
67.45
 20
185.5626389999999
 30
0.0
 11
67.09999999999999
 21
185.5626389999999
 31
0.0
  0
ARC
  5
BC20
330
BA63
100
AcDbEntity
  8
1
  6
Continuous
100
AcDbCircle
 10
65.09999999999999
 20
183.2876389999999
 30
0.0
 40
2.0
100
AcDbArc
 50
312.45415
 51
0.0
  0
LINE
  5
BC21
330
BA63
100
AcDbEntity
  8
1
  6
Continuous
100
AcDbLine
 10
64.41725600000001
 20
177.4126389999999
 30
0.0
 11
64.5125
 21
177.4126389999999
 31
0.0
  0
LINE
  5
BC22
330
BA63
100
AcDbEntity
  8
1
  6
Continuous
100
AcDbLine
 10
64.41725600000001
 20
177.4126389999999
 30
0.0
 11
63.921934
 21
177.985878
 31
0.0
  0
ARC
  5
BC23
330
BA63
100
AcDbEntity
  8
1
  6
Continuous
100
AcDbCircle
 10
64.5125
 20
179.3501389999999
 30
0.0
 40
1.9375
100
AcDbArc
 50
270.0
 51
0.0
  0
ARC
  5
BC24
330
BA63
100
AcDbEntity
  8
1
  6
Continuous
100
AcDbCircle
 10
53.353447
 20
182.5268539999999
 30
0.0
 40
11.502755
100
AcDbArc
 50
324.345731
 51
336.7481869999999
  0
LINE
  5
BC25
330
BA63
100
AcDbEntity
  8
1
  6
Continuous
100
AcDbLine
 10
64.517256
 20
204.7126389999998
 30
0.0
 11
64.61249999999998
 21
204.7126389999998
 31
0.0
  0
LINE
  5
BC26
330
BA63
100
AcDbEntity
  8
1
  6
Continuous
100
AcDbLine
 10
64.41725600000001
 20
204.7126389999998
 30
0.0
 11
63.921934
 21
204.1394009999999
 31
0.0
  0
ARC
  5
BC27
330
BA63
100
AcDbEntity
  8
1
  6
Continuous
100
AcDbCircle
 10
64.5125
 20
202.775139
 30
0.0
 40
1.9375
100
AcDbArc
 50
0.0
 51
90.0
  0
LINE
  5
BC28
330
BA63
100
AcDbEntity
  8
1
  6
Continuous
100
AcDbLine
 10
63.921934
 20
204.1394009999999
 30
0.0
 11
63.921934
 21
177.985879
 31
0.0
  0
LINE
  5
BC29
330
BA63
100
AcDbEntity
  8
1
  6
Continuous
100
AcDbLine
 10
66.45
 20
202.775139
 30
0.0
 11
66.45
 21
179.3501389999999
 31
0.0
  0
LINE
  5
BC2A
330
BA63
100
AcDbEntity
  8
1
  6
Continuous
100
AcDbLine
 10
67.09999999999999
 20
198.8376389999999
 30
0.0
 11
67.09999999999999
 21
183.2876389999999
 31
0.0
  0
ARC
  5
BC2B
330
BA63
100
AcDbEntity
  8
1
  6
Continuous
100
AcDbCircle
 10
51.7
 20
211.0626389999999
 30
0.0
 40
30.0
100
AcDbArc
 50
76.11346000000001
 51
103.8865399999999
  0
LINE
  5
BC2C
330
BA63
100
AcDbEntity
  8
1
  6
Continuous
100
AcDbLine
 10
35.95000000000001
 20
185.5626389999999
 30
0.0
 11
36.29999999999999
 21
185.5626389999999
 31
0.0
  0
LINE
  5
BC2D
330
BA63
100
AcDbEntity
  8
1
  6
Continuous
100
AcDbLine
 10
35.95000000000001
 20
196.5626389999999
 30
0.0
 11
36.29999999999999
 21
196.5626389999999
 31
0.0
  0
LINE
  5
BC2E
330
BA63
100
AcDbEntity
  8
1
  6
Continuous
100
AcDbLine
 10
181.1999999999999
 20
51.95
 30
0.0
 11
181.1999999999999
 21
52.3
 31
0.0
  0
LINE
  5
BC2F
330
BA63
100
AcDbEntity
  8
1
  6
Continuous
100
AcDbLine
 10
192.1999999999999
 20
51.95
 30
0.0
 11
192.1999999999999
 21
52.3
 31
0.0
  0
ARC
  5
BC30
330
BA63
100
AcDbEntity
  8
1
  6
Continuous
100
AcDbCircle
 10
230.9443809999999
 20
343.5252779999999
 30
0.0
 40
5.0
100
AcDbArc
 50
14.122745
 51
31.665889
  0
ARC
  5
BC31
330
BA63
100
AcDbEntity
  8
1
  6
Continuous
100
AcDbCircle
 10
206.6999999999999
 20
337.4252779999999
 30
0.0
 40
30.0
100
AcDbArc
 50
345.874286
 51
14.122745
  0
ARC
  5
BC32
330
BA63
100
AcDbEntity
  8
1
  6
Continuous
100
AcDbCircle
 10
230.9443809999999
 20
331.3252779999999
 30
0.0
 40
5.0
100
AcDbArc
 50
328.334111
 51
345.8772549999998
  0
ARC
  5
BC33
330
BA63
100
AcDbEntity
  8
1
  6
Continuous
100
AcDbCircle
 10
142.4556189999998
 20
343.5252779999999
 30
0.0
 40
5.0
100
AcDbArc
 50
148.334111
 51
165.8772549999999
  0
ARC
  5
BC34
330
BA63
100
AcDbEntity
  8
1
  6
Continuous
100
AcDbCircle
 10
166.6999999999999
 20
337.4252779999999
 30
0.0
 40
30.0
100
AcDbArc
 50
165.8772549999999
 51
194.1257139999999
  0
ARC
  5
BC35
330
BA63
100
AcDbEntity
  8
1
  6
Continuous
100
AcDbCircle
 10
142.4556189999998
 20
331.3252779999999
 30
0.0
 40
5.0
100
AcDbArc
 50
194.122745
 51
211.665889
  0
ARC
  5
BC36
330
BA63
100
AcDbEntity
  8
1
  6
Continuous
100
AcDbCircle
 10
142.430678
 20
73.7
 30
0.0
 40
5.0
100
AcDbArc
 50
90.0
 51
166.11346
  0
ARC
  5
BC37
330
BA63
100
AcDbEntity
  8
1
  6
Continuous
100
AcDbCircle
 10
142.430678
 20
61.7
 30
0.0
 40
5.0
100
AcDbArc
 50
193.88654
 51
270.0
  0
ARC
  5
BC38
330
BA63
100
AcDbEntity
  8
1
  6
Continuous
100
AcDbCircle
 10
230.969322
 20
61.7
 30
0.0
 40
5.0
100
AcDbArc
 50
270.0
 51
346.1134599999998
  0
ARC
  5
BC39
330
BA63
100
AcDbEntity
  8
1
  6
Continuous
100
AcDbCircle
 10
230.969322
 20
73.7
 30
0.0
 40
5.0
100
AcDbArc
 50
13.88654
 51
90.0
  0
ARC
  5
BC3A
330
BA63
100
AcDbEntity
  8
1
  6
Continuous
100
AcDbCircle
 10
315.7
 20
235.3319609999998
 30
0.0
 40
5.0
100
AcDbArc
 50
103.8865399999999
 51
180.0
  0
ARC
  5
BC3B
330
BA63
100
AcDbEntity
  8
1
  6
Continuous
100
AcDbCircle
 10
327.7
 20
235.3319609999998
 30
0.0
 40
5.0
100
AcDbArc
 50
0.0
 51
76.11346000000001
  0
ARC
  5
BC3C
330
BA63
100
AcDbEntity
  8
1
  6
Continuous
100
AcDbCircle
 10
327.7
 20
146.793317
 30
0.0
 40
5.0
100
AcDbArc
 50
283.8865399999999
 51
0.0
  0
ARC
  5
BC3D
330
BA63
100
AcDbEntity
  8
1
  6
Continuous
100
AcDbCircle
 10
315.7
 20
146.793317
 30
0.0
 40
5.0
100
AcDbArc
 50
180.0
 51
256.1134599999999
  0
ARC
  5
BC3E
330
BA63
100
AcDbEntity
  8
1
  6
Continuous
100
AcDbCircle
 10
45.7
 20
235.3319609999998
 30
0.0
 40
5.0
100
AcDbArc
 50
103.8865399999999
 51
180.0
  0
ARC
  5
BC3F
330
BA63
100
AcDbEntity
  8
1
  6
Continuous
100
AcDbCircle
 10
57.7
 20
235.3319609999998
 30
0.0
 40
5.0
100
AcDbArc
 50
0.0
 51
76.11346000000001
  0
ARC
  5
BC40
330
BA63
100
AcDbEntity
  8
1
  6
Continuous
100
AcDbCircle
 10
57.7
 20
146.793317
 30
0.0
 40
5.0
100
AcDbArc
 50
283.8865399999999
 51
0.0
  0
ARC
  5
BC41
330
BA63
100
AcDbEntity
  8
1
  6
Continuous
100
AcDbCircle
 10
45.7
 20
146.793317
 30
0.0
 40
5.0
100
AcDbArc
 50
180.0
 51
256.1134599999999
  0
ENDSEC
  0
SECTION
  2
OBJECTS
  0
DICTIONARY
  5
BA51
330
0
100
AcDbDictionary
281
     1
  3
ACAD_CIP_PREVIOUS_PRODUCT_INFO
350
BCA3
  3
ACAD_COLOR
350
BC85
  3
ACAD_DETAILVIEWSTYLE
350
BC9E
  3
ACAD_GROUP
350
BA52
  3
ACAD_LAYOUT
350
BA5E
  3
ACAD_MATERIAL
350
BC53
  3
ACAD_MLEADERSTYLE
350
BC9A
  3
ACAD_MLINESTYLE
350
BA5B
  3
ACAD_PLOTSETTINGS
350
BA5D
  3
ACAD_PLOTSTYLENAME
350
BC51
  3
ACAD_SCALELIST
350
BC88
  3
ACAD_SECTIONVIEWSTYLE
350
BC9C
  3
ACAD_TABLESTYLE
350
BC86
  3
ACAD_VISUALSTYLE
350
BC6C
  3
ACDB_RECOMPOSE_DATA
350
BCC1
  3
AcDbVariableDictionary
350
BCB4
  3
DWGPROPS
350
BCC2
  0
DICTIONARY
  5
BCA4
330
BA55
100
AcDbDictionary
280
     1
281
     1
  3
ADSK_XREC_LAYER_RECONCILED
360
BCA5
  0
DICTIONARY
  5
BCA6
330
BA6B
100
AcDbDictionary
280
     1
281
     1
  3
ADSK_XREC_LAYER_RECONCILED
360
BCA7
  0
DICTIONARY
  5
BCA8
330
BA6C
100
AcDbDictionary
280
     1
281
     1
  3
ADSK_XREC_LAYER_RECONCILED
360
BCA9
  0
DICTIONARY
  5
BCAA
330
BA6D
100
AcDbDictionary
280
     1
281
     1
  3
ADSK_XREC_LAYER_RECONCILED
360
BCAB
  0
DICTIONARY
  5
BCAC
330
BA6E
100
AcDbDictionary
280
     1
281
     1
  3
ADSK_XREC_LAYER_RECONCILED
360
BCAD
  0
DICTIONARY
  5
BCAE
330
BA6F
100
AcDbDictionary
280
     1
281
     1
  3
ADSK_XREC_LAYER_RECONCILED
360
BCAF
  0
DICTIONARY
  5
BCB0
330
BA70
100
AcDbDictionary
280
     1
281
     1
  3
ADSK_XREC_LAYER_RECONCILED
360
BCB1
  0
DICTIONARY
  5
BCB2
330
BA71
100
AcDbDictionary
280
     1
281
     1
  3
ADSK_XREC_LAYER_RECONCILED
360
BCB3
  0
DICTIONARY
  5
BC4C
330
BA63
100
AcDbDictionary
281
     1
  3
ACAD_LAYOUTSELFREF
350
BC4D
  0
DICTIONARY
  5
BC4A
330
BA5F
100
AcDbDictionary
281
     1
  3
ACAD_LAYOUTSELFREF
350
BC4B
  0
XRECORD
  5
BCA3
102
{ACAD_REACTORS
330
BA51
102
}
330
BA51
100
AcDbXrecord
280
     1
300
ACDLT
300
2014
300
ACDLT_F_S
  0
DICTIONARY
  5
BC85
102
{ACAD_REACTORS
330
BA51
102
}
330
BA51
100
AcDbDictionary
281
     1
  0
DICTIONARY
  5
BC9E
102
{ACAD_REACTORS
330
BA51
102
}
330
BA51
100
AcDbDictionary
281
     1
  3
Imperial24
350
BC9F
  0
DICTIONARY
  5
BA52
102
{ACAD_REACTORS
330
BA51
102
}
330
BA51
100
AcDbDictionary
281
     1
  0
DICTIONARY
  5
BA5E
102
{ACAD_REACTORS
330
BA51
102
}
330
BA51
100
AcDbDictionary
281
     1
  3
Model
350
BCA0
  3
レイアウト1
350
BCA1
  0
DICTIONARY
  5
BC53
102
{ACAD_REACTORS
330
BA51
102
}
330
BA51
100
AcDbDictionary
281
     1
  3
ByBlock
350
BC5C
  3
ByLayer
350
BC54
  3
Global
350
BC64
  0
DICTIONARY
  5
BC9A
102
{ACAD_REACTORS
330
BA51
102
}
330
BA51
100
AcDbDictionary
281
     1
  3
Standard
350
BC9B
  0
DICTIONARY
  5
BA5B
102
{ACAD_REACTORS
330
BA51
102
}
330
BA51
100
AcDbDictionary
281
     1
  3
STANDARD
350
BA5C
  0
DICTIONARY
  5
BA5D
102
{ACAD_REACTORS
330
BA51
102
}
330
BA51
100
AcDbDictionary
281
     1
  0
ACDBDICTIONARYWDFLT
  5
BC51
102
{ACAD_REACTORS
330
BA51
102
}
330
BA51
100
AcDbDictionary
281
     1
  3
Normal
350
BC52
100
AcDbDictionaryWithDefault
340
BC52
  0
DICTIONARY
  5
BC88
102
{ACAD_REACTORS
330
BA51
102
}
330
BA51
100
AcDbDictionary
281
     1
  3
A0
350
BC89
  3
A1
350
BC8A
  3
A2
350
BC8B
  3
A3
350
BC8C
  3
A4
350
BC8D
  3
A5
350
BC8E
  3
A6
350
BC8F
  3
A7
350
BC90
  3
A8
350
BC91
  3
A9
350
BC92
  3
B0
350
BC93
  3
B1
350
BC94
  3
B2
350
BC95
  3
B3
350
BC96
  3
B4
350
BC97
  3
B5
350
BC98
  3
B6
350
BC99
  0
DICTIONARY
  5
BC9C
102
{ACAD_REACTORS
330
BA51
102
}
330
BA51
100
AcDbDictionary
281
     1
  3
Imperial24
350
BC9D
  0
DICTIONARY
  5
BC86
102
{ACAD_REACTORS
330
BA51
102
}
330
BA51
100
AcDbDictionary
281
     1
  3
Standard
350
BC87
  0
DICTIONARY
  5
BC6C
102
{ACAD_REACTORS
330
BA51
102
}
330
BA51
100
AcDbDictionary
281
     1
  3
2dWireframe
350
BC72
  3
Basic
350
BC71
  3
Brighten
350
BC78
  3
ColorChange
350
BC7C
  3
Conceptual
350
BC75
  3
Dim
350
BC77
  3
EdgeColorOff
350
BC84
  3
Facepattern
350
BC7B
  3
Flat
350
BC6D
  3
FlatWithEdges
350
BC6E
  3
Gouraud
350
BC6F
  3
GouraudWithEdges
350
BC70
  3
Hidden
350
BC74
  3
JitterOff
350
BC82
  3
Linepattern
350
BC7A
  3
OverhangOff
350
BC83
  3
Realistic
350
BC76
  3
Shaded
350
BC81
  3
Shaded with edges
350
BC80
  3
Shades of Gray
350
BC7D
  3
Sketchy
350
BC7E
  3
Thicken
350
BC79
  3
Wireframe
350
BC73
  3
X-Ray
350
BC7F
  0
XRECORD
  5
BCC1
102
{ACAD_REACTORS
330
BA51
102
}
330
BA51
100
AcDbXrecord
280
     1
 90
        1
330
BC87
  0
DICTIONARY
  5
BCB4
102
{ACAD_REACTORS
330
BA51
102
}
330
BA51
100
AcDbDictionary
281
     1
  3
CANNOSCALE
350
BCB9
  3
CMLEADERSTYLE
350
BCB6
  3
CTABLESTYLE
350
BCB5
  3
CVIEWDETAILSTYLE
350
BCB7
  3
CVIEWSECTIONSTYLE
350
BCB8
  3
DIMASSOC
350
BCBC
  3
INDEXCTL
350
BCBB
  3
SORTENTS
350
BCBA
  3
XCLIPFRAME
350
BCBD
  0
XRECORD
  5
BCC2
102
{ACAD_REACTORS
330
BA51
102
}
330
BA51
100
AcDbXrecord
280
     1
  1
DWGPROPS COOKIE
  2

  3

  4

  6

  7

  8
Yoshitsune
  9

300
=
301
=
302
=
303
=
304
=
305
=
306
=
307
=
308
=
309
=
 40
0.0000092013888889
 41
2451301.629332292
 42
2457192.688629074
  1

 90
        0
  0
XRECORD
  5
BCA5
102
{ACAD_REACTORS
330
BCA4
102
}
330
BCA4
100
AcDbXrecord
280
     1
290
     1
  0
XRECORD
  5
BCA7
102
{ACAD_REACTORS
330
BCA6
102
}
330
BCA6
100
AcDbXrecord
280
     1
290
     1
  0
XRECORD
  5
BCA9
102
{ACAD_REACTORS
330
BCA8
102
}
330
BCA8
100
AcDbXrecord
280
     1
290
     1
  0
XRECORD
  5
BCAB
102
{ACAD_REACTORS
330
BCAA
102
}
330
BCAA
100
AcDbXrecord
280
     1
290
     1
  0
XRECORD
  5
BCAD
102
{ACAD_REACTORS
330
BCAC
102
}
330
BCAC
100
AcDbXrecord
280
     1
290
     1
  0
XRECORD
  5
BCAF
102
{ACAD_REACTORS
330
BCAE
102
}
330
BCAE
100
AcDbXrecord
280
     1
290
     1
  0
XRECORD
  5
BCB1
102
{ACAD_REACTORS
330
BCB0
102
}
330
BCB0
100
AcDbXrecord
280
     1
290
     1
  0
XRECORD
  5
BCB3
102
{ACAD_REACTORS
330
BCB2
102
}
330
BCB2
100
AcDbXrecord
280
     1
290
     1
  0
XRECORD
  5
BC4D
102
{ACAD_REACTORS
330
BC4C
102
}
330
BC4C
100
AcDbXrecord
280
     1
340
BA63
  0
XRECORD
  5
BC4B
102
{ACAD_REACTORS
330
BC4A
102
}
330
BC4A
100
AcDbXrecord
280
     1
340
BA5F
  0
ACDBDETAILVIEWSTYLE
  5
BC9F
102
{ACAD_XDICTIONARY
360
BCFA
102
}
102
{ACAD_REACTORS
330
BC9E
102
}
330
BC9E
100
AcDbModelDocViewStyle
 70
     0
  3
Imperial24
290
     0
100
AcDbDetailViewStyle
 70
     0
 71
     0
 90
        3
 71
     1
340
BA56
 40
0.24
340
0
 40
0.24
300

 40
0.36
280
     3
 71
     2
340
BA5A
 90
       25
 71
     3
340
BA56
 40
0.24
 90
        1
 40
0.75
 90
        1
300
%<\AcVar ViewType \f "%tc1">% %<\AcVar ViewDetailId>%\PSCALE %<\AcVar ViewScale \f "%sn">%
 71
     4
340
BA5A
 90
       25
340
BA5A
 90
       25
280
     0
  0
LAYOUT
  5
BCA0
102
{ACAD_XDICTIONARY
360
BCFC
102
}
102
{ACAD_REACTORS
330
BA5E
102
}
330
BA5E
100
AcDbPlotSettings
  1

  2
Canon LBP9100C
  4

  6

 40
0.0
 41
0.0
 42
0.0
 43
0.0
 44
0.0
 45
0.0
 46
0.0
 47
0.0
 48
0.0
 49
0.0
140
0.0
141
0.0
142
1.0
143
1.0
 70
  1712
 72
     0
 73
     0
 74
     0
  7

 75
     0
147
1.0
148
0.0
149
0.0
100
AcDbLayout
  1
Model
 70
     1
 71
     0
 10
0.0
 20
0.0
 11
12.0
 21
9.0
 12
0.0
 22
0.0
 32
0.0
 14
0.0
 24
0.0
 34
0.0
 15
0.0
 25
0.0
 35
0.0
146
0.0
 13
0.0
 23
0.0
 33
0.0
 16
1.0
 26
0.0
 36
0.0
 17
0.0
 27
1.0
 37
0.0
 76
     0
330
BA63
331
BC49
  0
LAYOUT
  5
BCA1
102
{ACAD_XDICTIONARY
360
BCFE
102
}
102
{ACAD_REACTORS
330
BA5E
102
}
330
BA5E
100
AcDbPlotSettings
  1

  2
Canon LBP9100C
  4

  6

 40
0.0
 41
0.0
 42
0.0
 43
0.0
 44
0.0
 45
0.0
 46
0.0
 47
0.0
 48
0.0
 49
0.0
140
0.0
141
0.0
142
1.0
143
1.0
 70
   688
 72
     0
 73
     0
 74
     5
  7

 75
    16
147
1.0
148
0.0
149
0.0
100
AcDbLayout
  1
レイアウト1
 70
     0
 71
     1
 10
0.0
 20
0.0
 11
420.0
 21
297.0
 12
0.0
 22
0.0
 32
0.0
 14
1.000000000000000E+20
 24
1.000000000000000E+20
 34
1.000000000000000E+20
 15
-1.000000000000000E+20
 25
-1.000000000000000E+20
 35
-1.000000000000000E+20
146
0.0
 13
0.0
 23
0.0
 33
0.0
 16
1.0
 26
0.0
 36
0.0
 17
0.0
 27
1.0
 37
0.0
 76
     0
330
BA5F
  0
MATERIAL
  5
BC5C
102
{ACAD_XDICTIONARY
360
BC5D
102
}
102
{ACAD_REACTORS
330
BC53
102
}
330
BC53
100
AcDbMaterial
  1
ByBlock
 72
     0
 43
0.0208333333333333
 43
0.0
 43
0.0
 43
0.0
 43
0.0
 43
0.0208333333333333
 43
0.0
 43
0.0
 43
0.0
 43
0.0
 43
1.0
 43
0.0
 43
0.0
 43
0.0
 43
0.0
 43
1.0
 77
     0
 47
0.0208333333333333
 47
0.0
 47
0.0
 47
0.0
 47
0.0
 47
0.0208333333333333
 47
0.0
 47
0.0
 47
0.0
 47
0.0
 47
1.0
 47
0.0
 47
0.0
 47
0.0
 47
0.0
 47
1.0
171
     0
 49
0.0208333333333333
 49
0.0
 49
0.0
 49
0.0
 49
0.0
 49
0.0208333333333333
 49
0.0
 49
0.0
 49
0.0
 49
0.0
 49
1.0
 49
0.0
 49
0.0
 49
0.0
 49
0.0
 49
1.0
175
     0
142
0.0208333333333333
142
0.0
142
0.0
142
0.0
142
0.0
142
0.0208333333333333
142
0.0
142
0.0
142
0.0
142
0.0
142
1.0
142
0.0
142
0.0
142
0.0
142
0.0
142
1.0
179
     0
144
0.0208333333333333
144
0.0
144
0.0
144
0.0
144
0.0
144
0.0208333333333333
144
0.0
144
0.0
144
0.0
144
0.0
144
1.0
144
0.0
144
0.0
144
0.0
144
0.0
144
1.0
147
0.0208333333333333
147
0.0
147
0.0
147
0.0
147
0.0
147
0.0208333333333333
147
0.0
147
0.0
147
0.0
147
0.0
147
1.0
147
0.0
147
0.0
147
0.0
147
0.0
147
1.0
  0
MATERIAL
  5
BC54
102
{ACAD_XDICTIONARY
360
BC55
102
}
102
{ACAD_REACTORS
330
BC53
102
}
330
BC53
100
AcDbMaterial
  1
ByLayer
 72
     0
 43
0.0208333333333333
 43
0.0
 43
0.0
 43
0.0
 43
0.0
 43
0.0208333333333333
 43
0.0
 43
0.0
 43
0.0
 43
0.0
 43
1.0
 43
0.0
 43
0.0
 43
0.0
 43
0.0
 43
1.0
 77
     0
 47
0.0208333333333333
 47
0.0
 47
0.0
 47
0.0
 47
0.0
 47
0.0208333333333333
 47
0.0
 47
0.0
 47
0.0
 47
0.0
 47
1.0
 47
0.0
 47
0.0
 47
0.0
 47
0.0
 47
1.0
171
     0
 49
0.0208333333333333
 49
0.0
 49
0.0
 49
0.0
 49
0.0
 49
0.0208333333333333
 49
0.0
 49
0.0
 49
0.0
 49
0.0
 49
1.0
 49
0.0
 49
0.0
 49
0.0
 49
0.0
 49
1.0
175
     0
142
0.0208333333333333
142
0.0
142
0.0
142
0.0
142
0.0
142
0.0208333333333333
142
0.0
142
0.0
142
0.0
142
0.0
142
1.0
142
0.0
142
0.0
142
0.0
142
0.0
142
1.0
179
     0
144
0.0208333333333333
144
0.0
144
0.0
144
0.0
144
0.0
144
0.0208333333333333
144
0.0
144
0.0
144
0.0
144
0.0
144
1.0
144
0.0
144
0.0
144
0.0
144
0.0
144
1.0
147
0.0208333333333333
147
0.0
147
0.0
147
0.0
147
0.0
147
0.0208333333333333
147
0.0
147
0.0
147
0.0
147
0.0
147
1.0
147
0.0
147
0.0
147
0.0
147
0.0
147
1.0
  0
MATERIAL
  5
BC64
102
{ACAD_XDICTIONARY
360
BC65
102
}
102
{ACAD_REACTORS
330
BC53
102
}
330
BC53
100
AcDbMaterial
  1
Global
 72
     0
 43
0.0208333333333333
 43
0.0
 43
0.0
 43
0.0
 43
0.0
 43
0.0208333333333333
 43
0.0
 43
0.0
 43
0.0
 43
0.0
 43
1.0
 43
0.0
 43
0.0
 43
0.0
 43
0.0
 43
1.0
 77
     0
 47
0.0208333333333333
 47
0.0
 47
0.0
 47
0.0
 47
0.0
 47
0.0208333333333333
 47
0.0
 47
0.0
 47
0.0
 47
0.0
 47
1.0
 47
0.0
 47
0.0
 47
0.0
 47
0.0
 47
1.0
171
     0
 49
0.0208333333333333
 49
0.0
 49
0.0
 49
0.0
 49
0.0
 49
0.0208333333333333
 49
0.0
 49
0.0
 49
0.0
 49
0.0
 49
1.0
 49
0.0
 49
0.0
 49
0.0
 49
0.0
 49
1.0
175
     0
142
0.0208333333333333
142
0.0
142
0.0
142
0.0
142
0.0
142
0.0208333333333333
142
0.0
142
0.0
142
0.0
142
0.0
142
1.0
142
0.0
142
0.0
142
0.0
142
0.0
142
1.0
179
     0
144
0.0208333333333333
144
0.0
144
0.0
144
0.0
144
0.0
144
0.0208333333333333
144
0.0
144
0.0
144
0.0
144
0.0
144
1.0
144
0.0
144
0.0
144
0.0
144
0.0
144
1.0
147
0.0208333333333333
147
0.0
147
0.0
147
0.0
147
0.0
147
0.0208333333333333
147
0.0
147
0.0
147
0.0
147
0.0
147
1.0
147
0.0
147
0.0
147
0.0
147
0.0
147
1.0
  0
MLEADERSTYLE
  5
BC9B
102
{ACAD_REACTORS
330
BC9A
102
}
330
BC9A
100
AcDbMLeaderStyle
170
     2
171
     1
172
     0
 90
        2
 40
0.0
 41
0.0
173
     1
 91
-1056964608
340
BA58
 92
       -2
290
     1
 42
0.09
291
     1
 43
0.36
  3
Standard
 44
0.18
300

342
BA56
174
     1
178
     6
175
     1
176
     0
 93
-1056964608
 45
0.18
292
     0
297
     0
 46
0.18
 94
-1056964608
 47
1.0
 49
1.0
140
1.0
293
     1
141
0.0
294
     1
177
     0
142
1.0
295
     0
296
     0
143
0.125
1001
ACAD_MLEADERVER
1070
     2
  0
MLINESTYLE
  5
BA5C
102
{ACAD_REACTORS
330
BA5B
102
}
330
BA5B
100
AcDbMlineStyle
  2
STANDARD
 70
     0
  3

 62
   256
 51
90.0
 52
90.0
 71
     2
 49
0.5
 62
   256
  6
BYLAYER
 49
-0.5
 62
   256
  6
BYLAYER
  0
ACDBPLACEHOLDER
  5
BC52
102
{ACAD_REACTORS
330
BC51
102
}
330
BC51
  0
SCALE
  5
BC89
102
{ACAD_REACTORS
330
BC88
102
}
330
BC88
100
AcDbScale
 70
     0
300
1:1
140
1.0
141
1.0
290
     1
  0
SCALE
  5
BC8A
102
{ACAD_REACTORS
330
BC88
102
}
330
BC88
100
AcDbScale
 70
     0
300
1/128" = 1'-0"
140
0.0078125
141
12.0
290
     0
  0
SCALE
  5
BC8B
102
{ACAD_REACTORS
330
BC88
102
}
330
BC88
100
AcDbScale
 70
     0
300
1/64" = 1'-0"
140
0.015625
141
12.0
290
     0
  0
SCALE
  5
BC8C
102
{ACAD_REACTORS
330
BC88
102
}
330
BC88
100
AcDbScale
 70
     0
300
1/32" = 1'-0"
140
0.03125
141
12.0
290
     0
  0
SCALE
  5
BC8D
102
{ACAD_REACTORS
330
BC88
102
}
330
BC88
100
AcDbScale
 70
     0
300
1/16" = 1'-0"
140
0.0625
141
12.0
290
     0
  0
SCALE
  5
BC8E
102
{ACAD_REACTORS
330
BC88
102
}
330
BC88
100
AcDbScale
 70
     0
300
3/32" = 1'-0"
140
0.09375
141
12.0
290
     0
  0
SCALE
  5
BC8F
102
{ACAD_REACTORS
330
BC88
102
}
330
BC88
100
AcDbScale
 70
     0
300
1/8" = 1'-0"
140
0.125
141
12.0
290
     0
  0
SCALE
  5
BC90
102
{ACAD_REACTORS
330
BC88
102
}
330
BC88
100
AcDbScale
 70
     0
300
3/16" = 1'-0"
140
0.1875
141
12.0
290
     0
  0
SCALE
  5
BC91
102
{ACAD_REACTORS
330
BC88
102
}
330
BC88
100
AcDbScale
 70
     0
300
1/4" = 1'-0"
140
0.25
141
12.0
290
     0
  0
SCALE
  5
BC92
102
{ACAD_REACTORS
330
BC88
102
}
330
BC88
100
AcDbScale
 70
     0
300
3/8" = 1'-0"
140
0.375
141
12.0
290
     0
  0
SCALE
  5
BC93
102
{ACAD_REACTORS
330
BC88
102
}
330
BC88
100
AcDbScale
 70
     0
300
1/2" = 1'-0"
140
0.5
141
12.0
290
     0
  0
SCALE
  5
BC94
102
{ACAD_REACTORS
330
BC88
102
}
330
BC88
100
AcDbScale
 70
     0
300
3/4" = 1'-0"
140
0.75
141
12.0
290
     0
  0
SCALE
  5
BC95
102
{ACAD_REACTORS
330
BC88
102
}
330
BC88
100
AcDbScale
 70
     0
300
1" = 1'-0"
140
1.0
141
12.0
290
     0
  0
SCALE
  5
BC96
102
{ACAD_REACTORS
330
BC88
102
}
330
BC88
100
AcDbScale
 70
     0
300
1-1/2" = 1'-0"
140
1.5
141
12.0
290
     0
  0
SCALE
  5
BC97
102
{ACAD_REACTORS
330
BC88
102
}
330
BC88
100
AcDbScale
 70
     0
300
3" = 1'-0"
140
3.0
141
12.0
290
     0
  0
SCALE
  5
BC98
102
{ACAD_REACTORS
330
BC88
102
}
330
BC88
100
AcDbScale
 70
     0
300
6" = 1'-0"
140
6.0
141
12.0
290
     0
  0
SCALE
  5
BC99
102
{ACAD_REACTORS
330
BC88
102
}
330
BC88
100
AcDbScale
 70
     0
300
1'-0" = 1'-0"
140
12.0
141
12.0
290
     0
  0
ACDBSECTIONVIEWSTYLE
  5
BC9D
102
{ACAD_XDICTIONARY
360
BCF8
102
}
102
{ACAD_REACTORS
330
BC9C
102
}
330
BC9C
100
AcDbModelDocViewStyle
 70
     0
  3
Imperial24
290
     0
100
AcDbSectionViewStyle
 70
     0
 71
     0
 90
       78
 71
     1
340
BA56
 40
0.24
340
0
340
0
 40
0.24
300
I, O, Q, S, X, Z
 40
0.48
 90
        3
 40
0.18
 90
        1
 71
     2
340
BA5A
 90
       25
340
BA5A
 90
       50
 40
0.24
 40
0.0
 40
0.24
 71
     3
340
BA56
 40
0.24
 90
        1
 40
0.75
 90
        1
300
%<\AcVar ViewType \f "%tc1">% %<\AcVar ViewSectionStartId>%-%<\AcVar ViewSectionEndId>%\PSCALE %<\AcVar ViewScale \f "%sn">%
 71
     4
300
ANSI31
 40
1.0
 90
        0
290
     0
290
     0
 90
        6
 40
0.0
 40
1.570796326794896
 40
0.2617993877991494
 40
1.308996938995747
 40
-0.2617993877991494
 40
1.832595714594046
  0
TABLESTYLE
  5
BC87
102
{ACAD_XDICTIONARY
360
BCBF
102
}
102
{ACAD_REACTORS
330
BC86
102
}
330
BC86
100
AcDbTableStyle
  3
Standard
 70
     0
 71
     0
 40
0.06
 41
0.06
280
     0
281
     0
  7
STANDARD
140
0.18
170
     2
 62
     0
 63
     7
283
     0
274
    -2
284
     1
 64
     0
275
    -2
285
     1
 65
     0
276
    -2
286
     1
 66
     0
277
    -2
287
     1
 67
     0
278
    -2
288
     1
 68
     0
279
    -2
289
     1
 69
     0
  7
STANDARD
140
0.25
170
     5
 62
     0
 63
     7
283
     0
274
    -2
284
     1
 64
     0
275
    -2
285
     1
 65
     0
276
    -2
286
     1
 66
     0
277
    -2
287
     1
 67
     0
278
    -2
288
     1
 68
     0
279
    -2
289
     1
 69
     0
  7
STANDARD
140
0.18
170
     5
 62
     0
 63
     7
283
     0
274
    -2
284
     1
 64
     0
275
    -2
285
     1
 65
     0
276
    -2
286
     1
 66
     0
277
    -2
287
     1
 67
     0
278
    -2
288
     1
 68
     0
279
    -2
289
     1
 69
     0
  0
VISUALSTYLE
  5
BC72
102
{ACAD_XDICTIONARY
360
BCD0
102
}
102
{ACAD_REACTORS
330
BC6C
102
}
330
BC6C
100
AcDbVisualStyle
  2
2dWireframe
 70
     4
 71
     0
 72
     2
 73
     0
 90
        0
 40
-0.6
 41
-30.0
 62
     5
 63
     7
 74
     1
 91
        4
 64
     7
 65
   257
 75
     1
175
     1
 42
1.0
 92
        0
 66
   257
 43
1.0
 76
     1
 77
     6
 78
     2
 67
     7
 79
     5
170
     0
171
     0
290
     0
174
     0
 93
        1
 44
0.0
173
     0
291
     0
 45
0.0
1001
ACAD
1000
AcDbSavedByObjectVersion
1070
     0
  0
VISUALSTYLE
  5
BC71
102
{ACAD_XDICTIONARY
360
BCCE
102
}
102
{ACAD_REACTORS
330
BC6C
102
}
330
BC6C
100
AcDbVisualStyle
  2
Basic
 70
     7
 71
     1
 72
     0
 73
     1
 90
        0
 40
-0.6
 41
-30.0
 62
     5
 63
     7
 74
     0
 91
        4
 64
     7
 65
   257
 75
     1
175
     1
 42
1.0
 92
        8
 66
     7
 43
1.0
 76
     1
 77
     6
 78
     2
 67
     7
 79
     5
170
     0
171
     0
290
     0
174
     0
 93
        1
 44
0.0
173
     0
291
     1
 45
0.0
1001
ACAD
1000
AcDbSavedByObjectVersion
1070
     0
  0
VISUALSTYLE
  5
BC78
102
{ACAD_XDICTIONARY
360
BCDC
102
}
102
{ACAD_REACTORS
330
BC6C
102
}
330
BC6C
100
AcDbVisualStyle
  2
Brighten
 70
    12
 71
     2
 72
     2
 73
     0
 90
        0
 40
-0.6
 41
-30.0
 62
     5
 63
     7
 74
     1
 91
        4
 64
     7
 65
   257
 75
     1
175
     1
 42
1.0
 92
        8
 66
     7
 43
1.0
 76
     1
 77
     6
 78
     2
 67
     7
 79
     5
170
     0
171
     0
290
     0
174
     0
 93
        1
 44
50.0
173
     0
291
     1
 45
0.0
1001
ACAD
1000
AcDbSavedByObjectVersion
1070
     0
  0
VISUALSTYLE
  5
BC7C
102
{ACAD_XDICTIONARY
360
BCE4
102
}
102
{ACAD_REACTORS
330
BC6C
102
}
330
BC6C
100
AcDbVisualStyle
  2
ColorChange
 70
    16
 71
     2
 72
     2
 73
     3
 90
        0
 40
-0.6
 41
-30.0
 62
     5
 63
     8
 74
     1
 91
        4
 64
     7
 65
   257
 75
     1
175
     1
 42
1.0
 92
        8
 66
     8
 43
1.0
 76
     1
 77
     6
 78
     2
 67
     7
 79
     5
170
     0
171
     0
290
     0
174
     0
 93
        1
 44
0.0
173
     0
291
     1
 45
0.0
1001
ACAD
1000
AcDbSavedByObjectVersion
1070
     0
  0
VISUALSTYLE
  5
BC75
102
{ACAD_XDICTIONARY
360
BCD6
102
}
102
{ACAD_REACTORS
330
BC6C
102
}
330
BC6C
100
AcDbVisualStyle
  2
Conceptual
 70
     9
 71
     3
 72
     2
 73
     0
 90
        0
 40
-0.6
 41
-30.0
 62
     5
 63
     7
 74
     2
 91
        2
 64
     7
 65
   257
 75
     1
175
     1
 42
179.0
 92
        8
 66
     7
 43
1.0
 76
     1
 77
     6
 78
     2
 67
     7
 79
     3
170
     0
171
     0
290
     0
174
     0
 93
        1
 44
0.0
173
     0
291
     0
 45
0.0
1001
ACAD
1000
AcDbSavedByObjectVersion
1070
     0
  0
VISUALSTYLE
  5
BC77
102
{ACAD_XDICTIONARY
360
BCDA
102
}
102
{ACAD_REACTORS
330
BC6C
102
}
330
BC6C
100
AcDbVisualStyle
  2
Dim
 70
    11
 71
     2
 72
     2
 73
     0
 90
        0
 40
-0.6
 41
-30.0
 62
     5
 63
     7
 74
     1
 91
        4
 64
     7
 65
   257
 75
     1
175
     1
 42
1.0
 92
        8
 66
     7
 43
1.0
 76
     1
 77
     6
 78
     2
 67
     7
 79
     5
170
     0
171
     0
290
     0
174
     0
 93
        1
 44
-50.0
173
     0
291
     1
 45
0.0
1001
ACAD
1000
AcDbSavedByObjectVersion
1070
     0
  0
VISUALSTYLE
  5
BC84
102
{ACAD_XDICTIONARY
360
BCF4
102
}
102
{ACAD_REACTORS
330
BC6C
102
}
330
BC6C
100
AcDbVisualStyle
  2
EdgeColorOff
 70
    22
 71
     2
 72
     2
 73
     0
 90
        0
 40
-0.6
 41
-30.0
 62
     5
 63
     7
 74
     1
 91
        4
 64
     7
 65
   257
 75
     1
175
     1
 42
1.0
 92
        8
 66
     7
 43
1.0
 76
     1
 77
     6
 78
     2
 67
     7
 79
     5
170
     0
171
     0
290
     0
174
     0
 93
        1
 44
0.0
173
     0
291
     1
 45
0.0
1001
ACAD
1000
AcDbSavedByObjectVersion
1070
     0
  0
VISUALSTYLE
  5
BC7B
102
{ACAD_XDICTIONARY
360
BCE2
102
}
102
{ACAD_REACTORS
330
BC6C
102
}
330
BC6C
100
AcDbVisualStyle
  2
Facepattern
 70
    15
 71
     2
 72
     2
 73
     0
 90
        0
 40
-0.6
 41
-30.0
 62
     5
 63
     7
 74
     1
 91
        4
 64
     7
 65
   257
 75
     1
175
     1
 42
1.0
 92
        8
 66
     7
 43
1.0
 76
     1
 77
     6
 78
     2
 67
     7
 79
     5
170
     0
171
     0
290
     0
174
     0
 93
        1
 44
0.0
173
     0
291
     1
 45
0.0
1001
ACAD
1000
AcDbSavedByObjectVersion
1070
     0
  0
VISUALSTYLE
  5
BC6D
102
{ACAD_XDICTIONARY
360
BCC6
102
}
102
{ACAD_REACTORS
330
BC6C
102
}
330
BC6C
100
AcDbVisualStyle
  2
Flat
 70
     0
 71
     2
 72
     1
 73
     1
 90
        2
 40
-0.6
 41
30.0
 62
     5
 63
     7
 74
     0
 91
        0
 64
     7
 65
   257
 75
     1
175
     1
 42
1.0
 92
        8
 66
     7
 43
1.0
 76
     1
 77
     6
 78
     2
 67
     7
 79
     5
170
     0
171
     0
290
     0
174
     0
 93
       13
 44
0.0
173
     0
291
     1
 45
0.0
1001
ACAD
1000
AcDbSavedByObjectVersion
1070
     0
  0
VISUALSTYLE
  5
BC6E
102
{ACAD_XDICTIONARY
360
BCC8
102
}
102
{ACAD_REACTORS
330
BC6C
102
}
330
BC6C
100
AcDbVisualStyle
  2
FlatWithEdges
 70
     1
 71
     2
 72
     1
 73
     1
 90
        2
 40
-0.6
 41
30.0
 62
     5
 63
     7
 74
     1
 91
        0
 64
     7
 65
   257
 75
     1
175
     1
 42
1.0
 92
        0
 66
   257
 43
1.0
 76
     1
 77
     6
 78
     2
 67
     7
 79
     5
170
     0
171
     0
290
     0
174
     0
 93
       13
 44
0.0
173
     0
291
     1
 45
0.0
1001
ACAD
1000
AcDbSavedByObjectVersion
1070
     0
  0
VISUALSTYLE
  5
BC6F
102
{ACAD_XDICTIONARY
360
BCCA
102
}
102
{ACAD_REACTORS
330
BC6C
102
}
330
BC6C
100
AcDbVisualStyle
  2
Gouraud
 70
     2
 71
     2
 72
     2
 73
     1
 90
        2
 40
-0.6
 41
30.0
 62
     5
 63
     7
 74
     0
 91
        0
 64
     7
 65
   257
 75
     1
175
     1
 42
1.0
 92
        0
 66
     7
 43
1.0
 76
     1
 77
     6
 78
     2
 67
     7
 79
     5
170
     0
171
     0
290
     0
174
     0
 93
       13
 44
0.0
173
     0
291
     1
 45
0.0
1001
ACAD
1000
AcDbSavedByObjectVersion
1070
     0
  0
VISUALSTYLE
  5
BC70
102
{ACAD_XDICTIONARY
360
BCCC
102
}
102
{ACAD_REACTORS
330
BC6C
102
}
330
BC6C
100
AcDbVisualStyle
  2
GouraudWithEdges
 70
     3
 71
     2
 72
     2
 73
     1
 90
        2
 40
-0.6
 41
30.0
 62
     5
 63
     7
 74
     1
 91
        0
 64
     7
 65
   257
 75
     1
175
     1
 42
1.0
 92
        0
 66
   257
 43
1.0
 76
     1
 77
     6
 78
     2
 67
     7
 79
     5
170
     0
171
     0
290
     0
174
     0
 93
       13
 44
0.0
173
     0
291
     1
 45
0.0
1001
ACAD
1000
AcDbSavedByObjectVersion
1070
     0
  0
VISUALSTYLE
  5
BC74
102
{ACAD_XDICTIONARY
360
BCD4
102
}
102
{ACAD_REACTORS
330
BC6C
102
}
330
BC6C
100
AcDbVisualStyle
  2
Hidden
 70
     6
 71
     1
 72
     2
 73
     2
 90
        0
 40
-0.6
 41
-30.0
 62
     5
 63
     7
 74
     2
 91
        2
 64
     7
 65
   257
 75
     2
175
     1
 42
40.0
 92
        0
 66
   257
 43
1.0
 76
     1
 77
     6
 78
     2
 67
     7
 79
     3
170
     0
171
     0
290
     0
174
     0
 93
        1
 44
0.0
173
     0
291
     0
 45
0.0
1001
ACAD
1000
AcDbSavedByObjectVersion
1070
     0
  0
VISUALSTYLE
  5
BC82
102
{ACAD_XDICTIONARY
360
BCF0
102
}
102
{ACAD_REACTORS
330
BC6C
102
}
330
BC6C
100
AcDbVisualStyle
  2
JitterOff
 70
    20
 71
     2
 72
     2
 73
     0
 90
        0
 40
-0.6
 41
-30.0
 62
     5
 63
     7
 74
     1
 91
        4
 64
     7
 65
   257
 75
     1
175
     1
 42
1.0
 92
       10
 66
     7
 43
1.0
 76
     1
 77
     6
 78
     2
 67
     7
 79
     5
170
     0
171
     0
290
     0
174
     0
 93
        1
 44
0.0
173
     0
291
     1
 45
0.0
1001
ACAD
1000
AcDbSavedByObjectVersion
1070
     0
  0
VISUALSTYLE
  5
BC7A
102
{ACAD_XDICTIONARY
360
BCE0
102
}
102
{ACAD_REACTORS
330
BC6C
102
}
330
BC6C
100
AcDbVisualStyle
  2
Linepattern
 70
    14
 71
     2
 72
     2
 73
     0
 90
        0
 40
-0.6
 41
-30.0
 62
     5
 63
     7
 74
     1
 91
        4
 64
     7
 65
   257
 75
     7
175
     7
 42
1.0
 92
        8
 66
     7
 43
1.0
 76
     1
 77
     6
 78
     2
 67
     7
 79
     5
170
     0
171
     0
290
     0
174
     0
 93
        1
 44
0.0
173
     0
291
     1
 45
0.0
1001
ACAD
1000
AcDbSavedByObjectVersion
1070
     0
  0
VISUALSTYLE
  5
BC83
102
{ACAD_XDICTIONARY
360
BCF2
102
}
102
{ACAD_REACTORS
330
BC6C
102
}
330
BC6C
100
AcDbVisualStyle
  2
OverhangOff
 70
    21
 71
     2
 72
     2
 73
     0
 90
        0
 40
-0.6
 41
-30.0
 62
     5
 63
     7
 74
     1
 91
        4
 64
     7
 65
   257
 75
     1
175
     1
 42
1.0
 92
        9
 66
     7
 43
1.0
 76
     1
 77
     6
 78
     2
 67
     7
 79
     5
170
     0
171
     0
290
     0
174
     0
 93
        1
 44
0.0
173
     0
291
     1
 45
0.0
1001
ACAD
1000
AcDbSavedByObjectVersion
1070
     0
  0
VISUALSTYLE
  5
BC76
102
{ACAD_XDICTIONARY
360
BCD8
102
}
102
{ACAD_REACTORS
330
BC6C
102
}
330
BC6C
100
AcDbVisualStyle
  2
Realistic
 70
     8
 71
     2
 72
     3
 73
     0
 90
        2
 40
-0.6
 41
30.0
 62
     5
 63
     7
 74
     0
 91
        0
 64
     7
 65
   257
 75
     1
175
     1
 42
1.0
 92
        8
 66
   257
 43
1.0
 76
     1
 77
     6
 78
     2
 67
     7
 79
     3
170
     0
171
     0
290
     0
174
     0
 93
       13
 44
0.0
173
     0
291
     0
 45
0.0
1001
ACAD
1000
AcDbSavedByObjectVersion
1070
     0
  0
VISUALSTYLE
  5
BC81
102
{ACAD_XDICTIONARY
360
BCEE
102
}
102
{ACAD_REACTORS
330
BC6C
102
}
330
BC6C
100
AcDbVisualStyle
  2
Shaded
 70
    27
 71
     2
 72
     2
 73
     1
 90
        2
 40
-0.6
 41
30.0
 62
     5
 63
     7
 74
     0
 91
        4
 64
     7
 65
   257
 75
     1
175
     1
 42
1.0
 92
        8
 66
   257
 43
1.0
 76
     1
 77
     6
 78
     2
 67
     8
 79
     3
170
     0
171
     0
290
     0
174
     0
 93
        5
 44
0.0
173
     0
291
     0
 45
0.0
1001
ACAD
1000
AcDbSavedByObjectVersion
1070
     0
  0
VISUALSTYLE
  5
BC80
102
{ACAD_XDICTIONARY
360
BCEC
102
}
102
{ACAD_REACTORS
330
BC6C
102
}
330
BC6C
100
AcDbVisualStyle
  2
Shaded with edges
 70
    26
 71
     2
 72
     2
 73
     1
 90
        2
 40
-0.6
 41
30.0
 62
     5
 63
     7
 74
     1
 91
       10
 64
     7
 65
   257
 75
     2
175
     1
 42
1.0
 92
        8
 66
   257
 43
1.0
 76
     1
 77
     6
 78
     2
 67
     7
 79
     3
170
     0
171
     0
290
     0
174
     0
 93
        5
 44
0.0
173
     0
291
     0
 45
0.0
1001
ACAD
1000
AcDbSavedByObjectVersion
1070
     0
  0
VISUALSTYLE
  5
BC7D
102
{ACAD_XDICTIONARY
360
BCE6
102
}
102
{ACAD_REACTORS
330
BC6C
102
}
330
BC6C
100
AcDbVisualStyle
  2
Shades of Gray
 70
    23
 71
     2
 72
     2
 73
     3
 90
        0
 40
-0.6
 41
-30.0
 62
     5
 63
     7
 74
     2
 91
        2
 64
     7
 65
     7
 75
     1
175
     1
 42
40.0
 92
        8
 66
     7
 43
1.0
 76
     1
 77
     6
 78
     2
 67
     7
 79
     3
170
     0
171
     0
290
     0
174
     0
 93
        1
 44
0.0
173
     0
291
     0
 45
0.0
1001
ACAD
1000
AcDbSavedByObjectVersion
1070
     0
  0
VISUALSTYLE
  5
BC7E
102
{ACAD_XDICTIONARY
360
BCE8
102
}
102
{ACAD_REACTORS
330
BC6C
102
}
330
BC6C
100
AcDbVisualStyle
  2
Sketchy
 70
    24
 71
     1
 72
     2
 73
     2
 90
        0
 40
-0.6
 41
-30.0
 62
     5
 63
     7
 74
     2
 91
        2
 64
     7
 65
     7
 75
     1
175
     1
 42
40.0
 92
       11
 66
     7
 43
1.0
 76
     1
 77
     6
 78
     2
 67
     7
 79
     6
170
     0
171
     0
290
     0
174
     0
 93
        1
 44
0.0
173
     0
291
     0
 45
0.0
1001
ACAD
1000
AcDbSavedByObjectVersion
1070
     0
  0
VISUALSTYLE
  5
BC79
102
{ACAD_XDICTIONARY
360
BCDE
102
}
102
{ACAD_REACTORS
330
BC6C
102
}
330
BC6C
100
AcDbVisualStyle
  2
Thicken
 70
    13
 71
     2
 72
     2
 73
     0
 90
        0
 40
-0.6
 41
-30.0
 62
     5
 63
     7
 74
     1
 91
        4
 64
     7
 65
   257
 75
     1
175
     1
 42
1.0
 92
       12
 66
     7
 43
1.0
 76
     1
 77
     6
 78
     2
 67
     7
 79
     5
170
     0
171
     0
290
     0
174
     0
 93
        1
 44
0.0
173
     0
291
     1
 45
0.0
1001
ACAD
1000
AcDbSavedByObjectVersion
1070
     0
  0
VISUALSTYLE
  5
BC73
102
{ACAD_XDICTIONARY
360
BCD2
102
}
102
{ACAD_REACTORS
330
BC6C
102
}
330
BC6C
100
AcDbVisualStyle
  2
Wireframe
 70
     5
 71
     0
 72
     2
 73
     0
 90
        0
 40
-0.6
 41
-30.0
 62
     5
 63
     7
 74
     1
 91
        4
 64
     7
 65
   257
 75
     1
175
     1
 42
1.0
 92
        0
 66
   257
 43
1.0
 76
     1
 77
     6
 78
     2
 67
     7
 79
     3
170
     0
171
     0
290
     0
174
     0
 93
        1
 44
0.0
173
     0
291
     0
 45
0.0
1001
ACAD
1000
AcDbSavedByObjectVersion
1070
     0
  0
VISUALSTYLE
  5
BC7F
102
{ACAD_XDICTIONARY
360
BCEA
102
}
102
{ACAD_REACTORS
330
BC6C
102
}
330
BC6C
100
AcDbVisualStyle
  2
X-Ray
 70
    25
 71
     2
 72
     2
 73
     1
 90
        1
 40
0.5
 41
-30.0
 62
     5
 63
     7
 74
     1
 91
        0
 64
     7
 65
   257
 75
     1
175
     1
 42
1.0
 92
        8
 66
     7
 43
1.0
 76
     1
 77
     6
 78
     2
 67
     7
 79
     3
170
     0
171
     0
290
     0
174
     0
 93
       13
 44
0.0
173
     0
291
     0
 45
0.0
1001
ACAD
1000
AcDbSavedByObjectVersion
1070
     0
  0
DICTIONARYVAR
  5
BCB9
102
{ACAD_REACTORS
330
BCB4
102
}
330
BCB4
100
DictionaryVariables
280
     0
  1
1:1
  0
DICTIONARYVAR
  5
BCB6
102
{ACAD_REACTORS
330
BCB4
102
}
330
BCB4
100
DictionaryVariables
280
     0
  1
STANDARD
  0
DICTIONARYVAR
  5
BCB5
102
{ACAD_REACTORS
330
BCB4
102
}
330
BCB4
100
DictionaryVariables
280
     0
  1
STANDARD
  0
DICTIONARYVAR
  5
BCB7
102
{ACAD_REACTORS
330
BCB4
102
}
330
BCB4
100
DictionaryVariables
280
     0
  1
Imperial24
  0
DICTIONARYVAR
  5
BCB8
102
{ACAD_REACTORS
330
BCB4
102
}
330
BCB4
100
DictionaryVariables
280
     0
  1
Imperial24
  0
DICTIONARYVAR
  5
BCBC
102
{ACAD_REACTORS
330
BCB4
102
}
330
BCB4
100
DictionaryVariables
280
     0
  1
1
  0
DICTIONARYVAR
  5
BCBB
102
{ACAD_REACTORS
330
BCB4
102
}
330
BCB4
100
DictionaryVariables
280
     0
  1
0
  0
DICTIONARYVAR
  5
BCBA
102
{ACAD_REACTORS
330
BCB4
102
}
330
BCB4
100
DictionaryVariables
280
     0
  1
127
  0
DICTIONARYVAR
  5
BCBD
102
{ACAD_REACTORS
330
BCB4
102
}
330
BCB4
100
DictionaryVariables
280
     0
  1
2
  0
DICTIONARY
  5
BCFA
330
BC9F
100
AcDbDictionary
280
     1
281
     1
  3
ACAD_XREC_ROUNDTRIP
360
BCFB
  0
DICTIONARY
  5
BCFC
330
BCA0
100
AcDbDictionary
280
     1
281
     1
  3
ACAD_XREC_ROUNDTRIP
360
BCFD
  0
DICTIONARY
  5
BCFE
330
BCA1
100
AcDbDictionary
280
     1
281
     1
  3
ACAD_XREC_ROUNDTRIP
360
BCFF
  0
DICTIONARY
  5
BC5D
330
BC5C
100
AcDbDictionary
280
     1
281
     1
  3
ACAD_XREC_ROUNDTRIP
360
BCC4
  3
BUMPTILE
360
BC5F
  3
DIFFUSETILE
360
BC5E
  3
OPACITYTILE
360
BC62
  3
REFLECTIONTILE
360
BC61
  3
REFRACTIONTILE
360
BC63
  3
SPECULARTILE
360
BC60
  0
DICTIONARY
  5
BC55
330
BC54
100
AcDbDictionary
280
     1
281
     1
  3
ACAD_XREC_ROUNDTRIP
360
BCC3
  3
BUMPTILE
360
BC57
  3
DIFFUSETILE
360
BC56
  3
OPACITYTILE
360
BC5A
  3
REFLECTIONTILE
360
BC59
  3
REFRACTIONTILE
360
BC5B
  3
SPECULARTILE
360
BC58
  0
DICTIONARY
  5
BC65
330
BC64
100
AcDbDictionary
280
     1
281
     1
  3
ACAD_XREC_ROUNDTRIP
360
BCC5
  3
BUMPTILE
360
BC67
  3
DIFFUSETILE
360
BC66
  3
OPACITYTILE
360
BC6A
  3
REFLECTIONTILE
360
BC69
  3
REFRACTIONTILE
360
BC6B
  3
SPECULARTILE
360
BC68
  0
DICTIONARY
  5
BCF8
330
BC9D
100
AcDbDictionary
280
     1
281
     1
  3
ACAD_XREC_ROUNDTRIP
360
BCF9
  0
DICTIONARY
  5
BCBF
330
BC87
100
AcDbDictionary
280
     1
281
     1
  3
ACAD_ROUNDTRIP_2008_TABLESTYLE_CELLSTYLEMAP
360
BCC0
  3
ACAD_XREC_ROUNDTRIP
360
BCF6
  0
DICTIONARY
  5
BCD0
330
BC72
100
AcDbDictionary
280
     1
281
     1
  3
ACAD_XREC_ROUNDTRIP
360
BCD1
  0
DICTIONARY
  5
BCCE
330
BC71
100
AcDbDictionary
280
     1
281
     1
  3
ACAD_XREC_ROUNDTRIP
360
BCCF
  0
DICTIONARY
  5
BCDC
330
BC78
100
AcDbDictionary
280
     1
281
     1
  3
ACAD_XREC_ROUNDTRIP
360
BCDD
  0
DICTIONARY
  5
BCE4
330
BC7C
100
AcDbDictionary
280
     1
281
     1
  3
ACAD_XREC_ROUNDTRIP
360
BCE5
  0
DICTIONARY
  5
BCD6
330
BC75
100
AcDbDictionary
280
     1
281
     1
  3
ACAD_XREC_ROUNDTRIP
360
BCD7
  0
DICTIONARY
  5
BCDA
330
BC77
100
AcDbDictionary
280
     1
281
     1
  3
ACAD_XREC_ROUNDTRIP
360
BCDB
  0
DICTIONARY
  5
BCF4
330
BC84
100
AcDbDictionary
280
     1
281
     1
  3
ACAD_XREC_ROUNDTRIP
360
BCF5
  0
DICTIONARY
  5
BCE2
330
BC7B
100
AcDbDictionary
280
     1
281
     1
  3
ACAD_XREC_ROUNDTRIP
360
BCE3
  0
DICTIONARY
  5
BCC6
330
BC6D
100
AcDbDictionary
280
     1
281
     1
  3
ACAD_XREC_ROUNDTRIP
360
BCC7
  0
DICTIONARY
  5
BCC8
330
BC6E
100
AcDbDictionary
280
     1
281
     1
  3
ACAD_XREC_ROUNDTRIP
360
BCC9
  0
DICTIONARY
  5
BCCA
330
BC6F
100
AcDbDictionary
280
     1
281
     1
  3
ACAD_XREC_ROUNDTRIP
360
BCCB
  0
DICTIONARY
  5
BCCC
330
BC70
100
AcDbDictionary
280
     1
281
     1
  3
ACAD_XREC_ROUNDTRIP
360
BCCD
  0
DICTIONARY
  5
BCD4
330
BC74
100
AcDbDictionary
280
     1
281
     1
  3
ACAD_XREC_ROUNDTRIP
360
BCD5
  0
DICTIONARY
  5
BCF0
330
BC82
100
AcDbDictionary
280
     1
281
     1
  3
ACAD_XREC_ROUNDTRIP
360
BCF1
  0
DICTIONARY
  5
BCE0
330
BC7A
100
AcDbDictionary
280
     1
281
     1
  3
ACAD_XREC_ROUNDTRIP
360
BCE1
  0
DICTIONARY
  5
BCF2
330
BC83
100
AcDbDictionary
280
     1
281
     1
  3
ACAD_XREC_ROUNDTRIP
360
BCF3
  0
DICTIONARY
  5
BCD8
330
BC76
100
AcDbDictionary
280
     1
281
     1
  3
ACAD_XREC_ROUNDTRIP
360
BCD9
  0
DICTIONARY
  5
BCEE
330
BC81
100
AcDbDictionary
280
     1
281
     1
  3
ACAD_XREC_ROUNDTRIP
360
BCEF
  0
DICTIONARY
  5
BCEC
330
BC80
100
AcDbDictionary
280
     1
281
     1
  3
ACAD_XREC_ROUNDTRIP
360
BCED
  0
DICTIONARY
  5
BCE6
330
BC7D
100
AcDbDictionary
280
     1
281
     1
  3
ACAD_XREC_ROUNDTRIP
360
BCE7
  0
DICTIONARY
  5
BCE8
330
BC7E
100
AcDbDictionary
280
     1
281
     1
  3
ACAD_XREC_ROUNDTRIP
360
BCE9
  0
DICTIONARY
  5
BCDE
330
BC79
100
AcDbDictionary
280
     1
281
     1
  3
ACAD_XREC_ROUNDTRIP
360
BCDF
  0
DICTIONARY
  5
BCD2
330
BC73
100
AcDbDictionary
280
     1
281
     1
  3
ACAD_XREC_ROUNDTRIP
360
BCD3
  0
DICTIONARY
  5
BCEA
330
BC7F
100
AcDbDictionary
280
     1
281
     1
  3
ACAD_XREC_ROUNDTRIP
360
BCEB
  0
XRECORD
  5
BCFB
102
{ACAD_REACTORS
330
BCFA
102
}
330
BCFA
100
AcDbXrecord
280
     1
102
DISPLAYNAME
  1
Imperial24
102
FLAGS
 90
        0
  0
XRECORD
  5
BCFD
102
{ACAD_REACTORS
330
BCFC
102
}
330
BCFC
100
AcDbXrecord
280
     1
102
SHADEPLOT
 70
     0
102
SHADEPLOTRESLEVEL
 70
     2
102
SHADEPLOTCUSTOMDPI
 70
   300
  0
XRECORD
  5
BCFF
102
{ACAD_REACTORS
330
BCFE
102
}
330
BCFE
100
AcDbXrecord
280
     1
102
SHADEPLOT
 70
     0
102
SHADEPLOTRESLEVEL
 70
     2
102
SHADEPLOTCUSTOMDPI
 70
   300
  0
XRECORD
  5
BCC4
102
{ACAD_REACTORS
330
BC5D
102
}
330
BC5D
100
AcDbXrecord
280
     1
102
MATERIAL
148
0.0
149
0.0
149
0.0
 93
        0
 94
      127
282
     0
 72
     0
 77
     0
171
     0
175
     0
179
     0
273
     0
  0
XRECORD
  5
BC5F
102
{ACAD_REACTORS
330
BC5D
102
}
330
BC5D
100
AcDbXrecord
280
     1
270
     1
271
     1
  0
XRECORD
  5
BC5E
102
{ACAD_REACTORS
330
BC5D
102
}
330
BC5D
100
AcDbXrecord
280
     1
270
     1
271
     1
  0
XRECORD
  5
BC62
102
{ACAD_REACTORS
330
BC5D
102
}
330
BC5D
100
AcDbXrecord
280
     1
270
     1
271
     1
  0
XRECORD
  5
BC61
102
{ACAD_REACTORS
330
BC5D
102
}
330
BC5D
100
AcDbXrecord
280
     1
270
     1
271
     1
  0
XRECORD
  5
BC63
102
{ACAD_REACTORS
330
BC5D
102
}
330
BC5D
100
AcDbXrecord
280
     1
270
     1
271
     1
  0
XRECORD
  5
BC60
102
{ACAD_REACTORS
330
BC5D
102
}
330
BC5D
100
AcDbXrecord
280
     1
270
     1
271
     1
  0
XRECORD
  5
BCC3
102
{ACAD_REACTORS
330
BC55
102
}
330
BC55
100
AcDbXrecord
280
     1
102
MATERIAL
148
0.0
149
0.0
149
0.0
 93
        0
 94
      127
282
     0
 72
     0
 77
     0
171
     0
175
     0
179
     0
273
     0
  0
XRECORD
  5
BC57
102
{ACAD_REACTORS
330
BC55
102
}
330
BC55
100
AcDbXrecord
280
     1
270
     1
271
     1
  0
XRECORD
  5
BC56
102
{ACAD_REACTORS
330
BC55
102
}
330
BC55
100
AcDbXrecord
280
     1
270
     1
271
     1
  0
XRECORD
  5
BC5A
102
{ACAD_REACTORS
330
BC55
102
}
330
BC55
100
AcDbXrecord
280
     1
270
     1
271
     1
  0
XRECORD
  5
BC59
102
{ACAD_REACTORS
330
BC55
102
}
330
BC55
100
AcDbXrecord
280
     1
270
     1
271
     1
  0
XRECORD
  5
BC5B
102
{ACAD_REACTORS
330
BC55
102
}
330
BC55
100
AcDbXrecord
280
     1
270
     1
271
     1
  0
XRECORD
  5
BC58
102
{ACAD_REACTORS
330
BC55
102
}
330
BC55
100
AcDbXrecord
280
     1
270
     1
271
     1
  0
XRECORD
  5
BCC5
102
{ACAD_REACTORS
330
BC65
102
}
330
BC65
100
AcDbXrecord
280
     1
102
MATERIAL
148
0.0
149
0.0
149
0.0
 93
        0
 94
      127
282
     0
 72
     0
 77
     0
171
     0
175
     0
179
     0
273
     0
  0
XRECORD
  5
BC67
102
{ACAD_REACTORS
330
BC65
102
}
330
BC65
100
AcDbXrecord
280
     1
270
     1
271
     1
  0
XRECORD
  5
BC66
102
{ACAD_REACTORS
330
BC65
102
}
330
BC65
100
AcDbXrecord
280
     1
270
     1
271
     1
  0
XRECORD
  5
BC6A
102
{ACAD_REACTORS
330
BC65
102
}
330
BC65
100
AcDbXrecord
280
     1
270
     1
271
     1
  0
XRECORD
  5
BC69
102
{ACAD_REACTORS
330
BC65
102
}
330
BC65
100
AcDbXrecord
280
     1
270
     1
271
     1
  0
XRECORD
  5
BC6B
102
{ACAD_REACTORS
330
BC65
102
}
330
BC65
100
AcDbXrecord
280
     1
270
     1
271
     1
  0
XRECORD
  5
BC68
102
{ACAD_REACTORS
330
BC65
102
}
330
BC65
100
AcDbXrecord
280
     1
270
     1
271
     1
  0
XRECORD
  5
BCF9
102
{ACAD_REACTORS
330
BCF8
102
}
330
BCF8
100
AcDbXrecord
280
     1
102
DISPLAYNAME
  1
Imperial24
102
FLAGS
 90
        0
  0
CELLSTYLEMAP
  5
BCC0
102
{ACAD_REACTORS
330
BCBF
102
}
330
BCBF
100
AcDbCellStyleMap
 90
        3
300
CELLSTYLE
  1
TABLEFORMAT_BEGIN
 90
        5
170
     1
 91
        0
 92
    32768
 62
   257
 93
        1
300
CONTENTFORMAT
  1
CONTENTFORMAT_BEGIN
 90
        0
 91
        0
 92
      512
 93
        0
300

 40
0.0
140
1.0
 94
        5
 62
     0
340
BA56
144
0.25
309
CONTENTFORMAT_END
171
     0
 94
        0
309
TABLEFORMAT_END
  1
CELLSTYLE_BEGIN
 90
        1
 91
        1
300
_TITLE
309
CELLSTYLE_END
300
CELLSTYLE
  1
TABLEFORMAT_BEGIN
 90
        5
170
     1
 91
        0
 92
        0
 62
   257
 93
        1
300
CONTENTFORMAT
  1
CONTENTFORMAT_BEGIN
 90
        0
 91
        0
 92
      512
 93
        0
300

 40
0.0
140
1.0
 94
        5
 62
     0
340
BA56
144
0.18
309
CONTENTFORMAT_END
171
     0
 94
        0
309
TABLEFORMAT_END
  1
CELLSTYLE_BEGIN
 90
        2
 91
        1
300
_HEADER
309
CELLSTYLE_END
300
CELLSTYLE
  1
TABLEFORMAT_BEGIN
 90
        5
170
     1
 91
        0
 92
        0
 62
   257
 93
        1
300
CONTENTFORMAT
  1
CONTENTFORMAT_BEGIN
 90
        0
 91
        0
 92
      512
 93
        0
300

 40
0.0
140
1.0
 94
        2
 62
     0
340
BA56
144
0.18
309
CONTENTFORMAT_END
171
     0
 94
        0
309
TABLEFORMAT_END
  1
CELLSTYLE_BEGIN
 90
        3
 91
        2
300
_DATA
309
CELLSTYLE_END
  0
XRECORD
  5
BCF6
102
{ACAD_REACTORS
330
BCBF
102
}
330
BCBF
100
AcDbXrecord
280
     1
102
ACAD_ROUNDTRIP_PRE2007_TABLESTYLE
 90
      512
 91
        0
  1

 92
      512
 93
        0
  2

 94
      512
 95
        0
  3

  0
XRECORD
  5
BCD1
102
{ACAD_REACTORS
330
BCD0
102
}
330
BCD0
100
AcDbXrecord
280
     1
102
RTVSPost2010Prop28
280
     1
102
RTVSPost2010PropOp28
 70
     1
102
RTVSPost2010Prop29
280
     1
102
RTVSPost2010PropOp29
 70
     1
102
RTVSPost2010Prop30
280
     0
102
RTVSPost2010PropOp30
 70
     1
102
RTVSPost2010Prop31
280
     0
102
RTVSPost2010PropOp31
 70
     1
102
RTVSPost2010Prop32
280
     0
102
RTVSPost2010PropOp32
 70
     1
102
RTVSPost2010Prop33
280
     0
102
RTVSPost2010PropOp33
 70
     1
102
RTVSPost2010Prop34
280
     0
102
RTVSPost2010PropOp34
 70
     1
102
RTVSPost2010Prop35
280
     0
102
RTVSPost2010PropOp35
 70
     1
102
RTVSPost2010Prop36
280
     0
102
RTVSPost2010PropOp36
 70
     1
102
RTVSPost2010Prop37
 90
       50
102
RTVSPost2010PropOp37
 70
     1
102
RTVSPost2010Prop38
140
0.0
102
RTVSPost2010PropOp38
 70
     1
102
RTVSPost2010Prop39
140
1.0
102
RTVSPost2010PropOp39
 70
     1
102
RTVSPost2010Prop40
 90
        0
102
RTVSPost2010PropOp40
 70
     1
102
RTVSPost2010Prop41ColorIndex
 90
       18
102
RTVSPost2010Prop41ColorRGB
 90
        0
102
RTVSPost2010PropOp41
 70
     1
102
RTVSPost2010Prop42
 90
       50
102
RTVSPost2010PropOp42
 70
     1
102
RTVSPost2010Prop43
 90
        3
102
RTVSPost2010PropOp43
 70
     1
102
RTVSPost2010Prop44ColorIndex
 90
        5
102
RTVSPost2010Prop44ColorRGB
 90
      255
102
RTVSPost2010PropOp44
 70
     1
102
RTVSPost2010Prop45
280
     0
102
RTVSPost2010PropOp45
 70
     1
102
RTVSPost2010Prop46
 90
       50
102
RTVSPost2010PropOp46
 70
     1
102
RTVSPost2010Prop47
 90
       50
102
RTVSPost2010PropOp47
 70
     1
102
RTVSPost2010Prop48
 90
       50
102
RTVSPost2010PropOp48
 70
     1
102
RTVSPost2010Prop49
280
     0
102
RTVSPost2010PropOp49
 70
     1
102
RTVSPost2010Prop50
 90
       50
102
RTVSPost2010PropOp50
 70
     1
102
RTVSPost2010Prop51ColorIndex
 90
      256
102
RTVSPost2010Prop51ColorRGB
 90
-16777216
102
RTVSPost2010PropOp51
 70
     0
102
RTVSPost2010Prop52
140
1.0
102
RTVSPost2010PropOp52
 70
     0
102
RTVSPost2010Prop53
 90
        2
102
RTVSPost2010PropOp53
 70
     1
102
RTVSPost2010Prop54
  1
strokes_ogs.tif
102
RTVSPost2010PropOp54
 70
     1
102
RTVSPost2010Prop55
280
     0
102
RTVSPost2010PropOp55
 70
     1
102
RTVSPost2010Prop56
140
1.0
102
RTVSPost2010PropOp56
 70
     1
102
RTVSPost2010Prop57
140
1.0
102
RTVSPost2010PropOp57
 70
     1
102
RTVSPropertyOp0
 70
     1
102
RTVSPropertyOp1
 70
     1
102
RTVSPropertyOp2
 70
     1
102
RTVSPropertyOp3
 70
     1
102
RTVSPropertyOp4
 70
     1
102
RTVSPropertyOp5
 70
     1
102
RTVSPropertyOp6
 70
     1
102
RTVSPropertyOp7
 70
     1
102
RTVSPropertyOp8
 70
     1
102
RTVSPropertyOp9
 70
     1
102
RTVSPropertyOp10
 70
     1
102
RTVSPropertyOp11
 70
     1
102
RTVSPropertyOp12
 70
     1
102
RTVSPropertyOp13
 70
     1
102
RTVSPropertyOp14
 70
     1
102
RTVSPropertyOp15
 70
     1
102
RTVSPropertyOp16
 70
     1
102
RTVSPropertyOp17
 70
     1
102
RTVSPropertyOp18
 70
     1
102
RTVSPropertyOp19
 70
     1
102
RTVSPropertyOp20
 70
     1
102
RTVSPropertyOp21
 70
     1
102
RTVSPropertyOp22
 70
     1
102
RTVSPropertyOp23
 70
     1
102
RTVSPropertyOp24
 70
     1
102
RTVSPropertyOp25
 70
     1
102
RTVSPropertyOp26
 70
     1
102
RTVSPropertyOp27
 70
     1
102
RTVSPropertyOp28
 70
     1
102
RTVSPropertyOp29
 70
     1
102
RTVSPropertyOp30
 70
     1
102
RTVSPropertyOp31
 70
     1
102
RTVSPropertyOp32
 70
     1
102
RTVSPropertyOp33
 70
     1
102
RTVSPropertyOp34
 70
     1
102
RTVSPropertyOp35
 70
     1
102
RTVSPropertyOp36
 70
     1
102
RTVSPropertyOp37
 70
     1
102
RTVSPropertyOp38
 70
     1
102
RTVSPropertyOp39
 70
     1
102
RTVSPropertyOp40
 70
     1
102
RTVSPropertyOp41
 70
     1
102
RTVSPropertyOp42
 70
     1
102
RTVSPropertyOp43
 70
     1
102
RTVSPropertyOp44
 70
     1
102
RTVSPropertyOp45
 70
     1
102
RTVSPropertyOp46
 70
     1
102
RTVSPropertyOp47
 70
     1
102
RTVSPropertyOp48
 70
     1
102
RTVSPropertyOp49
 70
     1
102
RTVSPropertyOp50
 70
     1
102
RTVSPropertyOp51
 70
     0
102
RTVSPropertyOp52
 70
     0
102
RTVSPropertyOp53
 70
     1
102
RTVSPropertyOp54
 70
     1
102
RTVSPropertyOp55
 70
     1
102
RTVSPropertyOp56
 70
     1
102
RTVSPropertyOp57
 70
     1
102
RTVSPropertyOp58
 70
     1
102
RTVSPropertyOp59
 70
     1
102
RTVSPropertyOp60
 70
     1
102
RTVSPropertyOp61
 70
     1
102
RTVSPropertyOp62
 70
     1
  0
XRECORD
  5
BCCF
102
{ACAD_REACTORS
330
BCCE
102
}
330
BCCE
100
AcDbXrecord
280
     1
102
RTVSPost2010Prop28
280
     0
102
RTVSPost2010PropOp28
 70
     1
102
RTVSPost2010Prop29
280
     1
102
RTVSPost2010PropOp29
 70
     1
102
RTVSPost2010Prop30
280
     1
102
RTVSPost2010PropOp30
 70
     1
102
RTVSPost2010Prop31
280
     0
102
RTVSPost2010PropOp31
 70
     1
102
RTVSPost2010Prop32
280
     0
102
RTVSPost2010PropOp32
 70
     1
102
RTVSPost2010Prop33
280
     0
102
RTVSPost2010PropOp33
 70
     1
102
RTVSPost2010Prop34
280
     0
102
RTVSPost2010PropOp34
 70
     1
102
RTVSPost2010Prop35
280
     0
102
RTVSPost2010PropOp35
 70
     1
102
RTVSPost2010Prop36
280
     0
102
RTVSPost2010PropOp36
 70
     1
102
RTVSPost2010Prop37
 90
       50
102
RTVSPost2010PropOp37
 70
     1
102
RTVSPost2010Prop38
140
0.0
102
RTVSPost2010PropOp38
 70
     1
102
RTVSPost2010Prop39
140
1.0
102
RTVSPost2010PropOp39
 70
     1
102
RTVSPost2010Prop40
 90
        0
102
RTVSPost2010PropOp40
 70
     1
102
RTVSPost2010Prop41ColorIndex
 90
       18
102
RTVSPost2010Prop41ColorRGB
 90
        0
102
RTVSPost2010PropOp41
 70
     1
102
RTVSPost2010Prop42
 90
       50
102
RTVSPost2010PropOp42
 70
     1
102
RTVSPost2010Prop43
 90
        3
102
RTVSPost2010PropOp43
 70
     1
102
RTVSPost2010Prop44ColorIndex
 90
        5
102
RTVSPost2010Prop44ColorRGB
 90
      255
102
RTVSPost2010PropOp44
 70
     1
102
RTVSPost2010Prop45
280
     0
102
RTVSPost2010PropOp45
 70
     1
102
RTVSPost2010Prop46
 90
       50
102
RTVSPost2010PropOp46
 70
     1
102
RTVSPost2010Prop47
 90
       50
102
RTVSPost2010PropOp47
 70
     1
102
RTVSPost2010Prop48
 90
       50
102
RTVSPost2010PropOp48
 70
     1
102
RTVSPost2010Prop49
280
     0
102
RTVSPost2010PropOp49
 70
     1
102
RTVSPost2010Prop50
 90
       50
102
RTVSPost2010PropOp50
 70
     1
102
RTVSPost2010Prop51ColorIndex
 90
      256
102
RTVSPost2010Prop51ColorRGB
 90
-16777216
102
RTVSPost2010PropOp51
 70
     0
102
RTVSPost2010Prop52
140
1.0
102
RTVSPost2010PropOp52
 70
     0
102
RTVSPost2010Prop53
 90
        2
102
RTVSPost2010PropOp53
 70
     1
102
RTVSPost2010Prop54
  1
strokes_ogs.tif
102
RTVSPost2010PropOp54
 70
     1
102
RTVSPost2010Prop55
280
     0
102
RTVSPost2010PropOp55
 70
     1
102
RTVSPost2010Prop56
140
1.0
102
RTVSPost2010PropOp56
 70
     1
102
RTVSPost2010Prop57
140
1.0
102
RTVSPost2010PropOp57
 70
     1
102
RTVSPropertyOp0
 70
     1
102
RTVSPropertyOp1
 70
     1
102
RTVSPropertyOp2
 70
     1
102
RTVSPropertyOp3
 70
     1
102
RTVSPropertyOp4
 70
     1
102
RTVSPropertyOp5
 70
     1
102
RTVSPropertyOp6
 70
     1
102
RTVSPropertyOp7
 70
     1
102
RTVSPropertyOp8
 70
     1
102
RTVSPropertyOp9
 70
     1
102
RTVSPropertyOp10
 70
     1
102
RTVSPropertyOp11
 70
     1
102
RTVSPropertyOp12
 70
     1
102
RTVSPropertyOp13
 70
     1
102
RTVSPropertyOp14
 70
     1
102
RTVSPropertyOp15
 70
     1
102
RTVSPropertyOp16
 70
     1
102
RTVSPropertyOp17
 70
     1
102
RTVSPropertyOp18
 70
     1
102
RTVSPropertyOp19
 70
     1
102
RTVSPropertyOp20
 70
     1
102
RTVSPropertyOp21
 70
     1
102
RTVSPropertyOp22
 70
     1
102
RTVSPropertyOp23
 70
     1
102
RTVSPropertyOp24
 70
     1
102
RTVSPropertyOp25
 70
     1
102
RTVSPropertyOp26
 70
     1
102
RTVSPropertyOp27
 70
     1
102
RTVSPropertyOp28
 70
     1
102
RTVSPropertyOp29
 70
     1
102
RTVSPropertyOp30
 70
     1
102
RTVSPropertyOp31
 70
     1
102
RTVSPropertyOp32
 70
     1
102
RTVSPropertyOp33
 70
     1
102
RTVSPropertyOp34
 70
     1
102
RTVSPropertyOp35
 70
     1
102
RTVSPropertyOp36
 70
     1
102
RTVSPropertyOp37
 70
     1
102
RTVSPropertyOp38
 70
     1
102
RTVSPropertyOp39
 70
     1
102
RTVSPropertyOp40
 70
     1
102
RTVSPropertyOp41
 70
     1
102
RTVSPropertyOp42
 70
     1
102
RTVSPropertyOp43
 70
     1
102
RTVSPropertyOp44
 70
     1
102
RTVSPropertyOp45
 70
     1
102
RTVSPropertyOp46
 70
     1
102
RTVSPropertyOp47
 70
     1
102
RTVSPropertyOp48
 70
     1
102
RTVSPropertyOp49
 70
     1
102
RTVSPropertyOp50
 70
     1
102
RTVSPropertyOp51
 70
     0
102
RTVSPropertyOp52
 70
     0
102
RTVSPropertyOp53
 70
     1
102
RTVSPropertyOp54
 70
     1
102
RTVSPropertyOp55
 70
     1
102
RTVSPropertyOp56
 70
     1
102
RTVSPropertyOp57
 70
     1
102
RTVSPropertyOp58
 70
     1
102
RTVSPropertyOp59
 70
     1
102
RTVSPropertyOp60
 70
     1
102
RTVSPropertyOp61
 70
     1
102
RTVSPropertyOp62
 70
     1
  0
XRECORD
  5
BCDD
102
{ACAD_REACTORS
330
BCDC
102
}
330
BCDC
100
AcDbXrecord
280
     1
102
RTVSPost2010Prop28
280
     0
102
RTVSPost2010PropOp28
 70
     1
102
RTVSPost2010Prop29
280
     1
102
RTVSPost2010PropOp29
 70
     1
102
RTVSPost2010Prop30
280
     1
102
RTVSPost2010PropOp30
 70
     1
102
RTVSPost2010Prop31
280
     0
102
RTVSPost2010PropOp31
 70
     1
102
RTVSPost2010Prop32
280
     0
102
RTVSPost2010PropOp32
 70
     1
102
RTVSPost2010Prop33
280
     0
102
RTVSPost2010PropOp33
 70
     1
102
RTVSPost2010Prop34
280
     0
102
RTVSPost2010PropOp34
 70
     1
102
RTVSPost2010Prop35
280
     0
102
RTVSPost2010PropOp35
 70
     1
102
RTVSPost2010Prop36
280
     0
102
RTVSPost2010PropOp36
 70
     1
102
RTVSPost2010Prop37
 90
       50
102
RTVSPost2010PropOp37
 70
     1
102
RTVSPost2010Prop38
140
0.0
102
RTVSPost2010PropOp38
 70
     1
102
RTVSPost2010Prop39
140
1.0
102
RTVSPost2010PropOp39
 70
     1
102
RTVSPost2010Prop40
 90
        0
102
RTVSPost2010PropOp40
 70
     1
102
RTVSPost2010Prop41ColorIndex
 90
       18
102
RTVSPost2010Prop41ColorRGB
 90
        0
102
RTVSPost2010PropOp41
 70
     1
102
RTVSPost2010Prop42
 90
       50
102
RTVSPost2010PropOp42
 70
     1
102
RTVSPost2010Prop43
 90
        3
102
RTVSPost2010PropOp43
 70
     1
102
RTVSPost2010Prop44ColorIndex
 90
        5
102
RTVSPost2010Prop44ColorRGB
 90
      255
102
RTVSPost2010PropOp44
 70
     1
102
RTVSPost2010Prop45
280
     0
102
RTVSPost2010PropOp45
 70
     1
102
RTVSPost2010Prop46
 90
       50
102
RTVSPost2010PropOp46
 70
     1
102
RTVSPost2010Prop47
 90
       50
102
RTVSPost2010PropOp47
 70
     1
102
RTVSPost2010Prop48
 90
       50
102
RTVSPost2010PropOp48
 70
     1
102
RTVSPost2010Prop49
280
     0
102
RTVSPost2010PropOp49
 70
     1
102
RTVSPost2010Prop50
 90
       50
102
RTVSPost2010PropOp50
 70
     1
102
RTVSPost2010Prop51ColorIndex
 90
      256
102
RTVSPost2010Prop51ColorRGB
 90
-16777216
102
RTVSPost2010PropOp51
 70
     0
102
RTVSPost2010Prop52
140
1.0
102
RTVSPost2010PropOp52
 70
     0
102
RTVSPost2010Prop53
 90
        2
102
RTVSPost2010PropOp53
 70
     1
102
RTVSPost2010Prop54
  1
strokes_ogs.tif
102
RTVSPost2010PropOp54
 70
     1
102
RTVSPost2010Prop55
280
     0
102
RTVSPost2010PropOp55
 70
     1
102
RTVSPost2010Prop56
140
1.0
102
RTVSPost2010PropOp56
 70
     1
102
RTVSPost2010Prop57
140
1.0
102
RTVSPost2010PropOp57
 70
     1
102
RTVSPropertyOp0
 70
     1
102
RTVSPropertyOp1
 70
     1
102
RTVSPropertyOp2
 70
     1
102
RTVSPropertyOp3
 70
     1
102
RTVSPropertyOp4
 70
     1
102
RTVSPropertyOp5
 70
     1
102
RTVSPropertyOp6
 70
     1
102
RTVSPropertyOp7
 70
     1
102
RTVSPropertyOp8
 70
     1
102
RTVSPropertyOp9
 70
     1
102
RTVSPropertyOp10
 70
     1
102
RTVSPropertyOp11
 70
     1
102
RTVSPropertyOp12
 70
     1
102
RTVSPropertyOp13
 70
     1
102
RTVSPropertyOp14
 70
     1
102
RTVSPropertyOp15
 70
     1
102
RTVSPropertyOp16
 70
     1
102
RTVSPropertyOp17
 70
     1
102
RTVSPropertyOp18
 70
     1
102
RTVSPropertyOp19
 70
     1
102
RTVSPropertyOp20
 70
     1
102
RTVSPropertyOp21
 70
     1
102
RTVSPropertyOp22
 70
     1
102
RTVSPropertyOp23
 70
     1
102
RTVSPropertyOp24
 70
     1
102
RTVSPropertyOp25
 70
     1
102
RTVSPropertyOp26
 70
     1
102
RTVSPropertyOp27
 70
     1
102
RTVSPropertyOp28
 70
     1
102
RTVSPropertyOp29
 70
     1
102
RTVSPropertyOp30
 70
     1
102
RTVSPropertyOp31
 70
     1
102
RTVSPropertyOp32
 70
     1
102
RTVSPropertyOp33
 70
     1
102
RTVSPropertyOp34
 70
     1
102
RTVSPropertyOp35
 70
     1
102
RTVSPropertyOp36
 70
     1
102
RTVSPropertyOp37
 70
     1
102
RTVSPropertyOp38
 70
     1
102
RTVSPropertyOp39
 70
     1
102
RTVSPropertyOp40
 70
     1
102
RTVSPropertyOp41
 70
     1
102
RTVSPropertyOp42
 70
     1
102
RTVSPropertyOp43
 70
     1
102
RTVSPropertyOp44
 70
     1
102
RTVSPropertyOp45
 70
     1
102
RTVSPropertyOp46
 70
     1
102
RTVSPropertyOp47
 70
     1
102
RTVSPropertyOp48
 70
     1
102
RTVSPropertyOp49
 70
     1
102
RTVSPropertyOp50
 70
     1
102
RTVSPropertyOp51
 70
     0
102
RTVSPropertyOp52
 70
     0
102
RTVSPropertyOp53
 70
     1
102
RTVSPropertyOp54
 70
     1
102
RTVSPropertyOp55
 70
     1
102
RTVSPropertyOp56
 70
     1
102
RTVSPropertyOp57
 70
     1
102
RTVSPropertyOp58
 70
     1
102
RTVSPropertyOp59
 70
     1
102
RTVSPropertyOp60
 70
     1
102
RTVSPropertyOp61
 70
     1
102
RTVSPropertyOp62
 70
     1
  0
XRECORD
  5
BCE5
102
{ACAD_REACTORS
330
BCE4
102
}
330
BCE4
100
AcDbXrecord
280
     1
102
RTVSPost2010Prop28
280
     0
102
RTVSPost2010PropOp28
 70
     1
102
RTVSPost2010Prop29
280
     1
102
RTVSPost2010PropOp29
 70
     1
102
RTVSPost2010Prop30
280
     1
102
RTVSPost2010PropOp30
 70
     1
102
RTVSPost2010Prop31
280
     0
102
RTVSPost2010PropOp31
 70
     1
102
RTVSPost2010Prop32
280
     0
102
RTVSPost2010PropOp32
 70
     1
102
RTVSPost2010Prop33
280
     0
102
RTVSPost2010PropOp33
 70
     1
102
RTVSPost2010Prop34
280
     0
102
RTVSPost2010PropOp34
 70
     1
102
RTVSPost2010Prop35
280
     0
102
RTVSPost2010PropOp35
 70
     1
102
RTVSPost2010Prop36
280
     0
102
RTVSPost2010PropOp36
 70
     1
102
RTVSPost2010Prop37
 90
       50
102
RTVSPost2010PropOp37
 70
     1
102
RTVSPost2010Prop38
140
0.0
102
RTVSPost2010PropOp38
 70
     1
102
RTVSPost2010Prop39
140
1.0
102
RTVSPost2010PropOp39
 70
     1
102
RTVSPost2010Prop40
 90
        0
102
RTVSPost2010PropOp40
 70
     1
102
RTVSPost2010Prop41ColorIndex
 90
       18
102
RTVSPost2010Prop41ColorRGB
 90
        0
102
RTVSPost2010PropOp41
 70
     1
102
RTVSPost2010Prop42
 90
       50
102
RTVSPost2010PropOp42
 70
     1
102
RTVSPost2010Prop43
 90
        3
102
RTVSPost2010PropOp43
 70
     1
102
RTVSPost2010Prop44ColorIndex
 90
        5
102
RTVSPost2010Prop44ColorRGB
 90
      255
102
RTVSPost2010PropOp44
 70
     1
102
RTVSPost2010Prop45
280
     0
102
RTVSPost2010PropOp45
 70
     1
102
RTVSPost2010Prop46
 90
       50
102
RTVSPost2010PropOp46
 70
     1
102
RTVSPost2010Prop47
 90
       50
102
RTVSPost2010PropOp47
 70
     1
102
RTVSPost2010Prop48
 90
       50
102
RTVSPost2010PropOp48
 70
     1
102
RTVSPost2010Prop49
280
     0
102
RTVSPost2010PropOp49
 70
     1
102
RTVSPost2010Prop50
 90
       50
102
RTVSPost2010PropOp50
 70
     1
102
RTVSPost2010Prop51ColorIndex
 90
      256
102
RTVSPost2010Prop51ColorRGB
 90
-16777216
102
RTVSPost2010PropOp51
 70
     0
102
RTVSPost2010Prop52
140
1.0
102
RTVSPost2010PropOp52
 70
     0
102
RTVSPost2010Prop53
 90
        2
102
RTVSPost2010PropOp53
 70
     1
102
RTVSPost2010Prop54
  1
strokes_ogs.tif
102
RTVSPost2010PropOp54
 70
     1
102
RTVSPost2010Prop55
280
     0
102
RTVSPost2010PropOp55
 70
     1
102
RTVSPost2010Prop56
140
1.0
102
RTVSPost2010PropOp56
 70
     1
102
RTVSPost2010Prop57
140
1.0
102
RTVSPost2010PropOp57
 70
     1
102
RTVSPropertyOp0
 70
     1
102
RTVSPropertyOp1
 70
     1
102
RTVSPropertyOp2
 70
     1
102
RTVSPropertyOp3
 70
     1
102
RTVSPropertyOp4
 70
     1
102
RTVSPropertyOp5
 70
     1
102
RTVSPropertyOp6
 70
     1
102
RTVSPropertyOp7
 70
     1
102
RTVSPropertyOp8
 70
     1
102
RTVSPropertyOp9
 70
     1
102
RTVSPropertyOp10
 70
     1
102
RTVSPropertyOp11
 70
     1
102
RTVSPropertyOp12
 70
     1
102
RTVSPropertyOp13
 70
     1
102
RTVSPropertyOp14
 70
     1
102
RTVSPropertyOp15
 70
     1
102
RTVSPropertyOp16
 70
     1
102
RTVSPropertyOp17
 70
     1
102
RTVSPropertyOp18
 70
     1
102
RTVSPropertyOp19
 70
     1
102
RTVSPropertyOp20
 70
     1
102
RTVSPropertyOp21
 70
     1
102
RTVSPropertyOp22
 70
     1
102
RTVSPropertyOp23
 70
     1
102
RTVSPropertyOp24
 70
     1
102
RTVSPropertyOp25
 70
     1
102
RTVSPropertyOp26
 70
     1
102
RTVSPropertyOp27
 70
     1
102
RTVSPropertyOp28
 70
     1
102
RTVSPropertyOp29
 70
     1
102
RTVSPropertyOp30
 70
     1
102
RTVSPropertyOp31
 70
     1
102
RTVSPropertyOp32
 70
     1
102
RTVSPropertyOp33
 70
     1
102
RTVSPropertyOp34
 70
     1
102
RTVSPropertyOp35
 70
     1
102
RTVSPropertyOp36
 70
     1
102
RTVSPropertyOp37
 70
     1
102
RTVSPropertyOp38
 70
     1
102
RTVSPropertyOp39
 70
     1
102
RTVSPropertyOp40
 70
     1
102
RTVSPropertyOp41
 70
     1
102
RTVSPropertyOp42
 70
     1
102
RTVSPropertyOp43
 70
     1
102
RTVSPropertyOp44
 70
     1
102
RTVSPropertyOp45
 70
     1
102
RTVSPropertyOp46
 70
     1
102
RTVSPropertyOp47
 70
     1
102
RTVSPropertyOp48
 70
     1
102
RTVSPropertyOp49
 70
     1
102
RTVSPropertyOp50
 70
     1
102
RTVSPropertyOp51
 70
     0
102
RTVSPropertyOp52
 70
     0
102
RTVSPropertyOp53
 70
     1
102
RTVSPropertyOp54
 70
     1
102
RTVSPropertyOp55
 70
     1
102
RTVSPropertyOp56
 70
     1
102
RTVSPropertyOp57
 70
     1
102
RTVSPropertyOp58
 70
     1
102
RTVSPropertyOp59
 70
     1
102
RTVSPropertyOp60
 70
     1
102
RTVSPropertyOp61
 70
     1
102
RTVSPropertyOp62
 70
     1
  0
XRECORD
  5
BCD7
102
{ACAD_REACTORS
330
BCD6
102
}
330
BCD6
100
AcDbXrecord
280
     1
102
RTVSPost2010Prop28
280
     0
102
RTVSPost2010PropOp28
 70
     1
102
RTVSPost2010Prop29
280
     1
102
RTVSPost2010PropOp29
 70
     1
102
RTVSPost2010Prop30
280
     1
102
RTVSPost2010PropOp30
 70
     1
102
RTVSPost2010Prop31
280
     0
102
RTVSPost2010PropOp31
 70
     1
102
RTVSPost2010Prop32
280
     0
102
RTVSPost2010PropOp32
 70
     1
102
RTVSPost2010Prop33
280
     0
102
RTVSPost2010PropOp33
 70
     1
102
RTVSPost2010Prop34
280
     0
102
RTVSPost2010PropOp34
 70
     1
102
RTVSPost2010Prop35
280
     0
102
RTVSPost2010PropOp35
 70
     1
102
RTVSPost2010Prop36
280
     0
102
RTVSPost2010PropOp36
 70
     1
102
RTVSPost2010Prop37
 90
       50
102
RTVSPost2010PropOp37
 70
     1
102
RTVSPost2010Prop38
140
0.0
102
RTVSPost2010PropOp38
 70
     1
102
RTVSPost2010Prop39
140
1.0
102
RTVSPost2010PropOp39
 70
     1
102
RTVSPost2010Prop40
 90
        0
102
RTVSPost2010PropOp40
 70
     1
102
RTVSPost2010Prop41ColorIndex
 90
       18
102
RTVSPost2010Prop41ColorRGB
 90
        0
102
RTVSPost2010PropOp41
 70
     1
102
RTVSPost2010Prop42
 90
       50
102
RTVSPost2010PropOp42
 70
     1
102
RTVSPost2010Prop43
 90
        3
102
RTVSPost2010PropOp43
 70
     1
102
RTVSPost2010Prop44ColorIndex
 90
        5
102
RTVSPost2010Prop44ColorRGB
 90
      255
102
RTVSPost2010PropOp44
 70
     1
102
RTVSPost2010Prop45
280
     0
102
RTVSPost2010PropOp45
 70
     1
102
RTVSPost2010Prop46
 90
       50
102
RTVSPost2010PropOp46
 70
     1
102
RTVSPost2010Prop47
 90
       50
102
RTVSPost2010PropOp47
 70
     1
102
RTVSPost2010Prop48
 90
       50
102
RTVSPost2010PropOp48
 70
     1
102
RTVSPost2010Prop49
280
     0
102
RTVSPost2010PropOp49
 70
     1
102
RTVSPost2010Prop50
 90
       50
102
RTVSPost2010PropOp50
 70
     1
102
RTVSPost2010Prop51ColorIndex
 90
      256
102
RTVSPost2010Prop51ColorRGB
 90
-16777216
102
RTVSPost2010PropOp51
 70
     0
102
RTVSPost2010Prop52
140
1.0
102
RTVSPost2010PropOp52
 70
     0
102
RTVSPost2010Prop53
 90
        2
102
RTVSPost2010PropOp53
 70
     1
102
RTVSPost2010Prop54
  1
strokes_ogs.tif
102
RTVSPost2010PropOp54
 70
     1
102
RTVSPost2010Prop55
280
     0
102
RTVSPost2010PropOp55
 70
     1
102
RTVSPost2010Prop56
140
1.0
102
RTVSPost2010PropOp56
 70
     1
102
RTVSPost2010Prop57
140
1.0
102
RTVSPost2010PropOp57
 70
     1
102
RTVSPropertyOp0
 70
     1
102
RTVSPropertyOp1
 70
     1
102
RTVSPropertyOp2
 70
     1
102
RTVSPropertyOp3
 70
     1
102
RTVSPropertyOp4
 70
     1
102
RTVSPropertyOp5
 70
     1
102
RTVSPropertyOp6
 70
     1
102
RTVSPropertyOp7
 70
     1
102
RTVSPropertyOp8
 70
     1
102
RTVSPropertyOp9
 70
     1
102
RTVSPropertyOp10
 70
     1
102
RTVSPropertyOp11
 70
     1
102
RTVSPropertyOp12
 70
     1
102
RTVSPropertyOp13
 70
     1
102
RTVSPropertyOp14
 70
     1
102
RTVSPropertyOp15
 70
     1
102
RTVSPropertyOp16
 70
     1
102
RTVSPropertyOp17
 70
     1
102
RTVSPropertyOp18
 70
     1
102
RTVSPropertyOp19
 70
     1
102
RTVSPropertyOp20
 70
     1
102
RTVSPropertyOp21
 70
     1
102
RTVSPropertyOp22
 70
     1
102
RTVSPropertyOp23
 70
     1
102
RTVSPropertyOp24
 70
     1
102
RTVSPropertyOp25
 70
     1
102
RTVSPropertyOp26
 70
     1
102
RTVSPropertyOp27
 70
     1
102
RTVSPropertyOp28
 70
     1
102
RTVSPropertyOp29
 70
     1
102
RTVSPropertyOp30
 70
     1
102
RTVSPropertyOp31
 70
     1
102
RTVSPropertyOp32
 70
     1
102
RTVSPropertyOp33
 70
     1
102
RTVSPropertyOp34
 70
     1
102
RTVSPropertyOp35
 70
     1
102
RTVSPropertyOp36
 70
     1
102
RTVSPropertyOp37
 70
     1
102
RTVSPropertyOp38
 70
     1
102
RTVSPropertyOp39
 70
     1
102
RTVSPropertyOp40
 70
     1
102
RTVSPropertyOp41
 70
     1
102
RTVSPropertyOp42
 70
     1
102
RTVSPropertyOp43
 70
     1
102
RTVSPropertyOp44
 70
     1
102
RTVSPropertyOp45
 70
     1
102
RTVSPropertyOp46
 70
     1
102
RTVSPropertyOp47
 70
     1
102
RTVSPropertyOp48
 70
     1
102
RTVSPropertyOp49
 70
     1
102
RTVSPropertyOp50
 70
     1
102
RTVSPropertyOp51
 70
     0
102
RTVSPropertyOp52
 70
     0
102
RTVSPropertyOp53
 70
     1
102
RTVSPropertyOp54
 70
     1
102
RTVSPropertyOp55
 70
     1
102
RTVSPropertyOp56
 70
     1
102
RTVSPropertyOp57
 70
     1
102
RTVSPropertyOp58
 70
     1
102
RTVSPropertyOp59
 70
     1
102
RTVSPropertyOp60
 70
     1
102
RTVSPropertyOp61
 70
     1
102
RTVSPropertyOp62
 70
     1
  0
XRECORD
  5
BCDB
102
{ACAD_REACTORS
330
BCDA
102
}
330
BCDA
100
AcDbXrecord
280
     1
102
RTVSPost2010Prop28
280
     0
102
RTVSPost2010PropOp28
 70
     1
102
RTVSPost2010Prop29
280
     1
102
RTVSPost2010PropOp29
 70
     1
102
RTVSPost2010Prop30
280
     1
102
RTVSPost2010PropOp30
 70
     1
102
RTVSPost2010Prop31
280
     0
102
RTVSPost2010PropOp31
 70
     1
102
RTVSPost2010Prop32
280
     0
102
RTVSPost2010PropOp32
 70
     1
102
RTVSPost2010Prop33
280
     0
102
RTVSPost2010PropOp33
 70
     1
102
RTVSPost2010Prop34
280
     0
102
RTVSPost2010PropOp34
 70
     1
102
RTVSPost2010Prop35
280
     0
102
RTVSPost2010PropOp35
 70
     1
102
RTVSPost2010Prop36
280
     0
102
RTVSPost2010PropOp36
 70
     1
102
RTVSPost2010Prop37
 90
       50
102
RTVSPost2010PropOp37
 70
     1
102
RTVSPost2010Prop38
140
0.0
102
RTVSPost2010PropOp38
 70
     1
102
RTVSPost2010Prop39
140
1.0
102
RTVSPost2010PropOp39
 70
     1
102
RTVSPost2010Prop40
 90
        0
102
RTVSPost2010PropOp40
 70
     1
102
RTVSPost2010Prop41ColorIndex
 90
       18
102
RTVSPost2010Prop41ColorRGB
 90
        0
102
RTVSPost2010PropOp41
 70
     1
102
RTVSPost2010Prop42
 90
       50
102
RTVSPost2010PropOp42
 70
     1
102
RTVSPost2010Prop43
 90
        3
102
RTVSPost2010PropOp43
 70
     1
102
RTVSPost2010Prop44ColorIndex
 90
        5
102
RTVSPost2010Prop44ColorRGB
 90
      255
102
RTVSPost2010PropOp44
 70
     1
102
RTVSPost2010Prop45
280
     0
102
RTVSPost2010PropOp45
 70
     1
102
RTVSPost2010Prop46
 90
       50
102
RTVSPost2010PropOp46
 70
     1
102
RTVSPost2010Prop47
 90
       50
102
RTVSPost2010PropOp47
 70
     1
102
RTVSPost2010Prop48
 90
       50
102
RTVSPost2010PropOp48
 70
     1
102
RTVSPost2010Prop49
280
     0
102
RTVSPost2010PropOp49
 70
     1
102
RTVSPost2010Prop50
 90
       50
102
RTVSPost2010PropOp50
 70
     1
102
RTVSPost2010Prop51ColorIndex
 90
      256
102
RTVSPost2010Prop51ColorRGB
 90
-16777216
102
RTVSPost2010PropOp51
 70
     0
102
RTVSPost2010Prop52
140
1.0
102
RTVSPost2010PropOp52
 70
     0
102
RTVSPost2010Prop53
 90
        2
102
RTVSPost2010PropOp53
 70
     1
102
RTVSPost2010Prop54
  1
strokes_ogs.tif
102
RTVSPost2010PropOp54
 70
     1
102
RTVSPost2010Prop55
280
     0
102
RTVSPost2010PropOp55
 70
     1
102
RTVSPost2010Prop56
140
1.0
102
RTVSPost2010PropOp56
 70
     1
102
RTVSPost2010Prop57
140
1.0
102
RTVSPost2010PropOp57
 70
     1
102
RTVSPropertyOp0
 70
     1
102
RTVSPropertyOp1
 70
     1
102
RTVSPropertyOp2
 70
     1
102
RTVSPropertyOp3
 70
     1
102
RTVSPropertyOp4
 70
     1
102
RTVSPropertyOp5
 70
     1
102
RTVSPropertyOp6
 70
     1
102
RTVSPropertyOp7
 70
     1
102
RTVSPropertyOp8
 70
     1
102
RTVSPropertyOp9
 70
     1
102
RTVSPropertyOp10
 70
     1
102
RTVSPropertyOp11
 70
     1
102
RTVSPropertyOp12
 70
     1
102
RTVSPropertyOp13
 70
     1
102
RTVSPropertyOp14
 70
     1
102
RTVSPropertyOp15
 70
     1
102
RTVSPropertyOp16
 70
     1
102
RTVSPropertyOp17
 70
     1
102
RTVSPropertyOp18
 70
     1
102
RTVSPropertyOp19
 70
     1
102
RTVSPropertyOp20
 70
     1
102
RTVSPropertyOp21
 70
     1
102
RTVSPropertyOp22
 70
     1
102
RTVSPropertyOp23
 70
     1
102
RTVSPropertyOp24
 70
     1
102
RTVSPropertyOp25
 70
     1
102
RTVSPropertyOp26
 70
     1
102
RTVSPropertyOp27
 70
     1
102
RTVSPropertyOp28
 70
     1
102
RTVSPropertyOp29
 70
     1
102
RTVSPropertyOp30
 70
     1
102
RTVSPropertyOp31
 70
     1
102
RTVSPropertyOp32
 70
     1
102
RTVSPropertyOp33
 70
     1
102
RTVSPropertyOp34
 70
     1
102
RTVSPropertyOp35
 70
     1
102
RTVSPropertyOp36
 70
     1
102
RTVSPropertyOp37
 70
     1
102
RTVSPropertyOp38
 70
     1
102
RTVSPropertyOp39
 70
     1
102
RTVSPropertyOp40
 70
     1
102
RTVSPropertyOp41
 70
     1
102
RTVSPropertyOp42
 70
     1
102
RTVSPropertyOp43
 70
     1
102
RTVSPropertyOp44
 70
     1
102
RTVSPropertyOp45
 70
     1
102
RTVSPropertyOp46
 70
     1
102
RTVSPropertyOp47
 70
     1
102
RTVSPropertyOp48
 70
     1
102
RTVSPropertyOp49
 70
     1
102
RTVSPropertyOp50
 70
     1
102
RTVSPropertyOp51
 70
     0
102
RTVSPropertyOp52
 70
     0
102
RTVSPropertyOp53
 70
     1
102
RTVSPropertyOp54
 70
     1
102
RTVSPropertyOp55
 70
     1
102
RTVSPropertyOp56
 70
     1
102
RTVSPropertyOp57
 70
     1
102
RTVSPropertyOp58
 70
     1
102
RTVSPropertyOp59
 70
     1
102
RTVSPropertyOp60
 70
     1
102
RTVSPropertyOp61
 70
     1
102
RTVSPropertyOp62
 70
     1
  0
XRECORD
  5
BCF5
102
{ACAD_REACTORS
330
BCF4
102
}
330
BCF4
100
AcDbXrecord
280
     1
102
RTVSPost2010Prop28
280
     0
102
RTVSPost2010PropOp28
 70
     1
102
RTVSPost2010Prop29
280
     1
102
RTVSPost2010PropOp29
 70
     1
102
RTVSPost2010Prop30
280
     1
102
RTVSPost2010PropOp30
 70
     1
102
RTVSPost2010Prop31
280
     0
102
RTVSPost2010PropOp31
 70
     1
102
RTVSPost2010Prop32
280
     0
102
RTVSPost2010PropOp32
 70
     1
102
RTVSPost2010Prop33
280
     0
102
RTVSPost2010PropOp33
 70
     1
102
RTVSPost2010Prop34
280
     0
102
RTVSPost2010PropOp34
 70
     1
102
RTVSPost2010Prop35
280
     0
102
RTVSPost2010PropOp35
 70
     1
102
RTVSPost2010Prop36
280
     0
102
RTVSPost2010PropOp36
 70
     1
102
RTVSPost2010Prop37
 90
       50
102
RTVSPost2010PropOp37
 70
     0
102
RTVSPost2010Prop38
140
0.0
102
RTVSPost2010PropOp38
 70
     0
102
RTVSPost2010Prop39
140
1.0
102
RTVSPost2010PropOp39
 70
     0
102
RTVSPost2010Prop40
 90
        0
102
RTVSPost2010PropOp40
 70
     0
102
RTVSPost2010Prop41ColorIndex
 90
       18
102
RTVSPost2010Prop41ColorRGB
 90
        0
102
RTVSPost2010PropOp41
 70
     0
102
RTVSPost2010Prop42
 90
       50
102
RTVSPost2010PropOp42
 70
     0
102
RTVSPost2010Prop43
 90
        3
102
RTVSPost2010PropOp43
 70
     0
102
RTVSPost2010Prop44ColorIndex
 90
        5
102
RTVSPost2010Prop44ColorRGB
 90
      255
102
RTVSPost2010PropOp44
 70
     0
102
RTVSPost2010Prop45
280
     0
102
RTVSPost2010PropOp45
 70
     1
102
RTVSPost2010Prop46
 90
       50
102
RTVSPost2010PropOp46
 70
     0
102
RTVSPost2010Prop47
 90
       50
102
RTVSPost2010PropOp47
 70
     0
102
RTVSPost2010Prop48
 90
       50
102
RTVSPost2010PropOp48
 70
     0
102
RTVSPost2010Prop49
280
     0
102
RTVSPost2010PropOp49
 70
     1
102
RTVSPost2010Prop50
 90
       50
102
RTVSPost2010PropOp50
 70
     0
102
RTVSPost2010Prop51ColorIndex
 90
      256
102
RTVSPost2010Prop51ColorRGB
 90
-16777216
102
RTVSPost2010PropOp51
 70
     0
102
RTVSPost2010Prop52
140
1.0
102
RTVSPost2010PropOp52
 70
     0
102
RTVSPost2010Prop53
 90
        2
102
RTVSPost2010PropOp53
 70
     0
102
RTVSPost2010Prop54
  1
strokes_ogs.tif
102
RTVSPost2010PropOp54
 70
     0
102
RTVSPost2010Prop55
280
     0
102
RTVSPost2010PropOp55
 70
     1
102
RTVSPost2010Prop56
140
1.0
102
RTVSPost2010PropOp56
 70
     0
102
RTVSPost2010Prop57
140
1.0
102
RTVSPost2010PropOp57
 70
     0
102
RTVSPropertyOp0
 70
     0
102
RTVSPropertyOp1
 70
     0
102
RTVSPropertyOp2
 70
     0
102
RTVSPropertyOp3
 70
     0
102
RTVSPropertyOp4
 70
     0
102
RTVSPropertyOp5
 70
     0
102
RTVSPropertyOp6
 70
     0
102
RTVSPropertyOp7
 70
     0
102
RTVSPropertyOp8
 70
     0
102
RTVSPropertyOp9
 70
     0
102
RTVSPropertyOp10
 70
     0
102
RTVSPropertyOp11
 70
     0
102
RTVSPropertyOp12
 70
     0
102
RTVSPropertyOp13
 70
     0
102
RTVSPropertyOp14
 70
     2
102
RTVSPropertyOp15
 70
     0
102
RTVSPropertyOp16
 70
     0
102
RTVSPropertyOp17
 70
     0
102
RTVSPropertyOp18
 70
     0
102
RTVSPropertyOp19
 70
     0
102
RTVSPropertyOp20
 70
     0
102
RTVSPropertyOp21
 70
     0
102
RTVSPropertyOp22
 70
     0
102
RTVSPropertyOp23
 70
     0
102
RTVSPropertyOp24
 70
     0
102
RTVSPropertyOp25
 70
     0
102
RTVSPropertyOp26
 70
     0
102
RTVSPropertyOp27
 70
     0
102
RTVSPropertyOp28
 70
     1
102
RTVSPropertyOp29
 70
     1
102
RTVSPropertyOp30
 70
     1
102
RTVSPropertyOp31
 70
     1
102
RTVSPropertyOp32
 70
     1
102
RTVSPropertyOp33
 70
     1
102
RTVSPropertyOp34
 70
     1
102
RTVSPropertyOp35
 70
     1
102
RTVSPropertyOp36
 70
     1
102
RTVSPropertyOp37
 70
     0
102
RTVSPropertyOp38
 70
     0
102
RTVSPropertyOp39
 70
     0
102
RTVSPropertyOp40
 70
     0
102
RTVSPropertyOp41
 70
     0
102
RTVSPropertyOp42
 70
     0
102
RTVSPropertyOp43
 70
     0
102
RTVSPropertyOp44
 70
     0
102
RTVSPropertyOp45
 70
     1
102
RTVSPropertyOp46
 70
     0
102
RTVSPropertyOp47
 70
     0
102
RTVSPropertyOp48
 70
     0
102
RTVSPropertyOp49
 70
     1
102
RTVSPropertyOp50
 70
     0
102
RTVSPropertyOp51
 70
     0
102
RTVSPropertyOp52
 70
     0
102
RTVSPropertyOp53
 70
     0
102
RTVSPropertyOp54
 70
     0
102
RTVSPropertyOp55
 70
     1
102
RTVSPropertyOp56
 70
     0
102
RTVSPropertyOp57
 70
     0
102
RTVSPropertyOp58
 70
     0
102
RTVSPropertyOp59
 70
     0
102
RTVSPropertyOp60
 70
     0
102
RTVSPropertyOp61
 70
     0
102
RTVSPropertyOp62
 70
     0
  0
XRECORD
  5
BCE3
102
{ACAD_REACTORS
330
BCE2
102
}
330
BCE2
100
AcDbXrecord
280
     1
102
RTVSPost2010Prop28
280
     0
102
RTVSPost2010PropOp28
 70
     1
102
RTVSPost2010Prop29
280
     1
102
RTVSPost2010PropOp29
 70
     1
102
RTVSPost2010Prop30
280
     1
102
RTVSPost2010PropOp30
 70
     1
102
RTVSPost2010Prop31
280
     0
102
RTVSPost2010PropOp31
 70
     1
102
RTVSPost2010Prop32
280
     0
102
RTVSPost2010PropOp32
 70
     1
102
RTVSPost2010Prop33
280
     0
102
RTVSPost2010PropOp33
 70
     1
102
RTVSPost2010Prop34
280
     0
102
RTVSPost2010PropOp34
 70
     1
102
RTVSPost2010Prop35
280
     0
102
RTVSPost2010PropOp35
 70
     1
102
RTVSPost2010Prop36
280
     0
102
RTVSPost2010PropOp36
 70
     1
102
RTVSPost2010Prop37
 90
       50
102
RTVSPost2010PropOp37
 70
     1
102
RTVSPost2010Prop38
140
0.0
102
RTVSPost2010PropOp38
 70
     1
102
RTVSPost2010Prop39
140
1.0
102
RTVSPost2010PropOp39
 70
     1
102
RTVSPost2010Prop40
 90
        0
102
RTVSPost2010PropOp40
 70
     1
102
RTVSPost2010Prop41ColorIndex
 90
       18
102
RTVSPost2010Prop41ColorRGB
 90
        0
102
RTVSPost2010PropOp41
 70
     1
102
RTVSPost2010Prop42
 90
       50
102
RTVSPost2010PropOp42
 70
     1
102
RTVSPost2010Prop43
 90
        3
102
RTVSPost2010PropOp43
 70
     1
102
RTVSPost2010Prop44ColorIndex
 90
        5
102
RTVSPost2010Prop44ColorRGB
 90
      255
102
RTVSPost2010PropOp44
 70
     1
102
RTVSPost2010Prop45
280
     0
102
RTVSPost2010PropOp45
 70
     1
102
RTVSPost2010Prop46
 90
       50
102
RTVSPost2010PropOp46
 70
     1
102
RTVSPost2010Prop47
 90
       50
102
RTVSPost2010PropOp47
 70
     1
102
RTVSPost2010Prop48
 90
       50
102
RTVSPost2010PropOp48
 70
     1
102
RTVSPost2010Prop49
280
     0
102
RTVSPost2010PropOp49
 70
     1
102
RTVSPost2010Prop50
 90
       50
102
RTVSPost2010PropOp50
 70
     1
102
RTVSPost2010Prop51ColorIndex
 90
      256
102
RTVSPost2010Prop51ColorRGB
 90
-16777216
102
RTVSPost2010PropOp51
 70
     0
102
RTVSPost2010Prop52
140
1.0
102
RTVSPost2010PropOp52
 70
     0
102
RTVSPost2010Prop53
 90
        2
102
RTVSPost2010PropOp53
 70
     1
102
RTVSPost2010Prop54
  1
strokes_ogs.tif
102
RTVSPost2010PropOp54
 70
     1
102
RTVSPost2010Prop55
280
     0
102
RTVSPost2010PropOp55
 70
     1
102
RTVSPost2010Prop56
140
1.0
102
RTVSPost2010PropOp56
 70
     1
102
RTVSPost2010Prop57
140
1.0
102
RTVSPost2010PropOp57
 70
     1
102
RTVSPropertyOp0
 70
     1
102
RTVSPropertyOp1
 70
     1
102
RTVSPropertyOp2
 70
     1
102
RTVSPropertyOp3
 70
     1
102
RTVSPropertyOp4
 70
     1
102
RTVSPropertyOp5
 70
     1
102
RTVSPropertyOp6
 70
     1
102
RTVSPropertyOp7
 70
     1
102
RTVSPropertyOp8
 70
     1
102
RTVSPropertyOp9
 70
     1
102
RTVSPropertyOp10
 70
     1
102
RTVSPropertyOp11
 70
     1
102
RTVSPropertyOp12
 70
     1
102
RTVSPropertyOp13
 70
     1
102
RTVSPropertyOp14
 70
     1
102
RTVSPropertyOp15
 70
     1
102
RTVSPropertyOp16
 70
     1
102
RTVSPropertyOp17
 70
     1
102
RTVSPropertyOp18
 70
     1
102
RTVSPropertyOp19
 70
     1
102
RTVSPropertyOp20
 70
     1
102
RTVSPropertyOp21
 70
     1
102
RTVSPropertyOp22
 70
     1
102
RTVSPropertyOp23
 70
     1
102
RTVSPropertyOp24
 70
     1
102
RTVSPropertyOp25
 70
     1
102
RTVSPropertyOp26
 70
     1
102
RTVSPropertyOp27
 70
     1
102
RTVSPropertyOp28
 70
     1
102
RTVSPropertyOp29
 70
     1
102
RTVSPropertyOp30
 70
     1
102
RTVSPropertyOp31
 70
     1
102
RTVSPropertyOp32
 70
     1
102
RTVSPropertyOp33
 70
     1
102
RTVSPropertyOp34
 70
     1
102
RTVSPropertyOp35
 70
     1
102
RTVSPropertyOp36
 70
     1
102
RTVSPropertyOp37
 70
     1
102
RTVSPropertyOp38
 70
     1
102
RTVSPropertyOp39
 70
     1
102
RTVSPropertyOp40
 70
     1
102
RTVSPropertyOp41
 70
     1
102
RTVSPropertyOp42
 70
     1
102
RTVSPropertyOp43
 70
     1
102
RTVSPropertyOp44
 70
     1
102
RTVSPropertyOp45
 70
     1
102
RTVSPropertyOp46
 70
     1
102
RTVSPropertyOp47
 70
     1
102
RTVSPropertyOp48
 70
     1
102
RTVSPropertyOp49
 70
     1
102
RTVSPropertyOp50
 70
     1
102
RTVSPropertyOp51
 70
     0
102
RTVSPropertyOp52
 70
     0
102
RTVSPropertyOp53
 70
     1
102
RTVSPropertyOp54
 70
     1
102
RTVSPropertyOp55
 70
     1
102
RTVSPropertyOp56
 70
     1
102
RTVSPropertyOp57
 70
     1
102
RTVSPropertyOp58
 70
     1
102
RTVSPropertyOp59
 70
     1
102
RTVSPropertyOp60
 70
     1
102
RTVSPropertyOp61
 70
     1
102
RTVSPropertyOp62
 70
     1
  0
XRECORD
  5
BCC7
102
{ACAD_REACTORS
330
BCC6
102
}
330
BCC6
100
AcDbXrecord
280
     1
102
RTVSPost2010Prop28
280
     0
102
RTVSPost2010PropOp28
 70
     1
102
RTVSPost2010Prop29
280
     1
102
RTVSPost2010PropOp29
 70
     1
102
RTVSPost2010Prop30
280
     1
102
RTVSPost2010PropOp30
 70
     1
102
RTVSPost2010Prop31
280
     0
102
RTVSPost2010PropOp31
 70
     1
102
RTVSPost2010Prop32
280
     0
102
RTVSPost2010PropOp32
 70
     1
102
RTVSPost2010Prop33
280
     0
102
RTVSPost2010PropOp33
 70
     1
102
RTVSPost2010Prop34
280
     0
102
RTVSPost2010PropOp34
 70
     1
102
RTVSPost2010Prop35
280
     0
102
RTVSPost2010PropOp35
 70
     1
102
RTVSPost2010Prop36
280
     0
102
RTVSPost2010PropOp36
 70
     1
102
RTVSPost2010Prop37
 90
       50
102
RTVSPost2010PropOp37
 70
     1
102
RTVSPost2010Prop38
140
0.0
102
RTVSPost2010PropOp38
 70
     1
102
RTVSPost2010Prop39
140
1.0
102
RTVSPost2010PropOp39
 70
     1
102
RTVSPost2010Prop40
 90
        0
102
RTVSPost2010PropOp40
 70
     1
102
RTVSPost2010Prop41ColorIndex
 90
       18
102
RTVSPost2010Prop41ColorRGB
 90
        0
102
RTVSPost2010PropOp41
 70
     1
102
RTVSPost2010Prop42
 90
       50
102
RTVSPost2010PropOp42
 70
     1
102
RTVSPost2010Prop43
 90
        3
102
RTVSPost2010PropOp43
 70
     1
102
RTVSPost2010Prop44ColorIndex
 90
        5
102
RTVSPost2010Prop44ColorRGB
 90
      255
102
RTVSPost2010PropOp44
 70
     1
102
RTVSPost2010Prop45
280
     0
102
RTVSPost2010PropOp45
 70
     1
102
RTVSPost2010Prop46
 90
       50
102
RTVSPost2010PropOp46
 70
     1
102
RTVSPost2010Prop47
 90
       50
102
RTVSPost2010PropOp47
 70
     1
102
RTVSPost2010Prop48
 90
       50
102
RTVSPost2010PropOp48
 70
     1
102
RTVSPost2010Prop49
280
     0
102
RTVSPost2010PropOp49
 70
     1
102
RTVSPost2010Prop50
 90
       50
102
RTVSPost2010PropOp50
 70
     1
102
RTVSPost2010Prop51ColorIndex
 90
      256
102
RTVSPost2010Prop51ColorRGB
 90
-16777216
102
RTVSPost2010PropOp51
 70
     0
102
RTVSPost2010Prop52
140
1.0
102
RTVSPost2010PropOp52
 70
     0
102
RTVSPost2010Prop53
 90
        2
102
RTVSPost2010PropOp53
 70
     1
102
RTVSPost2010Prop54
  1
strokes_ogs.tif
102
RTVSPost2010PropOp54
 70
     1
102
RTVSPost2010Prop55
280
     0
102
RTVSPost2010PropOp55
 70
     1
102
RTVSPost2010Prop56
140
1.0
102
RTVSPost2010PropOp56
 70
     1
102
RTVSPost2010Prop57
140
1.0
102
RTVSPost2010PropOp57
 70
     1
102
RTVSPropertyOp0
 70
     1
102
RTVSPropertyOp1
 70
     1
102
RTVSPropertyOp2
 70
     1
102
RTVSPropertyOp3
 70
     1
102
RTVSPropertyOp4
 70
     1
102
RTVSPropertyOp5
 70
     1
102
RTVSPropertyOp6
 70
     1
102
RTVSPropertyOp7
 70
     1
102
RTVSPropertyOp8
 70
     1
102
RTVSPropertyOp9
 70
     1
102
RTVSPropertyOp10
 70
     1
102
RTVSPropertyOp11
 70
     1
102
RTVSPropertyOp12
 70
     1
102
RTVSPropertyOp13
 70
     1
102
RTVSPropertyOp14
 70
     1
102
RTVSPropertyOp15
 70
     1
102
RTVSPropertyOp16
 70
     1
102
RTVSPropertyOp17
 70
     1
102
RTVSPropertyOp18
 70
     1
102
RTVSPropertyOp19
 70
     1
102
RTVSPropertyOp20
 70
     1
102
RTVSPropertyOp21
 70
     1
102
RTVSPropertyOp22
 70
     1
102
RTVSPropertyOp23
 70
     1
102
RTVSPropertyOp24
 70
     1
102
RTVSPropertyOp25
 70
     1
102
RTVSPropertyOp26
 70
     1
102
RTVSPropertyOp27
 70
     1
102
RTVSPropertyOp28
 70
     1
102
RTVSPropertyOp29
 70
     1
102
RTVSPropertyOp30
 70
     1
102
RTVSPropertyOp31
 70
     1
102
RTVSPropertyOp32
 70
     1
102
RTVSPropertyOp33
 70
     1
102
RTVSPropertyOp34
 70
     1
102
RTVSPropertyOp35
 70
     1
102
RTVSPropertyOp36
 70
     1
102
RTVSPropertyOp37
 70
     1
102
RTVSPropertyOp38
 70
     1
102
RTVSPropertyOp39
 70
     1
102
RTVSPropertyOp40
 70
     1
102
RTVSPropertyOp41
 70
     1
102
RTVSPropertyOp42
 70
     1
102
RTVSPropertyOp43
 70
     1
102
RTVSPropertyOp44
 70
     1
102
RTVSPropertyOp45
 70
     1
102
RTVSPropertyOp46
 70
     1
102
RTVSPropertyOp47
 70
     1
102
RTVSPropertyOp48
 70
     1
102
RTVSPropertyOp49
 70
     1
102
RTVSPropertyOp50
 70
     1
102
RTVSPropertyOp51
 70
     0
102
RTVSPropertyOp52
 70
     0
102
RTVSPropertyOp53
 70
     1
102
RTVSPropertyOp54
 70
     1
102
RTVSPropertyOp55
 70
     1
102
RTVSPropertyOp56
 70
     1
102
RTVSPropertyOp57
 70
     1
102
RTVSPropertyOp58
 70
     1
102
RTVSPropertyOp59
 70
     1
102
RTVSPropertyOp60
 70
     1
102
RTVSPropertyOp61
 70
     1
102
RTVSPropertyOp62
 70
     1
  0
XRECORD
  5
BCC9
102
{ACAD_REACTORS
330
BCC8
102
}
330
BCC8
100
AcDbXrecord
280
     1
102
RTVSPost2010Prop28
280
     0
102
RTVSPost2010PropOp28
 70
     1
102
RTVSPost2010Prop29
280
     1
102
RTVSPost2010PropOp29
 70
     1
102
RTVSPost2010Prop30
280
     1
102
RTVSPost2010PropOp30
 70
     1
102
RTVSPost2010Prop31
280
     0
102
RTVSPost2010PropOp31
 70
     1
102
RTVSPost2010Prop32
280
     0
102
RTVSPost2010PropOp32
 70
     1
102
RTVSPost2010Prop33
280
     0
102
RTVSPost2010PropOp33
 70
     1
102
RTVSPost2010Prop34
280
     0
102
RTVSPost2010PropOp34
 70
     1
102
RTVSPost2010Prop35
280
     0
102
RTVSPost2010PropOp35
 70
     1
102
RTVSPost2010Prop36
280
     0
102
RTVSPost2010PropOp36
 70
     1
102
RTVSPost2010Prop37
 90
       50
102
RTVSPost2010PropOp37
 70
     1
102
RTVSPost2010Prop38
140
0.0
102
RTVSPost2010PropOp38
 70
     1
102
RTVSPost2010Prop39
140
1.0
102
RTVSPost2010PropOp39
 70
     1
102
RTVSPost2010Prop40
 90
        0
102
RTVSPost2010PropOp40
 70
     1
102
RTVSPost2010Prop41ColorIndex
 90
       18
102
RTVSPost2010Prop41ColorRGB
 90
        0
102
RTVSPost2010PropOp41
 70
     1
102
RTVSPost2010Prop42
 90
       50
102
RTVSPost2010PropOp42
 70
     1
102
RTVSPost2010Prop43
 90
        3
102
RTVSPost2010PropOp43
 70
     1
102
RTVSPost2010Prop44ColorIndex
 90
        5
102
RTVSPost2010Prop44ColorRGB
 90
      255
102
RTVSPost2010PropOp44
 70
     1
102
RTVSPost2010Prop45
280
     0
102
RTVSPost2010PropOp45
 70
     1
102
RTVSPost2010Prop46
 90
       50
102
RTVSPost2010PropOp46
 70
     1
102
RTVSPost2010Prop47
 90
       50
102
RTVSPost2010PropOp47
 70
     1
102
RTVSPost2010Prop48
 90
       50
102
RTVSPost2010PropOp48
 70
     1
102
RTVSPost2010Prop49
280
     0
102
RTVSPost2010PropOp49
 70
     1
102
RTVSPost2010Prop50
 90
       50
102
RTVSPost2010PropOp50
 70
     1
102
RTVSPost2010Prop51ColorIndex
 90
      256
102
RTVSPost2010Prop51ColorRGB
 90
-16777216
102
RTVSPost2010PropOp51
 70
     0
102
RTVSPost2010Prop52
140
1.0
102
RTVSPost2010PropOp52
 70
     0
102
RTVSPost2010Prop53
 90
        2
102
RTVSPost2010PropOp53
 70
     1
102
RTVSPost2010Prop54
  1
strokes_ogs.tif
102
RTVSPost2010PropOp54
 70
     1
102
RTVSPost2010Prop55
280
     0
102
RTVSPost2010PropOp55
 70
     1
102
RTVSPost2010Prop56
140
1.0
102
RTVSPost2010PropOp56
 70
     1
102
RTVSPost2010Prop57
140
1.0
102
RTVSPost2010PropOp57
 70
     1
102
RTVSPropertyOp0
 70
     1
102
RTVSPropertyOp1
 70
     1
102
RTVSPropertyOp2
 70
     1
102
RTVSPropertyOp3
 70
     1
102
RTVSPropertyOp4
 70
     1
102
RTVSPropertyOp5
 70
     1
102
RTVSPropertyOp6
 70
     1
102
RTVSPropertyOp7
 70
     1
102
RTVSPropertyOp8
 70
     1
102
RTVSPropertyOp9
 70
     1
102
RTVSPropertyOp10
 70
     1
102
RTVSPropertyOp11
 70
     1
102
RTVSPropertyOp12
 70
     1
102
RTVSPropertyOp13
 70
     1
102
RTVSPropertyOp14
 70
     1
102
RTVSPropertyOp15
 70
     1
102
RTVSPropertyOp16
 70
     1
102
RTVSPropertyOp17
 70
     1
102
RTVSPropertyOp18
 70
     1
102
RTVSPropertyOp19
 70
     1
102
RTVSPropertyOp20
 70
     1
102
RTVSPropertyOp21
 70
     1
102
RTVSPropertyOp22
 70
     1
102
RTVSPropertyOp23
 70
     1
102
RTVSPropertyOp24
 70
     1
102
RTVSPropertyOp25
 70
     1
102
RTVSPropertyOp26
 70
     1
102
RTVSPropertyOp27
 70
     1
102
RTVSPropertyOp28
 70
     1
102
RTVSPropertyOp29
 70
     1
102
RTVSPropertyOp30
 70
     1
102
RTVSPropertyOp31
 70
     1
102
RTVSPropertyOp32
 70
     1
102
RTVSPropertyOp33
 70
     1
102
RTVSPropertyOp34
 70
     1
102
RTVSPropertyOp35
 70
     1
102
RTVSPropertyOp36
 70
     1
102
RTVSPropertyOp37
 70
     1
102
RTVSPropertyOp38
 70
     1
102
RTVSPropertyOp39
 70
     1
102
RTVSPropertyOp40
 70
     1
102
RTVSPropertyOp41
 70
     1
102
RTVSPropertyOp42
 70
     1
102
RTVSPropertyOp43
 70
     1
102
RTVSPropertyOp44
 70
     1
102
RTVSPropertyOp45
 70
     1
102
RTVSPropertyOp46
 70
     1
102
RTVSPropertyOp47
 70
     1
102
RTVSPropertyOp48
 70
     1
102
RTVSPropertyOp49
 70
     1
102
RTVSPropertyOp50
 70
     1
102
RTVSPropertyOp51
 70
     0
102
RTVSPropertyOp52
 70
     0
102
RTVSPropertyOp53
 70
     1
102
RTVSPropertyOp54
 70
     1
102
RTVSPropertyOp55
 70
     1
102
RTVSPropertyOp56
 70
     1
102
RTVSPropertyOp57
 70
     1
102
RTVSPropertyOp58
 70
     1
102
RTVSPropertyOp59
 70
     1
102
RTVSPropertyOp60
 70
     1
102
RTVSPropertyOp61
 70
     1
102
RTVSPropertyOp62
 70
     1
  0
XRECORD
  5
BCCB
102
{ACAD_REACTORS
330
BCCA
102
}
330
BCCA
100
AcDbXrecord
280
     1
102
RTVSPost2010Prop28
280
     0
102
RTVSPost2010PropOp28
 70
     1
102
RTVSPost2010Prop29
280
     1
102
RTVSPost2010PropOp29
 70
     1
102
RTVSPost2010Prop30
280
     1
102
RTVSPost2010PropOp30
 70
     1
102
RTVSPost2010Prop31
280
     0
102
RTVSPost2010PropOp31
 70
     1
102
RTVSPost2010Prop32
280
     0
102
RTVSPost2010PropOp32
 70
     1
102
RTVSPost2010Prop33
280
     0
102
RTVSPost2010PropOp33
 70
     1
102
RTVSPost2010Prop34
280
     0
102
RTVSPost2010PropOp34
 70
     1
102
RTVSPost2010Prop35
280
     0
102
RTVSPost2010PropOp35
 70
     1
102
RTVSPost2010Prop36
280
     0
102
RTVSPost2010PropOp36
 70
     1
102
RTVSPost2010Prop37
 90
       50
102
RTVSPost2010PropOp37
 70
     1
102
RTVSPost2010Prop38
140
0.0
102
RTVSPost2010PropOp38
 70
     1
102
RTVSPost2010Prop39
140
1.0
102
RTVSPost2010PropOp39
 70
     1
102
RTVSPost2010Prop40
 90
        0
102
RTVSPost2010PropOp40
 70
     1
102
RTVSPost2010Prop41ColorIndex
 90
       18
102
RTVSPost2010Prop41ColorRGB
 90
        0
102
RTVSPost2010PropOp41
 70
     1
102
RTVSPost2010Prop42
 90
       50
102
RTVSPost2010PropOp42
 70
     1
102
RTVSPost2010Prop43
 90
        3
102
RTVSPost2010PropOp43
 70
     1
102
RTVSPost2010Prop44ColorIndex
 90
        5
102
RTVSPost2010Prop44ColorRGB
 90
      255
102
RTVSPost2010PropOp44
 70
     1
102
RTVSPost2010Prop45
280
     0
102
RTVSPost2010PropOp45
 70
     1
102
RTVSPost2010Prop46
 90
       50
102
RTVSPost2010PropOp46
 70
     1
102
RTVSPost2010Prop47
 90
       50
102
RTVSPost2010PropOp47
 70
     1
102
RTVSPost2010Prop48
 90
       50
102
RTVSPost2010PropOp48
 70
     1
102
RTVSPost2010Prop49
280
     0
102
RTVSPost2010PropOp49
 70
     1
102
RTVSPost2010Prop50
 90
       50
102
RTVSPost2010PropOp50
 70
     1
102
RTVSPost2010Prop51ColorIndex
 90
      256
102
RTVSPost2010Prop51ColorRGB
 90
-16777216
102
RTVSPost2010PropOp51
 70
     0
102
RTVSPost2010Prop52
140
1.0
102
RTVSPost2010PropOp52
 70
     0
102
RTVSPost2010Prop53
 90
        2
102
RTVSPost2010PropOp53
 70
     1
102
RTVSPost2010Prop54
  1
strokes_ogs.tif
102
RTVSPost2010PropOp54
 70
     1
102
RTVSPost2010Prop55
280
     0
102
RTVSPost2010PropOp55
 70
     1
102
RTVSPost2010Prop56
140
1.0
102
RTVSPost2010PropOp56
 70
     1
102
RTVSPost2010Prop57
140
1.0
102
RTVSPost2010PropOp57
 70
     1
102
RTVSPropertyOp0
 70
     1
102
RTVSPropertyOp1
 70
     1
102
RTVSPropertyOp2
 70
     1
102
RTVSPropertyOp3
 70
     1
102
RTVSPropertyOp4
 70
     1
102
RTVSPropertyOp5
 70
     1
102
RTVSPropertyOp6
 70
     1
102
RTVSPropertyOp7
 70
     1
102
RTVSPropertyOp8
 70
     1
102
RTVSPropertyOp9
 70
     1
102
RTVSPropertyOp10
 70
     1
102
RTVSPropertyOp11
 70
     1
102
RTVSPropertyOp12
 70
     1
102
RTVSPropertyOp13
 70
     1
102
RTVSPropertyOp14
 70
     1
102
RTVSPropertyOp15
 70
     1
102
RTVSPropertyOp16
 70
     1
102
RTVSPropertyOp17
 70
     1
102
RTVSPropertyOp18
 70
     1
102
RTVSPropertyOp19
 70
     1
102
RTVSPropertyOp20
 70
     1
102
RTVSPropertyOp21
 70
     1
102
RTVSPropertyOp22
 70
     1
102
RTVSPropertyOp23
 70
     1
102
RTVSPropertyOp24
 70
     1
102
RTVSPropertyOp25
 70
     1
102
RTVSPropertyOp26
 70
     1
102
RTVSPropertyOp27
 70
     1
102
RTVSPropertyOp28
 70
     1
102
RTVSPropertyOp29
 70
     1
102
RTVSPropertyOp30
 70
     1
102
RTVSPropertyOp31
 70
     1
102
RTVSPropertyOp32
 70
     1
102
RTVSPropertyOp33
 70
     1
102
RTVSPropertyOp34
 70
     1
102
RTVSPropertyOp35
 70
     1
102
RTVSPropertyOp36
 70
     1
102
RTVSPropertyOp37
 70
     1
102
RTVSPropertyOp38
 70
     1
102
RTVSPropertyOp39
 70
     1
102
RTVSPropertyOp40
 70
     1
102
RTVSPropertyOp41
 70
     1
102
RTVSPropertyOp42
 70
     1
102
RTVSPropertyOp43
 70
     1
102
RTVSPropertyOp44
 70
     1
102
RTVSPropertyOp45
 70
     1
102
RTVSPropertyOp46
 70
     1
102
RTVSPropertyOp47
 70
     1
102
RTVSPropertyOp48
 70
     1
102
RTVSPropertyOp49
 70
     1
102
RTVSPropertyOp50
 70
     1
102
RTVSPropertyOp51
 70
     0
102
RTVSPropertyOp52
 70
     0
102
RTVSPropertyOp53
 70
     1
102
RTVSPropertyOp54
 70
     1
102
RTVSPropertyOp55
 70
     1
102
RTVSPropertyOp56
 70
     1
102
RTVSPropertyOp57
 70
     1
102
RTVSPropertyOp58
 70
     1
102
RTVSPropertyOp59
 70
     1
102
RTVSPropertyOp60
 70
     1
102
RTVSPropertyOp61
 70
     1
102
RTVSPropertyOp62
 70
     1
  0
XRECORD
  5
BCCD
102
{ACAD_REACTORS
330
BCCC
102
}
330
BCCC
100
AcDbXrecord
280
     1
102
RTVSPost2010Prop28
280
     0
102
RTVSPost2010PropOp28
 70
     1
102
RTVSPost2010Prop29
280
     1
102
RTVSPost2010PropOp29
 70
     1
102
RTVSPost2010Prop30
280
     1
102
RTVSPost2010PropOp30
 70
     1
102
RTVSPost2010Prop31
280
     0
102
RTVSPost2010PropOp31
 70
     1
102
RTVSPost2010Prop32
280
     0
102
RTVSPost2010PropOp32
 70
     1
102
RTVSPost2010Prop33
280
     0
102
RTVSPost2010PropOp33
 70
     1
102
RTVSPost2010Prop34
280
     0
102
RTVSPost2010PropOp34
 70
     1
102
RTVSPost2010Prop35
280
     0
102
RTVSPost2010PropOp35
 70
     1
102
RTVSPost2010Prop36
280
     0
102
RTVSPost2010PropOp36
 70
     1
102
RTVSPost2010Prop37
 90
       50
102
RTVSPost2010PropOp37
 70
     1
102
RTVSPost2010Prop38
140
0.0
102
RTVSPost2010PropOp38
 70
     1
102
RTVSPost2010Prop39
140
1.0
102
RTVSPost2010PropOp39
 70
     1
102
RTVSPost2010Prop40
 90
        0
102
RTVSPost2010PropOp40
 70
     1
102
RTVSPost2010Prop41ColorIndex
 90
       18
102
RTVSPost2010Prop41ColorRGB
 90
        0
102
RTVSPost2010PropOp41
 70
     1
102
RTVSPost2010Prop42
 90
       50
102
RTVSPost2010PropOp42
 70
     1
102
RTVSPost2010Prop43
 90
        3
102
RTVSPost2010PropOp43
 70
     1
102
RTVSPost2010Prop44ColorIndex
 90
        5
102
RTVSPost2010Prop44ColorRGB
 90
      255
102
RTVSPost2010PropOp44
 70
     1
102
RTVSPost2010Prop45
280
     0
102
RTVSPost2010PropOp45
 70
     1
102
RTVSPost2010Prop46
 90
       50
102
RTVSPost2010PropOp46
 70
     1
102
RTVSPost2010Prop47
 90
       50
102
RTVSPost2010PropOp47
 70
     1
102
RTVSPost2010Prop48
 90
       50
102
RTVSPost2010PropOp48
 70
     1
102
RTVSPost2010Prop49
280
     0
102
RTVSPost2010PropOp49
 70
     1
102
RTVSPost2010Prop50
 90
       50
102
RTVSPost2010PropOp50
 70
     1
102
RTVSPost2010Prop51ColorIndex
 90
      256
102
RTVSPost2010Prop51ColorRGB
 90
-16777216
102
RTVSPost2010PropOp51
 70
     0
102
RTVSPost2010Prop52
140
1.0
102
RTVSPost2010PropOp52
 70
     0
102
RTVSPost2010Prop53
 90
        2
102
RTVSPost2010PropOp53
 70
     1
102
RTVSPost2010Prop54
  1
strokes_ogs.tif
102
RTVSPost2010PropOp54
 70
     1
102
RTVSPost2010Prop55
280
     0
102
RTVSPost2010PropOp55
 70
     1
102
RTVSPost2010Prop56
140
1.0
102
RTVSPost2010PropOp56
 70
     1
102
RTVSPost2010Prop57
140
1.0
102
RTVSPost2010PropOp57
 70
     1
102
RTVSPropertyOp0
 70
     1
102
RTVSPropertyOp1
 70
     1
102
RTVSPropertyOp2
 70
     1
102
RTVSPropertyOp3
 70
     1
102
RTVSPropertyOp4
 70
     1
102
RTVSPropertyOp5
 70
     1
102
RTVSPropertyOp6
 70
     1
102
RTVSPropertyOp7
 70
     1
102
RTVSPropertyOp8
 70
     1
102
RTVSPropertyOp9
 70
     1
102
RTVSPropertyOp10
 70
     1
102
RTVSPropertyOp11
 70
     1
102
RTVSPropertyOp12
 70
     1
102
RTVSPropertyOp13
 70
     1
102
RTVSPropertyOp14
 70
     1
102
RTVSPropertyOp15
 70
     1
102
RTVSPropertyOp16
 70
     1
102
RTVSPropertyOp17
 70
     1
102
RTVSPropertyOp18
 70
     1
102
RTVSPropertyOp19
 70
     1
102
RTVSPropertyOp20
 70
     1
102
RTVSPropertyOp21
 70
     1
102
RTVSPropertyOp22
 70
     1
102
RTVSPropertyOp23
 70
     1
102
RTVSPropertyOp24
 70
     1
102
RTVSPropertyOp25
 70
     1
102
RTVSPropertyOp26
 70
     1
102
RTVSPropertyOp27
 70
     1
102
RTVSPropertyOp28
 70
     1
102
RTVSPropertyOp29
 70
     1
102
RTVSPropertyOp30
 70
     1
102
RTVSPropertyOp31
 70
     1
102
RTVSPropertyOp32
 70
     1
102
RTVSPropertyOp33
 70
     1
102
RTVSPropertyOp34
 70
     1
102
RTVSPropertyOp35
 70
     1
102
RTVSPropertyOp36
 70
     1
102
RTVSPropertyOp37
 70
     1
102
RTVSPropertyOp38
 70
     1
102
RTVSPropertyOp39
 70
     1
102
RTVSPropertyOp40
 70
     1
102
RTVSPropertyOp41
 70
     1
102
RTVSPropertyOp42
 70
     1
102
RTVSPropertyOp43
 70
     1
102
RTVSPropertyOp44
 70
     1
102
RTVSPropertyOp45
 70
     1
102
RTVSPropertyOp46
 70
     1
102
RTVSPropertyOp47
 70
     1
102
RTVSPropertyOp48
 70
     1
102
RTVSPropertyOp49
 70
     1
102
RTVSPropertyOp50
 70
     1
102
RTVSPropertyOp51
 70
     0
102
RTVSPropertyOp52
 70
     0
102
RTVSPropertyOp53
 70
     1
102
RTVSPropertyOp54
 70
     1
102
RTVSPropertyOp55
 70
     1
102
RTVSPropertyOp56
 70
     1
102
RTVSPropertyOp57
 70
     1
102
RTVSPropertyOp58
 70
     1
102
RTVSPropertyOp59
 70
     1
102
RTVSPropertyOp60
 70
     1
102
RTVSPropertyOp61
 70
     1
102
RTVSPropertyOp62
 70
     1
  0
XRECORD
  5
BCD5
102
{ACAD_REACTORS
330
BCD4
102
}
330
BCD4
100
AcDbXrecord
280
     1
102
RTVSPost2010Prop28
280
     0
102
RTVSPost2010PropOp28
 70
     1
102
RTVSPost2010Prop29
280
     1
102
RTVSPost2010PropOp29
 70
     1
102
RTVSPost2010Prop30
280
     1
102
RTVSPost2010PropOp30
 70
     1
102
RTVSPost2010Prop31
280
     0
102
RTVSPost2010PropOp31
 70
     1
102
RTVSPost2010Prop32
280
     0
102
RTVSPost2010PropOp32
 70
     1
102
RTVSPost2010Prop33
280
     0
102
RTVSPost2010PropOp33
 70
     1
102
RTVSPost2010Prop34
280
     0
102
RTVSPost2010PropOp34
 70
     1
102
RTVSPost2010Prop35
280
     0
102
RTVSPost2010PropOp35
 70
     1
102
RTVSPost2010Prop36
280
     0
102
RTVSPost2010PropOp36
 70
     1
102
RTVSPost2010Prop37
 90
       50
102
RTVSPost2010PropOp37
 70
     1
102
RTVSPost2010Prop38
140
0.0
102
RTVSPost2010PropOp38
 70
     1
102
RTVSPost2010Prop39
140
1.0
102
RTVSPost2010PropOp39
 70
     1
102
RTVSPost2010Prop40
 90
        0
102
RTVSPost2010PropOp40
 70
     1
102
RTVSPost2010Prop41ColorIndex
 90
       18
102
RTVSPost2010Prop41ColorRGB
 90
        0
102
RTVSPost2010PropOp41
 70
     1
102
RTVSPost2010Prop42
 90
       50
102
RTVSPost2010PropOp42
 70
     1
102
RTVSPost2010Prop43
 90
        3
102
RTVSPost2010PropOp43
 70
     1
102
RTVSPost2010Prop44ColorIndex
 90
        5
102
RTVSPost2010Prop44ColorRGB
 90
      255
102
RTVSPost2010PropOp44
 70
     1
102
RTVSPost2010Prop45
280
     0
102
RTVSPost2010PropOp45
 70
     1
102
RTVSPost2010Prop46
 90
       50
102
RTVSPost2010PropOp46
 70
     1
102
RTVSPost2010Prop47
 90
       50
102
RTVSPost2010PropOp47
 70
     1
102
RTVSPost2010Prop48
 90
       50
102
RTVSPost2010PropOp48
 70
     1
102
RTVSPost2010Prop49
280
     0
102
RTVSPost2010PropOp49
 70
     1
102
RTVSPost2010Prop50
 90
       50
102
RTVSPost2010PropOp50
 70
     1
102
RTVSPost2010Prop51ColorIndex
 90
      256
102
RTVSPost2010Prop51ColorRGB
 90
-16777216
102
RTVSPost2010PropOp51
 70
     0
102
RTVSPost2010Prop52
140
1.0
102
RTVSPost2010PropOp52
 70
     0
102
RTVSPost2010Prop53
 90
        2
102
RTVSPost2010PropOp53
 70
     1
102
RTVSPost2010Prop54
  1
strokes_ogs.tif
102
RTVSPost2010PropOp54
 70
     1
102
RTVSPost2010Prop55
280
     0
102
RTVSPost2010PropOp55
 70
     1
102
RTVSPost2010Prop56
140
1.0
102
RTVSPost2010PropOp56
 70
     1
102
RTVSPost2010Prop57
140
1.0
102
RTVSPost2010PropOp57
 70
     1
102
RTVSPropertyOp0
 70
     1
102
RTVSPropertyOp1
 70
     1
102
RTVSPropertyOp2
 70
     1
102
RTVSPropertyOp3
 70
     1
102
RTVSPropertyOp4
 70
     1
102
RTVSPropertyOp5
 70
     1
102
RTVSPropertyOp6
 70
     1
102
RTVSPropertyOp7
 70
     1
102
RTVSPropertyOp8
 70
     1
102
RTVSPropertyOp9
 70
     1
102
RTVSPropertyOp10
 70
     1
102
RTVSPropertyOp11
 70
     1
102
RTVSPropertyOp12
 70
     1
102
RTVSPropertyOp13
 70
     1
102
RTVSPropertyOp14
 70
     1
102
RTVSPropertyOp15
 70
     1
102
RTVSPropertyOp16
 70
     1
102
RTVSPropertyOp17
 70
     1
102
RTVSPropertyOp18
 70
     1
102
RTVSPropertyOp19
 70
     1
102
RTVSPropertyOp20
 70
     1
102
RTVSPropertyOp21
 70
     1
102
RTVSPropertyOp22
 70
     1
102
RTVSPropertyOp23
 70
     1
102
RTVSPropertyOp24
 70
     1
102
RTVSPropertyOp25
 70
     1
102
RTVSPropertyOp26
 70
     1
102
RTVSPropertyOp27
 70
     1
102
RTVSPropertyOp28
 70
     1
102
RTVSPropertyOp29
 70
     1
102
RTVSPropertyOp30
 70
     1
102
RTVSPropertyOp31
 70
     1
102
RTVSPropertyOp32
 70
     1
102
RTVSPropertyOp33
 70
     1
102
RTVSPropertyOp34
 70
     1
102
RTVSPropertyOp35
 70
     1
102
RTVSPropertyOp36
 70
     1
102
RTVSPropertyOp37
 70
     1
102
RTVSPropertyOp38
 70
     1
102
RTVSPropertyOp39
 70
     1
102
RTVSPropertyOp40
 70
     1
102
RTVSPropertyOp41
 70
     1
102
RTVSPropertyOp42
 70
     1
102
RTVSPropertyOp43
 70
     1
102
RTVSPropertyOp44
 70
     1
102
RTVSPropertyOp45
 70
     1
102
RTVSPropertyOp46
 70
     1
102
RTVSPropertyOp47
 70
     1
102
RTVSPropertyOp48
 70
     1
102
RTVSPropertyOp49
 70
     1
102
RTVSPropertyOp50
 70
     1
102
RTVSPropertyOp51
 70
     0
102
RTVSPropertyOp52
 70
     0
102
RTVSPropertyOp53
 70
     1
102
RTVSPropertyOp54
 70
     1
102
RTVSPropertyOp55
 70
     1
102
RTVSPropertyOp56
 70
     1
102
RTVSPropertyOp57
 70
     1
102
RTVSPropertyOp58
 70
     1
102
RTVSPropertyOp59
 70
     1
102
RTVSPropertyOp60
 70
     1
102
RTVSPropertyOp61
 70
     1
102
RTVSPropertyOp62
 70
     1
  0
XRECORD
  5
BCF1
102
{ACAD_REACTORS
330
BCF0
102
}
330
BCF0
100
AcDbXrecord
280
     1
102
RTVSPost2010Prop28
280
     0
102
RTVSPost2010PropOp28
 70
     1
102
RTVSPost2010Prop29
280
     1
102
RTVSPost2010PropOp29
 70
     1
102
RTVSPost2010Prop30
280
     1
102
RTVSPost2010PropOp30
 70
     1
102
RTVSPost2010Prop31
280
     0
102
RTVSPost2010PropOp31
 70
     1
102
RTVSPost2010Prop32
280
     0
102
RTVSPost2010PropOp32
 70
     1
102
RTVSPost2010Prop33
280
     0
102
RTVSPost2010PropOp33
 70
     1
102
RTVSPost2010Prop34
280
     0
102
RTVSPost2010PropOp34
 70
     1
102
RTVSPost2010Prop35
280
     0
102
RTVSPost2010PropOp35
 70
     1
102
RTVSPost2010Prop36
280
     0
102
RTVSPost2010PropOp36
 70
     1
102
RTVSPost2010Prop37
 90
       50
102
RTVSPost2010PropOp37
 70
     0
102
RTVSPost2010Prop38
140
0.0
102
RTVSPost2010PropOp38
 70
     0
102
RTVSPost2010Prop39
140
1.0
102
RTVSPost2010PropOp39
 70
     0
102
RTVSPost2010Prop40
 90
        0
102
RTVSPost2010PropOp40
 70
     0
102
RTVSPost2010Prop41ColorIndex
 90
       18
102
RTVSPost2010Prop41ColorRGB
 90
        0
102
RTVSPost2010PropOp41
 70
     0
102
RTVSPost2010Prop42
 90
       50
102
RTVSPost2010PropOp42
 70
     0
102
RTVSPost2010Prop43
 90
        3
102
RTVSPost2010PropOp43
 70
     0
102
RTVSPost2010Prop44ColorIndex
 90
        5
102
RTVSPost2010Prop44ColorRGB
 90
      255
102
RTVSPost2010PropOp44
 70
     0
102
RTVSPost2010Prop45
280
     0
102
RTVSPost2010PropOp45
 70
     1
102
RTVSPost2010Prop46
 90
       50
102
RTVSPost2010PropOp46
 70
     0
102
RTVSPost2010Prop47
 90
       50
102
RTVSPost2010PropOp47
 70
     0
102
RTVSPost2010Prop48
 90
       50
102
RTVSPost2010PropOp48
 70
     0
102
RTVSPost2010Prop49
280
     0
102
RTVSPost2010PropOp49
 70
     1
102
RTVSPost2010Prop50
 90
       50
102
RTVSPost2010PropOp50
 70
     0
102
RTVSPost2010Prop51ColorIndex
 90
      256
102
RTVSPost2010Prop51ColorRGB
 90
-16777216
102
RTVSPost2010PropOp51
 70
     0
102
RTVSPost2010Prop52
140
1.0
102
RTVSPost2010PropOp52
 70
     0
102
RTVSPost2010Prop53
 90
        2
102
RTVSPost2010PropOp53
 70
     0
102
RTVSPost2010Prop54
  1
strokes_ogs.tif
102
RTVSPost2010PropOp54
 70
     0
102
RTVSPost2010Prop55
280
     0
102
RTVSPost2010PropOp55
 70
     1
102
RTVSPost2010Prop56
140
1.0
102
RTVSPost2010PropOp56
 70
     0
102
RTVSPost2010Prop57
140
1.0
102
RTVSPost2010PropOp57
 70
     0
102
RTVSPropertyOp0
 70
     0
102
RTVSPropertyOp1
 70
     0
102
RTVSPropertyOp2
 70
     0
102
RTVSPropertyOp3
 70
     0
102
RTVSPropertyOp4
 70
     0
102
RTVSPropertyOp5
 70
     0
102
RTVSPropertyOp6
 70
     0
102
RTVSPropertyOp7
 70
     0
102
RTVSPropertyOp8
 70
     0
102
RTVSPropertyOp9
 70
     0
102
RTVSPropertyOp10
 70
     0
102
RTVSPropertyOp11
 70
     0
102
RTVSPropertyOp12
 70
     0
102
RTVSPropertyOp13
 70
     0
102
RTVSPropertyOp14
 70
     2
102
RTVSPropertyOp15
 70
     0
102
RTVSPropertyOp16
 70
     0
102
RTVSPropertyOp17
 70
     0
102
RTVSPropertyOp18
 70
     0
102
RTVSPropertyOp19
 70
     0
102
RTVSPropertyOp20
 70
     0
102
RTVSPropertyOp21
 70
     0
102
RTVSPropertyOp22
 70
     0
102
RTVSPropertyOp23
 70
     0
102
RTVSPropertyOp24
 70
     0
102
RTVSPropertyOp25
 70
     0
102
RTVSPropertyOp26
 70
     0
102
RTVSPropertyOp27
 70
     0
102
RTVSPropertyOp28
 70
     1
102
RTVSPropertyOp29
 70
     1
102
RTVSPropertyOp30
 70
     1
102
RTVSPropertyOp31
 70
     1
102
RTVSPropertyOp32
 70
     1
102
RTVSPropertyOp33
 70
     1
102
RTVSPropertyOp34
 70
     1
102
RTVSPropertyOp35
 70
     1
102
RTVSPropertyOp36
 70
     1
102
RTVSPropertyOp37
 70
     0
102
RTVSPropertyOp38
 70
     0
102
RTVSPropertyOp39
 70
     0
102
RTVSPropertyOp40
 70
     0
102
RTVSPropertyOp41
 70
     0
102
RTVSPropertyOp42
 70
     0
102
RTVSPropertyOp43
 70
     0
102
RTVSPropertyOp44
 70
     0
102
RTVSPropertyOp45
 70
     1
102
RTVSPropertyOp46
 70
     0
102
RTVSPropertyOp47
 70
     0
102
RTVSPropertyOp48
 70
     0
102
RTVSPropertyOp49
 70
     1
102
RTVSPropertyOp50
 70
     0
102
RTVSPropertyOp51
 70
     0
102
RTVSPropertyOp52
 70
     0
102
RTVSPropertyOp53
 70
     0
102
RTVSPropertyOp54
 70
     0
102
RTVSPropertyOp55
 70
     1
102
RTVSPropertyOp56
 70
     0
102
RTVSPropertyOp57
 70
     0
102
RTVSPropertyOp58
 70
     0
102
RTVSPropertyOp59
 70
     0
102
RTVSPropertyOp60
 70
     0
102
RTVSPropertyOp61
 70
     0
102
RTVSPropertyOp62
 70
     0
  0
XRECORD
  5
BCE1
102
{ACAD_REACTORS
330
BCE0
102
}
330
BCE0
100
AcDbXrecord
280
     1
102
RTVSPost2010Prop28
280
     0
102
RTVSPost2010PropOp28
 70
     1
102
RTVSPost2010Prop29
280
     1
102
RTVSPost2010PropOp29
 70
     1
102
RTVSPost2010Prop30
280
     1
102
RTVSPost2010PropOp30
 70
     1
102
RTVSPost2010Prop31
280
     0
102
RTVSPost2010PropOp31
 70
     1
102
RTVSPost2010Prop32
280
     0
102
RTVSPost2010PropOp32
 70
     1
102
RTVSPost2010Prop33
280
     0
102
RTVSPost2010PropOp33
 70
     1
102
RTVSPost2010Prop34
280
     0
102
RTVSPost2010PropOp34
 70
     1
102
RTVSPost2010Prop35
280
     0
102
RTVSPost2010PropOp35
 70
     1
102
RTVSPost2010Prop36
280
     0
102
RTVSPost2010PropOp36
 70
     1
102
RTVSPost2010Prop37
 90
       50
102
RTVSPost2010PropOp37
 70
     1
102
RTVSPost2010Prop38
140
0.0
102
RTVSPost2010PropOp38
 70
     1
102
RTVSPost2010Prop39
140
1.0
102
RTVSPost2010PropOp39
 70
     1
102
RTVSPost2010Prop40
 90
        0
102
RTVSPost2010PropOp40
 70
     1
102
RTVSPost2010Prop41ColorIndex
 90
       18
102
RTVSPost2010Prop41ColorRGB
 90
        0
102
RTVSPost2010PropOp41
 70
     1
102
RTVSPost2010Prop42
 90
       50
102
RTVSPost2010PropOp42
 70
     1
102
RTVSPost2010Prop43
 90
        3
102
RTVSPost2010PropOp43
 70
     1
102
RTVSPost2010Prop44ColorIndex
 90
        5
102
RTVSPost2010Prop44ColorRGB
 90
      255
102
RTVSPost2010PropOp44
 70
     1
102
RTVSPost2010Prop45
280
     0
102
RTVSPost2010PropOp45
 70
     1
102
RTVSPost2010Prop46
 90
       50
102
RTVSPost2010PropOp46
 70
     1
102
RTVSPost2010Prop47
 90
       50
102
RTVSPost2010PropOp47
 70
     1
102
RTVSPost2010Prop48
 90
       50
102
RTVSPost2010PropOp48
 70
     1
102
RTVSPost2010Prop49
280
     0
102
RTVSPost2010PropOp49
 70
     1
102
RTVSPost2010Prop50
 90
       50
102
RTVSPost2010PropOp50
 70
     1
102
RTVSPost2010Prop51ColorIndex
 90
      256
102
RTVSPost2010Prop51ColorRGB
 90
-16777216
102
RTVSPost2010PropOp51
 70
     0
102
RTVSPost2010Prop52
140
1.0
102
RTVSPost2010PropOp52
 70
     0
102
RTVSPost2010Prop53
 90
        2
102
RTVSPost2010PropOp53
 70
     1
102
RTVSPost2010Prop54
  1
strokes_ogs.tif
102
RTVSPost2010PropOp54
 70
     1
102
RTVSPost2010Prop55
280
     0
102
RTVSPost2010PropOp55
 70
     1
102
RTVSPost2010Prop56
140
1.0
102
RTVSPost2010PropOp56
 70
     1
102
RTVSPost2010Prop57
140
1.0
102
RTVSPost2010PropOp57
 70
     1
102
RTVSPropertyOp0
 70
     1
102
RTVSPropertyOp1
 70
     1
102
RTVSPropertyOp2
 70
     1
102
RTVSPropertyOp3
 70
     1
102
RTVSPropertyOp4
 70
     1
102
RTVSPropertyOp5
 70
     1
102
RTVSPropertyOp6
 70
     1
102
RTVSPropertyOp7
 70
     1
102
RTVSPropertyOp8
 70
     1
102
RTVSPropertyOp9
 70
     1
102
RTVSPropertyOp10
 70
     1
102
RTVSPropertyOp11
 70
     1
102
RTVSPropertyOp12
 70
     1
102
RTVSPropertyOp13
 70
     1
102
RTVSPropertyOp14
 70
     1
102
RTVSPropertyOp15
 70
     1
102
RTVSPropertyOp16
 70
     1
102
RTVSPropertyOp17
 70
     1
102
RTVSPropertyOp18
 70
     1
102
RTVSPropertyOp19
 70
     1
102
RTVSPropertyOp20
 70
     1
102
RTVSPropertyOp21
 70
     1
102
RTVSPropertyOp22
 70
     1
102
RTVSPropertyOp23
 70
     1
102
RTVSPropertyOp24
 70
     1
102
RTVSPropertyOp25
 70
     1
102
RTVSPropertyOp26
 70
     1
102
RTVSPropertyOp27
 70
     1
102
RTVSPropertyOp28
 70
     1
102
RTVSPropertyOp29
 70
     1
102
RTVSPropertyOp30
 70
     1
102
RTVSPropertyOp31
 70
     1
102
RTVSPropertyOp32
 70
     1
102
RTVSPropertyOp33
 70
     1
102
RTVSPropertyOp34
 70
     1
102
RTVSPropertyOp35
 70
     1
102
RTVSPropertyOp36
 70
     1
102
RTVSPropertyOp37
 70
     1
102
RTVSPropertyOp38
 70
     1
102
RTVSPropertyOp39
 70
     1
102
RTVSPropertyOp40
 70
     1
102
RTVSPropertyOp41
 70
     1
102
RTVSPropertyOp42
 70
     1
102
RTVSPropertyOp43
 70
     1
102
RTVSPropertyOp44
 70
     1
102
RTVSPropertyOp45
 70
     1
102
RTVSPropertyOp46
 70
     1
102
RTVSPropertyOp47
 70
     1
102
RTVSPropertyOp48
 70
     1
102
RTVSPropertyOp49
 70
     1
102
RTVSPropertyOp50
 70
     1
102
RTVSPropertyOp51
 70
     0
102
RTVSPropertyOp52
 70
     0
102
RTVSPropertyOp53
 70
     1
102
RTVSPropertyOp54
 70
     1
102
RTVSPropertyOp55
 70
     1
102
RTVSPropertyOp56
 70
     1
102
RTVSPropertyOp57
 70
     1
102
RTVSPropertyOp58
 70
     1
102
RTVSPropertyOp59
 70
     1
102
RTVSPropertyOp60
 70
     1
102
RTVSPropertyOp61
 70
     1
102
RTVSPropertyOp62
 70
     1
  0
XRECORD
  5
BCF3
102
{ACAD_REACTORS
330
BCF2
102
}
330
BCF2
100
AcDbXrecord
280
     1
102
RTVSPost2010Prop28
280
     0
102
RTVSPost2010PropOp28
 70
     1
102
RTVSPost2010Prop29
280
     1
102
RTVSPost2010PropOp29
 70
     1
102
RTVSPost2010Prop30
280
     1
102
RTVSPost2010PropOp30
 70
     1
102
RTVSPost2010Prop31
280
     0
102
RTVSPost2010PropOp31
 70
     1
102
RTVSPost2010Prop32
280
     0
102
RTVSPost2010PropOp32
 70
     1
102
RTVSPost2010Prop33
280
     0
102
RTVSPost2010PropOp33
 70
     1
102
RTVSPost2010Prop34
280
     0
102
RTVSPost2010PropOp34
 70
     1
102
RTVSPost2010Prop35
280
     0
102
RTVSPost2010PropOp35
 70
     1
102
RTVSPost2010Prop36
280
     0
102
RTVSPost2010PropOp36
 70
     1
102
RTVSPost2010Prop37
 90
       50
102
RTVSPost2010PropOp37
 70
     0
102
RTVSPost2010Prop38
140
0.0
102
RTVSPost2010PropOp38
 70
     0
102
RTVSPost2010Prop39
140
1.0
102
RTVSPost2010PropOp39
 70
     0
102
RTVSPost2010Prop40
 90
        0
102
RTVSPost2010PropOp40
 70
     0
102
RTVSPost2010Prop41ColorIndex
 90
       18
102
RTVSPost2010Prop41ColorRGB
 90
        0
102
RTVSPost2010PropOp41
 70
     0
102
RTVSPost2010Prop42
 90
       50
102
RTVSPost2010PropOp42
 70
     0
102
RTVSPost2010Prop43
 90
        3
102
RTVSPost2010PropOp43
 70
     0
102
RTVSPost2010Prop44ColorIndex
 90
        5
102
RTVSPost2010Prop44ColorRGB
 90
      255
102
RTVSPost2010PropOp44
 70
     0
102
RTVSPost2010Prop45
280
     0
102
RTVSPost2010PropOp45
 70
     1
102
RTVSPost2010Prop46
 90
       50
102
RTVSPost2010PropOp46
 70
     0
102
RTVSPost2010Prop47
 90
       50
102
RTVSPost2010PropOp47
 70
     0
102
RTVSPost2010Prop48
 90
       50
102
RTVSPost2010PropOp48
 70
     0
102
RTVSPost2010Prop49
280
     0
102
RTVSPost2010PropOp49
 70
     1
102
RTVSPost2010Prop50
 90
       50
102
RTVSPost2010PropOp50
 70
     0
102
RTVSPost2010Prop51ColorIndex
 90
      256
102
RTVSPost2010Prop51ColorRGB
 90
-16777216
102
RTVSPost2010PropOp51
 70
     0
102
RTVSPost2010Prop52
140
1.0
102
RTVSPost2010PropOp52
 70
     0
102
RTVSPost2010Prop53
 90
        2
102
RTVSPost2010PropOp53
 70
     0
102
RTVSPost2010Prop54
  1
strokes_ogs.tif
102
RTVSPost2010PropOp54
 70
     0
102
RTVSPost2010Prop55
280
     0
102
RTVSPost2010PropOp55
 70
     1
102
RTVSPost2010Prop56
140
1.0
102
RTVSPost2010PropOp56
 70
     0
102
RTVSPost2010Prop57
140
1.0
102
RTVSPost2010PropOp57
 70
     0
102
RTVSPropertyOp0
 70
     0
102
RTVSPropertyOp1
 70
     0
102
RTVSPropertyOp2
 70
     0
102
RTVSPropertyOp3
 70
     0
102
RTVSPropertyOp4
 70
     0
102
RTVSPropertyOp5
 70
     0
102
RTVSPropertyOp6
 70
     0
102
RTVSPropertyOp7
 70
     0
102
RTVSPropertyOp8
 70
     0
102
RTVSPropertyOp9
 70
     0
102
RTVSPropertyOp10
 70
     0
102
RTVSPropertyOp11
 70
     0
102
RTVSPropertyOp12
 70
     0
102
RTVSPropertyOp13
 70
     0
102
RTVSPropertyOp14
 70
     2
102
RTVSPropertyOp15
 70
     0
102
RTVSPropertyOp16
 70
     0
102
RTVSPropertyOp17
 70
     0
102
RTVSPropertyOp18
 70
     0
102
RTVSPropertyOp19
 70
     0
102
RTVSPropertyOp20
 70
     0
102
RTVSPropertyOp21
 70
     0
102
RTVSPropertyOp22
 70
     0
102
RTVSPropertyOp23
 70
     0
102
RTVSPropertyOp24
 70
     0
102
RTVSPropertyOp25
 70
     0
102
RTVSPropertyOp26
 70
     0
102
RTVSPropertyOp27
 70
     0
102
RTVSPropertyOp28
 70
     1
102
RTVSPropertyOp29
 70
     1
102
RTVSPropertyOp30
 70
     1
102
RTVSPropertyOp31
 70
     1
102
RTVSPropertyOp32
 70
     1
102
RTVSPropertyOp33
 70
     1
102
RTVSPropertyOp34
 70
     1
102
RTVSPropertyOp35
 70
     1
102
RTVSPropertyOp36
 70
     1
102
RTVSPropertyOp37
 70
     0
102
RTVSPropertyOp38
 70
     0
102
RTVSPropertyOp39
 70
     0
102
RTVSPropertyOp40
 70
     0
102
RTVSPropertyOp41
 70
     0
102
RTVSPropertyOp42
 70
     0
102
RTVSPropertyOp43
 70
     0
102
RTVSPropertyOp44
 70
     0
102
RTVSPropertyOp45
 70
     1
102
RTVSPropertyOp46
 70
     0
102
RTVSPropertyOp47
 70
     0
102
RTVSPropertyOp48
 70
     0
102
RTVSPropertyOp49
 70
     1
102
RTVSPropertyOp50
 70
     0
102
RTVSPropertyOp51
 70
     0
102
RTVSPropertyOp52
 70
     0
102
RTVSPropertyOp53
 70
     0
102
RTVSPropertyOp54
 70
     0
102
RTVSPropertyOp55
 70
     1
102
RTVSPropertyOp56
 70
     0
102
RTVSPropertyOp57
 70
     0
102
RTVSPropertyOp58
 70
     0
102
RTVSPropertyOp59
 70
     0
102
RTVSPropertyOp60
 70
     0
102
RTVSPropertyOp61
 70
     0
102
RTVSPropertyOp62
 70
     0
  0
XRECORD
  5
BCD9
102
{ACAD_REACTORS
330
BCD8
102
}
330
BCD8
100
AcDbXrecord
280
     1
102
RTVSPost2010Prop28
280
     0
102
RTVSPost2010PropOp28
 70
     1
102
RTVSPost2010Prop29
280
     1
102
RTVSPost2010PropOp29
 70
     1
102
RTVSPost2010Prop30
280
     1
102
RTVSPost2010PropOp30
 70
     1
102
RTVSPost2010Prop31
280
     0
102
RTVSPost2010PropOp31
 70
     1
102
RTVSPost2010Prop32
280
     0
102
RTVSPost2010PropOp32
 70
     1
102
RTVSPost2010Prop33
280
     0
102
RTVSPost2010PropOp33
 70
     1
102
RTVSPost2010Prop34
280
     0
102
RTVSPost2010PropOp34
 70
     1
102
RTVSPost2010Prop35
280
     0
102
RTVSPost2010PropOp35
 70
     1
102
RTVSPost2010Prop36
280
     0
102
RTVSPost2010PropOp36
 70
     1
102
RTVSPost2010Prop37
 90
       50
102
RTVSPost2010PropOp37
 70
     1
102
RTVSPost2010Prop38
140
0.0
102
RTVSPost2010PropOp38
 70
     1
102
RTVSPost2010Prop39
140
1.0
102
RTVSPost2010PropOp39
 70
     1
102
RTVSPost2010Prop40
 90
        0
102
RTVSPost2010PropOp40
 70
     1
102
RTVSPost2010Prop41ColorIndex
 90
       18
102
RTVSPost2010Prop41ColorRGB
 90
        0
102
RTVSPost2010PropOp41
 70
     1
102
RTVSPost2010Prop42
 90
       50
102
RTVSPost2010PropOp42
 70
     1
102
RTVSPost2010Prop43
 90
        3
102
RTVSPost2010PropOp43
 70
     1
102
RTVSPost2010Prop44ColorIndex
 90
        5
102
RTVSPost2010Prop44ColorRGB
 90
      255
102
RTVSPost2010PropOp44
 70
     1
102
RTVSPost2010Prop45
280
     0
102
RTVSPost2010PropOp45
 70
     1
102
RTVSPost2010Prop46
 90
       50
102
RTVSPost2010PropOp46
 70
     1
102
RTVSPost2010Prop47
 90
       50
102
RTVSPost2010PropOp47
 70
     1
102
RTVSPost2010Prop48
 90
       50
102
RTVSPost2010PropOp48
 70
     1
102
RTVSPost2010Prop49
280
     0
102
RTVSPost2010PropOp49
 70
     1
102
RTVSPost2010Prop50
 90
       50
102
RTVSPost2010PropOp50
 70
     1
102
RTVSPost2010Prop51ColorIndex
 90
      256
102
RTVSPost2010Prop51ColorRGB
 90
-16777216
102
RTVSPost2010PropOp51
 70
     0
102
RTVSPost2010Prop52
140
1.0
102
RTVSPost2010PropOp52
 70
     0
102
RTVSPost2010Prop53
 90
        2
102
RTVSPost2010PropOp53
 70
     1
102
RTVSPost2010Prop54
  1
strokes_ogs.tif
102
RTVSPost2010PropOp54
 70
     1
102
RTVSPost2010Prop55
280
     0
102
RTVSPost2010PropOp55
 70
     1
102
RTVSPost2010Prop56
140
1.0
102
RTVSPost2010PropOp56
 70
     1
102
RTVSPost2010Prop57
140
1.0
102
RTVSPost2010PropOp57
 70
     1
102
RTVSPropertyOp0
 70
     1
102
RTVSPropertyOp1
 70
     1
102
RTVSPropertyOp2
 70
     1
102
RTVSPropertyOp3
 70
     1
102
RTVSPropertyOp4
 70
     1
102
RTVSPropertyOp5
 70
     1
102
RTVSPropertyOp6
 70
     1
102
RTVSPropertyOp7
 70
     1
102
RTVSPropertyOp8
 70
     1
102
RTVSPropertyOp9
 70
     1
102
RTVSPropertyOp10
 70
     1
102
RTVSPropertyOp11
 70
     1
102
RTVSPropertyOp12
 70
     1
102
RTVSPropertyOp13
 70
     1
102
RTVSPropertyOp14
 70
     1
102
RTVSPropertyOp15
 70
     1
102
RTVSPropertyOp16
 70
     1
102
RTVSPropertyOp17
 70
     1
102
RTVSPropertyOp18
 70
     1
102
RTVSPropertyOp19
 70
     1
102
RTVSPropertyOp20
 70
     1
102
RTVSPropertyOp21
 70
     1
102
RTVSPropertyOp22
 70
     1
102
RTVSPropertyOp23
 70
     1
102
RTVSPropertyOp24
 70
     1
102
RTVSPropertyOp25
 70
     1
102
RTVSPropertyOp26
 70
     1
102
RTVSPropertyOp27
 70
     1
102
RTVSPropertyOp28
 70
     1
102
RTVSPropertyOp29
 70
     1
102
RTVSPropertyOp30
 70
     1
102
RTVSPropertyOp31
 70
     1
102
RTVSPropertyOp32
 70
     1
102
RTVSPropertyOp33
 70
     1
102
RTVSPropertyOp34
 70
     1
102
RTVSPropertyOp35
 70
     1
102
RTVSPropertyOp36
 70
     1
102
RTVSPropertyOp37
 70
     1
102
RTVSPropertyOp38
 70
     1
102
RTVSPropertyOp39
 70
     1
102
RTVSPropertyOp40
 70
     1
102
RTVSPropertyOp41
 70
     1
102
RTVSPropertyOp42
 70
     1
102
RTVSPropertyOp43
 70
     1
102
RTVSPropertyOp44
 70
     1
102
RTVSPropertyOp45
 70
     1
102
RTVSPropertyOp46
 70
     1
102
RTVSPropertyOp47
 70
     1
102
RTVSPropertyOp48
 70
     1
102
RTVSPropertyOp49
 70
     1
102
RTVSPropertyOp50
 70
     1
102
RTVSPropertyOp51
 70
     0
102
RTVSPropertyOp52
 70
     0
102
RTVSPropertyOp53
 70
     1
102
RTVSPropertyOp54
 70
     1
102
RTVSPropertyOp55
 70
     1
102
RTVSPropertyOp56
 70
     1
102
RTVSPropertyOp57
 70
     1
102
RTVSPropertyOp58
 70
     1
102
RTVSPropertyOp59
 70
     1
102
RTVSPropertyOp60
 70
     1
102
RTVSPropertyOp61
 70
     1
102
RTVSPropertyOp62
 70
     1
  0
XRECORD
  5
BCEF
102
{ACAD_REACTORS
330
BCEE
102
}
330
BCEE
100
AcDbXrecord
280
     1
102
RTVSPost2010Prop28
280
     0
102
RTVSPost2010PropOp28
 70
     1
102
RTVSPost2010Prop29
280
     1
102
RTVSPost2010PropOp29
 70
     1
102
RTVSPost2010Prop30
280
     1
102
RTVSPost2010PropOp30
 70
     1
102
RTVSPost2010Prop31
280
     0
102
RTVSPost2010PropOp31
 70
     1
102
RTVSPost2010Prop32
280
     0
102
RTVSPost2010PropOp32
 70
     1
102
RTVSPost2010Prop33
280
     0
102
RTVSPost2010PropOp33
 70
     1
102
RTVSPost2010Prop34
280
     0
102
RTVSPost2010PropOp34
 70
     1
102
RTVSPost2010Prop35
280
     0
102
RTVSPost2010PropOp35
 70
     1
102
RTVSPost2010Prop36
280
     0
102
RTVSPost2010PropOp36
 70
     1
102
RTVSPost2010Prop37
 90
       50
102
RTVSPost2010PropOp37
 70
     1
102
RTVSPost2010Prop38
140
0.0
102
RTVSPost2010PropOp38
 70
     1
102
RTVSPost2010Prop39
140
1.0
102
RTVSPost2010PropOp39
 70
     1
102
RTVSPost2010Prop40
 90
        0
102
RTVSPost2010PropOp40
 70
     1
102
RTVSPost2010Prop41ColorIndex
 90
       18
102
RTVSPost2010Prop41ColorRGB
 90
        0
102
RTVSPost2010PropOp41
 70
     1
102
RTVSPost2010Prop42
 90
       50
102
RTVSPost2010PropOp42
 70
     1
102
RTVSPost2010Prop43
 90
        3
102
RTVSPost2010PropOp43
 70
     1
102
RTVSPost2010Prop44ColorIndex
 90
        5
102
RTVSPost2010Prop44ColorRGB
 90
      255
102
RTVSPost2010PropOp44
 70
     1
102
RTVSPost2010Prop45
280
     0
102
RTVSPost2010PropOp45
 70
     1
102
RTVSPost2010Prop46
 90
       50
102
RTVSPost2010PropOp46
 70
     1
102
RTVSPost2010Prop47
 90
       50
102
RTVSPost2010PropOp47
 70
     1
102
RTVSPost2010Prop48
 90
       50
102
RTVSPost2010PropOp48
 70
     1
102
RTVSPost2010Prop49
280
     0
102
RTVSPost2010PropOp49
 70
     1
102
RTVSPost2010Prop50
 90
       50
102
RTVSPost2010PropOp50
 70
     1
102
RTVSPost2010Prop51ColorIndex
 90
      256
102
RTVSPost2010Prop51ColorRGB
 90
-16777216
102
RTVSPost2010PropOp51
 70
     0
102
RTVSPost2010Prop52
140
1.0
102
RTVSPost2010PropOp52
 70
     0
102
RTVSPost2010Prop53
 90
        2
102
RTVSPost2010PropOp53
 70
     1
102
RTVSPost2010Prop54
  1
strokes_ogs.tif
102
RTVSPost2010PropOp54
 70
     1
102
RTVSPost2010Prop55
280
     0
102
RTVSPost2010PropOp55
 70
     1
102
RTVSPost2010Prop56
140
1.0
102
RTVSPost2010PropOp56
 70
     1
102
RTVSPost2010Prop57
140
1.0
102
RTVSPost2010PropOp57
 70
     1
102
RTVSPropertyOp0
 70
     1
102
RTVSPropertyOp1
 70
     1
102
RTVSPropertyOp2
 70
     1
102
RTVSPropertyOp3
 70
     1
102
RTVSPropertyOp4
 70
     1
102
RTVSPropertyOp5
 70
     1
102
RTVSPropertyOp6
 70
     1
102
RTVSPropertyOp7
 70
     1
102
RTVSPropertyOp8
 70
     1
102
RTVSPropertyOp9
 70
     1
102
RTVSPropertyOp10
 70
     1
102
RTVSPropertyOp11
 70
     1
102
RTVSPropertyOp12
 70
     1
102
RTVSPropertyOp13
 70
     1
102
RTVSPropertyOp14
 70
     1
102
RTVSPropertyOp15
 70
     1
102
RTVSPropertyOp16
 70
     1
102
RTVSPropertyOp17
 70
     1
102
RTVSPropertyOp18
 70
     1
102
RTVSPropertyOp19
 70
     1
102
RTVSPropertyOp20
 70
     1
102
RTVSPropertyOp21
 70
     1
102
RTVSPropertyOp22
 70
     1
102
RTVSPropertyOp23
 70
     1
102
RTVSPropertyOp24
 70
     1
102
RTVSPropertyOp25
 70
     1
102
RTVSPropertyOp26
 70
     1
102
RTVSPropertyOp27
 70
     1
102
RTVSPropertyOp28
 70
     1
102
RTVSPropertyOp29
 70
     1
102
RTVSPropertyOp30
 70
     1
102
RTVSPropertyOp31
 70
     1
102
RTVSPropertyOp32
 70
     1
102
RTVSPropertyOp33
 70
     1
102
RTVSPropertyOp34
 70
     1
102
RTVSPropertyOp35
 70
     1
102
RTVSPropertyOp36
 70
     1
102
RTVSPropertyOp37
 70
     1
102
RTVSPropertyOp38
 70
     1
102
RTVSPropertyOp39
 70
     1
102
RTVSPropertyOp40
 70
     1
102
RTVSPropertyOp41
 70
     1
102
RTVSPropertyOp42
 70
     1
102
RTVSPropertyOp43
 70
     1
102
RTVSPropertyOp44
 70
     1
102
RTVSPropertyOp45
 70
     1
102
RTVSPropertyOp46
 70
     1
102
RTVSPropertyOp47
 70
     1
102
RTVSPropertyOp48
 70
     1
102
RTVSPropertyOp49
 70
     1
102
RTVSPropertyOp50
 70
     1
102
RTVSPropertyOp51
 70
     0
102
RTVSPropertyOp52
 70
     0
102
RTVSPropertyOp53
 70
     1
102
RTVSPropertyOp54
 70
     1
102
RTVSPropertyOp55
 70
     1
102
RTVSPropertyOp56
 70
     1
102
RTVSPropertyOp57
 70
     1
102
RTVSPropertyOp58
 70
     1
102
RTVSPropertyOp59
 70
     1
102
RTVSPropertyOp60
 70
     1
102
RTVSPropertyOp61
 70
     1
102
RTVSPropertyOp62
 70
     1
  0
XRECORD
  5
BCED
102
{ACAD_REACTORS
330
BCEC
102
}
330
BCEC
100
AcDbXrecord
280
     1
102
RTVSPost2010Prop28
280
     0
102
RTVSPost2010PropOp28
 70
     1
102
RTVSPost2010Prop29
280
     1
102
RTVSPost2010PropOp29
 70
     1
102
RTVSPost2010Prop30
280
     1
102
RTVSPost2010PropOp30
 70
     1
102
RTVSPost2010Prop31
280
     0
102
RTVSPost2010PropOp31
 70
     1
102
RTVSPost2010Prop32
280
     0
102
RTVSPost2010PropOp32
 70
     1
102
RTVSPost2010Prop33
280
     0
102
RTVSPost2010PropOp33
 70
     1
102
RTVSPost2010Prop34
280
     0
102
RTVSPost2010PropOp34
 70
     1
102
RTVSPost2010Prop35
280
     0
102
RTVSPost2010PropOp35
 70
     1
102
RTVSPost2010Prop36
280
     0
102
RTVSPost2010PropOp36
 70
     1
102
RTVSPost2010Prop37
 90
       50
102
RTVSPost2010PropOp37
 70
     1
102
RTVSPost2010Prop38
140
0.0
102
RTVSPost2010PropOp38
 70
     1
102
RTVSPost2010Prop39
140
1.0
102
RTVSPost2010PropOp39
 70
     1
102
RTVSPost2010Prop40
 90
        0
102
RTVSPost2010PropOp40
 70
     1
102
RTVSPost2010Prop41ColorIndex
 90
       18
102
RTVSPost2010Prop41ColorRGB
 90
        0
102
RTVSPost2010PropOp41
 70
     1
102
RTVSPost2010Prop42
 90
       50
102
RTVSPost2010PropOp42
 70
     1
102
RTVSPost2010Prop43
 90
        3
102
RTVSPost2010PropOp43
 70
     1
102
RTVSPost2010Prop44ColorIndex
 90
        5
102
RTVSPost2010Prop44ColorRGB
 90
      255
102
RTVSPost2010PropOp44
 70
     1
102
RTVSPost2010Prop45
280
     0
102
RTVSPost2010PropOp45
 70
     1
102
RTVSPost2010Prop46
 90
       50
102
RTVSPost2010PropOp46
 70
     1
102
RTVSPost2010Prop47
 90
       50
102
RTVSPost2010PropOp47
 70
     1
102
RTVSPost2010Prop48
 90
       50
102
RTVSPost2010PropOp48
 70
     1
102
RTVSPost2010Prop49
280
     0
102
RTVSPost2010PropOp49
 70
     1
102
RTVSPost2010Prop50
 90
       50
102
RTVSPost2010PropOp50
 70
     1
102
RTVSPost2010Prop51ColorIndex
 90
      256
102
RTVSPost2010Prop51ColorRGB
 90
-16777216
102
RTVSPost2010PropOp51
 70
     0
102
RTVSPost2010Prop52
140
1.0
102
RTVSPost2010PropOp52
 70
     0
102
RTVSPost2010Prop53
 90
        2
102
RTVSPost2010PropOp53
 70
     1
102
RTVSPost2010Prop54
  1
strokes_ogs.tif
102
RTVSPost2010PropOp54
 70
     1
102
RTVSPost2010Prop55
280
     0
102
RTVSPost2010PropOp55
 70
     1
102
RTVSPost2010Prop56
140
1.0
102
RTVSPost2010PropOp56
 70
     1
102
RTVSPost2010Prop57
140
1.0
102
RTVSPost2010PropOp57
 70
     1
102
RTVSPropertyOp0
 70
     1
102
RTVSPropertyOp1
 70
     1
102
RTVSPropertyOp2
 70
     1
102
RTVSPropertyOp3
 70
     1
102
RTVSPropertyOp4
 70
     1
102
RTVSPropertyOp5
 70
     1
102
RTVSPropertyOp6
 70
     1
102
RTVSPropertyOp7
 70
     1
102
RTVSPropertyOp8
 70
     1
102
RTVSPropertyOp9
 70
     1
102
RTVSPropertyOp10
 70
     1
102
RTVSPropertyOp11
 70
     1
102
RTVSPropertyOp12
 70
     1
102
RTVSPropertyOp13
 70
     1
102
RTVSPropertyOp14
 70
     1
102
RTVSPropertyOp15
 70
     1
102
RTVSPropertyOp16
 70
     1
102
RTVSPropertyOp17
 70
     1
102
RTVSPropertyOp18
 70
     1
102
RTVSPropertyOp19
 70
     1
102
RTVSPropertyOp20
 70
     1
102
RTVSPropertyOp21
 70
     1
102
RTVSPropertyOp22
 70
     1
102
RTVSPropertyOp23
 70
     1
102
RTVSPropertyOp24
 70
     1
102
RTVSPropertyOp25
 70
     1
102
RTVSPropertyOp26
 70
     1
102
RTVSPropertyOp27
 70
     1
102
RTVSPropertyOp28
 70
     1
102
RTVSPropertyOp29
 70
     1
102
RTVSPropertyOp30
 70
     1
102
RTVSPropertyOp31
 70
     1
102
RTVSPropertyOp32
 70
     1
102
RTVSPropertyOp33
 70
     1
102
RTVSPropertyOp34
 70
     1
102
RTVSPropertyOp35
 70
     1
102
RTVSPropertyOp36
 70
     1
102
RTVSPropertyOp37
 70
     1
102
RTVSPropertyOp38
 70
     1
102
RTVSPropertyOp39
 70
     1
102
RTVSPropertyOp40
 70
     1
102
RTVSPropertyOp41
 70
     1
102
RTVSPropertyOp42
 70
     1
102
RTVSPropertyOp43
 70
     1
102
RTVSPropertyOp44
 70
     1
102
RTVSPropertyOp45
 70
     1
102
RTVSPropertyOp46
 70
     1
102
RTVSPropertyOp47
 70
     1
102
RTVSPropertyOp48
 70
     1
102
RTVSPropertyOp49
 70
     1
102
RTVSPropertyOp50
 70
     1
102
RTVSPropertyOp51
 70
     0
102
RTVSPropertyOp52
 70
     0
102
RTVSPropertyOp53
 70
     1
102
RTVSPropertyOp54
 70
     1
102
RTVSPropertyOp55
 70
     1
102
RTVSPropertyOp56
 70
     1
102
RTVSPropertyOp57
 70
     1
102
RTVSPropertyOp58
 70
     1
102
RTVSPropertyOp59
 70
     1
102
RTVSPropertyOp60
 70
     1
102
RTVSPropertyOp61
 70
     1
102
RTVSPropertyOp62
 70
     1
  0
XRECORD
  5
BCE7
102
{ACAD_REACTORS
330
BCE6
102
}
330
BCE6
100
AcDbXrecord
280
     1
102
RTVSPost2010Prop28
280
     0
102
RTVSPost2010PropOp28
 70
     1
102
RTVSPost2010Prop29
280
     1
102
RTVSPost2010PropOp29
 70
     1
102
RTVSPost2010Prop30
280
     1
102
RTVSPost2010PropOp30
 70
     1
102
RTVSPost2010Prop31
280
     0
102
RTVSPost2010PropOp31
 70
     1
102
RTVSPost2010Prop32
280
     0
102
RTVSPost2010PropOp32
 70
     1
102
RTVSPost2010Prop33
280
     0
102
RTVSPost2010PropOp33
 70
     1
102
RTVSPost2010Prop34
280
     0
102
RTVSPost2010PropOp34
 70
     1
102
RTVSPost2010Prop35
280
     0
102
RTVSPost2010PropOp35
 70
     1
102
RTVSPost2010Prop36
280
     0
102
RTVSPost2010PropOp36
 70
     1
102
RTVSPost2010Prop37
 90
       50
102
RTVSPost2010PropOp37
 70
     1
102
RTVSPost2010Prop38
140
0.0
102
RTVSPost2010PropOp38
 70
     1
102
RTVSPost2010Prop39
140
1.0
102
RTVSPost2010PropOp39
 70
     1
102
RTVSPost2010Prop40
 90
        0
102
RTVSPost2010PropOp40
 70
     1
102
RTVSPost2010Prop41ColorIndex
 90
       18
102
RTVSPost2010Prop41ColorRGB
 90
        0
102
RTVSPost2010PropOp41
 70
     1
102
RTVSPost2010Prop42
 90
       50
102
RTVSPost2010PropOp42
 70
     1
102
RTVSPost2010Prop43
 90
        3
102
RTVSPost2010PropOp43
 70
     1
102
RTVSPost2010Prop44ColorIndex
 90
        5
102
RTVSPost2010Prop44ColorRGB
 90
      255
102
RTVSPost2010PropOp44
 70
     1
102
RTVSPost2010Prop45
280
     0
102
RTVSPost2010PropOp45
 70
     1
102
RTVSPost2010Prop46
 90
       50
102
RTVSPost2010PropOp46
 70
     1
102
RTVSPost2010Prop47
 90
       50
102
RTVSPost2010PropOp47
 70
     1
102
RTVSPost2010Prop48
 90
       50
102
RTVSPost2010PropOp48
 70
     1
102
RTVSPost2010Prop49
280
     0
102
RTVSPost2010PropOp49
 70
     1
102
RTVSPost2010Prop50
 90
       50
102
RTVSPost2010PropOp50
 70
     1
102
RTVSPost2010Prop51ColorIndex
 90
      256
102
RTVSPost2010Prop51ColorRGB
 90
-16777216
102
RTVSPost2010PropOp51
 70
     0
102
RTVSPost2010Prop52
140
1.0
102
RTVSPost2010PropOp52
 70
     0
102
RTVSPost2010Prop53
 90
        2
102
RTVSPost2010PropOp53
 70
     1
102
RTVSPost2010Prop54
  1
strokes_ogs.tif
102
RTVSPost2010PropOp54
 70
     1
102
RTVSPost2010Prop55
280
     0
102
RTVSPost2010PropOp55
 70
     1
102
RTVSPost2010Prop56
140
1.0
102
RTVSPost2010PropOp56
 70
     1
102
RTVSPost2010Prop57
140
1.0
102
RTVSPost2010PropOp57
 70
     1
102
RTVSPropertyOp0
 70
     1
102
RTVSPropertyOp1
 70
     1
102
RTVSPropertyOp2
 70
     1
102
RTVSPropertyOp3
 70
     1
102
RTVSPropertyOp4
 70
     1
102
RTVSPropertyOp5
 70
     1
102
RTVSPropertyOp6
 70
     1
102
RTVSPropertyOp7
 70
     1
102
RTVSPropertyOp8
 70
     1
102
RTVSPropertyOp9
 70
     1
102
RTVSPropertyOp10
 70
     1
102
RTVSPropertyOp11
 70
     1
102
RTVSPropertyOp12
 70
     1
102
RTVSPropertyOp13
 70
     1
102
RTVSPropertyOp14
 70
     1
102
RTVSPropertyOp15
 70
     1
102
RTVSPropertyOp16
 70
     1
102
RTVSPropertyOp17
 70
     1
102
RTVSPropertyOp18
 70
     1
102
RTVSPropertyOp19
 70
     1
102
RTVSPropertyOp20
 70
     1
102
RTVSPropertyOp21
 70
     1
102
RTVSPropertyOp22
 70
     1
102
RTVSPropertyOp23
 70
     1
102
RTVSPropertyOp24
 70
     1
102
RTVSPropertyOp25
 70
     1
102
RTVSPropertyOp26
 70
     1
102
RTVSPropertyOp27
 70
     1
102
RTVSPropertyOp28
 70
     1
102
RTVSPropertyOp29
 70
     1
102
RTVSPropertyOp30
 70
     1
102
RTVSPropertyOp31
 70
     1
102
RTVSPropertyOp32
 70
     1
102
RTVSPropertyOp33
 70
     1
102
RTVSPropertyOp34
 70
     1
102
RTVSPropertyOp35
 70
     1
102
RTVSPropertyOp36
 70
     1
102
RTVSPropertyOp37
 70
     1
102
RTVSPropertyOp38
 70
     1
102
RTVSPropertyOp39
 70
     1
102
RTVSPropertyOp40
 70
     1
102
RTVSPropertyOp41
 70
     1
102
RTVSPropertyOp42
 70
     1
102
RTVSPropertyOp43
 70
     1
102
RTVSPropertyOp44
 70
     1
102
RTVSPropertyOp45
 70
     1
102
RTVSPropertyOp46
 70
     1
102
RTVSPropertyOp47
 70
     1
102
RTVSPropertyOp48
 70
     1
102
RTVSPropertyOp49
 70
     1
102
RTVSPropertyOp50
 70
     1
102
RTVSPropertyOp51
 70
     0
102
RTVSPropertyOp52
 70
     0
102
RTVSPropertyOp53
 70
     1
102
RTVSPropertyOp54
 70
     1
102
RTVSPropertyOp55
 70
     1
102
RTVSPropertyOp56
 70
     1
102
RTVSPropertyOp57
 70
     1
102
RTVSPropertyOp58
 70
     1
102
RTVSPropertyOp59
 70
     1
102
RTVSPropertyOp60
 70
     1
102
RTVSPropertyOp61
 70
     1
102
RTVSPropertyOp62
 70
     1
  0
XRECORD
  5
BCE9
102
{ACAD_REACTORS
330
BCE8
102
}
330
BCE8
100
AcDbXrecord
280
     1
102
RTVSPost2010Prop28
280
     0
102
RTVSPost2010PropOp28
 70
     1
102
RTVSPost2010Prop29
280
     1
102
RTVSPost2010PropOp29
 70
     1
102
RTVSPost2010Prop30
280
     1
102
RTVSPost2010PropOp30
 70
     1
102
RTVSPost2010Prop31
280
     0
102
RTVSPost2010PropOp31
 70
     1
102
RTVSPost2010Prop32
280
     0
102
RTVSPost2010PropOp32
 70
     1
102
RTVSPost2010Prop33
280
     0
102
RTVSPost2010PropOp33
 70
     1
102
RTVSPost2010Prop34
280
     0
102
RTVSPost2010PropOp34
 70
     1
102
RTVSPost2010Prop35
280
     0
102
RTVSPost2010PropOp35
 70
     1
102
RTVSPost2010Prop36
280
     0
102
RTVSPost2010PropOp36
 70
     1
102
RTVSPost2010Prop37
 90
       50
102
RTVSPost2010PropOp37
 70
     1
102
RTVSPost2010Prop38
140
0.0
102
RTVSPost2010PropOp38
 70
     1
102
RTVSPost2010Prop39
140
1.0
102
RTVSPost2010PropOp39
 70
     1
102
RTVSPost2010Prop40
 90
        0
102
RTVSPost2010PropOp40
 70
     1
102
RTVSPost2010Prop41ColorIndex
 90
       18
102
RTVSPost2010Prop41ColorRGB
 90
        0
102
RTVSPost2010PropOp41
 70
     1
102
RTVSPost2010Prop42
 90
       50
102
RTVSPost2010PropOp42
 70
     1
102
RTVSPost2010Prop43
 90
        3
102
RTVSPost2010PropOp43
 70
     1
102
RTVSPost2010Prop44ColorIndex
 90
        5
102
RTVSPost2010Prop44ColorRGB
 90
      255
102
RTVSPost2010PropOp44
 70
     1
102
RTVSPost2010Prop45
280
     0
102
RTVSPost2010PropOp45
 70
     1
102
RTVSPost2010Prop46
 90
       50
102
RTVSPost2010PropOp46
 70
     1
102
RTVSPost2010Prop47
 90
       50
102
RTVSPost2010PropOp47
 70
     1
102
RTVSPost2010Prop48
 90
       50
102
RTVSPost2010PropOp48
 70
     1
102
RTVSPost2010Prop49
280
     0
102
RTVSPost2010PropOp49
 70
     1
102
RTVSPost2010Prop50
 90
       50
102
RTVSPost2010PropOp50
 70
     1
102
RTVSPost2010Prop51ColorIndex
 90
      256
102
RTVSPost2010Prop51ColorRGB
 90
-16777216
102
RTVSPost2010PropOp51
 70
     0
102
RTVSPost2010Prop52
140
1.0
102
RTVSPost2010PropOp52
 70
     0
102
RTVSPost2010Prop53
 90
        2
102
RTVSPost2010PropOp53
 70
     1
102
RTVSPost2010Prop54
  1
strokes_ogs.tif
102
RTVSPost2010PropOp54
 70
     1
102
RTVSPost2010Prop55
280
     0
102
RTVSPost2010PropOp55
 70
     1
102
RTVSPost2010Prop56
140
1.0
102
RTVSPost2010PropOp56
 70
     1
102
RTVSPost2010Prop57
140
1.0
102
RTVSPost2010PropOp57
 70
     1
102
RTVSPropertyOp0
 70
     1
102
RTVSPropertyOp1
 70
     1
102
RTVSPropertyOp2
 70
     1
102
RTVSPropertyOp3
 70
     1
102
RTVSPropertyOp4
 70
     1
102
RTVSPropertyOp5
 70
     1
102
RTVSPropertyOp6
 70
     1
102
RTVSPropertyOp7
 70
     1
102
RTVSPropertyOp8
 70
     1
102
RTVSPropertyOp9
 70
     1
102
RTVSPropertyOp10
 70
     1
102
RTVSPropertyOp11
 70
     1
102
RTVSPropertyOp12
 70
     1
102
RTVSPropertyOp13
 70
     1
102
RTVSPropertyOp14
 70
     1
102
RTVSPropertyOp15
 70
     1
102
RTVSPropertyOp16
 70
     1
102
RTVSPropertyOp17
 70
     1
102
RTVSPropertyOp18
 70
     1
102
RTVSPropertyOp19
 70
     1
102
RTVSPropertyOp20
 70
     1
102
RTVSPropertyOp21
 70
     1
102
RTVSPropertyOp22
 70
     1
102
RTVSPropertyOp23
 70
     1
102
RTVSPropertyOp24
 70
     1
102
RTVSPropertyOp25
 70
     1
102
RTVSPropertyOp26
 70
     1
102
RTVSPropertyOp27
 70
     1
102
RTVSPropertyOp28
 70
     1
102
RTVSPropertyOp29
 70
     1
102
RTVSPropertyOp30
 70
     1
102
RTVSPropertyOp31
 70
     1
102
RTVSPropertyOp32
 70
     1
102
RTVSPropertyOp33
 70
     1
102
RTVSPropertyOp34
 70
     1
102
RTVSPropertyOp35
 70
     1
102
RTVSPropertyOp36
 70
     1
102
RTVSPropertyOp37
 70
     1
102
RTVSPropertyOp38
 70
     1
102
RTVSPropertyOp39
 70
     1
102
RTVSPropertyOp40
 70
     1
102
RTVSPropertyOp41
 70
     1
102
RTVSPropertyOp42
 70
     1
102
RTVSPropertyOp43
 70
     1
102
RTVSPropertyOp44
 70
     1
102
RTVSPropertyOp45
 70
     1
102
RTVSPropertyOp46
 70
     1
102
RTVSPropertyOp47
 70
     1
102
RTVSPropertyOp48
 70
     1
102
RTVSPropertyOp49
 70
     1
102
RTVSPropertyOp50
 70
     1
102
RTVSPropertyOp51
 70
     0
102
RTVSPropertyOp52
 70
     0
102
RTVSPropertyOp53
 70
     1
102
RTVSPropertyOp54
 70
     1
102
RTVSPropertyOp55
 70
     1
102
RTVSPropertyOp56
 70
     1
102
RTVSPropertyOp57
 70
     1
102
RTVSPropertyOp58
 70
     1
102
RTVSPropertyOp59
 70
     1
102
RTVSPropertyOp60
 70
     1
102
RTVSPropertyOp61
 70
     1
102
RTVSPropertyOp62
 70
     1
  0
XRECORD
  5
BCDF
102
{ACAD_REACTORS
330
BCDE
102
}
330
BCDE
100
AcDbXrecord
280
     1
102
RTVSPost2010Prop28
280
     0
102
RTVSPost2010PropOp28
 70
     1
102
RTVSPost2010Prop29
280
     1
102
RTVSPost2010PropOp29
 70
     1
102
RTVSPost2010Prop30
280
     1
102
RTVSPost2010PropOp30
 70
     1
102
RTVSPost2010Prop31
280
     0
102
RTVSPost2010PropOp31
 70
     1
102
RTVSPost2010Prop32
280
     0
102
RTVSPost2010PropOp32
 70
     1
102
RTVSPost2010Prop33
280
     0
102
RTVSPost2010PropOp33
 70
     1
102
RTVSPost2010Prop34
280
     0
102
RTVSPost2010PropOp34
 70
     1
102
RTVSPost2010Prop35
280
     0
102
RTVSPost2010PropOp35
 70
     1
102
RTVSPost2010Prop36
280
     0
102
RTVSPost2010PropOp36
 70
     1
102
RTVSPost2010Prop37
 90
       50
102
RTVSPost2010PropOp37
 70
     1
102
RTVSPost2010Prop38
140
0.0
102
RTVSPost2010PropOp38
 70
     1
102
RTVSPost2010Prop39
140
1.0
102
RTVSPost2010PropOp39
 70
     1
102
RTVSPost2010Prop40
 90
        0
102
RTVSPost2010PropOp40
 70
     1
102
RTVSPost2010Prop41ColorIndex
 90
       18
102
RTVSPost2010Prop41ColorRGB
 90
        0
102
RTVSPost2010PropOp41
 70
     1
102
RTVSPost2010Prop42
 90
       50
102
RTVSPost2010PropOp42
 70
     1
102
RTVSPost2010Prop43
 90
        3
102
RTVSPost2010PropOp43
 70
     1
102
RTVSPost2010Prop44ColorIndex
 90
        5
102
RTVSPost2010Prop44ColorRGB
 90
      255
102
RTVSPost2010PropOp44
 70
     1
102
RTVSPost2010Prop45
280
     0
102
RTVSPost2010PropOp45
 70
     1
102
RTVSPost2010Prop46
 90
       50
102
RTVSPost2010PropOp46
 70
     1
102
RTVSPost2010Prop47
 90
       50
102
RTVSPost2010PropOp47
 70
     1
102
RTVSPost2010Prop48
 90
       50
102
RTVSPost2010PropOp48
 70
     1
102
RTVSPost2010Prop49
280
     0
102
RTVSPost2010PropOp49
 70
     1
102
RTVSPost2010Prop50
 90
       50
102
RTVSPost2010PropOp50
 70
     1
102
RTVSPost2010Prop51ColorIndex
 90
      256
102
RTVSPost2010Prop51ColorRGB
 90
-16777216
102
RTVSPost2010PropOp51
 70
     0
102
RTVSPost2010Prop52
140
1.0
102
RTVSPost2010PropOp52
 70
     0
102
RTVSPost2010Prop53
 90
        2
102
RTVSPost2010PropOp53
 70
     1
102
RTVSPost2010Prop54
  1
strokes_ogs.tif
102
RTVSPost2010PropOp54
 70
     1
102
RTVSPost2010Prop55
280
     0
102
RTVSPost2010PropOp55
 70
     1
102
RTVSPost2010Prop56
140
1.0
102
RTVSPost2010PropOp56
 70
     1
102
RTVSPost2010Prop57
140
1.0
102
RTVSPost2010PropOp57
 70
     1
102
RTVSPropertyOp0
 70
     1
102
RTVSPropertyOp1
 70
     1
102
RTVSPropertyOp2
 70
     1
102
RTVSPropertyOp3
 70
     1
102
RTVSPropertyOp4
 70
     1
102
RTVSPropertyOp5
 70
     1
102
RTVSPropertyOp6
 70
     1
102
RTVSPropertyOp7
 70
     1
102
RTVSPropertyOp8
 70
     1
102
RTVSPropertyOp9
 70
     1
102
RTVSPropertyOp10
 70
     1
102
RTVSPropertyOp11
 70
     1
102
RTVSPropertyOp12
 70
     1
102
RTVSPropertyOp13
 70
     1
102
RTVSPropertyOp14
 70
     1
102
RTVSPropertyOp15
 70
     1
102
RTVSPropertyOp16
 70
     1
102
RTVSPropertyOp17
 70
     1
102
RTVSPropertyOp18
 70
     1
102
RTVSPropertyOp19
 70
     1
102
RTVSPropertyOp20
 70
     1
102
RTVSPropertyOp21
 70
     1
102
RTVSPropertyOp22
 70
     1
102
RTVSPropertyOp23
 70
     1
102
RTVSPropertyOp24
 70
     1
102
RTVSPropertyOp25
 70
     1
102
RTVSPropertyOp26
 70
     1
102
RTVSPropertyOp27
 70
     1
102
RTVSPropertyOp28
 70
     1
102
RTVSPropertyOp29
 70
     1
102
RTVSPropertyOp30
 70
     1
102
RTVSPropertyOp31
 70
     1
102
RTVSPropertyOp32
 70
     1
102
RTVSPropertyOp33
 70
     1
102
RTVSPropertyOp34
 70
     1
102
RTVSPropertyOp35
 70
     1
102
RTVSPropertyOp36
 70
     1
102
RTVSPropertyOp37
 70
     1
102
RTVSPropertyOp38
 70
     1
102
RTVSPropertyOp39
 70
     1
102
RTVSPropertyOp40
 70
     1
102
RTVSPropertyOp41
 70
     1
102
RTVSPropertyOp42
 70
     1
102
RTVSPropertyOp43
 70
     1
102
RTVSPropertyOp44
 70
     1
102
RTVSPropertyOp45
 70
     1
102
RTVSPropertyOp46
 70
     1
102
RTVSPropertyOp47
 70
     1
102
RTVSPropertyOp48
 70
     1
102
RTVSPropertyOp49
 70
     1
102
RTVSPropertyOp50
 70
     1
102
RTVSPropertyOp51
 70
     0
102
RTVSPropertyOp52
 70
     0
102
RTVSPropertyOp53
 70
     1
102
RTVSPropertyOp54
 70
     1
102
RTVSPropertyOp55
 70
     1
102
RTVSPropertyOp56
 70
     1
102
RTVSPropertyOp57
 70
     1
102
RTVSPropertyOp58
 70
     1
102
RTVSPropertyOp59
 70
     1
102
RTVSPropertyOp60
 70
     1
102
RTVSPropertyOp61
 70
     1
102
RTVSPropertyOp62
 70
     1
  0
XRECORD
  5
BCD3
102
{ACAD_REACTORS
330
BCD2
102
}
330
BCD2
100
AcDbXrecord
280
     1
102
RTVSPost2010Prop28
280
     0
102
RTVSPost2010PropOp28
 70
     1
102
RTVSPost2010Prop29
280
     1
102
RTVSPost2010PropOp29
 70
     1
102
RTVSPost2010Prop30
280
     1
102
RTVSPost2010PropOp30
 70
     1
102
RTVSPost2010Prop31
280
     0
102
RTVSPost2010PropOp31
 70
     1
102
RTVSPost2010Prop32
280
     0
102
RTVSPost2010PropOp32
 70
     1
102
RTVSPost2010Prop33
280
     0
102
RTVSPost2010PropOp33
 70
     1
102
RTVSPost2010Prop34
280
     0
102
RTVSPost2010PropOp34
 70
     1
102
RTVSPost2010Prop35
280
     0
102
RTVSPost2010PropOp35
 70
     1
102
RTVSPost2010Prop36
280
     0
102
RTVSPost2010PropOp36
 70
     1
102
RTVSPost2010Prop37
 90
       50
102
RTVSPost2010PropOp37
 70
     1
102
RTVSPost2010Prop38
140
0.0
102
RTVSPost2010PropOp38
 70
     1
102
RTVSPost2010Prop39
140
1.0
102
RTVSPost2010PropOp39
 70
     1
102
RTVSPost2010Prop40
 90
        0
102
RTVSPost2010PropOp40
 70
     1
102
RTVSPost2010Prop41ColorIndex
 90
       18
102
RTVSPost2010Prop41ColorRGB
 90
        0
102
RTVSPost2010PropOp41
 70
     1
102
RTVSPost2010Prop42
 90
       50
102
RTVSPost2010PropOp42
 70
     1
102
RTVSPost2010Prop43
 90
        3
102
RTVSPost2010PropOp43
 70
     1
102
RTVSPost2010Prop44ColorIndex
 90
        5
102
RTVSPost2010Prop44ColorRGB
 90
      255
102
RTVSPost2010PropOp44
 70
     1
102
RTVSPost2010Prop45
280
     0
102
RTVSPost2010PropOp45
 70
     1
102
RTVSPost2010Prop46
 90
       50
102
RTVSPost2010PropOp46
 70
     1
102
RTVSPost2010Prop47
 90
       50
102
RTVSPost2010PropOp47
 70
     1
102
RTVSPost2010Prop48
 90
       50
102
RTVSPost2010PropOp48
 70
     1
102
RTVSPost2010Prop49
280
     0
102
RTVSPost2010PropOp49
 70
     1
102
RTVSPost2010Prop50
 90
       50
102
RTVSPost2010PropOp50
 70
     1
102
RTVSPost2010Prop51ColorIndex
 90
      256
102
RTVSPost2010Prop51ColorRGB
 90
-16777216
102
RTVSPost2010PropOp51
 70
     0
102
RTVSPost2010Prop52
140
1.0
102
RTVSPost2010PropOp52
 70
     0
102
RTVSPost2010Prop53
 90
        2
102
RTVSPost2010PropOp53
 70
     1
102
RTVSPost2010Prop54
  1
strokes_ogs.tif
102
RTVSPost2010PropOp54
 70
     1
102
RTVSPost2010Prop55
280
     0
102
RTVSPost2010PropOp55
 70
     1
102
RTVSPost2010Prop56
140
1.0
102
RTVSPost2010PropOp56
 70
     1
102
RTVSPost2010Prop57
140
1.0
102
RTVSPost2010PropOp57
 70
     1
102
RTVSPropertyOp0
 70
     1
102
RTVSPropertyOp1
 70
     1
102
RTVSPropertyOp2
 70
     1
102
RTVSPropertyOp3
 70
     1
102
RTVSPropertyOp4
 70
     1
102
RTVSPropertyOp5
 70
     1
102
RTVSPropertyOp6
 70
     1
102
RTVSPropertyOp7
 70
     1
102
RTVSPropertyOp8
 70
     1
102
RTVSPropertyOp9
 70
     1
102
RTVSPropertyOp10
 70
     1
102
RTVSPropertyOp11
 70
     1
102
RTVSPropertyOp12
 70
     1
102
RTVSPropertyOp13
 70
     1
102
RTVSPropertyOp14
 70
     1
102
RTVSPropertyOp15
 70
     1
102
RTVSPropertyOp16
 70
     1
102
RTVSPropertyOp17
 70
     1
102
RTVSPropertyOp18
 70
     1
102
RTVSPropertyOp19
 70
     1
102
RTVSPropertyOp20
 70
     1
102
RTVSPropertyOp21
 70
     1
102
RTVSPropertyOp22
 70
     1
102
RTVSPropertyOp23
 70
     1
102
RTVSPropertyOp24
 70
     1
102
RTVSPropertyOp25
 70
     1
102
RTVSPropertyOp26
 70
     1
102
RTVSPropertyOp27
 70
     1
102
RTVSPropertyOp28
 70
     1
102
RTVSPropertyOp29
 70
     1
102
RTVSPropertyOp30
 70
     1
102
RTVSPropertyOp31
 70
     1
102
RTVSPropertyOp32
 70
     1
102
RTVSPropertyOp33
 70
     1
102
RTVSPropertyOp34
 70
     1
102
RTVSPropertyOp35
 70
     1
102
RTVSPropertyOp36
 70
     1
102
RTVSPropertyOp37
 70
     1
102
RTVSPropertyOp38
 70
     1
102
RTVSPropertyOp39
 70
     1
102
RTVSPropertyOp40
 70
     1
102
RTVSPropertyOp41
 70
     1
102
RTVSPropertyOp42
 70
     1
102
RTVSPropertyOp43
 70
     1
102
RTVSPropertyOp44
 70
     1
102
RTVSPropertyOp45
 70
     1
102
RTVSPropertyOp46
 70
     1
102
RTVSPropertyOp47
 70
     1
102
RTVSPropertyOp48
 70
     1
102
RTVSPropertyOp49
 70
     1
102
RTVSPropertyOp50
 70
     1
102
RTVSPropertyOp51
 70
     0
102
RTVSPropertyOp52
 70
     0
102
RTVSPropertyOp53
 70
     1
102
RTVSPropertyOp54
 70
     1
102
RTVSPropertyOp55
 70
     1
102
RTVSPropertyOp56
 70
     1
102
RTVSPropertyOp57
 70
     1
102
RTVSPropertyOp58
 70
     1
102
RTVSPropertyOp59
 70
     1
102
RTVSPropertyOp60
 70
     1
102
RTVSPropertyOp61
 70
     1
102
RTVSPropertyOp62
 70
     1
  0
XRECORD
  5
BCEB
102
{ACAD_REACTORS
330
BCEA
102
}
330
BCEA
100
AcDbXrecord
280
     1
102
RTVSPost2010Prop28
280
     0
102
RTVSPost2010PropOp28
 70
     1
102
RTVSPost2010Prop29
280
     1
102
RTVSPost2010PropOp29
 70
     1
102
RTVSPost2010Prop30
280
     1
102
RTVSPost2010PropOp30
 70
     1
102
RTVSPost2010Prop31
280
     0
102
RTVSPost2010PropOp31
 70
     1
102
RTVSPost2010Prop32
280
     0
102
RTVSPost2010PropOp32
 70
     1
102
RTVSPost2010Prop33
280
     0
102
RTVSPost2010PropOp33
 70
     1
102
RTVSPost2010Prop34
280
     0
102
RTVSPost2010PropOp34
 70
     1
102
RTVSPost2010Prop35
280
     0
102
RTVSPost2010PropOp35
 70
     1
102
RTVSPost2010Prop36
280
     0
102
RTVSPost2010PropOp36
 70
     1
102
RTVSPost2010Prop37
 90
       50
102
RTVSPost2010PropOp37
 70
     1
102
RTVSPost2010Prop38
140
0.0
102
RTVSPost2010PropOp38
 70
     1
102
RTVSPost2010Prop39
140
1.0
102
RTVSPost2010PropOp39
 70
     1
102
RTVSPost2010Prop40
 90
        0
102
RTVSPost2010PropOp40
 70
     1
102
RTVSPost2010Prop41ColorIndex
 90
       18
102
RTVSPost2010Prop41ColorRGB
 90
        0
102
RTVSPost2010PropOp41
 70
     1
102
RTVSPost2010Prop42
 90
       50
102
RTVSPost2010PropOp42
 70
     1
102
RTVSPost2010Prop43
 90
        3
102
RTVSPost2010PropOp43
 70
     1
102
RTVSPost2010Prop44ColorIndex
 90
        5
102
RTVSPost2010Prop44ColorRGB
 90
      255
102
RTVSPost2010PropOp44
 70
     1
102
RTVSPost2010Prop45
280
     0
102
RTVSPost2010PropOp45
 70
     1
102
RTVSPost2010Prop46
 90
       50
102
RTVSPost2010PropOp46
 70
     1
102
RTVSPost2010Prop47
 90
       50
102
RTVSPost2010PropOp47
 70
     1
102
RTVSPost2010Prop48
 90
       50
102
RTVSPost2010PropOp48
 70
     1
102
RTVSPost2010Prop49
280
     0
102
RTVSPost2010PropOp49
 70
     1
102
RTVSPost2010Prop50
 90
       50
102
RTVSPost2010PropOp50
 70
     1
102
RTVSPost2010Prop51ColorIndex
 90
      256
102
RTVSPost2010Prop51ColorRGB
 90
-16777216
102
RTVSPost2010PropOp51
 70
     0
102
RTVSPost2010Prop52
140
1.0
102
RTVSPost2010PropOp52
 70
     0
102
RTVSPost2010Prop53
 90
        2
102
RTVSPost2010PropOp53
 70
     1
102
RTVSPost2010Prop54
  1
strokes_ogs.tif
102
RTVSPost2010PropOp54
 70
     1
102
RTVSPost2010Prop55
280
     0
102
RTVSPost2010PropOp55
 70
     1
102
RTVSPost2010Prop56
140
1.0
102
RTVSPost2010PropOp56
 70
     1
102
RTVSPost2010Prop57
140
1.0
102
RTVSPost2010PropOp57
 70
     1
102
RTVSPropertyOp0
 70
     1
102
RTVSPropertyOp1
 70
     1
102
RTVSPropertyOp2
 70
     1
102
RTVSPropertyOp3
 70
     1
102
RTVSPropertyOp4
 70
     1
102
RTVSPropertyOp5
 70
     1
102
RTVSPropertyOp6
 70
     1
102
RTVSPropertyOp7
 70
     1
102
RTVSPropertyOp8
 70
     1
102
RTVSPropertyOp9
 70
     1
102
RTVSPropertyOp10
 70
     1
102
RTVSPropertyOp11
 70
     1
102
RTVSPropertyOp12
 70
     1
102
RTVSPropertyOp13
 70
     1
102
RTVSPropertyOp14
 70
     1
102
RTVSPropertyOp15
 70
     1
102
RTVSPropertyOp16
 70
     1
102
RTVSPropertyOp17
 70
     1
102
RTVSPropertyOp18
 70
     1
102
RTVSPropertyOp19
 70
     1
102
RTVSPropertyOp20
 70
     1
102
RTVSPropertyOp21
 70
     1
102
RTVSPropertyOp22
 70
     1
102
RTVSPropertyOp23
 70
     1
102
RTVSPropertyOp24
 70
     1
102
RTVSPropertyOp25
 70
     1
102
RTVSPropertyOp26
 70
     1
102
RTVSPropertyOp27
 70
     1
102
RTVSPropertyOp28
 70
     1
102
RTVSPropertyOp29
 70
     1
102
RTVSPropertyOp30
 70
     1
102
RTVSPropertyOp31
 70
     1
102
RTVSPropertyOp32
 70
     1
102
RTVSPropertyOp33
 70
     1
102
RTVSPropertyOp34
 70
     1
102
RTVSPropertyOp35
 70
     1
102
RTVSPropertyOp36
 70
     1
102
RTVSPropertyOp37
 70
     1
102
RTVSPropertyOp38
 70
     1
102
RTVSPropertyOp39
 70
     1
102
RTVSPropertyOp40
 70
     1
102
RTVSPropertyOp41
 70
     1
102
RTVSPropertyOp42
 70
     1
102
RTVSPropertyOp43
 70
     1
102
RTVSPropertyOp44
 70
     1
102
RTVSPropertyOp45
 70
     1
102
RTVSPropertyOp46
 70
     1
102
RTVSPropertyOp47
 70
     1
102
RTVSPropertyOp48
 70
     1
102
RTVSPropertyOp49
 70
     1
102
RTVSPropertyOp50
 70
     1
102
RTVSPropertyOp51
 70
     0
102
RTVSPropertyOp52
 70
     0
102
RTVSPropertyOp53
 70
     1
102
RTVSPropertyOp54
 70
     1
102
RTVSPropertyOp55
 70
     1
102
RTVSPropertyOp56
 70
     1
102
RTVSPropertyOp57
 70
     1
102
RTVSPropertyOp58
 70
     1
102
RTVSPropertyOp59
 70
     1
102
RTVSPropertyOp60
 70
     1
102
RTVSPropertyOp61
 70
     1
102
RTVSPropertyOp62
 70
     1
  0
ENDSEC
  0
EOF
