  0
SECTION
  2
HEADER
  9
$ACADVER
  1
AC1015
  9
$ACADMAINTVER
 70
    20
  9
$DWGCODEPAGE
  3
ANSI_932
  9
$INSBASE
 10
0.0
 20
0.0
 30
0.0
  9
$EXTMIN
 10
10.0
 20
9.999999999999998
 30
0.0
  9
$EXTMAX
 10
571.7000000000001
 20
392.8752779999999
 30
0.0
  9
$LIMMIN
 10
0.0
 20
0.0
  9
$LIMMAX
 10
633.6
 20
436.8
  9
$ORTHOMODE
 70
     1
  9
$REGENMODE
 70
     1
  9
$FILLMODE
 70
     1
  9
$QTEXTMODE
 70
     0
  9
$MIRRTEXT
 70
     1
  9
$LTSCALE
 40
20.0
  9
$ATTMODE
 70
     1
  9
$TEXTSIZE
 40
5.0
  9
$TRACEWID
 40
1.0
  9
$TEXTSTYLE
  7
STANDARD
  9
$CLAYER
  8
0
  9
$CELTYPE
  6
BYLAYER
  9
$CECOLOR
 62
   256
  9
$CELTSCALE
 40
1.0
  9
$DISPSILH
 70
     0
  9
$DIMSCALE
 40
1.0
  9
$DIMASZ
 40
3.0
  9
$DIMEXO
 40
1.0
  9
$DIMDLI
 40
10.0
  9
$DIMRND
 40
0.0
  9
$DIMDLE
 40
0.0
  9
$DIMEXE
 40
1.0
  9
$DIMTP
 40
0.0
  9
$DIMTM
 40
0.0
  9
$DIMTXT
 40
3.2
  9
$DIMCEN
 40
0.0
  9
$DIMTSZ
 40
0.0
  9
$DIMTOL
 70
     0
  9
$DIMLIM
 70
     0
  9
$DIMTIH
 70
     0
  9
$DIMTOH
 70
     0
  9
$DIMSE1
 70
     0
  9
$DIMSE2
 70
     0
  9
$DIMTAD
 70
     3
  9
$DIMZIN
 70
     8
  9
$DIMBLK
  1

  9
$DIMASO
 70
     1
  9
$DIMSHO
 70
     1
  9
$DIMPOST
  1

  9
$DIMAPOST
  1

  9
$DIMALT
 70
     0
  9
$DIMALTD
 70
     2
  9
$DIMALTF
 40
25.4
  9
$DIMLFAC
 40
1.0
  9
$DIMTOFL
 70
     1
  9
$DIMTVP
 40
0.0
  9
$DIMTIX
 70
     0
  9
$DIMSOXD
 70
     0
  9
$DIMSAH
 70
     1
  9
$DIMBLK1
  1
OPEN
  9
$DIMBLK2
  1
OPEN
  9
$DIMSTYLE
  2
STANDARD
  9
$DIMCLRD
 70
     0
  9
$DIMCLRE
 70
     0
  9
$DIMCLRT
 70
     0
  9
$DIMTFAC
 40
1.0
  9
$DIMGAP
 40
1.0
  9
$DIMJUST
 70
     0
  9
$DIMSD1
 70
     0
  9
$DIMSD2
 70
     0
  9
$DIMTOLJ
 70
     1
  9
$DIMTZIN
 70
     0
  9
$DIMALTZ
 70
     0
  9
$DIMALTTZ
 70
     0
  9
$DIMUPT
 70
     0
  9
$DIMDEC
 70
     4
  9
$DIMTDEC
 70
     4
  9
$DIMALTU
 70
     2
  9
$DIMALTTD
 70
     2
  9
$DIMTXSTY
  7
STANDARD
  9
$DIMAUNIT
 70
     0
  9
$DIMADEC
 70
     0
  9
$DIMALTRND
 40
0.0
  9
$DIMAZIN
 70
     0
  9
$DIMDSEP
 70
    46
  9
$DIMATFIT
 70
     3
  9
$DIMFRAC
 70
     0
  9
$DIMLDRBLK
  1
OPEN
  9
$DIMLUNIT
 70
     2
  9
$DIMLWD
 70
    -2
  9
$DIMLWE
 70
    -2
  9
$DIMTMOVE
 70
     0
  9
$LUNITS
 70
     2
  9
$LUPREC
 70
     4
  9
$SKETCHINC
 40
1.0
  9
$FILLETRAD
 40
4.724
  9
$AUNITS
 70
     0
  9
$AUPREC
 70
     2
  9
$MENU
  1
.
  9
$ELEVATION
 40
0.0
  9
$PELEVATION
 40
0.0
  9
$THICKNESS
 40
0.0
  9
$LIMCHECK
 70
     0
  9
$CHAMFERA
 40
10.0
  9
$CHAMFERB
 40
10.0
  9
$CHAMFERC
 40
0.0
  9
$CHAMFERD
 40
0.0
  9
$SKPOLY
 70
     0
  9
$TDCREATE
 40
2451302.679064005
  9
$TDUCREATE
 40
2451302.304064005
  9
$TDUPDATE
 40
2457192.688702975
  9
$TDUUPDATE
 40
2457192.313702975
  9
$TDINDWG
 40
0.0000114352
  9
$TDUSRTIMER
 40
0.0000104630
  9
$USRTIMER
 70
     1
  9
$ANGBASE
 50
0.0
  9
$ANGDIR
 70
     0
  9
$PDMODE
 70
     0
  9
$PDSIZE
 40
0.0
  9
$PLINEWID
 40
0.0
  9
$SPLFRAME
 70
     0
  9
$SPLINETYPE
 70
     6
  9
$SPLINESEGS
 70
     8
  9
$HANDSEED
  5
B3F2
  9
$SURFTAB1
 70
     6
  9
$SURFTAB2
 70
     6
  9
$SURFTYPE
 70
     6
  9
$SURFU
 70
     6
  9
$SURFV
 70
     6
  9
$UCSBASE
  2

  9
$UCSNAME
  2

  9
$UCSORG
 10
0.0
 20
0.0
 30
0.0
  9
$UCSXDIR
 10
1.0
 20
0.0
 30
0.0
  9
$UCSYDIR
 10
0.0
 20
1.0
 30
0.0
  9
$UCSORTHOREF
  2

  9
$UCSORTHOVIEW
 70
     0
  9
$UCSORGTOP
 10
0.0
 20
0.0
 30
0.0
  9
$UCSORGBOTTOM
 10
0.0
 20
0.0
 30
0.0
  9
$UCSORGLEFT
 10
0.0
 20
0.0
 30
0.0
  9
$UCSORGRIGHT
 10
0.0
 20
0.0
 30
0.0
  9
$UCSORGFRONT
 10
0.0
 20
0.0
 30
0.0
  9
$UCSORGBACK
 10
0.0
 20
0.0
 30
0.0
  9
$PUCSBASE
  2

  9
$PUCSNAME
  2

  9
$PUCSORG
 10
0.0
 20
0.0
 30
0.0
  9
$PUCSXDIR
 10
1.0
 20
0.0
 30
0.0
  9
$PUCSYDIR
 10
0.0
 20
1.0
 30
0.0
  9
$PUCSORTHOREF
  2

  9
$PUCSORTHOVIEW
 70
     0
  9
$PUCSORGTOP
 10
0.0
 20
0.0
 30
0.0
  9
$PUCSORGBOTTOM
 10
0.0
 20
0.0
 30
0.0
  9
$PUCSORGLEFT
 10
0.0
 20
0.0
 30
0.0
  9
$PUCSORGRIGHT
 10
0.0
 20
0.0
 30
0.0
  9
$PUCSORGFRONT
 10
0.0
 20
0.0
 30
0.0
  9
$PUCSORGBACK
 10
0.0
 20
0.0
 30
0.0
  9
$USERI1
 70
     0
  9
$USERI2
 70
     0
  9
$USERI3
 70
     0
  9
$USERI4
 70
     0
  9
$USERI5
 70
     0
  9
$USERR1
 40
0.0
  9
$USERR2
 40
0.0
  9
$USERR3
 40
0.0
  9
$USERR4
 40
0.0
  9
$USERR5
 40
0.0
  9
$WORLDVIEW
 70
     1
  9
$SHADEDGE
 70
     3
  9
$SHADEDIF
 70
    70
  9
$TILEMODE
 70
     1
  9
$MAXACTVP
 70
    16
  9
$PINSBASE
 10
0.0
 20
0.0
 30
0.0
  9
$PLIMCHECK
 70
     0
  9
$PEXTMIN
 10
1.000000000000000E+20
 20
1.000000000000000E+20
 30
1.000000000000000E+20
  9
$PEXTMAX
 10
-1.000000000000000E+20
 20
-1.000000000000000E+20
 30
-1.000000000000000E+20
  9
$PLIMMIN
 10
0.0
 20
0.0
  9
$PLIMMAX
 10
420.0
 20
297.0
  9
$UNITMODE
 70
     0
  9
$VISRETAIN
 70
     0
  9
$PLINEGEN
 70
     0
  9
$PSLTSCALE
 70
     0
  9
$TREEDEPTH
 70
  3020
  9
$CMLSTYLE
  2
STANDARD
  9
$CMLJUST
 70
     0
  9
$CMLSCALE
 40
1.0
  9
$PROXYGRAPHICS
 70
     1
  9
$MEASUREMENT
 70
     0
  9
$CELWEIGHT
370
    -1
  9
$ENDCAPS
280
     0
  9
$JOINSTYLE
280
     0
  9
$LWDISPLAY
290
     0
  9
$INSUNITS
 70
     0
  9
$HYPERLINKBASE
  1

  9
$STYLESHEET
  1

  9
$XEDIT
290
     1
  9
$CEPSNTYPE
380
     0
  9
$PSTYLEMODE
290
     1
  9
$FINGERPRINTGUID
  2
{7C9B3B31-ADD0-423C-8CD8-E92DFA7B9491}
  9
$VERSIONGUID
  2
{CEC8588D-D4CB-4FCA-9C00-5D508A3FFEE5}
  9
$EXTNAMES
290
     1
  9
$PSVPSCALE
 40
0.0
  9
$OLESTARTUP
290
     0
  0
ENDSEC
  0
SECTION
  2
CLASSES
  0
CLASS
  1
ACDBDICTIONARYWDFLT
  2
AcDbDictionaryWithDefault
  3
ObjectDBX Classes
 90
        0
280
     0
281
     0
  0
CLASS
  1
ACDBPLACEHOLDER
  2
AcDbPlaceHolder
  3
ObjectDBX Classes
 90
        0
280
     0
281
     0
  0
CLASS
  1
LAYOUT
  2
AcDbLayout
  3
ObjectDBX Classes
 90
        0
280
     0
281
     0
  0
CLASS
  1
DICTIONARYVAR
  2
AcDbDictionaryVar
  3
ObjectDBX Classes
 90
        0
280
     0
281
     0
  0
CLASS
  1
MATERIAL
  2
AcDbMaterial
  3
ObjectDBX Classes
 90
     1153
280
     0
281
     0
  0
CLASS
  1
VISUALSTYLE
  2
AcDbVisualStyle
  3
ObjectDBX Classes
 90
     4095
280
     0
281
     0
  0
CLASS
  1
TABLESTYLE
  2
AcDbTableStyle
  3
ObjectDBX Classes
 90
     4095
280
     0
281
     0
  0
CLASS
  1
SCALE
  2
AcDbScale
  3
ObjectDBX Classes
 90
     1153
280
     0
281
     0
  0
CLASS
  1
MLEADERSTYLE
  2
AcDbMLeaderStyle
  3
ACDB_MLEADERSTYLE_CLASS
 90
     4095
280
     0
281
     0
  0
CLASS
  1
ACDBSECTIONVIEWSTYLE
  2
AcDbSectionViewStyle
  3
ObjectDBX Classes
 90
     1025
280
     0
281
     0
  0
CLASS
  1
ACDBDETAILVIEWSTYLE
  2
AcDbDetailViewStyle
  3
ObjectDBX Classes
 90
     1025
280
     0
281
     0
  0
CLASS
  1
CELLSTYLEMAP
  2
AcDbCellStyleMap
  3
ObjectDBX Classes
 90
     1152
280
     0
281
     0
  0
ENDSEC
  0
SECTION
  2
TABLES
  0
TABLE
  2
VPORT
  5
B157
330
0
100
AcDbSymbolTable
 70
     1
  0
VPORT
  5
B33B
330
B157
100
AcDbSymbolTableRecord
100
AcDbViewportTableRecord
  2
*ACTIVE
 70
     0
 10
0.0
 20
0.0
 11
1.0
 21
1.0
 12
406.8411430863606
 22
201.4374765831948
 13
0.0
 23
0.0
 14
10.0
 24
10.0
 15
10.0
 25
10.0
 16
0.0
 26
0.0
 36
1.0
 17
0.0
 27
0.0
 37
0.0
 40
387.1375050621708
 41
2.35006605019815
 42
50.0
 43
0.0
 44
0.0
 50
0.0
 51
0.0
 71
     0
 72
   100
 73
     1
 74
     0
 75
     0
 76
     0
 77
     0
 78
     0
281
     0
 65
     1
110
0.0
120
0.0
130
0.0
111
1.0
121
0.0
131
0.0
112
0.0
122
1.0
132
0.0
 79
     0
146
0.0
1001
ACAD_NAV_VCDISPLAY
1070
     3
  0
ENDTAB
  0
TABLE
  2
LTYPE
  5
B154
330
0
100
AcDbSymbolTable
 70
     4
  0
LTYPE
  5
B162
330
B154
100
AcDbSymbolTableRecord
100
AcDbLinetypeTableRecord
  2
BYBLOCK
 70
     0
  3

 72
    65
 73
     0
 40
0.0
  0
LTYPE
  5
B163
330
B154
100
AcDbSymbolTableRecord
100
AcDbLinetypeTableRecord
  2
BYLAYER
 70
     0
  3

 72
    65
 73
     0
 40
0.0
  0
LTYPE
  5
B164
330
B154
100
AcDbSymbolTableRecord
100
AcDbLinetypeTableRecord
  2
CONTINUOUS
 70
     0
  3
Solid line
 72
    65
 73
     0
 40
0.0
  0
LTYPE
  5
B172
330
B154
100
AcDbSymbolTableRecord
100
AcDbLinetypeTableRecord
  2
DASHED
 70
     0
  3
__ __ __ __ __ __ __ __ __ __ __ __ __ __ __ __
 72
    65
 73
     2
 40
0.75
 49
0.5
 74
     0
 49
-0.25
 74
     0
  0
LTYPE
  5
B173
330
B154
100
AcDbSymbolTableRecord
100
AcDbLinetypeTableRecord
  2
CENTER
 70
     0
  3
____ _ ____ _ ____ _ ____ _ ____ _ ____ _ ____ 
 72
    65
 73
     4
 40
2.0
 49
1.25
 74
     0
 49
-0.25
 74
     0
 49
0.25
 74
     0
 49
-0.25
 74
     0
  0
LTYPE
  5
B174
330
B154
100
AcDbSymbolTableRecord
100
AcDbLinetypeTableRecord
  2
PHANTOM
 70
     0
  3
______  __  __  ______  __  __  ______  __  __ 
 72
    65
 73
     6
 40
2.5
 49
1.25
 74
     0
 49
-0.25
 74
     0
 49
0.25
 74
     0
 49
-0.25
 74
     0
 49
0.25
 74
     0
 49
-0.25
 74
     0
  0
ENDTAB
  0
TABLE
  2
LAYER
  5
B151
330
0
100
AcDbSymbolTable
 70
     8
  0
LAYER
  5
B15F
102
{ACAD_XDICTIONARY
360
B396
102
}
330
B151
100
AcDbSymbolTableRecord
100
AcDbLayerTableRecord
  2
0
 70
     0
 62
     7
  6
CONTINUOUS
370
    -3
390
B344
  0
LAYER
  5
B175
102
{ACAD_XDICTIONARY
360
B398
102
}
330
B151
100
AcDbSymbolTableRecord
100
AcDbLayerTableRecord
  2
4
 70
     0
 62
     1
  6
CENTER
370
    -3
390
B344
  0
LAYER
  5
B176
102
{ACAD_XDICTIONARY
360
B39A
102
}
330
B151
100
AcDbSymbolTableRecord
100
AcDbLayerTableRecord
  2
5
 70
     0
 62
     6
  6
PHANTOM
370
    -3
390
B344
  0
LAYER
  5
B177
102
{ACAD_XDICTIONARY
360
B39C
102
}
330
B151
100
AcDbSymbolTableRecord
100
AcDbLayerTableRecord
  2
1
 70
     0
 62
     7
  6
CONTINUOUS
370
    -3
390
B344
  0
LAYER
  5
B178
102
{ACAD_XDICTIONARY
360
B39E
102
}
330
B151
100
AcDbSymbolTableRecord
100
AcDbLayerTableRecord
  2
2
 70
     0
 62
     4
  6
CONTINUOUS
370
    -3
390
B344
  0
LAYER
  5
B179
102
{ACAD_XDICTIONARY
360
B3A0
102
}
330
B151
100
AcDbSymbolTableRecord
100
AcDbLayerTableRecord
  2
3
 70
     0
 62
     2
  6
DASHED
370
    -3
390
B344
  0
LAYER
  5
B17A
102
{ACAD_XDICTIONARY
360
B3A2
102
}
330
B151
100
AcDbSymbolTableRecord
100
AcDbLayerTableRecord
  2
6
 70
     0
 62
     5
  6
CONTINUOUS
370
    -3
390
B344
  0
LAYER
  5
B17B
102
{ACAD_XDICTIONARY
360
B3A4
102
}
330
B151
100
AcDbSymbolTableRecord
100
AcDbLayerTableRecord
  2
7
 70
     0
 62
     3
  6
CONTINUOUS
370
    -3
390
B344
  0
ENDTAB
  0
TABLE
  2
STYLE
  5
B152
330
0
100
AcDbSymbolTable
 70
     1
  0
STYLE
  5
B160
330
B152
100
AcDbSymbolTableRecord
100
AcDbTextStyleTableRecord
  2
STANDARD
 70
     0
 40
0.0
 41
1.0
 50
0.0
 71
     0
 42
5.0
  3
txt
  4

  0
ENDTAB
  0
TABLE
  2
VIEW
  5
B155
330
0
100
AcDbSymbolTable
 70
     0
  0
ENDTAB
  0
TABLE
  2
UCS
  5
B156
330
0
100
AcDbSymbolTable
 70
     0
  0
ENDTAB
  0
TABLE
  2
APPID
  5
B158
330
0
100
AcDbSymbolTable
 70
     3
  0
APPID
  5
B161
330
B158
100
AcDbSymbolTableRecord
100
AcDbRegAppTableRecord
  2
ACAD
 70
     0
  0
APPID
  5
B3B0
330
B158
100
AcDbSymbolTableRecord
100
AcDbRegAppTableRecord
  2
ACAD_NAV_VCDISPLAY
 70
     0
  0
APPID
  5
B3E9
330
B158
100
AcDbSymbolTableRecord
100
AcDbRegAppTableRecord
  2
ACAD_MLEADERVER
 70
     0
  0
ENDTAB
  0
TABLE
  2
DIMSTYLE
  5
B159
330
0
100
AcDbSymbolTable
 70
     1
100
AcDbDimStyleTable
 71
     0
  0
DIMSTYLE
105
B17D
330
B159
100
AcDbSymbolTableRecord
100
AcDbDimStyleTableRecord
  2
STANDARD
 70
     0
 41
3.0
 42
1.0
 43
10.0
 44
1.0
 73
     0
 74
     0
 77
     3
 78
     8
140
3.2
141
0.0
147
1.0
172
     1
173
     1
284
     8
285
     8
286
     8
340
B160
  0
ENDTAB
  0
TABLE
  2
BLOCK_RECORD
  5
B150
330
0
100
AcDbSymbolTable
 70
     1
  0
BLOCK_RECORD
  5
B16D
102
{ACAD_XDICTIONARY
360
B33E
102
}
330
B150
100
AcDbSymbolTableRecord
100
AcDbBlockTableRecord
  2
*MODEL_SPACE
340
B392
  0
BLOCK_RECORD
  5
B169
102
{ACAD_XDICTIONARY
360
B33C
102
}
330
B150
100
AcDbSymbolTableRecord
100
AcDbBlockTableRecord
  2
*PAPER_SPACE
340
B393
  0
BLOCK_RECORD
  5
B185
330
B150
100
AcDbSymbolTableRecord
100
AcDbBlockTableRecord
  2
_OPEN
340
0
  0
ENDTAB
  0
ENDSEC
  0
SECTION
  2
BLOCKS
  0
BLOCK
  5
B16E
330
B16D
100
AcDbEntity
  8
0
100
AcDbBlockBegin
  2
*MODEL_SPACE
 70
     0
 10
0.0
 20
0.0
 30
0.0
  3
*MODEL_SPACE
  1

  0
ENDBLK
  5
B16F
330
B16D
100
AcDbEntity
  8
0
100
AcDbBlockEnd
  0
BLOCK
  5
B16A
330
B169
100
AcDbEntity
 67
     1
  8
0
100
AcDbBlockBegin
  2
*PAPER_SPACE
 70
     0
 10
0.0
 20
0.0
 30
0.0
  3
*PAPER_SPACE
  1

  0
ENDBLK
  5
B16B
330
B169
100
AcDbEntity
 67
     1
  8
0
100
AcDbBlockEnd
  0
BLOCK
  5
B186
330
B185
100
AcDbEntity
  8
0
100
AcDbBlockBegin
  2
_OPEN
 70
     0
 10
0.0
 20
0.0
 30
0.0
  3
_OPEN
  1

  0
LINE
  5
B187
330
B185
100
AcDbEntity
  8
0
  6
ByBlock
 62
     0
100
AcDbLine
 10
-1.0
 20
0.166667
 30
0.0
 11
0.0
 21
0.0
 31
0.0
  0
LINE
  5
B188
330
B185
100
AcDbEntity
  8
0
  6
ByBlock
 62
     0
100
AcDbLine
 10
0.0
 20
0.0
 30
0.0
 11
-1.0
 21
-0.166667
 31
0.0
  0
LINE
  5
B189
330
B185
100
AcDbEntity
  8
0
  6
ByBlock
 62
     0
100
AcDbLine
 10
0.0
 20
0.0
 30
0.0
 11
-1.0
 21
0.0
 31
0.0
  0
ENDBLK
  5
B18A
330
B185
100
AcDbEntity
  8
0
100
AcDbBlockEnd
  0
ENDSEC
  0
SECTION
  2
ENTITIES
  0
TEXT
  5
B18B
330
B16D
100
AcDbEntity
  8
7
  6
Continuous
100
AcDbText
 10
10.0
 20
18.0
 30
0.0
 40
3.0
  1
TYPE No.608
100
AcDbText
  0
TEXT
  5
B18C
330
B16D
100
AcDbEntity
  8
7
  6
Continuous
100
AcDbText
 10
10.0
 20
26.0
 30
0.0
 40
3.0
  1
CODE No.9408
100
AcDbText
  0
TEXT
  5
B18D
330
B16D
100
AcDbEntity
  8
1
  6
Continuous
100
AcDbText
 10
10.0
 20
10.0
 30
0.0
 40
1.399999999999999
  1
LAYER
100
AcDbText
  0
TEXT
  5
B18E
330
B16D
100
AcDbEntity
  8
1
  6
Continuous
100
AcDbText
 10
17.97951099999998
 20
10.04873699999998
 30
0.0
 40
1.399999999999999
  1
1
100
AcDbText
  0
TEXT
  5
B18F
330
B16D
100
AcDbEntity
  8
7
  6
Continuous
100
AcDbText
 10
29.97951099999999
 20
10.04873699999998
 30
0.0
 40
1.399999999999999
  1
7
100
AcDbText
  0
TEXT
  5
B190
330
B16D
100
AcDbEntity
  8
4
  6
CENTER
100
AcDbText
 10
23.97951099999999
 20
10.04873699999998
 30
0.0
 40
1.399999999999999
  1
4
100
AcDbText
  0
TEXT
  5
B191
330
B16D
100
AcDbEntity
  8
3
  6
DASHED
100
AcDbText
 10
21.979511
 20
10.04873699999998
 30
0.0
 40
1.399999999999999
  1
3
100
AcDbText
  0
TEXT
  5
B192
330
B16D
100
AcDbEntity
  8
2
  6
Continuous
100
AcDbText
 10
19.97951099999999
 20
10.04873699999998
 30
0.0
 40
1.399999999999999
  1
2
100
AcDbText
  0
TEXT
  5
B193
330
B16D
100
AcDbEntity
  8
6
  6
Continuous
100
AcDbText
 10
27.979511
 20
10.04873699999998
 30
0.0
 40
1.399999999999999
  1
6
100
AcDbText
  0
TEXT
  5
B194
330
B16D
100
AcDbEntity
  8
5
  6
PHANTOM
100
AcDbText
 10
25.97951099999999
 20
10.04873699999998
 30
0.0
 40
1.399999999999999
  1
5
100
AcDbText
  0
LINE
  5
B195
330
B16D
100
AcDbEntity
  8
1
  6
Continuous
100
AcDbLine
 10
234.005131
 20
387.7682659999999
 30
0.0
 11
237.4029299999999
 21
389.759117
 31
0.0
  0
ARC
  5
B196
330
B16D
100
AcDbEntity
  8
1
  6
Continuous
100
AcDbCircle
 10
241.6999999999999
 20
382.425278
 30
0.0
 40
8.5
100
AcDbArc
 50
0.0
 51
120.3670439999998
  0
ARC
  5
B197
330
B16D
100
AcDbEntity
  8
1
  6
Continuous
100
AcDbCircle
 10
232.741288
 20
389.9252779999998
 30
0.0
 40
2.5
100
AcDbArc
 50
197.6325919999999
 51
300.367044
  0
ARC
  5
B198
330
B16D
100
AcDbEntity
  8
1
  6
Continuous
100
AcDbCircle
 10
207.2204419999999
 20
389.975278
 30
0.0
 40
7.5
100
AcDbArc
 50
270.0
 51
302.264873
  0
LINE
  5
B199
330
B16D
100
AcDbEntity
  8
1
  6
Continuous
100
AcDbLine
 10
234.005131
 20
341.0822889999999
 30
0.0
 11
237.4029299999999
 21
339.0914389999999
 31
0.0
  0
ARC
  5
B19A
330
B16D
100
AcDbEntity
  8
1
  6
Continuous
100
AcDbCircle
 10
241.6999999999999
 20
346.4252779999998
 30
0.0
 40
8.5
100
AcDbArc
 50
239.6329559999998
 51
0.0
  0
ARC
  5
B19B
330
B16D
100
AcDbEntity
  8
1
  6
Continuous
100
AcDbCircle
 10
232.741288
 20
338.925278
 30
0.0
 40
2.5
100
AcDbArc
 50
59.632956
 51
162.367408
  0
ARC
  5
B19C
330
B16D
100
AcDbEntity
  8
1
  6
Continuous
100
AcDbCircle
 10
207.2204419999999
 20
338.8752779999999
 30
0.0
 40
7.5
100
AcDbArc
 50
57.73512700000001
 51
90.0
  0
LINE
  5
B19D
330
B16D
100
AcDbEntity
  8
1
  6
Continuous
100
AcDbLine
 10
250.1999999999999
 20
382.425278
 30
0.0
 11
250.1999999999999
 21
346.4252779999998
 31
0.0
  0
LINE
  5
B19E
330
B16D
100
AcDbEntity
  8
1
  6
Continuous
100
AcDbLine
 10
169.394868
 20
341.0822889999999
 30
0.0
 11
165.9970689999999
 21
339.0914389999999
 31
0.0
  0
ARC
  5
B19F
330
B16D
100
AcDbEntity
  8
1
  6
Continuous
100
AcDbCircle
 10
161.6999999999999
 20
346.4252779999998
 30
0.0
 40
8.5
100
AcDbArc
 50
180.0
 51
300.367044
  0
ARC
  5
B1A0
330
B16D
100
AcDbEntity
  8
1
  6
Continuous
100
AcDbCircle
 10
170.658712
 20
338.925278
 30
0.0
 40
2.5
100
AcDbArc
 50
17.632592
 51
120.3670439999998
  0
LINE
  5
B1A1
330
B16D
100
AcDbEntity
  8
1
  6
Continuous
100
AcDbLine
 10
207.2204419999999
 20
346.375278
 30
0.0
 11
196.179558
 21
346.375278
 31
0.0
  0
ARC
  5
B1A2
330
B16D
100
AcDbEntity
  8
1
  6
Continuous
100
AcDbCircle
 10
196.179558
 20
338.8752779999999
 30
0.0
 40
7.5
100
AcDbArc
 50
90.0
 51
122.2648729999998
  0
LINE
  5
B1A3
330
B16D
100
AcDbEntity
  8
1
  6
Continuous
100
AcDbLine
 10
153.2
 20
382.425278
 30
0.0
 11
153.2
 21
346.4252779999998
 31
0.0
  0
LINE
  5
B1A4
330
B16D
100
AcDbEntity
  8
1
  6
Continuous
100
AcDbLine
 10
169.394868
 20
387.7682659999999
 30
0.0
 11
165.9970689999999
 21
389.759117
 31
0.0
  0
ARC
  5
B1A5
330
B16D
100
AcDbEntity
  8
1
  6
Continuous
100
AcDbCircle
 10
161.6999999999999
 20
382.425278
 30
0.0
 40
8.5
100
AcDbArc
 50
59.632956
 51
180.0
  0
ARC
  5
B1A6
330
B16D
100
AcDbEntity
  8
1
  6
Continuous
100
AcDbCircle
 10
170.658712
 20
389.9252779999998
 30
0.0
 40
2.5
100
AcDbArc
 50
239.6329559999998
 51
342.367408
  0
LINE
  5
B1A7
330
B16D
100
AcDbEntity
  8
1
  6
Continuous
100
AcDbLine
 10
207.2204419999999
 20
382.475278
 30
0.0
 11
196.179558
 21
382.475278
 31
0.0
  0
ARC
  5
B1A8
330
B16D
100
AcDbEntity
  8
1
  6
Continuous
100
AcDbCircle
 10
196.179558
 20
389.975278
 30
0.0
 40
7.5
100
AcDbArc
 50
237.735127
 51
270.0
  0
CIRCLE
  5
B1A9
330
B16D
100
AcDbEntity
  8
1
  6
Continuous
100
AcDbCircle
 10
161.6999999999999
 20
382.425278
 30
0.0
 40
4.25
  0
CIRCLE
  5
B1AA
330
B16D
100
AcDbEntity
  8
1
  6
Continuous
100
AcDbCircle
 10
241.6999999999999
 20
382.425278
 30
0.0
 40
4.25
  0
CIRCLE
  5
B1AB
330
B16D
100
AcDbEntity
  8
1
  6
Continuous
100
AcDbCircle
 10
241.6999999999999
 20
346.4252779999998
 30
0.0
 40
4.25
  0
CIRCLE
  5
B1AC
330
B16D
100
AcDbEntity
  8
1
  6
Continuous
100
AcDbCircle
 10
161.6999999999999
 20
346.4252779999998
 30
0.0
 40
4.25
  0
CIRCLE
  5
B1AD
330
B16D
100
AcDbEntity
  8
1
  6
Continuous
100
AcDbCircle
 10
201.6999999999999
 20
206.0626389999999
 30
0.0
 40
7.0
  0
ARC
  5
B1AE
330
B16D
100
AcDbEntity
  8
1
  6
Continuous
100
AcDbCircle
 10
173.041258
 20
375.5261779999998
 30
0.0
 40
35.84362
100
AcDbArc
 50
270.0
 51
302.264873
  0
ARC
  5
B1AF
330
B16D
100
AcDbEntity
  8
1
  6
Continuous
100
AcDbCircle
 10
230.358741
 20
375.5261779999998
 30
0.0
 40
35.84362
100
AcDbArc
 50
237.735127
 51
270.0
  0
ARC
  5
B1B0
330
B16D
100
AcDbEntity
  8
1
  6
Continuous
100
AcDbCircle
 10
173.041258
 20
353.3243779999998
 30
0.0
 40
35.84362
100
AcDbArc
 50
57.73512700000001
 51
90.0
  0
ARC
  5
B1B1
330
B16D
100
AcDbEntity
  8
1
  6
Continuous
100
AcDbCircle
 10
230.358741
 20
353.3243779999998
 30
0.0
 40
35.84362
100
AcDbArc
 50
90.0
 51
122.2648729999998
  0
LINE
  5
B1B2
330
B16D
100
AcDbEntity
  8
1
  6
Continuous
100
AcDbLine
 10
194.0
 20
382.7989609999999
 30
0.0
 11
194.0
 21
384.475278
 31
0.0
  0
LINE
  5
B1B3
330
B16D
100
AcDbEntity
  8
1
  6
Continuous
100
AcDbLine
 10
209.4
 20
382.7989609999999
 30
0.0
 11
209.4
 21
384.475278
 31
0.0
  0
LINE
  5
B1B4
330
B16D
100
AcDbEntity
  8
1
  6
Continuous
100
AcDbLine
 10
197.6999999999999
 20
389.475278
 30
0.0
 11
197.6999999999999
 21
390.2752779999998
 31
0.0
  0
LINE
  5
B1B5
330
B16D
100
AcDbEntity
  8
1
  6
Continuous
100
AcDbLine
 10
198.3
 20
390.875278
 30
0.0
 11
197.6999999999999
 21
390.2752779999998
 31
0.0
  0
LINE
  5
B1B6
330
B16D
100
AcDbEntity
  8
1
  6
Continuous
100
AcDbLine
 10
197.6999999999999
 20
390.2752779999998
 30
0.0
 11
205.6999999999999
 21
390.2752779999998
 31
0.0
  0
LINE
  5
B1B7
330
B16D
100
AcDbEntity
  8
1
  6
Continuous
100
AcDbLine
 10
205.1
 20
390.875278
 30
0.0
 11
198.3
 21
390.875278
 31
0.0
  0
LINE
  5
B1B8
330
B16D
100
AcDbEntity
  8
1
  6
Continuous
100
AcDbLine
 10
205.6999999999999
 20
389.475278
 30
0.0
 11
205.6999999999999
 21
390.2752779999998
 31
0.0
  0
LINE
  5
B1B9
330
B16D
100
AcDbEntity
  8
1
  6
Continuous
100
AcDbLine
 10
205.1
 20
390.875278
 30
0.0
 11
205.6999999999999
 21
390.2752779999998
 31
0.0
  0
LINE
  5
B1BA
330
B16D
100
AcDbEntity
  8
2
  6
Continuous
100
AcDbLine
 10
198.3765
 20
389.475278
 30
0.0
 11
198.3765
 21
390.875278
 31
0.0
  0
LINE
  5
B1BB
330
B16D
100
AcDbEntity
  8
2
  6
Continuous
100
AcDbLine
 10
205.0235
 20
389.475278
 30
0.0
 11
205.0235
 21
390.875278
 31
0.0
  0
LINE
  5
B1BC
330
B16D
100
AcDbEntity
  8
4
  6
CENTER
100
AcDbLine
 10
131.6999999999999
 20
364.4252779999998
 30
0.0
 11
271.7
 21
364.4252779999998
 31
0.0
  0
LINE
  5
B1BD
330
B16D
100
AcDbEntity
  8
4
  6
CENTER
100
AcDbLine
 10
201.6999999999999
 20
392.8752779999999
 30
0.0
 11
201.6999999999999
 21
338.8163
 31
0.0
  0
LINE
  5
B1BE
330
B16D
100
AcDbEntity
  8
4
  6
CENTER
100
AcDbLine
 10
154.45
 20
382.425278
 30
0.0
 11
168.9499999999999
 21
382.425278
 31
0.0
  0
LINE
  5
B1BF
330
B16D
100
AcDbEntity
  8
4
  6
CENTER
100
AcDbLine
 10
161.6999999999999
 20
375.1752779999998
 30
0.0
 11
161.6999999999999
 21
389.6752779999998
 31
0.0
  0
LINE
  5
B1C0
330
B16D
100
AcDbEntity
  8
4
  6
CENTER
100
AcDbLine
 10
234.45
 20
382.425278
 30
0.0
 11
248.95
 21
382.425278
 31
0.0
  0
LINE
  5
B1C1
330
B16D
100
AcDbEntity
  8
4
  6
CENTER
100
AcDbLine
 10
241.6999999999999
 20
375.1752779999998
 30
0.0
 11
241.6999999999999
 21
389.6752779999998
 31
0.0
  0
LINE
  5
B1C2
330
B16D
100
AcDbEntity
  8
4
  6
CENTER
100
AcDbLine
 10
234.45
 20
346.4252779999998
 30
0.0
 11
248.95
 21
346.4252779999998
 31
0.0
  0
LINE
  5
B1C3
330
B16D
100
AcDbEntity
  8
4
  6
CENTER
100
AcDbLine
 10
241.6999999999999
 20
339.175278
 30
0.0
 11
241.6999999999999
 21
353.675278
 31
0.0
  0
LINE
  5
B1C4
330
B16D
100
AcDbEntity
  8
4
  6
CENTER
100
AcDbLine
 10
154.45
 20
346.4252779999998
 30
0.0
 11
168.9499999999999
 21
346.4252779999998
 31
0.0
  0
LINE
  5
B1C5
330
B16D
100
AcDbEntity
  8
4
  6
CENTER
100
AcDbLine
 10
161.6999999999999
 20
339.175278
 30
0.0
 11
161.6999999999999
 21
353.675278
 31
0.0
  0
LINE
  5
B1C6
330
B16D
100
AcDbEntity
  8
1
  6
Continuous
100
AcDbLine
 10
550.2
 20
291.062639
 30
0.0
 11
453.2
 21
291.062639
 31
0.0
  0
LINE
  5
B1C7
330
B16D
100
AcDbEntity
  8
4
  6
CENTER
100
AcDbLine
 10
571.7000000000001
 20
206.0626389999999
 30
0.0
 11
431.7
 21
206.0626389999999
 31
0.0
  0
LINE
  5
B1C8
330
B16D
100
AcDbEntity
  8
1
  6
Continuous
100
AcDbLine
 10
550.2
 20
288.7626389999999
 30
0.0
 11
535.2999440000001
 21
288.7626389999999
 31
0.0
  0
LINE
  5
B1C9
330
B16D
100
AcDbEntity
  8
1
  6
Continuous
100
AcDbLine
 10
550.2
 20
291.062639
 30
0.0
 11
550.2
 21
288.7626389999999
 31
0.0
  0
LINE
  5
B1CA
330
B16D
100
AcDbEntity
  8
4
  6
CENTER
100
AcDbLine
 10
541.7
 20
294.342058
 30
0.0
 11
541.7
 21
285.4635449999999
 31
0.0
  0
ARC
  5
B1CB
330
B16D
100
AcDbEntity
  8
1
  6
Continuous
100
AcDbCircle
 10
535.2
 20
287.0626389999998
 30
0.0
 40
4.0
100
AcDbArc
 50
90.0
 51
168.0484639999999
  0
LINE
  5
B1CC
330
B16D
100
AcDbEntity
  8
1
  6
Continuous
100
AcDbLine
 10
496.1795579999998
 20
216.2421709999999
 30
0.0
 11
496.1795579999998
 21
287.2626389999999
 31
0.0
  0
LINE
  5
B1CD
330
B16D
100
AcDbEntity
  8
1
  6
Continuous
100
AcDbLine
 10
507.220442
 20
216.2421709999999
 30
0.0
 11
507.220442
 21
287.2626389999999
 31
0.0
  0
LINE
  5
B1CE
330
B16D
100
AcDbEntity
  8
4
  6
CENTER
100
AcDbLine
 10
501.7
 20
136.0626389999999
 30
0.0
 11
501.7
 21
293.78665
 31
0.0
  0
ARC
  5
B1CF
330
B16D
100
AcDbEntity
  8
1
  6
Continuous
100
AcDbCircle
 10
501.7
 20
206.0626389999999
 30
0.0
 40
12.0
100
AcDbArc
 50
191.951536
 51
348.048464
  0
LINE
  5
B1D0
330
B16D
100
AcDbEntity
  8
1
  6
Continuous
100
AcDbLine
 10
453.2
 20
288.7626389999999
 30
0.0
 11
468.2
 21
288.7626389999999
 31
0.0
  0
LINE
  5
B1D1
330
B16D
100
AcDbEntity
  8
1
  6
Continuous
100
AcDbLine
 10
453.2
 20
291.062639
 30
0.0
 11
453.2
 21
288.7626389999999
 31
0.0
  0
LINE
  5
B1D2
330
B16D
100
AcDbEntity
  8
4
  6
CENTER
100
AcDbLine
 10
461.6999999999999
 20
294.342058
 30
0.0
 11
461.6999999999999
 21
285.4635449999999
 31
0.0
  0
ARC
  5
B1D3
330
B16D
100
AcDbEntity
  8
1
  6
Continuous
100
AcDbCircle
 10
173.041258
 20
78.8009
 30
0.0
 40
35.84362
100
AcDbArc
 50
270.0
 51
302.264873
  0
ARC
  5
B1D4
330
B16D
100
AcDbEntity
  8
1
  6
Continuous
100
AcDbCircle
 10
173.041258
 20
56.59909999999999
 30
0.0
 40
35.84362
100
AcDbArc
 50
57.73512700000001
 51
90.0
  0
LINE
  5
B1D5
330
B16D
100
AcDbEntity
  8
4
  6
CENTER
100
AcDbLine
 10
131.6999999999999
 20
67.7
 30
0.0
 11
271.7
 21
67.7
 31
0.0
  0
LINE
  5
B1D6
330
B16D
100
AcDbEntity
  8
1
  6
Continuous
100
AcDbLine
 10
153.2
 20
49.7
 30
0.0
 11
153.2
 21
55.2
 31
0.0
  0
LINE
  5
B1D7
330
B16D
100
AcDbEntity
  8
4
  6
CENTER
100
AcDbLine
 10
161.6999999999999
 20
92.94999999999999
 30
0.0
 11
161.6999999999999
 21
78.45
 31
0.0
  0
ARC
  5
B1D8
330
B16D
100
AcDbEntity
  8
1
  6
Continuous
100
AcDbCircle
 10
161.6999999999999
 20
85.7
 30
0.0
 40
8.5
100
AcDbArc
 50
59.632956
 51
180.0
  0
CIRCLE
  5
B1D9
330
B16D
100
AcDbEntity
  8
1
  6
Continuous
100
AcDbCircle
 10
161.6999999999999
 20
85.7
 30
0.0
 40
4.25
  0
LINE
  5
B1DA
330
B16D
100
AcDbEntity
  8
1
  6
Continuous
100
AcDbLine
 10
169.394868
 20
91.04298900000001
 30
0.0
 11
165.9970689999999
 21
93.033839
 31
0.0
  0
ARC
  5
B1DB
330
B16D
100
AcDbEntity
  8
1
  6
Continuous
100
AcDbCircle
 10
170.658712
 20
93.2
 30
0.0
 40
2.5
100
AcDbArc
 50
239.6329559999998
 51
342.367408
  0
LINE
  5
B1DC
330
B16D
100
AcDbEntity
  8
4
  6
CENTER
100
AcDbLine
 10
154.45
 20
85.7
 30
0.0
 11
168.9499999999999
 21
85.7
 31
0.0
  0
ARC
  5
B1DD
330
B16D
100
AcDbEntity
  8
1
  6
Continuous
100
AcDbCircle
 10
170.658712
 20
42.2
 30
0.0
 40
2.5
100
AcDbArc
 50
17.632592
 51
120.3670439999998
  0
ARC
  5
B1DE
330
B16D
100
AcDbEntity
  8
1
  6
Continuous
100
AcDbCircle
 10
161.6999999999999
 20
49.7
 30
0.0
 40
8.5
100
AcDbArc
 50
180.0
 51
300.367044
  0
LINE
  5
B1DF
330
B16D
100
AcDbEntity
  8
4
  6
CENTER
100
AcDbLine
 10
161.6999999999999
 20
56.95
 30
0.0
 11
161.6999999999999
 21
42.45
 31
0.0
  0
LINE
  5
B1E0
330
B16D
100
AcDbEntity
  8
4
  6
CENTER
100
AcDbLine
 10
154.45
 20
49.7
 30
0.0
 11
168.9499999999999
 21
49.7
 31
0.0
  0
CIRCLE
  5
B1E1
330
B16D
100
AcDbEntity
  8
1
  6
Continuous
100
AcDbCircle
 10
161.6999999999999
 20
49.7
 30
0.0
 40
4.25
  0
LINE
  5
B1E2
330
B16D
100
AcDbEntity
  8
1
  6
Continuous
100
AcDbLine
 10
169.394868
 20
44.35701199999999
 30
0.0
 11
165.9970689999999
 21
42.36616099999999
 31
0.0
  0
ARC
  5
B1E3
330
B16D
100
AcDbEntity
  8
1
  6
Continuous
100
AcDbCircle
 10
241.6999999999999
 20
49.7
 30
0.0
 40
8.5
100
AcDbArc
 50
239.6329559999998
 51
0.0
  0
LINE
  5
B1E4
330
B16D
100
AcDbEntity
  8
4
  6
CENTER
100
AcDbLine
 10
234.45
 20
49.7
 30
0.0
 11
248.95
 21
49.7
 31
0.0
  0
ARC
  5
B1E5
330
B16D
100
AcDbEntity
  8
1
  6
Continuous
100
AcDbCircle
 10
241.6999999999999
 20
85.7
 30
0.0
 40
8.5
100
AcDbArc
 50
0.0
 51
120.3670439999998
  0
CIRCLE
  5
B1E6
330
B16D
100
AcDbEntity
  8
1
  6
Continuous
100
AcDbCircle
 10
241.6999999999999
 20
85.7
 30
0.0
 40
4.25
  0
LINE
  5
B1E7
330
B16D
100
AcDbEntity
  8
4
  6
CENTER
100
AcDbLine
 10
234.45
 20
85.7
 30
0.0
 11
248.95
 21
85.7
 31
0.0
  0
CIRCLE
  5
B1E8
330
B16D
100
AcDbEntity
  8
1
  6
Continuous
100
AcDbCircle
 10
241.6999999999999
 20
49.7
 30
0.0
 40
4.25
  0
LINE
  5
B1E9
330
B16D
100
AcDbEntity
  8
4
  6
CENTER
100
AcDbLine
 10
201.6999999999999
 20
39.25
 30
0.0
 11
201.6999999999999
 21
93.308978
 31
0.0
  0
LINE
  5
B1EA
330
B16D
100
AcDbEntity
  8
1
  6
Continuous
100
AcDbLine
 10
207.2204419999999
 20
85.75000000000001
 30
0.0
 11
196.179558
 21
85.75000000000001
 31
0.0
  0
ARC
  5
B1EB
330
B16D
100
AcDbEntity
  8
1
  6
Continuous
100
AcDbCircle
 10
196.179558
 20
93.25000000000001
 30
0.0
 40
7.5
100
AcDbArc
 50
237.735127
 51
270.0
  0
ARC
  5
B1EC
330
B16D
100
AcDbEntity
  8
1
  6
Continuous
100
AcDbCircle
 10
230.358741
 20
56.59909999999999
 30
0.0
 40
35.84362
100
AcDbArc
 50
90.0
 51
122.2648729999998
  0
LINE
  5
B1ED
330
B16D
100
AcDbEntity
  8
1
  6
Continuous
100
AcDbLine
 10
234.005131
 20
91.04298900000001
 30
0.0
 11
237.4029299999999
 21
93.033839
 31
0.0
  0
ARC
  5
B1EE
330
B16D
100
AcDbEntity
  8
1
  6
Continuous
100
AcDbCircle
 10
232.741288
 20
93.2
 30
0.0
 40
2.5
100
AcDbArc
 50
197.6325919999999
 51
300.367044
  0
ARC
  5
B1EF
330
B16D
100
AcDbEntity
  8
1
  6
Continuous
100
AcDbCircle
 10
207.2204419999999
 20
93.25000000000001
 30
0.0
 40
7.5
100
AcDbArc
 50
270.0
 51
302.264873
  0
LINE
  5
B1F0
330
B16D
100
AcDbEntity
  8
1
  6
Continuous
100
AcDbLine
 10
207.2204419999999
 20
49.64999999999999
 30
0.0
 11
196.179558
 21
49.64999999999999
 31
0.0
  0
ARC
  5
B1F1
330
B16D
100
AcDbEntity
  8
1
  6
Continuous
100
AcDbCircle
 10
196.179558
 20
42.14999999999998
 30
0.0
 40
7.5
100
AcDbArc
 50
90.0
 51
122.2648729999998
  0
ARC
  5
B1F2
330
B16D
100
AcDbEntity
  8
1
  6
Continuous
100
AcDbCircle
 10
232.741288
 20
42.2
 30
0.0
 40
2.5
100
AcDbArc
 50
59.632956
 51
162.367408
  0
ARC
  5
B1F3
330
B16D
100
AcDbEntity
  8
1
  6
Continuous
100
AcDbCircle
 10
230.358741
 20
78.8009
 30
0.0
 40
35.84362
100
AcDbArc
 50
237.735127
 51
270.0
  0
ARC
  5
B1F4
330
B16D
100
AcDbEntity
  8
1
  6
Continuous
100
AcDbCircle
 10
207.2204419999999
 20
42.14999999999998
 30
0.0
 40
7.5
100
AcDbArc
 50
57.73512700000001
 51
90.0
  0
LINE
  5
B1F5
330
B16D
100
AcDbEntity
  8
1
  6
Continuous
100
AcDbLine
 10
234.005131
 20
44.35701199999999
 30
0.0
 11
237.4029299999999
 21
42.36616099999999
 31
0.0
  0
LINE
  5
B1F6
330
B16D
100
AcDbEntity
  8
1
  6
Continuous
100
AcDbLine
 10
250.1999999999999
 20
49.7
 30
0.0
 11
250.1999999999999
 21
55.2
 31
0.0
  0
LINE
  5
B1F7
330
B16D
100
AcDbEntity
  8
4
  6
CENTER
100
AcDbLine
 10
241.6999999999999
 20
92.94999999999999
 30
0.0
 11
241.6999999999999
 21
78.45
 31
0.0
  0
LINE
  5
B1F8
330
B16D
100
AcDbEntity
  8
4
  6
CENTER
100
AcDbLine
 10
241.6999999999999
 20
56.95
 30
0.0
 11
241.6999999999999
 21
42.45
 31
0.0
  0
CIRCLE
  5
B1F9
330
B16D
100
AcDbEntity
  8
1
  6
Continuous
100
AcDbCircle
 10
501.7
 20
206.0626389999999
 30
0.0
 40
4.0
  0
CIRCLE
  5
B1FA
330
B16D
100
AcDbEntity
  8
2
  6
Continuous
100
AcDbCircle
 10
501.7
 20
206.0626389999999
 30
0.0
 40
3.3235
  0
CIRCLE
  5
B1FB
330
B16D
100
AcDbEntity
  8
1
  6
Continuous
100
AcDbCircle
 10
501.7
 20
206.0626389999999
 30
0.0
 40
7.7
  0
LINE
  5
B1FC
330
B16D
100
AcDbEntity
  8
1
  6
Continuous
100
AcDbLine
 10
250.1999999999999
 20
80.20000000000001
 30
0.0
 11
250.1999999999999
 21
85.7
 31
0.0
  0
LINE
  5
B1FD
330
B16D
100
AcDbEntity
  8
1
  6
Continuous
100
AcDbLine
 10
153.2
 20
80.20000000000001
 30
0.0
 11
153.2
 21
85.7
 31
0.0
  0
LINE
  5
B1FE
330
B16D
100
AcDbEntity
  8
1
  6
Continuous
100
AcDbLine
 10
207.2204419999999
 20
83.45
 30
0.0
 11
196.179558
 21
83.45
 31
0.0
  0
ARC
  5
B1FF
330
B16D
100
AcDbEntity
  8
1
  6
Continuous
100
AcDbCircle
 10
233.0450879999999
 20
50.878586
 30
0.0
 40
39.822573
100
AcDbArc
 50
90.43710500000001
 51
121.1393049999999
  0
ARC
  5
B200
330
B16D
100
AcDbEntity
  8
1
  6
Continuous
100
AcDbCircle
 10
207.2204419999999
 20
93.25000000000001
 30
0.0
 40
9.8
100
AcDbArc
 50
270.0
 51
302.264873
  0
ARC
  5
B201
330
B16D
100
AcDbEntity
  8
1
  6
Continuous
100
AcDbCircle
 10
196.179558
 20
93.25000000000001
 30
0.0
 40
9.8
100
AcDbArc
 50
237.735127
 51
270.0
  0
ARC
  5
B202
330
B16D
100
AcDbEntity
  8
1
  6
Continuous
100
AcDbCircle
 10
170.1587519999999
 20
50.18482999999999
 30
0.0
 40
40.51825499999997
100
AcDbArc
 50
59.130587
 51
89.293002
  0
ARC
  5
B203
330
B16D
100
AcDbEntity
  8
1
  6
Continuous
100
AcDbCircle
 10
233.0450879999999
 20
84.52141399999998
 30
0.0
 40
39.822573
100
AcDbArc
 50
238.8606949999999
 51
269.562895
  0
ARC
  5
B204
330
B16D
100
AcDbEntity
  8
1
  6
Continuous
100
AcDbCircle
 10
207.2204419999999
 20
42.14999999999998
 30
0.0
 40
9.8
100
AcDbArc
 50
57.73512700000001
 51
90.0
  0
LINE
  5
B205
330
B16D
100
AcDbEntity
  8
1
  6
Continuous
100
AcDbLine
 10
207.2204419999999
 20
51.95
 30
0.0
 11
196.179558
 21
51.95
 31
0.0
  0
ARC
  5
B206
330
B16D
100
AcDbEntity
  8
1
  6
Continuous
100
AcDbCircle
 10
196.179558
 20
42.14999999999998
 30
0.0
 40
9.8
100
AcDbArc
 50
90.0
 51
122.2648729999998
  0
ARC
  5
B207
330
B16D
100
AcDbEntity
  8
1
  6
Continuous
100
AcDbCircle
 10
170.1587519999999
 20
85.21517000000001
 30
0.0
 40
40.51825499999997
100
AcDbArc
 50
270.7069979999999
 51
300.869413
  0
LINE
  5
B208
330
B16D
100
AcDbEntity
  8
1
  6
Continuous
100
AcDbLine
 10
495.6999999999998
 20
209.5267409999999
 30
0.0
 11
495.6999999999998
 21
202.5985369999999
 31
0.0
  0
LINE
  5
B209
330
B16D
100
AcDbEntity
  8
1
  6
Continuous
100
AcDbLine
 10
507.6999999999999
 20
209.5267409999999
 30
0.0
 11
507.6999999999999
 21
202.5985369999999
 31
0.0
  0
CIRCLE
  5
B20A
330
B16D
100
AcDbEntity
  8
1
  6
Continuous
100
AcDbCircle
 10
501.7
 20
206.0626389999999
 30
0.0
 40
6.0
  0
LINE
  5
B20B
330
B16D
100
AcDbEntity
  8
1
  6
Continuous
100
AcDbLine
 10
501.7
 20
199.134436
 30
0.0
 11
507.6999999999999
 21
202.5985369999999
 31
0.0
  0
LINE
  5
B20C
330
B16D
100
AcDbEntity
  8
1
  6
Continuous
100
AcDbLine
 10
501.7
 20
199.134436
 30
0.0
 11
495.6999999999998
 21
202.5985369999999
 31
0.0
  0
LINE
  5
B20D
330
B16D
100
AcDbEntity
  8
1
  6
Continuous
100
AcDbLine
 10
507.6999999999999
 20
209.5267409999999
 30
0.0
 11
501.7
 21
212.990842
 31
0.0
  0
LINE
  5
B20E
330
B16D
100
AcDbEntity
  8
1
  6
Continuous
100
AcDbLine
 10
495.6999999999998
 20
209.5267409999999
 30
0.0
 11
501.7
 21
212.990842
 31
0.0
  0
ARC
  5
B20F
330
B16D
100
AcDbEntity
  8
1
  6
Continuous
100
AcDbCircle
 10
198.6999999999999
 20
380.8102139999999
 30
0.0
 40
8.665063999999999
100
AcDbArc
 50
69.743842
 51
110.256158
  0
ARC
  5
B210
330
B16D
100
AcDbEntity
  8
1
  6
Continuous
100
AcDbCircle
 10
198.6999999999999
 20
393.1403419999999
 30
0.0
 40
8.665063999999999
100
AcDbArc
 50
249.7438419999999
 51
290.256158
  0
LINE
  5
B211
330
B16D
100
AcDbEntity
  8
1
  6
Continuous
100
AcDbLine
 10
207.6999999999999
 20
389.475278
 30
0.0
 11
195.6999999999999
 21
389.475278
 31
0.0
  0
LINE
  5
B212
330
B16D
100
AcDbEntity
  8
1
  6
Continuous
100
AcDbLine
 10
209.4
 20
384.475278
 30
0.0
 11
194.0
 21
384.475278
 31
0.0
  0
LINE
  5
B213
330
B16D
100
AcDbEntity
  8
1
  6
Continuous
100
AcDbLine
 10
195.6999999999999
 20
384.475278
 30
0.0
 11
195.6999999999999
 21
389.475278
 31
0.0
  0
ARC
  5
B214
330
B16D
100
AcDbEntity
  8
1
  6
Continuous
100
AcDbCircle
 10
204.6999999999999
 20
380.8102139999999
 30
0.0
 40
8.665063999999999
100
AcDbArc
 50
69.743842
 51
110.256158
  0
ARC
  5
B215
330
B16D
100
AcDbEntity
  8
1
  6
Continuous
100
AcDbCircle
 10
204.6999999999999
 20
393.1403419999999
 30
0.0
 40
8.665063999999999
100
AcDbArc
 50
249.7438419999999
 51
290.256158
  0
LINE
  5
B216
330
B16D
100
AcDbEntity
  8
1
  6
Continuous
100
AcDbLine
 10
207.6999999999999
 20
384.475278
 30
0.0
 11
207.6999999999999
 21
389.475278
 31
0.0
  0
LINE
  5
B217
330
B16D
100
AcDbEntity
  8
1
  6
Continuous
100
AcDbLine
 10
201.6999999999999
 20
388.9393799999999
 30
0.0
 11
201.6999999999999
 21
385.0111759999998
 31
0.0
  0
LINE
  5
B218
330
B16D
100
AcDbEntity
  8
1
  6
Continuous
100
AcDbLine
 10
199.6999999999999
 20
384.475278
 30
0.0
 11
201.6999999999999
 21
382.475278
 31
0.0
  0
LINE
  5
B219
330
B16D
100
AcDbEntity
  8
1
  6
Continuous
100
AcDbLine
 10
201.6999999999999
 20
384.475278
 30
0.0
 11
203.6999999999999
 21
382.475278
 31
0.0
  0
ARC
  5
B21A
330
B16D
100
AcDbEntity
  8
1
  6
Continuous
100
AcDbCircle
 10
201.6999999999999
 20
351.8752779999999
 30
0.0
 40
10.5
100
AcDbArc
 50
228.1896849999998
 51
311.810315
  0
LINE
  5
B21B
330
B16D
100
AcDbEntity
  8
1
  6
Continuous
100
AcDbLine
 10
208.6999999999999
 20
344.0490399999998
 30
0.0
 11
194.6999999999999
 21
344.0490399999998
 31
0.0
  0
LINE
  5
B21C
330
B16D
100
AcDbEntity
  8
1
  6
Continuous
100
AcDbLine
 10
194.6999999999999
 20
344.0490399999998
 30
0.0
 11
194.6999999999999
 21
346.22789
 31
0.0
  0
LINE
  5
B21D
330
B16D
100
AcDbEntity
  8
1
  6
Continuous
100
AcDbLine
 10
208.6999999999999
 20
344.0490399999998
 30
0.0
 11
208.6999999999999
 21
346.22789
 31
0.0
  0
LINE
  5
B21E
330
B16D
100
AcDbEntity
  8
4
  6
CENTER
100
AcDbLine
 10
351.6999999999999
 20
294.0626389999998
 30
0.0
 11
351.6999999999999
 21
138.0626389999999
 31
0.0
  0
LINE
  5
B21F
330
B16D
100
AcDbEntity
  8
4
  6
CENTER
100
AcDbLine
 10
369.7
 20
293.567812
 30
0.0
 11
369.7
 21
285.950446
 31
0.0
  0
LINE
  5
B220
330
B16D
100
AcDbEntity
  8
1
  6
Continuous
100
AcDbLine
 10
378.2
 20
291.062639
 30
0.0
 11
378.2
 21
288.7626389999999
 31
0.0
  0
LINE
  5
B221
330
B16D
100
AcDbEntity
  8
4
  6
CENTER
100
AcDbLine
 10
333.6999999999998
 20
293.567812
 30
0.0
 11
333.6999999999998
 21
285.950446
 31
0.0
  0
LINE
  5
B222
330
B16D
100
AcDbEntity
  8
1
  6
Continuous
100
AcDbLine
 10
325.1999999999998
 20
291.062639
 30
0.0
 11
325.1999999999998
 21
288.7626389999999
 31
0.0
  0
LINE
  5
B223
330
B16D
100
AcDbEntity
  8
4
  6
CENTER
100
AcDbLine
 10
326.0910219999999
 20
206.0626389999999
 30
0.0
 11
381.382735
 21
206.0626389999999
 31
0.0
  0
LINE
  5
B224
330
B16D
100
AcDbEntity
  8
1
  6
Continuous
100
AcDbLine
 10
325.1999999999998
 20
288.7626389999999
 30
0.0
 11
378.2
 21
288.7626389999999
 31
0.0
  0
LINE
  5
B225
330
B16D
100
AcDbEntity
  8
1
  6
Continuous
100
AcDbLine
 10
374.1427199999998
 20
286.0626389999998
 30
0.0
 11
374.1427199999998
 21
229.0626389999999
 31
0.0
  0
LINE
  5
B226
330
B16D
100
AcDbEntity
  8
1
  6
Continuous
100
AcDbLine
 10
376.44272
 20
286.0626389999998
 30
0.0
 11
376.44272
 21
229.0626389999999
 31
0.0
  0
LINE
  5
B227
330
B16D
100
AcDbEntity
  8
1
  6
Continuous
100
AcDbLine
 10
367.45
 20
194.062639
 30
0.0
 11
367.45
 21
287.2626389999999
 31
0.0
  0
LINE
  5
B228
330
B16D
100
AcDbEntity
  8
1
  6
Continuous
100
AcDbLine
 10
371.069208
 20
198.3626389999998
 30
0.0
 11
371.75
 21
198.3626389999998
 31
0.0
  0
ARC
  5
B229
330
B16D
100
AcDbEntity
  8
1
  6
Continuous
100
AcDbCircle
 10
343.66122
 20
211.856648
 30
0.0
 40
30.549731
100
AcDbArc
 50
331.8520689999999
 51
345.218992
  0
ARC
  5
B22A
330
B16D
100
AcDbEntity
  8
1
  6
Continuous
100
AcDbCircle
 10
278.451641
 20
229.0626389999999
 30
0.0
 40
95.69107800000001
100
AcDbArc
 50
345.218992
 51
0.0
  0
ARC
  5
B22B
330
B16D
100
AcDbEntity
  8
1
  6
Continuous
100
AcDbCircle
 10
278.451641
 20
229.0626389999999
 30
0.0
 40
97.99107800000001
100
AcDbArc
 50
345.218992
 51
0.0
  0
LINE
  5
B22C
330
B16D
100
AcDbEntity
  8
1
  6
Continuous
100
AcDbLine
 10
375.115744
 20
212.990842
 30
0.0
 11
376.214102
 21
212.990842
 31
0.0
  0
LINE
  5
B22D
330
B16D
100
AcDbEntity
  8
1
  6
Continuous
100
AcDbLine
 10
374.4755969999998
 20
209.5267409999999
 30
0.0
 11
376.214102
 21
209.5267409999999
 31
0.0
  0
LINE
  5
B22E
330
B16D
100
AcDbEntity
  8
1
  6
Continuous
100
AcDbLine
 10
372.774335
 20
202.5985369999999
 30
0.0
 11
376.214102
 21
202.5985369999999
 31
0.0
  0
ARC
  5
B22F
330
B16D
100
AcDbEntity
  8
1
  6
Continuous
100
AcDbCircle
 10
374.8169869999999
 20
200.866487
 30
0.0
 40
3.066986999999998
100
AcDbArc
 50
194.7809239999999
 51
205.615753
  0
LINE
  5
B230
330
B16D
100
AcDbEntity
  8
1
  6
Continuous
100
AcDbLine
 10
376.214102
 20
199.134436
 30
0.0
 11
376.75
 21
200.0626389999999
 31
0.0
  0
LINE
  5
B231
330
B16D
100
AcDbEntity
  8
1
  6
Continuous
100
AcDbLine
 10
372.2858979999998
 20
199.134436
 30
0.0
 11
371.8035529999998
 21
199.9698829999999
 31
0.0
  0
LINE
  5
B232
330
B16D
100
AcDbEntity
  8
1
  6
Continuous
100
AcDbLine
 10
372.2858979999998
 20
199.134436
 30
0.0
 11
376.214102
 21
199.134436
 31
0.0
  0
ARC
  5
B233
330
B16D
100
AcDbEntity
  8
1
  6
Continuous
100
AcDbCircle
 10
373.683013
 20
200.866487
 30
0.0
 40
3.066986999999998
100
AcDbArc
 50
334.384247
 51
34.38424699999998
  0
ARC
  5
B234
330
B16D
100
AcDbEntity
  8
1
  6
Continuous
100
AcDbCircle
 10
373.683013
 20
211.258791
 30
0.0
 40
3.066986999999998
100
AcDbArc
 50
325.6157529999999
 51
25.615753
  0
LINE
  5
B235
330
B16D
100
AcDbEntity
  8
1
  6
Continuous
100
AcDbLine
 10
376.214102
 20
212.990842
 30
0.0
 11
376.75
 21
212.0626389999999
 31
0.0
  0
ARC
  5
B236
330
B16D
100
AcDbEntity
  8
1
  6
Continuous
100
AcDbCircle
 10
365.2858979999999
 20
206.0626389999999
 30
0.0
 40
11.464102
100
AcDbArc
 50
342.4120459999999
 51
17.587954
  0
LINE
  5
B237
330
B16D
100
AcDbEntity
  8
1
  6
Continuous
100
AcDbLine
 10
376.75
 20
200.0626389999999
 30
0.0
 11
376.75
 21
212.0626389999999
 31
0.0
  0
LINE
  5
B238
330
B16D
100
AcDbEntity
  8
1
  6
Continuous
100
AcDbLine
 10
371.75
 20
199.843884
 30
0.0
 11
371.75
 21
198.3626389999998
 31
0.0
  0
LINE
  5
B239
330
B16D
100
AcDbEntity
  8
1
  6
Continuous
100
AcDbLine
 10
376.75
 20
202.0626389999999
 30
0.0
 11
377.55
 21
202.0626389999999
 31
0.0
  0
LINE
  5
B23A
330
B16D
100
AcDbEntity
  8
2
  6
Continuous
100
AcDbLine
 10
376.75
 20
202.739139
 30
0.0
 11
378.1499999999998
 21
202.739139
 31
0.0
  0
LINE
  5
B23B
330
B16D
100
AcDbEntity
  8
1
  6
Continuous
100
AcDbLine
 10
378.1499999999998
 20
202.6626389999999
 30
0.0
 11
377.55
 21
202.0626389999999
 31
0.0
  0
LINE
  5
B23C
330
B16D
100
AcDbEntity
  8
2
  6
Continuous
100
AcDbLine
 10
376.75
 20
209.3861389999999
 30
0.0
 11
378.1499999999998
 21
209.3861389999999
 31
0.0
  0
LINE
  5
B23D
330
B16D
100
AcDbEntity
  8
1
  6
Continuous
100
AcDbLine
 10
376.75
 20
210.0626389999999
 30
0.0
 11
377.55
 21
210.0626389999999
 31
0.0
  0
LINE
  5
B23E
330
B16D
100
AcDbEntity
  8
1
  6
Continuous
100
AcDbLine
 10
378.1499999999998
 20
209.462639
 30
0.0
 11
377.55
 21
210.0626389999999
 31
0.0
  0
LINE
  5
B23F
330
B16D
100
AcDbEntity
  8
1
  6
Continuous
100
AcDbLine
 10
377.55
 20
202.0626389999999
 30
0.0
 11
377.55
 21
210.0626389999999
 31
0.0
  0
LINE
  5
B240
330
B16D
100
AcDbEntity
  8
1
  6
Continuous
100
AcDbLine
 10
378.1499999999998
 20
209.462639
 30
0.0
 11
378.1499999999998
 21
202.6626389999999
 31
0.0
  0
ARC
  5
B241
330
B16D
100
AcDbEntity
  8
1
  6
Continuous
100
AcDbCircle
 10
376.919444
 20
194.062639
 30
0.0
 40
9.469443999999999
100
AcDbArc
 50
151.852069
 51
180.0
  0
ARC
  5
B242
330
B16D
100
AcDbEntity
  8
1
  6
Continuous
100
AcDbCircle
 10
376.919444
 20
194.062639
 30
0.0
 40
7.169444
100
AcDbArc
 50
151.852069
 51
180.0
  0
LINE
  5
B243
330
B16D
100
AcDbEntity
  8
1
  6
Continuous
100
AcDbLine
 10
367.45
 20
194.062639
 30
0.0
 11
369.75
 21
194.062639
 31
0.0
  0
ARC
  5
B244
330
B16D
100
AcDbEntity
  8
1
  6
Continuous
100
AcDbCircle
 10
343.66122
 20
211.856648
 30
0.0
 40
28.249731
100
AcDbArc
 50
331.8520689999999
 51
345.218992
  0
ARC
  5
B245
330
B16D
100
AcDbEntity
  8
1
  6
Continuous
100
AcDbCircle
 10
371.44272
 20
286.0626389999998
 30
0.0
 40
2.7
100
AcDbArc
 50
0.0
 51
90.0
  0
ARC
  5
B246
330
B16D
100
AcDbEntity
  8
1
  6
Continuous
100
AcDbCircle
 10
371.44272
 20
286.0626389999998
 30
0.0
 40
5.0
100
AcDbArc
 50
0.0
 51
32.683639
  0
ARC
  5
B247
330
B16D
100
AcDbEntity
  8
1
  6
Continuous
100
AcDbCircle
 10
365.9499999999999
 20
287.2626389999999
 30
0.0
 40
1.5
100
AcDbArc
 50
0.0
 51
90.0
  0
LINE
  5
B248
330
B16D
100
AcDbEntity
  8
1
  6
Continuous
100
AcDbLine
 10
329.2572799999998
 20
286.0626389999998
 30
0.0
 11
329.2572799999998
 21
229.0626389999999
 31
0.0
  0
LINE
  5
B249
330
B16D
100
AcDbEntity
  8
1
  6
Continuous
100
AcDbLine
 10
326.9572799999999
 20
286.0626389999998
 30
0.0
 11
326.9572799999999
 21
229.0626389999999
 31
0.0
  0
LINE
  5
B24A
330
B16D
100
AcDbEntity
  8
1
  6
Continuous
100
AcDbLine
 10
335.95
 20
194.062639
 30
0.0
 11
335.95
 21
287.2626389999999
 31
0.0
  0
ARC
  5
B24B
330
B16D
100
AcDbEntity
  8
1
  6
Continuous
100
AcDbCircle
 10
424.9483589999998
 20
229.0626389999999
 30
0.0
 40
95.69107800000001
100
AcDbArc
 50
180.0
 51
194.781008
  0
ARC
  5
B24C
330
B16D
100
AcDbEntity
  8
1
  6
Continuous
100
AcDbCircle
 10
424.9483589999998
 20
229.0626389999999
 30
0.0
 40
97.99107800000001
100
AcDbArc
 50
180.0
 51
194.781008
  0
LINE
  5
B24D
330
B16D
100
AcDbEntity
  8
1
  6
Continuous
100
AcDbLine
 10
331.3237619999998
 20
199.0626389999999
 30
0.0
 11
331.997125
 21
199.0626389999999
 31
0.0
  0
LINE
  5
B24E
330
B16D
100
AcDbEntity
  8
1
  6
Continuous
100
AcDbLine
 10
331.3237619999998
 20
200.637342
 30
0.0
 11
331.3237619999998
 21
199.0626389999999
 31
0.0
  0
ARC
  5
B24F
330
B16D
100
AcDbEntity
  8
1
  6
Continuous
100
AcDbCircle
 10
339.1499999999999
 20
206.0626389999999
 30
0.0
 40
10.5
100
AcDbArc
 50
164.1678149999999
 51
221.810315
  0
ARC
  5
B250
330
B16D
100
AcDbEntity
  8
1
  6
Continuous
100
AcDbCircle
 10
326.4805559999999
 20
194.062639
 30
0.0
 40
9.469443999999999
100
AcDbArc
 50
0.0
 51
28.147931
  0
LINE
  5
B251
330
B16D
100
AcDbEntity
  8
1
  6
Continuous
100
AcDbLine
 10
335.95
 20
194.062639
 30
0.0
 11
333.65
 21
194.062639
 31
0.0
  0
ARC
  5
B252
330
B16D
100
AcDbEntity
  8
1
  6
Continuous
100
AcDbCircle
 10
326.4805559999999
 20
194.062639
 30
0.0
 40
7.169444
100
AcDbArc
 50
0.0
 51
28.147931
  0
ARC
  5
B253
330
B16D
100
AcDbEntity
  8
1
  6
Continuous
100
AcDbCircle
 10
359.7387799999999
 20
211.856648
 30
0.0
 40
28.249731
100
AcDbArc
 50
194.781008
 51
208.147931
  0
ARC
  5
B254
330
B16D
100
AcDbEntity
  8
1
  6
Continuous
100
AcDbCircle
 10
359.7387799999999
 20
211.856648
 30
0.0
 40
30.549731
100
AcDbArc
 50
194.781008
 51
208.147931
  0
ARC
  5
B255
330
B16D
100
AcDbEntity
  8
1
  6
Continuous
100
AcDbCircle
 10
337.4499999999998
 20
287.2626389999999
 30
0.0
 40
1.5
100
AcDbArc
 50
90.0
 51
180.0
  0
ARC
  5
B256
330
B16D
100
AcDbEntity
  8
1
  6
Continuous
100
AcDbCircle
 10
331.9572799999999
 20
286.0626389999998
 30
0.0
 40
2.7
100
AcDbArc
 50
90.0
 51
180.0
  0
ARC
  5
B257
330
B16D
100
AcDbEntity
  8
1
  6
Continuous
100
AcDbCircle
 10
331.9572799999999
 20
286.0626389999998
 30
0.0
 40
5.0
100
AcDbArc
 50
147.316361
 51
180.0
  0
LINE
  5
B258
330
B16D
100
AcDbEntity
  8
1
  6
Continuous
100
AcDbLine
 10
325.1999999999998
 20
291.062639
 30
0.0
 11
378.2
 21
291.062639
 31
0.0
  0
LINE
  5
B259
330
B16D
100
AcDbEntity
  8
1
  6
Continuous
100
AcDbLine
 10
208.6999999999999
 20
88.076238
 30
0.0
 11
194.6999999999999
 21
88.076238
 31
0.0
  0
ARC
  5
B25A
330
B16D
100
AcDbEntity
  8
1
  6
Continuous
100
AcDbCircle
 10
201.6999999999999
 20
80.25
 30
0.0
 40
10.5
100
AcDbArc
 50
48.189685
 51
131.810315
  0
LINE
  5
B25B
330
B16D
100
AcDbEntity
  8
1
  6
Continuous
100
AcDbLine
 10
194.6999999999999
 20
88.076238
 30
0.0
 11
194.6999999999999
 21
85.89738800000002
 31
0.0
  0
LINE
  5
B25C
330
B16D
100
AcDbEntity
  8
1
  6
Continuous
100
AcDbLine
 10
208.6999999999999
 20
88.076238
 30
0.0
 11
208.6999999999999
 21
85.89738800000002
 31
0.0
  0
ARC
  5
B25D
330
B16D
100
AcDbEntity
  8
1
  6
Continuous
100
AcDbCircle
 10
204.6999999999999
 20
38.984936
 30
0.0
 40
8.665063999999999
100
AcDbArc
 50
69.743842
 51
110.256158
  0
ARC
  5
B25E
330
B16D
100
AcDbEntity
  8
1
  6
Continuous
100
AcDbCircle
 10
204.6999999999999
 20
51.315064
 30
0.0
 40
8.665063999999999
100
AcDbArc
 50
249.7438419999999
 51
290.256158
  0
LINE
  5
B25F
330
B16D
100
AcDbEntity
  8
1
  6
Continuous
100
AcDbLine
 10
209.4
 20
47.64999999999999
 30
0.0
 11
194.0
 21
47.64999999999999
 31
0.0
  0
LINE
  5
B260
330
B16D
100
AcDbEntity
  8
1
  6
Continuous
100
AcDbLine
 10
207.6999999999999
 20
42.64999999999999
 30
0.0
 11
195.6999999999999
 21
42.64999999999999
 31
0.0
  0
LINE
  5
B261
330
B16D
100
AcDbEntity
  8
2
  6
Continuous
100
AcDbLine
 10
205.0235
 20
42.64999999999999
 30
0.0
 11
205.0235
 21
41.25
 31
0.0
  0
LINE
  5
B262
330
B16D
100
AcDbEntity
  8
1
  6
Continuous
100
AcDbLine
 10
205.6999999999999
 20
42.64999999999999
 30
0.0
 11
205.6999999999999
 21
41.85
 31
0.0
  0
LINE
  5
B263
330
B16D
100
AcDbEntity
  8
1
  6
Continuous
100
AcDbLine
 10
205.1
 20
41.25
 30
0.0
 11
205.6999999999999
 21
41.85
 31
0.0
  0
LINE
  5
B264
330
B16D
100
AcDbEntity
  8
1
  6
Continuous
100
AcDbLine
 10
197.6999999999999
 20
41.85
 30
0.0
 11
205.6999999999999
 21
41.85
 31
0.0
  0
LINE
  5
B265
330
B16D
100
AcDbEntity
  8
1
  6
Continuous
100
AcDbLine
 10
205.1
 20
41.25
 30
0.0
 11
198.3
 21
41.25
 31
0.0
  0
LINE
  5
B266
330
B16D
100
AcDbEntity
  8
1
  6
Continuous
100
AcDbLine
 10
201.6999999999999
 20
47.64999999999999
 30
0.0
 11
199.6999999999999
 21
49.64999999999999
 31
0.0
  0
LINE
  5
B267
330
B16D
100
AcDbEntity
  8
1
  6
Continuous
100
AcDbLine
 10
203.6999999999999
 20
47.64999999999999
 30
0.0
 11
201.6999999999999
 21
49.64999999999999
 31
0.0
  0
LINE
  5
B268
330
B16D
100
AcDbEntity
  8
1
  6
Continuous
100
AcDbLine
 10
201.6999999999999
 20
43.185898
 30
0.0
 11
201.6999999999999
 21
47.114102
 31
0.0
  0
LINE
  5
B269
330
B16D
100
AcDbEntity
  8
1
  6
Continuous
100
AcDbLine
 10
195.6999999999999
 20
47.64999999999999
 30
0.0
 11
195.6999999999999
 21
42.64999999999999
 31
0.0
  0
ARC
  5
B26A
330
B16D
100
AcDbEntity
  8
1
  6
Continuous
100
AcDbCircle
 10
198.6999999999999
 20
38.984936
 30
0.0
 40
8.665063999999999
100
AcDbArc
 50
69.743842
 51
110.256158
  0
ARC
  5
B26B
330
B16D
100
AcDbEntity
  8
1
  6
Continuous
100
AcDbCircle
 10
198.6999999999999
 20
51.315064
 30
0.0
 40
8.665063999999999
100
AcDbArc
 50
249.7438419999999
 51
290.256158
  0
LINE
  5
B26C
330
B16D
100
AcDbEntity
  8
1
  6
Continuous
100
AcDbLine
 10
194.0
 20
49.32631699999999
 30
0.0
 11
194.0
 21
47.64999999999999
 31
0.0
  0
LINE
  5
B26D
330
B16D
100
AcDbEntity
  8
1
  6
Continuous
100
AcDbLine
 10
207.6999999999999
 20
47.64999999999999
 30
0.0
 11
207.6999999999999
 21
42.64999999999999
 31
0.0
  0
LINE
  5
B26E
330
B16D
100
AcDbEntity
  8
1
  6
Continuous
100
AcDbLine
 10
209.4
 20
49.32631699999999
 30
0.0
 11
209.4
 21
47.64999999999999
 31
0.0
  0
LINE
  5
B26F
330
B16D
100
AcDbEntity
  8
2
  6
Continuous
100
AcDbLine
 10
198.3765
 20
42.64999999999999
 30
0.0
 11
198.3765
 21
41.25
 31
0.0
  0
LINE
  5
B270
330
B16D
100
AcDbEntity
  8
1
  6
Continuous
100
AcDbLine
 10
197.6999999999999
 20
42.64999999999999
 30
0.0
 11
197.6999999999999
 21
41.85
 31
0.0
  0
LINE
  5
B271
330
B16D
100
AcDbEntity
  8
1
  6
Continuous
100
AcDbLine
 10
198.3
 20
41.25
 30
0.0
 11
197.6999999999999
 21
41.85
 31
0.0
  0
ARC
  5
B272
330
B16D
100
AcDbEntity
  8
1
  6
Continuous
100
AcDbCircle
 10
501.7
 20
206.0626389999999
 30
0.0
 40
65.0
100
AcDbArc
 50
112.590246
 51
67.409754
  0
ARC
  5
B273
330
B16D
100
AcDbEntity
  8
1
  6
Continuous
100
AcDbCircle
 10
501.7
 20
206.0626389999999
 30
0.0
 40
40.6
100
AcDbArc
 50
119.143047
 51
60.85695300000002
  0
ARC
  5
B274
330
B16D
100
AcDbEntity
  8
1
  6
Continuous
100
AcDbCircle
 10
501.7
 20
206.0626389999999
 30
0.0
 40
30.89999999999999
100
AcDbArc
 50
124.8033769999998
 51
55.196623
  0
ARC
  5
B275
330
B16D
100
AcDbEntity
  8
1
  6
Continuous
100
AcDbCircle
 10
501.7
 20
206.0626389999999
 30
0.0
 40
53.25
100
AcDbArc
 50
114.9751209999998
 51
65.02487900000001
  0
ARC
  5
B276
330
B16D
100
AcDbEntity
  8
1
  6
Continuous
100
AcDbCircle
 10
522.5663759999998
 20
234.7827419999999
 30
0.0
 40
3.9
100
AcDbArc
 50
218.816937
 51
117.2799909999999
  0
CIRCLE
  5
B277
330
B16D
100
AcDbEntity
  8
1
  6
Continuous
100
AcDbCircle
 10
501.7
 20
170.5626389999999
 30
0.0
 40
3.9
  0
CIRCLE
  5
B278
330
B16D
100
AcDbEntity
  8
1
  6
Continuous
100
AcDbCircle
 10
467.9374929999998
 20
195.092535
 30
0.0
 40
3.9
  0
ARC
  5
B279
330
B16D
100
AcDbEntity
  8
1
  6
Continuous
100
AcDbCircle
 10
480.833623
 20
234.7827419999999
 30
0.0
 40
3.9
100
AcDbArc
 50
62.71999100000001
 51
321.1830819999998
  0
LINE
  5
B27A
330
B16D
100
AcDbEntity
  8
1
  6
Continuous
100
AcDbLine
 10
260.5167999999998
 20
55.2
 30
0.0
 11
142.8831989999999
 21
55.2
 31
0.0
  0
CIRCLE
  5
B27B
330
B16D
100
AcDbEntity
  8
1
  6
Continuous
100
AcDbCircle
 10
535.462506
 20
195.092535
 30
0.0
 40
3.9
  0
ARC
  5
B27C
330
B16D
100
AcDbEntity
  8
1
  6
Continuous
100
AcDbCircle
 10
196.0753829999999
 20
95.039703
 30
0.0
 40
41.647251
100
AcDbArc
 50
258.090591
 51
265.4362959999999
  0
ARC
  5
B27D
330
B16D
100
AcDbEntity
  8
1
  6
Continuous
100
AcDbCircle
 10
207.3246169999999
 20
95.039703
 30
0.0
 40
41.647251
100
AcDbArc
 50
274.5637039999999
 51
281.9094089999999
  0
ARC
  5
B27E
330
B16D
100
AcDbEntity
  8
1
  6
Continuous
100
AcDbCircle
 10
209.642222
 20
84.05082
 30
0.0
 40
30.41662999999999
100
AcDbArc
 50
281.9094089999999
 51
288.4642839999999
  0
ARC
  5
B27F
330
B16D
100
AcDbEntity
  8
1
  6
Continuous
100
AcDbCircle
 10
194.1999999999999
 20
53.95
 30
0.0
 40
1.5
100
AcDbArc
 50
196.479331
 51
270.0
  0
LINE
  5
B280
330
B16D
100
AcDbEntity
  8
1
  6
Continuous
100
AcDbLine
 10
210.6383829999999
 20
53.52449599999999
 30
0.0
 11
192.761617
 21
53.52449599999999
 31
0.0
  0
LINE
  5
B281
330
B16D
100
AcDbEntity
  8
1
  6
Continuous
100
AcDbLine
 10
209.2
 20
52.45
 30
0.0
 11
194.1999999999999
 21
52.45
 31
0.0
  0
ARC
  5
B282
330
B16D
100
AcDbEntity
  8
1
  6
Continuous
100
AcDbCircle
 10
209.2
 20
53.95
 30
0.0
 40
1.5
100
AcDbArc
 50
270.0
 51
343.520669
  0
LINE
  5
B283
330
B16D
100
AcDbEntity
  8
1
  6
Continuous
100
AcDbLine
 10
207.1999969999999
 20
52.45
 30
0.0
 11
207.200003
 21
51.95
 31
0.0
  0
LINE
  5
B284
330
B16D
100
AcDbEntity
  8
1
  6
Continuous
100
AcDbLine
 10
196.200003
 20
52.45
 30
0.0
 11
196.1999969999999
 21
51.95
 31
0.0
  0
ARC
  5
B285
330
B16D
100
AcDbEntity
  8
1
  6
Continuous
100
AcDbCircle
 10
193.757777
 20
84.05082
 30
0.0
 40
30.41662999999999
100
AcDbArc
 50
251.535716
 51
258.090591
  0
ARC
  5
B286
330
B16D
100
AcDbEntity
  8
1
  6
Continuous
100
AcDbCircle
 10
166.6999999999999
 20
67.8
 30
0.0
 40
30.0
100
AcDbArc
 50
162.782489
 51
197.698012
  0
LINE
  5
B287
330
B16D
100
AcDbEntity
  8
1
  6
Continuous
100
AcDbLine
 10
260.5167999999998
 20
80.20000000000001
 30
0.0
 11
142.8203019999999
 21
80.20000000000001
 31
0.0
  0
ARC
  5
B288
330
B16D
100
AcDbEntity
  8
1
  6
Continuous
100
AcDbCircle
 10
196.0753829999999
 20
40.36029599999999
 30
0.0
 40
41.647251
100
AcDbArc
 50
94.563704
 51
101.909409
  0
ARC
  5
B289
330
B16D
100
AcDbEntity
  8
1
  6
Continuous
100
AcDbCircle
 10
207.3246169999999
 20
40.36029599999999
 30
0.0
 40
41.647251
100
AcDbArc
 50
78.090591
 51
85.436296
  0
ARC
  5
B28A
330
B16D
100
AcDbEntity
  8
1
  6
Continuous
100
AcDbCircle
 10
209.642222
 20
51.349179
 30
0.0
 40
30.41662999999999
100
AcDbArc
 50
71.53571600000002
 51
78.090591
  0
ARC
  5
B28B
330
B16D
100
AcDbEntity
  8
1
  6
Continuous
100
AcDbCircle
 10
194.1999999999999
 20
81.45000000000001
 30
0.0
 40
1.5
100
AcDbArc
 50
90.0
 51
163.5206689999999
  0
LINE
  5
B28C
330
B16D
100
AcDbEntity
  8
1
  6
Continuous
100
AcDbLine
 10
210.6383829999999
 20
81.87550400000002
 30
0.0
 11
192.761621
 21
81.87550400000002
 31
0.0
  0
LINE
  5
B28D
330
B16D
100
AcDbEntity
  8
1
  6
Continuous
100
AcDbLine
 10
209.2
 20
82.94999999999998
 30
0.0
 11
194.1999999999999
 21
82.94999999999998
 31
0.0
  0
ARC
  5
B28E
330
B16D
100
AcDbEntity
  8
1
  6
Continuous
100
AcDbCircle
 10
209.2
 20
81.45000000000001
 30
0.0
 40
1.5
100
AcDbArc
 50
16.47933099999999
 51
90.0
  0
LINE
  5
B28F
330
B16D
100
AcDbEntity
  8
1
  6
Continuous
100
AcDbLine
 10
207.1999969999999
 20
82.94999999999998
 30
0.0
 11
207.200003
 21
83.45
 31
0.0
  0
LINE
  5
B290
330
B16D
100
AcDbEntity
  8
1
  6
Continuous
100
AcDbLine
 10
196.200003
 20
82.94999999999998
 30
0.0
 11
196.1999969999999
 21
83.45
 31
0.0
  0
ARC
  5
B291
330
B16D
100
AcDbEntity
  8
1
  6
Continuous
100
AcDbCircle
 10
193.757777
 20
51.349179
 30
0.0
 40
30.41662999999999
100
AcDbArc
 50
101.909409
 51
108.4642839999999
  0
ARC
  5
B292
330
B16D
100
AcDbEntity
  8
1
  6
Continuous
100
AcDbCircle
 10
142.8831989999999
 20
60.2
 30
0.0
 40
5.0
100
AcDbArc
 50
197.698012
 51
270.0
  0
ARC
  5
B293
330
B16D
100
AcDbEntity
  8
1
  6
Continuous
100
AcDbCircle
 10
142.8203019999999
 20
75.2
 30
0.0
 40
5.0
100
AcDbArc
 50
90.0
 51
162.782489
  0
ARC
  5
B294
330
B16D
100
AcDbEntity
  8
1
  6
Continuous
100
AcDbCircle
 10
236.6999999999999
 20
67.8
 30
0.0
 40
30.0
100
AcDbArc
 50
342.301988
 51
17.21751099999999
  0
ARC
  5
B295
330
B16D
100
AcDbEntity
  8
1
  6
Continuous
100
AcDbCircle
 10
260.579698
 20
75.2
 30
0.0
 40
5.0
100
AcDbArc
 50
17.21751099999999
 51
90.0
  0
ARC
  5
B296
330
B16D
100
AcDbEntity
  8
1
  6
Continuous
100
AcDbCircle
 10
260.5168009999998
 20
60.2
 30
0.0
 40
5.0
100
AcDbArc
 50
270.0
 51
342.301988
  0
LINE
  5
B297
330
B16D
100
AcDbEntity
  8
1
  6
Continuous
100
AcDbLine
 10
513.4398769999998
 20
203.5776279999998
 30
0.0
 11
531.286708
 21
287.8909759999999
 31
0.0
  0
ARC
  5
B298
330
B16D
100
AcDbEntity
  8
1
  6
Continuous
100
AcDbCircle
 10
535.2999440000001
 20
284.0386389999998
 30
0.0
 40
4.724
100
AcDbArc
 50
90.0
 51
168.0484639999999
  0
ARC
  5
B299
330
B16D
100
AcDbEntity
  8
1
  6
Continuous
100
AcDbCircle
 10
468.1000559999998
 20
284.0386389999998
 30
0.0
 40
4.724
100
AcDbArc
 50
11.951536
 51
90.0
  0
ARC
  5
B29A
330
B16D
100
AcDbEntity
  8
1
  6
Continuous
100
AcDbCircle
 10
468.2
 20
287.0626389999998
 30
0.0
 40
4.0
100
AcDbArc
 50
11.951536
 51
90.0
  0
LINE
  5
B29B
330
B16D
100
AcDbEntity
  8
1
  6
Continuous
100
AcDbLine
 10
489.960123
 20
203.5776279999998
 30
0.0
 11
472.113292
 21
287.8909759999999
 31
0.0
  0
LINE
  5
B29C
330
B16D
100
AcDbEntity
  8
1
  6
Continuous
100
AcDbLine
 10
366.9499999999999
 20
198.562639
 30
0.0
 11
366.9499999999999
 21
213.562639
 31
0.0
  0
LINE
  5
B29D
330
B16D
100
AcDbEntity
  8
1
  6
Continuous
100
AcDbLine
 10
365.8755039999999
 20
197.124256
 30
0.0
 11
365.8755039999999
 21
215.0010179999999
 31
0.0
  0
LINE
  5
B29E
330
B16D
100
AcDbEntity
  8
1
  6
Continuous
100
AcDbLine
 10
337.5244959999998
 20
197.124256
 30
0.0
 11
337.5244959999998
 21
215.0010219999999
 31
0.0
  0
LINE
  5
B29F
330
B16D
100
AcDbEntity
  8
1
  6
Continuous
100
AcDbLine
 10
336.45
 20
198.562639
 30
0.0
 11
336.45
 21
213.562639
 31
0.0
  0
LINE
  5
B2A0
330
B16D
100
AcDbEntity
  8
1
  6
Continuous
100
AcDbLine
 10
339.1999999999999
 20
147.2458389999999
 30
0.0
 11
339.1999999999999
 21
264.8794399999998
 31
0.0
  0
LINE
  5
B2A1
330
B16D
100
AcDbEntity
  8
1
  6
Continuous
100
AcDbLine
 10
364.1999999999999
 20
147.2458389999999
 30
0.0
 11
364.1999999999999
 21
264.942337
 31
0.0
  0
ARC
  5
B2A2
330
B16D
100
AcDbEntity
  8
1
  6
Continuous
100
AcDbCircle
 10
351.8
 20
171.0626389999999
 30
0.0
 40
30.0
100
AcDbArc
 50
252.301988
 51
287.217511
  0
ARC
  5
B2A3
330
B16D
100
AcDbEntity
  8
1
  6
Continuous
100
AcDbCircle
 10
344.2
 20
147.2458379999999
 30
0.0
 40
5.0
100
AcDbArc
 50
180.0
 51
252.301988
  0
ARC
  5
B2A4
330
B16D
100
AcDbEntity
  8
1
  6
Continuous
100
AcDbCircle
 10
359.2
 20
147.1829409999998
 30
0.0
 40
5.0
100
AcDbArc
 50
287.217511
 51
0.0
  0
ARC
  5
B2A5
330
B16D
100
AcDbEntity
  8
1
  6
Continuous
100
AcDbCircle
 10
379.0397029999998
 20
200.4380219999999
 30
0.0
 40
41.647251
100
AcDbArc
 50
184.5637039999998
 51
191.909409
  0
ARC
  5
B2A6
330
B16D
100
AcDbEntity
  8
1
  6
Continuous
100
AcDbCircle
 10
368.0508199999999
 20
198.1204169999998
 30
0.0
 40
30.41662999999999
100
AcDbArc
 50
191.909409
 51
198.4642839999999
  0
ARC
  5
B2A7
330
B16D
100
AcDbEntity
  8
1
  6
Continuous
100
AcDbCircle
 10
337.95
 20
198.562639
 30
0.0
 40
1.5
100
AcDbArc
 50
180.0
 51
253.5206689999999
  0
LINE
  5
B2A8
330
B16D
100
AcDbEntity
  8
1
  6
Continuous
100
AcDbLine
 10
336.45
 20
200.562642
 30
0.0
 11
335.95
 21
200.5626359999999
 31
0.0
  0
ARC
  5
B2A9
330
B16D
100
AcDbEntity
  8
1
  6
Continuous
100
AcDbCircle
 10
324.360296
 20
200.4380219999999
 30
0.0
 40
41.647251
100
AcDbArc
 50
348.090591
 51
355.4362959999999
  0
ARC
  5
B2AA
330
B16D
100
AcDbEntity
  8
1
  6
Continuous
100
AcDbCircle
 10
335.349179
 20
198.1204169999998
 30
0.0
 40
30.41662999999999
100
AcDbArc
 50
341.5357159999999
 51
348.090591
  0
ARC
  5
B2AB
330
B16D
100
AcDbEntity
  8
1
  6
Continuous
100
AcDbCircle
 10
365.45
 20
198.562639
 30
0.0
 40
1.5
100
AcDbArc
 50
286.4793309999999
 51
0.0
  0
LINE
  5
B2AC
330
B16D
100
AcDbEntity
  8
1
  6
Continuous
100
AcDbLine
 10
366.9499999999999
 20
200.562642
 30
0.0
 11
367.45
 21
200.5626359999999
 31
0.0
  0
ARC
  5
B2AD
330
B16D
100
AcDbEntity
  8
1
  6
Continuous
100
AcDbCircle
 10
379.0397029999998
 20
211.687256
 30
0.0
 40
41.647251
100
AcDbArc
 50
168.0905909999999
 51
175.436296
  0
ARC
  5
B2AE
330
B16D
100
AcDbEntity
  8
1
  6
Continuous
100
AcDbCircle
 10
337.95
 20
213.562639
 30
0.0
 40
1.5
100
AcDbArc
 50
106.4793309999999
 51
180.0
  0
LINE
  5
B2AF
330
B16D
100
AcDbEntity
  8
1
  6
Continuous
100
AcDbLine
 10
336.45
 20
211.5626359999999
 30
0.0
 11
335.95
 21
211.5626419999999
 31
0.0
  0
ARC
  5
B2B0
330
B16D
100
AcDbEntity
  8
1
  6
Continuous
100
AcDbCircle
 10
368.0508199999999
 20
214.0048619999999
 30
0.0
 40
30.41662999999999
100
AcDbArc
 50
161.5357159999998
 51
168.0905909999999
  0
ARC
  5
B2B1
330
B16D
100
AcDbEntity
  8
1
  6
Continuous
100
AcDbCircle
 10
324.360296
 20
211.687256
 30
0.0
 40
41.647251
100
AcDbArc
 50
4.563704
 51
11.909409
  0
ARC
  5
B2B2
330
B16D
100
AcDbEntity
  8
1
  6
Continuous
100
AcDbCircle
 10
335.349179
 20
214.0048619999999
 30
0.0
 40
30.41662999999999
100
AcDbArc
 50
11.909409
 51
18.46428399999998
  0
ARC
  5
B2B3
330
B16D
100
AcDbEntity
  8
1
  6
Continuous
100
AcDbCircle
 10
365.45
 20
213.562639
 30
0.0
 40
1.5
100
AcDbArc
 50
0.0
 51
73.520669
  0
LINE
  5
B2B4
330
B16D
100
AcDbEntity
  8
1
  6
Continuous
100
AcDbLine
 10
366.9499999999999
 20
211.5626359999999
 30
0.0
 11
367.45
 21
211.5626419999999
 31
0.0
  0
ARC
  5
B2B5
330
B16D
100
AcDbEntity
  8
1
  6
Continuous
100
AcDbCircle
 10
351.8
 20
241.062639
 30
0.0
 40
30.0
100
AcDbArc
 50
72.782489
 51
107.6980119999999
  0
ARC
  5
B2B6
330
B16D
100
AcDbEntity
  8
1
  6
Continuous
100
AcDbCircle
 10
344.2
 20
264.8794399999998
 30
0.0
 40
5.0
100
AcDbArc
 50
107.6980119999999
 51
180.0
  0
ARC
  5
B2B7
330
B16D
100
AcDbEntity
  8
1
  6
Continuous
100
AcDbCircle
 10
359.2
 20
264.942337
 30
0.0
 40
5.0
100
AcDbArc
 50
0.0
 51
72.782489
  0
ARC
  5
B2B8
330
B16D
100
AcDbEntity
  8
1
  6
Continuous
100
AcDbCircle
 10
201.6999999999999
 20
206.0626389999999
 30
0.0
 40
53.25
100
AcDbArc
 50
114.9751209999998
 51
65.02487900000001
  0
ARC
  5
B2B9
330
B16D
100
AcDbEntity
  8
1
  6
Continuous
100
AcDbCircle
 10
201.6999999999999
 20
206.0626389999999
 30
0.0
 40
30.89999999999999
100
AcDbArc
 50
124.8033769999998
 51
55.196623
  0
ARC
  5
B2BA
330
B16D
100
AcDbEntity
  8
1
  6
Continuous
100
AcDbCircle
 10
201.6999999999999
 20
206.0626389999999
 30
0.0
 40
40.6
100
AcDbArc
 50
119.143047
 51
60.85695300000002
  0
ARC
  5
B2BB
330
B16D
100
AcDbEntity
  8
1
  6
Continuous
100
AcDbCircle
 10
201.6999999999999
 20
206.0626389999999
 30
0.0
 40
65.0
100
AcDbArc
 50
112.590246
 51
67.409754
  0
LINE
  5
B2BC
330
B16D
100
AcDbEntity
  8
1
  6
Continuous
100
AcDbLine
 10
153.2
 20
291.062639
 30
0.0
 11
250.1999999999999
 21
291.062639
 31
0.0
  0
LINE
  5
B2BD
330
B16D
100
AcDbEntity
  8
4
  6
CENTER
100
AcDbLine
 10
201.6999999999999
 20
136.0626389999999
 30
0.0
 11
201.6999999999999
 21
293.78665
 31
0.0
  0
LINE
  5
B2BE
330
B16D
100
AcDbEntity
  8
1
  6
Continuous
100
AcDbLine
 10
213.439877
 20
203.5776279999998
 30
0.0
 11
231.286708
 21
287.8909759999999
 31
0.0
  0
LINE
  5
B2BF
330
B16D
100
AcDbEntity
  8
1
  6
Continuous
100
AcDbLine
 10
196.179558
 20
216.2421709999999
 30
0.0
 11
196.179558
 21
287.2626389999999
 31
0.0
  0
LINE
  5
B2C0
330
B16D
100
AcDbEntity
  8
1
  6
Continuous
100
AcDbLine
 10
207.2204419999999
 20
216.2421709999999
 30
0.0
 11
207.2204419999999
 21
287.2626389999999
 31
0.0
  0
ARC
  5
B2C1
330
B16D
100
AcDbEntity
  8
1
  6
Continuous
100
AcDbCircle
 10
222.566377
 20
234.7827419999999
 30
0.0
 40
3.9
100
AcDbArc
 50
218.816918
 51
117.280009
  0
ARC
  5
B2C2
330
B16D
100
AcDbEntity
  8
1
  6
Continuous
100
AcDbCircle
 10
235.299944
 20
284.0386389999998
 30
0.0
 40
4.724
100
AcDbArc
 50
90.0
 51
168.0484639999999
  0
LINE
  5
B2C3
330
B16D
100
AcDbEntity
  8
4
  6
CENTER
100
AcDbLine
 10
241.6999999999999
 20
294.342058
 30
0.0
 11
241.6999999999999
 21
285.4635449999999
 31
0.0
  0
LINE
  5
B2C4
330
B16D
100
AcDbEntity
  8
1
  6
Continuous
100
AcDbLine
 10
250.1999999999999
 20
288.7626389999999
 30
0.0
 11
235.1999999999999
 21
288.7626389999999
 31
0.0
  0
LINE
  5
B2C5
330
B16D
100
AcDbEntity
  8
1
  6
Continuous
100
AcDbLine
 10
250.1999999999999
 20
291.062639
 30
0.0
 11
250.1999999999999
 21
288.7626389999999
 31
0.0
  0
ARC
  5
B2C6
330
B16D
100
AcDbEntity
  8
1
  6
Continuous
100
AcDbCircle
 10
235.1999999999999
 20
287.0626389999998
 30
0.0
 40
4.0
100
AcDbArc
 50
90.0
 51
168.0484639999999
  0
LINE
  5
B2C7
330
B16D
100
AcDbEntity
  8
1
  6
Continuous
100
AcDbLine
 10
189.960123
 20
203.5776279999998
 30
0.0
 11
172.113292
 21
287.8909759999999
 31
0.0
  0
ARC
  5
B2C8
330
B16D
100
AcDbEntity
  8
1
  6
Continuous
100
AcDbCircle
 10
180.8336239999999
 20
234.7827419999999
 30
0.0
 40
3.9
100
AcDbArc
 50
62.720009
 51
321.183063
  0
LINE
  5
B2C9
330
B16D
100
AcDbEntity
  8
1
  6
Continuous
100
AcDbLine
 10
153.2
 20
288.7626389999999
 30
0.0
 11
168.100056
 21
288.7626389999999
 31
0.0
  0
ARC
  5
B2CA
330
B16D
100
AcDbEntity
  8
1
  6
Continuous
100
AcDbCircle
 10
168.100056
 20
284.0386389999998
 30
0.0
 40
4.724
100
AcDbArc
 50
11.951536
 51
90.0
  0
LINE
  5
B2CB
330
B16D
100
AcDbEntity
  8
4
  6
CENTER
100
AcDbLine
 10
161.6999999999999
 20
294.342058
 30
0.0
 11
161.6999999999999
 21
285.4635449999999
 31
0.0
  0
ARC
  5
B2CC
330
B16D
100
AcDbEntity
  8
1
  6
Continuous
100
AcDbCircle
 10
168.1999999999999
 20
287.0626389999998
 30
0.0
 40
4.0
100
AcDbArc
 50
11.951536
 51
90.0
  0
LINE
  5
B2CD
330
B16D
100
AcDbEntity
  8
1
  6
Continuous
100
AcDbLine
 10
153.2
 20
291.062639
 30
0.0
 11
153.2
 21
288.7626389999999
 31
0.0
  0
LINE
  5
B2CE
330
B16D
100
AcDbEntity
  8
4
  6
CENTER
100
AcDbLine
 10
131.6999999999999
 20
206.0626389999999
 30
0.0
 11
271.7
 21
206.0626389999999
 31
0.0
  0
CIRCLE
  5
B2CF
330
B16D
100
AcDbEntity
  8
1
  6
Continuous
100
AcDbCircle
 10
167.9374939999999
 20
195.092535
 30
0.0
 40
3.9
  0
CIRCLE
  5
B2D0
330
B16D
100
AcDbEntity
  8
1
  6
Continuous
100
AcDbCircle
 10
201.6999999999999
 20
170.5626389999999
 30
0.0
 40
3.9
  0
CIRCLE
  5
B2D1
330
B16D
100
AcDbEntity
  8
1
  6
Continuous
100
AcDbCircle
 10
235.4625069999999
 20
195.092535
 30
0.0
 40
3.9
  0
ARC
  5
B2D2
330
B16D
100
AcDbEntity
  8
1
  6
Continuous
100
AcDbCircle
 10
201.6999999999999
 20
206.0626389999999
 30
0.0
 40
12.0
100
AcDbArc
 50
191.951536
 51
348.048464
  0
ARC
  5
B2D3
330
B16D
100
AcDbEntity
  8
1
  6
Continuous
100
AcDbCircle
 10
236.6999999999999
 20
364.5252779999998
 30
0.0
 40
30.0
100
AcDbArc
 50
342.301988
 51
17.21751099999999
  0
ARC
  5
B2D4
330
B16D
100
AcDbEntity
  8
1
  6
Continuous
100
AcDbCircle
 10
260.5168009999998
 20
356.9252779999998
 30
0.0
 40
5.0
100
AcDbArc
 50
270.0
 51
342.301988
  0
ARC
  5
B2D5
330
B16D
100
AcDbEntity
  8
1
  6
Continuous
100
AcDbCircle
 10
260.579698
 20
371.925278
 30
0.0
 40
5.0
100
AcDbArc
 50
17.21751099999999
 51
90.0
  0
LINE
  5
B2D6
330
B16D
100
AcDbEntity
  8
1
  6
Continuous
100
AcDbLine
 10
260.5167999999998
 20
376.9252779999998
 30
0.0
 11
250.1999999999999
 21
376.9252779999998
 31
0.0
  0
LINE
  5
B2D7
330
B16D
100
AcDbEntity
  8
1
  6
Continuous
100
AcDbLine
 10
260.5167999999998
 20
351.9252779999998
 30
0.0
 11
250.1999999999999
 21
351.9252779999998
 31
0.0
  0
ARC
  5
B2D8
330
B16D
100
AcDbEntity
  8
1
  6
Continuous
100
AcDbCircle
 10
166.6999999999999
 20
364.5252779999998
 30
0.0
 40
30.0
100
AcDbArc
 50
162.782489
 51
197.698012
  0
ARC
  5
B2D9
330
B16D
100
AcDbEntity
  8
1
  6
Continuous
100
AcDbCircle
 10
142.8203019999999
 20
371.925278
 30
0.0
 40
5.0
100
AcDbArc
 50
90.0
 51
162.782489
  0
ARC
  5
B2DA
330
B16D
100
AcDbEntity
  8
1
  6
Continuous
100
AcDbCircle
 10
142.8831989999999
 20
356.9252779999998
 30
0.0
 40
5.0
100
AcDbArc
 50
197.698012
 51
270.0
  0
LINE
  5
B2DB
330
B16D
100
AcDbEntity
  8
1
  6
Continuous
100
AcDbLine
 10
153.2
 20
376.9252779999998
 30
0.0
 11
142.8203019999999
 21
376.9252779999998
 31
0.0
  0
LINE
  5
B2DC
330
B16D
100
AcDbEntity
  8
1
  6
Continuous
100
AcDbLine
 10
153.2
 20
351.9252779999998
 30
0.0
 11
142.8831989999999
 21
351.9252779999998
 31
0.0
  0
LINE
  5
B2DD
330
B16D
100
AcDbEntity
  8
1
  6
Continuous
100
AcDbLine
 10
39.2
 20
147.2458389999999
 30
0.0
 11
39.2
 21
264.942337
 31
0.0
  0
LINE
  5
B2DE
330
B16D
100
AcDbEntity
  8
1
  6
Continuous
100
AcDbLine
 10
64.2
 20
147.2458389999999
 30
0.0
 11
64.2
 21
264.8794399999998
 31
0.0
  0
LINE
  5
B2DF
330
B16D
100
AcDbEntity
  8
4
  6
CENTER
100
AcDbLine
 10
51.7
 20
294.0626389999998
 30
0.0
 11
51.7
 21
138.0626389999999
 31
0.0
  0
ARC
  5
B2E0
330
B16D
100
AcDbEntity
  8
1
  6
Continuous
100
AcDbCircle
 10
51.6
 20
171.0626389999999
 30
0.0
 40
30.0
100
AcDbArc
 50
252.7824890000001
 51
287.698012
  0
ARC
  5
B2E1
330
B16D
100
AcDbEntity
  8
1
  6
Continuous
100
AcDbCircle
 10
59.2
 20
147.2458379999999
 30
0.0
 40
5.0
100
AcDbArc
 50
287.698012
 51
0.0
  0
ARC
  5
B2E2
330
B16D
100
AcDbEntity
  8
1
  6
Continuous
100
AcDbCircle
 10
44.2
 20
147.1829409999998
 30
0.0
 40
5.0
100
AcDbArc
 50
180.0
 51
252.7824890000001
  0
LINE
  5
B2E3
330
B16D
100
AcDbEntity
  8
1
  6
Continuous
100
AcDbLine
 10
67.45
 20
194.062639
 30
0.0
 11
67.45
 21
287.2626389999999
 31
0.0
  0
LINE
  5
B2E4
330
B16D
100
AcDbEntity
  8
1
  6
Continuous
100
AcDbLine
 10
76.44271999999998
 20
286.0626389999998
 30
0.0
 11
76.44271999999998
 21
229.0626389999999
 31
0.0
  0
LINE
  5
B2E5
330
B16D
100
AcDbEntity
  8
1
  6
Continuous
100
AcDbLine
 10
74.14271999999998
 20
286.0626389999998
 30
0.0
 11
74.14271999999998
 21
229.0626389999999
 31
0.0
  0
LINE
  5
B2E6
330
B16D
100
AcDbEntity
  8
1
  6
Continuous
100
AcDbLine
 10
35.95000000000001
 20
194.062639
 30
0.0
 11
35.95000000000001
 21
287.2626389999999
 31
0.0
  0
LINE
  5
B2E7
330
B16D
100
AcDbEntity
  8
1
  6
Continuous
100
AcDbLine
 10
26.95727999999999
 20
286.0626389999998
 30
0.0
 11
26.95727999999999
 21
229.0626389999999
 31
0.0
  0
LINE
  5
B2E8
330
B16D
100
AcDbEntity
  8
1
  6
Continuous
100
AcDbLine
 10
29.25727999999999
 20
286.0626389999998
 30
0.0
 11
29.25727999999999
 21
229.0626389999999
 31
0.0
  0
ARC
  5
B2E9
330
B16D
100
AcDbEntity
  8
1
  6
Continuous
100
AcDbCircle
 10
79.039704
 20
211.687256
 30
0.0
 40
41.647251
100
AcDbArc
 50
168.0905909999999
 51
175.436296
  0
ARC
  5
B2EA
330
B16D
100
AcDbEntity
  8
1
  6
Continuous
100
AcDbCircle
 10
24.360297
 20
211.687256
 30
0.0
 40
41.647251
100
AcDbArc
 50
4.563704
 51
11.909409
  0
ARC
  5
B2EB
330
B16D
100
AcDbEntity
  8
1
  6
Continuous
100
AcDbCircle
 10
-21.548359
 20
229.0626389999999
 30
0.0
 40
97.99107800000001
100
AcDbArc
 50
345.218992
 51
0.0
  0
ARC
  5
B2EC
330
B16D
100
AcDbEntity
  8
1
  6
Continuous
100
AcDbCircle
 10
-21.548359
 20
229.0626389999999
 30
0.0
 40
95.69107800000001
100
AcDbArc
 50
345.218992
 51
0.0
  0
ARC
  5
B2ED
330
B16D
100
AcDbEntity
  8
1
  6
Continuous
100
AcDbCircle
 10
124.948359
 20
229.0626389999999
 30
0.0
 40
97.99107800000001
100
AcDbArc
 50
180.0
 51
194.781008
  0
ARC
  5
B2EE
330
B16D
100
AcDbEntity
  8
1
  6
Continuous
100
AcDbCircle
 10
124.948359
 20
229.0626389999999
 30
0.0
 40
95.69107800000001
100
AcDbArc
 50
180.0
 51
194.781008
  0
LINE
  5
B2EF
330
B16D
100
AcDbEntity
  8
4
  6
CENTER
100
AcDbLine
 10
77.30897799999998
 20
206.0626389999999
 30
0.0
 11
22.01726499999999
 21
206.0626389999999
 31
0.0
  0
ARC
  5
B2F0
330
B16D
100
AcDbEntity
  8
1
  6
Continuous
100
AcDbCircle
 10
65.45
 20
198.562639
 30
0.0
 40
1.5
100
AcDbArc
 50
286.4793309999999
 51
0.0
  0
LINE
  5
B2F1
330
B16D
100
AcDbEntity
  8
1
  6
Continuous
100
AcDbLine
 10
65.87550400000001
 20
197.124256
 30
0.0
 11
65.87550400000001
 21
215.0010219999999
 31
0.0
  0
ARC
  5
B2F2
330
B16D
100
AcDbEntity
  8
1
  6
Continuous
100
AcDbCircle
 10
43.66121999999999
 20
211.856648
 30
0.0
 40
30.549731
100
AcDbArc
 50
331.8520689999999
 51
345.218992
  0
ARC
  5
B2F3
330
B16D
100
AcDbEntity
  8
1
  6
Continuous
100
AcDbCircle
 10
76.919444
 20
194.062639
 30
0.0
 40
9.469443999999999
100
AcDbArc
 50
151.852069
 51
180.0
  0
LINE
  5
B2F4
330
B16D
100
AcDbEntity
  8
1
  6
Continuous
100
AcDbLine
 10
67.45
 20
194.062639
 30
0.0
 11
69.75
 21
194.062639
 31
0.0
  0
ARC
  5
B2F5
330
B16D
100
AcDbEntity
  8
1
  6
Continuous
100
AcDbCircle
 10
76.919444
 20
194.062639
 30
0.0
 40
7.169444
100
AcDbArc
 50
151.852069
 51
180.0
  0
ARC
  5
B2F6
330
B16D
100
AcDbEntity
  8
1
  6
Continuous
100
AcDbCircle
 10
35.34917999999999
 20
198.1204169999998
 30
0.0
 40
30.41662999999999
100
AcDbArc
 50
341.5357159999999
 51
348.090591
  0
ARC
  5
B2F7
330
B16D
100
AcDbEntity
  8
1
  6
Continuous
100
AcDbCircle
 10
24.360297
 20
200.4380219999999
 30
0.0
 40
41.647251
100
AcDbArc
 50
348.090591
 51
355.4362959999999
  0
ARC
  5
B2F8
330
B16D
100
AcDbEntity
  8
1
  6
Continuous
100
AcDbCircle
 10
43.66121999999999
 20
211.856648
 30
0.0
 40
28.249731
100
AcDbArc
 50
331.8520689999999
 51
345.218992
  0
ARC
  5
B2F9
330
B16D
100
AcDbEntity
  8
1
  6
Continuous
100
AcDbCircle
 10
64.25
 20
206.0626389999999
 30
0.0
 40
10.5
100
AcDbArc
 50
318.189685
 51
15.832185
  0
LINE
  5
B2FA
330
B16D
100
AcDbEntity
  8
1
  6
Continuous
100
AcDbLine
 10
72.076238
 20
200.637342
 30
0.0
 11
72.076238
 21
199.0626389999999
 31
0.0
  0
LINE
  5
B2FB
330
B16D
100
AcDbEntity
  8
1
  6
Continuous
100
AcDbLine
 10
72.076238
 20
199.0626389999999
 30
0.0
 11
71.40287499999998
 21
199.0626389999999
 31
0.0
  0
LINE
  5
B2FC
330
B16D
100
AcDbEntity
  8
1
  6
Continuous
100
AcDbLine
 10
66.95
 20
211.5626359999999
 30
0.0
 11
67.45
 21
211.5626419999999
 31
0.0
  0
ARC
  5
B2FD
330
B16D
100
AcDbEntity
  8
1
  6
Continuous
100
AcDbCircle
 10
65.45
 20
213.562639
 30
0.0
 40
1.5
100
AcDbArc
 50
0.0
 51
73.520669
  0
LINE
  5
B2FE
330
B16D
100
AcDbEntity
  8
1
  6
Continuous
100
AcDbLine
 10
66.95
 20
200.562642
 30
0.0
 11
67.45
 21
200.5626359999999
 31
0.0
  0
LINE
  5
B2FF
330
B16D
100
AcDbEntity
  8
1
  6
Continuous
100
AcDbLine
 10
66.95
 20
198.562639
 30
0.0
 11
66.95
 21
213.562639
 31
0.0
  0
ARC
  5
B300
330
B16D
100
AcDbEntity
  8
1
  6
Continuous
100
AcDbCircle
 10
37.95
 20
198.562639
 30
0.0
 40
1.5
100
AcDbArc
 50
180.0
 51
253.5206689999999
  0
LINE
  5
B301
330
B16D
100
AcDbEntity
  8
1
  6
Continuous
100
AcDbLine
 10
37.524496
 20
197.124256
 30
0.0
 11
37.524496
 21
215.0010179999999
 31
0.0
  0
ARC
  5
B302
330
B16D
100
AcDbEntity
  8
1
  6
Continuous
100
AcDbCircle
 10
26.480556
 20
194.062639
 30
0.0
 40
9.469443999999999
100
AcDbArc
 50
0.0
 51
28.147931
  0
ARC
  5
B303
330
B16D
100
AcDbEntity
  8
1
  6
Continuous
100
AcDbCircle
 10
59.73878
 20
211.856648
 30
0.0
 40
30.549731
100
AcDbArc
 50
194.781008
 51
208.147931
  0
ARC
  5
B304
330
B16D
100
AcDbEntity
  8
1
  6
Continuous
100
AcDbCircle
 10
68.05082099999999
 20
198.1204169999998
 30
0.0
 40
30.41662999999999
100
AcDbArc
 50
191.909409
 51
198.4642839999999
  0
ARC
  5
B305
330
B16D
100
AcDbEntity
  8
1
  6
Continuous
100
AcDbCircle
 10
79.039704
 20
200.4380219999999
 30
0.0
 40
41.647251
100
AcDbArc
 50
184.5637039999998
 51
191.909409
  0
LINE
  5
B306
330
B16D
100
AcDbEntity
  8
1
  6
Continuous
100
AcDbLine
 10
35.95000000000001
 20
194.062639
 30
0.0
 11
33.65
 21
194.062639
 31
0.0
  0
ARC
  5
B307
330
B16D
100
AcDbEntity
  8
1
  6
Continuous
100
AcDbCircle
 10
26.480556
 20
194.062639
 30
0.0
 40
7.169444
100
AcDbArc
 50
0.0
 51
28.147931
  0
LINE
  5
B308
330
B16D
100
AcDbEntity
  8
1
  6
Continuous
100
AcDbLine
 10
36.45
 20
211.5626359999999
 30
0.0
 11
35.95000000000001
 21
211.5626419999999
 31
0.0
  0
ARC
  5
B309
330
B16D
100
AcDbEntity
  8
1
  6
Continuous
100
AcDbCircle
 10
37.95
 20
213.562639
 30
0.0
 40
1.5
100
AcDbArc
 50
106.4793309999999
 51
180.0
  0
LINE
  5
B30A
330
B16D
100
AcDbEntity
  8
1
  6
Continuous
100
AcDbLine
 10
36.45
 20
200.562642
 30
0.0
 11
35.95000000000001
 21
200.5626359999999
 31
0.0
  0
LINE
  5
B30B
330
B16D
100
AcDbEntity
  8
1
  6
Continuous
100
AcDbLine
 10
36.45
 20
198.562639
 30
0.0
 11
36.45
 21
213.562639
 31
0.0
  0
ARC
  5
B30C
330
B16D
100
AcDbEntity
  8
1
  6
Continuous
100
AcDbCircle
 10
59.73878
 20
211.856648
 30
0.0
 40
28.249731
100
AcDbArc
 50
194.781008
 51
208.147931
  0
LINE
  5
B30D
330
B16D
100
AcDbEntity
  8
1
  6
Continuous
100
AcDbLine
 10
25.25
 20
209.462639
 30
0.0
 11
25.25
 21
202.6626389999999
 31
0.0
  0
LINE
  5
B30E
330
B16D
100
AcDbEntity
  8
1
  6
Continuous
100
AcDbLine
 10
25.85
 20
202.0626389999999
 30
0.0
 11
25.85
 21
210.0626389999999
 31
0.0
  0
LINE
  5
B30F
330
B16D
100
AcDbEntity
  8
1
  6
Continuous
100
AcDbLine
 10
25.25
 20
209.462639
 30
0.0
 11
25.85
 21
210.0626389999999
 31
0.0
  0
LINE
  5
B310
330
B16D
100
AcDbEntity
  8
1
  6
Continuous
100
AcDbLine
 10
26.65
 20
210.0626389999999
 30
0.0
 11
25.85
 21
210.0626389999999
 31
0.0
  0
LINE
  5
B311
330
B16D
100
AcDbEntity
  8
2
  6
Continuous
100
AcDbLine
 10
26.65
 20
209.3861389999999
 30
0.0
 11
25.25
 21
209.3861389999999
 31
0.0
  0
LINE
  5
B312
330
B16D
100
AcDbEntity
  8
1
  6
Continuous
100
AcDbLine
 10
25.25
 20
202.6626389999999
 30
0.0
 11
25.85
 21
202.0626389999999
 31
0.0
  0
LINE
  5
B313
330
B16D
100
AcDbEntity
  8
2
  6
Continuous
100
AcDbLine
 10
26.65
 20
202.739139
 30
0.0
 11
25.25
 21
202.739139
 31
0.0
  0
LINE
  5
B314
330
B16D
100
AcDbEntity
  8
1
  6
Continuous
100
AcDbLine
 10
26.65
 20
202.0626389999999
 30
0.0
 11
25.85
 21
202.0626389999999
 31
0.0
  0
LINE
  5
B315
330
B16D
100
AcDbEntity
  8
1
  6
Continuous
100
AcDbLine
 10
31.65
 20
199.843884
 30
0.0
 11
31.65
 21
198.3626389999998
 31
0.0
  0
LINE
  5
B316
330
B16D
100
AcDbEntity
  8
1
  6
Continuous
100
AcDbLine
 10
26.65
 20
200.0626389999999
 30
0.0
 11
26.65
 21
212.0626389999999
 31
0.0
  0
ARC
  5
B317
330
B16D
100
AcDbEntity
  8
1
  6
Continuous
100
AcDbCircle
 10
38.114102
 20
206.0626389999999
 30
0.0
 40
11.464102
100
AcDbArc
 50
162.412046
 51
197.5879539999999
  0
LINE
  5
B318
330
B16D
100
AcDbEntity
  8
1
  6
Continuous
100
AcDbLine
 10
27.185898
 20
212.990842
 30
0.0
 11
26.65
 21
212.0626389999999
 31
0.0
  0
ARC
  5
B319
330
B16D
100
AcDbEntity
  8
1
  6
Continuous
100
AcDbCircle
 10
29.716987
 20
211.258791
 30
0.0
 40
3.066986999999998
100
AcDbArc
 50
154.3842469999999
 51
214.384247
  0
ARC
  5
B31A
330
B16D
100
AcDbEntity
  8
1
  6
Continuous
100
AcDbCircle
 10
29.716987
 20
200.866487
 30
0.0
 40
3.066986999999998
100
AcDbArc
 50
145.615753
 51
205.615753
  0
LINE
  5
B31B
330
B16D
100
AcDbEntity
  8
1
  6
Continuous
100
AcDbLine
 10
31.11410199999999
 20
199.134436
 30
0.0
 11
27.185898
 21
199.134436
 31
0.0
  0
LINE
  5
B31C
330
B16D
100
AcDbEntity
  8
1
  6
Continuous
100
AcDbLine
 10
31.11410199999999
 20
199.134436
 30
0.0
 11
31.59644699999999
 21
199.9698829999999
 31
0.0
  0
LINE
  5
B31D
330
B16D
100
AcDbEntity
  8
1
  6
Continuous
100
AcDbLine
 10
27.185898
 20
199.134436
 30
0.0
 11
26.65
 21
200.0626389999999
 31
0.0
  0
ARC
  5
B31E
330
B16D
100
AcDbEntity
  8
1
  6
Continuous
100
AcDbCircle
 10
28.583013
 20
200.866487
 30
0.0
 40
3.066986999999998
100
AcDbArc
 50
334.384247
 51
345.2190759999999
  0
LINE
  5
B31F
330
B16D
100
AcDbEntity
  8
1
  6
Continuous
100
AcDbLine
 10
30.625665
 20
202.5985369999999
 30
0.0
 11
27.185898
 21
202.5985369999999
 31
0.0
  0
LINE
  5
B320
330
B16D
100
AcDbEntity
  8
1
  6
Continuous
100
AcDbLine
 10
28.924403
 20
209.5267409999999
 30
0.0
 11
27.185898
 21
209.5267409999999
 31
0.0
  0
LINE
  5
B321
330
B16D
100
AcDbEntity
  8
1
  6
Continuous
100
AcDbLine
 10
28.284256
 20
212.990842
 30
0.0
 11
27.185898
 21
212.990842
 31
0.0
  0
LINE
  5
B322
330
B16D
100
AcDbEntity
  8
1
  6
Continuous
100
AcDbLine
 10
32.33079199999998
 20
198.3626389999998
 30
0.0
 11
31.65
 21
198.3626389999998
 31
0.0
  0
ARC
  5
B323
330
B16D
100
AcDbEntity
  8
1
  6
Continuous
100
AcDbCircle
 10
35.34917999999999
 20
214.0048619999999
 30
0.0
 40
30.41662999999999
100
AcDbArc
 50
11.909409
 51
18.46428399999998
  0
ARC
  5
B324
330
B16D
100
AcDbEntity
  8
1
  6
Continuous
100
AcDbCircle
 10
68.05082099999999
 20
214.0048619999999
 30
0.0
 40
30.41662999999999
100
AcDbArc
 50
161.5357159999998
 51
168.0905909999999
  0
ARC
  5
B325
330
B16D
100
AcDbEntity
  8
1
  6
Continuous
100
AcDbCircle
 10
51.6
 20
241.062639
 30
0.0
 40
30.0
100
AcDbArc
 50
72.30198799999998
 51
107.217511
  0
LINE
  5
B326
330
B16D
100
AcDbEntity
  8
1
  6
Continuous
100
AcDbLine
 10
78.2
 20
291.062639
 30
0.0
 11
25.2
 21
291.062639
 31
0.0
  0
LINE
  5
B327
330
B16D
100
AcDbEntity
  8
1
  6
Continuous
100
AcDbLine
 10
78.2
 20
288.7626389999999
 30
0.0
 11
25.2
 21
288.7626389999999
 31
0.0
  0
LINE
  5
B328
330
B16D
100
AcDbEntity
  8
4
  6
CENTER
100
AcDbLine
 10
69.7
 20
293.567812
 30
0.0
 11
69.7
 21
285.950446
 31
0.0
  0
ARC
  5
B329
330
B16D
100
AcDbEntity
  8
1
  6
Continuous
100
AcDbCircle
 10
59.2
 20
264.8794399999998
 30
0.0
 40
5.0
100
AcDbArc
 50
0.0
 51
72.30198799999998
  0
ARC
  5
B32A
330
B16D
100
AcDbEntity
  8
1
  6
Continuous
100
AcDbCircle
 10
71.44271999999998
 20
286.0626389999998
 30
0.0
 40
5.0
100
AcDbArc
 50
0.0
 51
32.683639
  0
ARC
  5
B32B
330
B16D
100
AcDbEntity
  8
1
  6
Continuous
100
AcDbCircle
 10
71.44271999999998
 20
286.0626389999998
 30
0.0
 40
2.7
100
AcDbArc
 50
0.0
 51
90.0
  0
LINE
  5
B32C
330
B16D
100
AcDbEntity
  8
1
  6
Continuous
100
AcDbLine
 10
78.2
 20
291.062639
 30
0.0
 11
78.2
 21
288.7626389999999
 31
0.0
  0
ARC
  5
B32D
330
B16D
100
AcDbEntity
  8
1
  6
Continuous
100
AcDbCircle
 10
65.95
 20
287.2626389999999
 30
0.0
 40
1.5
100
AcDbArc
 50
0.0
 51
90.0
  0
LINE
  5
B32E
330
B16D
100
AcDbEntity
  8
4
  6
CENTER
100
AcDbLine
 10
33.7
 20
293.567812
 30
0.0
 11
33.7
 21
285.950446
 31
0.0
  0
ARC
  5
B32F
330
B16D
100
AcDbEntity
  8
1
  6
Continuous
100
AcDbCircle
 10
44.2
 20
264.942337
 30
0.0
 40
5.0
100
AcDbArc
 50
107.217511
 51
180.0
  0
ARC
  5
B330
330
B16D
100
AcDbEntity
  8
1
  6
Continuous
100
AcDbCircle
 10
37.45
 20
287.2626389999999
 30
0.0
 40
1.5
100
AcDbArc
 50
90.0
 51
180.0
  0
ARC
  5
B331
330
B16D
100
AcDbEntity
  8
1
  6
Continuous
100
AcDbCircle
 10
31.95727999999999
 20
286.0626389999998
 30
0.0
 40
5.0
100
AcDbArc
 50
147.316361
 51
180.0
  0
ARC
  5
B332
330
B16D
100
AcDbEntity
  8
1
  6
Continuous
100
AcDbCircle
 10
31.95727999999999
 20
286.0626389999998
 30
0.0
 40
2.7
100
AcDbArc
 50
90.0
 51
180.0
  0
LINE
  5
B333
330
B16D
100
AcDbEntity
  8
1
  6
Continuous
100
AcDbLine
 10
25.2
 20
291.062639
 30
0.0
 11
25.2
 21
288.7626389999999
 31
0.0
  0
ENDSEC
  0
SECTION
  2
OBJECTS
  0
DICTIONARY
  5
B15B
330
0
100
AcDbDictionary
281
     1
  3
ACAD_CIP_PREVIOUS_PRODUCT_INFO
350
B395
  3
ACAD_COLOR
350
B377
  3
ACAD_DETAILVIEWSTYLE
350
B390
  3
ACAD_GROUP
350
B15C
  3
ACAD_LAYOUT
350
B168
  3
ACAD_MATERIAL
350
B345
  3
ACAD_MLEADERSTYLE
350
B38C
  3
ACAD_MLINESTYLE
350
B165
  3
ACAD_PLOTSETTINGS
350
B167
  3
ACAD_PLOTSTYLENAME
350
B343
  3
ACAD_SCALELIST
350
B37A
  3
ACAD_SECTIONVIEWSTYLE
350
B38E
  3
ACAD_TABLESTYLE
350
B378
  3
ACAD_VISUALSTYLE
350
B35E
  3
ACDB_RECOMPOSE_DATA
350
B3B3
  3
AcDbVariableDictionary
350
B3A6
  3
DWGPROPS
350
B3B4
  0
DICTIONARY
  5
B396
330
B15F
100
AcDbDictionary
280
     1
281
     1
  3
ADSK_XREC_LAYER_RECONCILED
360
B397
  0
DICTIONARY
  5
B398
330
B175
100
AcDbDictionary
280
     1
281
     1
  3
ADSK_XREC_LAYER_RECONCILED
360
B399
  0
DICTIONARY
  5
B39A
330
B176
100
AcDbDictionary
280
     1
281
     1
  3
ADSK_XREC_LAYER_RECONCILED
360
B39B
  0
DICTIONARY
  5
B39C
330
B177
100
AcDbDictionary
280
     1
281
     1
  3
ADSK_XREC_LAYER_RECONCILED
360
B39D
  0
DICTIONARY
  5
B39E
330
B178
100
AcDbDictionary
280
     1
281
     1
  3
ADSK_XREC_LAYER_RECONCILED
360
B39F
  0
DICTIONARY
  5
B3A0
330
B179
100
AcDbDictionary
280
     1
281
     1
  3
ADSK_XREC_LAYER_RECONCILED
360
B3A1
  0
DICTIONARY
  5
B3A2
330
B17A
100
AcDbDictionary
280
     1
281
     1
  3
ADSK_XREC_LAYER_RECONCILED
360
B3A3
  0
DICTIONARY
  5
B3A4
330
B17B
100
AcDbDictionary
280
     1
281
     1
  3
ADSK_XREC_LAYER_RECONCILED
360
B3A5
  0
DICTIONARY
  5
B33E
330
B16D
100
AcDbDictionary
281
     1
  3
ACAD_LAYOUTSELFREF
350
B33F
  0
DICTIONARY
  5
B33C
330
B169
100
AcDbDictionary
281
     1
  3
ACAD_LAYOUTSELFREF
350
B33D
  0
XRECORD
  5
B395
102
{ACAD_REACTORS
330
B15B
102
}
330
B15B
100
AcDbXrecord
280
     1
300
ACDLT
300
2014
300
ACDLT_F_S
  0
DICTIONARY
  5
B377
102
{ACAD_REACTORS
330
B15B
102
}
330
B15B
100
AcDbDictionary
281
     1
  0
DICTIONARY
  5
B390
102
{ACAD_REACTORS
330
B15B
102
}
330
B15B
100
AcDbDictionary
281
     1
  3
Imperial24
350
B391
  0
DICTIONARY
  5
B15C
102
{ACAD_REACTORS
330
B15B
102
}
330
B15B
100
AcDbDictionary
281
     1
  0
DICTIONARY
  5
B168
102
{ACAD_REACTORS
330
B15B
102
}
330
B15B
100
AcDbDictionary
281
     1
  3
Model
350
B392
  3
レイアウト1
350
B393
  0
DICTIONARY
  5
B345
102
{ACAD_REACTORS
330
B15B
102
}
330
B15B
100
AcDbDictionary
281
     1
  3
ByBlock
350
B34E
  3
ByLayer
350
B346
  3
Global
350
B356
  0
DICTIONARY
  5
B38C
102
{ACAD_REACTORS
330
B15B
102
}
330
B15B
100
AcDbDictionary
281
     1
  3
Standard
350
B38D
  0
DICTIONARY
  5
B165
102
{ACAD_REACTORS
330
B15B
102
}
330
B15B
100
AcDbDictionary
281
     1
  3
STANDARD
350
B166
  0
DICTIONARY
  5
B167
102
{ACAD_REACTORS
330
B15B
102
}
330
B15B
100
AcDbDictionary
281
     1
  0
ACDBDICTIONARYWDFLT
  5
B343
102
{ACAD_REACTORS
330
B15B
102
}
330
B15B
100
AcDbDictionary
281
     1
  3
Normal
350
B344
100
AcDbDictionaryWithDefault
340
B344
  0
DICTIONARY
  5
B37A
102
{ACAD_REACTORS
330
B15B
102
}
330
B15B
100
AcDbDictionary
281
     1
  3
A0
350
B37B
  3
A1
350
B37C
  3
A2
350
B37D
  3
A3
350
B37E
  3
A4
350
B37F
  3
A5
350
B380
  3
A6
350
B381
  3
A7
350
B382
  3
A8
350
B383
  3
A9
350
B384
  3
B0
350
B385
  3
B1
350
B386
  3
B2
350
B387
  3
B3
350
B388
  3
B4
350
B389
  3
B5
350
B38A
  3
B6
350
B38B
  0
DICTIONARY
  5
B38E
102
{ACAD_REACTORS
330
B15B
102
}
330
B15B
100
AcDbDictionary
281
     1
  3
Imperial24
350
B38F
  0
DICTIONARY
  5
B378
102
{ACAD_REACTORS
330
B15B
102
}
330
B15B
100
AcDbDictionary
281
     1
  3
Standard
350
B379
  0
DICTIONARY
  5
B35E
102
{ACAD_REACTORS
330
B15B
102
}
330
B15B
100
AcDbDictionary
281
     1
  3
2dWireframe
350
B364
  3
Basic
350
B363
  3
Brighten
350
B36A
  3
ColorChange
350
B36E
  3
Conceptual
350
B367
  3
Dim
350
B369
  3
EdgeColorOff
350
B376
  3
Facepattern
350
B36D
  3
Flat
350
B35F
  3
FlatWithEdges
350
B360
  3
Gouraud
350
B361
  3
GouraudWithEdges
350
B362
  3
Hidden
350
B366
  3
JitterOff
350
B374
  3
Linepattern
350
B36C
  3
OverhangOff
350
B375
  3
Realistic
350
B368
  3
Shaded
350
B373
  3
Shaded with edges
350
B372
  3
Shades of Gray
350
B36F
  3
Sketchy
350
B370
  3
Thicken
350
B36B
  3
Wireframe
350
B365
  3
X-Ray
350
B371
  0
XRECORD
  5
B3B3
102
{ACAD_REACTORS
330
B15B
102
}
330
B15B
100
AcDbXrecord
280
     1
 90
        1
330
B379
  0
DICTIONARY
  5
B3A6
102
{ACAD_REACTORS
330
B15B
102
}
330
B15B
100
AcDbDictionary
281
     1
  3
CANNOSCALE
350
B3AB
  3
CMLEADERSTYLE
350
B3A8
  3
CTABLESTYLE
350
B3A7
  3
CVIEWDETAILSTYLE
350
B3A9
  3
CVIEWSECTIONSTYLE
350
B3AA
  3
DIMASSOC
350
B3AE
  3
INDEXCTL
350
B3AD
  3
SORTENTS
350
B3AC
  3
XCLIPFRAME
350
B3AF
  0
XRECORD
  5
B3B4
102
{ACAD_REACTORS
330
B15B
102
}
330
B15B
100
AcDbXrecord
280
     1
  1
DWGPROPS COOKIE
  2

  3

  4

  6

  7

  8
Yoshitsune
  9

300
=
301
=
302
=
303
=
304
=
305
=
306
=
307
=
308
=
309
=
 40
0.0000107638888889
 41
2451302.679064005
 42
2457192.688702975
  1

 90
        0
  0
XRECORD
  5
B397
102
{ACAD_REACTORS
330
B396
102
}
330
B396
100
AcDbXrecord
280
     1
290
     1
  0
XRECORD
  5
B399
102
{ACAD_REACTORS
330
B398
102
}
330
B398
100
AcDbXrecord
280
     1
290
     1
  0
XRECORD
  5
B39B
102
{ACAD_REACTORS
330
B39A
102
}
330
B39A
100
AcDbXrecord
280
     1
290
     1
  0
XRECORD
  5
B39D
102
{ACAD_REACTORS
330
B39C
102
}
330
B39C
100
AcDbXrecord
280
     1
290
     1
  0
XRECORD
  5
B39F
102
{ACAD_REACTORS
330
B39E
102
}
330
B39E
100
AcDbXrecord
280
     1
290
     1
  0
XRECORD
  5
B3A1
102
{ACAD_REACTORS
330
B3A0
102
}
330
B3A0
100
AcDbXrecord
280
     1
290
     1
  0
XRECORD
  5
B3A3
102
{ACAD_REACTORS
330
B3A2
102
}
330
B3A2
100
AcDbXrecord
280
     1
290
     1
  0
XRECORD
  5
B3A5
102
{ACAD_REACTORS
330
B3A4
102
}
330
B3A4
100
AcDbXrecord
280
     1
290
     1
  0
XRECORD
  5
B33F
102
{ACAD_REACTORS
330
B33E
102
}
330
B33E
100
AcDbXrecord
280
     1
340
B16D
  0
XRECORD
  5
B33D
102
{ACAD_REACTORS
330
B33C
102
}
330
B33C
100
AcDbXrecord
280
     1
340
B169
  0
ACDBDETAILVIEWSTYLE
  5
B391
102
{ACAD_XDICTIONARY
360
B3EC
102
}
102
{ACAD_REACTORS
330
B390
102
}
330
B390
100
AcDbModelDocViewStyle
 70
     0
  3
Imperial24
290
     0
100
AcDbDetailViewStyle
 70
     0
 71
     0
 90
        3
 71
     1
340
B160
 40
0.24
340
0
 40
0.24
300

 40
0.36
280
     3
 71
     2
340
B164
 90
       25
 71
     3
340
B160
 40
0.24
 90
        1
 40
0.75
 90
        1
300
%<\AcVar ViewType \f "%tc1">% %<\AcVar ViewDetailId>%\PSCALE %<\AcVar ViewScale \f "%sn">%
 71
     4
340
B164
 90
       25
340
B164
 90
       25
280
     0
  0
LAYOUT
  5
B392
102
{ACAD_XDICTIONARY
360
B3EE
102
}
102
{ACAD_REACTORS
330
B168
102
}
330
B168
100
AcDbPlotSettings
  1

  2
Canon LBP9100C
  4

  6

 40
0.0
 41
0.0
 42
0.0
 43
0.0
 44
0.0
 45
0.0
 46
0.0
 47
0.0
 48
0.0
 49
0.0
140
0.0
141
0.0
142
1.0
143
1.0
 70
  1712
 72
     0
 73
     0
 74
     0
  7

 75
     0
147
1.0
148
0.0
149
0.0
100
AcDbLayout
  1
Model
 70
     1
 71
     0
 10
0.0
 20
0.0
 11
12.0
 21
9.0
 12
0.0
 22
0.0
 32
0.0
 14
0.0
 24
0.0
 34
0.0
 15
0.0
 25
0.0
 35
0.0
146
0.0
 13
0.0
 23
0.0
 33
0.0
 16
1.0
 26
0.0
 36
0.0
 17
0.0
 27
1.0
 37
0.0
 76
     0
330
B16D
331
B33B
  0
LAYOUT
  5
B393
102
{ACAD_XDICTIONARY
360
B3F0
102
}
102
{ACAD_REACTORS
330
B168
102
}
330
B168
100
AcDbPlotSettings
  1

  2
Canon LBP9100C
  4

  6

 40
0.0
 41
0.0
 42
0.0
 43
0.0
 44
0.0
 45
0.0
 46
0.0
 47
0.0
 48
0.0
 49
0.0
140
0.0
141
0.0
142
1.0
143
1.0
 70
   688
 72
     0
 73
     0
 74
     5
  7

 75
    16
147
1.0
148
0.0
149
0.0
100
AcDbLayout
  1
レイアウト1
 70
     0
 71
     1
 10
0.0
 20
0.0
 11
420.0
 21
297.0
 12
0.0
 22
0.0
 32
0.0
 14
1.000000000000000E+20
 24
1.000000000000000E+20
 34
1.000000000000000E+20
 15
-1.000000000000000E+20
 25
-1.000000000000000E+20
 35
-1.000000000000000E+20
146
0.0
 13
0.0
 23
0.0
 33
0.0
 16
1.0
 26
0.0
 36
0.0
 17
0.0
 27
1.0
 37
0.0
 76
     0
330
B169
  0
MATERIAL
  5
B34E
102
{ACAD_XDICTIONARY
360
B34F
102
}
102
{ACAD_REACTORS
330
B345
102
}
330
B345
100
AcDbMaterial
  1
ByBlock
 72
     0
 43
0.0208333333333333
 43
0.0
 43
0.0
 43
0.0
 43
0.0
 43
0.0208333333333333
 43
0.0
 43
0.0
 43
0.0
 43
0.0
 43
1.0
 43
0.0
 43
0.0
 43
0.0
 43
0.0
 43
1.0
 77
     0
 47
0.0208333333333333
 47
0.0
 47
0.0
 47
0.0
 47
0.0
 47
0.0208333333333333
 47
0.0
 47
0.0
 47
0.0
 47
0.0
 47
1.0
 47
0.0
 47
0.0
 47
0.0
 47
0.0
 47
1.0
171
     0
 49
0.0208333333333333
 49
0.0
 49
0.0
 49
0.0
 49
0.0
 49
0.0208333333333333
 49
0.0
 49
0.0
 49
0.0
 49
0.0
 49
1.0
 49
0.0
 49
0.0
 49
0.0
 49
0.0
 49
1.0
175
     0
142
0.0208333333333333
142
0.0
142
0.0
142
0.0
142
0.0
142
0.0208333333333333
142
0.0
142
0.0
142
0.0
142
0.0
142
1.0
142
0.0
142
0.0
142
0.0
142
0.0
142
1.0
179
     0
144
0.0208333333333333
144
0.0
144
0.0
144
0.0
144
0.0
144
0.0208333333333333
144
0.0
144
0.0
144
0.0
144
0.0
144
1.0
144
0.0
144
0.0
144
0.0
144
0.0
144
1.0
147
0.0208333333333333
147
0.0
147
0.0
147
0.0
147
0.0
147
0.0208333333333333
147
0.0
147
0.0
147
0.0
147
0.0
147
1.0
147
0.0
147
0.0
147
0.0
147
0.0
147
1.0
  0
MATERIAL
  5
B346
102
{ACAD_XDICTIONARY
360
B347
102
}
102
{ACAD_REACTORS
330
B345
102
}
330
B345
100
AcDbMaterial
  1
ByLayer
 72
     0
 43
0.0208333333333333
 43
0.0
 43
0.0
 43
0.0
 43
0.0
 43
0.0208333333333333
 43
0.0
 43
0.0
 43
0.0
 43
0.0
 43
1.0
 43
0.0
 43
0.0
 43
0.0
 43
0.0
 43
1.0
 77
     0
 47
0.0208333333333333
 47
0.0
 47
0.0
 47
0.0
 47
0.0
 47
0.0208333333333333
 47
0.0
 47
0.0
 47
0.0
 47
0.0
 47
1.0
 47
0.0
 47
0.0
 47
0.0
 47
0.0
 47
1.0
171
     0
 49
0.0208333333333333
 49
0.0
 49
0.0
 49
0.0
 49
0.0
 49
0.0208333333333333
 49
0.0
 49
0.0
 49
0.0
 49
0.0
 49
1.0
 49
0.0
 49
0.0
 49
0.0
 49
0.0
 49
1.0
175
     0
142
0.0208333333333333
142
0.0
142
0.0
142
0.0
142
0.0
142
0.0208333333333333
142
0.0
142
0.0
142
0.0
142
0.0
142
1.0
142
0.0
142
0.0
142
0.0
142
0.0
142
1.0
179
     0
144
0.0208333333333333
144
0.0
144
0.0
144
0.0
144
0.0
144
0.0208333333333333
144
0.0
144
0.0
144
0.0
144
0.0
144
1.0
144
0.0
144
0.0
144
0.0
144
0.0
144
1.0
147
0.0208333333333333
147
0.0
147
0.0
147
0.0
147
0.0
147
0.0208333333333333
147
0.0
147
0.0
147
0.0
147
0.0
147
1.0
147
0.0
147
0.0
147
0.0
147
0.0
147
1.0
  0
MATERIAL
  5
B356
102
{ACAD_XDICTIONARY
360
B357
102
}
102
{ACAD_REACTORS
330
B345
102
}
330
B345
100
AcDbMaterial
  1
Global
 72
     0
 43
0.0208333333333333
 43
0.0
 43
0.0
 43
0.0
 43
0.0
 43
0.0208333333333333
 43
0.0
 43
0.0
 43
0.0
 43
0.0
 43
1.0
 43
0.0
 43
0.0
 43
0.0
 43
0.0
 43
1.0
 77
     0
 47
0.0208333333333333
 47
0.0
 47
0.0
 47
0.0
 47
0.0
 47
0.0208333333333333
 47
0.0
 47
0.0
 47
0.0
 47
0.0
 47
1.0
 47
0.0
 47
0.0
 47
0.0
 47
0.0
 47
1.0
171
     0
 49
0.0208333333333333
 49
0.0
 49
0.0
 49
0.0
 49
0.0
 49
0.0208333333333333
 49
0.0
 49
0.0
 49
0.0
 49
0.0
 49
1.0
 49
0.0
 49
0.0
 49
0.0
 49
0.0
 49
1.0
175
     0
142
0.0208333333333333
142
0.0
142
0.0
142
0.0
142
0.0
142
0.0208333333333333
142
0.0
142
0.0
142
0.0
142
0.0
142
1.0
142
0.0
142
0.0
142
0.0
142
0.0
142
1.0
179
     0
144
0.0208333333333333
144
0.0
144
0.0
144
0.0
144
0.0
144
0.0208333333333333
144
0.0
144
0.0
144
0.0
144
0.0
144
1.0
144
0.0
144
0.0
144
0.0
144
0.0
144
1.0
147
0.0208333333333333
147
0.0
147
0.0
147
0.0
147
0.0
147
0.0208333333333333
147
0.0
147
0.0
147
0.0
147
0.0
147
1.0
147
0.0
147
0.0
147
0.0
147
0.0
147
1.0
  0
MLEADERSTYLE
  5
B38D
102
{ACAD_REACTORS
330
B38C
102
}
330
B38C
100
AcDbMLeaderStyle
170
     2
171
     1
172
     0
 90
        2
 40
0.0
 41
0.0
173
     1
 91
-1056964608
340
B162
 92
       -2
290
     1
 42
0.09
291
     1
 43
0.36
  3
Standard
 44
0.18
300

342
B160
174
     1
178
     6
175
     1
176
     0
 93
-1056964608
 45
0.18
292
     0
297
     0
 46
0.18
 94
-1056964608
 47
1.0
 49
1.0
140
1.0
293
     1
141
0.0
294
     1
177
     0
142
1.0
295
     0
296
     0
143
0.125
1001
ACAD_MLEADERVER
1070
     2
  0
MLINESTYLE
  5
B166
102
{ACAD_REACTORS
330
B165
102
}
330
B165
100
AcDbMlineStyle
  2
STANDARD
 70
     0
  3

 62
   256
 51
90.0
 52
90.0
 71
     2
 49
0.5
 62
   256
  6
BYLAYER
 49
-0.5
 62
   256
  6
BYLAYER
  0
ACDBPLACEHOLDER
  5
B344
102
{ACAD_REACTORS
330
B343
102
}
330
B343
  0
SCALE
  5
B37B
102
{ACAD_REACTORS
330
B37A
102
}
330
B37A
100
AcDbScale
 70
     0
300
1:1
140
1.0
141
1.0
290
     1
  0
SCALE
  5
B37C
102
{ACAD_REACTORS
330
B37A
102
}
330
B37A
100
AcDbScale
 70
     0
300
1/128" = 1'-0"
140
0.0078125
141
12.0
290
     0
  0
SCALE
  5
B37D
102
{ACAD_REACTORS
330
B37A
102
}
330
B37A
100
AcDbScale
 70
     0
300
1/64" = 1'-0"
140
0.015625
141
12.0
290
     0
  0
SCALE
  5
B37E
102
{ACAD_REACTORS
330
B37A
102
}
330
B37A
100
AcDbScale
 70
     0
300
1/32" = 1'-0"
140
0.03125
141
12.0
290
     0
  0
SCALE
  5
B37F
102
{ACAD_REACTORS
330
B37A
102
}
330
B37A
100
AcDbScale
 70
     0
300
1/16" = 1'-0"
140
0.0625
141
12.0
290
     0
  0
SCALE
  5
B380
102
{ACAD_REACTORS
330
B37A
102
}
330
B37A
100
AcDbScale
 70
     0
300
3/32" = 1'-0"
140
0.09375
141
12.0
290
     0
  0
SCALE
  5
B381
102
{ACAD_REACTORS
330
B37A
102
}
330
B37A
100
AcDbScale
 70
     0
300
1/8" = 1'-0"
140
0.125
141
12.0
290
     0
  0
SCALE
  5
B382
102
{ACAD_REACTORS
330
B37A
102
}
330
B37A
100
AcDbScale
 70
     0
300
3/16" = 1'-0"
140
0.1875
141
12.0
290
     0
  0
SCALE
  5
B383
102
{ACAD_REACTORS
330
B37A
102
}
330
B37A
100
AcDbScale
 70
     0
300
1/4" = 1'-0"
140
0.25
141
12.0
290
     0
  0
SCALE
  5
B384
102
{ACAD_REACTORS
330
B37A
102
}
330
B37A
100
AcDbScale
 70
     0
300
3/8" = 1'-0"
140
0.375
141
12.0
290
     0
  0
SCALE
  5
B385
102
{ACAD_REACTORS
330
B37A
102
}
330
B37A
100
AcDbScale
 70
     0
300
1/2" = 1'-0"
140
0.5
141
12.0
290
     0
  0
SCALE
  5
B386
102
{ACAD_REACTORS
330
B37A
102
}
330
B37A
100
AcDbScale
 70
     0
300
3/4" = 1'-0"
140
0.75
141
12.0
290
     0
  0
SCALE
  5
B387
102
{ACAD_REACTORS
330
B37A
102
}
330
B37A
100
AcDbScale
 70
     0
300
1" = 1'-0"
140
1.0
141
12.0
290
     0
  0
SCALE
  5
B388
102
{ACAD_REACTORS
330
B37A
102
}
330
B37A
100
AcDbScale
 70
     0
300
1-1/2" = 1'-0"
140
1.5
141
12.0
290
     0
  0
SCALE
  5
B389
102
{ACAD_REACTORS
330
B37A
102
}
330
B37A
100
AcDbScale
 70
     0
300
3" = 1'-0"
140
3.0
141
12.0
290
     0
  0
SCALE
  5
B38A
102
{ACAD_REACTORS
330
B37A
102
}
330
B37A
100
AcDbScale
 70
     0
300
6" = 1'-0"
140
6.0
141
12.0
290
     0
  0
SCALE
  5
B38B
102
{ACAD_REACTORS
330
B37A
102
}
330
B37A
100
AcDbScale
 70
     0
300
1'-0" = 1'-0"
140
12.0
141
12.0
290
     0
  0
ACDBSECTIONVIEWSTYLE
  5
B38F
102
{ACAD_XDICTIONARY
360
B3EA
102
}
102
{ACAD_REACTORS
330
B38E
102
}
330
B38E
100
AcDbModelDocViewStyle
 70
     0
  3
Imperial24
290
     0
100
AcDbSectionViewStyle
 70
     0
 71
     0
 90
       78
 71
     1
340
B160
 40
0.24
340
0
340
0
 40
0.24
300
I, O, Q, S, X, Z
 40
0.48
 90
        3
 40
0.18
 90
        1
 71
     2
340
B164
 90
       25
340
B164
 90
       50
 40
0.24
 40
0.0
 40
0.24
 71
     3
340
B160
 40
0.24
 90
        1
 40
0.75
 90
        1
300
%<\AcVar ViewType \f "%tc1">% %<\AcVar ViewSectionStartId>%-%<\AcVar ViewSectionEndId>%\PSCALE %<\AcVar ViewScale \f "%sn">%
 71
     4
300
ANSI31
 40
1.0
 90
        0
290
     0
290
     0
 90
        6
 40
0.0
 40
1.570796326794896
 40
0.2617993877991494
 40
1.308996938995747
 40
-0.2617993877991494
 40
1.832595714594046
  0
TABLESTYLE
  5
B379
102
{ACAD_XDICTIONARY
360
B3B1
102
}
102
{ACAD_REACTORS
330
B378
102
}
330
B378
100
AcDbTableStyle
  3
Standard
 70
     0
 71
     0
 40
0.06
 41
0.06
280
     0
281
     0
  7
STANDARD
140
0.18
170
     2
 62
     0
 63
     7
283
     0
274
    -2
284
     1
 64
     0
275
    -2
285
     1
 65
     0
276
    -2
286
     1
 66
     0
277
    -2
287
     1
 67
     0
278
    -2
288
     1
 68
     0
279
    -2
289
     1
 69
     0
  7
STANDARD
140
0.25
170
     5
 62
     0
 63
     7
283
     0
274
    -2
284
     1
 64
     0
275
    -2
285
     1
 65
     0
276
    -2
286
     1
 66
     0
277
    -2
287
     1
 67
     0
278
    -2
288
     1
 68
     0
279
    -2
289
     1
 69
     0
  7
STANDARD
140
0.18
170
     5
 62
     0
 63
     7
283
     0
274
    -2
284
     1
 64
     0
275
    -2
285
     1
 65
     0
276
    -2
286
     1
 66
     0
277
    -2
287
     1
 67
     0
278
    -2
288
     1
 68
     0
279
    -2
289
     1
 69
     0
  0
VISUALSTYLE
  5
B364
102
{ACAD_XDICTIONARY
360
B3C2
102
}
102
{ACAD_REACTORS
330
B35E
102
}
330
B35E
100
AcDbVisualStyle
  2
2dWireframe
 70
     4
 71
     0
 72
     2
 73
     0
 90
        0
 40
-0.6
 41
-30.0
 62
     5
 63
     7
 74
     1
 91
        4
 64
     7
 65
   257
 75
     1
175
     1
 42
1.0
 92
        0
 66
   257
 43
1.0
 76
     1
 77
     6
 78
     2
 67
     7
 79
     5
170
     0
171
     0
290
     0
174
     0
 93
        1
 44
0.0
173
     0
291
     0
 45
0.0
1001
ACAD
1000
AcDbSavedByObjectVersion
1070
     0
  0
VISUALSTYLE
  5
B363
102
{ACAD_XDICTIONARY
360
B3C0
102
}
102
{ACAD_REACTORS
330
B35E
102
}
330
B35E
100
AcDbVisualStyle
  2
Basic
 70
     7
 71
     1
 72
     0
 73
     1
 90
        0
 40
-0.6
 41
-30.0
 62
     5
 63
     7
 74
     0
 91
        4
 64
     7
 65
   257
 75
     1
175
     1
 42
1.0
 92
        8
 66
     7
 43
1.0
 76
     1
 77
     6
 78
     2
 67
     7
 79
     5
170
     0
171
     0
290
     0
174
     0
 93
        1
 44
0.0
173
     0
291
     1
 45
0.0
1001
ACAD
1000
AcDbSavedByObjectVersion
1070
     0
  0
VISUALSTYLE
  5
B36A
102
{ACAD_XDICTIONARY
360
B3CE
102
}
102
{ACAD_REACTORS
330
B35E
102
}
330
B35E
100
AcDbVisualStyle
  2
Brighten
 70
    12
 71
     2
 72
     2
 73
     0
 90
        0
 40
-0.6
 41
-30.0
 62
     5
 63
     7
 74
     1
 91
        4
 64
     7
 65
   257
 75
     1
175
     1
 42
1.0
 92
        8
 66
     7
 43
1.0
 76
     1
 77
     6
 78
     2
 67
     7
 79
     5
170
     0
171
     0
290
     0
174
     0
 93
        1
 44
50.0
173
     0
291
     1
 45
0.0
1001
ACAD
1000
AcDbSavedByObjectVersion
1070
     0
  0
VISUALSTYLE
  5
B36E
102
{ACAD_XDICTIONARY
360
B3D6
102
}
102
{ACAD_REACTORS
330
B35E
102
}
330
B35E
100
AcDbVisualStyle
  2
ColorChange
 70
    16
 71
     2
 72
     2
 73
     3
 90
        0
 40
-0.6
 41
-30.0
 62
     5
 63
     8
 74
     1
 91
        4
 64
     7
 65
   257
 75
     1
175
     1
 42
1.0
 92
        8
 66
     8
 43
1.0
 76
     1
 77
     6
 78
     2
 67
     7
 79
     5
170
     0
171
     0
290
     0
174
     0
 93
        1
 44
0.0
173
     0
291
     1
 45
0.0
1001
ACAD
1000
AcDbSavedByObjectVersion
1070
     0
  0
VISUALSTYLE
  5
B367
102
{ACAD_XDICTIONARY
360
B3C8
102
}
102
{ACAD_REACTORS
330
B35E
102
}
330
B35E
100
AcDbVisualStyle
  2
Conceptual
 70
     9
 71
     3
 72
     2
 73
     0
 90
        0
 40
-0.6
 41
-30.0
 62
     5
 63
     7
 74
     2
 91
        2
 64
     7
 65
   257
 75
     1
175
     1
 42
179.0
 92
        8
 66
     7
 43
1.0
 76
     1
 77
     6
 78
     2
 67
     7
 79
     3
170
     0
171
     0
290
     0
174
     0
 93
        1
 44
0.0
173
     0
291
     0
 45
0.0
1001
ACAD
1000
AcDbSavedByObjectVersion
1070
     0
  0
VISUALSTYLE
  5
B369
102
{ACAD_XDICTIONARY
360
B3CC
102
}
102
{ACAD_REACTORS
330
B35E
102
}
330
B35E
100
AcDbVisualStyle
  2
Dim
 70
    11
 71
     2
 72
     2
 73
     0
 90
        0
 40
-0.6
 41
-30.0
 62
     5
 63
     7
 74
     1
 91
        4
 64
     7
 65
   257
 75
     1
175
     1
 42
1.0
 92
        8
 66
     7
 43
1.0
 76
     1
 77
     6
 78
     2
 67
     7
 79
     5
170
     0
171
     0
290
     0
174
     0
 93
        1
 44
-50.0
173
     0
291
     1
 45
0.0
1001
ACAD
1000
AcDbSavedByObjectVersion
1070
     0
  0
VISUALSTYLE
  5
B376
102
{ACAD_XDICTIONARY
360
B3E6
102
}
102
{ACAD_REACTORS
330
B35E
102
}
330
B35E
100
AcDbVisualStyle
  2
EdgeColorOff
 70
    22
 71
     2
 72
     2
 73
     0
 90
        0
 40
-0.6
 41
-30.0
 62
     5
 63
     7
 74
     1
 91
        4
 64
     7
 65
   257
 75
     1
175
     1
 42
1.0
 92
        8
 66
     7
 43
1.0
 76
     1
 77
     6
 78
     2
 67
     7
 79
     5
170
     0
171
     0
290
     0
174
     0
 93
        1
 44
0.0
173
     0
291
     1
 45
0.0
1001
ACAD
1000
AcDbSavedByObjectVersion
1070
     0
  0
VISUALSTYLE
  5
B36D
102
{ACAD_XDICTIONARY
360
B3D4
102
}
102
{ACAD_REACTORS
330
B35E
102
}
330
B35E
100
AcDbVisualStyle
  2
Facepattern
 70
    15
 71
     2
 72
     2
 73
     0
 90
        0
 40
-0.6
 41
-30.0
 62
     5
 63
     7
 74
     1
 91
        4
 64
     7
 65
   257
 75
     1
175
     1
 42
1.0
 92
        8
 66
     7
 43
1.0
 76
     1
 77
     6
 78
     2
 67
     7
 79
     5
170
     0
171
     0
290
     0
174
     0
 93
        1
 44
0.0
173
     0
291
     1
 45
0.0
1001
ACAD
1000
AcDbSavedByObjectVersion
1070
     0
  0
VISUALSTYLE
  5
B35F
102
{ACAD_XDICTIONARY
360
B3B8
102
}
102
{ACAD_REACTORS
330
B35E
102
}
330
B35E
100
AcDbVisualStyle
  2
Flat
 70
     0
 71
     2
 72
     1
 73
     1
 90
        2
 40
-0.6
 41
30.0
 62
     5
 63
     7
 74
     0
 91
        0
 64
     7
 65
   257
 75
     1
175
     1
 42
1.0
 92
        8
 66
     7
 43
1.0
 76
     1
 77
     6
 78
     2
 67
     7
 79
     5
170
     0
171
     0
290
     0
174
     0
 93
       13
 44
0.0
173
     0
291
     1
 45
0.0
1001
ACAD
1000
AcDbSavedByObjectVersion
1070
     0
  0
VISUALSTYLE
  5
B360
102
{ACAD_XDICTIONARY
360
B3BA
102
}
102
{ACAD_REACTORS
330
B35E
102
}
330
B35E
100
AcDbVisualStyle
  2
FlatWithEdges
 70
     1
 71
     2
 72
     1
 73
     1
 90
        2
 40
-0.6
 41
30.0
 62
     5
 63
     7
 74
     1
 91
        0
 64
     7
 65
   257
 75
     1
175
     1
 42
1.0
 92
        0
 66
   257
 43
1.0
 76
     1
 77
     6
 78
     2
 67
     7
 79
     5
170
     0
171
     0
290
     0
174
     0
 93
       13
 44
0.0
173
     0
291
     1
 45
0.0
1001
ACAD
1000
AcDbSavedByObjectVersion
1070
     0
  0
VISUALSTYLE
  5
B361
102
{ACAD_XDICTIONARY
360
B3BC
102
}
102
{ACAD_REACTORS
330
B35E
102
}
330
B35E
100
AcDbVisualStyle
  2
Gouraud
 70
     2
 71
     2
 72
     2
 73
     1
 90
        2
 40
-0.6
 41
30.0
 62
     5
 63
     7
 74
     0
 91
        0
 64
     7
 65
   257
 75
     1
175
     1
 42
1.0
 92
        0
 66
     7
 43
1.0
 76
     1
 77
     6
 78
     2
 67
     7
 79
     5
170
     0
171
     0
290
     0
174
     0
 93
       13
 44
0.0
173
     0
291
     1
 45
0.0
1001
ACAD
1000
AcDbSavedByObjectVersion
1070
     0
  0
VISUALSTYLE
  5
B362
102
{ACAD_XDICTIONARY
360
B3BE
102
}
102
{ACAD_REACTORS
330
B35E
102
}
330
B35E
100
AcDbVisualStyle
  2
GouraudWithEdges
 70
     3
 71
     2
 72
     2
 73
     1
 90
        2
 40
-0.6
 41
30.0
 62
     5
 63
     7
 74
     1
 91
        0
 64
     7
 65
   257
 75
     1
175
     1
 42
1.0
 92
        0
 66
   257
 43
1.0
 76
     1
 77
     6
 78
     2
 67
     7
 79
     5
170
     0
171
     0
290
     0
174
     0
 93
       13
 44
0.0
173
     0
291
     1
 45
0.0
1001
ACAD
1000
AcDbSavedByObjectVersion
1070
     0
  0
VISUALSTYLE
  5
B366
102
{ACAD_XDICTIONARY
360
B3C6
102
}
102
{ACAD_REACTORS
330
B35E
102
}
330
B35E
100
AcDbVisualStyle
  2
Hidden
 70
     6
 71
     1
 72
     2
 73
     2
 90
        0
 40
-0.6
 41
-30.0
 62
     5
 63
     7
 74
     2
 91
        2
 64
     7
 65
   257
 75
     2
175
     1
 42
40.0
 92
        0
 66
   257
 43
1.0
 76
     1
 77
     6
 78
     2
 67
     7
 79
     3
170
     0
171
     0
290
     0
174
     0
 93
        1
 44
0.0
173
     0
291
     0
 45
0.0
1001
ACAD
1000
AcDbSavedByObjectVersion
1070
     0
  0
VISUALSTYLE
  5
B374
102
{ACAD_XDICTIONARY
360
B3E2
102
}
102
{ACAD_REACTORS
330
B35E
102
}
330
B35E
100
AcDbVisualStyle
  2
JitterOff
 70
    20
 71
     2
 72
     2
 73
     0
 90
        0
 40
-0.6
 41
-30.0
 62
     5
 63
     7
 74
     1
 91
        4
 64
     7
 65
   257
 75
     1
175
     1
 42
1.0
 92
       10
 66
     7
 43
1.0
 76
     1
 77
     6
 78
     2
 67
     7
 79
     5
170
     0
171
     0
290
     0
174
     0
 93
        1
 44
0.0
173
     0
291
     1
 45
0.0
1001
ACAD
1000
AcDbSavedByObjectVersion
1070
     0
  0
VISUALSTYLE
  5
B36C
102
{ACAD_XDICTIONARY
360
B3D2
102
}
102
{ACAD_REACTORS
330
B35E
102
}
330
B35E
100
AcDbVisualStyle
  2
Linepattern
 70
    14
 71
     2
 72
     2
 73
     0
 90
        0
 40
-0.6
 41
-30.0
 62
     5
 63
     7
 74
     1
 91
        4
 64
     7
 65
   257
 75
     7
175
     7
 42
1.0
 92
        8
 66
     7
 43
1.0
 76
     1
 77
     6
 78
     2
 67
     7
 79
     5
170
     0
171
     0
290
     0
174
     0
 93
        1
 44
0.0
173
     0
291
     1
 45
0.0
1001
ACAD
1000
AcDbSavedByObjectVersion
1070
     0
  0
VISUALSTYLE
  5
B375
102
{ACAD_XDICTIONARY
360
B3E4
102
}
102
{ACAD_REACTORS
330
B35E
102
}
330
B35E
100
AcDbVisualStyle
  2
OverhangOff
 70
    21
 71
     2
 72
     2
 73
     0
 90
        0
 40
-0.6
 41
-30.0
 62
     5
 63
     7
 74
     1
 91
        4
 64
     7
 65
   257
 75
     1
175
     1
 42
1.0
 92
        9
 66
     7
 43
1.0
 76
     1
 77
     6
 78
     2
 67
     7
 79
     5
170
     0
171
     0
290
     0
174
     0
 93
        1
 44
0.0
173
     0
291
     1
 45
0.0
1001
ACAD
1000
AcDbSavedByObjectVersion
1070
     0
  0
VISUALSTYLE
  5
B368
102
{ACAD_XDICTIONARY
360
B3CA
102
}
102
{ACAD_REACTORS
330
B35E
102
}
330
B35E
100
AcDbVisualStyle
  2
Realistic
 70
     8
 71
     2
 72
     3
 73
     0
 90
        2
 40
-0.6
 41
30.0
 62
     5
 63
     7
 74
     0
 91
        0
 64
     7
 65
   257
 75
     1
175
     1
 42
1.0
 92
        8
 66
   257
 43
1.0
 76
     1
 77
     6
 78
     2
 67
     7
 79
     3
170
     0
171
     0
290
     0
174
     0
 93
       13
 44
0.0
173
     0
291
     0
 45
0.0
1001
ACAD
1000
AcDbSavedByObjectVersion
1070
     0
  0
VISUALSTYLE
  5
B373
102
{ACAD_XDICTIONARY
360
B3E0
102
}
102
{ACAD_REACTORS
330
B35E
102
}
330
B35E
100
AcDbVisualStyle
  2
Shaded
 70
    27
 71
     2
 72
     2
 73
     1
 90
        2
 40
-0.6
 41
30.0
 62
     5
 63
     7
 74
     0
 91
        4
 64
     7
 65
   257
 75
     1
175
     1
 42
1.0
 92
        8
 66
   257
 43
1.0
 76
     1
 77
     6
 78
     2
 67
     8
 79
     3
170
     0
171
     0
290
     0
174
     0
 93
        5
 44
0.0
173
     0
291
     0
 45
0.0
1001
ACAD
1000
AcDbSavedByObjectVersion
1070
     0
  0
VISUALSTYLE
  5
B372
102
{ACAD_XDICTIONARY
360
B3DE
102
}
102
{ACAD_REACTORS
330
B35E
102
}
330
B35E
100
AcDbVisualStyle
  2
Shaded with edges
 70
    26
 71
     2
 72
     2
 73
     1
 90
        2
 40
-0.6
 41
30.0
 62
     5
 63
     7
 74
     1
 91
       10
 64
     7
 65
   257
 75
     2
175
     1
 42
1.0
 92
        8
 66
   257
 43
1.0
 76
     1
 77
     6
 78
     2
 67
     7
 79
     3
170
     0
171
     0
290
     0
174
     0
 93
        5
 44
0.0
173
     0
291
     0
 45
0.0
1001
ACAD
1000
AcDbSavedByObjectVersion
1070
     0
  0
VISUALSTYLE
  5
B36F
102
{ACAD_XDICTIONARY
360
B3D8
102
}
102
{ACAD_REACTORS
330
B35E
102
}
330
B35E
100
AcDbVisualStyle
  2
Shades of Gray
 70
    23
 71
     2
 72
     2
 73
     3
 90
        0
 40
-0.6
 41
-30.0
 62
     5
 63
     7
 74
     2
 91
        2
 64
     7
 65
     7
 75
     1
175
     1
 42
40.0
 92
        8
 66
     7
 43
1.0
 76
     1
 77
     6
 78
     2
 67
     7
 79
     3
170
     0
171
     0
290
     0
174
     0
 93
        1
 44
0.0
173
     0
291
     0
 45
0.0
1001
ACAD
1000
AcDbSavedByObjectVersion
1070
     0
  0
VISUALSTYLE
  5
B370
102
{ACAD_XDICTIONARY
360
B3DA
102
}
102
{ACAD_REACTORS
330
B35E
102
}
330
B35E
100
AcDbVisualStyle
  2
Sketchy
 70
    24
 71
     1
 72
     2
 73
     2
 90
        0
 40
-0.6
 41
-30.0
 62
     5
 63
     7
 74
     2
 91
        2
 64
     7
 65
     7
 75
     1
175
     1
 42
40.0
 92
       11
 66
     7
 43
1.0
 76
     1
 77
     6
 78
     2
 67
     7
 79
     6
170
     0
171
     0
290
     0
174
     0
 93
        1
 44
0.0
173
     0
291
     0
 45
0.0
1001
ACAD
1000
AcDbSavedByObjectVersion
1070
     0
  0
VISUALSTYLE
  5
B36B
102
{ACAD_XDICTIONARY
360
B3D0
102
}
102
{ACAD_REACTORS
330
B35E
102
}
330
B35E
100
AcDbVisualStyle
  2
Thicken
 70
    13
 71
     2
 72
     2
 73
     0
 90
        0
 40
-0.6
 41
-30.0
 62
     5
 63
     7
 74
     1
 91
        4
 64
     7
 65
   257
 75
     1
175
     1
 42
1.0
 92
       12
 66
     7
 43
1.0
 76
     1
 77
     6
 78
     2
 67
     7
 79
     5
170
     0
171
     0
290
     0
174
     0
 93
        1
 44
0.0
173
     0
291
     1
 45
0.0
1001
ACAD
1000
AcDbSavedByObjectVersion
1070
     0
  0
VISUALSTYLE
  5
B365
102
{ACAD_XDICTIONARY
360
B3C4
102
}
102
{ACAD_REACTORS
330
B35E
102
}
330
B35E
100
AcDbVisualStyle
  2
Wireframe
 70
     5
 71
     0
 72
     2
 73
     0
 90
        0
 40
-0.6
 41
-30.0
 62
     5
 63
     7
 74
     1
 91
        4
 64
     7
 65
   257
 75
     1
175
     1
 42
1.0
 92
        0
 66
   257
 43
1.0
 76
     1
 77
     6
 78
     2
 67
     7
 79
     3
170
     0
171
     0
290
     0
174
     0
 93
        1
 44
0.0
173
     0
291
     0
 45
0.0
1001
ACAD
1000
AcDbSavedByObjectVersion
1070
     0
  0
VISUALSTYLE
  5
B371
102
{ACAD_XDICTIONARY
360
B3DC
102
}
102
{ACAD_REACTORS
330
B35E
102
}
330
B35E
100
AcDbVisualStyle
  2
X-Ray
 70
    25
 71
     2
 72
     2
 73
     1
 90
        1
 40
0.5
 41
-30.0
 62
     5
 63
     7
 74
     1
 91
        0
 64
     7
 65
   257
 75
     1
175
     1
 42
1.0
 92
        8
 66
     7
 43
1.0
 76
     1
 77
     6
 78
     2
 67
     7
 79
     3
170
     0
171
     0
290
     0
174
     0
 93
       13
 44
0.0
173
     0
291
     0
 45
0.0
1001
ACAD
1000
AcDbSavedByObjectVersion
1070
     0
  0
DICTIONARYVAR
  5
B3AB
102
{ACAD_REACTORS
330
B3A6
102
}
330
B3A6
100
DictionaryVariables
280
     0
  1
1:1
  0
DICTIONARYVAR
  5
B3A8
102
{ACAD_REACTORS
330
B3A6
102
}
330
B3A6
100
DictionaryVariables
280
     0
  1
STANDARD
  0
DICTIONARYVAR
  5
B3A7
102
{ACAD_REACTORS
330
B3A6
102
}
330
B3A6
100
DictionaryVariables
280
     0
  1
STANDARD
  0
DICTIONARYVAR
  5
B3A9
102
{ACAD_REACTORS
330
B3A6
102
}
330
B3A6
100
DictionaryVariables
280
     0
  1
Imperial24
  0
DICTIONARYVAR
  5
B3AA
102
{ACAD_REACTORS
330
B3A6
102
}
330
B3A6
100
DictionaryVariables
280
     0
  1
Imperial24
  0
DICTIONARYVAR
  5
B3AE
102
{ACAD_REACTORS
330
B3A6
102
}
330
B3A6
100
DictionaryVariables
280
     0
  1
1
  0
DICTIONARYVAR
  5
B3AD
102
{ACAD_REACTORS
330
B3A6
102
}
330
B3A6
100
DictionaryVariables
280
     0
  1
0
  0
DICTIONARYVAR
  5
B3AC
102
{ACAD_REACTORS
330
B3A6
102
}
330
B3A6
100
DictionaryVariables
280
     0
  1
127
  0
DICTIONARYVAR
  5
B3AF
102
{ACAD_REACTORS
330
B3A6
102
}
330
B3A6
100
DictionaryVariables
280
     0
  1
2
  0
DICTIONARY
  5
B3EC
330
B391
100
AcDbDictionary
280
     1
281
     1
  3
ACAD_XREC_ROUNDTRIP
360
B3ED
  0
DICTIONARY
  5
B3EE
330
B392
100
AcDbDictionary
280
     1
281
     1
  3
ACAD_XREC_ROUNDTRIP
360
B3EF
  0
DICTIONARY
  5
B3F0
330
B393
100
AcDbDictionary
280
     1
281
     1
  3
ACAD_XREC_ROUNDTRIP
360
B3F1
  0
DICTIONARY
  5
B34F
330
B34E
100
AcDbDictionary
280
     1
281
     1
  3
ACAD_XREC_ROUNDTRIP
360
B3B6
  3
BUMPTILE
360
B351
  3
DIFFUSETILE
360
B350
  3
OPACITYTILE
360
B354
  3
REFLECTIONTILE
360
B353
  3
REFRACTIONTILE
360
B355
  3
SPECULARTILE
360
B352
  0
DICTIONARY
  5
B347
330
B346
100
AcDbDictionary
280
     1
281
     1
  3
ACAD_XREC_ROUNDTRIP
360
B3B5
  3
BUMPTILE
360
B349
  3
DIFFUSETILE
360
B348
  3
OPACITYTILE
360
B34C
  3
REFLECTIONTILE
360
B34B
  3
REFRACTIONTILE
360
B34D
  3
SPECULARTILE
360
B34A
  0
DICTIONARY
  5
B357
330
B356
100
AcDbDictionary
280
     1
281
     1
  3
ACAD_XREC_ROUNDTRIP
360
B3B7
  3
BUMPTILE
360
B359
  3
DIFFUSETILE
360
B358
  3
OPACITYTILE
360
B35C
  3
REFLECTIONTILE
360
B35B
  3
REFRACTIONTILE
360
B35D
  3
SPECULARTILE
360
B35A
  0
DICTIONARY
  5
B3EA
330
B38F
100
AcDbDictionary
280
     1
281
     1
  3
ACAD_XREC_ROUNDTRIP
360
B3EB
  0
DICTIONARY
  5
B3B1
330
B379
100
AcDbDictionary
280
     1
281
     1
  3
ACAD_ROUNDTRIP_2008_TABLESTYLE_CELLSTYLEMAP
360
B3B2
  3
ACAD_XREC_ROUNDTRIP
360
B3E8
  0
DICTIONARY
  5
B3C2
330
B364
100
AcDbDictionary
280
     1
281
     1
  3
ACAD_XREC_ROUNDTRIP
360
B3C3
  0
DICTIONARY
  5
B3C0
330
B363
100
AcDbDictionary
280
     1
281
     1
  3
ACAD_XREC_ROUNDTRIP
360
B3C1
  0
DICTIONARY
  5
B3CE
330
B36A
100
AcDbDictionary
280
     1
281
     1
  3
ACAD_XREC_ROUNDTRIP
360
B3CF
  0
DICTIONARY
  5
B3D6
330
B36E
100
AcDbDictionary
280
     1
281
     1
  3
ACAD_XREC_ROUNDTRIP
360
B3D7
  0
DICTIONARY
  5
B3C8
330
B367
100
AcDbDictionary
280
     1
281
     1
  3
ACAD_XREC_ROUNDTRIP
360
B3C9
  0
DICTIONARY
  5
B3CC
330
B369
100
AcDbDictionary
280
     1
281
     1
  3
ACAD_XREC_ROUNDTRIP
360
B3CD
  0
DICTIONARY
  5
B3E6
330
B376
100
AcDbDictionary
280
     1
281
     1
  3
ACAD_XREC_ROUNDTRIP
360
B3E7
  0
DICTIONARY
  5
B3D4
330
B36D
100
AcDbDictionary
280
     1
281
     1
  3
ACAD_XREC_ROUNDTRIP
360
B3D5
  0
DICTIONARY
  5
B3B8
330
B35F
100
AcDbDictionary
280
     1
281
     1
  3
ACAD_XREC_ROUNDTRIP
360
B3B9
  0
DICTIONARY
  5
B3BA
330
B360
100
AcDbDictionary
280
     1
281
     1
  3
ACAD_XREC_ROUNDTRIP
360
B3BB
  0
DICTIONARY
  5
B3BC
330
B361
100
AcDbDictionary
280
     1
281
     1
  3
ACAD_XREC_ROUNDTRIP
360
B3BD
  0
DICTIONARY
  5
B3BE
330
B362
100
AcDbDictionary
280
     1
281
     1
  3
ACAD_XREC_ROUNDTRIP
360
B3BF
  0
DICTIONARY
  5
B3C6
330
B366
100
AcDbDictionary
280
     1
281
     1
  3
ACAD_XREC_ROUNDTRIP
360
B3C7
  0
DICTIONARY
  5
B3E2
330
B374
100
AcDbDictionary
280
     1
281
     1
  3
ACAD_XREC_ROUNDTRIP
360
B3E3
  0
DICTIONARY
  5
B3D2
330
B36C
100
AcDbDictionary
280
     1
281
     1
  3
ACAD_XREC_ROUNDTRIP
360
B3D3
  0
DICTIONARY
  5
B3E4
330
B375
100
AcDbDictionary
280
     1
281
     1
  3
ACAD_XREC_ROUNDTRIP
360
B3E5
  0
DICTIONARY
  5
B3CA
330
B368
100
AcDbDictionary
280
     1
281
     1
  3
ACAD_XREC_ROUNDTRIP
360
B3CB
  0
DICTIONARY
  5
B3E0
330
B373
100
AcDbDictionary
280
     1
281
     1
  3
ACAD_XREC_ROUNDTRIP
360
B3E1
  0
DICTIONARY
  5
B3DE
330
B372
100
AcDbDictionary
280
     1
281
     1
  3
ACAD_XREC_ROUNDTRIP
360
B3DF
  0
DICTIONARY
  5
B3D8
330
B36F
100
AcDbDictionary
280
     1
281
     1
  3
ACAD_XREC_ROUNDTRIP
360
B3D9
  0
DICTIONARY
  5
B3DA
330
B370
100
AcDbDictionary
280
     1
281
     1
  3
ACAD_XREC_ROUNDTRIP
360
B3DB
  0
DICTIONARY
  5
B3D0
330
B36B
100
AcDbDictionary
280
     1
281
     1
  3
ACAD_XREC_ROUNDTRIP
360
B3D1
  0
DICTIONARY
  5
B3C4
330
B365
100
AcDbDictionary
280
     1
281
     1
  3
ACAD_XREC_ROUNDTRIP
360
B3C5
  0
DICTIONARY
  5
B3DC
330
B371
100
AcDbDictionary
280
     1
281
     1
  3
ACAD_XREC_ROUNDTRIP
360
B3DD
  0
XRECORD
  5
B3ED
102
{ACAD_REACTORS
330
B3EC
102
}
330
B3EC
100
AcDbXrecord
280
     1
102
DISPLAYNAME
  1
Imperial24
102
FLAGS
 90
        0
  0
XRECORD
  5
B3EF
102
{ACAD_REACTORS
330
B3EE
102
}
330
B3EE
100
AcDbXrecord
280
     1
102
SHADEPLOT
 70
     0
102
SHADEPLOTRESLEVEL
 70
     2
102
SHADEPLOTCUSTOMDPI
 70
   300
  0
XRECORD
  5
B3F1
102
{ACAD_REACTORS
330
B3F0
102
}
330
B3F0
100
AcDbXrecord
280
     1
102
SHADEPLOT
 70
     0
102
SHADEPLOTRESLEVEL
 70
     2
102
SHADEPLOTCUSTOMDPI
 70
   300
  0
XRECORD
  5
B3B6
102
{ACAD_REACTORS
330
B34F
102
}
330
B34F
100
AcDbXrecord
280
     1
102
MATERIAL
148
0.0
149
0.0
149
0.0
 93
        0
 94
      127
282
     0
 72
     0
 77
     0
171
     0
175
     0
179
     0
273
     0
  0
XRECORD
  5
B351
102
{ACAD_REACTORS
330
B34F
102
}
330
B34F
100
AcDbXrecord
280
     1
270
     1
271
     1
  0
XRECORD
  5
B350
102
{ACAD_REACTORS
330
B34F
102
}
330
B34F
100
AcDbXrecord
280
     1
270
     1
271
     1
  0
XRECORD
  5
B354
102
{ACAD_REACTORS
330
B34F
102
}
330
B34F
100
AcDbXrecord
280
     1
270
     1
271
     1
  0
XRECORD
  5
B353
102
{ACAD_REACTORS
330
B34F
102
}
330
B34F
100
AcDbXrecord
280
     1
270
     1
271
     1
  0
XRECORD
  5
B355
102
{ACAD_REACTORS
330
B34F
102
}
330
B34F
100
AcDbXrecord
280
     1
270
     1
271
     1
  0
XRECORD
  5
B352
102
{ACAD_REACTORS
330
B34F
102
}
330
B34F
100
AcDbXrecord
280
     1
270
     1
271
     1
  0
XRECORD
  5
B3B5
102
{ACAD_REACTORS
330
B347
102
}
330
B347
100
AcDbXrecord
280
     1
102
MATERIAL
148
0.0
149
0.0
149
0.0
 93
        0
 94
      127
282
     0
 72
     0
 77
     0
171
     0
175
     0
179
     0
273
     0
  0
XRECORD
  5
B349
102
{ACAD_REACTORS
330
B347
102
}
330
B347
100
AcDbXrecord
280
     1
270
     1
271
     1
  0
XRECORD
  5
B348
102
{ACAD_REACTORS
330
B347
102
}
330
B347
100
AcDbXrecord
280
     1
270
     1
271
     1
  0
XRECORD
  5
B34C
102
{ACAD_REACTORS
330
B347
102
}
330
B347
100
AcDbXrecord
280
     1
270
     1
271
     1
  0
XRECORD
  5
B34B
102
{ACAD_REACTORS
330
B347
102
}
330
B347
100
AcDbXrecord
280
     1
270
     1
271
     1
  0
XRECORD
  5
B34D
102
{ACAD_REACTORS
330
B347
102
}
330
B347
100
AcDbXrecord
280
     1
270
     1
271
     1
  0
XRECORD
  5
B34A
102
{ACAD_REACTORS
330
B347
102
}
330
B347
100
AcDbXrecord
280
     1
270
     1
271
     1
  0
XRECORD
  5
B3B7
102
{ACAD_REACTORS
330
B357
102
}
330
B357
100
AcDbXrecord
280
     1
102
MATERIAL
148
0.0
149
0.0
149
0.0
 93
        0
 94
      127
282
     0
 72
     0
 77
     0
171
     0
175
     0
179
     0
273
     0
  0
XRECORD
  5
B359
102
{ACAD_REACTORS
330
B357
102
}
330
B357
100
AcDbXrecord
280
     1
270
     1
271
     1
  0
XRECORD
  5
B358
102
{ACAD_REACTORS
330
B357
102
}
330
B357
100
AcDbXrecord
280
     1
270
     1
271
     1
  0
XRECORD
  5
B35C
102
{ACAD_REACTORS
330
B357
102
}
330
B357
100
AcDbXrecord
280
     1
270
     1
271
     1
  0
XRECORD
  5
B35B
102
{ACAD_REACTORS
330
B357
102
}
330
B357
100
AcDbXrecord
280
     1
270
     1
271
     1
  0
XRECORD
  5
B35D
102
{ACAD_REACTORS
330
B357
102
}
330
B357
100
AcDbXrecord
280
     1
270
     1
271
     1
  0
XRECORD
  5
B35A
102
{ACAD_REACTORS
330
B357
102
}
330
B357
100
AcDbXrecord
280
     1
270
     1
271
     1
  0
XRECORD
  5
B3EB
102
{ACAD_REACTORS
330
B3EA
102
}
330
B3EA
100
AcDbXrecord
280
     1
102
DISPLAYNAME
  1
Imperial24
102
FLAGS
 90
        0
  0
CELLSTYLEMAP
  5
B3B2
102
{ACAD_REACTORS
330
B3B1
102
}
330
B3B1
100
AcDbCellStyleMap
 90
        3
300
CELLSTYLE
  1
TABLEFORMAT_BEGIN
 90
        5
170
     1
 91
        0
 92
    32768
 62
   257
 93
        1
300
CONTENTFORMAT
  1
CONTENTFORMAT_BEGIN
 90
        0
 91
        0
 92
      512
 93
        0
300

 40
0.0
140
1.0
 94
        5
 62
     0
340
B160
144
0.25
309
CONTENTFORMAT_END
171
     0
 94
        0
309
TABLEFORMAT_END
  1
CELLSTYLE_BEGIN
 90
        1
 91
        1
300
_TITLE
309
CELLSTYLE_END
300
CELLSTYLE
  1
TABLEFORMAT_BEGIN
 90
        5
170
     1
 91
        0
 92
        0
 62
   257
 93
        1
300
CONTENTFORMAT
  1
CONTENTFORMAT_BEGIN
 90
        0
 91
        0
 92
      512
 93
        0
300

 40
0.0
140
1.0
 94
        5
 62
     0
340
B160
144
0.18
309
CONTENTFORMAT_END
171
     0
 94
        0
309
TABLEFORMAT_END
  1
CELLSTYLE_BEGIN
 90
        2
 91
        1
300
_HEADER
309
CELLSTYLE_END
300
CELLSTYLE
  1
TABLEFORMAT_BEGIN
 90
        5
170
     1
 91
        0
 92
        0
 62
   257
 93
        1
300
CONTENTFORMAT
  1
CONTENTFORMAT_BEGIN
 90
        0
 91
        0
 92
      512
 93
        0
300

 40
0.0
140
1.0
 94
        2
 62
     0
340
B160
144
0.18
309
CONTENTFORMAT_END
171
     0
 94
        0
309
TABLEFORMAT_END
  1
CELLSTYLE_BEGIN
 90
        3
 91
        2
300
_DATA
309
CELLSTYLE_END
  0
XRECORD
  5
B3E8
102
{ACAD_REACTORS
330
B3B1
102
}
330
B3B1
100
AcDbXrecord
280
     1
102
ACAD_ROUNDTRIP_PRE2007_TABLESTYLE
 90
      512
 91
        0
  1

 92
      512
 93
        0
  2

 94
      512
 95
        0
  3

  0
XRECORD
  5
B3C3
102
{ACAD_REACTORS
330
B3C2
102
}
330
B3C2
100
AcDbXrecord
280
     1
102
RTVSPost2010Prop28
280
     1
102
RTVSPost2010PropOp28
 70
     1
102
RTVSPost2010Prop29
280
     1
102
RTVSPost2010PropOp29
 70
     1
102
RTVSPost2010Prop30
280
     0
102
RTVSPost2010PropOp30
 70
     1
102
RTVSPost2010Prop31
280
     0
102
RTVSPost2010PropOp31
 70
     1
102
RTVSPost2010Prop32
280
     0
102
RTVSPost2010PropOp32
 70
     1
102
RTVSPost2010Prop33
280
     0
102
RTVSPost2010PropOp33
 70
     1
102
RTVSPost2010Prop34
280
     0
102
RTVSPost2010PropOp34
 70
     1
102
RTVSPost2010Prop35
280
     0
102
RTVSPost2010PropOp35
 70
     1
102
RTVSPost2010Prop36
280
     0
102
RTVSPost2010PropOp36
 70
     1
102
RTVSPost2010Prop37
 90
       50
102
RTVSPost2010PropOp37
 70
     1
102
RTVSPost2010Prop38
140
0.0
102
RTVSPost2010PropOp38
 70
     1
102
RTVSPost2010Prop39
140
1.0
102
RTVSPost2010PropOp39
 70
     1
102
RTVSPost2010Prop40
 90
        0
102
RTVSPost2010PropOp40
 70
     1
102
RTVSPost2010Prop41ColorIndex
 90
       18
102
RTVSPost2010Prop41ColorRGB
 90
        0
102
RTVSPost2010PropOp41
 70
     1
102
RTVSPost2010Prop42
 90
       50
102
RTVSPost2010PropOp42
 70
     1
102
RTVSPost2010Prop43
 90
        3
102
RTVSPost2010PropOp43
 70
     1
102
RTVSPost2010Prop44ColorIndex
 90
        5
102
RTVSPost2010Prop44ColorRGB
 90
      255
102
RTVSPost2010PropOp44
 70
     1
102
RTVSPost2010Prop45
280
     0
102
RTVSPost2010PropOp45
 70
     1
102
RTVSPost2010Prop46
 90
       50
102
RTVSPost2010PropOp46
 70
     1
102
RTVSPost2010Prop47
 90
       50
102
RTVSPost2010PropOp47
 70
     1
102
RTVSPost2010Prop48
 90
       50
102
RTVSPost2010PropOp48
 70
     1
102
RTVSPost2010Prop49
280
     0
102
RTVSPost2010PropOp49
 70
     1
102
RTVSPost2010Prop50
 90
       50
102
RTVSPost2010PropOp50
 70
     1
102
RTVSPost2010Prop51ColorIndex
 90
      256
102
RTVSPost2010Prop51ColorRGB
 90
-16777216
102
RTVSPost2010PropOp51
 70
     0
102
RTVSPost2010Prop52
140
1.0
102
RTVSPost2010PropOp52
 70
     0
102
RTVSPost2010Prop53
 90
        2
102
RTVSPost2010PropOp53
 70
     1
102
RTVSPost2010Prop54
  1
strokes_ogs.tif
102
RTVSPost2010PropOp54
 70
     1
102
RTVSPost2010Prop55
280
     0
102
RTVSPost2010PropOp55
 70
     1
102
RTVSPost2010Prop56
140
1.0
102
RTVSPost2010PropOp56
 70
     1
102
RTVSPost2010Prop57
140
1.0
102
RTVSPost2010PropOp57
 70
     1
102
RTVSPropertyOp0
 70
     1
102
RTVSPropertyOp1
 70
     1
102
RTVSPropertyOp2
 70
     1
102
RTVSPropertyOp3
 70
     1
102
RTVSPropertyOp4
 70
     1
102
RTVSPropertyOp5
 70
     1
102
RTVSPropertyOp6
 70
     1
102
RTVSPropertyOp7
 70
     1
102
RTVSPropertyOp8
 70
     1
102
RTVSPropertyOp9
 70
     1
102
RTVSPropertyOp10
 70
     1
102
RTVSPropertyOp11
 70
     1
102
RTVSPropertyOp12
 70
     1
102
RTVSPropertyOp13
 70
     1
102
RTVSPropertyOp14
 70
     1
102
RTVSPropertyOp15
 70
     1
102
RTVSPropertyOp16
 70
     1
102
RTVSPropertyOp17
 70
     1
102
RTVSPropertyOp18
 70
     1
102
RTVSPropertyOp19
 70
     1
102
RTVSPropertyOp20
 70
     1
102
RTVSPropertyOp21
 70
     1
102
RTVSPropertyOp22
 70
     1
102
RTVSPropertyOp23
 70
     1
102
RTVSPropertyOp24
 70
     1
102
RTVSPropertyOp25
 70
     1
102
RTVSPropertyOp26
 70
     1
102
RTVSPropertyOp27
 70
     1
102
RTVSPropertyOp28
 70
     1
102
RTVSPropertyOp29
 70
     1
102
RTVSPropertyOp30
 70
     1
102
RTVSPropertyOp31
 70
     1
102
RTVSPropertyOp32
 70
     1
102
RTVSPropertyOp33
 70
     1
102
RTVSPropertyOp34
 70
     1
102
RTVSPropertyOp35
 70
     1
102
RTVSPropertyOp36
 70
     1
102
RTVSPropertyOp37
 70
     1
102
RTVSPropertyOp38
 70
     1
102
RTVSPropertyOp39
 70
     1
102
RTVSPropertyOp40
 70
     1
102
RTVSPropertyOp41
 70
     1
102
RTVSPropertyOp42
 70
     1
102
RTVSPropertyOp43
 70
     1
102
RTVSPropertyOp44
 70
     1
102
RTVSPropertyOp45
 70
     1
102
RTVSPropertyOp46
 70
     1
102
RTVSPropertyOp47
 70
     1
102
RTVSPropertyOp48
 70
     1
102
RTVSPropertyOp49
 70
     1
102
RTVSPropertyOp50
 70
     1
102
RTVSPropertyOp51
 70
     0
102
RTVSPropertyOp52
 70
     0
102
RTVSPropertyOp53
 70
     1
102
RTVSPropertyOp54
 70
     1
102
RTVSPropertyOp55
 70
     1
102
RTVSPropertyOp56
 70
     1
102
RTVSPropertyOp57
 70
     1
102
RTVSPropertyOp58
 70
     1
102
RTVSPropertyOp59
 70
     1
102
RTVSPropertyOp60
 70
     1
102
RTVSPropertyOp61
 70
     1
102
RTVSPropertyOp62
 70
     1
  0
XRECORD
  5
B3C1
102
{ACAD_REACTORS
330
B3C0
102
}
330
B3C0
100
AcDbXrecord
280
     1
102
RTVSPost2010Prop28
280
     0
102
RTVSPost2010PropOp28
 70
     1
102
RTVSPost2010Prop29
280
     1
102
RTVSPost2010PropOp29
 70
     1
102
RTVSPost2010Prop30
280
     1
102
RTVSPost2010PropOp30
 70
     1
102
RTVSPost2010Prop31
280
     0
102
RTVSPost2010PropOp31
 70
     1
102
RTVSPost2010Prop32
280
     0
102
RTVSPost2010PropOp32
 70
     1
102
RTVSPost2010Prop33
280
     0
102
RTVSPost2010PropOp33
 70
     1
102
RTVSPost2010Prop34
280
     0
102
RTVSPost2010PropOp34
 70
     1
102
RTVSPost2010Prop35
280
     0
102
RTVSPost2010PropOp35
 70
     1
102
RTVSPost2010Prop36
280
     0
102
RTVSPost2010PropOp36
 70
     1
102
RTVSPost2010Prop37
 90
       50
102
RTVSPost2010PropOp37
 70
     1
102
RTVSPost2010Prop38
140
0.0
102
RTVSPost2010PropOp38
 70
     1
102
RTVSPost2010Prop39
140
1.0
102
RTVSPost2010PropOp39
 70
     1
102
RTVSPost2010Prop40
 90
        0
102
RTVSPost2010PropOp40
 70
     1
102
RTVSPost2010Prop41ColorIndex
 90
       18
102
RTVSPost2010Prop41ColorRGB
 90
        0
102
RTVSPost2010PropOp41
 70
     1
102
RTVSPost2010Prop42
 90
       50
102
RTVSPost2010PropOp42
 70
     1
102
RTVSPost2010Prop43
 90
        3
102
RTVSPost2010PropOp43
 70
     1
102
RTVSPost2010Prop44ColorIndex
 90
        5
102
RTVSPost2010Prop44ColorRGB
 90
      255
102
RTVSPost2010PropOp44
 70
     1
102
RTVSPost2010Prop45
280
     0
102
RTVSPost2010PropOp45
 70
     1
102
RTVSPost2010Prop46
 90
       50
102
RTVSPost2010PropOp46
 70
     1
102
RTVSPost2010Prop47
 90
       50
102
RTVSPost2010PropOp47
 70
     1
102
RTVSPost2010Prop48
 90
       50
102
RTVSPost2010PropOp48
 70
     1
102
RTVSPost2010Prop49
280
     0
102
RTVSPost2010PropOp49
 70
     1
102
RTVSPost2010Prop50
 90
       50
102
RTVSPost2010PropOp50
 70
     1
102
RTVSPost2010Prop51ColorIndex
 90
      256
102
RTVSPost2010Prop51ColorRGB
 90
-16777216
102
RTVSPost2010PropOp51
 70
     0
102
RTVSPost2010Prop52
140
1.0
102
RTVSPost2010PropOp52
 70
     0
102
RTVSPost2010Prop53
 90
        2
102
RTVSPost2010PropOp53
 70
     1
102
RTVSPost2010Prop54
  1
strokes_ogs.tif
102
RTVSPost2010PropOp54
 70
     1
102
RTVSPost2010Prop55
280
     0
102
RTVSPost2010PropOp55
 70
     1
102
RTVSPost2010Prop56
140
1.0
102
RTVSPost2010PropOp56
 70
     1
102
RTVSPost2010Prop57
140
1.0
102
RTVSPost2010PropOp57
 70
     1
102
RTVSPropertyOp0
 70
     1
102
RTVSPropertyOp1
 70
     1
102
RTVSPropertyOp2
 70
     1
102
RTVSPropertyOp3
 70
     1
102
RTVSPropertyOp4
 70
     1
102
RTVSPropertyOp5
 70
     1
102
RTVSPropertyOp6
 70
     1
102
RTVSPropertyOp7
 70
     1
102
RTVSPropertyOp8
 70
     1
102
RTVSPropertyOp9
 70
     1
102
RTVSPropertyOp10
 70
     1
102
RTVSPropertyOp11
 70
     1
102
RTVSPropertyOp12
 70
     1
102
RTVSPropertyOp13
 70
     1
102
RTVSPropertyOp14
 70
     1
102
RTVSPropertyOp15
 70
     1
102
RTVSPropertyOp16
 70
     1
102
RTVSPropertyOp17
 70
     1
102
RTVSPropertyOp18
 70
     1
102
RTVSPropertyOp19
 70
     1
102
RTVSPropertyOp20
 70
     1
102
RTVSPropertyOp21
 70
     1
102
RTVSPropertyOp22
 70
     1
102
RTVSPropertyOp23
 70
     1
102
RTVSPropertyOp24
 70
     1
102
RTVSPropertyOp25
 70
     1
102
RTVSPropertyOp26
 70
     1
102
RTVSPropertyOp27
 70
     1
102
RTVSPropertyOp28
 70
     1
102
RTVSPropertyOp29
 70
     1
102
RTVSPropertyOp30
 70
     1
102
RTVSPropertyOp31
 70
     1
102
RTVSPropertyOp32
 70
     1
102
RTVSPropertyOp33
 70
     1
102
RTVSPropertyOp34
 70
     1
102
RTVSPropertyOp35
 70
     1
102
RTVSPropertyOp36
 70
     1
102
RTVSPropertyOp37
 70
     1
102
RTVSPropertyOp38
 70
     1
102
RTVSPropertyOp39
 70
     1
102
RTVSPropertyOp40
 70
     1
102
RTVSPropertyOp41
 70
     1
102
RTVSPropertyOp42
 70
     1
102
RTVSPropertyOp43
 70
     1
102
RTVSPropertyOp44
 70
     1
102
RTVSPropertyOp45
 70
     1
102
RTVSPropertyOp46
 70
     1
102
RTVSPropertyOp47
 70
     1
102
RTVSPropertyOp48
 70
     1
102
RTVSPropertyOp49
 70
     1
102
RTVSPropertyOp50
 70
     1
102
RTVSPropertyOp51
 70
     0
102
RTVSPropertyOp52
 70
     0
102
RTVSPropertyOp53
 70
     1
102
RTVSPropertyOp54
 70
     1
102
RTVSPropertyOp55
 70
     1
102
RTVSPropertyOp56
 70
     1
102
RTVSPropertyOp57
 70
     1
102
RTVSPropertyOp58
 70
     1
102
RTVSPropertyOp59
 70
     1
102
RTVSPropertyOp60
 70
     1
102
RTVSPropertyOp61
 70
     1
102
RTVSPropertyOp62
 70
     1
  0
XRECORD
  5
B3CF
102
{ACAD_REACTORS
330
B3CE
102
}
330
B3CE
100
AcDbXrecord
280
     1
102
RTVSPost2010Prop28
280
     0
102
RTVSPost2010PropOp28
 70
     1
102
RTVSPost2010Prop29
280
     1
102
RTVSPost2010PropOp29
 70
     1
102
RTVSPost2010Prop30
280
     1
102
RTVSPost2010PropOp30
 70
     1
102
RTVSPost2010Prop31
280
     0
102
RTVSPost2010PropOp31
 70
     1
102
RTVSPost2010Prop32
280
     0
102
RTVSPost2010PropOp32
 70
     1
102
RTVSPost2010Prop33
280
     0
102
RTVSPost2010PropOp33
 70
     1
102
RTVSPost2010Prop34
280
     0
102
RTVSPost2010PropOp34
 70
     1
102
RTVSPost2010Prop35
280
     0
102
RTVSPost2010PropOp35
 70
     1
102
RTVSPost2010Prop36
280
     0
102
RTVSPost2010PropOp36
 70
     1
102
RTVSPost2010Prop37
 90
       50
102
RTVSPost2010PropOp37
 70
     1
102
RTVSPost2010Prop38
140
0.0
102
RTVSPost2010PropOp38
 70
     1
102
RTVSPost2010Prop39
140
1.0
102
RTVSPost2010PropOp39
 70
     1
102
RTVSPost2010Prop40
 90
        0
102
RTVSPost2010PropOp40
 70
     1
102
RTVSPost2010Prop41ColorIndex
 90
       18
102
RTVSPost2010Prop41ColorRGB
 90
        0
102
RTVSPost2010PropOp41
 70
     1
102
RTVSPost2010Prop42
 90
       50
102
RTVSPost2010PropOp42
 70
     1
102
RTVSPost2010Prop43
 90
        3
102
RTVSPost2010PropOp43
 70
     1
102
RTVSPost2010Prop44ColorIndex
 90
        5
102
RTVSPost2010Prop44ColorRGB
 90
      255
102
RTVSPost2010PropOp44
 70
     1
102
RTVSPost2010Prop45
280
     0
102
RTVSPost2010PropOp45
 70
     1
102
RTVSPost2010Prop46
 90
       50
102
RTVSPost2010PropOp46
 70
     1
102
RTVSPost2010Prop47
 90
       50
102
RTVSPost2010PropOp47
 70
     1
102
RTVSPost2010Prop48
 90
       50
102
RTVSPost2010PropOp48
 70
     1
102
RTVSPost2010Prop49
280
     0
102
RTVSPost2010PropOp49
 70
     1
102
RTVSPost2010Prop50
 90
       50
102
RTVSPost2010PropOp50
 70
     1
102
RTVSPost2010Prop51ColorIndex
 90
      256
102
RTVSPost2010Prop51ColorRGB
 90
-16777216
102
RTVSPost2010PropOp51
 70
     0
102
RTVSPost2010Prop52
140
1.0
102
RTVSPost2010PropOp52
 70
     0
102
RTVSPost2010Prop53
 90
        2
102
RTVSPost2010PropOp53
 70
     1
102
RTVSPost2010Prop54
  1
strokes_ogs.tif
102
RTVSPost2010PropOp54
 70
     1
102
RTVSPost2010Prop55
280
     0
102
RTVSPost2010PropOp55
 70
     1
102
RTVSPost2010Prop56
140
1.0
102
RTVSPost2010PropOp56
 70
     1
102
RTVSPost2010Prop57
140
1.0
102
RTVSPost2010PropOp57
 70
     1
102
RTVSPropertyOp0
 70
     1
102
RTVSPropertyOp1
 70
     1
102
RTVSPropertyOp2
 70
     1
102
RTVSPropertyOp3
 70
     1
102
RTVSPropertyOp4
 70
     1
102
RTVSPropertyOp5
 70
     1
102
RTVSPropertyOp6
 70
     1
102
RTVSPropertyOp7
 70
     1
102
RTVSPropertyOp8
 70
     1
102
RTVSPropertyOp9
 70
     1
102
RTVSPropertyOp10
 70
     1
102
RTVSPropertyOp11
 70
     1
102
RTVSPropertyOp12
 70
     1
102
RTVSPropertyOp13
 70
     1
102
RTVSPropertyOp14
 70
     1
102
RTVSPropertyOp15
 70
     1
102
RTVSPropertyOp16
 70
     1
102
RTVSPropertyOp17
 70
     1
102
RTVSPropertyOp18
 70
     1
102
RTVSPropertyOp19
 70
     1
102
RTVSPropertyOp20
 70
     1
102
RTVSPropertyOp21
 70
     1
102
RTVSPropertyOp22
 70
     1
102
RTVSPropertyOp23
 70
     1
102
RTVSPropertyOp24
 70
     1
102
RTVSPropertyOp25
 70
     1
102
RTVSPropertyOp26
 70
     1
102
RTVSPropertyOp27
 70
     1
102
RTVSPropertyOp28
 70
     1
102
RTVSPropertyOp29
 70
     1
102
RTVSPropertyOp30
 70
     1
102
RTVSPropertyOp31
 70
     1
102
RTVSPropertyOp32
 70
     1
102
RTVSPropertyOp33
 70
     1
102
RTVSPropertyOp34
 70
     1
102
RTVSPropertyOp35
 70
     1
102
RTVSPropertyOp36
 70
     1
102
RTVSPropertyOp37
 70
     1
102
RTVSPropertyOp38
 70
     1
102
RTVSPropertyOp39
 70
     1
102
RTVSPropertyOp40
 70
     1
102
RTVSPropertyOp41
 70
     1
102
RTVSPropertyOp42
 70
     1
102
RTVSPropertyOp43
 70
     1
102
RTVSPropertyOp44
 70
     1
102
RTVSPropertyOp45
 70
     1
102
RTVSPropertyOp46
 70
     1
102
RTVSPropertyOp47
 70
     1
102
RTVSPropertyOp48
 70
     1
102
RTVSPropertyOp49
 70
     1
102
RTVSPropertyOp50
 70
     1
102
RTVSPropertyOp51
 70
     0
102
RTVSPropertyOp52
 70
     0
102
RTVSPropertyOp53
 70
     1
102
RTVSPropertyOp54
 70
     1
102
RTVSPropertyOp55
 70
     1
102
RTVSPropertyOp56
 70
     1
102
RTVSPropertyOp57
 70
     1
102
RTVSPropertyOp58
 70
     1
102
RTVSPropertyOp59
 70
     1
102
RTVSPropertyOp60
 70
     1
102
RTVSPropertyOp61
 70
     1
102
RTVSPropertyOp62
 70
     1
  0
XRECORD
  5
B3D7
102
{ACAD_REACTORS
330
B3D6
102
}
330
B3D6
100
AcDbXrecord
280
     1
102
RTVSPost2010Prop28
280
     0
102
RTVSPost2010PropOp28
 70
     1
102
RTVSPost2010Prop29
280
     1
102
RTVSPost2010PropOp29
 70
     1
102
RTVSPost2010Prop30
280
     1
102
RTVSPost2010PropOp30
 70
     1
102
RTVSPost2010Prop31
280
     0
102
RTVSPost2010PropOp31
 70
     1
102
RTVSPost2010Prop32
280
     0
102
RTVSPost2010PropOp32
 70
     1
102
RTVSPost2010Prop33
280
     0
102
RTVSPost2010PropOp33
 70
     1
102
RTVSPost2010Prop34
280
     0
102
RTVSPost2010PropOp34
 70
     1
102
RTVSPost2010Prop35
280
     0
102
RTVSPost2010PropOp35
 70
     1
102
RTVSPost2010Prop36
280
     0
102
RTVSPost2010PropOp36
 70
     1
102
RTVSPost2010Prop37
 90
       50
102
RTVSPost2010PropOp37
 70
     1
102
RTVSPost2010Prop38
140
0.0
102
RTVSPost2010PropOp38
 70
     1
102
RTVSPost2010Prop39
140
1.0
102
RTVSPost2010PropOp39
 70
     1
102
RTVSPost2010Prop40
 90
        0
102
RTVSPost2010PropOp40
 70
     1
102
RTVSPost2010Prop41ColorIndex
 90
       18
102
RTVSPost2010Prop41ColorRGB
 90
        0
102
RTVSPost2010PropOp41
 70
     1
102
RTVSPost2010Prop42
 90
       50
102
RTVSPost2010PropOp42
 70
     1
102
RTVSPost2010Prop43
 90
        3
102
RTVSPost2010PropOp43
 70
     1
102
RTVSPost2010Prop44ColorIndex
 90
        5
102
RTVSPost2010Prop44ColorRGB
 90
      255
102
RTVSPost2010PropOp44
 70
     1
102
RTVSPost2010Prop45
280
     0
102
RTVSPost2010PropOp45
 70
     1
102
RTVSPost2010Prop46
 90
       50
102
RTVSPost2010PropOp46
 70
     1
102
RTVSPost2010Prop47
 90
       50
102
RTVSPost2010PropOp47
 70
     1
102
RTVSPost2010Prop48
 90
       50
102
RTVSPost2010PropOp48
 70
     1
102
RTVSPost2010Prop49
280
     0
102
RTVSPost2010PropOp49
 70
     1
102
RTVSPost2010Prop50
 90
       50
102
RTVSPost2010PropOp50
 70
     1
102
RTVSPost2010Prop51ColorIndex
 90
      256
102
RTVSPost2010Prop51ColorRGB
 90
-16777216
102
RTVSPost2010PropOp51
 70
     0
102
RTVSPost2010Prop52
140
1.0
102
RTVSPost2010PropOp52
 70
     0
102
RTVSPost2010Prop53
 90
        2
102
RTVSPost2010PropOp53
 70
     1
102
RTVSPost2010Prop54
  1
strokes_ogs.tif
102
RTVSPost2010PropOp54
 70
     1
102
RTVSPost2010Prop55
280
     0
102
RTVSPost2010PropOp55
 70
     1
102
RTVSPost2010Prop56
140
1.0
102
RTVSPost2010PropOp56
 70
     1
102
RTVSPost2010Prop57
140
1.0
102
RTVSPost2010PropOp57
 70
     1
102
RTVSPropertyOp0
 70
     1
102
RTVSPropertyOp1
 70
     1
102
RTVSPropertyOp2
 70
     1
102
RTVSPropertyOp3
 70
     1
102
RTVSPropertyOp4
 70
     1
102
RTVSPropertyOp5
 70
     1
102
RTVSPropertyOp6
 70
     1
102
RTVSPropertyOp7
 70
     1
102
RTVSPropertyOp8
 70
     1
102
RTVSPropertyOp9
 70
     1
102
RTVSPropertyOp10
 70
     1
102
RTVSPropertyOp11
 70
     1
102
RTVSPropertyOp12
 70
     1
102
RTVSPropertyOp13
 70
     1
102
RTVSPropertyOp14
 70
     1
102
RTVSPropertyOp15
 70
     1
102
RTVSPropertyOp16
 70
     1
102
RTVSPropertyOp17
 70
     1
102
RTVSPropertyOp18
 70
     1
102
RTVSPropertyOp19
 70
     1
102
RTVSPropertyOp20
 70
     1
102
RTVSPropertyOp21
 70
     1
102
RTVSPropertyOp22
 70
     1
102
RTVSPropertyOp23
 70
     1
102
RTVSPropertyOp24
 70
     1
102
RTVSPropertyOp25
 70
     1
102
RTVSPropertyOp26
 70
     1
102
RTVSPropertyOp27
 70
     1
102
RTVSPropertyOp28
 70
     1
102
RTVSPropertyOp29
 70
     1
102
RTVSPropertyOp30
 70
     1
102
RTVSPropertyOp31
 70
     1
102
RTVSPropertyOp32
 70
     1
102
RTVSPropertyOp33
 70
     1
102
RTVSPropertyOp34
 70
     1
102
RTVSPropertyOp35
 70
     1
102
RTVSPropertyOp36
 70
     1
102
RTVSPropertyOp37
 70
     1
102
RTVSPropertyOp38
 70
     1
102
RTVSPropertyOp39
 70
     1
102
RTVSPropertyOp40
 70
     1
102
RTVSPropertyOp41
 70
     1
102
RTVSPropertyOp42
 70
     1
102
RTVSPropertyOp43
 70
     1
102
RTVSPropertyOp44
 70
     1
102
RTVSPropertyOp45
 70
     1
102
RTVSPropertyOp46
 70
     1
102
RTVSPropertyOp47
 70
     1
102
RTVSPropertyOp48
 70
     1
102
RTVSPropertyOp49
 70
     1
102
RTVSPropertyOp50
 70
     1
102
RTVSPropertyOp51
 70
     0
102
RTVSPropertyOp52
 70
     0
102
RTVSPropertyOp53
 70
     1
102
RTVSPropertyOp54
 70
     1
102
RTVSPropertyOp55
 70
     1
102
RTVSPropertyOp56
 70
     1
102
RTVSPropertyOp57
 70
     1
102
RTVSPropertyOp58
 70
     1
102
RTVSPropertyOp59
 70
     1
102
RTVSPropertyOp60
 70
     1
102
RTVSPropertyOp61
 70
     1
102
RTVSPropertyOp62
 70
     1
  0
XRECORD
  5
B3C9
102
{ACAD_REACTORS
330
B3C8
102
}
330
B3C8
100
AcDbXrecord
280
     1
102
RTVSPost2010Prop28
280
     0
102
RTVSPost2010PropOp28
 70
     1
102
RTVSPost2010Prop29
280
     1
102
RTVSPost2010PropOp29
 70
     1
102
RTVSPost2010Prop30
280
     1
102
RTVSPost2010PropOp30
 70
     1
102
RTVSPost2010Prop31
280
     0
102
RTVSPost2010PropOp31
 70
     1
102
RTVSPost2010Prop32
280
     0
102
RTVSPost2010PropOp32
 70
     1
102
RTVSPost2010Prop33
280
     0
102
RTVSPost2010PropOp33
 70
     1
102
RTVSPost2010Prop34
280
     0
102
RTVSPost2010PropOp34
 70
     1
102
RTVSPost2010Prop35
280
     0
102
RTVSPost2010PropOp35
 70
     1
102
RTVSPost2010Prop36
280
     0
102
RTVSPost2010PropOp36
 70
     1
102
RTVSPost2010Prop37
 90
       50
102
RTVSPost2010PropOp37
 70
     1
102
RTVSPost2010Prop38
140
0.0
102
RTVSPost2010PropOp38
 70
     1
102
RTVSPost2010Prop39
140
1.0
102
RTVSPost2010PropOp39
 70
     1
102
RTVSPost2010Prop40
 90
        0
102
RTVSPost2010PropOp40
 70
     1
102
RTVSPost2010Prop41ColorIndex
 90
       18
102
RTVSPost2010Prop41ColorRGB
 90
        0
102
RTVSPost2010PropOp41
 70
     1
102
RTVSPost2010Prop42
 90
       50
102
RTVSPost2010PropOp42
 70
     1
102
RTVSPost2010Prop43
 90
        3
102
RTVSPost2010PropOp43
 70
     1
102
RTVSPost2010Prop44ColorIndex
 90
        5
102
RTVSPost2010Prop44ColorRGB
 90
      255
102
RTVSPost2010PropOp44
 70
     1
102
RTVSPost2010Prop45
280
     0
102
RTVSPost2010PropOp45
 70
     1
102
RTVSPost2010Prop46
 90
       50
102
RTVSPost2010PropOp46
 70
     1
102
RTVSPost2010Prop47
 90
       50
102
RTVSPost2010PropOp47
 70
     1
102
RTVSPost2010Prop48
 90
       50
102
RTVSPost2010PropOp48
 70
     1
102
RTVSPost2010Prop49
280
     0
102
RTVSPost2010PropOp49
 70
     1
102
RTVSPost2010Prop50
 90
       50
102
RTVSPost2010PropOp50
 70
     1
102
RTVSPost2010Prop51ColorIndex
 90
      256
102
RTVSPost2010Prop51ColorRGB
 90
-16777216
102
RTVSPost2010PropOp51
 70
     0
102
RTVSPost2010Prop52
140
1.0
102
RTVSPost2010PropOp52
 70
     0
102
RTVSPost2010Prop53
 90
        2
102
RTVSPost2010PropOp53
 70
     1
102
RTVSPost2010Prop54
  1
strokes_ogs.tif
102
RTVSPost2010PropOp54
 70
     1
102
RTVSPost2010Prop55
280
     0
102
RTVSPost2010PropOp55
 70
     1
102
RTVSPost2010Prop56
140
1.0
102
RTVSPost2010PropOp56
 70
     1
102
RTVSPost2010Prop57
140
1.0
102
RTVSPost2010PropOp57
 70
     1
102
RTVSPropertyOp0
 70
     1
102
RTVSPropertyOp1
 70
     1
102
RTVSPropertyOp2
 70
     1
102
RTVSPropertyOp3
 70
     1
102
RTVSPropertyOp4
 70
     1
102
RTVSPropertyOp5
 70
     1
102
RTVSPropertyOp6
 70
     1
102
RTVSPropertyOp7
 70
     1
102
RTVSPropertyOp8
 70
     1
102
RTVSPropertyOp9
 70
     1
102
RTVSPropertyOp10
 70
     1
102
RTVSPropertyOp11
 70
     1
102
RTVSPropertyOp12
 70
     1
102
RTVSPropertyOp13
 70
     1
102
RTVSPropertyOp14
 70
     1
102
RTVSPropertyOp15
 70
     1
102
RTVSPropertyOp16
 70
     1
102
RTVSPropertyOp17
 70
     1
102
RTVSPropertyOp18
 70
     1
102
RTVSPropertyOp19
 70
     1
102
RTVSPropertyOp20
 70
     1
102
RTVSPropertyOp21
 70
     1
102
RTVSPropertyOp22
 70
     1
102
RTVSPropertyOp23
 70
     1
102
RTVSPropertyOp24
 70
     1
102
RTVSPropertyOp25
 70
     1
102
RTVSPropertyOp26
 70
     1
102
RTVSPropertyOp27
 70
     1
102
RTVSPropertyOp28
 70
     1
102
RTVSPropertyOp29
 70
     1
102
RTVSPropertyOp30
 70
     1
102
RTVSPropertyOp31
 70
     1
102
RTVSPropertyOp32
 70
     1
102
RTVSPropertyOp33
 70
     1
102
RTVSPropertyOp34
 70
     1
102
RTVSPropertyOp35
 70
     1
102
RTVSPropertyOp36
 70
     1
102
RTVSPropertyOp37
 70
     1
102
RTVSPropertyOp38
 70
     1
102
RTVSPropertyOp39
 70
     1
102
RTVSPropertyOp40
 70
     1
102
RTVSPropertyOp41
 70
     1
102
RTVSPropertyOp42
 70
     1
102
RTVSPropertyOp43
 70
     1
102
RTVSPropertyOp44
 70
     1
102
RTVSPropertyOp45
 70
     1
102
RTVSPropertyOp46
 70
     1
102
RTVSPropertyOp47
 70
     1
102
RTVSPropertyOp48
 70
     1
102
RTVSPropertyOp49
 70
     1
102
RTVSPropertyOp50
 70
     1
102
RTVSPropertyOp51
 70
     0
102
RTVSPropertyOp52
 70
     0
102
RTVSPropertyOp53
 70
     1
102
RTVSPropertyOp54
 70
     1
102
RTVSPropertyOp55
 70
     1
102
RTVSPropertyOp56
 70
     1
102
RTVSPropertyOp57
 70
     1
102
RTVSPropertyOp58
 70
     1
102
RTVSPropertyOp59
 70
     1
102
RTVSPropertyOp60
 70
     1
102
RTVSPropertyOp61
 70
     1
102
RTVSPropertyOp62
 70
     1
  0
XRECORD
  5
B3CD
102
{ACAD_REACTORS
330
B3CC
102
}
330
B3CC
100
AcDbXrecord
280
     1
102
RTVSPost2010Prop28
280
     0
102
RTVSPost2010PropOp28
 70
     1
102
RTVSPost2010Prop29
280
     1
102
RTVSPost2010PropOp29
 70
     1
102
RTVSPost2010Prop30
280
     1
102
RTVSPost2010PropOp30
 70
     1
102
RTVSPost2010Prop31
280
     0
102
RTVSPost2010PropOp31
 70
     1
102
RTVSPost2010Prop32
280
     0
102
RTVSPost2010PropOp32
 70
     1
102
RTVSPost2010Prop33
280
     0
102
RTVSPost2010PropOp33
 70
     1
102
RTVSPost2010Prop34
280
     0
102
RTVSPost2010PropOp34
 70
     1
102
RTVSPost2010Prop35
280
     0
102
RTVSPost2010PropOp35
 70
     1
102
RTVSPost2010Prop36
280
     0
102
RTVSPost2010PropOp36
 70
     1
102
RTVSPost2010Prop37
 90
       50
102
RTVSPost2010PropOp37
 70
     1
102
RTVSPost2010Prop38
140
0.0
102
RTVSPost2010PropOp38
 70
     1
102
RTVSPost2010Prop39
140
1.0
102
RTVSPost2010PropOp39
 70
     1
102
RTVSPost2010Prop40
 90
        0
102
RTVSPost2010PropOp40
 70
     1
102
RTVSPost2010Prop41ColorIndex
 90
       18
102
RTVSPost2010Prop41ColorRGB
 90
        0
102
RTVSPost2010PropOp41
 70
     1
102
RTVSPost2010Prop42
 90
       50
102
RTVSPost2010PropOp42
 70
     1
102
RTVSPost2010Prop43
 90
        3
102
RTVSPost2010PropOp43
 70
     1
102
RTVSPost2010Prop44ColorIndex
 90
        5
102
RTVSPost2010Prop44ColorRGB
 90
      255
102
RTVSPost2010PropOp44
 70
     1
102
RTVSPost2010Prop45
280
     0
102
RTVSPost2010PropOp45
 70
     1
102
RTVSPost2010Prop46
 90
       50
102
RTVSPost2010PropOp46
 70
     1
102
RTVSPost2010Prop47
 90
       50
102
RTVSPost2010PropOp47
 70
     1
102
RTVSPost2010Prop48
 90
       50
102
RTVSPost2010PropOp48
 70
     1
102
RTVSPost2010Prop49
280
     0
102
RTVSPost2010PropOp49
 70
     1
102
RTVSPost2010Prop50
 90
       50
102
RTVSPost2010PropOp50
 70
     1
102
RTVSPost2010Prop51ColorIndex
 90
      256
102
RTVSPost2010Prop51ColorRGB
 90
-16777216
102
RTVSPost2010PropOp51
 70
     0
102
RTVSPost2010Prop52
140
1.0
102
RTVSPost2010PropOp52
 70
     0
102
RTVSPost2010Prop53
 90
        2
102
RTVSPost2010PropOp53
 70
     1
102
RTVSPost2010Prop54
  1
strokes_ogs.tif
102
RTVSPost2010PropOp54
 70
     1
102
RTVSPost2010Prop55
280
     0
102
RTVSPost2010PropOp55
 70
     1
102
RTVSPost2010Prop56
140
1.0
102
RTVSPost2010PropOp56
 70
     1
102
RTVSPost2010Prop57
140
1.0
102
RTVSPost2010PropOp57
 70
     1
102
RTVSPropertyOp0
 70
     1
102
RTVSPropertyOp1
 70
     1
102
RTVSPropertyOp2
 70
     1
102
RTVSPropertyOp3
 70
     1
102
RTVSPropertyOp4
 70
     1
102
RTVSPropertyOp5
 70
     1
102
RTVSPropertyOp6
 70
     1
102
RTVSPropertyOp7
 70
     1
102
RTVSPropertyOp8
 70
     1
102
RTVSPropertyOp9
 70
     1
102
RTVSPropertyOp10
 70
     1
102
RTVSPropertyOp11
 70
     1
102
RTVSPropertyOp12
 70
     1
102
RTVSPropertyOp13
 70
     1
102
RTVSPropertyOp14
 70
     1
102
RTVSPropertyOp15
 70
     1
102
RTVSPropertyOp16
 70
     1
102
RTVSPropertyOp17
 70
     1
102
RTVSPropertyOp18
 70
     1
102
RTVSPropertyOp19
 70
     1
102
RTVSPropertyOp20
 70
     1
102
RTVSPropertyOp21
 70
     1
102
RTVSPropertyOp22
 70
     1
102
RTVSPropertyOp23
 70
     1
102
RTVSPropertyOp24
 70
     1
102
RTVSPropertyOp25
 70
     1
102
RTVSPropertyOp26
 70
     1
102
RTVSPropertyOp27
 70
     1
102
RTVSPropertyOp28
 70
     1
102
RTVSPropertyOp29
 70
     1
102
RTVSPropertyOp30
 70
     1
102
RTVSPropertyOp31
 70
     1
102
RTVSPropertyOp32
 70
     1
102
RTVSPropertyOp33
 70
     1
102
RTVSPropertyOp34
 70
     1
102
RTVSPropertyOp35
 70
     1
102
RTVSPropertyOp36
 70
     1
102
RTVSPropertyOp37
 70
     1
102
RTVSPropertyOp38
 70
     1
102
RTVSPropertyOp39
 70
     1
102
RTVSPropertyOp40
 70
     1
102
RTVSPropertyOp41
 70
     1
102
RTVSPropertyOp42
 70
     1
102
RTVSPropertyOp43
 70
     1
102
RTVSPropertyOp44
 70
     1
102
RTVSPropertyOp45
 70
     1
102
RTVSPropertyOp46
 70
     1
102
RTVSPropertyOp47
 70
     1
102
RTVSPropertyOp48
 70
     1
102
RTVSPropertyOp49
 70
     1
102
RTVSPropertyOp50
 70
     1
102
RTVSPropertyOp51
 70
     0
102
RTVSPropertyOp52
 70
     0
102
RTVSPropertyOp53
 70
     1
102
RTVSPropertyOp54
 70
     1
102
RTVSPropertyOp55
 70
     1
102
RTVSPropertyOp56
 70
     1
102
RTVSPropertyOp57
 70
     1
102
RTVSPropertyOp58
 70
     1
102
RTVSPropertyOp59
 70
     1
102
RTVSPropertyOp60
 70
     1
102
RTVSPropertyOp61
 70
     1
102
RTVSPropertyOp62
 70
     1
  0
XRECORD
  5
B3E7
102
{ACAD_REACTORS
330
B3E6
102
}
330
B3E6
100
AcDbXrecord
280
     1
102
RTVSPost2010Prop28
280
     0
102
RTVSPost2010PropOp28
 70
     1
102
RTVSPost2010Prop29
280
     1
102
RTVSPost2010PropOp29
 70
     1
102
RTVSPost2010Prop30
280
     1
102
RTVSPost2010PropOp30
 70
     1
102
RTVSPost2010Prop31
280
     0
102
RTVSPost2010PropOp31
 70
     1
102
RTVSPost2010Prop32
280
     0
102
RTVSPost2010PropOp32
 70
     1
102
RTVSPost2010Prop33
280
     0
102
RTVSPost2010PropOp33
 70
     1
102
RTVSPost2010Prop34
280
     0
102
RTVSPost2010PropOp34
 70
     1
102
RTVSPost2010Prop35
280
     0
102
RTVSPost2010PropOp35
 70
     1
102
RTVSPost2010Prop36
280
     0
102
RTVSPost2010PropOp36
 70
     1
102
RTVSPost2010Prop37
 90
       50
102
RTVSPost2010PropOp37
 70
     0
102
RTVSPost2010Prop38
140
0.0
102
RTVSPost2010PropOp38
 70
     0
102
RTVSPost2010Prop39
140
1.0
102
RTVSPost2010PropOp39
 70
     0
102
RTVSPost2010Prop40
 90
        0
102
RTVSPost2010PropOp40
 70
     0
102
RTVSPost2010Prop41ColorIndex
 90
       18
102
RTVSPost2010Prop41ColorRGB
 90
        0
102
RTVSPost2010PropOp41
 70
     0
102
RTVSPost2010Prop42
 90
       50
102
RTVSPost2010PropOp42
 70
     0
102
RTVSPost2010Prop43
 90
        3
102
RTVSPost2010PropOp43
 70
     0
102
RTVSPost2010Prop44ColorIndex
 90
        5
102
RTVSPost2010Prop44ColorRGB
 90
      255
102
RTVSPost2010PropOp44
 70
     0
102
RTVSPost2010Prop45
280
     0
102
RTVSPost2010PropOp45
 70
     1
102
RTVSPost2010Prop46
 90
       50
102
RTVSPost2010PropOp46
 70
     0
102
RTVSPost2010Prop47
 90
       50
102
RTVSPost2010PropOp47
 70
     0
102
RTVSPost2010Prop48
 90
       50
102
RTVSPost2010PropOp48
 70
     0
102
RTVSPost2010Prop49
280
     0
102
RTVSPost2010PropOp49
 70
     1
102
RTVSPost2010Prop50
 90
       50
102
RTVSPost2010PropOp50
 70
     0
102
RTVSPost2010Prop51ColorIndex
 90
      256
102
RTVSPost2010Prop51ColorRGB
 90
-16777216
102
RTVSPost2010PropOp51
 70
     0
102
RTVSPost2010Prop52
140
1.0
102
RTVSPost2010PropOp52
 70
     0
102
RTVSPost2010Prop53
 90
        2
102
RTVSPost2010PropOp53
 70
     0
102
RTVSPost2010Prop54
  1
strokes_ogs.tif
102
RTVSPost2010PropOp54
 70
     0
102
RTVSPost2010Prop55
280
     0
102
RTVSPost2010PropOp55
 70
     1
102
RTVSPost2010Prop56
140
1.0
102
RTVSPost2010PropOp56
 70
     0
102
RTVSPost2010Prop57
140
1.0
102
RTVSPost2010PropOp57
 70
     0
102
RTVSPropertyOp0
 70
     0
102
RTVSPropertyOp1
 70
     0
102
RTVSPropertyOp2
 70
     0
102
RTVSPropertyOp3
 70
     0
102
RTVSPropertyOp4
 70
     0
102
RTVSPropertyOp5
 70
     0
102
RTVSPropertyOp6
 70
     0
102
RTVSPropertyOp7
 70
     0
102
RTVSPropertyOp8
 70
     0
102
RTVSPropertyOp9
 70
     0
102
RTVSPropertyOp10
 70
     0
102
RTVSPropertyOp11
 70
     0
102
RTVSPropertyOp12
 70
     0
102
RTVSPropertyOp13
 70
     0
102
RTVSPropertyOp14
 70
     2
102
RTVSPropertyOp15
 70
     0
102
RTVSPropertyOp16
 70
     0
102
RTVSPropertyOp17
 70
     0
102
RTVSPropertyOp18
 70
     0
102
RTVSPropertyOp19
 70
     0
102
RTVSPropertyOp20
 70
     0
102
RTVSPropertyOp21
 70
     0
102
RTVSPropertyOp22
 70
     0
102
RTVSPropertyOp23
 70
     0
102
RTVSPropertyOp24
 70
     0
102
RTVSPropertyOp25
 70
     0
102
RTVSPropertyOp26
 70
     0
102
RTVSPropertyOp27
 70
     0
102
RTVSPropertyOp28
 70
     1
102
RTVSPropertyOp29
 70
     1
102
RTVSPropertyOp30
 70
     1
102
RTVSPropertyOp31
 70
     1
102
RTVSPropertyOp32
 70
     1
102
RTVSPropertyOp33
 70
     1
102
RTVSPropertyOp34
 70
     1
102
RTVSPropertyOp35
 70
     1
102
RTVSPropertyOp36
 70
     1
102
RTVSPropertyOp37
 70
     0
102
RTVSPropertyOp38
 70
     0
102
RTVSPropertyOp39
 70
     0
102
RTVSPropertyOp40
 70
     0
102
RTVSPropertyOp41
 70
     0
102
RTVSPropertyOp42
 70
     0
102
RTVSPropertyOp43
 70
     0
102
RTVSPropertyOp44
 70
     0
102
RTVSPropertyOp45
 70
     1
102
RTVSPropertyOp46
 70
     0
102
RTVSPropertyOp47
 70
     0
102
RTVSPropertyOp48
 70
     0
102
RTVSPropertyOp49
 70
     1
102
RTVSPropertyOp50
 70
     0
102
RTVSPropertyOp51
 70
     0
102
RTVSPropertyOp52
 70
     0
102
RTVSPropertyOp53
 70
     0
102
RTVSPropertyOp54
 70
     0
102
RTVSPropertyOp55
 70
     1
102
RTVSPropertyOp56
 70
     0
102
RTVSPropertyOp57
 70
     0
102
RTVSPropertyOp58
 70
     0
102
RTVSPropertyOp59
 70
     0
102
RTVSPropertyOp60
 70
     0
102
RTVSPropertyOp61
 70
     0
102
RTVSPropertyOp62
 70
     0
  0
XRECORD
  5
B3D5
102
{ACAD_REACTORS
330
B3D4
102
}
330
B3D4
100
AcDbXrecord
280
     1
102
RTVSPost2010Prop28
280
     0
102
RTVSPost2010PropOp28
 70
     1
102
RTVSPost2010Prop29
280
     1
102
RTVSPost2010PropOp29
 70
     1
102
RTVSPost2010Prop30
280
     1
102
RTVSPost2010PropOp30
 70
     1
102
RTVSPost2010Prop31
280
     0
102
RTVSPost2010PropOp31
 70
     1
102
RTVSPost2010Prop32
280
     0
102
RTVSPost2010PropOp32
 70
     1
102
RTVSPost2010Prop33
280
     0
102
RTVSPost2010PropOp33
 70
     1
102
RTVSPost2010Prop34
280
     0
102
RTVSPost2010PropOp34
 70
     1
102
RTVSPost2010Prop35
280
     0
102
RTVSPost2010PropOp35
 70
     1
102
RTVSPost2010Prop36
280
     0
102
RTVSPost2010PropOp36
 70
     1
102
RTVSPost2010Prop37
 90
       50
102
RTVSPost2010PropOp37
 70
     1
102
RTVSPost2010Prop38
140
0.0
102
RTVSPost2010PropOp38
 70
     1
102
RTVSPost2010Prop39
140
1.0
102
RTVSPost2010PropOp39
 70
     1
102
RTVSPost2010Prop40
 90
        0
102
RTVSPost2010PropOp40
 70
     1
102
RTVSPost2010Prop41ColorIndex
 90
       18
102
RTVSPost2010Prop41ColorRGB
 90
        0
102
RTVSPost2010PropOp41
 70
     1
102
RTVSPost2010Prop42
 90
       50
102
RTVSPost2010PropOp42
 70
     1
102
RTVSPost2010Prop43
 90
        3
102
RTVSPost2010PropOp43
 70
     1
102
RTVSPost2010Prop44ColorIndex
 90
        5
102
RTVSPost2010Prop44ColorRGB
 90
      255
102
RTVSPost2010PropOp44
 70
     1
102
RTVSPost2010Prop45
280
     0
102
RTVSPost2010PropOp45
 70
     1
102
RTVSPost2010Prop46
 90
       50
102
RTVSPost2010PropOp46
 70
     1
102
RTVSPost2010Prop47
 90
       50
102
RTVSPost2010PropOp47
 70
     1
102
RTVSPost2010Prop48
 90
       50
102
RTVSPost2010PropOp48
 70
     1
102
RTVSPost2010Prop49
280
     0
102
RTVSPost2010PropOp49
 70
     1
102
RTVSPost2010Prop50
 90
       50
102
RTVSPost2010PropOp50
 70
     1
102
RTVSPost2010Prop51ColorIndex
 90
      256
102
RTVSPost2010Prop51ColorRGB
 90
-16777216
102
RTVSPost2010PropOp51
 70
     0
102
RTVSPost2010Prop52
140
1.0
102
RTVSPost2010PropOp52
 70
     0
102
RTVSPost2010Prop53
 90
        2
102
RTVSPost2010PropOp53
 70
     1
102
RTVSPost2010Prop54
  1
strokes_ogs.tif
102
RTVSPost2010PropOp54
 70
     1
102
RTVSPost2010Prop55
280
     0
102
RTVSPost2010PropOp55
 70
     1
102
RTVSPost2010Prop56
140
1.0
102
RTVSPost2010PropOp56
 70
     1
102
RTVSPost2010Prop57
140
1.0
102
RTVSPost2010PropOp57
 70
     1
102
RTVSPropertyOp0
 70
     1
102
RTVSPropertyOp1
 70
     1
102
RTVSPropertyOp2
 70
     1
102
RTVSPropertyOp3
 70
     1
102
RTVSPropertyOp4
 70
     1
102
RTVSPropertyOp5
 70
     1
102
RTVSPropertyOp6
 70
     1
102
RTVSPropertyOp7
 70
     1
102
RTVSPropertyOp8
 70
     1
102
RTVSPropertyOp9
 70
     1
102
RTVSPropertyOp10
 70
     1
102
RTVSPropertyOp11
 70
     1
102
RTVSPropertyOp12
 70
     1
102
RTVSPropertyOp13
 70
     1
102
RTVSPropertyOp14
 70
     1
102
RTVSPropertyOp15
 70
     1
102
RTVSPropertyOp16
 70
     1
102
RTVSPropertyOp17
 70
     1
102
RTVSPropertyOp18
 70
     1
102
RTVSPropertyOp19
 70
     1
102
RTVSPropertyOp20
 70
     1
102
RTVSPropertyOp21
 70
     1
102
RTVSPropertyOp22
 70
     1
102
RTVSPropertyOp23
 70
     1
102
RTVSPropertyOp24
 70
     1
102
RTVSPropertyOp25
 70
     1
102
RTVSPropertyOp26
 70
     1
102
RTVSPropertyOp27
 70
     1
102
RTVSPropertyOp28
 70
     1
102
RTVSPropertyOp29
 70
     1
102
RTVSPropertyOp30
 70
     1
102
RTVSPropertyOp31
 70
     1
102
RTVSPropertyOp32
 70
     1
102
RTVSPropertyOp33
 70
     1
102
RTVSPropertyOp34
 70
     1
102
RTVSPropertyOp35
 70
     1
102
RTVSPropertyOp36
 70
     1
102
RTVSPropertyOp37
 70
     1
102
RTVSPropertyOp38
 70
     1
102
RTVSPropertyOp39
 70
     1
102
RTVSPropertyOp40
 70
     1
102
RTVSPropertyOp41
 70
     1
102
RTVSPropertyOp42
 70
     1
102
RTVSPropertyOp43
 70
     1
102
RTVSPropertyOp44
 70
     1
102
RTVSPropertyOp45
 70
     1
102
RTVSPropertyOp46
 70
     1
102
RTVSPropertyOp47
 70
     1
102
RTVSPropertyOp48
 70
     1
102
RTVSPropertyOp49
 70
     1
102
RTVSPropertyOp50
 70
     1
102
RTVSPropertyOp51
 70
     0
102
RTVSPropertyOp52
 70
     0
102
RTVSPropertyOp53
 70
     1
102
RTVSPropertyOp54
 70
     1
102
RTVSPropertyOp55
 70
     1
102
RTVSPropertyOp56
 70
     1
102
RTVSPropertyOp57
 70
     1
102
RTVSPropertyOp58
 70
     1
102
RTVSPropertyOp59
 70
     1
102
RTVSPropertyOp60
 70
     1
102
RTVSPropertyOp61
 70
     1
102
RTVSPropertyOp62
 70
     1
  0
XRECORD
  5
B3B9
102
{ACAD_REACTORS
330
B3B8
102
}
330
B3B8
100
AcDbXrecord
280
     1
102
RTVSPost2010Prop28
280
     0
102
RTVSPost2010PropOp28
 70
     1
102
RTVSPost2010Prop29
280
     1
102
RTVSPost2010PropOp29
 70
     1
102
RTVSPost2010Prop30
280
     1
102
RTVSPost2010PropOp30
 70
     1
102
RTVSPost2010Prop31
280
     0
102
RTVSPost2010PropOp31
 70
     1
102
RTVSPost2010Prop32
280
     0
102
RTVSPost2010PropOp32
 70
     1
102
RTVSPost2010Prop33
280
     0
102
RTVSPost2010PropOp33
 70
     1
102
RTVSPost2010Prop34
280
     0
102
RTVSPost2010PropOp34
 70
     1
102
RTVSPost2010Prop35
280
     0
102
RTVSPost2010PropOp35
 70
     1
102
RTVSPost2010Prop36
280
     0
102
RTVSPost2010PropOp36
 70
     1
102
RTVSPost2010Prop37
 90
       50
102
RTVSPost2010PropOp37
 70
     1
102
RTVSPost2010Prop38
140
0.0
102
RTVSPost2010PropOp38
 70
     1
102
RTVSPost2010Prop39
140
1.0
102
RTVSPost2010PropOp39
 70
     1
102
RTVSPost2010Prop40
 90
        0
102
RTVSPost2010PropOp40
 70
     1
102
RTVSPost2010Prop41ColorIndex
 90
       18
102
RTVSPost2010Prop41ColorRGB
 90
        0
102
RTVSPost2010PropOp41
 70
     1
102
RTVSPost2010Prop42
 90
       50
102
RTVSPost2010PropOp42
 70
     1
102
RTVSPost2010Prop43
 90
        3
102
RTVSPost2010PropOp43
 70
     1
102
RTVSPost2010Prop44ColorIndex
 90
        5
102
RTVSPost2010Prop44ColorRGB
 90
      255
102
RTVSPost2010PropOp44
 70
     1
102
RTVSPost2010Prop45
280
     0
102
RTVSPost2010PropOp45
 70
     1
102
RTVSPost2010Prop46
 90
       50
102
RTVSPost2010PropOp46
 70
     1
102
RTVSPost2010Prop47
 90
       50
102
RTVSPost2010PropOp47
 70
     1
102
RTVSPost2010Prop48
 90
       50
102
RTVSPost2010PropOp48
 70
     1
102
RTVSPost2010Prop49
280
     0
102
RTVSPost2010PropOp49
 70
     1
102
RTVSPost2010Prop50
 90
       50
102
RTVSPost2010PropOp50
 70
     1
102
RTVSPost2010Prop51ColorIndex
 90
      256
102
RTVSPost2010Prop51ColorRGB
 90
-16777216
102
RTVSPost2010PropOp51
 70
     0
102
RTVSPost2010Prop52
140
1.0
102
RTVSPost2010PropOp52
 70
     0
102
RTVSPost2010Prop53
 90
        2
102
RTVSPost2010PropOp53
 70
     1
102
RTVSPost2010Prop54
  1
strokes_ogs.tif
102
RTVSPost2010PropOp54
 70
     1
102
RTVSPost2010Prop55
280
     0
102
RTVSPost2010PropOp55
 70
     1
102
RTVSPost2010Prop56
140
1.0
102
RTVSPost2010PropOp56
 70
     1
102
RTVSPost2010Prop57
140
1.0
102
RTVSPost2010PropOp57
 70
     1
102
RTVSPropertyOp0
 70
     1
102
RTVSPropertyOp1
 70
     1
102
RTVSPropertyOp2
 70
     1
102
RTVSPropertyOp3
 70
     1
102
RTVSPropertyOp4
 70
     1
102
RTVSPropertyOp5
 70
     1
102
RTVSPropertyOp6
 70
     1
102
RTVSPropertyOp7
 70
     1
102
RTVSPropertyOp8
 70
     1
102
RTVSPropertyOp9
 70
     1
102
RTVSPropertyOp10
 70
     1
102
RTVSPropertyOp11
 70
     1
102
RTVSPropertyOp12
 70
     1
102
RTVSPropertyOp13
 70
     1
102
RTVSPropertyOp14
 70
     1
102
RTVSPropertyOp15
 70
     1
102
RTVSPropertyOp16
 70
     1
102
RTVSPropertyOp17
 70
     1
102
RTVSPropertyOp18
 70
     1
102
RTVSPropertyOp19
 70
     1
102
RTVSPropertyOp20
 70
     1
102
RTVSPropertyOp21
 70
     1
102
RTVSPropertyOp22
 70
     1
102
RTVSPropertyOp23
 70
     1
102
RTVSPropertyOp24
 70
     1
102
RTVSPropertyOp25
 70
     1
102
RTVSPropertyOp26
 70
     1
102
RTVSPropertyOp27
 70
     1
102
RTVSPropertyOp28
 70
     1
102
RTVSPropertyOp29
 70
     1
102
RTVSPropertyOp30
 70
     1
102
RTVSPropertyOp31
 70
     1
102
RTVSPropertyOp32
 70
     1
102
RTVSPropertyOp33
 70
     1
102
RTVSPropertyOp34
 70
     1
102
RTVSPropertyOp35
 70
     1
102
RTVSPropertyOp36
 70
     1
102
RTVSPropertyOp37
 70
     1
102
RTVSPropertyOp38
 70
     1
102
RTVSPropertyOp39
 70
     1
102
RTVSPropertyOp40
 70
     1
102
RTVSPropertyOp41
 70
     1
102
RTVSPropertyOp42
 70
     1
102
RTVSPropertyOp43
 70
     1
102
RTVSPropertyOp44
 70
     1
102
RTVSPropertyOp45
 70
     1
102
RTVSPropertyOp46
 70
     1
102
RTVSPropertyOp47
 70
     1
102
RTVSPropertyOp48
 70
     1
102
RTVSPropertyOp49
 70
     1
102
RTVSPropertyOp50
 70
     1
102
RTVSPropertyOp51
 70
     0
102
RTVSPropertyOp52
 70
     0
102
RTVSPropertyOp53
 70
     1
102
RTVSPropertyOp54
 70
     1
102
RTVSPropertyOp55
 70
     1
102
RTVSPropertyOp56
 70
     1
102
RTVSPropertyOp57
 70
     1
102
RTVSPropertyOp58
 70
     1
102
RTVSPropertyOp59
 70
     1
102
RTVSPropertyOp60
 70
     1
102
RTVSPropertyOp61
 70
     1
102
RTVSPropertyOp62
 70
     1
  0
XRECORD
  5
B3BB
102
{ACAD_REACTORS
330
B3BA
102
}
330
B3BA
100
AcDbXrecord
280
     1
102
RTVSPost2010Prop28
280
     0
102
RTVSPost2010PropOp28
 70
     1
102
RTVSPost2010Prop29
280
     1
102
RTVSPost2010PropOp29
 70
     1
102
RTVSPost2010Prop30
280
     1
102
RTVSPost2010PropOp30
 70
     1
102
RTVSPost2010Prop31
280
     0
102
RTVSPost2010PropOp31
 70
     1
102
RTVSPost2010Prop32
280
     0
102
RTVSPost2010PropOp32
 70
     1
102
RTVSPost2010Prop33
280
     0
102
RTVSPost2010PropOp33
 70
     1
102
RTVSPost2010Prop34
280
     0
102
RTVSPost2010PropOp34
 70
     1
102
RTVSPost2010Prop35
280
     0
102
RTVSPost2010PropOp35
 70
     1
102
RTVSPost2010Prop36
280
     0
102
RTVSPost2010PropOp36
 70
     1
102
RTVSPost2010Prop37
 90
       50
102
RTVSPost2010PropOp37
 70
     1
102
RTVSPost2010Prop38
140
0.0
102
RTVSPost2010PropOp38
 70
     1
102
RTVSPost2010Prop39
140
1.0
102
RTVSPost2010PropOp39
 70
     1
102
RTVSPost2010Prop40
 90
        0
102
RTVSPost2010PropOp40
 70
     1
102
RTVSPost2010Prop41ColorIndex
 90
       18
102
RTVSPost2010Prop41ColorRGB
 90
        0
102
RTVSPost2010PropOp41
 70
     1
102
RTVSPost2010Prop42
 90
       50
102
RTVSPost2010PropOp42
 70
     1
102
RTVSPost2010Prop43
 90
        3
102
RTVSPost2010PropOp43
 70
     1
102
RTVSPost2010Prop44ColorIndex
 90
        5
102
RTVSPost2010Prop44ColorRGB
 90
      255
102
RTVSPost2010PropOp44
 70
     1
102
RTVSPost2010Prop45
280
     0
102
RTVSPost2010PropOp45
 70
     1
102
RTVSPost2010Prop46
 90
       50
102
RTVSPost2010PropOp46
 70
     1
102
RTVSPost2010Prop47
 90
       50
102
RTVSPost2010PropOp47
 70
     1
102
RTVSPost2010Prop48
 90
       50
102
RTVSPost2010PropOp48
 70
     1
102
RTVSPost2010Prop49
280
     0
102
RTVSPost2010PropOp49
 70
     1
102
RTVSPost2010Prop50
 90
       50
102
RTVSPost2010PropOp50
 70
     1
102
RTVSPost2010Prop51ColorIndex
 90
      256
102
RTVSPost2010Prop51ColorRGB
 90
-16777216
102
RTVSPost2010PropOp51
 70
     0
102
RTVSPost2010Prop52
140
1.0
102
RTVSPost2010PropOp52
 70
     0
102
RTVSPost2010Prop53
 90
        2
102
RTVSPost2010PropOp53
 70
     1
102
RTVSPost2010Prop54
  1
strokes_ogs.tif
102
RTVSPost2010PropOp54
 70
     1
102
RTVSPost2010Prop55
280
     0
102
RTVSPost2010PropOp55
 70
     1
102
RTVSPost2010Prop56
140
1.0
102
RTVSPost2010PropOp56
 70
     1
102
RTVSPost2010Prop57
140
1.0
102
RTVSPost2010PropOp57
 70
     1
102
RTVSPropertyOp0
 70
     1
102
RTVSPropertyOp1
 70
     1
102
RTVSPropertyOp2
 70
     1
102
RTVSPropertyOp3
 70
     1
102
RTVSPropertyOp4
 70
     1
102
RTVSPropertyOp5
 70
     1
102
RTVSPropertyOp6
 70
     1
102
RTVSPropertyOp7
 70
     1
102
RTVSPropertyOp8
 70
     1
102
RTVSPropertyOp9
 70
     1
102
RTVSPropertyOp10
 70
     1
102
RTVSPropertyOp11
 70
     1
102
RTVSPropertyOp12
 70
     1
102
RTVSPropertyOp13
 70
     1
102
RTVSPropertyOp14
 70
     1
102
RTVSPropertyOp15
 70
     1
102
RTVSPropertyOp16
 70
     1
102
RTVSPropertyOp17
 70
     1
102
RTVSPropertyOp18
 70
     1
102
RTVSPropertyOp19
 70
     1
102
RTVSPropertyOp20
 70
     1
102
RTVSPropertyOp21
 70
     1
102
RTVSPropertyOp22
 70
     1
102
RTVSPropertyOp23
 70
     1
102
RTVSPropertyOp24
 70
     1
102
RTVSPropertyOp25
 70
     1
102
RTVSPropertyOp26
 70
     1
102
RTVSPropertyOp27
 70
     1
102
RTVSPropertyOp28
 70
     1
102
RTVSPropertyOp29
 70
     1
102
RTVSPropertyOp30
 70
     1
102
RTVSPropertyOp31
 70
     1
102
RTVSPropertyOp32
 70
     1
102
RTVSPropertyOp33
 70
     1
102
RTVSPropertyOp34
 70
     1
102
RTVSPropertyOp35
 70
     1
102
RTVSPropertyOp36
 70
     1
102
RTVSPropertyOp37
 70
     1
102
RTVSPropertyOp38
 70
     1
102
RTVSPropertyOp39
 70
     1
102
RTVSPropertyOp40
 70
     1
102
RTVSPropertyOp41
 70
     1
102
RTVSPropertyOp42
 70
     1
102
RTVSPropertyOp43
 70
     1
102
RTVSPropertyOp44
 70
     1
102
RTVSPropertyOp45
 70
     1
102
RTVSPropertyOp46
 70
     1
102
RTVSPropertyOp47
 70
     1
102
RTVSPropertyOp48
 70
     1
102
RTVSPropertyOp49
 70
     1
102
RTVSPropertyOp50
 70
     1
102
RTVSPropertyOp51
 70
     0
102
RTVSPropertyOp52
 70
     0
102
RTVSPropertyOp53
 70
     1
102
RTVSPropertyOp54
 70
     1
102
RTVSPropertyOp55
 70
     1
102
RTVSPropertyOp56
 70
     1
102
RTVSPropertyOp57
 70
     1
102
RTVSPropertyOp58
 70
     1
102
RTVSPropertyOp59
 70
     1
102
RTVSPropertyOp60
 70
     1
102
RTVSPropertyOp61
 70
     1
102
RTVSPropertyOp62
 70
     1
  0
XRECORD
  5
B3BD
102
{ACAD_REACTORS
330
B3BC
102
}
330
B3BC
100
AcDbXrecord
280
     1
102
RTVSPost2010Prop28
280
     0
102
RTVSPost2010PropOp28
 70
     1
102
RTVSPost2010Prop29
280
     1
102
RTVSPost2010PropOp29
 70
     1
102
RTVSPost2010Prop30
280
     1
102
RTVSPost2010PropOp30
 70
     1
102
RTVSPost2010Prop31
280
     0
102
RTVSPost2010PropOp31
 70
     1
102
RTVSPost2010Prop32
280
     0
102
RTVSPost2010PropOp32
 70
     1
102
RTVSPost2010Prop33
280
     0
102
RTVSPost2010PropOp33
 70
     1
102
RTVSPost2010Prop34
280
     0
102
RTVSPost2010PropOp34
 70
     1
102
RTVSPost2010Prop35
280
     0
102
RTVSPost2010PropOp35
 70
     1
102
RTVSPost2010Prop36
280
     0
102
RTVSPost2010PropOp36
 70
     1
102
RTVSPost2010Prop37
 90
       50
102
RTVSPost2010PropOp37
 70
     1
102
RTVSPost2010Prop38
140
0.0
102
RTVSPost2010PropOp38
 70
     1
102
RTVSPost2010Prop39
140
1.0
102
RTVSPost2010PropOp39
 70
     1
102
RTVSPost2010Prop40
 90
        0
102
RTVSPost2010PropOp40
 70
     1
102
RTVSPost2010Prop41ColorIndex
 90
       18
102
RTVSPost2010Prop41ColorRGB
 90
        0
102
RTVSPost2010PropOp41
 70
     1
102
RTVSPost2010Prop42
 90
       50
102
RTVSPost2010PropOp42
 70
     1
102
RTVSPost2010Prop43
 90
        3
102
RTVSPost2010PropOp43
 70
     1
102
RTVSPost2010Prop44ColorIndex
 90
        5
102
RTVSPost2010Prop44ColorRGB
 90
      255
102
RTVSPost2010PropOp44
 70
     1
102
RTVSPost2010Prop45
280
     0
102
RTVSPost2010PropOp45
 70
     1
102
RTVSPost2010Prop46
 90
       50
102
RTVSPost2010PropOp46
 70
     1
102
RTVSPost2010Prop47
 90
       50
102
RTVSPost2010PropOp47
 70
     1
102
RTVSPost2010Prop48
 90
       50
102
RTVSPost2010PropOp48
 70
     1
102
RTVSPost2010Prop49
280
     0
102
RTVSPost2010PropOp49
 70
     1
102
RTVSPost2010Prop50
 90
       50
102
RTVSPost2010PropOp50
 70
     1
102
RTVSPost2010Prop51ColorIndex
 90
      256
102
RTVSPost2010Prop51ColorRGB
 90
-16777216
102
RTVSPost2010PropOp51
 70
     0
102
RTVSPost2010Prop52
140
1.0
102
RTVSPost2010PropOp52
 70
     0
102
RTVSPost2010Prop53
 90
        2
102
RTVSPost2010PropOp53
 70
     1
102
RTVSPost2010Prop54
  1
strokes_ogs.tif
102
RTVSPost2010PropOp54
 70
     1
102
RTVSPost2010Prop55
280
     0
102
RTVSPost2010PropOp55
 70
     1
102
RTVSPost2010Prop56
140
1.0
102
RTVSPost2010PropOp56
 70
     1
102
RTVSPost2010Prop57
140
1.0
102
RTVSPost2010PropOp57
 70
     1
102
RTVSPropertyOp0
 70
     1
102
RTVSPropertyOp1
 70
     1
102
RTVSPropertyOp2
 70
     1
102
RTVSPropertyOp3
 70
     1
102
RTVSPropertyOp4
 70
     1
102
RTVSPropertyOp5
 70
     1
102
RTVSPropertyOp6
 70
     1
102
RTVSPropertyOp7
 70
     1
102
RTVSPropertyOp8
 70
     1
102
RTVSPropertyOp9
 70
     1
102
RTVSPropertyOp10
 70
     1
102
RTVSPropertyOp11
 70
     1
102
RTVSPropertyOp12
 70
     1
102
RTVSPropertyOp13
 70
     1
102
RTVSPropertyOp14
 70
     1
102
RTVSPropertyOp15
 70
     1
102
RTVSPropertyOp16
 70
     1
102
RTVSPropertyOp17
 70
     1
102
RTVSPropertyOp18
 70
     1
102
RTVSPropertyOp19
 70
     1
102
RTVSPropertyOp20
 70
     1
102
RTVSPropertyOp21
 70
     1
102
RTVSPropertyOp22
 70
     1
102
RTVSPropertyOp23
 70
     1
102
RTVSPropertyOp24
 70
     1
102
RTVSPropertyOp25
 70
     1
102
RTVSPropertyOp26
 70
     1
102
RTVSPropertyOp27
 70
     1
102
RTVSPropertyOp28
 70
     1
102
RTVSPropertyOp29
 70
     1
102
RTVSPropertyOp30
 70
     1
102
RTVSPropertyOp31
 70
     1
102
RTVSPropertyOp32
 70
     1
102
RTVSPropertyOp33
 70
     1
102
RTVSPropertyOp34
 70
     1
102
RTVSPropertyOp35
 70
     1
102
RTVSPropertyOp36
 70
     1
102
RTVSPropertyOp37
 70
     1
102
RTVSPropertyOp38
 70
     1
102
RTVSPropertyOp39
 70
     1
102
RTVSPropertyOp40
 70
     1
102
RTVSPropertyOp41
 70
     1
102
RTVSPropertyOp42
 70
     1
102
RTVSPropertyOp43
 70
     1
102
RTVSPropertyOp44
 70
     1
102
RTVSPropertyOp45
 70
     1
102
RTVSPropertyOp46
 70
     1
102
RTVSPropertyOp47
 70
     1
102
RTVSPropertyOp48
 70
     1
102
RTVSPropertyOp49
 70
     1
102
RTVSPropertyOp50
 70
     1
102
RTVSPropertyOp51
 70
     0
102
RTVSPropertyOp52
 70
     0
102
RTVSPropertyOp53
 70
     1
102
RTVSPropertyOp54
 70
     1
102
RTVSPropertyOp55
 70
     1
102
RTVSPropertyOp56
 70
     1
102
RTVSPropertyOp57
 70
     1
102
RTVSPropertyOp58
 70
     1
102
RTVSPropertyOp59
 70
     1
102
RTVSPropertyOp60
 70
     1
102
RTVSPropertyOp61
 70
     1
102
RTVSPropertyOp62
 70
     1
  0
XRECORD
  5
B3BF
102
{ACAD_REACTORS
330
B3BE
102
}
330
B3BE
100
AcDbXrecord
280
     1
102
RTVSPost2010Prop28
280
     0
102
RTVSPost2010PropOp28
 70
     1
102
RTVSPost2010Prop29
280
     1
102
RTVSPost2010PropOp29
 70
     1
102
RTVSPost2010Prop30
280
     1
102
RTVSPost2010PropOp30
 70
     1
102
RTVSPost2010Prop31
280
     0
102
RTVSPost2010PropOp31
 70
     1
102
RTVSPost2010Prop32
280
     0
102
RTVSPost2010PropOp32
 70
     1
102
RTVSPost2010Prop33
280
     0
102
RTVSPost2010PropOp33
 70
     1
102
RTVSPost2010Prop34
280
     0
102
RTVSPost2010PropOp34
 70
     1
102
RTVSPost2010Prop35
280
     0
102
RTVSPost2010PropOp35
 70
     1
102
RTVSPost2010Prop36
280
     0
102
RTVSPost2010PropOp36
 70
     1
102
RTVSPost2010Prop37
 90
       50
102
RTVSPost2010PropOp37
 70
     1
102
RTVSPost2010Prop38
140
0.0
102
RTVSPost2010PropOp38
 70
     1
102
RTVSPost2010Prop39
140
1.0
102
RTVSPost2010PropOp39
 70
     1
102
RTVSPost2010Prop40
 90
        0
102
RTVSPost2010PropOp40
 70
     1
102
RTVSPost2010Prop41ColorIndex
 90
       18
102
RTVSPost2010Prop41ColorRGB
 90
        0
102
RTVSPost2010PropOp41
 70
     1
102
RTVSPost2010Prop42
 90
       50
102
RTVSPost2010PropOp42
 70
     1
102
RTVSPost2010Prop43
 90
        3
102
RTVSPost2010PropOp43
 70
     1
102
RTVSPost2010Prop44ColorIndex
 90
        5
102
RTVSPost2010Prop44ColorRGB
 90
      255
102
RTVSPost2010PropOp44
 70
     1
102
RTVSPost2010Prop45
280
     0
102
RTVSPost2010PropOp45
 70
     1
102
RTVSPost2010Prop46
 90
       50
102
RTVSPost2010PropOp46
 70
     1
102
RTVSPost2010Prop47
 90
       50
102
RTVSPost2010PropOp47
 70
     1
102
RTVSPost2010Prop48
 90
       50
102
RTVSPost2010PropOp48
 70
     1
102
RTVSPost2010Prop49
280
     0
102
RTVSPost2010PropOp49
 70
     1
102
RTVSPost2010Prop50
 90
       50
102
RTVSPost2010PropOp50
 70
     1
102
RTVSPost2010Prop51ColorIndex
 90
      256
102
RTVSPost2010Prop51ColorRGB
 90
-16777216
102
RTVSPost2010PropOp51
 70
     0
102
RTVSPost2010Prop52
140
1.0
102
RTVSPost2010PropOp52
 70
     0
102
RTVSPost2010Prop53
 90
        2
102
RTVSPost2010PropOp53
 70
     1
102
RTVSPost2010Prop54
  1
strokes_ogs.tif
102
RTVSPost2010PropOp54
 70
     1
102
RTVSPost2010Prop55
280
     0
102
RTVSPost2010PropOp55
 70
     1
102
RTVSPost2010Prop56
140
1.0
102
RTVSPost2010PropOp56
 70
     1
102
RTVSPost2010Prop57
140
1.0
102
RTVSPost2010PropOp57
 70
     1
102
RTVSPropertyOp0
 70
     1
102
RTVSPropertyOp1
 70
     1
102
RTVSPropertyOp2
 70
     1
102
RTVSPropertyOp3
 70
     1
102
RTVSPropertyOp4
 70
     1
102
RTVSPropertyOp5
 70
     1
102
RTVSPropertyOp6
 70
     1
102
RTVSPropertyOp7
 70
     1
102
RTVSPropertyOp8
 70
     1
102
RTVSPropertyOp9
 70
     1
102
RTVSPropertyOp10
 70
     1
102
RTVSPropertyOp11
 70
     1
102
RTVSPropertyOp12
 70
     1
102
RTVSPropertyOp13
 70
     1
102
RTVSPropertyOp14
 70
     1
102
RTVSPropertyOp15
 70
     1
102
RTVSPropertyOp16
 70
     1
102
RTVSPropertyOp17
 70
     1
102
RTVSPropertyOp18
 70
     1
102
RTVSPropertyOp19
 70
     1
102
RTVSPropertyOp20
 70
     1
102
RTVSPropertyOp21
 70
     1
102
RTVSPropertyOp22
 70
     1
102
RTVSPropertyOp23
 70
     1
102
RTVSPropertyOp24
 70
     1
102
RTVSPropertyOp25
 70
     1
102
RTVSPropertyOp26
 70
     1
102
RTVSPropertyOp27
 70
     1
102
RTVSPropertyOp28
 70
     1
102
RTVSPropertyOp29
 70
     1
102
RTVSPropertyOp30
 70
     1
102
RTVSPropertyOp31
 70
     1
102
RTVSPropertyOp32
 70
     1
102
RTVSPropertyOp33
 70
     1
102
RTVSPropertyOp34
 70
     1
102
RTVSPropertyOp35
 70
     1
102
RTVSPropertyOp36
 70
     1
102
RTVSPropertyOp37
 70
     1
102
RTVSPropertyOp38
 70
     1
102
RTVSPropertyOp39
 70
     1
102
RTVSPropertyOp40
 70
     1
102
RTVSPropertyOp41
 70
     1
102
RTVSPropertyOp42
 70
     1
102
RTVSPropertyOp43
 70
     1
102
RTVSPropertyOp44
 70
     1
102
RTVSPropertyOp45
 70
     1
102
RTVSPropertyOp46
 70
     1
102
RTVSPropertyOp47
 70
     1
102
RTVSPropertyOp48
 70
     1
102
RTVSPropertyOp49
 70
     1
102
RTVSPropertyOp50
 70
     1
102
RTVSPropertyOp51
 70
     0
102
RTVSPropertyOp52
 70
     0
102
RTVSPropertyOp53
 70
     1
102
RTVSPropertyOp54
 70
     1
102
RTVSPropertyOp55
 70
     1
102
RTVSPropertyOp56
 70
     1
102
RTVSPropertyOp57
 70
     1
102
RTVSPropertyOp58
 70
     1
102
RTVSPropertyOp59
 70
     1
102
RTVSPropertyOp60
 70
     1
102
RTVSPropertyOp61
 70
     1
102
RTVSPropertyOp62
 70
     1
  0
XRECORD
  5
B3C7
102
{ACAD_REACTORS
330
B3C6
102
}
330
B3C6
100
AcDbXrecord
280
     1
102
RTVSPost2010Prop28
280
     0
102
RTVSPost2010PropOp28
 70
     1
102
RTVSPost2010Prop29
280
     1
102
RTVSPost2010PropOp29
 70
     1
102
RTVSPost2010Prop30
280
     1
102
RTVSPost2010PropOp30
 70
     1
102
RTVSPost2010Prop31
280
     0
102
RTVSPost2010PropOp31
 70
     1
102
RTVSPost2010Prop32
280
     0
102
RTVSPost2010PropOp32
 70
     1
102
RTVSPost2010Prop33
280
     0
102
RTVSPost2010PropOp33
 70
     1
102
RTVSPost2010Prop34
280
     0
102
RTVSPost2010PropOp34
 70
     1
102
RTVSPost2010Prop35
280
     0
102
RTVSPost2010PropOp35
 70
     1
102
RTVSPost2010Prop36
280
     0
102
RTVSPost2010PropOp36
 70
     1
102
RTVSPost2010Prop37
 90
       50
102
RTVSPost2010PropOp37
 70
     1
102
RTVSPost2010Prop38
140
0.0
102
RTVSPost2010PropOp38
 70
     1
102
RTVSPost2010Prop39
140
1.0
102
RTVSPost2010PropOp39
 70
     1
102
RTVSPost2010Prop40
 90
        0
102
RTVSPost2010PropOp40
 70
     1
102
RTVSPost2010Prop41ColorIndex
 90
       18
102
RTVSPost2010Prop41ColorRGB
 90
        0
102
RTVSPost2010PropOp41
 70
     1
102
RTVSPost2010Prop42
 90
       50
102
RTVSPost2010PropOp42
 70
     1
102
RTVSPost2010Prop43
 90
        3
102
RTVSPost2010PropOp43
 70
     1
102
RTVSPost2010Prop44ColorIndex
 90
        5
102
RTVSPost2010Prop44ColorRGB
 90
      255
102
RTVSPost2010PropOp44
 70
     1
102
RTVSPost2010Prop45
280
     0
102
RTVSPost2010PropOp45
 70
     1
102
RTVSPost2010Prop46
 90
       50
102
RTVSPost2010PropOp46
 70
     1
102
RTVSPost2010Prop47
 90
       50
102
RTVSPost2010PropOp47
 70
     1
102
RTVSPost2010Prop48
 90
       50
102
RTVSPost2010PropOp48
 70
     1
102
RTVSPost2010Prop49
280
     0
102
RTVSPost2010PropOp49
 70
     1
102
RTVSPost2010Prop50
 90
       50
102
RTVSPost2010PropOp50
 70
     1
102
RTVSPost2010Prop51ColorIndex
 90
      256
102
RTVSPost2010Prop51ColorRGB
 90
-16777216
102
RTVSPost2010PropOp51
 70
     0
102
RTVSPost2010Prop52
140
1.0
102
RTVSPost2010PropOp52
 70
     0
102
RTVSPost2010Prop53
 90
        2
102
RTVSPost2010PropOp53
 70
     1
102
RTVSPost2010Prop54
  1
strokes_ogs.tif
102
RTVSPost2010PropOp54
 70
     1
102
RTVSPost2010Prop55
280
     0
102
RTVSPost2010PropOp55
 70
     1
102
RTVSPost2010Prop56
140
1.0
102
RTVSPost2010PropOp56
 70
     1
102
RTVSPost2010Prop57
140
1.0
102
RTVSPost2010PropOp57
 70
     1
102
RTVSPropertyOp0
 70
     1
102
RTVSPropertyOp1
 70
     1
102
RTVSPropertyOp2
 70
     1
102
RTVSPropertyOp3
 70
     1
102
RTVSPropertyOp4
 70
     1
102
RTVSPropertyOp5
 70
     1
102
RTVSPropertyOp6
 70
     1
102
RTVSPropertyOp7
 70
     1
102
RTVSPropertyOp8
 70
     1
102
RTVSPropertyOp9
 70
     1
102
RTVSPropertyOp10
 70
     1
102
RTVSPropertyOp11
 70
     1
102
RTVSPropertyOp12
 70
     1
102
RTVSPropertyOp13
 70
     1
102
RTVSPropertyOp14
 70
     1
102
RTVSPropertyOp15
 70
     1
102
RTVSPropertyOp16
 70
     1
102
RTVSPropertyOp17
 70
     1
102
RTVSPropertyOp18
 70
     1
102
RTVSPropertyOp19
 70
     1
102
RTVSPropertyOp20
 70
     1
102
RTVSPropertyOp21
 70
     1
102
RTVSPropertyOp22
 70
     1
102
RTVSPropertyOp23
 70
     1
102
RTVSPropertyOp24
 70
     1
102
RTVSPropertyOp25
 70
     1
102
RTVSPropertyOp26
 70
     1
102
RTVSPropertyOp27
 70
     1
102
RTVSPropertyOp28
 70
     1
102
RTVSPropertyOp29
 70
     1
102
RTVSPropertyOp30
 70
     1
102
RTVSPropertyOp31
 70
     1
102
RTVSPropertyOp32
 70
     1
102
RTVSPropertyOp33
 70
     1
102
RTVSPropertyOp34
 70
     1
102
RTVSPropertyOp35
 70
     1
102
RTVSPropertyOp36
 70
     1
102
RTVSPropertyOp37
 70
     1
102
RTVSPropertyOp38
 70
     1
102
RTVSPropertyOp39
 70
     1
102
RTVSPropertyOp40
 70
     1
102
RTVSPropertyOp41
 70
     1
102
RTVSPropertyOp42
 70
     1
102
RTVSPropertyOp43
 70
     1
102
RTVSPropertyOp44
 70
     1
102
RTVSPropertyOp45
 70
     1
102
RTVSPropertyOp46
 70
     1
102
RTVSPropertyOp47
 70
     1
102
RTVSPropertyOp48
 70
     1
102
RTVSPropertyOp49
 70
     1
102
RTVSPropertyOp50
 70
     1
102
RTVSPropertyOp51
 70
     0
102
RTVSPropertyOp52
 70
     0
102
RTVSPropertyOp53
 70
     1
102
RTVSPropertyOp54
 70
     1
102
RTVSPropertyOp55
 70
     1
102
RTVSPropertyOp56
 70
     1
102
RTVSPropertyOp57
 70
     1
102
RTVSPropertyOp58
 70
     1
102
RTVSPropertyOp59
 70
     1
102
RTVSPropertyOp60
 70
     1
102
RTVSPropertyOp61
 70
     1
102
RTVSPropertyOp62
 70
     1
  0
XRECORD
  5
B3E3
102
{ACAD_REACTORS
330
B3E2
102
}
330
B3E2
100
AcDbXrecord
280
     1
102
RTVSPost2010Prop28
280
     0
102
RTVSPost2010PropOp28
 70
     1
102
RTVSPost2010Prop29
280
     1
102
RTVSPost2010PropOp29
 70
     1
102
RTVSPost2010Prop30
280
     1
102
RTVSPost2010PropOp30
 70
     1
102
RTVSPost2010Prop31
280
     0
102
RTVSPost2010PropOp31
 70
     1
102
RTVSPost2010Prop32
280
     0
102
RTVSPost2010PropOp32
 70
     1
102
RTVSPost2010Prop33
280
     0
102
RTVSPost2010PropOp33
 70
     1
102
RTVSPost2010Prop34
280
     0
102
RTVSPost2010PropOp34
 70
     1
102
RTVSPost2010Prop35
280
     0
102
RTVSPost2010PropOp35
 70
     1
102
RTVSPost2010Prop36
280
     0
102
RTVSPost2010PropOp36
 70
     1
102
RTVSPost2010Prop37
 90
       50
102
RTVSPost2010PropOp37
 70
     0
102
RTVSPost2010Prop38
140
0.0
102
RTVSPost2010PropOp38
 70
     0
102
RTVSPost2010Prop39
140
1.0
102
RTVSPost2010PropOp39
 70
     0
102
RTVSPost2010Prop40
 90
        0
102
RTVSPost2010PropOp40
 70
     0
102
RTVSPost2010Prop41ColorIndex
 90
       18
102
RTVSPost2010Prop41ColorRGB
 90
        0
102
RTVSPost2010PropOp41
 70
     0
102
RTVSPost2010Prop42
 90
       50
102
RTVSPost2010PropOp42
 70
     0
102
RTVSPost2010Prop43
 90
        3
102
RTVSPost2010PropOp43
 70
     0
102
RTVSPost2010Prop44ColorIndex
 90
        5
102
RTVSPost2010Prop44ColorRGB
 90
      255
102
RTVSPost2010PropOp44
 70
     0
102
RTVSPost2010Prop45
280
     0
102
RTVSPost2010PropOp45
 70
     1
102
RTVSPost2010Prop46
 90
       50
102
RTVSPost2010PropOp46
 70
     0
102
RTVSPost2010Prop47
 90
       50
102
RTVSPost2010PropOp47
 70
     0
102
RTVSPost2010Prop48
 90
       50
102
RTVSPost2010PropOp48
 70
     0
102
RTVSPost2010Prop49
280
     0
102
RTVSPost2010PropOp49
 70
     1
102
RTVSPost2010Prop50
 90
       50
102
RTVSPost2010PropOp50
 70
     0
102
RTVSPost2010Prop51ColorIndex
 90
      256
102
RTVSPost2010Prop51ColorRGB
 90
-16777216
102
RTVSPost2010PropOp51
 70
     0
102
RTVSPost2010Prop52
140
1.0
102
RTVSPost2010PropOp52
 70
     0
102
RTVSPost2010Prop53
 90
        2
102
RTVSPost2010PropOp53
 70
     0
102
RTVSPost2010Prop54
  1
strokes_ogs.tif
102
RTVSPost2010PropOp54
 70
     0
102
RTVSPost2010Prop55
280
     0
102
RTVSPost2010PropOp55
 70
     1
102
RTVSPost2010Prop56
140
1.0
102
RTVSPost2010PropOp56
 70
     0
102
RTVSPost2010Prop57
140
1.0
102
RTVSPost2010PropOp57
 70
     0
102
RTVSPropertyOp0
 70
     0
102
RTVSPropertyOp1
 70
     0
102
RTVSPropertyOp2
 70
     0
102
RTVSPropertyOp3
 70
     0
102
RTVSPropertyOp4
 70
     0
102
RTVSPropertyOp5
 70
     0
102
RTVSPropertyOp6
 70
     0
102
RTVSPropertyOp7
 70
     0
102
RTVSPropertyOp8
 70
     0
102
RTVSPropertyOp9
 70
     0
102
RTVSPropertyOp10
 70
     0
102
RTVSPropertyOp11
 70
     0
102
RTVSPropertyOp12
 70
     0
102
RTVSPropertyOp13
 70
     0
102
RTVSPropertyOp14
 70
     2
102
RTVSPropertyOp15
 70
     0
102
RTVSPropertyOp16
 70
     0
102
RTVSPropertyOp17
 70
     0
102
RTVSPropertyOp18
 70
     0
102
RTVSPropertyOp19
 70
     0
102
RTVSPropertyOp20
 70
     0
102
RTVSPropertyOp21
 70
     0
102
RTVSPropertyOp22
 70
     0
102
RTVSPropertyOp23
 70
     0
102
RTVSPropertyOp24
 70
     0
102
RTVSPropertyOp25
 70
     0
102
RTVSPropertyOp26
 70
     0
102
RTVSPropertyOp27
 70
     0
102
RTVSPropertyOp28
 70
     1
102
RTVSPropertyOp29
 70
     1
102
RTVSPropertyOp30
 70
     1
102
RTVSPropertyOp31
 70
     1
102
RTVSPropertyOp32
 70
     1
102
RTVSPropertyOp33
 70
     1
102
RTVSPropertyOp34
 70
     1
102
RTVSPropertyOp35
 70
     1
102
RTVSPropertyOp36
 70
     1
102
RTVSPropertyOp37
 70
     0
102
RTVSPropertyOp38
 70
     0
102
RTVSPropertyOp39
 70
     0
102
RTVSPropertyOp40
 70
     0
102
RTVSPropertyOp41
 70
     0
102
RTVSPropertyOp42
 70
     0
102
RTVSPropertyOp43
 70
     0
102
RTVSPropertyOp44
 70
     0
102
RTVSPropertyOp45
 70
     1
102
RTVSPropertyOp46
 70
     0
102
RTVSPropertyOp47
 70
     0
102
RTVSPropertyOp48
 70
     0
102
RTVSPropertyOp49
 70
     1
102
RTVSPropertyOp50
 70
     0
102
RTVSPropertyOp51
 70
     0
102
RTVSPropertyOp52
 70
     0
102
RTVSPropertyOp53
 70
     0
102
RTVSPropertyOp54
 70
     0
102
RTVSPropertyOp55
 70
     1
102
RTVSPropertyOp56
 70
     0
102
RTVSPropertyOp57
 70
     0
102
RTVSPropertyOp58
 70
     0
102
RTVSPropertyOp59
 70
     0
102
RTVSPropertyOp60
 70
     0
102
RTVSPropertyOp61
 70
     0
102
RTVSPropertyOp62
 70
     0
  0
XRECORD
  5
B3D3
102
{ACAD_REACTORS
330
B3D2
102
}
330
B3D2
100
AcDbXrecord
280
     1
102
RTVSPost2010Prop28
280
     0
102
RTVSPost2010PropOp28
 70
     1
102
RTVSPost2010Prop29
280
     1
102
RTVSPost2010PropOp29
 70
     1
102
RTVSPost2010Prop30
280
     1
102
RTVSPost2010PropOp30
 70
     1
102
RTVSPost2010Prop31
280
     0
102
RTVSPost2010PropOp31
 70
     1
102
RTVSPost2010Prop32
280
     0
102
RTVSPost2010PropOp32
 70
     1
102
RTVSPost2010Prop33
280
     0
102
RTVSPost2010PropOp33
 70
     1
102
RTVSPost2010Prop34
280
     0
102
RTVSPost2010PropOp34
 70
     1
102
RTVSPost2010Prop35
280
     0
102
RTVSPost2010PropOp35
 70
     1
102
RTVSPost2010Prop36
280
     0
102
RTVSPost2010PropOp36
 70
     1
102
RTVSPost2010Prop37
 90
       50
102
RTVSPost2010PropOp37
 70
     1
102
RTVSPost2010Prop38
140
0.0
102
RTVSPost2010PropOp38
 70
     1
102
RTVSPost2010Prop39
140
1.0
102
RTVSPost2010PropOp39
 70
     1
102
RTVSPost2010Prop40
 90
        0
102
RTVSPost2010PropOp40
 70
     1
102
RTVSPost2010Prop41ColorIndex
 90
       18
102
RTVSPost2010Prop41ColorRGB
 90
        0
102
RTVSPost2010PropOp41
 70
     1
102
RTVSPost2010Prop42
 90
       50
102
RTVSPost2010PropOp42
 70
     1
102
RTVSPost2010Prop43
 90
        3
102
RTVSPost2010PropOp43
 70
     1
102
RTVSPost2010Prop44ColorIndex
 90
        5
102
RTVSPost2010Prop44ColorRGB
 90
      255
102
RTVSPost2010PropOp44
 70
     1
102
RTVSPost2010Prop45
280
     0
102
RTVSPost2010PropOp45
 70
     1
102
RTVSPost2010Prop46
 90
       50
102
RTVSPost2010PropOp46
 70
     1
102
RTVSPost2010Prop47
 90
       50
102
RTVSPost2010PropOp47
 70
     1
102
RTVSPost2010Prop48
 90
       50
102
RTVSPost2010PropOp48
 70
     1
102
RTVSPost2010Prop49
280
     0
102
RTVSPost2010PropOp49
 70
     1
102
RTVSPost2010Prop50
 90
       50
102
RTVSPost2010PropOp50
 70
     1
102
RTVSPost2010Prop51ColorIndex
 90
      256
102
RTVSPost2010Prop51ColorRGB
 90
-16777216
102
RTVSPost2010PropOp51
 70
     0
102
RTVSPost2010Prop52
140
1.0
102
RTVSPost2010PropOp52
 70
     0
102
RTVSPost2010Prop53
 90
        2
102
RTVSPost2010PropOp53
 70
     1
102
RTVSPost2010Prop54
  1
strokes_ogs.tif
102
RTVSPost2010PropOp54
 70
     1
102
RTVSPost2010Prop55
280
     0
102
RTVSPost2010PropOp55
 70
     1
102
RTVSPost2010Prop56
140
1.0
102
RTVSPost2010PropOp56
 70
     1
102
RTVSPost2010Prop57
140
1.0
102
RTVSPost2010PropOp57
 70
     1
102
RTVSPropertyOp0
 70
     1
102
RTVSPropertyOp1
 70
     1
102
RTVSPropertyOp2
 70
     1
102
RTVSPropertyOp3
 70
     1
102
RTVSPropertyOp4
 70
     1
102
RTVSPropertyOp5
 70
     1
102
RTVSPropertyOp6
 70
     1
102
RTVSPropertyOp7
 70
     1
102
RTVSPropertyOp8
 70
     1
102
RTVSPropertyOp9
 70
     1
102
RTVSPropertyOp10
 70
     1
102
RTVSPropertyOp11
 70
     1
102
RTVSPropertyOp12
 70
     1
102
RTVSPropertyOp13
 70
     1
102
RTVSPropertyOp14
 70
     1
102
RTVSPropertyOp15
 70
     1
102
RTVSPropertyOp16
 70
     1
102
RTVSPropertyOp17
 70
     1
102
RTVSPropertyOp18
 70
     1
102
RTVSPropertyOp19
 70
     1
102
RTVSPropertyOp20
 70
     1
102
RTVSPropertyOp21
 70
     1
102
RTVSPropertyOp22
 70
     1
102
RTVSPropertyOp23
 70
     1
102
RTVSPropertyOp24
 70
     1
102
RTVSPropertyOp25
 70
     1
102
RTVSPropertyOp26
 70
     1
102
RTVSPropertyOp27
 70
     1
102
RTVSPropertyOp28
 70
     1
102
RTVSPropertyOp29
 70
     1
102
RTVSPropertyOp30
 70
     1
102
RTVSPropertyOp31
 70
     1
102
RTVSPropertyOp32
 70
     1
102
RTVSPropertyOp33
 70
     1
102
RTVSPropertyOp34
 70
     1
102
RTVSPropertyOp35
 70
     1
102
RTVSPropertyOp36
 70
     1
102
RTVSPropertyOp37
 70
     1
102
RTVSPropertyOp38
 70
     1
102
RTVSPropertyOp39
 70
     1
102
RTVSPropertyOp40
 70
     1
102
RTVSPropertyOp41
 70
     1
102
RTVSPropertyOp42
 70
     1
102
RTVSPropertyOp43
 70
     1
102
RTVSPropertyOp44
 70
     1
102
RTVSPropertyOp45
 70
     1
102
RTVSPropertyOp46
 70
     1
102
RTVSPropertyOp47
 70
     1
102
RTVSPropertyOp48
 70
     1
102
RTVSPropertyOp49
 70
     1
102
RTVSPropertyOp50
 70
     1
102
RTVSPropertyOp51
 70
     0
102
RTVSPropertyOp52
 70
     0
102
RTVSPropertyOp53
 70
     1
102
RTVSPropertyOp54
 70
     1
102
RTVSPropertyOp55
 70
     1
102
RTVSPropertyOp56
 70
     1
102
RTVSPropertyOp57
 70
     1
102
RTVSPropertyOp58
 70
     1
102
RTVSPropertyOp59
 70
     1
102
RTVSPropertyOp60
 70
     1
102
RTVSPropertyOp61
 70
     1
102
RTVSPropertyOp62
 70
     1
  0
XRECORD
  5
B3E5
102
{ACAD_REACTORS
330
B3E4
102
}
330
B3E4
100
AcDbXrecord
280
     1
102
RTVSPost2010Prop28
280
     0
102
RTVSPost2010PropOp28
 70
     1
102
RTVSPost2010Prop29
280
     1
102
RTVSPost2010PropOp29
 70
     1
102
RTVSPost2010Prop30
280
     1
102
RTVSPost2010PropOp30
 70
     1
102
RTVSPost2010Prop31
280
     0
102
RTVSPost2010PropOp31
 70
     1
102
RTVSPost2010Prop32
280
     0
102
RTVSPost2010PropOp32
 70
     1
102
RTVSPost2010Prop33
280
     0
102
RTVSPost2010PropOp33
 70
     1
102
RTVSPost2010Prop34
280
     0
102
RTVSPost2010PropOp34
 70
     1
102
RTVSPost2010Prop35
280
     0
102
RTVSPost2010PropOp35
 70
     1
102
RTVSPost2010Prop36
280
     0
102
RTVSPost2010PropOp36
 70
     1
102
RTVSPost2010Prop37
 90
       50
102
RTVSPost2010PropOp37
 70
     0
102
RTVSPost2010Prop38
140
0.0
102
RTVSPost2010PropOp38
 70
     0
102
RTVSPost2010Prop39
140
1.0
102
RTVSPost2010PropOp39
 70
     0
102
RTVSPost2010Prop40
 90
        0
102
RTVSPost2010PropOp40
 70
     0
102
RTVSPost2010Prop41ColorIndex
 90
       18
102
RTVSPost2010Prop41ColorRGB
 90
        0
102
RTVSPost2010PropOp41
 70
     0
102
RTVSPost2010Prop42
 90
       50
102
RTVSPost2010PropOp42
 70
     0
102
RTVSPost2010Prop43
 90
        3
102
RTVSPost2010PropOp43
 70
     0
102
RTVSPost2010Prop44ColorIndex
 90
        5
102
RTVSPost2010Prop44ColorRGB
 90
      255
102
RTVSPost2010PropOp44
 70
     0
102
RTVSPost2010Prop45
280
     0
102
RTVSPost2010PropOp45
 70
     1
102
RTVSPost2010Prop46
 90
       50
102
RTVSPost2010PropOp46
 70
     0
102
RTVSPost2010Prop47
 90
       50
102
RTVSPost2010PropOp47
 70
     0
102
RTVSPost2010Prop48
 90
       50
102
RTVSPost2010PropOp48
 70
     0
102
RTVSPost2010Prop49
280
     0
102
RTVSPost2010PropOp49
 70
     1
102
RTVSPost2010Prop50
 90
       50
102
RTVSPost2010PropOp50
 70
     0
102
RTVSPost2010Prop51ColorIndex
 90
      256
102
RTVSPost2010Prop51ColorRGB
 90
-16777216
102
RTVSPost2010PropOp51
 70
     0
102
RTVSPost2010Prop52
140
1.0
102
RTVSPost2010PropOp52
 70
     0
102
RTVSPost2010Prop53
 90
        2
102
RTVSPost2010PropOp53
 70
     0
102
RTVSPost2010Prop54
  1
strokes_ogs.tif
102
RTVSPost2010PropOp54
 70
     0
102
RTVSPost2010Prop55
280
     0
102
RTVSPost2010PropOp55
 70
     1
102
RTVSPost2010Prop56
140
1.0
102
RTVSPost2010PropOp56
 70
     0
102
RTVSPost2010Prop57
140
1.0
102
RTVSPost2010PropOp57
 70
     0
102
RTVSPropertyOp0
 70
     0
102
RTVSPropertyOp1
 70
     0
102
RTVSPropertyOp2
 70
     0
102
RTVSPropertyOp3
 70
     0
102
RTVSPropertyOp4
 70
     0
102
RTVSPropertyOp5
 70
     0
102
RTVSPropertyOp6
 70
     0
102
RTVSPropertyOp7
 70
     0
102
RTVSPropertyOp8
 70
     0
102
RTVSPropertyOp9
 70
     0
102
RTVSPropertyOp10
 70
     0
102
RTVSPropertyOp11
 70
     0
102
RTVSPropertyOp12
 70
     0
102
RTVSPropertyOp13
 70
     0
102
RTVSPropertyOp14
 70
     2
102
RTVSPropertyOp15
 70
     0
102
RTVSPropertyOp16
 70
     0
102
RTVSPropertyOp17
 70
     0
102
RTVSPropertyOp18
 70
     0
102
RTVSPropertyOp19
 70
     0
102
RTVSPropertyOp20
 70
     0
102
RTVSPropertyOp21
 70
     0
102
RTVSPropertyOp22
 70
     0
102
RTVSPropertyOp23
 70
     0
102
RTVSPropertyOp24
 70
     0
102
RTVSPropertyOp25
 70
     0
102
RTVSPropertyOp26
 70
     0
102
RTVSPropertyOp27
 70
     0
102
RTVSPropertyOp28
 70
     1
102
RTVSPropertyOp29
 70
     1
102
RTVSPropertyOp30
 70
     1
102
RTVSPropertyOp31
 70
     1
102
RTVSPropertyOp32
 70
     1
102
RTVSPropertyOp33
 70
     1
102
RTVSPropertyOp34
 70
     1
102
RTVSPropertyOp35
 70
     1
102
RTVSPropertyOp36
 70
     1
102
RTVSPropertyOp37
 70
     0
102
RTVSPropertyOp38
 70
     0
102
RTVSPropertyOp39
 70
     0
102
RTVSPropertyOp40
 70
     0
102
RTVSPropertyOp41
 70
     0
102
RTVSPropertyOp42
 70
     0
102
RTVSPropertyOp43
 70
     0
102
RTVSPropertyOp44
 70
     0
102
RTVSPropertyOp45
 70
     1
102
RTVSPropertyOp46
 70
     0
102
RTVSPropertyOp47
 70
     0
102
RTVSPropertyOp48
 70
     0
102
RTVSPropertyOp49
 70
     1
102
RTVSPropertyOp50
 70
     0
102
RTVSPropertyOp51
 70
     0
102
RTVSPropertyOp52
 70
     0
102
RTVSPropertyOp53
 70
     0
102
RTVSPropertyOp54
 70
     0
102
RTVSPropertyOp55
 70
     1
102
RTVSPropertyOp56
 70
     0
102
RTVSPropertyOp57
 70
     0
102
RTVSPropertyOp58
 70
     0
102
RTVSPropertyOp59
 70
     0
102
RTVSPropertyOp60
 70
     0
102
RTVSPropertyOp61
 70
     0
102
RTVSPropertyOp62
 70
     0
  0
XRECORD
  5
B3CB
102
{ACAD_REACTORS
330
B3CA
102
}
330
B3CA
100
AcDbXrecord
280
     1
102
RTVSPost2010Prop28
280
     0
102
RTVSPost2010PropOp28
 70
     1
102
RTVSPost2010Prop29
280
     1
102
RTVSPost2010PropOp29
 70
     1
102
RTVSPost2010Prop30
280
     1
102
RTVSPost2010PropOp30
 70
     1
102
RTVSPost2010Prop31
280
     0
102
RTVSPost2010PropOp31
 70
     1
102
RTVSPost2010Prop32
280
     0
102
RTVSPost2010PropOp32
 70
     1
102
RTVSPost2010Prop33
280
     0
102
RTVSPost2010PropOp33
 70
     1
102
RTVSPost2010Prop34
280
     0
102
RTVSPost2010PropOp34
 70
     1
102
RTVSPost2010Prop35
280
     0
102
RTVSPost2010PropOp35
 70
     1
102
RTVSPost2010Prop36
280
     0
102
RTVSPost2010PropOp36
 70
     1
102
RTVSPost2010Prop37
 90
       50
102
RTVSPost2010PropOp37
 70
     1
102
RTVSPost2010Prop38
140
0.0
102
RTVSPost2010PropOp38
 70
     1
102
RTVSPost2010Prop39
140
1.0
102
RTVSPost2010PropOp39
 70
     1
102
RTVSPost2010Prop40
 90
        0
102
RTVSPost2010PropOp40
 70
     1
102
RTVSPost2010Prop41ColorIndex
 90
       18
102
RTVSPost2010Prop41ColorRGB
 90
        0
102
RTVSPost2010PropOp41
 70
     1
102
RTVSPost2010Prop42
 90
       50
102
RTVSPost2010PropOp42
 70
     1
102
RTVSPost2010Prop43
 90
        3
102
RTVSPost2010PropOp43
 70
     1
102
RTVSPost2010Prop44ColorIndex
 90
        5
102
RTVSPost2010Prop44ColorRGB
 90
      255
102
RTVSPost2010PropOp44
 70
     1
102
RTVSPost2010Prop45
280
     0
102
RTVSPost2010PropOp45
 70
     1
102
RTVSPost2010Prop46
 90
       50
102
RTVSPost2010PropOp46
 70
     1
102
RTVSPost2010Prop47
 90
       50
102
RTVSPost2010PropOp47
 70
     1
102
RTVSPost2010Prop48
 90
       50
102
RTVSPost2010PropOp48
 70
     1
102
RTVSPost2010Prop49
280
     0
102
RTVSPost2010PropOp49
 70
     1
102
RTVSPost2010Prop50
 90
       50
102
RTVSPost2010PropOp50
 70
     1
102
RTVSPost2010Prop51ColorIndex
 90
      256
102
RTVSPost2010Prop51ColorRGB
 90
-16777216
102
RTVSPost2010PropOp51
 70
     0
102
RTVSPost2010Prop52
140
1.0
102
RTVSPost2010PropOp52
 70
     0
102
RTVSPost2010Prop53
 90
        2
102
RTVSPost2010PropOp53
 70
     1
102
RTVSPost2010Prop54
  1
strokes_ogs.tif
102
RTVSPost2010PropOp54
 70
     1
102
RTVSPost2010Prop55
280
     0
102
RTVSPost2010PropOp55
 70
     1
102
RTVSPost2010Prop56
140
1.0
102
RTVSPost2010PropOp56
 70
     1
102
RTVSPost2010Prop57
140
1.0
102
RTVSPost2010PropOp57
 70
     1
102
RTVSPropertyOp0
 70
     1
102
RTVSPropertyOp1
 70
     1
102
RTVSPropertyOp2
 70
     1
102
RTVSPropertyOp3
 70
     1
102
RTVSPropertyOp4
 70
     1
102
RTVSPropertyOp5
 70
     1
102
RTVSPropertyOp6
 70
     1
102
RTVSPropertyOp7
 70
     1
102
RTVSPropertyOp8
 70
     1
102
RTVSPropertyOp9
 70
     1
102
RTVSPropertyOp10
 70
     1
102
RTVSPropertyOp11
 70
     1
102
RTVSPropertyOp12
 70
     1
102
RTVSPropertyOp13
 70
     1
102
RTVSPropertyOp14
 70
     1
102
RTVSPropertyOp15
 70
     1
102
RTVSPropertyOp16
 70
     1
102
RTVSPropertyOp17
 70
     1
102
RTVSPropertyOp18
 70
     1
102
RTVSPropertyOp19
 70
     1
102
RTVSPropertyOp20
 70
     1
102
RTVSPropertyOp21
 70
     1
102
RTVSPropertyOp22
 70
     1
102
RTVSPropertyOp23
 70
     1
102
RTVSPropertyOp24
 70
     1
102
RTVSPropertyOp25
 70
     1
102
RTVSPropertyOp26
 70
     1
102
RTVSPropertyOp27
 70
     1
102
RTVSPropertyOp28
 70
     1
102
RTVSPropertyOp29
 70
     1
102
RTVSPropertyOp30
 70
     1
102
RTVSPropertyOp31
 70
     1
102
RTVSPropertyOp32
 70
     1
102
RTVSPropertyOp33
 70
     1
102
RTVSPropertyOp34
 70
     1
102
RTVSPropertyOp35
 70
     1
102
RTVSPropertyOp36
 70
     1
102
RTVSPropertyOp37
 70
     1
102
RTVSPropertyOp38
 70
     1
102
RTVSPropertyOp39
 70
     1
102
RTVSPropertyOp40
 70
     1
102
RTVSPropertyOp41
 70
     1
102
RTVSPropertyOp42
 70
     1
102
RTVSPropertyOp43
 70
     1
102
RTVSPropertyOp44
 70
     1
102
RTVSPropertyOp45
 70
     1
102
RTVSPropertyOp46
 70
     1
102
RTVSPropertyOp47
 70
     1
102
RTVSPropertyOp48
 70
     1
102
RTVSPropertyOp49
 70
     1
102
RTVSPropertyOp50
 70
     1
102
RTVSPropertyOp51
 70
     0
102
RTVSPropertyOp52
 70
     0
102
RTVSPropertyOp53
 70
     1
102
RTVSPropertyOp54
 70
     1
102
RTVSPropertyOp55
 70
     1
102
RTVSPropertyOp56
 70
     1
102
RTVSPropertyOp57
 70
     1
102
RTVSPropertyOp58
 70
     1
102
RTVSPropertyOp59
 70
     1
102
RTVSPropertyOp60
 70
     1
102
RTVSPropertyOp61
 70
     1
102
RTVSPropertyOp62
 70
     1
  0
XRECORD
  5
B3E1
102
{ACAD_REACTORS
330
B3E0
102
}
330
B3E0
100
AcDbXrecord
280
     1
102
RTVSPost2010Prop28
280
     0
102
RTVSPost2010PropOp28
 70
     1
102
RTVSPost2010Prop29
280
     1
102
RTVSPost2010PropOp29
 70
     1
102
RTVSPost2010Prop30
280
     1
102
RTVSPost2010PropOp30
 70
     1
102
RTVSPost2010Prop31
280
     0
102
RTVSPost2010PropOp31
 70
     1
102
RTVSPost2010Prop32
280
     0
102
RTVSPost2010PropOp32
 70
     1
102
RTVSPost2010Prop33
280
     0
102
RTVSPost2010PropOp33
 70
     1
102
RTVSPost2010Prop34
280
     0
102
RTVSPost2010PropOp34
 70
     1
102
RTVSPost2010Prop35
280
     0
102
RTVSPost2010PropOp35
 70
     1
102
RTVSPost2010Prop36
280
     0
102
RTVSPost2010PropOp36
 70
     1
102
RTVSPost2010Prop37
 90
       50
102
RTVSPost2010PropOp37
 70
     1
102
RTVSPost2010Prop38
140
0.0
102
RTVSPost2010PropOp38
 70
     1
102
RTVSPost2010Prop39
140
1.0
102
RTVSPost2010PropOp39
 70
     1
102
RTVSPost2010Prop40
 90
        0
102
RTVSPost2010PropOp40
 70
     1
102
RTVSPost2010Prop41ColorIndex
 90
       18
102
RTVSPost2010Prop41ColorRGB
 90
        0
102
RTVSPost2010PropOp41
 70
     1
102
RTVSPost2010Prop42
 90
       50
102
RTVSPost2010PropOp42
 70
     1
102
RTVSPost2010Prop43
 90
        3
102
RTVSPost2010PropOp43
 70
     1
102
RTVSPost2010Prop44ColorIndex
 90
        5
102
RTVSPost2010Prop44ColorRGB
 90
      255
102
RTVSPost2010PropOp44
 70
     1
102
RTVSPost2010Prop45
280
     0
102
RTVSPost2010PropOp45
 70
     1
102
RTVSPost2010Prop46
 90
       50
102
RTVSPost2010PropOp46
 70
     1
102
RTVSPost2010Prop47
 90
       50
102
RTVSPost2010PropOp47
 70
     1
102
RTVSPost2010Prop48
 90
       50
102
RTVSPost2010PropOp48
 70
     1
102
RTVSPost2010Prop49
280
     0
102
RTVSPost2010PropOp49
 70
     1
102
RTVSPost2010Prop50
 90
       50
102
RTVSPost2010PropOp50
 70
     1
102
RTVSPost2010Prop51ColorIndex
 90
      256
102
RTVSPost2010Prop51ColorRGB
 90
-16777216
102
RTVSPost2010PropOp51
 70
     0
102
RTVSPost2010Prop52
140
1.0
102
RTVSPost2010PropOp52
 70
     0
102
RTVSPost2010Prop53
 90
        2
102
RTVSPost2010PropOp53
 70
     1
102
RTVSPost2010Prop54
  1
strokes_ogs.tif
102
RTVSPost2010PropOp54
 70
     1
102
RTVSPost2010Prop55
280
     0
102
RTVSPost2010PropOp55
 70
     1
102
RTVSPost2010Prop56
140
1.0
102
RTVSPost2010PropOp56
 70
     1
102
RTVSPost2010Prop57
140
1.0
102
RTVSPost2010PropOp57
 70
     1
102
RTVSPropertyOp0
 70
     1
102
RTVSPropertyOp1
 70
     1
102
RTVSPropertyOp2
 70
     1
102
RTVSPropertyOp3
 70
     1
102
RTVSPropertyOp4
 70
     1
102
RTVSPropertyOp5
 70
     1
102
RTVSPropertyOp6
 70
     1
102
RTVSPropertyOp7
 70
     1
102
RTVSPropertyOp8
 70
     1
102
RTVSPropertyOp9
 70
     1
102
RTVSPropertyOp10
 70
     1
102
RTVSPropertyOp11
 70
     1
102
RTVSPropertyOp12
 70
     1
102
RTVSPropertyOp13
 70
     1
102
RTVSPropertyOp14
 70
     1
102
RTVSPropertyOp15
 70
     1
102
RTVSPropertyOp16
 70
     1
102
RTVSPropertyOp17
 70
     1
102
RTVSPropertyOp18
 70
     1
102
RTVSPropertyOp19
 70
     1
102
RTVSPropertyOp20
 70
     1
102
RTVSPropertyOp21
 70
     1
102
RTVSPropertyOp22
 70
     1
102
RTVSPropertyOp23
 70
     1
102
RTVSPropertyOp24
 70
     1
102
RTVSPropertyOp25
 70
     1
102
RTVSPropertyOp26
 70
     1
102
RTVSPropertyOp27
 70
     1
102
RTVSPropertyOp28
 70
     1
102
RTVSPropertyOp29
 70
     1
102
RTVSPropertyOp30
 70
     1
102
RTVSPropertyOp31
 70
     1
102
RTVSPropertyOp32
 70
     1
102
RTVSPropertyOp33
 70
     1
102
RTVSPropertyOp34
 70
     1
102
RTVSPropertyOp35
 70
     1
102
RTVSPropertyOp36
 70
     1
102
RTVSPropertyOp37
 70
     1
102
RTVSPropertyOp38
 70
     1
102
RTVSPropertyOp39
 70
     1
102
RTVSPropertyOp40
 70
     1
102
RTVSPropertyOp41
 70
     1
102
RTVSPropertyOp42
 70
     1
102
RTVSPropertyOp43
 70
     1
102
RTVSPropertyOp44
 70
     1
102
RTVSPropertyOp45
 70
     1
102
RTVSPropertyOp46
 70
     1
102
RTVSPropertyOp47
 70
     1
102
RTVSPropertyOp48
 70
     1
102
RTVSPropertyOp49
 70
     1
102
RTVSPropertyOp50
 70
     1
102
RTVSPropertyOp51
 70
     0
102
RTVSPropertyOp52
 70
     0
102
RTVSPropertyOp53
 70
     1
102
RTVSPropertyOp54
 70
     1
102
RTVSPropertyOp55
 70
     1
102
RTVSPropertyOp56
 70
     1
102
RTVSPropertyOp57
 70
     1
102
RTVSPropertyOp58
 70
     1
102
RTVSPropertyOp59
 70
     1
102
RTVSPropertyOp60
 70
     1
102
RTVSPropertyOp61
 70
     1
102
RTVSPropertyOp62
 70
     1
  0
XRECORD
  5
B3DF
102
{ACAD_REACTORS
330
B3DE
102
}
330
B3DE
100
AcDbXrecord
280
     1
102
RTVSPost2010Prop28
280
     0
102
RTVSPost2010PropOp28
 70
     1
102
RTVSPost2010Prop29
280
     1
102
RTVSPost2010PropOp29
 70
     1
102
RTVSPost2010Prop30
280
     1
102
RTVSPost2010PropOp30
 70
     1
102
RTVSPost2010Prop31
280
     0
102
RTVSPost2010PropOp31
 70
     1
102
RTVSPost2010Prop32
280
     0
102
RTVSPost2010PropOp32
 70
     1
102
RTVSPost2010Prop33
280
     0
102
RTVSPost2010PropOp33
 70
     1
102
RTVSPost2010Prop34
280
     0
102
RTVSPost2010PropOp34
 70
     1
102
RTVSPost2010Prop35
280
     0
102
RTVSPost2010PropOp35
 70
     1
102
RTVSPost2010Prop36
280
     0
102
RTVSPost2010PropOp36
 70
     1
102
RTVSPost2010Prop37
 90
       50
102
RTVSPost2010PropOp37
 70
     1
102
RTVSPost2010Prop38
140
0.0
102
RTVSPost2010PropOp38
 70
     1
102
RTVSPost2010Prop39
140
1.0
102
RTVSPost2010PropOp39
 70
     1
102
RTVSPost2010Prop40
 90
        0
102
RTVSPost2010PropOp40
 70
     1
102
RTVSPost2010Prop41ColorIndex
 90
       18
102
RTVSPost2010Prop41ColorRGB
 90
        0
102
RTVSPost2010PropOp41
 70
     1
102
RTVSPost2010Prop42
 90
       50
102
RTVSPost2010PropOp42
 70
     1
102
RTVSPost2010Prop43
 90
        3
102
RTVSPost2010PropOp43
 70
     1
102
RTVSPost2010Prop44ColorIndex
 90
        5
102
RTVSPost2010Prop44ColorRGB
 90
      255
102
RTVSPost2010PropOp44
 70
     1
102
RTVSPost2010Prop45
280
     0
102
RTVSPost2010PropOp45
 70
     1
102
RTVSPost2010Prop46
 90
       50
102
RTVSPost2010PropOp46
 70
     1
102
RTVSPost2010Prop47
 90
       50
102
RTVSPost2010PropOp47
 70
     1
102
RTVSPost2010Prop48
 90
       50
102
RTVSPost2010PropOp48
 70
     1
102
RTVSPost2010Prop49
280
     0
102
RTVSPost2010PropOp49
 70
     1
102
RTVSPost2010Prop50
 90
       50
102
RTVSPost2010PropOp50
 70
     1
102
RTVSPost2010Prop51ColorIndex
 90
      256
102
RTVSPost2010Prop51ColorRGB
 90
-16777216
102
RTVSPost2010PropOp51
 70
     0
102
RTVSPost2010Prop52
140
1.0
102
RTVSPost2010PropOp52
 70
     0
102
RTVSPost2010Prop53
 90
        2
102
RTVSPost2010PropOp53
 70
     1
102
RTVSPost2010Prop54
  1
strokes_ogs.tif
102
RTVSPost2010PropOp54
 70
     1
102
RTVSPost2010Prop55
280
     0
102
RTVSPost2010PropOp55
 70
     1
102
RTVSPost2010Prop56
140
1.0
102
RTVSPost2010PropOp56
 70
     1
102
RTVSPost2010Prop57
140
1.0
102
RTVSPost2010PropOp57
 70
     1
102
RTVSPropertyOp0
 70
     1
102
RTVSPropertyOp1
 70
     1
102
RTVSPropertyOp2
 70
     1
102
RTVSPropertyOp3
 70
     1
102
RTVSPropertyOp4
 70
     1
102
RTVSPropertyOp5
 70
     1
102
RTVSPropertyOp6
 70
     1
102
RTVSPropertyOp7
 70
     1
102
RTVSPropertyOp8
 70
     1
102
RTVSPropertyOp9
 70
     1
102
RTVSPropertyOp10
 70
     1
102
RTVSPropertyOp11
 70
     1
102
RTVSPropertyOp12
 70
     1
102
RTVSPropertyOp13
 70
     1
102
RTVSPropertyOp14
 70
     1
102
RTVSPropertyOp15
 70
     1
102
RTVSPropertyOp16
 70
     1
102
RTVSPropertyOp17
 70
     1
102
RTVSPropertyOp18
 70
     1
102
RTVSPropertyOp19
 70
     1
102
RTVSPropertyOp20
 70
     1
102
RTVSPropertyOp21
 70
     1
102
RTVSPropertyOp22
 70
     1
102
RTVSPropertyOp23
 70
     1
102
RTVSPropertyOp24
 70
     1
102
RTVSPropertyOp25
 70
     1
102
RTVSPropertyOp26
 70
     1
102
RTVSPropertyOp27
 70
     1
102
RTVSPropertyOp28
 70
     1
102
RTVSPropertyOp29
 70
     1
102
RTVSPropertyOp30
 70
     1
102
RTVSPropertyOp31
 70
     1
102
RTVSPropertyOp32
 70
     1
102
RTVSPropertyOp33
 70
     1
102
RTVSPropertyOp34
 70
     1
102
RTVSPropertyOp35
 70
     1
102
RTVSPropertyOp36
 70
     1
102
RTVSPropertyOp37
 70
     1
102
RTVSPropertyOp38
 70
     1
102
RTVSPropertyOp39
 70
     1
102
RTVSPropertyOp40
 70
     1
102
RTVSPropertyOp41
 70
     1
102
RTVSPropertyOp42
 70
     1
102
RTVSPropertyOp43
 70
     1
102
RTVSPropertyOp44
 70
     1
102
RTVSPropertyOp45
 70
     1
102
RTVSPropertyOp46
 70
     1
102
RTVSPropertyOp47
 70
     1
102
RTVSPropertyOp48
 70
     1
102
RTVSPropertyOp49
 70
     1
102
RTVSPropertyOp50
 70
     1
102
RTVSPropertyOp51
 70
     0
102
RTVSPropertyOp52
 70
     0
102
RTVSPropertyOp53
 70
     1
102
RTVSPropertyOp54
 70
     1
102
RTVSPropertyOp55
 70
     1
102
RTVSPropertyOp56
 70
     1
102
RTVSPropertyOp57
 70
     1
102
RTVSPropertyOp58
 70
     1
102
RTVSPropertyOp59
 70
     1
102
RTVSPropertyOp60
 70
     1
102
RTVSPropertyOp61
 70
     1
102
RTVSPropertyOp62
 70
     1
  0
XRECORD
  5
B3D9
102
{ACAD_REACTORS
330
B3D8
102
}
330
B3D8
100
AcDbXrecord
280
     1
102
RTVSPost2010Prop28
280
     0
102
RTVSPost2010PropOp28
 70
     1
102
RTVSPost2010Prop29
280
     1
102
RTVSPost2010PropOp29
 70
     1
102
RTVSPost2010Prop30
280
     1
102
RTVSPost2010PropOp30
 70
     1
102
RTVSPost2010Prop31
280
     0
102
RTVSPost2010PropOp31
 70
     1
102
RTVSPost2010Prop32
280
     0
102
RTVSPost2010PropOp32
 70
     1
102
RTVSPost2010Prop33
280
     0
102
RTVSPost2010PropOp33
 70
     1
102
RTVSPost2010Prop34
280
     0
102
RTVSPost2010PropOp34
 70
     1
102
RTVSPost2010Prop35
280
     0
102
RTVSPost2010PropOp35
 70
     1
102
RTVSPost2010Prop36
280
     0
102
RTVSPost2010PropOp36
 70
     1
102
RTVSPost2010Prop37
 90
       50
102
RTVSPost2010PropOp37
 70
     1
102
RTVSPost2010Prop38
140
0.0
102
RTVSPost2010PropOp38
 70
     1
102
RTVSPost2010Prop39
140
1.0
102
RTVSPost2010PropOp39
 70
     1
102
RTVSPost2010Prop40
 90
        0
102
RTVSPost2010PropOp40
 70
     1
102
RTVSPost2010Prop41ColorIndex
 90
       18
102
RTVSPost2010Prop41ColorRGB
 90
        0
102
RTVSPost2010PropOp41
 70
     1
102
RTVSPost2010Prop42
 90
       50
102
RTVSPost2010PropOp42
 70
     1
102
RTVSPost2010Prop43
 90
        3
102
RTVSPost2010PropOp43
 70
     1
102
RTVSPost2010Prop44ColorIndex
 90
        5
102
RTVSPost2010Prop44ColorRGB
 90
      255
102
RTVSPost2010PropOp44
 70
     1
102
RTVSPost2010Prop45
280
     0
102
RTVSPost2010PropOp45
 70
     1
102
RTVSPost2010Prop46
 90
       50
102
RTVSPost2010PropOp46
 70
     1
102
RTVSPost2010Prop47
 90
       50
102
RTVSPost2010PropOp47
 70
     1
102
RTVSPost2010Prop48
 90
       50
102
RTVSPost2010PropOp48
 70
     1
102
RTVSPost2010Prop49
280
     0
102
RTVSPost2010PropOp49
 70
     1
102
RTVSPost2010Prop50
 90
       50
102
RTVSPost2010PropOp50
 70
     1
102
RTVSPost2010Prop51ColorIndex
 90
      256
102
RTVSPost2010Prop51ColorRGB
 90
-16777216
102
RTVSPost2010PropOp51
 70
     0
102
RTVSPost2010Prop52
140
1.0
102
RTVSPost2010PropOp52
 70
     0
102
RTVSPost2010Prop53
 90
        2
102
RTVSPost2010PropOp53
 70
     1
102
RTVSPost2010Prop54
  1
strokes_ogs.tif
102
RTVSPost2010PropOp54
 70
     1
102
RTVSPost2010Prop55
280
     0
102
RTVSPost2010PropOp55
 70
     1
102
RTVSPost2010Prop56
140
1.0
102
RTVSPost2010PropOp56
 70
     1
102
RTVSPost2010Prop57
140
1.0
102
RTVSPost2010PropOp57
 70
     1
102
RTVSPropertyOp0
 70
     1
102
RTVSPropertyOp1
 70
     1
102
RTVSPropertyOp2
 70
     1
102
RTVSPropertyOp3
 70
     1
102
RTVSPropertyOp4
 70
     1
102
RTVSPropertyOp5
 70
     1
102
RTVSPropertyOp6
 70
     1
102
RTVSPropertyOp7
 70
     1
102
RTVSPropertyOp8
 70
     1
102
RTVSPropertyOp9
 70
     1
102
RTVSPropertyOp10
 70
     1
102
RTVSPropertyOp11
 70
     1
102
RTVSPropertyOp12
 70
     1
102
RTVSPropertyOp13
 70
     1
102
RTVSPropertyOp14
 70
     1
102
RTVSPropertyOp15
 70
     1
102
RTVSPropertyOp16
 70
     1
102
RTVSPropertyOp17
 70
     1
102
RTVSPropertyOp18
 70
     1
102
RTVSPropertyOp19
 70
     1
102
RTVSPropertyOp20
 70
     1
102
RTVSPropertyOp21
 70
     1
102
RTVSPropertyOp22
 70
     1
102
RTVSPropertyOp23
 70
     1
102
RTVSPropertyOp24
 70
     1
102
RTVSPropertyOp25
 70
     1
102
RTVSPropertyOp26
 70
     1
102
RTVSPropertyOp27
 70
     1
102
RTVSPropertyOp28
 70
     1
102
RTVSPropertyOp29
 70
     1
102
RTVSPropertyOp30
 70
     1
102
RTVSPropertyOp31
 70
     1
102
RTVSPropertyOp32
 70
     1
102
RTVSPropertyOp33
 70
     1
102
RTVSPropertyOp34
 70
     1
102
RTVSPropertyOp35
 70
     1
102
RTVSPropertyOp36
 70
     1
102
RTVSPropertyOp37
 70
     1
102
RTVSPropertyOp38
 70
     1
102
RTVSPropertyOp39
 70
     1
102
RTVSPropertyOp40
 70
     1
102
RTVSPropertyOp41
 70
     1
102
RTVSPropertyOp42
 70
     1
102
RTVSPropertyOp43
 70
     1
102
RTVSPropertyOp44
 70
     1
102
RTVSPropertyOp45
 70
     1
102
RTVSPropertyOp46
 70
     1
102
RTVSPropertyOp47
 70
     1
102
RTVSPropertyOp48
 70
     1
102
RTVSPropertyOp49
 70
     1
102
RTVSPropertyOp50
 70
     1
102
RTVSPropertyOp51
 70
     0
102
RTVSPropertyOp52
 70
     0
102
RTVSPropertyOp53
 70
     1
102
RTVSPropertyOp54
 70
     1
102
RTVSPropertyOp55
 70
     1
102
RTVSPropertyOp56
 70
     1
102
RTVSPropertyOp57
 70
     1
102
RTVSPropertyOp58
 70
     1
102
RTVSPropertyOp59
 70
     1
102
RTVSPropertyOp60
 70
     1
102
RTVSPropertyOp61
 70
     1
102
RTVSPropertyOp62
 70
     1
  0
XRECORD
  5
B3DB
102
{ACAD_REACTORS
330
B3DA
102
}
330
B3DA
100
AcDbXrecord
280
     1
102
RTVSPost2010Prop28
280
     0
102
RTVSPost2010PropOp28
 70
     1
102
RTVSPost2010Prop29
280
     1
102
RTVSPost2010PropOp29
 70
     1
102
RTVSPost2010Prop30
280
     1
102
RTVSPost2010PropOp30
 70
     1
102
RTVSPost2010Prop31
280
     0
102
RTVSPost2010PropOp31
 70
     1
102
RTVSPost2010Prop32
280
     0
102
RTVSPost2010PropOp32
 70
     1
102
RTVSPost2010Prop33
280
     0
102
RTVSPost2010PropOp33
 70
     1
102
RTVSPost2010Prop34
280
     0
102
RTVSPost2010PropOp34
 70
     1
102
RTVSPost2010Prop35
280
     0
102
RTVSPost2010PropOp35
 70
     1
102
RTVSPost2010Prop36
280
     0
102
RTVSPost2010PropOp36
 70
     1
102
RTVSPost2010Prop37
 90
       50
102
RTVSPost2010PropOp37
 70
     1
102
RTVSPost2010Prop38
140
0.0
102
RTVSPost2010PropOp38
 70
     1
102
RTVSPost2010Prop39
140
1.0
102
RTVSPost2010PropOp39
 70
     1
102
RTVSPost2010Prop40
 90
        0
102
RTVSPost2010PropOp40
 70
     1
102
RTVSPost2010Prop41ColorIndex
 90
       18
102
RTVSPost2010Prop41ColorRGB
 90
        0
102
RTVSPost2010PropOp41
 70
     1
102
RTVSPost2010Prop42
 90
       50
102
RTVSPost2010PropOp42
 70
     1
102
RTVSPost2010Prop43
 90
        3
102
RTVSPost2010PropOp43
 70
     1
102
RTVSPost2010Prop44ColorIndex
 90
        5
102
RTVSPost2010Prop44ColorRGB
 90
      255
102
RTVSPost2010PropOp44
 70
     1
102
RTVSPost2010Prop45
280
     0
102
RTVSPost2010PropOp45
 70
     1
102
RTVSPost2010Prop46
 90
       50
102
RTVSPost2010PropOp46
 70
     1
102
RTVSPost2010Prop47
 90
       50
102
RTVSPost2010PropOp47
 70
     1
102
RTVSPost2010Prop48
 90
       50
102
RTVSPost2010PropOp48
 70
     1
102
RTVSPost2010Prop49
280
     0
102
RTVSPost2010PropOp49
 70
     1
102
RTVSPost2010Prop50
 90
       50
102
RTVSPost2010PropOp50
 70
     1
102
RTVSPost2010Prop51ColorIndex
 90
      256
102
RTVSPost2010Prop51ColorRGB
 90
-16777216
102
RTVSPost2010PropOp51
 70
     0
102
RTVSPost2010Prop52
140
1.0
102
RTVSPost2010PropOp52
 70
     0
102
RTVSPost2010Prop53
 90
        2
102
RTVSPost2010PropOp53
 70
     1
102
RTVSPost2010Prop54
  1
strokes_ogs.tif
102
RTVSPost2010PropOp54
 70
     1
102
RTVSPost2010Prop55
280
     0
102
RTVSPost2010PropOp55
 70
     1
102
RTVSPost2010Prop56
140
1.0
102
RTVSPost2010PropOp56
 70
     1
102
RTVSPost2010Prop57
140
1.0
102
RTVSPost2010PropOp57
 70
     1
102
RTVSPropertyOp0
 70
     1
102
RTVSPropertyOp1
 70
     1
102
RTVSPropertyOp2
 70
     1
102
RTVSPropertyOp3
 70
     1
102
RTVSPropertyOp4
 70
     1
102
RTVSPropertyOp5
 70
     1
102
RTVSPropertyOp6
 70
     1
102
RTVSPropertyOp7
 70
     1
102
RTVSPropertyOp8
 70
     1
102
RTVSPropertyOp9
 70
     1
102
RTVSPropertyOp10
 70
     1
102
RTVSPropertyOp11
 70
     1
102
RTVSPropertyOp12
 70
     1
102
RTVSPropertyOp13
 70
     1
102
RTVSPropertyOp14
 70
     1
102
RTVSPropertyOp15
 70
     1
102
RTVSPropertyOp16
 70
     1
102
RTVSPropertyOp17
 70
     1
102
RTVSPropertyOp18
 70
     1
102
RTVSPropertyOp19
 70
     1
102
RTVSPropertyOp20
 70
     1
102
RTVSPropertyOp21
 70
     1
102
RTVSPropertyOp22
 70
     1
102
RTVSPropertyOp23
 70
     1
102
RTVSPropertyOp24
 70
     1
102
RTVSPropertyOp25
 70
     1
102
RTVSPropertyOp26
 70
     1
102
RTVSPropertyOp27
 70
     1
102
RTVSPropertyOp28
 70
     1
102
RTVSPropertyOp29
 70
     1
102
RTVSPropertyOp30
 70
     1
102
RTVSPropertyOp31
 70
     1
102
RTVSPropertyOp32
 70
     1
102
RTVSPropertyOp33
 70
     1
102
RTVSPropertyOp34
 70
     1
102
RTVSPropertyOp35
 70
     1
102
RTVSPropertyOp36
 70
     1
102
RTVSPropertyOp37
 70
     1
102
RTVSPropertyOp38
 70
     1
102
RTVSPropertyOp39
 70
     1
102
RTVSPropertyOp40
 70
     1
102
RTVSPropertyOp41
 70
     1
102
RTVSPropertyOp42
 70
     1
102
RTVSPropertyOp43
 70
     1
102
RTVSPropertyOp44
 70
     1
102
RTVSPropertyOp45
 70
     1
102
RTVSPropertyOp46
 70
     1
102
RTVSPropertyOp47
 70
     1
102
RTVSPropertyOp48
 70
     1
102
RTVSPropertyOp49
 70
     1
102
RTVSPropertyOp50
 70
     1
102
RTVSPropertyOp51
 70
     0
102
RTVSPropertyOp52
 70
     0
102
RTVSPropertyOp53
 70
     1
102
RTVSPropertyOp54
 70
     1
102
RTVSPropertyOp55
 70
     1
102
RTVSPropertyOp56
 70
     1
102
RTVSPropertyOp57
 70
     1
102
RTVSPropertyOp58
 70
     1
102
RTVSPropertyOp59
 70
     1
102
RTVSPropertyOp60
 70
     1
102
RTVSPropertyOp61
 70
     1
102
RTVSPropertyOp62
 70
     1
  0
XRECORD
  5
B3D1
102
{ACAD_REACTORS
330
B3D0
102
}
330
B3D0
100
AcDbXrecord
280
     1
102
RTVSPost2010Prop28
280
     0
102
RTVSPost2010PropOp28
 70
     1
102
RTVSPost2010Prop29
280
     1
102
RTVSPost2010PropOp29
 70
     1
102
RTVSPost2010Prop30
280
     1
102
RTVSPost2010PropOp30
 70
     1
102
RTVSPost2010Prop31
280
     0
102
RTVSPost2010PropOp31
 70
     1
102
RTVSPost2010Prop32
280
     0
102
RTVSPost2010PropOp32
 70
     1
102
RTVSPost2010Prop33
280
     0
102
RTVSPost2010PropOp33
 70
     1
102
RTVSPost2010Prop34
280
     0
102
RTVSPost2010PropOp34
 70
     1
102
RTVSPost2010Prop35
280
     0
102
RTVSPost2010PropOp35
 70
     1
102
RTVSPost2010Prop36
280
     0
102
RTVSPost2010PropOp36
 70
     1
102
RTVSPost2010Prop37
 90
       50
102
RTVSPost2010PropOp37
 70
     1
102
RTVSPost2010Prop38
140
0.0
102
RTVSPost2010PropOp38
 70
     1
102
RTVSPost2010Prop39
140
1.0
102
RTVSPost2010PropOp39
 70
     1
102
RTVSPost2010Prop40
 90
        0
102
RTVSPost2010PropOp40
 70
     1
102
RTVSPost2010Prop41ColorIndex
 90
       18
102
RTVSPost2010Prop41ColorRGB
 90
        0
102
RTVSPost2010PropOp41
 70
     1
102
RTVSPost2010Prop42
 90
       50
102
RTVSPost2010PropOp42
 70
     1
102
RTVSPost2010Prop43
 90
        3
102
RTVSPost2010PropOp43
 70
     1
102
RTVSPost2010Prop44ColorIndex
 90
        5
102
RTVSPost2010Prop44ColorRGB
 90
      255
102
RTVSPost2010PropOp44
 70
     1
102
RTVSPost2010Prop45
280
     0
102
RTVSPost2010PropOp45
 70
     1
102
RTVSPost2010Prop46
 90
       50
102
RTVSPost2010PropOp46
 70
     1
102
RTVSPost2010Prop47
 90
       50
102
RTVSPost2010PropOp47
 70
     1
102
RTVSPost2010Prop48
 90
       50
102
RTVSPost2010PropOp48
 70
     1
102
RTVSPost2010Prop49
280
     0
102
RTVSPost2010PropOp49
 70
     1
102
RTVSPost2010Prop50
 90
       50
102
RTVSPost2010PropOp50
 70
     1
102
RTVSPost2010Prop51ColorIndex
 90
      256
102
RTVSPost2010Prop51ColorRGB
 90
-16777216
102
RTVSPost2010PropOp51
 70
     0
102
RTVSPost2010Prop52
140
1.0
102
RTVSPost2010PropOp52
 70
     0
102
RTVSPost2010Prop53
 90
        2
102
RTVSPost2010PropOp53
 70
     1
102
RTVSPost2010Prop54
  1
strokes_ogs.tif
102
RTVSPost2010PropOp54
 70
     1
102
RTVSPost2010Prop55
280
     0
102
RTVSPost2010PropOp55
 70
     1
102
RTVSPost2010Prop56
140
1.0
102
RTVSPost2010PropOp56
 70
     1
102
RTVSPost2010Prop57
140
1.0
102
RTVSPost2010PropOp57
 70
     1
102
RTVSPropertyOp0
 70
     1
102
RTVSPropertyOp1
 70
     1
102
RTVSPropertyOp2
 70
     1
102
RTVSPropertyOp3
 70
     1
102
RTVSPropertyOp4
 70
     1
102
RTVSPropertyOp5
 70
     1
102
RTVSPropertyOp6
 70
     1
102
RTVSPropertyOp7
 70
     1
102
RTVSPropertyOp8
 70
     1
102
RTVSPropertyOp9
 70
     1
102
RTVSPropertyOp10
 70
     1
102
RTVSPropertyOp11
 70
     1
102
RTVSPropertyOp12
 70
     1
102
RTVSPropertyOp13
 70
     1
102
RTVSPropertyOp14
 70
     1
102
RTVSPropertyOp15
 70
     1
102
RTVSPropertyOp16
 70
     1
102
RTVSPropertyOp17
 70
     1
102
RTVSPropertyOp18
 70
     1
102
RTVSPropertyOp19
 70
     1
102
RTVSPropertyOp20
 70
     1
102
RTVSPropertyOp21
 70
     1
102
RTVSPropertyOp22
 70
     1
102
RTVSPropertyOp23
 70
     1
102
RTVSPropertyOp24
 70
     1
102
RTVSPropertyOp25
 70
     1
102
RTVSPropertyOp26
 70
     1
102
RTVSPropertyOp27
 70
     1
102
RTVSPropertyOp28
 70
     1
102
RTVSPropertyOp29
 70
     1
102
RTVSPropertyOp30
 70
     1
102
RTVSPropertyOp31
 70
     1
102
RTVSPropertyOp32
 70
     1
102
RTVSPropertyOp33
 70
     1
102
RTVSPropertyOp34
 70
     1
102
RTVSPropertyOp35
 70
     1
102
RTVSPropertyOp36
 70
     1
102
RTVSPropertyOp37
 70
     1
102
RTVSPropertyOp38
 70
     1
102
RTVSPropertyOp39
 70
     1
102
RTVSPropertyOp40
 70
     1
102
RTVSPropertyOp41
 70
     1
102
RTVSPropertyOp42
 70
     1
102
RTVSPropertyOp43
 70
     1
102
RTVSPropertyOp44
 70
     1
102
RTVSPropertyOp45
 70
     1
102
RTVSPropertyOp46
 70
     1
102
RTVSPropertyOp47
 70
     1
102
RTVSPropertyOp48
 70
     1
102
RTVSPropertyOp49
 70
     1
102
RTVSPropertyOp50
 70
     1
102
RTVSPropertyOp51
 70
     0
102
RTVSPropertyOp52
 70
     0
102
RTVSPropertyOp53
 70
     1
102
RTVSPropertyOp54
 70
     1
102
RTVSPropertyOp55
 70
     1
102
RTVSPropertyOp56
 70
     1
102
RTVSPropertyOp57
 70
     1
102
RTVSPropertyOp58
 70
     1
102
RTVSPropertyOp59
 70
     1
102
RTVSPropertyOp60
 70
     1
102
RTVSPropertyOp61
 70
     1
102
RTVSPropertyOp62
 70
     1
  0
XRECORD
  5
B3C5
102
{ACAD_REACTORS
330
B3C4
102
}
330
B3C4
100
AcDbXrecord
280
     1
102
RTVSPost2010Prop28
280
     0
102
RTVSPost2010PropOp28
 70
     1
102
RTVSPost2010Prop29
280
     1
102
RTVSPost2010PropOp29
 70
     1
102
RTVSPost2010Prop30
280
     1
102
RTVSPost2010PropOp30
 70
     1
102
RTVSPost2010Prop31
280
     0
102
RTVSPost2010PropOp31
 70
     1
102
RTVSPost2010Prop32
280
     0
102
RTVSPost2010PropOp32
 70
     1
102
RTVSPost2010Prop33
280
     0
102
RTVSPost2010PropOp33
 70
     1
102
RTVSPost2010Prop34
280
     0
102
RTVSPost2010PropOp34
 70
     1
102
RTVSPost2010Prop35
280
     0
102
RTVSPost2010PropOp35
 70
     1
102
RTVSPost2010Prop36
280
     0
102
RTVSPost2010PropOp36
 70
     1
102
RTVSPost2010Prop37
 90
       50
102
RTVSPost2010PropOp37
 70
     1
102
RTVSPost2010Prop38
140
0.0
102
RTVSPost2010PropOp38
 70
     1
102
RTVSPost2010Prop39
140
1.0
102
RTVSPost2010PropOp39
 70
     1
102
RTVSPost2010Prop40
 90
        0
102
RTVSPost2010PropOp40
 70
     1
102
RTVSPost2010Prop41ColorIndex
 90
       18
102
RTVSPost2010Prop41ColorRGB
 90
        0
102
RTVSPost2010PropOp41
 70
     1
102
RTVSPost2010Prop42
 90
       50
102
RTVSPost2010PropOp42
 70
     1
102
RTVSPost2010Prop43
 90
        3
102
RTVSPost2010PropOp43
 70
     1
102
RTVSPost2010Prop44ColorIndex
 90
        5
102
RTVSPost2010Prop44ColorRGB
 90
      255
102
RTVSPost2010PropOp44
 70
     1
102
RTVSPost2010Prop45
280
     0
102
RTVSPost2010PropOp45
 70
     1
102
RTVSPost2010Prop46
 90
       50
102
RTVSPost2010PropOp46
 70
     1
102
RTVSPost2010Prop47
 90
       50
102
RTVSPost2010PropOp47
 70
     1
102
RTVSPost2010Prop48
 90
       50
102
RTVSPost2010PropOp48
 70
     1
102
RTVSPost2010Prop49
280
     0
102
RTVSPost2010PropOp49
 70
     1
102
RTVSPost2010Prop50
 90
       50
102
RTVSPost2010PropOp50
 70
     1
102
RTVSPost2010Prop51ColorIndex
 90
      256
102
RTVSPost2010Prop51ColorRGB
 90
-16777216
102
RTVSPost2010PropOp51
 70
     0
102
RTVSPost2010Prop52
140
1.0
102
RTVSPost2010PropOp52
 70
     0
102
RTVSPost2010Prop53
 90
        2
102
RTVSPost2010PropOp53
 70
     1
102
RTVSPost2010Prop54
  1
strokes_ogs.tif
102
RTVSPost2010PropOp54
 70
     1
102
RTVSPost2010Prop55
280
     0
102
RTVSPost2010PropOp55
 70
     1
102
RTVSPost2010Prop56
140
1.0
102
RTVSPost2010PropOp56
 70
     1
102
RTVSPost2010Prop57
140
1.0
102
RTVSPost2010PropOp57
 70
     1
102
RTVSPropertyOp0
 70
     1
102
RTVSPropertyOp1
 70
     1
102
RTVSPropertyOp2
 70
     1
102
RTVSPropertyOp3
 70
     1
102
RTVSPropertyOp4
 70
     1
102
RTVSPropertyOp5
 70
     1
102
RTVSPropertyOp6
 70
     1
102
RTVSPropertyOp7
 70
     1
102
RTVSPropertyOp8
 70
     1
102
RTVSPropertyOp9
 70
     1
102
RTVSPropertyOp10
 70
     1
102
RTVSPropertyOp11
 70
     1
102
RTVSPropertyOp12
 70
     1
102
RTVSPropertyOp13
 70
     1
102
RTVSPropertyOp14
 70
     1
102
RTVSPropertyOp15
 70
     1
102
RTVSPropertyOp16
 70
     1
102
RTVSPropertyOp17
 70
     1
102
RTVSPropertyOp18
 70
     1
102
RTVSPropertyOp19
 70
     1
102
RTVSPropertyOp20
 70
     1
102
RTVSPropertyOp21
 70
     1
102
RTVSPropertyOp22
 70
     1
102
RTVSPropertyOp23
 70
     1
102
RTVSPropertyOp24
 70
     1
102
RTVSPropertyOp25
 70
     1
102
RTVSPropertyOp26
 70
     1
102
RTVSPropertyOp27
 70
     1
102
RTVSPropertyOp28
 70
     1
102
RTVSPropertyOp29
 70
     1
102
RTVSPropertyOp30
 70
     1
102
RTVSPropertyOp31
 70
     1
102
RTVSPropertyOp32
 70
     1
102
RTVSPropertyOp33
 70
     1
102
RTVSPropertyOp34
 70
     1
102
RTVSPropertyOp35
 70
     1
102
RTVSPropertyOp36
 70
     1
102
RTVSPropertyOp37
 70
     1
102
RTVSPropertyOp38
 70
     1
102
RTVSPropertyOp39
 70
     1
102
RTVSPropertyOp40
 70
     1
102
RTVSPropertyOp41
 70
     1
102
RTVSPropertyOp42
 70
     1
102
RTVSPropertyOp43
 70
     1
102
RTVSPropertyOp44
 70
     1
102
RTVSPropertyOp45
 70
     1
102
RTVSPropertyOp46
 70
     1
102
RTVSPropertyOp47
 70
     1
102
RTVSPropertyOp48
 70
     1
102
RTVSPropertyOp49
 70
     1
102
RTVSPropertyOp50
 70
     1
102
RTVSPropertyOp51
 70
     0
102
RTVSPropertyOp52
 70
     0
102
RTVSPropertyOp53
 70
     1
102
RTVSPropertyOp54
 70
     1
102
RTVSPropertyOp55
 70
     1
102
RTVSPropertyOp56
 70
     1
102
RTVSPropertyOp57
 70
     1
102
RTVSPropertyOp58
 70
     1
102
RTVSPropertyOp59
 70
     1
102
RTVSPropertyOp60
 70
     1
102
RTVSPropertyOp61
 70
     1
102
RTVSPropertyOp62
 70
     1
  0
XRECORD
  5
B3DD
102
{ACAD_REACTORS
330
B3DC
102
}
330
B3DC
100
AcDbXrecord
280
     1
102
RTVSPost2010Prop28
280
     0
102
RTVSPost2010PropOp28
 70
     1
102
RTVSPost2010Prop29
280
     1
102
RTVSPost2010PropOp29
 70
     1
102
RTVSPost2010Prop30
280
     1
102
RTVSPost2010PropOp30
 70
     1
102
RTVSPost2010Prop31
280
     0
102
RTVSPost2010PropOp31
 70
     1
102
RTVSPost2010Prop32
280
     0
102
RTVSPost2010PropOp32
 70
     1
102
RTVSPost2010Prop33
280
     0
102
RTVSPost2010PropOp33
 70
     1
102
RTVSPost2010Prop34
280
     0
102
RTVSPost2010PropOp34
 70
     1
102
RTVSPost2010Prop35
280
     0
102
RTVSPost2010PropOp35
 70
     1
102
RTVSPost2010Prop36
280
     0
102
RTVSPost2010PropOp36
 70
     1
102
RTVSPost2010Prop37
 90
       50
102
RTVSPost2010PropOp37
 70
     1
102
RTVSPost2010Prop38
140
0.0
102
RTVSPost2010PropOp38
 70
     1
102
RTVSPost2010Prop39
140
1.0
102
RTVSPost2010PropOp39
 70
     1
102
RTVSPost2010Prop40
 90
        0
102
RTVSPost2010PropOp40
 70
     1
102
RTVSPost2010Prop41ColorIndex
 90
       18
102
RTVSPost2010Prop41ColorRGB
 90
        0
102
RTVSPost2010PropOp41
 70
     1
102
RTVSPost2010Prop42
 90
       50
102
RTVSPost2010PropOp42
 70
     1
102
RTVSPost2010Prop43
 90
        3
102
RTVSPost2010PropOp43
 70
     1
102
RTVSPost2010Prop44ColorIndex
 90
        5
102
RTVSPost2010Prop44ColorRGB
 90
      255
102
RTVSPost2010PropOp44
 70
     1
102
RTVSPost2010Prop45
280
     0
102
RTVSPost2010PropOp45
 70
     1
102
RTVSPost2010Prop46
 90
       50
102
RTVSPost2010PropOp46
 70
     1
102
RTVSPost2010Prop47
 90
       50
102
RTVSPost2010PropOp47
 70
     1
102
RTVSPost2010Prop48
 90
       50
102
RTVSPost2010PropOp48
 70
     1
102
RTVSPost2010Prop49
280
     0
102
RTVSPost2010PropOp49
 70
     1
102
RTVSPost2010Prop50
 90
       50
102
RTVSPost2010PropOp50
 70
     1
102
RTVSPost2010Prop51ColorIndex
 90
      256
102
RTVSPost2010Prop51ColorRGB
 90
-16777216
102
RTVSPost2010PropOp51
 70
     0
102
RTVSPost2010Prop52
140
1.0
102
RTVSPost2010PropOp52
 70
     0
102
RTVSPost2010Prop53
 90
        2
102
RTVSPost2010PropOp53
 70
     1
102
RTVSPost2010Prop54
  1
strokes_ogs.tif
102
RTVSPost2010PropOp54
 70
     1
102
RTVSPost2010Prop55
280
     0
102
RTVSPost2010PropOp55
 70
     1
102
RTVSPost2010Prop56
140
1.0
102
RTVSPost2010PropOp56
 70
     1
102
RTVSPost2010Prop57
140
1.0
102
RTVSPost2010PropOp57
 70
     1
102
RTVSPropertyOp0
 70
     1
102
RTVSPropertyOp1
 70
     1
102
RTVSPropertyOp2
 70
     1
102
RTVSPropertyOp3
 70
     1
102
RTVSPropertyOp4
 70
     1
102
RTVSPropertyOp5
 70
     1
102
RTVSPropertyOp6
 70
     1
102
RTVSPropertyOp7
 70
     1
102
RTVSPropertyOp8
 70
     1
102
RTVSPropertyOp9
 70
     1
102
RTVSPropertyOp10
 70
     1
102
RTVSPropertyOp11
 70
     1
102
RTVSPropertyOp12
 70
     1
102
RTVSPropertyOp13
 70
     1
102
RTVSPropertyOp14
 70
     1
102
RTVSPropertyOp15
 70
     1
102
RTVSPropertyOp16
 70
     1
102
RTVSPropertyOp17
 70
     1
102
RTVSPropertyOp18
 70
     1
102
RTVSPropertyOp19
 70
     1
102
RTVSPropertyOp20
 70
     1
102
RTVSPropertyOp21
 70
     1
102
RTVSPropertyOp22
 70
     1
102
RTVSPropertyOp23
 70
     1
102
RTVSPropertyOp24
 70
     1
102
RTVSPropertyOp25
 70
     1
102
RTVSPropertyOp26
 70
     1
102
RTVSPropertyOp27
 70
     1
102
RTVSPropertyOp28
 70
     1
102
RTVSPropertyOp29
 70
     1
102
RTVSPropertyOp30
 70
     1
102
RTVSPropertyOp31
 70
     1
102
RTVSPropertyOp32
 70
     1
102
RTVSPropertyOp33
 70
     1
102
RTVSPropertyOp34
 70
     1
102
RTVSPropertyOp35
 70
     1
102
RTVSPropertyOp36
 70
     1
102
RTVSPropertyOp37
 70
     1
102
RTVSPropertyOp38
 70
     1
102
RTVSPropertyOp39
 70
     1
102
RTVSPropertyOp40
 70
     1
102
RTVSPropertyOp41
 70
     1
102
RTVSPropertyOp42
 70
     1
102
RTVSPropertyOp43
 70
     1
102
RTVSPropertyOp44
 70
     1
102
RTVSPropertyOp45
 70
     1
102
RTVSPropertyOp46
 70
     1
102
RTVSPropertyOp47
 70
     1
102
RTVSPropertyOp48
 70
     1
102
RTVSPropertyOp49
 70
     1
102
RTVSPropertyOp50
 70
     1
102
RTVSPropertyOp51
 70
     0
102
RTVSPropertyOp52
 70
     0
102
RTVSPropertyOp53
 70
     1
102
RTVSPropertyOp54
 70
     1
102
RTVSPropertyOp55
 70
     1
102
RTVSPropertyOp56
 70
     1
102
RTVSPropertyOp57
 70
     1
102
RTVSPropertyOp58
 70
     1
102
RTVSPropertyOp59
 70
     1
102
RTVSPropertyOp60
 70
     1
102
RTVSPropertyOp61
 70
     1
102
RTVSPropertyOp62
 70
     1
  0
ENDSEC
  0
EOF
